  0
SECTION
  2
HEADER
  9
$ACADVER
  1
AC1009
  9
$INSBASE
 10
0.0
 20
0.0
 30
0.0
  9
$EXTMIN
 10
-450.02746372486871
 20
-673.91620263281231
 30
-0.0015258207003583
  9
$EXTMAX
 10
450.02746791582013
 20
664.16801378504169
 30
0.0000000349246037
  9
$LIMMIN
 10
0.0
 20
0.0
  9
$LIMMAX
 10
0.0
 20
0.0
  9
$ORTHOMODE
 70
     0
  9
$REGENMODE
 70
     1
  9
$FILLMODE
 70
     1
  9
$QTEXTMODE
 70
     0
  9
$MIRRTEXT
 70
     1
  9
$DRAGMODE
 70
     2
  9
$LTSCALE
 40
25.399999999999999
  9
$OSMODE
 70
   231
  9
$ATTMODE
 70
     1
  9
$TEXTSIZE
 40
0.0
  9
$TRACEWID
 40
1.0
  9
$TEXTSTYLE
  7
STANDARD
  9
$CLAYER
  8
DATA
  9
$CELTYPE
  6
BYLAYER
  9
$CECOLOR
 62
   256
  9
$DIMSCALE
 40
1.0
  9
$DIMASZ
 40
0.18
  9
$DIMEXO
 40
0.0625
  9
$DIMDLI
 40
0.38
  9
$DIMRND
 40
0.0
  9
$DIMDLE
 40
0.0
  9
$DIMEXE
 40
0.18
  9
$DIMTP
 40
0.0
  9
$DIMTM
 40
0.0
  9
$DIMTXT
 40
0.18
  9
$DIMCEN
 40
0.09
  9
$DIMTSZ
 40
0.0
  9
$DIMTOL
 70
     0
  9
$DIMLIM
 70
     0
  9
$DIMTIH
 70
     1
  9
$DIMTOH
 70
     1
  9
$DIMSE1
 70
     0
  9
$DIMSE2
 70
     0
  9
$DIMTAD
 70
     0
  9
$DIMZIN
 70
     0
  9
$DIMBLK
  1

  9
$DIMASO
 70
     1
  9
$DIMSHO
 70
     1
  9
$DIMPOST
  1

  9
$DIMAPOST
  1

  9
$DIMALT
 70
     0
  9
$DIMALTD
 70
     2
  9
$DIMALTF
 40
25.399999999999999
  9
$DIMLFAC
 40
1.0
  9
$DIMTOFL
 70
     0
  9
$DIMTVP
 40
0.0
  9
$DIMTIX
 70
     0
  9
$DIMSOXD
 70
     0
  9
$DIMSAH
 70
     0
  9
$DIMBLK1
  1

  9
$DIMBLK2
  1

  9
$DIMSTYLE
  2
STANDARD
  9
$DIMCLRD
 70
     0
  9
$DIMCLRE
 70
     0
  9
$DIMCLRT
 70
     0
  9
$DIMTFAC
 40
1.0
  9
$DIMGAP
 40
0.09
  9
$LUNITS
 70
     2
  9
$LUPREC
 70
     4
  9
$SKETCHINC
 40
0.1
  9
$FILLETRAD
 40
0.0
  9
$AUNITS
 70
     0
  9
$AUPREC
 70
     0
  9
$MENU
  1
acad
  9
$ELEVATION
 40
0.0
  9
$PELEVATION
 40
0.0
  9
$THICKNESS
 40
0.0
  9
$LIMCHECK
 70
     0
  9
$BLIPMODE
 70
     0
  9
$CHAMFERA
 40
0.0
  9
$CHAMFERB
 40
0.0
  9
$SKPOLY
 70
     0
  9
$TDCREATE
 40
2456148.7036458328
  9
$TDUPDATE
 40
2456148.7130527669
  9
$TDINDWG
 40
0.0003396644
  9
$TDUSRTIMER
 40
0.0003396644
  9
$USRTIMER
 70
     1
  9
$ANGBASE
 50
0.0
  9
$ANGDIR
 70
     0
  9
$PDMODE
 70
     1
  9
$PDSIZE
 40
-2.0
  9
$PLINEWID
 40
0.0
  9
$COORDS
 70
     2
  9
$SPLFRAME
 70
     0
  9
$SPLINETYPE
 70
     6
  9
$SPLINESEGS
 70
     8
  9
$ATTDIA
 70
     0
  9
$ATTREQ
 70
     1
  9
$HANDLING
 70
     1
  9
$HANDSEED
  5
6B4
  9
$SURFTAB1
 70
     6
  9
$SURFTAB2
 70
     6
  9
$SURFTYPE
 70
     6
  9
$SURFU
 70
     6
  9
$SURFV
 70
     6
  9
$UCSNAME
  2

  9
$UCSORG
 10
0.0
 20
0.0
 30
0.0
  9
$UCSXDIR
 10
1.0
 20
0.0
 30
0.0
  9
$UCSYDIR
 10
0.0
 20
1.0
 30
0.0
  9
$PUCSNAME
  2

  9
$PUCSORG
 10
0.0
 20
0.0
 30
0.0
  9
$PUCSXDIR
 10
1.0
 20
0.0
 30
0.0
  9
$PUCSYDIR
 10
0.0
 20
1.0
 30
0.0
  9
$USERI1
 70
     0
  9
$USERI2
 70
     0
  9
$USERI3
 70
     0
  9
$USERI4
 70
     0
  9
$USERI5
 70
     0
  9
$USERR1
 40
0.0
  9
$USERR2
 40
0.0
  9
$USERR3
 40
0.0
  9
$USERR4
 40
0.0
  9
$USERR5
 40
0.0
  9
$WORLDVIEW
 70
     1
  9
$SHADEDGE
 70
     3
  9
$SHADEDIF
 70
    70
  9
$TILEMODE
 70
     1
  9
$MAXACTVP
 70
    64
  9
$PLIMCHECK
 70
     0
  9
$PEXTMIN
 10
1.0000000000000000E+020
 20
1.0000000000000000E+020
 30
1.0000000000000000E+020
  9
$PEXTMAX
 10
-1.0000000000000000E+020
 20
-1.0000000000000000E+020
 30
-1.0000000000000000E+020
  9
$PLIMMIN
 10
0.0
 20
0.0
  9
$PLIMMAX
 10
12.0
 20
9.0
  9
$UNITMODE
 70
     0
  9
$VISRETAIN
 70
     0
  9
$PLINEGEN
 70
     1
  9
$PSLTSCALE
 70
     0
  0
ENDSEC
  0
SECTION
  2
TABLES
  0
TABLE
  2
VPORT
 70
     1
  0
VPORT
  2
*ACTIVE
 70
     0
 10
0.0
 20
0.0
 11
1.0
 21
1.0
 12
0.0000020954755655
 22
-3.5318118909701748
 13
0.0
 23
0.0
 14
1.0
 24
1.0
 15
0.0
 25
0.0
 16
0.0
 26
0.0
 36
1.0
 17
0.0
 27
0.0
 37
0.0
 40
1345.9284265269409
 41
2.1881578947368419
 42
50.0
 43
0.0
 44
0.0
 50
0.0
 51
0.0
 71
     0
 72
  2000
 73
     1
 74
     1
 75
     0
 76
     0
 77
     0
 78
     0
  0
ENDTAB
  0
TABLE
  2
LTYPE
 70
    12
  0
LTYPE
  2
CONTINUOUS
 70
     0
  3
Solid line
 72
    65
 73
     0
 40
0.0
  0
LTYPE
  2
PHANTOM2
 70
     0
  3
___ _ _ ___ _ _ ___ _ _ ___ _ _
 72
    65
 73
     6
 40
1.25
 49
0.625
 49
-0.125
 49
0.125
 49
-0.125
 49
0.125
 49
-0.125
  0
ENDTAB
  0
TABLE
  2
LAYER
 70
     5
  0
LAYER
  2
0
 70
     0
 62
     7
  6
CONTINUOUS
  0
LAYER
  2
DATA
 70
     0
 62
     7
  6
CONTINUOUS
  0
LAYER
  2
HIBINO-BASE
 70
     0
 62
     7
  6
CONTINUOUS
  0
LAYER
  2
SPEC
 70
     0
 62
     7
  6
CONTINUOUS
  0
LAYER
  2
DIMNSIONS
 70
     0
 62
     7
  6
CONTINUOUS
  0
ENDTAB
  0
TABLE
  2
STYLE
 70
     3
  0
STYLE
  2
STANDARD
 70
     0
 40
0.0
 41
1.0
 50
0.0
 71
     0
 42
0.0
  3
txt
  4
BIGFONT.SHX
  0
ENDTAB
  0
TABLE
  2
VIEW
 70
     0
  0
ENDTAB
  0
TABLE
  2
UCS
 70
     0
  0
ENDTAB
  0
TABLE
  2
APPID
 70
     4
  0
APPID
  2
ACAD
 70
     0
  0
APPID
  2
ACADANNOTATIVE
 70
     0
  0
APPID
  2
ACAD_NAV_VCDISPLAY
 70
     0
  0
APPID
  2
ACAD_MLEADERVER
 70
     0
  0
ENDTAB
  0
TABLE
  2
DIMSTYLE
 70
     2
  0
DIMSTYLE
  2
STANDARD
 70
     0
  3

  4

  5

  6

  7

 40
1.0
 41
0.18
 42
0.0625
 43
0.38
 44
0.18
 45
0.0
 46
0.0
 47
0.0
 48
0.0
140
0.18
141
0.09
142
0.0
143
25.399999999999999
144
1.0
145
0.0
146
1.0
147
0.09
 71
     0
 72
     0
 73
     1
 74
     1
 75
     0
 76
     0
 77
     0
 78
     0
170
     0
171
     2
172
     0
173
     0
174
     0
175
     0
176
     0
177
     0
178
     0
  0
ENDTAB
  0
ENDSEC
  0
SECTION
  2
BLOCKS
  0
BLOCK
  8
0
  2
$MODEL_SPACE
 70
     0
 10
0.0
 20
0.0
 30
0.0
  3
$MODEL_SPACE
  1

  0
ENDBLK
  5
53C
  8
0
  0
BLOCK
 67
     1
  8
0
  2
$PAPER_SPACE
 70
     0
 10
0.0
 20
0.0
 30
0.0
  3
$PAPER_SPACE
  1

  0
ENDBLK
  5
538
 67
     1
  8
0
  0
ENDSEC
  0
SECTION
  2
ENTITIES
  0
LINE
  5
2C
  8
HIBINO-BASE
  6
CONTINUOUS
 62
     7
 10
-450.0
 20
664.12725999999986
 30
0.0
 11
450.0
 21
664.12725999999986
 31
0.0
  0
LINE
  5
2D
  8
HIBINO-BASE
  6
CONTINUOUS
 62
     7
 10
450.0
 20
-635.87274000000002
 30
0.0
 11
-450.0
 21
-635.87274000000002
 31
0.0
  0
LINE
  5
2E
  8
HIBINO-BASE
  6
CONTINUOUS
 62
     7
 10
-450.0
 20
-635.87274000000002
 30
0.0
 11
-450.0
 21
664.12725999999986
 31
0.0
  0
TEXT
  5
2F
  8
HIBINO-BASE
 62
     7
 10
-414.07999999999993
 20
-667.91612899999984
 30
0.0
 40
18.00022089843749
  1
Hibino Corporation
 41
0.7
 11
-414.07999999999993
 21
-649.91590810156231
 31
0.0
 73
     3
  0
LINE
  5
30
  8
HIBINO-BASE
  6
CONTINUOUS
 62
     7
 10
450.0
 20
664.12725999999986
 30
0.0
 11
450.0
 21
-635.87274000000002
 31
0.0
  0
LINE
  5
31
  8
HIBINO-BASE
  6
CONTINUOUS
 62
     7
 10
0.0
 20
-523.37274000000002
 30
0.0
 11
450.0
 21
-523.37274000000002
 31
0.0
  0
LINE
  5
32
  8
HIBINO-BASE
  6
CONTINUOUS
 62
     7
 10
0.0
 20
-635.87274000000002
 30
0.0
 11
0.0
 21
-523.37274000000002
 31
0.0
  0
TEXT
  5
33
  8
HIBINO-BASE
 62
     7
 10
4.4999999999999991
 20
-535.91620666666665
 30
0.0
 40
8.1442057291666661
  1
NOTE
 41
0.7
 11
4.5
 21
-527.77200093750002
 31
0.0
 73
     3
  0
LINE
  5
34
  8
HIBINO-BASE
  6
CONTINUOUS
 62
     7
 10
175.0
 20
-635.87274000000002
 30
0.0
 11
175.0
 21
-523.37274000000002
 31
0.0
  0
TEXT
  5
35
  8
HIBINO-BASE
 62
     7
 10
179.5
 20
-535.91620666666665
 30
0.0
 40
8.1442057291666661
  1
TITLE
 41
0.7
 11
179.5
 21
-527.77200093750002
 31
0.0
 73
     3
  0
TEXT
  5
36
  8
HIBINO-BASE
 62
     7
 10
250.34195
 20
-667.91612899999984
 30
0.0
 40
18.00022089843749
  1
ヒビノ株式会社
 41
0.7
 11
250.34195
 21
-649.91590810156231
 31
0.0
 73
     3
  0
LINE
  5
37
  8
HIBINO-BASE
  6
CONTINUOUS
 62
     7
 10
0.0
 20
-585.87274000000002
 30
0.0
 11
450.0
 21
-585.87274000000002
 31
0.0
  0
TEXT
  5
38
  8
HIBINO-BASE
 62
     7
 10
242.0
 20
-598.13460666666663
 30
0.0
 40
8.1442057291666661
  1
DRAWN
 41
0.7
 11
242.0
 21
-589.99040093749989
 31
0.0
 73
     3
  0
TEXT
  5
39
  8
HIBINO-BASE
 62
     7
 10
117.0
 20
-598.13460666666663
 30
0.0
 40
8.1442057291666661
  1
DATE
 41
0.7
 11
117.0
 21
-589.99040093749989
 31
0.0
 73
     3
  0
TEXT
  5
3A
  8
HIBINO-BASE
 62
     7
 10
67.0
 20
-598.13460666666663
 30
0.0
 40
8.1442057291666661
  1
SCALE
 41
0.7
 11
67.0
 21
-589.99040093749989
 31
0.0
 73
     3
  0
TEXT
  5
3B
  8
HIBINO-BASE
 62
     7
 10
179.5
 20
-598.13460666666663
 30
0.0
 40
8.1442057291666661
  1
DESIGN
 41
0.7
 11
179.5
 21
-589.99040093749989
 31
0.0
 73
     3
  0
TEXT
  5
3C
  8
HIBINO-BASE
 62
     7
 10
367.0
 20
-598.13460666666663
 30
0.0
 40
8.1442057291666661
  1
DRAWING NO.
 41
0.7
 11
367.0
 21
-589.99040093749989
 31
0.0
 73
     3
  0
TEXT
  5
3D
  8
HIBINO-BASE
 62
     7
 10
304.49999999999989
 20
-598.13460666666663
 30
0.0
 40
8.1442057291666661
  1
CHECK
 41
0.7
 11
304.49999999999989
 21
-589.99040093749989
 31
0.0
 73
     3
  0
LINE
  5
3E
  8
HIBINO-BASE
  6
CONTINUOUS
 62
     7
 10
71.874999999999986
 20
-629.62274000000002
 30
0.0
 11
90.625
 21
-610.87274000000002
 31
0.0
  0
TEXT
  5
3F
  8
HIBINO-BASE
 62
     7
 10
68.749999999999986
 20
-616.41745666666645
 30
0.0
 40
8.1442057291666661
  1
1
 41
0.7
 11
68.749999999999986
 21
-608.27325093749982
 31
0.0
 73
     3
  0
LINE
  5
40
  8
HIBINO-BASE
  6
CONTINUOUS
 62
     7
 10
62.5
 20
-635.87274000000002
 30
0.0
 11
62.5
 21
-585.87274000000002
 31
0.0
  0
LINE
  5
41
  8
HIBINO-BASE
  6
CONTINUOUS
 62
     7
 10
112.5
 20
-635.87274000000002
 30
0.0
 11
112.5
 21
-585.87274000000002
 31
0.0
  0
LINE
  5
42
  8
HIBINO-BASE
  6
CONTINUOUS
 62
     7
 10
237.5
 20
-585.87274000000002
 30
0.0
 11
237.5
 21
-635.87274000000002
 31
0.0
  0
LINE
  5
43
  8
HIBINO-BASE
  6
CONTINUOUS
 62
     7
 10
362.5
 20
-585.87274000000002
 30
0.0
 11
362.5
 21
-635.87274000000002
 31
0.0
  0
LINE
  5
44
  8
HIBINO-BASE
  6
CONTINUOUS
 62
     7
 10
300.0
 20
-635.87274000000002
 30
0.0
 11
300.0
 21
-585.87274000000002
 31
0.0
  0
TEXT
  5
45
  8
HIBINO-BASE
 62
     7
 10
116.78270000000001
 20
-621.55450666666638
 30
0.0
 40
8.1442057291666661
  1
'12.08.
 41
0.7
 11
116.78270000000001
 21
-613.41030093749987
 31
0.0
 73
     3
  0
TEXT
  5
46
  8
HIBINO-BASE
 62
     7
 10
87.5
 20
-625.79245666666645
 30
0.0
 40
8.1442057291666661
  1
5
 41
0.7
 11
87.5
 21
-617.64825093749982
 31
0.0
 73
     3
  0
TEXT
  5
47
  8
HIBINO-BASE
 62
     7
 10
245.02905005517309
 20
-621.55450666666638
 30
0.0
 40
8.1442057291666661
  1
Ootake
 41
0.7
 11
245.02905005517309
 21
-613.41030093749987
 31
0.0
 73
     3
  0
TEXT
  5
48
  8
HIBINO-BASE
 62
     7
 10
19.416666666666739
 20
-625.99274000000014
 30
0.0
 40
16.288411458333329
  1
A4
 41
0.7
 11
19.416666666666739
 21
-609.70432854166665
 31
0.0
 73
     3
  0
TEXT
  5
49
  8
HIBINO-BASE
 62
     7
 10
4.791666666666659
 20
-598.97001499999965
 30
0.0
 40
8.1442057291666661
  1
PAPER SIZE
 41
0.7
 11
4.7916666666666599
 21
-590.82580927083313
 31
0.0
 73
     3
  0
LINE
  5
4A
  8
SPEC
  6
CONTINUOUS
 62
     7
 10
-412.5
 20
614.12725999999986
 30
0.0
 11
325.0
 21
614.12725999999986
 31
0.0
  0
LINE
  5
4B
  8
SPEC
  6
CONTINUOUS
 62
     7
 10
-200.0
 20
595.37725999999986
 30
0.0
 11
325.0
 21
595.37725999999986
 31
0.0
  0
LINE
  5
4C
  8
SPEC
  6
CONTINUOUS
 62
     7
 10
-297.5
 20
520.37725999999986
 30
0.0
 11
325.0
 21
520.37725999999986
 31
0.0
  0
LINE
  5
4D
  8
SPEC
  6
CONTINUOUS
 62
     7
 10
-200.0
 20
539.12725999999986
 30
0.0
 11
325.0
 21
539.12725999999986
 31
0.0
  0
LINE
  5
4E
  8
SPEC
  6
CONTINUOUS
 62
     7
 10
-200.0
 20
557.87725999999986
 30
0.0
 11
325.0
 21
557.87725999999986
 31
0.0
  0
LINE
  5
4F
  8
SPEC
  6
CONTINUOUS
 62
     7
 10
-200.0
 20
501.62725999999992
 30
0.0
 11
325.0
 21
501.62725999999992
 31
0.0
  0
LINE
  5
50
  8
SPEC
  6
CONTINUOUS
 62
     7
 10
-200.0
 20
464.12725999999992
 30
0.0
 11
325.0
 21
464.12725999999992
 31
0.0
  0
LINE
  5
51
  8
SPEC
  6
CONTINUOUS
 62
     7
 10
-292.53414270118151
 20
482.87725999999992
 30
0.0
 11
-292.49999999999989
 21
482.87725999999992
 31
0.0
  0
LINE
  5
52
  8
SPEC
  6
CONTINUOUS
 62
     7
 10
-200.0
 20
482.87725999999992
 30
0.0
 11
325.0
 21
482.87725999999992
 31
0.0
  0
LINE
  5
53
  8
SPEC
  6
CONTINUOUS
 62
     7
 10
-412.5
 20
445.37725999999992
 30
0.0
 11
325.0
 21
445.37725999999992
 31
0.0
  0
LINE
  5
54
  8
SPEC
  6
CONTINUOUS
 62
     7
 10
-200.0
 20
426.62725999999981
 30
0.0
 11
325.0
 21
426.62725999999981
 31
0.0
  0
LINE
  5
55
  8
SPEC
  6
CONTINUOUS
 62
     7
 10
-200.0
 20
576.62725999999986
 30
0.0
 11
325.0
 21
576.62725999999986
 31
0.0
  0
LINE
  5
56
  8
SPEC
  6
CONTINUOUS
 62
     7
 10
-412.5
 20
614.12725999999986
 30
0.0
 11
-412.5
 21
182.87725999999981
 31
0.0
  0
TEXT
  5
57
  8
SPEC
 62
     7
 10
-406.25
 20
621.09361000000001
 30
0.0
 40
12.21630859375
  1
仕様
 41
0.7
 11
-406.25
 21
633.3099185937499
 31
0.0
 73
     3
  0
LINE
  5
58
  8
SPEC
  6
CONTINUOUS
 62
     7
 10
-200.0
 20
614.12725999999986
 30
0.0
 11
-200.0
 21
182.87725999999981
 31
0.0
  0
LINE
  5
59
  8
SPEC
  6
CONTINUOUS
 62
     7
 10
325.0
 20
614.12725999999986
 30
0.0
 11
325.0
 21
182.87725999999981
 31
0.0
  0
TEXT
  5
5A
  8
SPEC
 62
     7
 10
-408.04987046790171
 20
188.35524516876791
 30
0.0
 40
9.5015562499999984
  1
付属品
 41
0.7
 11
-408.04987046790171
 21
197.8568014187679
 31
0.0
 73
     3
  0
TEXT
  5
5B
  8
SPEC
 62
     7
 10
-408.3761780136532
 20
225.73052443851941
 30
0.0
 40
9.5015562499999984
  1
寸法
 41
0.7
 11
-408.3761780136532
 21
235.2320806885194
 31
0.0
 73
     3
  0
TEXT
  5
5C
  8
SPEC
 62
     7
 10
-408.29023478294528
 20
206.44845305470639
 30
0.0
 40
9.5015562499999984
  1
重量
 41
0.7
 11
-408.29023478294528
 21
215.95000930470641
 31
0.0
 73
     3
  0
TEXT
  5
5D
  8
SPEC
 62
     7
 10
-196.77119327167259
 20
188.22781042866771
 30
0.0
 40
9.5015562499999984
  1
ゴム足\U+00D74(1シート)、ブロックコネクター、電源ケーブル
 41
0.7
 11
-196.77119327167259
 21
197.7293666786677
 31
0.0
 73
     3
  0
TEXT
  5
5E
  8
SPEC
 62
     7
 10
-195.33158662669069
 20
225.1086542694633
 30
0.0
 40
9.5015562499999984
  1
482(W)\U+00D745(H)\U+00D7180(D)mm
 41
0.7
 11
-195.33158662669069
 21
234.61021051946329
 31
0.0
 73
     3
  0
TEXT
  5
5F
  8
SPEC
 62
     7
 10
-195.67571575601161
 20
206.47666816161811
 30
0.0
 40
9.5015562499999984
  1
約2.8kg
 41
0.7
 11
-195.67571575601161
 21
215.9782244116181
 31
0.0
 73
     3
  0
TEXT
  5
60
  8
SPEC
 62
     7
 10
-408.20347133011722
 20
600.59130929709841
 30
0.0
 40
9.5015562499999984
  1
入力
 41
0.7
 11
-408.20347133011722
 21
610.09286554709843
 31
0.0
 73
     3
  0
TEXT
  5
61
  8
SPEC
 62
     7
 10
-196.19395261252859
 20
599.77947697657567
 30
0.0
 40
9.5015562499999984
  1
チャンネル数：4
 41
0.7
 11
-196.19395261252859
 21
609.2810332265758
 31
0.0
 73
     3
  0
TEXT
  5
62
  8
SPEC
 62
     7
 10
-195.81811344555479
 20
581.43489077871322
 30
0.0
 40
9.5015562499999984
  1
端子・形式：XLR、電子バランス
 41
0.7
 11
-195.81811344555479
 21
590.93644702871325
 31
0.0
 73
     3
  0
TEXT
  5
63
  8
SPEC
 62
     7
 10
-196.05536910087071
 20
562.89582689864028
 30
0.0
 40
9.5015562499999984
  1
インピーダンス：8k\U+03A9
 41
0.7
 11
-196.05536910087071
 21
572.39738314864042
 31
0.0
 73
     3
  0
TEXT
  5
64
  8
SPEC
 62
     7
 10
-195.55282910261451
 20
544.35657457473962
 30
0.0
 40
9.5015562499999984
  1
最大レベル：+15dBu
 41
0.7
 11
-195.55282910261451
 21
553.85813082473965
 31
0.0
 73
     3
  0
TEXT
  5
65
  8
SPEC
 62
     7
 10
-196.9504592282602
 20
525.23401500097975
 30
0.0
 40
9.5015562499999984
  1
ファンタム電源：48V
 41
0.7
 11
-196.9504592282602
 21
534.73557125097989
 31
0.0
 73
     3
  0
TEXT
  5
66
  8
SPEC
 62
     7
 10
-196.10508092805711
 20
505.80674768391663
 30
0.0
 40
9.5015562499999984
  1
チャンネル数：2(ステレオ)
 41
0.7
 11
-196.10508092805711
 21
515.3083039339167
 31
0.0
 73
     3
  0
TEXT
  5
67
  8
SPEC
 62
     7
 10
-195.5811611334878
 20
488.12138720416738
 30
0.0
 40
9.5015562499999984
  1
端子・形式：RCA、アンバランス
 41
0.7
 11
-195.5811611334878
 21
497.62294345416728
 31
0.0
 73
     3
  0
TEXT
  5
68
  8
SPEC
 62
     7
 10
-196.1508433200531
 20
469.45079980398702
 30
0.0
 40
9.5015562499999984
  1
インピーダンス：15k\U+03A9
 41
0.7
 11
-196.1508433200531
 21
478.95235605398688
 31
0.0
 73
     3
  0
TEXT
  5
69
  8
SPEC
 62
     7
 10
-195.5543667743944
 20
450.67186369752409
 30
0.0
 40
9.5015562499999984
  1
最大レベル：+15dBu
 41
0.7
 11
-195.5543667743944
 21
460.17341994752422
 31
0.0
 73
     3
  0
TEXT
  5
6A
  8
SPEC
 62
     7
 10
-408.83985102321623
 20
431.52810373354828
 30
0.0
 40
9.5015562499999984
  1
出力
 41
0.7
 11
-408.83985102321623
 21
441.0296599835483
 31
0.0
 73
     3
  0
TEXT
  5
6B
  8
SPEC
 62
     7
 10
-196.2084599110878
 20
431.82375923560159
 30
0.0
 40
9.5015562499999984
  1
チャンネル数：1(ステレオ)
 41
0.7
 11
-196.2084599110878
 21
441.32531548560161
 31
0.0
 73
     3
  0
TEXT
  5
6C
  8
SPEC
 62
     7
 10
-195.66407814006351
 20
412.69325980752319
 30
0.0
 40
9.5015562499999984
  1
端子・形式：XLR、電子バランス
 41
0.7
 11
-195.66407814006351
 21
422.19481605752333
 31
0.0
 73
     3
  0
TEXT
  5
6D
  8
SPEC
 62
     7
 10
-196.21270726048891
 20
394.16320895955113
 30
0.0
 40
9.5015562499999984
  1
インピーダンス：100\U+03A9
 41
0.7
 11
-196.21270726048891
 21
403.66476520955109
 31
0.0
 73
     3
  0
TEXT
  5
6E
  8
SPEC
 62
     7
 10
-195.53668040425291
 20
375.10319826201601
 30
0.0
 40
9.5015562499999984
  1
最大レベル：+10dBu
 41
0.7
 11
-195.53668040425291
 21
384.60475451201597
 31
0.0
 73
     3
  0
LINE
  5
6F
  8
SPEC
  6
CONTINUOUS
 62
     7
 10
-200.0
 20
407.87725999999981
 30
0.0
 11
325.0
 21
407.87725999999981
 31
0.0
  0
LINE
  5
70
  8
SPEC
  6
CONTINUOUS
 62
     7
 10
-200.0
 20
389.12725999999992
 30
0.0
 11
325.0
 21
389.12725999999992
 31
0.0
  0
LINE
  5
71
  8
SPEC
  6
CONTINUOUS
 62
     7
 10
-297.5
 20
370.37725999999992
 30
0.0
 11
325.0
 21
370.37725999999992
 31
0.0
  0
LINE
  5
72
  8
SPEC
  6
CONTINUOUS
 62
     7
 10
-200.0
 20
351.62725999999992
 30
0.0
 11
325.0
 21
351.62725999999992
 31
0.0
  0
LINE
  5
73
  8
SPEC
  6
CONTINUOUS
 62
     7
 10
-200.0
 20
332.87725999999992
 30
0.0
 11
325.0
 21
332.87725999999992
 31
0.0
  0
LINE
  5
74
  8
SPEC
  6
CONTINUOUS
 62
     7
 10
-200.0
 20
314.12725999999992
 30
0.0
 11
325.0
 21
314.12725999999992
 31
0.0
  0
LINE
  5
75
  8
SPEC
  6
CONTINUOUS
 62
     7
 10
-412.5
 20
295.37725999999992
 30
0.0
 11
325.0
 21
295.37725999999992
 31
0.0
  0
LINE
  5
76
  8
SPEC
  6
CONTINUOUS
 62
     7
 10
-412.5
 20
276.62725999999992
 30
0.0
 11
325.0
 21
276.62725999999992
 31
0.0
  0
LINE
  5
77
  8
SPEC
  6
CONTINUOUS
 62
     7
 10
-412.5
 20
257.87725999999992
 30
0.0
 11
325.0
 21
257.87725999999992
 31
0.0
  0
TEXT
  5
78
  8
SPEC
 62
     7
 10
-196.1626194201931
 20
356.67434939303371
 30
0.0
 40
9.5015562499999984
  1
チャンネル数：2(モノラル)
 41
0.7
 11
-196.1626194201931
 21
366.17590564303367
 31
0.0
 73
     3
  0
TEXT
  5
79
  8
SPEC
 62
     7
 10
-195.66585300678869
 20
337.75760470341282
 30
0.0
 40
9.5015562499999984
  1
端子・形式：RCA、アンバランス
 41
0.7
 11
-195.66585300678869
 21
347.25916095341279
 31
0.0
 73
     3
  0
TEXT
  5
7A
  8
SPEC
 62
     7
 10
-196.16579554114529
 20
319.50367402753528
 30
0.0
 40
9.5015562499999984
  1
インピーダンス：100\U+03A9
 41
0.7
 11
-196.16579554114529
 21
329.0052302775353
 31
0.0
 73
     3
  0
TEXT
  5
7B
  8
SPEC
 62
     7
 10
-195.53712153436939
 20
300.60369284161629
 30
0.0
 40
9.5015562499999984
  1
最大レベル：+10dBu
 41
0.7
 11
-195.53712153436939
 21
310.10524909161637
 31
0.0
 73
     3
  0
LINE
  5
7C
  8
SPEC
  6
CONTINUOUS
 62
     7
 10
-412.5
 20
239.12725999999989
 30
0.0
 11
325.0
 21
239.12725999999989
 31
0.0
  0
LINE
  5
7D
  8
SPEC
  6
CONTINUOUS
 62
     7
 10
-412.5
 20
220.37725999999989
 30
0.0
 11
325.0
 21
220.37725999999989
 31
0.0
  0
LINE
  5
7E
  8
SPEC
  6
CONTINUOUS
 62
     7
 10
-412.5
 20
201.62725999999989
 30
0.0
 11
325.0
 21
201.62725999999989
 31
0.0
  0
LINE
  5
7F
  8
SPEC
  6
CONTINUOUS
 62
     7
 10
-412.5
 20
182.87725999999989
 30
0.0
 11
325.0
 21
182.87725999999989
 31
0.0
  0
TEXT
  5
80
  8
SPEC
 62
     7
 10
-407.6528779466932
 20
281.52428472678997
 30
0.0
 40
9.5015562499999984
  1
AD-DA変換 
 41
0.7
 11
-407.6528779466932
 21
291.02584097679011
 31
0.0
 73
     3
  0
TEXT
  5
81
  8
SPEC
 62
     7
 10
-195.5
 20
281.69419353859189
 30
0.0
 40
9.5015562499999984
  1
24bit、48kHz
 41
0.7
 11
-195.5
 21
291.19574978859191
 31
0.0
 73
     3
  0
TEXT
  5
82
  8
SPEC
 62
     7
 10
-196.1713904295417
 20
261.99132016689703
 30
0.0
 40
9.5015562499999984
  1
AC100V、50/60Hz
 41
0.7
 11
-196.1713904295417
 21
271.49287641689699
 31
0.0
 73
     3
  0
TEXT
  5
83
  8
SPEC
 62
     7
 10
-195.5
 20
243.87040509701009
 30
0.0
 40
9.5015562499999984
  1
35W
 41
0.7
 11
-195.5
 21
253.37196134701
 31
0.0
 73
     3
  0
TEXT
  5
84
  8
SPEC
 62
     7
 10
-408.43390256663338
 20
263.20818729342358
 30
0.0
 40
9.5015562499999984
  1
電源
 41
0.7
 11
-408.43390256663338
 21
272.7097435434236
 31
0.0
 73
     3
  0
TEXT
  5
85
  8
SPEC
 62
     7
 10
-408.17418459860892
 20
244.7179052614479
 30
0.0
 40
9.5015562499999984
  1
消費電力
 41
0.7
 11
-408.17418459860892
 21
254.21946151144789
 31
0.0
 73
     3
  0
LINE
  5
86
  8
SPEC
  6
CONTINUOUS
 62
     7
 10
-297.5
 20
614.12725999999986
 30
0.0
 11
-297.5
 21
295.37725999999992
 31
0.0
  0
TEXT
  5
87
  8
SPEC
 62
     7
 10
-293.67974205778501
 20
563.59502414817712
 30
0.0
 40
9.5015562499999984
  1
マイク/ライン 
 41
0.7
 11
-293.67974205778501
 21
573.09658039817714
 31
0.0
 73
     3
  0
TEXT
  5
88
  8
SPEC
 62
     7
 10
-292.53414270118151
 20
478.10027197135588
 30
0.0
 40
9.5015562499999984
  1
AUX
 41
0.7
 11
-292.53414270118151
 21
487.6018282213559
 31
0.0
 73
     3
  0
TEXT
  5
89
  8
SPEC
 62
     7
 10
-294.16563381403819
 20
403.49546655605093
 30
0.0
 40
9.5015562499999984
  1
メイン 
 41
0.7
 11
-294.16563381403819
 21
412.99702280605101
 31
0.0
 73
     3
  0
TEXT
  5
8A
  8
SPEC
 62
     7
 10
-295.54613772404662
 20
328.57796949477131
 30
0.0
 40
9.5015562499999984
  1
レコーディング
 41
0.7
 11
-295.54613772404662
 21
338.07952574477127
 31
0.0
 73
     3
  0
TEXT
  5
8B
  8
DIMNSIONS
 62
     7
 10
-100.0
 20
-574.52528999999993
 30
0.0
 40
12.21630859375
  1
(単位：mm)
 41
0.7
 11
-100.0
 21
-562.30898140624993
 31
0.0
 73
     3
  0
ARC
  5
8C
  8
DIMNSIONS
  6
CONTINUOUS
 62
     7
 10
-334.50000005983179
 20
-341.60000000000002
 30
0.0
 40
3.000000000000056
 50
90.0
 51
270.0
  0
ARC
  5
8D
  8
DIMNSIONS
  6
CONTINUOUS
 62
     7
 10
-328.50084751745879
 20
-341.59915254237279
 30
0.0
 40
3.0008475772907151
 50
270.0161806772058
 51
88.074136815051503
  0
LINE
  5
8E
  8
DIMNSIONS
  6
CONTINUOUS
 62
     7
 10
-334.50000005983179
 20
-338.59999999999991
 30
0.0
 11
-328.40000005983188
 21
-338.60000000000002
 31
0.0
  0
LINE
  5
8F
  8
DIMNSIONS
  6
CONTINUOUS
 62
     7
 10
-334.50000005983179
 20
-344.60000000000002
 30
0.0
 11
-328.50000005983168
 21
-344.60000000000002
 31
0.0
  0
ARC
  5
90
  8
DIMNSIONS
  6
CONTINUOUS
 62
     7
 10
-334.50000005983179
 20
-373.39999999999998
 30
0.0
 40
3.000000000000056
 50
90.0
 51
270.0
  0
ARC
  5
91
  8
DIMNSIONS
  6
CONTINUOUS
 62
     7
 10
-328.50084751745879
 20
-373.39915254237292
 30
0.0
 40
3.0008475772907151
 50
270.0161806772058
 51
88.074136815051503
  0
LINE
  5
92
  8
DIMNSIONS
  6
CONTINUOUS
 62
     7
 10
-334.50000005983179
 20
-370.39999999999992
 30
0.0
 11
-328.40000005983188
 21
-370.39999999999998
 31
0.0
  0
LINE
  5
93
  8
DIMNSIONS
  6
CONTINUOUS
 62
     7
 10
-334.50000005983179
 20
-376.39999999999998
 30
0.0
 11
-328.50000005983168
 21
-376.39999999999998
 31
0.0
  0
ARC
  5
94
  8
DIMNSIONS
  6
CONTINUOUS
 62
     7
 10
136.50000005983179
 20
-341.60000000000002
 30
0.0
 40
3.000000000000056
 50
270.0
 51
90.0
  0
ARC
  5
95
  8
DIMNSIONS
  6
CONTINUOUS
 62
     7
 10
130.50084751745879
 20
-341.59915254237279
 30
0.0
 40
3.0008475772907142
 50
91.925863184948483
 51
269.98381932279409
  0
LINE
  5
96
  8
DIMNSIONS
  6
CONTINUOUS
 62
     7
 10
136.50000005983179
 20
-338.59999999999991
 30
0.0
 11
130.4000000598318
 21
-338.60000000000002
 31
0.0
  0
LINE
  5
97
  8
DIMNSIONS
  6
CONTINUOUS
 62
     7
 10
136.50000005983179
 20
-344.60000000000002
 30
0.0
 11
130.50000005983179
 21
-344.60000000000002
 31
0.0
  0
ARC
  5
98
  8
DIMNSIONS
  6
CONTINUOUS
 62
     7
 10
136.50000005983179
 20
-373.39999999999998
 30
0.0
 40
3.000000000000056
 50
270.0
 51
90.0
  0
ARC
  5
99
  8
DIMNSIONS
  6
CONTINUOUS
 62
     7
 10
130.50084751745879
 20
-373.39915254237292
 30
0.0
 40
3.0008475772907142
 50
91.925863184948483
 51
269.98381932279409
  0
LINE
  5
9A
  8
DIMNSIONS
  6
CONTINUOUS
 62
     7
 10
136.50000005983179
 20
-370.39999999999992
 30
0.0
 11
130.4000000598318
 21
-370.39999999999998
 31
0.0
  0
LINE
  5
9B
  8
DIMNSIONS
  6
CONTINUOUS
 62
     7
 10
136.50000005983179
 20
-376.39999999999998
 30
0.0
 11
130.50000005983179
 21
-376.39999999999998
 31
0.0
  0
LINE
  5
9C
  8
DIMNSIONS
  6
CONTINUOUS
 62
     7
 10
-350.0
 20
-380.0
 30
0.0
 11
-390.0
 21
-380.0
 31
0.0
  0
LINE
  5
9D
  8
DIMNSIONS
  6
CONTINUOUS
 62
     7
 10
-350.0
 20
-335.0
 30
0.0
 11
-390.0
 21
-335.0
 31
0.0
  0
LINE
  5
9E
  8
DIMNSIONS
  6
CONTINUOUS
 62
     7
 10
-380.0
 20
-380.0
 30
0.0
 11
-380.0
 21
-335.0
 31
0.0
  0
LINE
  5
9F
  8
DIMNSIONS
  6
CONTINUOUS
 62
     7
 10
-380.0
 20
-380.0
 30
0.0
 11
-383.3501989757512
 21
-367.49688720703131
 31
0.0
  0
LINE
  5
A0
  8
DIMNSIONS
  6
CONTINUOUS
 62
     7
 10
-380.0
 20
-380.0
 30
0.0
 11
-376.6498010242488
 21
-367.49688720703131
 31
0.0
  0
LINE
  5
A1
  8
DIMNSIONS
  6
CONTINUOUS
 62
     7
 10
-380.0
 20
-335.0
 30
0.0
 11
-376.6498010242488
 21
-347.50311279296881
 31
0.0
  0
LINE
  5
A2
  8
DIMNSIONS
  6
CONTINUOUS
 62
     7
 10
-380.0
 20
-335.0
 30
0.0
 11
-383.3501989757512
 21
-347.50311279296881
 31
0.0
  0
TEXT
  5
A3
  8
DIMNSIONS
 62
     7
 10
-384.96944448124202
 20
-366.31944444444429
 30
0.0
 40
13.57367641754132
  1
45
 50
90.0
 41
0.7
 11
-398.54312089878329
 21
-366.31944444444429
 31
0.0
 73
     3
  0
LINE
  5
A4
  8
DIMNSIONS
  6
CONTINUOUS
 62
     7
 10
-340.0
 20
-390.0
 30
0.0
 11
-340.0
 21
-430.0
 31
0.0
  0
LINE
  5
A5
  8
DIMNSIONS
  6
CONTINUOUS
 62
     7
 10
142.0
 20
-390.0
 30
0.0
 11
142.0
 21
-430.0
 31
0.0
  0
LINE
  5
A6
  8
DIMNSIONS
  6
CONTINUOUS
 62
     7
 10
-340.0
 20
-420.0
 30
0.0
 11
142.0
 21
-420.0
 31
0.0
  0
LINE
  5
A7
  8
DIMNSIONS
  6
CONTINUOUS
 62
     7
 10
-340.0
 20
-420.0
 30
0.0
 11
-327.49688720703131
 21
-416.6498010242488
 31
0.0
  0
LINE
  5
A8
  8
DIMNSIONS
  6
CONTINUOUS
 62
     7
 10
-340.0
 20
-420.0
 30
0.0
 11
-327.49688720703131
 21
-423.35019897575108
 31
0.0
  0
LINE
  5
A9
  8
DIMNSIONS
  6
CONTINUOUS
 62
     7
 10
142.0
 20
-420.0
 30
0.0
 11
129.49688720703119
 21
-423.35019897575108
 31
0.0
  0
LINE
  5
AA
  8
DIMNSIONS
  6
CONTINUOUS
 62
     7
 10
142.0
 20
-420.0
 30
0.0
 11
129.49688720703119
 21
-416.6498010242488
 31
0.0
  0
TEXT
  5
AB
  8
DIMNSIONS
 62
     7
 10
-112.2291666666667
 20
-415.03055551875792
 30
0.0
 40
13.57367641754132
  1
482
 41
0.7
 11
-112.2291666666667
 21
-401.4568791012166
 31
0.0
 73
     3
  0
LINE
  5
AC
  8
DIMNSIONS
  6
CONTINUOUS
 62
     7
 10
-350.0
 20
-260.0
 30
0.0
 11
-390.0
 21
-260.0
 31
0.0
  0
LINE
  5
AD
  8
DIMNSIONS
  6
CONTINUOUS
 62
     7
 10
-332.0
 20
-80.0
 30
0.0
 11
-390.0
 21
-80.0
 31
0.0
  0
LINE
  5
AE
  8
DIMNSIONS
  6
CONTINUOUS
 62
     7
 10
-380.0
 20
-260.0
 30
0.0
 11
-380.0
 21
-80.0
 31
0.0
  0
LINE
  5
AF
  8
DIMNSIONS
  6
CONTINUOUS
 62
     7
 10
-380.0
 20
-260.0
 30
0.0
 11
-383.3501989757512
 21
-247.49688720703119
 31
0.0
  0
LINE
  5
B0
  8
DIMNSIONS
  6
CONTINUOUS
 62
     7
 10
-380.0
 20
-260.0
 30
0.0
 11
-376.6498010242488
 21
-247.49688720703119
 31
0.0
  0
LINE
  5
B1
  8
DIMNSIONS
  6
CONTINUOUS
 62
     7
 10
-380.0
 20
-80.0
 30
0.0
 11
-376.6498010242488
 21
-92.503112792968764
 31
0.0
  0
LINE
  5
B2
  8
DIMNSIONS
  6
CONTINUOUS
 62
     7
 10
-380.0
 20
-80.0
 30
0.0
 11
-383.3501989757512
 21
-92.503112792968764
 31
0.0
  0
TEXT
  5
B3
  8
DIMNSIONS
 62
     7
 10
-384.96944444444449
 20
-183.22916666666671
 30
0.0
 40
13.57367621527778
  1
180
 50
90.0
 41
0.7
 11
-398.54312065972232
 21
-183.22916666666671
 31
0.0
 73
     3
  0
LINE
  5
B4
  8
DIMNSIONS
  6
CONTINUOUS
 62
     7
 10
-300.0
 20
-278.0
 30
0.0
 11
-390.0
 21
-278.0
 31
0.0
  0
LINE
  5
B5
  8
DIMNSIONS
  6
CONTINUOUS
 62
     7
 10
-350.0
 20
-260.0
 30
0.0
 11
-390.0
 21
-260.0
 31
0.0
  0
LINE
  5
B6
  8
DIMNSIONS
  6
CONTINUOUS
 62
     7
 10
-380.0
 20
-260.0
 30
0.0
 11
-380.0
 21
-278.0
 31
0.0
  0
LINE
  5
B7
  8
DIMNSIONS
  6
CONTINUOUS
 62
     7
 10
-380.0
 20
-278.0
 30
0.0
 11
-380.0
 21
-303.0
 31
0.0
  0
LINE
  5
B8
  8
DIMNSIONS
  6
CONTINUOUS
 62
     7
 10
-380.0
 20
-278.0
 30
0.0
 11
-376.6498010242488
 21
-290.50311279296869
 31
0.0
  0
LINE
  5
B9
  8
DIMNSIONS
  6
CONTINUOUS
 62
     7
 10
-380.0
 20
-278.0
 30
0.0
 11
-383.3501989757512
 21
-290.50311279296869
 31
0.0
  0
LINE
  5
BA
  8
DIMNSIONS
  6
CONTINUOUS
 62
     7
 10
-380.0
 20
-260.0
 30
0.0
 11
-380.0
 21
-235.0
 31
0.0
  0
LINE
  5
BB
  8
DIMNSIONS
  6
CONTINUOUS
 62
     7
 10
-380.0
 20
-260.0
 30
0.0
 11
-383.3501989757512
 21
-247.49688720703119
 31
0.0
  0
LINE
  5
BC
  8
DIMNSIONS
  6
CONTINUOUS
 62
     7
 10
-380.0
 20
-260.0
 30
0.0
 11
-376.6498010242488
 21
-247.49688720703119
 31
0.0
  0
TEXT
  5
BD
  8
DIMNSIONS
 62
     7
 10
-384.96944451803961
 20
-277.8194444444444
 30
0.0
 40
13.573676619804891
  1
18
 50
90.0
 41
0.7
 11
-398.54312113784448
 21
-277.8194444444444
 31
0.0
 73
     3
  0
LINE
  5
BE
  8
DIMNSIONS
  6
CONTINUOUS
 62
     7
 10
-332.0
 20
-80.0
 30
0.0
 11
-390.0
 21
-80.0
 31
0.0
  0
LINE
  5
BF
  8
DIMNSIONS
  6
CONTINUOUS
 62
     7
 10
-299.97368656281412
 20
-72.0
 30
0.0
 11
-390.0
 21
-72.0
 31
0.0
  0
LINE
  5
C0
  8
DIMNSIONS
  6
CONTINUOUS
 62
     7
 10
-380.0
 20
-72.0
 30
0.0
 11
-380.0
 21
-80.0
 31
0.0
  0
LINE
  5
C1
  8
DIMNSIONS
  6
CONTINUOUS
 62
     7
 10
-380.0
 20
-80.0
 30
0.0
 11
-380.0
 21
-105.0
 31
0.0
  0
LINE
  5
C2
  8
DIMNSIONS
  6
CONTINUOUS
 62
     7
 10
-380.0
 20
-80.0
 30
0.0
 11
-376.6498010242488
 21
-92.503112792968764
 31
0.0
  0
LINE
  5
C3
  8
DIMNSIONS
  6
CONTINUOUS
 62
     7
 10
-380.0
 20
-80.0
 30
0.0
 11
-383.3501989757512
 21
-92.503112792968764
 31
0.0
  0
LINE
  5
C4
  8
DIMNSIONS
  6
CONTINUOUS
 62
     7
 10
-380.0
 20
-72.0
 30
0.0
 11
-380.0
 21
-45.590277777777771
 31
0.0
  0
LINE
  5
C5
  8
DIMNSIONS
  6
CONTINUOUS
 62
     7
 10
-380.0
 20
-72.0
 30
0.0
 11
-383.3501989757512
 21
-59.49688720703125
 31
0.0
  0
LINE
  5
C6
  8
DIMNSIONS
  6
CONTINUOUS
 62
     7
 10
-380.0
 20
-72.0
 30
0.0
 11
-376.6498010242488
 21
-59.49688720703125
 31
0.0
  0
TEXT
  5
C7
  8
DIMNSIONS
 62
     7
 10
-384.96944451803961
 20
-54.409722222222207
 30
0.0
 40
13.573676619804891
  1
8
 50
90.0
 41
0.7
 11
-398.54312113784448
 21
-54.409722222222207
 31
0.0
 73
     3
  0
TEXT
  5
C8
  8
DATA
 62
     7
 10
250.0
 20
-580.2182899999998
 30
0.0
 40
12.21630859375
  1
DMM 4/2/4
 41
0.7
 11
250.0
 21
-568.0019814062498
 31
0.0
 73
     3
  0
TEXT
  5
C9
  8
DATA
 62
     7
 10
250.4722258296913
 20
-543.03885562087316
 30
0.0
 40
12.21630859375
  1
AKG
 41
0.7
 11
250.4722258296913
 21
-530.82254702712305
 31
0.0
 73
     3
  0
TEXT
  5
CA
  8
DATA
 62
     7
 10
239.41568347737271
 20
-561.21504740945022
 30
0.0
 40
8.1442185546874981
  1
オートマチックミキサー
 41
0.7
 11
239.41568347737271
 21
-553.07082885476268
 31
0.0
 73
     3
  0
TEXT
  5
CB
  8
DATA
 62
     7
 10
-400.0
 20
-614.68273999999985
 30
0.0
 40
8.1442057291666661
  1
仕様および外観は予告なく変更されることがありますので、ご了承ください。
 41
0.7
 11
-400.0
 21
-606.53853427083334
 31
0.0
 73
     3
  0
LINE
  5
CC
  8
DATA
  6
CONTINUOUS
 62
     7
 10
-340.0
 20
-380.0
 30
0.0
 11
-340.0
 21
-335.0
 31
0.0
  0
LINE
  5
CD
  8
DATA
  6
CONTINUOUS
 62
     7
 10
142.0
 20
-380.0
 30
0.0
 11
-340.0
 21
-380.0
 31
0.0
  0
LINE
  5
CE
  8
DATA
  6
CONTINUOUS
 62
     7
 10
142.0
 20
-335.0
 30
0.0
 11
142.0
 21
-380.0
 31
0.0
  0
LINE
  5
CF
  8
DATA
  6
CONTINUOUS
 62
     7
 10
-340.0
 20
-335.0
 30
0.0
 11
142.0
 21
-335.0
 31
0.0
  0
LINE
  5
D0
  8
DATA
  6
CONTINUOUS
 62
     7
 10
-340.0
 20
-260.0
 30
0.0
 11
142.0
 21
-260.0
 31
0.0
  0
LINE
  5
D1
  8
DATA
  6
CONTINUOUS
 62
     7
 10
-322.0
 20
-80.0
 30
0.0
 11
123.9999999999999
 21
-80.0
 31
0.0
  0
LINE
  5
D2
  8
DATA
  6
CONTINUOUS
 62
     7
 10
-322.0
 20
-257.0
 30
0.0
 11
-322.0
 21
-80.0
 31
0.0
  0
LINE
  5
D3
  8
DATA
  6
CONTINUOUS
 62
     7
 10
124.0
 20
-80.0
 30
0.0
 11
124.0
 21
-257.0
 31
0.0
  0
LINE
  5
D4
  8
DATA
  6
CONTINUOUS
 62
     7
 10
-340.0
 20
-257.0
 30
0.0
 11
142.0
 21
-257.0
 31
0.0
  0
LINE
  5
D5
  8
DATA
  6
CONTINUOUS
 62
     7
 10
142.0
 20
-260.0
 30
0.0
 11
142.0
 21
-257.0
 31
0.0
  0
LINE
  5
D6
  8
DATA
  6
CONTINUOUS
 62
     7
 10
-340.0
 20
-260.0
 30
0.0
 11
-340.0
 21
-257.0
 31
0.0
  0
CIRCLE
  5
D7
  8
DATA
  6
CONTINUOUS
 62
     7
 10
-287.0
 20
-351.0
 30
0.0
 40
11.5
  0
CIRCLE
  5
D8
  8
DATA
  6
CONTINUOUS
 62
     7
 10
-287.0
 20
-351.0
 30
0.0
 40
3.0500000000000109
  0
CIRCLE
  5
D9
  8
DATA
  6
CONTINUOUS
 62
     7
 10
-287.0
 20
-351.0
 30
0.0
 40
7.5
  0
TEXT
  5
DA
  8
DATA
 62
     7
 10
-296.17222222222227
 20
-369.1392222304396
 30
0.0
 40
2.171788226806612
  1
IN1-MIC/LINE 
 41
0.7
 11
-296.17222222222227
 21
-368.0533281170363
 31
0.0
 73
     2
  0
TEXT
  5
DB
  8
DATA
 62
     7
 10
-297.19660390422712
 20
-364.85967123663022
 30
0.0
 40
2.171788226806612
  1
ON
 41
0.7
 11
-297.19660390422712
 21
-363.77377712322692
 31
0.0
 73
     2
  0
TEXT
  5
DC
  8
DATA
 62
     7
 10
-280.8424865110552
 20
-364.85967123663022
 30
0.0
 40
2.171788226806612
  1
PEAK
 41
0.7
 11
-280.8424865110552
 21
-363.77377712322692
 31
0.0
 73
     2
  0
CIRCLE
  5
DD
  8
DATA
  6
CONTINUOUS
 62
     7
 10
-243.5
 20
-351.0
 30
0.0
 40
11.5
  0
CIRCLE
  5
DE
  8
DATA
  6
CONTINUOUS
 62
     7
 10
-243.5
 20
-351.0
 30
0.0
 40
3.0500000000000109
  0
CIRCLE
  5
DF
  8
DATA
  6
CONTINUOUS
 62
     7
 10
-243.5
 20
-351.0
 30
0.0
 40
7.5
  0
TEXT
  5
E0
  8
DATA
 62
     7
 10
-252.6722222222223
 20
-369.1392222304396
 30
0.0
 40
2.171788226806612
  1
IN2-MIC/LINE 
 41
0.7
 11
-252.6722222222223
 21
-368.0533281170363
 31
0.0
 73
     2
  0
TEXT
  5
E1
  8
DATA
 62
     7
 10
-253.696603904227
 20
-364.85967123663022
 30
0.0
 40
2.171788226806612
  1
ON
 41
0.7
 11
-253.696603904227
 21
-363.77377712322692
 31
0.0
 73
     2
  0
TEXT
  5
E2
  8
DATA
 62
     7
 10
-237.3424865110552
 20
-364.85967123663022
 30
0.0
 40
2.171788226806612
  1
PEAK
 41
0.7
 11
-237.3424865110552
 21
-363.77377712322692
 31
0.0
 73
     2
  0
CIRCLE
  5
E3
  8
DATA
  6
CONTINUOUS
 62
     7
 10
-200.0
 20
-351.0
 30
0.0
 40
11.5
  0
CIRCLE
  5
E4
  8
DATA
  6
CONTINUOUS
 62
     7
 10
-200.0
 20
-351.0
 30
0.0
 40
3.0500000000000109
  0
CIRCLE
  5
E5
  8
DATA
  6
CONTINUOUS
 62
     7
 10
-200.0
 20
-351.0
 30
0.0
 40
7.5
  0
TEXT
  5
E6
  8
DATA
 62
     7
 10
-209.1722222222223
 20
-369.1392222304396
 30
0.0
 40
2.171788226806612
  1
IN3-MIC/LINE 
 41
0.7
 11
-209.1722222222223
 21
-368.0533281170363
 31
0.0
 73
     2
  0
TEXT
  5
E7
  8
DATA
 62
     7
 10
-210.196603904227
 20
-364.85967123663022
 30
0.0
 40
2.171788226806612
  1
ON
 41
0.7
 11
-210.196603904227
 21
-363.77377712322692
 31
0.0
 73
     2
  0
TEXT
  5
E8
  8
DATA
 62
     7
 10
-193.84248651105511
 20
-364.85967123663022
 30
0.0
 40
2.171788226806612
  1
PEAK
 41
0.7
 11
-193.84248651105511
 21
-363.77377712322692
 31
0.0
 73
     2
  0
CIRCLE
  5
E9
  8
DATA
  6
CONTINUOUS
 62
     7
 10
-156.5
 20
-351.0
 30
0.0
 40
11.5
  0
CIRCLE
  5
EA
  8
DATA
  6
CONTINUOUS
 62
     7
 10
-156.5
 20
-351.0
 30
0.0
 40
3.0500000000000109
  0
CIRCLE
  5
EB
  8
DATA
  6
CONTINUOUS
 62
     7
 10
-156.5
 20
-351.0
 30
0.0
 40
7.5
  0
TEXT
  5
EC
  8
DATA
 62
     7
 10
-165.6722222222223
 20
-369.1392222304396
 30
0.0
 40
2.171788226806612
  1
IN4-MIC/LINE 
 41
0.7
 11
-165.6722222222223
 21
-368.0533281170363
 31
0.0
 73
     2
  0
TEXT
  5
ED
  8
DATA
 62
     7
 10
-166.696603904227
 20
-364.85967123663022
 30
0.0
 40
2.171788226806612
  1
ON
 41
0.7
 11
-166.696603904227
 21
-363.77377712322692
 31
0.0
 73
     2
  0
TEXT
  5
EE
  8
DATA
 62
     7
 10
-150.34248651105511
 20
-364.85967123663022
 30
0.0
 40
2.171788226806612
  1
PEAK
 41
0.7
 11
-150.34248651105511
 21
-363.77377712322692
 31
0.0
 73
     2
  0
CIRCLE
  5
EF
  8
DATA
  6
CONTINUOUS
 62
     7
 10
-113.0
 20
-351.0
 30
0.0
 40
11.5
  0
CIRCLE
  5
F0
  8
DATA
  6
CONTINUOUS
 62
     7
 10
-113.0
 20
-351.0
 30
0.0
 40
3.0500000000000109
  0
CIRCLE
  5
F1
  8
DATA
  6
CONTINUOUS
 62
     7
 10
-113.0
 20
-351.0
 30
0.0
 40
7.5
  0
TEXT
  5
F2
  8
DATA
 62
     7
 10
-122.1722222222223
 20
-369.1392222304396
 30
0.0
 40
2.171788226806612
  1
IN5-AUX
 41
0.7
 11
-122.1722222222223
 21
-368.0533281170363
 31
0.0
 73
     2
  0
TEXT
  5
F3
  8
DATA
 62
     7
 10
-123.196603904227
 20
-364.85967123663022
 30
0.0
 40
2.171788226806612
  1
ON
 41
0.7
 11
-123.196603904227
 21
-363.77377712322692
 31
0.0
 73
     2
  0
TEXT
  5
F4
  8
DATA
 62
     7
 10
-106.8424865110552
 20
-364.85967123663022
 30
0.0
 40
2.171788226806612
  1
PEAK
 41
0.7
 11
-106.8424865110552
 21
-363.77377712322692
 31
0.0
 73
     2
  0
CIRCLE
  5
F5
  8
DATA
  6
CONTINUOUS
 62
     7
 10
-69.5
 20
-351.0
 30
0.0
 40
11.5
  0
CIRCLE
  5
F6
  8
DATA
  6
CONTINUOUS
 62
     7
 10
-69.5
 20
-351.0
 30
0.0
 40
3.0500000000000109
  0
CIRCLE
  5
F7
  8
DATA
  6
CONTINUOUS
 62
     7
 10
-69.5
 20
-351.0
 30
0.0
 40
7.5
  0
TEXT
  5
F8
  8
DATA
 62
     7
 10
-78.67222222222226
 20
-369.1392222304396
 30
0.0
 40
2.171788226806612
  1
IN6-AUX
 41
0.7
 11
-78.67222222222226
 21
-368.0533281170363
 31
0.0
 73
     2
  0
TEXT
  5
F9
  8
DATA
 62
     7
 10
-79.696603904227061
 20
-364.85967123663022
 30
0.0
 40
2.171788226806612
  1
ON
 41
0.7
 11
-79.696603904227061
 21
-363.77377712322692
 31
0.0
 73
     2
  0
TEXT
  5
FA
  8
DATA
 62
     7
 10
-63.342486511055199
 20
-364.85967123663022
 30
0.0
 40
2.171788226806612
  1
PEAK
 41
0.7
 11
-63.342486511055199
 21
-363.77377712322692
 31
0.0
 73
     2
  0
CIRCLE
  5
FB
  8
DATA
  6
CONTINUOUS
 62
     7
 10
86.0
 20
-351.0
 30
0.0
 40
11.5
  0
CIRCLE
  5
FC
  8
DATA
  6
CONTINUOUS
 62
     7
 10
86.0
 20
-351.0
 30
0.0
 40
3.0500000000000109
  0
CIRCLE
  5
FD
  8
DATA
  6
CONTINUOUS
 62
     7
 10
86.0
 20
-351.0
 30
0.0
 40
7.5
  0
TEXT
  5
FE
  8
DATA
 62
     7
 10
78.946211103084181
 20
-365.48033885397632
 30
0.0
 40
2.171788226806612
  1
HEADPHONE 
 41
0.7
 11
78.946211103084181
 21
-364.39444474057302
 31
0.0
 73
     2
  0
TEXT
  5
FF
  8
DATA
 62
     7
 10
94.598271550744158
 20
-362.6215784380513
 30
0.0
 40
2.171788226806612
  1
PEAK
 41
0.7
 11
94.598271550744158
 21
-361.535684324648
 31
0.0
 73
     2
  0
CIRCLE
  5
100
  8
DATA
  6
CONTINUOUS
 62
     7
 10
61.0
 20
-351.0
 30
0.0
 40
11.5
  0
CIRCLE
  5
101
  8
DATA
  6
CONTINUOUS
 62
     7
 10
61.0
 20
-351.0
 30
0.0
 40
3.0500000000000109
  0
CIRCLE
  5
102
  8
DATA
  6
CONTINUOUS
 62
     7
 10
61.0
 20
-351.0
 30
0.0
 40
7.5
  0
TEXT
  5
103
  8
DATA
 62
     7
 10
53.062842237174692
 20
-365.48033885397632
 30
0.0
 40
2.171788226806612
  1
OUT-MASTER 
 41
0.7
 11
53.062842237174692
 21
-364.39444474057302
 31
0.0
 73
     2
  0
TEXT
  5
104
  8
DATA
 62
     7
 10
69.598271550744158
 20
-362.6215784380513
 30
0.0
 40
2.171788226806612
  1
PEAK
 41
0.7
 11
69.598271550744158
 21
-361.535684324648
 31
0.0
 73
     2
  0
TEXT
  5
105
  8
DATA
 62
     7
 10
106.59362513072089
 20
-359.67842954018141
 30
0.0
 40
4.343576453613224
  1
DMM 4/2/4
 41
0.7
 11
106.59362513072089
 21
-357.50664131337481
 31
0.0
 73
     2
  0
CIRCLE
  5
106
  8
DATA
  6
CONTINUOUS
 62
     7
 10
106.0
 20
-370.0
 30
0.0
 40
3.25
  0
CIRCLE
  5
107
  8
DATA
  6
CONTINUOUS
 62
     7
 10
106.0
 20
-370.0
 30
0.0
 40
3.5000000000000102
  0
CIRCLE
  5
108
  8
DATA
  6
CONTINUOUS
 62
     7
 10
71.0
 20
-375.0
 30
0.0
 40
1.0
  0
CIRCLE
  5
109
  8
DATA
  6
CONTINUOUS
 62
     7
 10
68.5
 20
-375.0
 30
0.0
 40
1.0
  0
CIRCLE
  5
10A
  8
DATA
  6
CONTINUOUS
 62
     7
 10
66.0
 20
-375.0
 30
0.0
 40
1.0
  0
CIRCLE
  5
10B
  8
DATA
  6
CONTINUOUS
 62
     7
 10
63.5
 20
-375.0
 30
0.0
 40
1.0
  0
CIRCLE
  5
10C
  8
DATA
  6
CONTINUOUS
 62
     7
 10
61.0
 20
-375.0
 30
0.0
 40
1.0
  0
CIRCLE
  5
10D
  8
DATA
  6
CONTINUOUS
 62
     7
 10
58.5
 20
-375.0
 30
0.0
 40
1.0
  0
CIRCLE
  5
10E
  8
DATA
  6
CONTINUOUS
 62
     7
 10
56.0
 20
-375.0
 30
0.0
 40
1.0
  0
CIRCLE
  5
10F
  8
DATA
  6
CONTINUOUS
 62
     7
 10
53.5
 20
-375.0
 30
0.0
 40
1.0
  0
CIRCLE
  5
110
  8
DATA
  6
CONTINUOUS
 62
     7
 10
71.0
 20
-370.0
 30
0.0
 40
1.0
  0
CIRCLE
  5
111
  8
DATA
  6
CONTINUOUS
 62
     7
 10
68.5
 20
-370.0
 30
0.0
 40
1.0
  0
CIRCLE
  5
112
  8
DATA
  6
CONTINUOUS
 62
     7
 10
66.0
 20
-370.0
 30
0.0
 40
1.0
  0
CIRCLE
  5
113
  8
DATA
  6
CONTINUOUS
 62
     7
 10
63.5
 20
-370.0
 30
0.0
 40
1.0
  0
CIRCLE
  5
114
  8
DATA
  6
CONTINUOUS
 62
     7
 10
61.0
 20
-370.0
 30
0.0
 40
1.0
  0
CIRCLE
  5
115
  8
DATA
  6
CONTINUOUS
 62
     7
 10
58.5
 20
-370.0
 30
0.0
 40
1.0
  0
CIRCLE
  5
116
  8
DATA
  6
CONTINUOUS
 62
     7
 10
56.0
 20
-370.0
 30
0.0
 40
1.0
  0
CIRCLE
  5
117
  8
DATA
  6
CONTINUOUS
 62
     7
 10
53.5
 20
-370.0
 30
0.0
 40
1.0
  0
TEXT
  5
118
  8
DATA
 62
     7
 10
73.933016324580706
 20
-375.87272595490992
 30
0.0
 40
1.7374305814452899
  1
R
 41
0.7
 11
73.933016324580706
 21
-375.00401066418721
 31
0.0
 73
     2
  0
TEXT
  5
119
  8
DATA
 62
     7
 10
73.933016324580706
 20
-370.87272595490992
 30
0.0
 40
1.7374305814452899
  1
L
 41
0.7
 11
73.933016324580706
 21
-370.00401066418732
 31
0.0
 73
     2
  0
TEXT
  5
11A
  8
DATA
 62
     7
 10
73.731852188114431
 20
-372.92744748697407
 30
0.0
 40
0.8687152907226451
  1
dB
 41
0.7
 11
73.731852188114431
 21
-372.4930898416128
 31
0.0
 73
     2
  0
TEXT
  5
11B
  8
DATA
 62
     7
 10
70.354961991505704
 20
-372.92744748697407
 30
0.0
 40
0.8687152907226451
  1
+5
 41
0.7
 11
70.354961991505704
 21
-372.4930898416128
 31
0.0
 73
     2
  0
TEXT
  5
11C
  8
DATA
 62
     7
 10
68.179081748314459
 20
-372.92744748697407
 30
0.0
 40
0.8687152907226451
  1
0
 41
0.7
 11
68.179081748314459
 21
-372.4930898416128
 31
0.0
 73
     2
  0
TEXT
  5
11D
  8
DATA
 62
     7
 10
65.315671210857715
 20
-372.92744748697407
 30
0.0
 40
0.8687152907226451
  1
-5
 41
0.7
 11
65.315671210857715
 21
-372.4930898416128
 31
0.0
 73
     2
  0
TEXT
  5
11E
  8
DATA
 62
     7
 10
62.487226428599129
 20
-372.92744748697407
 30
0.0
 40
0.8687152907226451
  1
-10
 41
0.7
 11
62.487226428599129
 21
-372.4930898416128
 31
0.0
 73
     2
  0
TEXT
  5
11F
  8
DATA
 62
     7
 10
59.931142181864779
 20
-372.92744748697407
 30
0.0
 40
0.8687152907226451
  1
-20
 41
0.7
 11
59.931142181864779
 21
-372.4930898416128
 31
0.0
 73
     2
  0
TEXT
  5
120
  8
DATA
 62
     7
 10
57.40920530076621
 20
-372.92744748697407
 30
0.0
 40
0.8687152907226451
  1
-30
 41
0.7
 11
57.40920530076621
 21
-372.4930898416128
 31
0.0
 73
     2
  0
TEXT
  5
121
  8
DATA
 62
     7
 10
54.78482632276021
 20
-372.92744748697407
 30
0.0
 40
0.8687152907226451
  1
-40
 41
0.7
 11
54.78482632276021
 21
-372.4930898416128
 31
0.0
 73
     2
  0
TEXT
  5
122
  8
DATA
 62
     7
 10
52.331184172933291
 20
-372.92744748697407
 30
0.0
 40
0.8687152907226451
  1
-50
 41
0.7
 11
52.331184172933291
 21
-372.4930898416128
 31
0.0
 73
     2
  0
CIRCLE
  5
123
  8
DATA
  6
CONTINUOUS
 62
     7
 10
-10.0
 20
-357.5
 30
0.0
 40
11.5
  0
CIRCLE
  5
124
  8
DATA
  6
CONTINUOUS
 62
     7
 10
-10.0
 20
-357.5
 30
0.0
 40
3.0500000000000109
  0
CIRCLE
  5
125
  8
DATA
  6
CONTINUOUS
 62
     7
 10
-10.0
 20
-357.5
 30
0.0
 40
7.5
  0
TEXT
  5
126
  8
DATA
 62
     7
 10
-19.77733059373482
 20
-376.20446314549338
 30
0.0
 40
2.171788226806612
  1
SYSTEM CONTROL
 41
0.7
 11
-19.77733059373482
 21
-375.11856903209008
 31
0.0
 73
     2
  0
TEXT
  5
127
  8
DATA
 62
     7
 10
-29.171393833629448
 20
-370.68841583420129
 30
0.0
 40
1.954609404125951
  1
LOCKED
 41
0.7
 11
-29.171393833629448
 21
-369.7111111321384
 31
0.0
 73
     2
  0
TEXT
  5
128
  8
DATA
 62
     7
 10
1.4128278757837369
 20
-370.68072050713829
 30
0.0
 40
1.93921875
  1
PC LOCKED
 41
0.7
 11
1.4128278757837369
 21
-369.7111111321384
 31
0.0
 73
     2
  0
TEXT
  5
129
  8
DATA
 62
     7
 10
-13.8547548152285
 20
-340.89311894189058
 30
0.0
 40
1.954609404125951
  1
LIMTER
 41
0.7
 11
-13.8547548152285
 21
-339.91581423982763
 31
0.0
 73
     2
  0
TEXT
  5
12A
  8
DATA
 62
     7
 10
-30.393480921796481
 20
-355.5172033747092
 30
0.0
 40
1.954609404125951
  1
LEVEL
 41
0.7
 11
-30.393480921796481
 21
-354.53989867264619
 31
0.0
 73
     2
  0
LINE
  5
12B
  8
DATA
  6
CONTINUOUS
 62
     7
 10
-21.113072280335931
 20
-354.54202358156311
 30
0.0
 11
-22.915310315893169
 21
-354.54202358156311
 31
0.0
  0
TEXT
  5
12C
  8
DATA
 62
     7
 10
5.1054514679419194
 20
-357.91146012298611
 30
0.0
 40
1.954609404125951
  1
PAN BALANCE
 41
0.7
 11
5.1054514679419194
 21
-356.9341554209231
 31
0.0
 73
     2
  0
LINE
  5
12D
  8
DATA
  6
CONTINUOUS
 62
     7
 10
1.489125293076057
 20
-357.0
 30
0.0
 11
3.3459556010885931
 21
-357.0
 31
0.0
  0
TEXT
  5
12E
  8
DATA
 62
     7
 10
4.1395206559854891
 20
-354.10029804539448
 30
0.0
 40
1.954609404125951
  1
LAST MIC ON
 41
0.7
 11
4.1395206559854891
 21
-353.12299334333147
 31
0.0
 73
     2
  0
TEXT
  5
12F
  8
DATA
 62
     7
 10
3.470799324631038
 20
-350.5863454484047
 30
0.0
 40
1.954609404125951
  1
NOM.ATT.
 41
0.7
 11
3.470799324631038
 21
-349.6090407463418
 31
0.0
 73
     2
  0
TEXT
  5
130
  8
DATA
 62
     7
 10
2.802077993276586
 20
-346.47797389021099
 30
0.0
 40
1.954609404125951
  1
DUCKING
 41
0.7
 11
2.802077993276586
 21
-345.50066918814809
 31
0.0
 73
     2
  0
TEXT
  5
131
  8
DATA
 62
     7
 10
0.884132860401049
 20
-342.29869998068642
 30
0.0
 40
1.954609404125951
  1
AUTOMIXING
 41
0.7
 11
0.8841328604010492
 21
-341.32139527862341
 31
0.0
 73
     2
  0
LINE
  5
132
  8
DATA
  6
CONTINUOUS
 62
     7
 10
2.9000000000000021
 20
-353.15000000000009
 30
0.0
 11
0.6455389717947213
 21
-353.15000000000009
 31
0.0
  0
LINE
  5
133
  8
DATA
  6
CONTINUOUS
 62
     7
 10
0.9000000000000021
 20
-349.85000000000002
 30
0.0
 11
-1.413528081918606
 21
-349.85000000000002
 31
0.0
  0
LINE
  5
134
  8
DATA
  6
CONTINUOUS
 62
     7
 10
-0.5
 20
-341.30000000000001
 30
0.0
 11
-2.5504785874544269
 21
-341.30000000000001
 31
0.0
  0
LINE
  5
135
  8
DATA
  6
CONTINUOUS
 62
     7
 10
-2.5504785874544269
 20
-341.30000000000001
 30
0.0
 11
-5.7370504071980308
 21
-346.81930429376303
 31
0.0
  0
LINE
  5
136
  8
DATA
  6
CONTINUOUS
 62
     7
 10
-10.0
 20
-346.0
 30
0.0
 11
-10.0
 21
-342.51564148625363
 31
0.0
  0
LINE
  5
137
  8
DATA
  6
CONTINUOUS
 62
     7
 10
1.100000000000001
 20
-345.60000000000002
 30
0.0
 11
-0.7736056722947815
 21
-345.60000000000002
 31
0.0
  0
LINE
  5
138
  8
DATA
  6
CONTINUOUS
 62
     7
 10
-0.7736056722947815
 20
-345.60000000000002
 30
0.0
 11
-3.315708261385879
 21
-348.14210258909122
 31
0.0
  0
LINE
  5
139
  8
DATA
  6
CONTINUOUS
 62
     7
 10
-19.5
 20
-341.30000000000001
 30
0.0
 11
-17.449521412545572
 21
-341.30000000000001
 31
0.0
  0
LINE
  5
13A
  8
DATA
  6
CONTINUOUS
 62
     7
 10
-17.449521412545572
 20
-341.30000000000001
 30
0.0
 11
-14.26294959280197
 21
-346.81930429376303
 31
0.0
  0
TEXT
  5
13B
  8
DATA
 62
     7
 10
-30.003687923251839
 20
-342.2252805754714
 30
0.0
 40
1.954609404125951
  1
LOW CUT
 41
0.7
 11
-30.003687923251839
 21
-341.24797587340851
 31
0.0
 73
     2
  0
LINE
  5
13C
  8
DATA
  6
CONTINUOUS
 62
     7
 10
-21.100000000000001
 20
-345.60000000000002
 30
0.0
 11
-19.226394327705211
 21
-345.60000000000002
 31
0.0
  0
LINE
  5
13D
  8
DATA
  6
CONTINUOUS
 62
     7
 10
-19.226394327705211
 20
-345.60000000000002
 30
0.0
 11
-16.684291738614121
 21
-348.14210258909122
 31
0.0
  0
TEXT
  5
13E
  8
DATA
 62
     7
 10
-29.686064163495359
 20
-346.42704650534262
 30
0.0
 40
1.954609404125951
  1
BASS
 41
0.7
 11
-29.686064163495359
 21
-345.44974180327972
 31
0.0
 73
     2
  0
LINE
  5
13F
  8
DATA
  6
CONTINUOUS
 62
     7
 10
-20.899999999999999
 20
-349.85000000000002
 30
0.0
 11
-18.586471918081401
 21
-349.85000000000002
 31
0.0
  0
TEXT
  5
140
  8
DATA
 62
     7
 10
-30.787355241719592
 20
-350.69285245319293
 30
0.0
 40
1.954609404125951
  1
TREBLE
 41
0.7
 11
-30.787355241719592
 21
-349.71554775112998
 31
0.0
 73
     2
  0
LINE
  5
141
  8
DATA
  6
CONTINUOUS
 62
     7
 10
-20.5
 20
-369.7000000000001
 30
0.0
 11
-18.66494830242711
 21
-369.7000000000001
 31
0.0
  0
LINE
  5
142
  8
DATA
  6
CONTINUOUS
 62
     7
 10
-18.66494830242711
 20
-369.7000000000001
 30
0.0
 11
-15.25303698545749
 21
-367.73013208269651
 31
0.0
  0
LINE
  5
143
  8
DATA
  6
CONTINUOUS
 62
     7
 10
0.5
 20
-369.7000000000001
 30
0.0
 11
-1.335051697572883
 21
-369.7000000000001
 31
0.0
  0
LINE
  5
144
  8
DATA
  6
CONTINUOUS
 62
     7
 10
-1.335051697572883
 20
-369.7000000000001
 30
0.0
 11
-4.7469630145425077
 21
-367.73013208269651
 31
0.0
  0
LINE
  5
145
  8
DATA
  6
CONTINUOUS
 62
     7
 10
-290.0
 20
-278.0
 30
0.0
 11
-290.49166666666667
 21
-260.30000000000001
 31
0.0
  0
LINE
  5
146
  8
DATA
  6
CONTINUOUS
 62
     7
 10
-284.0
 20
-278.0
 30
0.0
 11
-283.50833333333333
 21
-260.30000000000001
 31
0.0
  0
LINE
  5
147
  8
DATA
  6
CONTINUOUS
 62
     7
 10
-290.0
 20
-278.0
 30
0.0
 11
-284.0
 21
-278.0
 31
0.0
  0
LINE
  5
148
  8
DATA
  6
CONTINUOUS
 62
     7
 10
-294.5
 20
-260.30000000000001
 30
0.0
 11
-294.5
 21
-260.0
 31
0.0
  0
LINE
  5
149
  8
DATA
  6
CONTINUOUS
 62
     7
 10
-279.5
 20
-260.30000000000001
 30
0.0
 11
-279.5
 21
-260.0
 31
0.0
  0
LINE
  5
14A
  8
DATA
  6
CONTINUOUS
 62
     7
 10
-294.5
 20
-260.0
 30
0.0
 11
-279.5
 21
-260.0
 31
0.0
  0
LINE
  5
14B
  8
DATA
  6
CONTINUOUS
 62
     7
 10
-294.5
 20
-260.30000000000001
 30
0.0
 11
-279.5
 21
-260.30000000000001
 31
0.0
  0
LINE
  5
14C
  8
DATA
  6
CONTINUOUS
 62
     7
 10
-246.5
 20
-278.0
 30
0.0
 11
-246.9916666666667
 21
-260.30000000000001
 31
0.0
  0
LINE
  5
14D
  8
DATA
  6
CONTINUOUS
 62
     7
 10
-240.5
 20
-278.0
 30
0.0
 11
-240.0083333333333
 21
-260.30000000000001
 31
0.0
  0
LINE
  5
14E
  8
DATA
  6
CONTINUOUS
 62
     7
 10
-246.5
 20
-278.0
 30
0.0
 11
-240.5
 21
-278.0
 31
0.0
  0
LINE
  5
14F
  8
DATA
  6
CONTINUOUS
 62
     7
 10
-251.0
 20
-260.30000000000001
 30
0.0
 11
-251.0
 21
-260.0
 31
0.0
  0
LINE
  5
150
  8
DATA
  6
CONTINUOUS
 62
     7
 10
-236.0
 20
-260.30000000000001
 30
0.0
 11
-236.0
 21
-260.0
 31
0.0
  0
LINE
  5
151
  8
DATA
  6
CONTINUOUS
 62
     7
 10
-251.0
 20
-260.0
 30
0.0
 11
-236.0
 21
-260.0
 31
0.0
  0
LINE
  5
152
  8
DATA
  6
CONTINUOUS
 62
     7
 10
-251.0
 20
-260.30000000000001
 30
0.0
 11
-236.0
 21
-260.30000000000001
 31
0.0
  0
LINE
  5
153
  8
DATA
  6
CONTINUOUS
 62
     7
 10
-203.0
 20
-278.0
 30
0.0
 11
-203.4916666666667
 21
-260.30000000000001
 31
0.0
  0
LINE
  5
154
  8
DATA
  6
CONTINUOUS
 62
     7
 10
-197.0
 20
-278.0
 30
0.0
 11
-196.5083333333333
 21
-260.30000000000001
 31
0.0
  0
LINE
  5
155
  8
DATA
  6
CONTINUOUS
 62
     7
 10
-203.0
 20
-278.0
 30
0.0
 11
-197.0
 21
-278.0
 31
0.0
  0
LINE
  5
156
  8
DATA
  6
CONTINUOUS
 62
     7
 10
-207.5
 20
-260.30000000000001
 30
0.0
 11
-207.5
 21
-260.0
 31
0.0
  0
LINE
  5
157
  8
DATA
  6
CONTINUOUS
 62
     7
 10
-192.5
 20
-260.30000000000001
 30
0.0
 11
-192.5
 21
-260.0
 31
0.0
  0
LINE
  5
158
  8
DATA
  6
CONTINUOUS
 62
     7
 10
-207.5
 20
-260.0
 30
0.0
 11
-192.5
 21
-260.0
 31
0.0
  0
LINE
  5
159
  8
DATA
  6
CONTINUOUS
 62
     7
 10
-207.5
 20
-260.30000000000001
 30
0.0
 11
-192.5
 21
-260.30000000000001
 31
0.0
  0
LINE
  5
15A
  8
DATA
  6
CONTINUOUS
 62
     7
 10
-159.5
 20
-278.0
 30
0.0
 11
-159.9916666666667
 21
-260.30000000000001
 31
0.0
  0
LINE
  5
15B
  8
DATA
  6
CONTINUOUS
 62
     7
 10
-153.5
 20
-278.0
 30
0.0
 11
-153.0083333333333
 21
-260.30000000000001
 31
0.0
  0
LINE
  5
15C
  8
DATA
  6
CONTINUOUS
 62
     7
 10
-159.5
 20
-278.0
 30
0.0
 11
-153.5
 21
-278.0
 31
0.0
  0
LINE
  5
15D
  8
DATA
  6
CONTINUOUS
 62
     7
 10
-164.0
 20
-260.30000000000001
 30
0.0
 11
-164.0
 21
-260.0
 31
0.0
  0
LINE
  5
15E
  8
DATA
  6
CONTINUOUS
 62
     7
 10
-149.0
 20
-260.30000000000001
 30
0.0
 11
-149.0
 21
-260.0
 31
0.0
  0
LINE
  5
15F
  8
DATA
  6
CONTINUOUS
 62
     7
 10
-164.0
 20
-260.0
 30
0.0
 11
-149.0
 21
-260.0
 31
0.0
  0
LINE
  5
160
  8
DATA
  6
CONTINUOUS
 62
     7
 10
-164.0
 20
-260.30000000000001
 30
0.0
 11
-149.0
 21
-260.30000000000001
 31
0.0
  0
LINE
  5
161
  8
DATA
  6
CONTINUOUS
 62
     7
 10
-116.0
 20
-278.0
 30
0.0
 11
-116.4916666666667
 21
-260.30000000000001
 31
0.0
  0
LINE
  5
162
  8
DATA
  6
CONTINUOUS
 62
     7
 10
-110.0
 20
-278.0
 30
0.0
 11
-109.5083333333333
 21
-260.30000000000001
 31
0.0
  0
LINE
  5
163
  8
DATA
  6
CONTINUOUS
 62
     7
 10
-116.0
 20
-278.0
 30
0.0
 11
-110.0
 21
-278.0
 31
0.0
  0
LINE
  5
164
  8
DATA
  6
CONTINUOUS
 62
     7
 10
-120.5
 20
-260.30000000000001
 30
0.0
 11
-120.5
 21
-260.0
 31
0.0
  0
LINE
  5
165
  8
DATA
  6
CONTINUOUS
 62
     7
 10
-105.5
 20
-260.30000000000001
 30
0.0
 11
-105.5
 21
-260.0
 31
0.0
  0
LINE
  5
166
  8
DATA
  6
CONTINUOUS
 62
     7
 10
-120.5
 20
-260.0
 30
0.0
 11
-105.5
 21
-260.0
 31
0.0
  0
LINE
  5
167
  8
DATA
  6
CONTINUOUS
 62
     7
 10
-120.5
 20
-260.30000000000001
 30
0.0
 11
-105.5
 21
-260.30000000000001
 31
0.0
  0
LINE
  5
168
  8
DATA
  6
CONTINUOUS
 62
     7
 10
-72.5
 20
-278.0
 30
0.0
 11
-72.991666666666674
 21
-260.30000000000001
 31
0.0
  0
LINE
  5
169
  8
DATA
  6
CONTINUOUS
 62
     7
 10
-66.5
 20
-278.0
 30
0.0
 11
-66.008333333333326
 21
-260.30000000000001
 31
0.0
  0
LINE
  5
16A
  8
DATA
  6
CONTINUOUS
 62
     7
 10
-72.5
 20
-278.0
 30
0.0
 11
-66.5
 21
-278.0
 31
0.0
  0
LINE
  5
16B
  8
DATA
  6
CONTINUOUS
 62
     7
 10
-77.0
 20
-260.30000000000001
 30
0.0
 11
-77.0
 21
-260.0
 31
0.0
  0
LINE
  5
16C
  8
DATA
  6
CONTINUOUS
 62
     7
 10
-62.0
 20
-260.30000000000001
 30
0.0
 11
-62.0
 21
-260.0
 31
0.0
  0
LINE
  5
16D
  8
DATA
  6
CONTINUOUS
 62
     7
 10
-77.0
 20
-260.0
 30
0.0
 11
-62.0
 21
-260.0
 31
0.0
  0
LINE
  5
16E
  8
DATA
  6
CONTINUOUS
 62
     7
 10
-77.0
 20
-260.30000000000001
 30
0.0
 11
-62.0
 21
-260.30000000000001
 31
0.0
  0
LINE
  5
16F
  8
DATA
  6
CONTINUOUS
 62
     7
 10
-13.0
 20
-278.0
 30
0.0
 11
-13.491666666666671
 21
-260.30000000000001
 31
0.0
  0
LINE
  5
170
  8
DATA
  6
CONTINUOUS
 62
     7
 10
-7.0
 20
-278.0
 30
0.0
 11
-6.5083333333333249
 21
-260.30000000000001
 31
0.0
  0
LINE
  5
171
  8
DATA
  6
CONTINUOUS
 62
     7
 10
-13.0
 20
-278.0
 30
0.0
 11
-7.0
 21
-278.0
 31
0.0
  0
LINE
  5
172
  8
DATA
  6
CONTINUOUS
 62
     7
 10
-17.5
 20
-260.30000000000001
 30
0.0
 11
-17.5
 21
-260.0
 31
0.0
  0
LINE
  5
173
  8
DATA
  6
CONTINUOUS
 62
     7
 10
-2.5
 20
-260.30000000000001
 30
0.0
 11
-2.5
 21
-260.0
 31
0.0
  0
LINE
  5
174
  8
DATA
  6
CONTINUOUS
 62
     7
 10
-17.5
 20
-260.0
 30
0.0
 11
-2.5
 21
-260.0
 31
0.0
  0
LINE
  5
175
  8
DATA
  6
CONTINUOUS
 62
     7
 10
-17.5
 20
-260.30000000000001
 30
0.0
 11
-2.5
 21
-260.30000000000001
 31
0.0
  0
LINE
  5
176
  8
DATA
  6
CONTINUOUS
 62
     7
 10
58.0
 20
-278.0
 30
0.0
 11
57.508333333333333
 21
-260.30000000000001
 31
0.0
  0
LINE
  5
177
  8
DATA
  6
CONTINUOUS
 62
     7
 10
64.0
 20
-278.0
 30
0.0
 11
64.491666666666674
 21
-260.30000000000001
 31
0.0
  0
LINE
  5
178
  8
DATA
  6
CONTINUOUS
 62
     7
 10
58.0
 20
-278.0
 30
0.0
 11
64.0
 21
-278.0
 31
0.0
  0
LINE
  5
179
  8
DATA
  6
CONTINUOUS
 62
     7
 10
53.5
 20
-260.30000000000001
 30
0.0
 11
53.5
 21
-260.0
 31
0.0
  0
LINE
  5
17A
  8
DATA
  6
CONTINUOUS
 62
     7
 10
68.5
 20
-260.30000000000001
 30
0.0
 11
68.5
 21
-260.0
 31
0.0
  0
LINE
  5
17B
  8
DATA
  6
CONTINUOUS
 62
     7
 10
53.5
 20
-260.0
 30
0.0
 11
68.5
 21
-260.0
 31
0.0
  0
LINE
  5
17C
  8
DATA
  6
CONTINUOUS
 62
     7
 10
53.5
 20
-260.30000000000001
 30
0.0
 11
68.5
 21
-260.30000000000001
 31
0.0
  0
LINE
  5
17D
  8
DATA
  6
CONTINUOUS
 62
     7
 10
83.0
 20
-278.0
 30
0.0
 11
82.508333333333297
 21
-260.30000000000001
 31
0.0
  0
LINE
  5
17E
  8
DATA
  6
CONTINUOUS
 62
     7
 10
89.0
 20
-278.0
 30
0.0
 11
89.491666666666674
 21
-260.30000000000001
 31
0.0
  0
LINE
  5
17F
  8
DATA
  6
CONTINUOUS
 62
     7
 10
83.0
 20
-278.0
 30
0.0
 11
89.0
 21
-278.0
 31
0.0
  0
LINE
  5
180
  8
DATA
  6
CONTINUOUS
 62
     7
 10
78.5
 20
-260.30000000000001
 30
0.0
 11
78.5
 21
-260.0
 31
0.0
  0
LINE
  5
181
  8
DATA
  6
CONTINUOUS
 62
     7
 10
93.499999999999986
 20
-260.30000000000001
 30
0.0
 11
93.499999999999986
 21
-260.0
 31
0.0
  0
LINE
  5
182
  8
DATA
  6
CONTINUOUS
 62
     7
 10
78.5
 20
-260.0
 30
0.0
 11
93.499999999999986
 21
-260.0
 31
0.0
  0
LINE
  5
183
  8
DATA
  6
CONTINUOUS
 62
     7
 10
78.5
 20
-260.30000000000001
 30
0.0
 11
93.499999999999986
 21
-260.30000000000001
 31
0.0
  0
CIRCLE
  5
184
  8
DATA
  6
CONTINUOUS
 62
     7
 10
-99.0
 20
-250.0
 30
0.0
 40
2.5
  0
LINE
  5
185
  8
DATA
  6
CONTINUOUS
 62
     7
 10
-99.945208913703425
 20
-250.0
 30
0.0
 11
-98.054791086296561
 21
-250.0
 31
0.0
  0
LINE
  5
186
  8
DATA
  6
CONTINUOUS
 62
     7
 10
-99.0
 20
-250.9452089137034
 30
0.0
 11
-99.0
 21
-249.0547910862966
 31
0.0
  0
CIRCLE
  5
187
  8
DATA
  6
CONTINUOUS
 62
     7
 10
-279.0
 20
-250.0
 30
0.0
 40
2.5
  0
LINE
  5
188
  8
DATA
  6
CONTINUOUS
 62
     7
 10
-279.94520891370342
 20
-250.0
 30
0.0
 11
-278.05479108629658
 21
-250.0
 31
0.0
  0
LINE
  5
189
  8
DATA
  6
CONTINUOUS
 62
     7
 10
-279.0
 20
-250.9452089137034
 30
0.0
 11
-279.0
 21
-249.0547910862966
 31
0.0
  0
CIRCLE
  5
18A
  8
DATA
  6
CONTINUOUS
 62
     7
 10
81.0
 20
-250.0
 30
0.0
 40
2.5
  0
LINE
  5
18B
  8
DATA
  6
CONTINUOUS
 62
     7
 10
80.054791086296575
 20
-250.0
 30
0.0
 11
81.945208913703425
 21
-250.0
 31
0.0
  0
LINE
  5
18C
  8
DATA
  6
CONTINUOUS
 62
     7
 10
81.0
 20
-250.9452089137034
 30
0.0
 11
81.0
 21
-249.0547910862966
 31
0.0
  0
LINE
  5
18D
  8
DATA
  6
CONTINUOUS
 62
     7
 10
142.0
 20
25.000000000000011
 30
0.0
 11
142.0
 21
-20.0
 31
0.0
  0
LINE
  5
18E
  8
DATA
  6
CONTINUOUS
 62
     7
 10
-340.0
 20
25.000000000000011
 30
0.0
 11
142.0
 21
25.000000000000011
 31
0.0
  0
LINE
  5
18F
  8
DATA
  6
CONTINUOUS
 62
     7
 10
-340.0
 20
-20.0
 30
0.0
 11
-340.0
 21
25.000000000000011
 31
0.0
  0
LINE
  5
190
  8
DATA
  6
CONTINUOUS
 62
     7
 10
142.0
 20
-20.0
 30
0.0
 11
-340.0
 21
-20.0
 31
0.0
  0
ARC
  5
191
  8
DATA
  6
CONTINUOUS
 62
     7
 10
136.50000005983179
 20
-13.40000000000002
 30
0.0
 40
3.000000000000056
 50
270.0
 51
90.0
  0
ARC
  5
192
  8
DATA
  6
CONTINUOUS
 62
     7
 10
130.50084751745879
 20
-13.40084745762714
 30
0.0
 40
3.0008475772907151
 50
90.016180677205881
 51
268.07413681505159
  0
LINE
  5
193
  8
DATA
  6
CONTINUOUS
 62
     7
 10
136.50000005983179
 20
-16.400000000000091
 30
0.0
 11
130.4000000598318
 21
-16.400000000000031
 31
0.0
  0
LINE
  5
194
  8
DATA
  6
CONTINUOUS
 62
     7
 10
136.50000005983179
 20
-10.40000000000002
 30
0.0
 11
130.50000005983179
 21
-10.40000000000002
 31
0.0
  0
ARC
  5
195
  8
DATA
  6
CONTINUOUS
 62
     7
 10
136.50000005983179
 20
18.399999999999981
 30
0.0
 40
3.000000000000056
 50
270.0
 51
90.0
  0
ARC
  5
196
  8
DATA
  6
CONTINUOUS
 62
     7
 10
130.50084751745879
 20
18.39915254237286
 30
0.0
 40
3.0008475772907151
 50
90.016180677205881
 51
268.07413681505159
  0
LINE
  5
197
  8
DATA
  6
CONTINUOUS
 62
     7
 10
136.50000005983179
 20
15.399999999999929
 30
0.0
 11
130.4000000598318
 21
15.399999999999981
 31
0.0
  0
LINE
  5
198
  8
DATA
  6
CONTINUOUS
 62
     7
 10
136.50000005983179
 20
21.399999999999981
 30
0.0
 11
130.50000005983179
 21
21.399999999999981
 31
0.0
  0
ARC
  5
199
  8
DATA
  6
CONTINUOUS
 62
     7
 10
-334.50000005983179
 20
-13.40000000000002
 30
0.0
 40
3.000000000000056
 50
90.0
 51
270.0
  0
ARC
  5
19A
  8
DATA
  6
CONTINUOUS
 62
     7
 10
-328.50084751745879
 20
-13.40084745762714
 30
0.0
 40
3.0008475772907142
 50
271.92586318494853
 51
89.983819322794119
  0
LINE
  5
19B
  8
DATA
  6
CONTINUOUS
 62
     7
 10
-334.50000005983179
 20
-16.400000000000091
 30
0.0
 11
-328.40000005983188
 21
-16.400000000000031
 31
0.0
  0
LINE
  5
19C
  8
DATA
  6
CONTINUOUS
 62
     7
 10
-334.50000005983179
 20
-10.40000000000002
 30
0.0
 11
-328.50000005983168
 21
-10.40000000000002
 31
0.0
  0
ARC
  5
19D
  8
DATA
  6
CONTINUOUS
 62
     7
 10
-334.50000005983179
 20
18.399999999999981
 30
0.0
 40
3.000000000000056
 50
90.0
 51
270.0
  0
ARC
  5
19E
  8
DATA
  6
CONTINUOUS
 62
     7
 10
-328.50084751745879
 20
18.39915254237286
 30
0.0
 40
3.0008475772907142
 50
271.92586318494853
 51
89.983819322794119
  0
LINE
  5
19F
  8
DATA
  6
CONTINUOUS
 62
     7
 10
-334.50000005983179
 20
15.399999999999929
 30
0.0
 11
-328.40000005983188
 21
15.399999999999981
 31
0.0
  0
LINE
  5
1A0
  8
DATA
  6
CONTINUOUS
 62
     7
 10
-334.50000005983179
 20
21.399999999999981
 30
0.0
 11
-328.50000005983168
 21
21.399999999999981
 31
0.0
  0
LINE
  5
1A1
  8
DATA
  6
CONTINUOUS
 62
     7
 10
124.0
 20
25.000000000000011
 30
0.0
 11
124.0
 21
-20.0
 31
0.0
  0
LINE
  5
1A2
  8
DATA
  6
CONTINUOUS
 62
     7
 10
-321.99999999999989
 20
25.000000000000011
 30
0.0
 11
-321.99999999999989
 21
-20.0
 31
0.0
  0
LINE
  5
1A3
  8
DATA
  6
CONTINUOUS
 62
     7
 10
118.0
 20
-14.0
 30
0.0
 11
94.882033661555525
 21
-14.0
 31
0.0
  0
LINE
  5
1A4
  8
DATA
  6
CONTINUOUS
 62
     7
 10
87.116771548923325
 20
-14.0
 30
0.0
 11
74.000000000000028
 21
-14.0
 31
0.0
  0
LINE
  5
1A5
  8
DATA
  6
CONTINUOUS
 62
     7
 10
64.0
 20
-14.0
 30
0.0
 11
51.882033661555511
 21
-14.0
 31
0.0
  0
LINE
  5
1A6
  8
DATA
  6
CONTINUOUS
 62
     7
 10
44.11677154892331
 20
-14.0
 30
0.0
 11
23.882033661555479
 21
-14.0
 31
0.0
  0
LINE
  5
1A7
  8
DATA
  6
CONTINUOUS
 62
     7
 10
16.11677154892331
 20
-14.0
 30
0.0
 11
-19.117966338444521
 21
-14.0
 31
0.0
  0
LINE
  5
1A8
  8
DATA
  6
CONTINUOUS
 62
     7
 10
-26.88322845107669
 20
-14.0
 30
0.0
 11
-240.0
 21
-13.999999999999989
 31
0.0
  0
LINE
  5
1A9
  8
DATA
  6
CONTINUOUS
 62
     7
 10
-250.0
 20
-13.999999999999989
 30
0.0
 11
-316.0
 21
-13.999999999999989
 31
0.0
  0
LINE
  5
1AA
  8
DATA
  6
CONTINUOUS
 62
     7
 10
118.0
 20
25.000000000000011
 30
0.0
 11
118.0
 21
-14.0
 31
0.0
  0
LINE
  5
1AB
  8
DATA
  6
CONTINUOUS
 62
     7
 10
118.0
 20
-14.0
 30
0.0
 11
124.0
 21
-20.0
 31
0.0
  0
LINE
  5
1AC
  8
DATA
  6
CONTINUOUS
 62
     7
 10
-316.0
 20
25.000000000000011
 30
0.0
 11
-316.0
 21
-13.999999999999989
 31
0.0
  0
LINE
  5
1AD
  8
DATA
  6
CONTINUOUS
 62
     7
 10
-316.0
 20
-13.999999999999989
 30
0.0
 11
-321.99999999999989
 21
-20.0
 31
0.0
  0
CIRCLE
  5
1AE
  8
DATA
  6
CONTINUOUS
 62
     7
 10
91.0
 20
2.0000000000000071
 30
0.0
 40
11.0
  0
ARC
  5
1AF
  8
DATA
  6
CONTINUOUS
 62
     7
 10
90.999999999999318
 20
2.000000000000814
 30
0.0
 40
7.5000000000010596
 50
317.06352490467691
 51
301.773309987581
  0
CIRCLE
  5
1B0
  8
DATA
  6
CONTINUOUS
 62
     7
 10
81.100505063388283
 20
11.89949493661158
 30
0.0
 40
2.5
  0
LINE
  5
1B1
  8
DATA
  6
CONTINUOUS
 62
     7
 10
80.464466094067234
 20
12.53553390593266
 30
0.0
 11
81.736544032709389
 21
11.263455967290501
 31
0.0
  0
LINE
  5
1B2
  8
DATA
  6
CONTINUOUS
 62
     7
 10
81.756648387479302
 20
12.51477298696032
 30
0.0
 11
80.485227013039605
 21
11.24335161252063
 31
0.0
  0
CIRCLE
  5
1B3
  8
DATA
  6
CONTINUOUS
 62
     7
 10
100.8994949366115
 20
-7.8994949366116938
 30
0.0
 40
2.5
  0
LINE
  5
1B4
  8
DATA
  6
CONTINUOUS
 62
     7
 10
101.5355339059326
 20
-8.5355339059327733
 30
0.0
 11
100.2634559672905
 21
-7.2634559672906169
 31
0.0
  0
LINE
  5
1B5
  8
DATA
  6
CONTINUOUS
 62
     7
 10
101.5147729869603
 20
-7.2433516125207182
 30
0.0
 11
100.2433516125206
 21
-8.5147729869604021
 31
0.0
  0
CIRCLE
  5
1B6
  8
DATA
  6
CONTINUOUS
 62
     7
 10
91.0
 20
5.850000000000029
 30
0.0
 40
1.25
  0
CIRCLE
  5
1B7
  8
DATA
  6
CONTINUOUS
 62
     7
 10
94.850000000000023
 20
1.729914846042742
 30
0.0
 40
1.25
  0
CIRCLE
  5
1B8
  8
DATA
  6
CONTINUOUS
 62
     7
 10
87.149999999999963
 20
1.729914846042742
 30
0.0
 40
1.25
  0
ARC
  5
1B9
  8
DATA
  6
CONTINUOUS
 62
     7
 10
95.762341538551794
 20
-3.793971269361228
 30
0.0
 40
1.0000000000000051
 50
215.5958637168537
 51
43.240971175398933
  0
LINE
  5
1BA
  8
DATA
  6
CONTINUOUS
 62
     7
 10
78.0
 20
16.244075755457569
 30
0.0
 11
78.0
 21
4.7440757554575681
 31
0.0
  0
LINE
  5
1BB
  8
DATA
  6
CONTINUOUS
 62
     7
 10
62.0
 20
16.244075755457569
 30
0.0
 11
62.0
 21
4.7440757554575681
 31
0.0
  0
LINE
  5
1BC
  8
DATA
  6
CONTINUOUS
 62
     7
 10
78.0
 20
16.244075755457569
 30
0.0
 11
62.0
 21
16.244075755457569
 31
0.0
  0
LINE
  5
1BD
  8
DATA
  6
CONTINUOUS
 62
     7
 10
78.0
 20
4.7440757554575681
 30
0.0
 11
62.0
 21
4.7440757554575681
 31
0.0
  0
LINE
  5
1BE
  8
DATA
  6
CONTINUOUS
 62
     7
 10
93.999644639756781
 20
-9.3318974575776963
 30
0.0
 11
87.999666341146167
 21
-9.3318974575776963
 31
0.0
  0
LINE
  5
1BF
  8
DATA
  6
CONTINUOUS
 62
     7
 10
86.000132921006738
 20
-11.331430877716651
 30
0.0
 11
86.000132921006738
 21
-12.207863169383209
 31
0.0
  0
LINE
  5
1C0
  8
DATA
  6
CONTINUOUS
 62
     7
 10
95.999867078993219
 20
-11.331430877716651
 30
0.0
 11
95.999867078993219
 21
-12.207863169383209
 31
0.0
  0
LINE
  5
1C1
  8
DATA
  6
CONTINUOUS
 62
     7
 10
93.500105794270439
 20
-8.7121179519950775
 30
0.0
 11
93.500105794270439
 21
-9.3318974575776963
 31
0.0
  0
LINE
  5
1C2
  8
DATA
  6
CONTINUOUS
 62
     7
 10
88.499894205728665
 20
-8.7121179519948662
 30
0.0
 11
88.499894205728665
 21
-9.3318974575776963
 31
0.0
  0
LINE
  5
1C3
  8
DATA
  6
CONTINUOUS
 62
     7
 10
93.999644639756781
 20
-9.3318974575776963
 30
0.0
 11
87.999666341146167
 21
-9.3318974575776963
 31
0.0
  0
LINE
  5
1C4
  8
DATA
  6
CONTINUOUS
 62
     7
 10
86.000132921006738
 20
-11.331430877716651
 30
0.0
 11
86.000132921006738
 21
-12.207863169383209
 31
0.0
  0
LINE
  5
1C5
  8
DATA
  6
CONTINUOUS
 62
     7
 10
95.999867078993219
 20
-11.331430877716651
 30
0.0
 11
95.999867078993219
 21
-12.207863169383209
 31
0.0
  0
ARC
  5
1C6
  8
DATA
  6
CONTINUOUS
 62
     7
 10
93.983565025898073
 20
-11.34820517026057
 30
0.0
 40
2.0163718273686779
 50
0.4766517960999203
 51
89.543088351695474
  0
ARC
  5
1C7
  8
DATA
  6
CONTINUOUS
 62
     7
 10
88.015330870189587
 20
-11.347095406760531
 30
0.0
 40
2.0152588299920322
 50
90.445362365824181
 51
179.5546376341629
  0
ARC
  5
1C8
  8
DATA
  6
CONTINUOUS
 62
     7
 10
93.953146991243116
 20
-12.17592413166377
 30
0.0
 40
2.046969276694341
 50
290.73844905089891
 51
359.10597274466159
  0
ARC
  5
1C9
  8
DATA
  6
CONTINUOUS
 62
     7
 10
88.040686555193005
 20
-12.18038597739522
 30
0.0
 40
2.0407386236532901
 50
180.7714729790876
 51
249.3700582947904
  0
ARC
  5
1CA
  8
DATA
  6
CONTINUOUS
 62
     7
 10
90.999827745225488
 20
-3.8775923426844359
 30
0.0
 40
10.85483680028779
 50
250.1932041327924
 51
289.8067958672076
  0
CIRCLE
  5
1CB
  8
DATA
  6
CONTINUOUS
 62
     7
 10
48.0
 20
2.0000000000000071
 30
0.0
 40
11.0
  0
ARC
  5
1CC
  8
DATA
  6
CONTINUOUS
 62
     7
 10
47.999999999999318
 20
2.000000000000814
 30
0.0
 40
7.5000000000010596
 50
317.06352490467691
 51
301.773309987581
  0
CIRCLE
  5
1CD
  8
DATA
  6
CONTINUOUS
 62
     7
 10
38.100505063388312
 20
11.89949493661158
 30
0.0
 40
2.5
  0
LINE
  5
1CE
  8
DATA
  6
CONTINUOUS
 62
     7
 10
37.464466094067227
 20
12.53553390593266
 30
0.0
 11
38.736544032709382
 21
11.263455967290501
 31
0.0
  0
LINE
  5
1CF
  8
DATA
  6
CONTINUOUS
 62
     7
 10
38.756648387479288
 20
12.51477298696032
 30
0.0
 11
37.485227013039612
 21
11.24335161252063
 31
0.0
  0
CIRCLE
  5
1D0
  8
DATA
  6
CONTINUOUS
 62
     7
 10
57.899494936611582
 20
-7.8994949366116938
 30
0.0
 40
2.5
  0
LINE
  5
1D1
  8
DATA
  6
CONTINUOUS
 62
     7
 10
58.535533905932652
 20
-8.5355339059327733
 30
0.0
 11
57.263455967290497
 21
-7.2634559672906169
 31
0.0
  0
LINE
  5
1D2
  8
DATA
  6
CONTINUOUS
 62
     7
 10
58.514772986960352
 20
-7.2433516125207182
 30
0.0
 11
57.243351612520598
 21
-8.5147729869604021
 31
0.0
  0
CIRCLE
  5
1D3
  8
DATA
  6
CONTINUOUS
 62
     7
 10
48.0
 20
5.850000000000029
 30
0.0
 40
1.25
  0
CIRCLE
  5
1D4
  8
DATA
  6
CONTINUOUS
 62
     7
 10
51.850000000000023
 20
1.729914846042742
 30
0.0
 40
1.25
  0
CIRCLE
  5
1D5
  8
DATA
  6
CONTINUOUS
 62
     7
 10
44.149999999999977
 20
1.729914846042742
 30
0.0
 40
1.25
  0
ARC
  5
1D6
  8
DATA
  6
CONTINUOUS
 62
     7
 10
52.762341538551809
 20
-3.793971269361228
 30
0.0
 40
1.0000000000000051
 50
215.5958637168537
 51
43.240971175398933
  0
LINE
  5
1D7
  8
DATA
  6
CONTINUOUS
 62
     7
 10
50.999644639756738
 20
-9.3318974575776963
 30
0.0
 11
44.999666341146167
 21
-9.3318974575776963
 31
0.0
  0
LINE
  5
1D8
  8
DATA
  6
CONTINUOUS
 62
     7
 10
43.000132921006752
 20
-11.331430877716651
 30
0.0
 11
43.000132921006752
 21
-12.207863169383209
 31
0.0
  0
LINE
  5
1D9
  8
DATA
  6
CONTINUOUS
 62
     7
 10
52.999867078993248
 20
-11.331430877716651
 30
0.0
 11
52.999867078993248
 21
-12.207863169383209
 31
0.0
  0
LINE
  5
1DA
  8
DATA
  6
CONTINUOUS
 62
     7
 10
50.500105794270439
 20
-8.7121179519950775
 30
0.0
 11
50.500105794270439
 21
-9.3318974575776963
 31
0.0
  0
LINE
  5
1DB
  8
DATA
  6
CONTINUOUS
 62
     7
 10
45.499894205728637
 20
-8.7121179519948662
 30
0.0
 11
45.499894205728637
 21
-9.3318974575776963
 31
0.0
  0
LINE
  5
1DC
  8
DATA
  6
CONTINUOUS
 62
     7
 10
50.999644639756738
 20
-9.3318974575776963
 30
0.0
 11
44.999666341146167
 21
-9.3318974575776963
 31
0.0
  0
LINE
  5
1DD
  8
DATA
  6
CONTINUOUS
 62
     7
 10
43.000132921006752
 20
-11.331430877716651
 30
0.0
 11
43.000132921006752
 21
-12.207863169383209
 31
0.0
  0
LINE
  5
1DE
  8
DATA
  6
CONTINUOUS
 62
     7
 10
52.999867078993248
 20
-11.331430877716651
 30
0.0
 11
52.999867078993248
 21
-12.207863169383209
 31
0.0
  0
ARC
  5
1DF
  8
DATA
  6
CONTINUOUS
 62
     7
 10
50.983565025898088
 20
-11.34820517026057
 30
0.0
 40
2.0163718273686779
 50
0.4766517960999203
 51
89.543088351695474
  0
ARC
  5
1E0
  8
DATA
  6
CONTINUOUS
 62
     7
 10
45.015330870189587
 20
-11.347095406760531
 30
0.0
 40
2.0152588299920322
 50
90.445362365824181
 51
179.5546376341629
  0
ARC
  5
1E1
  8
DATA
  6
CONTINUOUS
 62
     7
 10
50.953146991243102
 20
-12.17592413166377
 30
0.0
 40
2.046969276694341
 50
290.73844905089891
 51
359.10597274466159
  0
ARC
  5
1E2
  8
DATA
  6
CONTINUOUS
 62
     7
 10
45.040686555193027
 20
-12.18038597739522
 30
0.0
 40
2.0407386236532901
 50
180.7714729790876
 51
249.3700582947904
  0
ARC
  5
1E3
  8
DATA
  6
CONTINUOUS
 62
     7
 10
47.999827745225502
 20
-3.8775923426844359
 30
0.0
 40
10.85483680028779
 50
250.1932041327924
 51
289.8067958672076
  0
LINE
  5
1E4
  8
DATA
  6
CONTINUOUS
 62
     7
 10
77.015811939740814
 20
10.39665200348141
 30
0.0
 11
77.015811939740814
 21
6.8966520034814076
 31
0.0
  0
LINE
  5
1E5
  8
DATA
  6
CONTINUOUS
 62
     7
 10
75.715811939740803
 20
10.39665200348141
 30
0.0
 11
77.015811939740814
 21
10.39665200348141
 31
0.0
  0
LINE
  5
1E6
  8
DATA
  6
CONTINUOUS
 62
     7
 10
75.715811939740803
 20
6.8966520034814076
 30
0.0
 11
75.715811939740803
 21
10.39665200348141
 31
0.0
  0
LINE
  5
1E7
  8
DATA
  6
CONTINUOUS
 62
     7
 10
77.015811939740814
 20
6.8966520034814076
 30
0.0
 11
75.715811939740803
 21
6.8966520034814076
 31
0.0
  0
LINE
  5
1E8
  8
DATA
  6
CONTINUOUS
 62
     7
 10
74.515811939740814
 20
10.39665200348141
 30
0.0
 11
74.515811939740814
 21
6.8966520034814076
 31
0.0
  0
LINE
  5
1E9
  8
DATA
  6
CONTINUOUS
 62
     7
 10
73.215811939740803
 20
10.39665200348141
 30
0.0
 11
74.515811939740814
 21
10.39665200348141
 31
0.0
  0
LINE
  5
1EA
  8
DATA
  6
CONTINUOUS
 62
     7
 10
73.215811939740803
 20
6.8966520034814076
 30
0.0
 11
73.215811939740803
 21
10.39665200348141
 31
0.0
  0
LINE
  5
1EB
  8
DATA
  6
CONTINUOUS
 62
     7
 10
74.515811939740814
 20
6.8966520034814076
 30
0.0
 11
73.215811939740803
 21
6.8966520034814076
 31
0.0
  0
LINE
  5
1EC
  8
DATA
  6
CONTINUOUS
 62
     7
 10
72.015811939740814
 20
10.39665200348141
 30
0.0
 11
72.015811939740814
 21
6.8966520034814076
 31
0.0
  0
LINE
  5
1ED
  8
DATA
  6
CONTINUOUS
 62
     7
 10
70.715811939740803
 20
10.39665200348141
 30
0.0
 11
72.015811939740814
 21
10.39665200348141
 31
0.0
  0
LINE
  5
1EE
  8
DATA
  6
CONTINUOUS
 62
     7
 10
70.715811939740803
 20
6.8966520034814076
 30
0.0
 11
70.715811939740803
 21
10.39665200348141
 31
0.0
  0
LINE
  5
1EF
  8
DATA
  6
CONTINUOUS
 62
     7
 10
72.015811939740814
 20
6.8966520034814076
 30
0.0
 11
70.715811939740803
 21
6.8966520034814076
 31
0.0
  0
LINE
  5
1F0
  8
DATA
  6
CONTINUOUS
 62
     7
 10
69.515811939740814
 20
10.39665200348141
 30
0.0
 11
69.515811939740814
 21
6.8966520034814076
 31
0.0
  0
LINE
  5
1F1
  8
DATA
  6
CONTINUOUS
 62
     7
 10
68.215811939740803
 20
10.39665200348141
 30
0.0
 11
69.515811939740814
 21
10.39665200348141
 31
0.0
  0
LINE
  5
1F2
  8
DATA
  6
CONTINUOUS
 62
     7
 10
68.215811939740803
 20
6.8966520034814076
 30
0.0
 11
68.215811939740803
 21
10.39665200348141
 31
0.0
  0
LINE
  5
1F3
  8
DATA
  6
CONTINUOUS
 62
     7
 10
69.515811939740814
 20
6.8966520034814076
 30
0.0
 11
68.215811939740803
 21
6.8966520034814076
 31
0.0
  0
LINE
  5
1F4
  8
DATA
  6
CONTINUOUS
 62
     7
 10
67.015811939740814
 20
10.39665200348141
 30
0.0
 11
67.015811939740814
 21
6.8966520034814076
 31
0.0
  0
LINE
  5
1F5
  8
DATA
  6
CONTINUOUS
 62
     7
 10
65.715811939740803
 20
10.39665200348141
 30
0.0
 11
67.015811939740814
 21
10.39665200348141
 31
0.0
  0
LINE
  5
1F6
  8
DATA
  6
CONTINUOUS
 62
     7
 10
65.715811939740803
 20
6.8966520034814076
 30
0.0
 11
65.715811939740803
 21
10.39665200348141
 31
0.0
  0
LINE
  5
1F7
  8
DATA
  6
CONTINUOUS
 62
     7
 10
67.015811939740814
 20
6.8966520034814076
 30
0.0
 11
65.715811939740803
 21
6.8966520034814076
 31
0.0
  0
LINE
  5
1F8
  8
DATA
  6
CONTINUOUS
 62
     7
 10
64.515811939740814
 20
10.39665200348141
 30
0.0
 11
64.515811939740814
 21
6.8966520034814076
 31
0.0
  0
LINE
  5
1F9
  8
DATA
  6
CONTINUOUS
 62
     7
 10
63.215811939740803
 20
10.39665200348141
 30
0.0
 11
64.515811939740814
 21
10.39665200348141
 31
0.0
  0
LINE
  5
1FA
  8
DATA
  6
CONTINUOUS
 62
     7
 10
63.215811939740803
 20
6.8966520034814076
 30
0.0
 11
63.215811939740803
 21
10.39665200348141
 31
0.0
  0
LINE
  5
1FB
  8
DATA
  6
CONTINUOUS
 62
     7
 10
64.515811939740814
 20
6.8966520034814076
 30
0.0
 11
63.215811939740803
 21
6.8966520034814076
 31
0.0
  0
TEXT
  5
1FC
  8
DATA
 62
     7
 10
76.891901475823886
 20
12.92289946319141
 30
0.0
 40
1.7374305814452899
  1
1
 50
180.0
 41
0.7
 11
76.891901475823886
 21
12.054184172468769
 31
0.0
 73
     2
  0
TEXT
  5
1FD
  8
DATA
 62
     7
 10
74.391901475823886
 20
12.92289946319141
 30
0.0
 40
1.7374305814452899
  1
2
 50
180.0
 41
0.7
 11
74.391901475823886
 21
12.054184172468769
 31
0.0
 73
     2
  0
TEXT
  5
1FE
  8
DATA
 62
     7
 10
71.891901475823886
 20
12.92289946319141
 30
0.0
 40
1.7374305814452899
  1
3
 50
180.0
 41
0.7
 11
71.891901475823886
 21
12.054184172468769
 31
0.0
 73
     2
  0
TEXT
  5
1FF
  8
DATA
 62
     7
 10
69.391901475823886
 20
12.92289946319141
 30
0.0
 40
1.7374305814452899
  1
4
 50
180.0
 41
0.7
 11
69.391901475823886
 21
12.054184172468769
 31
0.0
 73
     2
  0
TEXT
  5
200
  8
DATA
 62
     7
 10
66.891901475823886
 20
12.92289946319141
 30
0.0
 40
1.7374305814452899
  1
5
 50
180.0
 41
0.7
 11
66.891901475823886
 21
12.054184172468769
 31
0.0
 73
     2
  0
TEXT
  5
201
  8
DATA
 62
     7
 10
64.391901475823886
 20
12.92289946319141
 30
0.0
 40
1.7374305814452899
  1
6
 50
180.0
 41
0.7
 11
64.391901475823886
 21
12.054184172468769
 31
0.0
 73
     2
  0
TEXT
  5
202
  8
DATA
 62
     7
 10
66.590087479061168
 20
15.60800550854106
 30
0.0
 40
1.7374305814452899
  1
ON
 50
180.0
 41
0.7
 11
66.590087479061168
 21
14.739290217818411
 31
0.0
 73
     2
  0
LINE
  5
203
  8
DATA
  6
CONTINUOUS
 62
     7
 10
63.5
 20
13.6
 30
0.0
 11
63.5
 21
15.84435691988568
 31
0.0
  0
LINE
  5
204
  8
DATA
  6
CONTINUOUS
 62
     7
 10
63.5
 20
15.84435691988568
 30
0.0
 11
63.742958763472572
 21
15.42353999740712
 31
0.0
  0
LINE
  5
205
  8
DATA
  6
CONTINUOUS
 62
     7
 10
63.5
 20
15.84435691988568
 30
0.0
 11
63.257041236527442
 21
15.42353999740712
 31
0.0
  0
TEXT
  5
206
  8
DATA
 62
     7
 10
75.547508173758771
 20
4.3077844545401556
 30
0.0
 40
1.7374305814452899
  1
Phant.Pwr
 50
270.0
 41
0.7
 11
76.416223464481419
 21
4.3077844545401556
 31
0.0
 73
     2
  0
TEXT
  5
207
  8
DATA
 62
     7
 10
73.047508173758771
 20
4.3077844545401556
 30
0.0
 40
1.7374305814452899
  1
Mic/Line
 50
270.0
 41
0.7
 11
73.916223464481419
 21
4.3077844545401556
 31
0.0
 73
     2
  0
TEXT
  5
208
  8
DATA
 62
     7
 10
70.547508173758771
 20
4.3077844545401556
 30
0.0
 40
1.7374305814452899
  1
Mic-Hi/Low
 50
270.0
 41
0.7
 11
71.416223464481419
 21
4.3077844545401556
 31
0.0
 73
     2
  0
TEXT
  5
209
  8
DATA
 62
     7
 10
68.047508173758771
 20
4.3077844545401556
 30
0.0
 40
1.7374305814452899
  1
Phant.Pwr
 50
270.0
 41
0.7
 11
68.916223464481419
 21
4.3077844545401556
 31
0.0
 73
     2
  0
TEXT
  5
20A
  8
DATA
 62
     7
 10
65.547508173758771
 20
4.3077844545401556
 30
0.0
 40
1.7374305814452899
  1
Mic/Line
 50
270.0
 41
0.7
 11
66.416223464481419
 21
4.3077844545401556
 31
0.0
 73
     2
  0
TEXT
  5
20B
  8
DATA
 62
     7
 10
63.047508173758771
 20
4.3077844545401556
 30
0.0
 40
1.7374305814452899
  1
Mic-Hi/Low
 50
270.0
 41
0.7
 11
63.916223464481419
 21
4.3077844545401556
 31
0.0
 73
     2
  0
TEXT
  5
20C
  8
DATA
 62
     7
 10
101.3413834217959
 20
22.1579625568491
 30
0.0
 40
2.606145872167934
  1
IN1-MIC/LINE
 50
180.0
 41
0.7
 11
101.3413834217959
 21
20.854889620765132
 31
0.0
 73
     2
  0
TEXT
  5
20D
  8
DATA
 62
     7
 10
58.107739134409933
 20
22.1579625568491
 30
0.0
 40
2.606145872167934
  1
IN2-MIC/LINE
 50
180.0
 41
0.7
 11
58.107739134409933
 21
20.854889620765132
 31
0.0
 73
     2
  0
TEXT
  5
20E
  8
DATA
 62
     7
 10
77.048695779434524
 20
22.175808442781818
 30
0.0
 40
2.606145872167934
  1
IN1
 50
180.0
 41
0.7
 11
77.048695779434524
 21
20.87273550669785
 31
0.0
 73
     2
  0
LINE
  5
20F
  8
DATA
  6
CONTINUOUS
 62
     7
 10
70.0
 20
16.244075755457569
 30
0.0
 11
70.0
 21
25.000000000000011
 31
0.0
  0
TEXT
  5
210
  8
DATA
 62
     7
 10
68.55739145793757
 20
22.175808442781818
 30
0.0
 40
2.606145872167934
  1
IN2
 50
180.0
 41
0.7
 11
68.55739145793757
 21
20.87273550669785
 31
0.0
 73
     2
  0
CIRCLE
  5
211
  8
DATA
  6
CONTINUOUS
 62
     7
 10
20.0
 20
2.0000000000000071
 30
0.0
 40
11.0
  0
ARC
  5
212
  8
DATA
  6
CONTINUOUS
 62
     7
 10
19.999999999999321
 20
2.000000000000814
 30
0.0
 40
7.5000000000010596
 50
317.06352490467691
 51
301.773309987581
  0
CIRCLE
  5
213
  8
DATA
  6
CONTINUOUS
 62
     7
 10
10.10050506338831
 20
11.89949493661158
 30
0.0
 40
2.5
  0
LINE
  5
214
  8
DATA
  6
CONTINUOUS
 62
     7
 10
9.464466094067232
 20
12.53553390593266
 30
0.0
 11
10.73654403270938
 21
11.263455967290501
 31
0.0
  0
LINE
  5
215
  8
DATA
  6
CONTINUOUS
 62
     7
 10
10.756648387479281
 20
12.51477298696032
 30
0.0
 11
9.4852270130396032
 21
11.24335161252063
 31
0.0
  0
CIRCLE
  5
216
  8
DATA
  6
CONTINUOUS
 62
     7
 10
29.899494936611571
 20
-7.8994949366116938
 30
0.0
 40
2.5
  0
LINE
  5
217
  8
DATA
  6
CONTINUOUS
 62
     7
 10
30.535533905932649
 20
-8.5355339059327733
 30
0.0
 11
29.263455967290501
 21
-7.2634559672906169
 31
0.0
  0
LINE
  5
218
  8
DATA
  6
CONTINUOUS
 62
     7
 10
30.514772986960331
 20
-7.2433516125207182
 30
0.0
 11
29.243351612520598
 21
-8.5147729869604021
 31
0.0
  0
CIRCLE
  5
219
  8
DATA
  6
CONTINUOUS
 62
     7
 10
20.0
 20
5.850000000000029
 30
0.0
 40
1.25
  0
CIRCLE
  5
21A
  8
DATA
  6
CONTINUOUS
 62
     7
 10
23.850000000000019
 20
1.729914846042742
 30
0.0
 40
1.25
  0
CIRCLE
  5
21B
  8
DATA
  6
CONTINUOUS
 62
     7
 10
16.14999999999997
 20
1.729914846042742
 30
0.0
 40
1.25
  0
ARC
  5
21C
  8
DATA
  6
CONTINUOUS
 62
     7
 10
24.76234153855183
 20
-3.793971269361228
 30
0.0
 40
1.0000000000000051
 50
215.5958637168537
 51
43.240971175398933
  0
LINE
  5
21D
  8
DATA
  6
CONTINUOUS
 62
     7
 10
7.0
 20
16.244075755457569
 30
0.0
 11
7.0
 21
4.7440757554575681
 31
0.0
  0
LINE
  5
21E
  8
DATA
  6
CONTINUOUS
 62
     7
 10
-9.0
 20
16.244075755457569
 30
0.0
 11
-9.0
 21
4.7440757554575681
 31
0.0
  0
LINE
  5
21F
  8
DATA
  6
CONTINUOUS
 62
     7
 10
7.0
 20
16.244075755457569
 30
0.0
 11
-9.0
 21
16.244075755457569
 31
0.0
  0
LINE
  5
220
  8
DATA
  6
CONTINUOUS
 62
     7
 10
7.0
 20
4.7440757554575681
 30
0.0
 11
-9.0
 21
4.7440757554575681
 31
0.0
  0
LINE
  5
221
  8
DATA
  6
CONTINUOUS
 62
     7
 10
22.999644639756749
 20
-9.3318974575776963
 30
0.0
 11
16.99966634114617
 21
-9.3318974575776963
 31
0.0
  0
LINE
  5
222
  8
DATA
  6
CONTINUOUS
 62
     7
 10
15.000132921006751
 20
-11.331430877716651
 30
0.0
 11
15.000132921006751
 21
-12.207863169383209
 31
0.0
  0
LINE
  5
223
  8
DATA
  6
CONTINUOUS
 62
     7
 10
24.999867078993251
 20
-11.331430877716651
 30
0.0
 11
24.999867078993251
 21
-12.207863169383209
 31
0.0
  0
LINE
  5
224
  8
DATA
  6
CONTINUOUS
 62
     7
 10
22.500105794270439
 20
-8.7121179519950775
 30
0.0
 11
22.500105794270439
 21
-9.3318974575776963
 31
0.0
  0
LINE
  5
225
  8
DATA
  6
CONTINUOUS
 62
     7
 10
17.499894205728651
 20
-8.7121179519948662
 30
0.0
 11
17.499894205728651
 21
-9.3318974575776963
 31
0.0
  0
LINE
  5
226
  8
DATA
  6
CONTINUOUS
 62
     7
 10
22.999644639756749
 20
-9.3318974575776963
 30
0.0
 11
16.99966634114617
 21
-9.3318974575776963
 31
0.0
  0
LINE
  5
227
  8
DATA
  6
CONTINUOUS
 62
     7
 10
15.000132921006751
 20
-11.331430877716651
 30
0.0
 11
15.000132921006751
 21
-12.207863169383209
 31
0.0
  0
LINE
  5
228
  8
DATA
  6
CONTINUOUS
 62
     7
 10
24.999867078993251
 20
-11.331430877716651
 30
0.0
 11
24.999867078993251
 21
-12.207863169383209
 31
0.0
  0
ARC
  5
229
  8
DATA
  6
CONTINUOUS
 62
     7
 10
22.983565025898091
 20
-11.34820517026057
 30
0.0
 40
2.0163718273686779
 50
0.4766517960999203
 51
89.543088351695474
  0
ARC
  5
22A
  8
DATA
  6
CONTINUOUS
 62
     7
 10
17.01533087018958
 20
-11.347095406760531
 30
0.0
 40
2.0152588299920322
 50
90.445362365824181
 51
179.5546376341629
  0
ARC
  5
22B
  8
DATA
  6
CONTINUOUS
 62
     7
 10
22.953146991243109
 20
-12.17592413166377
 30
0.0
 40
2.046969276694341
 50
290.73844905089891
 51
359.10597274466159
  0
ARC
  5
22C
  8
DATA
  6
CONTINUOUS
 62
     7
 10
17.04068655519302
 20
-12.18038597739522
 30
0.0
 40
2.0407386236532901
 50
180.7714729790876
 51
249.3700582947904
  0
ARC
  5
22D
  8
DATA
  6
CONTINUOUS
 62
     7
 10
19.999827745225499
 20
-3.8775923426844359
 30
0.0
 40
10.85483680028779
 50
250.1932041327924
 51
289.8067958672076
  0
CIRCLE
  5
22E
  8
DATA
  6
CONTINUOUS
 62
     7
 10
-23.0
 20
2.0000000000000071
 30
0.0
 40
11.0
  0
ARC
  5
22F
  8
DATA
  6
CONTINUOUS
 62
     7
 10
-23.000000000000679
 20
2.000000000000814
 30
0.0
 40
7.5000000000010596
 50
317.06352490467691
 51
301.773309987581
  0
CIRCLE
  5
230
  8
DATA
  6
CONTINUOUS
 62
     7
 10
-32.899494936611688
 20
11.89949493661158
 30
0.0
 40
2.5
  0
LINE
  5
231
  8
DATA
  6
CONTINUOUS
 62
     7
 10
-33.535533905932773
 20
12.53553390593266
 30
0.0
 11
-32.263455967290611
 21
11.263455967290501
 31
0.0
  0
LINE
  5
232
  8
DATA
  6
CONTINUOUS
 62
     7
 10
-32.243351612520712
 20
12.51477298696032
 30
0.0
 11
-33.514772986960388
 21
11.24335161252063
 31
0.0
  0
CIRCLE
  5
233
  8
DATA
  6
CONTINUOUS
 62
     7
 10
-13.100505063388431
 20
-7.8994949366116938
 30
0.0
 40
2.5
  0
LINE
  5
234
  8
DATA
  6
CONTINUOUS
 62
     7
 10
-12.464466094067349
 20
-8.5355339059327733
 30
0.0
 11
-13.736544032709499
 21
-7.2634559672906169
 31
0.0
  0
LINE
  5
235
  8
DATA
  6
CONTINUOUS
 62
     7
 10
-12.48522701303966
 20
-7.2433516125207182
 30
0.0
 11
-13.7566483874794
 21
-8.5147729869604021
 31
0.0
  0
CIRCLE
  5
236
  8
DATA
  6
CONTINUOUS
 62
     7
 10
-23.0
 20
5.850000000000029
 30
0.0
 40
1.25
  0
CIRCLE
  5
237
  8
DATA
  6
CONTINUOUS
 62
     7
 10
-19.149999999999981
 20
1.729914846042742
 30
0.0
 40
1.25
  0
CIRCLE
  5
238
  8
DATA
  6
CONTINUOUS
 62
     7
 10
-26.850000000000019
 20
1.729914846042742
 30
0.0
 40
1.25
  0
ARC
  5
239
  8
DATA
  6
CONTINUOUS
 62
     7
 10
-18.237658461448181
 20
-3.793971269361228
 30
0.0
 40
1.0000000000000051
 50
215.5958637168537
 51
43.240971175398933
  0
LINE
  5
23A
  8
DATA
  6
CONTINUOUS
 62
     7
 10
-20.000355360243251
 20
-9.3318974575776963
 30
0.0
 11
-26.00033365885384
 21
-9.3318974575776963
 31
0.0
  0
LINE
  5
23B
  8
DATA
  6
CONTINUOUS
 62
     7
 10
-27.999867078993251
 20
-11.331430877716651
 30
0.0
 11
-27.999867078993251
 21
-12.207863169383209
 31
0.0
  0
LINE
  5
23C
  8
DATA
  6
CONTINUOUS
 62
     7
 10
-18.000132921006749
 20
-11.331430877716651
 30
0.0
 11
-18.000132921006749
 21
-12.207863169383209
 31
0.0
  0
LINE
  5
23D
  8
DATA
  6
CONTINUOUS
 62
     7
 10
-20.499894205729561
 20
-8.7121179519950775
 30
0.0
 11
-20.499894205729561
 21
-9.3318974575776963
 31
0.0
  0
LINE
  5
23E
  8
DATA
  6
CONTINUOUS
 62
     7
 10
-25.500105794271349
 20
-8.7121179519948662
 30
0.0
 11
-25.500105794271349
 21
-9.3318974575776963
 31
0.0
  0
LINE
  5
23F
  8
DATA
  6
CONTINUOUS
 62
     7
 10
-20.000355360243251
 20
-9.3318974575776963
 30
0.0
 11
-26.00033365885384
 21
-9.3318974575776963
 31
0.0
  0
LINE
  5
240
  8
DATA
  6
CONTINUOUS
 62
     7
 10
-27.999867078993251
 20
-11.331430877716651
 30
0.0
 11
-27.999867078993251
 21
-12.207863169383209
 31
0.0
  0
LINE
  5
241
  8
DATA
  6
CONTINUOUS
 62
     7
 10
-18.000132921006749
 20
-11.331430877716651
 30
0.0
 11
-18.000132921006749
 21
-12.207863169383209
 31
0.0
  0
ARC
  5
242
  8
DATA
  6
CONTINUOUS
 62
     7
 10
-20.016434974101909
 20
-11.34820517026057
 30
0.0
 40
2.0163718273686779
 50
0.4766517960999203
 51
89.543088351695474
  0
ARC
  5
243
  8
DATA
  6
CONTINUOUS
 62
     7
 10
-25.98466912981041
 20
-11.347095406760531
 30
0.0
 40
2.0152588299920322
 50
90.445362365824181
 51
179.5546376341629
  0
ARC
  5
244
  8
DATA
  6
CONTINUOUS
 62
     7
 10
-20.046853008756891
 20
-12.17592413166377
 30
0.0
 40
2.046969276694341
 50
290.73844905089891
 51
359.10597274466159
  0
ARC
  5
245
  8
DATA
  6
CONTINUOUS
 62
     7
 10
-25.95931344480698
 20
-12.18038597739522
 30
0.0
 40
2.0407386236532901
 50
180.7714729790876
 51
249.3700582947904
  0
ARC
  5
246
  8
DATA
  6
CONTINUOUS
 62
     7
 10
-23.000172254774501
 20
-3.8775923426844359
 30
0.0
 40
10.85483680028779
 50
250.1932041327924
 51
289.8067958672076
  0
LINE
  5
247
  8
DATA
  6
CONTINUOUS
 62
     7
 10
6.0158119397408143
 20
10.39665200348141
 30
0.0
 11
6.0158119397408143
 21
6.8966520034814076
 31
0.0
  0
LINE
  5
248
  8
DATA
  6
CONTINUOUS
 62
     7
 10
4.715811939740802
 20
10.39665200348141
 30
0.0
 11
6.0158119397408143
 21
10.39665200348141
 31
0.0
  0
LINE
  5
249
  8
DATA
  6
CONTINUOUS
 62
     7
 10
4.715811939740802
 20
6.8966520034814076
 30
0.0
 11
4.715811939740802
 21
10.39665200348141
 31
0.0
  0
LINE
  5
24A
  8
DATA
  6
CONTINUOUS
 62
     7
 10
6.0158119397408143
 20
6.8966520034814076
 30
0.0
 11
4.715811939740802
 21
6.8966520034814076
 31
0.0
  0
LINE
  5
24B
  8
DATA
  6
CONTINUOUS
 62
     7
 10
3.5158119397408139
 20
10.39665200348141
 30
0.0
 11
3.5158119397408139
 21
6.8966520034814076
 31
0.0
  0
LINE
  5
24C
  8
DATA
  6
CONTINUOUS
 62
     7
 10
2.215811939740802
 20
10.39665200348141
 30
0.0
 11
3.5158119397408139
 21
10.39665200348141
 31
0.0
  0
LINE
  5
24D
  8
DATA
  6
CONTINUOUS
 62
     7
 10
2.215811939740802
 20
6.8966520034814076
 30
0.0
 11
2.215811939740802
 21
10.39665200348141
 31
0.0
  0
LINE
  5
24E
  8
DATA
  6
CONTINUOUS
 62
     7
 10
3.5158119397408139
 20
6.8966520034814076
 30
0.0
 11
2.215811939740802
 21
6.8966520034814076
 31
0.0
  0
LINE
  5
24F
  8
DATA
  6
CONTINUOUS
 62
     7
 10
1.0158119397408141
 20
10.39665200348141
 30
0.0
 11
1.0158119397408141
 21
6.8966520034814076
 31
0.0
  0
LINE
  5
250
  8
DATA
  6
CONTINUOUS
 62
     7
 10
-0.2841880602591971
 20
10.39665200348141
 30
0.0
 11
1.0158119397408141
 21
10.39665200348141
 31
0.0
  0
LINE
  5
251
  8
DATA
  6
CONTINUOUS
 62
     7
 10
-0.2841880602591971
 20
6.8966520034814076
 30
0.0
 11
-0.2841880602591971
 21
10.39665200348141
 31
0.0
  0
LINE
  5
252
  8
DATA
  6
CONTINUOUS
 62
     7
 10
1.0158119397408141
 20
6.8966520034814076
 30
0.0
 11
-0.2841880602591971
 21
6.8966520034814076
 31
0.0
  0
LINE
  5
253
  8
DATA
  6
CONTINUOUS
 62
     7
 10
-1.484188060259185
 20
10.39665200348141
 30
0.0
 11
-1.484188060259185
 21
6.8966520034814076
 31
0.0
  0
LINE
  5
254
  8
DATA
  6
CONTINUOUS
 62
     7
 10
-2.7841880602591962
 20
10.39665200348141
 30
0.0
 11
-1.484188060259185
 21
10.39665200348141
 31
0.0
  0
LINE
  5
255
  8
DATA
  6
CONTINUOUS
 62
     7
 10
-2.7841880602591962
 20
6.8966520034814076
 30
0.0
 11
-2.7841880602591962
 21
10.39665200348141
 31
0.0
  0
LINE
  5
256
  8
DATA
  6
CONTINUOUS
 62
     7
 10
-1.484188060259185
 20
6.8966520034814076
 30
0.0
 11
-2.7841880602591962
 21
6.8966520034814076
 31
0.0
  0
LINE
  5
257
  8
DATA
  6
CONTINUOUS
 62
     7
 10
-3.9841880602591848
 20
10.39665200348141
 30
0.0
 11
-3.9841880602591848
 21
6.8966520034814076
 31
0.0
  0
LINE
  5
258
  8
DATA
  6
CONTINUOUS
 62
     7
 10
-5.2841880602591971
 20
10.39665200348141
 30
0.0
 11
-3.9841880602591848
 21
10.39665200348141
 31
0.0
  0
LINE
  5
259
  8
DATA
  6
CONTINUOUS
 62
     7
 10
-5.2841880602591971
 20
6.8966520034814076
 30
0.0
 11
-5.2841880602591971
 21
10.39665200348141
 31
0.0
  0
LINE
  5
25A
  8
DATA
  6
CONTINUOUS
 62
     7
 10
-3.9841880602591848
 20
6.8966520034814076
 30
0.0
 11
-5.2841880602591971
 21
6.8966520034814076
 31
0.0
  0
LINE
  5
25B
  8
DATA
  6
CONTINUOUS
 62
     7
 10
-6.4841880602591848
 20
10.39665200348141
 30
0.0
 11
-6.4841880602591848
 21
6.8966520034814076
 31
0.0
  0
LINE
  5
25C
  8
DATA
  6
CONTINUOUS
 62
     7
 10
-7.7841880602591971
 20
10.39665200348141
 30
0.0
 11
-6.4841880602591848
 21
10.39665200348141
 31
0.0
  0
LINE
  5
25D
  8
DATA
  6
CONTINUOUS
 62
     7
 10
-7.7841880602591971
 20
6.8966520034814076
 30
0.0
 11
-7.7841880602591971
 21
10.39665200348141
 31
0.0
  0
LINE
  5
25E
  8
DATA
  6
CONTINUOUS
 62
     7
 10
-6.4841880602591848
 20
6.8966520034814076
 30
0.0
 11
-7.7841880602591971
 21
6.8966520034814076
 31
0.0
  0
TEXT
  5
25F
  8
DATA
 62
     7
 10
5.891901475823885
 20
12.92289946319141
 30
0.0
 40
1.7374305814452899
  1
1
 50
180.0
 41
0.7
 11
5.891901475823885
 21
12.054184172468769
 31
0.0
 73
     2
  0
TEXT
  5
260
  8
DATA
 62
     7
 10
3.391901475823885
 20
12.92289946319141
 30
0.0
 40
1.7374305814452899
  1
2
 50
180.0
 41
0.7
 11
3.391901475823885
 21
12.054184172468769
 31
0.0
 73
     2
  0
TEXT
  5
261
  8
DATA
 62
     7
 10
0.891901475823886
 20
12.92289946319141
 30
0.0
 40
1.7374305814452899
  1
3
 50
180.0
 41
0.7
 11
0.8919014758238859
 21
12.054184172468769
 31
0.0
 73
     2
  0
TEXT
  5
262
  8
DATA
 62
     7
 10
-1.608098524176113
 20
12.92289946319141
 30
0.0
 40
1.7374305814452899
  1
4
 50
180.0
 41
0.7
 11
-1.6080985241761141
 21
12.054184172468769
 31
0.0
 73
     2
  0
TEXT
  5
263
  8
DATA
 62
     7
 10
-4.1080985241761132
 20
12.92289946319141
 30
0.0
 40
1.7374305814452899
  1
5
 50
180.0
 41
0.7
 11
-4.1080985241761132
 21
12.054184172468769
 31
0.0
 73
     2
  0
TEXT
  5
264
  8
DATA
 62
     7
 10
-6.6080985241761132
 20
12.92289946319141
 30
0.0
 40
1.7374305814452899
  1
6
 50
180.0
 41
0.7
 11
-6.6080985241761132
 21
12.054184172468769
 31
0.0
 73
     2
  0
TEXT
  5
265
  8
DATA
 62
     7
 10
-4.409912520938831
 20
15.60800550854106
 30
0.0
 40
1.7374305814452899
  1
ON
 50
180.0
 41
0.7
 11
-4.409912520938831
 21
14.739290217818411
 31
0.0
 73
     2
  0
LINE
  5
266
  8
DATA
  6
CONTINUOUS
 62
     7
 10
-7.5
 20
13.6
 30
0.0
 11
-7.5
 21
15.84435691988568
 31
0.0
  0
LINE
  5
267
  8
DATA
  6
CONTINUOUS
 62
     7
 10
-7.5
 20
15.84435691988568
 30
0.0
 11
-7.2570412365274413
 21
15.42353999740712
 31
0.0
  0
LINE
  5
268
  8
DATA
  6
CONTINUOUS
 62
     7
 10
-7.5
 20
15.84435691988568
 30
0.0
 11
-7.7429587634725561
 21
15.42353999740712
 31
0.0
  0
TEXT
  5
269
  8
DATA
 62
     7
 10
4.5475081737587741
 20
4.3256508104116147
 30
0.0
 40
1.7374305814452899
  1
Phant.Pwr
 50
270.0
 41
0.7
 11
5.4162234644814191
 21
4.3256508104116147
 31
0.0
 73
     2
  0
TEXT
  5
26A
  8
DATA
 62
     7
 10
2.0475081737587741
 20
4.3256508104116147
 30
0.0
 40
1.7374305814452899
  1
Mic/Line
 50
270.0
 41
0.7
 11
2.9162234644814191
 21
4.3256508104116147
 31
0.0
 73
     2
  0
TEXT
  5
26B
  8
DATA
 62
     7
 10
-0.452491826241226
 20
4.3256508104116147
 30
0.0
 40
1.7374305814452899
  1
Mic-Hi/Low
 50
270.0
 41
0.7
 11
0.4162234644814192
 21
4.3256508104116147
 31
0.0
 73
     2
  0
TEXT
  5
26C
  8
DATA
 62
     7
 10
-2.952491826241225
 20
4.3256508104116147
 30
0.0
 40
1.7374305814452899
  1
Phant.Pwr
 50
270.0
 41
0.7
 11
-2.08377653551858
 21
4.3256508104116147
 31
0.0
 73
     2
  0
TEXT
  5
26D
  8
DATA
 62
     7
 10
-5.452491826241225
 20
4.3256508104116147
 30
0.0
 40
1.7374305814452899
  1
Mic/Line
 50
270.0
 41
0.7
 11
-4.58377653551858
 21
4.3256508104116147
 31
0.0
 73
     2
  0
TEXT
  5
26E
  8
DATA
 62
     7
 10
-7.952491826241225
 20
4.3256508104116147
 30
0.0
 40
1.7374305814452899
  1
Mic-Hi/Low
 50
270.0
 41
0.7
 11
-7.08377653551858
 21
4.3256508104116147
 31
0.0
 73
     2
  0
TEXT
  5
26F
  8
DATA
 62
     7
 10
30.341383421795911
 20
22.1579625568491
 30
0.0
 40
2.606145872167934
  1
IN3-MIC/LINE
 50
180.0
 41
0.7
 11
30.341383421795911
 21
20.854889620765132
 31
0.0
 73
     2
  0
TEXT
  5
270
  8
DATA
 62
     7
 10
-12.89226086559006
 20
22.1579625568491
 30
0.0
 40
2.606145872167934
  1
IN4-MIC/LINE
 50
180.0
 41
0.7
 11
-12.89226086559006
 21
20.854889620765132
 31
0.0
 73
     2
  0
TEXT
  5
271
  8
DATA
 62
     7
 10
6.0486957794345244
 20
22.175808442781818
 30
0.0
 40
2.606145872167934
  1
IN3
 50
180.0
 41
0.7
 11
6.0486957794345244
 21
20.87273550669785
 31
0.0
 73
     2
  0
LINE
  5
272
  8
DATA
  6
CONTINUOUS
 62
     7
 10
-1.0
 20
16.244075755457569
 30
0.0
 11
-1.0
 21
25.000000000000011
 31
0.0
  0
TEXT
  5
273
  8
DATA
 62
     7
 10
-2.4426085420624291
 20
22.175808442781818
 30
0.0
 40
2.606145872167934
  1
IN4
 50
180.0
 41
0.7
 11
-2.4426085420624299
 21
20.87273550669785
 31
0.0
 73
     2
  0
CIRCLE
  5
274
  8
DATA
  6
CONTINUOUS
 62
     7
 10
-109.0
 20
2.0000000000000071
 30
0.0
 40
11.0
  0
ARC
  5
275
  8
DATA
  6
CONTINUOUS
 62
     7
 10
-109.0000000000006
 20
2.000000000000814
 30
0.0
 40
7.5000000000010596
 50
317.06352490467691
 51
222.93647509533079
  0
ARC
  5
276
  8
DATA
  6
CONTINUOUS
 62
     7
 10
-109.0000000000006
 20
2.000000000000814
 30
0.0
 40
7.5000000000010623
 50
238.22669001242721
 51
301.77330998758111
  0
CIRCLE
  5
277
  8
DATA
  6
CONTINUOUS
 62
     7
 10
-118.8994949366117
 20
11.89949493661158
 30
0.0
 40
2.5
  0
LINE
  5
278
  8
DATA
  6
CONTINUOUS
 62
     7
 10
-119.5355339059327
 20
12.53553390593266
 30
0.0
 11
-118.2634559672906
 21
11.263455967290501
 31
0.0
  0
LINE
  5
279
  8
DATA
  6
CONTINUOUS
 62
     7
 10
-118.2433516125207
 20
12.51477298696032
 30
0.0
 11
-119.51477298696039
 21
11.24335161252063
 31
0.0
  0
CIRCLE
  5
27A
  8
DATA
  6
CONTINUOUS
 62
     7
 10
-99.100505063388425
 20
-7.8994949366116938
 30
0.0
 40
2.5
  0
LINE
  5
27B
  8
DATA
  6
CONTINUOUS
 62
     7
 10
-98.464466094067362
 20
-8.5355339059327733
 30
0.0
 11
-99.736544032709503
 21
-7.2634559672906169
 31
0.0
  0
LINE
  5
27C
  8
DATA
  6
CONTINUOUS
 62
     7
 10
-98.485227013039662
 20
-7.2433516125207182
 30
0.0
 11
-99.756648387479402
 21
-8.5147729869604021
 31
0.0
  0
CIRCLE
  5
27D
  8
DATA
  6
CONTINUOUS
 62
     7
 10
-109.0
 20
5.850000000000029
 30
0.0
 40
1.25
  0
CIRCLE
  5
27E
  8
DATA
  6
CONTINUOUS
 62
     7
 10
-105.15000000000001
 20
1.729914846042742
 30
0.0
 40
1.25
  0
CIRCLE
  5
27F
  8
DATA
  6
CONTINUOUS
 62
     7
 10
-112.84999999999999
 20
1.729914846042742
 30
0.0
 40
1.25
  0
ARC
  5
280
  8
DATA
  6
CONTINUOUS
 62
     7
 10
-113.76234153855179
 20
-3.793971269361228
 30
0.0
 40
1.0000000000000051
 50
136.75902882460099
 51
324.4041362831465
  0
ARC
  5
281
  8
DATA
  6
CONTINUOUS
 62
     7
 10
-106.7384751334927
 20
-0.7514217523915309
 30
0.0
 40
3.998258152645668
 50
294.96738463078202
 51
323.86945026147617
  0
CIRCLE
  5
282
  8
DATA
  6
CONTINUOUS
 62
     7
 10
-135.0
 20
2.0000000000000071
 30
0.0
 40
11.0
  0
ARC
  5
283
  8
DATA
  6
CONTINUOUS
 62
     7
 10
-135.0000000000006
 20
2.000000000000814
 30
0.0
 40
7.5000000000010596
 50
317.06352490467691
 51
222.93647509533071
  0
ARC
  5
284
  8
DATA
  6
CONTINUOUS
 62
     7
 10
-135.0000000000006
 20
2.000000000000814
 30
0.0
 40
7.5000000000010676
 50
238.22669001242721
 51
301.77330998758111
  0
CIRCLE
  5
285
  8
DATA
  6
CONTINUOUS
 62
     7
 10
-144.89949493661169
 20
11.89949493661158
 30
0.0
 40
2.5
  0
LINE
  5
286
  8
DATA
  6
CONTINUOUS
 62
     7
 10
-145.53553390593271
 20
12.53553390593266
 30
0.0
 11
-144.26345596729061
 21
11.263455967290501
 31
0.0
  0
LINE
  5
287
  8
DATA
  6
CONTINUOUS
 62
     7
 10
-144.24335161252071
 20
12.51477298696032
 30
0.0
 11
-145.51477298696039
 21
11.24335161252063
 31
0.0
  0
CIRCLE
  5
288
  8
DATA
  6
CONTINUOUS
 62
     7
 10
-125.1005050633884
 20
-7.8994949366116938
 30
0.0
 40
2.5
  0
LINE
  5
289
  8
DATA
  6
CONTINUOUS
 62
     7
 10
-124.4644660940673
 20
-8.5355339059327733
 30
0.0
 11
-125.7365440327095
 21
-7.2634559672906169
 31
0.0
  0
LINE
  5
28A
  8
DATA
  6
CONTINUOUS
 62
     7
 10
-124.48522701303961
 20
-7.2433516125207182
 30
0.0
 11
-125.7566483874794
 21
-8.5147729869604021
 31
0.0
  0
CIRCLE
  5
28B
  8
DATA
  6
CONTINUOUS
 62
     7
 10
-135.0
 20
5.850000000000029
 30
0.0
 40
1.25
  0
CIRCLE
  5
28C
  8
DATA
  6
CONTINUOUS
 62
     7
 10
-131.15000000000001
 20
1.729914846042742
 30
0.0
 40
1.25
  0
CIRCLE
  5
28D
  8
DATA
  6
CONTINUOUS
 62
     7
 10
-138.84999999999999
 20
1.729914846042742
 30
0.0
 40
1.25
  0
ARC
  5
28E
  8
DATA
  6
CONTINUOUS
 62
     7
 10
-139.76234153855179
 20
-3.793971269361228
 30
0.0
 40
1.0000000000000051
 50
136.75902882460099
 51
324.4041362831465
  0
ARC
  5
28F
  8
DATA
  6
CONTINUOUS
 62
     7
 10
-132.7384751334927
 20
-0.7514217523915309
 30
0.0
 40
3.998258152645668
 50
294.96738463078202
 51
323.86945026147617
  0
TEXT
  5
290
  8
DATA
 62
     7
 10
-98.909043663822374
 20
22.1579625568491
 30
0.0
 40
2.606145872167934
  1
OUT-MASTER L
 50
180.0
 41
0.7
 11
-98.909043663822374
 21
20.854889620765132
 31
0.0
 73
     2
  0
TEXT
  5
291
  8
DATA
 62
     7
 10
-124.9090436638223
 20
22.1579625568491
 30
0.0
 40
2.606145872167934
  1
OUT-MASTER R
 50
180.0
 41
0.7
 11
-124.9090436638223
 21
20.854889620765132
 31
0.0
 73
     2
  0
CIRCLE
  5
292
  8
DATA
  6
CONTINUOUS
 62
     7
 10
-47.0
 20
-5.999999999999992
 30
0.0
 40
4.1500000000000048
  0
CIRCLE
  5
293
  8
DATA
  6
CONTINUOUS
 62
     7
 10
-47.0
 20
-5.999999999999992
 30
0.0
 40
1.75
  0
CIRCLE
  5
294
  8
DATA
  6
CONTINUOUS
 62
     7
 10
-64.0
 20
-5.999999999999992
 30
0.0
 40
4.1500000000000048
  0
CIRCLE
  5
295
  8
DATA
  6
CONTINUOUS
 62
     7
 10
-64.0
 20
-5.999999999999992
 30
0.0
 40
1.75
  0
CIRCLE
  5
296
  8
DATA
  6
CONTINUOUS
 62
     7
 10
-81.0
 20
-5.999999999999992
 30
0.0
 40
4.1500000000000048
  0
CIRCLE
  5
297
  8
DATA
  6
CONTINUOUS
 62
     7
 10
-81.0
 20
-5.999999999999992
 30
0.0
 40
1.75
  0
CIRCLE
  5
298
  8
DATA
  6
CONTINUOUS
 62
     7
 10
-47.0
 20
8.0000000000000071
 30
0.0
 40
4.1500000000000048
  0
CIRCLE
  5
299
  8
DATA
  6
CONTINUOUS
 62
     7
 10
-47.0
 20
8.0000000000000071
 30
0.0
 40
1.75
  0
CIRCLE
  5
29A
  8
DATA
  6
CONTINUOUS
 62
     7
 10
-64.0
 20
8.0000000000000071
 30
0.0
 40
4.1500000000000048
  0
CIRCLE
  5
29B
  8
DATA
  6
CONTINUOUS
 62
     7
 10
-64.0
 20
8.0000000000000071
 30
0.0
 40
1.75
  0
CIRCLE
  5
29C
  8
DATA
  6
CONTINUOUS
 62
     7
 10
-81.0
 20
8.0000000000000071
 30
0.0
 40
4.1500000000000048
  0
CIRCLE
  5
29D
  8
DATA
  6
CONTINUOUS
 62
     7
 10
-81.0
 20
8.0000000000000071
 30
0.0
 40
1.75
  0
CIRCLE
  5
29E
  8
DATA
  6
CONTINUOUS
 62
     7
 10
-55.5
 20
1.0000000000000071
 30
0.0
 40
2.5
  0
LINE
  5
29F
  8
DATA
  6
CONTINUOUS
 62
     7
 10
-54.65961217163251
 20
1.6920840939496951
 30
0.0
 11
-56.340387828367483
 21
0.3079159060503187
 31
0.0
  0
LINE
  5
2A0
  8
DATA
  6
CONTINUOUS
 62
     7
 10
-56.340387828367462
 20
1.6920840939496811
 30
0.0
 11
-54.65961217163251
 21
0.3079159060503045
 31
0.0
  0
CIRCLE
  5
2A1
  8
DATA
  6
CONTINUOUS
 62
     7
 10
-72.5
 20
1.0000000000000071
 30
0.0
 40
2.5
  0
LINE
  5
2A2
  8
DATA
  6
CONTINUOUS
 62
     7
 10
-71.659612171632517
 20
1.6920840939496951
 30
0.0
 11
-73.340387828367483
 21
0.3079159060503187
 31
0.0
  0
LINE
  5
2A3
  8
DATA
  6
CONTINUOUS
 62
     7
 10
-73.340387828367469
 20
1.6920840939496811
 30
0.0
 11
-71.659612171632503
 21
0.3079159060503045
 31
0.0
  0
TEXT
  5
2A4
  8
DATA
 62
     7
 10
-41.086986835297751
 20
22.1579625568491
 30
0.0
 40
2.606145872167934
  1
IN5-AUX
 50
180.0
 41
0.7
 11
-41.086986835297751
 21
20.854889620765132
 31
0.0
 73
     2
  0
TEXT
  5
2A5
  8
DATA
 62
     7
 10
-58.086986835297743
 20
22.1579625568491
 30
0.0
 40
2.606145872167934
  1
IN6-AUX
 50
180.0
 41
0.7
 11
-58.086986835297743
 21
20.854889620765132
 31
0.0
 73
     2
  0
TEXT
  5
2A6
  8
DATA
 62
     7
 10
-75.086986835297736
 20
22.1579625568491
 30
0.0
 40
2.606145872167934
  1
OUT-REC
 50
180.0
 41
0.7
 11
-75.086986835297736
 21
20.854889620765132
 31
0.0
 73
     2
  0
LINE
  5
2A7
  8
DATA
  6
CONTINUOUS
 62
     7
 10
-294.99999999999989
 20
18.500000000000011
 30
0.0
 11
-294.99999999999989
 21
-10.999999999999989
 31
0.0
  0
LINE
  5
2A8
  8
DATA
  6
CONTINUOUS
 62
     7
 10
-260.99999999999989
 20
18.500000000000011
 30
0.0
 11
-260.99999999999989
 21
-10.999999999999989
 31
0.0
  0
LINE
  5
2A9
  8
DATA
  6
CONTINUOUS
 62
     7
 10
-293.5
 20
-12.499999999999989
 30
0.0
 11
-262.5
 21
-12.499999999999989
 31
0.0
  0
LINE
  5
2AA
  8
DATA
  6
CONTINUOUS
 62
     7
 10
-293.5
 20
20.000000000000011
 30
0.0
 11
-262.5
 21
20.000000000000011
 31
0.0
  0
ARC
  5
2AB
  8
DATA
  6
CONTINUOUS
 62
     7
 10
-262.5
 20
-10.999999999999989
 30
0.0
 40
1.5
 50
270.0
 51
0.0
  0
ARC
  5
2AC
  8
DATA
  6
CONTINUOUS
 62
     7
 10
-262.5
 20
18.500000000000011
 30
0.0
 40
1.5
 50
0.0
 51
90.0
  0
ARC
  5
2AD
  8
DATA
  6
CONTINUOUS
 62
     7
 10
-293.5
 20
18.500000000000011
 30
0.0
 40
1.5
 50
90.0
 51
180.0
  0
ARC
  5
2AE
  8
DATA
  6
CONTINUOUS
 62
     7
 10
-293.5
 20
-10.999999999999989
 30
0.0
 40
1.5
 50
180.0
 51
270.0
  0
TEXT
  5
2AF
  8
DATA
 62
     7
 10
-298.25096290921027
 20
18.208178381536861
 30
0.0
 40
2.0849166977343478
  1
～100-240V AC/50/60Hz
 50
270.0
 41
0.7
 11
-297.20850456034321
 21
18.208178381536861
 31
0.0
 73
     2
  0
TEXT
  5
2B0
  8
DATA
 62
     7
 10
-301.69244360550772
 20
9.9168556858383123
 30
0.0
 40
2.0849166977343478
  1
max.75mA
 50
270.0
 41
0.7
 11
-300.64998525664049
 21
9.9168556858383123
 31
0.0
 73
     2
  0
LINE
  5
2B1
  8
DATA
  6
CONTINUOUS
 62
     7
 10
-279.99999999999989
 20
16.0
 30
0.0
 11
-279.99999999999989
 21
-8.4999999999999964
 31
0.0
  0
LINE
  5
2B2
  8
DATA
  6
CONTINUOUS
 62
     7
 10
-264.0
 20
12.999999999999989
 30
0.0
 11
-264.0
 21
-5.499999999999992
 31
0.0
  0
LINE
  5
2B3
  8
DATA
  6
CONTINUOUS
 62
     7
 10
-279.99999999999989
 20
16.0
 30
0.0
 11
-266.99999999999989
 21
16.0
 31
0.0
  0
LINE
  5
2B4
  8
DATA
  6
CONTINUOUS
 62
     7
 10
-279.99999999999989
 20
-8.4999999999999911
 30
0.0
 11
-266.99999999999989
 21
-8.4999999999999911
 31
0.0
  0
LINE
  5
2B5
  8
DATA
  6
CONTINUOUS
 62
     7
 10
-266.91944045299221
 20
4.7500000000000044
 30
0.0
 11
-266.91944045299221
 21
2.7500000000000049
 31
0.0
  0
LINE
  5
2B6
  8
DATA
  6
CONTINUOUS
 62
     7
 10
-270.41944045299232
 20
4.7500000000000044
 30
0.0
 11
-266.91944045299221
 21
4.7500000000000044
 31
0.0
  0
LINE
  5
2B7
  8
DATA
  6
CONTINUOUS
 62
     7
 10
-270.41944045299232
 20
2.7500000000000049
 30
0.0
 11
-270.41944045299232
 21
4.7500000000000044
 31
0.0
  0
LINE
  5
2B8
  8
DATA
  6
CONTINUOUS
 62
     7
 10
-266.91944045299221
 20
2.7500000000000049
 30
0.0
 11
-270.41944045299232
 21
2.7500000000000049
 31
0.0
  0
LINE
  5
2B9
  8
DATA
  6
CONTINUOUS
 62
     7
 10
-270.91944045299221
 20
-2.3181007238672922
 30
0.0
 11
-270.91944045299221
 21
-4.3181007238672811
 31
0.0
  0
LINE
  5
2BA
  8
DATA
  6
CONTINUOUS
 62
     7
 10
-274.41944045299232
 20
-2.3181007238672922
 30
0.0
 11
-270.91944045299221
 21
-2.3181007238672922
 31
0.0
  0
LINE
  5
2BB
  8
DATA
  6
CONTINUOUS
 62
     7
 10
-274.41944045299232
 20
-4.3181007238672811
 30
0.0
 11
-274.41944045299232
 21
-2.3181007238672922
 31
0.0
  0
LINE
  5
2BC
  8
DATA
  6
CONTINUOUS
 62
     7
 10
-270.91944045299221
 20
-4.3181007238672811
 30
0.0
 11
-274.41944045299232
 21
-4.3181007238672811
 31
0.0
  0
LINE
  5
2BD
  8
DATA
  6
CONTINUOUS
 62
     7
 10
-270.91944045299221
 20
11.818100723867291
 30
0.0
 11
-270.91944045299221
 21
9.8181007238673033
 31
0.0
  0
LINE
  5
2BE
  8
DATA
  6
CONTINUOUS
 62
     7
 10
-274.41944045299232
 20
11.818100723867291
 30
0.0
 11
-270.91944045299221
 21
11.818100723867291
 31
0.0
  0
LINE
  5
2BF
  8
DATA
  6
CONTINUOUS
 62
     7
 10
-274.41944045299232
 20
9.8181007238673033
 30
0.0
 11
-274.41944045299232
 21
11.818100723867291
 31
0.0
  0
LINE
  5
2C0
  8
DATA
  6
CONTINUOUS
 62
     7
 10
-270.91944045299221
 20
9.8181007238673033
 30
0.0
 11
-274.41944045299232
 21
9.8181007238673033
 31
0.0
  0
LINE
  5
2C1
  8
DATA
  6
CONTINUOUS
 62
     7
 10
-264.0
 20
-5.499999999999992
 30
0.0
 11
-266.99999999999989
 21
-8.4999999999999964
 31
0.0
  0
LINE
  5
2C2
  8
DATA
  6
CONTINUOUS
 62
     7
 10
-266.99999999999989
 20
16.0
 30
0.0
 11
-264.0
 21
13.0
 31
0.0
  0
POLYLINE
  5
2C3
  8
DATA
  6
CONTINUOUS
 62
     7
 66
     1
 10
0.0
 20
0.0
 30
0.0
 70
     1
  0
VERTEX
  5
56C
  8
DATA
  6
CONTINUOUS
 62
     7
 10
-292.02368656281408
 20
16.250000000000011
 30
0.0
  0
VERTEX
  5
56D
  8
DATA
  6
CONTINUOUS
 62
     7
 10
-283.02368656281408
 20
16.250000000000011
 30
0.0
  0
VERTEX
  5
56E
  8
DATA
  6
CONTINUOUS
 62
     7
 10
-283.02368656281408
 20
-8.7499999999999911
 30
0.0
  0
VERTEX
  5
56F
  8
DATA
  6
CONTINUOUS
 62
     7
 10
-292.02368656281408
 20
-8.7499999999999911
 30
0.0
  0
SEQEND
  5
570
  8
DATA
  6
CONTINUOUS
 62
     7
  0
LINE
  5
2CA
  8
DATA
  6
CONTINUOUS
 62
     7
 10
-285.07368656281409
 20
10.749999999999989
 30
0.0
 11
-285.07368656281409
 21
-3.24999999999998
 31
0.0
  0
LINE
  5
2CB
  8
DATA
  6
CONTINUOUS
 62
     7
 10
-289.97368656281401
 20
-3.2499999999999818
 30
0.0
 11
-289.97368656281401
 21
10.749999999999989
 31
0.0
  0
ARC
  5
2CC
  8
DATA
  6
CONTINUOUS
 62
     7
 10
-287.52368656281408
 20
-2.7493750000000001
 30
0.0
 40
2.500624999999987
 50
191.5486518053265
 51
348.45134819467381
  0
ARC
  5
2CD
  8
DATA
  6
CONTINUOUS
 62
     7
 10
-287.52368656281408
 20
10.249375000000009
 30
0.0
 40
2.500625000000043
 50
11.548651805326211
 51
168.4513481946735
  0
ARC
  5
2CE
  8
DATA
  6
CONTINUOUS
 62
     7
 10
-287.52368656281408
 20
9.0736247129526273
 30
0.0
 40
2.500625000000043
 50
11.548651805326211
 51
168.4513481946735
  0
TEXT
  5
2CF
  8
DATA
 62
     7
 10
-288.57390590230398
 20
-2.0720416607790559
 30
0.0
 40
2.0849166977343478
  1
O
 50
270.0
 41
0.7
 11
-287.53144755343692
 21
-2.0720416607790559
 31
0.0
 73
     2
  0
TEXT
  5
2D0
  8
DATA
 62
     7
 10
-288.65164451797688
 20
8.9279583392209432
 30
0.0
 40
2.0849166977343478
  1
I
 50
270.0
 41
0.7
 11
-287.60918616910982
 21
8.9279583392209432
 31
0.0
 73
     2
  0
LINE
  5
2D1
  8
DATA
  6
CONTINUOUS
 62
     7
 10
-257.9483696489711
 20
-20.0
 30
0.0
 11
-154.98864436231011
 21
-20.0
 31
0.0
  0
POLYLINE
  5
2D2
  8
DATA
  6
CONTINUOUS
 62
     7
 66
     1
 10
0.0
 20
0.0
 30
0.0
 70
   129
  0
VERTEX
  5
571
  8
DATA
  6
CONTINUOUS
 62
     7
 10
-214.48116912640239
 20
7.5655421713341466
 30
0.0
 42
-0.4142135623731014
  0
VERTEX
  5
572
  8
DATA
  6
CONTINUOUS
 62
     7
 10
-213.98116912640239
 20
8.0655421713341475
 30
0.0
 42
-0.4142135623730951
  0
VERTEX
  5
573
  8
DATA
  6
CONTINUOUS
 62
     7
 10
-213.48116912640239
 20
7.5655421713341466
 30
0.0
 42
-0.4142135623730888
  0
VERTEX
  5
574
  8
DATA
  6
CONTINUOUS
 62
     7
 10
-213.98116912640239
 20
7.0655421713341484
 30
0.0
 42
-0.4142135623730951
  0
VERTEX
  5
575
  8
DATA
  6
CONTINUOUS
 62
     7
 10
-214.48116912640239
 20
7.5655421713341466
 30
0.0
  0
SEQEND
  5
576
  8
DATA
  6
CONTINUOUS
 62
     7
  0
LINE
  5
2D9
  8
DATA
  6
CONTINUOUS
 62
     7
 10
-202.04116912640251
 20
4.5454809367921198
 30
0.0
 11
-214.9411691264024
 21
4.5454809367921198
 31
0.0
  0
LINE
  5
2DA
  8
DATA
  6
CONTINUOUS
 62
     7
 10
-202.41773912640269
 20
12.885480936792259
 30
0.0
 11
-214.56460912640239
 21
12.885480936792259
 31
0.0
  0
POLYLINE
  5
2DB
  8
DATA
  6
CONTINUOUS
 62
     7
 66
     1
 10
0.0
 20
0.0
 30
0.0
 70
   129
  0
VERTEX
  5
577
  8
DATA
  6
CONTINUOUS
 62
     7
 10
-213.1011691264024
 20
10.405542171334259
 30
0.0
 42
-0.4142135623731035
  0
VERTEX
  5
578
  8
DATA
  6
CONTINUOUS
 62
     7
 10
-212.6011691264024
 20
10.905542171334259
 30
0.0
 42
-0.4142135623730951
  0
VERTEX
  5
579
  8
DATA
  6
CONTINUOUS
 62
     7
 10
-212.1011691264024
 20
10.405542171334259
 30
0.0
 42
-0.4142135623730868
  0
VERTEX
  5
57A
  8
DATA
  6
CONTINUOUS
 62
     7
 10
-212.6011691264024
 20
9.9055421713342593
 30
0.0
 42
-0.4142135623730951
  0
VERTEX
  5
57B
  8
DATA
  6
CONTINUOUS
 62
     7
 10
-213.1011691264024
 20
10.405542171334259
 30
0.0
  0
SEQEND
  5
57C
  8
DATA
  6
CONTINUOUS
 62
     7
  0
POLYLINE
  5
2E2
  8
DATA
  6
CONTINUOUS
 62
     7
 66
     1
 10
0.0
 20
0.0
 30
0.0
 70
   129
  0
VERTEX
  5
57D
  8
DATA
  6
CONTINUOUS
 62
     7
 10
-210.36116912640239
 20
10.405542171334259
 30
0.0
 42
-0.4142135623731035
  0
VERTEX
  5
57E
  8
DATA
  6
CONTINUOUS
 62
     7
 10
-209.86116912640239
 20
10.905542171334259
 30
0.0
 42
-0.4142135623730951
  0
VERTEX
  5
57F
  8
DATA
  6
CONTINUOUS
 62
     7
 10
-209.36116912640239
 20
10.405542171334259
 30
0.0
 42
-0.4142135623730868
  0
VERTEX
  5
580
  8
DATA
  6
CONTINUOUS
 62
     7
 10
-209.86116912640239
 20
9.9055421713342593
 30
0.0
 42
-0.4142135623730951
  0
VERTEX
  5
581
  8
DATA
  6
CONTINUOUS
 62
     7
 10
-210.36116912640239
 20
10.405542171334259
 30
0.0
  0
SEQEND
  5
582
  8
DATA
  6
CONTINUOUS
 62
     7
  0
POLYLINE
  5
2E9
  8
DATA
  6
CONTINUOUS
 62
     7
 66
     1
 10
0.0
 20
0.0
 30
0.0
 70
   129
  0
VERTEX
  5
583
  8
DATA
  6
CONTINUOUS
 62
     7
 10
-204.88116912640251
 20
10.405542171334259
 30
0.0
 42
-0.4142135623731035
  0
VERTEX
  5
584
  8
DATA
  6
CONTINUOUS
 62
     7
 10
-204.38116912640251
 20
10.905542171334259
 30
0.0
 42
-0.4142135623730951
  0
VERTEX
  5
585
  8
DATA
  6
CONTINUOUS
 62
     7
 10
-203.88116912640251
 20
10.405542171334259
 30
0.0
 42
-0.4142135623730868
  0
VERTEX
  5
586
  8
DATA
  6
CONTINUOUS
 62
     7
 10
-204.38116912640251
 20
9.9055421713342593
 30
0.0
 42
-0.4142135623730951
  0
VERTEX
  5
587
  8
DATA
  6
CONTINUOUS
 62
     7
 10
-204.88116912640251
 20
10.405542171334259
 30
0.0
  0
SEQEND
  5
588
  8
DATA
  6
CONTINUOUS
 62
     7
  0
POLYLINE
  5
2F0
  8
DATA
  6
CONTINUOUS
 62
     7
 66
     1
 10
0.0
 20
0.0
 30
0.0
 70
   129
  0
VERTEX
  5
589
  8
DATA
  6
CONTINUOUS
 62
     7
 10
-206.25116912640229
 20
7.5655421713341466
 30
0.0
 42
-0.4142135623731014
  0
VERTEX
  5
58A
  8
DATA
  6
CONTINUOUS
 62
     7
 10
-205.75116912640229
 20
8.0655421713341475
 30
0.0
 42
-0.4142135623730951
  0
VERTEX
  5
58B
  8
DATA
  6
CONTINUOUS
 62
     7
 10
-205.25116912640229
 20
7.5655421713341466
 30
0.0
 42
-0.4142135623730888
  0
VERTEX
  5
58C
  8
DATA
  6
CONTINUOUS
 62
     7
 10
-205.75116912640229
 20
7.0655421713341484
 30
0.0
 42
-0.4142135623730951
  0
VERTEX
  5
58D
  8
DATA
  6
CONTINUOUS
 62
     7
 10
-206.25116912640229
 20
7.5655421713341466
 30
0.0
  0
SEQEND
  5
58E
  8
DATA
  6
CONTINUOUS
 62
     7
  0
POLYLINE
  5
2F7
  8
DATA
  6
CONTINUOUS
 62
     7
 66
     1
 10
0.0
 20
0.0
 30
0.0
 70
   129
  0
VERTEX
  5
58F
  8
DATA
  6
CONTINUOUS
 62
     7
 10
-203.5011691264024
 20
7.5655421713341466
 30
0.0
 42
-0.4142135623731014
  0
VERTEX
  5
590
  8
DATA
  6
CONTINUOUS
 62
     7
 10
-203.0011691264024
 20
8.0655421713341475
 30
0.0
 42
-0.4142135623730951
  0
VERTEX
  5
591
  8
DATA
  6
CONTINUOUS
 62
     7
 10
-202.5011691264024
 20
7.5655421713341466
 30
0.0
 42
-0.4142135623730888
  0
VERTEX
  5
592
  8
DATA
  6
CONTINUOUS
 62
     7
 10
-203.0011691264024
 20
7.0655421713341484
 30
0.0
 42
-0.4142135623730951
  0
VERTEX
  5
593
  8
DATA
  6
CONTINUOUS
 62
     7
 10
-203.5011691264024
 20
7.5655421713341466
 30
0.0
  0
SEQEND
  5
594
  8
DATA
  6
CONTINUOUS
 62
     7
  0
POLYLINE
  5
2FE
  8
DATA
  6
CONTINUOUS
 62
     7
 66
     1
 10
0.0
 20
0.0
 30
0.0
 70
   129
  0
VERTEX
  5
595
  8
DATA
  6
CONTINUOUS
 62
     7
 10
-211.73116912640239
 20
7.5655421713341466
 30
0.0
 42
-0.4142135623731014
  0
VERTEX
  5
596
  8
DATA
  6
CONTINUOUS
 62
     7
 10
-211.23116912640239
 20
8.0655421713341475
 30
0.0
 42
-0.4142135623730951
  0
VERTEX
  5
597
  8
DATA
  6
CONTINUOUS
 62
     7
 10
-210.73116912640231
 20
7.5655421713341466
 30
0.0
 42
-0.4142135623730888
  0
VERTEX
  5
598
  8
DATA
  6
CONTINUOUS
 62
     7
 10
-211.23116912640239
 20
7.0655421713341484
 30
0.0
 42
-0.4142135623730951
  0
VERTEX
  5
599
  8
DATA
  6
CONTINUOUS
 62
     7
 10
-211.73116912640239
 20
7.5655421713341466
 30
0.0
  0
SEQEND
  5
59A
  8
DATA
  6
CONTINUOUS
 62
     7
  0
POLYLINE
  5
305
  8
DATA
  6
CONTINUOUS
 62
     7
 66
     1
 10
0.0
 20
0.0
 30
0.0
 70
   129
  0
VERTEX
  5
59B
  8
DATA
  6
CONTINUOUS
 62
     7
 10
-207.62116912640241
 20
10.405542171334259
 30
0.0
 42
-0.4142135623731035
  0
VERTEX
  5
59C
  8
DATA
  6
CONTINUOUS
 62
     7
 10
-207.12116912640241
 20
10.905542171334231
 30
0.0
 42
-0.4142135623730784
  0
VERTEX
  5
59D
  8
DATA
  6
CONTINUOUS
 62
     7
 10
-206.62116912640241
 20
10.405542171334259
 30
0.0
 42
-0.4142135623731035
  0
VERTEX
  5
59E
  8
DATA
  6
CONTINUOUS
 62
     7
 10
-207.12116912640241
 20
9.9055421713342877
 30
0.0
 42
-0.4142135623730784
  0
VERTEX
  5
59F
  8
DATA
  6
CONTINUOUS
 62
     7
 10
-207.62116912640241
 20
10.405542171334259
 30
0.0
  0
SEQEND
  5
5A0
  8
DATA
  6
CONTINUOUS
 62
     7
  0
POLYLINE
  5
30C
  8
DATA
  6
CONTINUOUS
 62
     7
 66
     1
 10
0.0
 20
0.0
 30
0.0
 70
   129
  0
VERTEX
  5
5A1
  8
DATA
  6
CONTINUOUS
 62
     7
 10
-208.9911691264025
 20
7.5655421713341466
 30
0.0
 42
-0.4142135623731014
  0
VERTEX
  5
5A2
  8
DATA
  6
CONTINUOUS
 62
     7
 10
-208.4911691264025
 20
8.0655421713341475
 30
0.0
 42
-0.4142135623730951
  0
VERTEX
  5
5A3
  8
DATA
  6
CONTINUOUS
 62
     7
 10
-207.9911691264025
 20
7.5655421713341466
 30
0.0
 42
-0.4142135623730888
  0
VERTEX
  5
5A4
  8
DATA
  6
CONTINUOUS
 62
     7
 10
-208.4911691264025
 20
7.0655421713341484
 30
0.0
 42
-0.4142135623730951
  0
VERTEX
  5
5A5
  8
DATA
  6
CONTINUOUS
 62
     7
 10
-208.9911691264025
 20
7.5655421713341466
 30
0.0
  0
SEQEND
  5
5A6
  8
DATA
  6
CONTINUOUS
 62
     7
  0
ARC
  5
313
  8
DATA
  6
CONTINUOUS
 62
     7
 10
-202.04116912640251
 20
6.5454809367921767
 30
0.0
 40
2.000000000000056
 50
270.0
 51
0.0
  0
LINE
  5
314
  8
DATA
  6
CONTINUOUS
 62
     7
 10
-200.04116912640259
 20
6.5454809367921767
 30
0.0
 11
-200.94051912640259
 21
11.645950936792261
 31
0.0
  0
ARC
  5
315
  8
DATA
  6
CONTINUOUS
 62
     7
 10
-202.41773912640269
 20
11.385480936792259
 30
0.0
 40
1.49999800166532
 50
9.9999255496015902
 51
90.000000000000028
  0
ARC
  5
316
  8
DATA
  6
CONTINUOUS
 62
     7
 10
-214.9411691264024
 20
6.5454809367921767
 30
0.0
 40
2.000000000000056
 50
180.0
 51
270.0
  0
LINE
  5
317
  8
DATA
  6
CONTINUOUS
 62
     7
 10
-216.9411691264024
 20
6.5454809367921767
 30
0.0
 11
-216.04181912640249
 21
11.645950936792261
 31
0.0
  0
ARC
  5
318
  8
DATA
  6
CONTINUOUS
 62
     7
 10
-214.56460912640239
 20
11.385480936792259
 30
0.0
 40
1.5
 50
90.0
 51
170.00007445039731
  0
POLYLINE
  5
319
  8
DATA
  6
CONTINUOUS
 62
     7
 66
     1
 10
0.0
 20
0.0
 30
0.0
 70
     1
  0
VERTEX
  5
5A7
  8
DATA
  6
CONTINUOUS
 62
     7
 10
-197.60315351521919
 20
6.5636379978693808
 30
0.0
  0
VERTEX
  5
5A8
  8
DATA
  6
CONTINUOUS
 62
     7
 10
-194.88736973821949
 20
6.7023461698243132
 30
0.0
  0
VERTEX
  5
5A9
  8
DATA
  6
CONTINUOUS
 62
     7
 10
-193.64960265034489
 20
9.1236379978693254
 30
0.0
  0
VERTEX
  5
5AA
  8
DATA
  6
CONTINUOUS
 62
     7
 10
-195.12761933947041
 20
11.406221653959459
 30
0.0
  0
VERTEX
  5
5AB
  8
DATA
  6
CONTINUOUS
 62
     7
 10
-197.84340311646989
 20
11.26751348200453
 30
0.0
  0
VERTEX
  5
5AC
  8
DATA
  6
CONTINUOUS
 62
     7
 10
-199.0811702043444
 20
8.8462216539594642
 30
0.0
  0
SEQEND
  5
5AD
  8
DATA
  6
CONTINUOUS
 62
     7
  0
CIRCLE
  5
322
  8
DATA
  6
CONTINUOUS
 62
     7
 10
-196.3653864273447
 20
8.9849298259143957
 30
0.0
 40
1.1499999999998629
  0
CIRCLE
  5
323
  8
DATA
  6
CONTINUOUS
 62
     7
 10
-196.3653864273447
 20
8.9849298259143957
 30
0.0
 40
1.759905868717903
  0
POLYLINE
  5
324
  8
DATA
  6
CONTINUOUS
 62
     7
 66
     1
 10
0.0
 20
0.0
 30
0.0
 70
     1
  0
VERTEX
  5
5AE
  8
DATA
  6
CONTINUOUS
 62
     7
 10
-221.56013908828231
 20
6.5636379978693808
 30
0.0
  0
VERTEX
  5
5AF
  8
DATA
  6
CONTINUOUS
 62
     7
 10
-218.84435531128219
 20
6.7023461698243132
 30
0.0
  0
VERTEX
  5
5B0
  8
DATA
  6
CONTINUOUS
 62
     7
 10
-217.6065882234079
 20
9.1236379978693254
 30
0.0
  0
VERTEX
  5
5B1
  8
DATA
  6
CONTINUOUS
 62
     7
 10
-219.08460491253319
 20
11.406221653959459
 30
0.0
  0
VERTEX
  5
5B2
  8
DATA
  6
CONTINUOUS
 62
     7
 10
-221.80038868953329
 20
11.26751348200453
 30
0.0
  0
VERTEX
  5
5B3
  8
DATA
  6
CONTINUOUS
 62
     7
 10
-223.03815577740781
 20
8.8462216539594642
 30
0.0
  0
SEQEND
  5
5B4
  8
DATA
  6
CONTINUOUS
 62
     7
  0
CIRCLE
  5
32D
  8
DATA
  6
CONTINUOUS
 62
     7
 10
-220.32237200040771
 20
8.9849298259143957
 30
0.0
 40
1.1500000000000901
  0
CIRCLE
  5
32E
  8
DATA
  6
CONTINUOUS
 62
     7
 10
-220.32237200040771
 20
8.9849298259143957
 30
0.0
 40
1.759905868717929
  0
LINE
  5
32F
  8
DATA
  6
CONTINUOUS
 62
     7
 10
-192.99116912640261
 20
15.5
 30
0.0
 11
-192.99116912640261
 21
2.5000000000000071
 31
0.0
  0
LINE
  5
330
  8
DATA
  6
CONTINUOUS
 62
     7
 10
-223.99116912640261
 20
15.5
 30
0.0
 11
-192.99116912640261
 21
15.5
 31
0.0
  0
LINE
  5
331
  8
DATA
  6
CONTINUOUS
 62
     7
 10
-223.99116912640261
 20
2.5000000000000071
 30
0.0
 11
-223.99116912640261
 21
15.5
 31
0.0
  0
LINE
  5
332
  8
DATA
  6
CONTINUOUS
 62
     7
 10
-192.99116912640261
 20
2.5000000000000071
 30
0.0
 11
-223.99116912640261
 21
2.5000000000000071
 31
0.0
  0
POLYLINE
  5
333
  8
DATA
  6
CONTINUOUS
 62
     7
 66
     1
 10
0.0
 20
0.0
 30
0.0
 70
   129
  0
VERTEX
  5
5B5
  8
DATA
  6
CONTINUOUS
 62
     7
 10
-162.15201341841171
 20
6.6691946301610399
 30
0.0
 42
-0.4142135623730888
  0
VERTEX
  5
5B6
  8
DATA
  6
CONTINUOUS
 62
     7
 10
-161.65201341841171
 20
7.1691946301610399
 30
0.0
 42
-0.4142135623730951
  0
VERTEX
  5
5B7
  8
DATA
  6
CONTINUOUS
 62
     7
 10
-161.15201341841171
 20
6.6691946301610399
 30
0.0
 42
-0.4142135623731014
  0
VERTEX
  5
5B8
  8
DATA
  6
CONTINUOUS
 62
     7
 10
-161.65201341841171
 20
6.1691946301610399
 30
0.0
 42
-0.4142135623730951
  0
VERTEX
  5
5B9
  8
DATA
  6
CONTINUOUS
 62
     7
 10
-162.15201341841171
 20
6.6691946301610399
 30
0.0
  0
SEQEND
  5
5BA
  8
DATA
  6
CONTINUOUS
 62
     7
  0
ARC
  5
33A
  8
DATA
  6
CONTINUOUS
 62
     7
 10
-160.686754078522
 20
6.5454809367921767
 30
0.0
 40
2.000000000000056
 50
270.0
 51
0.0
  0
LINE
  5
33B
  8
DATA
  6
CONTINUOUS
 62
     7
 10
-158.68675407852211
 20
6.5454809367921767
 30
0.0
 11
-159.586104078522
 21
11.645950936792261
 31
0.0
  0
ARC
  5
33C
  8
DATA
  6
CONTINUOUS
 62
     7
 10
-161.0633240785221
 20
11.385480936792259
 30
0.0
 40
1.49999800166532
 50
9.9999255496015902
 51
90.000000000000028
  0
ARC
  5
33D
  8
DATA
  6
CONTINUOUS
 62
     7
 10
-182.58675407852181
 20
6.5454809367921767
 30
0.0
 40
2.000000000000028
 50
180.0
 51
270.0
  0
LINE
  5
33E
  8
DATA
  6
CONTINUOUS
 62
     7
 10
-184.58675407852181
 20
6.5454809367921767
 30
0.0
 11
-183.68740407852189
 21
11.645950936792261
 31
0.0
  0
ARC
  5
33F
  8
DATA
  6
CONTINUOUS
 62
     7
 10
-182.21019407852179
 20
11.385480936792259
 30
0.0
 40
1.5
 50
90.0
 51
170.00007445039731
  0
POLYLINE
  5
340
  8
DATA
  6
CONTINUOUS
 62
     7
 66
     1
 10
0.0
 20
0.0
 30
0.0
 70
     1
  0
VERTEX
  5
5BB
  8
DATA
  6
CONTINUOUS
 62
     7
 10
-156.22932160145569
 20
6.5636379978693808
 30
0.0
  0
VERTEX
  5
5BC
  8
DATA
  6
CONTINUOUS
 62
     7
 10
-153.51353782445591
 20
6.7023461698243132
 30
0.0
  0
VERTEX
  5
5BD
  8
DATA
  6
CONTINUOUS
 62
     7
 10
-152.27577073658139
 20
9.1236379978693254
 30
0.0
  0
VERTEX
  5
5BE
  8
DATA
  6
CONTINUOUS
 62
     7
 10
-153.75378742570689
 20
11.406221653959459
 30
0.0
  0
VERTEX
  5
5BF
  8
DATA
  6
CONTINUOUS
 62
     7
 10
-156.4695712027065
 20
11.26751348200453
 30
0.0
  0
VERTEX
  5
5C0
  8
DATA
  6
CONTINUOUS
 62
     7
 10
-157.70733829058099
 20
8.8462216539594642
 30
0.0
  0
SEQEND
  5
5C1
  8
DATA
  6
CONTINUOUS
 62
     7
  0
CIRCLE
  5
349
  8
DATA
  6
CONTINUOUS
 62
     7
 10
-154.99155451358109
 20
8.9849298259143957
 30
0.0
 40
1.1499999999998349
  0
CIRCLE
  5
34A
  8
DATA
  6
CONTINUOUS
 62
     7
 10
-154.99155451358109
 20
8.9849298259143957
 30
0.0
 40
1.759905868717903
  0
POLYLINE
  5
34B
  8
DATA
  6
CONTINUOUS
 62
     7
 66
     1
 10
0.0
 20
0.0
 30
0.0
 70
     1
  0
VERTEX
  5
5C2
  8
DATA
  6
CONTINUOUS
 62
     7
 10
-189.51408541947171
 20
6.5636379978693808
 30
0.0
  0
VERTEX
  5
5C3
  8
DATA
  6
CONTINUOUS
 62
     7
 10
-186.7983016424717
 20
6.7023461698243132
 30
0.0
  0
VERTEX
  5
5C4
  8
DATA
  6
CONTINUOUS
 62
     7
 10
-185.5605345545973
 20
9.1236379978693254
 30
0.0
  0
VERTEX
  5
5C5
  8
DATA
  6
CONTINUOUS
 62
     7
 10
-187.03855124372259
 20
11.406221653959459
 30
0.0
  0
VERTEX
  5
5C6
  8
DATA
  6
CONTINUOUS
 62
     7
 10
-189.75433502072269
 20
11.26751348200453
 30
0.0
  0
VERTEX
  5
5C7
  8
DATA
  6
CONTINUOUS
 62
     7
 10
-190.99210210859729
 20
8.8462216539594642
 30
0.0
  0
SEQEND
  5
5C8
  8
DATA
  6
CONTINUOUS
 62
     7
  0
CIRCLE
  5
354
  8
DATA
  6
CONTINUOUS
 62
     7
 10
-188.27631833159711
 20
8.9849298259143957
 30
0.0
 40
1.1500000000000901
  0
CIRCLE
  5
355
  8
DATA
  6
CONTINUOUS
 62
     7
 10
-188.27631833159711
 20
8.9849298259143957
 30
0.0
 40
1.759905868717929
  0
LINE
  5
356
  8
DATA
  6
CONTINUOUS
 62
     7
 10
-191.6367540785221
 20
15.5
 30
0.0
 11
-151.6367540785221
 21
15.5
 31
0.0
  0
LINE
  5
357
  8
DATA
  6
CONTINUOUS
 62
     7
 10
-151.6367540785221
 20
2.5000000000000071
 30
0.0
 11
-191.6367540785221
 21
2.5000000000000071
 31
0.0
  0
LINE
  5
358
  8
DATA
  6
CONTINUOUS
 62
     7
 10
-151.6367540785221
 20
15.5
 30
0.0
 11
-151.6367540785221
 21
2.5000000000000071
 31
0.0
  0
LINE
  5
359
  8
DATA
  6
CONTINUOUS
 62
     7
 10
-191.6367540785221
 20
15.5
 30
0.0
 11
-191.6367540785221
 21
2.5000000000000071
 31
0.0
  0
LINE
  5
35A
  8
DATA
  6
CONTINUOUS
 62
     7
 10
-182.58675407852181
 20
4.5454809367921198
 30
0.0
 11
-160.686754078522
 21
4.5454809367921198
 31
0.0
  0
LINE
  5
35B
  8
DATA
  6
CONTINUOUS
 62
     7
 10
-161.0633240785221
 20
12.885478938457609
 30
0.0
 11
-182.21019407852179
 21
12.885480936792259
 31
0.0
  0
POLYLINE
  5
35C
  8
DATA
  6
CONTINUOUS
 62
     7
 66
     1
 10
0.0
 20
0.0
 30
0.0
 70
   129
  0
VERTEX
  5
5C9
  8
DATA
  6
CONTINUOUS
 62
     7
 10
-164.65201341841171
 20
6.6691946301610399
 30
0.0
 42
-0.4142135623730888
  0
VERTEX
  5
5CA
  8
DATA
  6
CONTINUOUS
 62
     7
 10
-164.15201341841171
 20
7.1691946301610399
 30
0.0
 42
-0.4142135623730951
  0
VERTEX
  5
5CB
  8
DATA
  6
CONTINUOUS
 62
     7
 10
-163.65201341841171
 20
6.6691946301610399
 30
0.0
 42
-0.4142135623731014
  0
VERTEX
  5
5CC
  8
DATA
  6
CONTINUOUS
 62
     7
 10
-164.15201341841171
 20
6.1691946301610399
 30
0.0
 42
-0.4142135623730951
  0
VERTEX
  5
5CD
  8
DATA
  6
CONTINUOUS
 62
     7
 10
-164.65201341841171
 20
6.6691946301610399
 30
0.0
  0
SEQEND
  5
5CE
  8
DATA
  6
CONTINUOUS
 62
     7
  0
POLYLINE
  5
363
  8
DATA
  6
CONTINUOUS
 62
     7
 66
     1
 10
0.0
 20
0.0
 30
0.0
 70
   129
  0
VERTEX
  5
5CF
  8
DATA
  6
CONTINUOUS
 62
     7
 10
-167.15201341841171
 20
6.6691946301610399
 30
0.0
 42
-0.4142135623730888
  0
VERTEX
  5
5D0
  8
DATA
  6
CONTINUOUS
 62
     7
 10
-166.65201341841171
 20
7.1691946301610399
 30
0.0
 42
-0.4142135623730951
  0
VERTEX
  5
5D1
  8
DATA
  6
CONTINUOUS
 62
     7
 10
-166.15201341841171
 20
6.6691946301610399
 30
0.0
 42
-0.4142135623731014
  0
VERTEX
  5
5D2
  8
DATA
  6
CONTINUOUS
 62
     7
 10
-166.65201341841171
 20
6.1691946301610399
 30
0.0
 42
-0.4142135623730951
  0
VERTEX
  5
5D3
  8
DATA
  6
CONTINUOUS
 62
     7
 10
-167.15201341841171
 20
6.6691946301610399
 30
0.0
  0
SEQEND
  5
5D4
  8
DATA
  6
CONTINUOUS
 62
     7
  0
POLYLINE
  5
36A
  8
DATA
  6
CONTINUOUS
 62
     7
 66
     1
 10
0.0
 20
0.0
 30
0.0
 70
   129
  0
VERTEX
  5
5D5
  8
DATA
  6
CONTINUOUS
 62
     7
 10
-169.65201341841171
 20
6.6691946301610399
 30
0.0
 42
-0.4142135623730888
  0
VERTEX
  5
5D6
  8
DATA
  6
CONTINUOUS
 62
     7
 10
-169.15201341841171
 20
7.1691946301610399
 30
0.0
 42
-0.4142135623730951
  0
VERTEX
  5
5D7
  8
DATA
  6
CONTINUOUS
 62
     7
 10
-168.65201341841171
 20
6.6691946301610399
 30
0.0
 42
-0.4142135623731014
  0
VERTEX
  5
5D8
  8
DATA
  6
CONTINUOUS
 62
     7
 10
-169.15201341841171
 20
6.1691946301610399
 30
0.0
 42
-0.4142135623730951
  0
VERTEX
  5
5D9
  8
DATA
  6
CONTINUOUS
 62
     7
 10
-169.65201341841171
 20
6.6691946301610399
 30
0.0
  0
SEQEND
  5
5DA
  8
DATA
  6
CONTINUOUS
 62
     7
  0
POLYLINE
  5
371
  8
DATA
  6
CONTINUOUS
 62
     7
 66
     1
 10
0.0
 20
0.0
 30
0.0
 70
   129
  0
VERTEX
  5
5DB
  8
DATA
  6
CONTINUOUS
 62
     7
 10
-172.15201341841171
 20
6.6691946301610399
 30
0.0
 42
-0.4142135623730888
  0
VERTEX
  5
5DC
  8
DATA
  6
CONTINUOUS
 62
     7
 10
-171.65201341841171
 20
7.1691946301610399
 30
0.0
 42
-0.4142135623730951
  0
VERTEX
  5
5DD
  8
DATA
  6
CONTINUOUS
 62
     7
 10
-171.15201341841171
 20
6.6691946301610399
 30
0.0
 42
-0.4142135623731014
  0
VERTEX
  5
5DE
  8
DATA
  6
CONTINUOUS
 62
     7
 10
-171.65201341841171
 20
6.1691946301610399
 30
0.0
 42
-0.4142135623730951
  0
VERTEX
  5
5DF
  8
DATA
  6
CONTINUOUS
 62
     7
 10
-172.15201341841171
 20
6.6691946301610399
 30
0.0
  0
SEQEND
  5
5E0
  8
DATA
  6
CONTINUOUS
 62
     7
  0
POLYLINE
  5
378
  8
DATA
  6
CONTINUOUS
 62
     7
 66
     1
 10
0.0
 20
0.0
 30
0.0
 70
   129
  0
VERTEX
  5
5E1
  8
DATA
  6
CONTINUOUS
 62
     7
 10
-174.65201341841171
 20
6.6691946301610399
 30
0.0
 42
-0.4142135623730888
  0
VERTEX
  5
5E2
  8
DATA
  6
CONTINUOUS
 62
     7
 10
-174.15201341841171
 20
7.1691946301610399
 30
0.0
 42
-0.4142135623730951
  0
VERTEX
  5
5E3
  8
DATA
  6
CONTINUOUS
 62
     7
 10
-173.65201341841171
 20
6.6691946301610399
 30
0.0
 42
-0.4142135623731014
  0
VERTEX
  5
5E4
  8
DATA
  6
CONTINUOUS
 62
     7
 10
-174.15201341841171
 20
6.1691946301610399
 30
0.0
 42
-0.4142135623730951
  0
VERTEX
  5
5E5
  8
DATA
  6
CONTINUOUS
 62
     7
 10
-174.65201341841171
 20
6.6691946301610399
 30
0.0
  0
SEQEND
  5
5E6
  8
DATA
  6
CONTINUOUS
 62
     7
  0
POLYLINE
  5
37F
  8
DATA
  6
CONTINUOUS
 62
     7
 66
     1
 10
0.0
 20
0.0
 30
0.0
 70
   129
  0
VERTEX
  5
5E7
  8
DATA
  6
CONTINUOUS
 62
     7
 10
-177.15201341841171
 20
6.6691946301610399
 30
0.0
 42
-0.4142135623730888
  0
VERTEX
  5
5E8
  8
DATA
  6
CONTINUOUS
 62
     7
 10
-176.65201341841171
 20
7.1691946301610399
 30
0.0
 42
-0.4142135623730951
  0
VERTEX
  5
5E9
  8
DATA
  6
CONTINUOUS
 62
     7
 10
-176.15201341841171
 20
6.6691946301610399
 30
0.0
 42
-0.4142135623731014
  0
VERTEX
  5
5EA
  8
DATA
  6
CONTINUOUS
 62
     7
 10
-176.65201341841171
 20
6.1691946301610399
 30
0.0
 42
-0.4142135623730951
  0
VERTEX
  5
5EB
  8
DATA
  6
CONTINUOUS
 62
     7
 10
-177.15201341841171
 20
6.6691946301610399
 30
0.0
  0
SEQEND
  5
5EC
  8
DATA
  6
CONTINUOUS
 62
     7
  0
POLYLINE
  5
386
  8
DATA
  6
CONTINUOUS
 62
     7
 66
     1
 10
0.0
 20
0.0
 30
0.0
 70
   129
  0
VERTEX
  5
5ED
  8
DATA
  6
CONTINUOUS
 62
     7
 10
-179.65201341841171
 20
6.6691946301610399
 30
0.0
 42
-0.4142135623730888
  0
VERTEX
  5
5EE
  8
DATA
  6
CONTINUOUS
 62
     7
 10
-179.15201341841171
 20
7.1691946301610399
 30
0.0
 42
-0.4142135623730951
  0
VERTEX
  5
5EF
  8
DATA
  6
CONTINUOUS
 62
     7
 10
-178.65201341841171
 20
6.6691946301610399
 30
0.0
 42
-0.4142135623731014
  0
VERTEX
  5
5F0
  8
DATA
  6
CONTINUOUS
 62
     7
 10
-179.15201341841171
 20
6.1691946301610399
 30
0.0
 42
-0.4142135623730951
  0
VERTEX
  5
5F1
  8
DATA
  6
CONTINUOUS
 62
     7
 10
-179.65201341841171
 20
6.6691946301610399
 30
0.0
  0
SEQEND
  5
5F2
  8
DATA
  6
CONTINUOUS
 62
     7
  0
POLYLINE
  5
38D
  8
DATA
  6
CONTINUOUS
 62
     7
 66
     1
 10
0.0
 20
0.0
 30
0.0
 70
   129
  0
VERTEX
  5
5F3
  8
DATA
  6
CONTINUOUS
 62
     7
 10
-182.15201341841171
 20
6.6691946301610399
 30
0.0
 42
-0.4142135623730888
  0
VERTEX
  5
5F4
  8
DATA
  6
CONTINUOUS
 62
     7
 10
-181.65201341841171
 20
7.1691946301610399
 30
0.0
 42
-0.4142135623730951
  0
VERTEX
  5
5F5
  8
DATA
  6
CONTINUOUS
 62
     7
 10
-181.15201341841171
 20
6.6691946301610399
 30
0.0
 42
-0.4142135623731014
  0
VERTEX
  5
5F6
  8
DATA
  6
CONTINUOUS
 62
     7
 10
-181.65201341841171
 20
6.1691946301610399
 30
0.0
 42
-0.4142135623730951
  0
VERTEX
  5
5F7
  8
DATA
  6
CONTINUOUS
 62
     7
 10
-182.15201341841171
 20
6.6691946301610399
 30
0.0
  0
SEQEND
  5
5F8
  8
DATA
  6
CONTINUOUS
 62
     7
  0
POLYLINE
  5
394
  8
DATA
  6
CONTINUOUS
 62
     7
 66
     1
 10
0.0
 20
0.0
 30
0.0
 70
   129
  0
VERTEX
  5
5F9
  8
DATA
  6
CONTINUOUS
 62
     7
 10
-163.31088431235099
 20
8.9936185089487672
 30
0.0
 42
-0.4142135623730971
  0
VERTEX
  5
5FA
  8
DATA
  6
CONTINUOUS
 62
     7
 10
-162.81088431235099
 20
9.4936185089487672
 30
0.0
 42
-0.4142135623730951
  0
VERTEX
  5
5FB
  8
DATA
  6
CONTINUOUS
 62
     7
 10
-162.31088431235099
 20
8.9936185089487672
 30
0.0
 42
-0.414213562373093
  0
VERTEX
  5
5FC
  8
DATA
  6
CONTINUOUS
 62
     7
 10
-162.81088431235099
 20
8.4936185089487672
 30
0.0
 42
-0.4142135623730951
  0
VERTEX
  5
5FD
  8
DATA
  6
CONTINUOUS
 62
     7
 10
-163.31088431235099
 20
8.9936185089487672
 30
0.0
  0
SEQEND
  5
5FE
  8
DATA
  6
CONTINUOUS
 62
     7
  0
POLYLINE
  5
39B
  8
DATA
  6
CONTINUOUS
 62
     7
 66
     1
 10
0.0
 20
0.0
 30
0.0
 70
   129
  0
VERTEX
  5
5FF
  8
DATA
  6
CONTINUOUS
 62
     7
 10
-165.81088431235099
 20
8.9936185089487672
 30
0.0
 42
-0.4142135623730971
  0
VERTEX
  5
600
  8
DATA
  6
CONTINUOUS
 62
     7
 10
-165.31088431235099
 20
9.4936185089487672
 30
0.0
 42
-0.4142135623730951
  0
VERTEX
  5
601
  8
DATA
  6
CONTINUOUS
 62
     7
 10
-164.81088431235099
 20
8.9936185089487672
 30
0.0
 42
-0.414213562373093
  0
VERTEX
  5
602
  8
DATA
  6
CONTINUOUS
 62
     7
 10
-165.31088431235099
 20
8.4936185089487672
 30
0.0
 42
-0.4142135623730951
  0
VERTEX
  5
603
  8
DATA
  6
CONTINUOUS
 62
     7
 10
-165.81088431235099
 20
8.9936185089487672
 30
0.0
  0
SEQEND
  5
604
  8
DATA
  6
CONTINUOUS
 62
     7
  0
POLYLINE
  5
3A2
  8
DATA
  6
CONTINUOUS
 62
     7
 66
     1
 10
0.0
 20
0.0
 30
0.0
 70
   129
  0
VERTEX
  5
605
  8
DATA
  6
CONTINUOUS
 62
     7
 10
-168.31088431235099
 20
8.9936185089487672
 30
0.0
 42
-0.4142135623730971
  0
VERTEX
  5
606
  8
DATA
  6
CONTINUOUS
 62
     7
 10
-167.81088431235099
 20
9.4936185089487672
 30
0.0
 42
-0.4142135623730951
  0
VERTEX
  5
607
  8
DATA
  6
CONTINUOUS
 62
     7
 10
-167.31088431235099
 20
8.9936185089487672
 30
0.0
 42
-0.414213562373093
  0
VERTEX
  5
608
  8
DATA
  6
CONTINUOUS
 62
     7
 10
-167.81088431235099
 20
8.4936185089487672
 30
0.0
 42
-0.4142135623730951
  0
VERTEX
  5
609
  8
DATA
  6
CONTINUOUS
 62
     7
 10
-168.31088431235099
 20
8.9936185089487672
 30
0.0
  0
SEQEND
  5
60A
  8
DATA
  6
CONTINUOUS
 62
     7
  0
POLYLINE
  5
3A9
  8
DATA
  6
CONTINUOUS
 62
     7
 66
     1
 10
0.0
 20
0.0
 30
0.0
 70
   129
  0
VERTEX
  5
60B
  8
DATA
  6
CONTINUOUS
 62
     7
 10
-170.81088431235099
 20
8.9936185089487672
 30
0.0
 42
-0.4142135623730971
  0
VERTEX
  5
60C
  8
DATA
  6
CONTINUOUS
 62
     7
 10
-170.31088431235099
 20
9.4936185089487672
 30
0.0
 42
-0.4142135623730951
  0
VERTEX
  5
60D
  8
DATA
  6
CONTINUOUS
 62
     7
 10
-169.81088431235099
 20
8.9936185089487672
 30
0.0
 42
-0.414213562373093
  0
VERTEX
  5
60E
  8
DATA
  6
CONTINUOUS
 62
     7
 10
-170.31088431235099
 20
8.4936185089487672
 30
0.0
 42
-0.4142135623730951
  0
VERTEX
  5
60F
  8
DATA
  6
CONTINUOUS
 62
     7
 10
-170.81088431235099
 20
8.9936185089487672
 30
0.0
  0
SEQEND
  5
610
  8
DATA
  6
CONTINUOUS
 62
     7
  0
POLYLINE
  5
3B0
  8
DATA
  6
CONTINUOUS
 62
     7
 66
     1
 10
0.0
 20
0.0
 30
0.0
 70
   129
  0
VERTEX
  5
611
  8
DATA
  6
CONTINUOUS
 62
     7
 10
-173.31088431235099
 20
8.9936185089487672
 30
0.0
 42
-0.4142135623730971
  0
VERTEX
  5
612
  8
DATA
  6
CONTINUOUS
 62
     7
 10
-172.81088431235099
 20
9.4936185089487672
 30
0.0
 42
-0.4142135623730951
  0
VERTEX
  5
613
  8
DATA
  6
CONTINUOUS
 62
     7
 10
-172.31088431235099
 20
8.9936185089487672
 30
0.0
 42
-0.414213562373093
  0
VERTEX
  5
614
  8
DATA
  6
CONTINUOUS
 62
     7
 10
-172.81088431235099
 20
8.4936185089487672
 30
0.0
 42
-0.4142135623730951
  0
VERTEX
  5
615
  8
DATA
  6
CONTINUOUS
 62
     7
 10
-173.31088431235099
 20
8.9936185089487672
 30
0.0
  0
SEQEND
  5
616
  8
DATA
  6
CONTINUOUS
 62
     7
  0
POLYLINE
  5
3B7
  8
DATA
  6
CONTINUOUS
 62
     7
 66
     1
 10
0.0
 20
0.0
 30
0.0
 70
   129
  0
VERTEX
  5
617
  8
DATA
  6
CONTINUOUS
 62
     7
 10
-175.81088431235099
 20
8.9936185089487672
 30
0.0
 42
-0.4142135623730971
  0
VERTEX
  5
618
  8
DATA
  6
CONTINUOUS
 62
     7
 10
-175.31088431235099
 20
9.4936185089487672
 30
0.0
 42
-0.4142135623730951
  0
VERTEX
  5
619
  8
DATA
  6
CONTINUOUS
 62
     7
 10
-174.81088431235099
 20
8.9936185089487672
 30
0.0
 42
-0.414213562373093
  0
VERTEX
  5
61A
  8
DATA
  6
CONTINUOUS
 62
     7
 10
-175.31088431235099
 20
8.4936185089487672
 30
0.0
 42
-0.4142135623730951
  0
VERTEX
  5
61B
  8
DATA
  6
CONTINUOUS
 62
     7
 10
-175.81088431235099
 20
8.9936185089487672
 30
0.0
  0
SEQEND
  5
61C
  8
DATA
  6
CONTINUOUS
 62
     7
  0
POLYLINE
  5
3BE
  8
DATA
  6
CONTINUOUS
 62
     7
 66
     1
 10
0.0
 20
0.0
 30
0.0
 70
   129
  0
VERTEX
  5
61D
  8
DATA
  6
CONTINUOUS
 62
     7
 10
-178.31088431235099
 20
8.9936185089487672
 30
0.0
 42
-0.4142135623730971
  0
VERTEX
  5
61E
  8
DATA
  6
CONTINUOUS
 62
     7
 10
-177.81088431235099
 20
9.4936185089487672
 30
0.0
 42
-0.4142135623730951
  0
VERTEX
  5
61F
  8
DATA
  6
CONTINUOUS
 62
     7
 10
-177.31088431235099
 20
8.9936185089487672
 30
0.0
 42
-0.414213562373093
  0
VERTEX
  5
620
  8
DATA
  6
CONTINUOUS
 62
     7
 10
-177.81088431235099
 20
8.4936185089487672
 30
0.0
 42
-0.4142135623730951
  0
VERTEX
  5
621
  8
DATA
  6
CONTINUOUS
 62
     7
 10
-178.31088431235099
 20
8.9936185089487672
 30
0.0
  0
SEQEND
  5
622
  8
DATA
  6
CONTINUOUS
 62
     7
  0
POLYLINE
  5
3C5
  8
DATA
  6
CONTINUOUS
 62
     7
 66
     1
 10
0.0
 20
0.0
 30
0.0
 70
   129
  0
VERTEX
  5
623
  8
DATA
  6
CONTINUOUS
 62
     7
 10
-180.81088431235091
 20
8.9936185089487672
 30
0.0
 42
-0.4142135623730971
  0
VERTEX
  5
624
  8
DATA
  6
CONTINUOUS
 62
     7
 10
-180.31088431235091
 20
9.4936185089487672
 30
0.0
 42
-0.4142135623730951
  0
VERTEX
  5
625
  8
DATA
  6
CONTINUOUS
 62
     7
 10
-179.81088431235099
 20
8.9936185089487672
 30
0.0
 42
-0.414213562373093
  0
VERTEX
  5
626
  8
DATA
  6
CONTINUOUS
 62
     7
 10
-180.31088431235091
 20
8.4936185089487672
 30
0.0
 42
-0.4142135623730951
  0
VERTEX
  5
627
  8
DATA
  6
CONTINUOUS
 62
     7
 10
-180.81088431235091
 20
8.9936185089487672
 30
0.0
  0
SEQEND
  5
628
  8
DATA
  6
CONTINUOUS
 62
     7
  0
POLYLINE
  5
3CC
  8
DATA
  6
CONTINUOUS
 62
     7
 66
     1
 10
0.0
 20
0.0
 30
0.0
 70
   129
  0
VERTEX
  5
629
  8
DATA
  6
CONTINUOUS
 62
     7
 10
-183.31088431235091
 20
8.9936185089487672
 30
0.0
 42
-0.4142135623730971
  0
VERTEX
  5
62A
  8
DATA
  6
CONTINUOUS
 62
     7
 10
-182.81088431235091
 20
9.4936185089487672
 30
0.0
 42
-0.4142135623730951
  0
VERTEX
  5
62B
  8
DATA
  6
CONTINUOUS
 62
     7
 10
-182.31088431235091
 20
8.9936185089487672
 30
0.0
 42
-0.414213562373093
  0
VERTEX
  5
62C
  8
DATA
  6
CONTINUOUS
 62
     7
 10
-182.81088431235091
 20
8.4936185089487672
 30
0.0
 42
-0.4142135623730951
  0
VERTEX
  5
62D
  8
DATA
  6
CONTINUOUS
 62
     7
 10
-183.31088431235091
 20
8.9936185089487672
 30
0.0
  0
SEQEND
  5
62E
  8
DATA
  6
CONTINUOUS
 62
     7
  0
POLYLINE
  5
3D3
  8
DATA
  6
CONTINUOUS
 62
     7
 66
     1
 10
0.0
 20
0.0
 30
0.0
 70
   129
  0
VERTEX
  5
62F
  8
DATA
  6
CONTINUOUS
 62
     7
 10
-164.65201341841171
 20
11.522237243423399
 30
0.0
 42
-0.4142135623730992
  0
VERTEX
  5
630
  8
DATA
  6
CONTINUOUS
 62
     7
 10
-164.15201341841171
 20
12.022237243423399
 30
0.0
 42
-0.4142135623730951
  0
VERTEX
  5
631
  8
DATA
  6
CONTINUOUS
 62
     7
 10
-163.65201341841171
 20
11.522237243423399
 30
0.0
 42
-0.414213562373091
  0
VERTEX
  5
632
  8
DATA
  6
CONTINUOUS
 62
     7
 10
-164.15201341841171
 20
11.022237243423399
 30
0.0
 42
-0.4142135623730951
  0
VERTEX
  5
633
  8
DATA
  6
CONTINUOUS
 62
     7
 10
-164.65201341841171
 20
11.522237243423399
 30
0.0
  0
SEQEND
  5
634
  8
DATA
  6
CONTINUOUS
 62
     7
  0
POLYLINE
  5
3DA
  8
DATA
  6
CONTINUOUS
 62
     7
 66
     1
 10
0.0
 20
0.0
 30
0.0
 70
   129
  0
VERTEX
  5
635
  8
DATA
  6
CONTINUOUS
 62
     7
 10
-167.15201341841171
 20
11.522237243423399
 30
0.0
 42
-0.4142135623730992
  0
VERTEX
  5
636
  8
DATA
  6
CONTINUOUS
 62
     7
 10
-166.65201341841171
 20
12.022237243423399
 30
0.0
 42
-0.4142135623730951
  0
VERTEX
  5
637
  8
DATA
  6
CONTINUOUS
 62
     7
 10
-166.15201341841171
 20
11.522237243423399
 30
0.0
 42
-0.414213562373091
  0
VERTEX
  5
638
  8
DATA
  6
CONTINUOUS
 62
     7
 10
-166.65201341841171
 20
11.022237243423399
 30
0.0
 42
-0.4142135623730951
  0
VERTEX
  5
639
  8
DATA
  6
CONTINUOUS
 62
     7
 10
-167.15201341841171
 20
11.522237243423399
 30
0.0
  0
SEQEND
  5
63A
  8
DATA
  6
CONTINUOUS
 62
     7
  0
POLYLINE
  5
3E1
  8
DATA
  6
CONTINUOUS
 62
     7
 66
     1
 10
0.0
 20
0.0
 30
0.0
 70
   129
  0
VERTEX
  5
63B
  8
DATA
  6
CONTINUOUS
 62
     7
 10
-169.65201341841171
 20
11.522237243423399
 30
0.0
 42
-0.4142135623730992
  0
VERTEX
  5
63C
  8
DATA
  6
CONTINUOUS
 62
     7
 10
-169.15201341841171
 20
12.022237243423399
 30
0.0
 42
-0.4142135623730951
  0
VERTEX
  5
63D
  8
DATA
  6
CONTINUOUS
 62
     7
 10
-168.65201341841171
 20
11.522237243423399
 30
0.0
 42
-0.414213562373091
  0
VERTEX
  5
63E
  8
DATA
  6
CONTINUOUS
 62
     7
 10
-169.15201341841171
 20
11.022237243423399
 30
0.0
 42
-0.4142135623730951
  0
VERTEX
  5
63F
  8
DATA
  6
CONTINUOUS
 62
     7
 10
-169.65201341841171
 20
11.522237243423399
 30
0.0
  0
SEQEND
  5
640
  8
DATA
  6
CONTINUOUS
 62
     7
  0
POLYLINE
  5
3E8
  8
DATA
  6
CONTINUOUS
 62
     7
 66
     1
 10
0.0
 20
0.0
 30
0.0
 70
   129
  0
VERTEX
  5
641
  8
DATA
  6
CONTINUOUS
 62
     7
 10
-172.15201341841171
 20
11.522237243423399
 30
0.0
 42
-0.4142135623730992
  0
VERTEX
  5
642
  8
DATA
  6
CONTINUOUS
 62
     7
 10
-171.65201341841171
 20
12.022237243423399
 30
0.0
 42
-0.4142135623730951
  0
VERTEX
  5
643
  8
DATA
  6
CONTINUOUS
 62
     7
 10
-171.15201341841171
 20
11.522237243423399
 30
0.0
 42
-0.414213562373091
  0
VERTEX
  5
644
  8
DATA
  6
CONTINUOUS
 62
     7
 10
-171.65201341841171
 20
11.022237243423399
 30
0.0
 42
-0.4142135623730951
  0
VERTEX
  5
645
  8
DATA
  6
CONTINUOUS
 62
     7
 10
-172.15201341841171
 20
11.522237243423399
 30
0.0
  0
SEQEND
  5
646
  8
DATA
  6
CONTINUOUS
 62
     7
  0
POLYLINE
  5
3EF
  8
DATA
  6
CONTINUOUS
 62
     7
 66
     1
 10
0.0
 20
0.0
 30
0.0
 70
   129
  0
VERTEX
  5
647
  8
DATA
  6
CONTINUOUS
 62
     7
 10
-174.65201341841171
 20
11.522237243423399
 30
0.0
 42
-0.4142135623730992
  0
VERTEX
  5
648
  8
DATA
  6
CONTINUOUS
 62
     7
 10
-174.15201341841171
 20
12.022237243423399
 30
0.0
 42
-0.4142135623730951
  0
VERTEX
  5
649
  8
DATA
  6
CONTINUOUS
 62
     7
 10
-173.65201341841171
 20
11.522237243423399
 30
0.0
 42
-0.414213562373091
  0
VERTEX
  5
64A
  8
DATA
  6
CONTINUOUS
 62
     7
 10
-174.15201341841171
 20
11.022237243423399
 30
0.0
 42
-0.4142135623730951
  0
VERTEX
  5
64B
  8
DATA
  6
CONTINUOUS
 62
     7
 10
-174.65201341841171
 20
11.522237243423399
 30
0.0
  0
SEQEND
  5
64C
  8
DATA
  6
CONTINUOUS
 62
     7
  0
POLYLINE
  5
3F6
  8
DATA
  6
CONTINUOUS
 62
     7
 66
     1
 10
0.0
 20
0.0
 30
0.0
 70
   129
  0
VERTEX
  5
64D
  8
DATA
  6
CONTINUOUS
 62
     7
 10
-177.15201341841171
 20
11.522237243423399
 30
0.0
 42
-0.4142135623730992
  0
VERTEX
  5
64E
  8
DATA
  6
CONTINUOUS
 62
     7
 10
-176.65201341841171
 20
12.022237243423399
 30
0.0
 42
-0.4142135623730951
  0
VERTEX
  5
64F
  8
DATA
  6
CONTINUOUS
 62
     7
 10
-176.15201341841171
 20
11.522237243423399
 30
0.0
 42
-0.414213562373091
  0
VERTEX
  5
650
  8
DATA
  6
CONTINUOUS
 62
     7
 10
-176.65201341841171
 20
11.022237243423399
 30
0.0
 42
-0.4142135623730951
  0
VERTEX
  5
651
  8
DATA
  6
CONTINUOUS
 62
     7
 10
-177.15201341841171
 20
11.522237243423399
 30
0.0
  0
SEQEND
  5
652
  8
DATA
  6
CONTINUOUS
 62
     7
  0
POLYLINE
  5
3FD
  8
DATA
  6
CONTINUOUS
 62
     7
 66
     1
 10
0.0
 20
0.0
 30
0.0
 70
   129
  0
VERTEX
  5
653
  8
DATA
  6
CONTINUOUS
 62
     7
 10
-179.65201341841171
 20
11.522237243423399
 30
0.0
 42
-0.4142135623730992
  0
VERTEX
  5
654
  8
DATA
  6
CONTINUOUS
 62
     7
 10
-179.15201341841171
 20
12.022237243423399
 30
0.0
 42
-0.4142135623730951
  0
VERTEX
  5
655
  8
DATA
  6
CONTINUOUS
 62
     7
 10
-178.65201341841171
 20
11.522237243423399
 30
0.0
 42
-0.414213562373091
  0
VERTEX
  5
656
  8
DATA
  6
CONTINUOUS
 62
     7
 10
-179.15201341841171
 20
11.022237243423399
 30
0.0
 42
-0.4142135623730951
  0
VERTEX
  5
657
  8
DATA
  6
CONTINUOUS
 62
     7
 10
-179.65201341841171
 20
11.522237243423399
 30
0.0
  0
SEQEND
  5
658
  8
DATA
  6
CONTINUOUS
 62
     7
  0
POLYLINE
  5
404
  8
DATA
  6
CONTINUOUS
 62
     7
 66
     1
 10
0.0
 20
0.0
 30
0.0
 70
   129
  0
VERTEX
  5
659
  8
DATA
  6
CONTINUOUS
 62
     7
 10
-182.15201341841171
 20
11.522237243423399
 30
0.0
 42
-0.4142135623730992
  0
VERTEX
  5
65A
  8
DATA
  6
CONTINUOUS
 62
     7
 10
-181.65201341841171
 20
12.022237243423399
 30
0.0
 42
-0.4142135623730951
  0
VERTEX
  5
65B
  8
DATA
  6
CONTINUOUS
 62
     7
 10
-181.15201341841171
 20
11.522237243423399
 30
0.0
 42
-0.414213562373091
  0
VERTEX
  5
65C
  8
DATA
  6
CONTINUOUS
 62
     7
 10
-181.65201341841171
 20
11.022237243423399
 30
0.0
 42
-0.4142135623730951
  0
VERTEX
  5
65D
  8
DATA
  6
CONTINUOUS
 62
     7
 10
-182.15201341841171
 20
11.522237243423399
 30
0.0
  0
SEQEND
  5
65E
  8
DATA
  6
CONTINUOUS
 62
     7
  0
TEXT
  5
40B
  8
DATA
 62
     7
 10
-203.67220332916639
 20
22.1579625568491
 30
0.0
 40
2.606145872167934
  1
RS 232
 50
180.0
 41
0.7
 11
-203.67220332916639
 21
20.854889620765132
 31
0.0
 73
     2
  0
TEXT
  5
40C
  8
DATA
 62
     7
 10
-159.72261024056061
 20
22.1579625568491
 30
0.0
 40
2.606145872167934
  1
CONTROL IN/OUT
 50
180.0
 41
0.7
 11
-159.72261024056061
 21
20.854889620765132
 31
0.0
 73
     2
  0
POLYLINE
  5
40D
  8
DATA
  6
CONTINUOUS
 62
     7
 66
     1
 10
0.0
 20
0.0
 30
0.0
 70
   129
  0
VERTEX
  5
65F
  8
DATA
  6
CONTINUOUS
 62
     7
 10
-230.2373992325754
 20
-12.121665391878111
 30
0.0
  0
VERTEX
  5
660
  8
DATA
  6
CONTINUOUS
 62
     7
 10
-233.2373992325754
 20
-12.121665391878111
 30
0.0
  0
VERTEX
  5
661
  8
DATA
  6
CONTINUOUS
 62
     7
 10
-233.2373992325754
 20
-12.121665391878111
 30
0.0
 42
-0.4142135623730918
  0
VERTEX
  5
662
  8
DATA
  6
CONTINUOUS
 62
     7
 10
-238.2373992325754
 20
-7.1216653918781327
 30
0.0
  0
VERTEX
  5
663
  8
DATA
  6
CONTINUOUS
 62
     7
 10
-238.2373992325754
 20
10.878334608121859
 30
0.0
  0
VERTEX
  5
664
  8
DATA
  6
CONTINUOUS
 62
     7
 10
-238.2373992325754
 20
10.878334608121859
 30
0.0
 42
-0.4142135623730949
  0
VERTEX
  5
665
  8
DATA
  6
CONTINUOUS
 62
     7
 10
-233.2373992325754
 20
15.878334608121859
 30
0.0
  0
VERTEX
  5
666
  8
DATA
  6
CONTINUOUS
 62
     7
 10
-230.2373992325754
 20
15.878334608121859
 30
0.0
  0
VERTEX
  5
667
  8
DATA
  6
CONTINUOUS
 62
     7
 10
-230.2373992325754
 20
15.878334608121859
 30
0.0
 42
-0.4142135623730935
  0
VERTEX
  5
668
  8
DATA
  6
CONTINUOUS
 62
     7
 10
-225.2373992325754
 20
10.878334608121859
 30
0.0
  0
VERTEX
  5
669
  8
DATA
  6
CONTINUOUS
 62
     7
 10
-225.2373992325754
 20
-7.1216653918781363
 30
0.0
  0
VERTEX
  5
66A
  8
DATA
  6
CONTINUOUS
 62
     7
 10
-225.2373992325754
 20
-7.1216653918782118
 30
0.0
 42
-0.4142135623730909
  0
VERTEX
  5
66B
  8
DATA
  6
CONTINUOUS
 62
     7
 10
-230.2373992325754
 20
-12.121665391878111
 30
0.0
  0
SEQEND
  5
66C
  8
DATA
  6
CONTINUOUS
 62
     7
  0
CIRCLE
  5
41C
  8
DATA
  6
CONTINUOUS
 62
     7
 10
-231.7373992325754
 20
-5.9202553915140284
 30
0.0
 40
4.5
  0
CIRCLE
  5
41D
  8
DATA
  6
CONTINUOUS
 62
     7
 10
-231.7373992325754
 20
9.6769246077577673
 30
0.0
 40
4.5
  0
LINE
  5
41E
  8
DATA
  6
CONTINUOUS
 62
     7
 10
-244.16915841483871
 20
15.79948062752112
 30
0.0
 11
-244.16915841483871
 21
8.7994806275211221
 31
0.0
  0
LINE
  5
41F
  8
DATA
  6
CONTINUOUS
 62
     7
 10
-239.66915841483871
 20
15.79948062752112
 30
0.0
 11
-239.66915841483871
 21
8.7994806275211257
 31
0.0
  0
LINE
  5
420
  8
DATA
  6
CONTINUOUS
 62
     7
 10
-248.66915841483871
 20
15.79948062752112
 30
0.0
 11
-239.66915841483871
 21
15.79948062752112
 31
0.0
  0
LINE
  5
421
  8
DATA
  6
CONTINUOUS
 62
     7
 10
-248.66915841483871
 20
8.7994806275211257
 30
0.0
 11
-248.66915841483871
 21
15.79948062752112
 31
0.0
  0
LINE
  5
422
  8
DATA
  6
CONTINUOUS
 62
     7
 10
-239.66915841483871
 20
8.7994806275211257
 30
0.0
 11
-248.66915841483871
 21
8.7994806275211257
 31
0.0
  0
POLYLINE
  5
423
  8
DATA
  6
CONTINUOUS
 62
     7
 66
     1
 10
0.0
 20
0.0
 30
0.0
 70
     1
  0
VERTEX
  5
66D
  8
DATA
  6
CONTINUOUS
 62
     7
 10
-242.41915841483871
 20
12.79948062752112
 30
0.0
  0
VERTEX
  5
66E
  8
DATA
  6
CONTINUOUS
 62
     7
 10
-241.41915841483871
 20
12.79948062752112
 30
0.0
  0
VERTEX
  5
66F
  8
DATA
  6
CONTINUOUS
 62
     7
 10
-241.41915841483871
 20
11.79948062752112
 30
0.0
  0
VERTEX
  5
670
  8
DATA
  6
CONTINUOUS
 62
     7
 10
-242.41915841483871
 20
11.79948062752112
 30
0.0
  0
SEQEND
  5
671
  8
DATA
  6
CONTINUOUS
 62
     7
  0
POLYLINE
  5
42A
  8
DATA
  6
CONTINUOUS
 62
     7
 66
     1
 10
0.0
 20
0.0
 30
0.0
 70
     1
  0
VERTEX
  5
672
  8
DATA
  6
CONTINUOUS
 62
     7
 10
-246.91915841483871
 20
12.79948062752112
 30
0.0
  0
VERTEX
  5
673
  8
DATA
  6
CONTINUOUS
 62
     7
 10
-245.91915841483871
 20
12.79948062752112
 30
0.0
  0
VERTEX
  5
674
  8
DATA
  6
CONTINUOUS
 62
     7
 10
-245.91915841483871
 20
11.79948062752112
 30
0.0
  0
VERTEX
  5
675
  8
DATA
  6
CONTINUOUS
 62
     7
 10
-246.91915841483871
 20
11.79948062752112
 30
0.0
  0
SEQEND
  5
676
  8
DATA
  6
CONTINUOUS
 62
     7
  0
TEXT
  5
431
  8
DATA
 62
     7
 10
-225.1488970138376
 20
21.89734796963231
 30
0.0
 40
2.0849166977343478
  1
TO MASTER
 50
180.0
 41
0.7
 11
-225.1488970138376
 21
20.854889620765132
 31
0.0
 73
     2
  0
TEXT
  5
432
  8
DATA
 62
     7
 10
-239.48731829368279
 20
21.89734796963231
 30
0.0
 40
2.0849166977343478
  1
0V/GND
 50
180.0
 41
0.7
 11
-239.48731829368279
 21
20.854889620765132
 31
0.0
 73
     2
  0
LINE
  5
433
  8
DATA
  6
CONTINUOUS
 62
     7
 10
-251.54613921304929
 20
15.1
 30
0.0
 11
-251.54613921304929
 21
12.10000000000001
 31
0.0
  0
LINE
  5
434
  8
DATA
  6
CONTINUOUS
 62
     7
 10
-257.44613921304932
 20
15.1
 30
0.0
 11
-251.54613921304929
 21
15.1
 31
0.0
  0
LINE
  5
435
  8
DATA
  6
CONTINUOUS
 62
     7
 10
-257.44613921304932
 20
12.10000000000001
 30
0.0
 11
-257.44613921304932
 21
15.1
 31
0.0
  0
LINE
  5
436
  8
DATA
  6
CONTINUOUS
 62
     7
 10
-251.54613921304929
 20
12.10000000000001
 30
0.0
 11
-257.44613921304932
 21
12.10000000000001
 31
0.0
  0
LINE
  5
437
  8
DATA
  6
CONTINUOUS
 62
     7
 10
-254.4961392130493
 20
15.1
 30
0.0
 11
-254.4961392130493
 21
12.10000000000001
 31
0.0
  0
TEXT
  5
438
  8
DATA
 62
     7
 10
-249.34412984333909
 20
21.89734796963231
 30
0.0
 40
2.0849166977343478
  1
LIFT/GND
 50
180.0
 41
0.7
 11
-249.34412984333909
 21
20.854889620765132
 31
0.0
 73
     2
  0
TEXT
  5
439
  8
DATA
 62
     7
 10
-239.40000000000001
 20
-3.590428336473793
 30
0.0
 40
2.0849166977343478
  1
TO SLAVE
 50
180.0
 41
0.7
 11
-239.40000000000001
 21
-4.6328866853409671
 31
0.0
 73
     2
  0
TEXT
  5
43A
  8
DATA
 62
     7
 10
-239.40000000000001
 20
0.946826435921756
 30
0.0
 40
2.0849166977343478
  1
EXPANSION
 50
180.0
 41
0.7
 11
-239.40000000000001
 21
-0.095631912945418
 31
0.0
 73
     2
  0
LINE
  5
43B
  8
DATA
  6
CONTINUOUS
 62
     7
 10
-255.9711392130493
 20
12.10000000000001
 30
0.0
 11
-255.9711392130493
 21
5.2000000000000082
 31
0.0
  0
TEXT
  5
43C
  8
DATA
 62
     7
 10
-252.2910080774389
 20
8.9267836102890001
 30
0.0
 40
2.0849166977343478
  1
z
 50
180.0
 41
0.7
 11
-252.2910080774389
 21
7.8843252614218251
 31
0.0
 73
     2
  0
LINE
  5
43D
  8
DATA
  6
CONTINUOUS
 62
     7
 10
-251.7622328754355
 20
9.2971310432835441
 30
0.0
 11
-251.7622328754355
 21
6.7971310432835459
 31
0.0
  0
LINE
  5
43E
  8
DATA
  6
CONTINUOUS
 62
     7
 10
-254.2622328754355
 20
9.2971310432835441
 30
0.0
 11
-251.7622328754355
 21
9.2971310432835441
 31
0.0
  0
LINE
  5
43F
  8
DATA
  6
CONTINUOUS
 62
     7
 10
-254.2622328754355
 20
6.7971310432835459
 30
0.0
 11
-254.2622328754355
 21
9.2971310432835441
 31
0.0
  0
LINE
  5
440
  8
DATA
  6
CONTINUOUS
 62
     7
 10
-251.7622328754355
 20
6.7971310432835459
 30
0.0
 11
-254.2622328754355
 21
6.7971310432835459
 31
0.0
  0
LINE
  5
441
  8
DATA
  6
CONTINUOUS
 62
     7
 10
-253.02113921304931
 20
12.10000000000001
 30
0.0
 11
-253.01223287543539
 21
9.2971310432835441
 31
0.0
  0
LINE
  5
442
  8
DATA
  6
CONTINUOUS
 62
     7
 10
-253.01223287543539
 20
6.7971310432835459
 30
0.0
 11
-253.01223287543539
 21
4.9500000000000073
 31
0.0
  0
LINE
  5
443
  8
DATA
  6
CONTINUOUS
 62
     7
 10
-253.01223287543539
 20
4.9500000000000073
 30
0.0
 11
-255.7211392130493
 21
4.9500000000000073
 31
0.0
  0
LINE
  5
444
  8
DATA
  6
CONTINUOUS
 62
     7
 10
-256.2211392130493
 20
4.9500000000000073
 30
0.0
 11
-258.19555566899129
 21
4.9500000000000073
 31
0.0
  0
LINE
  5
445
  8
DATA
  6
CONTINUOUS
 62
     7
 10
-258.19555566899129
 20
4.9500000000000073
 30
0.0
 11
-258.19555566899129
 21
6.3757447540299781
 31
0.0
  0
CIRCLE
  5
446
  8
DATA
  6
CONTINUOUS
 62
     7
 10
-255.9711392130493
 20
4.9500000000000073
 30
0.0
 40
0.2500000000000284
  0
LINE
  5
447
  8
DATA
  6
CONTINUOUS
 62
     7
 10
-257.19555566899129
 20
6.3757447540299772
 30
0.0
 11
-259.19555566899129
 21
6.3757447540299772
 31
0.0
  0
CIRCLE
  5
448
  8
DATA
  6
CONTINUOUS
 62
     7
 10
69.0
 20
-10.64631938018254
 30
0.0
 40
2.9000000000000048
  0
LINE
  5
449
  8
DATA
  6
CONTINUOUS
 62
     7
 10
70.266751500765594
 20
-10.64631938018254
 30
0.0
 11
67.733248499234406
 21
-10.64631938018254
 31
0.0
  0
LINE
  5
44A
  8
DATA
  6
CONTINUOUS
 62
     7
 10
69.0
 20
-9.3795678794169426
 30
0.0
 11
69.0
 21
-11.913070880948149
 31
0.0
  0
LINE
  5
44B
  8
DATA
  6
CONTINUOUS
 62
     7
 10
66.000000000000014
 20
-7.3861018698481509
 30
0.0
 11
72.000000000000014
 21
-7.3861018698481509
 31
0.0
  0
LINE
  5
44C
  8
DATA
  6
CONTINUOUS
 62
     7
 10
74.0
 20
-9.3861018698481473
 30
0.0
 11
74.0
 21
-14.0
 31
0.0
  0
LINE
  5
44D
  8
DATA
  6
CONTINUOUS
 62
     7
 10
64.0
 20
-13.999999999999989
 30
0.0
 11
64.0
 21
-9.3861018698481473
 31
0.0
  0
LINE
  5
44E
  8
DATA
  6
CONTINUOUS
 62
     7
 10
66.000000000000014
 20
-7.3861018698481509
 30
0.0
 11
72.000000000000014
 21
-7.3861018698481509
 31
0.0
  0
LINE
  5
44F
  8
DATA
  6
CONTINUOUS
 62
     7
 10
74.0
 20
-9.3861018698481473
 30
0.0
 11
74.0
 21
-14.0
 31
0.0
  0
LINE
  5
450
  8
DATA
  6
CONTINUOUS
 62
     7
 10
64.0
 20
-13.999999999999989
 30
0.0
 11
64.0
 21
-9.3861018698481473
 31
0.0
  0
LINE
  5
451
  8
DATA
  6
CONTINUOUS
 62
     7
 10
66.0
 20
-7.3861018698481509
 30
0.0
 11
64.0
 21
-9.3861018698481526
 31
0.0
  0
LINE
  5
452
  8
DATA
  6
CONTINUOUS
 62
     7
 10
72.0
 20
-7.3861018698481509
 30
0.0
 11
74.0
 21
-9.3861018698481526
 31
0.0
  0
CIRCLE
  5
453
  8
DATA
  6
CONTINUOUS
 62
     7
 10
-245.0
 20
-10.64631938018254
 30
0.0
 40
2.9000000000000048
  0
LINE
  5
454
  8
DATA
  6
CONTINUOUS
 62
     7
 10
-243.73324849923441
 20
-10.64631938018254
 30
0.0
 11
-246.26675150076559
 21
-10.64631938018254
 31
0.0
  0
LINE
  5
455
  8
DATA
  6
CONTINUOUS
 62
     7
 10
-245.0
 20
-9.3795678794169426
 30
0.0
 11
-245.0
 21
-11.913070880948149
 31
0.0
  0
LINE
  5
456
  8
DATA
  6
CONTINUOUS
 62
     7
 10
-248.0
 20
-7.3861018698481509
 30
0.0
 11
-242.0
 21
-7.3861018698481509
 31
0.0
  0
LINE
  5
457
  8
DATA
  6
CONTINUOUS
 62
     7
 10
-240.0
 20
-9.3861018698481473
 30
0.0
 11
-240.0
 21
-14.0
 31
0.0
  0
LINE
  5
458
  8
DATA
  6
CONTINUOUS
 62
     7
 10
-250.0
 20
-13.999999999999989
 30
0.0
 11
-250.0
 21
-9.3861018698481473
 31
0.0
  0
LINE
  5
459
  8
DATA
  6
CONTINUOUS
 62
     7
 10
-248.0
 20
-7.3861018698481509
 30
0.0
 11
-242.0
 21
-7.3861018698481509
 31
0.0
  0
LINE
  5
45A
  8
DATA
  6
CONTINUOUS
 62
     7
 10
-240.0
 20
-9.3861018698481473
 30
0.0
 11
-240.0
 21
-14.0
 31
0.0
  0
LINE
  5
45B
  8
DATA
  6
CONTINUOUS
 62
     7
 10
-250.0
 20
-13.999999999999989
 30
0.0
 11
-250.0
 21
-9.3861018698481473
 31
0.0
  0
LINE
  5
45C
  8
DATA
  6
CONTINUOUS
 62
     7
 10
-248.0
 20
-7.3861018698481509
 30
0.0
 11
-250.0
 21
-9.3861018698481526
 31
0.0
  0
LINE
  5
45D
  8
DATA
  6
CONTINUOUS
 62
     7
 10
-242.0
 20
-7.3861018698481509
 30
0.0
 11
-240.0
 21
-9.3861018698481526
 31
0.0
  0
TEXT
  5
45E
  8
DATA
 62
     7
 10
-38.836960477586189
 20
-4.9262380834631543
 30
0.0
 40
2.606145872167934
  1
L
 50
180.0
 41
0.7
 11
-38.836960477586189
 21
-6.2293110195471213
 31
0.0
 73
     2
  0
TEXT
  5
45F
  8
DATA
 62
     7
 10
-38.836960477586189
 20
9.2549169414416088
 30
0.0
 40
2.606145872167934
  1
R
 50
180.0
 41
0.7
 11
-38.836960477586189
 21
7.9518440053576409
 31
0.0
 73
     2
  0
LINE
  5
460
  8
DATA
  6
CONTINUOUS
 62
     7
 10
-294.99999999999989
 20
-76.5
 30
0.0
 11
-294.99999999999989
 21
-80.0
 31
0.0
  0
LINE
  5
461
  8
DATA
  6
CONTINUOUS
 62
     7
 10
-260.99999999999989
 20
-76.5
 30
0.0
 11
-260.99999999999989
 21
-80.0
 31
0.0
  0
LINE
  5
462
  8
DATA
  6
CONTINUOUS
 62
     7
 10
-294.99999999999989
 20
-76.5
 30
0.0
 11
-260.99999999999989
 21
-76.5
 31
0.0
  0
LINE
  5
463
  8
DATA
  6
CONTINUOUS
 62
     7
 10
-289.97368656281401
 20
-72.0
 30
0.0
 11
-289.97368656281401
 21
-76.5
 31
0.0
  0
LINE
  5
464
  8
DATA
  6
CONTINUOUS
 62
     7
 10
-285.07368656281409
 20
-72.0
 30
0.0
 11
-285.07368656281409
 21
-76.5
 31
0.0
  0
LINE
  5
465
  8
DATA
  6
CONTINUOUS
 62
     7
 10
-289.97368656281401
 20
-72.0
 30
0.0
 11
-285.07368656281409
 21
-72.0
 31
0.0
  0
LINE
  5
466
  8
DATA
  6
CONTINUOUS
 62
     7
 10
-85.150000000000006
 20
-75.0
 30
0.0
 11
-76.84999999999998
 21
-75.0
 31
0.0
  0
LINE
  5
467
  8
DATA
  6
CONTINUOUS
 62
     7
 10
-68.150000000000006
 20
-75.0
 30
0.0
 11
-59.850000000000001
 21
-75.0
 31
0.0
  0
LINE
  5
468
  8
DATA
  6
CONTINUOUS
 62
     7
 10
-51.150000000000013
 20
-75.0
 30
0.0
 11
-42.850000000000001
 21
-75.0
 31
0.0
  0
LINE
  5
469
  8
DATA
  6
CONTINUOUS
 62
     7
 10
-85.150000000000006
 20
-75.0
 30
0.0
 11
-85.150000000000006
 21
-80.0
 31
0.0
  0
LINE
  5
46A
  8
DATA
  6
CONTINUOUS
 62
     7
 10
-76.84999999999998
 20
-75.0
 30
0.0
 11
-76.84999999999998
 21
-80.0
 31
0.0
  0
LINE
  5
46B
  8
DATA
  6
CONTINUOUS
 62
     7
 10
-68.150000000000006
 20
-75.0
 30
0.0
 11
-68.150000000000006
 21
-80.0
 31
0.0
  0
LINE
  5
46C
  8
DATA
  6
CONTINUOUS
 62
     7
 10
-59.850000000000001
 20
-75.0
 30
0.0
 11
-59.850000000000001
 21
-80.0
 31
0.0
  0
LINE
  5
46D
  8
DATA
  6
CONTINUOUS
 62
     7
 10
-51.150000000000013
 20
-75.0
 30
0.0
 11
-51.150000000000013
 21
-80.0
 31
0.0
  0
LINE
  5
46E
  8
DATA
  6
CONTINUOUS
 62
     7
 10
-42.850000000000001
 20
-75.0
 30
0.0
 11
-42.850000000000001
 21
-80.0
 31
0.0
  0
LINE
  5
46F
  8
DATA
  6
CONTINUOUS
 62
     7
 10
-223.03815577740781
 20
-75.0
 30
0.0
 11
-223.03815577740781
 21
-80.0
 31
0.0
  0
LINE
  5
470
  8
DATA
  6
CONTINUOUS
 62
     7
 10
-217.6065882234079
 20
-75.0
 30
0.0
 11
-217.6065882234079
 21
-80.0
 31
0.0
  0
LINE
  5
471
  8
DATA
  6
CONTINUOUS
 62
     7
 10
-216.9411691264024
 20
-75.0
 30
0.0
 11
-216.9411691264024
 21
-80.0
 31
0.0
  0
LINE
  5
472
  8
DATA
  6
CONTINUOUS
 62
     7
 10
-200.04116912640259
 20
-75.0
 30
0.0
 11
-200.04116912640259
 21
-80.0
 31
0.0
  0
LINE
  5
473
  8
DATA
  6
CONTINUOUS
 62
     7
 10
-199.0811702043444
 20
-75.0
 30
0.0
 11
-199.0811702043444
 21
-80.0
 31
0.0
  0
LINE
  5
474
  8
DATA
  6
CONTINUOUS
 62
     7
 10
-193.64960265034489
 20
-75.0
 30
0.0
 11
-193.64960265034489
 21
-80.0
 31
0.0
  0
LINE
  5
475
  8
DATA
  6
CONTINUOUS
 62
     7
 10
-190.99210210859729
 20
-75.0
 30
0.0
 11
-190.99210210859729
 21
-80.0
 31
0.0
  0
LINE
  5
476
  8
DATA
  6
CONTINUOUS
 62
     7
 10
-185.5605345545973
 20
-75.0
 30
0.0
 11
-185.5605345545973
 21
-80.0
 31
0.0
  0
LINE
  5
477
  8
DATA
  6
CONTINUOUS
 62
     7
 10
-184.58675407852181
 20
-75.0
 30
0.0
 11
-184.58675407852181
 21
-80.0
 31
0.0
  0
LINE
  5
478
  8
DATA
  6
CONTINUOUS
 62
     7
 10
-158.68675407852211
 20
-75.0
 30
0.0
 11
-158.68675407852211
 21
-80.0
 31
0.0
  0
LINE
  5
479
  8
DATA
  6
CONTINUOUS
 62
     7
 10
-157.70733829058099
 20
-75.0
 30
0.0
 11
-157.70733829058099
 21
-80.0
 31
0.0
  0
LINE
  5
47A
  8
DATA
  6
CONTINUOUS
 62
     7
 10
-152.27577073658139
 20
-75.0
 30
0.0
 11
-152.27577073658139
 21
-80.0
 31
0.0
  0
LINE
  5
47B
  8
DATA
  6
CONTINUOUS
 62
     7
 10
-223.03815577740781
 20
-75.0
 30
0.0
 11
-217.6065882234079
 21
-75.0
 31
0.0
  0
LINE
  5
47C
  8
DATA
  6
CONTINUOUS
 62
     7
 10
-216.9411691264024
 20
-75.0
 30
0.0
 11
-200.04116912640259
 21
-75.0
 31
0.0
  0
LINE
  5
47D
  8
DATA
  6
CONTINUOUS
 62
     7
 10
-199.0811702043444
 20
-75.0
 30
0.0
 11
-193.64960265034489
 21
-75.0
 31
0.0
  0
LINE
  5
47E
  8
DATA
  6
CONTINUOUS
 62
     7
 10
-190.99210210859729
 20
-75.0
 30
0.0
 11
-185.5605345545973
 21
-75.0
 31
0.0
  0
LINE
  5
47F
  8
DATA
  6
CONTINUOUS
 62
     7
 10
-184.58675407852181
 20
-75.0
 30
0.0
 11
-158.68675407852211
 21
-75.0
 31
0.0
  0
LINE
  5
480
  8
DATA
  6
CONTINUOUS
 62
     7
 10
-157.70733829058099
 20
-75.0
 30
0.0
 11
-152.27577073658139
 21
-75.0
 31
0.0
  0
ARC
  5
481
  8
DATA
  6
CONTINUOUS
 62
     7
 10
67.60000000000008
 20
-79.500000000000085
 30
0.0
 40
1.500000000000099
 50
90.000000000003794
 51
179.99999999999619
  0
LINE
  5
482
  8
DATA
  6
CONTINUOUS
 62
     7
 10
66.099999999999994
 20
-80.0
 30
0.0
 11
66.099999999999994
 21
-79.5
 31
0.0
  0
LINE
  5
483
  8
DATA
  6
CONTINUOUS
 62
     7
 10
71.899999999999963
 20
-79.5
 30
0.0
 11
71.899999999999963
 21
-80.0
 31
0.0
  0
ARC
  5
484
  8
DATA
  6
CONTINUOUS
 62
     7
 10
70.399999999999935
 20
-79.500000000000014
 30
0.0
 40
1.500000000000042
 50
0.0000000000016485
 51
89.999999999998394
  0
LINE
  5
485
  8
DATA
  6
CONTINUOUS
 62
     7
 10
67.59999999999998
 20
-78.0
 30
0.0
 11
70.399999999999977
 21
-78.0
 31
0.0
  0
ARC
  5
486
  8
DATA
  6
CONTINUOUS
 62
     7
 10
-246.39999999999989
 20
-79.500000000000085
 30
0.0
 40
1.500000000000099
 50
90.000000000004349
 51
179.99999999999611
  0
LINE
  5
487
  8
DATA
  6
CONTINUOUS
 62
     7
 10
-247.90000000000001
 20
-80.0
 30
0.0
 11
-247.90000000000001
 21
-79.5
 31
0.0
  0
LINE
  5
488
  8
DATA
  6
CONTINUOUS
 62
     7
 10
-242.09999999999999
 20
-79.5
 30
0.0
 11
-242.09999999999999
 21
-80.0
 31
0.0
  0
ARC
  5
489
  8
DATA
  6
CONTINUOUS
 62
     7
 10
-243.60000000000011
 20
-79.500000000000014
 30
0.0
 40
1.500000000000056
 50
0.0000000000016485
 51
89.999999999997883
  0
LINE
  5
48A
  8
DATA
  6
CONTINUOUS
 62
     7
 10
-246.40000000000001
 20
-78.0
 30
0.0
 11
-243.59999999999999
 21
-78.0
 31
0.0
  0
LINE
  5
48B
  8
DATA
  6
CONTINUOUS
 62
     7
 10
-27.901037567376878
 20
-76.5
 30
0.0
 11
-18.000132921006749
 21
-76.5
 31
0.0
  0
LINE
  5
48C
  8
DATA
  6
CONTINUOUS
 62
     7
 10
15.0001329210068
 20
-76.5
 30
0.0
 11
24.999867078993251
 21
-76.5
 31
0.0
  0
LINE
  5
48D
  8
DATA
  6
CONTINUOUS
 62
     7
 10
43.000132921006752
 20
-76.5
 30
0.0
 11
52.999867078993248
 21
-76.5
 31
0.0
  0
LINE
  5
48E
  8
DATA
  6
CONTINUOUS
 62
     7
 10
86.000132921006738
 20
-76.5
 30
0.0
 11
95.999867078993219
 21
-76.5
 31
0.0
  0
LINE
  5
48F
  8
DATA
  6
CONTINUOUS
 62
     7
 10
-27.901037567376822
 20
-76.5
 30
0.0
 11
-27.901037567376822
 21
-77.200000000000003
 31
0.0
  0
LINE
  5
490
  8
DATA
  6
CONTINUOUS
 62
     7
 10
-18.000132921006749
 20
-76.5
 30
0.0
 11
-18.000132921006749
 21
-77.200000000000003
 31
0.0
  0
LINE
  5
491
  8
DATA
  6
CONTINUOUS
 62
     7
 10
15.000132921006751
 20
-76.5
 30
0.0
 11
15.000132921006751
 21
-77.200000000000003
 31
0.0
  0
LINE
  5
492
  8
DATA
  6
CONTINUOUS
 62
     7
 10
24.999867078993251
 20
-76.5
 30
0.0
 11
24.999867078993251
 21
-77.200000000000003
 31
0.0
  0
LINE
  5
493
  8
DATA
  6
CONTINUOUS
 62
     7
 10
43.000132921006752
 20
-76.5
 30
0.0
 11
43.000132921006752
 21
-77.200000000000003
 31
0.0
  0
LINE
  5
494
  8
DATA
  6
CONTINUOUS
 62
     7
 10
52.999867078993248
 20
-76.5
 30
0.0
 11
52.999867078993248
 21
-77.200000000000003
 31
0.0
  0
LINE
  5
495
  8
DATA
  6
CONTINUOUS
 62
     7
 10
86.000132921006738
 20
-76.5
 30
0.0
 11
86.000132921006738
 21
-77.200000000000003
 31
0.0
  0
LINE
  5
496
  8
DATA
  6
CONTINUOUS
 62
     7
 10
95.999867078993219
 20
-76.499999999999986
 30
0.0
 11
95.999867078993219
 21
-77.200000000000003
 31
0.0
  0
LINE
  5
497
  8
DATA
  6
CONTINUOUS
 62
     7
 10
-27.901037567376878
 20
-77.200000000000003
 30
0.0
 11
-18.000132921006749
 21
-77.200000000000003
 31
0.0
  0
LINE
  5
498
  8
DATA
  6
CONTINUOUS
 62
     7
 10
15.0001329210068
 20
-77.200000000000003
 30
0.0
 11
24.999867078993251
 21
-77.200000000000003
 31
0.0
  0
LINE
  5
499
  8
DATA
  6
CONTINUOUS
 62
     7
 10
43.000132921006752
 20
-77.200000000000003
 30
0.0
 11
52.999867078993248
 21
-77.200000000000003
 31
0.0
  0
LINE
  5
49A
  8
DATA
  6
CONTINUOUS
 62
     7
 10
86.000132921006738
 20
-77.200000000000003
 30
0.0
 11
95.999867078993219
 21
-77.200000000000003
 31
0.0
  0
LINE
  5
49B
  8
DATA
  6
CONTINUOUS
 62
     7
 10
-25.375585244191811
 20
-80.0
 30
0.0
 11
-25.375585244191811
 21
-77.200000000000003
 31
0.0
  0
LINE
  5
49C
  8
DATA
  6
CONTINUOUS
 62
     7
 10
-20.525585244191809
 20
-77.200000000000003
 30
0.0
 11
-20.525585244191809
 21
-80.0
 31
0.0
  0
LINE
  5
49D
  8
DATA
  6
CONTINUOUS
 62
     7
 10
17.524414755808191
 20
-80.0
 30
0.0
 11
17.524414755808191
 21
-77.200000000000003
 31
0.0
  0
LINE
  5
49E
  8
DATA
  6
CONTINUOUS
 62
     7
 10
22.374414755808179
 20
-77.200000000000003
 30
0.0
 11
22.374414755808179
 21
-80.0
 31
0.0
  0
LINE
  5
49F
  8
DATA
  6
CONTINUOUS
 62
     7
 10
45.524414755808181
 20
-80.0
 30
0.0
 11
45.524414755808181
 21
-77.200000000000003
 31
0.0
  0
LINE
  5
4A0
  8
DATA
  6
CONTINUOUS
 62
     7
 10
50.374414755808182
 20
-77.200000000000003
 30
0.0
 11
50.374414755808182
 21
-80.0
 31
0.0
  0
LINE
  5
4A1
  8
DATA
  6
CONTINUOUS
 62
     7
 10
88.524414755808181
 20
-80.0
 30
0.0
 11
88.524414755808181
 21
-77.200000000000003
 31
0.0
  0
LINE
  5
4A2
  8
DATA
  6
CONTINUOUS
 62
     7
 10
93.374414755808147
 20
-77.200000000000003
 30
0.0
 11
93.374414755808147
 21
-80.0
 31
0.0
  0
LINE
  5
4A3
  8
DATA
  6
CONTINUOUS
 62
     7
 10
200.0
 20
-380.0
 30
0.0
 11
200.0
 21
-335.0
 31
0.0
  0
LINE
  5
4A4
  8
DATA
  6
CONTINUOUS
 62
     7
 10
380.0
 20
-380.0
 30
0.0
 11
380.0
 21
-335.0
 31
0.0
  0
LINE
  5
4A5
  8
DATA
  6
CONTINUOUS
 62
     7
 10
200.0
 20
-335.0
 30
0.0
 11
380.0
 21
-335.0
 31
0.0
  0
LINE
  5
4A6
  8
DATA
  6
CONTINUOUS
 62
     7
 10
200.0
 20
-380.0
 30
0.0
 11
380.0
 21
-380.0
 31
0.0
  0
LINE
  5
4A7
  8
DATA
  6
CONTINUOUS
 62
     7
 10
203.0
 20
-380.0
 30
0.0
 11
203.0
 21
-335.0
 31
0.0
  0
LINE
  5
4A8
  8
DATA
  6
CONTINUOUS
 62
     7
 10
182.0
 20
-348.0
 30
0.0
 11
199.69999999999999
 21
-347.50833333333333
 31
0.0
  0
LINE
  5
4A9
  8
DATA
  6
CONTINUOUS
 62
     7
 10
182.0
 20
-354.0
 30
0.0
 11
199.69999999999999
 21
-354.49166666666667
 31
0.0
  0
LINE
  5
4AA
  8
DATA
  6
CONTINUOUS
 62
     7
 10
182.0
 20
-348.0
 30
0.0
 11
182.0
 21
-354.0
 31
0.0
  0
LINE
  5
4AB
  8
DATA
  6
CONTINUOUS
 62
     7
 10
199.69999999999999
 20
-343.5
 30
0.0
 11
200.0
 21
-343.5
 31
0.0
  0
LINE
  5
4AC
  8
DATA
  6
CONTINUOUS
 62
     7
 10
200.0
 20
-343.5
 30
0.0
 11
200.0
 21
-358.5
 31
0.0
  0
LINE
  5
4AD
  8
DATA
  6
CONTINUOUS
 62
     7
 10
199.69999999999999
 20
-343.5
 30
0.0
 11
199.69999999999999
 21
-358.5
 31
0.0
  0
LINE
  5
4AE
  8
DATA
  6
CONTINUOUS
 62
     7
 10
182.0
 20
-354.5
 30
0.0
 11
190.9999999999998
 21
-354.25
 31
0.0
  0
LINE
  5
4AF
  8
DATA
  6
CONTINUOUS
 62
     7
 10
182.0
 20
-360.5
 30
0.0
 11
199.69999999999999
 21
-360.99166666666662
 31
0.0
  0
LINE
  5
4B0
  8
DATA
  6
CONTINUOUS
 62
     7
 10
182.0
 20
-354.5
 30
0.0
 11
182.0
 21
-360.5
 31
0.0
  0
LINE
  5
4B1
  8
DATA
  6
CONTINUOUS
 62
     7
 10
199.69999999999999
 20
-365.0
 30
0.0
 11
200.0
 21
-365.0
 31
0.0
  0
LINE
  5
4B2
  8
DATA
  6
CONTINUOUS
 62
     7
 10
200.0
 20
-350.0
 30
0.0
 11
200.0
 21
-365.0
 31
0.0
  0
LINE
  5
4B3
  8
DATA
  6
CONTINUOUS
 62
     7
 10
199.69999999999999
 20
-350.0
 30
0.0
 11
199.69999999999999
 21
-365.0
 31
0.0
  0
LINE
  5
4B4
  8
DATA
  6
CONTINUOUS
 62
     7
 10
385.0
 20
-367.14999999999998
 30
0.0
 11
385.0
 21
-358.85000000000002
 31
0.0
  0
LINE
  5
4B5
  8
DATA
  6
CONTINUOUS
 62
     7
 10
385.0
 20
-367.14999999999998
 30
0.0
 11
380.0
 21
-367.14999999999998
 31
0.0
  0
LINE
  5
4B6
  8
DATA
  6
CONTINUOUS
 62
     7
 10
380.0
 20
-358.85000000000002
 30
0.0
 11
385.0
 21
-358.85000000000002
 31
0.0
  0
LINE
  5
4B7
  8
DATA
  6
CONTINUOUS
 62
     7
 10
385.0
 20
-353.14999999999998
 30
0.0
 11
385.0
 21
-344.85000000000002
 31
0.0
  0
LINE
  5
4B8
  8
DATA
  6
CONTINUOUS
 62
     7
 10
385.0
 20
-353.14999999999998
 30
0.0
 11
380.0
 21
-353.14999999999998
 31
0.0
  0
LINE
  5
4B9
  8
DATA
  6
CONTINUOUS
 62
     7
 10
380.0
 20
-344.85000000000002
 30
0.0
 11
382.17838821814149
 21
-344.85000000000002
 31
0.0
  0
LINE
  5
4BA
  8
DATA
  6
CONTINUOUS
 62
     7
 10
383.50000000000011
 20
-344.85000000000002
 30
0.0
 11
385.0
 21
-344.85000000000002
 31
0.0
  0
LINE
  5
4BB
  8
DATA
  6
CONTINUOUS
 62
     7
 10
383.5
 20
-375.0
 30
0.0
 11
383.5
 21
-367.14999999999998
 31
0.0
  0
LINE
  5
4BC
  8
DATA
  6
CONTINUOUS
 62
     7
 10
383.5
 20
-358.85000000000002
 30
0.0
 11
383.5
 21
-353.14999999999998
 31
0.0
  0
LINE
  5
4BD
  8
DATA
  6
CONTINUOUS
 62
     7
 10
383.5
 20
-344.84999999999991
 30
0.0
 11
383.5
 21
-341.0
 31
0.0
  0
LINE
  5
4BE
  8
DATA
  6
CONTINUOUS
 62
     7
 10
380.0
 20
-375.0
 30
0.0
 11
383.5
 21
-375.0
 31
0.0
  0
LINE
  5
4BF
  8
DATA
  6
CONTINUOUS
 62
     7
 10
383.5
 20
-342.9249999999999
 30
0.0
 11
388.0
 21
-345.0
 31
0.0
  0
ARC
  5
4C0
  8
DATA
  6
CONTINUOUS
 62
     7
 10
464.89531603803277
 20
-371.88823014383752
 30
0.0
 40
81.460828309420592
 50
160.7266370533255
 51
170.789899064091
  0
ARC
  5
4C1
  8
DATA
  6
CONTINUOUS
 62
     7
 10
464.89531603803277
 20
-371.88823014383752
 30
0.0
 40
81.460828309420592
 50
176.66546596578939
 51
177.70198077372271
  0
LINE
  5
4C2
  8
DATA
  6
CONTINUOUS
 62
     7
 10
383.5
 20
-344.89999999999998
 30
0.0
 11
383.5
 21
-340.2999999999999
 31
0.0
  0
LINE
  5
4C3
  8
DATA
  6
CONTINUOUS
 62
     7
 10
382.69999999999999
 20
-344.10000000000002
 30
0.0
 11
382.69999999999999
 21
-340.2999999999999
 31
0.0
  0
LINE
  5
4C4
  8
DATA
  6
CONTINUOUS
 62
     7
 10
380.0
 20
-340.30000000000001
 30
0.0
 11
383.50000000000011
 21
-340.30000000000001
 31
0.0
  0
LINE
  5
4C5
  8
DATA
  6
CONTINUOUS
 62
     7
 10
382.69999999999999
 20
-345.69999999999999
 30
0.0
 11
380.0
 21
-345.69999999999999
 31
0.0
  0
LINE
  5
4C6
  8
DATA
  6
CONTINUOUS
 62
     7
 10
381.89999999999998
 20
-344.89999999999998
 30
0.0
 11
380.0
 21
-344.89999999999998
 31
0.0
  0
ARC
  5
4C7
  8
DATA
  6
CONTINUOUS
 62
     7
 10
382.69999999999999
 20
-344.89999999999992
 30
0.0
 40
0.8000000000000682
 50
270.0
 51
359.99999999999602
  0
ARC
  5
4C8
  8
DATA
  6
CONTINUOUS
 62
     7
 10
381.89999999999998
 20
-344.10000000000002
 30
0.0
 40
0.7999999999999546
 50
270.0
 51
0.0000000000040927
  0
ENDSEC
  0
EOF
