  0
SECTION
  2
HEADER
  9
$ACADVER
  1
AC1009
  9
$INSBASE
 10
0.0
 20
0.0
 30
0.0
  9
$EXTMIN
 10
-170.0164782349211
 20
-265.80211091866681
 30
-0.0015258207003583
  9
$EXTMAX
 10
370.0164807494923
 20
537.08808227102497
 30
0.0000000349246037
  9
$LIMMIN
 10
0.0
 20
0.0
  9
$LIMMAX
 10
0.0
 20
0.0
  9
$ORTHOMODE
 70
     0
  9
$REGENMODE
 70
     1
  9
$FILLMODE
 70
     1
  9
$QTEXTMODE
 70
     0
  9
$MIRRTEXT
 70
     1
  9
$DRAGMODE
 70
     2
  9
$LTSCALE
 40
15.24
  9
$OSMODE
 70
   231
  9
$ATTMODE
 70
     1
  9
$TEXTSIZE
 40
0.0
  9
$TRACEWID
 40
1.0
  9
$TEXTSTYLE
  7
STANDARD
  9
$CLAYER
  8
DATA
  9
$CELTYPE
  6
BYLAYER
  9
$CECOLOR
 62
   256
  9
$DIMSCALE
 40
1.0
  9
$DIMASZ
 40
0.18
  9
$DIMEXO
 40
0.0625
  9
$DIMDLI
 40
0.38
  9
$DIMRND
 40
0.0
  9
$DIMDLE
 40
0.0
  9
$DIMEXE
 40
0.18
  9
$DIMTP
 40
0.0
  9
$DIMTM
 40
0.0
  9
$DIMTXT
 40
0.18
  9
$DIMCEN
 40
0.09
  9
$DIMTSZ
 40
0.0
  9
$DIMTOL
 70
     0
  9
$DIMLIM
 70
     0
  9
$DIMTIH
 70
     1
  9
$DIMTOH
 70
     1
  9
$DIMSE1
 70
     0
  9
$DIMSE2
 70
     0
  9
$DIMTAD
 70
     0
  9
$DIMZIN
 70
     0
  9
$DIMBLK
  1

  9
$DIMASO
 70
     1
  9
$DIMSHO
 70
     1
  9
$DIMPOST
  1

  9
$DIMAPOST
  1

  9
$DIMALT
 70
     0
  9
$DIMALTD
 70
     2
  9
$DIMALTF
 40
25.399999999999999
  9
$DIMLFAC
 40
1.0
  9
$DIMTOFL
 70
     0
  9
$DIMTVP
 40
0.0
  9
$DIMTIX
 70
     0
  9
$DIMSOXD
 70
     0
  9
$DIMSAH
 70
     0
  9
$DIMBLK1
  1

  9
$DIMBLK2
  1

  9
$DIMSTYLE
  2
STANDARD
  9
$DIMCLRD
 70
     0
  9
$DIMCLRE
 70
     0
  9
$DIMCLRT
 70
     0
  9
$DIMTFAC
 40
1.0
  9
$DIMGAP
 40
0.09
  9
$LUNITS
 70
     2
  9
$LUPREC
 70
     4
  9
$SKETCHINC
 40
0.1
  9
$FILLETRAD
 40
0.0
  9
$AUNITS
 70
     0
  9
$AUPREC
 70
     0
  9
$MENU
  1
acad
  9
$ELEVATION
 40
0.0
  9
$PELEVATION
 40
0.0
  9
$THICKNESS
 40
0.0
  9
$LIMCHECK
 70
     0
  9
$BLIPMODE
 70
     0
  9
$CHAMFERA
 40
0.0
  9
$CHAMFERB
 40
0.0
  9
$SKPOLY
 70
     0
  9
$TDCREATE
 40
2455027.5760763888
  9
$TDUPDATE
 40
2455027.5918861688
  9
$TDINDWG
 40
0.000279213
  9
$TDUSRTIMER
 40
0.000279213
  9
$USRTIMER
 70
     1
  9
$ANGBASE
 50
0.0
  9
$ANGDIR
 70
     0
  9
$PDMODE
 70
     1
  9
$PDSIZE
 40
-2.0
  9
$PLINEWID
 40
0.0
  9
$COORDS
 70
     0
  9
$SPLFRAME
 70
     0
  9
$SPLINETYPE
 70
     6
  9
$SPLINESEGS
 70
     8
  9
$ATTDIA
 70
     0
  9
$ATTREQ
 70
     1
  9
$HANDLING
 70
     1
  9
$HANDSEED
  5
411
  9
$SURFTAB1
 70
     6
  9
$SURFTAB2
 70
     6
  9
$SURFTYPE
 70
     6
  9
$SURFU
 70
     6
  9
$SURFV
 70
     6
  9
$UCSNAME
  2

  9
$UCSORG
 10
0.0
 20
0.0
 30
0.0
  9
$UCSXDIR
 10
1.0
 20
0.0
 30
0.0
  9
$UCSYDIR
 10
0.0
 20
1.0
 30
0.0
  9
$PUCSNAME
  2

  9
$PUCSORG
 10
0.0
 20
0.0
 30
0.0
  9
$PUCSXDIR
 10
1.0
 20
0.0
 30
0.0
  9
$PUCSYDIR
 10
0.0
 20
1.0
 30
0.0
  9
$USERI1
 70
     0
  9
$USERI2
 70
     0
  9
$USERI3
 70
     0
  9
$USERI4
 70
     0
  9
$USERI5
 70
     0
  9
$USERR1
 40
0.0
  9
$USERR2
 40
0.0
  9
$USERR3
 40
0.0
  9
$USERR4
 40
0.0
  9
$USERR5
 40
0.0
  9
$WORLDVIEW
 70
     1
  9
$SHADEDGE
 70
     3
  9
$SHADEDIF
 70
    70
  9
$TILEMODE
 70
     1
  9
$MAXACTVP
 70
    64
  9
$PLIMCHECK
 70
     0
  9
$PEXTMIN
 10
1.0000000000000000E+020
 20
1.0000000000000000E+020
 30
1.0000000000000000E+020
  9
$PEXTMAX
 10
-1.0000000000000000E+020
 20
-1.0000000000000000E+020
 30
-1.0000000000000000E+020
  9
$PLIMMIN
 10
0.0
 20
0.0
  9
$PLIMMAX
 10
12.0
 20
9.0
  9
$UNITMODE
 70
     0
  9
$VISRETAIN
 70
     0
  9
$PLINEGEN
 70
     1
  9
$PSLTSCALE
 70
     0
  0
ENDSEC
  0
SECTION
  2
TABLES
  0
TABLE
  2
VPORT
 70
     1
  0
VPORT
  2
*ACTIVE
 70
     0
 10
0.0
 20
0.0
 11
1.0
 21
1.0
 12
100.0000012572857
 22
135.64298567617911
 13
0.0
 23
0.0
 14
1.0
 24
1.0
 15
0.0
 25
0.0
 16
0.0
 26
0.0
 36
1.0
 17
0.0
 27
0.0
 37
0.0
 40
808.80830272180265
 41
1.964329643296433
 42
50.0
 43
0.0
 44
0.0
 50
0.0
 51
0.0
 71
     0
 72
  2000
 73
     1
 74
     1
 75
     0
 76
     0
 77
     0
 78
     0
  0
ENDTAB
  0
TABLE
  2
LTYPE
 70
    11
  0
LTYPE
  2
CONTINUOUS
 70
     0
  3
Solid line
 72
    65
 73
     0
 40
0.0
  0
ENDTAB
  0
TABLE
  2
LAYER
 70
     6
  0
LAYER
  2
0
 70
     0
 62
     7
  6
CONTINUOUS
  0
LAYER
  2
DATA
 70
     0
 62
     7
  6
CONTINUOUS
  0
LAYER
  2
HIBINO-BASE
 70
     0
 62
     7
  6
CONTINUOUS
  0
LAYER
  2
PATTERN_FILL
 70
     0
 62
     7
  6
CONTINUOUS
  0
LAYER
  2
SPEC
 70
     0
 62
     7
  6
CONTINUOUS
  0
LAYER
  2
DIMNSIONS
 70
     0
 62
     7
  6
CONTINUOUS
  0
ENDTAB
  0
TABLE
  2
STYLE
 70
     3
  0
STYLE
  2
STANDARD
 70
     0
 40
0.0
 41
1.0
 50
0.0
 71
     0
 42
0.0
  3
txt
  4
BIGFONT.SHX
  0
ENDTAB
  0
TABLE
  2
VIEW
 70
     0
  0
ENDTAB
  0
TABLE
  2
UCS
 70
     0
  0
ENDTAB
  0
TABLE
  2
APPID
 70
     3
  0
APPID
  2
ACAD
 70
     0
  0
APPID
  2
ACADANNOTATIVE
 70
     0
  0
APPID
  2
ACAD_MLEADERVER
 70
     0
  0
ENDTAB
  0
TABLE
  2
DIMSTYLE
 70
     2
  0
DIMSTYLE
  2
STANDARD
 70
     0
  3

  4

  5

  6

  7

 40
1.0
 41
0.18
 42
0.0625
 43
0.38
 44
0.18
 45
0.0
 46
0.0
 47
0.0
 48
0.0
140
0.18
141
0.09
142
0.0
143
25.399999999999999
144
1.0
145
0.0
146
1.0
147
0.09
 71
     0
 72
     0
 73
     1
 74
     1
 75
     0
 76
     0
 77
     0
 78
     0
170
     0
171
     2
172
     0
173
     0
174
     0
175
     0
176
     0
177
     0
178
     0
  0
ENDTAB
  0
ENDSEC
  0
SECTION
  2
BLOCKS
  0
BLOCK
  8
0
  2
$MODEL_SPACE
 70
     0
 10
0.0
 20
0.0
 30
0.0
  3
$MODEL_SPACE
  1

  0
ENDBLK
  5
379
  8
0
  0
BLOCK
 67
     1
  8
0
  2
$PAPER_SPACE
 70
     0
 10
0.0
 20
0.0
 30
0.0
  3
$PAPER_SPACE
  1

  0
ENDBLK
  5
375
 67
     1
  8
0
  0
ENDSEC
  0
SECTION
  2
ENTITIES
  0
LINE
  5
2D
  8
HIBINO-BASE
  6
CONTINUOUS
 62
     7
 10
-169.99999999999989
 20
537.06362999999999
 30
0.0
 11
370.0
 21
537.06362999999999
 31
0.0
  0
LINE
  5
2E
  8
HIBINO-BASE
  6
CONTINUOUS
 62
     7
 10
370.0
 20
-242.93637000000001
 30
0.0
 11
-169.99999999999989
 21
-242.93637000000001
 31
0.0
  0
LINE
  5
2F
  8
HIBINO-BASE
  6
CONTINUOUS
 62
     7
 10
-169.99999999999989
 20
-242.93637000000001
 30
0.0
 11
-169.99999999999989
 21
537.06362999999999
 31
0.0
  0
TEXT
  5
30
  8
HIBINO-BASE
 62
     7
 10
-148.44799999999989
 20
-262.1624033999999
 30
0.0
 40
10.800132539062499
  1
Hibino Corporation
 41
0.7
 11
-148.44799999999989
 21
-251.3622708609374
 31
0.0
 73
     3
  0
LINE
  5
31
  8
HIBINO-BASE
  6
CONTINUOUS
 62
     7
 10
370.0
 20
537.06362999999999
 30
0.0
 11
370.0
 21
-242.93637000000001
 31
0.0
  0
LINE
  5
32
  8
HIBINO-BASE
  6
CONTINUOUS
 62
     7
 10
100.0
 20
-175.4363699999999
 30
0.0
 11
370.0
 21
-175.4363699999999
 31
0.0
  0
LINE
  5
33
  8
HIBINO-BASE
  6
CONTINUOUS
 62
     7
 10
100.0
 20
-242.93637000000001
 30
0.0
 11
100.0
 21
-175.4363699999999
 31
0.0
  0
TEXT
  5
34
  8
HIBINO-BASE
 62
     7
 10
102.7
 20
-182.96244999999999
 30
0.0
 40
4.8865234374999993
  1
NOTE
 41
0.7
 11
102.7
 21
-178.0759265625
 31
0.0
 73
     3
  0
LINE
  5
35
  8
HIBINO-BASE
  6
CONTINUOUS
 62
     7
 10
205.0
 20
-242.93637000000001
 30
0.0
 11
205.0
 21
-175.4363699999999
 31
0.0
  0
TEXT
  5
36
  8
HIBINO-BASE
 62
     7
 10
207.69999999999999
 20
-182.96244999999999
 30
0.0
 40
4.8865234374999993
  1
TITLE
 41
0.7
 11
207.69999999999999
 21
-178.0759265625
 31
0.0
 73
     3
  0
TEXT
  5
37
  8
HIBINO-BASE
 62
     7
 10
250.2051699999999
 20
-262.1624033999999
 30
0.0
 40
10.800132539062499
  1
ヒビノ株式会社
 41
0.7
 11
250.2051699999999
 21
-251.3622708609374
 31
0.0
 73
     3
  0
LINE
  5
38
  8
HIBINO-BASE
  6
CONTINUOUS
 62
     7
 10
100.0
 20
-212.9363699999999
 30
0.0
 11
370.0
 21
-212.9363699999999
 31
0.0
  0
TEXT
  5
39
  8
HIBINO-BASE
 62
     7
 10
245.19999999999999
 20
-220.29348999999999
 30
0.0
 40
4.8865234374999993
  1
DRAWN
 41
0.7
 11
245.19999999999999
 21
-215.4069665625
 31
0.0
 73
     3
  0
TEXT
  5
3A
  8
HIBINO-BASE
 62
     7
 10
170.19999999999999
 20
-220.29348999999999
 30
0.0
 40
4.8865234374999993
  1
DATE
 41
0.7
 11
170.19999999999999
 21
-215.4069665625
 31
0.0
 73
     3
  0
TEXT
  5
3B
  8
HIBINO-BASE
 62
     7
 10
140.19999999999999
 20
-220.29348999999999
 30
0.0
 40
4.8865234374999993
  1
SCALE
 41
0.7
 11
140.19999999999999
 21
-215.4069665625
 31
0.0
 73
     3
  0
TEXT
  5
3C
  8
HIBINO-BASE
 62
     7
 10
207.69999999999999
 20
-220.29348999999999
 30
0.0
 40
4.8865234374999993
  1
DESIGN
 41
0.7
 11
207.69999999999999
 21
-215.4069665625
 31
0.0
 73
     3
  0
TEXT
  5
3D
  8
HIBINO-BASE
 62
     7
 10
320.19999999999999
 20
-220.29348999999999
 30
0.0
 40
4.8865234374999993
  1
DRAWING NO.
 41
0.7
 11
320.19999999999999
 21
-215.4069665625
 31
0.0
 73
     3
  0
TEXT
  5
3E
  8
HIBINO-BASE
 62
     7
 10
282.69999999999999
 20
-220.29348999999999
 30
0.0
 40
4.8865234374999993
  1
CHECK
 41
0.7
 11
282.69999999999999
 21
-215.4069665625
 31
0.0
 73
     3
  0
LINE
  5
3F
  8
HIBINO-BASE
  6
CONTINUOUS
 62
     7
 10
143.12499999999989
 20
-239.18637000000001
 30
0.0
 11
154.375
 21
-227.93637000000001
 31
0.0
  0
TEXT
  5
40
  8
HIBINO-BASE
 62
     7
 10
141.24999999999989
 20
-231.26320000000001
 30
0.0
 40
4.8865234374999993
  1
1
 41
0.7
 11
141.24999999999989
 21
-226.37667656249999
 31
0.0
 73
     3
  0
LINE
  5
41
  8
HIBINO-BASE
  6
CONTINUOUS
 62
     7
 10
137.5
 20
-242.93637000000001
 30
0.0
 11
137.5
 21
-212.9363699999999
 31
0.0
  0
LINE
  5
42
  8
HIBINO-BASE
  6
CONTINUOUS
 62
     7
 10
167.5
 20
-242.93637000000001
 30
0.0
 11
167.5
 21
-212.9363699999999
 31
0.0
  0
LINE
  5
43
  8
HIBINO-BASE
  6
CONTINUOUS
 62
     7
 10
242.5
 20
-212.9363699999999
 30
0.0
 11
242.5
 21
-242.93637000000001
 31
0.0
  0
LINE
  5
44
  8
HIBINO-BASE
  6
CONTINUOUS
 62
     7
 10
317.5
 20
-212.9363699999999
 30
0.0
 11
317.5
 21
-242.93637000000001
 31
0.0
  0
LINE
  5
45
  8
HIBINO-BASE
  6
CONTINUOUS
 62
     7
 10
279.99999999999989
 20
-242.93637000000001
 30
0.0
 11
279.99999999999989
 21
-212.9363699999999
 31
0.0
  0
TEXT
  5
46
  8
HIBINO-BASE
 62
     7
 10
170.06961999999999
 20
-234.34542999999999
 30
0.0
 40
4.8865234374999993
  1
'09.07.
 41
0.7
 11
170.06961999999999
 21
-229.4589065625
 31
0.0
 73
     3
  0
TEXT
  5
47
  8
HIBINO-BASE
 62
     7
 10
152.5
 20
-236.88820000000001
 30
0.0
 40
4.8865234374999993
  1
3
 41
0.7
 11
152.5
 21
-232.00167656249999
 31
0.0
 73
     3
  0
TEXT
  5
48
  8
HIBINO-BASE
 62
     7
 10
247.01743003310389
 20
-234.34542999999999
 30
0.0
 40
4.8865234374999993
  1
N.Sasaki
 41
0.7
 11
247.01743003310389
 21
-229.4589065625
 31
0.0
 73
     3
  0
TEXT
  5
49
  8
HIBINO-BASE
 62
     7
 10
111.65000000000001
 20
-237.00837000000001
 30
0.0
 40
9.7730468749999986
  1
A4
 41
0.7
 11
111.65000000000001
 21
-227.23532312500001
 31
0.0
 73
     3
  0
TEXT
  5
4A
  8
HIBINO-BASE
 62
     7
 10
102.875
 20
-220.794735
 30
0.0
 40
4.8865234374999993
  1
PAPER SIZE
 41
0.7
 11
102.875
 21
-215.90821156249999
 31
0.0
 73
     3
  0
LINE
  5
4B
  8
PATTERN_FILL
  6
CONTINUOUS
 62
     7
 10
-41.174847804910222
 20
234.81852792460481
 30
0.0
 11
-27.678159940106301
 21
221.32184005980051
 31
0.0
  0
LINE
  5
4C
  8
PATTERN_FILL
  6
CONTINUOUS
 62
     7
 10
-44.782274246020243
 20
235.9259543657148
 30
0.0
 11
-26.57404563419221
 21
217.7177257538865
 31
0.0
  0
LINE
  5
4D
  8
PATTERN_FILL
  6
CONTINUOUS
 62
     7
 10
-47.7506826333235
 20
236.3943627530181
 30
0.0
 11
-26.105637246888929
 21
214.74931736658331
 31
0.0
  0
LINE
  5
4E
  8
PATTERN_FILL
  6
CONTINUOUS
 62
     7
 10
-50.353713216867753
 20
236.4973933365624
 30
0.0
 11
-26.00260666334475
 21
212.14628678303899
 31
0.0
  0
LINE
  5
4F
  8
PATTERN_FILL
  6
CONTINUOUS
 62
     7
 10
-52.703558154295997
 20
236.3472382739906
 30
0.0
 11
-26.152761725916442
 21
209.79644184561079
 31
0.0
  0
LINE
  5
50
  8
PATTERN_FILL
  6
CONTINUOUS
 62
     7
 10
-54.859249386808422
 20
236.00292950650299
 30
0.0
 11
-26.49707049340407
 21
207.64075061309831
 31
0.0
  0
LINE
  5
51
  8
PATTERN_FILL
  6
CONTINUOUS
 62
     7
 10
-56.856167109364392
 20
235.4998472290589
 30
0.0
 11
-27.000152770848111
 21
205.6438328905424
 31
0.0
  0
LINE
  5
52
  8
PATTERN_FILL
  6
CONTINUOUS
 62
     7
 10
-58.717223560398132
 20
234.86090368009269
 30
0.0
 11
-27.639096319814371
 21
203.78277643950861
 31
0.0
  0
LINE
  5
53
  8
PATTERN_FILL
  6
CONTINUOUS
 62
     7
 10
-60.457963380745532
 20
234.10164350044019
 30
0.0
 11
-28.39835649946691
 21
202.04203661916119
 31
0.0
  0
LINE
  5
54
  8
PATTERN_FILL
  6
CONTINUOUS
 62
     7
 10
-62.089183628334418
 20
233.23286374802899
 30
0.0
 11
-29.267136251878028
 21
200.41081637157231
 31
0.0
  0
LINE
  5
55
  8
PATTERN_FILL
  6
CONTINUOUS
 62
     7
 10
-63.618390574990848
 20
232.26207069468541
 30
0.0
 11
-30.237929305221559
 21
198.88160942491589
 31
0.0
  0
LINE
  5
56
  8
PATTERN_FILL
  6
CONTINUOUS
 62
     7
 10
-65.050649347294964
 20
231.1943294669895
 30
0.0
 11
-31.30567053291746
 21
197.44935065261171
 31
0.0
  0
LINE
  5
57
  8
PATTERN_FILL
  6
CONTINUOUS
 62
     7
 10
-66.389085591312622
 20
230.03276571100719
 30
0.0
 11
-32.46723428889981
 21
196.11091440859411
 31
0.0
  0
LINE
  5
58
  8
PATTERN_FILL
  6
CONTINUOUS
 62
     7
 10
-67.635167314516551
 20
228.77884743421109
 30
0.0
 11
-33.72115256569576
 21
194.8648326853901
 31
0.0
  0
LINE
  5
59
  8
PATTERN_FILL
  6
CONTINUOUS
 62
     7
 10
-68.788830129806854
 20
227.43251024950141
 30
0.0
 11
-35.067489750405443
 21
193.71116987009981
 31
0.0
  0
LINE
  5
5A
  8
PATTERN_FILL
  6
CONTINUOUS
 62
     7
 10
-69.848471856681613
 20
225.99215197637611
 30
0.0
 11
-36.507848023530713
 21
192.65152814322499
 31
0.0
  0
LINE
  5
5B
  8
PATTERN_FILL
  6
CONTINUOUS
 62
     7
 10
-70.810815388658241
 20
224.45449550835281
 30
0.0
 11
-38.045504491554041
 21
191.68918461124841
 31
0.0
  0
LINE
  5
5C
  8
PATTERN_FILL
  6
CONTINUOUS
 62
     7
 10
-71.670611274908708
 20
222.8142913946032
 30
0.0
 11
-39.685708605303617
 21
190.82938872499801
 31
0.0
  0
LINE
  5
5D
  8
PATTERN_FILL
  6
CONTINUOUS
 62
     7
 10
-72.420112684872777
 20
221.0637928045673
 30
0.0
 11
-41.428159940106198
 21
190.07184005980051
 31
0.0
  0
LINE
  5
5E
  8
PATTERN_FILL
  6
CONTINUOUS
 62
     7
 10
-73.048186839750159
 20
219.19186695944461
 30
0.0
 11
-43.308133040462131
 21
189.45181316015649
 31
0.0
  0
LINE
  5
5F
  8
PATTERN_FILL
  6
CONTINUOUS
 62
     7
 10
-73.538787146087884
 20
217.18246726578241
 30
0.0
 11
-45.317532734124377
 21
188.96121285381869
 31
0.0
  0
LINE
  5
60
  8
PATTERN_FILL
  6
CONTINUOUS
 62
     7
 10
-73.868190277305814
 20
215.01187039700019
 30
0.0
 11
-47.488129602906447
 21
188.63180972260079
 31
0.0
  0
LINE
  5
61
  8
PATTERN_FILL
  6
CONTINUOUS
 62
     7
 10
-73.999572469147793
 20
212.6432525888423
 30
0.0
 11
-49.856747411064489
 21
188.5004275307588
 31
0.0
  0
LINE
  5
62
  8
PATTERN_FILL
  6
CONTINUOUS
 62
     7
 10
-73.870965960808064
 20
210.0146460805025
 30
0.0
 11
-52.485353919404261
 21
188.6290340390986
 31
0.0
  0
LINE
  5
63
  8
PATTERN_FILL
  6
CONTINUOUS
 62
     7
 10
-73.362822818268569
 20
207.00650293796301
 30
0.0
 11
-55.493497061943692
 21
189.13717718163809
 31
0.0
  0
LINE
  5
64
  8
PATTERN_FILL
  6
CONTINUOUS
 62
     7
 10
-72.173950954021976
 20
203.3176310737164
 30
0.0
 11
-59.182368926190357
 21
190.3260490458847
 31
0.0
  0
LINE
  5
65
  8
PATTERN_FILL
  6
CONTINUOUS
 62
     7
 10
-59.430387670245992
 20
234.569612329661
 30
0.0
 11
-72.069612330010401
 21
221.93038766989631
 31
0.0
  0
LINE
  5
66
  8
PATTERN_FILL
  6
CONTINUOUS
 62
     7
 10
-55.68240395585407
 20
235.81759604405289
 30
0.0
 11
-73.317596044402308
 21
218.18240395550441
 31
0.0
  0
LINE
  5
67
  8
PATTERN_FILL
  6
CONTINUOUS
 62
     7
 10
-52.646344969903971
 20
236.35365503000301
 30
0.0
 11
-73.853655030352343
 21
215.14634496955429
 31
0.0
  0
LINE
  5
68
  8
PATTERN_FILL
  6
CONTINUOUS
 62
     7
 10
-50.000000000128253
 20
236.49999999977879
 30
0.0
 11
-74.000000000128082
 21
212.49999999977851
 31
0.0
  0
LINE
  5
69
  8
PATTERN_FILL
  6
CONTINUOUS
 62
     7
 10
-47.618454013459377
 20
236.38154598644769
 30
0.0
 11
-73.881545986796965
 21
210.11845401310961
 31
0.0
  0
LINE
  5
6A
  8
PATTERN_FILL
  6
CONTINUOUS
 62
     7
 10
-45.437638889703017
 20
236.06236111020399
 30
0.0
 11
-73.562361110553383
 21
207.93763888935331
 31
0.0
  0
LINE
  5
6B
  8
PATTERN_FILL
  6
CONTINUOUS
 62
     7
 10
-43.41971005016439
 20
235.58028994974259
 30
0.0
 11
-73.080289950091981
 21
205.9197100498146
 31
0.0
  0
LINE
  5
6C
  8
PATTERN_FILL
  6
CONTINUOUS
 62
     7
 10
-41.54037516638796
 20
234.959624833519
 30
0.0
 11
-72.459624833868432
 21
204.04037516603819
 31
0.0
  0
LINE
  5
6D
  8
PATTERN_FILL
  6
CONTINUOUS
 62
     7
 10
-39.783237648292477
 20
234.21676235161451
 30
0.0
 11
-71.716762351963894
 21
202.28323764794271
 31
0.0
  0
LINE
  5
6E
  8
PATTERN_FILL
  6
CONTINUOUS
 62
     7
 10
-38.136931828174703
 20
233.36306817173229
 30
0.0
 11
-70.863068172081697
 21
200.6369318278249
 31
0.0
  0
LINE
  5
6F
  8
PATTERN_FILL
  6
CONTINUOUS
 62
     7
 10
-36.593544795013329
 20
232.4064552048936
 30
0.0
 11
-69.906455205243063
 21
199.09354479466359
 31
0.0
  0
LINE
  5
70
  8
PATTERN_FILL
  6
CONTINUOUS
 62
     7
 10
-35.147700453775528
 20
231.35229954613141
 30
0.0
 11
-68.852299546480893
 21
197.6477004534257
 31
0.0
  0
LINE
  5
71
  8
PATTERN_FILL
  6
CONTINUOUS
 62
     7
 10
-33.796018166942289
 20
230.20398183296459
 30
0.0
 11
-67.703981833314131
 21
196.29601816659249
 31
0.0
  0
LINE
  5
72
  8
PATTERN_FILL
  6
CONTINUOUS
 62
     7
 10
-32.536804546440848
 20
228.963195453466
 30
0.0
 11
-66.463195453815572
 21
195.0368045460911
 31
0.0
  0
LINE
  5
73
  8
PATTERN_FILL
  6
CONTINUOUS
 62
     7
 10
-31.369908175733471
 20
227.63009182417341
 30
0.0
 11
-65.130091824523006
 21
193.8699081753837
 31
0.0
  0
LINE
  5
74
  8
PATTERN_FILL
  6
CONTINUOUS
 62
     7
 10
-30.29670691163825
 20
226.20329308826859
 30
0.0
 11
-63.703293088618253
 21
192.7967069112884
 31
0.0
  0
LINE
  5
75
  8
PATTERN_FILL
  6
CONTINUOUS
 62
     7
 10
-29.320225199480561
 20
224.6797748004264
 30
0.0
 11
-62.179774800776002
 21
191.82022519913079
 31
0.0
  0
LINE
  5
76
  8
PATTERN_FILL
  6
CONTINUOUS
 62
     7
 10
-28.445405642125952
 20
223.05459435778079
 30
0.0
 11
-60.554594358130551
 21
190.9454056417762
 31
0.0
  0
LINE
  5
77
  8
PATTERN_FILL
  6
CONTINUOUS
 62
     7
 10
-27.678159940106301
 20
221.32184005980051
 30
0.0
 11
-58.820404619148313
 21
190.1795953807584
 31
0.0
  0
LINE
  5
78
  8
PATTERN_FILL
  6
CONTINUOUS
 62
     7
 10
-27.033370453032489
 20
219.4666295468742
 30
0.0
 11
-56.966629547224059
 21
189.53337045268279
 31
0.0
  0
LINE
  5
79
  8
PATTERN_FILL
  6
CONTINUOUS
 62
     7
 10
-26.521946724996042
 20
217.47805327491071
 30
0.0
 11
-54.97805327526045
 21
189.0219467246464
 31
0.0
  0
LINE
  5
7A
  8
PATTERN_FILL
  6
CONTINUOUS
 62
     7
 10
-26.16770837415493
 20
215.33229162575191
 30
0.0
 11
-52.832291626101622
 21
188.6677083738052
 31
0.0
  0
LINE
  5
7B
  8
PATTERN_FILL
  6
CONTINUOUS
 62
     7
 10
-26.005103103869828
 20
212.99489689603701
 30
0.0
 11
-50.50000000012826
 21
188.49999999977859
 31
0.0
  0
LINE
  5
7C
  8
PATTERN_FILL
  6
CONTINUOUS
 62
     7
 10
-26.09128788549253
 20
210.40871211441419
 30
0.0
 11
-47.908712114763958
 21
188.5912878851428
 31
0.0
  0
LINE
  5
7D
  8
PATTERN_FILL
  6
CONTINUOUS
 62
     7
 10
-26.533845704544891
 20
207.46615429536189
 30
0.0
 11
-44.966154295711661
 21
189.03384570419519
 31
0.0
  0
LINE
  5
7E
  8
PATTERN_FILL
  6
CONTINUOUS
 62
     7
 10
-27.589862519585608
 20
203.9101374803212
 30
0.0
 11
-41.428159940106248
 21
190.07184005980051
 31
0.0
  0
LINE
  5
7F
  8
PATTERN_FILL
  6
CONTINUOUS
 62
     7
 10
-30.522821971469408
 20
198.47717802843741
 30
0.0
 11
-35.977178028787179
 21
193.02282197111961
 31
0.0
  0
ARC
  5
80
  8
PATTERN_FILL
  6
CONTINUOUS
 62
     7
 10
-36.15434764822983
 20
160.49999999977859
 30
0.0
 40
1.4999999999999689
 50
14.83875062540306
 51
90.0
  0
LINE
  5
81
  8
PATTERN_FILL
  6
CONTINUOUS
 62
     7
 10
-38.00000000012821
 20
161.99999999977859
 30
0.0
 11
-33.918727915322613
 21
157.918727914973
 31
0.0
  0
LINE
  5
82
  8
PATTERN_FILL
  6
CONTINUOUS
 62
     7
 10
-40.500000000128253
 20
161.99999999977859
 30
0.0
 11
-33.0176678446512
 21
154.5176678443016
 31
0.0
  0
LINE
  5
83
  8
PATTERN_FILL
  6
CONTINUOUS
 62
     7
 10
-43.000000000128253
 20
161.99999999977859
 30
0.0
 11
-32.116607773979908
 21
151.11660777363019
 31
0.0
  0
LINE
  5
84
  8
PATTERN_FILL
  6
CONTINUOUS
 62
     7
 10
-45.500000000128253
 20
161.99999999977859
 30
0.0
 11
-31.215547703308509
 21
147.7155477029589
 31
0.0
  0
LINE
  5
85
  8
PATTERN_FILL
  6
CONTINUOUS
 62
     7
 10
-48.00000000012826
 20
161.99999999977859
 30
0.0
 11
-30.314487632637132
 21
144.31448763228749
 31
0.0
  0
LINE
  5
86
  8
PATTERN_FILL
  6
CONTINUOUS
 62
     7
 10
-50.50000000012826
 20
161.99999999977859
 30
0.0
 11
-29.413427561965719
 21
140.91342756161609
 31
0.0
  0
LINE
  5
87
  8
PATTERN_FILL
  6
CONTINUOUS
 62
     7
 10
-53.00000000012826
 20
161.99999999977859
 30
0.0
 11
-28.51236749129432
 21
137.5123674909448
 31
0.0
  0
LINE
  5
88
  8
PATTERN_FILL
  6
CONTINUOUS
 62
     7
 10
-55.50000000012826
 20
161.99999999977859
 30
0.0
 11
-27.61130742062301
 21
134.11130742027339
 31
0.0
  0
LINE
  5
89
  8
PATTERN_FILL
  6
CONTINUOUS
 62
     7
 10
-58.00000000012826
 20
161.99999999977859
 30
0.0
 11
-26.710247349951601
 21
130.7102473496021
 31
0.0
  0
LINE
  5
8A
  8
PATTERN_FILL
  6
CONTINUOUS
 62
     7
 10
-60.50000000012826
 20
161.99999999977859
 30
0.0
 11
-25.809187279280199
 21
127.30918727893069
 31
0.0
  0
LINE
  5
8B
  8
PATTERN_FILL
  6
CONTINUOUS
 62
     7
 10
-63.000000000128203
 20
161.99999999977859
 30
0.0
 11
-24.908127208608789
 21
123.9081272082594
 31
0.0
  0
LINE
  5
8C
  8
PATTERN_FILL
  6
CONTINUOUS
 62
     7
 10
-64.980675031482022
 20
161.48067503113239
 30
0.0
 11
-27.000000000128249
 21
123.49999999977879
 31
0.0
  0
LINE
  5
8D
  8
PATTERN_FILL
  6
CONTINUOUS
 62
     7
 10
-65.628336755775038
 20
159.62833675542541
 30
0.0
 11
-29.500000000128249
 21
123.49999999977879
 31
0.0
  0
LINE
  5
8E
  8
PATTERN_FILL
  6
CONTINUOUS
 62
     7
 10
-66.151950718813978
 20
157.65195071846441
 30
0.0
 11
-32.000000000128232
 21
123.49999999977879
 31
0.0
  0
LINE
  5
8F
  8
PATTERN_FILL
  6
CONTINUOUS
 62
     7
 10
-66.675564681853032
 20
155.6755646815034
 30
0.0
 11
-34.500000000128232
 21
123.49999999977879
 31
0.0
  0
LINE
  5
90
  8
PATTERN_FILL
  6
CONTINUOUS
 62
     7
 10
-67.199178644892029
 20
153.6991786445424
 30
0.0
 11
-37.00000000012821
 21
123.49999999977879
 31
0.0
  0
LINE
  5
91
  8
PATTERN_FILL
  6
CONTINUOUS
 62
     7
 10
-27.000000000128249
 20
113.49999999977889
 30
0.0
 11
-26.527272727400941
 21
113.0272727270516
 31
0.0
  0
LINE
  5
92
  8
PATTERN_FILL
  6
CONTINUOUS
 62
     7
 10
-67.750000000128196
 20
151.74999999977859
 30
0.0
 11
-39.50000000012826
 21
123.49999999977879
 31
0.0
  0
LINE
  5
93
  8
PATTERN_FILL
  6
CONTINUOUS
 62
     7
 10
-29.500000000128249
 20
113.49999999977889
 30
0.0
 11
-27.057575757704061
 21
111.0575757573547
 31
0.0
  0
LINE
  5
94
  8
PATTERN_FILL
  6
CONTINUOUS
 62
     7
 10
-68.246406570970024
 20
149.74640657062051
 30
0.0
 11
-42.000000000128253
 21
123.49999999977879
 31
0.0
  0
LINE
  5
95
  8
PATTERN_FILL
  6
CONTINUOUS
 62
     7
 10
-32.000000000128232
 20
113.49999999977889
 30
0.0
 11
-27.58787878800706
 21
109.0878787876577
 31
0.0
  0
LINE
  5
96
  8
PATTERN_FILL
  6
CONTINUOUS
 62
     7
 10
-68.770020534009063
 20
147.77002053365959
 30
0.0
 11
-44.500000000128253
 21
123.49999999977879
 31
0.0
  0
LINE
  5
97
  8
PATTERN_FILL
  6
CONTINUOUS
 62
     7
 10
-34.500000000128232
 20
113.49999999977889
 30
0.0
 11
-28.118181818310081
 21
107.1181818179608
 31
0.0
  0
LINE
  5
98
  8
PATTERN_FILL
  6
CONTINUOUS
 62
     7
 10
-69.293634497048075
 20
145.79363449669859
 30
0.0
 11
-47.000000000128253
 21
123.49999999977879
 31
0.0
  0
LINE
  5
99
  8
PATTERN_FILL
  6
CONTINUOUS
 62
     7
 10
-37.00000000012821
 20
113.49999999977889
 30
0.0
 11
-29.200000000128298
 21
105.699999999779
 31
0.0
  0
LINE
  5
9A
  8
PATTERN_FILL
  6
CONTINUOUS
 62
     7
 10
-69.817248460087072
 20
143.81724845973761
 30
0.0
 11
-49.500000000128253
 21
123.49999999977879
 31
0.0
  0
LINE
  5
9B
  8
PATTERN_FILL
  6
CONTINUOUS
 62
     7
 10
-39.50000000012826
 20
113.49999999977889
 30
0.0
 11
-31.70000000012827
 21
105.699999999779
 31
0.0
  0
LINE
  5
9C
  8
PATTERN_FILL
  6
CONTINUOUS
 62
     7
 10
-70.34086242312614
 20
141.84086242277661
 30
0.0
 11
-52.000000000128253
 21
123.49999999977879
 31
0.0
  0
LINE
  5
9D
  8
PATTERN_FILL
  6
CONTINUOUS
 62
     7
 10
-42.000000000128253
 20
113.49999999977889
 30
0.0
 11
-34.20000000012827
 21
105.699999999779
 31
0.0
  0
LINE
  5
9E
  8
PATTERN_FILL
  6
CONTINUOUS
 62
     7
 10
-70.864476386165123
 20
139.86447638581569
 30
0.0
 11
-54.500000000128253
 21
123.49999999977879
 31
0.0
  0
LINE
  5
9F
  8
PATTERN_FILL
  6
CONTINUOUS
 62
     7
 10
-44.500000000128253
 20
113.49999999977889
 30
0.0
 11
-36.700000000128242
 21
105.699999999779
 31
0.0
  0
LINE
  5
A0
  8
PATTERN_FILL
  6
CONTINUOUS
 62
     7
 10
-71.38809034920412
 20
137.88809034885469
 30
0.0
 11
-57.000000000128253
 21
123.49999999977879
 31
0.0
  0
LINE
  5
A1
  8
PATTERN_FILL
  6
CONTINUOUS
 62
     7
 10
-47.000000000128253
 20
113.49999999977889
 30
0.0
 11
-39.200000000128242
 21
105.699999999779
 31
0.0
  0
LINE
  5
A2
  8
PATTERN_FILL
  6
CONTINUOUS
 62
     7
 10
-71.911704312243131
 20
135.91170431189369
 30
0.0
 11
-59.500000000128253
 21
123.49999999977879
 31
0.0
  0
LINE
  5
A3
  8
PATTERN_FILL
  6
CONTINUOUS
 62
     7
 10
-49.500000000128253
 20
113.49999999977889
 30
0.0
 11
-41.700000000128242
 21
105.699999999779
 31
0.0
  0
LINE
  5
A4
  8
PATTERN_FILL
  6
CONTINUOUS
 62
     7
 10
-72.4353182752821
 20
133.93531827493271
 30
0.0
 11
-62.00000000012821
 21
123.49999999977879
 31
0.0
  0
LINE
  5
A5
  8
PATTERN_FILL
  6
CONTINUOUS
 62
     7
 10
-52.000000000128253
 20
113.49999999977889
 30
0.0
 11
-44.200000000128242
 21
105.699999999779
 31
0.0
  0
LINE
  5
A6
  8
PATTERN_FILL
  6
CONTINUOUS
 62
     7
 10
-72.958932238321097
 20
131.95893223797171
 30
0.0
 11
-64.500000000128196
 21
123.49999999977879
 31
0.0
  0
LINE
  5
A7
  8
PATTERN_FILL
  6
CONTINUOUS
 62
     7
 10
-54.500000000128253
 20
113.49999999977889
 30
0.0
 11
-46.700000000128242
 21
105.699999999779
 31
0.0
  0
LINE
  5
A8
  8
PATTERN_FILL
  6
CONTINUOUS
 62
     7
 10
-73.482546201360165
 20
129.98254620101079
 30
0.0
 11
-67.000000000128196
 21
123.49999999977879
 31
0.0
  0
LINE
  5
A9
  8
PATTERN_FILL
  6
CONTINUOUS
 62
     7
 10
-57.000000000128253
 20
113.49999999977889
 30
0.0
 11
-49.200000000128242
 21
105.699999999779
 31
0.0
  0
LINE
  5
AA
  8
PATTERN_FILL
  6
CONTINUOUS
 62
     7
 10
-74.006160164399176
 20
128.00616016404979
 30
0.0
 11
-69.500000000128125
 21
123.49999999977879
 31
0.0
  0
LINE
  5
AB
  8
PATTERN_FILL
  6
CONTINUOUS
 62
     7
 10
-59.500000000128253
 20
113.49999999977889
 30
0.0
 11
-51.700000000128242
 21
105.699999999779
 31
0.0
  0
LINE
  5
AC
  8
PATTERN_FILL
  6
CONTINUOUS
 62
     7
 10
-74.529774127438159
 20
126.0297741270888
 30
0.0
 11
-72.000000000128125
 21
123.49999999977879
 31
0.0
  0
LINE
  5
AD
  8
PATTERN_FILL
  6
CONTINUOUS
 62
     7
 10
-62.00000000012821
 20
113.49999999977889
 30
0.0
 11
-54.200000000128242
 21
105.699999999779
 31
0.0
  0
LINE
  5
AE
  8
PATTERN_FILL
  6
CONTINUOUS
 62
     7
 10
-75.053388090477213
 20
124.0533880901279
 30
0.0
 11
-74.500000000128082
 21
123.49999999977879
 31
0.0
  0
LINE
  5
AF
  8
PATTERN_FILL
  6
CONTINUOUS
 62
     7
 10
-64.500000000128196
 20
113.49999999977889
 30
0.0
 11
-56.700000000128242
 21
105.699999999779
 31
0.0
  0
LINE
  5
B0
  8
PATTERN_FILL
  6
CONTINUOUS
 62
     7
 10
-67.000000000128196
 20
113.49999999977889
 30
0.0
 11
-59.200000000128242
 21
105.699999999779
 31
0.0
  0
LINE
  5
B1
  8
PATTERN_FILL
  6
CONTINUOUS
 62
     7
 10
-69.500000000128125
 20
113.49999999977889
 30
0.0
 11
-61.700000000128242
 21
105.699999999779
 31
0.0
  0
LINE
  5
B2
  8
PATTERN_FILL
  6
CONTINUOUS
 62
     7
 10
-72.000000000128125
 20
113.49999999977889
 30
0.0
 11
-64.200000000128242
 21
105.699999999779
 31
0.0
  0
LINE
  5
B3
  8
PATTERN_FILL
  6
CONTINUOUS
 62
     7
 10
-73.268421052759692
 20
112.2684210524105
 30
0.0
 11
-66.700000000128185
 21
105.699999999779
 31
0.0
  0
LINE
  5
B4
  8
PATTERN_FILL
  6
CONTINUOUS
 62
     7
 10
-72.347368421180761
 20
108.8473684208316
 30
0.0
 11
-69.200000000128185
 21
105.699999999779
 31
0.0
  0
LINE
  5
B5
  8
PATTERN_FILL
  6
CONTINUOUS
 62
     7
 10
-62.500000000128203
 20
161.99999999977859
 30
0.0
 11
-65.901060070799602
 21
158.59893992910719
 31
0.0
  0
LINE
  5
B6
  8
PATTERN_FILL
  6
CONTINUOUS
 62
     7
 10
-60.000000000128253
 20
161.99999999977859
 30
0.0
 11
-66.802120141470951
 21
155.19787985843581
 31
0.0
  0
LINE
  5
B7
  8
PATTERN_FILL
  6
CONTINUOUS
 62
     7
 10
-57.500000000128253
 20
161.99999999977859
 30
0.0
 11
-67.750000000128196
 21
151.74999999977859
 31
0.0
  0
LINE
  5
B8
  8
PATTERN_FILL
  6
CONTINUOUS
 62
     7
 10
-55.000000000128253
 20
161.99999999977859
 30
0.0
 11
-68.604240282813635
 21
148.3957597170932
 31
0.0
  0
LINE
  5
B9
  8
PATTERN_FILL
  6
CONTINUOUS
 62
     7
 10
-52.500000000128253
 20
161.99999999977859
 30
0.0
 11
-69.505300353485055
 21
144.99469964642179
 31
0.0
  0
LINE
  5
BA
  8
PATTERN_FILL
  6
CONTINUOUS
 62
     7
 10
-50.000000000128253
 20
161.99999999977859
 30
0.0
 11
-70.406360424156404
 21
141.59363957575039
 31
0.0
  0
LINE
  5
BB
  8
PATTERN_FILL
  6
CONTINUOUS
 62
     7
 10
-47.500000000128253
 20
161.99999999977859
 30
0.0
 11
-71.307420494827809
 21
138.1925795050791
 31
0.0
  0
LINE
  5
BC
  8
PATTERN_FILL
  6
CONTINUOUS
 62
     7
 10
-45.000000000128253
 20
161.99999999977859
 30
0.0
 11
-72.208480565499173
 21
134.79151943440769
 31
0.0
  0
LINE
  5
BD
  8
PATTERN_FILL
  6
CONTINUOUS
 62
     7
 10
-42.500000000128253
 20
161.99999999977859
 30
0.0
 11
-73.109540636170493
 21
131.39045936373631
 31
0.0
  0
LINE
  5
BE
  8
PATTERN_FILL
  6
CONTINUOUS
 62
     7
 10
-40.000000000128253
 20
161.99999999977859
 30
0.0
 11
-74.010600706841913
 21
127.98939929306491
 31
0.0
  0
LINE
  5
BF
  8
PATTERN_FILL
  6
CONTINUOUS
 62
     7
 10
-37.500000000128203
 20
161.99999999977859
 30
0.0
 11
-74.911660777513262
 21
124.5883392223937
 31
0.0
  0
LINE
  5
C0
  8
PATTERN_FILL
  6
CONTINUOUS
 62
     7
 10
-35.280688701061528
 20
161.7193112988453
 30
0.0
 11
-73.500000000128139
 21
123.49999999977879
 31
0.0
  0
LINE
  5
C1
  8
PATTERN_FILL
  6
CONTINUOUS
 62
     7
 10
-34.476386037089227
 20
160.02361396281759
 30
0.0
 11
-71.000000000128139
 21
123.49999999977879
 31
0.0
  0
LINE
  5
C2
  8
PATTERN_FILL
  6
CONTINUOUS
 62
     7
 10
-33.95277207405023
 20
158.04722792585659
 30
0.0
 11
-68.500000000128196
 21
123.49999999977879
 31
0.0
  0
LINE
  5
C3
  8
PATTERN_FILL
  6
CONTINUOUS
 62
     7
 10
-33.42915811101124
 20
156.0708418888957
 30
0.0
 11
-66.000000000128196
 21
123.49999999977879
 31
0.0
  0
LINE
  5
C4
  8
PATTERN_FILL
  6
CONTINUOUS
 62
     7
 10
-32.905544147972243
 20
154.09445585193461
 30
0.0
 11
-63.500000000128203
 21
123.49999999977879
 31
0.0
  0
LINE
  5
C5
  8
PATTERN_FILL
  6
CONTINUOUS
 62
     7
 10
-32.381930184933239
 20
152.11806981497361
 30
0.0
 11
-61.000000000128203
 21
123.49999999977879
 31
0.0
  0
LINE
  5
C6
  8
PATTERN_FILL
  6
CONTINUOUS
 62
     7
 10
-71.000000000128082
 20
113.49999999977889
 30
0.0
 11
-73.048484848612986
 21
111.4515151512941
 31
0.0
  0
LINE
  5
C7
  8
PATTERN_FILL
  6
CONTINUOUS
 62
     7
 10
-31.858316221894128
 20
150.14168377801269
 30
0.0
 11
-58.500000000128253
 21
123.49999999977879
 31
0.0
  0
LINE
  5
C8
  8
PATTERN_FILL
  6
CONTINUOUS
 62
     7
 10
-68.500000000128139
 20
113.49999999977889
 30
0.0
 11
-72.518181818309941
 21
109.48181818159711
 31
0.0
  0
LINE
  5
C9
  8
PATTERN_FILL
  6
CONTINUOUS
 62
     7
 10
-31.334702258855131
 20
148.16529774105169
 30
0.0
 11
-56.000000000128253
 21
123.49999999977879
 31
0.0
  0
LINE
  5
CA
  8
PATTERN_FILL
  6
CONTINUOUS
 62
     7
 10
-66.000000000128196
 20
113.49999999977889
 30
0.0
 11
-71.987878788006881
 21
107.51212121190019
 31
0.0
  0
LINE
  5
CB
  8
PATTERN_FILL
  6
CONTINUOUS
 62
     7
 10
-30.811088295816159
 20
146.18891170409071
 30
0.0
 11
-53.500000000128253
 21
123.49999999977879
 31
0.0
  0
LINE
  5
CC
  8
PATTERN_FILL
  6
CONTINUOUS
 62
     7
 10
-63.500000000128203
 20
113.49999999977889
 30
0.0
 11
-71.300000000128151
 21
105.699999999779
 31
0.0
  0
LINE
  5
CD
  8
PATTERN_FILL
  6
CONTINUOUS
 62
     7
 10
-30.287474332777169
 20
144.2125256671298
 30
0.0
 11
-51.000000000128253
 21
123.49999999977879
 31
0.0
  0
LINE
  5
CE
  8
PATTERN_FILL
  6
CONTINUOUS
 62
     7
 10
-61.000000000128203
 20
113.49999999977889
 30
0.0
 11
-68.800000000128151
 21
105.699999999779
 31
0.0
  0
LINE
  5
CF
  8
PATTERN_FILL
  6
CONTINUOUS
 62
     7
 10
-29.763860369738168
 20
142.23613963016879
 30
0.0
 11
-48.500000000128253
 21
123.49999999977879
 31
0.0
  0
LINE
  5
D0
  8
PATTERN_FILL
  6
CONTINUOUS
 62
     7
 10
-58.500000000128253
 20
113.49999999977889
 30
0.0
 11
-66.300000000128151
 21
105.699999999779
 31
0.0
  0
LINE
  5
D1
  8
PATTERN_FILL
  6
CONTINUOUS
 62
     7
 10
-29.240246406699171
 20
140.25975359320779
 30
0.0
 11
-46.000000000128253
 21
123.49999999977879
 31
0.0
  0
LINE
  5
D2
  8
PATTERN_FILL
  6
CONTINUOUS
 62
     7
 10
-56.000000000128253
 20
113.49999999977889
 30
0.0
 11
-63.800000000128207
 21
105.699999999779
 31
0.0
  0
LINE
  5
D3
  8
PATTERN_FILL
  6
CONTINUOUS
 62
     7
 10
-28.71663244366006
 20
138.2833675562469
 30
0.0
 11
-43.500000000128253
 21
123.49999999977879
 31
0.0
  0
LINE
  5
D4
  8
PATTERN_FILL
  6
CONTINUOUS
 62
     7
 10
-53.500000000128253
 20
113.49999999977889
 30
0.0
 11
-61.300000000128207
 21
105.699999999779
 31
0.0
  0
LINE
  5
D5
  8
PATTERN_FILL
  6
CONTINUOUS
 62
     7
 10
-28.19301848062107
 20
136.3069815192859
 30
0.0
 11
-41.000000000128253
 21
123.49999999977879
 31
0.0
  0
LINE
  5
D6
  8
PATTERN_FILL
  6
CONTINUOUS
 62
     7
 10
-51.000000000128253
 20
113.49999999977889
 30
0.0
 11
-58.800000000128257
 21
105.699999999779
 31
0.0
  0
LINE
  5
D7
  8
PATTERN_FILL
  6
CONTINUOUS
 62
     7
 10
-27.669404517582048
 20
134.3305954823249
 30
0.0
 11
-38.500000000128253
 21
123.49999999977879
 31
0.0
  0
LINE
  5
D8
  8
PATTERN_FILL
  6
CONTINUOUS
 62
     7
 10
-48.500000000128253
 20
113.49999999977889
 30
0.0
 11
-56.300000000128257
 21
105.699999999779
 31
0.0
  0
LINE
  5
D9
  8
PATTERN_FILL
  6
CONTINUOUS
 62
     7
 10
-27.145790554543051
 20
132.35420944536389
 30
0.0
 11
-36.000000000128232
 21
123.49999999977879
 31
0.0
  0
LINE
  5
DA
  8
PATTERN_FILL
  6
CONTINUOUS
 62
     7
 10
-46.000000000128253
 20
113.49999999977889
 30
0.0
 11
-53.800000000128257
 21
105.699999999779
 31
0.0
  0
LINE
  5
DB
  8
PATTERN_FILL
  6
CONTINUOUS
 62
     7
 10
-26.622176591504051
 20
130.37782340840289
 30
0.0
 11
-33.500000000128232
 21
123.49999999977879
 31
0.0
  0
LINE
  5
DC
  8
PATTERN_FILL
  6
CONTINUOUS
 62
     7
 10
-43.500000000128253
 20
113.49999999977889
 30
0.0
 11
-51.300000000128257
 21
105.699999999779
 31
0.0
  0
LINE
  5
DD
  8
PATTERN_FILL
  6
CONTINUOUS
 62
     7
 10
-26.098562628465061
 20
128.401437371442
 30
0.0
 11
-31.000000000128249
 21
123.49999999977879
 31
0.0
  0
LINE
  5
DE
  8
PATTERN_FILL
  6
CONTINUOUS
 62
     7
 10
-41.000000000128253
 20
113.49999999977889
 30
0.0
 11
-48.800000000128257
 21
105.699999999779
 31
0.0
  0
LINE
  5
DF
  8
PATTERN_FILL
  6
CONTINUOUS
 62
     7
 10
-25.57494866542595
 20
126.425051334481
 30
0.0
 11
-28.500000000128249
 21
123.49999999977879
 31
0.0
  0
LINE
  5
E0
  8
PATTERN_FILL
  6
CONTINUOUS
 62
     7
 10
-38.500000000128253
 20
113.49999999977889
 30
0.0
 11
-46.300000000128257
 21
105.699999999779
 31
0.0
  0
LINE
  5
E1
  8
PATTERN_FILL
  6
CONTINUOUS
 62
     7
 10
-25.051334702386949
 20
124.44866529752009
 30
0.0
 11
-26.000000000128239
 21
123.49999999977879
 31
0.0
  0
LINE
  5
E2
  8
PATTERN_FILL
  6
CONTINUOUS
 62
     7
 10
-36.000000000128232
 20
113.49999999977889
 30
0.0
 11
-43.800000000128257
 21
105.699999999779
 31
0.0
  0
LINE
  5
E3
  8
PATTERN_FILL
  6
CONTINUOUS
 62
     7
 10
-33.500000000128232
 20
113.49999999977889
 30
0.0
 11
-41.300000000128257
 21
105.699999999779
 31
0.0
  0
LINE
  5
E4
  8
PATTERN_FILL
  6
CONTINUOUS
 62
     7
 10
-31.000000000128249
 20
113.49999999977889
 30
0.0
 11
-38.800000000128222
 21
105.699999999779
 31
0.0
  0
LINE
  5
E5
  8
PATTERN_FILL
  6
CONTINUOUS
 62
     7
 10
-28.500000000128249
 20
113.49999999977889
 30
0.0
 11
-36.300000000128257
 21
105.699999999779
 31
0.0
  0
LINE
  5
E6
  8
PATTERN_FILL
  6
CONTINUOUS
 62
     7
 10
-26.54736842118087
 20
112.9526315787263
 30
0.0
 11
-33.800000000128293
 21
105.699999999779
 31
0.0
  0
LINE
  5
E7
  8
PATTERN_FILL
  6
CONTINUOUS
 62
     7
 10
-27.46842105275983
 20
109.5315789471473
 30
0.0
 11
-31.300000000128289
 21
105.699999999779
 31
0.0
  0
LINE
  5
E8
  8
PATTERN_FILL
  6
CONTINUOUS
 62
     7
 10
-28.3894736843388
 20
106.11052631556841
 30
0.0
 11
-28.800000000128321
 21
105.699999999779
 31
0.0
  0
LINE
  5
E9
  8
PATTERN_FILL
  6
CONTINUOUS
 62
     7
 10
37.999999999815977
 20
161.99999999977859
 30
0.0
 11
33.918727915010336
 21
157.918727914973
 31
0.0
  0
LINE
  5
EA
  8
PATTERN_FILL
  6
CONTINUOUS
 62
     7
 10
40.499999999815962
 20
161.99999999977859
 30
0.0
 11
33.017667844338931
 21
154.5176678443016
 31
0.0
  0
LINE
  5
EB
  8
PATTERN_FILL
  6
CONTINUOUS
 62
     7
 10
42.999999999815941
 20
161.99999999977859
 30
0.0
 11
32.116607773667518
 21
151.11660777363019
 31
0.0
  0
LINE
  5
EC
  8
PATTERN_FILL
  6
CONTINUOUS
 62
     7
 10
45.499999999815941
 20
161.99999999977859
 30
0.0
 11
31.215547702996119
 21
147.7155477029589
 31
0.0
  0
LINE
  5
ED
  8
PATTERN_FILL
  6
CONTINUOUS
 62
     7
 10
47.999999999815941
 20
161.99999999977859
 30
0.0
 11
30.31448763232472
 21
144.31448763228749
 31
0.0
  0
LINE
  5
EE
  8
PATTERN_FILL
  6
CONTINUOUS
 62
     7
 10
50.499999999815941
 20
161.99999999977859
 30
0.0
 11
29.413427561653421
 21
140.91342756161609
 31
0.0
  0
LINE
  5
EF
  8
PATTERN_FILL
  6
CONTINUOUS
 62
     7
 10
52.999999999815941
 20
161.99999999977859
 30
0.0
 11
28.512367490982012
 21
137.5123674909448
 31
0.0
  0
LINE
  5
F0
  8
PATTERN_FILL
  6
CONTINUOUS
 62
     7
 10
55.49999999981582
 20
161.99999999977859
 30
0.0
 11
27.61130742031062
 21
134.11130742027339
 31
0.0
  0
LINE
  5
F1
  8
PATTERN_FILL
  6
CONTINUOUS
 62
     7
 10
57.99999999981582
 20
161.99999999977859
 30
0.0
 11
26.7102473496392
 21
130.7102473496021
 31
0.0
  0
LINE
  5
F2
  8
PATTERN_FILL
  6
CONTINUOUS
 62
     7
 10
60.49999999981582
 20
161.99999999977859
 30
0.0
 11
25.809187278967912
 21
127.30918727893069
 31
0.0
  0
LINE
  5
F3
  8
PATTERN_FILL
  6
CONTINUOUS
 62
     7
 10
62.99999999981582
 20
161.99999999977859
 30
0.0
 11
24.908127208296509
 21
123.9081272082594
 31
0.0
  0
LINE
  5
F4
  8
PATTERN_FILL
  6
CONTINUOUS
 62
     7
 10
64.980675031169625
 20
161.48067503113239
 30
0.0
 11
26.999999999815959
 21
123.49999999977879
 31
0.0
  0
LINE
  5
F5
  8
PATTERN_FILL
  6
CONTINUOUS
 62
     7
 10
65.628336755462655
 20
159.62833675542541
 30
0.0
 11
29.499999999815959
 21
123.49999999977879
 31
0.0
  0
LINE
  5
F6
  8
PATTERN_FILL
  6
CONTINUOUS
 62
     7
 10
66.151950718501624
 20
157.65195071846441
 30
0.0
 11
31.999999999815959
 21
123.49999999977879
 31
0.0
  0
LINE
  5
F7
  8
PATTERN_FILL
  6
CONTINUOUS
 62
     7
 10
66.675564681540649
 20
155.6755646815034
 30
0.0
 11
34.499999999815962
 21
123.49999999977879
 31
0.0
  0
LINE
  5
F8
  8
PATTERN_FILL
  6
CONTINUOUS
 62
     7
 10
67.199178644579646
 20
153.6991786445424
 30
0.0
 11
36.999999999815969
 21
123.49999999977879
 31
0.0
  0
LINE
  5
F9
  8
PATTERN_FILL
  6
CONTINUOUS
 62
     7
 10
26.999999999815959
 20
113.49999999977889
 30
0.0
 11
26.527272727088661
 21
113.0272727270516
 31
0.0
  0
LINE
  5
FA
  8
PATTERN_FILL
  6
CONTINUOUS
 62
     7
 10
67.749999999815813
 20
151.74999999977859
 30
0.0
 11
39.499999999815977
 21
123.49999999977879
 31
0.0
  0
LINE
  5
FB
  8
PATTERN_FILL
  6
CONTINUOUS
 62
     7
 10
29.499999999815959
 20
113.49999999977889
 30
0.0
 11
27.05757575739166
 21
111.0575757573547
 31
0.0
  0
LINE
  5
FC
  8
PATTERN_FILL
  6
CONTINUOUS
 62
     7
 10
68.246406570657754
 20
149.74640657062051
 30
0.0
 11
41.999999999815948
 21
123.49999999977879
 31
0.0
  0
LINE
  5
FD
  8
PATTERN_FILL
  6
CONTINUOUS
 62
     7
 10
31.999999999815959
 20
113.49999999977889
 30
0.0
 11
27.58787878769477
 21
109.0878787876577
 31
0.0
  0
LINE
  5
FE
  8
PATTERN_FILL
  6
CONTINUOUS
 62
     7
 10
68.770020533696751
 20
147.77002053365959
 30
0.0
 11
44.499999999815941
 21
123.49999999977879
 31
0.0
  0
LINE
  5
FF
  8
PATTERN_FILL
  6
CONTINUOUS
 62
     7
 10
34.499999999815962
 20
113.49999999977889
 30
0.0
 11
28.11818181799778
 21
107.1181818179608
 31
0.0
  0
LINE
  5
100
  8
PATTERN_FILL
  6
CONTINUOUS
 62
     7
 10
69.293634496735748
 20
145.79363449669859
 30
0.0
 11
46.999999999815941
 21
123.49999999977879
 31
0.0
  0
LINE
  5
101
  8
PATTERN_FILL
  6
CONTINUOUS
 62
     7
 10
36.999999999815969
 20
113.49999999977889
 30
0.0
 11
29.199999999816001
 21
105.699999999779
 31
0.0
  0
LINE
  5
102
  8
PATTERN_FILL
  6
CONTINUOUS
 62
     7
 10
69.817248459774746
 20
143.81724845973761
 30
0.0
 11
49.499999999815941
 21
123.49999999977879
 31
0.0
  0
LINE
  5
103
  8
PATTERN_FILL
  6
CONTINUOUS
 62
     7
 10
39.499999999815977
 20
113.49999999977889
 30
0.0
 11
31.699999999815891
 21
105.699999999779
 31
0.0
  0
LINE
  5
104
  8
PATTERN_FILL
  6
CONTINUOUS
 62
     7
 10
70.340862422813757
 20
141.84086242277661
 30
0.0
 11
51.999999999815941
 21
123.49999999977879
 31
0.0
  0
LINE
  5
105
  8
PATTERN_FILL
  6
CONTINUOUS
 62
     7
 10
41.999999999815948
 20
113.49999999977889
 30
0.0
 11
34.199999999816001
 21
105.699999999779
 31
0.0
  0
LINE
  5
106
  8
PATTERN_FILL
  6
CONTINUOUS
 62
     7
 10
70.864476385852868
 20
139.86447638581569
 30
0.0
 11
54.499999999815941
 21
123.49999999977879
 31
0.0
  0
LINE
  5
107
  8
PATTERN_FILL
  6
CONTINUOUS
 62
     7
 10
44.499999999815941
 20
113.49999999977889
 30
0.0
 11
36.699999999815908
 21
105.699999999779
 31
0.0
  0
LINE
  5
108
  8
PATTERN_FILL
  6
CONTINUOUS
 62
     7
 10
71.388090348891865
 20
137.88809034885469
 30
0.0
 11
56.99999999981582
 21
123.49999999977879
 31
0.0
  0
LINE
  5
109
  8
PATTERN_FILL
  6
CONTINUOUS
 62
     7
 10
46.999999999815941
 20
113.49999999977889
 30
0.0
 11
39.199999999815908
 21
105.699999999779
 31
0.0
  0
LINE
  5
10A
  8
PATTERN_FILL
  6
CONTINUOUS
 62
     7
 10
71.911704311930862
 20
135.91170431189369
 30
0.0
 11
59.49999999981582
 21
123.49999999977879
 31
0.0
  0
LINE
  5
10B
  8
PATTERN_FILL
  6
CONTINUOUS
 62
     7
 10
49.499999999815941
 20
113.49999999977889
 30
0.0
 11
41.699999999816001
 21
105.699999999779
 31
0.0
  0
LINE
  5
10C
  8
PATTERN_FILL
  6
CONTINUOUS
 62
     7
 10
72.435318274969873
 20
133.93531827493271
 30
0.0
 11
61.99999999981582
 21
123.49999999977879
 31
0.0
  0
LINE
  5
10D
  8
PATTERN_FILL
  6
CONTINUOUS
 62
     7
 10
51.999999999815941
 20
113.49999999977889
 30
0.0
 11
44.199999999815873
 21
105.699999999779
 31
0.0
  0
LINE
  5
10E
  8
PATTERN_FILL
  6
CONTINUOUS
 62
     7
 10
72.958932238008842
 20
131.95893223797171
 30
0.0
 11
64.499999999815813
 21
123.49999999977879
 31
0.0
  0
LINE
  5
10F
  8
PATTERN_FILL
  6
CONTINUOUS
 62
     7
 10
54.499999999815941
 20
113.49999999977889
 30
0.0
 11
46.699999999815851
 21
105.699999999779
 31
0.0
  0
LINE
  5
110
  8
PATTERN_FILL
  6
CONTINUOUS
 62
     7
 10
73.482546201047853
 20
129.98254620101079
 30
0.0
 11
66.999999999815813
 21
123.49999999977879
 31
0.0
  0
LINE
  5
111
  8
PATTERN_FILL
  6
CONTINUOUS
 62
     7
 10
56.99999999981582
 20
113.49999999977889
 30
0.0
 11
49.199999999815851
 21
105.699999999779
 31
0.0
  0
LINE
  5
112
  8
PATTERN_FILL
  6
CONTINUOUS
 62
     7
 10
74.00616016408685
 20
128.00616016404979
 30
0.0
 11
69.499999999815813
 21
123.49999999977879
 31
0.0
  0
LINE
  5
113
  8
PATTERN_FILL
  6
CONTINUOUS
 62
     7
 10
59.49999999981582
 20
113.49999999977889
 30
0.0
 11
51.699999999815851
 21
105.699999999779
 31
0.0
  0
LINE
  5
114
  8
PATTERN_FILL
  6
CONTINUOUS
 62
     7
 10
74.529774127125975
 20
126.0297741270888
 30
0.0
 11
71.999999999815813
 21
123.49999999977879
 31
0.0
  0
LINE
  5
115
  8
PATTERN_FILL
  6
CONTINUOUS
 62
     7
 10
61.99999999981582
 20
113.49999999977889
 30
0.0
 11
54.199999999815851
 21
105.699999999779
 31
0.0
  0
LINE
  5
116
  8
PATTERN_FILL
  6
CONTINUOUS
 62
     7
 10
75.053388090164987
 20
124.0533880901279
 30
0.0
 11
74.499999999815842
 21
123.49999999977879
 31
0.0
  0
LINE
  5
117
  8
PATTERN_FILL
  6
CONTINUOUS
 62
     7
 10
64.499999999815813
 20
113.49999999977889
 30
0.0
 11
56.699999999815851
 21
105.699999999779
 31
0.0
  0
LINE
  5
118
  8
PATTERN_FILL
  6
CONTINUOUS
 62
     7
 10
66.999999999815813
 20
113.49999999977889
 30
0.0
 11
59.199999999815851
 21
105.699999999779
 31
0.0
  0
LINE
  5
119
  8
PATTERN_FILL
  6
CONTINUOUS
 62
     7
 10
69.499999999815813
 20
113.49999999977889
 30
0.0
 11
61.699999999815851
 21
105.699999999779
 31
0.0
  0
LINE
  5
11A
  8
PATTERN_FILL
  6
CONTINUOUS
 62
     7
 10
71.999999999815813
 20
113.49999999977889
 30
0.0
 11
64.199999999815859
 21
105.699999999779
 31
0.0
  0
LINE
  5
11B
  8
PATTERN_FILL
  6
CONTINUOUS
 62
     7
 10
73.268421052447479
 20
112.2684210524105
 30
0.0
 11
66.699999999815859
 21
105.699999999779
 31
0.0
  0
LINE
  5
11C
  8
PATTERN_FILL
  6
CONTINUOUS
 62
     7
 10
72.347368420868506
 20
108.8473684208316
 30
0.0
 11
69.199999999815859
 21
105.699999999779
 31
0.0
  0
LINE
  5
11D
  8
PATTERN_FILL
  6
CONTINUOUS
 62
     7
 10
62.49999999981582
 20
161.99999999977859
 30
0.0
 11
65.901060070487219
 21
158.59893992910719
 31
0.0
  0
LINE
  5
11E
  8
PATTERN_FILL
  6
CONTINUOUS
 62
     7
 10
59.99999999981582
 20
161.99999999977859
 30
0.0
 11
66.802120141158625
 21
155.19787985843581
 31
0.0
  0
LINE
  5
11F
  8
PATTERN_FILL
  6
CONTINUOUS
 62
     7
 10
57.49999999981582
 20
161.99999999977859
 30
0.0
 11
67.749999999815813
 21
151.74999999977859
 31
0.0
  0
LINE
  5
120
  8
PATTERN_FILL
  6
CONTINUOUS
 62
     7
 10
54.99999999981582
 20
161.99999999977859
 30
0.0
 11
68.604240282501323
 21
148.3957597170932
 31
0.0
  0
LINE
  5
121
  8
PATTERN_FILL
  6
CONTINUOUS
 62
     7
 10
52.499999999815941
 20
161.99999999977859
 30
0.0
 11
69.505300353172728
 21
144.99469964642179
 31
0.0
  0
LINE
  5
122
  8
PATTERN_FILL
  6
CONTINUOUS
 62
     7
 10
49.999999999815941
 20
161.99999999977859
 30
0.0
 11
70.406360423844163
 21
141.59363957575039
 31
0.0
  0
LINE
  5
123
  8
PATTERN_FILL
  6
CONTINUOUS
 62
     7
 10
47.499999999815941
 20
161.99999999977859
 30
0.0
 11
71.307420494515441
 21
138.1925795050791
 31
0.0
  0
LINE
  5
124
  8
PATTERN_FILL
  6
CONTINUOUS
 62
     7
 10
44.999999999815941
 20
161.99999999977859
 30
0.0
 11
72.208480565186846
 21
134.79151943440769
 31
0.0
  0
LINE
  5
125
  8
PATTERN_FILL
  6
CONTINUOUS
 62
     7
 10
42.499999999815948
 20
161.99999999977859
 30
0.0
 11
73.109540635858266
 21
131.39045936373631
 31
0.0
  0
LINE
  5
126
  8
PATTERN_FILL
  6
CONTINUOUS
 62
     7
 10
39.999999999815977
 20
161.99999999977859
 30
0.0
 11
74.010600706529658
 21
127.98939929306491
 31
0.0
  0
LINE
  5
127
  8
PATTERN_FILL
  6
CONTINUOUS
 62
     7
 10
37.499999999815977
 20
161.99999999977859
 30
0.0
 11
74.91166077720095
 21
124.5883392223937
 31
0.0
  0
LINE
  5
128
  8
PATTERN_FILL
  6
CONTINUOUS
 62
     7
 10
35.280688700749138
 20
161.7193112988453
 30
0.0
 11
73.499999999815842
 21
123.49999999977879
 31
0.0
  0
LINE
  5
129
  8
PATTERN_FILL
  6
CONTINUOUS
 62
     7
 10
34.476386036776972
 20
160.02361396281759
 30
0.0
 11
70.999999999815827
 21
123.49999999977879
 31
0.0
  0
LINE
  5
12A
  8
PATTERN_FILL
  6
CONTINUOUS
 62
     7
 10
33.952772073737961
 20
158.04722792585659
 30
0.0
 11
68.499999999815813
 21
123.49999999977879
 31
0.0
  0
LINE
  5
12B
  8
PATTERN_FILL
  6
CONTINUOUS
 62
     7
 10
33.42915811069885
 20
156.0708418888957
 30
0.0
 11
65.999999999815813
 21
123.49999999977879
 31
0.0
  0
LINE
  5
12C
  8
PATTERN_FILL
  6
CONTINUOUS
 62
     7
 10
32.905544147659853
 20
154.09445585193461
 30
0.0
 11
63.49999999981582
 21
123.49999999977879
 31
0.0
  0
LINE
  5
12D
  8
PATTERN_FILL
  6
CONTINUOUS
 62
     7
 10
32.381930184620863
 20
152.11806981497361
 30
0.0
 11
60.99999999981582
 21
123.49999999977879
 31
0.0
  0
LINE
  5
12E
  8
PATTERN_FILL
  6
CONTINUOUS
 62
     7
 10
70.999999999815827
 20
113.49999999977889
 30
0.0
 11
73.04848484830076
 21
111.4515151512941
 31
0.0
  0
LINE
  5
12F
  8
PATTERN_FILL
  6
CONTINUOUS
 62
     7
 10
31.858316221581859
 20
150.14168377801269
 30
0.0
 11
58.49999999981582
 21
123.49999999977879
 31
0.0
  0
LINE
  5
130
  8
PATTERN_FILL
  6
CONTINUOUS
 62
     7
 10
68.499999999815813
 20
113.49999999977889
 30
0.0
 11
72.518181817997615
 21
109.48181818159711
 31
0.0
  0
LINE
  5
131
  8
PATTERN_FILL
  6
CONTINUOUS
 62
     7
 10
31.334702258542858
 20
148.16529774105169
 30
0.0
 11
55.99999999981582
 21
123.49999999977879
 31
0.0
  0
LINE
  5
132
  8
PATTERN_FILL
  6
CONTINUOUS
 62
     7
 10
65.999999999815813
 20
113.49999999977889
 30
0.0
 11
71.987878787694626
 21
107.51212121190019
 31
0.0
  0
LINE
  5
133
  8
PATTERN_FILL
  6
CONTINUOUS
 62
     7
 10
30.811088295503868
 20
146.18891170409071
 30
0.0
 11
53.499999999815941
 21
123.49999999977879
 31
0.0
  0
LINE
  5
134
  8
PATTERN_FILL
  6
CONTINUOUS
 62
     7
 10
63.49999999981582
 20
113.49999999977889
 30
0.0
 11
71.299999999815782
 21
105.699999999779
 31
0.0
  0
LINE
  5
135
  8
PATTERN_FILL
  6
CONTINUOUS
 62
     7
 10
30.287474332464761
 20
144.2125256671298
 30
0.0
 11
50.999999999815941
 21
123.49999999977879
 31
0.0
  0
LINE
  5
136
  8
PATTERN_FILL
  6
CONTINUOUS
 62
     7
 10
60.99999999981582
 20
113.49999999977889
 30
0.0
 11
68.799999999815768
 21
105.699999999779
 31
0.0
  0
LINE
  5
137
  8
PATTERN_FILL
  6
CONTINUOUS
 62
     7
 10
29.763860369425771
 20
142.23613963016879
 30
0.0
 11
48.499999999815941
 21
123.49999999977879
 31
0.0
  0
LINE
  5
138
  8
PATTERN_FILL
  6
CONTINUOUS
 62
     7
 10
58.49999999981582
 20
113.49999999977889
 30
0.0
 11
66.299999999815881
 21
105.699999999779
 31
0.0
  0
LINE
  5
139
  8
PATTERN_FILL
  6
CONTINUOUS
 62
     7
 10
29.24024640638677
 20
140.25975359320779
 30
0.0
 11
45.999999999815927
 21
123.49999999977879
 31
0.0
  0
LINE
  5
13A
  8
PATTERN_FILL
  6
CONTINUOUS
 62
     7
 10
55.99999999981582
 20
113.49999999977889
 30
0.0
 11
63.799999999815881
 21
105.699999999779
 31
0.0
  0
LINE
  5
13B
  8
PATTERN_FILL
  6
CONTINUOUS
 62
     7
 10
28.716632443347759
 20
138.2833675562469
 30
0.0
 11
43.499999999815927
 21
123.49999999977879
 31
0.0
  0
LINE
  5
13C
  8
PATTERN_FILL
  6
CONTINUOUS
 62
     7
 10
53.499999999815941
 20
113.49999999977889
 30
0.0
 11
61.299999999815881
 21
105.699999999779
 31
0.0
  0
LINE
  5
13D
  8
PATTERN_FILL
  6
CONTINUOUS
 62
     7
 10
28.193018480308769
 20
136.3069815192859
 30
0.0
 11
40.999999999815969
 21
123.49999999977879
 31
0.0
  0
LINE
  5
13E
  8
PATTERN_FILL
  6
CONTINUOUS
 62
     7
 10
50.999999999815941
 20
113.49999999977889
 30
0.0
 11
58.799999999815881
 21
105.699999999779
 31
0.0
  0
LINE
  5
13F
  8
PATTERN_FILL
  6
CONTINUOUS
 62
     7
 10
27.669404517269651
 20
134.3305954823249
 30
0.0
 11
38.499999999815977
 21
123.49999999977879
 31
0.0
  0
LINE
  5
140
  8
PATTERN_FILL
  6
CONTINUOUS
 62
     7
 10
48.499999999815941
 20
113.49999999977889
 30
0.0
 11
56.299999999815881
 21
105.699999999779
 31
0.0
  0
LINE
  5
141
  8
PATTERN_FILL
  6
CONTINUOUS
 62
     7
 10
27.145790554230661
 20
132.35420944536389
 30
0.0
 11
35.999999999815962
 21
123.49999999977879
 31
0.0
  0
LINE
  5
142
  8
PATTERN_FILL
  6
CONTINUOUS
 62
     7
 10
45.999999999815927
 20
113.49999999977889
 30
0.0
 11
53.799999999815888
 21
105.699999999779
 31
0.0
  0
LINE
  5
143
  8
PATTERN_FILL
  6
CONTINUOUS
 62
     7
 10
26.622176591191661
 20
130.37782340840289
 30
0.0
 11
33.499999999815962
 21
123.49999999977879
 31
0.0
  0
LINE
  5
144
  8
PATTERN_FILL
  6
CONTINUOUS
 62
     7
 10
43.499999999815927
 20
113.49999999977889
 30
0.0
 11
51.299999999815888
 21
105.699999999779
 31
0.0
  0
LINE
  5
145
  8
PATTERN_FILL
  6
CONTINUOUS
 62
     7
 10
26.098562628152671
 20
128.401437371442
 30
0.0
 11
30.999999999815959
 21
123.49999999977879
 31
0.0
  0
LINE
  5
146
  8
PATTERN_FILL
  6
CONTINUOUS
 62
     7
 10
40.999999999815969
 20
113.49999999977889
 30
0.0
 11
48.799999999815888
 21
105.699999999779
 31
0.0
  0
LINE
  5
147
  8
PATTERN_FILL
  6
CONTINUOUS
 62
     7
 10
25.574948665113659
 20
126.425051334481
 30
0.0
 11
28.499999999815959
 21
123.49999999977879
 31
0.0
  0
LINE
  5
148
  8
PATTERN_FILL
  6
CONTINUOUS
 62
     7
 10
38.499999999815977
 20
113.49999999977889
 30
0.0
 11
46.299999999815888
 21
105.699999999779
 31
0.0
  0
LINE
  5
149
  8
PATTERN_FILL
  6
CONTINUOUS
 62
     7
 10
25.051334702074669
 20
124.44866529752009
 30
0.0
 11
25.999999999815959
 21
123.49999999977879
 31
0.0
  0
LINE
  5
14A
  8
PATTERN_FILL
  6
CONTINUOUS
 62
     7
 10
35.999999999815962
 20
113.49999999977889
 30
0.0
 11
43.799999999815888
 21
105.699999999779
 31
0.0
  0
LINE
  5
14B
  8
PATTERN_FILL
  6
CONTINUOUS
 62
     7
 10
33.499999999815962
 20
113.49999999977889
 30
0.0
 11
41.299999999815917
 21
105.699999999779
 31
0.0
  0
LINE
  5
14C
  8
PATTERN_FILL
  6
CONTINUOUS
 62
     7
 10
30.999999999815959
 20
113.49999999977889
 30
0.0
 11
38.799999999815917
 21
105.699999999779
 31
0.0
  0
LINE
  5
14D
  8
PATTERN_FILL
  6
CONTINUOUS
 62
     7
 10
28.499999999815959
 20
113.49999999977889
 30
0.0
 11
36.299999999815917
 21
105.699999999779
 31
0.0
  0
LINE
  5
14E
  8
PATTERN_FILL
  6
CONTINUOUS
 62
     7
 10
26.54736842086858
 20
112.9526315787263
 30
0.0
 11
33.79999999981591
 21
105.699999999779
 31
0.0
  0
LINE
  5
14F
  8
PATTERN_FILL
  6
CONTINUOUS
 62
     7
 10
27.468421052447528
 20
109.5315789471473
 30
0.0
 11
31.29999999981591
 21
105.699999999779
 31
0.0
  0
LINE
  5
150
  8
PATTERN_FILL
  6
CONTINUOUS
 62
     7
 10
28.389473684026498
 20
106.11052631556841
 30
0.0
 11
28.79999999981592
 21
105.699999999779
 31
0.0
  0
LINE
  5
151
  8
PATTERN_FILL
  6
CONTINUOUS
 62
     7
 10
162.00000000002629
 20
161.99999999977859
 30
0.0
 11
166.08127208483191
 21
157.918727914973
 31
0.0
  0
LINE
  5
152
  8
PATTERN_FILL
  6
CONTINUOUS
 62
     7
 10
159.50000000002629
 20
161.99999999977859
 30
0.0
 11
166.98233215550329
 21
154.5176678443016
 31
0.0
  0
LINE
  5
153
  8
PATTERN_FILL
  6
CONTINUOUS
 62
     7
 10
157.0000000000264
 20
161.99999999977859
 30
0.0
 11
167.88339222617469
 21
151.11660777363019
 31
0.0
  0
LINE
  5
154
  8
PATTERN_FILL
  6
CONTINUOUS
 62
     7
 10
154.5000000000264
 20
161.99999999977859
 30
0.0
 11
168.7844522968459
 21
147.7155477029589
 31
0.0
  0
LINE
  5
155
  8
PATTERN_FILL
  6
CONTINUOUS
 62
     7
 10
152.0000000000264
 20
161.99999999977859
 30
0.0
 11
169.6855123675175
 21
144.31448763228749
 31
0.0
  0
LINE
  5
156
  8
PATTERN_FILL
  6
CONTINUOUS
 62
     7
 10
149.5000000000264
 20
161.99999999977859
 30
0.0
 11
170.5865724381888
 21
140.91342756161609
 31
0.0
  0
LINE
  5
157
  8
PATTERN_FILL
  6
CONTINUOUS
 62
     7
 10
147.00000000002629
 20
161.99999999977859
 30
0.0
 11
171.48763250886009
 21
137.5123674909448
 31
0.0
  0
LINE
  5
158
  8
PATTERN_FILL
  6
CONTINUOUS
 62
     7
 10
144.5000000000264
 20
161.99999999977859
 30
0.0
 11
172.38869257953161
 21
134.11130742027339
 31
0.0
  0
LINE
  5
159
  8
PATTERN_FILL
  6
CONTINUOUS
 62
     7
 10
142.00000000002629
 20
161.99999999977859
 30
0.0
 11
173.28975265020301
 21
130.7102473496021
 31
0.0
  0
LINE
  5
15A
  8
PATTERN_FILL
  6
CONTINUOUS
 62
     7
 10
139.50000000002629
 20
161.99999999977859
 30
0.0
 11
174.19081272087431
 21
127.30918727893069
 31
0.0
  0
LINE
  5
15B
  8
PATTERN_FILL
  6
CONTINUOUS
 62
     7
 10
137.00000000002629
 20
161.99999999977859
 30
0.0
 11
175.0918727915456
 21
123.9081272082594
 31
0.0
  0
LINE
  5
15C
  8
PATTERN_FILL
  6
CONTINUOUS
 62
     7
 10
135.01932496867261
 20
161.48067503113239
 30
0.0
 11
173.0000000000262
 21
123.49999999977879
 31
0.0
  0
LINE
  5
15D
  8
PATTERN_FILL
  6
CONTINUOUS
 62
     7
 10
134.3716632443795
 20
159.62833675542541
 30
0.0
 11
170.5000000000262
 21
123.49999999977879
 31
0.0
  0
LINE
  5
15E
  8
PATTERN_FILL
  6
CONTINUOUS
 62
     7
 10
133.84804928134051
 20
157.65195071846441
 30
0.0
 11
168.0000000000262
 21
123.49999999977879
 31
0.0
  0
LINE
  5
15F
  8
PATTERN_FILL
  6
CONTINUOUS
 62
     7
 10
133.32443531830151
 20
155.6755646815034
 30
0.0
 11
165.50000000002629
 21
123.49999999977879
 31
0.0
  0
LINE
  5
160
  8
PATTERN_FILL
  6
CONTINUOUS
 62
     7
 10
132.80082135526251
 20
153.6991786445424
 30
0.0
 11
163.0000000000262
 21
123.49999999977879
 31
0.0
  0
LINE
  5
161
  8
PATTERN_FILL
  6
CONTINUOUS
 62
     7
 10
173.0000000000262
 20
113.49999999977889
 30
0.0
 11
173.4727272727535
 21
113.0272727270516
 31
0.0
  0
LINE
  5
162
  8
PATTERN_FILL
  6
CONTINUOUS
 62
     7
 10
132.2500000000264
 20
151.74999999977859
 30
0.0
 11
160.50000000002629
 21
123.49999999977879
 31
0.0
  0
LINE
  5
163
  8
PATTERN_FILL
  6
CONTINUOUS
 62
     7
 10
170.5000000000262
 20
113.49999999977889
 30
0.0
 11
172.9424242424505
 21
111.0575757573547
 31
0.0
  0
LINE
  5
164
  8
PATTERN_FILL
  6
CONTINUOUS
 62
     7
 10
131.75359342918449
 20
149.74640657062051
 30
0.0
 11
158.0000000000264
 21
123.49999999977879
 31
0.0
  0
LINE
  5
165
  8
PATTERN_FILL
  6
CONTINUOUS
 62
     7
 10
168.0000000000262
 20
113.49999999977889
 30
0.0
 11
172.41212121214741
 21
109.0878787876577
 31
0.0
  0
LINE
  5
166
  8
PATTERN_FILL
  6
CONTINUOUS
 62
     7
 10
131.22997946614541
 20
147.77002053365959
 30
0.0
 11
155.50000000002629
 21
123.49999999977879
 31
0.0
  0
LINE
  5
167
  8
PATTERN_FILL
  6
CONTINUOUS
 62
     7
 10
165.50000000002629
 20
113.49999999977889
 30
0.0
 11
171.88181818184441
 21
107.1181818179608
 31
0.0
  0
LINE
  5
168
  8
PATTERN_FILL
  6
CONTINUOUS
 62
     7
 10
130.70636550310641
 20
145.79363449669859
 30
0.0
 11
153.0000000000264
 21
123.49999999977879
 31
0.0
  0
LINE
  5
169
  8
PATTERN_FILL
  6
CONTINUOUS
 62
     7
 10
163.0000000000262
 20
113.49999999977889
 30
0.0
 11
170.8000000000263
 21
105.699999999779
 31
0.0
  0
LINE
  5
16A
  8
PATTERN_FILL
  6
CONTINUOUS
 62
     7
 10
130.18275154006739
 20
143.81724845973761
 30
0.0
 11
150.5000000000264
 21
123.49999999977879
 31
0.0
  0
LINE
  5
16B
  8
PATTERN_FILL
  6
CONTINUOUS
 62
     7
 10
160.50000000002629
 20
113.49999999977889
 30
0.0
 11
168.3000000000263
 21
105.699999999779
 31
0.0
  0
LINE
  5
16C
  8
PATTERN_FILL
  6
CONTINUOUS
 62
     7
 10
129.65913757702839
 20
141.84086242277661
 30
0.0
 11
148.00000000002629
 21
123.49999999977879
 31
0.0
  0
LINE
  5
16D
  8
PATTERN_FILL
  6
CONTINUOUS
 62
     7
 10
158.0000000000264
 20
113.49999999977889
 30
0.0
 11
165.8000000000263
 21
105.699999999779
 31
0.0
  0
LINE
  5
16E
  8
PATTERN_FILL
  6
CONTINUOUS
 62
     7
 10
129.13552361398919
 20
139.86447638581569
 30
0.0
 11
145.5000000000264
 21
123.49999999977879
 31
0.0
  0
LINE
  5
16F
  8
PATTERN_FILL
  6
CONTINUOUS
 62
     7
 10
155.50000000002629
 20
113.49999999977889
 30
0.0
 11
163.3000000000263
 21
105.699999999779
 31
0.0
  0
LINE
  5
170
  8
PATTERN_FILL
  6
CONTINUOUS
 62
     7
 10
128.61190965095031
 20
137.88809034885469
 30
0.0
 11
143.00000000002629
 21
123.49999999977879
 31
0.0
  0
LINE
  5
171
  8
PATTERN_FILL
  6
CONTINUOUS
 62
     7
 10
153.0000000000264
 20
113.49999999977889
 30
0.0
 11
160.80000000002639
 21
105.699999999779
 31
0.0
  0
LINE
  5
172
  8
PATTERN_FILL
  6
CONTINUOUS
 62
     7
 10
128.08829568791131
 20
135.91170431189369
 30
0.0
 11
140.5000000000264
 21
123.49999999977879
 31
0.0
  0
LINE
  5
173
  8
PATTERN_FILL
  6
CONTINUOUS
 62
     7
 10
150.5000000000264
 20
113.49999999977889
 30
0.0
 11
158.3000000000263
 21
105.699999999779
 31
0.0
  0
LINE
  5
174
  8
PATTERN_FILL
  6
CONTINUOUS
 62
     7
 10
127.5646817248723
 20
133.93531827493271
 30
0.0
 11
138.00000000002629
 21
123.49999999977879
 31
0.0
  0
LINE
  5
175
  8
PATTERN_FILL
  6
CONTINUOUS
 62
     7
 10
148.00000000002629
 20
113.49999999977889
 30
0.0
 11
155.8000000000263
 21
105.699999999779
 31
0.0
  0
LINE
  5
176
  8
PATTERN_FILL
  6
CONTINUOUS
 62
     7
 10
127.0410677618333
 20
131.95893223797171
 30
0.0
 11
135.50000000002629
 21
123.49999999977879
 31
0.0
  0
LINE
  5
177
  8
PATTERN_FILL
  6
CONTINUOUS
 62
     7
 10
145.5000000000264
 20
113.49999999977889
 30
0.0
 11
153.30000000002639
 21
105.699999999779
 31
0.0
  0
LINE
  5
178
  8
PATTERN_FILL
  6
CONTINUOUS
 62
     7
 10
126.51745379879431
 20
129.98254620101079
 30
0.0
 11
133.0000000000264
 21
123.49999999977879
 31
0.0
  0
LINE
  5
179
  8
PATTERN_FILL
  6
CONTINUOUS
 62
     7
 10
143.00000000002629
 20
113.49999999977889
 30
0.0
 11
150.8000000000263
 21
105.699999999779
 31
0.0
  0
LINE
  5
17A
  8
PATTERN_FILL
  6
CONTINUOUS
 62
     7
 10
125.9938398357552
 20
128.00616016404979
 30
0.0
 11
130.50000000002629
 21
123.49999999977879
 31
0.0
  0
LINE
  5
17B
  8
PATTERN_FILL
  6
CONTINUOUS
 62
     7
 10
140.5000000000264
 20
113.49999999977889
 30
0.0
 11
148.30000000002639
 21
105.699999999779
 31
0.0
  0
LINE
  5
17C
  8
PATTERN_FILL
  6
CONTINUOUS
 62
     7
 10
125.4702258727161
 20
126.0297741270888
 30
0.0
 11
128.00000000002629
 21
123.49999999977879
 31
0.0
  0
LINE
  5
17D
  8
PATTERN_FILL
  6
CONTINUOUS
 62
     7
 10
138.00000000002629
 20
113.49999999977889
 30
0.0
 11
145.80000000002639
 21
105.699999999779
 31
0.0
  0
LINE
  5
17E
  8
PATTERN_FILL
  6
CONTINUOUS
 62
     7
 10
124.9466119096771
 20
124.0533880901279
 30
0.0
 11
125.5000000000263
 21
123.49999999977879
 31
0.0
  0
LINE
  5
17F
  8
PATTERN_FILL
  6
CONTINUOUS
 62
     7
 10
135.50000000002629
 20
113.49999999977889
 30
0.0
 11
143.3000000000263
 21
105.699999999779
 31
0.0
  0
LINE
  5
180
  8
PATTERN_FILL
  6
CONTINUOUS
 62
     7
 10
133.0000000000264
 20
113.49999999977889
 30
0.0
 11
140.8000000000263
 21
105.699999999779
 31
0.0
  0
LINE
  5
181
  8
PATTERN_FILL
  6
CONTINUOUS
 62
     7
 10
130.50000000002629
 20
113.49999999977889
 30
0.0
 11
138.30000000002639
 21
105.699999999779
 31
0.0
  0
LINE
  5
182
  8
PATTERN_FILL
  6
CONTINUOUS
 62
     7
 10
128.00000000002629
 20
113.49999999977889
 30
0.0
 11
135.80000000002639
 21
105.699999999779
 31
0.0
  0
LINE
  5
183
  8
PATTERN_FILL
  6
CONTINUOUS
 62
     7
 10
126.73157894739469
 20
112.2684210524105
 30
0.0
 11
133.3000000000263
 21
105.699999999779
 31
0.0
  0
LINE
  5
184
  8
PATTERN_FILL
  6
CONTINUOUS
 62
     7
 10
127.6526315789736
 20
108.8473684208316
 30
0.0
 11
130.8000000000263
 21
105.699999999779
 31
0.0
  0
LINE
  5
185
  8
PATTERN_FILL
  6
CONTINUOUS
 62
     7
 10
137.50000000002629
 20
161.99999999977859
 30
0.0
 11
134.09893992935511
 21
158.59893992910719
 31
0.0
  0
LINE
  5
186
  8
PATTERN_FILL
  6
CONTINUOUS
 62
     7
 10
140.00000000002629
 20
161.99999999977859
 30
0.0
 11
133.19787985868351
 21
155.19787985843581
 31
0.0
  0
LINE
  5
187
  8
PATTERN_FILL
  6
CONTINUOUS
 62
     7
 10
142.5000000000264
 20
161.99999999977859
 30
0.0
 11
132.2500000000264
 21
151.74999999977859
 31
0.0
  0
LINE
  5
188
  8
PATTERN_FILL
  6
CONTINUOUS
 62
     7
 10
145.00000000002629
 20
161.99999999977859
 30
0.0
 11
131.39575971734081
 21
148.3957597170932
 31
0.0
  0
LINE
  5
189
  8
PATTERN_FILL
  6
CONTINUOUS
 62
     7
 10
147.50000000002629
 20
161.99999999977859
 30
0.0
 11
130.4946996466694
 21
144.99469964642179
 31
0.0
  0
LINE
  5
18A
  8
PATTERN_FILL
  6
CONTINUOUS
 62
     7
 10
150.0000000000264
 20
161.99999999977859
 30
0.0
 11
129.593639575998
 21
141.59363957575039
 31
0.0
  0
LINE
  5
18B
  8
PATTERN_FILL
  6
CONTINUOUS
 62
     7
 10
152.5000000000264
 20
161.99999999977859
 30
0.0
 11
128.69257950532659
 21
138.1925795050791
 31
0.0
  0
LINE
  5
18C
  8
PATTERN_FILL
  6
CONTINUOUS
 62
     7
 10
155.0000000000264
 20
161.99999999977859
 30
0.0
 11
127.7915194346553
 21
134.79151943440769
 31
0.0
  0
LINE
  5
18D
  8
PATTERN_FILL
  6
CONTINUOUS
 62
     7
 10
157.50000000002629
 20
161.99999999977859
 30
0.0
 11
126.89045936398389
 21
131.39045936373631
 31
0.0
  0
LINE
  5
18E
  8
PATTERN_FILL
  6
CONTINUOUS
 62
     7
 10
160.00000000002629
 20
161.99999999977859
 30
0.0
 11
125.9893992933125
 21
127.98939929306491
 31
0.0
  0
LINE
  5
18F
  8
PATTERN_FILL
  6
CONTINUOUS
 62
     7
 10
162.5000000000262
 20
161.99999999977859
 30
0.0
 11
125.0883392226411
 21
124.5883392223937
 31
0.0
  0
LINE
  5
190
  8
PATTERN_FILL
  6
CONTINUOUS
 62
     7
 10
164.71931129909299
 20
161.7193112988453
 30
0.0
 11
126.5000000000263
 21
123.49999999977879
 31
0.0
  0
LINE
  5
191
  8
PATTERN_FILL
  6
CONTINUOUS
 62
     7
 10
165.52361396306529
 20
160.02361396281759
 30
0.0
 11
129.00000000002629
 21
123.49999999977879
 31
0.0
  0
LINE
  5
192
  8
PATTERN_FILL
  6
CONTINUOUS
 62
     7
 10
166.04722792610431
 20
158.04722792585659
 30
0.0
 11
131.50000000002629
 21
123.49999999977879
 31
0.0
  0
LINE
  5
193
  8
PATTERN_FILL
  6
CONTINUOUS
 62
     7
 10
166.57084188914331
 20
156.0708418888957
 30
0.0
 11
134.0000000000264
 21
123.49999999977879
 31
0.0
  0
LINE
  5
194
  8
PATTERN_FILL
  6
CONTINUOUS
 62
     7
 10
167.09445585218219
 20
154.09445585193461
 30
0.0
 11
136.50000000002629
 21
123.49999999977879
 31
0.0
  0
LINE
  5
195
  8
PATTERN_FILL
  6
CONTINUOUS
 62
     7
 10
167.6180698152213
 20
152.11806981497361
 30
0.0
 11
139.00000000002629
 21
123.49999999977879
 31
0.0
  0
LINE
  5
196
  8
PATTERN_FILL
  6
CONTINUOUS
 62
     7
 10
129.00000000002629
 20
113.49999999977889
 30
0.0
 11
126.9515151515414
 21
111.4515151512941
 31
0.0
  0
LINE
  5
197
  8
PATTERN_FILL
  6
CONTINUOUS
 62
     7
 10
168.14168377826039
 20
150.14168377801269
 30
0.0
 11
141.5000000000264
 21
123.49999999977879
 31
0.0
  0
LINE
  5
198
  8
PATTERN_FILL
  6
CONTINUOUS
 62
     7
 10
131.50000000002629
 20
113.49999999977889
 30
0.0
 11
127.4818181818444
 21
109.48181818159711
 31
0.0
  0
LINE
  5
199
  8
PATTERN_FILL
  6
CONTINUOUS
 62
     7
 10
168.66529774129941
 20
148.16529774105169
 30
0.0
 11
144.0000000000264
 21
123.49999999977879
 31
0.0
  0
LINE
  5
19A
  8
PATTERN_FILL
  6
CONTINUOUS
 62
     7
 10
134.0000000000264
 20
113.49999999977889
 30
0.0
 11
128.01212121214749
 21
107.51212121190019
 31
0.0
  0
LINE
  5
19B
  8
PATTERN_FILL
  6
CONTINUOUS
 62
     7
 10
169.18891170433841
 20
146.18891170409071
 30
0.0
 11
146.5000000000264
 21
123.49999999977879
 31
0.0
  0
LINE
  5
19C
  8
PATTERN_FILL
  6
CONTINUOUS
 62
     7
 10
136.50000000002629
 20
113.49999999977889
 30
0.0
 11
128.70000000002631
 21
105.699999999779
 31
0.0
  0
LINE
  5
19D
  8
PATTERN_FILL
  6
CONTINUOUS
 62
     7
 10
169.71252566737741
 20
144.2125256671298
 30
0.0
 11
149.00000000002629
 21
123.49999999977879
 31
0.0
  0
LINE
  5
19E
  8
PATTERN_FILL
  6
CONTINUOUS
 62
     7
 10
139.00000000002629
 20
113.49999999977889
 30
0.0
 11
131.20000000002639
 21
105.699999999779
 31
0.0
  0
LINE
  5
19F
  8
PATTERN_FILL
  6
CONTINUOUS
 62
     7
 10
170.23613963041629
 20
142.23613963016879
 30
0.0
 11
151.5000000000264
 21
123.49999999977879
 31
0.0
  0
LINE
  5
1A0
  8
PATTERN_FILL
  6
CONTINUOUS
 62
     7
 10
141.5000000000264
 20
113.49999999977889
 30
0.0
 11
133.70000000002639
 21
105.699999999779
 31
0.0
  0
LINE
  5
1A1
  8
PATTERN_FILL
  6
CONTINUOUS
 62
     7
 10
170.7597535934554
 20
140.25975359320779
 30
0.0
 11
154.0000000000264
 21
123.49999999977879
 31
0.0
  0
LINE
  5
1A2
  8
PATTERN_FILL
  6
CONTINUOUS
 62
     7
 10
144.0000000000264
 20
113.49999999977889
 30
0.0
 11
136.20000000002631
 21
105.699999999779
 31
0.0
  0
LINE
  5
1A3
  8
PATTERN_FILL
  6
CONTINUOUS
 62
     7
 10
171.2833675564944
 20
138.2833675562469
 30
0.0
 11
156.5000000000264
 21
123.49999999977879
 31
0.0
  0
LINE
  5
1A4
  8
PATTERN_FILL
  6
CONTINUOUS
 62
     7
 10
146.5000000000264
 20
113.49999999977889
 30
0.0
 11
138.70000000002631
 21
105.699999999779
 31
0.0
  0
LINE
  5
1A5
  8
PATTERN_FILL
  6
CONTINUOUS
 62
     7
 10
171.80698151953339
 20
136.3069815192859
 30
0.0
 11
159.00000000002629
 21
123.49999999977879
 31
0.0
  0
LINE
  5
1A6
  8
PATTERN_FILL
  6
CONTINUOUS
 62
     7
 10
149.00000000002629
 20
113.49999999977889
 30
0.0
 11
141.20000000002631
 21
105.699999999779
 31
0.0
  0
LINE
  5
1A7
  8
PATTERN_FILL
  6
CONTINUOUS
 62
     7
 10
172.33059548257251
 20
134.3305954823249
 30
0.0
 11
161.50000000002629
 21
123.49999999977879
 31
0.0
  0
LINE
  5
1A8
  8
PATTERN_FILL
  6
CONTINUOUS
 62
     7
 10
151.5000000000264
 20
113.49999999977889
 30
0.0
 11
143.70000000002639
 21
105.699999999779
 31
0.0
  0
LINE
  5
1A9
  8
PATTERN_FILL
  6
CONTINUOUS
 62
     7
 10
172.8542094456115
 20
132.35420944536389
 30
0.0
 11
164.0000000000262
 21
123.49999999977879
 31
0.0
  0
LINE
  5
1AA
  8
PATTERN_FILL
  6
CONTINUOUS
 62
     7
 10
154.0000000000264
 20
113.49999999977889
 30
0.0
 11
146.20000000002639
 21
105.699999999779
 31
0.0
  0
LINE
  5
1AB
  8
PATTERN_FILL
  6
CONTINUOUS
 62
     7
 10
173.3778234086505
 20
130.37782340840289
 30
0.0
 11
166.50000000002629
 21
123.49999999977879
 31
0.0
  0
LINE
  5
1AC
  8
PATTERN_FILL
  6
CONTINUOUS
 62
     7
 10
156.5000000000264
 20
113.49999999977889
 30
0.0
 11
148.70000000002639
 21
105.699999999779
 31
0.0
  0
LINE
  5
1AD
  8
PATTERN_FILL
  6
CONTINUOUS
 62
     7
 10
173.9014373716895
 20
128.401437371442
 30
0.0
 11
169.0000000000262
 21
123.49999999977879
 31
0.0
  0
LINE
  5
1AE
  8
PATTERN_FILL
  6
CONTINUOUS
 62
     7
 10
159.00000000002629
 20
113.49999999977889
 30
0.0
 11
151.20000000002639
 21
105.699999999779
 31
0.0
  0
LINE
  5
1AF
  8
PATTERN_FILL
  6
CONTINUOUS
 62
     7
 10
174.42505133472841
 20
126.425051334481
 30
0.0
 11
171.5000000000262
 21
123.49999999977879
 31
0.0
  0
LINE
  5
1B0
  8
PATTERN_FILL
  6
CONTINUOUS
 62
     7
 10
161.50000000002629
 20
113.49999999977889
 30
0.0
 11
153.70000000002639
 21
105.699999999779
 31
0.0
  0
LINE
  5
1B1
  8
PATTERN_FILL
  6
CONTINUOUS
 62
     7
 10
174.94866529776741
 20
124.44866529752009
 30
0.0
 11
174.00000000002629
 21
123.49999999977879
 31
0.0
  0
LINE
  5
1B2
  8
PATTERN_FILL
  6
CONTINUOUS
 62
     7
 10
164.0000000000262
 20
113.49999999977889
 30
0.0
 11
156.20000000002639
 21
105.699999999779
 31
0.0
  0
LINE
  5
1B3
  8
PATTERN_FILL
  6
CONTINUOUS
 62
     7
 10
166.50000000002629
 20
113.49999999977889
 30
0.0
 11
158.70000000002639
 21
105.699999999779
 31
0.0
  0
LINE
  5
1B4
  8
PATTERN_FILL
  6
CONTINUOUS
 62
     7
 10
169.0000000000262
 20
113.49999999977889
 30
0.0
 11
161.20000000002631
 21
105.699999999779
 31
0.0
  0
LINE
  5
1B5
  8
PATTERN_FILL
  6
CONTINUOUS
 62
     7
 10
171.5000000000262
 20
113.49999999977889
 30
0.0
 11
163.70000000002631
 21
105.699999999779
 31
0.0
  0
LINE
  5
1B6
  8
PATTERN_FILL
  6
CONTINUOUS
 62
     7
 10
173.45263157897361
 20
112.9526315787263
 30
0.0
 11
166.20000000002619
 21
105.699999999779
 31
0.0
  0
LINE
  5
1B7
  8
PATTERN_FILL
  6
CONTINUOUS
 62
     7
 10
172.53157894739459
 20
109.5315789471473
 30
0.0
 11
168.70000000002631
 21
105.699999999779
 31
0.0
  0
LINE
  5
1B8
  8
PATTERN_FILL
  6
CONTINUOUS
 62
     7
 10
171.61052631581569
 20
106.11052631556841
 30
0.0
 11
171.20000000002631
 21
105.699999999779
 31
0.0
  0
LINE
  5
1B9
  8
SPEC
  6
CONTINUOUS
 62
     7
 10
-147.49999999999989
 20
507.06362999999988
 30
0.0
 11
295.0
 21
507.06362999999988
 31
0.0
  0
LINE
  5
1BA
  8
SPEC
  6
CONTINUOUS
 62
     7
 10
-147.49999999999989
 20
495.81362999999988
 30
0.0
 11
295.0
 21
495.81362999999988
 31
0.0
  0
LINE
  5
1BB
  8
SPEC
  6
CONTINUOUS
 62
     7
 10
-147.49999999999989
 20
439.56362999999988
 30
0.0
 11
295.0
 21
439.56362999999988
 31
0.0
  0
LINE
  5
1BC
  8
SPEC
  6
CONTINUOUS
 62
     7
 10
-147.49999999999989
 20
450.81362999999988
 30
0.0
 11
295.0
 21
450.81362999999988
 31
0.0
  0
LINE
  5
1BD
  8
SPEC
  6
CONTINUOUS
 62
     7
 10
-147.49999999999989
 20
473.31362999999988
 30
0.0
 11
295.0
 21
473.31362999999988
 31
0.0
  0
LINE
  5
1BE
  8
SPEC
  6
CONTINUOUS
 62
     7
 10
-147.49999999999989
 20
428.31362999999988
 30
0.0
 11
295.0
 21
428.31362999999988
 31
0.0
  0
LINE
  5
1BF
  8
SPEC
  6
CONTINUOUS
 62
     7
 10
-147.49999999999989
 20
405.81362999999988
 30
0.0
 11
295.0
 21
405.81362999999988
 31
0.0
  0
LINE
  5
1C0
  8
SPEC
  6
CONTINUOUS
 62
     7
 10
-147.49999999999989
 20
417.06362999999988
 30
0.0
 11
295.0
 21
417.06362999999988
 31
0.0
  0
LINE
  5
1C1
  8
SPEC
  6
CONTINUOUS
 62
     7
 10
-147.49999999999989
 20
394.56362999999988
 30
0.0
 11
295.0
 21
394.56362999999988
 31
0.0
  0
LINE
  5
1C2
  8
SPEC
  6
CONTINUOUS
 62
     7
 10
-147.49999999999989
 20
383.31362999999988
 30
0.0
 11
295.0
 21
383.31362999999988
 31
0.0
  0
LINE
  5
1C3
  8
SPEC
  6
CONTINUOUS
 62
     7
 10
-147.49999999999989
 20
484.56362999999988
 30
0.0
 11
295.0
 21
484.56362999999988
 31
0.0
  0
LINE
  5
1C4
  8
SPEC
  6
CONTINUOUS
 62
     7
 10
-147.49999999999989
 20
507.06362999999988
 30
0.0
 11
-147.5
 21
270.81362999999999
 31
0.0
  0
TEXT
  5
1C5
  8
SPEC
 62
     7
 10
-143.74999999999989
 20
511.24343999999979
 30
0.0
 40
7.3297851562499989
  1
仕様
 41
0.7
 11
-143.74999999999989
 21
518.57322515624992
 31
0.0
 73
     3
  0
LINE
  5
1C6
  8
SPEC
  6
CONTINUOUS
 62
     7
 10
-50.0
 20
507.06362999999988
 30
0.0
 11
-50.000000000000021
 21
270.81362999999999
 31
0.0
  0
LINE
  5
1C7
  8
SPEC
  6
CONTINUOUS
 62
     7
 10
295.0
 20
507.06362999999988
 30
0.0
 11
294.99999999999989
 21
270.81362999999999
 31
0.0
  0
TEXT
  5
1C8
  8
SPEC
 62
     7
 10
-144.9772185685797
 20
498.70094275367319
 30
0.0
 40
5.700933749999999
  1
形式
 41
0.7
 11
-144.9772185685797
 21
504.40187650367318
 31
0.0
 73
     3
  0
TEXT
  5
1C9
  8
SPEC
 62
     7
 10
-145.10260707005739
 20
307.90616788547243
 30
0.0
 40
5.7009440104166647
  1
寸法
 41
0.7
 11
-145.10260707005739
 21
313.60711189588909
 31
0.0
 73
     3
  0
TEXT
  5
1CA
  8
SPEC
 62
     7
 10
-145.01172142909999
 20
296.43187509517998
 30
0.0
 40
5.7009440104166647
  1
重量
 41
0.7
 11
-145.01172142909999
 21
302.1328191055967
 31
0.0
 73
     3
  0
TEXT
  5
1CB
  8
SPEC
 62
     7
 10
-48.099439300719169
 20
307.77788339626397
 30
0.0
 40
5.7009440104166647
  1
\U+03A651\U+00D7237mm(突起部含まず) ※マイクヘッド含む
 41
0.7
 11
-48.099439300719169
 21
313.47882740668069
 31
0.0
 73
     3
  0
TEXT
  5
1CC
  8
SPEC
 62
     7
 10
-47.362114265891428
 20
296.74709382582222
 30
0.0
 40
5.7009440104166647
  1
HT450/D：約250g,HT450/C：約240g ※マイクヘッド含む,除電池
 41
0.7
 11
-47.362114265891428
 21
302.44803783623888
 31
0.0
 73
     3
  0
LINE
  5
1CD
  8
SPEC
  6
CONTINUOUS
 62
     7
 10
-147.49999999999989
 20
372.06362999999988
 30
0.0
 11
295.0
 21
372.06362999999988
 31
0.0
  0
LINE
  5
1CE
  8
SPEC
  6
CONTINUOUS
 62
     7
 10
-147.49999999999989
 20
327.06362999999999
 30
0.0
 11
295.0
 21
327.06362999999999
 31
0.0
  0
TEXT
  5
1CF
  8
SPEC
 62
     7
 10
-47.336441475125312
 20
498.86357816257117
 30
0.0
 40
5.7009440104166647
  1
ハンド型ワイヤレスマイク送信機
 41
0.7
 11
-47.336441475125312
 21
504.56452217298789
 31
0.0
 73
     3
  0
TEXT
  5
1D0
  8
SPEC
 62
     7
 10
-144.8329108131729
 20
476.28763662754579
 30
0.0
 40
5.700933749999999
  1
送信周波数
 41
0.7
 11
-144.8329108131729
 21
481.98857037754573
 31
0.0
 73
     3
  0
TEXT
  5
1D1
  8
SPEC
 62
     7
 10
-47.311998030694113
 20
476.06956312512949
 30
0.0
 40
5.7009440104166647
  1
B型 (806.125～809.750MHz)のうち任意の１チャンネル
 41
0.7
 11
-47.311998030694113
 21
481.77050713554621
 31
0.0
 73
     3
  0
TEXT
  5
1D2
  8
SPEC
 62
     7
 10
-145.00616203513241
 20
465.268638256825
 30
0.0
 40
5.700933749999999
  1
空中線電力
 41
0.7
 11
-145.00616203513241
 21
470.96957200682499
 31
0.0
 73
     3
  0
TEXT
  5
1D3
  8
SPEC
 62
     7
 10
-47.70193969642586
 20
465.03840067984322
 30
0.0
 40
5.7009440104166647
  1
10mW
 41
0.7
 11
-47.70193969642586
 21
470.73934469025988
 31
0.0
 73
     3
  0
TEXT
  5
1D4
  8
SPEC
 62
     7
 10
-145.2108508564385
 20
454.01791155151528
 30
0.0
 40
5.700933749999999
  1
アンテナ形式
 41
0.7
 11
-145.2108508564385
 21
459.71884530151522
 31
0.0
 73
     3
  0
TEXT
  5
1D5
  8
SPEC
 62
     7
 10
-47.810841193333303
 20
453.97028674878271
 30
0.0
 40
5.7009440104166647
  1
内蔵式
 41
0.7
 11
-47.810841193333303
 21
459.67123075919932
 31
0.0
 73
     3
  0
TEXT
  5
1D6
  8
SPEC
 62
     7
 10
-144.81456834424529
 20
431.4409115802556
 30
0.0
 40
5.700933749999999
  1
発振方式
 41
0.7
 11
-144.81456834424529
 21
437.14184533025559
 31
0.0
 73
     3
  0
TEXT
  5
1D7
  8
SPEC
 62
     7
 10
-47.336441475125312
 20
431.31062343638899
 30
0.0
 40
5.7009440104166647
  1
水晶PLL周波数シンセサイザー
 41
0.7
 11
-47.336441475125312
 21
437.0115674468056
 31
0.0
 73
     3
  0
TEXT
  5
1D8
  8
SPEC
 62
     7
 10
-145.0825584185514
 20
420.13949847210432
 30
0.0
 40
5.700933749999999
  1
変調方式
 41
0.7
 11
-145.0825584185514
 21
425.8404322221042
 31
0.0
 73
     3
  0
TEXT
  5
1D9
  8
SPEC
 62
     7
 10
-47.336441475125312
 20
419.96300682541312
 30
0.0
 40
5.7009440104166647
  1
FM変調
 41
0.7
 11
-47.336441475125312
 21
425.66395083582972
 31
0.0
 73
     3
  0
TEXT
  5
1DA
  8
SPEC
 62
     7
 10
-144.85384993726359
 20
397.76610477434912
 30
0.0
 40
5.700933749999999
  1
最大入力レベル
 41
0.7
 11
-144.85384993726359
 21
403.46703852434899
 31
0.0
 73
     3
  0
TEXT
  5
1DB
  8
SPEC
 62
     7
 10
-47.722638394412463
 20
397.53496207037358
 30
0.0
 40
5.7009440104166647
  1
146dB SPL(C5ヘッドモデル),HT450：900mV(1kHz,実行値)
 41
0.7
 11
-47.722638394412463
 21
403.2359060807903
 31
0.0
 73
     3
  0
TEXT
  5
1DC
  8
SPEC
 62
     7
 10
-145.1581146238708
 20
386.23065440676891
 30
0.0
 40
5.700933749999999
  1
ゲイン調整範囲
 41
0.7
 11
-145.1581146238708
 21
391.9315881567689
 31
0.0
 73
     3
  0
TEXT
  5
1DD
  8
SPEC
 62
     7
 10
-47.300292508756101
 20
386.248243155865
 30
0.0
 40
5.7009440104166647
  1
High/Low
 41
0.7
 11
-47.300292508756101
 21
391.94918716628172
 31
0.0
 73
     3
  0
TEXT
  5
1DE
  8
SPEC
 62
     7
 10
-144.7871930277704
 20
375.03763662754579
 30
0.0
 40
5.700933749999999
  1
S/N比
 41
0.7
 11
-144.7871930277704
 21
380.73857037754578
 31
0.0
 73
     3
  0
TEXT
  5
1DF
  8
SPEC
 62
     7
 10
-47.697077898421682
 20
374.72098731498181
 30
0.0
 40
5.7009440104166647
  1
120dB(Aウェイト)
 41
0.7
 11
-47.697077898421682
 21
380.42193132539848
 31
0.0
 73
     3
  0
TEXT
  5
1E0
  8
SPEC
 62
     7
 10
-144.82985883274591
 20
363.57355416750488
 30
0.0
 40
5.700933749999999
  1
THD
 41
0.7
 11
-144.82985883274591
 21
369.27448791750493
 31
0.0
 73
     3
  0
TEXT
  5
1E1
  8
SPEC
 62
     7
 10
-47.228335737842698
 20
363.9994663907159
 30
0.0
 40
5.7009440104166647
  1
0.7%%%以下(1kHz)
 41
0.7
 11
-47.228335737842698
 21
369.7004104011325
 31
0.0
 73
     3
  0
TEXT
  5
1E2
  8
SPEC
 62
     7
 10
-145.08160160749949
 20
352.61307619991283
 30
0.0
 40
5.700933749999999
  1
電源
 41
0.7
 11
-145.08160160749949
 21
358.31400994991282
 31
0.0
 73
     3
  0
TEXT
  5
1E3
  8
SPEC
 62
     7
 10
-47.372419994809562
 20
352.4967091357006
 30
0.0
 40
5.7009440104166647
  1
単3アルカリ乾電池\U+00D71,またはニッカド水素充電池(2100mAh)
 41
0.7
 11
-47.372419994809562
 21
358.19765314611732
 31
0.0
 73
     3
  0
TEXT
  5
1E4
  8
SPEC
 62
     7
 10
-144.94976034920501
 20
341.28763662754579
 30
0.0
 40
5.700933749999999
  1
電池寿命
 41
0.7
 11
-144.94976034920501
 21
346.98857037754578
 31
0.0
 73
     3
  0
TEXT
  5
1E5
  8
SPEC
 62
     7
 10
-47.372363358030171
 20
340.92290245854241
 30
0.0
 40
5.7009440104166647
  1
単3アルカリ乾電池：約6時間
 41
0.7
 11
-47.372363358030171
 21
346.62384646895907
 31
0.0
 73
     3
  0
TEXT
  5
1E6
  8
SPEC
 62
     7
 10
-47.623364157382312
 20
329.67290245854241
 30
0.0
 40
5.7009440104166647
  1
※時間は目安です。使用環境によって異なりますのでご注意ください。
 41
0.7
 11
-47.623364157382312
 21
335.37384646895907
 31
0.0
 73
     3
  0
TEXT
  5
1E7
  8
SPEC
 62
     7
 10
-144.75725872171719
 20
318.85401084445652
 30
0.0
 40
5.700933749999999
  1
使用温度範囲
 41
0.7
 11
-144.75725872171719
 21
324.55494459445652
 31
0.0
 73
     3
  0
TEXT
  5
1E8
  8
SPEC
 62
     7
 10
-47.1215882150711
 20
318.60194684192089
 30
0.0
 40
5.7009440104166647
  1
-10℃～45℃
 41
0.7
 11
-47.1215882150711
 21
324.3028908523375
 31
0.0
 73
     3
  0
LINE
  5
1E9
  8
SPEC
  6
CONTINUOUS
 62
     7
 10
-147.49999999999989
 20
315.81362999999988
 30
0.0
 11
295.0
 21
315.81362999999988
 31
0.0
  0
LINE
  5
1EA
  8
SPEC
  6
CONTINUOUS
 62
     7
 10
-147.49999999999989
 20
293.31362999999988
 30
0.0
 11
295.0
 21
293.31362999999988
 31
0.0
  0
TEXT
  5
1EB
  8
SPEC
 62
     7
 10
-144.838933992416
 20
285.52733339094539
 30
0.0
 40
5.7009440104166647
  1
付属品
 41
0.7
 11
-144.838933992416
 21
291.22827740136199
 31
0.0
 73
     3
  0
TEXT
  5
1EC
  8
SPEC
 62
     7
 10
-47.338223223797399
 20
285.59220880898749
 30
0.0
 40
5.7009440104166647
  1
HT450/D：マイクホルダー,単3アルカリ乾電池
 41
0.7
 11
-47.338223223797399
 21
291.29315281940421
 31
0.0
 73
     3
  0
TEXT
  5
1ED
  8
SPEC
 62
     7
 10
-47.26699928272609
 20
274.34220880898749
 30
0.0
 40
5.7009440104166647
  1
HT450/C：マイクホルダー,単3アルカリ乾電池,プレゼンス・ブースター
 41
0.7
 11
-47.26699928272609
 21
280.0431528194041
 31
0.0
 73
     3
  0
LINE
  5
1EE
  8
SPEC
  6
CONTINUOUS
 62
     7
 10
-147.49999999999989
 20
462.06362999999988
 30
0.0
 11
295.0
 21
462.06362999999988
 31
0.0
  0
TEXT
  5
1EF
  8
SPEC
 62
     7
 10
-145.2108508564385
 20
442.76791155151528
 30
0.0
 40
5.700933749999999
  1
到達距離
 41
0.7
 11
-145.2108508564385
 21
448.46884530151522
 31
0.0
 73
     3
  0
TEXT
  5
1F0
  8
SPEC
 62
     7
 10
-47.810841193333303
 20
442.72028674878271
 30
0.0
 40
5.7009440104166647
  1
約70m(標準環境における最大値)
 41
0.7
 11
-47.810841193333303
 21
448.42123075919932
 31
0.0
 73
     3
  0
TEXT
  5
1F1
  8
SPEC
 62
     7
 10
-144.9772185685797
 20
487.45094275367319
 30
0.0
 40
5.700933749999999
  1
電波形式
 41
0.7
 11
-144.9772185685797
 21
493.15187650367318
 31
0.0
 73
     3
  0
TEXT
  5
1F2
  8
SPEC
 62
     7
 10
-47.336441475125312
 20
487.61357816257129
 30
0.0
 40
5.7009440104166647
  1
F3E
 41
0.7
 11
-47.336441475125312
 21
493.31452217298789
 31
0.0
 73
     3
  0
LINE
  5
1F3
  8
SPEC
  6
CONTINUOUS
 62
     7
 10
-147.49999999999989
 20
270.81362999999999
 30
0.0
 11
295.0
 21
270.81362999999999
 31
0.0
  0
TEXT
  5
1F4
  8
SPEC
 62
     7
 10
-145.0825584185514
 20
408.88949847210421
 30
0.0
 40
5.700933749999999
  1
周波数特性
 41
0.7
 11
-145.0825584185514
 21
414.5904322221042
 31
0.0
 73
     3
  0
TEXT
  5
1F5
  8
SPEC
 62
     7
 10
-47.336441475125312
 20
408.71300682541312
 30
0.0
 40
5.7009440104166647
  1
35～15,000Hz
 41
0.7
 11
-47.336441475125312
 21
414.41395083582972
 31
0.0
 73
     3
  0
LINE
  5
1F6
  8
SPEC
  6
CONTINUOUS
 62
     7
 10
-147.49999999999989
 20
304.56362999999988
 30
0.0
 11
295.0
 21
304.56362999999988
 31
0.0
  0
LINE
  5
1F7
  8
SPEC
  6
CONTINUOUS
 62
     7
 10
-147.49999999999989
 20
360.81362999999988
 30
0.0
 11
295.0
 21
360.81362999999988
 31
0.0
  0
LINE
  5
1F8
  8
SPEC
  6
CONTINUOUS
 62
     7
 10
-147.49999999999989
 20
349.56362999999988
 30
0.0
 11
295.0
 21
349.56362999999988
 31
0.0
  0
TEXT
  5
1F9
  8
DIMNSIONS
 62
     7
 10
40.0
 20
-206.12790000000001
 30
0.0
 40
7.3297851562499989
  1
(単位：mm)
 41
0.7
 11
40.0
 21
-198.79811484375
 31
0.0
 73
     3
  0
LINE
  5
1FA
  8
DIMNSIONS
  6
CONTINUOUS
 62
     7
 10
-63.000000000128203
 20
-81.000000000221007
 30
0.0
 11
-63.000000000128203
 21
-118.5
 31
0.0
  0
LINE
  5
1FB
  8
DIMNSIONS
  6
CONTINUOUS
 62
     7
 10
-37.00000000012821
 20
-81.000000000221007
 30
0.0
 11
-37.00000000012821
 21
-118.5
 31
0.0
  0
LINE
  5
1FC
  8
DIMNSIONS
  6
CONTINUOUS
 62
     7
 10
-63.000000000128203
 20
-112.5
 30
0.0
 11
-37.00000000012821
 21
-112.5
 31
0.0
  0
LINE
  5
1FD
  8
DIMNSIONS
  6
CONTINUOUS
 62
     7
 10
-63.000000000128203
 20
-112.5
 30
0.0
 11
-55.49813232434694
 21
-110.48988061454919
 31
0.0
  0
LINE
  5
1FE
  8
DIMNSIONS
  6
CONTINUOUS
 62
     7
 10
-63.000000000128203
 20
-112.5
 30
0.0
 11
-55.49813232434694
 21
-114.51011938545069
 31
0.0
  0
LINE
  5
1FF
  8
DIMNSIONS
  6
CONTINUOUS
 62
     7
 10
-37.00000000012821
 20
-112.5
 30
0.0
 11
-44.501867675909452
 21
-114.51011938545069
 31
0.0
  0
LINE
  5
200
  8
DIMNSIONS
  6
CONTINUOUS
 62
     7
 10
-37.00000000012821
 20
-112.5
 30
0.0
 11
-44.501867675909452
 21
-110.48988061454919
 31
0.0
  0
TEXT
  5
201
  8
DIMNSIONS
 62
     7
 10
-55.291666666666671
 20
-109.5183333333333
 30
0.0
 40
8.1442057291666661
  1
26
 41
0.7
 11
-55.291666666666671
 21
-101.3741276041666
 31
0.0
 73
     3
  0
LINE
  5
202
  8
DIMNSIONS
  6
CONTINUOUS
 62
     7
 10
-66.119337827649773
 20
-75.000000000221007
 30
0.0
 11
-106.0
 21
-75.000000000221007
 31
0.0
  0
LINE
  5
203
  8
DIMNSIONS
  6
CONTINUOUS
 62
     7
 10
-69.845652352026619
 20
161.99999999977859
 30
0.0
 11
-106.0
 21
161.99999999977859
 31
0.0
  0
LINE
  5
204
  8
DIMNSIONS
  6
CONTINUOUS
 62
     7
 10
-100.0
 20
-75.000000000221007
 30
0.0
 11
-100.0
 21
161.99999999977859
 31
0.0
  0
LINE
  5
205
  8
DIMNSIONS
  6
CONTINUOUS
 62
     7
 10
-100.0
 20
-75.000000000221007
 30
0.0
 11
-102.01011938545069
 21
-67.49813232443978
 31
0.0
  0
LINE
  5
206
  8
DIMNSIONS
  6
CONTINUOUS
 62
     7
 10
-100.0
 20
-75.000000000221007
 30
0.0
 11
-97.989880614549264
 21
-67.49813232443978
 31
0.0
  0
LINE
  5
207
  8
DIMNSIONS
  6
CONTINUOUS
 62
     7
 10
-100.0
 20
161.99999999977859
 30
0.0
 11
-97.989880614549264
 21
154.4981323239974
 31
0.0
  0
LINE
  5
208
  8
DIMNSIONS
  6
CONTINUOUS
 62
     7
 10
-100.0
 20
161.99999999977859
 30
0.0
 11
-102.01011938545069
 21
154.4981323239974
 31
0.0
  0
TEXT
  5
209
  8
DIMNSIONS
 62
     7
 10
-102.9816666666666
 20
35.562499999778787
 30
0.0
 40
8.1442057291666661
  1
237
 50
90.0
 41
0.7
 11
-111.1258723958333
 21
35.562499999778787
 31
0.0
 73
     3
  0
LINE
  5
20A
  8
DIMNSIONS
  6
CONTINUOUS
 62
     7
 10
-35.855144996392191
 20
233.71728250539911
 30
0.0
 11
-25.0
 21
250.0
 31
0.0
  0
LINE
  5
20B
  8
DIMNSIONS
  6
CONTINUOUS
 62
     7
 10
-35.855144996392191
 20
233.71728250539911
 30
0.0
 11
-33.326618325178607
 21
241.06065716843091
 31
0.0
  0
LINE
  5
20C
  8
DIMNSIONS
  6
CONTINUOUS
 62
     7
 10
-35.855144996392191
 20
233.71728250539911
 30
0.0
 11
-29.993689333458811
 21
238.81256817748491
 31
0.0
  0
LINE
  5
20D
  8
DIMNSIONS
  6
CONTINUOUS
 62
     7
 10
-25.0
 20
250.0
 30
0.0
 11
2.166666666666671
 21
250.0
 31
0.0
  0
TEXT
  5
20E
  8
DIMNSIONS
 62
     7
 10
-19.0
 20
252.9816666666666
 30
0.0
 40
8.1442057291666661
  1
\U+03C651
 41
0.7
 11
-19.0
 21
261.12587239583331
 31
0.0
 73
     3
  0
TEXT
  5
20F
  8
DATA
 62
     7
 10
250.0
 20
-209.5437
 30
0.0
 40
7.3297851562499989
  1
HT450 /D/C
 41
0.7
 11
250.0
 21
-202.21391484374999
 31
0.0
 73
     3
  0
TEXT
  5
210
  8
DATA
 62
     7
 10
250.0
 20
-187.7937
 30
0.0
 40
7.3297851562499989
  1
AKG
 41
0.7
 11
250.0
 21
-180.46391484374999
 31
0.0
 73
     3
  0
TEXT
  5
211
  8
DATA
 62
     7
 10
242.5
 20
-198.22456859999991
 30
0.0
 40
4.8865311328124994
  1
ハンド型ワイヤレスマイク送信機
 41
0.7
 11
242.5
 21
-193.33803746718741
 31
0.0
 73
     3
  0
TEXT
  5
212
  8
DATA
 62
     7
 10
-139.99999999999989
 20
-230.22237000000001
 30
0.0
 40
4.8865234374999993
  1
仕様および外観は予告なく変更されることがありますので、ご了承ください。
 41
0.7
 11
-139.99999999999989
 21
-225.3358465625
 31
0.0
 73
     3
  0
TEXT
  5
213
  8
DATA
 62
     7
 10
141.92570392047941
 20
88.543802907957996
 30
0.0
 40
4.8865234374999993
  1
HT450
 41
0.7
 11
141.92570392047941
 21
93.430326345457985
 31
0.0
 73
     3
  0
TEXT
  5
214
  8
DATA
 62
     7
 10
-53.79999999999999
 20
68.846011720722245
 30
0.0
 40
5.7009440104166647
  1
iR
 41
0.7
 11
-53.79999999999999
 21
74.546955731138908
 31
0.0
 73
     3
  0
LINE
  5
215
  8
DATA
  6
CONTINUOUS
 62
     7
 10
-58.635321624489087
 20
64.999999999779021
 30
0.0
 11
-41.364678375767468
 21
64.999999999779021
 31
0.0
  0
LINE
  5
216
  8
DATA
  6
CONTINUOUS
 62
     7
 10
-59.977241999996082
 20
42.486999744255357
 30
0.0
 11
-40.02275800026041
 21
42.486999744255357
 31
0.0
  0
LINE
  5
217
  8
DATA
  6
CONTINUOUS
 62
     7
 10
-52.695906214159791
 20
62.942510559148218
 30
0.0
 11
-47.319999999999979
 21
62.942510559148218
 31
0.0
  0
LINE
  5
218
  8
DATA
  6
CONTINUOUS
 62
     7
 10
-52.695906214159791
 20
44.96019223860111
 30
0.0
 11
-47.304093786096708
 21
44.96019223860111
 31
0.0
  0
CIRCLE
  5
219
  8
DATA
  6
CONTINUOUS
 62
     7
 10
-50.000000000128253
 20
34.999999999778971
 30
0.0
 40
2.0
  0
CIRCLE
  5
21A
  8
DATA
  6
CONTINUOUS
 62
     7
 10
-50.000000000128253
 20
34.999999999778971
 30
0.0
 40
0.5
  0
POLYLINE
  5
21B
  8
DATA
  6
CONTINUOUS
 62
     7
 66
     1
 10
0.0
 20
0.0
 30
0.0
 70
     1
  0
VERTEX
  5
3A8
  8
DATA
  6
CONTINUOUS
 62
     7
 10
141.0
 20
87.348364734199734
 30
0.0
  0
VERTEX
  5
3A9
  8
DATA
  6
CONTINUOUS
 62
     7
 10
159.0
 20
87.348364734199734
 30
0.0
  0
VERTEX
  5
3AA
  8
DATA
  6
CONTINUOUS
 62
     7
 10
159.0
 20
51.348364734199762
 30
0.0
  0
VERTEX
  5
3AB
  8
DATA
  6
CONTINUOUS
 62
     7
 10
141.0
 20
51.348364734199762
 30
0.0
  0
SEQEND
  5
3AC
  8
DATA
  6
CONTINUOUS
 62
     7
  0
LINE
  5
222
  8
DATA
  6
CONTINUOUS
 62
     7
 10
-60.119337827649773
 20
-75.000000000221007
 30
0.0
 11
-39.880662172606733
 21
-75.000000000221007
 31
0.0
  0
LINE
  5
223
  8
DATA
  6
CONTINUOUS
 62
     7
 10
-71.43000000012816
 20
105.699999999779
 30
0.0
 11
-70.000000000128139
 21
97.899999999779013
 31
0.0
  0
LINE
  5
224
  8
DATA
  6
CONTINUOUS
 62
     7
 10
-28.570000000128299
 20
105.699999999779
 30
0.0
 11
-30.000000000128249
 21
97.899999999779013
 31
0.0
  0
LINE
  5
225
  8
DATA
  6
CONTINUOUS
 62
     7
 10
-70.000000000128139
 20
97.399999999779027
 30
0.0
 11
-30.000000000128249
 21
97.399999999779027
 31
0.0
  0
LINE
  5
226
  8
DATA
  6
CONTINUOUS
 62
     7
 10
-70.000000000128139
 20
97.899999999779013
 30
0.0
 11
-70.000000000128139
 21
97.399999999779027
 31
0.0
  0
LINE
  5
227
  8
DATA
  6
CONTINUOUS
 62
     7
 10
-70.000000000128139
 20
97.399999999779027
 30
0.0
 11
-63.116867945506449
 21
-72.121709459762783
 31
0.0
  0
LINE
  5
228
  8
DATA
  6
CONTINUOUS
 62
     7
 10
-30.000000000128249
 20
97.399999999779027
 30
0.0
 11
-36.88313205475
 21
-72.121709459762783
 31
0.0
  0
LINE
  5
229
  8
DATA
  6
CONTINUOUS
 62
     7
 10
-70.000000000128196
 20
97.899999999779013
 30
0.0
 11
-30.000000000128249
 21
97.899999999779013
 31
0.0
  0
ARC
  5
22A
  8
DATA
  6
CONTINUOUS
 62
     7
 10
-602.82770270283049
 20
-66.92398648670752
 30
0.0
 40
549.88701080640351
 50
359.15848507628129
 51
6.0466393287183546
  0
ARC
  5
22B
  8
DATA
  6
CONTINUOUS
 62
     7
 10
502.82770270257311
 20
-66.92398648670752
 30
0.0
 40
549.88701080640237
 50
173.95336067128159
 51
180.84151492371879
  0
LINE
  5
22C
  8
DATA
  6
CONTINUOUS
 62
     7
 10
-56.000000000128253
 20
-9.0000000002210356
 30
0.0
 11
-44.000000000128203
 21
-9.0000000002210356
 31
0.0
  0
LINE
  5
22D
  8
DATA
  6
CONTINUOUS
 62
     7
 10
-56.000000000128423
 20
-9.0000000002210356
 30
0.0
 11
-44.000000000128203
 21
-9.0000000002210356
 31
0.0
  0
ARC
  5
22E
  8
DATA
  6
CONTINUOUS
 62
     7
 10
211.798657717993
 20
37.583892617228642
 30
0.0
 40
271.82012458061592
 50
171.8410456250472
 51
189.86792786436709
  0
ARC
  5
22F
  8
DATA
  6
CONTINUOUS
 62
     7
 10
-311.79865771825018
 20
37.583892617228642
 30
0.0
 40
271.82012458061661
 50
350.13207213563288
 51
8.1589543749641944
  0
ARC
  5
230
  8
DATA
  6
CONTINUOUS
 62
     7
 10
-50.000000000128253
 20
45.924278414941959
 30
0.0
 40
32.075721584837048
 50
79.093132863205739
 51
100.9068671368243
  0
ARC
  5
231
  8
DATA
  6
CONTINUOUS
 62
     7
 10
-55.785328088854342
 20
75.9476814421174
 30
0.0
 40
1.499999999999988
 50
100.90686713682319
 51
171.84104562504569
  0
ARC
  5
232
  8
DATA
  6
CONTINUOUS
 62
     7
 10
-44.214671911409198
 20
75.947681442166143
 30
0.0
 40
1.500000000000016
 50
8.1589543749639368
 51
79.093132863205525
  0
LINE
  5
233
  8
DATA
  6
CONTINUOUS
 62
     7
 10
-54.695906214159777
 20
46.960192238601159
 30
0.0
 11
-54.695906214159777
 21
60.942510559148211
 31
0.0
  0
ARC
  5
234
  8
DATA
  6
CONTINUOUS
 62
     7
 10
-52.695906214159791
 20
46.960192238601159
 30
0.0
 40
2.0
 50
180.0
 51
270.0
  0
ARC
  5
235
  8
DATA
  6
CONTINUOUS
 62
     7
 10
-47.304093786096708
 20
46.960192238601159
 30
0.0
 40
2.000000000000056
 50
270.0
 51
0.0
  0
LINE
  5
236
  8
DATA
  6
CONTINUOUS
 62
     7
 10
-45.304093786096708
 20
60.942510559148211
 30
0.0
 11
-45.304093786096708
 21
46.960192238601159
 31
0.0
  0
ARC
  5
237
  8
DATA
  6
CONTINUOUS
 62
     7
 10
-47.304093786096708
 20
60.942510559148211
 30
0.0
 40
2.0
 50
0.0
 51
90.0
  0
ARC
  5
238
  8
DATA
  6
CONTINUOUS
 62
     7
 10
-52.695906214159791
 20
60.942510559148211
 30
0.0
 40
2.0
 50
90.0
 51
180.0
  0
POLYLINE
  5
239
  8
DATA
  6
CONTINUOUS
 62
     7
 66
     1
 10
0.0
 20
0.0
 30
0.0
 70
   129
  0
VERTEX
  5
3AD
  8
DATA
  6
CONTINUOUS
 62
     7
 10
-52.400000000128287
 20
21.499999999778929
 30
0.0
 42
-0.4142135623730951
  0
VERTEX
  5
3AE
  8
DATA
  6
CONTINUOUS
 62
     7
 10
-50.90000000012828
 20
22.999999999778929
 30
0.0
  0
VERTEX
  5
3AF
  8
DATA
  6
CONTINUOUS
 62
     7
 10
-49.100000000128212
 20
22.999999999778929
 30
0.0
 42
-0.4142135623730951
  0
VERTEX
  5
3B0
  8
DATA
  6
CONTINUOUS
 62
     7
 10
-47.600000000128219
 20
21.499999999778929
 30
0.0
  0
VERTEX
  5
3B1
  8
DATA
  6
CONTINUOUS
 62
     7
 10
-47.600000000128219
 20
2.4999999997789639
 30
0.0
 42
-0.4142135623731006
  0
VERTEX
  5
3B2
  8
DATA
  6
CONTINUOUS
 62
     7
 10
-49.100000000128212
 20
0.9999999997789643
 30
0.0
  0
VERTEX
  5
3B3
  8
DATA
  6
CONTINUOUS
 62
     7
 10
-50.90000000012828
 20
0.9999999997789643
 30
0.0
 42
-0.4142135623730951
  0
VERTEX
  5
3B4
  8
DATA
  6
CONTINUOUS
 62
     7
 10
-52.400000000128287
 20
2.4999999997789639
 30
0.0
  0
SEQEND
  5
3B5
  8
DATA
  6
CONTINUOUS
 62
     7
  0
POLYLINE
  5
243
  8
DATA
  6
CONTINUOUS
 62
     7
 66
     1
 10
0.0
 20
0.0
 30
0.0
 70
   129
  0
VERTEX
  5
3B6
  8
DATA
  6
CONTINUOUS
 62
     7
 10
-52.250000000128253
 20
17.36930862825033
 30
0.0
 42
-0.4142135623730951
  0
VERTEX
  5
3B7
  8
DATA
  6
CONTINUOUS
 62
     7
 10
-51.250000000128253
 20
18.369308628250341
 30
0.0
  0
VERTEX
  5
3B8
  8
DATA
  6
CONTINUOUS
 62
     7
 10
-48.750000000128253
 20
18.369308628250341
 30
0.0
 42
-0.4142135623730951
  0
VERTEX
  5
3B9
  8
DATA
  6
CONTINUOUS
 62
     7
 10
-47.750000000128253
 20
17.36930862825033
 30
0.0
  0
VERTEX
  5
3BA
  8
DATA
  6
CONTINUOUS
 62
     7
 10
-47.750000000128253
 20
2.3693086282504501
 30
0.0
 42
-0.4142135623730951
  0
VERTEX
  5
3BB
  8
DATA
  6
CONTINUOUS
 62
     7
 10
-48.750000000128253
 20
1.3693086282504501
 30
0.0
  0
VERTEX
  5
3BC
  8
DATA
  6
CONTINUOUS
 62
     7
 10
-51.250000000128253
 20
1.3693086282504501
 30
0.0
 42
-0.4142135623730951
  0
VERTEX
  5
3BD
  8
DATA
  6
CONTINUOUS
 62
     7
 10
-52.250000000128253
 20
2.3693086282504501
 30
0.0
  0
SEQEND
  5
3BE
  8
DATA
  6
CONTINUOUS
 62
     7
  0
TEXT
  5
24D
  8
DATA
 62
     7
 10
-53.625541082461503
 20
2.3234120208412041
 30
0.0
 40
1.563687499999999
  1
OFF
 50
90.0
 41
0.7
 11
-55.189228582461503
 21
2.3234120208412041
 31
0.0
 73
     3
  0
TEXT
  5
24E
  8
DATA
 62
     7
 10
-53.625541082461503
 20
19.33439809345721
 30
0.0
 40
1.563687499999999
  1
ON
 50
90.0
 41
0.7
 11
-55.189228582461503
 21
19.33439809345721
 31
0.0
 73
     3
  0
TEXT
  5
24F
  8
DATA
 62
     7
 10
-53.625541082461503
 20
8.5441181990963742
 30
0.0
 40
1.563687499999999
  1
MUTE/PRG
 50
90.0
 41
0.7
 11
-55.189228582461503
 21
8.5441181990963742
 31
0.0
 73
     3
  0
POLYLINE
  5
250
  8
DATA
  6
CONTINUOUS
 62
     7
 66
     1
 10
0.0
 20
0.0
 30
0.0
 70
     1
  0
VERTEX
  5
3BF
  8
DATA
  6
CONTINUOUS
 62
     7
 10
-52.000000000128253
 20
10.254308628250349
 30
0.0
  0
VERTEX
  5
3C0
  8
DATA
  6
CONTINUOUS
 62
     7
 10
-48.00000000012826
 20
10.254308628250349
 30
0.0
  0
VERTEX
  5
3C1
  8
DATA
  6
CONTINUOUS
 62
     7
 10
-48.00000000012826
 20
9.4843086282503748
 30
0.0
  0
VERTEX
  5
3C2
  8
DATA
  6
CONTINUOUS
 62
     7
 10
-52.000000000128253
 20
9.4843086282503748
 30
0.0
  0
SEQEND
  5
3C3
  8
DATA
  6
CONTINUOUS
 62
     7
  0
POLYLINE
  5
257
  8
DATA
  6
CONTINUOUS
 62
     7
 66
     1
 10
0.0
 20
0.0
 30
0.0
 70
     1
  0
VERTEX
  5
3C4
  8
DATA
  6
CONTINUOUS
 62
     7
 10
-52.000000000128253
 20
12.954308628250359
 30
0.0
  0
VERTEX
  5
3C5
  8
DATA
  6
CONTINUOUS
 62
     7
 10
-48.00000000012826
 20
12.954308628250359
 30
0.0
  0
VERTEX
  5
3C6
  8
DATA
  6
CONTINUOUS
 62
     7
 10
-48.00000000012826
 20
12.18430862825036
 30
0.0
  0
VERTEX
  5
3C7
  8
DATA
  6
CONTINUOUS
 62
     7
 10
-52.000000000128253
 20
12.18430862825036
 30
0.0
  0
SEQEND
  5
3C8
  8
DATA
  6
CONTINUOUS
 62
     7
  0
POLYLINE
  5
25E
  8
DATA
  6
CONTINUOUS
 62
     7
 66
     1
 10
0.0
 20
0.0
 30
0.0
 70
     1
  0
VERTEX
  5
3C9
  8
DATA
  6
CONTINUOUS
 62
     7
 10
-52.000000000128253
 20
15.654308628250361
 30
0.0
  0
VERTEX
  5
3CA
  8
DATA
  6
CONTINUOUS
 62
     7
 10
-48.00000000012826
 20
15.654308628250361
 30
0.0
  0
VERTEX
  5
3CB
  8
DATA
  6
CONTINUOUS
 62
     7
 10
-48.00000000012826
 20
14.88430862825035
 30
0.0
  0
VERTEX
  5
3CC
  8
DATA
  6
CONTINUOUS
 62
     7
 10
-52.000000000128253
 20
14.88430862825035
 30
0.0
  0
SEQEND
  5
3CD
  8
DATA
  6
CONTINUOUS
 62
     7
  0
POLYLINE
  5
265
  8
DATA
  6
CONTINUOUS
 62
     7
 66
     1
 10
0.0
 20
0.0
 30
0.0
 70
     1
  0
VERTEX
  5
3CE
  8
DATA
  6
CONTINUOUS
 62
     7
 10
-52.000000000128253
 20
7.5543086282503671
 30
0.0
  0
VERTEX
  5
3CF
  8
DATA
  6
CONTINUOUS
 62
     7
 10
-48.00000000012826
 20
7.5543086282503671
 30
0.0
  0
VERTEX
  5
3D0
  8
DATA
  6
CONTINUOUS
 62
     7
 10
-48.00000000012826
 20
6.7843086282503569
 30
0.0
  0
VERTEX
  5
3D1
  8
DATA
  6
CONTINUOUS
 62
     7
 10
-52.000000000128253
 20
6.7843086282503569
 30
0.0
  0
SEQEND
  5
3D2
  8
DATA
  6
CONTINUOUS
 62
     7
  0
POLYLINE
  5
26C
  8
DATA
  6
CONTINUOUS
 62
     7
 66
     1
 10
0.0
 20
0.0
 30
0.0
 70
     1
  0
VERTEX
  5
3D3
  8
DATA
  6
CONTINUOUS
 62
     7
 10
-52.000000000128253
 20
4.8543086282504069
 30
0.0
  0
VERTEX
  5
3D4
  8
DATA
  6
CONTINUOUS
 62
     7
 10
-48.00000000012826
 20
4.8543086282504069
 30
0.0
  0
VERTEX
  5
3D5
  8
DATA
  6
CONTINUOUS
 62
     7
 10
-48.00000000012826
 20
4.0843086282503966
 30
0.0
  0
VERTEX
  5
3D6
  8
DATA
  6
CONTINUOUS
 62
     7
 10
-52.000000000128253
 20
4.0843086282503966
 30
0.0
  0
SEQEND
  5
3D7
  8
DATA
  6
CONTINUOUS
 62
     7
  0
ARC
  5
273
  8
DATA
  6
CONTINUOUS
 62
     7
 10
-60.119337827649773
 20
-72.000000000221036
 30
0.0
 40
2.9999999999999751
 50
182.3251175730355
 51
270.0
  0
ARC
  5
274
  8
DATA
  6
CONTINUOUS
 62
     7
 10
-39.880662172606733
 20
-72.000000000221064
 30
0.0
 40
2.9999999999999711
 50
270.0
 51
357.6748824269651
  0
CIRCLE
  5
275
  8
DATA
  6
CONTINUOUS
 62
     7
 10
-50.000000000128253
 20
-149.99999999960141
 30
0.0
 40
25.500000000000011
  0
CIRCLE
  5
276
  8
DATA
  6
CONTINUOUS
 62
     7
 10
-50.000000000128253
 20
-149.99999999960141
 30
0.0
 40
24.000000000000011
  0
ARC
  5
277
  8
DATA
  6
CONTINUOUS
 62
     7
 10
-61.7134835312117
 20
-149.99999999960141
 30
0.0
 40
1.2999999999999561
 50
151.51536460487301
 51
208.48463539513821
  0
ARC
  5
278
  8
DATA
  6
CONTINUOUS
 62
     7
 10
-49.617823654425479
 20
-136.79950555728939
 30
0.0
 40
19.738990344454621
 50
237.4611176406348
 51
268.890598780804
  0
ARC
  5
279
  8
DATA
  6
CONTINUOUS
 62
     7
 10
-52.055491447563391
 20
-143.20887167842079
 30
0.0
 40
13.09878731158093
 50
214.45698502568681
 51
231.35905815259039
  0
ARC
  5
27A
  8
DATA
  6
CONTINUOUS
 62
     7
 10
-61.7134835312117
 20
-149.99999999960141
 30
0.0
 40
1.2999999999999641
 50
151.5153646048617
 51
208.48463539513821
  0
ARC
  5
27B
  8
DATA
  6
CONTINUOUS
 62
     7
 10
-49.617823654425479
 20
-163.20049444191341
 30
0.0
 40
19.738990344454681
 50
91.109401219196059
 51
122.53888235936491
  0
ARC
  5
27C
  8
DATA
  6
CONTINUOUS
 62
     7
 10
-52.055491447563391
 20
-156.79112832078189
 30
0.0
 40
13.098787311580921
 50
128.64094184740949
 51
145.54301497431359
  0
ARC
  5
27D
  8
DATA
  6
CONTINUOUS
 62
     7
 10
-38.286516469044798
 20
-149.99999999960141
 30
0.0
 40
1.300000000000064
 50
331.5153646048642
 51
28.484635395135861
  0
ARC
  5
27E
  8
DATA
  6
CONTINUOUS
 62
     7
 10
-50.382176345831013
 20
-136.79950555728939
 30
0.0
 40
19.738990344454681
 50
271.10940121919612
 51
302.53888235936512
  0
ARC
  5
27F
  8
DATA
  6
CONTINUOUS
 62
     7
 10
-47.944508552693101
 20
-143.20887167842079
 30
0.0
 40
13.09878731158096
 50
308.64094184740981
 51
325.54301497431362
  0
ARC
  5
280
  8
DATA
  6
CONTINUOUS
 62
     7
 10
-38.286516469044798
 20
-149.99999999960141
 30
0.0
 40
1.3000000000000549
 50
331.5153646048754
 51
28.484635395135861
  0
ARC
  5
281
  8
DATA
  6
CONTINUOUS
 62
     7
 10
-50.382176345831013
 20
-163.20049444191341
 30
0.0
 40
19.738990344454731
 50
57.461117640635102
 51
88.890598780803927
  0
ARC
  5
282
  8
DATA
  6
CONTINUOUS
 62
     7
 10
-47.944508552693101
 20
-156.79112832078189
 30
0.0
 40
13.09878731158096
 50
34.456985025686031
 51
51.359058152590251
  0
CIRCLE
  5
283
  8
DATA
  6
CONTINUOUS
 62
     7
 10
-50.000000000128253
 20
-149.99999999960141
 30
0.0
 40
1.8000000000000109
  0
CIRCLE
  5
284
  8
DATA
  6
CONTINUOUS
 62
     7
 10
-44.500000000128253
 20
-149.99999999960141
 30
0.0
 40
1.8000000000000109
  0
CIRCLE
  5
285
  8
DATA
  6
CONTINUOUS
 62
     7
 10
-55.50000000012826
 20
-149.99999999960141
 30
0.0
 40
1.8000000000000109
  0
LINE
  5
286
  8
DATA
  6
CONTINUOUS
 62
     7
 10
-57.600000000128219
 20
-154.85255517790961
 30
0.0
 11
-52.423321996391749
 21
-161.94609299063731
 31
0.0
  0
LINE
  5
287
  8
DATA
  6
CONTINUOUS
 62
     7
 10
-42.400000000128287
 20
-154.85255517790961
 30
0.0
 11
-47.5766780038647
 21
-161.94609299063731
 31
0.0
  0
ARC
  5
288
  8
DATA
  6
CONTINUOUS
 62
     7
 10
-50.000000000128203
 20
-160.17761610291021
 30
0.0
 40
2.9999999999999858
 50
216.1209882523431
 51
323.87901174765619
  0
LINE
  5
289
  8
DATA
  6
CONTINUOUS
 62
     7
 10
-52.248861767689448
 20
-132.09999999960141
 30
0.0
 11
-47.751138232567158
 21
-132.09999999960141
 31
0.0
  0
ARC
  5
28A
  8
DATA
  6
CONTINUOUS
 62
     7
 10
-9.4199948833574467
 20
-149.8508496253518
 30
0.0
 40
38.071451339576107
 50
158.95193958913089
 51
170.7839632254605
  0
ARC
  5
28B
  8
DATA
  6
CONTINUOUS
 62
     7
 10
-90.580005116898903
 20
-149.8508496253518
 30
0.0
 40
38.071451339575937
 50
9.2160367745395089
 51
21.048060410869411
  0
ARC
  5
28C
  8
DATA
  6
CONTINUOUS
 62
     7
 10
-52.248861767689448
 20
-135.09999999960129
 30
0.0
 40
2.9999999999998859
 50
90.0
 51
201.04806041086951
  0
ARC
  5
28D
  8
DATA
  6
CONTINUOUS
 62
     7
 10
-47.751138232567158
 20
-135.09999999960141
 30
0.0
 40
2.9999999999999658
 50
338.95193958913092
 51
89.999999999999957
  0
ARC
  5
28E
  8
DATA
  6
CONTINUOUS
 62
     7
 10
-49.617823654425479
 20
-162.70049444191341
 30
0.0
 40
19.738990344454681
 50
91.109401219196059
 51
100.1077349714715
  0
ARC
  5
28F
  8
DATA
  6
CONTINUOUS
 62
     7
 10
-50.382176345831013
 20
-162.70049444191341
 30
0.0
 40
19.738990344454692
 50
79.89226502852847
 51
88.890598780803927
  0
CIRCLE
  5
290
  8
DATA
  6
CONTINUOUS
 62
     7
 10
-50.000000000128253
 20
-149.99999999960141
 30
0.0
 40
21.349999999999898
  0
LINE
  5
291
  8
DATA
  6
CONTINUOUS
 62
     7
 10
60.11933782733739
 20
-75.000000000221007
 30
0.0
 11
52.898955916289189
 21
-75.000000000221007
 31
0.0
  0
LINE
  5
292
  8
DATA
  6
CONTINUOUS
 62
     7
 10
71.429999999815891
 20
105.699999999779
 30
0.0
 11
69.999999999815813
 21
97.899999999779013
 31
0.0
  0
LINE
  5
293
  8
DATA
  6
CONTINUOUS
 62
     7
 10
28.569999999815892
 20
105.699999999779
 30
0.0
 11
29.999999999815959
 21
97.899999999779013
 31
0.0
  0
LINE
  5
294
  8
DATA
  6
CONTINUOUS
 62
     7
 10
69.999999999815813
 20
97.399999999779027
 30
0.0
 11
29.999999999815959
 21
97.399999999779027
 31
0.0
  0
LINE
  5
295
  8
DATA
  6
CONTINUOUS
 62
     7
 10
69.999999999815813
 20
97.899999999779013
 30
0.0
 11
69.999999999815813
 21
97.399999999779027
 31
0.0
  0
LINE
  5
296
  8
DATA
  6
CONTINUOUS
 62
     7
 10
69.999999999815813
 20
97.399999999779027
 30
0.0
 11
63.11686794519413
 21
-72.121709459762783
 31
0.0
  0
LINE
  5
297
  8
DATA
  6
CONTINUOUS
 62
     7
 10
29.999999999815959
 20
97.399999999779027
 30
0.0
 11
33.6420985135194
 21
7.7003166051399017
 31
0.0
  0
LINE
  5
298
  8
DATA
  6
CONTINUOUS
 62
     7
 10
33.724035524652002
 20
5.6823250738156608
 30
0.0
 11
35.314965197035932
 21
-33.500000000325571
 31
0.0
  0
LINE
  5
299
  8
DATA
  6
CONTINUOUS
 62
     7
 10
69.999999999815813
 20
97.899999999779013
 30
0.0
 11
29.999999999815959
 21
97.899999999779013
 31
0.0
  0
ARC
  5
29A
  8
DATA
  6
CONTINUOUS
 62
     7
 10
60.11933782733739
 20
-72.000000000221036
 30
0.0
 40
3.0
 50
270.0
 51
357.67488242696459
  0
LINE
  5
29B
  8
DATA
  6
CONTINUOUS
 62
     7
 10
49.898955916289182
 20
-62.000000000221057
 30
0.0
 11
49.898955916289182
 21
-72.000000000221036
 31
0.0
  0
ARC
  5
29C
  8
DATA
  6
CONTINUOUS
 62
     7
 10
67.657060285960128
 20
-34.931388703077722
 30
0.0
 40
32.37375462253263
 50
177.46587081625501
 51
236.7335043187208
  0
ARC
  5
29D
  8
DATA
  6
CONTINUOUS
 62
     7
 10
52.898955916289189
 20
-72.000000000221036
 30
0.0
 40
3.0
 50
180.0
 51
270.0
  0
ARC
  5
29E
  8
DATA
  6
CONTINUOUS
 62
     7
 10
20.938072321053038
 20
-7.7047710717261557
 30
0.0
 40
25.87384865119818
 50
7.3382238308873609
 51
61.344410001751761
  0
LINE
  5
29F
  8
DATA
  6
CONTINUOUS
 62
     7
 10
46.599999999815843
 20
-4.4000000002210404
 30
0.0
 11
46.599999999815843
 21
-59.890084827287637
 31
0.0
  0
POLYLINE
  5
2A0
  8
DATA
  6
CONTINUOUS
 62
     7
 66
     1
 10
0.0
 20
0.0
 30
0.0
  0
VERTEX
  5
3D8
  8
DATA
  6
CONTINUOUS
 62
     7
 10
36.899999999815947
 20
12.658747995543489
 30
0.0
  0
VERTEX
  5
3D9
  8
DATA
  6
CONTINUOUS
 62
     7
 10
36.399999999815947
 20
12.658747995543489
 30
0.0
  0
VERTEX
  5
3DA
  8
DATA
  6
CONTINUOUS
 62
     7
 10
36.399999999815947
 20
-1.341252004456464
 30
0.0
  0
VERTEX
  5
3DB
  8
DATA
  6
CONTINUOUS
 62
     7
 10
37.399999999815947
 20
-1.341252004456464
 30
0.0
  0
VERTEX
  5
3DC
  8
DATA
  6
CONTINUOUS
 62
     7
 10
37.399999999815947
 20
12.25671637596397
 30
0.0
  0
SEQEND
  5
3DD
  8
DATA
  6
CONTINUOUS
 62
     7
  0
ARC
  5
2A8
  8
DATA
  6
CONTINUOUS
 62
     7
 10
33.247250550690538
 20
6.673625275216267
 30
0.0
 40
1.0999999999999339
 50
295.68612641322892
 51
68.964108732819398
  0
ARC
  5
2A9
  8
DATA
  6
CONTINUOUS
 62
     7
 10
-482.76090676050887
 20
-66.92398648670752
 30
0.0
 40
549.88701080640305
 50
4.8011487033920153
 51
6.0466393287183751
  0
ARC
  5
2AA
  8
DATA
  6
CONTINUOUS
 62
     7
 10
331.86545366031311
 20
37.583892617228642
 30
0.0
 40
271.82012458061462
 50
171.84104562503569
 51
189.86792786436709
  0
ARC
  5
2AB
  8
DATA
  6
CONTINUOUS
 62
     7
 10
64.281467853474155
 20
75.947681442166143
 30
0.0
 40
1.499999999999988
 50
100.9068671367945
 51
171.84104562503569
  0
LINE
  5
2AC
  8
DATA
  6
CONTINUOUS
 62
     7
 10
63.997648153290797
 20
77.420585504821915
 30
0.0
 11
69.180226750728679
 21
77.210155979403893
 31
0.0
  0
LINE
  5
2AD
  8
DATA
  6
CONTINUOUS
 62
     7
 10
139.8806621725048
 20
-75.000000000221007
 30
0.0
 11
160.11933782754781
 21
-75.000000000221007
 31
0.0
  0
LINE
  5
2AE
  8
DATA
  6
CONTINUOUS
 62
     7
 10
128.5700000000262
 20
105.699999999779
 30
0.0
 11
130.00000000002629
 21
97.899999999779013
 31
0.0
  0
LINE
  5
2AF
  8
DATA
  6
CONTINUOUS
 62
     7
 10
171.4300000000263
 20
105.699999999779
 30
0.0
 11
170.0000000000262
 21
97.899999999779013
 31
0.0
  0
LINE
  5
2B0
  8
DATA
  6
CONTINUOUS
 62
     7
 10
130.00000000002629
 20
97.399999999779027
 30
0.0
 11
170.0000000000262
 21
97.399999999779027
 31
0.0
  0
LINE
  5
2B1
  8
DATA
  6
CONTINUOUS
 62
     7
 10
130.00000000002629
 20
97.899999999779013
 30
0.0
 11
130.00000000002629
 21
97.399999999779027
 31
0.0
  0
LINE
  5
2B2
  8
DATA
  6
CONTINUOUS
 62
     7
 10
130.00000000002629
 20
97.399999999779027
 30
0.0
 11
136.88313205464809
 21
-72.121709459762783
 31
0.0
  0
LINE
  5
2B3
  8
DATA
  6
CONTINUOUS
 62
     7
 10
170.0000000000262
 20
97.399999999779027
 30
0.0
 11
163.11686794540461
 21
-72.121709459762783
 31
0.0
  0
LINE
  5
2B4
  8
DATA
  6
CONTINUOUS
 62
     7
 10
130.00000000002629
 20
97.899999999779013
 30
0.0
 11
170.0000000000262
 21
97.899999999779013
 31
0.0
  0
ARC
  5
2B5
  8
DATA
  6
CONTINUOUS
 62
     7
 10
139.8806621725048
 20
-72.000000000221036
 30
0.0
 40
2.9999999999999889
 50
182.3251175730355
 51
270.0
  0
ARC
  5
2B6
  8
DATA
  6
CONTINUOUS
 62
     7
 10
160.11933782754781
 20
-72.000000000221064
 30
0.0
 40
2.9999999999999711
 50
270.0
 51
357.6748824269651
  0
ARC
  5
2B7
  8
DATA
  6
CONTINUOUS
 62
     7
 10
142.29969290443739
 20
12.07601627350367
 30
0.0
 40
5.9450211259416719
 50
94.821532621579024
 51
171.05876097394901
  0
ARC
  5
2B8
  8
DATA
  6
CONTINUOUS
 62
     7
 10
169.00701627561429
 20
-38.980968873681057
 30
0.0
 40
30.590539727920799
 50
187.92747296595289
 51
219.78592767042679
  0
LINE
  5
2B9
  8
DATA
  6
CONTINUOUS
 62
     7
 10
138.70881670536281
 20
-43.200000000220967
 30
0.0
 11
136.42691415315861
 21
12.99999999977892
 31
0.0
  0
ARC
  5
2BA
  8
DATA
  6
CONTINUOUS
 62
     7
 10
157.7003070956153
 20
12.07601627350367
 30
0.0
 40
5.9450211259416452
 50
8.9412390260510772
 51
85.178467378420976
  0
LINE
  5
2BB
  8
DATA
  6
CONTINUOUS
 62
     7
 10
161.29118329468989
 20
-43.200000000220967
 30
0.0
 11
163.573085846894
 21
12.99999999977892
 31
0.0
  0
LINE
  5
2BC
  8
DATA
  6
CONTINUOUS
 62
     7
 10
141.8000000000263
 20
17.999999999778922
 30
0.0
 11
158.20000000002639
 21
17.999999999778922
 31
0.0
  0
ARC
  5
2BD
  8
DATA
  6
CONTINUOUS
 62
     7
 10
149.9499289634432
 20
-54.254083367545142
 30
0.0
 40
6.262101137354664
 50
270.4581353094909
 51
316.60248975396189
  0
ARC
  5
2BE
  8
DATA
  6
CONTINUOUS
 62
     7
 10
150.05007103660949
 20
-54.254083367545142
 30
0.0
 40
6.2621011373546649
 50
223.39751024603811
 51
269.54186469051001
  0
ARC
  5
2BF
  8
DATA
  6
CONTINUOUS
 62
     7
 10
130.99298372443829
 20
-38.980968873681057
 30
0.0
 40
30.590539727921001
 50
320.2140723295733
 51
352.07252703404708
  0
LINE
  5
2C0
  8
DATA
  6
CONTINUOUS
 62
     7
 10
144.05000000002639
 20
-1.341252004456464
 30
0.0
 11
145.05000000002639
 21
-1.341252004456464
 31
0.0
  0
LINE
  5
2C1
  8
DATA
  6
CONTINUOUS
 62
     7
 10
154.95000000002631
 20
-1.341252004456464
 30
0.0
 11
155.95000000002639
 21
-1.341252004456464
 31
0.0
  0
LINE
  5
2C2
  8
DATA
  6
CONTINUOUS
 62
     7
 10
145.05000000002639
 20
-1.341252004456464
 30
0.0
 11
145.05000000002639
 21
17.999999999778922
 31
0.0
  0
LINE
  5
2C3
  8
DATA
  6
CONTINUOUS
 62
     7
 10
154.95000000002631
 20
17.999999999778922
 30
0.0
 11
154.95000000002631
 21
-1.341252004456464
 31
0.0
  0
LINE
  5
2C4
  8
DATA
  6
CONTINUOUS
 62
     7
 10
144.05000000002639
 20
-1.341252004456464
 30
0.0
 11
144.05000000002639
 21
17.999999999778922
 31
0.0
  0
LINE
  5
2C5
  8
DATA
  6
CONTINUOUS
 62
     7
 10
155.95000000002639
 20
-1.341252004456464
 30
0.0
 11
155.95000000002639
 21
17.999999999778922
 31
0.0
  0
CIRCLE
  5
2C6
  8
DATA
  6
CONTINUOUS
 62
     7
 10
150.0000000000264
 20
8.1999999997789246
 30
0.0
 40
3.749999999999972
  0
CIRCLE
  5
2C7
  8
DATA
  6
CONTINUOUS
 62
     7
 10
-50.043742771729526
 20
86.920142904444944
 30
0.0
 40
6.5
  0
CIRCLE
  5
2C8
  8
DATA
  6
CONTINUOUS
 62
     7
 10
-50.000000000128253
 20
-30.000000000220918
 30
0.0
 40
0.4000000000000341
  0
CIRCLE
  5
2C9
  8
DATA
  6
CONTINUOUS
 62
     7
 10
-52.000000000128253
 20
-30.000000000220918
 30
0.0
 40
0.4000000000000341
  0
CIRCLE
  5
2CA
  8
DATA
  6
CONTINUOUS
 62
     7
 10
-48.00000000012826
 20
-30.000000000220918
 30
0.0
 40
0.4000000000000341
  0
TEXT
  5
2CB
  8
DATA
 62
     7
 10
-52.267855923275931
 20
46.529984874595442
 30
0.0
 40
1.563687499999999
  1
NAME
 50
90.0
 41
0.7
 11
-53.831543423275932
 21
46.529984874595442
 31
0.0
 73
     3
  0
TEXT
  5
2CC
  8
DATA
 62
     7
 10
-52.267855923275931
 20
59.015353749926263
 30
0.0
 40
1.563687499999999
  1
CH
 50
90.0
 41
0.7
 11
-53.831543423275932
 21
59.015353749926263
 31
0.0
 73
     3
  0
TEXT
  5
2CD
  8
DATA
 62
     7
 10
-52.267855923275931
 20
52.901544959426772
 30
0.0
 40
1.563687499999999
  1
GRP
 50
90.0
 41
0.7
 11
-53.831543423275932
 21
52.901544959426772
 31
0.0
 73
     3
  0
CIRCLE
  5
2CE
  8
DATA
  6
CONTINUOUS
 62
     7
 10
-50.000000000128253
 20
212.49999999977851
 30
0.0
 40
25.500000000000011
  0
CIRCLE
  5
2CF
  8
DATA
  6
CONTINUOUS
 62
     7
 10
-50.000000000128253
 20
212.49999999977851
 30
0.0
 40
15.50000000000002
  0
CIRCLE
  5
2D0
  8
DATA
  6
CONTINUOUS
 62
     7
 10
-50.000000000128253
 20
212.49999999977851
 30
0.0
 40
24.000000000000011
  0
LINE
  5
2D1
  8
DATA
  6
CONTINUOUS
 62
     7
 10
-75.500000000128082
 20
123.49999999977879
 30
0.0
 11
-24.500000000128249
 21
123.49999999977879
 31
0.0
  0
LINE
  5
2D2
  8
DATA
  6
CONTINUOUS
 62
     7
 10
-63.845652352026612
 20
161.99999999977859
 30
0.0
 11
-36.15434764822983
 21
161.99999999977859
 31
0.0
  0
LINE
  5
2D3
  8
DATA
  6
CONTINUOUS
 62
     7
 10
-75.500000000128082
 20
121.99999999977879
 30
0.0
 11
-24.500000000128249
 21
121.99999999977879
 31
0.0
  0
LINE
  5
2D4
  8
DATA
  6
CONTINUOUS
 62
     7
 10
-75.500000000128082
 20
121.99999999977879
 30
0.0
 11
-75.500000000128082
 21
123.49999999977879
 31
0.0
  0
LINE
  5
2D5
  8
DATA
  6
CONTINUOUS
 62
     7
 10
-24.500000000128249
 20
121.99999999977879
 30
0.0
 11
-24.500000000128249
 21
123.49999999977879
 31
0.0
  0
LINE
  5
2D6
  8
DATA
  6
CONTINUOUS
 62
     7
 10
-65.29562795636032
 20
160.884149380667
 30
0.0
 11
-75.200000000128128
 21
123.49999999977879
 31
0.0
  0
ARC
  5
2D7
  8
DATA
  6
CONTINUOUS
 62
     7
 10
-63.845652352026612
 20
160.49999999977859
 30
0.0
 40
1.5
 50
90.0
 51
165.16124937459671
  0
LINE
  5
2D8
  8
DATA
  6
CONTINUOUS
 62
     7
 10
-34.7043720438961
 20
160.884149380667
 30
0.0
 11
-24.800000000128311
 21
123.49999999977879
 31
0.0
  0
LINE
  5
2D9
  8
DATA
  6
CONTINUOUS
 62
     7
 10
-74.000000000128082
 20
113.49999999977889
 30
0.0
 11
-26.000000000128239
 21
113.49999999977889
 31
0.0
  0
LINE
  5
2DA
  8
DATA
  6
CONTINUOUS
 62
     7
 10
-74.000000000128082
 20
113.49999999977889
 30
0.0
 11
-75.500000000128082
 21
121.99999999977879
 31
0.0
  0
LINE
  5
2DB
  8
DATA
  6
CONTINUOUS
 62
     7
 10
-26.000000000128239
 20
113.49999999977889
 30
0.0
 11
-24.500000000128249
 21
121.99999999977879
 31
0.0
  0
LINE
  5
2DC
  8
DATA
  6
CONTINUOUS
 62
     7
 10
-73.500000000128139
 20
113.49999999977889
 30
0.0
 11
-73.578787878916003
 21
113.421212120991
 31
0.0
  0
LINE
  5
2DD
  8
DATA
  6
CONTINUOUS
 62
     7
 10
-71.500000000128139
 20
105.699999999779
 30
0.0
 11
-28.500000000128249
 21
105.699999999779
 31
0.0
  0
LINE
  5
2DE
  8
DATA
  6
CONTINUOUS
 62
     7
 10
-73.600000000128091
 20
113.49999999977889
 30
0.0
 11
-71.500000000128139
 21
105.699999999779
 31
0.0
  0
LINE
  5
2DF
  8
DATA
  6
CONTINUOUS
 62
     7
 10
-26.40000000012822
 20
113.49999999977889
 30
0.0
 11
-28.500000000128249
 21
105.699999999779
 31
0.0
  0
LINE
  5
2E0
  8
DATA
  6
CONTINUOUS
 62
     7
 10
75.499999999815842
 20
123.49999999977879
 30
0.0
 11
24.499999999815959
 21
123.49999999977879
 31
0.0
  0
LINE
  5
2E1
  8
DATA
  6
CONTINUOUS
 62
     7
 10
73.999999999815842
 20
113.49999999977889
 30
0.0
 11
25.999999999815959
 21
113.49999999977889
 31
0.0
  0
LINE
  5
2E2
  8
DATA
  6
CONTINUOUS
 62
     7
 10
75.499999999815842
 20
121.99999999977879
 30
0.0
 11
24.499999999815959
 21
121.99999999977879
 31
0.0
  0
LINE
  5
2E3
  8
DATA
  6
CONTINUOUS
 62
     7
 10
73.999999999815842
 20
113.49999999977889
 30
0.0
 11
75.499999999815842
 21
121.99999999977879
 31
0.0
  0
LINE
  5
2E4
  8
DATA
  6
CONTINUOUS
 62
     7
 10
25.999999999815959
 20
113.49999999977889
 30
0.0
 11
24.499999999815959
 21
121.99999999977879
 31
0.0
  0
LINE
  5
2E5
  8
DATA
  6
CONTINUOUS
 62
     7
 10
75.499999999815842
 20
121.99999999977879
 30
0.0
 11
75.499999999815842
 21
123.49999999977879
 31
0.0
  0
LINE
  5
2E6
  8
DATA
  6
CONTINUOUS
 62
     7
 10
24.499999999815959
 20
121.99999999977879
 30
0.0
 11
24.499999999815959
 21
123.49999999977879
 31
0.0
  0
LINE
  5
2E7
  8
DATA
  6
CONTINUOUS
 62
     7
 10
124.5000000000263
 20
123.49999999977879
 30
0.0
 11
175.5000000000262
 21
123.49999999977879
 31
0.0
  0
LINE
  5
2E8
  8
DATA
  6
CONTINUOUS
 62
     7
 10
126.0000000000263
 20
113.49999999977889
 30
0.0
 11
174.00000000002629
 21
113.49999999977889
 31
0.0
  0
LINE
  5
2E9
  8
DATA
  6
CONTINUOUS
 62
     7
 10
124.5000000000263
 20
121.99999999977879
 30
0.0
 11
175.5000000000262
 21
121.99999999977879
 31
0.0
  0
LINE
  5
2EA
  8
DATA
  6
CONTINUOUS
 62
     7
 10
126.0000000000263
 20
113.49999999977889
 30
0.0
 11
124.5000000000263
 21
121.99999999977879
 31
0.0
  0
LINE
  5
2EB
  8
DATA
  6
CONTINUOUS
 62
     7
 10
174.00000000002629
 20
113.49999999977889
 30
0.0
 11
175.5000000000262
 21
121.99999999977879
 31
0.0
  0
LINE
  5
2EC
  8
DATA
  6
CONTINUOUS
 62
     7
 10
124.5000000000263
 20
121.99999999977879
 30
0.0
 11
124.5000000000263
 21
123.49999999977879
 31
0.0
  0
LINE
  5
2ED
  8
DATA
  6
CONTINUOUS
 62
     7
 10
175.5000000000262
 20
121.99999999977879
 30
0.0
 11
175.5000000000262
 21
123.49999999977879
 31
0.0
  0
LINE
  5
2EE
  8
DATA
  6
CONTINUOUS
 62
     7
 10
73.499999999815842
 20
113.49999999977889
 30
0.0
 11
73.578787878603762
 21
113.421212120991
 31
0.0
  0
LINE
  5
2EF
  8
DATA
  6
CONTINUOUS
 62
     7
 10
126.5000000000263
 20
113.49999999977889
 30
0.0
 11
126.4212121212384
 21
113.421212120991
 31
0.0
  0
LINE
  5
2F0
  8
DATA
  6
CONTINUOUS
 62
     7
 10
128.50000000002629
 20
105.699999999779
 30
0.0
 11
171.5000000000262
 21
105.699999999779
 31
0.0
  0
LINE
  5
2F1
  8
DATA
  6
CONTINUOUS
 62
     7
 10
134.70437204379419
 20
160.884149380667
 30
0.0
 11
124.8000000000262
 21
123.49999999977879
 31
0.0
  0
LINE
  5
2F2
  8
DATA
  6
CONTINUOUS
 62
     7
 10
165.29562795625839
 20
160.884149380667
 30
0.0
 11
175.20000000002611
 21
123.49999999977879
 31
0.0
  0
LINE
  5
2F3
  8
DATA
  6
CONTINUOUS
 62
     7
 10
126.4000000000263
 20
113.49999999977889
 30
0.0
 11
128.50000000002629
 21
105.699999999779
 31
0.0
  0
LINE
  5
2F4
  8
DATA
  6
CONTINUOUS
 62
     7
 10
173.6000000000262
 20
113.49999999977889
 30
0.0
 11
171.5000000000262
 21
105.699999999779
 31
0.0
  0
LINE
  5
2F5
  8
DATA
  6
CONTINUOUS
 62
     7
 10
136.1543476481279
 20
161.99999999977859
 30
0.0
 11
163.84565235192471
 21
161.99999999977859
 31
0.0
  0
ARC
  5
2F6
  8
DATA
  6
CONTINUOUS
 62
     7
 10
136.1543476481279
 20
160.49999999977859
 30
0.0
 40
1.5
 50
90.0
 51
165.16124937459679
  0
ARC
  5
2F7
  8
DATA
  6
CONTINUOUS
 62
     7
 10
163.84565235192471
 20
160.49999999977859
 30
0.0
 40
1.499999999999948
 50
14.83875062540327
 51
90.0
  0
LINE
  5
2F8
  8
DATA
  6
CONTINUOUS
 62
     7
 10
71.499999999815827
 20
105.699999999779
 30
0.0
 11
28.499999999815959
 21
105.699999999779
 31
0.0
  0
LINE
  5
2F9
  8
DATA
  6
CONTINUOUS
 62
     7
 10
73.59999999981585
 20
113.49999999977889
 30
0.0
 11
71.499999999815827
 21
105.699999999779
 31
0.0
  0
LINE
  5
2FA
  8
DATA
  6
CONTINUOUS
 62
     7
 10
26.399999999815929
 20
113.49999999977889
 30
0.0
 11
28.499999999815959
 21
105.699999999779
 31
0.0
  0
LINE
  5
2FB
  8
DATA
  6
CONTINUOUS
 62
     7
 10
65.295627956048051
 20
160.884149380667
 30
0.0
 11
75.199999999815873
 21
123.49999999977879
 31
0.0
  0
LINE
  5
2FC
  8
DATA
  6
CONTINUOUS
 62
     7
 10
34.704372043583831
 20
160.884149380667
 30
0.0
 11
24.79999999981592
 21
123.49999999977879
 31
0.0
  0
LINE
  5
2FD
  8
DATA
  6
CONTINUOUS
 62
     7
 10
63.845652351714293
 20
161.99999999977859
 30
0.0
 11
36.154347647917596
 21
161.99999999977859
 31
0.0
  0
ARC
  5
2FE
  8
DATA
  6
CONTINUOUS
 62
     7
 10
63.845652351714293
 20
160.49999999977859
 30
0.0
 40
1.499999999999996
 50
14.838750625402779
 51
90.0
  0
ARC
  5
2FF
  8
DATA
  6
CONTINUOUS
 62
     7
 10
36.154347647917483
 20
160.49999999977859
 30
0.0
 40
1.5
 50
89.999999999995637
 51
165.1612493745962
  0
ENDSEC
  0
EOF
