  0
SECTION
  2
HEADER
  9
$ACADVER
  1
AC1009
  9
$INSBASE
 10
0.0
 20
0.0
 30
0.0
  9
$EXTMIN
 10
-260.02197097989512
 20
-399.89220955822299
 30
-0.0015258207003583
  9
$EXTMAX
 10
460.0219743326561
 20
670.62804802803294
 30
0.0000000349246037
  9
$LIMMIN
 10
0.0
 20
0.0
  9
$LIMMAX
 10
0.0
 20
0.0
  9
$ORTHOMODE
 70
     0
  9
$REGENMODE
 70
     1
  9
$FILLMODE
 70
     1
  9
$QTEXTMODE
 70
     0
  9
$MIRRTEXT
 70
     1
  9
$DRAGMODE
 70
     2
  9
$LTSCALE
 40
20.32
  9
$OSMODE
 70
   231
  9
$ATTMODE
 70
     1
  9
$TEXTSIZE
 40
0.0
  9
$TRACEWID
 40
1.0
  9
$TEXTSTYLE
  7
STANDARD
  9
$CLAYER
  8
DATA
  9
$CELTYPE
  6
BYLAYER
  9
$CECOLOR
 62
   256
  9
$DIMSCALE
 40
1.0
  9
$DIMASZ
 40
0.18
  9
$DIMEXO
 40
0.0625
  9
$DIMDLI
 40
0.38
  9
$DIMRND
 40
0.0
  9
$DIMDLE
 40
0.0
  9
$DIMEXE
 40
0.18
  9
$DIMTP
 40
0.0
  9
$DIMTM
 40
0.0
  9
$DIMTXT
 40
0.18
  9
$DIMCEN
 40
0.09
  9
$DIMTSZ
 40
0.0
  9
$DIMTOL
 70
     0
  9
$DIMLIM
 70
     0
  9
$DIMTIH
 70
     1
  9
$DIMTOH
 70
     1
  9
$DIMSE1
 70
     0
  9
$DIMSE2
 70
     0
  9
$DIMTAD
 70
     0
  9
$DIMZIN
 70
     0
  9
$DIMBLK
  1

  9
$DIMASO
 70
     1
  9
$DIMSHO
 70
     1
  9
$DIMPOST
  1

  9
$DIMAPOST
  1

  9
$DIMALT
 70
     0
  9
$DIMALTD
 70
     2
  9
$DIMALTF
 40
25.399999999999999
  9
$DIMLFAC
 40
1.0
  9
$DIMTOFL
 70
     0
  9
$DIMTVP
 40
0.0
  9
$DIMTIX
 70
     0
  9
$DIMSOXD
 70
     0
  9
$DIMSAH
 70
     0
  9
$DIMBLK1
  1

  9
$DIMBLK2
  1

  9
$DIMSTYLE
  2
STANDARD
  9
$DIMCLRD
 70
     0
  9
$DIMCLRE
 70
     0
  9
$DIMCLRT
 70
     0
  9
$DIMTFAC
 40
1.0
  9
$DIMGAP
 40
0.09
  9
$LUNITS
 70
     2
  9
$LUPREC
 70
     4
  9
$SKETCHINC
 40
0.1
  9
$FILLETRAD
 40
0.0
  9
$AUNITS
 70
     0
  9
$AUPREC
 70
     0
  9
$MENU
  1
acad
  9
$ELEVATION
 40
0.0
  9
$PELEVATION
 40
0.0
  9
$THICKNESS
 40
0.0
  9
$LIMCHECK
 70
     0
  9
$BLIPMODE
 70
     0
  9
$CHAMFERA
 40
0.0
  9
$CHAMFERB
 40
0.0
  9
$SKPOLY
 70
     0
  9
$TDCREATE
 40
2455027.5767245372
  9
$TDUPDATE
 40
2455027.592218901
  9
$TDINDWG
 40
0.0002591435
  9
$TDUSRTIMER
 40
0.0002591435
  9
$USRTIMER
 70
     1
  9
$ANGBASE
 50
0.0
  9
$ANGDIR
 70
     0
  9
$PDMODE
 70
     1
  9
$PDSIZE
 40
-2.0
  9
$PLINEWID
 40
0.0
  9
$COORDS
 70
     0
  9
$SPLFRAME
 70
     0
  9
$SPLINETYPE
 70
     6
  9
$SPLINESEGS
 70
     8
  9
$ATTDIA
 70
     0
  9
$ATTREQ
 70
     1
  9
$HANDLING
 70
     1
  9
$HANDSEED
  5
2F5
  9
$SURFTAB1
 70
     6
  9
$SURFTAB2
 70
     6
  9
$SURFTYPE
 70
     6
  9
$SURFU
 70
     6
  9
$SURFV
 70
     6
  9
$UCSNAME
  2

  9
$UCSORG
 10
0.0
 20
0.0
 30
0.0
  9
$UCSXDIR
 10
1.0
 20
0.0
 30
0.0
  9
$UCSYDIR
 10
0.0
 20
1.0
 30
0.0
  9
$PUCSNAME
  2

  9
$PUCSORG
 10
0.0
 20
0.0
 30
0.0
  9
$PUCSXDIR
 10
1.0
 20
0.0
 30
0.0
  9
$PUCSYDIR
 10
0.0
 20
1.0
 30
0.0
  9
$USERI1
 70
     0
  9
$USERI2
 70
     0
  9
$USERI3
 70
     0
  9
$USERI4
 70
     0
  9
$USERI5
 70
     0
  9
$USERR1
 40
0.0
  9
$USERR2
 40
0.0
  9
$USERR3
 40
0.0
  9
$USERR4
 40
0.0
  9
$USERR5
 40
0.0
  9
$WORLDVIEW
 70
     1
  9
$SHADEDGE
 70
     3
  9
$SHADEDIF
 70
    70
  9
$TILEMODE
 70
     1
  9
$MAXACTVP
 70
    64
  9
$PLIMCHECK
 70
     0
  9
$PEXTMIN
 10
1.0000000000000000E+020
 20
1.0000000000000000E+020
 30
1.0000000000000000E+020
  9
$PEXTMAX
 10
-1.0000000000000000E+020
 20
-1.0000000000000000E+020
 30
-1.0000000000000000E+020
  9
$PLIMMIN
 10
0.0
 20
0.0
  9
$PLIMMAX
 10
12.0
 20
9.0
  9
$UNITMODE
 70
     0
  9
$VISRETAIN
 70
     0
  9
$PLINEGEN
 70
     1
  9
$PSLTSCALE
 70
     0
  0
ENDSEC
  0
SECTION
  2
TABLES
  0
TABLE
  2
VPORT
 70
     1
  0
VPORT
  2
*ACTIVE
 70
     0
 10
0.0
 20
0.0
 11
1.0
 21
1.0
 12
100.00000167638051
 22
135.367919234905
 13
0.0
 23
0.0
 14
1.0
 24
1.0
 15
0.0
 25
0.0
 16
0.0
 26
0.0
 36
1.0
 17
0.0
 27
0.0
 37
0.0
 40
1078.4110702957371
 41
1.964329643296433
 42
50.0
 43
0.0
 44
0.0
 50
0.0
 51
0.0
 71
     0
 72
  2000
 73
     1
 74
     1
 75
     0
 76
     0
 77
     0
 78
     0
  0
ENDTAB
  0
TABLE
  2
LTYPE
 70
    11
  0
LTYPE
  2
CONTINUOUS
 70
     0
  3
Solid line
 72
    65
 73
     0
 40
0.0
  0
LTYPE
  2
STYLE_05
 70
     0
  3

 72
    65
 73
     2
 40
0.208282470703125
 49
0.069427490234375
 49
-0.13885498046875
  0
ENDTAB
  0
TABLE
  2
LAYER
 70
     5
  0
LAYER
  2
0
 70
     0
 62
     7
  6
CONTINUOUS
  0
LAYER
  2
DATA
 70
     0
 62
     7
  6
CONTINUOUS
  0
LAYER
  2
HIBINO-BASE
 70
     0
 62
     7
  6
CONTINUOUS
  0
LAYER
  2
SPEC
 70
     0
 62
     7
  6
CONTINUOUS
  0
LAYER
  2
DIMNSIONS
 70
     0
 62
     7
  6
CONTINUOUS
  0
ENDTAB
  0
TABLE
  2
STYLE
 70
     3
  0
STYLE
  2
STANDARD
 70
     0
 40
0.0
 41
1.0
 50
0.0
 71
     0
 42
0.0
  3
txt
  4
BIGFONT.SHX
  0
ENDTAB
  0
TABLE
  2
VIEW
 70
     0
  0
ENDTAB
  0
TABLE
  2
UCS
 70
     0
  0
ENDTAB
  0
TABLE
  2
APPID
 70
     3
  0
APPID
  2
ACAD
 70
     0
  0
APPID
  2
ACADANNOTATIVE
 70
     0
  0
APPID
  2
ACAD_MLEADERVER
 70
     0
  0
ENDTAB
  0
TABLE
  2
DIMSTYLE
 70
     2
  0
DIMSTYLE
  2
STANDARD
 70
     0
  3

  4

  5

  6

  7

 40
1.0
 41
0.18
 42
0.0625
 43
0.38
 44
0.18
 45
0.0
 46
0.0
 47
0.0
 48
0.0
140
0.18
141
0.09
142
0.0
143
25.399999999999999
144
1.0
145
0.0
146
1.0
147
0.09
 71
     0
 72
     0
 73
     1
 74
     1
 75
     0
 76
     0
 77
     0
 78
     0
170
     0
171
     2
172
     0
173
     0
174
     0
175
     0
176
     0
177
     0
178
     0
  0
ENDTAB
  0
ENDSEC
  0
SECTION
  2
BLOCKS
  0
BLOCK
  8
0
  2
$MODEL_SPACE
 70
     0
 10
0.0
 20
0.0
 30
0.0
  3
$MODEL_SPACE
  1

  0
ENDBLK
  5
264
  8
0
  0
BLOCK
 67
     1
  8
0
  2
$PAPER_SPACE
 70
     0
 10
0.0
 20
0.0
 30
0.0
  3
$PAPER_SPACE
  1

  0
ENDBLK
  5
260
 67
     1
  8
0
  0
ENDSEC
  0
SECTION
  2
ENTITIES
  0
LINE
  5
2C
  8
HIBINO-BASE
  6
CONTINUOUS
 62
     7
 10
-260.0
 20
670.59544499999981
 30
0.0
 11
460.0
 21
670.59544499999981
 31
0.0
  0
LINE
  5
2D
  8
HIBINO-BASE
  6
CONTINUOUS
 62
     7
 10
460.0
 20
-369.40455500000002
 30
0.0
 11
-260.0
 21
-369.40455500000002
 31
0.0
  0
LINE
  5
2E
  8
HIBINO-BASE
  6
CONTINUOUS
 62
     7
 10
-260.0
 20
-369.40455500000002
 30
0.0
 11
-260.0
 21
670.59544499999981
 31
0.0
  0
TEXT
  5
2F
  8
HIBINO-BASE
 62
     7
 10
-231.26400000000001
 20
-395.03926619999982
 30
0.0
 40
14.40017671875
  1
Hibino Corporation
 41
0.7
 11
-231.26400000000001
 21
-380.63908948124981
 31
0.0
 73
     3
  0
LINE
  5
30
  8
HIBINO-BASE
  6
CONTINUOUS
 62
     7
 10
460.0
 20
670.59544499999981
 30
0.0
 11
460.0
 21
-369.40455500000002
 31
0.0
  0
LINE
  5
31
  8
HIBINO-BASE
  6
CONTINUOUS
 62
     7
 10
100.0
 20
-279.40455500000002
 30
0.0
 11
460.0
 21
-279.40455500000002
 31
0.0
  0
LINE
  5
32
  8
HIBINO-BASE
  6
CONTINUOUS
 62
     7
 10
100.0
 20
-369.40455500000002
 30
0.0
 11
100.0
 21
-279.40455500000002
 31
0.0
  0
TEXT
  5
33
  8
HIBINO-BASE
 62
     7
 10
103.59999999999999
 20
-289.43932833333332
 30
0.0
 40
6.5153645833333318
  1
NOTE
 41
0.7
 11
103.59999999999999
 21
-282.92396374999998
 31
0.0
 73
     3
  0
LINE
  5
34
  8
HIBINO-BASE
  6
CONTINUOUS
 62
     7
 10
240.0
 20
-369.40455500000002
 30
0.0
 11
240.0
 21
-279.40455500000002
 31
0.0
  0
TEXT
  5
35
  8
HIBINO-BASE
 62
     7
 10
243.59999999999999
 20
-289.43932833333332
 30
0.0
 40
6.5153645833333318
  1
TITLE
 41
0.7
 11
243.59999999999999
 21
-282.92396374999998
 31
0.0
 73
     3
  0
TEXT
  5
36
  8
HIBINO-BASE
 62
     7
 10
300.27355999999997
 20
-395.03926619999982
 30
0.0
 40
14.40017671875
  1
ヒビノ株式会社
 41
0.7
 11
300.27355999999997
 21
-380.63908948124981
 31
0.0
 73
     3
  0
LINE
  5
37
  8
HIBINO-BASE
  6
CONTINUOUS
 62
     7
 10
100.0
 20
-329.40455500000002
 30
0.0
 11
460.0
 21
-329.40455500000002
 31
0.0
  0
TEXT
  5
38
  8
HIBINO-BASE
 62
     7
 10
293.60000000000002
 20
-339.21404833333332
 30
0.0
 40
6.5153645833333318
  1
DRAWN
 41
0.7
 11
293.60000000000002
 21
-332.69868374999999
 31
0.0
 73
     3
  0
TEXT
  5
39
  8
HIBINO-BASE
 62
     7
 10
193.59999999999999
 20
-339.21404833333332
 30
0.0
 40
6.5153645833333318
  1
DATE
 41
0.7
 11
193.59999999999999
 21
-332.69868374999999
 31
0.0
 73
     3
  0
TEXT
  5
3A
  8
HIBINO-BASE
 62
     7
 10
153.59999999999991
 20
-339.21404833333332
 30
0.0
 40
6.5153645833333318
  1
SCALE
 41
0.7
 11
153.59999999999991
 21
-332.69868374999999
 31
0.0
 73
     3
  0
TEXT
  5
3B
  8
HIBINO-BASE
 62
     7
 10
243.59999999999999
 20
-339.21404833333332
 30
0.0
 40
6.5153645833333318
  1
DESIGN
 41
0.7
 11
243.59999999999999
 21
-332.69868374999999
 31
0.0
 73
     3
  0
TEXT
  5
3C
  8
HIBINO-BASE
 62
     7
 10
393.60000000000002
 20
-339.21404833333332
 30
0.0
 40
6.5153645833333318
  1
DRAWING NO.
 41
0.7
 11
393.60000000000002
 21
-332.69868374999999
 31
0.0
 73
     3
  0
TEXT
  5
3D
  8
HIBINO-BASE
 62
     7
 10
343.60000000000002
 20
-339.21404833333332
 30
0.0
 40
6.5153645833333318
  1
CHECK
 41
0.7
 11
343.60000000000002
 21
-332.69868374999999
 31
0.0
 73
     3
  0
LINE
  5
3E
  8
HIBINO-BASE
  6
CONTINUOUS
 62
     7
 10
157.5
 20
-364.40455500000002
 30
0.0
 11
172.5
 21
-349.40455500000002
 31
0.0
  0
TEXT
  5
3F
  8
HIBINO-BASE
 62
     7
 10
155.0
 20
-353.84032833333328
 30
0.0
 40
6.5153645833333318
  1
1
 41
0.7
 11
155.0
 21
-347.32496374999999
 31
0.0
 73
     3
  0
LINE
  5
40
  8
HIBINO-BASE
  6
CONTINUOUS
 62
     7
 10
150.0
 20
-369.40455500000002
 30
0.0
 11
150.0
 21
-329.40455500000002
 31
0.0
  0
LINE
  5
41
  8
HIBINO-BASE
  6
CONTINUOUS
 62
     7
 10
190.0
 20
-369.40455500000002
 30
0.0
 11
190.0
 21
-329.40455500000002
 31
0.0
  0
LINE
  5
42
  8
HIBINO-BASE
  6
CONTINUOUS
 62
     7
 10
290.0
 20
-329.40455500000002
 30
0.0
 11
290.0
 21
-369.40455500000002
 31
0.0
  0
LINE
  5
43
  8
HIBINO-BASE
  6
CONTINUOUS
 62
     7
 10
390.0
 20
-329.40455500000002
 30
0.0
 11
390.0
 21
-369.40455500000002
 31
0.0
  0
LINE
  5
44
  8
HIBINO-BASE
  6
CONTINUOUS
 62
     7
 10
339.99999999999989
 20
-369.40455500000002
 30
0.0
 11
339.99999999999989
 21
-329.40455500000002
 31
0.0
  0
TEXT
  5
45
  8
HIBINO-BASE
 62
     7
 10
193.42616000000001
 20
-357.9499683333334
 30
0.0
 40
6.5153645833333318
  1
'09.07.
 41
0.7
 11
193.42616000000001
 21
-351.43460375000001
 31
0.0
 73
     3
  0
TEXT
  5
46
  8
HIBINO-BASE
 62
     7
 10
170.0
 20
-361.34032833333339
 30
0.0
 40
6.5153645833333318
  1
4
 41
0.7
 11
170.0
 21
-354.82496374999999
 31
0.0
 73
     3
  0
TEXT
  5
47
  8
HIBINO-BASE
 62
     7
 10
296.0232400441385
 20
-357.9499683333334
 30
0.0
 40
6.5153645833333318
  1
N.Sasaki
 41
0.7
 11
296.0232400441385
 21
-351.43460375000001
 31
0.0
 73
     3
  0
TEXT
  5
48
  8
HIBINO-BASE
 62
     7
 10
115.5333333333334
 20
-361.50055500000002
 30
0.0
 40
13.03072916666666
  1
A4
 41
0.7
 11
115.5333333333334
 21
-348.46982583333329
 31
0.0
 73
     3
  0
TEXT
  5
49
  8
HIBINO-BASE
 62
     7
 10
103.8333333333333
 20
-339.88237500000002
 30
0.0
 40
6.5153645833333318
  1
PAPER SIZE
 41
0.7
 11
103.8333333333333
 21
-333.36701041666657
 31
0.0
 73
     3
  0
LINE
  5
4A
  8
SPEC
  6
CONTINUOUS
 62
     7
 10
-230.0
 20
630.5954449999997
 30
0.0
 11
360.0
 21
630.5954449999997
 31
0.0
  0
LINE
  5
4B
  8
SPEC
  6
CONTINUOUS
 62
     7
 10
-230.0
 20
615.59544499999981
 30
0.0
 11
360.0
 21
615.59544499999981
 31
0.0
  0
LINE
  5
4C
  8
SPEC
  6
CONTINUOUS
 62
     7
 10
-230.0
 20
555.59544499999993
 30
0.0
 11
360.0
 21
555.59544499999993
 31
0.0
  0
LINE
  5
4D
  8
SPEC
  6
CONTINUOUS
 62
     7
 10
-230.0
 20
540.59544499999993
 30
0.0
 11
360.0
 21
540.59544499999993
 31
0.0
  0
LINE
  5
4E
  8
SPEC
  6
CONTINUOUS
 62
     7
 10
-230.0
 20
510.59544499999993
 30
0.0
 11
360.0
 21
510.59544499999993
 31
0.0
  0
LINE
  5
4F
  8
SPEC
  6
CONTINUOUS
 62
     7
 10
-230.0
 20
525.59544499999993
 30
0.0
 11
360.0
 21
525.59544499999993
 31
0.0
  0
LINE
  5
50
  8
SPEC
  6
CONTINUOUS
 62
     7
 10
-230.0
 20
495.59544499999993
 30
0.0
 11
360.0
 21
495.59544499999993
 31
0.0
  0
LINE
  5
51
  8
SPEC
  6
CONTINUOUS
 62
     7
 10
-230.0
 20
630.5954449999997
 30
0.0
 11
-230.0
 21
495.59544499999993
 31
0.0
  0
TEXT
  5
52
  8
SPEC
 62
     7
 10
-225.0
 20
636.16852499999982
 30
0.0
 40
9.7730468750000004
  1
仕様
 41
0.7
 11
-225.0
 21
645.94157187499979
 31
0.0
 73
     3
  0
LINE
  5
53
  8
SPEC
  6
CONTINUOUS
 62
     7
 10
-100.0
 20
630.5954449999997
 30
0.0
 11
-100.0
 21
495.59544499999993
 31
0.0
  0
LINE
  5
54
  8
SPEC
  6
CONTINUOUS
 62
     7
 10
360.0
 20
630.5954449999997
 30
0.0
 11
360.0
 21
495.59544499999993
 31
0.0
  0
TEXT
  5
55
  8
SPEC
 62
     7
 10
-226.58999448907011
 20
619.69708855646195
 30
0.0
 40
7.6012586805555546
  1
形式
 41
0.7
 11
-226.58999448907011
 21
627.29834723701754
 31
0.0
 73
     3
  0
TEXT
  5
56
  8
SPEC
 62
     7
 10
-96.377036844835587
 20
514.71834373934473
 30
0.0
 40
7.6012586805555546
  1
約1.3kg
 41
0.7
 11
-96.377036844835587
 21
522.31960241990032
 31
0.0
 73
     3
  0
TEXT
  5
57
  8
SPEC
 62
     7
 10
-226.78258691970319
 20
529.71662115922209
 30
0.0
 40
7.6012586805555546
  1
寸法
 41
0.7
 11
-226.78258691970319
 21
537.31787983977779
 31
0.0
 73
     3
  0
TEXT
  5
58
  8
SPEC
 62
     7
 10
-226.53504929387159
 20
514.42165530685656
 30
0.0
 40
7.6012586805555546
  1
重量
 41
0.7
 11
-226.53504929387159
 21
522.02291398741215
 31
0.0
 73
     3
  0
TEXT
  5
59
  8
SPEC
 62
     7
 10
-96.373816047081235
 20
529.11800568015406
 30
0.0
 40
7.6012586805555546
  1
200(W)\U+00D743(H)\U+00D7186(D)mm(突起部含まず)
 41
0.7
 11
-96.373816047081235
 21
536.71926436070964
 31
0.0
 73
     3
  0
TEXT
  5
5A
  8
SPEC
 62
     7
 10
-96.662697749864918
 20
619.5779475159469
 30
0.0
 40
7.6012586805555546
  1
セントラルパワーサプライ
 41
0.7
 11
-96.662697749864918
 21
627.17920619650238
 31
0.0
 73
     3
  0
TEXT
  5
5B
  8
SPEC
 62
     7
 10
-226.47119183266639
 20
603.74711611111093
 30
0.0
 40
7.6012586805555546
  1
供給電源
 41
0.7
 11
-226.47119183266639
 21
611.34837479166652
 31
0.0
 73
     3
  0
TEXT
  5
5C
  8
SPEC
 62
     7
 10
-96.977467664476947
 20
604.47224772050436
 30
0.0
 40
7.6012586805555546
  1
出力電圧 DC 12V\U+00D73　
 41
0.7
 11
-96.977467664476947
 21
612.07350640106006
 31
0.0
 73
     3
  0
TEXT
  5
5D
  8
SPEC
 62
     7
 10
-226.68387148446769
 20
544.66969843563095
 30
0.0
 40
7.6012586805555546
  1
電源
 41
0.7
 11
-226.68387148446769
 21
552.27095711618665
 31
0.0
 73
     3
  0
TEXT
  5
5E
  8
SPEC
 62
     7
 10
-96.131208449851641
 20
544.26184490388744
 30
0.0
 40
7.6012586805555546
  1
AC100V,50/60Hz,130W
 41
0.7
 11
-96.131208449851641
 21
551.86310358444302
 31
0.0
 73
     3
  0
TEXT
  5
5F
  8
SPEC
 62
     7
 10
-96.344267236844004
 20
589.47224772050447
 30
0.0
 40
7.6012586805555546
  1
最大電流 DC OUT 1：2.5A　
 41
0.7
 11
-96.344267236844004
 21
597.07350640105994
 31
0.0
 73
     3
  0
TEXT
  5
60
  8
SPEC
 62
     7
 10
-51.704054350843151
 20
574.47224772050436
 30
0.0
 40
7.6012586805555546
  1
DC OUT 2：2A　
 41
0.7
 11
-51.704054350843151
 21
582.07350640105994
 31
0.0
 73
     3
  0
TEXT
  5
61
  8
SPEC
 62
     7
 10
-51.739318378821487
 20
559.47224772050447
 30
0.0
 40
7.6012586805555546
  1
DC OUT 3：2A　
 41
0.7
 11
-51.739318378821487
 21
567.07350640105994
 31
0.0
 73
     3
  0
TEXT
  5
62
  8
SPEC
 62
     7
 10
-96.734996658794913
 20
500.03369945700678
 30
0.0
 40
7.6012586805555546
  1
電源ケーブル,DCケーブル\U+00D73,ラックマウントキット
 41
0.7
 11
-96.734996658794913
 21
507.63495813756242
 31
0.0
 73
     3
  0
TEXT
  5
63
  8
SPEC
 62
     7
 10
-226.50256607960131
 20
499.84612299160932
 30
0.0
 40
7.6012586805555546
  1
付属品
 41
0.7
 11
-226.50256607960131
 21
507.44738167216479
 31
0.0
 73
     3
  0
TEXT
  5
64
  8
DIMNSIONS
 62
     7
 10
19.999999999999979
 20
-320.326595
 30
0.0
 40
9.7730468750000004
  1
(単位：mm)
 41
0.7
 11
19.999999999999979
 21
-310.55354812500002
 31
0.0
 73
     3
  0
LINE
  5
65
  8
DIMNSIONS
  6
CONTINUOUS
 62
     7
 10
-150.0
 20
-183.0
 30
0.0
 11
-150.0
 21
-220.5
 31
0.0
  0
LINE
  5
66
  8
DIMNSIONS
  6
CONTINUOUS
 62
     7
 10
50.0
 20
-183.0
 30
0.0
 11
50.0
 21
-220.5
 31
0.0
  0
LINE
  5
67
  8
DIMNSIONS
  6
CONTINUOUS
 62
     7
 10
-150.0
 20
-212.5
 30
0.0
 11
50.0
 21
-212.5
 31
0.0
  0
LINE
  5
68
  8
DIMNSIONS
  6
CONTINUOUS
 62
     7
 10
-150.0
 20
-212.5
 30
0.0
 11
-139.99750976562501
 21
-209.81984081939899
 31
0.0
  0
LINE
  5
69
  8
DIMNSIONS
  6
CONTINUOUS
 62
     7
 10
-150.0
 20
-212.5
 30
0.0
 11
-139.99750976562501
 21
-215.18015918060101
 31
0.0
  0
LINE
  5
6A
  8
DIMNSIONS
  6
CONTINUOUS
 62
     7
 10
50.0
 20
-212.5
 30
0.0
 11
39.997509765624983
 21
-215.18015918060101
 31
0.0
  0
LINE
  5
6B
  8
DIMNSIONS
  6
CONTINUOUS
 62
     7
 10
50.0
 20
-212.5
 30
0.0
 11
39.997509765624983
 21
-209.81984081939899
 31
0.0
  0
TEXT
  5
6C
  8
DIMNSIONS
 62
     7
 10
-60.583333333333357
 20
-208.5244444444445
 30
0.0
 40
10.85894097222222
  1
200
 41
0.7
 11
-60.583333333333357
 21
-197.6655034722223
 31
0.0
 73
     3
  0
LINE
  5
6D
  8
DIMNSIONS
  6
CONTINUOUS
 62
     7
 10
-57.999999999999183
 20
-50.000000000000021
 30
0.0
 11
-195.5
 21
-50.000000000000021
 31
0.0
  0
LINE
  5
6E
  8
DIMNSIONS
  6
CONTINUOUS
 62
     7
 10
-158.0
 20
135.99999999999989
 30
0.0
 11
-195.5
 21
135.99999999999989
 31
0.0
  0
LINE
  5
6F
  8
DIMNSIONS
  6
CONTINUOUS
 62
     7
 10
-187.5
 20
-50.000000000000021
 30
0.0
 11
-187.5
 21
135.99999999999989
 31
0.0
  0
LINE
  5
70
  8
DIMNSIONS
  6
CONTINUOUS
 62
     7
 10
-187.5
 20
-50.000000000000021
 30
0.0
 11
-190.18015918060101
 21
-39.99750976562504
 31
0.0
  0
LINE
  5
71
  8
DIMNSIONS
  6
CONTINUOUS
 62
     7
 10
-187.5
 20
-50.000000000000021
 30
0.0
 11
-184.81984081939899
 21
-39.99750976562504
 31
0.0
  0
LINE
  5
72
  8
DIMNSIONS
  6
CONTINUOUS
 62
     7
 10
-187.5
 20
135.99999999999989
 30
0.0
 11
-184.81984081939899
 21
125.997509765625
 31
0.0
  0
LINE
  5
73
  8
DIMNSIONS
  6
CONTINUOUS
 62
     7
 10
-187.5
 20
135.99999999999989
 30
0.0
 11
-190.18015918060101
 21
125.997509765625
 31
0.0
  0
TEXT
  5
74
  8
DIMNSIONS
 62
     7
 10
-191.4755555555555
 20
39.416666666666671
 30
0.0
 40
10.85894097222222
  1
186
 50
90.0
 41
0.7
 11
-202.3344965277777
 21
39.416666666666671
 31
0.0
 73
     3
  0
LINE
  5
75
  8
DIMNSIONS
  6
CONTINUOUS
 62
     7
 10
-155.0
 20
-175.0
 30
0.0
 11
-195.5
 21
-175.0
 31
0.0
  0
LINE
  5
76
  8
DIMNSIONS
  6
CONTINUOUS
 62
     7
 10
-155.0
 20
-132.0
 30
0.0
 11
-195.5
 21
-132.0
 31
0.0
  0
LINE
  5
77
  8
DIMNSIONS
  6
CONTINUOUS
 62
     7
 10
-187.5
 20
-175.0
 30
0.0
 11
-187.5
 21
-132.0
 31
0.0
  0
LINE
  5
78
  8
DIMNSIONS
  6
CONTINUOUS
 62
     7
 10
-187.5
 20
-175.0
 30
0.0
 11
-190.18015918060101
 21
-164.99750976562501
 31
0.0
  0
LINE
  5
79
  8
DIMNSIONS
  6
CONTINUOUS
 62
     7
 10
-187.5
 20
-175.0
 30
0.0
 11
-184.81984081939899
 21
-164.99750976562501
 31
0.0
  0
LINE
  5
7A
  8
DIMNSIONS
  6
CONTINUOUS
 62
     7
 10
-187.5
 20
-132.0
 30
0.0
 11
-184.81984081939899
 21
-142.00249023437499
 31
0.0
  0
LINE
  5
7B
  8
DIMNSIONS
  6
CONTINUOUS
 62
     7
 10
-187.5
 20
-132.0
 30
0.0
 11
-190.18015918060101
 21
-142.00249023437499
 31
0.0
  0
TEXT
  5
7C
  8
DIMNSIONS
 62
     7
 10
-191.4755555555555
 20
-160.55555555555549
 30
0.0
 40
10.85894097222222
  1
43
 50
90.0
 41
0.7
 11
-202.3344965277777
 21
-160.55555555555549
 31
0.0
 73
     3
  0
LINE
  5
7D
  8
DIMNSIONS
  6
CONTINUOUS
 62
     7
 10
-158.0
 20
135.99999999999989
 30
0.0
 11
-195.5
 21
135.99999999999989
 31
0.0
  0
LINE
  5
7E
  8
DIMNSIONS
  6
CONTINUOUS
 62
     7
 10
-21.61721080424341
 20
141.99999999999989
 30
0.0
 11
-195.5
 21
141.99999999999989
 31
0.0
  0
LINE
  5
7F
  8
DIMNSIONS
  6
CONTINUOUS
 62
     7
 10
-187.5
 20
141.99999999999989
 30
0.0
 11
-187.5
 21
135.99999999999989
 31
0.0
  0
LINE
  5
80
  8
DIMNSIONS
  6
CONTINUOUS
 62
     7
 10
-187.5
 20
135.99999999999989
 30
0.0
 11
-187.5
 21
115.9999999999999
 31
0.0
  0
LINE
  5
81
  8
DIMNSIONS
  6
CONTINUOUS
 62
     7
 10
-187.5
 20
135.99999999999989
 30
0.0
 11
-184.81984081939899
 21
125.997509765625
 31
0.0
  0
LINE
  5
82
  8
DIMNSIONS
  6
CONTINUOUS
 62
     7
 10
-187.5
 20
135.99999999999989
 30
0.0
 11
-190.18015918060101
 21
125.997509765625
 31
0.0
  0
LINE
  5
83
  8
DIMNSIONS
  6
CONTINUOUS
 62
     7
 10
-187.5
 20
141.99999999999989
 30
0.0
 11
-187.5
 21
169.55555555555549
 31
0.0
  0
LINE
  5
84
  8
DIMNSIONS
  6
CONTINUOUS
 62
     7
 10
-187.5
 20
141.99999999999989
 30
0.0
 11
-190.18015918060101
 21
152.0024902343749
 31
0.0
  0
LINE
  5
85
  8
DIMNSIONS
  6
CONTINUOUS
 62
     7
 10
-187.5
 20
141.99999999999989
 30
0.0
 11
-184.81984081939899
 21
152.0024902343749
 31
0.0
  0
TEXT
  5
86
  8
DIMNSIONS
 62
     7
 10
-191.4755555555555
 20
162.5
 30
0.0
 40
10.85894097222222
  1
6
 50
90.0
 41
0.7
 11
-202.3344965277777
 21
162.5
 31
0.0
 73
     3
  0
TEXT
  5
87
  8
DATA
 62
     7
 10
300.0
 20
-324.88099499999993
 30
0.0
 40
9.7730468750000004
  1
PSU 4000
 41
0.7
 11
300.0
 21
-315.10794812500001
 31
0.0
 73
     3
  0
TEXT
  5
88
  8
DATA
 62
     7
 10
300.0
 20
-295.88099499999993
 30
0.0
 40
9.7730468750000004
  1
AKG
 41
0.7
 11
300.0
 21
-286.10794812500001
 31
0.0
 73
     3
  0
TEXT
  5
89
  8
DATA
 62
     7
 10
290.0
 20
-309.7888198
 30
0.0
 40
6.5153748437499992
  1
セントラルパワーサプライ
 41
0.7
 11
290.0
 21
-303.27344495624999
 31
0.0
 73
     3
  0
TEXT
  5
8A
  8
DATA
 62
     7
 10
-220.0
 20
-352.45255500000007
 30
0.0
 40
6.5153645833333318
  1
仕様および外観は予告なく変更されることがありますので、ご了承ください。
 41
0.7
 11
-220.0
 21
-345.93719041666668
 31
0.0
 73
     3
  0
LINE
  5
8B
  8
DATA
  6
CONTINUOUS
 62
     7
 10
-150.0
 20
-172.0
 30
0.0
 11
-150.0
 21
-156.19999999999999
 31
0.0
  0
LINE
  5
8C
  8
DATA
  6
CONTINUOUS
 62
     7
 10
-150.0
 20
-152.80000000000001
 30
0.0
 11
-150.0
 21
-135.0
 31
0.0
  0
LINE
  5
8D
  8
DATA
  6
CONTINUOUS
 62
     7
 10
46.999999999999993
 20
-175.0
 30
0.0
 11
-147.0
 21
-175.0
 31
0.0
  0
LINE
  5
8E
  8
DATA
  6
CONTINUOUS
 62
     7
 10
50.0
 20
-135.0
 30
0.0
 11
50.0
 21
-152.80000000000001
 31
0.0
  0
LINE
  5
8F
  8
DATA
  6
CONTINUOUS
 62
     7
 10
50.0
 20
-156.19999999999999
 30
0.0
 11
50.0
 21
-172.0
 31
0.0
  0
LINE
  5
90
  8
DATA
  6
CONTINUOUS
 62
     7
 10
-147.0
 20
-132.0
 30
0.0
 11
46.999999999999993
 21
-132.0
 31
0.0
  0
LINE
  5
91
  8
DATA
  6
CONTINUOUS
 62
     7
 10
-150.0
 20
-39.836390143970107
 30
0.0
 11
-150.0
 21
135.99999999999989
 31
0.0
  0
LINE
  5
92
  8
DATA
  6
CONTINUOUS
 62
     7
 10
50.0
 20
135.99999999999989
 30
0.0
 11
50.0
 21
-39.836390143970107
 31
0.0
  0
LINE
  5
93
  8
DATA
  6
CONTINUOUS
 62
     7
 10
150.0
 20
-170.69758039938171
 30
0.0
 11
150.0
 21
-136.12796031191661
 31
0.0
  0
LINE
  5
94
  8
DATA
  6
CONTINUOUS
 62
     7
 10
336.0
 20
-175.0
 30
0.0
 11
171.9999999999998
 21
-175.0
 31
0.0
  0
ARC
  5
95
  8
DATA
  6
CONTINUOUS
 62
     7
 10
-147.0
 20
-135.0
 30
0.0
 40
3.0
 50
90.0
 51
180.0
  0
ARC
  5
96
  8
DATA
  6
CONTINUOUS
 62
     7
 10
-147.0
 20
-172.0
 30
0.0
 40
3.0
 50
180.0
 51
270.0
  0
ARC
  5
97
  8
DATA
  6
CONTINUOUS
 62
     7
 10
46.999999999999993
 20
-135.0
 30
0.0
 40
3.0
 50
0.0
 51
90.0
  0
ARC
  5
98
  8
DATA
  6
CONTINUOUS
 62
     7
 10
46.999999999999993
 20
-172.0
 30
0.0
 40
3.0
 50
270.0
 51
0.0
  0
CIRCLE
  5
99
  8
DATA
  6
CONTINUOUS
 62
     7
 10
-136.9785876470265
 20
-154.5446817496678
 30
0.0
 40
4.5
  0
ARC
  5
9A
  8
DATA
  6
CONTINUOUS
 62
     7
 10
-136.97858764703341
 20
-154.54468174966871
 30
0.0
 40
7.0000000000069393
 50
14.43255865730276
 51
165.5674413426967
  0
ARC
  5
9B
  8
DATA
  6
CONTINUOUS
 62
     7
 10
-136.97858764703341
 20
-154.54468174966871
 30
0.0
 40
7.000000000006926
 50
193.67852807348339
 51
346.32147192651672
  0
CIRCLE
  5
9C
  8
DATA
  6
CONTINUOUS
 62
     7
 10
-118.9897901553753
 20
-154.4765875928029
 30
0.0
 40
5.0
  0
ARC
  5
9D
  8
DATA
  6
CONTINUOUS
 62
     7
 10
-118.9897901553753
 20
-154.4765875928031
 30
0.0
 40
6.9999999999999982
 50
194.2528658642826
 51
166.14222970384239
  0
TEXT
  5
9E
  8
DATA
 62
     7
 10
-142.19477623897629
 20
-169.49717178595409
 30
0.0
 40
2.7147352430555549
  1
ON/OFF
 41
0.7
 11
-142.19477623897629
 21
-166.78243654289861
 31
0.0
 73
     3
  0
LINE
  5
9F
  8
DATA
  6
CONTINUOUS
 62
     7
 10
-150.0
 20
-28.0
 30
0.0
 11
50.0
 21
-28.0
 31
0.0
  0
ARC
  5
A0
  8
DATA
  6
CONTINUOUS
 62
     7
 10
-42.600000000000001
 20
171.69999999999999
 30
0.0
 40
221.82346584615439
 50
259.16464996031362
 51
268.08826605585369
  0
ARC
  5
A1
  8
DATA
  6
CONTINUOUS
 62
     7
 10
-141.5
 20
-243.1149999999997
 30
0.0
 40
203.29277710976331
 50
84.523995598686355
 51
90.676428681728027
  0
ARC
  5
A2
  8
DATA
  6
CONTINUOUS
 62
     7
 10
-137.07057975001621
 20
-279.7362264683901
 30
0.0
 40
239.45466105225901
 50
77.268754360175663
 51
86.415560266646978
  0
ARC
  5
A3
  8
DATA
  6
CONTINUOUS
 62
     7
 10
-57.399999999999963
 20
171.69999999999999
 30
0.0
 40
221.82346584615439
 50
271.91173394414642
 51
280.83535003968638
  0
ARC
  5
A4
  8
DATA
  6
CONTINUOUS
 62
     7
 10
41.500000000000028
 20
-243.1149999999997
 30
0.0
 40
203.29277710976331
 50
89.323571318272656
 51
95.476004401313645
  0
ARC
  5
A5
  8
DATA
  6
CONTINUOUS
 62
     7
 10
37.07057975001625
 20
-279.7362264683901
 30
0.0
 40
239.45466105225901
 50
93.584439733353008
 51
102.73124563982429
  0
LINE
  5
A6
  8
DATA
  6
CONTINUOUS
 62
     7
 10
-143.90000000000029
 20
-39.836390143970128
 30
0.0
 11
-150.0
 21
-39.836390143970128
 31
0.0
  0
LINE
  5
A7
  8
DATA
  6
CONTINUOUS
 62
     7
 10
43.899999999997974
 20
-39.836390143970107
 30
0.0
 11
50.0
 21
-39.836390143970107
 31
0.0
  0
LINE
  5
A8
  8
DATA
  6
CONTINUOUS
 62
     7
 10
50.0
 20
264.9999999998808
 30
0.0
 11
50.0
 21
247.39999999988089
 31
0.0
  0
LINE
  5
A9
  8
DATA
  6
CONTINUOUS
 62
     7
 10
50.0
 20
243.9999999998808
 30
0.0
 11
50.0
 21
227.99999999988091
 31
0.0
  0
LINE
  5
AA
  8
DATA
  6
CONTINUOUS
 62
     7
 10
-147.0
 20
267.99999999988091
 30
0.0
 11
-143.46000000000001
 21
267.99999999988091
 31
0.0
  0
LINE
  5
AB
  8
DATA
  6
CONTINUOUS
 62
     7
 10
43.460000000000001
 20
267.99999999988091
 30
0.0
 11
46.999999999999993
 21
267.99999999988091
 31
0.0
  0
LINE
  5
AC
  8
DATA
  6
CONTINUOUS
 62
     7
 10
-150.0
 20
227.99999999988091
 30
0.0
 11
-150.0
 21
243.9999999998808
 31
0.0
  0
LINE
  5
AD
  8
DATA
  6
CONTINUOUS
 62
     7
 10
-150.0
 20
247.39999999988089
 30
0.0
 11
-150.0
 21
264.9999999998808
 31
0.0
  0
ARC
  5
AE
  8
DATA
  6
CONTINUOUS
 62
     7
 10
46.999999999999993
 20
227.99999999988091
 30
0.0
 40
3.0
 50
270.0
 51
0.0
  0
ARC
  5
AF
  8
DATA
  6
CONTINUOUS
 62
     7
 10
46.999999999999993
 20
264.9999999998808
 30
0.0
 40
3.0
 50
0.0
 51
90.0
  0
ARC
  5
B0
  8
DATA
  6
CONTINUOUS
 62
     7
 10
-147.0
 20
227.99999999988091
 30
0.0
 40
3.0
 50
180.0
 51
270.0
  0
ARC
  5
B1
  8
DATA
  6
CONTINUOUS
 62
     7
 10
-147.0
 20
264.9999999998808
 30
0.0
 40
3.0
 50
90.0
 51
180.0
  0
LINE
  5
B2
  8
DATA
  6
CONTINUOUS
 62
     7
 10
5.0
 20
135.99999999999989
 30
0.0
 11
5.0
 21
-28.0
 31
0.0
  0
LINE
  5
B3
  8
DATA
  6
CONTINUOUS
 62
     7
 10
-105.0
 20
-28.0
 30
0.0
 11
-105.0
 21
135.99999999999989
 31
0.0
  0
CIRCLE
  5
B4
  8
DATA
  6
CONTINUOUS
 62
     7
 10
27.982789195756581
 20
249.890538695782
 30
0.0
 40
3.5999999999999939
  0
CIRCLE
  5
B5
  8
DATA
  6
CONTINUOUS
 62
     7
 10
27.982789195756581
 20
249.890538695782
 30
0.0
 40
0.5
  0
TEXT
  5
B6
  8
DATA
 62
     7
 10
33.211233720761321
 20
258.64303083448749
 30
0.0
 40
1.900314670138888
  1
DC OUT 3
 50
180.0
 41
0.7
 11
33.211233720761321
 21
256.74271616434868
 31
0.0
 73
     3
  0
TEXT
  5
B7
  8
DATA
 62
     7
 10
31.821828061005611
 20
261.45714676747792
 30
0.0
 40
1.900314670138888
  1
12V/2A
 50
180.0
 41
0.7
 11
31.821828061005611
 21
259.556832097339
 31
0.0
 73
     3
  0
LINE
  5
B8
  8
DATA
  6
CONTINUOUS
 62
     7
 10
33.931173294134162
 20
236.26651161952009
 30
0.0
 11
21.931173294134162
 21
236.26651161952009
 31
0.0
  0
LINE
  5
B9
  8
DATA
  6
STYLE_05
 62
     7
 10
33.931173294134162
 20
237.64885641284729
 30
0.0
 11
21.931173294134162
 21
237.64885641284729
 31
0.0
  0
ARC
  5
BA
  8
DATA
  6
CONTINUOUS
 62
     7
 10
27.928891029789451
 20
240.0488564128473
 30
0.0
 40
1.425729287066815
 50
270.0
 51
90.0
  0
CIRCLE
  5
BB
  8
DATA
  6
CONTINUOUS
 62
     7
 10
27.928891029789451
 20
240.0488564128473
 30
0.0
 40
0.8481886582595022
  0
TEXT
  5
BC
  8
DATA
 62
     7
 10
24.904771191764279
 20
241.05757889147981
 30
0.0
 40
2.1717881944444439
  1
+
 50
180.0
 41
0.7
 11
24.904771191764279
 21
238.88579069703539
 31
0.0
 73
     3
  0
LINE
  5
BD
  8
DATA
  6
CONTINUOUS
 62
     7
 10
27.08070237152997
 20
240.0488564128473
 30
0.0
 11
25.777019415523391
 21
240.0488564128473
 31
0.0
  0
LINE
  5
BE
  8
DATA
  6
CONTINUOUS
 62
     7
 10
29.354620316856359
 20
240.0488564128473
 30
0.0
 11
30.635480629415881
 21
240.0488564128473
 31
0.0
  0
TEXT
  5
BF
  8
DATA
 62
     7
 10
33.174316533646952
 20
241.06596752395851
 30
0.0
 40
2.1717881944444439
  1
-
 50
180.0
 41
0.7
 11
33.174316533646952
 21
238.89417932951409
 31
0.0
 73
     3
  0
LINE
  5
C0
  8
DATA
  6
CONTINUOUS
 62
     7
 10
43.460000000000001
 20
230.19999999988079
 30
0.0
 11
43.460000000000001
 21
267.99999999988091
 31
0.0
  0
LINE
  5
C1
  8
DATA
  6
CONTINUOUS
 62
     7
 10
-143.46000000000001
 20
230.19999999988079
 30
0.0
 11
-143.46000000000001
 21
267.99999999988091
 31
0.0
  0
LINE
  5
C2
  8
DATA
  6
CONTINUOUS
 62
     7
 10
43.460000000000001
 20
265.99999999988091
 30
0.0
 11
-143.46000000000001
 21
265.99999999988091
 31
0.0
  0
LINE
  5
C3
  8
DATA
  6
CONTINUOUS
 62
     7
 10
43.460000000000001
 20
230.19999999988079
 30
0.0
 11
48.926136028426598
 21
225.69999999988079
 31
0.0
  0
LINE
  5
C4
  8
DATA
  6
CONTINUOUS
 62
     7
 10
-143.46000000000009
 20
230.19999999988079
 30
0.0
 11
-148.9261360284267
 21
225.69999999988079
 31
0.0
  0
LINE
  5
C5
  8
DATA
  6
CONTINUOUS
 62
     7
 10
50.0
 20
243.9999999998808
 30
0.0
 11
43.460000000000001
 21
243.9999999998808
 31
0.0
  0
LINE
  5
C6
  8
DATA
  6
CONTINUOUS
 62
     7
 10
-143.46000000000001
 20
243.9999999998808
 30
0.0
 11
-150.0
 21
243.9999999998808
 31
0.0
  0
LINE
  5
C7
  8
DATA
  6
CONTINUOUS
 62
     7
 10
171.99999999999989
 20
-132.0
 30
0.0
 11
336.0
 21
-132.0
 31
0.0
  0
LINE
  5
C8
  8
DATA
  6
CONTINUOUS
 62
     7
 10
172.0
 20
-132.0
 30
0.0
 11
172.0
 21
-175.0
 31
0.0
  0
CIRCLE
  5
C9
  8
DATA
  6
CONTINUOUS
 62
     7
 10
310.01097071260762
 20
-144.39999999999989
 30
0.0
 40
6.0
  0
CIRCLE
  5
CA
  8
DATA
  6
CONTINUOUS
 62
     7
 10
194.01047867004769
 20
-144.39999999999989
 30
0.0
 40
6.0
  0
CIRCLE
  5
CB
  8
DATA
  6
CONTINUOUS
 62
     7
 10
194.01047867004769
 20
-144.39999999999989
 30
0.0
 40
2.6999999999999882
  0
LINE
  5
CC
  8
DATA
  6
CONTINUOUS
 62
     7
 10
192.1860518194085
 20
-144.39999999999989
 30
0.0
 11
195.8349055206869
 21
-144.39999999999989
 31
0.0
  0
LINE
  5
CD
  8
DATA
  6
CONTINUOUS
 62
     7
 10
194.01047867004769
 20
-146.22442685063919
 30
0.0
 11
194.01047867004769
 21
-142.57557314936071
 31
0.0
  0
CIRCLE
  5
CE
  8
DATA
  6
CONTINUOUS
 62
     7
 10
310.01097071260762
 20
-144.39999999999989
 30
0.0
 40
2.6999999999999882
  0
LINE
  5
CF
  8
DATA
  6
CONTINUOUS
 62
     7
 10
308.1865438619684
 20
-144.39999999999989
 30
0.0
 11
311.83539756324677
 21
-144.39999999999989
 31
0.0
  0
LINE
  5
D0
  8
DATA
  6
CONTINUOUS
 62
     7
 10
310.01097071260762
 20
-146.22442685063919
 30
0.0
 11
310.01097071260762
 21
-142.57557314936071
 31
0.0
  0
LINE
  5
D1
  8
DATA
  6
CONTINUOUS
 62
     7
 10
267.99982703011312
 20
-170.19999999999999
 30
0.0
 11
267.99982703011312
 21
-173.05000000000001
 31
0.0
  0
LINE
  5
D2
  8
DATA
  6
CONTINUOUS
 62
     7
 10
247.9998270301131
 20
-170.19999999999999
 30
0.0
 11
247.9998270301131
 21
-173.05000000000001
 31
0.0
  0
LINE
  5
D3
  8
DATA
  6
CONTINUOUS
 62
     7
 10
247.9998270301131
 20
-170.19999999999999
 30
0.0
 11
267.99982703011312
 21
-170.19999999999999
 31
0.0
  0
LINE
  5
D4
  8
DATA
  6
CONTINUOUS
 62
     7
 10
247.9998270301131
 20
-173.05000000000001
 30
0.0
 11
267.99982703011312
 21
-173.05000000000001
 31
0.0
  0
LINE
  5
D5
  8
DATA
  6
CONTINUOUS
 62
     7
 10
204.00079921879421
 20
-170.19999999999999
 30
0.0
 11
204.00079921879421
 21
-173.05000000000001
 31
0.0
  0
LINE
  5
D6
  8
DATA
  6
CONTINUOUS
 62
     7
 10
184.00079921879421
 20
-170.19999999999999
 30
0.0
 11
184.00079921879421
 21
-173.05000000000001
 31
0.0
  0
LINE
  5
D7
  8
DATA
  6
CONTINUOUS
 62
     7
 10
184.00079921879421
 20
-170.19999999999999
 30
0.0
 11
204.00079921879421
 21
-170.19999999999999
 31
0.0
  0
LINE
  5
D8
  8
DATA
  6
CONTINUOUS
 62
     7
 10
184.00079921879421
 20
-173.05000000000001
 30
0.0
 11
204.00079921879421
 21
-173.05000000000001
 31
0.0
  0
LINE
  5
D9
  8
DATA
  6
CONTINUOUS
 62
     7
 10
172.0
 20
-175.0
 30
0.0
 11
152.79592833558789
 21
-173.69063147742639
 31
0.0
  0
LINE
  5
DA
  8
DATA
  6
CONTINUOUS
 62
     7
 10
172.0
 20
-132.0
 30
0.0
 11
162.95739524378189
 21
-132.53433573559471
 31
0.0
  0
ARC
  5
DB
  8
DATA
  6
CONTINUOUS
 62
     7
 10
369.0493716636966
 20
-210.5791147686821
 30
0.0
 40
222.165451810783
 50
159.97468028537341
 51
164.92563850963691
  0
ARC
  5
DC
  8
DATA
  6
CONTINUOUS
 62
     7
 10
369.0493716636966
 20
-210.5791147686821
 30
0.0
 40
222.16545181078311
 50
165.83184402409711
 51
169.98433585214971
  0
ARC
  5
DD
  8
DATA
  6
CONTINUOUS
 62
     7
 10
153.0
 20
-136.12796031191661
 30
0.0
 40
3.000000000000008
 50
93.381727324276312
 51
180.0
  0
ARC
  5
DE
  8
DATA
  6
CONTINUOUS
 62
     7
 10
153.0
 20
-170.69758039938171
 30
0.0
 40
3.0
 50
180.0
 51
266.09950625761797
  0
ARC
  5
DF
  8
DATA
  6
CONTINUOUS
 62
     7
 10
163.13435928446799
 20
-135.52911180874341
 30
0.0
 40
3.0000000000000662
 50
93.381727324276511
 51
159.97468028537199
  0
LINE
  5
E0
  8
DATA
  6
CONTINUOUS
 62
     7
 10
152.8230359593139
 20
-133.1331842387678
 30
0.0
 11
162.95739524378189
 21
-132.53433573559471
 31
0.0
  0
LINE
  5
E1
  8
DATA
  6
CONTINUOUS
 62
     7
 10
-150.0
 20
-39.836390143970107
 30
0.0
 11
-150.0
 21
-44.0
 31
0.0
  0
LINE
  5
E2
  8
DATA
  6
CONTINUOUS
 62
     7
 10
50.0
 20
-39.836390143970107
 30
0.0
 11
50.0
 21
-44.0
 31
0.0
  0
LINE
  5
E3
  8
DATA
  6
CONTINUOUS
 62
     7
 10
-150.0
 20
-44.0
 30
0.0
 11
-61.999999999999993
 21
-49.273505199152787
 31
0.0
  0
LINE
  5
E4
  8
DATA
  6
CONTINUOUS
 62
     7
 10
50.0
 20
-44.0
 30
0.0
 11
-38.000000000000043
 21
-49.273505199152787
 31
0.0
  0
LINE
  5
E5
  8
DATA
  6
CONTINUOUS
 62
     7
 10
-147.0
 20
224.9999999998808
 30
0.0
 11
47.200000000000003
 21
224.9999999998808
 31
0.0
  0
LINE
  5
E6
  8
DATA
  6
CONTINUOUS
 62
     7
 10
43.460000000000001
 20
230.19999999988079
 30
0.0
 11
-22.499999999999769
 21
230.19999999988079
 31
0.0
  0
LINE
  5
E7
  8
DATA
  6
CONTINUOUS
 62
     7
 10
-30.500000000000298
 20
230.19999999988079
 30
0.0
 11
-48.500000000000441
 21
230.19999999988079
 31
0.0
  0
LINE
  5
E8
  8
DATA
  6
CONTINUOUS
 62
     7
 10
-56.499999999999588
 20
230.19999999988079
 30
0.0
 11
-143.46000000000009
 21
230.19999999988079
 31
0.0
  0
LINE
  5
E9
  8
DATA
  6
CONTINUOUS
 62
     7
 10
-150.0
 20
135.99999999999989
 30
0.0
 11
50.0
 21
135.99999999999989
 31
0.0
  0
LINE
  5
EA
  8
DATA
  6
CONTINUOUS
 62
     7
 10
-125.77432032884469
 20
-156.19999999999999
 30
0.0
 11
-130.1771229893132
 21
-156.19999999999999
 31
0.0
  0
LINE
  5
EB
  8
DATA
  6
CONTINUOUS
 62
     7
 10
-143.7800523047537
 20
-156.19999999999999
 30
0.0
 11
-150.0
 21
-156.19999999999999
 31
0.0
  0
LINE
  5
EC
  8
DATA
  6
CONTINUOUS
 62
     7
 10
-150.0
 20
-152.80000000000001
 30
0.0
 11
-143.75767944405629
 21
-152.80000000000001
 31
0.0
  0
LINE
  5
ED
  8
DATA
  6
CONTINUOUS
 62
     7
 10
-130.19949585001049
 20
-152.80000000000001
 30
0.0
 11
-125.7860430967869
 21
-152.80000000000001
 31
0.0
  0
LINE
  5
EE
  8
DATA
  6
CONTINUOUS
 62
     7
 10
-149.5
 20
-156.19999999999999
 30
0.0
 11
-149.5
 21
-152.80000000000001
 31
0.0
  0
LINE
  5
EF
  8
DATA
  6
CONTINUOUS
 62
     7
 10
49.499999999999993
 20
-152.80000000000001
 30
0.0
 11
50.0
 21
-152.80000000000001
 31
0.0
  0
LINE
  5
F0
  8
DATA
  6
CONTINUOUS
 62
     7
 10
49.499999999999993
 20
-156.19999999999999
 30
0.0
 11
50.0
 21
-156.19999999999999
 31
0.0
  0
LINE
  5
F1
  8
DATA
  6
CONTINUOUS
 62
     7
 10
49.499999999999993
 20
-156.19999999999999
 30
0.0
 11
49.499999999999993
 21
-152.80000000000001
 31
0.0
  0
CIRCLE
  5
F2
  8
DATA
  6
CONTINUOUS
 62
     7
 10
29.999999999999989
 20
-154.5
 30
0.0
 40
11.5
  0
ARC
  5
F3
  8
DATA
  6
CONTINUOUS
 62
     7
 10
29.999999999999989
 20
-154.5
 30
0.0
 40
15.0
 50
6.5075035917447019
 51
353.49249640825508
  0
LINE
  5
F4
  8
DATA
  6
CONTINUOUS
 62
     7
 10
49.499999999999993
 20
-152.80000000000001
 30
0.0
 11
44.903355326905398
 21
-152.80000000000001
 31
0.0
  0
LINE
  5
F5
  8
DATA
  6
CONTINUOUS
 62
     7
 10
49.499999999999993
 20
-156.19999999999999
 30
0.0
 11
44.903355326905398
 21
-156.19999999999999
 31
0.0
  0
ARC
  5
F6
  8
DATA
  6
CONTINUOUS
 62
     7
 10
18.79372037914975
 20
-133.99869668246399
 30
0.0
 40
123.3099196064958
 50
179.07126774750691
 51
199.42095774361951
  0
ARC
  5
F7
  8
DATA
  6
CONTINUOUS
 62
     7
 10
32.793720379149761
 20
-133.99869668246399
 30
0.0
 40
123.3099196064958
 50
179.07126774750691
 51
199.42095774361951
  0
ARC
  5
F8
  8
DATA
  6
CONTINUOUS
 62
     7
 10
-118.7937203791497
 20
-133.99869668246399
 30
0.0
 40
123.3099196064958
 50
340.57904225638038
 51
0.9287322524930344
  0
ARC
  5
F9
  8
DATA
  6
CONTINUOUS
 62
     7
 10
-132.7937203791497
 20
-133.99869668246399
 30
0.0
 40
123.3099196064958
 50
340.57904225638038
 51
0.9287322524930344
  0
TEXT
  5
FA
  8
DATA
 62
     7
 10
-70.600000000000051
 20
-168.2060178209266
 30
0.0
 40
4.3435763888888879
  1
PSU4000
 41
0.7
 11
-70.600000000000051
 21
-163.86244143203771
 31
0.0
 73
     3
  0
TEXT
  5
FB
  8
DATA
 62
     7
 10
-59.716690563937888
 20
-172.72711111111099
 30
0.0
 40
2.1717881944444439
  1
POWER SUPPLY UNIT
 41
0.7
 11
-59.716690563937888
 21
-170.5553229166666
 31
0.0
 73
     3
  0
LINE
  5
FC
  8
DATA
  6
CONTINUOUS
 62
     7
 10
-82.500000000000014
 20
-158.0
 30
0.0
 11
-17.500000000000021
 21
-158.0
 31
0.0
  0
LINE
  5
FD
  8
DATA
  6
CONTINUOUS
 62
     7
 10
-82.500000000000014
 20
-143.0
 30
0.0
 11
-17.500000000000021
 21
-143.0
 31
0.0
  0
LINE
  5
FE
  8
DATA
  6
CONTINUOUS
 62
     7
 10
-82.500000000000014
 20
-158.0
 30
0.0
 11
-82.500000000000014
 21
-143.0
 31
0.0
  0
LINE
  5
FF
  8
DATA
  6
CONTINUOUS
 62
     7
 10
-17.500000000000021
 20
-143.0
 30
0.0
 11
-17.500000000000021
 21
-158.0
 31
0.0
  0
CIRCLE
  5
100
  8
DATA
  6
CONTINUOUS
 62
     7
 10
-55.500000000000021
 20
-150.5
 30
0.0
 40
2.5
  0
CIRCLE
  5
101
  8
DATA
  6
CONTINUOUS
 62
     7
 10
-44.500000000000007
 20
-150.5
 30
0.0
 40
2.5
  0
CIRCLE
  5
102
  8
DATA
  6
CONTINUOUS
 62
     7
 10
-34.500000000000007
 20
-150.5
 30
0.0
 40
2.5
  0
CIRCLE
  5
103
  8
DATA
  6
CONTINUOUS
 62
     7
 10
-23.500000000000011
 20
-150.5
 30
0.0
 40
2.5
  0
CIRCLE
  5
104
  8
DATA
  6
CONTINUOUS
 62
     7
 10
-76.500000000000014
 20
-150.5
 30
0.0
 40
2.5
  0
CIRCLE
  5
105
  8
DATA
  6
CONTINUOUS
 62
     7
 10
-65.500000000000014
 20
-150.5
 30
0.0
 40
2.5
  0
TEXT
  5
106
  8
DATA
 62
     7
 10
-57.210614952433431
 20
-156.98098253634541
 30
0.0
 40
2.7147352430555549
  1
OK
 41
0.7
 11
-57.210614952433431
 21
-154.26624729328981
 31
0.0
 73
     3
  0
TEXT
  5
107
  8
DATA
 62
     7
 10
-47.956192913277818
 20
-156.98098253634541
 30
0.0
 40
2.7147352430555549
  1
FAIL
 41
0.7
 11
-47.956192913277818
 21
-154.26624729328981
 31
0.0
 73
     3
  0
TEXT
  5
108
  8
DATA
 62
     7
 10
-78.501684096235451
 20
-156.98098253634541
 30
0.0
 40
2.7147352430555549
  1
OK
 41
0.7
 11
-78.501684096235451
 21
-154.26624729328981
 31
0.0
 73
     3
  0
TEXT
  5
109
  8
DATA
 62
     7
 10
-69.247262057079851
 20
-156.98098253634541
 30
0.0
 40
2.7147352430555549
  1
FAIL
 41
0.7
 11
-69.247262057079851
 21
-154.26624729328981
 31
0.0
 73
     3
  0
TEXT
  5
10A
  8
DATA
 62
     7
 10
-35.883740752102732
 20
-156.98098253634541
 30
0.0
 40
2.7147352430555549
  1
OK
 41
0.7
 11
-35.883740752102732
 21
-154.26624729328981
 31
0.0
 73
     3
  0
TEXT
  5
10B
  8
DATA
 62
     7
 10
-26.62931871294683
 20
-156.98098253634541
 30
0.0
 40
2.7147352430555549
  1
FAIL
 41
0.7
 11
-26.62931871294683
 21
-154.26624729328981
 31
0.0
 73
     3
  0
LINE
  5
10C
  8
DATA
  6
CONTINUOUS
 62
     7
 10
-60.500000000000021
 20
-143.5
 30
0.0
 11
-60.500000000000021
 21
-157.5
 31
0.0
  0
LINE
  5
10D
  8
DATA
  6
CONTINUOUS
 62
     7
 10
-39.500000000000007
 20
-143.5
 30
0.0
 11
-39.500000000000007
 21
-157.5
 31
0.0
  0
LINE
  5
10E
  8
DATA
  6
CONTINUOUS
 62
     7
 10
-81.235593324382862
 20
-157.5
 30
0.0
 11
-81.235593324382862
 21
-143.5
 31
0.0
  0
LINE
  5
10F
  8
DATA
  6
CONTINUOUS
 62
     7
 10
-18.76440667561716
 20
-157.5
 30
0.0
 11
-18.76440667561716
 21
-143.5
 31
0.0
  0
TEXT
  5
110
  8
DATA
 62
     7
 10
-77.135235789551174
 20
-147.0718374423011
 30
0.0
 40
2.7147352430555549
  1
DC OUT 1
 41
0.7
 11
-77.135235789551174
 21
-144.35710219924559
 31
0.0
 73
     3
  0
TEXT
  5
111
  8
DATA
 62
     7
 10
-57.041940495712808
 20
-147.0718374423011
 30
0.0
 40
2.7147352430555549
  1
DC OUT 2
 41
0.7
 11
-57.041940495712808
 21
-144.35710219924559
 31
0.0
 73
     3
  0
TEXT
  5
112
  8
DATA
 62
     7
 10
-36.20228285116751
 20
-147.0718374423011
 30
0.0
 40
2.7147352430555549
  1
DC OUT 3
 41
0.7
 11
-36.20228285116751
 21
-144.35710219924559
 31
0.0
 73
     3
  0
LINE
  5
113
  8
DATA
  6
CONTINUOUS
 62
     7
 10
-104.5
 20
-42.507029204646749
 30
0.0
 11
-104.5
 21
-28.0
 31
0.0
  0
LINE
  5
114
  8
DATA
  6
CONTINUOUS
 62
     7
 10
-90.5
 20
-44.853881875614
 30
0.0
 11
-90.5
 21
-28.0
 31
0.0
  0
LINE
  5
115
  8
DATA
  6
CONTINUOUS
 62
     7
 10
-9.5000000000000142
 20
-44.853881875614
 30
0.0
 11
-9.5000000000000142
 21
-28.0
 31
0.0
  0
LINE
  5
116
  8
DATA
  6
CONTINUOUS
 62
     7
 10
4.4999999999999849
 20
-42.507029204646749
 30
0.0
 11
4.4999999999999849
 21
-28.0
 31
0.0
  0
LINE
  5
117
  8
DATA
  6
CONTINUOUS
 62
     7
 10
-141.47858764702639
 20
-41.0
 30
0.0
 11
-141.47858764702639
 21
-39.822224017893006
 31
0.0
  0
LINE
  5
118
  8
DATA
  6
CONTINUOUS
 62
     7
 10
-132.47858764702639
 20
-41.0
 30
0.0
 11
-132.47858764702639
 21
-40.022490674427807
 31
0.0
  0
LINE
  5
119
  8
DATA
  6
CONTINUOUS
 62
     7
 10
-141.47858764702639
 20
-41.0
 30
0.0
 11
-132.47858764702639
 21
-41.0
 31
0.0
  0
LINE
  5
11A
  8
DATA
  6
CONTINUOUS
 62
     7
 10
-123.9897901553753
 20
-41.86157316672233
 30
0.0
 11
-123.9897901553753
 21
-40.57772990830253
 31
0.0
  0
LINE
  5
11B
  8
DATA
  6
CONTINUOUS
 62
     7
 10
-113.9897901553753
 20
-41.86157316672233
 30
0.0
 11
-113.9897901553753
 21
-41.396528030760649
 31
0.0
  0
LINE
  5
11C
  8
DATA
  6
CONTINUOUS
 62
     7
 10
-123.9897901553753
 20
-41.86157316672233
 30
0.0
 11
-113.9897901553753
 21
-41.86157316672233
 31
0.0
  0
LINE
  5
11D
  8
DATA
  6
CONTINUOUS
 62
     7
 10
18.51566284019837
 20
-41.483965468970901
 30
0.0
 11
18.51566284019837
 21
-41.00154160227774
 31
0.0
  0
LINE
  5
11E
  8
DATA
  6
CONTINUOUS
 62
     7
 10
41.499999999999993
 20
-41.483965468970901
 30
0.0
 11
41.499999999999993
 21
-39.822222890236461
 31
0.0
  0
LINE
  5
11F
  8
DATA
  6
CONTINUOUS
 62
     7
 10
18.51566284019837
 20
-41.483965468970901
 30
0.0
 11
41.499999999999993
 21
-41.483965468970901
 31
0.0
  0
CIRCLE
  5
120
  8
DATA
  6
CONTINUOUS
 62
     7
 10
27.982789195756581
 20
249.890538695782
 30
0.0
 40
5.75
  0
POLYLINE
  5
121
  8
DATA
  6
CONTINUOUS
 62
     7
 66
     1
 10
0.0
 20
0.0
 30
0.0
 70
     1
  0
VERTEX
  5
290
  8
DATA
  6
CONTINUOUS
 62
     7
 10
25.217281406338252
 20
254.68053869578199
 30
0.0
  0
VERTEX
  5
291
  8
DATA
  6
CONTINUOUS
 62
     7
 10
22.45177361691993
 20
249.890538695782
 30
0.0
  0
VERTEX
  5
292
  8
DATA
  6
CONTINUOUS
 62
     7
 10
25.217281406338252
 20
245.10053869578201
 30
0.0
  0
VERTEX
  5
293
  8
DATA
  6
CONTINUOUS
 62
     7
 10
30.748296985174889
 20
245.10053869578201
 30
0.0
  0
VERTEX
  5
294
  8
DATA
  6
CONTINUOUS
 62
     7
 10
33.513804774593218
 20
249.890538695782
 30
0.0
  0
VERTEX
  5
295
  8
DATA
  6
CONTINUOUS
 62
     7
 10
30.7482969851749
 20
254.68053869578199
 30
0.0
  0
SEQEND
  5
296
  8
DATA
  6
CONTINUOUS
 62
     7
  0
CIRCLE
  5
12A
  8
DATA
  6
CONTINUOUS
 62
     7
 10
8.9827891957565811
 20
249.890538695782
 30
0.0
 40
3.5999999999999939
  0
CIRCLE
  5
12B
  8
DATA
  6
CONTINUOUS
 62
     7
 10
8.9827891957565811
 20
249.890538695782
 30
0.0
 40
0.5
  0
CIRCLE
  5
12C
  8
DATA
  6
CONTINUOUS
 62
     7
 10
8.9827891957565811
 20
249.890538695782
 30
0.0
 40
5.75
  0
POLYLINE
  5
12D
  8
DATA
  6
CONTINUOUS
 62
     7
 66
     1
 10
0.0
 20
0.0
 30
0.0
 70
     1
  0
VERTEX
  5
297
  8
DATA
  6
CONTINUOUS
 62
     7
 10
6.2172814063382571
 20
254.68053869578199
 30
0.0
  0
VERTEX
  5
298
  8
DATA
  6
CONTINUOUS
 62
     7
 10
3.4517736169199358
 20
249.890538695782
 30
0.0
  0
VERTEX
  5
299
  8
DATA
  6
CONTINUOUS
 62
     7
 10
6.2172814063382571
 20
245.10053869578201
 30
0.0
  0
VERTEX
  5
29A
  8
DATA
  6
CONTINUOUS
 62
     7
 10
11.748296985174891
 20
245.10053869578201
 30
0.0
  0
VERTEX
  5
29B
  8
DATA
  6
CONTINUOUS
 62
     7
 10
14.51380477459322
 20
249.890538695782
 30
0.0
  0
VERTEX
  5
29C
  8
DATA
  6
CONTINUOUS
 62
     7
 10
11.7482969851749
 20
254.68053869578199
 30
0.0
  0
SEQEND
  5
29D
  8
DATA
  6
CONTINUOUS
 62
     7
  0
CIRCLE
  5
136
  8
DATA
  6
CONTINUOUS
 62
     7
 10
-10.017210804243421
 20
249.890538695782
 30
0.0
 40
3.5999999999999939
  0
CIRCLE
  5
137
  8
DATA
  6
CONTINUOUS
 62
     7
 10
-10.017210804243421
 20
249.890538695782
 30
0.0
 40
0.5
  0
CIRCLE
  5
138
  8
DATA
  6
CONTINUOUS
 62
     7
 10
-10.017210804243421
 20
249.890538695782
 30
0.0
 40
5.75
  0
POLYLINE
  5
139
  8
DATA
  6
CONTINUOUS
 62
     7
 66
     1
 10
0.0
 20
0.0
 30
0.0
 70
     1
  0
VERTEX
  5
29E
  8
DATA
  6
CONTINUOUS
 62
     7
 10
-12.782718593661739
 20
254.68053869578199
 30
0.0
  0
VERTEX
  5
29F
  8
DATA
  6
CONTINUOUS
 62
     7
 10
-15.54822638308006
 20
249.890538695782
 30
0.0
  0
VERTEX
  5
2A0
  8
DATA
  6
CONTINUOUS
 62
     7
 10
-12.782718593661739
 20
245.10053869578201
 30
0.0
  0
VERTEX
  5
2A1
  8
DATA
  6
CONTINUOUS
 62
     7
 10
-7.2517030148251109
 20
245.10053869578201
 30
0.0
  0
VERTEX
  5
2A2
  8
DATA
  6
CONTINUOUS
 62
     7
 10
-4.4861952254067754
 20
249.890538695782
 30
0.0
  0
VERTEX
  5
2A3
  8
DATA
  6
CONTINUOUS
 62
     7
 10
-7.2517030148250949
 20
254.68053869578199
 30
0.0
  0
SEQEND
  5
2A4
  8
DATA
  6
CONTINUOUS
 62
     7
  0
TEXT
  5
142
  8
DATA
 62
     7
 10
14.21123372076131
 20
258.64303083448749
 30
0.0
 40
1.900314670138888
  1
DC OUT 2
 50
180.0
 41
0.7
 11
14.21123372076131
 21
256.74271616434868
 31
0.0
 73
     3
  0
TEXT
  5
143
  8
DATA
 62
     7
 10
12.82182806100562
 20
261.45714676747792
 30
0.0
 40
1.900314670138888
  1
12V/2A
 50
180.0
 41
0.7
 11
12.82182806100562
 21
259.556832097339
 31
0.0
 73
     3
  0
TEXT
  5
144
  8
DATA
 62
     7
 10
-4.7887662792386863
 20
258.64303083448749
 30
0.0
 40
1.900314670138888
  1
DC OUT 1
 50
180.0
 41
0.7
 11
-4.7887662792386863
 21
256.74271616434868
 31
0.0
 73
     3
  0
TEXT
  5
145
  8
DATA
 62
     7
 10
-4.190182602475061
 20
261.45714676747792
 30
0.0
 40
1.900314670138888
  1
12V/2.5A
 50
180.0
 41
0.7
 11
-4.190182602475061
 21
259.556832097339
 31
0.0
 73
     3
  0
LINE
  5
146
  8
DATA
  6
CONTINUOUS
 62
     7
 10
14.931173294134149
 20
236.26651161952009
 30
0.0
 11
2.9311732941341542
 21
236.26651161952009
 31
0.0
  0
LINE
  5
147
  8
DATA
  6
STYLE_05
 62
     7
 10
14.931173294134149
 20
237.64885641284729
 30
0.0
 11
2.9311732941341542
 21
237.64885641284729
 31
0.0
  0
ARC
  5
148
  8
DATA
  6
CONTINUOUS
 62
     7
 10
8.9288910297894546
 20
240.0488564128473
 30
0.0
 40
1.425729287066815
 50
270.0
 51
90.0
  0
CIRCLE
  5
149
  8
DATA
  6
CONTINUOUS
 62
     7
 10
8.9288910297894546
 20
240.0488564128473
 30
0.0
 40
0.8481886582595022
  0
TEXT
  5
14A
  8
DATA
 62
     7
 10
5.904771191764282
 20
241.05757889147981
 30
0.0
 40
2.1717881944444439
  1
+
 50
180.0
 41
0.7
 11
5.904771191764282
 21
238.88579069703539
 31
0.0
 73
     3
  0
LINE
  5
14B
  8
DATA
  6
CONTINUOUS
 62
     7
 10
8.0807023715299664
 20
240.0488564128473
 30
0.0
 11
6.7770194155233829
 21
240.0488564128473
 31
0.0
  0
LINE
  5
14C
  8
DATA
  6
CONTINUOUS
 62
     7
 10
10.35462031685635
 20
240.0488564128473
 30
0.0
 11
11.635480629415881
 21
240.0488564128473
 31
0.0
  0
TEXT
  5
14D
  8
DATA
 62
     7
 10
14.174316533646939
 20
241.06596752395851
 30
0.0
 40
2.1717881944444439
  1
-
 50
180.0
 41
0.7
 11
14.174316533646939
 21
238.89417932951409
 31
0.0
 73
     3
  0
LINE
  5
14E
  8
DATA
  6
CONTINUOUS
 62
     7
 10
-4.0688267058658436
 20
236.26651161952009
 30
0.0
 11
-16.068826705865838
 21
236.26651161952009
 31
0.0
  0
LINE
  5
14F
  8
DATA
  6
STYLE_05
 62
     7
 10
-4.0688267058658436
 20
237.64885641284729
 30
0.0
 11
-16.068826705865838
 21
237.64885641284729
 31
0.0
  0
ARC
  5
150
  8
DATA
  6
CONTINUOUS
 62
     7
 10
-10.07110897021054
 20
240.0488564128473
 30
0.0
 40
1.425729287066815
 50
270.0
 51
90.0
  0
CIRCLE
  5
151
  8
DATA
  6
CONTINUOUS
 62
     7
 10
-10.07110897021054
 20
240.0488564128473
 30
0.0
 40
0.8481886582595022
  0
TEXT
  5
152
  8
DATA
 62
     7
 10
-13.09522880823571
 20
241.05757889147981
 30
0.0
 40
2.1717881944444439
  1
+
 50
180.0
 41
0.7
 11
-13.09522880823571
 21
238.88579069703539
 31
0.0
 73
     3
  0
LINE
  5
153
  8
DATA
  6
CONTINUOUS
 62
     7
 10
-10.91929762847003
 20
240.0488564128473
 30
0.0
 11
-12.222980584476611
 21
240.0488564128473
 31
0.0
  0
LINE
  5
154
  8
DATA
  6
CONTINUOUS
 62
     7
 10
-8.6453796831436467
 20
240.0488564128473
 30
0.0
 11
-7.3645193705841177
 21
240.0488564128473
 31
0.0
  0
TEXT
  5
155
  8
DATA
 62
     7
 10
-4.8256834663530563
 20
241.06596752395851
 30
0.0
 40
2.1717881944444439
  1
-
 50
180.0
 41
0.7
 11
-4.8256834663530563
 21
238.89417932951409
 31
0.0
 73
     3
  0
LINE
  5
156
  8
DATA
  6
CONTINUOUS
 62
     7
 10
18.41863730018985
 20
244.99999999988091
 30
0.0
 11
18.41863730018985
 21
261.49999999988091
 31
0.0
  0
LINE
  5
157
  8
DATA
  6
CONTINUOUS
 62
     7
 10
-0.5813626998101427
 20
244.99999999988091
 30
0.0
 11
-0.5813626998101427
 21
261.49999999988091
 31
0.0
  0
LINE
  5
158
  8
DATA
  6
CONTINUOUS
 62
     7
 10
-30.000000000000011
 20
233.99999999988091
 30
0.0
 11
-30.000000000000011
 21
259.99999999988091
 31
0.0
  0
LINE
  5
159
  8
DATA
  6
CONTINUOUS
 62
     7
 10
-69.000000000000014
 20
233.99999999988091
 30
0.0
 11
-69.000000000000014
 21
259.99999999988091
 31
0.0
  0
ARC
  5
15A
  8
DATA
  6
CONTINUOUS
 62
     7
 10
-49.500000000000128
 20
248.8000000000001
 30
0.0
 40
8.5000000000001261
 50
276.75632703058852
 51
36.251060952178477
  0
ARC
  5
15B
  8
DATA
  6
CONTINUOUS
 62
     7
 10
-49.500000000000128
 20
248.8000000000001
 30
0.0
 40
8.5000000000001421
 50
49.771895243933862
 51
130.22810475606559
  0
ARC
  5
15C
  8
DATA
  6
CONTINUOUS
 62
     7
 10
-49.500000000000128
 20
248.8000000000001
 30
0.0
 40
8.5000000000001208
 50
143.74893904782061
 51
263.24367296941313
  0
ARC
  5
15D
  8
DATA
  6
CONTINUOUS
 62
     7
 10
-49.499999999999893
 20
248.7999999999999
 30
0.0
 40
13.99999999999987
 50
274.09604375815201
 51
39.701212508839433
  0
ARC
  5
15E
  8
DATA
  6
CONTINUOUS
 62
     7
 10
-49.499999999999893
 20
248.7999999999999
 30
0.0
 40
13.999999999999879
 50
47.895105676498709
 51
132.1048943235019
  0
ARC
  5
15F
  8
DATA
  6
CONTINUOUS
 62
     7
 10
-49.499999999999893
 20
248.7999999999999
 30
0.0
 40
13.99999999999986
 50
140.29878749116131
 51
265.90395624184731
  0
LINE
  5
160
  8
DATA
  6
CONTINUOUS
 62
     7
 10
-48.500000000000021
 20
240.35902849193289
 30
0.0
 11
-48.500000000000021
 21
234.8357599562311
 31
0.0
  0
LINE
  5
161
  8
DATA
  6
CONTINUOUS
 62
     7
 10
-50.500000000000021
 20
234.8357599562311
 30
0.0
 11
-50.500000000000021
 21
240.35902849193289
 31
0.0
  0
LINE
  5
162
  8
DATA
  6
CONTINUOUS
 62
     7
 10
-58.886859966642383
 20
259.18685996664237
 30
0.0
 11
-54.989574275356389
 21
255.28957427535639
 31
0.0
  0
LINE
  5
163
  8
DATA
  6
CONTINUOUS
 62
     7
 10
-56.354686065665142
 20
253.8262589409189
 30
0.0
 11
-60.27140451935297
 21
257.74297739460678
 31
0.0
  0
LINE
  5
164
  8
DATA
  6
CONTINUOUS
 62
     7
 10
-40.113140033357567
 20
259.18685996664237
 30
0.0
 11
-44.010425724644492
 21
255.28957427535551
 31
0.0
  0
LINE
  5
165
  8
DATA
  6
CONTINUOUS
 62
     7
 10
-42.645313934334048
 20
253.82625894091979
 30
0.0
 11
-38.728595480646803
 21
257.74297739460712
 31
0.0
  0
CIRCLE
  5
166
  8
DATA
  6
CONTINUOUS
 62
     7
 10
-61.500000000000021
 20
260.74360614134548
 30
0.0
 40
2.9000000000000048
  0
LINE
  5
167
  8
DATA
  6
CONTINUOUS
 62
     7
 10
-63.005119976015017
 20
260.74360614134548
 30
0.0
 11
-59.994880023984997
 21
260.74360614134548
 31
0.0
  0
LINE
  5
168
  8
DATA
  6
CONTINUOUS
 62
     7
 10
-61.500000000000021
 20
259.23848616533053
 30
0.0
 11
-61.500000000000021
 21
262.24872611736077
 31
0.0
  0
CIRCLE
  5
169
  8
DATA
  6
CONTINUOUS
 62
     7
 10
-61.500000000000021
 20
236.74360614134571
 30
0.0
 40
2.9000000000000048
  0
LINE
  5
16A
  8
DATA
  6
CONTINUOUS
 62
     7
 10
-63.005119976015017
 20
236.74360614134571
 30
0.0
 11
-59.994880023984997
 21
236.74360614134571
 31
0.0
  0
LINE
  5
16B
  8
DATA
  6
CONTINUOUS
 62
     7
 10
-61.500000000000021
 20
235.2384861653307
 30
0.0
 11
-61.500000000000021
 21
238.248726117361
 31
0.0
  0
CIRCLE
  5
16C
  8
DATA
  6
CONTINUOUS
 62
     7
 10
-37.500000000000021
 20
236.74360614134571
 30
0.0
 40
2.9000000000000048
  0
LINE
  5
16D
  8
DATA
  6
CONTINUOUS
 62
     7
 10
-39.005119976015031
 20
236.74360614134571
 30
0.0
 11
-35.994880023985012
 21
236.74360614134571
 31
0.0
  0
LINE
  5
16E
  8
DATA
  6
CONTINUOUS
 62
     7
 10
-37.500000000000021
 20
235.2384861653307
 30
0.0
 11
-37.500000000000021
 21
238.248726117361
 31
0.0
  0
CIRCLE
  5
16F
  8
DATA
  6
CONTINUOUS
 62
     7
 10
-131.0
 20
248.5
 30
0.0
 40
3.0
  0
CIRCLE
  5
170
  8
DATA
  6
CONTINUOUS
 62
     7
 10
-95.0
 20
248.5
 30
0.0
 40
3.0
  0
CIRCLE
  5
171
  8
DATA
  6
CONTINUOUS
 62
     7
 10
-131.0
 20
248.5
 30
0.0
 40
0.9499999999999886
  0
CIRCLE
  5
172
  8
DATA
  6
CONTINUOUS
 62
     7
 10
-95.0
 20
248.5
 30
0.0
 40
0.9499999999999886
  0
LINE
  5
173
  8
DATA
  6
CONTINUOUS
 62
     7
 10
-134.5281659379113
 20
249.41591317934871
 30
0.0
 11
-127.0584689682143
 21
263.91591317934871
 31
0.0
  0
LINE
  5
174
  8
DATA
  6
CONTINUOUS
 62
     7
 10
-127.0584689682143
 20
233.08408682065141
 30
0.0
 11
-134.5281659379113
 21
247.58408682065141
 31
0.0
  0
LINE
  5
175
  8
DATA
  6
CONTINUOUS
 62
     7
 10
-91.341374261372792
 20
249.16266768384131
 30
0.0
 11
-98.941531031785644
 21
263.91591317934871
 31
0.0
  0
LINE
  5
176
  8
DATA
  6
CONTINUOUS
 62
     7
 10
-94.629381830604345
 20
233.52879994875701
 30
0.0
 11
-91.175623162848595
 21
247.7755544532497
 31
0.0
  0
LINE
  5
177
  8
DATA
  6
CONTINUOUS
 62
     7
 10
-125.28051985536111
 20
265.0
 30
0.0
 11
-100.71948014463879
 21
265.0
 31
0.0
  0
LINE
  5
178
  8
DATA
  6
CONTINUOUS
 62
     7
 10
-96.573082041981777
 20
232.0
 30
0.0
 11
-125.28051985536111
 21
232.0
 31
0.0
  0
ARC
  5
179
  8
DATA
  6
CONTINUOUS
 62
     7
 10
-132.75021682505809
 20
248.50000000000011
 30
0.0
 40
2.0000000000000009
 50
152.74467162505701
 51
207.2553283749431
  0
ARC
  5
17A
  8
DATA
  6
CONTINUOUS
 62
     7
 10
-125.28051985536111
 20
263.0
 30
0.0
 40
1.9999999999999709
 50
90.0
 51
152.74467162505769
  0
ARC
  5
17B
  8
DATA
  6
CONTINUOUS
 62
     7
 10
-100.71948014463879
 20
263.0
 30
0.0
 40
1.999999999999976
 50
27.255328374943421
 51
90.00000000000081
  0
ARC
  5
17C
  8
DATA
  6
CONTINUOUS
 62
     7
 10
-93.119323374226013
 20
248.2467545044926
 30
0.0
 40
1.999999999999996
 50
346.37300514010821
 51
27.255328374943069
  0
ARC
  5
17D
  8
DATA
  6
CONTINUOUS
 62
     7
 10
-125.28051985536111
 20
234.0
 30
0.0
 40
2.0000000000000009
 50
207.2553283749431
 51
270.0
  0
ARC
  5
17E
  8
DATA
  6
CONTINUOUS
 62
     7
 10
-96.573082041981777
 20
234.0
 30
0.0
 40
2.0000000000000142
 50
270.0
 51
346.37300514010821
  0
LINE
  5
17F
  8
DATA
  6
CONTINUOUS
 62
     7
 10
-125.5
 20
240.3584109995374
 30
0.0
 11
-125.5
 21
249.51828905285171
 31
0.0
  0
LINE
  5
180
  8
DATA
  6
CONTINUOUS
 62
     7
 10
-105.9924014974504
 20
233.51828905285259
 30
0.0
 11
-120.0075985025495
 21
233.51828905285259
 31
0.0
  0
LINE
  5
181
  8
DATA
  6
CONTINUOUS
 62
     7
 10
-100.5
 20
249.51828905285171
 30
0.0
 11
-100.5
 21
240.3584109995374
 31
0.0
  0
LINE
  5
182
  8
DATA
  6
CONTINUOUS
 62
     7
 10
-124.5
 20
250.51828905285171
 30
0.0
 11
-101.5
 21
250.51828905285171
 31
0.0
  0
LINE
  5
183
  8
DATA
  6
CONTINUOUS
 62
     7
 10
-120.800222491654
 20
233.90857829200289
 30
0.0
 11
-125.2926239891045
 21
239.74870023868769
 31
0.0
  0
LINE
  5
184
  8
DATA
  6
CONTINUOUS
 62
     7
 10
-105.1997775083459
 20
233.90857829200289
 30
0.0
 11
-100.7073760108954
 21
239.74870023868769
 31
0.0
  0
POLYLINE
  5
185
  8
DATA
  6
CONTINUOUS
 62
     7
 66
     1
 10
0.0
 20
0.0
 30
0.0
 70
     1
  0
VERTEX
  5
2A5
  8
DATA
  6
CONTINUOUS
 62
     7
 10
-114.0
 20
242.3510221995794
 30
0.0
  0
VERTEX
  5
2A6
  8
DATA
  6
CONTINUOUS
 62
     7
 10
-112.0
 20
242.3510221995794
 30
0.0
  0
VERTEX
  5
2A7
  8
DATA
  6
CONTINUOUS
 62
     7
 10
-112.0
 20
238.3510221995794
 30
0.0
  0
VERTEX
  5
2A8
  8
DATA
  6
CONTINUOUS
 62
     7
 10
-114.0
 20
238.3510221995794
 30
0.0
  0
SEQEND
  5
2A9
  8
DATA
  6
CONTINUOUS
 62
     7
  0
POLYLINE
  5
18C
  8
DATA
  6
CONTINUOUS
 62
     7
 66
     1
 10
0.0
 20
0.0
 30
0.0
 70
     1
  0
VERTEX
  5
2AA
  8
DATA
  6
CONTINUOUS
 62
     7
 10
-121.0
 20
248.19999999999999
 30
0.0
  0
VERTEX
  5
2AB
  8
DATA
  6
CONTINUOUS
 62
     7
 10
-119.0
 20
248.19999999999999
 30
0.0
  0
VERTEX
  5
2AC
  8
DATA
  6
CONTINUOUS
 62
     7
 10
-119.0
 20
244.19999999999999
 30
0.0
  0
VERTEX
  5
2AD
  8
DATA
  6
CONTINUOUS
 62
     7
 10
-121.0
 20
244.19999999999999
 30
0.0
  0
SEQEND
  5
2AE
  8
DATA
  6
CONTINUOUS
 62
     7
  0
POLYLINE
  5
193
  8
DATA
  6
CONTINUOUS
 62
     7
 66
     1
 10
0.0
 20
0.0
 30
0.0
 70
     1
  0
VERTEX
  5
2AF
  8
DATA
  6
CONTINUOUS
 62
     7
 10
-107.0
 20
248.19999999999999
 30
0.0
  0
VERTEX
  5
2B0
  8
DATA
  6
CONTINUOUS
 62
     7
 10
-105.0
 20
248.19999999999999
 30
0.0
  0
VERTEX
  5
2B1
  8
DATA
  6
CONTINUOUS
 62
     7
 10
-105.0
 20
244.19999999999999
 30
0.0
  0
VERTEX
  5
2B2
  8
DATA
  6
CONTINUOUS
 62
     7
 10
-107.0
 20
244.19999999999999
 30
0.0
  0
SEQEND
  5
2B3
  8
DATA
  6
CONTINUOUS
 62
     7
  0
POLYLINE
  5
19A
  8
DATA
  6
CONTINUOUS
 62
     7
 66
     1
 10
0.0
 20
0.0
 30
0.0
 70
   129
  0
VERTEX
  5
2B4
  8
DATA
  6
CONTINUOUS
 62
     7
 10
-127.0
 20
260.7590370355573
 30
0.0
 42
-0.4142135623730951
  0
VERTEX
  5
2B5
  8
DATA
  6
CONTINUOUS
 62
     7
 10
-125.0
 20
262.7590370355573
 30
0.0
  0
VERTEX
  5
2B6
  8
DATA
  6
CONTINUOUS
 62
     7
 10
-101.0
 20
262.7590370355573
 30
0.0
 42
-0.414213562373091
  0
VERTEX
  5
2B7
  8
DATA
  6
CONTINUOUS
 62
     7
 10
-99.0
 20
260.7590370355573
 30
0.0
  0
VERTEX
  5
2B8
  8
DATA
  6
CONTINUOUS
 62
     7
 10
-99.0
 20
234.7590370355575
 30
0.0
 42
-0.4142135623730951
  0
VERTEX
  5
2B9
  8
DATA
  6
CONTINUOUS
 62
     7
 10
-101.0
 20
232.7590370355575
 30
0.0
  0
VERTEX
  5
2BA
  8
DATA
  6
CONTINUOUS
 62
     7
 10
-125.0
 20
232.7590370355575
 30
0.0
 42
-0.4142135623730951
  0
VERTEX
  5
2BB
  8
DATA
  6
CONTINUOUS
 62
     7
 10
-127.0
 20
234.7590370355575
 30
0.0
  0
SEQEND
  5
2BC
  8
DATA
  6
CONTINUOUS
 62
     7
  0
ARC
  5
1A4
  8
DATA
  6
CONTINUOUS
 62
     7
 10
-124.5
 20
249.51828905285171
 30
0.0
 40
1.0
 50
90.0
 51
180.0
  0
ARC
  5
1A5
  8
DATA
  6
CONTINUOUS
 62
     7
 10
-101.5
 20
249.51828905285171
 30
0.0
 40
1.0
 50
0.0
 51
90.0
  0
ARC
  5
1A6
  8
DATA
  6
CONTINUOUS
 62
     7
 10
-120.0075985025495
 20
234.51828905285259
 30
0.0
 40
1.000000000000022
 50
217.56859202883069
 51
269.99999999999841
  0
ARC
  5
1A7
  8
DATA
  6
CONTINUOUS
 62
     7
 10
-105.9924014974504
 20
234.51828905285259
 30
0.0
 40
1.000000000000014
 50
270.0
 51
322.43140797116757
  0
ARC
  5
1A8
  8
DATA
  6
CONTINUOUS
 62
     7
 10
-124.5
 20
240.35841099953731
 30
0.0
 40
1.000000000000028
 50
179.9999999999975
 51
217.56859202882879
  0
ARC
  5
1A9
  8
DATA
  6
CONTINUOUS
 62
     7
 10
-101.5
 20
240.3584109995374
 30
0.0
 40
1.000000000000034
 50
322.4314079711657
 51
359.9999999999967
  0
POLYLINE
  5
1AA
  8
DATA
  6
CONTINUOUS
 62
     7
 66
     1
 10
0.0
 20
0.0
 30
0.0
 70
     1
  0
VERTEX
  5
2BD
  8
DATA
  6
CONTINUOUS
 62
     7
 10
-125.0
 20
261.39999999999998
 30
0.0
  0
VERTEX
  5
2BE
  8
DATA
  6
CONTINUOUS
 62
     7
 10
-101.0
 20
261.39999999999998
 30
0.0
  0
VERTEX
  5
2BF
  8
DATA
  6
CONTINUOUS
 62
     7
 10
-101.0
 20
253.40000000000001
 30
0.0
  0
VERTEX
  5
2C0
  8
DATA
  6
CONTINUOUS
 62
     7
 10
-125.0
 20
253.40000000000001
 30
0.0
  0
SEQEND
  5
2C1
  8
DATA
  6
CONTINUOUS
 62
     7
  0
TEXT
  5
1B1
  8
DATA
 62
     7
 10
-105.5833333333333
 20
260.17532760976309
 30
0.0
 40
1.085894097222222
  1
USE ONLY WITH250VFUSE
 50
180.0
 41
0.7
 11
-105.5833333333333
 21
259.08943351254089
 31
0.0
 73
     3
  0
TEXT
  5
1B2
  8
DATA
 62
     7
 10
-72.469036651949054
 20
256.33387532007367
 30
0.0
 40
1.411662326388889
  1
50-60Hz
 50
180.0
 41
0.7
 11
-72.469036651949054
 21
254.92221299368481
 31
0.0
 73
     3
  0
TEXT
  5
1B3
  8
DATA
 62
     7
 10
-72.469036651949054
 20
258.28387532007372
 30
0.0
 40
1.411662326388889
  1
100-240V～AC/2A
 50
180.0
 41
0.7
 11
-72.469036651949054
 21
256.8722129936848
 31
0.0
 73
     3
  0
TEXT
  5
1B4
  8
DATA
 62
     7
 10
-72.469036651949054
 20
260.23387532007359
 30
0.0
 40
1.411662326388889
  1
130W MAX FUSE:T2AL
 50
180.0
 41
0.7
 11
-72.469036651949054
 21
258.82221299368479
 31
0.0
 73
     3
  0
LINE
  5
1B5
  8
DATA
  6
CONTINUOUS
 62
     7
 10
50.0
 20
247.39999999988089
 30
0.0
 11
49.499999999999993
 21
247.39999999988089
 31
0.0
  0
LINE
  5
1B6
  8
DATA
  6
CONTINUOUS
 62
     7
 10
-149.5
 20
247.39999999988089
 30
0.0
 11
-150.0
 21
247.39999999988089
 31
0.0
  0
LINE
  5
1B7
  8
DATA
  6
CONTINUOUS
 62
     7
 10
-149.5
 20
243.9999999998808
 30
0.0
 11
-149.5
 21
247.39999999988089
 31
0.0
  0
LINE
  5
1B8
  8
DATA
  6
CONTINUOUS
 62
     7
 10
49.499999999999993
 20
243.9999999998808
 30
0.0
 11
49.499999999999993
 21
247.39999999988089
 31
0.0
  0
ARC
  5
1B9
  8
DATA
  6
CONTINUOUS
 62
     7
 10
-52.500000000000021
 20
230.08620858521809
 30
0.0
 40
4.0016182334214436
 50
178.37049752871829
 51
1.629502471281711
  0
ARC
  5
1BA
  8
DATA
  6
CONTINUOUS
 62
     7
 10
-26.500000000000011
 20
230.08620858521809
 30
0.0
 40
4.0016182334214436
 50
178.37049752871829
 51
1.629502471281711
  0
LINE
  5
1BB
  8
DATA
  6
CONTINUOUS
 62
     7
 10
336.0
 20
-132.0
 30
0.0
 11
336.0
 21
-175.0
 31
0.0
  0
LINE
  5
1BC
  8
DATA
  6
CONTINUOUS
 62
     7
 10
-13.61721080424341
 20
141.99999999999989
 30
0.0
 11
-6.4172108042434237
 21
141.99999999999989
 31
0.0
  0
LINE
  5
1BD
  8
DATA
  6
CONTINUOUS
 62
     7
 10
5.3827891957565859
 20
141.99999999999989
 30
0.0
 11
12.55619195848951
 21
141.99999999999989
 31
0.0
  0
LINE
  5
1BE
  8
DATA
  6
CONTINUOUS
 62
     7
 10
24.38278919575659
 20
141.99999999999989
 30
0.0
 11
31.582789195756568
 21
141.99999999999989
 31
0.0
  0
LINE
  5
1BF
  8
DATA
  6
CONTINUOUS
 62
     7
 10
-13.61721080424341
 20
141.99999999999989
 30
0.0
 11
-13.61721080424341
 21
139.99999999999989
 31
0.0
  0
LINE
  5
1C0
  8
DATA
  6
CONTINUOUS
 62
     7
 10
-6.4172108042434237
 20
141.99999999999989
 30
0.0
 11
-6.4172108042434237
 21
139.99999999999989
 31
0.0
  0
LINE
  5
1C1
  8
DATA
  6
CONTINUOUS
 62
     7
 10
5.3827891957565859
 20
141.99999999999989
 30
0.0
 11
5.3827891957565859
 21
139.99999999999989
 31
0.0
  0
LINE
  5
1C2
  8
DATA
  6
CONTINUOUS
 62
     7
 10
12.55619195848951
 20
141.99999999999989
 30
0.0
 11
12.55619195848951
 21
139.99999999999989
 31
0.0
  0
LINE
  5
1C3
  8
DATA
  6
CONTINUOUS
 62
     7
 10
24.38278919575659
 20
141.99999999999989
 30
0.0
 11
24.38278919575659
 21
139.99999999999989
 31
0.0
  0
LINE
  5
1C4
  8
DATA
  6
CONTINUOUS
 62
     7
 10
31.582789195756568
 20
141.99999999999989
 30
0.0
 11
31.582789195756568
 21
139.99999999999989
 31
0.0
  0
LINE
  5
1C5
  8
DATA
  6
CONTINUOUS
 62
     7
 10
-15.54822638308006
 20
139.99999999999989
 30
0.0
 11
-15.54822638308006
 21
135.99999999999989
 31
0.0
  0
LINE
  5
1C6
  8
DATA
  6
CONTINUOUS
 62
     7
 10
-4.4861952254067754
 20
139.99999999999989
 30
0.0
 11
-4.4861952254067754
 21
135.99999999999989
 31
0.0
  0
LINE
  5
1C7
  8
DATA
  6
CONTINUOUS
 62
     7
 10
3.4517736169199358
 20
139.99999999999989
 30
0.0
 11
3.4517736169199358
 21
135.99999999999989
 31
0.0
  0
LINE
  5
1C8
  8
DATA
  6
CONTINUOUS
 62
     7
 10
14.51380477459322
 20
139.99999999999989
 30
0.0
 11
14.51380477459322
 21
135.99999999999989
 31
0.0
  0
LINE
  5
1C9
  8
DATA
  6
CONTINUOUS
 62
     7
 10
22.45177361691993
 20
139.99999999999989
 30
0.0
 11
22.45177361691993
 21
135.99999999999989
 31
0.0
  0
LINE
  5
1CA
  8
DATA
  6
CONTINUOUS
 62
     7
 10
33.513804774593218
 20
139.99999999999989
 30
0.0
 11
33.513804774593218
 21
135.99999999999989
 31
0.0
  0
LINE
  5
1CB
  8
DATA
  6
CONTINUOUS
 62
     7
 10
-15.54822638308006
 20
139.99999999999989
 30
0.0
 11
-4.4861952254067754
 21
139.99999999999989
 31
0.0
  0
LINE
  5
1CC
  8
DATA
  6
CONTINUOUS
 62
     7
 10
3.4517736169199358
 20
139.99999999999989
 30
0.0
 11
14.51380477459322
 21
139.99999999999989
 31
0.0
  0
LINE
  5
1CD
  8
DATA
  6
CONTINUOUS
 62
     7
 10
22.45177361691993
 20
139.99999999999989
 30
0.0
 11
33.513804774593218
 21
139.99999999999989
 31
0.0
  0
LINE
  5
1CE
  8
DATA
  6
CONTINUOUS
 62
     7
 10
-134.75021682505809
 20
137.99999999999989
 30
0.0
 11
-134.75021682505809
 21
135.99999999999989
 31
0.0
  0
LINE
  5
1CF
  8
DATA
  6
CONTINUOUS
 62
     7
 10
-91.123590740983531
 20
137.99999999999989
 30
0.0
 11
-91.123590740983531
 21
135.99999999999989
 31
0.0
  0
LINE
  5
1D0
  8
DATA
  6
CONTINUOUS
 62
     7
 10
-127.0
 20
139.99999999999989
 30
0.0
 11
-127.0
 21
135.99999999999989
 31
0.0
  0
LINE
  5
1D1
  8
DATA
  6
CONTINUOUS
 62
     7
 10
-99.0
 20
139.99999999999989
 30
0.0
 11
-99.0
 21
135.99999999999989
 31
0.0
  0
LINE
  5
1D2
  8
DATA
  6
CONTINUOUS
 62
     7
 10
-127.0
 20
139.99999999999989
 30
0.0
 11
-99.0
 21
139.99999999999989
 31
0.0
  0
LINE
  5
1D3
  8
DATA
  6
CONTINUOUS
 62
     7
 10
-134.75021682505809
 20
137.99999999999989
 30
0.0
 11
-91.123590740983531
 21
137.99999999999989
 31
0.0
  0
ARC
  5
1D4
  8
DATA
  6
CONTINUOUS
 62
     7
 10
-61.500000000000021
 20
133.26100000000011
 30
0.0
 40
3.9889999999998889
 50
43.364583226488072
 51
136.63541677351191
  0
ARC
  5
1D5
  8
DATA
  6
CONTINUOUS
 62
     7
 10
-37.500000000000021
 20
133.26100000000011
 30
0.0
 40
3.9889999999998889
 50
43.364583226488072
 51
136.63541677351191
  0
LINE
  5
1D6
  8
DATA
  6
CONTINUOUS
 62
     7
 10
319.04952433281119
 20
-170.19999999999999
 30
0.0
 11
319.04952433281119
 21
-173.05000000000001
 31
0.0
  0
LINE
  5
1D7
  8
DATA
  6
CONTINUOUS
 62
     7
 10
299.04952433281119
 20
-170.19999999999999
 30
0.0
 11
299.04952433281119
 21
-173.05000000000001
 31
0.0
  0
LINE
  5
1D8
  8
DATA
  6
CONTINUOUS
 62
     7
 10
299.04952433281119
 20
-170.19999999999999
 30
0.0
 11
319.04952433281119
 21
-170.19999999999999
 31
0.0
  0
LINE
  5
1D9
  8
DATA
  6
CONTINUOUS
 62
     7
 10
299.04952433281119
 20
-173.05000000000001
 30
0.0
 11
319.04952433281119
 21
-173.05000000000001
 31
0.0
  0
LINE
  5
1DA
  8
DATA
  6
CONTINUOUS
 62
     7
 10
154.5288321462954
 20
-152.80000000000001
 30
0.0
 11
336.0
 21
-152.80000000000001
 31
0.0
  0
LINE
  5
1DB
  8
DATA
  6
CONTINUOUS
 62
     7
 10
153.64185123958541
 20
-156.19999999999999
 30
0.0
 11
336.0
 21
-156.19999999999999
 31
0.0
  0
LINE
  5
1DC
  8
DATA
  6
CONTINUOUS
 62
     7
 10
155.04405754109311
 20
-152.80000000000001
 30
0.0
 11
154.13947038512981
 21
-156.19999999999999
 31
0.0
  0
LINE
  5
1DD
  8
DATA
  6
CONTINUOUS
 62
     7
 10
342.00000000011232
 20
-153.09326158507059
 30
0.0
 11
342.00000000011232
 21
-160.29326158507061
 31
0.0
  0
LINE
  5
1DE
  8
DATA
  6
CONTINUOUS
 62
     7
 10
342.00000000011232
 20
-153.09326158507059
 30
0.0
 11
340.00000000011232
 21
-153.09326158507059
 31
0.0
  0
LINE
  5
1DF
  8
DATA
  6
CONTINUOUS
 62
     7
 10
342.00000000011232
 20
-160.29326158507061
 30
0.0
 11
340.00000000011232
 21
-160.29326158507061
 31
0.0
  0
LINE
  5
1E0
  8
DATA
  6
CONTINUOUS
 62
     7
 10
340.00000000011232
 20
-151.16224600623389
 30
0.0
 11
336.00000000011232
 21
-151.16224600623389
 31
0.0
  0
LINE
  5
1E1
  8
DATA
  6
CONTINUOUS
 62
     7
 10
340.00000000011232
 20
-162.22427716390729
 30
0.0
 11
336.00000000011232
 21
-162.22427716390729
 31
0.0
  0
LINE
  5
1E2
  8
DATA
  6
CONTINUOUS
 62
     7
 10
340.00000000011232
 20
-151.16224600623389
 30
0.0
 11
340.00000000011232
 21
-162.22427716390729
 31
0.0
  0
LINE
  5
1E3
  8
DATA
  6
CONTINUOUS
 62
     7
 10
336.0
 20
-139.0
 30
0.0
 11
340.0
 21
-139.0
 31
0.0
  0
LINE
  5
1E4
  8
DATA
  6
CONTINUOUS
 62
     7
 10
336.0
 20
-172.0
 30
0.0
 11
340.0
 21
-172.0
 31
0.0
  0
LINE
  5
1E5
  8
DATA
  6
CONTINUOUS
 62
     7
 10
340.0
 20
-139.0
 30
0.0
 11
340.0
 21
-151.16224600623389
 31
0.0
  0
LINE
  5
1E6
  8
DATA
  6
CONTINUOUS
 62
     7
 10
340.0
 20
-172.0
 30
0.0
 11
340.0
 21
-162.22427716390729
 31
0.0
  0
LINE
  5
1E7
  8
DATA
  6
CONTINUOUS
 62
     7
 10
-83.976350839953653
 20
-142.0000000000004
 30
0.0
 11
-85.210670924361281
 21
-159.2804811817073
 31
0.0
  0
ARC
  5
1E8
  8
DATA
  6
CONTINUOUS
 62
     7
 10
-50.093652081907358
 20
-379.97260508668268
 30
0.0
 40
240.3726233306754
 50
81.851089569437093
 51
98.103346639025162
  0
ARC
  5
1E9
  8
DATA
  6
CONTINUOUS
 62
     7
 10
-50.0
 20
85.936691327237895
 30
0.0
 40
247.73222043211399
 50
261.82876644005017
 51
278.17123355994971
  0
LINE
  5
1EA
  8
DATA
  6
CONTINUOUS
 62
     7
 10
-14.789329075638751
 20
-159.2804811817075
 30
0.0
 11
-16.02171915573896
 21
-142.02702006030441
 31
0.0
  0
ENDSEC
  0
EOF
