  0
SECTION
  2
HEADER
  9
$ACADVER
  1
AC1009
  9
$INSBASE
 10
0.0
 20
0.0
 30
0.0
  9
$EXTMIN
 10
-80.010985489947416
 20
-131.71201227911089
 30
-0.0015258207003583
  9
$EXTMAX
 10
280.01098716632811
 20
403.5481165140169
 30
0.0000000349246037
  9
$LIMMIN
 10
0.0
 20
0.0
  9
$LIMMAX
 10
0.0
 20
0.0
  9
$ORTHOMODE
 70
     0
  9
$REGENMODE
 70
     1
  9
$FILLMODE
 70
     1
  9
$QTEXTMODE
 70
     0
  9
$MIRRTEXT
 70
     1
  9
$DRAGMODE
 70
     2
  9
$LTSCALE
 40
10.16
  9
$OSMODE
 70
   231
  9
$ATTMODE
 70
     1
  9
$TEXTSIZE
 40
0.0
  9
$TRACEWID
 40
1.0
  9
$TEXTSTYLE
  7
STANDARD
  9
$CLAYER
  8
DATA
  9
$CELTYPE
  6
BYLAYER
  9
$CECOLOR
 62
   256
  9
$DIMSCALE
 40
1.0
  9
$DIMASZ
 40
0.18
  9
$DIMEXO
 40
0.0625
  9
$DIMDLI
 40
0.38
  9
$DIMRND
 40
0.0
  9
$DIMDLE
 40
0.0
  9
$DIMEXE
 40
0.18
  9
$DIMTP
 40
0.0
  9
$DIMTM
 40
0.0
  9
$DIMTXT
 40
0.18
  9
$DIMCEN
 40
0.09
  9
$DIMTSZ
 40
0.0
  9
$DIMTOL
 70
     0
  9
$DIMLIM
 70
     0
  9
$DIMTIH
 70
     1
  9
$DIMTOH
 70
     1
  9
$DIMSE1
 70
     0
  9
$DIMSE2
 70
     0
  9
$DIMTAD
 70
     0
  9
$DIMZIN
 70
     0
  9
$DIMBLK
  1

  9
$DIMASO
 70
     1
  9
$DIMSHO
 70
     1
  9
$DIMPOST
  1

  9
$DIMAPOST
  1

  9
$DIMALT
 70
     0
  9
$DIMALTD
 70
     2
  9
$DIMALTF
 40
25.399999999999999
  9
$DIMLFAC
 40
1.0
  9
$DIMTOFL
 70
     0
  9
$DIMTVP
 40
0.0
  9
$DIMTIX
 70
     0
  9
$DIMSOXD
 70
     0
  9
$DIMSAH
 70
     0
  9
$DIMBLK1
  1

  9
$DIMBLK2
  1

  9
$DIMSTYLE
  2
STANDARD
  9
$DIMCLRD
 70
     0
  9
$DIMCLRE
 70
     0
  9
$DIMCLRT
 70
     0
  9
$DIMTFAC
 40
1.0
  9
$DIMGAP
 40
0.09
  9
$LUNITS
 70
     2
  9
$LUPREC
 70
     4
  9
$SKETCHINC
 40
0.1
  9
$FILLETRAD
 40
0.0
  9
$AUNITS
 70
     0
  9
$AUPREC
 70
     0
  9
$MENU
  1
acad
  9
$ELEVATION
 40
0.0
  9
$PELEVATION
 40
0.0
  9
$THICKNESS
 40
0.0
  9
$LIMCHECK
 70
     0
  9
$BLIPMODE
 70
     0
  9
$CHAMFERA
 40
0.0
  9
$CHAMFERB
 40
0.0
  9
$SKPOLY
 70
     0
  9
$TDCREATE
 40
2455027.577395834
  9
$TDUPDATE
 40
2455027.5925026392
  9
$TDINDWG
 40
0.0002372569
  9
$TDUSRTIMER
 40
0.0002372569
  9
$USRTIMER
 70
     1
  9
$ANGBASE
 50
0.0
  9
$ANGDIR
 70
     0
  9
$PDMODE
 70
     1
  9
$PDSIZE
 40
-2.0
  9
$PLINEWID
 40
0.0
  9
$COORDS
 70
     0
  9
$SPLFRAME
 70
     0
  9
$SPLINETYPE
 70
     6
  9
$SPLINESEGS
 70
     8
  9
$ATTDIA
 70
     0
  9
$ATTREQ
 70
     1
  9
$HANDLING
 70
     1
  9
$HANDSEED
  5
3FD
  9
$SURFTAB1
 70
     6
  9
$SURFTAB2
 70
     6
  9
$SURFTYPE
 70
     6
  9
$SURFU
 70
     6
  9
$SURFV
 70
     6
  9
$UCSNAME
  2

  9
$UCSORG
 10
0.0
 20
0.0
 30
0.0
  9
$UCSXDIR
 10
1.0
 20
0.0
 30
0.0
  9
$UCSYDIR
 10
0.0
 20
1.0
 30
0.0
  9
$PUCSNAME
  2

  9
$PUCSORG
 10
0.0
 20
0.0
 30
0.0
  9
$PUCSXDIR
 10
1.0
 20
0.0
 30
0.0
  9
$PUCSYDIR
 10
0.0
 20
1.0
 30
0.0
  9
$USERI1
 70
     0
  9
$USERI2
 70
     0
  9
$USERI3
 70
     0
  9
$USERI4
 70
     0
  9
$USERI5
 70
     0
  9
$USERR1
 40
0.0
  9
$USERR2
 40
0.0
  9
$USERR3
 40
0.0
  9
$USERR4
 40
0.0
  9
$USERR5
 40
0.0
  9
$WORLDVIEW
 70
     1
  9
$SHADEDGE
 70
     3
  9
$SHADEDIF
 70
    70
  9
$TILEMODE
 70
     1
  9
$MAXACTVP
 70
    64
  9
$PLIMCHECK
 70
     0
  9
$PEXTMIN
 10
1.0000000000000000E+020
 20
1.0000000000000000E+020
 30
1.0000000000000000E+020
  9
$PEXTMAX
 10
-1.0000000000000000E+020
 20
-1.0000000000000000E+020
 30
-1.0000000000000000E+020
  9
$PLIMMIN
 10
0.0
 20
0.0
  9
$PLIMMAX
 10
12.0
 20
9.0
  9
$UNITMODE
 70
     0
  9
$VISRETAIN
 70
     0
  9
$PLINEGEN
 70
     1
  9
$PSLTSCALE
 70
     0
  0
ENDSEC
  0
SECTION
  2
TABLES
  0
TABLE
  2
VPORT
 70
     1
  0
VPORT
  2
*ACTIVE
 70
     0
 10
0.0
 20
0.0
 11
1.0
 21
1.0
 12
100.0000008381904
 22
135.91805211745299
 13
0.0
 23
0.0
 14
1.0
 24
1.0
 15
0.0
 25
0.0
 16
0.0
 26
0.0
 36
1.0
 17
0.0
 27
0.0
 37
0.0
 40
539.20553514786843
 41
1.964329643296433
 42
50.0
 43
0.0
 44
0.0
 50
0.0
 51
0.0
 71
     0
 72
  2000
 73
     1
 74
     1
 75
     0
 76
     0
 77
     0
 78
     0
  0
ENDTAB
  0
TABLE
  2
LTYPE
 70
    11
  0
LTYPE
  2
CONTINUOUS
 70
     0
  3
Solid line
 72
    65
 73
     0
 40
0.0
  0
LTYPE
  2
STYLE_05
 70
     0
  3

 72
    65
 73
     2
 40
0.208282470703125
 49
0.069427490234375
 49
-0.13885498046875
  0
ENDTAB
  0
TABLE
  2
LAYER
 70
     5
  0
LAYER
  2
0
 70
     0
 62
     7
  6
CONTINUOUS
  0
LAYER
  2
DATA
 70
     0
 62
     7
  6
CONTINUOUS
  0
LAYER
  2
HIBINO-BASE
 70
     0
 62
     7
  6
CONTINUOUS
  0
LAYER
  2
SPEC
 70
     0
 62
     7
  6
CONTINUOUS
  0
LAYER
  2
DIMNSIONS
 70
     0
 62
     7
  6
CONTINUOUS
  0
ENDTAB
  0
TABLE
  2
STYLE
 70
     3
  0
STYLE
  2
STANDARD
 70
     0
 40
0.0
 41
1.0
 50
0.0
 71
     0
 42
0.0
  3
txt
  4
BIGFONT.SHX
  0
ENDTAB
  0
TABLE
  2
VIEW
 70
     0
  0
ENDTAB
  0
TABLE
  2
UCS
 70
     0
  0
ENDTAB
  0
TABLE
  2
APPID
 70
     3
  0
APPID
  2
ACAD
 70
     0
  0
APPID
  2
ACADANNOTATIVE
 70
     0
  0
APPID
  2
ACAD_MLEADERVER
 70
     0
  0
ENDTAB
  0
TABLE
  2
DIMSTYLE
 70
     2
  0
DIMSTYLE
  2
STANDARD
 70
     0
  3

  4

  5

  6

  7

 40
1.0
 41
0.18
 42
0.0625
 43
0.38
 44
0.18
 45
0.0
 46
0.0
 47
0.0
 48
0.0
140
0.18
141
0.09
142
0.0
143
25.399999999999999
144
1.0
145
0.0
146
1.0
147
0.09
 71
     0
 72
     0
 73
     1
 74
     1
 75
     0
 76
     0
 77
     0
 78
     0
170
     0
171
     2
172
     0
173
     0
174
     0
175
     0
176
     0
177
     0
178
     0
  0
ENDTAB
  0
ENDSEC
  0
SECTION
  2
BLOCKS
  0
BLOCK
  8
0
  2
$MODEL_SPACE
 70
     0
 10
0.0
 20
0.0
 30
0.0
  3
$MODEL_SPACE
  1

  0
ENDBLK
  5
33A
  8
0
  0
BLOCK
 67
     1
  8
0
  2
$PAPER_SPACE
 70
     0
 10
0.0
 20
0.0
 30
0.0
  3
$PAPER_SPACE
  1

  0
ENDBLK
  5
336
 67
     1
  8
0
  0
ENDSEC
  0
SECTION
  2
ENTITIES
  0
LINE
  5
2C
  8
HIBINO-BASE
  6
CONTINUOUS
 62
     7
 10
-79.999999999999986
 20
403.53181499999999
 30
0.0
 11
279.99999999999989
 21
403.53181499999999
 31
0.0
  0
LINE
  5
2D
  8
HIBINO-BASE
  6
CONTINUOUS
 62
     7
 10
279.99999999999989
 20
-116.46818500000001
 30
0.0
 11
-79.999999999999986
 21
-116.46818500000001
 31
0.0
  0
LINE
  5
2E
  8
HIBINO-BASE
  6
CONTINUOUS
 62
     7
 10
-79.999999999999986
 20
-116.46818500000001
 30
0.0
 11
-79.999999999999986
 21
403.53181499999999
 31
0.0
  0
TEXT
  5
2F
  8
HIBINO-BASE
 62
     7
 10
-65.631999999999991
 20
-129.2855405999999
 30
0.0
 40
7.2000883593749991
  1
Hibino Corporation
 41
0.7
 11
-65.631999999999991
 21
-122.0854522406249
 31
0.0
 73
     3
  0
LINE
  5
30
  8
HIBINO-BASE
  6
CONTINUOUS
 62
     7
 10
279.99999999999989
 20
403.53181499999999
 30
0.0
 11
279.99999999999989
 21
-116.46818500000001
 31
0.0
  0
LINE
  5
31
  8
HIBINO-BASE
  6
CONTINUOUS
 62
     7
 10
100.0
 20
-71.468184999999977
 30
0.0
 11
279.99999999999989
 21
-71.468184999999977
 31
0.0
  0
LINE
  5
32
  8
HIBINO-BASE
  6
CONTINUOUS
 62
     7
 10
100.0
 20
-116.46818500000001
 30
0.0
 11
100.0
 21
-71.468184999999977
 31
0.0
  0
TEXT
  5
33
  8
HIBINO-BASE
 62
     7
 10
101.8
 20
-76.485571666666644
 30
0.0
 40
3.2576822916666659
  1
NOTE
 41
0.7
 11
101.8
 21
-73.227889374999975
 31
0.0
 73
     3
  0
LINE
  5
34
  8
HIBINO-BASE
  6
CONTINUOUS
 62
     7
 10
170.0
 20
-116.46818500000001
 30
0.0
 11
170.0
 21
-71.468184999999977
 31
0.0
  0
TEXT
  5
35
  8
HIBINO-BASE
 62
     7
 10
171.7999999999999
 20
-76.485571666666644
 30
0.0
 40
3.2576822916666659
  1
TITLE
 41
0.7
 11
171.7999999999999
 21
-73.227889374999975
 31
0.0
 73
     3
  0
TEXT
  5
36
  8
HIBINO-BASE
 62
     7
 10
200.13677999999999
 20
-129.2855405999999
 30
0.0
 40
7.2000883593749991
  1
ヒビノ株式会社
 41
0.7
 11
200.13677999999999
 21
-122.0854522406249
 31
0.0
 73
     3
  0
LINE
  5
37
  8
HIBINO-BASE
  6
CONTINUOUS
 62
     7
 10
100.0
 20
-96.468184999999963
 30
0.0
 11
279.99999999999989
 21
-96.468184999999963
 31
0.0
  0
TEXT
  5
38
  8
HIBINO-BASE
 62
     7
 10
196.80000000000001
 20
-101.3729316666666
 30
0.0
 40
3.2576822916666659
  1
DRAWN
 41
0.7
 11
196.80000000000001
 21
-98.115249375000005
 31
0.0
 73
     3
  0
TEXT
  5
39
  8
HIBINO-BASE
 62
     7
 10
146.7999999999999
 20
-101.3729316666666
 30
0.0
 40
3.2576822916666659
  1
DATE
 41
0.7
 11
146.7999999999999
 21
-98.115249375000005
 31
0.0
 73
     3
  0
TEXT
  5
3A
  8
HIBINO-BASE
 62
     7
 10
126.8
 20
-101.3729316666666
 30
0.0
 40
3.2576822916666659
  1
SCALE
 41
0.7
 11
126.8
 21
-98.115249375000005
 31
0.0
 73
     3
  0
TEXT
  5
3B
  8
HIBINO-BASE
 62
     7
 10
171.7999999999999
 20
-101.3729316666666
 30
0.0
 40
3.2576822916666659
  1
DESIGN
 41
0.7
 11
171.7999999999999
 21
-98.115249375000005
 31
0.0
 73
     3
  0
TEXT
  5
3C
  8
HIBINO-BASE
 62
     7
 10
246.7999999999999
 20
-101.3729316666666
 30
0.0
 40
3.2576822916666659
  1
DRAWING NO.
 41
0.7
 11
246.7999999999999
 21
-98.115249375000005
 31
0.0
 73
     3
  0
TEXT
  5
3D
  8
HIBINO-BASE
 62
     7
 10
221.7999999999999
 20
-101.3729316666666
 30
0.0
 40
3.2576822916666659
  1
CHECK
 41
0.7
 11
221.7999999999999
 21
-98.115249375000005
 31
0.0
 73
     3
  0
LINE
  5
3E
  8
HIBINO-BASE
  6
CONTINUOUS
 62
     7
 10
128.74999999999989
 20
-113.96818500000001
 30
0.0
 11
136.25
 21
-106.46818499999991
 31
0.0
  0
TEXT
  5
3F
  8
HIBINO-BASE
 62
     7
 10
127.5
 20
-108.68607166666661
 30
0.0
 40
3.2576822916666659
  1
1
 41
0.7
 11
127.5
 21
-105.42838937499999
 31
0.0
 73
     3
  0
LINE
  5
40
  8
HIBINO-BASE
  6
CONTINUOUS
 62
     7
 10
125.0
 20
-116.46818500000001
 30
0.0
 11
125.0
 21
-96.468184999999963
 31
0.0
  0
LINE
  5
41
  8
HIBINO-BASE
  6
CONTINUOUS
 62
     7
 10
145.0
 20
-116.46818500000001
 30
0.0
 11
145.0
 21
-96.468184999999963
 31
0.0
  0
LINE
  5
42
  8
HIBINO-BASE
  6
CONTINUOUS
 62
     7
 10
195.0
 20
-96.468184999999963
 30
0.0
 11
195.0
 21
-116.46818500000001
 31
0.0
  0
LINE
  5
43
  8
HIBINO-BASE
  6
CONTINUOUS
 62
     7
 10
245.0
 20
-96.468184999999963
 30
0.0
 11
245.0
 21
-116.46818500000001
 31
0.0
  0
LINE
  5
44
  8
HIBINO-BASE
  6
CONTINUOUS
 62
     7
 10
220.0
 20
-116.46818500000001
 30
0.0
 11
220.0
 21
-96.468184999999963
 31
0.0
  0
TEXT
  5
45
  8
HIBINO-BASE
 62
     7
 10
146.71307999999999
 20
-110.7408916666666
 30
0.0
 40
3.2576822916666659
  1
'09.07.
 41
0.7
 11
146.71307999999999
 21
-107.483209375
 31
0.0
 73
     3
  0
TEXT
  5
46
  8
HIBINO-BASE
 62
     7
 10
135.0
 20
-112.43607166666661
 30
0.0
 40
3.2576822916666659
  1
2
 41
0.7
 11
135.0
 21
-109.17838937499999
 31
0.0
 73
     3
  0
TEXT
  5
47
  8
HIBINO-BASE
 62
     7
 10
198.0116200220692
 20
-110.7408916666666
 30
0.0
 40
3.2576822916666659
  1
N.Sasaki
 41
0.7
 11
198.0116200220692
 21
-107.483209375
 31
0.0
 73
     3
  0
TEXT
  5
48
  8
HIBINO-BASE
 62
     7
 10
107.76666666666659
 20
-112.51618499999999
 30
0.0
 40
6.5153645833333318
  1
A4
 41
0.7
 11
107.76666666666659
 21
-106.0008204166666
 31
0.0
 73
     3
  0
TEXT
  5
49
  8
HIBINO-BASE
 62
     7
 10
101.9166666666666
 20
-101.707095
 30
0.0
 40
3.2576822916666659
  1
PAPER SIZE
 41
0.7
 11
101.9166666666666
 21
-98.449412708333327
 31
0.0
 73
     3
  0
LINE
  5
4A
  8
SPEC
  6
CONTINUOUS
 62
     7
 10
-64.999999999999986
 20
383.53181499999999
 30
0.0
 11
230.0
 21
383.53181499999999
 31
0.0
  0
LINE
  5
4B
  8
SPEC
  6
CONTINUOUS
 62
     7
 10
-64.999999999999986
 20
376.03181499999999
 30
0.0
 11
230.0
 21
376.03181499999999
 31
0.0
  0
LINE
  5
4C
  8
SPEC
  6
CONTINUOUS
 62
     7
 10
-64.999999999999986
 20
368.53181499999999
 30
0.0
 11
230.0
 21
368.53181499999999
 31
0.0
  0
TEXT
  5
4D
  8
SPEC
 62
     7
 10
1.620929207330547
 20
377.79235160185732
 30
0.0
 40
3.8006224999999989
  1
ボディパック型送信機
 41
0.7
 11
1.620929207330547
 21
381.59297410185718
 31
0.0
 73
     3
  0
TEXT
  5
4E
  8
SPEC
 62
     7
 10
-62.5
 20
386.318355
 30
0.0
 40
4.8865234375000002
  1
仕様
 41
0.7
 11
-62.5
 21
391.20487843749999
 31
0.0
 73
     3
  0
TEXT
  5
4F
  8
SPEC
 62
     7
 10
-63.323610846744423
 20
377.95411979691841
 30
0.0
 40
3.8006224999999989
  1
形式
 41
0.7
 11
-63.323610846744423
 21
381.75474229691838
 31
0.0
 73
     3
  0
LINE
  5
50
  8
SPEC
  6
CONTINUOUS
 62
     7
 10
-64.999999999999986
 20
361.03181499999999
 30
0.0
 11
230.0
 21
361.03181499999999
 31
0.0
  0
LINE
  5
51
  8
SPEC
  6
CONTINUOUS
 62
     7
 10
-64.999999999999986
 20
353.53181499999988
 30
0.0
 11
230.0
 21
353.53181499999988
 31
0.0
  0
LINE
  5
52
  8
SPEC
  6
CONTINUOUS
 62
     7
 10
-64.999999999999986
 20
346.03181499999988
 30
0.0
 11
230.0
 21
346.03181499999988
 31
0.0
  0
LINE
  5
53
  8
SPEC
  6
CONTINUOUS
 62
     7
 10
-64.999999999999986
 20
338.53181499999988
 30
0.0
 11
230.0
 21
338.53181499999988
 31
0.0
  0
LINE
  5
54
  8
SPEC
  6
CONTINUOUS
 62
     7
 10
-64.999999999999986
 20
331.03181499999999
 30
0.0
 11
230.0
 21
331.03181499999999
 31
0.0
  0
LINE
  5
55
  8
SPEC
  6
CONTINUOUS
 62
     7
 10
-64.999999999999986
 20
323.53181499999988
 30
0.0
 11
230.0
 21
323.53181499999988
 31
0.0
  0
LINE
  5
56
  8
SPEC
  6
CONTINUOUS
 62
     7
 10
-64.999999999999986
 20
316.03181499999988
 30
0.0
 11
230.0
 21
316.03181499999988
 31
0.0
  0
LINE
  5
57
  8
SPEC
  6
CONTINUOUS
 62
     7
 10
-64.999999999999986
 20
308.53181499999988
 30
0.0
 11
230.0
 21
308.53181499999988
 31
0.0
  0
LINE
  5
58
  8
SPEC
  6
CONTINUOUS
 62
     7
 10
-64.999999999999986
 20
301.03181499999988
 30
0.0
 11
230.0
 21
301.03181499999988
 31
0.0
  0
LINE
  5
59
  8
SPEC
  6
CONTINUOUS
 62
     7
 10
-64.999999999999986
 20
293.53181499999999
 30
0.0
 11
230.0
 21
293.53181499999999
 31
0.0
  0
LINE
  5
5A
  8
SPEC
  6
CONTINUOUS
 62
     7
 10
-64.999999999999986
 20
278.53181499999988
 30
0.0
 11
230.0
 21
278.53181499999988
 31
0.0
  0
LINE
  5
5B
  8
SPEC
  6
CONTINUOUS
 62
     7
 10
-64.999999999999986
 20
383.53181499999999
 30
0.0
 11
-64.999999999999986
 21
233.53181499999999
 31
0.0
  0
LINE
  5
5C
  8
SPEC
  6
CONTINUOUS
 62
     7
 10
230.0
 20
383.53181499999999
 30
0.0
 11
230.0
 21
233.53181499999999
 31
0.0
  0
LINE
  5
5D
  8
SPEC
  6
CONTINUOUS
 62
     7
 10
0.0
 20
383.53181499999999
 30
0.0
 11
-0.0000000000000142
 21
233.53181499999999
 31
0.0
  0
TEXT
  5
5E
  8
SPEC
 62
     7
 10
-63.390780171724217
 20
250.58575006821891
 30
0.0
 40
3.8006293402777769
  1
寸法
 41
0.7
 11
-63.390780171724217
 21
254.38637940849659
 31
0.0
 73
     3
  0
TEXT
  5
5F
  8
SPEC
 62
     7
 10
1.8004808606535361
 20
250.4853252058418
 30
0.0
 40
3.8006293402777769
  1
60(W)\U+00D772(H)\U+00D722(D)mm(突起部含まず）※除アンテナ
 41
0.7
 11
1.8004808606535361
 21
254.28595454611951
 31
0.0
 73
     3
  0
TEXT
  5
60
  8
SPEC
 62
     7
 10
1.821868879306648
 20
243.15907973282631
 30
0.0
 40
3.8006293402777769
  1
約70g ※除電池
 41
0.7
 11
1.821868879306648
 21
246.95970907310411
 31
0.0
 73
     3
  0
TEXT
  5
61
  8
SPEC
 62
     7
 10
-63.327146618322089
 20
243.04778106303209
 30
0.0
 40
3.8006293402777769
  1
重量
 41
0.7
 11
-63.327146618322089
 21
246.84841040330991
 31
0.0
 73
     3
  0
TEXT
  5
62
  8
SPEC
 62
     7
 10
-63.223866501576751
 20
363.01215289406213
 30
0.0
 40
3.8006293402777769
  1
送信周波数
 41
0.7
 11
-63.223866501576751
 21
366.81278223433992
 31
0.0
 73
     3
  0
TEXT
  5
63
  8
SPEC
 62
     7
 10
1.7720562107375171
 20
362.76978618969639
 30
0.0
 40
3.8006293402777769
  1
B型 (806.125～809.750MHz)のうち任意の１チャンネル
 41
0.7
 11
1.7720562107375171
 21
366.5704155299743
 31
0.0
 73
     3
  0
TEXT
  5
64
  8
SPEC
 62
     7
 10
-63.309570568353209
 20
355.60866243500402
 30
0.0
 40
3.8006293402777769
  1
空中線電力
 41
0.7
 11
-63.309570568353209
 21
359.40929177528182
 31
0.0
 73
     3
  0
TEXT
  5
65
  8
SPEC
 62
     7
 10
1.5401122255174751
 20
355.53820549344073
 30
0.0
 40
3.8006293402777769
  1
10mW
 41
0.7
 11
1.5401122255174751
 21
359.33883483371852
 31
0.0
 73
     3
  0
TEXT
  5
66
  8
SPEC
 62
     7
 10
-63.44476028166816
 20
348.14087289771231
 30
0.0
 40
3.8006293402777769
  1
アンテナ形式
 41
0.7
 11
-63.44476028166816
 21
351.94150223799011
 31
0.0
 73
     3
  0
TEXT
  5
67
  8
SPEC
 62
     7
 10
1.5691905473816941
 20
348.20567243970459
 30
0.0
 40
3.8006293402777769
  1
1/4波長ホイップアンテナ
 41
0.7
 11
1.5691905473816941
 21
352.00630177998238
 31
0.0
 73
     3
  0
TEXT
  5
68
  8
SPEC
 62
     7
 10
-63.22654831396359
 20
340.58903846583809
 30
0.0
 40
3.8006293402777769
  1
発振方式
 41
0.7
 11
-63.22654831396359
 21
344.38966780611588
 31
0.0
 73
     3
  0
TEXT
  5
69
  8
SPEC
 62
     7
 10
1.785911425567476
 20
340.50917129669023
 30
0.0
 40
3.8006293402777769
  1
水晶PLL周波数シンセサイザー
 41
0.7
 11
1.785911425567476
 21
344.30980063696802
 31
0.0
 73
     3
  0
TEXT
  5
6A
  8
SPEC
 62
     7
 10
-63.359748373682862
 20
325.75875331609939
 30
0.0
 40
3.8006293402777769
  1
変調方式
 41
0.7
 11
-63.359748373682862
 21
329.55938265637718
 31
0.0
 73
     3
  0
TEXT
  5
6B
  8
SPEC
 62
     7
 10
1.79695971300903
 20
325.40267031639638
 30
0.0
 40
3.8006293402777769
  1
FM変調
 41
0.7
 11
1.79695971300903
 21
329.20329965667418
 31
0.0
 73
     3
  0
TEXT
  5
6C
  8
SPEC
 62
     7
 10
-63.203499827230061
 20
318.20411646104429
 30
0.0
 40
3.8006293402777769
  1
最大入力レベル
 41
0.7
 11
-63.203499827230061
 21
322.0047458013222
 31
0.0
 73
     3
  0
TEXT
  5
6D
  8
SPEC
 62
     7
 10
1.550517723013711
 20
318.1690017418037
 30
0.0
 40
3.8006293402777769
  1
1400mV(1kHz,最小ゲイン)
 41
0.7
 11
1.5505177230137119
 21
321.96963108208149
 31
0.0
 73
     3
  0
TEXT
  5
6E
  8
SPEC
 62
     7
 10
-63.404991128264172
 20
310.62355669569229
 30
0.0
 40
3.8006293402777769
  1
ゲイン調整範囲
 41
0.7
 11
-63.404991128264172
 21
314.42418603597008
 31
0.0
 73
     3
  0
TEXT
  5
6F
  8
SPEC
 62
     7
 10
1.892744596412171
 20
310.71474459641229
 30
0.0
 40
3.8006293402777769
  1
0～20dB 可変
 41
0.7
 11
1.892744596412171
 21
314.51537393669008
 31
0.0
 73
     3
  0
TEXT
  5
70
  8
SPEC
 62
     7
 10
-63.162959257714427
 20
302.9462384381917
 30
0.0
 40
3.8006293402777769
  1
S/N比
 41
0.7
 11
-63.162959257714427
 21
306.74686777846961
 31
0.0
 73
     3
  0
TEXT
  5
71
  8
SPEC
 62
     7
 10
1.556339002918619
 20
303.08437055555538
 30
0.0
 40
3.8006293402777769
  1
120dB(Aウェイト)
 41
0.7
 11
1.556339002918619
 21
306.88499989583318
 31
0.0
 73
     3
  0
TEXT
  5
72
  8
SPEC
 62
     7
 10
-63.195411861746472
 20
295.45875118686428
 30
0.0
 40
3.8006293402777769
  1
THD
 41
0.7
 11
-63.195411861746472
 21
299.25938052714213
 31
0.0
 73
     3
  0
TEXT
  5
73
  8
SPEC
 62
     7
 10
1.8598400521983069
 20
295.53718621515111
 30
0.0
 40
3.8006293402777769
  1
0.7%%%以下(1kHz)
 41
0.7
 11
1.8598400521983081
 21
299.3378155554289
 31
0.0
 73
     3
  0
TEXT
  5
74
  8
SPEC
 62
     7
 10
-63.371958742742997
 20
280.43644602014609
 30
0.0
 40
3.8006293402777769
  1
電源
 41
0.7
 11
-63.371958742742997
 21
284.23707536042389
 31
0.0
 73
     3
  0
TEXT
  5
75
  8
SPEC
 62
     7
 10
1.803545016346688
 20
280.31744512081087
 30
0.0
 40
3.8006293402777769
  1
単3アルカリ乾電池\U+00D71,またはニッカド水素充電池(2100mAh)
 41
0.7
 11
1.803545016346688
 21
284.11807446108872
 31
0.0
 73
     3
  0
TEXT
  5
76
  8
SPEC
 62
     7
 10
-63.331514445986222
 20
273.2101601587093
 30
0.0
 40
3.8006293402777769
  1
電池寿命
 41
0.7
 11
-63.331514445986222
 21
277.01078949898698
 31
0.0
 73
     3
  0
TEXT
  5
77
  8
SPEC
 62
     7
 10
1.7552166471600541
 20
273.30737480067768
 30
0.0
 40
3.8006293402777769
  1
単3アルカリ乾電池：約6時間
 41
0.7
 11
1.7552166471600541
 21
277.10800414095547
 31
0.0
 73
     3
  0
TEXT
  5
78
  8
SPEC
 62
     7
 10
1.546871601642152
 20
266.11480968076449
 30
0.0
 40
3.8006293402777769
  1
※時間は目安です。使用環境によって異なりますのでご注意ください。
 41
0.7
 11
1.546871601642152
 21
269.91543902104229
 31
0.0
 73
     3
  0
TEXT
  5
79
  8
SPEC
 62
     7
 10
-63.125622851073608
 20
258.13500192340268
 30
0.0
 40
3.8006293402777769
  1
使用温度範囲
 41
0.7
 11
-63.125622851073608
 21
261.93563126368048
 31
0.0
 73
     3
  0
TEXT
  5
7A
  8
SPEC
 62
     7
 10
1.882764715025302
 20
257.91203906414307
 30
0.0
 40
3.8006293402777769
  1
-10℃～45℃
 41
0.7
 11
1.882764715025302
 21
261.71266840442092
 31
0.0
 73
     3
  0
TEXT
  5
7B
  8
SPEC
 62
     7
 10
-63.239138824861939
 20
235.63873932390209
 30
0.0
 40
3.8006293402777769
  1
付属品
 41
0.7
 11
-63.239138824861939
 21
239.4393686641798
 31
0.0
 73
     3
  0
TEXT
  5
7C
  8
SPEC
 62
     7
 10
1.694696543933446
 20
235.596448880764
 30
0.0
 40
3.8006293402777769
  1
ベルトクリップ,単3アルカリ乾電池
 41
0.7
 11
1.694696543933446
 21
239.3970782210418
 31
0.0
 73
     3
  0
LINE
  5
7D
  8
SPEC
  6
CONTINUOUS
 62
     7
 10
-64.999999999999986
 20
263.53181499999988
 30
0.0
 11
230.0
 21
263.53181499999988
 31
0.0
  0
LINE
  5
7E
  8
SPEC
  6
CONTINUOUS
 62
     7
 10
-64.999999999999986
 20
256.03181499999999
 30
0.0
 11
230.0
 21
256.03181499999999
 31
0.0
  0
LINE
  5
7F
  8
SPEC
  6
CONTINUOUS
 62
     7
 10
-64.999999999999986
 20
248.53181499999999
 30
0.0
 11
230.0
 21
248.53181499999999
 31
0.0
  0
TEXT
  5
80
  8
SPEC
 62
     7
 10
-63.266239561827319
 20
288.04148146100158
 30
0.0
 40
3.8006293402777769
  1
入力コネクタ－
 41
0.7
 11
-63.266239561827319
 21
291.84211080127938
 31
0.0
 73
     3
  0
TEXT
  5
81
  8
SPEC
 62
     7
 10
0.9526746666074357
 20
287.8968670333382
 30
0.0
 40
3.8006293402777769
  1
ミニXLR,3ピン
 41
0.7
 11
0.9526746666074361
 21
291.69749637361599
 31
0.0
 73
     3
  0
TEXT
  5
82
  8
SPEC
 62
     7
 10
1.620929207330547
 20
370.29235160185721
 30
0.0
 40
3.8006224999999989
  1
F3E
 41
0.7
 11
1.620929207330547
 21
374.09297410185718
 31
0.0
 73
     3
  0
TEXT
  5
83
  8
SPEC
 62
     7
 10
-63.323610846744423
 20
370.45411979691841
 30
0.0
 40
3.8006224999999989
  1
電波形式
 41
0.7
 11
-63.323610846744423
 21
374.25474229691832
 31
0.0
 73
     3
  0
TEXT
  5
84
  8
SPEC
 62
     7
 10
-63.22654831396359
 20
332.95502215297603
 30
0.0
 40
3.8006293402777769
  1
周波数特性
 41
0.7
 11
-63.22654831396359
 21
336.75565149325382
 31
0.0
 73
     3
  0
TEXT
  5
85
  8
SPEC
 62
     7
 10
1.785911425567476
 20
332.74113867096588
 30
0.0
 40
3.8006293402777769
  1
35～15,000Hz
 41
0.7
 11
1.785911425567476
 21
336.54176801124368
 31
0.0
 73
     3
  0
LINE
  5
86
  8
SPEC
  6
CONTINUOUS
 62
     7
 10
-64.999999999999986
 20
241.03181499999999
 30
0.0
 11
230.0
 21
241.03181499999999
 31
0.0
  0
LINE
  5
87
  8
SPEC
  6
CONTINUOUS
 62
     7
 10
-64.999999999999986
 20
233.53181499999999
 30
0.0
 11
230.0
 21
233.53181499999999
 31
0.0
  0
LINE
  5
88
  8
SPEC
  6
CONTINUOUS
 62
     7
 10
-64.999999999999986
 20
286.03181499999988
 30
0.0
 11
230.0
 21
286.03181499999988
 31
0.0
  0
TEXT
  5
89
  8
DIMNSIONS
 62
     7
 10
60.0
 20
-91.929204999999968
 30
0.0
 40
4.8865234375000002
  1
(単位：mm)
 41
0.7
 11
60.0
 21
-87.042681562499979
 31
0.0
 73
     3
  0
LINE
  5
8A
  8
DIMNSIONS
  6
CONTINUOUS
 62
     7
 10
26.000000000352941
 20
181.25000000025241
 30
0.0
 11
-29.000000000000011
 21
181.25000000025241
 31
0.0
  0
LINE
  5
8B
  8
DIMNSIONS
  6
CONTINUOUS
 62
     7
 10
-2.749999999647101
 20
203.2500000002527
 30
0.0
 11
-28.999999999999979
 21
203.2500000002527
 31
0.0
  0
LINE
  5
8C
  8
DIMNSIONS
  6
CONTINUOUS
 62
     7
 10
-25.0
 20
181.25000000025241
 30
0.0
 11
-25.0
 21
203.2500000002527
 31
0.0
  0
LINE
  5
8D
  8
DIMNSIONS
  6
CONTINUOUS
 62
     7
 10
-25.0
 20
181.25000000025241
 30
0.0
 11
-26.340079590300491
 21
186.25124511743991
 31
0.0
  0
LINE
  5
8E
  8
DIMNSIONS
  6
CONTINUOUS
 62
     7
 10
-25.0
 20
181.25000000025241
 30
0.0
 11
-23.659920409699509
 21
186.25124511743991
 31
0.0
  0
LINE
  5
8F
  8
DIMNSIONS
  6
CONTINUOUS
 62
     7
 10
-25.0
 20
203.2500000002527
 30
0.0
 11
-23.659920409699509
 21
198.24875488306509
 31
0.0
  0
LINE
  5
90
  8
DIMNSIONS
  6
CONTINUOUS
 62
     7
 10
-25.0
 20
203.2500000002527
 30
0.0
 11
-26.340079590300491
 21
198.24875488306509
 31
0.0
  0
TEXT
  5
91
  8
DIMNSIONS
 62
     7
 10
-26.987777777777769
 20
188.72222222247481
 30
0.0
 40
5.4294704861111107
  1
22
 50
90.0
 41
0.7
 11
-32.417248263888879
 21
188.72222222247481
 31
0.0
 73
     3
  0
LINE
  5
92
  8
DIMNSIONS
  6
CONTINUOUS
 62
     7
 10
-4.3812499996471237
 20
84.5000000002523
 30
0.0
 11
-29.000000000000011
 21
84.5000000002523
 31
0.0
  0
LINE
  5
93
  8
DIMNSIONS
  6
CONTINUOUS
 62
     7
 10
45.080000000352868
 20
158.49996815541249
 30
0.0
 11
-28.999999999999979
 21
158.49996815541249
 31
0.0
  0
LINE
  5
94
  8
DIMNSIONS
  6
CONTINUOUS
 62
     7
 10
-25.0
 20
84.5000000002523
 30
0.0
 11
-25.0
 21
158.49996815541249
 31
0.0
  0
LINE
  5
95
  8
DIMNSIONS
  6
CONTINUOUS
 62
     7
 10
-25.0
 20
84.5000000002523
 30
0.0
 11
-26.340079590300491
 21
89.501245117439808
 31
0.0
  0
LINE
  5
96
  8
DIMNSIONS
  6
CONTINUOUS
 62
     7
 10
-25.0
 20
84.5000000002523
 30
0.0
 11
-23.659920409699509
 21
89.501245117439808
 31
0.0
  0
LINE
  5
97
  8
DIMNSIONS
  6
CONTINUOUS
 62
     7
 10
-25.0
 20
158.49996815541249
 30
0.0
 11
-23.659920409699509
 21
153.49872303822499
 31
0.0
  0
LINE
  5
98
  8
DIMNSIONS
  6
CONTINUOUS
 62
     7
 10
-25.0
 20
158.49996815541249
 30
0.0
 11
-26.340079590300491
 21
153.49872303822499
 31
0.0
  0
TEXT
  5
99
  8
DIMNSIONS
 62
     7
 10
-26.987777777777769
 20
117.97220630005459
 30
0.0
 40
5.4294704861111107
  1
74
 50
90.0
 41
0.7
 11
-32.417248263888879
 21
117.97220630005459
 31
0.0
 73
     3
  0
LINE
  5
9A
  8
DIMNSIONS
  6
CONTINUOUS
 62
     7
 10
-1.999999999647101
 20
12.50000000025233
 30
0.0
 11
-29.000000000000011
 21
12.50000000025233
 31
0.0
  0
LINE
  5
9B
  8
DIMNSIONS
  6
CONTINUOUS
 62
     7
 10
-1.999999999647101
 20
84.5000000002523
 30
0.0
 11
-28.999999999999979
 21
84.5000000002523
 31
0.0
  0
LINE
  5
9C
  8
DIMNSIONS
  6
CONTINUOUS
 62
     7
 10
-25.0
 20
12.50000000025233
 30
0.0
 11
-25.0
 21
84.5000000002523
 31
0.0
  0
LINE
  5
9D
  8
DIMNSIONS
  6
CONTINUOUS
 62
     7
 10
-25.0
 20
12.50000000025233
 30
0.0
 11
-26.340079590300491
 21
17.501245117439819
 31
0.0
  0
LINE
  5
9E
  8
DIMNSIONS
  6
CONTINUOUS
 62
     7
 10
-25.0
 20
12.50000000025233
 30
0.0
 11
-23.659920409699509
 21
17.501245117439819
 31
0.0
  0
LINE
  5
9F
  8
DIMNSIONS
  6
CONTINUOUS
 62
     7
 10
-25.0
 20
84.5000000002523
 30
0.0
 11
-23.659920409699509
 21
79.498754883064791
 31
0.0
  0
LINE
  5
A0
  8
DIMNSIONS
  6
CONTINUOUS
 62
     7
 10
-25.0
 20
84.5000000002523
 30
0.0
 11
-26.340079590300491
 21
79.498754883064791
 31
0.0
  0
TEXT
  5
A1
  8
DIMNSIONS
 62
     7
 10
-26.987777777777769
 20
44.972222222474542
 30
0.0
 40
5.4294704861111107
  1
72
 50
90.0
 41
0.7
 11
-32.417248263888879
 21
44.972222222474542
 31
0.0
 73
     3
  0
LINE
  5
A2
  8
DIMNSIONS
  6
CONTINUOUS
 62
     7
 10
0.0000000003528982
 20
10.500000000252321
 30
0.0
 11
0.0000000003528982
 21
-16.5
 31
0.0
  0
LINE
  5
A3
  8
DIMNSIONS
  6
CONTINUOUS
 62
     7
 10
60.000000000352891
 20
10.500000000252321
 30
0.0
 11
60.000000000352891
 21
-16.5
 31
0.0
  0
LINE
  5
A4
  8
DIMNSIONS
  6
CONTINUOUS
 62
     7
 10
0.0000000003528982
 20
-12.5
 30
0.0
 11
60.000000000352891
 21
-12.5
 31
0.0
  0
LINE
  5
A5
  8
DIMNSIONS
  6
CONTINUOUS
 62
     7
 10
0.0000000003528982
 20
-12.5
 30
0.0
 11
5.0012451175403916
 21
-11.159920409699501
 31
0.0
  0
LINE
  5
A6
  8
DIMNSIONS
  6
CONTINUOUS
 62
     7
 10
0.0000000003528982
 20
-12.5
 30
0.0
 11
5.0012451175403916
 21
-13.840079590300491
 31
0.0
  0
LINE
  5
A7
  8
DIMNSIONS
  6
CONTINUOUS
 62
     7
 10
60.000000000352891
 20
-12.5
 30
0.0
 11
54.998754883165397
 21
-13.840079590300491
 31
0.0
  0
LINE
  5
A8
  8
DIMNSIONS
  6
CONTINUOUS
 62
     7
 10
60.000000000352891
 20
-12.5
 30
0.0
 11
54.998754883165397
 21
-11.159920409699501
 31
0.0
  0
TEXT
  5
A9
  8
DIMNSIONS
 62
     7
 10
26.47222222257513
 20
-10.51222222222224
 30
0.0
 40
5.4294704861111107
  1
60
 41
0.7
 11
26.47222222257513
 21
-5.0827517361111347
 31
0.0
 73
     3
  0
TEXT
  5
AA
  8
DATA
 62
     7
 10
200.0
 20
-94.206404999999947
 30
0.0
 40
4.8865234375000002
  1
PT450
 41
0.7
 11
200.0
 21
-89.319881562499958
 31
0.0
 73
     3
  0
TEXT
  5
AB
  8
DATA
 62
     7
 10
200.0
 20
-79.706404999999975
 30
0.0
 40
4.8865234375000002
  1
AKG
 41
0.7
 11
200.0
 21
-74.819881562499972
 31
0.0
 73
     3
  0
TEXT
  5
AC
  8
DATA
 62
     7
 10
195.0
 20
-86.289535751363516
 30
0.0
 40
3.257687421875
  1
ボディパック型送信機
 41
0.7
 11
195.0
 21
-83.031848329488511
 31
0.0
 73
     3
  0
TEXT
  5
AD
  8
DATA
 62
     7
 10
-60.0
 20
-107.99218500000001
 30
0.0
 40
3.2576822916666659
  1
仕様および外観は予告なく変更されることがありますので、ご了承ください。
 41
0.7
 11
-60.0
 21
-104.7345027083333
 31
0.0
 73
     3
  0
LINE
  5
AE
  8
DATA
  6
CONTINUOUS
 62
     7
 10
0.0000000003528982
 20
14.50000000025233
 30
0.0
 11
0.0000000003528982
 21
82.500000000252285
 31
0.0
  0
ARC
  5
AF
  8
DATA
  6
CONTINUOUS
 62
     7
 10
2.0000000003528982
 20
14.50000000025233
 30
0.0
 40
2.0
 50
180.0
 51
270.0
  0
LINE
  5
B0
  8
DATA
  6
CONTINUOUS
 62
     7
 10
58.000000000352891
 20
12.50000000025233
 30
0.0
 11
2.0000000003528982
 21
12.50000000025233
 31
0.0
  0
ARC
  5
B1
  8
DATA
  6
CONTINUOUS
 62
     7
 10
58.000000000352891
 20
14.50000000025233
 30
0.0
 40
2.0
 50
270.0
 51
0.0
  0
LINE
  5
B2
  8
DATA
  6
CONTINUOUS
 62
     7
 10
60.000000000352891
 20
82.500000000252285
 30
0.0
 11
60.000000000352891
 21
14.50000000025233
 31
0.0
  0
ARC
  5
B3
  8
DATA
  6
CONTINUOUS
 62
     7
 10
58.000000000352891
 20
82.500000000252285
 30
0.0
 40
2.0
 50
0.0
 51
90.0
  0
LINE
  5
B4
  8
DATA
  6
CONTINUOUS
 62
     7
 10
2.0000000003528982
 20
84.5000000002523
 30
0.0
 11
58.000000000352891
 21
84.5000000002523
 31
0.0
  0
ARC
  5
B5
  8
DATA
  6
CONTINUOUS
 62
     7
 10
2.0000000003528982
 20
82.500000000252285
 30
0.0
 40
2.0
 50
90.0
 51
180.0
  0
LINE
  5
B6
  8
DATA
  6
CONTINUOUS
 62
     7
 10
0.0000000003528982
 20
39.500000000252292
 30
0.0
 11
60.000000000352891
 21
39.500000000252292
 31
0.0
  0
LINE
  5
B7
  8
DATA
  6
CONTINUOUS
 62
     7
 10
0.0000000003528982
 20
40.180000000252313
 30
0.0
 11
60.000000000352891
 21
40.180000000252313
 31
0.0
  0
LINE
  5
B8
  8
DATA
  6
CONTINUOUS
 62
     7
 10
0.3000000003529095
 20
39.500000000252292
 30
0.0
 11
0.3000000003529095
 21
40.180000000252313
 31
0.0
  0
LINE
  5
B9
  8
DATA
  6
CONTINUOUS
 62
     7
 10
59.70000000035288
 20
39.500000000252292
 30
0.0
 11
59.70000000035288
 21
40.180000000252313
 31
0.0
  0
TEXT
  5
BA
  8
DATA
 62
     7
 10
9.0613166360711137
 20
26.41938436475732
 30
0.0
 40
2.0360514322916661
  1
PT 450
 41
0.7
 11
9.0613166360711137
 21
28.455435797048992
 31
0.0
 73
     3
  0
TEXT
  5
BB
  8
DATA
 62
     7
 10
8.3155123083684117
 20
23.501008330653949
 30
0.0
 40
1.3851562500000001
  1
POCKET TRANSMITTER
 41
0.7
 11
8.3155123083684117
 21
24.886164580653961
 31
0.0
 73
     3
  0
POLYLINE
  5
BC
  8
DATA
  6
CONTINUOUS
 62
     7
 66
     1
 10
0.0
 20
0.0
 30
0.0
 70
     1
  0
VERTEX
  5
366
  8
DATA
  6
CONTINUOUS
 62
     7
 10
20.000000000352951
 20
38.550000000252282
 30
0.0
  0
VERTEX
  5
367
  8
DATA
  6
CONTINUOUS
 62
     7
 10
40.000000000352962
 20
38.550000000252282
 30
0.0
  0
VERTEX
  5
368
  8
DATA
  6
CONTINUOUS
 62
     7
 10
40.000000000352962
 20
37.830000000252291
 30
0.0
  0
VERTEX
  5
369
  8
DATA
  6
CONTINUOUS
 62
     7
 10
20.000000000352951
 20
37.830000000252291
 30
0.0
  0
SEQEND
  5
36A
  8
DATA
  6
CONTINUOUS
 62
     7
  0
POLYLINE
  5
C3
  8
DATA
  6
CONTINUOUS
 62
     7
 66
     1
 10
0.0
 20
0.0
 30
0.0
 70
     1
  0
VERTEX
  5
36B
  8
DATA
  6
CONTINUOUS
 62
     7
 10
20.000000000352951
 20
36.950000000252281
 30
0.0
  0
VERTEX
  5
36C
  8
DATA
  6
CONTINUOUS
 62
     7
 10
40.000000000352962
 20
36.950000000252281
 30
0.0
  0
VERTEX
  5
36D
  8
DATA
  6
CONTINUOUS
 62
     7
 10
40.000000000352962
 20
36.230000000252289
 30
0.0
  0
VERTEX
  5
36E
  8
DATA
  6
CONTINUOUS
 62
     7
 10
20.000000000352951
 20
36.230000000252289
 30
0.0
  0
SEQEND
  5
36F
  8
DATA
  6
CONTINUOUS
 62
     7
  0
POLYLINE
  5
CA
  8
DATA
  6
CONTINUOUS
 62
     7
 66
     1
 10
0.0
 20
0.0
 30
0.0
 70
     1
  0
VERTEX
  5
370
  8
DATA
  6
CONTINUOUS
 62
     7
 10
20.000000000352951
 20
35.35000000025228
 30
0.0
  0
VERTEX
  5
371
  8
DATA
  6
CONTINUOUS
 62
     7
 10
40.000000000352962
 20
35.35000000025228
 30
0.0
  0
VERTEX
  5
372
  8
DATA
  6
CONTINUOUS
 62
     7
 10
40.000000000352962
 20
34.630000000252281
 30
0.0
  0
VERTEX
  5
373
  8
DATA
  6
CONTINUOUS
 62
     7
 10
20.000000000352951
 20
34.630000000252281
 30
0.0
  0
SEQEND
  5
374
  8
DATA
  6
CONTINUOUS
 62
     7
  0
LINE
  5
D1
  8
DATA
  6
CONTINUOUS
 62
     7
 10
0.0000000003528982
 20
69.500000000252257
 30
0.0
 11
60.000000000352891
 21
69.500000000252257
 31
0.0
  0
ARC
  5
D2
  8
DATA
  6
CONTINUOUS
 62
     7
 10
31.363891025614748
 20
71.743297048113618
 30
0.0
 40
24.780858490526391
 50
235.98156113220381
 51
266.84495570812902
  0
ARC
  5
D3
  8
DATA
  6
CONTINUOUS
 62
     7
 10
-11.0023619360192
 20
3.7423237070430551
 30
0.0
 40
55.361967133742723
 50
59.013472297411617
 51
78.537003500398015
  0
ARC
  5
D4
  8
DATA
  6
CONTINUOUS
 62
     7
 10
28.636108975091211
 20
71.743297048113618
 30
0.0
 40
24.780858490526381
 50
273.15504429187098
 51
304.01843886779602
  0
ARC
  5
D5
  8
DATA
  6
CONTINUOUS
 62
     7
 10
71.002361936724995
 20
3.7423237070430551
 30
0.0
 40
55.361967133742702
 50
101.462996499602
 51
120.9865277025883
  0
LINE
  5
D6
  8
DATA
  6
CONTINUOUS
 62
     7
 10
23.960000000352991
 20
86.700000000252317
 30
0.0
 11
36.04000000035294
 21
86.700000000252317
 31
0.0
  0
LINE
  5
D7
  8
DATA
  6
CONTINUOUS
 62
     7
 10
24.500000000353008
 20
88.0000000002523
 30
0.0
 11
35.500000000352962
 21
88.0000000002523
 31
0.0
  0
LINE
  5
D8
  8
DATA
  6
CONTINUOUS
 62
     7
 10
23.600000000352981
 20
84.5000000002523
 30
0.0
 11
23.960000000352991
 21
86.700000000252317
 31
0.0
  0
LINE
  5
D9
  8
DATA
  6
CONTINUOUS
 62
     7
 10
24.500000000353008
 20
88.0000000002523
 30
0.0
 11
24.110000000352969
 21
86.700000000252317
 31
0.0
  0
LINE
  5
DA
  8
DATA
  6
CONTINUOUS
 62
     7
 10
36.400000000352932
 20
84.5000000002523
 30
0.0
 11
36.04000000035294
 21
86.700000000252317
 31
0.0
  0
LINE
  5
DB
  8
DATA
  6
CONTINUOUS
 62
     7
 10
35.500000000352962
 20
88.0000000002523
 30
0.0
 11
35.890000000352927
 21
86.700000000252317
 31
0.0
  0
LINE
  5
DC
  8
DATA
  6
CONTINUOUS
 62
     7
 10
53.000000000352891
 20
84.5000000002523
 30
0.0
 11
53.000000000352891
 21
87.0000000002523
 31
0.0
  0
LINE
  5
DD
  8
DATA
  6
CONTINUOUS
 62
     7
 10
48.300000000352902
 20
84.5000000002523
 30
0.0
 11
48.300000000352902
 21
87.0000000002523
 31
0.0
  0
LINE
  5
DE
  8
DATA
  6
CONTINUOUS
 62
     7
 10
49.360590139455098
 20
94.300000000252311
 30
0.0
 11
51.939409861250702
 21
94.300000000252311
 31
0.0
  0
LINE
  5
DF
  8
DATA
  6
CONTINUOUS
 62
     7
 10
48.300000000352902
 20
87.0000000002523
 30
0.0
 11
48.862270502684233
 21
93.840957778617039
 31
0.0
  0
LINE
  5
E0
  8
DATA
  6
CONTINUOUS
 62
     7
 10
53.000000000352891
 20
87.0000000002523
 30
0.0
 11
52.437729498021568
 21
93.840957778617039
 31
0.0
  0
ARC
  5
E1
  8
DATA
  6
CONTINUOUS
 62
     7
 10
49.360590139455098
 20
93.800000000252325
 30
0.0
 40
0.5
 50
90.0
 51
175.30131948270071
  0
ARC
  5
E2
  8
DATA
  6
CONTINUOUS
 62
     7
 10
51.939409861250702
 20
93.800000000252325
 30
0.0
 40
0.5000000000000289
 50
4.6986805172992829
 51
89.999999999999986
  0
LINE
  5
E3
  8
DATA
  6
CONTINUOUS
 62
     7
 10
49.650000000352918
 20
94.300000000252311
 30
0.0
 11
49.650000000352918
 21
146.20000000025209
 31
0.0
  0
LINE
  5
E4
  8
DATA
  6
CONTINUOUS
 62
     7
 10
51.650000000352918
 20
146.20000000025209
 30
0.0
 11
51.650000000352918
 21
94.300000000252311
 31
0.0
  0
LINE
  5
E5
  8
DATA
  6
CONTINUOUS
 62
     7
 10
49.080000000352868
 20
146.20000000025209
 30
0.0
 11
52.220000000352933
 21
146.20000000025209
 31
0.0
  0
LINE
  5
E6
  8
DATA
  6
CONTINUOUS
 62
     7
 10
49.080000000352868
 20
146.20000000025209
 30
0.0
 11
49.080000000352868
 21
156.950000000253
 31
0.0
  0
LINE
  5
E7
  8
DATA
  6
CONTINUOUS
 62
     7
 10
52.220000000352933
 20
156.950000000253
 30
0.0
 11
52.220000000352933
 21
146.20000000025209
 31
0.0
  0
ARC
  5
E8
  8
DATA
  6
CONTINUOUS
 62
     7
 10
50.650000000352932
 20
156.92987096799411
 30
0.0
 40
1.5701290322580581
 50
0.7345512146763538
 51
179.2654487853236
  0
LINE
  5
E9
  8
DATA
  6
CONTINUOUS
 62
     7
 10
2.4200000003529141
 20
84.5000000002523
 30
0.0
 11
2.4200000003529141
 21
86.500000000252285
 31
0.0
  0
LINE
  5
EA
  8
DATA
  6
CONTINUOUS
 62
     7
 10
13.63000000035289
 20
86.500000000252285
 30
0.0
 11
13.1800000003529
 21
86.500000000252285
 31
0.0
  0
LINE
  5
EB
  8
DATA
  6
CONTINUOUS
 62
     7
 10
12.230000000352909
 20
86.500000000252285
 30
0.0
 11
11.780000000352871
 21
86.500000000252285
 31
0.0
  0
LINE
  5
EC
  8
DATA
  6
CONTINUOUS
 62
     7
 10
10.830000000352941
 20
86.500000000252285
 30
0.0
 11
10.38000000035289
 21
86.500000000252285
 31
0.0
  0
LINE
  5
ED
  8
DATA
  6
CONTINUOUS
 62
     7
 10
9.4300000003529032
 20
86.500000000252285
 30
0.0
 11
8.9800000003529146
 21
86.500000000252285
 31
0.0
  0
LINE
  5
EE
  8
DATA
  6
CONTINUOUS
 62
     7
 10
8.0300000003529242
 20
86.500000000252285
 30
0.0
 11
7.5300000003529259
 21
86.500000000252285
 31
0.0
  0
LINE
  5
EF
  8
DATA
  6
CONTINUOUS
 62
     7
 10
6.6300000003528927
 20
86.500000000252285
 30
0.0
 11
6.1800000003529041
 21
86.500000000252285
 31
0.0
  0
LINE
  5
F0
  8
DATA
  6
CONTINUOUS
 62
     7
 10
5.3200000003528913
 20
86.500000000252285
 30
0.0
 11
2.400000000352875
 21
86.500000000252285
 31
0.0
  0
LINE
  5
F1
  8
DATA
  6
CONTINUOUS
 62
     7
 10
5.3200000003528913
 20
84.5000000002523
 30
0.0
 11
5.3200000003528913
 21
86.500000000252285
 31
0.0
  0
LINE
  5
F2
  8
DATA
  6
CONTINUOUS
 62
     7
 10
6.1800000003529041
 20
84.5000000002523
 30
0.0
 11
6.1800000003529041
 21
86.500000000252285
 31
0.0
  0
LINE
  5
F3
  8
DATA
  6
CONTINUOUS
 62
     7
 10
6.6300000003528927
 20
84.5000000002523
 30
0.0
 11
6.6300000003528927
 21
86.500000000252285
 31
0.0
  0
LINE
  5
F4
  8
DATA
  6
CONTINUOUS
 62
     7
 10
8.0300000003529242
 20
86.500000000252285
 30
0.0
 11
7.5800000003529391
 21
86.500000000252285
 31
0.0
  0
LINE
  5
F5
  8
DATA
  6
CONTINUOUS
 62
     7
 10
7.5800000003529391
 20
84.5000000002523
 30
0.0
 11
7.5800000003529391
 21
86.500000000252285
 31
0.0
  0
LINE
  5
F6
  8
DATA
  6
CONTINUOUS
 62
     7
 10
8.0300000003529242
 20
84.5000000002523
 30
0.0
 11
8.0300000003529242
 21
86.500000000252285
 31
0.0
  0
LINE
  5
F7
  8
DATA
  6
CONTINUOUS
 62
     7
 10
9.4300000003529032
 20
86.500000000252285
 30
0.0
 11
8.9800000003529146
 21
86.500000000252285
 31
0.0
  0
LINE
  5
F8
  8
DATA
  6
CONTINUOUS
 62
     7
 10
8.9800000003529146
 20
84.5000000002523
 30
0.0
 11
8.9800000003529146
 21
86.500000000252285
 31
0.0
  0
LINE
  5
F9
  8
DATA
  6
CONTINUOUS
 62
     7
 10
9.4300000003529032
 20
84.5000000002523
 30
0.0
 11
9.4300000003529032
 21
86.500000000252285
 31
0.0
  0
LINE
  5
FA
  8
DATA
  6
CONTINUOUS
 62
     7
 10
10.830000000352941
 20
86.500000000252285
 30
0.0
 11
10.38000000035289
 21
86.500000000252285
 31
0.0
  0
LINE
  5
FB
  8
DATA
  6
CONTINUOUS
 62
     7
 10
10.38000000035289
 20
84.5000000002523
 30
0.0
 11
10.38000000035289
 21
86.500000000252285
 31
0.0
  0
LINE
  5
FC
  8
DATA
  6
CONTINUOUS
 62
     7
 10
10.830000000352941
 20
84.5000000002523
 30
0.0
 11
10.830000000352941
 21
86.500000000252285
 31
0.0
  0
LINE
  5
FD
  8
DATA
  6
CONTINUOUS
 62
     7
 10
12.230000000352909
 20
86.500000000252285
 30
0.0
 11
11.780000000352871
 21
86.500000000252285
 31
0.0
  0
LINE
  5
FE
  8
DATA
  6
CONTINUOUS
 62
     7
 10
11.780000000352871
 20
84.5000000002523
 30
0.0
 11
11.780000000352871
 21
86.500000000252285
 31
0.0
  0
LINE
  5
FF
  8
DATA
  6
CONTINUOUS
 62
     7
 10
12.230000000352909
 20
84.5000000002523
 30
0.0
 11
12.230000000352909
 21
86.500000000252285
 31
0.0
  0
LINE
  5
100
  8
DATA
  6
CONTINUOUS
 62
     7
 10
13.63000000035289
 20
86.500000000252285
 30
0.0
 11
13.1800000003529
 21
86.500000000252285
 31
0.0
  0
LINE
  5
101
  8
DATA
  6
CONTINUOUS
 62
     7
 10
13.1800000003529
 20
84.5000000002523
 30
0.0
 11
13.1800000003529
 21
86.500000000252285
 31
0.0
  0
LINE
  5
102
  8
DATA
  6
CONTINUOUS
 62
     7
 10
13.63000000035289
 20
84.5000000002523
 30
0.0
 11
13.63000000035289
 21
86.500000000252285
 31
0.0
  0
LINE
  5
103
  8
DATA
  6
CONTINUOUS
 62
     7
 10
14.63000000035289
 20
84.5000000002523
 30
0.0
 11
14.63000000035289
 21
86.500000000252285
 31
0.0
  0
LINE
  5
104
  8
DATA
  6
CONTINUOUS
 62
     7
 10
17.530000000352921
 20
84.5000000002523
 30
0.0
 11
17.530000000352921
 21
86.500000000252285
 31
0.0
  0
LINE
  5
105
  8
DATA
  6
CONTINUOUS
 62
     7
 10
14.63000000035289
 20
86.500000000252285
 30
0.0
 11
17.530000000352921
 21
86.500000000252285
 31
0.0
  0
LINE
  5
106
  8
DATA
  6
CONTINUOUS
 62
     7
 10
1.0000000003528979
 20
203.2500000002527
 30
0.0
 11
59.000000000352898
 21
203.2500000002527
 31
0.0
  0
ARC
  5
107
  8
DATA
  6
CONTINUOUS
 62
     7
 10
30.797987927918371
 20
214.3931254194344
 30
0.0
 40
33.152730615805439
 50
241.5415409068307
 51
268.62075444276331
  0
ARC
  5
108
  8
DATA
  6
CONTINUOUS
 62
     7
 10
-8.1091342172693288
 20
149.24830351448341
 30
0.0
 40
42.777337054123393
 50
57.30144531008618
 51
77.99021333369457
  0
ARC
  5
109
  8
DATA
  6
CONTINUOUS
 62
     7
 10
29.202012072787589
 20
214.3931254194344
 30
0.0
 40
33.152730615805503
 50
271.37924555723669
 51
298.4584590931691
  0
ARC
  5
10A
  8
DATA
  6
CONTINUOUS
 62
     7
 10
68.109134217975154
 20
149.24830351448341
 30
0.0
 40
42.777337054123521
 50
102.0097866663055
 51
122.69855468991381
  0
ARC
  5
10B
  8
DATA
  6
CONTINUOUS
 62
     7
 10
30.000000000353001
 20
194.21287310837189
 30
0.0
 40
4.1500000000000012
 50
286.08770253816073
 51
253.91229746183859
  0
CIRCLE
  5
10C
  8
DATA
  6
CONTINUOUS
 62
     7
 10
30.000000000353001
 20
194.21287310837201
 30
0.0
 40
6.3999999999999408
  0
CIRCLE
  5
10D
  8
DATA
  6
CONTINUOUS
 62
     7
 10
30.000000000353001
 20
194.21287310837201
 30
0.0
 40
5.8999999999999346
  0
CIRCLE
  5
10E
  8
DATA
  6
CONTINUOUS
 62
     7
 10
30.000000000353001
 20
196.09000000025259
 30
0.0
 40
0.3499999999999659
  0
CIRCLE
  5
10F
  8
DATA
  6
CONTINUOUS
 62
     7
 10
28.12778684857598
 20
193.87000000025259
 30
0.0
 40
0.3500000000000227
  0
CIRCLE
  5
110
  8
DATA
  6
CONTINUOUS
 62
     7
 10
31.872213152129969
 20
193.87000000025259
 30
0.0
 40
0.3500000000000227
  0
POLYLINE
  5
111
  8
DATA
  6
CONTINUOUS
 62
     7
 66
     1
 10
0.0
 20
0.0
 30
0.0
  0
VERTEX
  5
375
  8
DATA
  6
CONTINUOUS
 62
     7
 10
31.150000000352971
 20
190.22539270089641
 30
0.0
  0
VERTEX
  5
376
  8
DATA
  6
CONTINUOUS
 62
     7
 10
31.150000000352971
 20
189.79693001592429
 30
0.0
  0
VERTEX
  5
377
  8
DATA
  6
CONTINUOUS
 62
     7
 10
28.850000000352981
 20
189.79693001592429
 30
0.0
  0
VERTEX
  5
378
  8
DATA
  6
CONTINUOUS
 62
     7
 10
28.850000000352981
 20
190.22539270089641
 30
0.0
  0
SEQEND
  5
379
  8
DATA
  6
CONTINUOUS
 62
     7
  0
ARC
  5
118
  8
DATA
  6
CONTINUOUS
 62
     7
 10
30.000000000353001
 20
194.21287310837201
 30
0.0
 40
7.4399999999999178
 50
341.56756265240989
 51
198.4324373475898
  0
LINE
  5
119
  8
DATA
  6
CONTINUOUS
 62
     7
 10
0.0000000003528982
 20
198.85000000025261
 30
0.0
 11
22.634120078739912
 21
195.26044791733659
 31
0.0
  0
LINE
  5
11A
  8
DATA
  6
CONTINUOUS
 62
     7
 10
37.367358265710848
 20
195.25000000025261
 30
0.0
 11
48.536055982035471
 21
197.02651872264411
 31
0.0
  0
LINE
  5
11B
  8
DATA
  6
CONTINUOUS
 62
     7
 10
52.341112144731269
 20
197.6317596992084
 30
0.0
 11
60.000000000352891
 21
198.85000000025261
 31
0.0
  0
LINE
  5
11C
  8
DATA
  6
CONTINUOUS
 62
     7
 10
0.0000000003528982
 20
196.25000000025261
 30
0.0
 11
24.144338935421519
 21
191.63000000025249
 31
0.0
  0
LINE
  5
11D
  8
DATA
  6
CONTINUOUS
 62
     7
 10
60.000000000352891
 20
196.25000000025261
 30
0.0
 11
52.701357623123897
 21
194.8535132347383
 31
0.0
  0
LINE
  5
11E
  8
DATA
  6
CONTINUOUS
 62
     7
 10
49.166767095985193
 20
194.1772218592269
 30
0.0
 11
35.855824610420839
 21
191.63037080709049
 31
0.0
  0
ARC
  5
11F
  8
DATA
  6
CONTINUOUS
 62
     7
 10
1.0000000003528979
 20
202.2500000002527
 30
0.0
 40
1.0
 50
90.0
 51
180.0
  0
ARC
  5
120
  8
DATA
  6
CONTINUOUS
 62
     7
 10
59.000000000352898
 20
202.2500000002527
 30
0.0
 40
1.0
 50
0.0
 51
90.0
  0
CIRCLE
  5
121
  8
DATA
  6
CONTINUOUS
 62
     7
 10
50.650000000352932
 20
196.00000000025261
 30
0.0
 40
2.349999999999965
  0
CIRCLE
  5
122
  8
DATA
  6
CONTINUOUS
 62
     7
 10
50.650000000352932
 20
196.00000000025261
 30
0.0
 40
1.5499999999999541
  0
ARC
  5
123
  8
DATA
  6
CONTINUOUS
 62
     7
 10
59.000000000352898
 20
192.0674454180255
 30
0.0
 40
1.000000000000018
 50
282.00978666630402
 51
0.0
  0
ARC
  5
124
  8
DATA
  6
CONTINUOUS
 62
     7
 10
1.0000000003528979
 20
192.0674454180255
 30
0.0
 40
1.0
 50
180.0
 51
257.99021333369291
  0
ARC
  5
125
  8
DATA
  6
CONTINUOUS
 62
     7
 10
-1.1858260769554221
 20
-134.04188360749379
 30
0.0
 40
316.79410301208168
 50
85.058929043548886
 51
89.605909627367708
  0
ARC
  5
126
  8
DATA
  6
CONTINUOUS
 62
     7
 10
61.185826077661211
 20
-134.04188360749379
 30
0.0
 40
316.79410301208168
 50
90.394090372632277
 51
94.941070956451085
  0
ARC
  5
127
  8
DATA
  6
CONTINUOUS
 62
     7
 10
1.0000000003528979
 20
183.7447021283005
 30
0.0
 40
1.0
 50
180.0
 51
269.60590962736939
  0
ARC
  5
128
  8
DATA
  6
CONTINUOUS
 62
     7
 10
59.000000000352898
 20
183.7447021283005
 30
0.0
 40
1.000000000000008
 50
270.39409037263061
 51
0.0
  0
LINE
  5
129
  8
DATA
  6
CONTINUOUS
 62
     7
 10
2.315867117622318
 20
195.80686067427811
 30
0.0
 11
2.76052005731266
 21
198.3286128071837
 31
0.0
  0
LINE
  5
12A
  8
DATA
  6
CONTINUOUS
 62
     7
 10
5.1649772791140691
 20
195.26453293411791
 30
0.0
 11
5.6164625410480804
 21
197.82503309194959
 31
0.0
  0
LINE
  5
12B
  8
DATA
  6
CONTINUOUS
 62
     7
 10
6.0119119467045854
 20
195.11519550132439
 30
0.0
 11
6.4633972086385958
 21
197.6756956591561
 31
0.0
  0
LINE
  5
12C
  8
DATA
  6
CONTINUOUS
 62
     7
 10
6.4550754355600608
 20
195.0370538213742
 30
0.0
 11
6.906560697494128
 21
197.59755397920591
 31
0.0
  0
LINE
  5
12D
  8
DATA
  6
CONTINUOUS
 62
     7
 10
14.33353745965776
 20
193.6478684000387
 30
0.0
 11
14.785022721591769
 21
196.2083685578705
 31
0.0
  0
LINE
  5
12E
  8
DATA
  6
CONTINUOUS
 62
     7
 10
17.189479943393181
 20
193.14428868480471
 30
0.0
 11
17.640965205327191
 21
195.70478884263639
 31
0.0
  0
LINE
  5
12F
  8
DATA
  6
CONTINUOUS
 62
     7
 10
8.2852915517111825
 20
197.3544465304723
 30
0.0
 11
7.8338062897771712
 21
194.79394637264039
 31
0.0
  0
LINE
  5
130
  8
DATA
  6
CONTINUOUS
 62
     7
 10
7.7928876752050771
 20
197.4412706193057
 30
0.0
 11
7.3414024132710676
 21
194.88077046147399
 31
0.0
  0
LINE
  5
131
  8
DATA
  6
CONTINUOUS
 62
     7
 10
9.2208589170727606
 20
197.18948076168871
 30
0.0
 11
8.7693736551387502
 21
194.62898060385689
 31
0.0
  0
LINE
  5
132
  8
DATA
  6
CONTINUOUS
 62
     7
 10
9.664022405928236
 20
197.11133908173849
 30
0.0
 11
9.2125371439942825
 21
194.55083892390681
 31
0.0
  0
LINE
  5
133
  8
DATA
  6
CONTINUOUS
 62
     7
 10
10.599589771289869
 20
196.94637331295499
 30
0.0
 11
10.148104509355861
 21
194.38587315512311
 31
0.0
  0
LINE
  5
134
  8
DATA
  6
CONTINUOUS
 62
     7
 10
11.042753260145339
 20
196.8682316330048
 30
0.0
 11
10.591267998211331
 21
194.30773147517311
 31
0.0
  0
LINE
  5
135
  8
DATA
  6
CONTINUOUS
 62
     7
 10
11.97832062550698
 20
196.70326586422121
 30
0.0
 11
11.526835363572911
 21
194.14276570638961
 31
0.0
  0
LINE
  5
136
  8
DATA
  6
CONTINUOUS
 62
     7
 10
12.42148411436245
 20
196.62512418427119
 30
0.0
 11
11.969998852428439
 21
194.06462402643939
 31
0.0
  0
LINE
  5
137
  8
DATA
  6
CONTINUOUS
 62
     7
 10
13.35705147972403
 20
196.4601584154876
 30
0.0
 11
12.905566217790019
 21
193.8996582576558
 31
0.0
  0
LINE
  5
138
  8
DATA
  6
CONTINUOUS
 62
     7
 10
13.800214968579571
 20
196.38201673553741
 30
0.0
 11
13.34872970664555
 21
193.82151657770569
 31
0.0
  0
LINE
  5
139
  8
DATA
  6
CONTINUOUS
 62
     7
 10
4.9754435934437558
 20
195.29795283665459
 30
0.0
 11
17.189479943393181
 21
193.14428868480471
 31
0.0
  0
LINE
  5
13A
  8
DATA
  6
CONTINUOUS
 62
     7
 10
2.76052005731266
 20
198.3286128071837
 30
0.0
 11
17.640965205327191
 21
195.70478884263639
 31
0.0
  0
TEXT
  5
13B
  8
DATA
 62
     7
 10
1.3620307360310651
 20
193.83832242627111
 30
0.0
 40
1.6288411458333329
  1
OFF
 50
350.5
 41
0.7
 11
1.63086706747822
 21
195.44482499559791
 31
0.0
 73
     3
  0
TEXT
  5
13C
  8
DATA
 62
     7
 10
16.144482119060289
 20
190.96883728487401
 30
0.0
 40
1.6288411458333329
  1
ON
 50
350.5
 41
0.7
 11
16.41331845050745
 21
192.57533985420079
 31
0.0
 73
     3
  0
TEXT
  5
13D
  8
DATA
 62
     7
 10
5.9619289706274321
 20
192.848131616692
 30
0.0
 40
1.6288411458333329
  1
MUTE PRG
 50
350.5
 41
0.7
 11
6.2307653020745883
 21
194.45463418601881
 31
0.0
 73
     3
  0
LINE
  5
13E
  8
DATA
  6
CONTINUOUS
 62
     7
 10
0.0000000003528982
 20
183.7447021283005
 30
0.0
 11
0.0000000003528982
 21
202.2500000002527
 31
0.0
  0
LINE
  5
13F
  8
DATA
  6
CONTINUOUS
 62
     7
 10
60.000000000352891
 20
183.7447021283005
 30
0.0
 11
60.000000000352891
 21
202.2500000002527
 31
0.0
  0
LINE
  5
140
  8
DATA
  6
CONTINUOUS
 62
     7
 10
46.000000000352891
 20
198.4125739429463
 30
0.0
 11
46.000000000352891
 21
200.81257394294639
 31
0.0
  0
LINE
  5
141
  8
DATA
  6
CONTINUOUS
 62
     7
 10
37.700000000352937
 20
198.4125739429463
 30
0.0
 11
37.700000000352937
 21
200.81257394294639
 31
0.0
  0
LINE
  5
142
  8
DATA
  6
CONTINUOUS
 62
     7
 10
38.500000000352962
 20
201.6125739429464
 30
0.0
 11
45.200000000352937
 21
201.6125739429464
 31
0.0
  0
LINE
  5
143
  8
DATA
  6
CONTINUOUS
 62
     7
 10
38.500000000352962
 20
197.61257394294631
 30
0.0
 11
45.200000000352937
 21
197.61257394294631
 31
0.0
  0
ARC
  5
144
  8
DATA
  6
CONTINUOUS
 62
     7
 10
38.500000000352962
 20
200.81257394294639
 30
0.0
 40
0.8000000000000113
 50
90.0
 51
180.0
  0
ARC
  5
145
  8
DATA
  6
CONTINUOUS
 62
     7
 10
38.500000000352962
 20
198.4125739429463
 30
0.0
 40
0.8000000000000113
 50
180.0
 51
270.0
  0
ARC
  5
146
  8
DATA
  6
CONTINUOUS
 62
     7
 10
45.200000000352937
 20
200.81257394294639
 30
0.0
 40
0.7999999999999546
 50
0.0
 51
90.0
  0
ARC
  5
147
  8
DATA
  6
CONTINUOUS
 62
     7
 10
45.200000000352937
 20
198.4125739429463
 30
0.0
 40
0.8000000000000397
 50
270.0
 51
0.0
  0
LINE
  5
148
  8
DATA
  6
CONTINUOUS
 62
     7
 10
0.0000000003528982
 20
-49.586459350265159
 30
0.0
 11
0.0000000003528982
 21
-55.249999999747651
 31
0.0
  0
LINE
  5
149
  8
DATA
  6
STYLE_05
 62
     7
 10
60.000000000352891
 20
-49.586459350265159
 30
0.0
 11
60.000000000352891
 21
-55.249999999747651
 31
0.0
  0
LINE
  5
14A
  8
DATA
  6
CONTINUOUS
 62
     7
 10
59.000000000352898
 20
-56.249999999747651
 30
0.0
 11
1.0000000003528979
 21
-56.249999999747651
 31
0.0
  0
ARC
  5
14B
  8
DATA
  6
CONTINUOUS
 62
     7
 10
30.000000000353001
 20
-498.14999999974862
 30
0.0
 40
450.5000000000008
 50
86.300928936834978
 51
93.699071063165064
  0
ARC
  5
14C
  8
DATA
  6
CONTINUOUS
 62
     7
 10
30.000000000353001
 20
-494.6499999997485
 30
0.0
 40
450.5000000000008
 50
86.317337285872284
 51
93.682662714127758
  0
LINE
  5
14D
  8
DATA
  6
CONTINUOUS
 62
     7
 10
1.0000000003528979
 20
-48.584376313950351
 30
0.0
 11
1.0000000003528979
 21
-45.084376313950358
 31
0.0
  0
LINE
  5
14E
  8
DATA
  6
CONTINUOUS
 62
     7
 10
59.000000000352898
 20
-48.584376313950351
 30
0.0
 11
59.000000000352898
 21
-45.084376313950358
 31
0.0
  0
ARC
  5
14F
  8
DATA
  6
CONTINUOUS
 62
     7
 10
30.000000000353001
 20
-486.1499999997485
 30
0.0
 40
450.5000000000008
 50
86.300928936834978
 51
93.699071063165064
  0
LINE
  5
150
  8
DATA
  6
CONTINUOUS
 62
     7
 10
0.0000000003528982
 20
-44.082302533540172
 30
0.0
 11
0.0000000003528982
 21
-37.586459350265301
 31
0.0
  0
LINE
  5
151
  8
DATA
  6
CONTINUOUS
 62
     7
 10
60.000000000352891
 20
-44.082302533540172
 30
0.0
 11
60.000000000352891
 21
-37.586459350265301
 31
0.0
  0
ARC
  5
152
  8
DATA
  6
CONTINUOUS
 62
     7
 10
1.0000000003528979
 20
-55.249999999747651
 30
0.0
 40
1.0
 50
180.0
 51
270.0
  0
ARC
  5
153
  8
DATA
  6
CONTINUOUS
 62
     7
 10
59.000000000352898
 20
-55.249999999747651
 30
0.0
 40
1.0
 50
270.0
 51
0.0
  0
ARC
  5
154
  8
DATA
  6
STYLE_05
 62
     7
 10
59.000000000352777
 20
-49.586459350265159
 30
0.0
 40
1.000000000000113
 50
0.0
 51
86.300928936828782
  0
ARC
  5
155
  8
DATA
  6
CONTINUOUS
 62
     7
 10
1.000000000353011
 20
-49.586459350265159
 30
0.0
 40
1.000000000000052
 50
93.699071063171274
 51
180.0
  0
ARC
  5
156
  8
DATA
  6
CONTINUOUS
 62
     7
 10
1.0000000003528979
 20
-44.082302533540172
 30
0.0
 40
1.0
 50
180.0
 51
273.68266271412688
  0
ARC
  5
157
  8
DATA
  6
CONTINUOUS
 62
     7
 10
1.000000000353011
 20
-37.586459350265301
 30
0.0
 40
1.0000000000000799
 50
93.699071063171161
 51
180.0
  0
ARC
  5
158
  8
DATA
  6
CONTINUOUS
 62
     7
 10
59.000000000352777
 20
-37.586459350265301
 30
0.0
 40
1.000000000000113
 50
0.0
 51
86.300928936828811
  0
ARC
  5
159
  8
DATA
  6
CONTINUOUS
 62
     7
 10
59.000000000352898
 20
-44.082302533540172
 30
0.0
 40
0.9999999999999955
 50
266.31733728586983
 51
0.0
  0
POLYLINE
  5
15A
  8
DATA
  6
CONTINUOUS
 62
     7
 66
     1
 10
0.0
 20
0.0
 30
0.0
 70
     1
  0
VERTEX
  5
37A
  8
DATA
  6
CONTINUOUS
 62
     7
 10
28.250000000353008
 20
-49.199999999747753
 30
0.0
  0
VERTEX
  5
37B
  8
DATA
  6
CONTINUOUS
 62
     7
 10
31.750000000353001
 20
-49.199999999747753
 30
0.0
  0
VERTEX
  5
37C
  8
DATA
  6
CONTINUOUS
 62
     7
 10
31.750000000353001
 20
-53.849999999747709
 30
0.0
  0
VERTEX
  5
37D
  8
DATA
  6
CONTINUOUS
 62
     7
 10
28.250000000353008
 20
-53.849999999747709
 30
0.0
  0
SEQEND
  5
37E
  8
DATA
  6
CONTINUOUS
 62
     7
  0
POLYLINE
  5
161
  8
DATA
  6
CONTINUOUS
 62
     7
 66
     1
 10
0.0
 20
0.0
 30
0.0
 70
     1
  0
VERTEX
  5
37F
  8
DATA
  6
CONTINUOUS
 62
     7
 10
18.750000000352951
 20
-49.199999999747753
 30
0.0
  0
VERTEX
  5
380
  8
DATA
  6
CONTINUOUS
 62
     7
 10
22.250000000352951
 20
-49.199999999747753
 30
0.0
  0
VERTEX
  5
381
  8
DATA
  6
CONTINUOUS
 62
     7
 10
22.250000000352951
 20
-53.849999999747709
 30
0.0
  0
VERTEX
  5
382
  8
DATA
  6
CONTINUOUS
 62
     7
 10
18.750000000352951
 20
-53.849999999747709
 30
0.0
  0
SEQEND
  5
383
  8
DATA
  6
CONTINUOUS
 62
     7
  0
POLYLINE
  5
168
  8
DATA
  6
CONTINUOUS
 62
     7
 66
     1
 10
0.0
 20
0.0
 30
0.0
 70
     1
  0
VERTEX
  5
384
  8
DATA
  6
CONTINUOUS
 62
     7
 10
37.750000000352969
 20
-49.199999999747753
 30
0.0
  0
VERTEX
  5
385
  8
DATA
  6
CONTINUOUS
 62
     7
 10
41.250000000352962
 20
-49.199999999747753
 30
0.0
  0
VERTEX
  5
386
  8
DATA
  6
CONTINUOUS
 62
     7
 10
41.250000000352962
 20
-53.849999999747709
 30
0.0
  0
VERTEX
  5
387
  8
DATA
  6
CONTINUOUS
 62
     7
 10
37.750000000352969
 20
-53.849999999747709
 30
0.0
  0
SEQEND
  5
388
  8
DATA
  6
CONTINUOUS
 62
     7
  0
POLYLINE
  5
16F
  8
DATA
  6
CONTINUOUS
 62
     7
 66
     1
 10
0.0
 20
0.0
 30
0.0
 70
     1
  0
VERTEX
  5
389
  8
DATA
  6
CONTINUOUS
 62
     7
 10
5.5000000003528973
 20
-49.949999999747718
 30
0.0
  0
VERTEX
  5
38A
  8
DATA
  6
CONTINUOUS
 62
     7
 10
11.0000000003529
 20
-49.949999999747718
 30
0.0
  0
VERTEX
  5
38B
  8
DATA
  6
CONTINUOUS
 62
     7
 10
11.0000000003529
 20
-52.449999999747689
 30
0.0
  0
VERTEX
  5
38C
  8
DATA
  6
CONTINUOUS
 62
     7
 10
5.5000000003528973
 20
-52.449999999747689
 30
0.0
  0
SEQEND
  5
38D
  8
DATA
  6
CONTINUOUS
 62
     7
  0
POLYLINE
  5
176
  8
DATA
  6
CONTINUOUS
 62
     7
 66
     1
 10
0.0
 20
0.0
 30
0.0
 70
     1
  0
VERTEX
  5
38E
  8
DATA
  6
CONTINUOUS
 62
     7
 10
49.000000000352962
 20
-49.949999999747718
 30
0.0
  0
VERTEX
  5
38F
  8
DATA
  6
CONTINUOUS
 62
     7
 10
54.500000000352898
 20
-49.949999999747718
 30
0.0
  0
VERTEX
  5
390
  8
DATA
  6
CONTINUOUS
 62
     7
 10
54.500000000352898
 20
-52.449999999747689
 30
0.0
  0
VERTEX
  5
391
  8
DATA
  6
CONTINUOUS
 62
     7
 10
49.000000000352962
 20
-52.449999999747689
 30
0.0
  0
SEQEND
  5
392
  8
DATA
  6
CONTINUOUS
 62
     7
  0
ARC
  5
17D
  8
DATA
  6
CONTINUOUS
 62
     7
 10
31.921548117507712
 20
-154.4654811712947
 30
0.0
 40
120.2308373940441
 50
90.915749130198677
 51
99.955853903707009
  0
ARC
  5
17E
  8
DATA
  6
CONTINUOUS
 62
     7
 10
28.078451883198241
 20
-154.4654811712947
 30
0.0
 40
120.2308373940441
 50
80.044146096293048
 51
89.084250869801366
  0
LINE
  5
17F
  8
DATA
  6
CONTINUOUS
 62
     7
 10
156.25000000021001
 20
82.500000000252285
 30
0.0
 11
156.25000000021001
 21
45.790300768239398
 31
0.0
  0
ARC
  5
180
  8
DATA
  6
CONTINUOUS
 62
     7
 10
158.25000000021001
 20
82.500000000252285
 30
0.0
 40
2.0000000000000142
 50
90.0
 51
179.9999999999996
  0
POLYLINE
  5
181
  8
DATA
  6
CONTINUOUS
 62
     7
 66
     1
 10
0.0
 20
0.0
 30
0.0
  0
VERTEX
  5
393
  8
DATA
  6
CONTINUOUS
 62
     7
 10
214.25000000021049
 20
84.5000000002523
 30
0.0
  0
VERTEX
  5
394
  8
DATA
  6
CONTINUOUS
 62
     7
 10
158.25000000021001
 20
84.5000000002523
 30
0.0
  0
VERTEX
  5
395
  8
DATA
  6
CONTINUOUS
 62
     7
 10
158.25000000021001
 20
84.5000000002523
 30
0.0
  0
SEQEND
  5
396
  8
DATA
  6
CONTINUOUS
 62
     7
  0
ARC
  5
187
  8
DATA
  6
CONTINUOUS
 62
     7
 10
214.25000000021049
 20
82.500000000252285
 30
0.0
 40
2.0
 50
0.0
 51
90.0
  0
LINE
  5
188
  8
DATA
  6
CONTINUOUS
 62
     7
 10
216.25000000021049
 20
14.50000000025234
 30
0.0
 11
216.25000000021049
 21
43.990300768239422
 31
0.0
  0
POLYLINE
  5
189
  8
DATA
  6
CONTINUOUS
 62
     7
 66
     1
 10
0.0
 20
0.0
 30
0.0
  0
VERTEX
  5
397
  8
DATA
  6
CONTINUOUS
 62
     7
 10
216.25000000021049
 20
45.790300768239398
 30
0.0
  0
VERTEX
  5
398
  8
DATA
  6
CONTINUOUS
 62
     7
 10
216.25000000021049
 20
82.500000000252285
 30
0.0
  0
VERTEX
  5
399
  8
DATA
  6
CONTINUOUS
 62
     7
 10
216.25000000021049
 20
82.500000000252285
 30
0.0
  0
SEQEND
  5
39A
  8
DATA
  6
CONTINUOUS
 62
     7
  0
ARC
  5
18F
  8
DATA
  6
CONTINUOUS
 62
     7
 10
214.25000000021049
 20
14.50000000025231
 30
0.0
 40
1.9999999999999849
 50
270.0
 51
0.0000000000007958
  0
POLYLINE
  5
190
  8
DATA
  6
CONTINUOUS
 62
     7
 66
     1
 10
0.0
 20
0.0
 30
0.0
  0
VERTEX
  5
39B
  8
DATA
  6
CONTINUOUS
 62
     7
 10
158.25000000021001
 20
12.50000000025233
 30
0.0
  0
VERTEX
  5
39C
  8
DATA
  6
CONTINUOUS
 62
     7
 10
214.25000000021049
 20
12.50000000025233
 30
0.0
  0
VERTEX
  5
39D
  8
DATA
  6
CONTINUOUS
 62
     7
 10
214.25000000021049
 20
12.50000000025233
 30
0.0
  0
SEQEND
  5
39E
  8
DATA
  6
CONTINUOUS
 62
     7
  0
ARC
  5
196
  8
DATA
  6
CONTINUOUS
 62
     7
 10
158.25000000021001
 20
14.50000000025234
 30
0.0
 40
2.000000000000028
 50
180.0
 51
269.9999999999996
  0
POLYLINE
  5
197
  8
DATA
  6
CONTINUOUS
 62
     7
 66
     1
 10
0.0
 20
0.0
 30
0.0
  0
VERTEX
  5
39F
  8
DATA
  6
CONTINUOUS
 62
     7
 10
156.25000000021001
 20
43.990300768239422
 30
0.0
  0
VERTEX
  5
3A0
  8
DATA
  6
CONTINUOUS
 62
     7
 10
156.25000000021001
 20
14.50000000025234
 30
0.0
  0
VERTEX
  5
3A1
  8
DATA
  6
CONTINUOUS
 62
     7
 10
156.25000000021001
 20
14.50000000025234
 30
0.0
  0
SEQEND
  5
3A2
  8
DATA
  6
CONTINUOUS
 62
     7
  0
LINE
  5
19D
  8
DATA
  6
CONTINUOUS
 62
     7
 10
192.29000000020989
 20
86.700000000252317
 30
0.0
 11
180.21000000020999
 21
86.700000000252317
 31
0.0
  0
LINE
  5
19E
  8
DATA
  6
CONTINUOUS
 62
     7
 10
191.75000000021001
 20
88.0000000002523
 30
0.0
 11
180.75000000021001
 21
88.0000000002523
 31
0.0
  0
LINE
  5
19F
  8
DATA
  6
CONTINUOUS
 62
     7
 10
192.65000000021001
 20
84.5000000002523
 30
0.0
 11
192.29000000020989
 21
86.700000000252317
 31
0.0
  0
LINE
  5
1A0
  8
DATA
  6
CONTINUOUS
 62
     7
 10
191.75000000021001
 20
88.0000000002523
 30
0.0
 11
192.14000000020999
 21
86.700000000252317
 31
0.0
  0
LINE
  5
1A1
  8
DATA
  6
CONTINUOUS
 62
     7
 10
179.85000000021
 20
84.5000000002523
 30
0.0
 11
180.21000000020999
 21
86.700000000252317
 31
0.0
  0
LINE
  5
1A2
  8
DATA
  6
CONTINUOUS
 62
     7
 10
180.75000000021001
 20
88.0000000002523
 30
0.0
 11
180.36000000020999
 21
86.700000000252317
 31
0.0
  0
LINE
  5
1A3
  8
DATA
  6
CONTINUOUS
 62
     7
 10
163.25000000020989
 20
84.5000000002523
 30
0.0
 11
163.25000000020989
 21
87.0000000002523
 31
0.0
  0
LINE
  5
1A4
  8
DATA
  6
CONTINUOUS
 62
     7
 10
167.95000000020991
 20
84.5000000002523
 30
0.0
 11
167.95000000020991
 21
87.0000000002523
 31
0.0
  0
LINE
  5
1A5
  8
DATA
  6
CONTINUOUS
 62
     7
 10
166.88940986110771
 20
94.300000000252311
 30
0.0
 11
164.3105901393121
 21
94.300000000252311
 31
0.0
  0
LINE
  5
1A6
  8
DATA
  6
CONTINUOUS
 62
     7
 10
167.95000000020991
 20
87.0000000002523
 30
0.0
 11
167.38772949787861
 21
93.840957778617039
 31
0.0
  0
LINE
  5
1A7
  8
DATA
  6
CONTINUOUS
 62
     7
 10
163.25000000020989
 20
87.0000000002523
 30
0.0
 11
163.81227050254131
 21
93.840957778617039
 31
0.0
  0
ARC
  5
1A8
  8
DATA
  6
CONTINUOUS
 62
     7
 10
166.88940986110771
 20
93.800000000252325
 30
0.0
 40
0.5000000000000289
 50
4.6986805172992829
 51
89.999999999999986
  0
ARC
  5
1A9
  8
DATA
  6
CONTINUOUS
 62
     7
 10
164.3105901393121
 20
93.800000000252325
 30
0.0
 40
0.5
 50
90.0
 51
175.30131948270019
  0
LINE
  5
1AA
  8
DATA
  6
CONTINUOUS
 62
     7
 10
166.60000000021
 20
94.300000000252311
 30
0.0
 11
166.60000000021
 21
146.20000000025209
 31
0.0
  0
LINE
  5
1AB
  8
DATA
  6
CONTINUOUS
 62
     7
 10
164.60000000021
 20
146.20000000025209
 30
0.0
 11
164.60000000021
 21
94.300000000252311
 31
0.0
  0
LINE
  5
1AC
  8
DATA
  6
CONTINUOUS
 62
     7
 10
167.17000000020991
 20
146.20000000025209
 30
0.0
 11
164.0300000002099
 21
146.20000000025209
 31
0.0
  0
LINE
  5
1AD
  8
DATA
  6
CONTINUOUS
 62
     7
 10
167.17000000020991
 20
146.20000000025209
 30
0.0
 11
167.17000000020991
 21
156.950000000253
 31
0.0
  0
LINE
  5
1AE
  8
DATA
  6
CONTINUOUS
 62
     7
 10
164.0300000002099
 20
156.950000000253
 30
0.0
 11
164.0300000002099
 21
146.20000000025209
 31
0.0
  0
ARC
  5
1AF
  8
DATA
  6
CONTINUOUS
 62
     7
 10
165.60000000021
 20
156.92987096799411
 30
0.0
 40
1.5701290322580581
 50
0.7345512146763538
 51
179.2654487853236
  0
LINE
  5
1B0
  8
DATA
  6
CONTINUOUS
 62
     7
 10
213.8300000002105
 20
84.5000000002523
 30
0.0
 11
213.8300000002105
 21
86.500000000252285
 31
0.0
  0
LINE
  5
1B1
  8
DATA
  6
CONTINUOUS
 62
     7
 10
202.6200000002101
 20
86.500000000252285
 30
0.0
 11
203.07000000021
 21
86.500000000252285
 31
0.0
  0
LINE
  5
1B2
  8
DATA
  6
CONTINUOUS
 62
     7
 10
204.0200000002101
 20
86.500000000252285
 30
0.0
 11
204.47000000021009
 21
86.500000000252285
 31
0.0
  0
LINE
  5
1B3
  8
DATA
  6
CONTINUOUS
 62
     7
 10
205.42000000021011
 20
86.500000000252285
 30
0.0
 11
205.87000000021001
 21
86.500000000252285
 31
0.0
  0
LINE
  5
1B4
  8
DATA
  6
CONTINUOUS
 62
     7
 10
206.82000000021031
 20
86.500000000252285
 30
0.0
 11
207.27000000021019
 21
86.500000000252285
 31
0.0
  0
LINE
  5
1B5
  8
DATA
  6
CONTINUOUS
 62
     7
 10
208.22000000021029
 20
86.500000000252285
 30
0.0
 11
208.72000000021021
 21
86.500000000252285
 31
0.0
  0
LINE
  5
1B6
  8
DATA
  6
CONTINUOUS
 62
     7
 10
209.62000000021041
 20
86.500000000252285
 30
0.0
 11
210.0700000002104
 21
86.500000000252285
 31
0.0
  0
LINE
  5
1B7
  8
DATA
  6
CONTINUOUS
 62
     7
 10
210.93000000021041
 20
86.500000000252285
 30
0.0
 11
213.8500000002106
 21
86.500000000252285
 31
0.0
  0
LINE
  5
1B8
  8
DATA
  6
CONTINUOUS
 62
     7
 10
210.93000000021041
 20
84.5000000002523
 30
0.0
 11
210.93000000021041
 21
86.500000000252285
 31
0.0
  0
LINE
  5
1B9
  8
DATA
  6
CONTINUOUS
 62
     7
 10
210.0700000002104
 20
84.5000000002523
 30
0.0
 11
210.0700000002104
 21
86.500000000252285
 31
0.0
  0
LINE
  5
1BA
  8
DATA
  6
CONTINUOUS
 62
     7
 10
209.62000000021041
 20
84.5000000002523
 30
0.0
 11
209.62000000021041
 21
86.500000000252285
 31
0.0
  0
LINE
  5
1BB
  8
DATA
  6
CONTINUOUS
 62
     7
 10
208.22000000021029
 20
86.500000000252285
 30
0.0
 11
208.67000000021031
 21
86.500000000252285
 31
0.0
  0
LINE
  5
1BC
  8
DATA
  6
CONTINUOUS
 62
     7
 10
208.67000000021031
 20
84.5000000002523
 30
0.0
 11
208.67000000021031
 21
86.500000000252285
 31
0.0
  0
LINE
  5
1BD
  8
DATA
  6
CONTINUOUS
 62
     7
 10
208.22000000021029
 20
84.5000000002523
 30
0.0
 11
208.22000000021029
 21
86.500000000252285
 31
0.0
  0
LINE
  5
1BE
  8
DATA
  6
CONTINUOUS
 62
     7
 10
206.82000000021031
 20
86.500000000252285
 30
0.0
 11
207.27000000021019
 21
86.500000000252285
 31
0.0
  0
LINE
  5
1BF
  8
DATA
  6
CONTINUOUS
 62
     7
 10
207.27000000021019
 20
84.5000000002523
 30
0.0
 11
207.27000000021019
 21
86.500000000252285
 31
0.0
  0
LINE
  5
1C0
  8
DATA
  6
CONTINUOUS
 62
     7
 10
206.82000000021031
 20
84.5000000002523
 30
0.0
 11
206.82000000021031
 21
86.500000000252285
 31
0.0
  0
LINE
  5
1C1
  8
DATA
  6
CONTINUOUS
 62
     7
 10
205.42000000021011
 20
86.500000000252285
 30
0.0
 11
205.87000000021001
 21
86.500000000252285
 31
0.0
  0
LINE
  5
1C2
  8
DATA
  6
CONTINUOUS
 62
     7
 10
205.87000000021001
 20
84.5000000002523
 30
0.0
 11
205.87000000021001
 21
86.500000000252285
 31
0.0
  0
LINE
  5
1C3
  8
DATA
  6
CONTINUOUS
 62
     7
 10
205.42000000021011
 20
84.5000000002523
 30
0.0
 11
205.42000000021011
 21
86.500000000252285
 31
0.0
  0
LINE
  5
1C4
  8
DATA
  6
CONTINUOUS
 62
     7
 10
204.0200000002101
 20
86.500000000252285
 30
0.0
 11
204.47000000021009
 21
86.500000000252285
 31
0.0
  0
LINE
  5
1C5
  8
DATA
  6
CONTINUOUS
 62
     7
 10
204.47000000021009
 20
84.5000000002523
 30
0.0
 11
204.47000000021009
 21
86.500000000252285
 31
0.0
  0
LINE
  5
1C6
  8
DATA
  6
CONTINUOUS
 62
     7
 10
204.0200000002101
 20
84.5000000002523
 30
0.0
 11
204.0200000002101
 21
86.500000000252285
 31
0.0
  0
LINE
  5
1C7
  8
DATA
  6
CONTINUOUS
 62
     7
 10
202.6200000002101
 20
86.500000000252285
 30
0.0
 11
203.07000000021
 21
86.500000000252285
 31
0.0
  0
LINE
  5
1C8
  8
DATA
  6
CONTINUOUS
 62
     7
 10
203.07000000021
 20
84.5000000002523
 30
0.0
 11
203.07000000021
 21
86.500000000252285
 31
0.0
  0
LINE
  5
1C9
  8
DATA
  6
CONTINUOUS
 62
     7
 10
202.6200000002101
 20
84.5000000002523
 30
0.0
 11
202.6200000002101
 21
86.500000000252285
 31
0.0
  0
LINE
  5
1CA
  8
DATA
  6
CONTINUOUS
 62
     7
 10
201.62000000021001
 20
84.5000000002523
 30
0.0
 11
201.62000000021001
 21
86.500000000252285
 31
0.0
  0
LINE
  5
1CB
  8
DATA
  6
CONTINUOUS
 62
     7
 10
198.72000000021001
 20
84.5000000002523
 30
0.0
 11
198.72000000021001
 21
86.500000000252285
 31
0.0
  0
LINE
  5
1CC
  8
DATA
  6
CONTINUOUS
 62
     7
 10
201.62000000021001
 20
86.500000000252285
 30
0.0
 11
198.72000000021001
 21
86.500000000252285
 31
0.0
  0
CIRCLE
  5
1CD
  8
DATA
  6
CONTINUOUS
 62
     7
 10
161.25000000021001
 20
79.100000000252265
 30
0.0
 40
1.9000000000000341
  0
POLYLINE
  5
1CE
  8
DATA
  6
CONTINUOUS
 62
     7
 66
     1
 10
0.0
 20
0.0
 30
0.0
 70
     1
  0
VERTEX
  5
3A3
  8
DATA
  6
CONTINUOUS
 62
     7
 10
161.65414518864279
 20
79.800000000252297
 30
0.0
  0
VERTEX
  5
3A4
  8
DATA
  6
CONTINUOUS
 62
     7
 10
160.84585481177729
 20
79.800000000252297
 30
0.0
  0
VERTEX
  5
3A5
  8
DATA
  6
CONTINUOUS
 62
     7
 10
160.44170962334451
 20
79.100000000252265
 30
0.0
  0
VERTEX
  5
3A6
  8
DATA
  6
CONTINUOUS
 62
     7
 10
160.84585481177729
 20
78.400000000252263
 30
0.0
  0
VERTEX
  5
3A7
  8
DATA
  6
CONTINUOUS
 62
     7
 10
161.65414518864279
 20
78.400000000252263
 30
0.0
  0
VERTEX
  5
3A8
  8
DATA
  6
CONTINUOUS
 62
     7
 10
162.05829037707551
 20
79.100000000252265
 30
0.0
  0
SEQEND
  5
3A9
  8
DATA
  6
CONTINUOUS
 62
     7
  0
ARC
  5
1D7
  8
DATA
  6
CONTINUOUS
 62
     7
 10
209.54528496475379
 20
73.28524639228371
 30
0.0
 40
1.8999999999999859
 50
231.49687926946129
 51
143.0735763863793
  0
POLYLINE
  5
1D8
  8
DATA
  6
CONTINUOUS
 62
     7
 66
     1
 10
0.0
 20
0.0
 30
0.0
 70
     1
  0
VERTEX
  5
3AA
  8
DATA
  6
CONTINUOUS
 62
     7
 10
209.9494301531866
 20
73.985246392283713
 30
0.0
  0
VERTEX
  5
3AB
  8
DATA
  6
CONTINUOUS
 62
     7
 10
209.14113977632121
 20
73.985246392283713
 30
0.0
  0
VERTEX
  5
3AC
  8
DATA
  6
CONTINUOUS
 62
     7
 10
208.73699458788829
 20
73.28524639228371
 30
0.0
  0
VERTEX
  5
3AD
  8
DATA
  6
CONTINUOUS
 62
     7
 10
209.14113977632121
 20
72.585246392283707
 30
0.0
  0
VERTEX
  5
3AE
  8
DATA
  6
CONTINUOUS
 62
     7
 10
209.9494301531866
 20
72.585246392283707
 30
0.0
  0
VERTEX
  5
3AF
  8
DATA
  6
CONTINUOUS
 62
     7
 10
210.35357534161921
 20
73.28524639228371
 30
0.0
  0
SEQEND
  5
3B0
  8
DATA
  6
CONTINUOUS
 62
     7
  0
POLYLINE
  5
1E1
  8
DATA
  6
CONTINUOUS
 62
     7
 66
     1
 10
0.0
 20
0.0
 30
0.0
  0
VERTEX
  5
3B1
  8
DATA
  6
CONTINUOUS
 62
     7
 10
202.92436537682289
 20
61.500000000252257
 30
0.0
  0
VERTEX
  5
3B2
  8
DATA
  6
CONTINUOUS
 62
     7
 10
204.25000000021001
 20
61.500000000252257
 30
0.0
  0
VERTEX
  5
3B3
  8
DATA
  6
CONTINUOUS
 62
     7
 10
204.25000000021001
 20
49.916363636617362
 30
0.0
  0
SEQEND
  5
3B4
  8
DATA
  6
CONTINUOUS
 62
     7
  0
LINE
  5
1E7
  8
DATA
  6
CONTINUOUS
 62
     7
 10
203.18429047045569
 20
43.500000000252278
 30
0.0
 11
169.31570952996469
 21
43.500000000252278
 31
0.0
  0
POLYLINE
  5
1E8
  8
DATA
  6
CONTINUOUS
 62
     7
 66
     1
 10
0.0
 20
0.0
 30
0.0
  0
VERTEX
  5
3B5
  8
DATA
  6
CONTINUOUS
 62
     7
 10
168.25000000021001
 20
49.916363636614619
 30
0.0
  0
VERTEX
  5
3B6
  8
DATA
  6
CONTINUOUS
 62
     7
 10
168.25000000021001
 20
61.500000000252257
 30
0.0
  0
VERTEX
  5
3B7
  8
DATA
  6
CONTINUOUS
 62
     7
 10
169.57563462359761
 20
61.500000000252257
 30
0.0
  0
SEQEND
  5
3B8
  8
DATA
  6
CONTINUOUS
 62
     7
  0
LINE
  5
1EE
  8
DATA
  6
CONTINUOUS
 62
     7
 10
171.37563462359759
 20
61.500000000252257
 30
0.0
 11
201.12436537682279
 21
61.500000000252257
 31
0.0
  0
LINE
  5
1EF
  8
DATA
  6
CONTINUOUS
 62
     7
 10
109.619208628289
 20
13.50000000025233
 30
0.0
 11
109.619208628289
 21
43.500000000252278
 31
0.0
  0
LINE
  5
1F0
  8
DATA
  6
CONTINUOUS
 62
     7
 10
109.619208628289
 20
45.836675042181241
 30
0.0
 11
109.619208628289
 21
83.500000000252314
 31
0.0
  0
LINE
  5
1F1
  8
DATA
  6
CONTINUOUS
 62
     7
 10
90.601895431991565
 20
12.50000000025233
 30
0.0
 11
94.900660190005681
 21
12.50000000025233
 31
0.0
  0
LINE
  5
1F2
  8
DATA
  6
CONTINUOUS
 62
     7
 10
98.400660190005681
 20
12.50000000025233
 30
0.0
 11
108.619208628289
 21
12.50000000025233
 31
0.0
  0
ARC
  5
1F3
  8
DATA
  6
CONTINUOUS
 62
     7
 10
450.89851897311951
 20
13.91034482783831
 30
0.0
 40
359.28207847649412
 50
175.91568352227611
 51
180.22491245360919
  0
ARC
  5
1F4
  8
DATA
  6
CONTINUOUS
 62
     7
 10
450.89851897311951
 20
13.91034482783831
 30
0.0
 40
359.28207847649412
 50
168.80016822225221
 51
175.80695836380849
  0
ARC
  5
1F5
  8
DATA
  6
CONTINUOUS
 62
     7
 10
-999.77364851454411
 20
-6.0357142854610677
 30
0.0
 40
1089.5505357246659
 50
1.0264300594884761
 51
3.6064425064946368
  0
ARC
  5
1F6
  8
DATA
  6
CONTINUOUS
 62
     7
 10
162.82992291400319
 20
66.75357142882369
 30
0.0
 40
75.330899458756505
 50
166.97973574257489
 51
183.23693708087359
  0
ARC
  5
1F7
  8
DATA
  6
CONTINUOUS
 62
     7
 10
108.619208628289
 20
13.50000000025233
 30
0.0
 40
1.0
 50
270.0
 51
0.0
  0
ARC
  5
1F8
  8
DATA
  6
CONTINUOUS
 62
     7
 10
108.619208628289
 20
83.500000000252314
 30
0.0
 40
1.0
 50
0.0
 51
90.0
  0
ARC
  5
1F9
  8
DATA
  6
CONTINUOUS
 62
     7
 10
90.410037906846441
 20
83.500000000252314
 30
0.0
 40
0.9999999999999715
 50
90.0
 51
166.97973574257659
  0
ARC
  5
1FA
  8
DATA
  6
CONTINUOUS
 62
     7
 10
90.601895431991565
 20
13.5000000002523
 30
0.0
 40
0.9999999999999708
 50
181.02643005948599
 51
270.0
  0
ARC
  5
1FB
  8
DATA
  6
CONTINUOUS
 62
     7
 10
99.43966270339736
 20
83.500000000252342
 30
0.0
 40
0.9999999999999431
 50
90.0
 51
168.80016822225571
  0
LINE
  5
1FC
  8
DATA
  6
CONTINUOUS
 62
     7
 10
90.410037906846441
 20
84.5000000002523
 30
0.0
 11
108.619208628289
 21
84.5000000002523
 31
0.0
  0
LINE
  5
1FD
  8
DATA
  6
CONTINUOUS
 62
     7
 10
103.5507699687511
 20
94.300000000252311
 30
0.0
 11
100.9719502469555
 21
94.300000000252311
 31
0.0
  0
LINE
  5
1FE
  8
DATA
  6
CONTINUOUS
 62
     7
 10
104.8168395599081
 20
84.5000000002523
 30
0.0
 11
104.049089605522
 21
93.840957778617039
 31
0.0
  0
LINE
  5
1FF
  8
DATA
  6
CONTINUOUS
 62
     7
 10
99.705880655798566
 20
84.5000000002523
 30
0.0
 11
100.4736306101847
 21
93.840957778617039
 31
0.0
  0
ARC
  5
200
  8
DATA
  6
CONTINUOUS
 62
     7
 10
103.5507699687511
 20
93.800000000252325
 30
0.0
 40
0.5000000000000289
 50
4.6986805172992829
 51
89.999999999999986
  0
ARC
  5
201
  8
DATA
  6
CONTINUOUS
 62
     7
 10
100.9719502469555
 20
93.800000000252325
 30
0.0
 40
0.5
 50
90.0
 51
175.30131948270071
  0
LINE
  5
202
  8
DATA
  6
CONTINUOUS
 62
     7
 10
103.26136010785331
 20
94.300000000252311
 30
0.0
 11
103.26136010785331
 21
146.20000000025209
 31
0.0
  0
LINE
  5
203
  8
DATA
  6
CONTINUOUS
 62
     7
 10
101.26136010785331
 20
146.20000000025209
 30
0.0
 11
101.26136010785331
 21
94.300000000252311
 31
0.0
  0
LINE
  5
204
  8
DATA
  6
CONTINUOUS
 62
     7
 10
103.8313601078533
 20
146.20000000025209
 30
0.0
 11
100.6913601078533
 21
146.20000000025209
 31
0.0
  0
LINE
  5
205
  8
DATA
  6
CONTINUOUS
 62
     7
 10
103.8313601078533
 20
146.20000000025209
 30
0.0
 11
103.8313601078533
 21
156.950000000253
 31
0.0
  0
LINE
  5
206
  8
DATA
  6
CONTINUOUS
 62
     7
 10
100.6913601078533
 20
156.950000000253
 30
0.0
 11
100.6913601078533
 21
146.20000000025209
 31
0.0
  0
ARC
  5
207
  8
DATA
  6
CONTINUOUS
 62
     7
 10
102.26136010785331
 20
156.92987096799411
 30
0.0
 40
1.5701290322581161
 50
0.7345512146763265
 51
179.2654487853236
  0
LINE
  5
208
  8
DATA
  6
CONTINUOUS
 62
     7
 10
107.2899351834388
 20
86.700000000252317
 30
0.0
 11
104.6360176420999
 21
86.700000000252317
 31
0.0
  0
LINE
  5
209
  8
DATA
  6
CONTINUOUS
 62
     7
 10
99.886702573606783
 20
86.700000000252317
 30
0.0
 11
95.209935183438589
 21
86.700000000252317
 31
0.0
  0
LINE
  5
20A
  8
DATA
  6
CONTINUOUS
 62
     7
 10
106.74993518343879
 20
88.0000000002523
 30
0.0
 11
104.5291683270314
 21
88.0000000002523
 31
0.0
  0
LINE
  5
20B
  8
DATA
  6
CONTINUOUS
 62
     7
 10
99.993551888675285
 20
88.0000000002523
 30
0.0
 11
95.749935183438566
 21
88.0000000002523
 31
0.0
  0
LINE
  5
20C
  8
DATA
  6
CONTINUOUS
 62
     7
 10
107.6499351834388
 20
84.5000000002523
 30
0.0
 11
107.2899351834388
 21
86.700000000252317
 31
0.0
  0
LINE
  5
20D
  8
DATA
  6
CONTINUOUS
 62
     7
 10
106.74993518343879
 20
88.0000000002523
 30
0.0
 11
107.13993518343879
 21
86.700000000252317
 31
0.0
  0
LINE
  5
20E
  8
DATA
  6
CONTINUOUS
 62
     7
 10
94.849935183438575
 20
84.5000000002523
 30
0.0
 11
95.209935183438589
 21
86.700000000252317
 31
0.0
  0
LINE
  5
20F
  8
DATA
  6
CONTINUOUS
 62
     7
 10
95.749935183438566
 20
88.0000000002523
 30
0.0
 11
95.359935183438566
 21
86.700000000252317
 31
0.0
  0
ARC
  5
210
  8
DATA
  6
CONTINUOUS
 62
     7
 10
457.6799705348364
 20
13.91034482783831
 30
0.0
 40
359.28207847649452
 50
175.27589912469381
 51
180.22491245360919
  0
ARC
  5
211
  8
DATA
  6
CONTINUOUS
 62
     7
 10
457.6799705348364
 20
13.91034482783831
 30
0.0
 40
359.28207847649429
 50
173.88381490385299
 51
174.9878082288711
  0
ARC
  5
212
  8
DATA
  6
CONTINUOUS
 62
     7
 10
457.6799705348364
 20
13.91034482783831
 30
0.0
 40
359.28207847649452
 50
168.80016822225221
 51
173.5653004182256
  0
ARC
  5
213
  8
DATA
  6
CONTINUOUS
 62
     7
 10
106.2211142651137
 20
83.500000000252342
 30
0.0
 40
0.9999999999999431
 50
90.0
 51
168.80016822225511
  0
ARC
  5
214
  8
DATA
  6
CONTINUOUS
 62
     7
 10
454.17997053483651
 20
13.91034482783831
 30
0.0
 40
359.28207847649429
 50
173.81878929941431
 51
180.22491245360919
  0
ARC
  5
215
  8
DATA
  6
CONTINUOUS
 62
     7
 10
454.17997053483651
 20
13.91034482783831
 30
0.0
 40
359.28207847649452
 50
168.80016822225221
 51
173.5077076330416
  0
ARC
  5
216
  8
DATA
  6
CONTINUOUS
 62
     7
 10
102.7211142651137
 20
83.500000000252342
 30
0.0
 40
0.9999999999999431
 50
90.0
 51
168.80016822225511
  0
LINE
  5
217
  8
DATA
  6
CONTINUOUS
 62
     7
 10
87.549105016165967
 20
69.500000000252257
 30
0.0
 11
95.943025774039995
 21
69.500000000252257
 31
0.0
  0
ARC
  5
218
  8
DATA
  6
CONTINUOUS
 62
     7
 10
110.37634941292301
 20
42.418427998807388
 30
0.0
 40
22.365329499144831
 50
135.83842030910631
 51
168.1791920129952
  0
LINE
  5
219
  8
DATA
  6
CONTINUOUS
 62
     7
 10
98.398126390837987
 20
13.50000000025233
 30
0.0
 11
94.898126390837987
 21
13.50000000025233
 31
0.0
  0
LINE
  5
21A
  8
DATA
  6
CONTINUOUS
 62
     7
 10
88.824931597701152
 20
39.500000000252292
 30
0.0
 11
95.810354827049466
 21
39.500000000252292
 31
0.0
  0
LINE
  5
21B
  8
DATA
  6
CONTINUOUS
 62
     7
 10
88.796274664930721
 20
40.180000000252313
 30
0.0
 11
95.859559266496404
 21
40.180000000252313
 31
0.0
  0
LINE
  5
21C
  8
DATA
  6
STYLE_05
 62
     7
 10
109.8192086282891
 20
46.500000000252278
 30
0.0
 11
109.8192086282891
 21
79.5000000002523
 31
0.0
  0
LINE
  5
21D
  8
DATA
  6
STYLE_05
 62
     7
 10
111.619208628289
 20
44.700000000252288
 30
0.0
 11
111.619208628289
 21
77.114371387522539
 31
0.0
  0
LINE
  5
21E
  8
DATA
  6
STYLE_05
 62
     7
 10
110.819208628289
 20
80.5000000002523
 30
0.0
 11
111.0413719653214
 21
80.5000000002523
 31
0.0
  0
ARC
  5
21F
  8
DATA
  6
STYLE_05
 62
     7
 10
70.561516320596766
 20
56.500000000252278
 30
0.0
 40
47.557692307692271
 50
330.1515962620831
 51
29.604538506500148
  0
LINE
  5
220
  8
DATA
  6
STYLE_05
 62
     7
 10
111.70000000512169
 20
32.122973575033058
 30
0.0
 11
114.3506333279108
 21
19.753351402017501
 31
0.0
  0
ARC
  5
221
  8
DATA
  6
STYLE_05
 62
     7
 10
68.761516320596741
 20
56.500000000252278
 30
0.0
 40
47.557692307692307
 50
330.15159626208208
 51
25.687360526002362
  0
LINE
  5
222
  8
DATA
  6
STYLE_05
 62
     7
 10
109.900000005122
 20
32.122973575031921
 30
0.0
 11
112.6310192549158
 21
19.378217075994112
 31
0.0
  0
ARC
  5
223
  8
DATA
  6
STYLE_05
 62
     7
 10
98.37627831762569
 20
44.400000000252277
 30
0.0
 40
0.8999999999999914
 50
90.0
 51
270.0
  0
ARC
  5
224
  8
DATA
  6
CONTINUOUS
 62
     7
 10
110.4192086282891
 20
44.700000000252288
 30
0.0
 40
1.200000000000002
 50
270.0
 51
0.0
  0
ARC
  5
225
  8
DATA
  6
CONTINUOUS
 62
     7
 10
108.619208628289
 20
46.500000000252278
 30
0.0
 40
1.199999999999988
 50
270.0
 51
0.0
  0
ARC
  5
226
  8
DATA
  6
STYLE_05
 62
     7
 10
111.0413719653214
 20
79.500000000252271
 30
0.0
 40
1.000000000000052
 50
29.604538506500411
 51
90.0
  0
ARC
  5
227
  8
DATA
  6
STYLE_05
 62
     7
 10
110.819208628289
 20
79.5000000002523
 30
0.0
 40
1.0
 50
90.0
 51
180.0
  0
ARC
  5
228
  8
DATA
  6
STYLE_05
 62
     7
 10
112.6778024191986
 20
32.33250266376379
 30
0.0
 40
0.9999999999993644
 50
150.15159626205869
 51
192.09475707701159
  0
ARC
  5
229
  8
DATA
  6
STYLE_05
 62
     7
 10
110.8778024192017
 20
32.332502663763279
 30
0.0
 40
1.0000000000023099
 50
150.15159626217061
 51
192.09475707701179
  0
ARC
  5
22A
  8
DATA
  6
STYLE_05
 62
     7
 10
113.45063956778939
 20
19.750000000252321
 30
0.0
 40
0.9000000000000487
 50
204.3992266639861
 51
0.2133573664374069
  0
LINE
  5
22B
  8
DATA
  6
STYLE_05
 62
     7
 10
98.37627831762569
 20
45.300000000252282
 30
0.0
 11
108.619208628289
 21
45.300000000252282
 31
0.0
  0
LINE
  5
22C
  8
DATA
  6
STYLE_05
 62
     7
 10
98.37627831762569
 20
43.500000000252278
 30
0.0
 11
110.4192086282891
 21
43.500000000252278
 31
0.0
  0
ARC
  5
22D
  8
DATA
  6
CONTINUOUS
 62
     7
 10
98.63522790521246
 20
44.400000000252319
 30
0.0
 40
1.5297058540778321
 50
36.039893430300921
 51
323.96010656969742
  0
ARC
  5
22E
  8
DATA
  6
CONTINUOUS
 62
     7
 10
454.17997053483651
 20
13.91034482783831
 30
0.0
 40
359.28207847649452
 50
168.80016822225221
 51
173.5077076330416
  0
LINE
  5
22F
  8
DATA
  6
CONTINUOUS
 62
     7
 10
96.986640469875596
 20
52.595443657928513
 30
0.0
 11
97.201941014152979
 21
54.534209167902482
 31
0.0
  0
LINE
  5
230
  8
DATA
  6
CONTINUOUS
 62
     7
 10
100.44296637568389
 20
52.190036229201063
 30
0.0
 11
100.654512947469
 21
54.164249206841262
 31
0.0
  0
ARC
  5
231
  8
DATA
  6
STYLE_05
 62
     7
 10
183.33906048268969
 20
36.499515895681263
 30
0.0
 40
17.564613786789611
 50
200.84257432612279
 51
270.03568471494629
  0
ARC
  5
232
  8
DATA
  6
STYLE_05
 62
     7
 10
189.1609395177307
 20
36.499515895681263
 30
0.0
 40
17.564613786789611
 50
269.96431528505371
 51
339.1574256738802
  0
LINE
  5
233
  8
DATA
  6
STYLE_05
 62
     7
 10
183.35000000035279
 20
18.93490551554379
 30
0.0
 11
189.15000000000489
 21
18.93490551554379
 31
0.0
  0
LINE
  5
234
  8
DATA
  6
STYLE_05
 62
     7
 10
166.5429384258384
 20
34.999749224924052
 30
0.0
 11
171.30757981527881
 21
76.634051984288163
 31
0.0
  0
ARC
  5
235
  8
DATA
  6
STYLE_05
 62
     7
 10
195.41627952289861
 20
34.924947515548581
 30
0.0
 40
28.873409942765932
 50
179.8510672807077
 51
189.3178848777257
  0
LINE
  5
236
  8
DATA
  6
STYLE_05
 62
     7
 10
161.0081239552789
 20
47.319102937680377
 30
0.0
 11
165.06228232745821
 21
79.031630648947427
 31
0.0
  0
LINE
  5
237
  8
DATA
  6
STYLE_05
 62
     7
 10
162.56196463069941
 20
45.393589998747558
 30
0.0
 11
166.6296730571365
 21
77.212109245542621
 31
0.0
  0
LINE
  5
238
  8
DATA
  6
STYLE_05
 62
     7
 10
160.41708289177481
 20
43.65370073660781
 30
0.0
 11
155.24500000030289
 21
44.071480586486672
 31
0.0
  0
LINE
  5
239
  8
DATA
  6
STYLE_05
 62
     7
 10
158.86324221635431
 20
45.579213675540629
 30
0.0
 11
155.4329403036175
 21
45.856299532092812
 31
0.0
  0
ARC
  5
23A
  8
DATA
  6
STYLE_05
 62
     7
 10
155.35670816164091
 20
44.962022258118409
 30
0.0
 40
0.8975205748160883
 50
85.127633931059577
 51
267.91356188725717
  0
ARC
  5
23B
  8
DATA
  6
STYLE_05
 62
     7
 10
159.0242696156661
 20
47.572720679960433
 30
0.0
 40
1.999999999999994
 50
265.38190619047879
 51
352.71477217207882
  0
ARC
  5
23C
  8
DATA
  6
STYLE_05
 62
     7
 10
160.5781102910866
 20
45.647207741027607
 30
0.0
 40
1.99999999999998
 50
265.38190619047879
 51
352.71477217207882
  0
LINE
  5
23D
  8
DATA
  6
STYLE_05
 62
     7
 10
183.35000000035279
 20
20.734905515543758
 30
0.0
 11
189.15000000000489
 21
20.734905515543758
 31
0.0
  0
LINE
  5
23E
  8
DATA
  6
CONTINUOUS
 62
     7
 10
168.3429384258385
 20
34.999749224924052
 30
0.0
 11
168.3433557805057
 21
35.003396145889432
 31
0.0
  0
LINE
  5
23F
  8
DATA
  6
STYLE_05
 62
     7
 10
168.41163129438829
 20
35.599999999925373
 30
0.0
 11
173.27215635081271
 21
78.072151674789453
 31
0.0
  0
LINE
  5
240
  8
DATA
  6
STYLE_05
 62
     7
 10
166.72072034662119
 20
80.331690347625127
 30
0.0
 11
171.95243060987829
 21
79.732971944630677
 31
0.0
  0
LINE
  5
241
  8
DATA
  6
STYLE_05
 62
     7
 10
168.3077771185562
 20
78.509786693542239
 30
0.0
 11
170.00752011660111
 21
78.292490003451263
 31
0.0
  0
ARC
  5
242
  8
DATA
  6
STYLE_05
 62
     7
 10
166.55017308216779
 20
78.841417342237378
 30
0.0
 40
1.500000000000008
 50
83.471456447652429
 51
172.7147721720784
  0
ARC
  5
243
  8
DATA
  6
STYLE_05
 62
     7
 10
168.11756381184611
 20
77.021895938832586
 30
0.0
 40
1.500000000000012
 50
82.714772172078042
 51
172.71477217207871
  0
ARC
  5
244
  8
DATA
  6
STYLE_05
 62
     7
 10
169.81730680989111
 20
76.80459924874161
 30
0.0
 40
1.4999999999999809
 50
353.4714564476518
 51
82.714772172080231
  0
ARC
  5
245
  8
DATA
  6
STYLE_05
 62
     7
 10
171.78188334542489
 20
78.242698939242914
 30
0.0
 40
1.4999999999999809
 50
353.4714564476518
 51
83.471456447654589
  0
ARC
  5
246
  8
DATA
  6
STYLE_05
 62
     7
 10
183.33906048268969
 20
38.299515895681253
 30
0.0
 40
17.564613786789611
 50
237.3002019539924
 51
270.03568471494629
  0
ARC
  5
247
  8
DATA
  6
STYLE_05
 62
     7
 10
180.7436361334978
 20
33.886513214849359
 30
0.0
 40
12.450477111928169
 50
172.0896086039981
 51
236.37984620783359
  0
LINE
  5
248
  8
DATA
  6
STYLE_05
 62
     7
 10
205.95706157458201
 20
34.999749224924052
 30
0.0
 11
201.1924201851416
 21
76.634051984288163
 31
0.0
  0
LINE
  5
249
  8
DATA
  6
STYLE_05
 62
     7
 10
211.49187604514159
 20
47.319102937680377
 30
0.0
 11
207.43771767296229
 21
79.031630648947427
 31
0.0
  0
LINE
  5
24A
  8
DATA
  6
STYLE_05
 62
     7
 10
209.93803536972089
 20
45.393589998747558
 30
0.0
 11
205.87032694328391
 21
77.212109245542621
 31
0.0
  0
LINE
  5
24B
  8
DATA
  6
STYLE_05
 62
     7
 10
212.08291710864569
 20
43.65370073660781
 30
0.0
 11
217.2550000001176
 21
44.071480586486672
 31
0.0
  0
LINE
  5
24C
  8
DATA
  6
STYLE_05
 62
     7
 10
213.6367577840663
 20
45.579213675540629
 30
0.0
 11
217.06705969680289
 21
45.856299532092812
 31
0.0
  0
ARC
  5
24D
  8
DATA
  6
STYLE_05
 62
     7
 10
217.1432918387797
 20
44.962022258118409
 30
0.0
 40
0.8975205748161013
 50
272.08643811273907
 51
94.872366068943975
  0
ARC
  5
24E
  8
DATA
  6
STYLE_05
 62
     7
 10
213.47573038475451
 20
47.572720679960433
 30
0.0
 40
2.0000000000000311
 50
187.28522782792101
 51
274.6180938095211
  0
ARC
  5
24F
  8
DATA
  6
STYLE_05
 62
     7
 10
211.9218897093339
 20
45.647207741027607
 30
0.0
 40
2.0000000000000311
 50
187.28522782792101
 51
274.61809380952121
  0
LINE
  5
250
  8
DATA
  6
STYLE_05
 62
     7
 10
204.15706157458189
 20
34.999749224924052
 30
0.0
 11
199.22784364960771
 21
78.072151674789453
 31
0.0
  0
LINE
  5
251
  8
DATA
  6
STYLE_05
 62
     7
 10
205.77927965379919
 20
80.331690347625127
 30
0.0
 11
200.54756939054201
 21
79.732971944630677
 31
0.0
  0
LINE
  5
252
  8
DATA
  6
STYLE_05
 62
     7
 10
204.1922228818643
 20
78.509786693542239
 30
0.0
 11
202.4924798838193
 21
78.292490003451263
 31
0.0
  0
ARC
  5
253
  8
DATA
  6
STYLE_05
 62
     7
 10
205.9498269182526
 20
78.841417342237378
 30
0.0
 40
1.500000000000081
 50
7.2852278279210658
 51
96.528543552345411
  0
ARC
  5
254
  8
DATA
  6
STYLE_05
 62
     7
 10
204.3824361885743
 20
77.021895938832586
 30
0.0
 40
1.499999999999968
 50
7.2852278279216138
 51
97.285227827919755
  0
ARC
  5
255
  8
DATA
  6
STYLE_05
 62
     7
 10
202.68269319052931
 20
76.80459924874161
 30
0.0
 40
1.5000000000000051
 50
97.285227827919755
 51
186.5285435523482
  0
ARC
  5
256
  8
DATA
  6
STYLE_05
 62
     7
 10
200.7181166549955
 20
78.242698939242914
 30
0.0
 40
1.500000000000014
 50
96.528543552349731
 51
186.5285435523482
  0
ARC
  5
257
  8
DATA
  6
STYLE_05
 62
     7
 10
189.1609395177307
 20
38.299515895681253
 30
0.0
 40
17.564613786789611
 50
269.96431528505371
 51
302.69979804600752
  0
ARC
  5
258
  8
DATA
  6
STYLE_05
 62
     7
 10
191.75636386692241
 20
33.886513214849359
 30
0.0
 40
12.450477111928199
 50
303.62015379216678
 51
5.1466957102080073
  0
ARC
  5
259
  8
DATA
  6
STYLE_05
 62
     7
 10
177.08372047752169
 20
34.924947515548581
 30
0.0
 40
28.873409942765971
 50
350.68211512227441
 51
0.1489327192923611
  0
LINE
  5
25A
  8
DATA
  6
STYLE_05
 62
     7
 10
-1.999999999647101
 20
194.25000000025261
 30
0.0
 11
-0.1999999996470905
 21
194.25000000025261
 31
0.0
  0
LINE
  5
25B
  8
DATA
  6
STYLE_05
 62
     7
 10
-1.999999999647101
 20
194.25000000025261
 30
0.0
 11
-1.999999999647101
 21
203.7500000002527
 31
0.0
  0
LINE
  5
25C
  8
DATA
  6
STYLE_05
 62
     7
 10
-0.1999999996470905
 20
194.25000000025261
 30
0.0
 11
-0.1999999996470905
 21
201.95000000025269
 31
0.0
  0
LINE
  5
25D
  8
DATA
  6
STYLE_05
 62
     7
 10
1.3000000003529091
 20
203.45000000025269
 30
0.0
 11
5.0000000003528973
 21
203.45000000025269
 31
0.0
  0
LINE
  5
25E
  8
DATA
  6
STYLE_05
 62
     7
 10
-0.4999999996471018
 20
205.2500000002527
 30
0.0
 11
3.2000000003528859
 21
205.2500000002527
 31
0.0
  0
LINE
  5
25F
  8
DATA
  6
STYLE_05
 62
     7
 10
6.5000000003528973
 20
204.95000000025269
 30
0.0
 11
6.5000000003528973
 21
210.83000000024759
 31
0.0
  0
LINE
  5
260
  8
DATA
  6
STYLE_05
 62
     7
 10
4.7000000003528859
 20
206.7500000002527
 30
0.0
 11
4.7000000003528859
 21
210.83000000024759
 31
0.0
  0
ARC
  5
261
  8
DATA
  6
STYLE_05
 62
     7
 10
5.60000000035292
 20
210.75000000025759
 30
0.0
 40
0.9035485598456254
 50
5.0796078590664271
 51
174.92039214062081
  0
ARC
  5
262
  8
DATA
  6
STYLE_05
 62
     7
 10
-0.4999999996471018
 20
203.7500000002527
 30
0.0
 40
1.5
 50
90.0
 51
180.0
  0
ARC
  5
263
  8
DATA
  6
STYLE_05
 62
     7
 10
1.3000000003529091
 20
201.95000000025269
 30
0.0
 40
1.5
 50
90.0
 51
180.0
  0
ARC
  5
264
  8
DATA
  6
STYLE_05
 62
     7
 10
3.2000000003528859
 20
206.7500000002527
 30
0.0
 40
1.5
 50
270.0
 51
0.0
  0
ARC
  5
265
  8
DATA
  6
STYLE_05
 62
     7
 10
5.0000000003528973
 20
204.95000000025269
 30
0.0
 40
1.5
 50
270.0
 51
0.0
  0
ARC
  5
266
  8
DATA
  6
CONTINUOUS
 62
     7
 10
59.000000000352898
 20
202.2500000002527
 30
0.0
 40
1.0
 50
0.0
 51
90.0
  0
LINE
  5
267
  8
DATA
  6
STYLE_05
 62
     7
 10
62.000000000352898
 20
194.25000000025261
 30
0.0
 11
60.20000000035288
 21
194.25000000025261
 31
0.0
  0
LINE
  5
268
  8
DATA
  6
STYLE_05
 62
     7
 10
62.000000000352898
 20
194.25000000025261
 30
0.0
 11
62.000000000352898
 21
203.7500000002527
 31
0.0
  0
LINE
  5
269
  8
DATA
  6
STYLE_05
 62
     7
 10
60.20000000035288
 20
194.25000000025261
 30
0.0
 11
60.20000000035288
 21
201.95000000025269
 31
0.0
  0
LINE
  5
26A
  8
DATA
  6
STYLE_05
 62
     7
 10
58.700000000352887
 20
203.45000000025269
 30
0.0
 11
55.000000000352891
 21
203.45000000025269
 31
0.0
  0
LINE
  5
26B
  8
DATA
  6
STYLE_05
 62
     7
 10
60.500000000352891
 20
205.2500000002527
 30
0.0
 11
56.80000000035291
 21
205.2500000002527
 31
0.0
  0
LINE
  5
26C
  8
DATA
  6
STYLE_05
 62
     7
 10
53.500000000352898
 20
204.95000000025269
 30
0.0
 11
53.500000000352898
 21
210.83000000024759
 31
0.0
  0
LINE
  5
26D
  8
DATA
  6
STYLE_05
 62
     7
 10
55.30000000035291
 20
206.7500000002527
 30
0.0
 11
55.30000000035291
 21
210.83000000024759
 31
0.0
  0
ARC
  5
26E
  8
DATA
  6
STYLE_05
 62
     7
 10
54.400000000352868
 20
210.75000000025759
 30
0.0
 40
0.9035485598456643
 50
5.0796078593792284
 51
174.92039214093359
  0
ARC
  5
26F
  8
DATA
  6
STYLE_05
 62
     7
 10
60.500000000352891
 20
203.7500000002527
 30
0.0
 40
1.5000000000000071
 50
0.0
 51
90.0
  0
ARC
  5
270
  8
DATA
  6
STYLE_05
 62
     7
 10
58.700000000352887
 20
201.95000000025269
 30
0.0
 40
1.5
 50
0.0
 51
90.0
  0
ARC
  5
271
  8
DATA
  6
STYLE_05
 62
     7
 10
56.80000000035291
 20
206.7500000002527
 30
0.0
 40
1.5
 50
180.0
 51
270.0
  0
ARC
  5
272
  8
DATA
  6
STYLE_05
 62
     7
 10
55.000000000352891
 20
204.95000000025269
 30
0.0
 40
1.5
 50
180.0
 51
270.0
  0
ARC
  5
273
  8
DATA
  6
STYLE_05
 62
     7
 10
30.10328034892359
 20
145.42822134803151
 30
0.0
 40
62.301251103757657
 50
68.140519666177553
 51
111.8594803338226
  0
ARC
  5
274
  8
DATA
  6
STYLE_05
 62
     7
 10
30.10328034892359
 20
147.2282213480315
 30
0.0
 40
62.301251103757657
 50
67.935511762542177
 51
112.23261021966781
  0
LINE
  5
275
  8
DATA
  6
STYLE_05
 62
     7
 10
-0.4999999996471018
 20
-58.249999999806221
 30
0.0
 11
3.2000000003528859
 21
-58.249999999806221
 31
0.0
  0
LINE
  5
276
  8
DATA
  6
STYLE_05
 62
     7
 10
6.5000000003528973
 20
-57.949999999806209
 30
0.0
 11
6.5000000003528973
 21
-63.829999999800997
 31
0.0
  0
LINE
  5
277
  8
DATA
  6
STYLE_05
 62
     7
 10
4.7000000003528859
 20
-59.7499999998061
 30
0.0
 11
4.7000000003528859
 21
-63.829999999800997
 31
0.0
  0
ARC
  5
278
  8
DATA
  6
STYLE_05
 62
     7
 10
5.60000000035292
 20
-63.749999999811067
 30
0.0
 40
0.9035485598456643
 50
185.07960785937919
 51
354.92039214093529
  0
ARC
  5
279
  8
DATA
  6
STYLE_05
 62
     7
 10
-0.4999999996471018
 20
-56.749999999806249
 30
0.0
 40
1.5
 50
180.0
 51
270.0
  0
ARC
  5
27A
  8
DATA
  6
STYLE_05
 62
     7
 10
3.2000000003528859
 20
-59.7499999998061
 30
0.0
 40
1.5
 50
0.0
 51
90.0
  0
ARC
  5
27B
  8
DATA
  6
STYLE_05
 62
     7
 10
5.0000000003528973
 20
-57.949999999806209
 30
0.0
 40
1.5
 50
0.0
 51
90.0
  0
LINE
  5
27C
  8
DATA
  6
STYLE_05
 62
     7
 10
60.500000000352891
 20
-58.249999999806221
 30
0.0
 11
56.80000000035291
 21
-58.249999999806221
 31
0.0
  0
LINE
  5
27D
  8
DATA
  6
STYLE_05
 62
     7
 10
53.500000000352898
 20
-57.949999999806209
 30
0.0
 11
53.500000000352898
 21
-63.829999999800997
 31
0.0
  0
LINE
  5
27E
  8
DATA
  6
STYLE_05
 62
     7
 10
55.30000000035291
 20
-59.7499999998061
 30
0.0
 11
55.30000000035291
 21
-63.829999999800997
 31
0.0
  0
ARC
  5
27F
  8
DATA
  6
STYLE_05
 62
     7
 10
54.400000000352868
 20
-63.749999999811067
 30
0.0
 40
0.9035485598456228
 50
185.07960785906459
 51
354.92039214062072
  0
ARC
  5
280
  8
DATA
  6
STYLE_05
 62
     7
 10
60.500000000352891
 20
-56.749999999806249
 30
0.0
 40
1.4999999999999709
 50
270.0
 51
0.0
  0
ARC
  5
281
  8
DATA
  6
STYLE_05
 62
     7
 10
56.80000000035291
 20
-59.7499999998061
 30
0.0
 40
1.4999999999998861
 50
90.0
 51
180.0
  0
ARC
  5
282
  8
DATA
  6
STYLE_05
 62
     7
 10
55.000000000352891
 20
-57.949999999806209
 30
0.0
 40
1.4999999999999709
 50
90.0
 51
180.0
  0
ARC
  5
283
  8
DATA
  6
STYLE_05
 62
     7
 10
30.10328034892359
 20
1.571778652414195
 30
0.0
 40
62.301251103757053
 50
248.1405196661772
 51
291.85948033382277
  0
ARC
  5
284
  8
DATA
  6
STYLE_05
 62
     7
 10
30.10328034892359
 20
-0.2282213475858157
 30
0.0
 40
62.301251103757032
 50
247.76738978033191
 51
292.06448823745808
  0
LINE
  5
285
  8
DATA
  6
STYLE_05
 62
     7
 10
55.000000000352891
 20
-56.449999999806238
 30
0.0
 11
59.200000000352887
 21
-56.449999999806238
 31
0.0
  0
LINE
  5
286
  8
DATA
  6
STYLE_05
 62
     7
 10
-0.1999999996470905
 20
-49.359073016157737
 30
0.0
 11
-0.1999999996470905
 21
-55.449999999806252
 31
0.0
  0
LINE
  5
287
  8
DATA
  6
STYLE_05
 62
     7
 10
5.0000000003528973
 20
-56.449999999806238
 30
0.0
 11
0.8000000003529095
 21
-56.449999999806238
 31
0.0
  0
ARC
  5
288
  8
DATA
  6
CONTINUOUS
 62
     7
 10
0.8000000003529095
 20
-55.449999999806252
 30
0.0
 40
1.0
 50
180.0
 51
270.0
  0
ARC
  5
289
  8
DATA
  6
CONTINUOUS
 62
     7
 10
59.200000000352887
 20
-55.449999999806252
 30
0.0
 40
1.0
 50
270.0
 51
0.0
  0
LINE
  5
28A
  8
DATA
  6
STYLE_05
 62
     7
 10
-1.999999999647101
 20
-56.749999999806249
 30
0.0
 11
-1.999999999647101
 21
-47.559073016157761
 31
0.0
  0
LINE
  5
28B
  8
DATA
  6
STYLE_05
 62
     7
 10
62.000000000352898
 20
-56.749999999806249
 30
0.0
 11
62.000000000352898
 21
-47.559073016157761
 31
0.0
  0
LINE
  5
28C
  8
DATA
  6
STYLE_05
 62
     7
 10
59.000000000352898
 20
-48.359073016157737
 30
0.0
 11
59.200000000352887
 21
-48.359073016157737
 31
0.0
  0
LINE
  5
28D
  8
DATA
  6
STYLE_05
 62
     7
 10
59.000000000352898
 20
-46.559073016157782
 30
0.0
 11
61.000000000352898
 21
-46.559073016157782
 31
0.0
  0
LINE
  5
28E
  8
DATA
  6
STYLE_05
 62
     7
 10
60.20000000035288
 20
-55.449999999806252
 30
0.0
 11
60.20000000035288
 21
-49.359073016157737
 31
0.0
  0
LINE
  5
28F
  8
DATA
  6
CONTINUOUS
 62
     7
 10
1.0000000003528979
 20
-48.359073016157737
 30
0.0
 11
0.8000000003529095
 21
-48.359073016157737
 31
0.0
  0
LINE
  5
290
  8
DATA
  6
STYLE_05
 62
     7
 10
1.0000000003528979
 20
-46.559073016157782
 30
0.0
 11
-0.9999999996471018
 21
-46.559073016157782
 31
0.0
  0
ARC
  5
291
  8
DATA
  6
STYLE_05
 62
     7
 10
-0.9999999996471018
 20
-47.559073016157761
 30
0.0
 40
0.9999999999999715
 50
90.0
 51
180.0
  0
ARC
  5
292
  8
DATA
  6
STYLE_05
 62
     7
 10
0.8000000003529095
 20
-49.359073016157737
 30
0.0
 40
1.0
 50
90.0
 51
180.0
  0
ARC
  5
293
  8
DATA
  6
STYLE_05
 62
     7
 10
61.000000000352898
 20
-47.559073016157761
 30
0.0
 40
1.0
 50
0.0
 51
90.0
  0
ARC
  5
294
  8
DATA
  6
STYLE_05
 62
     7
 10
59.200000000352887
 20
-49.359073016157737
 30
0.0
 40
1.0
 50
0.0
 51
90.0
  0
POLYLINE
  5
295
  8
DATA
  6
CONTINUOUS
 62
     7
 66
     1
 10
0.0
 20
0.0
 30
0.0
 70
   129
  0
VERTEX
  5
3B9
  8
DATA
  6
CONTINUOUS
 62
     7
 10
21.000000000352902
 20
62.45010804373986
 30
0.0
 42
-0.4142135623730951
  0
VERTEX
  5
3BA
  8
DATA
  6
CONTINUOUS
 62
     7
 10
22.000000000352902
 20
63.45010804373986
 30
0.0
  0
VERTEX
  5
3BB
  8
DATA
  6
CONTINUOUS
 62
     7
 10
38.000000000352898
 20
63.45010804373986
 30
0.0
 42
-0.4142135623730951
  0
VERTEX
  5
3BC
  8
DATA
  6
CONTINUOUS
 62
     7
 10
39.000000000352898
 20
62.45010804373986
 30
0.0
  0
VERTEX
  5
3BD
  8
DATA
  6
CONTINUOUS
 62
     7
 10
39.000000000352898
 20
56.45010804373986
 30
0.0
 42
-0.4142135623730951
  0
VERTEX
  5
3BE
  8
DATA
  6
CONTINUOUS
 62
     7
 10
38.000000000352898
 20
55.45010804373986
 30
0.0
  0
VERTEX
  5
3BF
  8
DATA
  6
CONTINUOUS
 62
     7
 10
22.000000000352902
 20
55.45010804373986
 30
0.0
 42
-0.4142135623730951
  0
VERTEX
  5
3C0
  8
DATA
  6
CONTINUOUS
 62
     7
 10
21.000000000352902
 20
56.45010804373986
 30
0.0
  0
SEQEND
  5
3C1
  8
DATA
  6
CONTINUOUS
 62
     7
  0
CIRCLE
  5
29F
  8
DATA
  6
CONTINUOUS
 62
     7
 10
18.0
 20
59.450108043739853
 30
0.0
 40
0.5
  0
TEXT
  5
2A0
  8
DATA
 62
     7
 10
28.598466629893931
 20
64.044297808170313
 30
0.0
 40
1.411662326388889
  1
GRP
 41
0.7
 11
28.598466629893931
 21
65.455960134559206
 31
0.0
 73
     3
  0
TEXT
  5
2A1
  8
DATA
 62
     7
 10
36.822428921527269
 20
64.044297808170313
 30
0.0
 40
1.411662326388889
  1
CH
 41
0.7
 11
36.822428921527269
 21
65.455960134559206
 31
0.0
 73
     3
  0
TEXT
  5
2A2
  8
DATA
 62
     7
 10
21.480054284894141
 20
64.044297808170313
 30
0.0
 40
1.411662326388889
  1
NAME
 41
0.7
 11
21.480054284894141
 21
65.455960134559206
 31
0.0
 73
     3
  0
LINE
  5
2A3
  8
DATA
  6
CONTINUOUS
 62
     7
 10
166.25000000021029
 20
20.500000000252331
 30
0.0
 11
176.0912229713351
 21
20.500000000252331
 31
0.0
  0
POLYLINE
  5
2A4
  8
DATA
  6
CONTINUOUS
 62
     7
 66
     1
 10
0.0
 20
0.0
 30
0.0
  0
VERTEX
  5
3C2
  8
DATA
  6
CONTINUOUS
 62
     7
 10
196.4087770290852
 20
20.500000000252331
 30
0.0
  0
VERTEX
  5
3C3
  8
DATA
  6
CONTINUOUS
 62
     7
 10
206.25000000021029
 20
20.500000000252331
 30
0.0
  0
VERTEX
  5
3C4
  8
DATA
  6
CONTINUOUS
 62
     7
 10
206.25000000021029
 20
20.500000000252331
 30
0.0
  0
SEQEND
  5
3C5
  8
DATA
  6
CONTINUOUS
 62
     7
  0
LINE
  5
2AA
  8
DATA
  6
CONTINUOUS
 62
     7
 10
166.25000000021029
 20
29.500000000252331
 30
0.0
 11
167.22936046348639
 21
29.500000000252331
 31
0.0
  0
LINE
  5
2AB
  8
DATA
  6
CONTINUOUS
 62
     7
 10
169.0914740108353
 20
29.500000000252331
 30
0.0
 11
203.40852598958509
 21
29.500000000252331
 31
0.0
  0
POLYLINE
  5
2AC
  8
DATA
  6
CONTINUOUS
 62
     7
 66
     1
 10
0.0
 20
0.0
 30
0.0
  0
VERTEX
  5
3C6
  8
DATA
  6
CONTINUOUS
 62
     7
 10
205.27063953693411
 20
29.500000000252331
 30
0.0
  0
VERTEX
  5
3C7
  8
DATA
  6
CONTINUOUS
 62
     7
 10
206.25000000021029
 20
29.500000000252331
 30
0.0
  0
VERTEX
  5
3C8
  8
DATA
  6
CONTINUOUS
 62
     7
 10
206.25000000021029
 20
29.500000000252331
 30
0.0
  0
SEQEND
  5
3C9
  8
DATA
  6
CONTINUOUS
 62
     7
  0
LINE
  5
2B2
  8
DATA
  6
CONTINUOUS
 62
     7
 10
166.25000000021029
 20
20.500000000252331
 30
0.0
 11
166.25000000021029
 21
29.500000000252331
 31
0.0
  0
LINE
  5
2B3
  8
DATA
  6
CONTINUOUS
 62
     7
 10
206.25000000021029
 20
20.500000000252331
 30
0.0
 11
206.25000000021029
 21
29.500000000252331
 31
0.0
  0
LINE
  5
2B4
  8
DATA
  6
CONTINUOUS
 62
     7
 10
11.44
 20
193.72999999999999
 30
0.0
 11
10.16
 21
191.97
 31
0.0
  0
TEXT
  5
2B5
  8
DATA
 62
     7
 10
39.600000000000009
 20
187.19577777777781
 30
0.0
 40
4.3435763888888879
  1
iR
 41
0.7
 11
39.600000000000009
 21
191.53935416666661
 31
0.0
 73
     3
  0
LINE
  5
2B6
  8
DATA
  6
CONTINUOUS
 62
     7
 10
87.893486777235339
 20
58.000000000252278
 30
0.0
 11
94.331955452130757
 21
58.000000000252278
 31
0.0
  0
LINE
  5
2B7
  8
DATA
  6
STYLE_05
 62
     7
 10
61.200000000352901
 20
45.300000000252282
 30
0.0
 11
60.000000000352891
 21
45.300000000252282
 31
0.0
  0
LINE
  5
2B8
  8
DATA
  6
STYLE_05
 62
     7
 10
0.0000000003528982
 20
45.300000000252282
 30
0.0
 11
-1.199999999647104
 21
45.300000000252282
 31
0.0
  0
LINE
  5
2B9
  8
DATA
  6
STYLE_05
 62
     7
 10
0.0000000003528982
 20
43.500000000252278
 30
0.0
 11
-1.199999999647104
 21
43.500000000252278
 31
0.0
  0
LINE
  5
2BA
  8
DATA
  6
STYLE_05
 62
     7
 10
60.000000000352891
 20
43.500000000252278
 30
0.0
 11
61.200000000352901
 21
43.500000000252278
 31
0.0
  0
LINE
  5
2BB
  8
DATA
  6
STYLE_05
 62
     7
 10
-1.999999999647101
 20
44.300000000252282
 30
0.0
 11
-1.999999999647101
 21
44.500000000252278
 31
0.0
  0
LINE
  5
2BC
  8
DATA
  6
STYLE_05
 62
     7
 10
62.000000000352898
 20
44.300000000252282
 30
0.0
 11
62.000000000352898
 21
44.500000000252278
 31
0.0
  0
ARC
  5
2BD
  8
DATA
  6
STYLE_05
 62
     7
 10
-1.199999999647104
 20
44.500000000252271
 30
0.0
 40
0.8000000000000113
 50
90.0
 51
179.99999999999901
  0
ARC
  5
2BE
  8
DATA
  6
STYLE_05
 62
     7
 10
-1.19999999964709
 20
44.300000000252282
 30
0.0
 40
0.8000000000000113
 50
180.0
 51
269.99999999999898
  0
ARC
  5
2BF
  8
DATA
  6
STYLE_05
 62
     7
 10
61.200000000352901
 20
44.500000000252278
 30
0.0
 40
0.7999999999999972
 50
0.0
 51
90.0
  0
ARC
  5
2C0
  8
DATA
  6
STYLE_05
 62
     7
 10
61.200000000352901
 20
44.300000000252261
 30
0.0
 40
0.799999999999983
 50
270.0
 51
0.0000000000010232
  0
ENDSEC
  0
EOF
