  0
SECTION
  2
HEADER
  9
$ACADVER
  1
AC1009
  9
$INSBASE
 10
0.0
 20
0.0
 30
0.0
  9
$EXTMIN
 10
-260.02197097989512
 20
-399.89220955822299
 30
-0.0015258207003583
  9
$EXTMAX
 10
460.0219743326561
 20
670.62804802803294
 30
0.0000000349246037
  9
$LIMMIN
 10
0.0
 20
0.0
  9
$LIMMAX
 10
0.0
 20
0.0
  9
$ORTHOMODE
 70
     0
  9
$REGENMODE
 70
     1
  9
$FILLMODE
 70
     1
  9
$QTEXTMODE
 70
     0
  9
$MIRRTEXT
 70
     1
  9
$DRAGMODE
 70
     2
  9
$LTSCALE
 40
20.32
  9
$OSMODE
 70
   231
  9
$ATTMODE
 70
     1
  9
$TEXTSIZE
 40
0.0
  9
$TRACEWID
 40
1.0
  9
$TEXTSTYLE
  7
STANDARD
  9
$CLAYER
  8
DATA
  9
$CELTYPE
  6
BYLAYER
  9
$CECOLOR
 62
   256
  9
$DIMSCALE
 40
1.0
  9
$DIMASZ
 40
0.18
  9
$DIMEXO
 40
0.0625
  9
$DIMDLI
 40
0.38
  9
$DIMRND
 40
0.0
  9
$DIMDLE
 40
0.0
  9
$DIMEXE
 40
0.18
  9
$DIMTP
 40
0.0
  9
$DIMTM
 40
0.0
  9
$DIMTXT
 40
0.18
  9
$DIMCEN
 40
0.09
  9
$DIMTSZ
 40
0.0
  9
$DIMTOL
 70
     0
  9
$DIMLIM
 70
     0
  9
$DIMTIH
 70
     1
  9
$DIMTOH
 70
     1
  9
$DIMSE1
 70
     0
  9
$DIMSE2
 70
     0
  9
$DIMTAD
 70
     0
  9
$DIMZIN
 70
     0
  9
$DIMBLK
  1

  9
$DIMASO
 70
     1
  9
$DIMSHO
 70
     1
  9
$DIMPOST
  1

  9
$DIMAPOST
  1

  9
$DIMALT
 70
     0
  9
$DIMALTD
 70
     2
  9
$DIMALTF
 40
25.399999999999999
  9
$DIMLFAC
 40
1.0
  9
$DIMTOFL
 70
     0
  9
$DIMTVP
 40
0.0
  9
$DIMTIX
 70
     0
  9
$DIMSOXD
 70
     0
  9
$DIMSAH
 70
     0
  9
$DIMBLK1
  1

  9
$DIMBLK2
  1

  9
$DIMSTYLE
  2
STANDARD
  9
$DIMCLRD
 70
     0
  9
$DIMCLRE
 70
     0
  9
$DIMCLRT
 70
     0
  9
$DIMTFAC
 40
1.0
  9
$DIMGAP
 40
0.09
  9
$LUNITS
 70
     2
  9
$LUPREC
 70
     4
  9
$SKETCHINC
 40
0.1
  9
$FILLETRAD
 40
0.0
  9
$AUNITS
 70
     0
  9
$AUPREC
 70
     0
  9
$MENU
  1
acad
  9
$ELEVATION
 40
0.0
  9
$PELEVATION
 40
0.0
  9
$THICKNESS
 40
0.0
  9
$LIMCHECK
 70
     0
  9
$BLIPMODE
 70
     0
  9
$CHAMFERA
 40
0.0
  9
$CHAMFERB
 40
0.0
  9
$SKPOLY
 70
     0
  9
$TDCREATE
 40
2455027.5851620371
  9
$TDUPDATE
 40
2455027.5931344908
  9
$TDINDWG
 40
0.0002475694
  9
$TDUSRTIMER
 40
0.0002475694
  9
$USRTIMER
 70
     1
  9
$ANGBASE
 50
0.0
  9
$ANGDIR
 70
     0
  9
$PDMODE
 70
     1
  9
$PDSIZE
 40
-2.0
  9
$PLINEWID
 40
0.0
  9
$COORDS
 70
     0
  9
$SPLFRAME
 70
     0
  9
$SPLINETYPE
 70
     6
  9
$SPLINESEGS
 70
     8
  9
$ATTDIA
 70
     0
  9
$ATTREQ
 70
     1
  9
$HANDLING
 70
     1
  9
$HANDSEED
  5
472
  9
$SURFTAB1
 70
     6
  9
$SURFTAB2
 70
     6
  9
$SURFTYPE
 70
     6
  9
$SURFU
 70
     6
  9
$SURFV
 70
     6
  9
$UCSNAME
  2

  9
$UCSORG
 10
0.0
 20
0.0
 30
0.0
  9
$UCSXDIR
 10
1.0
 20
0.0
 30
0.0
  9
$UCSYDIR
 10
0.0
 20
1.0
 30
0.0
  9
$PUCSNAME
  2

  9
$PUCSORG
 10
0.0
 20
0.0
 30
0.0
  9
$PUCSXDIR
 10
1.0
 20
0.0
 30
0.0
  9
$PUCSYDIR
 10
0.0
 20
1.0
 30
0.0
  9
$USERI1
 70
     0
  9
$USERI2
 70
     0
  9
$USERI3
 70
     0
  9
$USERI4
 70
     0
  9
$USERI5
 70
     0
  9
$USERR1
 40
0.0
  9
$USERR2
 40
0.0
  9
$USERR3
 40
0.0
  9
$USERR4
 40
0.0
  9
$USERR5
 40
0.0
  9
$WORLDVIEW
 70
     1
  9
$SHADEDGE
 70
     3
  9
$SHADEDIF
 70
    70
  9
$TILEMODE
 70
     1
  9
$MAXACTVP
 70
    64
  9
$PLIMCHECK
 70
     0
  9
$PEXTMIN
 10
1.0000000000000000E+020
 20
1.0000000000000000E+020
 30
1.0000000000000000E+020
  9
$PEXTMAX
 10
-1.0000000000000000E+020
 20
-1.0000000000000000E+020
 30
-1.0000000000000000E+020
  9
$PLIMMIN
 10
0.0
 20
0.0
  9
$PLIMMAX
 10
12.0
 20
9.0
  9
$UNITMODE
 70
     0
  9
$VISRETAIN
 70
     0
  9
$PLINEGEN
 70
     1
  9
$PSLTSCALE
 70
     0
  0
ENDSEC
  0
SECTION
  2
TABLES
  0
TABLE
  2
VPORT
 70
     1
  0
VPORT
  2
*ACTIVE
 70
     0
 10
0.0
 20
0.0
 11
1.0
 21
1.0
 12
100.00000167638051
 22
135.367919234905
 13
0.0
 23
0.0
 14
1.0
 24
1.0
 15
0.0
 25
0.0
 16
0.0
 26
0.0
 36
1.0
 17
0.0
 27
0.0
 37
0.0
 40
1078.4110702957371
 41
1.964329643296433
 42
50.0
 43
0.0
 44
0.0
 50
0.0
 51
0.0
 71
     0
 72
  2000
 73
     1
 74
     1
 75
     0
 76
     0
 77
     0
 78
     0
  0
ENDTAB
  0
TABLE
  2
LTYPE
 70
    11
  0
LTYPE
  2
CONTINUOUS
 70
     0
  3
Solid line
 72
    65
 73
     0
 40
0.0
  0
LTYPE
  2
STYLE_01
 70
     0
  3

 72
    65
 73
     2
 40
0.4166412353515625
 49
0.208282470703125
 49
-0.2083587646484375
  0
ENDTAB
  0
TABLE
  2
LAYER
 70
     5
  0
LAYER
  2
0
 70
     0
 62
     7
  6
CONTINUOUS
  0
LAYER
  2
DATA
 70
     0
 62
     7
  6
CONTINUOUS
  0
LAYER
  2
HIBINO-BASE
 70
     0
 62
     7
  6
CONTINUOUS
  0
LAYER
  2
SPEC
 70
     0
 62
     7
  6
CONTINUOUS
  0
LAYER
  2
DIMNSIONS
 70
     0
 62
     7
  6
CONTINUOUS
  0
ENDTAB
  0
TABLE
  2
STYLE
 70
     3
  0
STYLE
  2
STANDARD
 70
     0
 40
0.0
 41
1.0
 50
0.0
 71
     0
 42
0.0
  3
txt
  4
BIGFONT.SHX
  0
ENDTAB
  0
TABLE
  2
VIEW
 70
     0
  0
ENDTAB
  0
TABLE
  2
UCS
 70
     0
  0
ENDTAB
  0
TABLE
  2
APPID
 70
     3
  0
APPID
  2
ACAD
 70
     0
  0
APPID
  2
ACADANNOTATIVE
 70
     0
  0
APPID
  2
ACAD_MLEADERVER
 70
     0
  0
ENDTAB
  0
TABLE
  2
DIMSTYLE
 70
     2
  0
DIMSTYLE
  2
STANDARD
 70
     0
  3

  4

  5

  6

  7

 40
1.0
 41
0.18
 42
0.0625
 43
0.38
 44
0.18
 45
0.0
 46
0.0
 47
0.0
 48
0.0
140
0.18
141
0.09
142
0.0
143
25.399999999999999
144
1.0
145
0.0
146
1.0
147
0.09
 71
     0
 72
     0
 73
     1
 74
     1
 75
     0
 76
     0
 77
     0
 78
     0
170
     0
171
     2
172
     0
173
     0
174
     0
175
     0
176
     0
177
     0
178
     0
  0
ENDTAB
  0
ENDSEC
  0
SECTION
  2
BLOCKS
  0
BLOCK
  8
0
  2
$MODEL_SPACE
 70
     0
 10
0.0
 20
0.0
 30
0.0
  3
$MODEL_SPACE
  1

  0
ENDBLK
  5
3E3
  8
0
  0
BLOCK
 67
     1
  8
0
  2
$PAPER_SPACE
 70
     0
 10
0.0
 20
0.0
 30
0.0
  3
$PAPER_SPACE
  1

  0
ENDBLK
  5
3DF
 67
     1
  8
0
  0
ENDSEC
  0
SECTION
  2
ENTITIES
  0
LINE
  5
2C
  8
HIBINO-BASE
  6
CONTINUOUS
 62
     7
 10
-260.0
 20
670.59544499999981
 30
0.0
 11
460.0
 21
670.59544499999981
 31
0.0
  0
LINE
  5
2D
  8
HIBINO-BASE
  6
CONTINUOUS
 62
     7
 10
460.0
 20
-369.40455500000002
 30
0.0
 11
-260.0
 21
-369.40455500000002
 31
0.0
  0
LINE
  5
2E
  8
HIBINO-BASE
  6
CONTINUOUS
 62
     7
 10
-260.0
 20
-369.40455500000002
 30
0.0
 11
-260.0
 21
670.59544499999981
 31
0.0
  0
TEXT
  5
2F
  8
HIBINO-BASE
 62
     7
 10
-231.26400000000001
 20
-395.03926619999982
 30
0.0
 40
14.40017671875
  1
Hibino Corporation
 41
0.7
 11
-231.26400000000001
 21
-380.63908948124981
 31
0.0
 73
     3
  0
LINE
  5
30
  8
HIBINO-BASE
  6
CONTINUOUS
 62
     7
 10
460.0
 20
670.59544499999981
 30
0.0
 11
460.0
 21
-369.40455500000002
 31
0.0
  0
LINE
  5
31
  8
HIBINO-BASE
  6
CONTINUOUS
 62
     7
 10
100.0
 20
-279.40455500000002
 30
0.0
 11
460.0
 21
-279.40455500000002
 31
0.0
  0
LINE
  5
32
  8
HIBINO-BASE
  6
CONTINUOUS
 62
     7
 10
100.0
 20
-369.40455500000002
 30
0.0
 11
100.0
 21
-279.40455500000002
 31
0.0
  0
TEXT
  5
33
  8
HIBINO-BASE
 62
     7
 10
103.59999999999999
 20
-289.43932833333332
 30
0.0
 40
6.5153645833333318
  1
NOTE
 41
0.7
 11
103.59999999999999
 21
-282.92396374999998
 31
0.0
 73
     3
  0
LINE
  5
34
  8
HIBINO-BASE
  6
CONTINUOUS
 62
     7
 10
240.0
 20
-369.40455500000002
 30
0.0
 11
240.0
 21
-279.40455500000002
 31
0.0
  0
TEXT
  5
35
  8
HIBINO-BASE
 62
     7
 10
243.59999999999999
 20
-289.43932833333332
 30
0.0
 40
6.5153645833333318
  1
TITLE
 41
0.7
 11
243.59999999999999
 21
-282.92396374999998
 31
0.0
 73
     3
  0
TEXT
  5
36
  8
HIBINO-BASE
 62
     7
 10
300.27355999999997
 20
-395.03926619999982
 30
0.0
 40
14.40017671875
  1
ヒビノ株式会社
 41
0.7
 11
300.27355999999997
 21
-380.63908948124981
 31
0.0
 73
     3
  0
LINE
  5
37
  8
HIBINO-BASE
  6
CONTINUOUS
 62
     7
 10
100.0
 20
-329.40455500000002
 30
0.0
 11
460.0
 21
-329.40455500000002
 31
0.0
  0
TEXT
  5
38
  8
HIBINO-BASE
 62
     7
 10
293.60000000000002
 20
-339.21404833333332
 30
0.0
 40
6.5153645833333318
  1
DRAWN
 41
0.7
 11
293.60000000000002
 21
-332.69868374999999
 31
0.0
 73
     3
  0
TEXT
  5
39
  8
HIBINO-BASE
 62
     7
 10
193.59999999999999
 20
-339.21404833333332
 30
0.0
 40
6.5153645833333318
  1
DATE
 41
0.7
 11
193.59999999999999
 21
-332.69868374999999
 31
0.0
 73
     3
  0
TEXT
  5
3A
  8
HIBINO-BASE
 62
     7
 10
153.59999999999991
 20
-339.21404833333332
 30
0.0
 40
6.5153645833333318
  1
SCALE
 41
0.7
 11
153.59999999999991
 21
-332.69868374999999
 31
0.0
 73
     3
  0
TEXT
  5
3B
  8
HIBINO-BASE
 62
     7
 10
243.59999999999999
 20
-339.21404833333332
 30
0.0
 40
6.5153645833333318
  1
DESIGN
 41
0.7
 11
243.59999999999999
 21
-332.69868374999999
 31
0.0
 73
     3
  0
TEXT
  5
3C
  8
HIBINO-BASE
 62
     7
 10
393.60000000000002
 20
-339.21404833333332
 30
0.0
 40
6.5153645833333318
  1
DRAWING NO.
 41
0.7
 11
393.60000000000002
 21
-332.69868374999999
 31
0.0
 73
     3
  0
TEXT
  5
3D
  8
HIBINO-BASE
 62
     7
 10
343.60000000000002
 20
-339.21404833333332
 30
0.0
 40
6.5153645833333318
  1
CHECK
 41
0.7
 11
343.60000000000002
 21
-332.69868374999999
 31
0.0
 73
     3
  0
LINE
  5
3E
  8
HIBINO-BASE
  6
CONTINUOUS
 62
     7
 10
157.5
 20
-364.40455500000002
 30
0.0
 11
172.5
 21
-349.40455500000002
 31
0.0
  0
TEXT
  5
3F
  8
HIBINO-BASE
 62
     7
 10
155.0
 20
-353.84032833333328
 30
0.0
 40
6.5153645833333318
  1
1
 41
0.7
 11
155.0
 21
-347.32496374999999
 31
0.0
 73
     3
  0
LINE
  5
40
  8
HIBINO-BASE
  6
CONTINUOUS
 62
     7
 10
150.0
 20
-369.40455500000002
 30
0.0
 11
150.0
 21
-329.40455500000002
 31
0.0
  0
LINE
  5
41
  8
HIBINO-BASE
  6
CONTINUOUS
 62
     7
 10
190.0
 20
-369.40455500000002
 30
0.0
 11
190.0
 21
-329.40455500000002
 31
0.0
  0
LINE
  5
42
  8
HIBINO-BASE
  6
CONTINUOUS
 62
     7
 10
290.0
 20
-329.40455500000002
 30
0.0
 11
290.0
 21
-369.40455500000002
 31
0.0
  0
LINE
  5
43
  8
HIBINO-BASE
  6
CONTINUOUS
 62
     7
 10
390.0
 20
-329.40455500000002
 30
0.0
 11
390.0
 21
-369.40455500000002
 31
0.0
  0
LINE
  5
44
  8
HIBINO-BASE
  6
CONTINUOUS
 62
     7
 10
339.99999999999989
 20
-369.40455500000002
 30
0.0
 11
339.99999999999989
 21
-329.40455500000002
 31
0.0
  0
TEXT
  5
45
  8
HIBINO-BASE
 62
     7
 10
193.42616000000001
 20
-357.9499683333334
 30
0.0
 40
6.5153645833333318
  1
'09.07.
 41
0.7
 11
193.42616000000001
 21
-351.43460375000001
 31
0.0
 73
     3
  0
TEXT
  5
46
  8
HIBINO-BASE
 62
     7
 10
170.0
 20
-361.34032833333339
 30
0.0
 40
6.5153645833333318
  1
4
 41
0.7
 11
170.0
 21
-354.82496374999999
 31
0.0
 73
     3
  0
TEXT
  5
47
  8
HIBINO-BASE
 62
     7
 10
296.0232400441385
 20
-357.9499683333334
 30
0.0
 40
6.5153645833333318
  1
N.Sasaki
 41
0.7
 11
296.0232400441385
 21
-351.43460375000001
 31
0.0
 73
     3
  0
TEXT
  5
48
  8
HIBINO-BASE
 62
     7
 10
115.5333333333334
 20
-361.50055500000002
 30
0.0
 40
13.03072916666666
  1
A4
 41
0.7
 11
115.5333333333334
 21
-348.46982583333329
 31
0.0
 73
     3
  0
TEXT
  5
49
  8
HIBINO-BASE
 62
     7
 10
103.8333333333333
 20
-339.88237500000002
 30
0.0
 40
6.5153645833333318
  1
PAPER SIZE
 41
0.7
 11
103.8333333333333
 21
-333.36701041666657
 31
0.0
 73
     3
  0
LINE
  5
4A
  8
SPEC
  6
CONTINUOUS
 62
     7
 10
-230.0
 20
630.5954449999997
 30
0.0
 11
360.0
 21
630.5954449999997
 31
0.0
  0
LINE
  5
4B
  8
SPEC
  6
CONTINUOUS
 62
     7
 10
-230.0
 20
615.59544499999981
 30
0.0
 11
360.0
 21
615.59544499999981
 31
0.0
  0
LINE
  5
4C
  8
SPEC
  6
CONTINUOUS
 62
     7
 10
-230.0
 20
585.5954449999997
 30
0.0
 11
360.0
 21
585.5954449999997
 31
0.0
  0
LINE
  5
4D
  8
SPEC
  6
CONTINUOUS
 62
     7
 10
-230.0
 20
510.59544499999993
 30
0.0
 11
360.0
 21
510.59544499999993
 31
0.0
  0
LINE
  5
4E
  8
SPEC
  6
CONTINUOUS
 62
     7
 10
-230.0
 20
630.5954449999997
 30
0.0
 11
-230.0
 21
390.59544499999993
 31
0.0
  0
TEXT
  5
4F
  8
SPEC
 62
     7
 10
-225.0
 20
636.16852500000005
 30
0.0
 40
9.7730468750000004
  1
仕様
 41
0.7
 11
-225.0
 21
645.94157187500014
 31
0.0
 73
     3
  0
LINE
  5
50
  8
SPEC
  6
CONTINUOUS
 62
     7
 10
-100.0
 20
630.5954449999997
 30
0.0
 11
-100.0
 21
390.59544499999993
 31
0.0
  0
LINE
  5
51
  8
SPEC
  6
CONTINUOUS
 62
     7
 10
360.0
 20
630.5954449999997
 30
0.0
 11
360.0
 21
390.59544499999993
 31
0.0
  0
TEXT
  5
52
  8
SPEC
 62
     7
 10
-226.29874934575389
 20
424.61773055444809
 30
0.0
 40
7.6012586805555546
  1
寸法
 41
0.7
 11
-226.29874934575389
 21
432.21898923500368
 31
0.0
 73
     3
  0
TEXT
  5
53
  8
SPEC
 62
     7
 10
-226.16467713393641
 20
409.55049544985849
 30
0.0
 40
7.6012586805555546
  1
重量
 41
0.7
 11
-226.16467713393641
 21
417.15175413041391
 31
0.0
 73
     3
  0
TEXT
  5
54
  8
SPEC
 62
     7
 10
-226.4515508839155
 20
573.74711611111115
 30
0.0
 40
7.6012586805555546
  1
アンテナ入力
 41
0.7
 11
-226.4515508839155
 21
581.34837479166674
 31
0.0
 73
     3
  0
TEXT
  5
55
  8
SPEC
 62
     7
 10
-97.000131823888083
 20
573.74711611111115
 30
0.0
 40
7.6012586805555546
  1
コネクター:BNC\U+00D72
 41
0.7
 11
-97.000131823888083
 21
581.34837479166674
 31
0.0
 73
     3
  0
TEXT
  5
56
  8
SPEC
 62
     7
 10
-96.006940703281444
 20
409.61773944333709
 30
0.0
 40
7.6012586805555546
  1
約750g(本体)
 41
0.7
 11
-96.006940703281444
 21
417.21899812389262
 31
0.0
 73
     3
  0
TEXT
  5
57
  8
SPEC
 62
     7
 10
-95.882889112851956
 20
424.61773944333697
 30
0.0
 40
7.6012586805555546
  1
200(W)\U+00D744(H)\U+00D7134(D)mm(突起部含まず)
 41
0.7
 11
-95.882889112851956
 21
432.21899812389262
 31
0.0
 73
     3
  0
TEXT
  5
58
  8
SPEC
 62
     7
 10
-226.40000000000001
 20
589.31507878634966
 30
0.0
 40
7.6012586805555546
  1
受信周波数
 41
0.7
 11
-226.40000000000001
 21
596.91633746690536
 31
0.0
 73
     3
  0
TEXT
  5
59
  8
SPEC
 62
     7
 10
-225.9393195992231
 20
514.31016993428295
 30
0.0
 40
7.6012586805555546
  1
THD
 41
0.7
 11
-225.9393195992231
 21
521.91142861483854
 31
0.0
 73
     3
  0
TEXT
  5
5A
  8
SPEC
 62
     7
 10
-95.932679067032339
 20
589.33513049328985
 30
0.0
 40
7.6012586805555546
  1
B型 (806.125～809.750MHz)のうち任意の1チャンネル
 41
0.7
 11
-95.932679067032339
 21
596.93638917384555
 31
0.0
 73
     3
  0
TEXT
  5
5B
  8
SPEC
 62
     7
 10
-96.050336579318142
 20
560.74711611111115
 30
0.0
 40
7.6012586805555546
  1
実効インピーダンス:50\U+03A9
 41
0.7
 11
-96.050336579318142
 21
568.34837479166674
 31
0.0
 73
     3
  0
TEXT
  5
5C
  8
SPEC
 62
     7
 10
-96.201447498813579
 20
499.12347907031369
 30
0.0
 40
7.6012586805555546
  1
型式(コネクタ -)：バランス(XLR3ピン,オス)・アンバランス(フォーンジャック）
 41
0.7
 11
-96.201447498813579
 21
506.72473775086911
 31
0.0
 73
     3
  0
TEXT
  5
5D
  8
SPEC
 62
     7
 10
-95.770754944362011
 20
514.25855564704466
 30
0.0
 40
7.6012586805555546
  1
0.3%%%以下(1kHz)
 41
0.7
 11
-95.770754944362011
 21
521.85981432760025
 31
0.0
 73
     3
  0
TEXT
  5
5E
  8
SPEC
 62
     7
 10
-225.78913705643879
 20
454.67121695532461
 30
0.0
 40
7.6012586805555546
  1
使用電源
 41
0.7
 11
-225.78913705643879
 21
462.2724756358802
 31
0.0
 73
     3
  0
TEXT
  5
5F
  8
SPEC
 62
     7
 10
-95.939621157475045
 20
454.52509137362932
 30
0.0
 40
7.6012586805555546
  1
DC12V(500mA),付属のACアダプタ ー(AC100V,50/60Hz,80mA)
 41
0.7
 11
-95.939621157475045
 21
462.1263500541848
 31
0.0
 73
     3
  0
LINE
  5
60
  8
SPEC
  6
CONTINUOUS
 62
     7
 10
-230.0
 20
555.59544499999993
 30
0.0
 11
360.0
 21
555.59544499999993
 31
0.0
  0
TEXT
  5
61
  8
SPEC
 62
     7
 10
-225.70788989076391
 20
528.86246779598378
 30
0.0
 40
7.6012586805555546
  1
S/N比
 41
0.7
 11
-225.70788989076391
 21
536.46372647653936
 31
0.0
 73
     3
  0
TEXT
  5
62
  8
SPEC
 62
     7
 10
-96.400000000000006
 20
529.18549285619702
 30
0.0
 40
7.6012586805555546
  1
120dB(Aウェイト)
 41
0.7
 11
-96.400000000000006
 21
536.78675153675249
 31
0.0
 73
     3
  0
TEXT
  5
63
  8
SPEC
 62
     7
 10
-225.95777740945499
 20
498.74711611111121
 30
0.0
 40
7.6012586805555546
  1
音声出力
 41
0.7
 11
-225.95777740945499
 21
506.34837479166669
 31
0.0
 73
     3
  0
TEXT
  5
64
  8
SPEC
 62
     7
 10
-96.400000000000006
 20
484.12347907031358
 30
0.0
 40
7.6012586805555546
  1
インピーダンス:6000\U+03A9(+6dB/0dB),56\U+03A9(－30dB)
 41
0.7
 11
-96.400000000000006
 21
491.72473775086922
 31
0.0
 73
     3
  0
TEXT
  5
65
  8
SPEC
 62
     7
 10
-97.933941048355194
 20
469.12347907031369
 30
0.0
 40
7.6012586805555546
  1
レベル：－30dB(マイク)/0dB(ライン)切替
 41
0.7
 11
-97.933941048355194
 21
476.72473775086922
 31
0.0
 73
     3
  0
TEXT
  5
66
  8
SPEC
 62
     7
 10
-225.7915382442805
 20
439.77262724794463
 30
0.0
 40
7.6012586805555546
  1
使用温度範囲
 41
0.7
 11
-225.7915382442805
 21
447.3738859285001
 31
0.0
 73
     3
  0
TEXT
  5
67
  8
SPEC
 62
     7
 10
-95.660105431656305
 20
439.37896579193409
 30
0.0
 40
7.6012586805555546
  1
-10℃～45℃
 41
0.7
 11
-95.660105431656305
 21
446.98022447248951
 31
0.0
 73
     3
  0
LINE
  5
68
  8
SPEC
  6
CONTINUOUS
 62
     7
 10
-230.0
 20
465.59544499999993
 30
0.0
 11
360.0
 21
465.59544499999993
 31
0.0
  0
LINE
  5
69
  8
SPEC
  6
CONTINUOUS
 62
     7
 10
-230.0
 20
450.59544499999993
 30
0.0
 11
360.0
 21
450.59544499999993
 31
0.0
  0
LINE
  5
6A
  8
SPEC
  6
CONTINUOUS
 62
     7
 10
-230.0
 20
435.59544499999993
 30
0.0
 11
360.0
 21
435.59544499999993
 31
0.0
  0
TEXT
  5
6B
  8
SPEC
 62
     7
 10
-225.99690701862559
 20
395.02082353582261
 30
0.0
 40
7.6012586805555546
  1
付属品
 41
0.7
 11
-225.99690701862559
 21
402.62208221637798
 31
0.0
 73
     3
  0
TEXT
  5
6C
  8
SPEC
 62
     7
 10
-95.614500397581537
 20
395.056116188423
 30
0.0
 40
7.6012586805555546
  1
ACアダプター,ラックマウントキット
 41
0.7
 11
-95.614500397581537
 21
402.65737486897842
 31
0.0
 73
     3
  0
TEXT
  5
6D
  8
SPEC
 62
     7
 10
-226.40000000000001
 20
604.31507878634966
 30
0.0
 40
7.6012586805555546
  1
電波形式
 41
0.7
 11
-226.40000000000001
 21
611.91633746690525
 31
0.0
 73
     3
  0
TEXT
  5
6E
  8
SPEC
 62
     7
 10
-226.40000000000001
 20
619.31507878634977
 30
0.0
 40
7.6012586805555546
  1
形式
 41
0.7
 11
-226.40000000000001
 21
626.91633746690525
 31
0.0
 73
     3
  0
TEXT
  5
6F
  8
SPEC
 62
     7
 10
-95.932679067032339
 20
604.33513049328985
 30
0.0
 40
7.6012586805555546
  1
F3E
 41
0.7
 11
-95.932679067032339
 21
611.93638917384555
 31
0.0
 73
     3
  0
TEXT
  5
70
  8
SPEC
 62
     7
 10
-96.825249814476663
 20
619.42161123479309
 30
0.0
 40
7.6012586805555546
  1
ワイヤレス受信機
 41
0.7
 11
-96.825249814476663
 21
627.02286991534879
 31
0.0
 73
     3
  0
TEXT
  5
71
  8
SPEC
 62
     7
 10
-225.70788989076391
 20
543.86246779598389
 30
0.0
 40
7.6012586805555546
  1
周波数特性
 41
0.7
 11
-225.70788989076391
 21
551.46372647653936
 31
0.0
 73
     3
  0
TEXT
  5
72
  8
SPEC
 62
     7
 10
-96.400000000000006
 20
544.18549285619702
 30
0.0
 40
7.6012586805555546
  1
35～15,000Hz
 41
0.7
 11
-96.400000000000006
 21
551.7867515367526
 31
0.0
 73
     3
  0
LINE
  5
73
  8
SPEC
  6
CONTINUOUS
 62
     7
 10
-230.0
 20
540.59544499999993
 30
0.0
 11
360.0
 21
540.59544499999993
 31
0.0
  0
LINE
  5
74
  8
SPEC
  6
CONTINUOUS
 62
     7
 10
-230.0
 20
525.59544499999993
 30
0.0
 11
360.0
 21
525.59544499999993
 31
0.0
  0
LINE
  5
75
  8
SPEC
  6
CONTINUOUS
 62
     7
 10
-230.0
 20
420.59544499999993
 30
0.0
 11
360.0
 21
420.59544499999993
 31
0.0
  0
LINE
  5
76
  8
SPEC
  6
CONTINUOUS
 62
     7
 10
-230.0
 20
405.59544499999993
 30
0.0
 11
360.0
 21
405.59544499999993
 31
0.0
  0
LINE
  5
77
  8
SPEC
  6
CONTINUOUS
 62
     7
 10
-230.0
 20
390.59544499999993
 30
0.0
 11
360.0
 21
390.59544499999993
 31
0.0
  0
LINE
  5
78
  8
SPEC
  6
CONTINUOUS
 62
     7
 10
-230.0
 20
600.59544499999981
 30
0.0
 11
360.0
 21
600.59544499999981
 31
0.0
  0
TEXT
  5
79
  8
DIMNSIONS
 62
     7
 10
19.999999999999979
 20
-320.326595
 30
0.0
 40
9.7730468750000004
  1
(単位：mm)
 41
0.7
 11
19.999999999999979
 21
-310.55354812500002
 31
0.0
 73
     3
  0
LINE
  5
7A
  8
DIMNSIONS
  6
CONTINUOUS
 62
     7
 10
-150.0
 20
-220.5
 30
0.0
 11
-150.0
 21
-258.0
 31
0.0
  0
LINE
  5
7B
  8
DIMNSIONS
  6
CONTINUOUS
 62
     7
 10
50.0
 20
-220.5
 30
0.0
 11
50.0
 21
-258.0
 31
0.0
  0
LINE
  5
7C
  8
DIMNSIONS
  6
CONTINUOUS
 62
     7
 10
-150.0
 20
-250.0
 30
0.0
 11
50.0
 21
-250.0
 31
0.0
  0
LINE
  5
7D
  8
DIMNSIONS
  6
CONTINUOUS
 62
     7
 10
-150.0
 20
-250.0
 30
0.0
 11
-139.99750976562501
 21
-247.31984081939899
 31
0.0
  0
LINE
  5
7E
  8
DIMNSIONS
  6
CONTINUOUS
 62
     7
 10
-150.0
 20
-250.0
 30
0.0
 11
-139.99750976562501
 21
-252.68015918060101
 31
0.0
  0
LINE
  5
7F
  8
DIMNSIONS
  6
CONTINUOUS
 62
     7
 10
50.0
 20
-250.0
 30
0.0
 11
39.997509765624983
 21
-252.68015918060101
 31
0.0
  0
LINE
  5
80
  8
DIMNSIONS
  6
CONTINUOUS
 62
     7
 10
50.0
 20
-250.0
 30
0.0
 11
39.997509765624983
 21
-247.31984081939899
 31
0.0
  0
TEXT
  5
81
  8
DIMNSIONS
 62
     7
 10
-60.583333333333357
 20
-246.0244444444445
 30
0.0
 40
10.85894097222222
  1
200
 41
0.7
 11
-60.583333333333357
 21
-235.1655034722223
 31
0.0
 73
     3
  0
LINE
  5
82
  8
DIMNSIONS
  6
CONTINUOUS
 62
     7
 10
-57.999999999999183
 20
-50.000000000000021
 30
0.0
 11
-195.5
 21
-50.000000000000021
 31
0.0
  0
LINE
  5
83
  8
DIMNSIONS
  6
CONTINUOUS
 62
     7
 10
-158.0
 20
84.0
 30
0.0
 11
-195.5
 21
84.0
 31
0.0
  0
LINE
  5
84
  8
DIMNSIONS
  6
CONTINUOUS
 62
     7
 10
-187.5
 20
-50.000000000000021
 30
0.0
 11
-187.5
 21
84.0
 31
0.0
  0
LINE
  5
85
  8
DIMNSIONS
  6
CONTINUOUS
 62
     7
 10
-187.5
 20
-50.000000000000021
 30
0.0
 11
-190.18015918060101
 21
-39.99750976562504
 31
0.0
  0
LINE
  5
86
  8
DIMNSIONS
  6
CONTINUOUS
 62
     7
 10
-187.5
 20
-50.000000000000021
 30
0.0
 11
-184.81984081939899
 21
-39.99750976562504
 31
0.0
  0
LINE
  5
87
  8
DIMNSIONS
  6
CONTINUOUS
 62
     7
 10
-187.5
 20
84.0
 30
0.0
 11
-184.81984081939899
 21
73.997509765624983
 31
0.0
  0
LINE
  5
88
  8
DIMNSIONS
  6
CONTINUOUS
 62
     7
 10
-187.5
 20
84.0
 30
0.0
 11
-190.18015918060101
 21
73.997509765624983
 31
0.0
  0
TEXT
  5
89
  8
DIMNSIONS
 62
     7
 10
-191.4755555555555
 20
6.4166666666666563
 30
0.0
 40
10.85894097222222
  1
134
 50
90.0
 41
0.7
 11
-202.3344965277777
 21
6.4166666666666572
 31
0.0
 73
     3
  0
LINE
  5
8A
  8
DIMNSIONS
  6
CONTINUOUS
 62
     7
 10
229.5
 20
80.59999999999998
 30
0.0
 11
192.0
 21
80.59999999999998
 31
0.0
  0
LINE
  5
8B
  8
DIMNSIONS
  6
CONTINUOUS
 62
     7
 10
229.5
 20
200.59999999999999
 30
0.0
 11
192.0
 21
200.59999999999999
 31
0.0
  0
LINE
  5
8C
  8
DIMNSIONS
  6
CONTINUOUS
 62
     7
 10
200.0
 20
80.59999999999998
 30
0.0
 11
200.0
 21
200.59999999999999
 31
0.0
  0
LINE
  5
8D
  8
DIMNSIONS
  6
CONTINUOUS
 62
     7
 10
200.0
 20
80.59999999999998
 30
0.0
 11
197.31984081939899
 21
90.602490234374983
 31
0.0
  0
LINE
  5
8E
  8
DIMNSIONS
  6
CONTINUOUS
 62
     7
 10
200.0
 20
80.59999999999998
 30
0.0
 11
202.6801591806009
 21
90.602490234374983
 31
0.0
  0
LINE
  5
8F
  8
DIMNSIONS
  6
CONTINUOUS
 62
     7
 10
200.0
 20
200.59999999999999
 30
0.0
 11
202.6801591806009
 21
190.59750976562489
 31
0.0
  0
LINE
  5
90
  8
DIMNSIONS
  6
CONTINUOUS
 62
     7
 10
200.0
 20
200.59999999999999
 30
0.0
 11
197.31984081939899
 21
190.59750976562489
 31
0.0
  0
TEXT
  5
91
  8
DIMNSIONS
 62
     7
 10
196.02444444444441
 20
130.01666666666659
 30
0.0
 40
10.85894097222222
  1
120
 50
90.0
 41
0.7
 11
185.16550347222221
 21
130.01666666666659
 31
0.0
 73
     3
  0
LINE
  5
92
  8
DIMNSIONS
  6
CONTINUOUS
 62
     7
 10
230.59999999999999
 20
79.5
 30
0.0
 11
230.59999999999999
 21
42.0
 31
0.0
  0
LINE
  5
93
  8
DIMNSIONS
  6
CONTINUOUS
 62
     7
 10
244.40000000000001
 20
79.5
 30
0.0
 11
244.40000000000001
 21
42.0
 31
0.0
  0
LINE
  5
94
  8
DIMNSIONS
  6
CONTINUOUS
 62
     7
 10
244.40000000000001
 20
50.0
 30
0.0
 11
230.59999999999999
 21
50.0
 31
0.0
  0
LINE
  5
95
  8
DIMNSIONS
  6
CONTINUOUS
 62
     7
 10
230.59999999999999
 20
50.0
 30
0.0
 11
198.38888888888891
 21
50.0
 31
0.0
  0
LINE
  5
96
  8
DIMNSIONS
  6
CONTINUOUS
 62
     7
 10
230.59999999999999
 20
50.0
 30
0.0
 11
220.59750976562501
 21
47.319840819399019
 31
0.0
  0
LINE
  5
97
  8
DIMNSIONS
  6
CONTINUOUS
 62
     7
 10
230.59999999999999
 20
50.0
 30
0.0
 11
220.59750976562501
 21
52.680159180600967
 31
0.0
  0
LINE
  5
98
  8
DIMNSIONS
  6
CONTINUOUS
 62
     7
 10
244.40000000000001
 20
50.0
 30
0.0
 11
264.40000000000009
 21
50.0
 31
0.0
  0
LINE
  5
99
  8
DIMNSIONS
  6
CONTINUOUS
 62
     7
 10
244.40000000000001
 20
50.0
 30
0.0
 11
254.40249023437511
 21
52.680159180600967
 31
0.0
  0
LINE
  5
9A
  8
DIMNSIONS
  6
CONTINUOUS
 62
     7
 10
244.40000000000001
 20
50.0
 30
0.0
 11
254.40249023437511
 21
47.319840819399033
 31
0.0
  0
TEXT
  5
9B
  8
DIMNSIONS
 62
     7
 10
198.38888888888891
 20
53.975555555555538
 30
0.0
 40
10.85894097222222
  1
14
 41
0.7
 11
198.38888888888891
 21
64.834496527777773
 31
0.0
 73
     3
  0
LINE
  5
9C
  8
DIMNSIONS
  6
CONTINUOUS
 62
     7
 10
222.60000000036609
 20
237.50000000017479
 30
0.0
 11
192.0
 21
237.50000000017479
 31
0.0
  0
LINE
  5
9D
  8
DIMNSIONS
  6
CONTINUOUS
 62
     7
 10
224.00000000026611
 20
265.75000000017491
 30
0.0
 11
192.0
 21
265.75000000017491
 31
0.0
  0
LINE
  5
9E
  8
DIMNSIONS
  6
CONTINUOUS
 62
     7
 10
200.0
 20
237.50000000017479
 30
0.0
 11
200.0
 21
265.75000000017491
 31
0.0
  0
LINE
  5
9F
  8
DIMNSIONS
  6
CONTINUOUS
 62
     7
 10
200.0
 20
237.50000000017479
 30
0.0
 11
197.31984081939899
 21
247.5024902345499
 31
0.0
  0
LINE
  5
A0
  8
DIMNSIONS
  6
CONTINUOUS
 62
     7
 10
200.0
 20
237.50000000017479
 30
0.0
 11
202.6801591806009
 21
247.5024902345499
 31
0.0
  0
LINE
  5
A1
  8
DIMNSIONS
  6
CONTINUOUS
 62
     7
 10
200.0
 20
265.75000000017491
 30
0.0
 11
202.6801591806009
 21
255.7475097657998
 31
0.0
  0
LINE
  5
A2
  8
DIMNSIONS
  6
CONTINUOUS
 62
     7
 10
200.0
 20
265.75000000017491
 30
0.0
 11
197.31984081939899
 21
255.7475097657998
 31
0.0
  0
TEXT
  5
A3
  8
DIMNSIONS
 62
     7
 10
196.02444444444441
 20
244.56944444461931
 30
0.0
 40
10.85894097222222
  1
28
 50
90.0
 41
0.7
 11
185.16550347222221
 21
244.56944444461931
 31
0.0
 73
     3
  0
LINE
  5
A4
  8
DIMNSIONS
  6
CONTINUOUS
 62
     7
 10
334.0
 20
-220.5
 30
0.0
 11
334.0
 21
-258.0
 31
0.0
  0
LINE
  5
A5
  8
DIMNSIONS
  6
CONTINUOUS
 62
     7
 10
370.99999999990342
 20
-209.96310316782191
 30
0.0
 11
370.99999999990342
 21
-258.0
 31
0.0
  0
LINE
  5
A6
  8
DIMNSIONS
  6
CONTINUOUS
 62
     7
 10
334.0
 20
-250.0
 30
0.0
 11
370.99999999990342
 21
-250.0
 31
0.0
  0
LINE
  5
A7
  8
DIMNSIONS
  6
CONTINUOUS
 62
     7
 10
334.0
 20
-250.0
 30
0.0
 11
344.00249023437487
 21
-247.31984081939899
 31
0.0
  0
LINE
  5
A8
  8
DIMNSIONS
  6
CONTINUOUS
 62
     7
 10
334.0
 20
-250.0
 30
0.0
 11
344.00249023437487
 21
-252.68015918060101
 31
0.0
  0
LINE
  5
A9
  8
DIMNSIONS
  6
CONTINUOUS
 62
     7
 10
370.99999999990342
 20
-250.0
 30
0.0
 11
360.99750976552849
 21
-252.68015918060101
 31
0.0
  0
LINE
  5
AA
  8
DIMNSIONS
  6
CONTINUOUS
 62
     7
 10
370.99999999990342
 20
-250.0
 30
0.0
 11
360.99750976552849
 21
-247.31984081939899
 31
0.0
  0
TEXT
  5
AB
  8
DIMNSIONS
 62
     7
 10
345.4444444443962
 20
-246.0244444444445
 30
0.0
 40
10.85894097222222
  1
37
 41
0.7
 11
345.4444444443962
 21
-235.1655034722223
 31
0.0
 73
     3
  0
LINE
  5
AC
  8
DIMNSIONS
  6
CONTINUOUS
 62
     7
 10
-158.0
 20
84.0
 30
0.0
 11
-195.5
 21
84.0
 31
0.0
  0
LINE
  5
AD
  8
DIMNSIONS
  6
CONTINUOUS
 62
     7
 10
-122.3448592236018
 20
121.0
 30
0.0
 11
-195.5
 21
121.0
 31
0.0
  0
LINE
  5
AE
  8
DIMNSIONS
  6
CONTINUOUS
 62
     7
 10
-187.5
 20
84.0
 30
0.0
 11
-187.5
 21
121.0
 31
0.0
  0
LINE
  5
AF
  8
DIMNSIONS
  6
CONTINUOUS
 62
     7
 10
-187.5
 20
84.0
 30
0.0
 11
-190.18015918060101
 21
94.002490234375017
 31
0.0
  0
LINE
  5
B0
  8
DIMNSIONS
  6
CONTINUOUS
 62
     7
 10
-187.5
 20
84.0
 30
0.0
 11
-184.81984081939899
 21
94.002490234375017
 31
0.0
  0
LINE
  5
B1
  8
DIMNSIONS
  6
CONTINUOUS
 62
     7
 10
-187.5
 20
121.0
 30
0.0
 11
-184.81984081939899
 21
110.997509765625
 31
0.0
  0
LINE
  5
B2
  8
DIMNSIONS
  6
CONTINUOUS
 62
     7
 10
-187.5
 20
121.0
 30
0.0
 11
-190.18015918060101
 21
110.997509765625
 31
0.0
  0
TEXT
  5
B3
  8
DIMNSIONS
 62
     7
 10
-191.4755555555555
 20
95.444444444444443
 30
0.0
 40
10.85894097222222
  1
37
 50
90.0
 41
0.7
 11
-202.3344965277777
 21
95.444444444444443
 31
0.0
 73
     3
  0
LINE
  5
B4
  8
DIMNSIONS
  6
CONTINUOUS
 62
     7
 10
-155.0
 20
-169.5
 30
0.0
 11
-195.5
 21
-169.5
 31
0.0
  0
LINE
  5
B5
  8
DIMNSIONS
  6
CONTINUOUS
 62
     7
 10
-117.25
 20
-83.499999999999986
 30
0.0
 11
-195.5
 21
-83.499999999999986
 31
0.0
  0
LINE
  5
B6
  8
DIMNSIONS
  6
CONTINUOUS
 62
     7
 10
-187.5
 20
-169.5
 30
0.0
 11
-187.5
 21
-83.499999999999986
 31
0.0
  0
LINE
  5
B7
  8
DIMNSIONS
  6
CONTINUOUS
 62
     7
 10
-187.5
 20
-169.5
 30
0.0
 11
-190.18015918060101
 21
-159.49750976562501
 31
0.0
  0
LINE
  5
B8
  8
DIMNSIONS
  6
CONTINUOUS
 62
     7
 10
-187.5
 20
-169.5
 30
0.0
 11
-184.81984081939899
 21
-159.49750976562501
 31
0.0
  0
LINE
  5
B9
  8
DIMNSIONS
  6
CONTINUOUS
 62
     7
 10
-187.5
 20
-83.499999999999986
 30
0.0
 11
-184.81984081939899
 21
-93.502490234375003
 31
0.0
  0
LINE
  5
BA
  8
DIMNSIONS
  6
CONTINUOUS
 62
     7
 10
-187.5
 20
-83.499999999999986
 30
0.0
 11
-190.18015918060101
 21
-93.502490234375003
 31
0.0
  0
TEXT
  5
BB
  8
DIMNSIONS
 62
     7
 10
-191.4755555555555
 20
-133.55555555555549
 30
0.0
 40
10.85894097222222
  1
86
 50
90.0
 41
0.7
 11
-202.3344965277777
 21
-133.55555555555549
 31
0.0
 73
     3
  0
LINE
  5
BC
  8
DIMNSIONS
  6
CONTINUOUS
 62
     7
 10
-148.69999999999999
 20
-213.5
 30
0.0
 11
-195.5
 21
-213.5
 31
0.0
  0
LINE
  5
BD
  8
DIMNSIONS
  6
CONTINUOUS
 62
     7
 10
-154.84999999999999
 20
-169.5037523466853
 30
0.0
 11
-195.5
 21
-169.5037523466853
 31
0.0
  0
LINE
  5
BE
  8
DIMNSIONS
  6
CONTINUOUS
 62
     7
 10
-187.5
 20
-213.5
 30
0.0
 11
-187.5
 21
-169.5037523466853
 31
0.0
  0
LINE
  5
BF
  8
DIMNSIONS
  6
CONTINUOUS
 62
     7
 10
-187.5
 20
-213.5
 30
0.0
 11
-190.18015918060101
 21
-203.49750976562501
 31
0.0
  0
LINE
  5
C0
  8
DIMNSIONS
  6
CONTINUOUS
 62
     7
 10
-187.5
 20
-213.5
 30
0.0
 11
-184.81984081939899
 21
-203.49750976562501
 31
0.0
  0
LINE
  5
C1
  8
DIMNSIONS
  6
CONTINUOUS
 62
     7
 10
-187.5
 20
-169.5037523466853
 30
0.0
 11
-184.81984081939899
 21
-179.50624258106041
 31
0.0
  0
LINE
  5
C2
  8
DIMNSIONS
  6
CONTINUOUS
 62
     7
 10
-187.5
 20
-169.5037523466853
 30
0.0
 11
-190.18015918060101
 21
-179.50624258106041
 31
0.0
  0
TEXT
  5
C3
  8
DIMNSIONS
 62
     7
 10
-191.4755555555555
 20
-198.55743172889819
 30
0.0
 40
10.85894097222222
  1
44
 50
90.0
 41
0.7
 11
-202.3344965277777
 21
-198.55743172889819
 31
0.0
 73
     3
  0
TEXT
  5
C4
  8
DIMNSIONS
 62
     7
 10
258.74651806772431
 20
128.4056700746514
 30
0.0
 40
10.85894097222222
  1
\U+03A611
 41
0.7
 11
258.74651806772431
 21
139.2646110468736
 31
0.0
 73
     3
  0
LINE
  5
C5
  8
DIMNSIONS
  6
CONTINUOUS
 62
     7
 10
243.0
 20
125.0
 30
0.0
 11
287.5
 21
125.0
 31
0.0
  0
LINE
  5
C6
  8
DIMNSIONS
  6
CONTINUOUS
 62
     7
 10
243.0
 20
125.0
 30
0.0
 11
255.69999999999999
 21
128.40295474387531
 31
0.0
  0
LINE
  5
C7
  8
DIMNSIONS
  6
CONTINUOUS
 62
     7
 10
243.0
 20
125.0
 30
0.0
 11
255.69999999999999
 21
121.5970452561247
 31
0.0
  0
TEXT
  5
C8
  8
DIMNSIONS
 62
     7
 10
262.80000000000001
 20
177.67524736775661
 30
0.0
 40
10.85894097222222
  1
\U+03A66
 41
0.7
 11
262.80000000000001
 21
188.53418833997881
 31
0.0
 73
     3
  0
LINE
  5
C9
  8
DIMNSIONS
  6
CONTINUOUS
 62
     7
 10
287.60000000000002
 20
174.80000000000001
 30
0.0
 11
240.5029506891839
 21
174.80000000000001
 31
0.0
  0
LINE
  5
CA
  8
DIMNSIONS
  6
CONTINUOUS
 62
     7
 10
240.5029506891839
 20
174.80000000000001
 30
0.0
 11
253.20295068918389
 21
178.20295474387521
 31
0.0
  0
LINE
  5
CB
  8
DIMNSIONS
  6
CONTINUOUS
 62
     7
 10
240.5029506891839
 20
174.80000000000001
 30
0.0
 11
253.20295068918389
 21
171.3970452561247
 31
0.0
  0
LINE
  5
CC
  8
DIMNSIONS
  6
CONTINUOUS
 62
     7
 10
-155.0
 20
237.4999999998808
 30
0.0
 11
-208.0
 21
237.4999999998808
 31
0.0
  0
LINE
  5
CD
  8
DIMNSIONS
  6
CONTINUOUS
 62
     7
 10
-116.9971442644557
 20
151.49999261802131
 30
0.0
 11
-208.0
 21
151.49999261802131
 31
0.0
  0
LINE
  5
CE
  8
DIMNSIONS
  6
CONTINUOUS
 62
     7
 10
-200.0
 20
237.4999999998808
 30
0.0
 11
-200.0
 21
151.49999261802131
 31
0.0
  0
LINE
  5
CF
  8
DIMNSIONS
  6
CONTINUOUS
 62
     7
 10
-200.0
 20
237.4999999998808
 30
0.0
 11
-197.31984081939899
 21
227.4975097655059
 31
0.0
  0
LINE
  5
D0
  8
DIMNSIONS
  6
CONTINUOUS
 62
     7
 10
-200.0
 20
237.4999999998808
 30
0.0
 11
-202.68015918060101
 21
227.4975097655059
 31
0.0
  0
LINE
  5
D1
  8
DIMNSIONS
  6
CONTINUOUS
 62
     7
 10
-200.0
 20
151.49999261802131
 30
0.0
 11
-202.68015918060101
 21
161.5024828523963
 31
0.0
  0
LINE
  5
D2
  8
DIMNSIONS
  6
CONTINUOUS
 62
     7
 10
-200.0
 20
151.49999261802131
 30
0.0
 11
-197.31984081939899
 21
161.5024828523963
 31
0.0
  0
TEXT
  5
D3
  8
DIMNSIONS
 62
     7
 10
-203.9755555555555
 20
180.4444444444444
 30
0.0
 40
10.85894097222222
  1
86
 50
90.0
 41
0.7
 11
-214.8344965277777
 21
180.4444444444444
 31
0.0
 73
     3
  0
LINE
  5
D4
  8
DIMNSIONS
  6
CONTINUOUS
 62
     7
 10
-150.0
 20
285.4999999998808
 30
0.0
 11
-150.0
 21
308.0
 31
0.0
  0
LINE
  5
D5
  8
DIMNSIONS
  6
CONTINUOUS
 62
     7
 10
-221.9971516463153
 20
272.49999999988091
 30
0.0
 11
-221.9971516463153
 21
308.0
 31
0.0
  0
LINE
  5
D6
  8
DIMNSIONS
  6
CONTINUOUS
 62
     7
 10
-150.0
 20
300.0
 30
0.0
 11
-221.9971516463153
 21
300.0
 31
0.0
  0
LINE
  5
D7
  8
DIMNSIONS
  6
CONTINUOUS
 62
     7
 10
-150.0
 20
300.0
 30
0.0
 11
-160.00249023437499
 21
297.31984081939902
 31
0.0
  0
LINE
  5
D8
  8
DIMNSIONS
  6
CONTINUOUS
 62
     7
 10
-150.0
 20
300.0
 30
0.0
 11
-160.00249023437499
 21
302.68015918060092
 31
0.0
  0
LINE
  5
D9
  8
DIMNSIONS
  6
CONTINUOUS
 62
     7
 10
-221.9971516463153
 20
300.0
 30
0.0
 11
-211.9946614119402
 21
302.68015918060092
 31
0.0
  0
LINE
  5
DA
  8
DIMNSIONS
  6
CONTINUOUS
 62
     7
 10
-221.9971516463153
 20
300.0
 30
0.0
 11
-211.9946614119402
 21
297.31984081939902
 31
0.0
  0
TEXT
  5
DB
  8
DIMNSIONS
 62
     7
 10
-193.05413137871321
 20
303.9755555555555
 30
0.0
 40
10.85894097222222
  1
72
 41
0.7
 11
-193.05413137871321
 21
314.83449652777767
 31
0.0
 73
     3
  0
LINE
  5
DC
  8
DIMNSIONS
  6
CONTINUOUS
 62
     7
 10
-155.0
 20
280.49999999988091
 30
0.0
 11
-208.0
 21
280.49999999988091
 31
0.0
  0
LINE
  5
DD
  8
DIMNSIONS
  6
CONTINUOUS
 62
     7
 10
-116.9971442644557
 20
377.50000738174032
 30
0.0
 11
-208.0
 21
377.50000738174032
 31
0.0
  0
LINE
  5
DE
  8
DIMNSIONS
  6
CONTINUOUS
 62
     7
 10
-200.0
 20
280.49999999988091
 30
0.0
 11
-200.0
 21
377.50000738174032
 31
0.0
  0
LINE
  5
DF
  8
DIMNSIONS
  6
CONTINUOUS
 62
     7
 10
-200.0
 20
280.49999999988091
 30
0.0
 11
-202.68015918060101
 21
290.50249023425579
 31
0.0
  0
LINE
  5
E0
  8
DIMNSIONS
  6
CONTINUOUS
 62
     7
 10
-200.0
 20
280.49999999988091
 30
0.0
 11
-197.31984081939899
 21
290.50249023425579
 31
0.0
  0
LINE
  5
E1
  8
DIMNSIONS
  6
CONTINUOUS
 62
     7
 10
-200.0
 20
377.50000738174032
 30
0.0
 11
-197.31984081939899
 21
367.4975171473655
 31
0.0
  0
LINE
  5
E2
  8
DIMNSIONS
  6
CONTINUOUS
 62
     7
 10
-200.0
 20
377.50000738174032
 30
0.0
 11
-202.68015918060101
 21
367.4975171473655
 31
0.0
  0
TEXT
  5
E3
  8
DIMNSIONS
 62
     7
 10
-203.9755555555555
 20
330.44444444444451
 30
0.0
 40
10.85894097222222
  1
97
 50
90.0
 41
0.7
 11
-214.8344965277777
 21
330.44444444444451
 31
0.0
 73
     3
  0
LINE
  5
E4
  8
DIMNSIONS
  6
CONTINUOUS
 62
     7
 10
50.0
 20
285.4999999998808
 30
0.0
 11
50.0
 21
308.0
 31
0.0
  0
LINE
  5
E5
  8
DIMNSIONS
  6
CONTINUOUS
 62
     7
 10
144.99597923286069
 20
272.49999999988091
 30
0.0
 11
144.99597923286069
 21
308.0
 31
0.0
  0
LINE
  5
E6
  8
DIMNSIONS
  6
CONTINUOUS
 62
     7
 10
50.0
 20
300.0
 30
0.0
 11
144.99597923286069
 21
300.0
 31
0.0
  0
LINE
  5
E7
  8
DIMNSIONS
  6
CONTINUOUS
 62
     7
 10
50.0
 20
300.0
 30
0.0
 11
60.002490234374982
 21
302.68015918060092
 31
0.0
  0
LINE
  5
E8
  8
DIMNSIONS
  6
CONTINUOUS
 62
     7
 10
50.0
 20
300.0
 30
0.0
 11
60.002490234374982
 21
297.31984081939902
 31
0.0
  0
LINE
  5
E9
  8
DIMNSIONS
  6
CONTINUOUS
 62
     7
 10
144.99597923286069
 20
300.0
 30
0.0
 11
134.99348899848559
 21
297.31984081939902
 31
0.0
  0
LINE
  5
EA
  8
DIMNSIONS
  6
CONTINUOUS
 62
     7
 10
144.99597923286069
 20
300.0
 30
0.0
 11
134.99348899848559
 21
302.68015918060092
 31
0.0
  0
TEXT
  5
EB
  8
DIMNSIONS
 62
     7
 10
90.442434060874774
 20
303.9755555555555
 30
0.0
 40
10.85894097222222
  1
95
 41
0.7
 11
90.442434060874774
 21
314.83449652777767
 31
0.0
 73
     3
  0
TEXT
  5
EC
  8
DATA
 62
     7
 10
300.0
 20
-324.88099499999993
 30
0.0
 40
9.7730468750000004
  1
SR450
 41
0.7
 11
300.0
 21
-315.10794812500001
 31
0.0
 73
     3
  0
TEXT
  5
ED
  8
DATA
 62
     7
 10
300.0
 20
-295.88099499999993
 30
0.0
 40
9.7730468750000004
  1
AKG
 41
0.7
 11
300.0
 21
-286.10794812500001
 31
0.0
 73
     3
  0
TEXT
  5
EE
  8
DATA
 62
     7
 10
290.0
 20
-309.7888198
 30
0.0
 40
6.5153748437499992
  1
ワイヤレス受信機
 41
0.7
 11
290.0
 21
-303.27344495624999
 31
0.0
 73
     3
  0
TEXT
  5
EF
  8
DATA
 62
     7
 10
-220.0
 20
-352.45255500000007
 30
0.0
 40
6.5153645833333318
  1
仕様および外観は予告なく変更されることがありますので、ご了承ください。
 41
0.7
 11
-220.0
 21
-345.93719041666668
 31
0.0
 73
     3
  0
LINE
  5
F0
  8
DATA
  6
CONTINUOUS
 62
     7
 10
-150.0
 20
-209.5
 30
0.0
 11
-150.0
 21
-172.5
 31
0.0
  0
LINE
  5
F1
  8
DATA
  6
CONTINUOUS
 62
     7
 10
46.999999999999993
 20
-212.5
 30
0.0
 11
-147.0
 21
-212.5
 31
0.0
  0
LINE
  5
F2
  8
DATA
  6
CONTINUOUS
 62
     7
 10
50.0
 20
-172.5
 30
0.0
 11
50.0
 21
-209.5
 31
0.0
  0
LINE
  5
F3
  8
DATA
  6
CONTINUOUS
 62
     7
 10
-147.0
 20
-169.5
 30
0.0
 11
46.999999999999993
 21
-169.5
 31
0.0
  0
LINE
  5
F4
  8
DATA
  6
CONTINUOUS
 62
     7
 10
-150.0
 20
-39.836390143970107
 30
0.0
 11
-150.0
 21
84.0
 31
0.0
  0
LINE
  5
F5
  8
DATA
  6
CONTINUOUS
 62
     7
 10
50.0
 20
84.0
 30
0.0
 11
50.0
 21
-39.836390143970107
 31
0.0
  0
LINE
  5
F6
  8
DATA
  6
CONTINUOUS
 62
     7
 10
-150.0
 20
84.0
 30
0.0
 11
50.0
 21
84.0
 31
0.0
  0
LINE
  5
F7
  8
DATA
  6
CONTINUOUS
 62
     7
 10
200.0
 20
-208.19758039938179
 30
0.0
 11
200.0
 21
-173.62796031191661
 31
0.0
  0
LINE
  5
F8
  8
DATA
  6
CONTINUOUS
 62
     7
 10
334.0
 20
-212.5
 30
0.0
 11
221.9999999999998
 21
-212.5
 31
0.0
  0
LINE
  5
F9
  8
DATA
  6
CONTINUOUS
 62
     7
 10
334.0
 20
-169.5
 30
0.0
 11
334.0
 21
-212.5
 31
0.0
  0
LINE
  5
FA
  8
DATA
  6
CONTINUOUS
 62
     7
 10
-140.69999999999999
 20
-213.5
 30
0.0
 11
-129.30000000000001
 21
-213.5
 31
0.0
  0
LINE
  5
FB
  8
DATA
  6
CONTINUOUS
 62
     7
 10
-141.0
 20
-212.5
 30
0.0
 11
-140.69999999999999
 21
-213.5
 31
0.0
  0
LINE
  5
FC
  8
DATA
  6
CONTINUOUS
 62
     7
 10
-129.0
 20
-212.5
 30
0.0
 11
-129.30000000000001
 21
-213.5
 31
0.0
  0
LINE
  5
FD
  8
DATA
  6
CONTINUOUS
 62
     7
 10
29.300000000000001
 20
-213.5
 30
0.0
 11
40.69999999999996
 21
-213.5
 31
0.0
  0
LINE
  5
FE
  8
DATA
  6
CONTINUOUS
 62
     7
 10
28.999999999999979
 20
-212.5
 30
0.0
 11
29.300000000000001
 21
-213.5
 31
0.0
  0
LINE
  5
FF
  8
DATA
  6
CONTINUOUS
 62
     7
 10
40.999999999999993
 20
-212.5
 30
0.0
 11
40.69999999999996
 21
-213.5
 31
0.0
  0
ARC
  5
100
  8
DATA
  6
CONTINUOUS
 62
     7
 10
-147.0
 20
-172.5
 30
0.0
 40
3.0
 50
90.0
 51
180.0
  0
ARC
  5
101
  8
DATA
  6
CONTINUOUS
 62
     7
 10
-147.0
 20
-209.5
 30
0.0
 40
3.0
 50
180.0
 51
270.0
  0
ARC
  5
102
  8
DATA
  6
CONTINUOUS
 62
     7
 10
46.999999999999993
 20
-172.5
 30
0.0
 40
3.0
 50
0.0
 51
90.0
  0
ARC
  5
103
  8
DATA
  6
CONTINUOUS
 62
     7
 10
46.999999999999993
 20
-209.5
 30
0.0
 40
3.0
 50
270.0
 51
0.0
  0
CIRCLE
  5
104
  8
DATA
  6
CONTINUOUS
 62
     7
 10
-138.0
 20
-196.5
 30
0.0
 40
3.75
  0
CIRCLE
  5
105
  8
DATA
  6
CONTINUOUS
 62
     7
 10
-138.0
 20
-196.5
 30
0.0
 40
7.0
  0
CIRCLE
  5
106
  8
DATA
  6
CONTINUOUS
 62
     7
 10
-114.5
 20
-196.5
 30
0.0
 40
3.75
  0
CIRCLE
  5
107
  8
DATA
  6
CONTINUOUS
 62
     7
 10
-114.5
 20
-196.5
 30
0.0
 40
7.0
  0
TEXT
  5
108
  8
DATA
 62
     7
 10
-142.90415496058571
 20
-208.51726904654581
 30
0.0
 40
2.7147352430555549
  1
ON/OFF
 41
0.7
 11
-142.90415496058571
 21
-205.80253380349021
 31
0.0
 73
     3
  0
TEXT
  5
109
  8
DATA
 62
     7
 10
-119.71661984234289
 20
-208.51726904654581
 30
0.0
 40
2.7147352430555549
  1
VOLUME
 41
0.7
 11
-119.71661984234289
 21
-205.80253380349021
 31
0.0
 73
     3
  0
CIRCLE
  5
10A
  8
DATA
  6
CONTINUOUS
 62
     7
 10
14.99999999999998
 20
-195.5
 30
0.0
 40
4.0
  0
CIRCLE
  5
10B
  8
DATA
  6
CONTINUOUS
 62
     7
 10
26.999999999999989
 20
-195.5
 30
0.0
 40
4.0
  0
CIRCLE
  5
10C
  8
DATA
  6
CONTINUOUS
 62
     7
 10
39.0
 20
-195.5
 30
0.0
 40
4.0
  0
CIRCLE
  5
10D
  8
DATA
  6
CONTINUOUS
 62
     7
 10
26.999999999999989
 20
-195.5
 30
0.0
 40
1.0999999999999941
  0
ARC
  5
10E
  8
DATA
  6
CONTINUOUS
 62
     7
 10
14.99999999999998
 20
-195.5
 30
0.0
 40
7.0000000000000018
 50
31.002719133874042
 51
328.99728086612612
  0
ARC
  5
10F
  8
DATA
  6
CONTINUOUS
 62
     7
 10
26.999999999999989
 20
-195.5
 30
0.0
 40
7.0000000000000018
 50
211.002719133874
 51
328.99728086612612
  0
ARC
  5
110
  8
DATA
  6
CONTINUOUS
 62
     7
 10
26.999999999999989
 20
-195.5
 30
0.0
 40
7.0000000000000018
 50
31.002719133874042
 51
148.997280866126
  0
ARC
  5
111
  8
DATA
  6
CONTINUOUS
 62
     7
 10
39.0
 20
-195.5
 30
0.0
 40
7.0000000000000018
 50
211.002719133874
 51
148.997280866126
  0
LINE
  5
112
  8
DATA
  6
CONTINUOUS
 62
     7
 10
37.999999999999993
 20
-194.5
 30
0.0
 11
40.0
 21
-195.5
 31
0.0
  0
LINE
  5
113
  8
DATA
  6
CONTINUOUS
 62
     7
 10
37.999999999999993
 20
-196.5
 30
0.0
 11
40.0
 21
-195.5
 31
0.0
  0
LINE
  5
114
  8
DATA
  6
CONTINUOUS
 62
     7
 10
13.99999999999998
 20
-195.5
 30
0.0
 11
15.99999999999998
 21
-194.5
 31
0.0
  0
LINE
  5
115
  8
DATA
  6
CONTINUOUS
 62
     7
 10
15.99999999999998
 20
-196.5
 30
0.0
 11
13.99999999999998
 21
-195.5
 31
0.0
  0
LINE
  5
116
  8
DATA
  6
CONTINUOUS
 62
     7
 10
15.99999999999998
 20
-196.5
 30
0.0
 11
15.99999999999998
 21
-194.5
 31
0.0
  0
LINE
  5
117
  8
DATA
  6
CONTINUOUS
 62
     7
 10
37.999999999999993
 20
-196.5
 30
0.0
 11
37.999999999999993
 21
-194.5
 31
0.0
  0
ARC
  5
118
  8
DATA
  6
CONTINUOUS
 62
     7
 10
-50.000000000000021
 20
-246.09999999999999
 30
0.0
 40
38.599999999999973
 50
60.512874327058512
 51
119.4871256729415
  0
ARC
  5
119
  8
DATA
  6
CONTINUOUS
 62
     7
 10
-155.51142091791851
 20
-307.90343763853139
 30
0.0
 40
130.93726059470839
 50
72.2990056534437
 51
84.824500301619921
  0
ARC
  5
11A
  8
DATA
  6
CONTINUOUS
 62
     7
 10
55.511420917918471
 20
-307.90343763853139
 30
0.0
 40
130.93726059470839
 50
95.175499698380094
 51
107.7009943465563
  0
ARC
  5
11B
  8
DATA
  6
CONTINUOUS
 62
     7
 10
-50.000000000000021
 20
-145.9993334861756
 30
0.0
 40
59.999999999999979
 50
250.83454348280921
 51
289.16545651719088
  0
LINE
  5
11C
  8
DATA
  6
CONTINUOUS
 62
     7
 10
-69.697833490503641
 20
-202.6738017746421
 30
0.0
 11
-115.7
 21
-183.16524390243899
 31
0.0
  0
LINE
  5
11D
  8
DATA
  6
CONTINUOUS
 62
     7
 10
-30.302166509496391
 20
-202.6738017746421
 30
0.0
 11
15.699999999999971
 21
-183.16524390243899
 31
0.0
  0
LINE
  5
11E
  8
DATA
  6
CONTINUOUS
 62
     7
 10
-143.69999999999999
 20
-177.5
 30
0.0
 11
-150.0
 21
-177.5
 31
0.0
  0
LINE
  5
11F
  8
DATA
  6
CONTINUOUS
 62
     7
 10
43.699999999999967
 20
-177.5
 30
0.0
 11
50.0
 21
-177.5
 31
0.0
  0
TEXT
  5
120
  8
DATA
 62
     7
 10
-58.862382568869251
 20
-178.02896980274531
 30
0.0
 40
2.7147352430555549
  1
A
 41
0.7
 11
-58.862382568869251
 21
-175.31423455968979
 31
0.0
 73
     3
  0
TEXT
  5
121
  8
DATA
 62
     7
 10
-42.862382568869251
 20
-178.02896980274531
 30
0.0
 40
2.7147352430555549
  1
B
 41
0.7
 11
-42.862382568869251
 21
-175.31423455968979
 31
0.0
 73
     3
  0
TEXT
  5
122
  8
DATA
 62
     7
 10
-71.913441426891197
 20
-177.99733031578
 30
0.0
 40
2.7147352430555549
  1
RF
 41
0.7
 11
-71.913441426891197
 21
-175.2825950727244
 31
0.0
 73
     3
  0
TEXT
  5
123
  8
DATA
 62
     7
 10
-30.9134414268912
 20
-177.99733031578
 30
0.0
 40
2.7147352430555549
  1
AF
 41
0.7
 11
-30.9134414268912
 21
-175.2825950727244
 31
0.0
 73
     3
  0
TEXT
  5
124
  8
DATA
 62
     7
 10
-83.94877148249094
 20
-178.05654412637799
 30
0.0
 40
2.7147352430555549
  1
OK
 41
0.7
 11
-83.94877148249094
 21
-175.3418088833225
 31
0.0
 73
     3
  0
TEXT
  5
125
  8
DATA
 62
     7
 10
-19.288301604422269
 20
-178.0335131304962
 30
0.0
 40
2.7147352430555549
  1
OK
 41
0.7
 11
-19.288301604422269
 21
-175.3187778874406
 31
0.0
 73
     3
  0
TEXT
  5
126
  8
DATA
 62
     7
 10
-93.558108916116865
 20
-178.03138172335491
 30
0.0
 40
2.7147352430555549
  1
MUTE
 41
0.7
 11
-93.558108916116865
 21
-175.31664648029931
 31
0.0
 73
     3
  0
TEXT
  5
127
  8
DATA
 62
     7
 10
-13.55810891611689
 20
-178.03138172335491
 30
0.0
 40
2.7147352430555549
  1
CLIP
 41
0.7
 11
-13.55810891611689
 21
-175.31664648029931
 31
0.0
 73
     3
  0
TEXT
  5
128
  8
DATA
 62
     7
 10
-144.15018685340439
 20
-173.4300917470575
 30
0.0
 40
3.2576822916666659
  1
SR450
 41
0.7
 11
-144.15018685340439
 21
-170.17240945539081
 31
0.0
 73
     3
  0
TEXT
  5
129
  8
DATA
 62
     7
 10
-139.5740707776645
 20
-177.4529641167062
 30
0.0
 40
2.7147352430555549
  1
STATIONARY RECEIVER
 41
0.7
 11
-139.5740707776645
 21
-174.73822887365071
 31
0.0
 73
     3
  0
TEXT
  5
12A
  8
DATA
 62
     7
 10
27.083257513091251
 20
-173.39407085746939
 30
0.0
 40
2.7147352430555549
  1
DATA UPLINK
 41
0.7
 11
27.083257513091251
 21
-170.67933561441379
 31
0.0
 73
     3
  0
TEXT
  5
12B
  8
DATA
 62
     7
 10
19.678906825129289
 20
-174.33845455381001
 30
0.0
 40
3.2576822916666659
  1
iR
 41
0.7
 11
19.678906825129289
 21
-171.08077226214331
 31
0.0
 73
     3
  0
POLYLINE
  5
12C
  8
DATA
  6
CONTINUOUS
 62
     7
 66
     1
 10
0.0
 20
0.0
 30
0.0
 70
     1
  0
VERTEX
  5
40F
  8
DATA
  6
CONTINUOUS
 62
     7
 10
9.5
 20
-170.57775250436379
 30
0.0
  0
VERTEX
  5
410
  8
DATA
  6
CONTINUOUS
 62
     7
 10
19.0
 20
-170.57775250436379
 30
0.0
  0
VERTEX
  5
411
  8
DATA
  6
CONTINUOUS
 62
     7
 10
19.0
 20
-174.57775250436379
 30
0.0
  0
VERTEX
  5
412
  8
DATA
  6
CONTINUOUS
 62
     7
 10
9.5
 20
-174.57775250436379
 30
0.0
  0
SEQEND
  5
413
  8
DATA
  6
CONTINUOUS
 62
     7
  0
LINE
  5
133
  8
DATA
  6
CONTINUOUS
 62
     7
 10
-150.0
 20
-28.0
 30
0.0
 11
50.0
 21
-28.0
 31
0.0
  0
ARC
  5
134
  8
DATA
  6
CONTINUOUS
 62
     7
 10
-42.600000000000001
 20
171.69999999999999
 30
0.0
 40
221.82346584615439
 50
259.16464996031362
 51
268.08826605585369
  0
ARC
  5
135
  8
DATA
  6
CONTINUOUS
 62
     7
 10
-141.5
 20
-243.1149999999997
 30
0.0
 40
203.29277710976331
 50
84.523995598686355
 51
90.676428681728027
  0
ARC
  5
136
  8
DATA
  6
CONTINUOUS
 62
     7
 10
-137.07057975001621
 20
-279.7362264683901
 30
0.0
 40
239.45466105225901
 50
77.268754360175663
 51
86.415560266646978
  0
ARC
  5
137
  8
DATA
  6
CONTINUOUS
 62
     7
 10
-57.399999999999963
 20
171.69999999999999
 30
0.0
 40
221.82346584615439
 50
271.91173394414642
 51
280.83535003968638
  0
ARC
  5
138
  8
DATA
  6
CONTINUOUS
 62
     7
 10
41.500000000000028
 20
-243.1149999999997
 30
0.0
 40
203.29277710976331
 50
89.323571318272656
 51
95.476004401313645
  0
ARC
  5
139
  8
DATA
  6
CONTINUOUS
 62
     7
 10
37.07057975001625
 20
-279.7362264683901
 30
0.0
 40
239.45466105225901
 50
93.584439733353008
 51
102.73124563982429
  0
LINE
  5
13A
  8
DATA
  6
CONTINUOUS
 62
     7
 10
-141.75
 20
-41.030492740901607
 30
0.0
 11
-141.75
 21
-39.822376609479512
 31
0.0
  0
LINE
  5
13B
  8
DATA
  6
CONTINUOUS
 62
     7
 10
-134.25
 20
-41.030492740901607
 30
0.0
 11
-134.25
 21
-39.951541856070982
 31
0.0
  0
LINE
  5
13C
  8
DATA
  6
CONTINUOUS
 62
     7
 10
10.99999999999998
 20
-43.532362535021349
 30
0.0
 11
10.99999999999998
 21
-41.705010929019537
 31
0.0
  0
LINE
  5
13D
  8
DATA
  6
CONTINUOUS
 62
     7
 10
18.999999999999979
 20
-43.532362535021349
 30
0.0
 11
18.999999999999979
 21
-40.964392184799323
 31
0.0
  0
LINE
  5
13E
  8
DATA
  6
CONTINUOUS
 62
     7
 10
30.999999999999989
 20
-43.532362535021349
 30
0.0
 11
30.999999999999989
 21
-40.093564616935069
 31
0.0
  0
LINE
  5
13F
  8
DATA
  6
CONTINUOUS
 62
     7
 10
22.999999999999979
 20
-43.532362535021349
 30
0.0
 11
22.999999999999979
 21
-40.665739134468531
 31
0.0
  0
LINE
  5
140
  8
DATA
  6
CONTINUOUS
 62
     7
 10
34.999999999999993
 20
-43.532362535021349
 30
0.0
 11
34.999999999999993
 21
-39.926163630971082
 31
0.0
  0
LINE
  5
141
  8
DATA
  6
CONTINUOUS
 62
     7
 10
42.999999999999993
 20
-43.532362535021349
 30
0.0
 11
42.999999999999993
 21
-39.827756856215871
 31
0.0
  0
LINE
  5
142
  8
DATA
  6
CONTINUOUS
 62
     7
 10
-143.90000000000029
 20
-39.836390143970128
 30
0.0
 11
-150.0
 21
-39.836390143970128
 31
0.0
  0
LINE
  5
143
  8
DATA
  6
CONTINUOUS
 62
     7
 10
43.899999999997974
 20
-39.836390143970107
 30
0.0
 11
50.0
 21
-39.836390143970107
 31
0.0
  0
LINE
  5
144
  8
DATA
  6
CONTINUOUS
 62
     7
 10
42.999999999999993
 20
-43.532362535021349
 30
0.0
 11
34.999999999999993
 21
-43.532362535021349
 31
0.0
  0
LINE
  5
145
  8
DATA
  6
CONTINUOUS
 62
     7
 10
30.999999999999989
 20
-43.532362535021349
 30
0.0
 11
22.999999999999979
 21
-43.532362535021349
 31
0.0
  0
LINE
  5
146
  8
DATA
  6
CONTINUOUS
 62
     7
 10
18.999999999999979
 20
-43.532362535021349
 30
0.0
 11
10.99999999999998
 21
-43.532362535021349
 31
0.0
  0
LINE
  5
147
  8
DATA
  6
CONTINUOUS
 62
     7
 10
-118.25
 20
-43.532362535021349
 30
0.0
 11
-118.25
 21
-41.022338146982356
 31
0.0
  0
LINE
  5
148
  8
DATA
  6
CONTINUOUS
 62
     7
 10
-110.75
 20
-43.532362535021349
 30
0.0
 11
-110.75
 21
-41.732525276002598
 31
0.0
  0
LINE
  5
149
  8
DATA
  6
CONTINUOUS
 62
     7
 10
-110.75
 20
-43.532362535021349
 30
0.0
 11
-118.25
 21
-43.532362535021349
 31
0.0
  0
LINE
  5
14A
  8
DATA
  6
CONTINUOUS
 62
     7
 10
-134.25
 20
-41.030492740901607
 30
0.0
 11
-141.75
 21
-41.030492740901607
 31
0.0
  0
LINE
  5
14B
  8
DATA
  6
CONTINUOUS
 62
     7
 10
50.0
 20
277.4999999998808
 30
0.0
 11
50.0
 21
240.49999999988091
 31
0.0
  0
LINE
  5
14C
  8
DATA
  6
CONTINUOUS
 62
     7
 10
-147.0
 20
280.49999999988091
 30
0.0
 11
-143.46000000000001
 21
280.49999999988091
 31
0.0
  0
LINE
  5
14D
  8
DATA
  6
CONTINUOUS
 62
     7
 10
43.460000000000001
 20
280.49999999988091
 30
0.0
 11
46.999999999999993
 21
280.49999999988091
 31
0.0
  0
LINE
  5
14E
  8
DATA
  6
CONTINUOUS
 62
     7
 10
-150.0
 20
240.49999999988091
 30
0.0
 11
-150.0
 21
277.4999999998808
 31
0.0
  0
LINE
  5
14F
  8
DATA
  6
CONTINUOUS
 62
     7
 10
46.999999999999993
 20
237.4999999998808
 30
0.0
 11
37.579388173637241
 21
237.4999999998808
 31
0.0
  0
LINE
  5
150
  8
DATA
  6
CONTINUOUS
 62
     7
 10
26.57938817363727
 20
237.4999999998808
 30
0.0
 11
-103.45629943224
 21
237.4999999998808
 31
0.0
  0
LINE
  5
151
  8
DATA
  6
CONTINUOUS
 62
     7
 10
-114.4562994322399
 20
237.4999999998808
 30
0.0
 11
-147.0
 21
237.4999999998808
 31
0.0
  0
LINE
  5
152
  8
DATA
  6
CONTINUOUS
 62
     7
 10
40.69999999999996
 20
281.4999999998808
 30
0.0
 11
29.300000000000001
 21
281.4999999998808
 31
0.0
  0
ARC
  5
153
  8
DATA
  6
CONTINUOUS
 62
     7
 10
46.999999999999993
 20
240.49999999988091
 30
0.0
 40
3.0
 50
270.0
 51
0.0
  0
ARC
  5
154
  8
DATA
  6
CONTINUOUS
 62
     7
 10
46.999999999999993
 20
277.4999999998808
 30
0.0
 40
3.0
 50
0.0
 51
90.0
  0
ARC
  5
155
  8
DATA
  6
CONTINUOUS
 62
     7
 10
-147.0
 20
240.49999999988091
 30
0.0
 40
3.0
 50
180.0
 51
270.0
  0
ARC
  5
156
  8
DATA
  6
CONTINUOUS
 62
     7
 10
-147.0
 20
277.4999999998808
 30
0.0
 40
3.0
 50
90.0
 51
180.0
  0
LINE
  5
157
  8
DATA
  6
CONTINUOUS
 62
     7
 10
5.0
 20
84.0
 30
0.0
 11
5.0
 21
-28.0
 31
0.0
  0
LINE
  5
158
  8
DATA
  6
CONTINUOUS
 62
     7
 10
-105.0
 20
-28.0
 30
0.0
 11
-105.0
 21
84.0
 31
0.0
  0
POLYLINE
  5
159
  8
DATA
  6
CONTINUOUS
 62
     7
 66
     1
 10
0.0
 20
0.0
 30
0.0
  0
VERTEX
  5
414
  8
DATA
  6
CONTINUOUS
 62
     7
 10
-114.9562994322399
 20
269.14238392827269
 30
0.0
  0
VERTEX
  5
415
  8
DATA
  6
CONTINUOUS
 62
     7
 10
-115.9971442644558
 20
268.54145188420819
 30
0.0
  0
VERTEX
  5
416
  8
DATA
  6
CONTINUOUS
 62
     7
 10
-115.9971442644558
 20
260.45854811555353
 30
0.0
  0
VERTEX
  5
417
  8
DATA
  6
CONTINUOUS
 62
     7
 10
-114.9562994322399
 20
259.85761607148902
 30
0.0
  0
SEQEND
  5
418
  8
DATA
  6
CONTINUOUS
 62
     7
  0
POLYLINE
  5
160
  8
DATA
  6
CONTINUOUS
 62
     7
 66
     1
 10
0.0
 20
0.0
 30
0.0
  0
VERTEX
  5
419
  8
DATA
  6
CONTINUOUS
 62
     7
 10
-112.77603430021399
 20
258.59883941060912
 30
0.0
  0
VERTEX
  5
41A
  8
DATA
  6
CONTINUOUS
 62
     7
 10
-108.9971442644557
 20
256.41709623122608
 30
0.0
  0
VERTEX
  5
41B
  8
DATA
  6
CONTINUOUS
 62
     7
 10
-105.2182542286975
 20
258.59883941060912
 30
0.0
  0
SEQEND
  5
41C
  8
DATA
  6
CONTINUOUS
 62
     7
  0
POLYLINE
  5
166
  8
DATA
  6
CONTINUOUS
 62
     7
 66
     1
 10
0.0
 20
0.0
 30
0.0
  0
VERTEX
  5
41D
  8
DATA
  6
CONTINUOUS
 62
     7
 10
-102.95629943224
 20
259.90477962123862
 30
0.0
  0
VERTEX
  5
41E
  8
DATA
  6
CONTINUOUS
 62
     7
 10
-101.9971442644557
 20
260.45854811555353
 30
0.0
  0
VERTEX
  5
41F
  8
DATA
  6
CONTINUOUS
 62
     7
 10
-101.9971442644557
 20
268.54145188420819
 30
0.0
  0
VERTEX
  5
420
  8
DATA
  6
CONTINUOUS
 62
     7
 10
-102.95629943224
 20
269.09522037852309
 30
0.0
  0
SEQEND
  5
421
  8
DATA
  6
CONTINUOUS
 62
     7
  0
POLYLINE
  5
16D
  8
DATA
  6
CONTINUOUS
 62
     7
 66
     1
 10
0.0
 20
0.0
 30
0.0
  0
VERTEX
  5
422
  8
DATA
  6
CONTINUOUS
 62
     7
 10
-103.8285931834716
 20
269.59883941060912
 30
0.0
  0
VERTEX
  5
423
  8
DATA
  6
CONTINUOUS
 62
     7
 10
-108.9971442644557
 20
272.58290376853557
 30
0.0
  0
VERTEX
  5
424
  8
DATA
  6
CONTINUOUS
 62
     7
 10
-114.1656953454399
 20
269.59883941060912
 30
0.0
  0
SEQEND
  5
425
  8
DATA
  6
CONTINUOUS
 62
     7
  0
POLYLINE
  5
173
  8
DATA
  6
CONTINUOUS
 62
     7
 66
     1
 10
0.0
 20
0.0
 30
0.0
  0
VERTEX
  5
426
  8
DATA
  6
CONTINUOUS
 62
     7
 10
26.07938817363727
 20
269.16697611374838
 30
0.0
  0
VERTEX
  5
427
  8
DATA
  6
CONTINUOUS
 62
     7
 10
24.995948426708381
 20
268.54145188420819
 30
0.0
  0
VERTEX
  5
428
  8
DATA
  6
CONTINUOUS
 62
     7
 10
24.995948426708381
 20
260.45854811555353
 30
0.0
  0
VERTEX
  5
429
  8
DATA
  6
CONTINUOUS
 62
     7
 10
26.07938817363727
 20
259.83302388601328
 30
0.0
  0
SEQEND
  5
42A
  8
DATA
  6
CONTINUOUS
 62
     7
  0
POLYLINE
  5
17A
  8
DATA
  6
CONTINUOUS
 62
     7
 66
     1
 10
0.0
 20
0.0
 30
0.0
  0
VERTEX
  5
42B
  8
DATA
  6
CONTINUOUS
 62
     7
 10
28.217058390950129
 20
258.59883941060912
 30
0.0
  0
VERTEX
  5
42C
  8
DATA
  6
CONTINUOUS
 62
     7
 10
31.995948426708381
 20
256.41709623122608
 30
0.0
  0
VERTEX
  5
42D
  8
DATA
  6
CONTINUOUS
 62
     7
 10
35.774838462466647
 20
258.59883941060912
 30
0.0
  0
SEQEND
  5
42E
  8
DATA
  6
CONTINUOUS
 62
     7
  0
POLYLINE
  5
180
  8
DATA
  6
CONTINUOUS
 62
     7
 66
     1
 10
0.0
 20
0.0
 30
0.0
  0
VERTEX
  5
42F
  8
DATA
  6
CONTINUOUS
 62
     7
 10
38.079388173637248
 20
259.92937180671441
 30
0.0
  0
VERTEX
  5
430
  8
DATA
  6
CONTINUOUS
 62
     7
 10
38.995948426708381
 20
260.45854811555353
 30
0.0
  0
VERTEX
  5
431
  8
DATA
  6
CONTINUOUS
 62
     7
 10
38.995948426708381
 20
268.54145188420819
 30
0.0
  0
VERTEX
  5
432
  8
DATA
  6
CONTINUOUS
 62
     7
 10
38.079388173637241
 20
269.07062819304741
 30
0.0
  0
SEQEND
  5
433
  8
DATA
  6
CONTINUOUS
 62
     7
  0
POLYLINE
  5
187
  8
DATA
  6
CONTINUOUS
 62
     7
 66
     1
 10
0.0
 20
0.0
 30
0.0
  0
VERTEX
  5
434
  8
DATA
  6
CONTINUOUS
 62
     7
 10
37.164499507692497
 20
269.59883941060912
 30
0.0
  0
VERTEX
  5
435
  8
DATA
  6
CONTINUOUS
 62
     7
 10
31.995948426708381
 20
272.58290376853557
 30
0.0
  0
VERTEX
  5
436
  8
DATA
  6
CONTINUOUS
 62
     7
 10
26.827397345724268
 20
269.59883941060912
 30
0.0
  0
SEQEND
  5
437
  8
DATA
  6
CONTINUOUS
 62
     7
  0
TEXT
  5
18D
  8
DATA
 62
     7
 10
-101.2973443814811
 20
276.62791735022472
 30
0.0
 40
2.7147352430555549
  1
ANTENNA A
 50
180.0
 41
0.7
 11
-101.2973443814811
 21
273.91318210716918
 31
0.0
 73
     3
  0
TEXT
  5
18E
  8
DATA
 62
     7
 10
39.69574830968304
 20
276.62791735022472
 30
0.0
 40
2.7147352430555549
  1
ANTENNA B
 50
180.0
 41
0.7
 11
39.69574830968304
 21
273.91318210716918
 31
0.0
 73
     3
  0
POLYLINE
  5
18F
  8
DATA
  6
CONTINUOUS
 62
     7
 66
     1
 10
0.0
 20
0.0
 30
0.0
 70
     1
  0
VERTEX
  5
438
  8
DATA
  6
CONTINUOUS
 62
     7
 10
-132.04065993373209
 20
263.49862830121282
 30
0.0
  0
VERTEX
  5
439
  8
DATA
  6
CONTINUOUS
 62
     7
 10
-136.0813198674642
 20
256.4999999998808
 30
0.0
  0
VERTEX
  5
43A
  8
DATA
  6
CONTINUOUS
 62
     7
 10
-132.04065993373209
 20
249.50137169854889
 30
0.0
  0
VERTEX
  5
43B
  8
DATA
  6
CONTINUOUS
 62
     7
 10
-123.9593400662679
 20
249.50137169854889
 30
0.0
  0
VERTEX
  5
43C
  8
DATA
  6
CONTINUOUS
 62
     7
 10
-119.9186801325358
 20
256.4999999998808
 30
0.0
  0
VERTEX
  5
43D
  8
DATA
  6
CONTINUOUS
 62
     7
 10
-123.9593400662679
 20
263.49862830121282
 30
0.0
  0
SEQEND
  5
43E
  8
DATA
  6
CONTINUOUS
 62
     7
  0
CIRCLE
  5
198
  8
DATA
  6
CONTINUOUS
 62
     7
 10
-128.0
 20
256.4999999998808
 30
0.0
 40
3.75
  0
CIRCLE
  5
199
  8
DATA
  6
CONTINUOUS
 62
     7
 10
-128.0
 20
256.4999999998808
 30
0.0
 40
0.5
  0
TEXT
  5
19A
  8
DATA
 62
     7
 10
-123.513694671042
 20
267.3126451866878
 30
0.0
 40
2.7147352430555549
  1
DC IN
 50
180.0
 41
0.7
 11
-123.513694671042
 21
264.5979099436322
 31
0.0
 73
     3
  0
TEXT
  5
19B
  8
DATA
 62
     7
 10
-120.3627248815573
 20
270.93774657311423
 30
0.0
 40
2.7147352430555549
  1
12v 500mA
 50
180.0
 41
0.7
 11
-120.3627248815573
 21
268.22301133005863
 31
0.0
 73
     3
  0
LINE
  5
19C
  8
DATA
  6
CONTINUOUS
 62
     7
 10
-122.0
 20
272.3401062413198
 30
0.0
 11
-134.0
 21
272.3401062413198
 31
0.0
  0
LINE
  5
19D
  8
DATA
  6
CONTINUOUS
 62
     7
 10
-122.0
 20
273.72245103464689
 30
0.0
 11
-134.0
 21
273.72245103464689
 31
0.0
  0
ARC
  5
19E
  8
DATA
  6
CONTINUOUS
 62
     7
 10
-128.0022822643447
 20
276.12245103464687
 30
0.0
 40
1.425729287066815
 50
270.0
 51
90.0
  0
CIRCLE
  5
19F
  8
DATA
  6
CONTINUOUS
 62
     7
 10
-128.0022822643447
 20
276.12245103464687
 30
0.0
 40
0.8481886582595022
  0
TEXT
  5
1A0
  8
DATA
 62
     7
 10
-131.0264021023699
 20
277.13117351327941
 30
0.0
 40
2.1717881944444439
  1
+
 50
180.0
 41
0.7
 11
-131.0264021023699
 21
274.95938531883502
 31
0.0
 73
     3
  0
LINE
  5
1A1
  8
DATA
  6
CONTINUOUS
 62
     7
 10
-128.85047092260419
 20
276.12245103464687
 30
0.0
 11
-130.1541538786108
 21
276.12245103464687
 31
0.0
  0
LINE
  5
1A2
  8
DATA
  6
CONTINUOUS
 62
     7
 10
-126.5765529772778
 20
276.12245103464687
 30
0.0
 11
-125.2956926647183
 21
276.12245103464687
 31
0.0
  0
TEXT
  5
1A3
  8
DATA
 62
     7
 10
-122.7568567604872
 20
277.13956214575808
 30
0.0
 40
2.1717881944444439
  1
-
 50
180.0
 41
0.7
 11
-122.7568567604872
 21
274.96777395131357
 31
0.0
 73
     3
  0
LINE
  5
1A4
  8
DATA
  6
CONTINUOUS
 62
     7
 10
43.460000000000001
 20
242.69999999988079
 30
0.0
 11
37.579388173637241
 21
242.69999999988079
 31
0.0
  0
LINE
  5
1A5
  8
DATA
  6
CONTINUOUS
 62
     7
 10
26.57938817363727
 20
242.69999999988079
 30
0.0
 11
-103.45629943224
 21
242.69999999988079
 31
0.0
  0
LINE
  5
1A6
  8
DATA
  6
CONTINUOUS
 62
     7
 10
-114.4562994322399
 20
242.69999999988079
 30
0.0
 11
-143.46000000000001
 21
242.69999999988079
 31
0.0
  0
LINE
  5
1A7
  8
DATA
  6
CONTINUOUS
 62
     7
 10
43.460000000000001
 20
242.69999999988079
 30
0.0
 11
43.460000000000001
 21
280.49999999988091
 31
0.0
  0
LINE
  5
1A8
  8
DATA
  6
CONTINUOUS
 62
     7
 10
-143.46000000000001
 20
242.69999999988079
 30
0.0
 11
-143.46000000000001
 21
280.49999999988091
 31
0.0
  0
LINE
  5
1A9
  8
DATA
  6
CONTINUOUS
 62
     7
 10
43.460000000000001
 20
278.49999999988091
 30
0.0
 11
-143.46000000000001
 21
278.49999999988091
 31
0.0
  0
LINE
  5
1AA
  8
DATA
  6
CONTINUOUS
 62
     7
 10
43.460000000000001
 20
242.69999999988079
 30
0.0
 11
48.926136028426598
 21
238.19999999988079
 31
0.0
  0
LINE
  5
1AB
  8
DATA
  6
CONTINUOUS
 62
     7
 10
-143.46000000000009
 20
242.69999999988079
 30
0.0
 11
-148.9261360284267
 21
238.19999999988079
 31
0.0
  0
LINE
  5
1AC
  8
DATA
  6
CONTINUOUS
 62
     7
 10
40.69999999999996
 20
281.4999999998808
 30
0.0
 11
41.600000000000009
 21
278.49999999988091
 31
0.0
  0
LINE
  5
1AD
  8
DATA
  6
CONTINUOUS
 62
     7
 10
29.300000000000001
 20
281.4999999998808
 30
0.0
 11
28.549999999999969
 21
278.49999999988091
 31
0.0
  0
LINE
  5
1AE
  8
DATA
  6
CONTINUOUS
 62
     7
 10
-140.69999999999999
 20
281.4999999998808
 30
0.0
 11
-129.3000000000001
 21
281.4999999998808
 31
0.0
  0
LINE
  5
1AF
  8
DATA
  6
CONTINUOUS
 62
     7
 10
-140.69999999999999
 20
281.4999999998808
 30
0.0
 11
-141.60000000000011
 21
278.49999999988091
 31
0.0
  0
LINE
  5
1B0
  8
DATA
  6
CONTINUOUS
 62
     7
 10
-129.3000000000001
 20
281.4999999998808
 30
0.0
 11
-128.55000000000001
 21
278.49999999988091
 31
0.0
  0
CIRCLE
  5
1B1
  8
DATA
  6
CONTINUOUS
 62
     7
 10
-63.000000000000021
 20
255.7666731976106
 30
0.0
 40
11.0
  0
CIRCLE
  5
1B2
  8
DATA
  6
CONTINUOUS
 62
     7
 10
-63.000000000000021
 20
255.7666731976106
 30
0.0
 40
8.25
  0
CIRCLE
  5
1B3
  8
DATA
  6
CONTINUOUS
 62
     7
 10
-53.100505063388347
 20
245.86717826099891
 30
0.0
 40
2.4249999999999821
  0
CIRCLE
  5
1B4
  8
DATA
  6
CONTINUOUS
 62
     7
 10
-72.733326802270227
 20
265.49999999988091
 30
0.0
 40
2.4249999999999821
  0
LINE
  5
1B5
  8
DATA
  6
CONTINUOUS
 62
     7
 10
-53.100505063388347
 20
244.36717826099891
 30
0.0
 11
-53.100505063388347
 21
247.367178260999
 31
0.0
  0
LINE
  5
1B6
  8
DATA
  6
CONTINUOUS
 62
     7
 10
-51.60050506338834
 20
245.86717826099891
 30
0.0
 11
-54.600505063389292
 21
245.86717826099891
 31
0.0
  0
LINE
  5
1B7
  8
DATA
  6
CONTINUOUS
 62
     7
 10
-71.233326802270227
 20
265.49999999988091
 30
0.0
 11
-74.233326802270227
 21
265.49999999988091
 31
0.0
  0
LINE
  5
1B8
  8
DATA
  6
CONTINUOUS
 62
     7
 10
-72.733326802270227
 20
266.9999999998808
 30
0.0
 11
-72.733326802270227
 21
263.99999999988091
 31
0.0
  0
CIRCLE
  5
1B9
  8
DATA
  6
CONTINUOUS
 62
     7
 10
-63.000000000000021
 20
260.06667319761061
 30
0.0
 40
1.25
  0
CIRCLE
  5
1BA
  8
DATA
  6
CONTINUOUS
 62
     7
 10
-58.700000000000003
 20
255.7666731976106
 30
0.0
 40
1.25
  0
CIRCLE
  5
1BB
  8
DATA
  6
CONTINUOUS
 62
     7
 10
-67.300000000000026
 20
255.7666731976106
 30
0.0
 40
1.25
  0
TEXT
  5
1BC
  8
DATA
 62
     7
 10
-56.195254629544813
 20
276.62791735022472
 30
0.0
 40
2.7147352430555549
  1
BALANCED
 50
180.0
 41
0.7
 11
-56.195254629544813
 21
273.91318210716918
 31
0.0
 73
     3
  0
CIRCLE
  5
1BD
  8
DATA
  6
CONTINUOUS
 62
     7
 10
-35.000000000000007
 20
261.49999999988091
 30
0.0
 40
5.5
  0
CIRCLE
  5
1BE
  8
DATA
  6
CONTINUOUS
 62
     7
 10
-35.000000000000007
 20
261.49999999988091
 30
0.0
 40
3.1500000000000048
  0
TEXT
  5
1BF
  8
DATA
 62
     7
 10
-26.393939996562171
 20
276.62791735022472
 30
0.0
 40
2.7147352430555549
  1
UNBALANCED
 50
180.0
 41
0.7
 11
-26.393939996562171
 21
273.91318210716918
 31
0.0
 73
     3
  0
LINE
  5
1C0
  8
DATA
  6
CONTINUOUS
 62
     7
 10
-23.000000000000011
 20
276.11021290852949
 30
0.0
 11
-23.000000000000011
 21
249.11021290852949
 31
0.0
  0
LINE
  5
1C1
  8
DATA
  6
CONTINUOUS
 62
     7
 10
-47.000000000000007
 20
249.11021290852949
 30
0.0
 11
-47.000000000000007
 21
276.11021290852949
 31
0.0
  0
LINE
  5
1C2
  8
DATA
  6
CONTINUOUS
 62
     7
 10
-83.000000000000014
 20
258.59318447515318
 30
0.0
 11
-83.000000000000014
 21
262.49318447515333
 31
0.0
  0
LINE
  5
1C3
  8
DATA
  6
CONTINUOUS
 62
     7
 10
-92.800000000000026
 20
258.59318447515318
 30
0.0
 11
-92.800000000000026
 21
262.49318447515333
 31
0.0
  0
LINE
  5
1C4
  8
DATA
  6
CONTINUOUS
 62
     7
 10
-83.000000000000014
 20
258.59318447515318
 30
0.0
 11
-92.800000000000026
 21
258.59318447515318
 31
0.0
  0
LINE
  5
1C5
  8
DATA
  6
CONTINUOUS
 62
     7
 10
-83.000000000000014
 20
262.49318447515333
 30
0.0
 11
-92.800000000000026
 21
262.49318447515333
 31
0.0
  0
LINE
  5
1C6
  8
DATA
  6
CONTINUOUS
 62
     7
 10
-87.000000000000014
 20
258.59318447515318
 30
0.0
 11
-87.000000000000014
 21
262.49318447515333
 31
0.0
  0
TEXT
  5
1C7
  8
DATA
 62
     7
 10
-85.876044213582844
 20
266.04586678197842
 30
0.0
 40
2.7147352430555549
  1
dB
 50
180.0
 41
0.7
 11
-85.876044213582844
 21
263.33113153892282
 31
0.0
 73
     3
  0
TEXT
  5
1C8
  8
DATA
 62
     7
 10
-84.021314689466365
 20
257.88388888876972
 30
0.0
 40
2.7147352430555549
  1
0
 50
180.0
 41
0.7
 11
-84.021314689466365
 21
255.16915364571409
 31
0.0
 73
     3
  0
TEXT
  5
1C9
  8
DATA
 62
     7
 10
-87.850875483142744
 20
257.88388888876972
 30
0.0
 40
2.7147352430555549
  1
-30
 50
180.0
 41
0.7
 11
-87.850875483142744
 21
255.16915364571409
 31
0.0
 73
     3
  0
LINE
  5
1CA
  8
DATA
  6
CONTINUOUS
 62
     7
 10
-99.497144264455713
 20
276.12777343155369
 30
0.0
 11
-99.497144264455713
 21
249.12777343155361
 31
0.0
  0
LINE
  5
1CB
  8
DATA
  6
CONTINUOUS
 62
     7
 10
-118.4971442644557
 20
249.12777343155361
 30
0.0
 11
-118.4971442644557
 21
276.12777343155369
 31
0.0
  0
LINE
  5
1CC
  8
DATA
  6
CONTINUOUS
 62
     7
 10
50.0
 20
256.4999999998808
 30
0.0
 11
43.460000000000001
 21
256.4999999998808
 31
0.0
  0
LINE
  5
1CD
  8
DATA
  6
CONTINUOUS
 62
     7
 10
-143.46000000000001
 20
256.4999999998808
 30
0.0
 11
-150.0
 21
256.4999999998808
 31
0.0
  0
LINE
  5
1CE
  8
DATA
  6
CONTINUOUS
 62
     7
 10
-131.75
 20
88.0
 30
0.0
 11
-131.75
 21
85.0
 31
0.0
  0
LINE
  5
1CF
  8
DATA
  6
CONTINUOUS
 62
     7
 10
-124.25
 20
88.0
 30
0.0
 11
-124.25
 21
85.0
 31
0.0
  0
LINE
  5
1D0
  8
DATA
  6
CONTINUOUS
 62
     7
 10
-136.0813198674642
 20
85.0
 30
0.0
 11
-136.0813198674642
 21
84.0
 31
0.0
  0
LINE
  5
1D1
  8
DATA
  6
CONTINUOUS
 62
     7
 10
-119.9186801325358
 20
85.0
 30
0.0
 11
-119.9186801325358
 21
84.0
 31
0.0
  0
LINE
  5
1D2
  8
DATA
  6
CONTINUOUS
 62
     7
 10
-136.0813198674642
 20
85.0
 30
0.0
 11
-119.9186801325358
 21
85.0
 31
0.0
  0
LINE
  5
1D3
  8
DATA
  6
CONTINUOUS
 62
     7
 10
-131.75
 20
88.0
 30
0.0
 11
-124.25
 21
88.0
 31
0.0
  0
LINE
  5
1D4
  8
DATA
  6
CONTINUOUS
 62
     7
 10
-115.9971442644558
 20
84.500000000000014
 30
0.0
 11
-115.9971442644558
 21
84.0
 31
0.0
  0
LINE
  5
1D5
  8
DATA
  6
CONTINUOUS
 62
     7
 10
-101.9971442644557
 20
84.500000000000014
 30
0.0
 11
-101.9971442644557
 21
84.0
 31
0.0
  0
LINE
  5
1D6
  8
DATA
  6
CONTINUOUS
 62
     7
 10
-115.9971442644558
 20
84.500000000000014
 30
0.0
 11
-101.9971442644557
 21
84.500000000000014
 31
0.0
  0
LINE
  5
1D7
  8
DATA
  6
CONTINUOUS
 62
     7
 10
-115.1971442644558
 20
90.5
 30
0.0
 11
-102.7971442644555
 21
90.5
 31
0.0
  0
LINE
  5
1D8
  8
DATA
  6
CONTINUOUS
 62
     7
 10
-115.1971442644558
 20
90.5
 30
0.0
 11
-115.1971442644558
 21
84.500000000000014
 31
0.0
  0
LINE
  5
1D9
  8
DATA
  6
CONTINUOUS
 62
     7
 10
-102.7971442644555
 20
90.5
 30
0.0
 11
-102.7971442644555
 21
84.500000000000014
 31
0.0
  0
LINE
  5
1DA
  8
DATA
  6
CONTINUOUS
 62
     7
 10
-108.9971442644557
 20
84.500000000000014
 30
0.0
 11
-108.9971442644557
 21
84.0
 31
0.0
  0
LINE
  5
1DB
  8
DATA
  6
CONTINUOUS
 62
     7
 10
26.15285573554414
 20
92.75
 30
0.0
 11
26.15285573554414
 21
90.5
 31
0.0
  0
LINE
  5
1DC
  8
DATA
  6
CONTINUOUS
 62
     7
 10
35.852855735544402
 20
92.75
 30
0.0
 11
35.852855735544402
 21
90.5
 31
0.0
  0
LINE
  5
1DD
  8
DATA
  6
CONTINUOUS
 62
     7
 10
24.002855735544141
 20
84.500000000000014
 30
0.0
 11
24.002855735544141
 21
84.0
 31
0.0
  0
LINE
  5
1DE
  8
DATA
  6
CONTINUOUS
 62
     7
 10
38.002855735544287
 20
84.500000000000014
 30
0.0
 11
38.002855735544287
 21
84.0
 31
0.0
  0
LINE
  5
1DF
  8
DATA
  6
CONTINUOUS
 62
     7
 10
24.002855735544141
 20
84.500000000000014
 30
0.0
 11
38.002855735544287
 21
84.500000000000014
 31
0.0
  0
LINE
  5
1E0
  8
DATA
  6
CONTINUOUS
 62
     7
 10
24.802855735544131
 20
90.5
 30
0.0
 11
37.202855735544453
 21
90.5
 31
0.0
  0
LINE
  5
1E1
  8
DATA
  6
CONTINUOUS
 62
     7
 10
24.802855735544131
 20
90.5
 30
0.0
 11
24.802855735544131
 21
84.500000000000014
 31
0.0
  0
LINE
  5
1E2
  8
DATA
  6
CONTINUOUS
 62
     7
 10
37.202855735544453
 20
90.5
 30
0.0
 11
37.202855735544453
 21
84.500000000000014
 31
0.0
  0
LINE
  5
1E3
  8
DATA
  6
CONTINUOUS
 62
     7
 10
31.00285573554423
 20
84.500000000000014
 30
0.0
 11
31.00285573554423
 21
84.0
 31
0.0
  0
LINE
  5
1E4
  8
DATA
  6
CONTINUOUS
 62
     7
 10
-83.000000000000014
 20
84.349320452690222
 30
0.0
 11
-83.000000000000014
 21
84.0
 31
0.0
  0
LINE
  5
1E5
  8
DATA
  6
CONTINUOUS
 62
     7
 10
-87.000000000000014
 20
84.349320452690222
 30
0.0
 11
-87.000000000000014
 21
84.0
 31
0.0
  0
LINE
  5
1E6
  8
DATA
  6
CONTINUOUS
 62
     7
 10
-87.000000000000014
 20
84.349320452690222
 30
0.0
 11
-83.000000000000014
 21
84.349320452690222
 31
0.0
  0
LINE
  5
1E7
  8
DATA
  6
CONTINUOUS
 62
     7
 10
342.74999999990342
 20
-191.60606030943879
 30
0.0
 11
340.50000000024909
 21
-191.60606030943879
 31
0.0
  0
LINE
  5
1E8
  8
DATA
  6
CONTINUOUS
 62
     7
 10
342.74999999990342
 20
-201.30606030943909
 30
0.0
 11
340.50000000024909
 21
-201.30606030943909
 31
0.0
  0
LINE
  5
1E9
  8
DATA
  6
CONTINUOUS
 62
     7
 10
334.50000000024909
 20
-189.45606030943881
 30
0.0
 11
334.00000000024909
 21
-189.45606030943881
 31
0.0
  0
LINE
  5
1EA
  8
DATA
  6
CONTINUOUS
 62
     7
 10
334.50000000024909
 20
-203.4560603094389
 30
0.0
 11
334.00000000024909
 21
-203.4560603094389
 31
0.0
  0
LINE
  5
1EB
  8
DATA
  6
CONTINUOUS
 62
     7
 10
334.50000000024909
 20
-189.45606030943881
 30
0.0
 11
334.50000000024909
 21
-203.4560603094389
 31
0.0
  0
LINE
  5
1EC
  8
DATA
  6
CONTINUOUS
 62
     7
 10
340.50000000024909
 20
-190.25606030943871
 30
0.0
 11
340.50000000024909
 21
-202.65606030943911
 31
0.0
  0
LINE
  5
1ED
  8
DATA
  6
CONTINUOUS
 62
     7
 10
340.50000000024909
 20
-190.25606030943871
 30
0.0
 11
334.50000000024909
 21
-190.25606030943871
 31
0.0
  0
LINE
  5
1EE
  8
DATA
  6
CONTINUOUS
 62
     7
 10
340.50000000024909
 20
-202.65606030943911
 30
0.0
 11
334.50000000024909
 21
-202.65606030943911
 31
0.0
  0
LINE
  5
1EF
  8
DATA
  6
CONTINUOUS
 62
     7
 10
334.50000000024909
 20
-196.4560603094389
 30
0.0
 11
334.00000000024909
 21
-196.4560603094389
 31
0.0
  0
LINE
  5
1F0
  8
DATA
  6
CONTINUOUS
 62
     7
 10
222.0
 20
-169.5
 30
0.0
 11
334.0
 21
-169.5
 31
0.0
  0
LINE
  5
1F1
  8
DATA
  6
CONTINUOUS
 62
     7
 10
222.0
 20
-189.5
 30
0.0
 11
334.0
 21
-189.5
 31
0.0
  0
LINE
  5
1F2
  8
DATA
  6
CONTINUOUS
 62
     7
 10
222.0
 20
-193.30000000000001
 30
0.0
 11
334.0
 21
-193.30000000000001
 31
0.0
  0
LINE
  5
1F3
  8
DATA
  6
CONTINUOUS
 62
     7
 10
222.0
 20
-169.5
 30
0.0
 11
222.0
 21
-212.5
 31
0.0
  0
CIRCLE
  5
1F4
  8
DATA
  6
CONTINUOUS
 62
     7
 10
307.0
 20
-181.90000000000001
 30
0.0
 40
6.0
  0
CIRCLE
  5
1F5
  8
DATA
  6
CONTINUOUS
 62
     7
 10
242.0
 20
-181.90000000000001
 30
0.0
 40
6.0
  0
CIRCLE
  5
1F6
  8
DATA
  6
CONTINUOUS
 62
     7
 10
242.0
 20
-181.90000000000001
 30
0.0
 40
2.6999999999999882
  0
LINE
  5
1F7
  8
DATA
  6
CONTINUOUS
 62
     7
 10
240.17557314936079
 20
-181.90000000000001
 30
0.0
 11
243.82442685063921
 21
-181.90000000000001
 31
0.0
  0
LINE
  5
1F8
  8
DATA
  6
CONTINUOUS
 62
     7
 10
242.0
 20
-183.72442685063919
 30
0.0
 11
242.0
 21
-180.07557314936071
 31
0.0
  0
CIRCLE
  5
1F9
  8
DATA
  6
CONTINUOUS
 62
     7
 10
307.0
 20
-181.90000000000001
 30
0.0
 40
2.6999999999999882
  0
LINE
  5
1FA
  8
DATA
  6
CONTINUOUS
 62
     7
 10
305.17557314936079
 20
-181.90000000000001
 30
0.0
 11
308.82442685063921
 21
-181.90000000000001
 31
0.0
  0
LINE
  5
1FB
  8
DATA
  6
CONTINUOUS
 62
     7
 10
307.0
 20
-183.72442685063919
 30
0.0
 11
307.0
 21
-180.07557314936071
 31
0.0
  0
LINE
  5
1FC
  8
DATA
  6
CONTINUOUS
 62
     7
 10
298.30000000000001
 20
-213.5
 30
0.0
 11
316.69999999999999
 21
-213.5
 31
0.0
  0
LINE
  5
1FD
  8
DATA
  6
CONTINUOUS
 62
     7
 10
298.30000000000001
 20
-213.5
 30
0.0
 11
298.0
 21
-212.5
 31
0.0
  0
LINE
  5
1FE
  8
DATA
  6
CONTINUOUS
 62
     7
 10
317.0
 20
-212.5
 30
0.0
 11
316.69999999999999
 21
-213.5
 31
0.0
  0
LINE
  5
1FF
  8
DATA
  6
CONTINUOUS
 62
     7
 10
234.30000000000001
 20
-213.5
 30
0.0
 11
252.69999999999999
 21
-213.5
 31
0.0
  0
LINE
  5
200
  8
DATA
  6
CONTINUOUS
 62
     7
 10
234.30000000000001
 20
-213.5
 30
0.0
 11
234.0
 21
-212.5
 31
0.0
  0
LINE
  5
201
  8
DATA
  6
CONTINUOUS
 62
     7
 10
253.0
 20
-212.5
 30
0.0
 11
252.69999999999999
 21
-213.5
 31
0.0
  0
LINE
  5
202
  8
DATA
  6
CONTINUOUS
 62
     7
 10
317.39999999999998
 20
-207.69999999999999
 30
0.0
 11
317.39999999999998
 21
-210.55000000000001
 31
0.0
  0
LINE
  5
203
  8
DATA
  6
CONTINUOUS
 62
     7
 10
297.39999999999998
 20
-207.69999999999999
 30
0.0
 11
297.39999999999998
 21
-210.55000000000001
 31
0.0
  0
LINE
  5
204
  8
DATA
  6
CONTINUOUS
 62
     7
 10
297.39999999999998
 20
-207.69999999999999
 30
0.0
 11
317.39999999999998
 21
-207.69999999999999
 31
0.0
  0
LINE
  5
205
  8
DATA
  6
CONTINUOUS
 62
     7
 10
297.39999999999998
 20
-210.55000000000001
 30
0.0
 11
317.39999999999998
 21
-210.55000000000001
 31
0.0
  0
LINE
  5
206
  8
DATA
  6
CONTINUOUS
 62
     7
 10
252.40000000000001
 20
-207.69999999999999
 30
0.0
 11
252.40000000000001
 21
-210.55000000000001
 31
0.0
  0
LINE
  5
207
  8
DATA
  6
CONTINUOUS
 62
     7
 10
232.40000000000001
 20
-207.69999999999999
 30
0.0
 11
232.40000000000001
 21
-210.55000000000001
 31
0.0
  0
LINE
  5
208
  8
DATA
  6
CONTINUOUS
 62
     7
 10
232.40000000000001
 20
-207.69999999999999
 30
0.0
 11
252.40000000000001
 21
-207.69999999999999
 31
0.0
  0
LINE
  5
209
  8
DATA
  6
CONTINUOUS
 62
     7
 10
232.40000000000001
 20
-210.55000000000001
 30
0.0
 11
252.40000000000001
 21
-210.55000000000001
 31
0.0
  0
LINE
  5
20A
  8
DATA
  6
CONTINUOUS
 62
     7
 10
222.0
 20
-212.5
 30
0.0
 11
202.7959283355878
 21
-211.19063147742639
 31
0.0
  0
LINE
  5
20B
  8
DATA
  6
CONTINUOUS
 62
     7
 10
222.0
 20
-169.5
 30
0.0
 11
212.95739524378189
 21
-170.03433573559471
 31
0.0
  0
LINE
  5
20C
  8
DATA
  6
CONTINUOUS
 62
     7
 10
222.0
 20
-177.5
 30
0.0
 11
208.0880792815496
 21
-178.41692204735239
 31
0.0
  0
ARC
  5
20D
  8
DATA
  6
CONTINUOUS
 62
     7
 10
419.04937166369649
 20
-248.0791147686821
 30
0.0
 40
222.165451810783
 50
159.97468028537341
 51
169.98433585214971
  0
LINE
  5
20E
  8
DATA
  6
CONTINUOUS
 62
     7
 10
202.26017085659791
 20
-199.5
 30
0.0
 11
200.40000000000001
 21
-199.3337030149234
 31
0.0
  0
LINE
  5
20F
  8
DATA
  6
CONTINUOUS
 62
     7
 10
204.210658642727
 20
-191.4945288306119
 30
0.0
 11
201.12546978467739
 21
-191.2187167439609
 31
0.0
  0
LINE
  5
210
  8
DATA
  6
CONTINUOUS
 62
     7
 10
200.40000000000001
 20
-199.3337030149234
 30
0.0
 11
201.12546978467739
 21
-191.2187167439609
 31
0.0
  0
ARC
  5
211
  8
DATA
  6
CONTINUOUS
 62
     7
 10
203.0
 20
-173.62796031191661
 30
0.0
 40
3.000000000000008
 50
93.381727324276312
 51
180.0
  0
ARC
  5
212
  8
DATA
  6
CONTINUOUS
 62
     7
 10
203.0
 20
-208.19758039938179
 30
0.0
 40
3.0
 50
180.0
 51
266.09950625761797
  0
ARC
  5
213
  8
DATA
  6
CONTINUOUS
 62
     7
 10
213.13435928446799
 20
-173.02911180874349
 30
0.0
 40
3.0000000000000662
 50
93.381727324276511
 51
159.97468028537199
  0
LINE
  5
214
  8
DATA
  6
CONTINUOUS
 62
     7
 10
202.8230359593139
 20
-170.6331842387678
 30
0.0
 11
212.95739524378189
 21
-170.03433573559471
 31
0.0
  0
CIRCLE
  5
215
  8
DATA
  6
CONTINUOUS
 62
     7
 10
237.5
 20
87.5
 30
0.0
 40
6.9000000000000332
  0
CIRCLE
  5
216
  8
DATA
  6
CONTINUOUS
 62
     7
 10
237.5
 20
87.5
 30
0.0
 40
3.8250000000000162
  0
CIRCLE
  5
217
  8
DATA
  6
CONTINUOUS
 62
     7
 10
237.5
 20
87.5
 30
0.0
 40
0.5
  0
LINE
  5
218
  8
DATA
  6
CONTINUOUS
 62
     7
 10
234.5
 20
197.59999999999999
 30
0.0
 11
234.5
 21
174.2568055487917
 31
0.0
  0
LINE
  5
219
  8
DATA
  6
CONTINUOUS
 62
     7
 10
240.5
 20
197.59999999999999
 30
0.0
 11
240.5
 21
174.2568055487917
 31
0.0
  0
ARC
  5
21A
  8
DATA
  6
CONTINUOUS
 62
     7
 10
237.5
 20
197.59999999999999
 30
0.0
 40
3.0
 50
0.0
 51
180.0
  0
LINE
  5
21B
  8
DATA
  6
CONTINUOUS
 62
     7
 10
233.9679567682426
 20
166.9821060240501
 30
0.0
 11
232.5320432317574
 21
157.21789397595001
 31
0.0
  0
ARC
  5
21C
  8
DATA
  6
CONTINUOUS
 62
     7
 10
282.0
 20
149.94319445120851
 30
0.0
 40
49.999999999999972
 50
171.63411387596739
 51
180.0
  0
ARC
  5
21D
  8
DATA
  6
CONTINUOUS
 62
     7
 10
282.0
 20
149.94319445120851
 30
0.0
 40
49.999999999999972
 50
171.63411387596739
 51
180.0
  0
ARC
  5
21E
  8
DATA
  6
CONTINUOUS
 62
     7
 10
184.5
 20
174.2568055487917
 30
0.0
 40
50.0
 50
351.63411387596739
 51
0.0000000000000568
  0
LINE
  5
21F
  8
DATA
  6
CONTINUOUS
 62
     7
 10
241.0320432317574
 20
166.9821060240501
 30
0.0
 11
242.46795676824269
 21
157.21789397595001
 31
0.0
  0
ARC
  5
220
  8
DATA
  6
CONTINUOUS
 62
     7
 10
193.0
 20
149.94319445120851
 30
0.0
 40
49.999999999999972
 50
0.0
 51
8.3658861240325564
  0
ARC
  5
221
  8
DATA
  6
CONTINUOUS
 62
     7
 10
193.0
 20
149.94319445120851
 30
0.0
 40
50.0
 50
0.0
 51
8.3658861240325564
  0
ARC
  5
222
  8
DATA
  6
CONTINUOUS
 62
     7
 10
290.5
 20
174.2568055487917
 30
0.0
 40
50.0
 50
179.99999999999989
 51
188.36588612403261
  0
ARC
  5
223
  8
DATA
  6
CONTINUOUS
 62
     7
 10
237.5
 20
87.499999999999957
 30
0.0
 40
4.900000000000011
 50
192.97287815075029
 51
347.02712184924951
  0
ARC
  5
224
  8
DATA
  6
CONTINUOUS
 62
     7
 10
237.5
 20
87.499999999999957
 30
0.0
 40
4.9000000000000199
 50
12.97287815075086
 51
167.02712184924911
  0
ARC
  5
225
  8
DATA
  6
CONTINUOUS
 62
     7
 10
232.49815914655471
 20
87.5
 30
0.0
 40
1.123159146554729
 50
78.34459567426677
 51
281.65540432573317
  0
ARC
  5
226
  8
DATA
  6
CONTINUOUS
 62
     7
 10
242.50184085344529
 20
87.5
 30
0.0
 40
1.123159146554729
 50
258.34459567426683
 51
101.6554043257332
  0
LINE
  5
227
  8
DATA
  6
CONTINUOUS
 62
     7
 10
322.0
 20
197.59999999999999
 30
0.0
 11
322.0
 21
174.2568055487917
 31
0.0
  0
LINE
  5
228
  8
DATA
  6
CONTINUOUS
 62
     7
 10
328.0
 20
197.59999999999999
 30
0.0
 11
328.0
 21
174.2568055487917
 31
0.0
  0
ARC
  5
229
  8
DATA
  6
CONTINUOUS
 62
     7
 10
325.0
 20
197.59999999999999
 30
0.0
 40
3.0
 50
0.0
 51
180.0
  0
LINE
  5
22A
  8
DATA
  6
CONTINUOUS
 62
     7
 10
321.46795676824257
 20
166.9821060240501
 30
0.0
 11
320.03204323175743
 21
157.21789397595001
 31
0.0
  0
ARC
  5
22B
  8
DATA
  6
CONTINUOUS
 62
     7
 10
369.5
 20
149.94319445120851
 30
0.0
 40
49.999999999999972
 50
171.63411387596739
 51
180.0
  0
ARC
  5
22C
  8
DATA
  6
CONTINUOUS
 62
     7
 10
369.5
 20
149.94319445120851
 30
0.0
 40
49.999999999999972
 50
171.63411387596739
 51
180.0
  0
ARC
  5
22D
  8
DATA
  6
CONTINUOUS
 62
     7
 10
272.0
 20
174.2568055487917
 30
0.0
 40
50.0
 50
351.63411387596739
 51
0.0000000000000568
  0
LINE
  5
22E
  8
DATA
  6
CONTINUOUS
 62
     7
 10
328.53204323175743
 20
166.9821060240501
 30
0.0
 11
329.96795676824269
 21
157.21789397595001
 31
0.0
  0
ARC
  5
22F
  8
DATA
  6
CONTINUOUS
 62
     7
 10
280.5
 20
149.94319445120851
 30
0.0
 40
49.999999999999972
 50
0.0
 51
8.3658861240325564
  0
ARC
  5
230
  8
DATA
  6
CONTINUOUS
 62
     7
 10
280.5
 20
149.94319445120851
 30
0.0
 40
50.0
 50
0.0
 51
8.3658861240325564
  0
ARC
  5
231
  8
DATA
  6
CONTINUOUS
 62
     7
 10
378.0
 20
174.2568055487917
 30
0.0
 40
50.0
 50
179.99999999999989
 51
188.36588612403261
  0
LINE
  5
232
  8
DATA
  6
CONTINUOUS
 62
     7
 10
232.0
 20
149.94319445120851
 30
0.0
 11
232.0
 21
91.666533331199929
 31
0.0
  0
LINE
  5
233
  8
DATA
  6
CONTINUOUS
 62
     7
 10
243.0
 20
149.94319445120851
 30
0.0
 11
243.0
 21
91.666533331199929
 31
0.0
  0
LINE
  5
234
  8
DATA
  6
CONTINUOUS
 62
     7
 10
319.5
 20
149.94319445120851
 30
0.0
 11
319.5
 21
92.999999999899984
 31
0.0
  0
LINE
  5
235
  8
DATA
  6
CONTINUOUS
 62
     7
 10
330.5
 20
149.94319445120851
 30
0.0
 11
330.5
 21
92.999999999899984
 31
0.0
  0
LINE
  5
236
  8
DATA
  6
CONTINUOUS
 62
     7
 10
344.85000000000002
 20
94.400000000000006
 30
0.0
 11
347.25
 21
94.400000000000006
 31
0.0
  0
LINE
  5
237
  8
DATA
  6
CONTINUOUS
 62
     7
 10
344.85000000000002
 20
80.59999999999998
 30
0.0
 11
347.25
 21
80.59999999999998
 31
0.0
  0
LINE
  5
238
  8
DATA
  6
CONTINUOUS
 62
     7
 10
232.0
 20
110.59999999999999
 30
0.0
 11
243.0
 21
110.59999999999999
 31
0.0
  0
LINE
  5
239
  8
DATA
  6
CONTINUOUS
 62
     7
 10
319.5
 20
110.59999999999999
 30
0.0
 11
330.5
 21
110.59999999999999
 31
0.0
  0
LINE
  5
23A
  8
DATA
  6
CONTINUOUS
 62
     7
 10
319.0
 20
81.999999999899984
 30
0.0
 11
319.0
 21
92.999999999899984
 31
0.0
  0
LINE
  5
23B
  8
DATA
  6
CONTINUOUS
 62
     7
 10
319.0
 20
81.999999999899984
 30
0.0
 11
331.0
 21
81.999999999899984
 31
0.0
  0
LINE
  5
23C
  8
DATA
  6
CONTINUOUS
 62
     7
 10
319.0
 20
92.999999999899984
 30
0.0
 11
331.0
 21
92.999999999899984
 31
0.0
  0
LINE
  5
23D
  8
DATA
  6
CONTINUOUS
 62
     7
 10
347.25
 20
80.59999999999998
 30
0.0
 11
347.25
 21
94.400000000000006
 31
0.0
  0
LINE
  5
23E
  8
DATA
  6
CONTINUOUS
 62
     7
 10
331.0
 20
81.999999999899984
 30
0.0
 11
331.0
 21
92.999999999899984
 31
0.0
  0
ARC
  5
23F
  8
DATA
  6
CONTINUOUS
 62
     7
 10
329.8333333333332
 20
87.499999999899984
 30
0.0
 40
10.83333333333327
 50
149.48976259388419
 51
210.51023740611569
  0
ARC
  5
240
  8
DATA
  6
CONTINUOUS
 62
     7
 10
320.16666666666669
 20
87.499999999899984
 30
0.0
 40
10.83333333333324
 50
329.48976259388422
 51
30.510237406115891
  0
LINE
  5
241
  8
DATA
  6
CONTINUOUS
 62
     7
 10
344.85000000000002
 20
80.59999999999998
 30
0.0
 11
344.85000000000002
 21
94.400000000000006
 31
0.0
  0
LINE
  5
242
  8
DATA
  6
CONTINUOUS
 62
     7
 10
344.85000000000002
 20
81.799999999999969
 30
0.0
 11
339.14999999999998
 21
81.799999999999969
 31
0.0
  0
LINE
  5
243
  8
DATA
  6
CONTINUOUS
 62
     7
 10
339.14999999999998
 20
93.200000000000003
 30
0.0
 11
344.85000000000002
 21
93.200000000000003
 31
0.0
  0
LINE
  5
244
  8
DATA
  6
CONTINUOUS
 62
     7
 10
339.14999999999998
 20
80.59999999999998
 30
0.0
 11
339.14999999999998
 21
94.400000000000006
 31
0.0
  0
LINE
  5
245
  8
DATA
  6
CONTINUOUS
 62
     7
 10
334.42000000000002
 20
80.59999999999998
 30
0.0
 11
334.42000000000002
 21
94.400000000000006
 31
0.0
  0
LINE
  5
246
  8
DATA
  6
CONTINUOUS
 62
     7
 10
334.42000000000002
 20
94.400000000000006
 30
0.0
 11
339.14999999999998
 21
94.400000000000006
 31
0.0
  0
LINE
  5
247
  8
DATA
  6
CONTINUOUS
 62
     7
 10
334.42000000000002
 20
80.59999999999998
 30
0.0
 11
339.14999999999998
 21
80.59999999999998
 31
0.0
  0
LINE
  5
248
  8
DATA
  6
CONTINUOUS
 62
     7
 10
331.0
 20
92.779999999900014
 30
0.0
 11
334.42000000000002
 21
92.779999999900014
 31
0.0
  0
LINE
  5
249
  8
DATA
  6
CONTINUOUS
 62
     7
 10
331.0
 20
82.219999999899983
 30
0.0
 11
334.42000000000002
 21
82.219999999899983
 31
0.0
  0
LINE
  5
24A
  8
DATA
  6
CONTINUOUS
 62
     7
 10
334.42000000000002
 20
93.700000000000003
 30
0.0
 11
339.14999999999998
 21
93.700000000000003
 31
0.0
  0
LINE
  5
24B
  8
DATA
  6
CONTINUOUS
 62
     7
 10
334.42000000000002
 20
93.0
 30
0.0
 11
339.14999999999998
 21
93.0
 31
0.0
  0
LINE
  5
24C
  8
DATA
  6
CONTINUOUS
 62
     7
 10
334.42000000000002
 20
92.299999999999997
 30
0.0
 11
339.14999999999998
 21
92.299999999999997
 31
0.0
  0
LINE
  5
24D
  8
DATA
  6
CONTINUOUS
 62
     7
 10
334.42000000000002
 20
91.600000000000009
 30
0.0
 11
339.14999999999998
 21
91.600000000000009
 31
0.0
  0
LINE
  5
24E
  8
DATA
  6
CONTINUOUS
 62
     7
 10
334.42000000000002
 20
90.900000000000006
 30
0.0
 11
339.14999999999998
 21
90.900000000000006
 31
0.0
  0
LINE
  5
24F
  8
DATA
  6
CONTINUOUS
 62
     7
 10
334.42000000000002
 20
90.200000000000017
 30
0.0
 11
339.14999999999998
 21
90.200000000000017
 31
0.0
  0
LINE
  5
250
  8
DATA
  6
CONTINUOUS
 62
     7
 10
334.42000000000002
 20
89.500000000000014
 30
0.0
 11
339.14999999999998
 21
89.500000000000014
 31
0.0
  0
LINE
  5
251
  8
DATA
  6
CONTINUOUS
 62
     7
 10
334.42000000000002
 20
88.800000000000026
 30
0.0
 11
339.14999999999998
 21
88.800000000000026
 31
0.0
  0
LINE
  5
252
  8
DATA
  6
CONTINUOUS
 62
     7
 10
334.42000000000002
 20
88.100000000000023
 30
0.0
 11
339.14999999999998
 21
88.100000000000023
 31
0.0
  0
LINE
  5
253
  8
DATA
  6
CONTINUOUS
 62
     7
 10
334.42000000000002
 20
87.400000000000006
 30
0.0
 11
339.14999999999998
 21
87.400000000000006
 31
0.0
  0
LINE
  5
254
  8
DATA
  6
CONTINUOUS
 62
     7
 10
334.42000000000002
 20
86.699999999999989
 30
0.0
 11
339.14999999999998
 21
86.699999999999989
 31
0.0
  0
LINE
  5
255
  8
DATA
  6
CONTINUOUS
 62
     7
 10
334.42000000000002
 20
86.0
 30
0.0
 11
339.14999999999998
 21
86.0
 31
0.0
  0
LINE
  5
256
  8
DATA
  6
CONTINUOUS
 62
     7
 10
334.42000000000002
 20
85.300000000000026
 30
0.0
 11
339.14999999999998
 21
85.300000000000026
 31
0.0
  0
LINE
  5
257
  8
DATA
  6
CONTINUOUS
 62
     7
 10
334.42000000000002
 20
84.600000000000023
 30
0.0
 11
339.14999999999998
 21
84.600000000000023
 31
0.0
  0
LINE
  5
258
  8
DATA
  6
CONTINUOUS
 62
     7
 10
334.42000000000002
 20
83.900000000000006
 30
0.0
 11
339.14999999999998
 21
83.900000000000006
 31
0.0
  0
LINE
  5
259
  8
DATA
  6
CONTINUOUS
 62
     7
 10
334.42000000000002
 20
83.200000000000017
 30
0.0
 11
339.14999999999998
 21
83.200000000000017
 31
0.0
  0
LINE
  5
25A
  8
DATA
  6
CONTINUOUS
 62
     7
 10
334.42000000000002
 20
82.5
 30
0.0
 11
339.14999999999998
 21
82.5
 31
0.0
  0
LINE
  5
25B
  8
DATA
  6
CONTINUOUS
 62
     7
 10
334.42000000000002
 20
81.800000000000026
 30
0.0
 11
339.14999999999998
 21
81.800000000000026
 31
0.0
  0
LINE
  5
25C
  8
DATA
  6
CONTINUOUS
 62
     7
 10
334.42000000000002
 20
81.100000000000023
 30
0.0
 11
339.14999999999998
 21
81.100000000000023
 31
0.0
  0
LINE
  5
25D
  8
DATA
  6
CONTINUOUS
 62
     7
 10
244.40000000036611
 20
239.9000000001748
 30
0.0
 11
244.40000000036611
 21
237.50000000017479
 31
0.0
  0
LINE
  5
25E
  8
DATA
  6
CONTINUOUS
 62
     7
 10
230.60000000036609
 20
239.9000000001748
 30
0.0
 11
230.60000000036609
 21
237.50000000017479
 31
0.0
  0
LINE
  5
25F
  8
DATA
  6
CONTINUOUS
 62
     7
 10
232.00000000026611
 20
265.75000000017491
 30
0.0
 11
243.00000000026611
 21
265.75000000017491
 31
0.0
  0
LINE
  5
260
  8
DATA
  6
CONTINUOUS
 62
     7
 10
232.00000000026611
 20
265.75000000017491
 30
0.0
 11
232.00000000026611
 21
253.75000000017479
 31
0.0
  0
LINE
  5
261
  8
DATA
  6
CONTINUOUS
 62
     7
 10
243.00000000026611
 20
265.75000000017491
 30
0.0
 11
243.00000000026611
 21
253.75000000017479
 31
0.0
  0
LINE
  5
262
  8
DATA
  6
CONTINUOUS
 62
     7
 10
230.60000000036609
 20
237.50000000017479
 30
0.0
 11
244.40000000036611
 21
237.50000000017479
 31
0.0
  0
LINE
  5
263
  8
DATA
  6
CONTINUOUS
 62
     7
 10
232.00000000026611
 20
253.75000000017479
 30
0.0
 11
243.00000000026611
 21
253.75000000017479
 31
0.0
  0
ARC
  5
264
  8
DATA
  6
CONTINUOUS
 62
     7
 10
237.50000000026611
 20
254.91666666684159
 30
0.0
 40
10.83333333333327
 50
59.489762593884237
 51
120.51023740611571
  0
ARC
  5
265
  8
DATA
  6
CONTINUOUS
 62
     7
 10
237.50000000026611
 20
264.58333333350811
 30
0.0
 40
10.83333333333324
 50
239.48976259388411
 51
300.51023740611578
  0
LINE
  5
266
  8
DATA
  6
CONTINUOUS
 62
     7
 10
230.60000000036609
 20
239.9000000001748
 30
0.0
 11
244.40000000036611
 21
239.9000000001748
 31
0.0
  0
LINE
  5
267
  8
DATA
  6
CONTINUOUS
 62
     7
 10
231.8000000003662
 20
239.9000000001748
 30
0.0
 11
231.8000000003662
 21
245.6000000001749
 31
0.0
  0
LINE
  5
268
  8
DATA
  6
CONTINUOUS
 62
     7
 10
243.2000000003662
 20
245.6000000001749
 30
0.0
 11
243.2000000003662
 21
239.9000000001748
 31
0.0
  0
LINE
  5
269
  8
DATA
  6
CONTINUOUS
 62
     7
 10
230.60000000036609
 20
245.6000000001749
 30
0.0
 11
244.40000000036611
 21
245.6000000001749
 31
0.0
  0
LINE
  5
26A
  8
DATA
  6
CONTINUOUS
 62
     7
 10
230.60000000036609
 20
250.33000000017489
 30
0.0
 11
244.40000000036611
 21
250.33000000017489
 31
0.0
  0
LINE
  5
26B
  8
DATA
  6
CONTINUOUS
 62
     7
 10
244.40000000036611
 20
250.33000000017489
 30
0.0
 11
244.40000000036611
 21
245.6000000001749
 31
0.0
  0
LINE
  5
26C
  8
DATA
  6
CONTINUOUS
 62
     7
 10
230.60000000036609
 20
250.33000000017489
 30
0.0
 11
230.60000000036609
 21
245.6000000001749
 31
0.0
  0
LINE
  5
26D
  8
DATA
  6
CONTINUOUS
 62
     7
 10
242.78000000026611
 20
253.75000000017479
 30
0.0
 11
242.78000000026611
 21
250.33000000017489
 31
0.0
  0
LINE
  5
26E
  8
DATA
  6
CONTINUOUS
 62
     7
 10
232.22000000026611
 20
253.75000000017479
 30
0.0
 11
232.22000000026611
 21
250.33000000017489
 31
0.0
  0
LINE
  5
26F
  8
DATA
  6
CONTINUOUS
 62
     7
 10
243.7000000003662
 20
250.33000000017489
 30
0.0
 11
243.7000000003662
 21
245.6000000001749
 31
0.0
  0
LINE
  5
270
  8
DATA
  6
CONTINUOUS
 62
     7
 10
243.00000000036621
 20
250.33000000017489
 30
0.0
 11
243.00000000036621
 21
245.6000000001749
 31
0.0
  0
LINE
  5
271
  8
DATA
  6
CONTINUOUS
 62
     7
 10
242.3000000003662
 20
250.33000000017489
 30
0.0
 11
242.3000000003662
 21
245.6000000001749
 31
0.0
  0
LINE
  5
272
  8
DATA
  6
CONTINUOUS
 62
     7
 10
241.60000000036621
 20
250.33000000017489
 30
0.0
 11
241.60000000036621
 21
245.6000000001749
 31
0.0
  0
LINE
  5
273
  8
DATA
  6
CONTINUOUS
 62
     7
 10
240.90000000036619
 20
250.33000000017489
 30
0.0
 11
240.90000000036619
 21
245.6000000001749
 31
0.0
  0
LINE
  5
274
  8
DATA
  6
CONTINUOUS
 62
     7
 10
240.2000000003662
 20
250.33000000017489
 30
0.0
 11
240.2000000003662
 21
245.6000000001749
 31
0.0
  0
LINE
  5
275
  8
DATA
  6
CONTINUOUS
 62
     7
 10
239.50000000036621
 20
250.33000000017489
 30
0.0
 11
239.50000000036621
 21
245.6000000001749
 31
0.0
  0
LINE
  5
276
  8
DATA
  6
CONTINUOUS
 62
     7
 10
238.8000000003662
 20
250.33000000017489
 30
0.0
 11
238.8000000003662
 21
245.6000000001749
 31
0.0
  0
LINE
  5
277
  8
DATA
  6
CONTINUOUS
 62
     7
 10
238.10000000036621
 20
250.33000000017489
 30
0.0
 11
238.10000000036621
 21
245.6000000001749
 31
0.0
  0
LINE
  5
278
  8
DATA
  6
CONTINUOUS
 62
     7
 10
237.40000000036619
 20
250.33000000017489
 30
0.0
 11
237.40000000036619
 21
245.6000000001749
 31
0.0
  0
LINE
  5
279
  8
DATA
  6
CONTINUOUS
 62
     7
 10
236.7000000003662
 20
250.33000000017489
 30
0.0
 11
236.7000000003662
 21
245.6000000001749
 31
0.0
  0
LINE
  5
27A
  8
DATA
  6
CONTINUOUS
 62
     7
 10
236.00000000036621
 20
250.33000000017489
 30
0.0
 11
236.00000000036621
 21
245.6000000001749
 31
0.0
  0
LINE
  5
27B
  8
DATA
  6
CONTINUOUS
 62
     7
 10
235.3000000003662
 20
250.33000000017489
 30
0.0
 11
235.3000000003662
 21
245.6000000001749
 31
0.0
  0
LINE
  5
27C
  8
DATA
  6
CONTINUOUS
 62
     7
 10
234.60000000036621
 20
250.33000000017489
 30
0.0
 11
234.60000000036621
 21
245.6000000001749
 31
0.0
  0
LINE
  5
27D
  8
DATA
  6
CONTINUOUS
 62
     7
 10
233.90000000036611
 20
250.33000000017489
 30
0.0
 11
233.90000000036611
 21
245.6000000001749
 31
0.0
  0
LINE
  5
27E
  8
DATA
  6
CONTINUOUS
 62
     7
 10
233.2000000003662
 20
250.33000000017489
 30
0.0
 11
233.2000000003662
 21
245.6000000001749
 31
0.0
  0
LINE
  5
27F
  8
DATA
  6
CONTINUOUS
 62
     7
 10
232.50000000036621
 20
250.33000000017489
 30
0.0
 11
232.50000000036621
 21
245.6000000001749
 31
0.0
  0
LINE
  5
280
  8
DATA
  6
CONTINUOUS
 62
     7
 10
231.8000000003662
 20
250.33000000017489
 30
0.0
 11
231.8000000003662
 21
245.6000000001749
 31
0.0
  0
LINE
  5
281
  8
DATA
  6
CONTINUOUS
 62
     7
 10
231.10000000036621
 20
250.33000000017489
 30
0.0
 11
231.10000000036621
 21
245.6000000001749
 31
0.0
  0
CIRCLE
  5
282
  8
DATA
  6
CONTINUOUS
 62
     7
 10
237.5
 20
259.72355564218162
 30
0.0
 40
5.5
  0
CIRCLE
  5
283
  8
DATA
  6
CONTINUOUS
 62
     7
 10
237.5
 20
259.72355564218162
 30
0.0
 40
3.0
  0
LINE
  5
284
  8
DATA
  6
CONTINUOUS
 62
     7
 10
372.0
 20
197.59999999999999
 30
0.0
 11
372.0
 21
174.2568055487917
 31
0.0
  0
LINE
  5
285
  8
DATA
  6
CONTINUOUS
 62
     7
 10
378.0
 20
197.59999999999999
 30
0.0
 11
378.0
 21
174.2568055487917
 31
0.0
  0
ARC
  5
286
  8
DATA
  6
CONTINUOUS
 62
     7
 10
375.0
 20
197.59999999999999
 30
0.0
 40
3.0
 50
0.0
 51
180.0
  0
LINE
  5
287
  8
DATA
  6
CONTINUOUS
 62
     7
 10
371.46795676824257
 20
166.9821060240501
 30
0.0
 11
370.03204323175743
 21
157.21789397595001
 31
0.0
  0
ARC
  5
288
  8
DATA
  6
CONTINUOUS
 62
     7
 10
419.5
 20
149.94319445120851
 30
0.0
 40
49.999999999999972
 50
171.63411387596739
 51
180.0
  0
ARC
  5
289
  8
DATA
  6
CONTINUOUS
 62
     7
 10
419.5
 20
149.94319445120851
 30
0.0
 40
49.999999999999972
 50
171.63411387596739
 51
180.0
  0
ARC
  5
28A
  8
DATA
  6
CONTINUOUS
 62
     7
 10
322.0
 20
174.2568055487917
 30
0.0
 40
49.999999999999972
 50
351.63411387596739
 51
0.0000000000000568
  0
LINE
  5
28B
  8
DATA
  6
CONTINUOUS
 62
     7
 10
378.53204323175743
 20
166.9821060240501
 30
0.0
 11
379.96795676824257
 21
157.21789397595001
 31
0.0
  0
ARC
  5
28C
  8
DATA
  6
CONTINUOUS
 62
     7
 10
330.5
 20
149.94319445120851
 30
0.0
 40
49.999999999999972
 50
0.0
 51
8.3658861240325564
  0
ARC
  5
28D
  8
DATA
  6
CONTINUOUS
 62
     7
 10
330.5
 20
149.94319445120851
 30
0.0
 40
50.0
 50
0.0
 51
8.3658861240325564
  0
ARC
  5
28E
  8
DATA
  6
CONTINUOUS
 62
     7
 10
428.0
 20
174.2568055487917
 30
0.0
 40
50.0
 50
179.99999999999989
 51
188.36588612403261
  0
LINE
  5
28F
  8
DATA
  6
CONTINUOUS
 62
     7
 10
369.5
 20
149.94319445120851
 30
0.0
 11
369.5
 21
92.999999999899984
 31
0.0
  0
LINE
  5
290
  8
DATA
  6
CONTINUOUS
 62
     7
 10
380.5
 20
149.94319445120851
 30
0.0
 11
380.5
 21
92.999999999899984
 31
0.0
  0
LINE
  5
291
  8
DATA
  6
CONTINUOUS
 62
     7
 10
369.5
 20
110.59999999999999
 30
0.0
 11
380.5
 21
110.59999999999999
 31
0.0
  0
LINE
  5
292
  8
DATA
  6
CONTINUOUS
 62
     7
 10
369.0
 20
81.999999999899984
 30
0.0
 11
369.0
 21
92.999999999899984
 31
0.0
  0
LINE
  5
293
  8
DATA
  6
CONTINUOUS
 62
     7
 10
369.0
 20
81.999999999899984
 30
0.0
 11
381.0
 21
81.999999999899984
 31
0.0
  0
LINE
  5
294
  8
DATA
  6
CONTINUOUS
 62
     7
 10
369.0
 20
92.999999999899984
 30
0.0
 11
381.0
 21
92.999999999899984
 31
0.0
  0
LINE
  5
295
  8
DATA
  6
CONTINUOUS
 62
     7
 10
381.0
 20
81.999999999899984
 30
0.0
 11
381.0
 21
92.999999999899984
 31
0.0
  0
ARC
  5
296
  8
DATA
  6
CONTINUOUS
 62
     7
 10
379.8333333333332
 20
87.499999999899984
 30
0.0
 40
10.83333333333327
 50
149.48976259388419
 51
210.51023740611569
  0
ARC
  5
297
  8
DATA
  6
CONTINUOUS
 62
     7
 10
370.16666666666669
 20
87.499999999899984
 30
0.0
 40
10.833333333333259
 50
329.48976259388422
 51
30.510237406115831
  0
TEXT
  5
298
  8
DATA
 62
     7
 10
367.27677456072013
 20
53.879658815565662
 30
0.0
 40
10.85894097222222
  1
BNCコネクタ  
 41
0.7
 11
367.27677456072013
 21
64.738599787787891
 31
0.0
 73
     3
  0
LINE
  5
299
  8
DATA
  6
CONTINUOUS
 62
     7
 10
347.25
 20
80.59999999999998
 30
0.0
 11
362.5
 21
50.0
 31
0.0
  0
LINE
  5
29A
  8
DATA
  6
CONTINUOUS
 62
     7
 10
347.25
 20
80.59999999999998
 30
0.0
 11
356.04773422500278
 21
70.829126267570715
 31
0.0
  0
LINE
  5
29B
  8
DATA
  6
CONTINUOUS
 62
     7
 10
347.25
 20
80.59999999999998
 30
0.0
 11
349.98362446838161
 21
67.739308018044738
 31
0.0
  0
LINE
  5
29C
  8
DATA
  6
CONTINUOUS
 62
     7
 10
362.5
 20
50.0
 30
0.0
 11
450.10000000000002
 21
50.0
 31
0.0
  0
TEXT
  5
29D
  8
DATA
 62
     7
 10
259.79114060493509
 20
16.629214843369919
 30
0.0
 40
10.85894097222222
  1
UHFアンテナ 2本
 41
0.7
 11
259.79114060493509
 21
27.488155815592151
 31
0.0
 73
     3
  0
LINE
  5
29E
  8
DATA
  6
CONTINUOUS
 62
     7
 10
247.2722455770234
 20
12.5
 30
0.0
 11
387.5
 21
12.5
 31
0.0
  0
LINE
  5
29F
  8
DATA
  6
CONTINUOUS
 62
     7
 10
370.49999999990342
 20
-134.1567491523702
 30
0.0
 11
370.49999999990342
 21
-190.9631031678218
 31
0.0
  0
LINE
  5
2A0
  8
DATA
  6
CONTINUOUS
 62
     7
 10
359.49999999990348
 20
-134.1567491523702
 30
0.0
 11
359.49999999990348
 21
-190.9631031678218
 31
0.0
  0
LINE
  5
2A1
  8
DATA
  6
CONTINUOUS
 62
     7
 10
345.1499999999034
 20
-189.56310316772181
 30
0.0
 11
342.74999999990342
 21
-189.56310316772181
 31
0.0
  0
LINE
  5
2A2
  8
DATA
  6
CONTINUOUS
 62
     7
 10
345.1499999999034
 20
-203.3631031677219
 30
0.0
 11
342.74999999990342
 21
-203.3631031677219
 31
0.0
  0
LINE
  5
2A3
  8
DATA
  6
CONTINUOUS
 62
     7
 10
370.49999999990342
 20
-173.36310316772119
 30
0.0
 11
359.49999999990348
 21
-173.36310316772119
 31
0.0
  0
LINE
  5
2A4
  8
DATA
  6
CONTINUOUS
 62
     7
 10
370.99999999990342
 20
-201.96310316782191
 30
0.0
 11
370.99999999990342
 21
-190.9631031678218
 31
0.0
  0
LINE
  5
2A5
  8
DATA
  6
CONTINUOUS
 62
     7
 10
370.99999999990342
 20
-201.96310316782191
 30
0.0
 11
358.99999999990348
 21
-201.96310316782191
 31
0.0
  0
LINE
  5
2A6
  8
DATA
  6
CONTINUOUS
 62
     7
 10
370.99999999990342
 20
-190.9631031678218
 30
0.0
 11
358.99999999990348
 21
-190.9631031678218
 31
0.0
  0
LINE
  5
2A7
  8
DATA
  6
CONTINUOUS
 62
     7
 10
342.74999999990342
 20
-203.3631031677219
 30
0.0
 11
342.74999999990342
 21
-189.56310316772181
 31
0.0
  0
LINE
  5
2A8
  8
DATA
  6
CONTINUOUS
 62
     7
 10
358.99999999990348
 20
-201.96310316782191
 30
0.0
 11
358.99999999990348
 21
-190.9631031678218
 31
0.0
  0
ARC
  5
2A9
  8
DATA
  6
CONTINUOUS
 62
     7
 10
360.16666666657028
 20
-196.46310316782191
 30
0.0
 40
10.83333333333324
 50
329.48976259388451
 51
30.510237406116008
  0
ARC
  5
2AA
  8
DATA
  6
CONTINUOUS
 62
     7
 10
369.83333333323691
 20
-196.46310316782191
 30
0.0
 40
10.83333333333329
 50
149.489762593884
 51
210.51023740611549
  0
LINE
  5
2AB
  8
DATA
  6
CONTINUOUS
 62
     7
 10
345.1499999999034
 20
-203.3631031677219
 30
0.0
 11
345.1499999999034
 21
-189.56310316772181
 31
0.0
  0
LINE
  5
2AC
  8
DATA
  6
CONTINUOUS
 62
     7
 10
345.1499999999034
 20
-202.16310316772191
 30
0.0
 11
350.84999999990339
 21
-202.16310316772191
 31
0.0
  0
LINE
  5
2AD
  8
DATA
  6
CONTINUOUS
 62
     7
 10
350.84999999990339
 20
-190.76310316772179
 30
0.0
 11
345.1499999999034
 21
-190.76310316772179
 31
0.0
  0
LINE
  5
2AE
  8
DATA
  6
CONTINUOUS
 62
     7
 10
350.84999999990339
 20
-203.3631031677219
 30
0.0
 11
350.84999999990339
 21
-189.56310316772181
 31
0.0
  0
LINE
  5
2AF
  8
DATA
  6
CONTINUOUS
 62
     7
 10
355.57999999990341
 20
-203.3631031677219
 30
0.0
 11
355.57999999990341
 21
-189.56310316772181
 31
0.0
  0
LINE
  5
2B0
  8
DATA
  6
CONTINUOUS
 62
     7
 10
355.57999999990341
 20
-189.56310316772181
 30
0.0
 11
350.84999999990339
 21
-189.56310316772181
 31
0.0
  0
LINE
  5
2B1
  8
DATA
  6
CONTINUOUS
 62
     7
 10
355.57999999990341
 20
-203.3631031677219
 30
0.0
 11
350.84999999990339
 21
-203.3631031677219
 31
0.0
  0
LINE
  5
2B2
  8
DATA
  6
CONTINUOUS
 62
     7
 10
358.99999999990348
 20
-191.1831031678218
 30
0.0
 11
355.57999999990341
 21
-191.1831031678218
 31
0.0
  0
LINE
  5
2B3
  8
DATA
  6
CONTINUOUS
 62
     7
 10
358.99999999990348
 20
-201.7431031678218
 30
0.0
 11
355.57999999990341
 21
-201.7431031678218
 31
0.0
  0
LINE
  5
2B4
  8
DATA
  6
CONTINUOUS
 62
     7
 10
355.57999999990341
 20
-190.26310316772179
 30
0.0
 11
350.84999999990339
 21
-190.26310316772179
 31
0.0
  0
LINE
  5
2B5
  8
DATA
  6
CONTINUOUS
 62
     7
 10
355.57999999990341
 20
-190.96310316772181
 30
0.0
 11
350.84999999990339
 21
-190.96310316772181
 31
0.0
  0
LINE
  5
2B6
  8
DATA
  6
CONTINUOUS
 62
     7
 10
355.57999999990341
 20
-191.6631031677218
 30
0.0
 11
350.84999999990339
 21
-191.6631031677218
 31
0.0
  0
LINE
  5
2B7
  8
DATA
  6
CONTINUOUS
 62
     7
 10
355.57999999990341
 20
-192.3631031677219
 30
0.0
 11
350.84999999990339
 21
-192.3631031677219
 31
0.0
  0
LINE
  5
2B8
  8
DATA
  6
CONTINUOUS
 62
     7
 10
355.57999999990341
 20
-193.06310316772181
 30
0.0
 11
350.84999999990339
 21
-193.06310316772181
 31
0.0
  0
LINE
  5
2B9
  8
DATA
  6
CONTINUOUS
 62
     7
 10
355.57999999990341
 20
-193.76310316772179
 30
0.0
 11
350.84999999990339
 21
-193.76310316772179
 31
0.0
  0
LINE
  5
2BA
  8
DATA
  6
CONTINUOUS
 62
     7
 10
355.57999999990341
 20
-194.46310316772181
 30
0.0
 11
350.84999999990339
 21
-194.46310316772181
 31
0.0
  0
LINE
  5
2BB
  8
DATA
  6
CONTINUOUS
 62
     7
 10
355.57999999990341
 20
-195.1631031677218
 30
0.0
 11
350.84999999990339
 21
-195.1631031677218
 31
0.0
  0
LINE
  5
2BC
  8
DATA
  6
CONTINUOUS
 62
     7
 10
355.57999999990341
 20
-195.8631031677219
 30
0.0
 11
350.84999999990339
 21
-195.8631031677219
 31
0.0
  0
LINE
  5
2BD
  8
DATA
  6
CONTINUOUS
 62
     7
 10
355.57999999990341
 20
-196.56310316772189
 30
0.0
 11
350.84999999990339
 21
-196.56310316772189
 31
0.0
  0
LINE
  5
2BE
  8
DATA
  6
CONTINUOUS
 62
     7
 10
355.57999999990341
 20
-197.26310316772179
 30
0.0
 11
350.84999999990339
 21
-197.26310316772179
 31
0.0
  0
LINE
  5
2BF
  8
DATA
  6
CONTINUOUS
 62
     7
 10
355.57999999990341
 20
-197.96310316772181
 30
0.0
 11
350.84999999990339
 21
-197.96310316772181
 31
0.0
  0
LINE
  5
2C0
  8
DATA
  6
CONTINUOUS
 62
     7
 10
355.57999999990341
 20
-198.6631031677218
 30
0.0
 11
350.84999999990339
 21
-198.6631031677218
 31
0.0
  0
LINE
  5
2C1
  8
DATA
  6
CONTINUOUS
 62
     7
 10
355.57999999990341
 20
-199.36310316772179
 30
0.0
 11
350.84999999990339
 21
-199.36310316772179
 31
0.0
  0
LINE
  5
2C2
  8
DATA
  6
CONTINUOUS
 62
     7
 10
355.57999999990341
 20
-200.06310316772181
 30
0.0
 11
350.84999999990339
 21
-200.06310316772181
 31
0.0
  0
LINE
  5
2C3
  8
DATA
  6
CONTINUOUS
 62
     7
 10
355.57999999990341
 20
-200.76310316772191
 30
0.0
 11
350.84999999990339
 21
-200.76310316772191
 31
0.0
  0
LINE
  5
2C4
  8
DATA
  6
CONTINUOUS
 62
     7
 10
355.57999999990341
 20
-201.4631031677219
 30
0.0
 11
350.84999999990339
 21
-201.4631031677219
 31
0.0
  0
LINE
  5
2C5
  8
DATA
  6
CONTINUOUS
 62
     7
 10
355.57999999990341
 20
-202.16310316772191
 30
0.0
 11
350.84999999990339
 21
-202.16310316772191
 31
0.0
  0
LINE
  5
2C6
  8
DATA
  6
CONTINUOUS
 62
     7
 10
355.57999999990341
 20
-202.8631031677219
 30
0.0
 11
350.84999999990339
 21
-202.8631031677219
 31
0.0
  0
LINE
  5
2C7
  8
DATA
  6
CONTINUOUS
 62
     7
 10
37.579388173637241
 20
202.15680554867259
 30
0.0
 11
37.579388173637241
 21
258.59883941060912
 31
0.0
  0
LINE
  5
2C8
  8
DATA
  6
CONTINUOUS
 62
     7
 10
26.57938817363727
 20
202.15680554867259
 30
0.0
 11
26.57938817363727
 21
258.59883941060912
 31
0.0
  0
LINE
  5
2C9
  8
DATA
  6
CONTINUOUS
 62
     7
 10
37.579388173637241
 20
240.99883941050911
 30
0.0
 11
26.57938817363727
 21
240.99883941050911
 31
0.0
  0
LINE
  5
2CA
  8
DATA
  6
CONTINUOUS
 62
     7
 10
38.079388173637241
 20
269.59883941060912
 30
0.0
 11
38.079388173637241
 21
258.59883941060912
 31
0.0
  0
LINE
  5
2CB
  8
DATA
  6
CONTINUOUS
 62
     7
 10
38.079388173637241
 20
269.59883941060912
 30
0.0
 11
26.07938817363727
 21
269.59883941060912
 31
0.0
  0
LINE
  5
2CC
  8
DATA
  6
CONTINUOUS
 62
     7
 10
38.079388173637241
 20
258.59883941060912
 30
0.0
 11
26.07938817363727
 21
258.59883941060912
 31
0.0
  0
LINE
  5
2CD
  8
DATA
  6
CONTINUOUS
 62
     7
 10
26.07938817363727
 20
269.59883941060912
 30
0.0
 11
26.07938817363727
 21
258.59883941060912
 31
0.0
  0
ARC
  5
2CE
  8
DATA
  6
CONTINUOUS
 62
     7
 10
27.246054840304009
 20
264.09883941060912
 30
0.0
 40
10.83333333333325
 50
329.48976259388422
 51
30.510237406115831
  0
ARC
  5
2CF
  8
DATA
  6
CONTINUOUS
 62
     7
 10
36.912721506970492
 20
264.09883941060912
 30
0.0
 40
10.83333333333324
 50
149.48976259388419
 51
210.51023740611581
  0
CIRCLE
  5
2D0
  8
DATA
  6
STYLE_01
 62
     7
 10
31.995948426708381
 20
264.4999999998808
 30
0.0
 40
113.0000308061523
  0
CIRCLE
  5
2D1
  8
DATA
  6
STYLE_01
 62
     7
 10
-108.9971442644557
 20
264.4999999998808
 30
0.0
 40
113.0000073818596
  0
LINE
  5
2D2
  8
DATA
  6
CONTINUOUS
 62
     7
 10
-105.95629943224
 20
154.4999999998808
 30
0.0
 11
-105.95629943224
 21
177.84319445108929
 31
0.0
  0
LINE
  5
2D3
  8
DATA
  6
CONTINUOUS
 62
     7
 10
-111.9562994322399
 20
154.4999999998808
 30
0.0
 11
-111.9562994322399
 21
177.84319445108929
 31
0.0
  0
ARC
  5
2D4
  8
DATA
  6
CONTINUOUS
 62
     7
 10
-108.9562994322399
 20
154.4999999998808
 30
0.0
 40
3.0
 50
180.0
 51
0.0
  0
LINE
  5
2D5
  8
DATA
  6
CONTINUOUS
 62
     7
 10
-105.4242562004826
 20
185.1178939758309
 30
0.0
 11
-103.9883426639973
 21
194.8821060239309
 31
0.0
  0
ARC
  5
2D6
  8
DATA
  6
CONTINUOUS
 62
     7
 10
-153.45629943223989
 20
202.15680554867259
 30
0.0
 40
49.999999999999972
 50
351.63411387596739
 51
0.0
  0
ARC
  5
2D7
  8
DATA
  6
CONTINUOUS
 62
     7
 10
-153.45629943223989
 20
202.15680554867251
 30
0.0
 40
49.999999999999972
 50
351.63411387596739
 51
0.0000000000000568
  0
ARC
  5
2D8
  8
DATA
  6
CONTINUOUS
 62
     7
 10
-55.956299432239987
 20
177.84319445108929
 30
0.0
 40
49.999999999999979
 50
171.6341138759673
 51
180.0
  0
LINE
  5
2D9
  8
DATA
  6
CONTINUOUS
 62
     7
 10
-112.4883426639973
 20
185.1178939758309
 30
0.0
 11
-113.9242562004826
 21
194.8821060239309
 31
0.0
  0
ARC
  5
2DA
  8
DATA
  6
CONTINUOUS
 62
     7
 10
-64.456299432240016
 20
202.15680554867259
 30
0.0
 40
49.999999999999929
 50
180.0
 51
188.36588612403261
  0
ARC
  5
2DB
  8
DATA
  6
CONTINUOUS
 62
     7
 10
-64.456299432240016
 20
202.15680554867251
 30
0.0
 40
49.999999999999929
 50
180.0
 51
188.36588612403261
  0
ARC
  5
2DC
  8
DATA
  6
CONTINUOUS
 62
     7
 10
-161.95629943223989
 20
177.84319445108929
 30
0.0
 40
50.000000000000021
 50
360.0
 51
8.365886124032615
  0
LINE
  5
2DD
  8
DATA
  6
CONTINUOUS
 62
     7
 10
-103.45629943224
 20
202.15680554867259
 30
0.0
 11
-103.45629943224
 21
258.59883941060912
 31
0.0
  0
LINE
  5
2DE
  8
DATA
  6
CONTINUOUS
 62
     7
 10
-114.4562994322399
 20
202.15680554867259
 30
0.0
 11
-114.4562994322399
 21
258.59883941060912
 31
0.0
  0
LINE
  5
2DF
  8
DATA
  6
CONTINUOUS
 62
     7
 10
-103.45629943224
 20
240.99883941050911
 30
0.0
 11
-114.4562994322399
 21
240.99883941050911
 31
0.0
  0
LINE
  5
2E0
  8
DATA
  6
CONTINUOUS
 62
     7
 10
-102.95629943224
 20
269.59883941060912
 30
0.0
 11
-102.95629943224
 21
258.59883941060912
 31
0.0
  0
LINE
  5
2E1
  8
DATA
  6
CONTINUOUS
 62
     7
 10
-102.95629943224
 20
269.59883941060912
 30
0.0
 11
-114.9562994322399
 21
269.59883941060912
 31
0.0
  0
LINE
  5
2E2
  8
DATA
  6
CONTINUOUS
 62
     7
 10
-102.95629943224
 20
258.59883941060912
 30
0.0
 11
-114.9562994322399
 21
258.59883941060912
 31
0.0
  0
LINE
  5
2E3
  8
DATA
  6
CONTINUOUS
 62
     7
 10
-114.9562994322399
 20
269.59883941060912
 30
0.0
 11
-114.9562994322399
 21
258.59883941060912
 31
0.0
  0
ARC
  5
2E4
  8
DATA
  6
CONTINUOUS
 62
     7
 10
-113.7896327655732
 20
264.09883941060912
 30
0.0
 40
10.83333333333324
 50
329.489762593884
 51
30.510237406115891
  0
ARC
  5
2E5
  8
DATA
  6
CONTINUOUS
 62
     7
 10
-104.1229660989067
 20
264.09883941060912
 30
0.0
 40
10.83333333333324
 50
149.48976259388419
 51
210.51023740611581
  0
LINE
  5
2E6
  8
DATA
  6
CONTINUOUS
 62
     7
 10
-150.0
 20
-39.836390143970107
 30
0.0
 11
-150.0
 21
-44.0
 31
0.0
  0
LINE
  5
2E7
  8
DATA
  6
CONTINUOUS
 62
     7
 10
50.0
 20
-39.836390143970107
 30
0.0
 11
50.0
 21
-44.0
 31
0.0
  0
LINE
  5
2E8
  8
DATA
  6
CONTINUOUS
 62
     7
 10
-150.0
 20
-44.0
 30
0.0
 11
-61.999999999999993
 21
-49.273505199152787
 31
0.0
  0
LINE
  5
2E9
  8
DATA
  6
CONTINUOUS
 62
     7
 10
50.0
 20
-44.0
 30
0.0
 11
-38.000000000000043
 21
-49.273505199152787
 31
0.0
  0
LINE
  5
2EA
  8
DATA
  6
CONTINUOUS
 62
     7
 10
37.912863268906371
 20
95.150000000000006
 30
0.0
 11
37.912863268906371
 21
92.75
 31
0.0
  0
LINE
  5
2EB
  8
DATA
  6
CONTINUOUS
 62
     7
 10
24.1128632689067
 20
95.150000000000006
 30
0.0
 11
24.1128632689067
 21
92.75
 31
0.0
  0
LINE
  5
2EC
  8
DATA
  6
CONTINUOUS
 62
     7
 10
25.512863268806679
 20
121.0
 30
0.0
 11
36.512863268806328
 21
121.0
 31
0.0
  0
LINE
  5
2ED
  8
DATA
  6
CONTINUOUS
 62
     7
 10
25.512863268806679
 20
121.0
 30
0.0
 11
25.512863268806679
 21
108.9999999999999
 31
0.0
  0
LINE
  5
2EE
  8
DATA
  6
CONTINUOUS
 62
     7
 10
36.512863268806328
 20
121.0
 30
0.0
 11
36.512863268806328
 21
108.9999999999999
 31
0.0
  0
LINE
  5
2EF
  8
DATA
  6
CONTINUOUS
 62
     7
 10
24.1128632689067
 20
92.75
 30
0.0
 11
37.912863268906371
 21
92.75
 31
0.0
  0
LINE
  5
2F0
  8
DATA
  6
CONTINUOUS
 62
     7
 10
25.512863268806679
 20
108.9999999999999
 30
0.0
 11
36.512863268806328
 21
108.9999999999999
 31
0.0
  0
ARC
  5
2F1
  8
DATA
  6
CONTINUOUS
 62
     7
 10
31.01286326880663
 20
110.1666666666667
 30
0.0
 40
10.833333333333121
 50
59.489762593885537
 51
120.51023740611549
  0
ARC
  5
2F2
  8
DATA
  6
CONTINUOUS
 62
     7
 10
31.01286326880663
 20
119.8333333333332
 30
0.0
 40
10.83333333333321
 50
239.48976259388439
 51
300.51023740611453
  0
LINE
  5
2F3
  8
DATA
  6
CONTINUOUS
 62
     7
 10
24.1128632689067
 20
95.150000000000006
 30
0.0
 11
37.912863268906371
 21
95.150000000000006
 31
0.0
  0
LINE
  5
2F4
  8
DATA
  6
CONTINUOUS
 62
     7
 10
25.312863268906739
 20
95.150000000000006
 30
0.0
 11
25.312863268906739
 21
100.84999999999999
 31
0.0
  0
LINE
  5
2F5
  8
DATA
  6
CONTINUOUS
 62
     7
 10
36.712863268906368
 20
100.84999999999999
 30
0.0
 11
36.712863268906368
 21
95.150000000000006
 31
0.0
  0
LINE
  5
2F6
  8
DATA
  6
CONTINUOUS
 62
     7
 10
24.1128632689067
 20
100.84999999999999
 30
0.0
 11
37.912863268906371
 21
100.84999999999999
 31
0.0
  0
LINE
  5
2F7
  8
DATA
  6
CONTINUOUS
 62
     7
 10
24.1128632689067
 20
105.58
 30
0.0
 11
37.912863268906371
 21
105.58
 31
0.0
  0
LINE
  5
2F8
  8
DATA
  6
CONTINUOUS
 62
     7
 10
37.912863268906371
 20
105.58
 30
0.0
 11
37.912863268906371
 21
100.84999999999999
 31
0.0
  0
LINE
  5
2F9
  8
DATA
  6
CONTINUOUS
 62
     7
 10
24.1128632689067
 20
105.58
 30
0.0
 11
24.1128632689067
 21
100.84999999999999
 31
0.0
  0
LINE
  5
2FA
  8
DATA
  6
CONTINUOUS
 62
     7
 10
36.292863268806371
 20
108.9999999999999
 30
0.0
 11
36.292863268806371
 21
105.58
 31
0.0
  0
LINE
  5
2FB
  8
DATA
  6
CONTINUOUS
 62
     7
 10
25.73286326880671
 20
108.9999999999999
 30
0.0
 11
25.73286326880671
 21
105.58
 31
0.0
  0
LINE
  5
2FC
  8
DATA
  6
CONTINUOUS
 62
     7
 10
37.212863268906382
 20
105.58
 30
0.0
 11
37.212863268906382
 21
100.84999999999999
 31
0.0
  0
LINE
  5
2FD
  8
DATA
  6
CONTINUOUS
 62
     7
 10
36.512863268906393
 20
105.58
 30
0.0
 11
36.512863268906393
 21
100.84999999999999
 31
0.0
  0
LINE
  5
2FE
  8
DATA
  6
CONTINUOUS
 62
     7
 10
35.812863268906398
 20
105.58
 30
0.0
 11
35.812863268906398
 21
100.84999999999999
 31
0.0
  0
LINE
  5
2FF
  8
DATA
  6
CONTINUOUS
 62
     7
 10
35.112863268906473
 20
105.58
 30
0.0
 11
35.112863268906473
 21
100.84999999999999
 31
0.0
  0
LINE
  5
300
  8
DATA
  6
CONTINUOUS
 62
     7
 10
34.412863268906449
 20
105.58
 30
0.0
 11
34.412863268906449
 21
100.84999999999999
 31
0.0
  0
LINE
  5
301
  8
DATA
  6
CONTINUOUS
 62
     7
 10
33.712863268906489
 20
105.58
 30
0.0
 11
33.712863268906489
 21
100.84999999999999
 31
0.0
  0
LINE
  5
302
  8
DATA
  6
CONTINUOUS
 62
     7
 10
33.012863268906557
 20
105.58
 30
0.0
 11
33.012863268906557
 21
100.84999999999999
 31
0.0
  0
LINE
  5
303
  8
DATA
  6
CONTINUOUS
 62
     7
 10
32.312863268906632
 20
105.58
 30
0.0
 11
32.312863268906632
 21
100.84999999999999
 31
0.0
  0
LINE
  5
304
  8
DATA
  6
CONTINUOUS
 62
     7
 10
31.612863268906668
 20
105.58
 30
0.0
 11
31.612863268906668
 21
100.84999999999999
 31
0.0
  0
LINE
  5
305
  8
DATA
  6
CONTINUOUS
 62
     7
 10
30.912863268906651
 20
105.58
 30
0.0
 11
30.912863268906651
 21
100.84999999999999
 31
0.0
  0
LINE
  5
306
  8
DATA
  6
CONTINUOUS
 62
     7
 10
30.21286326890672
 20
105.58
 30
0.0
 11
30.21286326890672
 21
100.84999999999999
 31
0.0
  0
LINE
  5
307
  8
DATA
  6
CONTINUOUS
 62
     7
 10
29.512863268906731
 20
105.58
 30
0.0
 11
29.512863268906731
 21
100.84999999999999
 31
0.0
  0
LINE
  5
308
  8
DATA
  6
CONTINUOUS
 62
     7
 10
28.812863268906739
 20
105.58
 30
0.0
 11
28.812863268906739
 21
100.84999999999999
 31
0.0
  0
LINE
  5
309
  8
DATA
  6
CONTINUOUS
 62
     7
 10
28.11286326890675
 20
105.58
 30
0.0
 11
28.11286326890675
 21
100.84999999999999
 31
0.0
  0
LINE
  5
30A
  8
DATA
  6
CONTINUOUS
 62
     7
 10
27.412863268906712
 20
105.58
 30
0.0
 11
27.412863268906712
 21
100.84999999999999
 31
0.0
  0
LINE
  5
30B
  8
DATA
  6
CONTINUOUS
 62
     7
 10
26.71286326890672
 20
105.58
 30
0.0
 11
26.71286326890672
 21
100.84999999999999
 31
0.0
  0
LINE
  5
30C
  8
DATA
  6
CONTINUOUS
 62
     7
 10
26.012863268906731
 20
105.58
 30
0.0
 11
26.012863268906731
 21
100.84999999999999
 31
0.0
  0
LINE
  5
30D
  8
DATA
  6
CONTINUOUS
 62
     7
 10
25.312863268906739
 20
105.58
 30
0.0
 11
25.312863268906739
 21
100.84999999999999
 31
0.0
  0
LINE
  5
30E
  8
DATA
  6
CONTINUOUS
 62
     7
 10
24.61286326890675
 20
105.58
 30
0.0
 11
24.61286326890675
 21
100.84999999999999
 31
0.0
  0
CIRCLE
  5
30F
  8
DATA
  6
CONTINUOUS
 62
     7
 10
31.012863268540482
 20
114.9735556420066
 30
0.0
 40
5.4999999999997149
  0
CIRCLE
  5
310
  8
DATA
  6
CONTINUOUS
 62
     7
 10
31.012863268540482
 20
114.9735556420066
 30
0.0
 40
2.999999999999829
  0
LINE
  5
311
  8
DATA
  6
CONTINUOUS
 62
     7
 10
-113.70486675686431
 20
92.75
 30
0.0
 11
-113.70486675686431
 21
90.5
 31
0.0
  0
LINE
  5
312
  8
DATA
  6
CONTINUOUS
 62
     7
 10
-104.0048667568641
 20
92.75
 30
0.0
 11
-104.0048667568641
 21
90.5
 31
0.0
  0
LINE
  5
313
  8
DATA
  6
CONTINUOUS
 62
     7
 10
-101.94485922350211
 20
95.150000000000006
 30
0.0
 11
-101.94485922350211
 21
92.75
 31
0.0
  0
LINE
  5
314
  8
DATA
  6
CONTINUOUS
 62
     7
 10
-115.74485922350181
 20
95.150000000000006
 30
0.0
 11
-115.74485922350181
 21
92.75
 31
0.0
  0
LINE
  5
315
  8
DATA
  6
CONTINUOUS
 62
     7
 10
-114.3448592236018
 20
121.0
 30
0.0
 11
-103.3448592236021
 21
121.0
 31
0.0
  0
LINE
  5
316
  8
DATA
  6
CONTINUOUS
 62
     7
 10
-114.3448592236018
 20
121.0
 30
0.0
 11
-114.3448592236018
 21
108.9999999999999
 31
0.0
  0
LINE
  5
317
  8
DATA
  6
CONTINUOUS
 62
     7
 10
-103.3448592236021
 20
121.0
 30
0.0
 11
-103.3448592236021
 21
108.9999999999999
 31
0.0
  0
LINE
  5
318
  8
DATA
  6
CONTINUOUS
 62
     7
 10
-115.74485922350181
 20
92.75
 30
0.0
 11
-101.94485922350211
 21
92.75
 31
0.0
  0
LINE
  5
319
  8
DATA
  6
CONTINUOUS
 62
     7
 10
-114.3448592236018
 20
108.9999999999999
 30
0.0
 11
-103.3448592236021
 21
108.9999999999999
 31
0.0
  0
ARC
  5
31A
  8
DATA
  6
CONTINUOUS
 62
     7
 10
-108.8448592236018
 20
110.1666666666667
 30
0.0
 40
10.833333333333121
 50
59.489762593885537
 51
120.51023740611549
  0
ARC
  5
31B
  8
DATA
  6
CONTINUOUS
 62
     7
 10
-108.8448592236018
 20
119.8333333333332
 30
0.0
 40
10.83333333333321
 50
239.48976259388439
 51
300.51023740611453
  0
LINE
  5
31C
  8
DATA
  6
CONTINUOUS
 62
     7
 10
-115.74485922350181
 20
95.150000000000006
 30
0.0
 11
-101.94485922350211
 21
95.150000000000006
 31
0.0
  0
LINE
  5
31D
  8
DATA
  6
CONTINUOUS
 62
     7
 10
-114.5448592235017
 20
95.150000000000006
 30
0.0
 11
-114.5448592235017
 21
100.84999999999999
 31
0.0
  0
LINE
  5
31E
  8
DATA
  6
CONTINUOUS
 62
     7
 10
-103.1448592235021
 20
100.84999999999999
 30
0.0
 11
-103.1448592235021
 21
95.150000000000006
 31
0.0
  0
LINE
  5
31F
  8
DATA
  6
CONTINUOUS
 62
     7
 10
-115.74485922350181
 20
100.84999999999999
 30
0.0
 11
-101.94485922350211
 21
100.84999999999999
 31
0.0
  0
LINE
  5
320
  8
DATA
  6
CONTINUOUS
 62
     7
 10
-115.74485922350181
 20
105.58
 30
0.0
 11
-101.94485922350211
 21
105.58
 31
0.0
  0
LINE
  5
321
  8
DATA
  6
CONTINUOUS
 62
     7
 10
-101.94485922350211
 20
105.58
 30
0.0
 11
-101.94485922350211
 21
100.84999999999999
 31
0.0
  0
LINE
  5
322
  8
DATA
  6
CONTINUOUS
 62
     7
 10
-115.74485922350181
 20
105.58
 30
0.0
 11
-115.74485922350181
 21
100.84999999999999
 31
0.0
  0
LINE
  5
323
  8
DATA
  6
CONTINUOUS
 62
     7
 10
-103.5648592236021
 20
108.9999999999999
 30
0.0
 11
-103.5648592236021
 21
105.58
 31
0.0
  0
LINE
  5
324
  8
DATA
  6
CONTINUOUS
 62
     7
 10
-114.1248592236018
 20
108.9999999999999
 30
0.0
 11
-114.1248592236018
 21
105.58
 31
0.0
  0
LINE
  5
325
  8
DATA
  6
CONTINUOUS
 62
     7
 10
-102.6448592235021
 20
105.58
 30
0.0
 11
-102.6448592235021
 21
100.84999999999999
 31
0.0
  0
LINE
  5
326
  8
DATA
  6
CONTINUOUS
 62
     7
 10
-103.3448592235021
 20
105.58
 30
0.0
 11
-103.3448592235021
 21
100.84999999999999
 31
0.0
  0
LINE
  5
327
  8
DATA
  6
CONTINUOUS
 62
     7
 10
-104.0448592235021
 20
105.58
 30
0.0
 11
-104.0448592235021
 21
100.84999999999999
 31
0.0
  0
LINE
  5
328
  8
DATA
  6
CONTINUOUS
 62
     7
 10
-104.744859223502
 20
105.58
 30
0.0
 11
-104.744859223502
 21
100.84999999999999
 31
0.0
  0
LINE
  5
329
  8
DATA
  6
CONTINUOUS
 62
     7
 10
-105.44485922350211
 20
105.58
 30
0.0
 11
-105.44485922350211
 21
100.84999999999999
 31
0.0
  0
LINE
  5
32A
  8
DATA
  6
CONTINUOUS
 62
     7
 10
-106.144859223502
 20
105.58
 30
0.0
 11
-106.144859223502
 21
100.84999999999999
 31
0.0
  0
LINE
  5
32B
  8
DATA
  6
CONTINUOUS
 62
     7
 10
-106.8448592235019
 20
105.58
 30
0.0
 11
-106.8448592235019
 21
100.84999999999999
 31
0.0
  0
LINE
  5
32C
  8
DATA
  6
CONTINUOUS
 62
     7
 10
-107.5448592235018
 20
105.58
 30
0.0
 11
-107.5448592235018
 21
100.84999999999999
 31
0.0
  0
LINE
  5
32D
  8
DATA
  6
CONTINUOUS
 62
     7
 10
-108.2448592235019
 20
105.58
 30
0.0
 11
-108.2448592235019
 21
100.84999999999999
 31
0.0
  0
LINE
  5
32E
  8
DATA
  6
CONTINUOUS
 62
     7
 10
-108.94485922350189
 20
105.58
 30
0.0
 11
-108.94485922350189
 21
100.84999999999999
 31
0.0
  0
LINE
  5
32F
  8
DATA
  6
CONTINUOUS
 62
     7
 10
-109.6448592235018
 20
105.58
 30
0.0
 11
-109.6448592235018
 21
100.84999999999999
 31
0.0
  0
LINE
  5
330
  8
DATA
  6
CONTINUOUS
 62
     7
 10
-110.3448592235018
 20
105.58
 30
0.0
 11
-110.3448592235018
 21
100.84999999999999
 31
0.0
  0
LINE
  5
331
  8
DATA
  6
CONTINUOUS
 62
     7
 10
-111.0448592235017
 20
105.58
 30
0.0
 11
-111.0448592235017
 21
100.84999999999999
 31
0.0
  0
LINE
  5
332
  8
DATA
  6
CONTINUOUS
 62
     7
 10
-111.74485922350171
 20
105.58
 30
0.0
 11
-111.74485922350171
 21
100.84999999999999
 31
0.0
  0
LINE
  5
333
  8
DATA
  6
CONTINUOUS
 62
     7
 10
-112.44485922350179
 20
105.58
 30
0.0
 11
-112.44485922350179
 21
100.84999999999999
 31
0.0
  0
LINE
  5
334
  8
DATA
  6
CONTINUOUS
 62
     7
 10
-113.1448592235018
 20
105.58
 30
0.0
 11
-113.1448592235018
 21
100.84999999999999
 31
0.0
  0
LINE
  5
335
  8
DATA
  6
CONTINUOUS
 62
     7
 10
-113.8448592235018
 20
105.58
 30
0.0
 11
-113.8448592235018
 21
100.84999999999999
 31
0.0
  0
LINE
  5
336
  8
DATA
  6
CONTINUOUS
 62
     7
 10
-114.5448592235017
 20
105.58
 30
0.0
 11
-114.5448592235017
 21
100.84999999999999
 31
0.0
  0
LINE
  5
337
  8
DATA
  6
CONTINUOUS
 62
     7
 10
-115.24485922350171
 20
105.58
 30
0.0
 11
-115.24485922350171
 21
100.84999999999999
 31
0.0
  0
CIRCLE
  5
338
  8
DATA
  6
CONTINUOUS
 62
     7
 10
-108.844859223868
 20
114.9735556420066
 30
0.0
 40
5.4999999999997149
  0
CIRCLE
  5
339
  8
DATA
  6
CONTINUOUS
 62
     7
 10
-108.844859223868
 20
114.9735556420066
 30
0.0
 40
2.999999999999829
  0
LINE
  5
33A
  8
DATA
  6
CONTINUOUS
 62
     7
 10
28.017175606200318
 20
-86.499943603578743
 30
0.0
 11
28.017175606200318
 21
-109.843138054787
 31
0.0
  0
LINE
  5
33B
  8
DATA
  6
CONTINUOUS
 62
     7
 10
34.017175606200333
 20
-86.499943603578743
 30
0.0
 11
34.017175606200333
 21
-109.843138054787
 31
0.0
  0
ARC
  5
33C
  8
DATA
  6
CONTINUOUS
 62
     7
 10
31.017175606200318
 20
-86.499943603578743
 30
0.0
 40
3.0
 50
0.0
 51
180.0
  0
LINE
  5
33D
  8
DATA
  6
CONTINUOUS
 62
     7
 10
27.485132374442959
 20
-117.1178375795286
 30
0.0
 11
26.049218837957699
 21
-126.8820496276286
 31
0.0
  0
ARC
  5
33E
  8
DATA
  6
CONTINUOUS
 62
     7
 10
75.517175606200325
 20
-134.1567491523702
 30
0.0
 40
50.0
 50
171.63411387596739
 51
180.0
  0
ARC
  5
33F
  8
DATA
  6
CONTINUOUS
 62
     7
 10
75.517175606200325
 20
-134.1567491523702
 30
0.0
 40
50.0
 50
171.6341138759673
 51
180.0
  0
ARC
  5
340
  8
DATA
  6
CONTINUOUS
 62
     7
 10
-21.982824393799682
 20
-109.843138054787
 30
0.0
 40
49.999999999999972
 50
351.63411387596739
 51
0.0
  0
LINE
  5
341
  8
DATA
  6
CONTINUOUS
 62
     7
 10
34.549218837957703
 20
-117.1178375795286
 30
0.0
 11
35.985132374443012
 21
-126.8820496276286
 31
0.0
  0
ARC
  5
342
  8
DATA
  6
CONTINUOUS
 62
     7
 10
-13.482824393799641
 20
-134.1567491523702
 30
0.0
 40
49.999999999999972
 50
0.0
 51
8.3658861240325564
  0
ARC
  5
343
  8
DATA
  6
CONTINUOUS
 62
     7
 10
-13.482824393799669
 20
-134.1567491523702
 30
0.0
 40
50.0
 50
0.0
 51
8.365886124032615
  0
ARC
  5
344
  8
DATA
  6
CONTINUOUS
 62
     7
 10
84.017175606200325
 20
-109.843138054787
 30
0.0
 40
50.000000000000021
 50
180.0
 51
188.36588612403261
  0
LINE
  5
345
  8
DATA
  6
CONTINUOUS
 62
     7
 10
25.517175606200318
 20
-134.1567491523702
 30
0.0
 11
25.517175606200318
 21
-169.5
 31
0.0
  0
LINE
  5
346
  8
DATA
  6
CONTINUOUS
 62
     7
 10
36.517175606200333
 20
-134.1567491523702
 30
0.0
 11
36.517175606200333
 21
-169.5
 31
0.0
  0
LINE
  5
347
  8
DATA
  6
CONTINUOUS
 62
     7
 10
-111.7483949825842
 20
-86.499943603578743
 30
0.0
 11
-111.7483949825842
 21
-109.843138054787
 31
0.0
  0
LINE
  5
348
  8
DATA
  6
CONTINUOUS
 62
     7
 10
-105.7483949825842
 20
-86.499943603578743
 30
0.0
 11
-105.7483949825842
 21
-109.843138054787
 31
0.0
  0
ARC
  5
349
  8
DATA
  6
CONTINUOUS
 62
     7
 10
-108.7483949825842
 20
-86.499943603578743
 30
0.0
 40
3.0
 50
0.0
 51
180.0
  0
LINE
  5
34A
  8
DATA
  6
CONTINUOUS
 62
     7
 10
-112.2804382143415
 20
-117.1178375795286
 30
0.0
 11
-113.7163517508268
 21
-126.8820496276286
 31
0.0
  0
ARC
  5
34B
  8
DATA
  6
CONTINUOUS
 62
     7
 10
-64.248394982584173
 20
-134.1567491523702
 30
0.0
 40
50.0
 50
171.63411387596739
 51
180.0
  0
ARC
  5
34C
  8
DATA
  6
CONTINUOUS
 62
     7
 10
-64.248394982584173
 20
-134.1567491523702
 30
0.0
 40
50.0
 50
171.6341138759673
 51
180.0
  0
ARC
  5
34D
  8
DATA
  6
CONTINUOUS
 62
     7
 10
-161.74839498258439
 20
-109.843138054787
 30
0.0
 40
50.000000000000227
 50
351.63411387596739
 51
0.0
  0
LINE
  5
34E
  8
DATA
  6
CONTINUOUS
 62
     7
 10
-105.2163517508268
 20
-117.1178375795286
 30
0.0
 11
-103.7804382143415
 21
-126.8820496276286
 31
0.0
  0
ARC
  5
34F
  8
DATA
  6
CONTINUOUS
 62
     7
 10
-153.2483949825841
 20
-134.1567491523702
 30
0.0
 40
49.999999999999972
 50
0.0
 51
8.3658861240325564
  0
ARC
  5
350
  8
DATA
  6
CONTINUOUS
 62
     7
 10
-153.24839498258419
 20
-134.1567491523702
 30
0.0
 40
50.0
 50
0.0
 51
8.365886124032615
  0
ARC
  5
351
  8
DATA
  6
CONTINUOUS
 62
     7
 10
-55.748394982584173
 20
-109.843138054787
 30
0.0
 40
50.000000000000021
 50
180.0
 51
188.36588612403261
  0
LINE
  5
352
  8
DATA
  6
CONTINUOUS
 62
     7
 10
-114.2483949825842
 20
-134.1567491523702
 30
0.0
 11
-114.2483949825842
 21
-169.5
 31
0.0
  0
LINE
  5
353
  8
DATA
  6
CONTINUOUS
 62
     7
 10
-103.2483949825842
 20
-134.1567491523702
 30
0.0
 11
-103.2483949825842
 21
-169.5
 31
0.0
  0
LINE
  5
354
  8
DATA
  6
CONTINUOUS
 62
     7
 10
361.99999999990342
 20
-86.499943603578743
 30
0.0
 11
361.99999999990342
 21
-109.843138054787
 31
0.0
  0
LINE
  5
355
  8
DATA
  6
CONTINUOUS
 62
     7
 10
367.99999999990342
 20
-86.499943603578743
 30
0.0
 11
367.99999999990342
 21
-109.843138054787
 31
0.0
  0
ARC
  5
356
  8
DATA
  6
CONTINUOUS
 62
     7
 10
364.99999999990342
 20
-86.499943603578743
 30
0.0
 40
3.0
 50
0.0
 51
180.0
  0
LINE
  5
357
  8
DATA
  6
CONTINUOUS
 62
     7
 10
361.46795676814611
 20
-117.1178375795286
 30
0.0
 11
360.03204323166091
 21
-126.8820496276286
 31
0.0
  0
ARC
  5
358
  8
DATA
  6
CONTINUOUS
 62
     7
 10
409.49999999990342
 20
-134.1567491523702
 30
0.0
 40
49.999999999999972
 50
171.63411387596739
 51
180.0
  0
ARC
  5
359
  8
DATA
  6
CONTINUOUS
 62
     7
 10
409.49999999990342
 20
-134.1567491523702
 30
0.0
 40
49.999999999999979
 50
171.6341138759673
 51
180.0
  0
ARC
  5
35A
  8
DATA
  6
CONTINUOUS
 62
     7
 10
311.99999999990348
 20
-109.843138054787
 30
0.0
 40
49.999999999999972
 50
351.63411387596739
 51
0.0
  0
LINE
  5
35B
  8
DATA
  6
CONTINUOUS
 62
     7
 10
368.53204323166091
 20
-117.1178375795286
 30
0.0
 11
369.96795676814622
 21
-126.8820496276286
 31
0.0
  0
ARC
  5
35C
  8
DATA
  6
CONTINUOUS
 62
     7
 10
320.49999999990348
 20
-134.1567491523702
 30
0.0
 40
49.999999999999972
 50
0.0
 51
8.3658861240325564
  0
ARC
  5
35D
  8
DATA
  6
CONTINUOUS
 62
     7
 10
320.49999999990348
 20
-134.1567491523702
 30
0.0
 40
50.0
 50
0.0
 51
8.365886124032615
  0
ARC
  5
35E
  8
DATA
  6
CONTINUOUS
 62
     7
 10
417.99999999990342
 20
-109.843138054787
 30
0.0
 40
50.0
 50
180.0
 51
188.36588612403261
  0
LINE
  5
35F
  8
DATA
  6
CONTINUOUS
 62
     7
 10
35.079388173637241
 20
154.4999999998808
 30
0.0
 11
35.079388173637241
 21
177.84319445108929
 31
0.0
  0
LINE
  5
360
  8
DATA
  6
CONTINUOUS
 62
     7
 10
29.07938817363727
 20
154.4999999998808
 30
0.0
 11
29.07938817363727
 21
177.84319445108929
 31
0.0
  0
ARC
  5
361
  8
DATA
  6
CONTINUOUS
 62
     7
 10
32.07938817363727
 20
154.4999999998808
 30
0.0
 40
3.0
 50
180.0
 51
0.0
  0
LINE
  5
362
  8
DATA
  6
CONTINUOUS
 62
     7
 10
35.611431405394612
 20
185.1178939758309
 30
0.0
 11
37.047344941879871
 21
194.8821060239309
 31
0.0
  0
ARC
  5
363
  8
DATA
  6
CONTINUOUS
 62
     7
 10
-12.420611826362761
 20
202.15680554867259
 30
0.0
 40
49.999999999999972
 50
351.63411387596739
 51
0.0
  0
ARC
  5
364
  8
DATA
  6
CONTINUOUS
 62
     7
 10
-12.420611826362761
 20
202.15680554867251
 30
0.0
 40
49.999999999999972
 50
351.63411387596739
 51
0.0000000000000568
  0
ARC
  5
365
  8
DATA
  6
CONTINUOUS
 62
     7
 10
85.079388173637241
 20
177.84319445108929
 30
0.0
 40
49.999999999999979
 50
171.6341138759673
 51
180.0
  0
LINE
  5
366
  8
DATA
  6
CONTINUOUS
 62
     7
 10
28.547344941879889
 20
185.1178939758309
 30
0.0
 11
27.11143140539459
 21
194.8821060239309
 31
0.0
  0
ARC
  5
367
  8
DATA
  6
CONTINUOUS
 62
     7
 10
76.579388173637213
 20
202.15680554867259
 30
0.0
 40
49.999999999999929
 50
180.0
 51
188.36588612403261
  0
ARC
  5
368
  8
DATA
  6
CONTINUOUS
 62
     7
 10
76.579388173637213
 20
202.15680554867251
 30
0.0
 40
49.999999999999929
 50
180.0
 51
188.36588612403261
  0
ARC
  5
369
  8
DATA
  6
CONTINUOUS
 62
     7
 10
-20.920611826362759
 20
177.84319445108929
 30
0.0
 40
50.000000000000021
 50
360.0
 51
8.365886124032615
  0
ENDSEC
  0
EOF
