  0
SECTION
  2
HEADER
  9
$ACADVER
  1
AC1015
  9
$ACADMAINTVER
 70
     6
  9
$DWGCODEPAGE
  3
ANSI_932
  9
$INSBASE
 10
0.0
 20
0.0
 30
0.0
  9
$EXTMIN
 10
-180.0
 20
-271.7085997753472
 30
0.0
  9
$EXTMAX
 10
179.9999999999999
 20
263.5087852777777
 30
0.0
  9
$LIMMIN
 10
0.0
 20
0.0
  9
$LIMMAX
 10
0.0
 20
0.0
  9
$ORTHOMODE
 70
     0
  9
$REGENMODE
 70
     1
  9
$FILLMODE
 70
     1
  9
$QTEXTMODE
 70
     0
  9
$MIRRTEXT
 70
     1
  9
$LTSCALE
 40
10.16
  9
$ATTMODE
 70
     1
  9
$TEXTSIZE
 40
0.0
  9
$TRACEWID
 40
1.0
  9
$TEXTSTYLE
  7
STANDARD
  9
$CLAYER
  8
DATA
  9
$CELTYPE
  6
ByLayer
  9
$CECOLOR
 62
   256
  9
$CELTSCALE
 40
1.0
  9
$DISPSILH
 70
     0
  9
$DIMSCALE
 40
1.0
  9
$DIMASZ
 40
0.18
  9
$DIMEXO
 40
0.0625
  9
$DIMDLI
 40
0.38
  9
$DIMRND
 40
0.0
  9
$DIMDLE
 40
0.0
  9
$DIMEXE
 40
0.18
  9
$DIMTP
 40
0.0
  9
$DIMTM
 40
0.0
  9
$DIMTXT
 40
0.18
  9
$DIMCEN
 40
0.09
  9
$DIMTSZ
 40
0.0
  9
$DIMTOL
 70
     0
  9
$DIMLIM
 70
     0
  9
$DIMTIH
 70
     1
  9
$DIMTOH
 70
     1
  9
$DIMSE1
 70
     0
  9
$DIMSE2
 70
     0
  9
$DIMTAD
 70
     0
  9
$DIMZIN
 70
     0
  9
$DIMBLK
  1

  9
$DIMASO
 70
     1
  9
$DIMSHO
 70
     1
  9
$DIMPOST
  1

  9
$DIMAPOST
  1

  9
$DIMALT
 70
     0
  9
$DIMALTD
 70
     2
  9
$DIMALTF
 40
25.4
  9
$DIMLFAC
 40
1.0
  9
$DIMTOFL
 70
     0
  9
$DIMTVP
 40
0.0
  9
$DIMTIX
 70
     0
  9
$DIMSOXD
 70
     0
  9
$DIMSAH
 70
     0
  9
$DIMBLK1
  1

  9
$DIMBLK2
  1

  9
$DIMSTYLE
  2
STANDARD
  9
$DIMCLRD
 70
     0
  9
$DIMCLRE
 70
     0
  9
$DIMCLRT
 70
     0
  9
$DIMTFAC
 40
1.0
  9
$DIMGAP
 40
0.09
  9
$DIMJUST
 70
     0
  9
$DIMSD1
 70
     0
  9
$DIMSD2
 70
     0
  9
$DIMTOLJ
 70
     1
  9
$DIMTZIN
 70
     0
  9
$DIMALTZ
 70
     0
  9
$DIMALTTZ
 70
     0
  9
$DIMUPT
 70
     0
  9
$DIMDEC
 70
     4
  9
$DIMTDEC
 70
     4
  9
$DIMALTU
 70
     2
  9
$DIMALTTD
 70
     2
  9
$DIMTXSTY
  7
STANDARD
  9
$DIMAUNIT
 70
     0
  9
$DIMADEC
 70
     0
  9
$DIMALTRND
 40
0.0
  9
$DIMAZIN
 70
     0
  9
$DIMDSEP
 70
    46
  9
$DIMATFIT
 70
     3
  9
$DIMFRAC
 70
     0
  9
$DIMLDRBLK
  1

  9
$DIMLUNIT
 70
     2
  9
$DIMLWD
 70
    -2
  9
$DIMLWE
 70
    -2
  9
$DIMTMOVE
 70
     2
  9
$LUNITS
 70
     2
  9
$LUPREC
 70
     2
  9
$SKETCHINC
 40
0.1
  9
$FILLETRAD
 40
0.0
  9
$AUNITS
 70
     0
  9
$AUPREC
 70
     0
  9
$MENU
  1
acad
  9
$ELEVATION
 40
0.0
  9
$PELEVATION
 40
0.0
  9
$THICKNESS
 40
0.0
  9
$LIMCHECK
 70
     0
  9
$CHAMFERA
 40
0.0
  9
$CHAMFERB
 40
0.0
  9
$CHAMFERC
 40
0.0
  9
$CHAMFERD
 40
0.0
  9
$SKPOLY
 70
     0
  9
$TDCREATE
 40
2459002.637071748
  9
$TDUCREATE
 40
2459002.262071748
  9
$TDUPDATE
 40
2459002.641065764
  9
$TDUUPDATE
 40
2459002.266065764
  9
$TDINDWG
 40
0.0014288079
  9
$TDUSRTIMER
 40
0.0014286227
  9
$USRTIMER
 70
     1
  9
$ANGBASE
 50
0.0
  9
$ANGDIR
 70
     0
  9
$PDMODE
 70
     1
  9
$PDSIZE
 40
-2.0
  9
$PLINEWID
 40
0.0
  9
$SPLFRAME
 70
     0
  9
$SPLINETYPE
 70
     6
  9
$SPLINESEGS
 70
     8
  9
$HANDSEED
  5
3EB
  9
$SURFTAB1
 70
     6
  9
$SURFTAB2
 70
     6
  9
$SURFTYPE
 70
     6
  9
$SURFU
 70
     6
  9
$SURFV
 70
     6
  9
$UCSBASE
  2

  9
$UCSNAME
  2

  9
$UCSORG
 10
0.0
 20
0.0
 30
0.0
  9
$UCSXDIR
 10
1.0
 20
0.0
 30
0.0
  9
$UCSYDIR
 10
0.0
 20
1.0
 30
0.0
  9
$UCSORTHOREF
  2

  9
$UCSORTHOVIEW
 70
     0
  9
$UCSORGTOP
 10
0.0
 20
0.0
 30
0.0
  9
$UCSORGBOTTOM
 10
0.0
 20
0.0
 30
0.0
  9
$UCSORGLEFT
 10
0.0
 20
0.0
 30
0.0
  9
$UCSORGRIGHT
 10
0.0
 20
0.0
 30
0.0
  9
$UCSORGFRONT
 10
0.0
 20
0.0
 30
0.0
  9
$UCSORGBACK
 10
0.0
 20
0.0
 30
0.0
  9
$PUCSBASE
  2

  9
$PUCSNAME
  2

  9
$PUCSORG
 10
0.0
 20
0.0
 30
0.0
  9
$PUCSXDIR
 10
1.0
 20
0.0
 30
0.0
  9
$PUCSYDIR
 10
0.0
 20
1.0
 30
0.0
  9
$PUCSORTHOREF
  2

  9
$PUCSORTHOVIEW
 70
     0
  9
$PUCSORGTOP
 10
0.0
 20
0.0
 30
0.0
  9
$PUCSORGBOTTOM
 10
0.0
 20
0.0
 30
0.0
  9
$PUCSORGLEFT
 10
0.0
 20
0.0
 30
0.0
  9
$PUCSORGRIGHT
 10
0.0
 20
0.0
 30
0.0
  9
$PUCSORGFRONT
 10
0.0
 20
0.0
 30
0.0
  9
$PUCSORGBACK
 10
0.0
 20
0.0
 30
0.0
  9
$USERI1
 70
     0
  9
$USERI2
 70
     0
  9
$USERI3
 70
     0
  9
$USERI4
 70
     0
  9
$USERI5
 70
     0
  9
$USERR1
 40
0.0
  9
$USERR2
 40
0.0
  9
$USERR3
 40
0.0
  9
$USERR4
 40
0.0
  9
$USERR5
 40
0.0
  9
$WORLDVIEW
 70
     1
  9
$SHADEDGE
 70
     3
  9
$SHADEDIF
 70
    70
  9
$TILEMODE
 70
     1
  9
$MAXACTVP
 70
    64
  9
$PINSBASE
 10
0.0
 20
0.0
 30
0.0
  9
$PLIMCHECK
 70
     0
  9
$PEXTMIN
 10
1.000000000000000E+20
 20
1.000000000000000E+20
 30
1.000000000000000E+20
  9
$PEXTMAX
 10
-1.000000000000000E+20
 20
-1.000000000000000E+20
 30
-1.000000000000000E+20
  9
$PLIMMIN
 10
0.0
 20
0.0
  9
$PLIMMAX
 10
12.0
 20
9.0
  9
$UNITMODE
 70
     0
  9
$VISRETAIN
 70
     0
  9
$PLINEGEN
 70
     1
  9
$PSLTSCALE
 70
     0
  9
$TREEDEPTH
 70
  3020
  9
$CMLSTYLE
  2
Standard
  9
$CMLJUST
 70
     0
  9
$CMLSCALE
 40
1.0
  9
$PROXYGRAPHICS
 70
     1
  9
$MEASUREMENT
 70
     0
  9
$CELWEIGHT
370
    -1
  9
$ENDCAPS
280
     0
  9
$JOINSTYLE
280
     0
  9
$LWDISPLAY
290
     0
  9
$INSUNITS
 70
     4
  9
$HYPERLINKBASE
  1

  9
$STYLESHEET
  1

  9
$XEDIT
290
     1
  9
$CEPSNTYPE
380
     3
  9
$CEPSNID
390
0
  9
$PSTYLEMODE
290
     1
  9
$FINGERPRINTGUID
  2
{798B2368-9CD5-4AE5-A492-E60F8AE29FBC}
  9
$VERSIONGUID
  2
{FAEB1C32-E019-11D5-929B-00C0DF256EC4}
  9
$EXTNAMES
290
     1
  9
$PSVPSCALE
 40
0.0
  9
$OLESTARTUP
290
     0
  0
ENDSEC
  0
SECTION
  2
CLASSES
  0
CLASS
  1
ACDBDICTIONARYWDFLT
  2
AcDbDictionaryWithDefault
  3
ObjectDBX Classes
 90
        0
280
     0
281
     0
  0
CLASS
  1
MATERIAL
  2
AcDbMaterial
  3
ObjectDBX Classes
 90
     1153
280
     0
281
     0
  0
CLASS
  1
SCALE
  2
AcDbScale
  3
ObjectDBX Classes
 90
     1153
280
     0
281
     0
  0
CLASS
  1
VISUALSTYLE
  2
AcDbVisualStyle
  3
ObjectDBX Classes
 90
     4095
280
     0
281
     0
  0
CLASS
  1
TABLESTYLE
  2
AcDbTableStyle
  3
ObjectDBX Classes
 90
     4095
280
     0
281
     0
  0
CLASS
  1
MLEADERSTYLE
  2
AcDbMLeaderStyle
  3
ACDB_MLEADERSTYLE_CLASS
 90
     4095
280
     0
281
     0
  0
CLASS
  1
DICTIONARYVAR
  2
AcDbDictionaryVar
  3
ObjectDBX Classes
 90
        0
280
     0
281
     0
  0
CLASS
  1
ACDBPLACEHOLDER
  2
AcDbPlaceHolder
  3
ObjectDBX Classes
 90
        0
280
     0
281
     0
  0
CLASS
  1
LAYOUT
  2
AcDbLayout
  3
ObjectDBX Classes
 90
        0
280
     0
281
     0
  0
ENDSEC
  0
SECTION
  2
TABLES
  0
TABLE
  2
VPORT
  5
2ED
102
{ACAD_XDICTIONARY
360
3B1
102
}
330
0
100
AcDbSymbolTable
 70
     1
  0
VPORT
  5
305
330
2ED
100
AcDbSymbolTableRecord
100
AcDbViewportTableRecord
  2
*ACTIVE
 70
     0
 10
0.0
 20
0.0
 11
1.0
 21
1.0
 12
-0.0000000000000284
 22
-3.554844722222242
 13
0.0
 23
0.0
 14
1.0
 24
1.0
 15
0.0
 25
0.0
 16
0.0
 26
0.0
 36
1.0
 17
0.0
 27
0.0
 37
0.0
 40
534.12726
 41
2.064194008559201
 42
50.0
 43
0.0
 44
0.0
 50
0.0
 51
0.0
 71
     0
 72
  2000
 73
     1
 74
     1
 75
     0
 76
     0
 77
     0
 78
     0
281
     0
 65
     0
110
0.0
120
0.0
130
0.0
111
1.0
121
0.0
131
0.0
112
0.0
122
1.0
132
0.0
 79
     0
146
0.0
  0
ENDTAB
  0
TABLE
  2
LTYPE
  5
2EA
330
0
100
AcDbSymbolTable
 70
     2
  0
LTYPE
  5
2F9
330
2EA
100
AcDbSymbolTableRecord
100
AcDbLinetypeTableRecord
  2
ByBlock
 70
     0
  3

 72
    65
 73
     0
 40
0.0
  0
LTYPE
  5
2FA
330
2EA
100
AcDbSymbolTableRecord
100
AcDbLinetypeTableRecord
  2
ByLayer
 70
     0
  3

 72
    65
 73
     0
 40
0.0
  0
LTYPE
  5
2FB
330
2EA
100
AcDbSymbolTableRecord
100
AcDbLinetypeTableRecord
  2
CONTINUOUS
 70
     0
  3
Solid line
 72
    65
 73
     0
 40
0.0
  0
LTYPE
  5
307
330
2EA
100
AcDbSymbolTableRecord
100
AcDbLinetypeTableRecord
  2
STYLE_01
 70
     0
  3

 72
    65
 73
     2
 40
0.4166412353515625
 49
0.208282470703125
 74
     0
 49
-0.2083587646484375
 74
     0
  0
ENDTAB
  0
TABLE
  2
LAYER
  5
2E7
102
{ACAD_XDICTIONARY
360
350
102
}
330
0
100
AcDbSymbolTable
 70
     6
  0
LAYER
  5
2F5
330
2E7
100
AcDbSymbolTableRecord
100
AcDbLayerTableRecord
  2
0
 70
     0
 62
     7
  6
CONTINUOUS
370
    -3
390
2F4
  0
LAYER
  5
316
330
2E7
100
AcDbSymbolTableRecord
100
AcDbLayerTableRecord
  2
HIBINO-BASE
 70
     0
 62
     7
  6
CONTINUOUS
370
    -3
390
2F4
  0
LAYER
  5
317
330
2E7
100
AcDbSymbolTableRecord
100
AcDbLayerTableRecord
  2
PATTERN_FILL
 70
     0
 62
     7
  6
CONTINUOUS
370
    -3
390
2F4
  0
LAYER
  5
318
330
2E7
100
AcDbSymbolTableRecord
100
AcDbLayerTableRecord
  2
SPEC
 70
     0
 62
     7
  6
CONTINUOUS
370
    -3
390
2F4
  0
LAYER
  5
319
330
2E7
100
AcDbSymbolTableRecord
100
AcDbLayerTableRecord
  2
DIMNSIONS
 70
     0
 62
     7
  6
CONTINUOUS
370
    -3
390
2F4
  0
LAYER
  5
31A
330
2E7
100
AcDbSymbolTableRecord
100
AcDbLayerTableRecord
  2
DATA
 70
     0
 62
     7
  6
CONTINUOUS
370
    -3
390
2F4
  0
ENDTAB
  0
TABLE
  2
STYLE
  5
2E8
330
0
100
AcDbSymbolTable
 70
     1
  0
STYLE
  5
2F7
330
2E8
100
AcDbSymbolTableRecord
100
AcDbTextStyleTableRecord
  2
STANDARD
 70
     0
 40
0.0
 41
1.0
 50
0.0
 71
     0
 42
0.0
  3
txt
  4
BIGFONT.SHX
  0
ENDTAB
  0
TABLE
  2
VIEW
  5
2EB
330
0
100
AcDbSymbolTable
 70
     0
  0
ENDTAB
  0
TABLE
  2
UCS
  5
2EC
330
0
100
AcDbSymbolTable
 70
     0
  0
ENDTAB
  0
TABLE
  2
APPID
  5
2EE
330
0
100
AcDbSymbolTable
 70
     3
  0
APPID
  5
2F8
330
2EE
100
AcDbSymbolTableRecord
100
AcDbRegAppTableRecord
  2
ACAD
 70
     0
  0
APPID
  5
354
330
2EE
100
AcDbSymbolTableRecord
100
AcDbRegAppTableRecord
  2
ACAD_MLEADERVER
 70
     0
  0
APPID
  5
355
330
2EE
100
AcDbSymbolTableRecord
100
AcDbRegAppTableRecord
  2
AcadAnnoPO
 70
     0
  0
ENDTAB
  0
TABLE
  2
DIMSTYLE
  5
2EF
330
0
100
AcDbSymbolTable
 70
     1
100
AcDbDimStyleTable
  0
DIMSTYLE
105
31E
330
2EF
100
AcDbSymbolTableRecord
100
AcDbDimStyleTableRecord
  2
STANDARD
 70
     0
178
     0
340
2F7
  0
ENDTAB
  0
TABLE
  2
BLOCK_RECORD
  5
2E6
330
0
100
AcDbSymbolTable
 70
     2
  0
BLOCK_RECORD
  5
39A
330
2E6
100
AcDbSymbolTableRecord
100
AcDbBlockTableRecord
  2
*Model_Space
340
39C
  0
BLOCK_RECORD
  5
39B
330
2E6
100
AcDbSymbolTableRecord
100
AcDbBlockTableRecord
  2
*Paper_Space
340
39D
  0
BLOCK_RECORD
  5
302
330
2E6
100
AcDbSymbolTableRecord
100
AcDbBlockTableRecord
  2
$MODEL_SPACE
340
303
  0
BLOCK_RECORD
  5
300
330
2E6
100
AcDbSymbolTableRecord
100
AcDbBlockTableRecord
  2
$PAPER_SPACE
340
301
  0
ENDTAB
  0
ENDSEC
  0
SECTION
  2
BLOCKS
  0
BLOCK
  5
39E
330
39A
100
AcDbEntity
  8
DATA
100
AcDbBlockBegin
  2
*Model_Space
 70
     0
 10
0.0
 20
0.0
 30
0.0
  3
*Model_Space
  1
Acad:XRef
  0
ENDBLK
  5
39F
330
39A
100
AcDbEntity
  8
DATA
100
AcDbBlockEnd
  0
BLOCK
  5
3A0
330
39B
100
AcDbEntity
 67
     1
  8
DATA
100
AcDbBlockBegin
  2
*Paper_Space
 70
     0
 10
0.0
 20
0.0
 30
0.0
  3
*Paper_Space
  1
Acad:XRef
  0
ENDBLK
  5
3A1
330
39B
100
AcDbEntity
 67
     1
  8
DATA
100
AcDbBlockEnd
  0
BLOCK
  5
333
330
302
100
AcDbEntity
  8
DATA
100
AcDbBlockBegin
  2
$MODEL_SPACE
 70
     0
 10
0.0
 20
0.0
 30
0.0
  3
$MODEL_SPACE
  1
Acad:XRef
  0
ENDBLK
  5
334
330
302
100
AcDbEntity
  8
DATA
100
AcDbBlockEnd
  0
BLOCK
  5
331
330
300
100
AcDbEntity
  8
DATA
100
AcDbBlockBegin
  2
$PAPER_SPACE
 70
     0
 10
0.0
 20
0.0
 30
0.0
  3
$PAPER_SPACE
  1
Acad:XRef
  0
ENDBLK
  5
332
330
300
100
AcDbEntity
  8
DATA
100
AcDbBlockEnd
  0
ENDSEC
  0
SECTION
  2
ENTITIES
  0
TEXT
  5
2D
330
39A
100
AcDbEntity
  8
HIBINO-BASE
 62
     7
100
AcDbText
 10
46.71307999999999
 20
-250.7639213888889
 30
0.0
 40
3.257682291666666
  1
'20.06.
 41
0.7
 11
46.71307999999999
 21
-247.5062390972222
 31
0.0
100
AcDbText
 73
     3
  0
TEXT
  5
2E
330
39A
100
AcDbEntity
  8
HIBINO-BASE
 62
     7
100
AcDbText
 10
35.0
 20
-252.4591013888889
 30
0.0
 40
3.257682291666666
  1
2
 41
0.7
 11
35.0
 21
-249.2014190972222
 31
0.0
100
AcDbText
 73
     3
  0
LINE
  5
2F
330
39A
100
AcDbEntity
  8
HIBINO-BASE
  6
Continuous
 62
     7
100
AcDbLine
 10
-180.0
 20
263.5087852777777
 30
0.0
 11
179.9999999999999
 21
263.5087852777777
 31
0.0
  0
LINE
  5
30
330
39A
100
AcDbEntity
  8
HIBINO-BASE
  6
Continuous
 62
     7
100
AcDbLine
 10
179.9999999999999
 20
-256.4912147222222
 30
0.0
 11
-180.0
 21
-256.4912147222222
 31
0.0
  0
LINE
  5
31
330
39A
100
AcDbEntity
  8
HIBINO-BASE
  6
Continuous
 62
     7
100
AcDbLine
 10
-180.0
 20
-256.4912147222222
 30
0.0
 11
-180.0
 21
263.5087852777777
 31
0.0
  0
LINE
  5
32
330
39A
100
AcDbEntity
  8
HIBINO-BASE
  6
Continuous
 62
     7
100
AcDbLine
 10
179.9999999999999
 20
263.5087852777777
 30
0.0
 11
179.9999999999999
 21
-256.4912147222222
 31
0.0
  0
LINE
  5
33
330
39A
100
AcDbEntity
  8
HIBINO-BASE
  6
Continuous
 62
     7
100
AcDbLine
 10
0.0
 20
-211.4912147222222
 30
0.0
 11
179.9999999999999
 21
-211.4912147222222
 31
0.0
  0
LINE
  5
34
330
39A
100
AcDbEntity
  8
HIBINO-BASE
  6
Continuous
 62
     7
100
AcDbLine
 10
0.0
 20
-256.4912147222222
 30
0.0
 11
0.0
 21
-211.4912147222222
 31
0.0
  0
TEXT
  5
35
330
39A
100
AcDbEntity
  8
HIBINO-BASE
 62
     7
100
AcDbText
 10
1.800000000000011
 20
-216.5086013888889
 30
0.0
 40
3.257682291666666
  1
NOTE
 41
0.7
 11
1.800000000000011
 21
-213.2509190972222
 31
0.0
100
AcDbText
 73
     3
  0
LINE
  5
36
330
39A
100
AcDbEntity
  8
HIBINO-BASE
  6
Continuous
 62
     7
100
AcDbLine
 10
70.0
 20
-256.4912147222222
 30
0.0
 11
70.0
 21
-211.4912147222222
 31
0.0
  0
TEXT
  5
37
330
39A
100
AcDbEntity
  8
HIBINO-BASE
 62
     7
100
AcDbText
 10
71.79999999999995
 20
-216.5086013888889
 30
0.0
 40
3.257682291666666
  1
TITLE
 41
0.7
 11
71.79999999999995
 21
-213.2509190972222
 31
0.0
100
AcDbText
 73
     3
  0
LINE
  5
38
330
39A
100
AcDbEntity
  8
HIBINO-BASE
  6
Continuous
 62
     7
100
AcDbLine
 10
0.0
 20
-236.4912147222222
 30
0.0
 11
179.9999999999999
 21
-236.4912147222222
 31
0.0
  0
TEXT
  5
39
330
39A
100
AcDbEntity
  8
HIBINO-BASE
 62
     7
100
AcDbText
 10
96.79999999999995
 20
-241.3959613888889
 30
0.0
 40
3.257682291666666
  1
DRAWN
 41
0.7
 11
96.79999999999995
 21
-238.1382790972222
 31
0.0
100
AcDbText
 73
     3
  0
TEXT
  5
3A
330
39A
100
AcDbEntity
  8
HIBINO-BASE
 62
     7
100
AcDbText
 10
46.79999999999995
 20
-241.3959613888889
 30
0.0
 40
3.257682291666666
  1
DATE
 41
0.7
 11
46.79999999999995
 21
-238.1382790972222
 31
0.0
100
AcDbText
 73
     3
  0
TEXT
  5
3B
330
39A
100
AcDbEntity
  8
HIBINO-BASE
 62
     7
100
AcDbText
 10
26.79999999999995
 20
-241.3959613888889
 30
0.0
 40
3.257682291666666
  1
SCALE
 41
0.7
 11
26.79999999999995
 21
-238.1382790972222
 31
0.0
100
AcDbText
 73
     3
  0
TEXT
  5
3C
330
39A
100
AcDbEntity
  8
HIBINO-BASE
 62
     7
100
AcDbText
 10
71.79999999999995
 20
-241.3959613888889
 30
0.0
 40
3.257682291666666
  1
DESIGN
 41
0.7
 11
71.79999999999995
 21
-238.1382790972222
 31
0.0
100
AcDbText
 73
     3
  0
TEXT
  5
3D
330
39A
100
AcDbEntity
  8
HIBINO-BASE
 62
     7
100
AcDbText
 10
146.8
 20
-241.3959613888889
 30
0.0
 40
3.257682291666666
  1
DRAWING NO.
 41
0.7
 11
146.8
 21
-238.1382790972222
 31
0.0
100
AcDbText
 73
     3
  0
TEXT
  5
3E
330
39A
100
AcDbEntity
  8
HIBINO-BASE
 62
     7
100
AcDbText
 10
121.8
 20
-241.3959613888889
 30
0.0
 40
3.257682291666666
  1
CHECK
 41
0.7
 11
121.8
 21
-238.1382790972222
 31
0.0
100
AcDbText
 73
     3
  0
LINE
  5
3F
330
39A
100
AcDbEntity
  8
HIBINO-BASE
  6
Continuous
 62
     7
100
AcDbLine
 10
28.75
 20
-253.9912147222222
 30
0.0
 11
36.25
 21
-246.4912147222222
 31
0.0
  0
TEXT
  5
40
330
39A
100
AcDbEntity
  8
HIBINO-BASE
 62
     7
100
AcDbText
 10
27.5
 20
-248.7091013888889
 30
0.0
 40
3.257682291666666
  1
1
 41
0.7
 11
27.5
 21
-245.4514190972222
 31
0.0
100
AcDbText
 73
     3
  0
LINE
  5
41
330
39A
100
AcDbEntity
  8
HIBINO-BASE
  6
Continuous
 62
     7
100
AcDbLine
 10
25.0
 20
-256.4912147222222
 30
0.0
 11
25.0
 21
-236.4912147222222
 31
0.0
  0
LINE
  5
42
330
39A
100
AcDbEntity
  8
HIBINO-BASE
  6
Continuous
 62
     7
100
AcDbLine
 10
44.99999999999994
 20
-256.4912147222222
 30
0.0
 11
44.99999999999994
 21
-236.4912147222222
 31
0.0
  0
LINE
  5
43
330
39A
100
AcDbEntity
  8
HIBINO-BASE
  6
Continuous
 62
     7
100
AcDbLine
 10
94.99999999999994
 20
-236.4912147222222
 30
0.0
 11
94.99999999999994
 21
-256.4912147222222
 31
0.0
  0
LINE
  5
44
330
39A
100
AcDbEntity
  8
HIBINO-BASE
  6
Continuous
 62
     7
100
AcDbLine
 10
145.0
 20
-236.4912147222222
 30
0.0
 11
145.0
 21
-256.4912147222222
 31
0.0
  0
LINE
  5
45
330
39A
100
AcDbEntity
  8
HIBINO-BASE
  6
Continuous
 62
     7
100
AcDbLine
 10
119.9999999999999
 20
-256.4912147222222
 30
0.0
 11
119.9999999999999
 21
-236.4912147222222
 31
0.0
  0
TEXT
  5
46
330
39A
100
AcDbEntity
  8
HIBINO-BASE
 62
     7
100
AcDbText
 10
98.01162002206922
 20
-250.7639213888889
 30
0.0
 40
3.257682291666666
  1
N.Sasaki
 41
0.7
 11
98.01162002206922
 21
-247.5062390972222
 31
0.0
100
AcDbText
 73
     3
  0
TEXT
  5
47
330
39A
100
AcDbEntity
  8
HIBINO-BASE
 62
     7
100
AcDbText
 10
7.766666666666708
 20
-252.5392147222221
 30
0.0
 40
6.515364583333333
  1
A4
 41
0.7
 11
7.766666666666708
 21
-246.0238501388888
 31
0.0
100
AcDbText
 73
     3
  0
TEXT
  5
48
330
39A
100
AcDbEntity
  8
HIBINO-BASE
 62
     7
100
AcDbText
 10
1.916666666666629
 20
-241.7301247222223
 30
0.0
 40
3.257682291666666
  1
PAPER SIZE
 41
0.7
 11
1.916666666666629
 21
-238.4724424305556
 31
0.0
100
AcDbText
 73
     3
  0
TEXT
  5
49
330
39A
100
AcDbEntity
  8
HIBINO-BASE
 62
     7
100
AcDbText
 10
-165.632
 20
-269.3085703222222
 30
0.0
 40
7.200088359374999
  1
Hibino Corporation
 41
0.7
 11
-165.632
 21
-262.1084819628472
 31
0.0
100
AcDbText
 73
     3
  0
TEXT
  5
4A
330
39A
100
AcDbEntity
  8
HIBINO-BASE
 62
     7
100
AcDbText
 10
100.13678
 20
-269.3085703222222
 30
0.0
 40
7.200088359374999
  1
ヒビノ株式会社
 41
0.7
 11
100.13678
 21
-262.1084819628472
 31
0.0
100
AcDbText
 73
     3
  0
LINE
  5
4B
330
39A
100
AcDbEntity
  8
PATTERN_FILL
  6
Continuous
 62
     7
100
AcDbLine
 10
43.05635758751509
 20
33.05635758751515
 30
0.0
 11
41.03478260869565
 21
31.03478260869564
 31
0.0
  0
LINE
  5
4C
330
39A
100
AcDbEntity
  8
PATTERN_FILL
  6
Continuous
 62
     7
100
AcDbLine
 10
46.06918218499595
 20
33.26918218499606
 30
0.0
 11
40.91304347826076
 21
28.11304347826084
 31
0.0
  0
LINE
  5
4D
330
39A
100
AcDbEntity
  8
PATTERN_FILL
  6
Continuous
 62
     7
100
AcDbLine
 10
49.04412138254202
 20
33.44412138254202
 30
0.0
 11
40.7913043478261
 21
25.19130434782609
 31
0.0
  0
LINE
  5
4E
330
39A
100
AcDbEntity
  8
PATTERN_FILL
  6
Continuous
 62
     7
100
AcDbLine
 10
51.98264344631752
 20
33.58264344631762
 30
0.0
 11
40.66956521739121
 21
22.26956521739127
 31
0.0
  0
LINE
  5
4F
330
39A
100
AcDbEntity
  8
PATTERN_FILL
  6
Continuous
 62
     7
100
AcDbLine
 10
54.88611030812308
 20
33.68611030812312
 30
0.0
 11
40.54782608695655
 21
19.34782608695652
 31
0.0
  0
LINE
  5
50
330
39A
100
AcDbEntity
  8
PATTERN_FILL
  6
Continuous
 62
     7
100
AcDbLine
 10
57.7557880181264
 20
33.75578801812648
 30
0.0
 11
40.42608695652166
 21
16.42608695652174
 31
0.0
  0
LINE
  5
51
330
39A
100
AcDbEntity
  8
PATTERN_FILL
  6
Continuous
 62
     7
100
AcDbLine
 10
60.59285590526247
 20
33.79285590526249
 30
0.0
 11
40.304347826087
 21
13.50434782608693
 31
0.0
  0
LINE
  5
52
330
39A
100
AcDbEntity
  8
PATTERN_FILL
  6
Continuous
 62
     7
100
AcDbLine
 10
63.39841463566199
 20
33.79841463566201
 30
0.0
 11
40.18260869565211
 21
10.58260869565217
 31
0.0
  0
LINE
  5
53
330
39A
100
AcDbEntity
  8
PATTERN_FILL
  6
Continuous
 62
     7
100
AcDbLine
 10
66.17349332715958
 20
33.77349332715957
 30
0.0
 11
40.06086956521722
 21
7.660869565217368
 31
0.0
  0
LINE
  5
54
330
39A
100
AcDbEntity
  8
PATTERN_FILL
  6
Continuous
 62
     7
100
AcDbLine
 10
68.9190558517937
 20
33.71905585179373
 30
0.0
 11
39.93913043478256
 21
4.739130434782624
 31
0.0
  0
LINE
  5
55
330
39A
100
AcDbEntity
  8
PATTERN_FILL
  6
Continuous
 62
     7
100
AcDbLine
 10
71.63600643693894
 20
33.63600643693894
 30
0.0
 11
39.81739130434767
 21
1.817391304347822
 31
0.0
  0
LINE
  5
56
330
39A
100
AcDbEntity
  8
PATTERN_FILL
  6
Continuous
 62
     7
100
AcDbLine
 10
74.32519465830592
 20
33.52519465830591
 30
0.0
 11
39.695652173913
 21
-1.104347826086965
 31
0.0
  0
LINE
  5
57
330
39A
100
AcDbEntity
  8
PATTERN_FILL
  6
Continuous
 62
     7
100
AcDbLine
 10
76.98741990372173
 20
33.38741990372171
 30
0.0
 11
39.57391304347811
 21
-4.026086956521723
 31
0.0
  0
LINE
  5
58
330
39A
100
AcDbEntity
  8
PATTERN_FILL
  6
Continuous
 62
     7
100
AcDbLine
 10
79.62343537476909
 20
33.22343537476907
 30
0.0
 11
39.45217391304345
 21
-6.947826086956496
 31
0.0
  0
LINE
  5
59
330
39A
100
AcDbEntity
  8
PATTERN_FILL
  6
Continuous
 62
     7
100
AcDbLine
 10
82.23395168352386
 20
33.03395168352399
 30
0.0
 11
39.33043478260856
 21
-9.869565217391283
 31
0.0
  0
LINE
  5
5A
330
39A
100
AcDbEntity
  8
PATTERN_FILL
  6
Continuous
 62
     7
100
AcDbLine
 10
83.91777316899197
 20
31.91777316899199
 30
0.0
 11
39.2086956521739
 21
-12.79130434782604
 31
0.0
  0
LINE
  5
5B
330
39A
100
AcDbEntity
  8
PATTERN_FILL
  6
Continuous
 62
     7
100
AcDbLine
 10
84.03999999999996
 20
29.24000000000004
 30
0.0
 11
39.08695652173901
 21
-15.71304347826086
 31
0.0
  0
LINE
  5
5C
330
39A
100
AcDbEntity
  8
PATTERN_FILL
  6
Continuous
 62
     7
100
AcDbLine
 10
84.15200000000004
 20
26.55200000000001
 30
0.0
 11
38.96521739130435
 21
-18.63478260869563
 31
0.0
  0
LINE
  5
5D
330
39A
100
AcDbEntity
  8
PATTERN_FILL
  6
Continuous
 62
     7
100
AcDbLine
 10
84.2639999999999
 20
23.86400000000003
 30
0.0
 11
38.84347826086946
 21
-21.5565217391304
 31
0.0
  0
LINE
  5
5E
330
39A
100
AcDbEntity
  8
PATTERN_FILL
  6
Continuous
 62
     7
100
AcDbLine
 10
84.37599999999998
 20
21.176
 30
0.0
 11
38.7217391304348
 21
-24.47826086956519
 31
0.0
  0
LINE
  5
5F
330
39A
100
AcDbEntity
  8
PATTERN_FILL
  6
Continuous
 62
     7
100
AcDbLine
 10
84.48799999999983
 20
18.48800000000001
 30
0.0
 11
40.85553326272202
 21
-25.14446673727795
 31
0.0
  0
LINE
  5
60
330
39A
100
AcDbEntity
  8
PATTERN_FILL
  6
Continuous
 62
     7
100
AcDbLine
 10
84.59999999999991
 20
15.80000000000008
 30
0.0
 11
43.4844186480293
 21
-25.31558135197065
 31
0.0
  0
LINE
  5
61
330
39A
100
AcDbEntity
  8
PATTERN_FILL
  6
Continuous
 62
     7
100
AcDbLine
 10
84.71199999999999
 20
13.11200000000002
 30
0.0
 11
46.1344018843281
 21
-25.46559811567193
 31
0.0
  0
LINE
  5
62
330
39A
100
AcDbEntity
  8
PATTERN_FILL
  6
Continuous
 62
     7
100
AcDbLine
 10
84.82399999999984
 20
10.42400000000002
 30
0.0
 11
48.80596775800382
 21
-25.59403224199622
 31
0.0
  0
LINE
  5
63
330
39A
100
AcDbEntity
  8
PATTERN_FILL
  6
Continuous
 62
     7
100
AcDbLine
 10
84.93599999999992
 20
7.736000000000047
 30
0.0
 11
51.49962478865723
 21
-25.70037521134262
 31
0.0
  0
LINE
  5
64
330
39A
100
AcDbEntity
  8
PATTERN_FILL
  6
Continuous
 62
     7
100
AcDbLine
 10
85.048
 20
5.048000000000073
 30
0.0
 11
54.21590686059858
 21
-25.78409313940122
 31
0.0
  0
LINE
  5
65
330
39A
100
AcDbEntity
  8
PATTERN_FILL
  6
Continuous
 62
     7
100
AcDbLine
 10
85.15999999999985
 20
2.360000000000042
 30
0.0
 11
56.9553750030932
 21
-25.84462499690679
 31
0.0
  0
LINE
  5
66
330
39A
100
AcDbEntity
  8
PATTERN_FILL
  6
Continuous
 62
     7
100
AcDbLine
 10
85.27199999999993
 20
-0.3279999999999745
 30
0.0
 11
59.71861933630953
 21
-25.88138066369039
 31
0.0
  0
LINE
  5
67
330
39A
100
AcDbEntity
  8
PATTERN_FILL
  6
Continuous
 62
     7
100
AcDbLine
 10
85.38400000000001
 20
-3.015999999999948
 30
0.0
 11
62.5
 21
-25.89999999999995
 31
0.0
  0
LINE
  5
68
330
39A
100
AcDbEntity
  8
PATTERN_FILL
  6
Continuous
 62
     7
100
AcDbLine
 10
85.49599999999987
 20
-5.703999999999937
 30
0.0
 11
65.31895550268587
 21
-25.88104449731405
 31
0.0
  0
LINE
  5
69
330
39A
100
AcDbEntity
  8
PATTERN_FILL
  6
Continuous
 62
     7
100
AcDbLine
 10
85.60799999999995
 20
-8.391999999999939
 30
0.0
 11
68.15739326917765
 21
-25.8426067308223
 31
0.0
  0
LINE
  5
6A
330
39A
100
AcDbEntity
  8
PATTERN_FILL
  6
Continuous
 62
     7
100
AcDbLine
 10
85.72000000000003
 20
-11.07999999999996
 30
0.0
 11
71.02230449418539
 21
-25.77769550581441
 31
0.0
  0
LINE
  5
6B
330
39A
100
AcDbEntity
  8
PATTERN_FILL
  6
Continuous
 62
     7
100
AcDbLine
 10
85.83199999999988
 20
-13.76799999999996
 30
0.0
 11
73.91446125634093
 21
-25.68553874365888
 31
0.0
  0
LINE
  5
6C
330
39A
100
AcDbEntity
  8
PATTERN_FILL
  6
Continuous
 62
     7
100
AcDbLine
 10
85.94399999999996
 20
-16.4559999999999
 30
0.0
 11
76.83468117829648
 21
-25.56531882170344
 31
0.0
  0
LINE
  5
6D
330
39A
100
AcDbEntity
  8
PATTERN_FILL
  6
Continuous
 62
     7
100
AcDbLine
 10
86.05600000000004
 20
-19.14399999999993
 30
0.0
 11
79.7838312615113
 21
-25.41616873848858
 31
0.0
  0
LINE
  5
6E
330
39A
100
AcDbEntity
  8
PATTERN_FILL
  6
Continuous
 62
     7
100
AcDbLine
 10
86.16799999999989
 20
-21.83199999999997
 30
0.0
 11
82.76283214955333
 21
-25.2371678504465
 31
0.0
  0
LINE
  5
6F
330
39A
100
AcDbEntity
  8
PATTERN_FILL
  6
Continuous
 62
     7
100
AcDbLine
 10
80.86318746925235
 20
33.13681253074758
 30
0.0
 11
84.00869565217386
 21
29.99130434782607
 31
0.0
  0
LINE
  5
70
330
39A
100
AcDbEntity
  8
PATTERN_FILL
  6
Continuous
 62
     7
100
AcDbLine
 10
77.86406908581307
 20
33.33593091418699
 30
0.0
 11
84.13043478260875
 21
27.06956521739129
 31
0.0
  0
LINE
  5
71
330
39A
100
AcDbEntity
  8
PATTERN_FILL
  6
Continuous
 62
     7
100
AcDbLine
 10
74.90229879734284
 20
33.49770120265721
 30
0.0
 11
84.2521739130434
 21
24.14782608695653
 31
0.0
  0
LINE
  5
72
330
39A
100
AcDbEntity
  8
PATTERN_FILL
  6
Continuous
 62
     7
100
AcDbLine
 10
71.9764476044677
 20
33.62355239553214
 30
0.0
 11
84.3739130434783
 21
21.22608695652173
 31
0.0
  0
LINE
  5
73
330
39A
100
AcDbEntity
  8
PATTERN_FILL
  6
Continuous
 62
     7
100
AcDbLine
 10
69.08518894717236
 20
33.71481105282749
 30
0.0
 11
84.49565217391296
 21
18.30434782608694
 31
0.0
  0
LINE
  5
74
330
39A
100
AcDbEntity
  8
PATTERN_FILL
  6
Continuous
 62
     7
100
AcDbLine
 10
66.22728873780284
 20
33.77271126219713
 30
0.0
 11
84.61739130434785
 21
15.38260869565217
 31
0.0
  0
LINE
  5
75
330
39A
100
AcDbEntity
  8
PATTERN_FILL
  6
Continuous
 62
     7
100
AcDbLine
 10
63.401596614254
 20
33.79840338574591
 30
0.0
 11
84.73913043478251
 21
12.46086956521738
 31
0.0
  0
LINE
  5
76
330
39A
100
AcDbEntity
  8
PATTERN_FILL
  6
Continuous
 62
     7
100
AcDbLine
 10
60.60703823532549
 20
33.79296176467444
 30
0.0
 11
84.8608695652174
 21
9.539130434782606
 31
0.0
  0
LINE
  5
77
330
39A
100
AcDbEntity
  8
PATTERN_FILL
  6
Continuous
 62
     7
100
AcDbLine
 10
57.84260847016139
 20
33.75739152983863
 30
0.0
 11
84.98260869565206
 21
6.617391304347809
 31
0.0
  0
LINE
  5
78
330
39A
100
AcDbEntity
  8
PATTERN_FILL
  6
Continuous
 62
     7
100
AcDbLine
 10
55.10736535796241
 20
33.69263464203766
 30
0.0
 11
85.10434782608695
 21
3.695652173913061
 31
0.0
  0
LINE
  5
79
330
39A
100
AcDbEntity
  8
PATTERN_FILL
  6
Continuous
 62
     7
100
AcDbLine
 10
52.40042473394374
 20
33.59957526605626
 30
0.0
 11
85.22608695652161
 21
0.7739130434782524
 31
0.0
  0
LINE
  5
7A
330
39A
100
AcDbEntity
  8
PATTERN_FILL
  6
Continuous
 62
     7
100
AcDbLine
 10
49.72095543373939
 20
33.47904456626049
 30
0.0
 11
85.3478260869565
 21
-2.147826086956499
 31
0.0
  0
LINE
  5
7B
330
39A
100
AcDbEntity
  8
PATTERN_FILL
  6
Continuous
 62
     7
100
AcDbLine
 10
47.06817500182251
 20
33.3318249981775
 30
0.0
 11
85.46956521739116
 21
-5.0695652173913
 31
0.0
  0
LINE
  5
7C
330
39A
100
AcDbEntity
  8
PATTERN_FILL
  6
Continuous
 62
     7
100
AcDbLine
 10
44.44134584058702
 20
33.15865415941295
 30
0.0
 11
85.59130434782605
 21
-7.99130434782608
 31
0.0
  0
LINE
  5
7D
330
39A
100
AcDbEntity
  8
PATTERN_FILL
  6
Continuous
 62
     7
100
AcDbLine
 10
41.89078552609021
 20
32.9092144739098
 30
0.0
 11
85.71304347826094
 21
-10.91304347826087
 31
0.0
  0
LINE
  5
7E
330
39A
100
AcDbEntity
  8
PATTERN_FILL
  6
Continuous
 62
     7
100
AcDbLine
 10
41.03199999999993
 20
30.96800000000005
 30
0.0
 11
85.8347826086956
 21
-13.83478260869563
 31
0.0
  0
LINE
  5
7F
330
39A
100
AcDbEntity
  8
PATTERN_FILL
  6
Continuous
 62
     7
100
AcDbLine
 10
40.91999999999985
 20
28.28000000000004
 30
0.0
 11
85.9565217391305
 21
-16.75652173913041
 31
0.0
  0
LINE
  5
80
330
39A
100
AcDbEntity
  8
PATTERN_FILL
  6
Continuous
 62
     7
100
AcDbLine
 10
40.80799999999999
 20
25.59200000000003
 30
0.0
 11
86.07826086956516
 21
-19.67826086956517
 31
0.0
  0
LINE
  5
81
330
39A
100
AcDbEntity
  8
PATTERN_FILL
  6
Continuous
 62
     7
100
AcDbLine
 10
40.69599999999991
 20
22.90400000000002
 30
0.0
 11
86.20000000000005
 21
-22.59999999999998
 31
0.0
  0
LINE
  5
82
330
39A
100
AcDbEntity
  8
PATTERN_FILL
  6
Continuous
 62
     7
100
AcDbLine
 10
40.47199999999998
 20
17.52800000000002
 30
0.0
 11
83.20797151062106
 21
-25.20797151062119
 31
0.0
  0
LINE
  5
83
330
39A
100
AcDbEntity
  8
PATTERN_FILL
  6
Continuous
 62
     7
100
AcDbLine
 10
40.3599999999999
 20
14.84
 30
0.0
 11
80.5716054016757
 21
-25.37160540167573
 31
0.0
  0
LINE
  5
84
330
39A
100
AcDbEntity
  8
PATTERN_FILL
  6
Continuous
 62
     7
100
AcDbLine
 10
40.24800000000005
 20
12.15200000000004
 30
0.0
 11
77.91397093137152
 21
-25.51397093137143
 31
0.0
  0
LINE
  5
85
330
39A
100
AcDbEntity
  8
PATTERN_FILL
  6
Continuous
 62
     7
100
AcDbLine
 10
40.13599999999997
 20
9.464000000000027
 30
0.0
 11
75.23457501575308
 21
-25.63457501575302
 31
0.0
  0
LINE
  5
86
330
39A
100
AcDbEntity
  8
PATTERN_FILL
  6
Continuous
 62
     7
100
AcDbLine
 10
40.02399999999989
 20
6.776000000000039
 30
0.0
 11
72.53290027107118
 21
-25.73290027107112
 31
0.0
  0
LINE
  5
87
330
39A
100
AcDbEntity
  8
PATTERN_FILL
  6
Continuous
 62
     7
100
AcDbLine
 10
39.91200000000003
 20
4.088000000000036
 30
0.0
 11
69.80840333097558
 21
-25.80840333097565
 31
0.0
  0
LINE
  5
88
330
39A
100
AcDbEntity
  8
PATTERN_FILL
  6
Continuous
 62
     7
100
AcDbLine
 10
39.79999999999995
 20
1.400000000000034
 30
0.0
 11
67.06051300914964
 21
-25.86051300914967
 31
0.0
  0
LINE
  5
89
330
39A
100
AcDbEntity
  8
PATTERN_FILL
  6
Continuous
 62
     7
100
AcDbLine
 10
39.68799999999987
 20
-1.287999999999968
 30
0.0
 11
64.28862828964066
 21
-25.88862828964076
 31
0.0
  0
LINE
  5
8A
330
39A
100
AcDbEntity
  8
PATTERN_FILL
  6
Continuous
 62
     7
100
AcDbLine
 10
39.57600000000002
 20
-3.975999999999942
 30
0.0
 11
61.49211612468389
 21
-25.89211612468397
 31
0.0
  0
LINE
  5
8B
330
39A
100
AcDbEntity
  8
PATTERN_FILL
  6
Continuous
 62
     7
100
AcDbLine
 10
39.46399999999994
 20
-6.663999999999945
 30
0.0
 11
58.67030901694625
 21
-25.87030901694624
 31
0.0
  0
LINE
  5
8C
330
39A
100
AcDbEntity
  8
PATTERN_FILL
  6
Continuous
 62
     7
100
AcDbLine
 10
39.35199999999986
 20
-9.351999999999947
 30
0.0
 11
55.82250235977199
 21
-25.82250235977207
 31
0.0
  0
LINE
  5
8D
330
39A
100
AcDbEntity
  8
PATTERN_FILL
  6
Continuous
 62
     7
100
AcDbLine
 10
39.24000000000001
 20
-12.03999999999994
 30
0.0
 11
52.94795150509526
 21
-25.74795150509519
 31
0.0
  0
LINE
  5
8E
330
39A
100
AcDbEntity
  8
PATTERN_FILL
  6
Continuous
 62
     7
100
AcDbLine
 10
39.12799999999993
 20
-14.72799999999997
 30
0.0
 11
50.04586852407078
 21
-25.64586852407068
 31
0.0
  0
LINE
  5
8F
330
39A
100
AcDbEntity
  8
PATTERN_FILL
  6
Continuous
 62
     7
100
AcDbLine
 10
39.01599999999985
 20
-17.41599999999994
 30
0.0
 11
47.11541862004947
 21
-25.51541862004953
 31
0.0
  0
LINE
  5
90
330
39A
100
AcDbEntity
  8
PATTERN_FILL
  6
Continuous
 62
     7
100
AcDbLine
 10
38.904
 20
-20.10399999999993
 30
0.0
 11
44.15571614708506
 21
-25.35571614708508
 31
0.0
  0
LINE
  5
91
330
39A
100
AcDbEntity
  8
PATTERN_FILL
  6
Continuous
 62
     7
100
AcDbLine
 10
38.79199999999992
 20
-22.79199999999992
 30
0.0
 11
41.16582017950896
 21
-25.16582017950896
 31
0.0
  0
LINE
  5
92
330
39A
100
AcDbEntity
  8
PATTERN_FILL
  6
Continuous
 62
     7
100
AcDbLine
 10
-81.9436424124849
 20
33.05635758751515
 30
0.0
 11
-83.96521739130435
 21
31.03478260869564
 31
0.0
  0
LINE
  5
93
330
39A
100
AcDbEntity
  8
PATTERN_FILL
  6
Continuous
 62
     7
100
AcDbLine
 10
-78.93081781500393
 20
33.26918218499606
 30
0.0
 11
-84.08695652173918
 21
28.11304347826084
 31
0.0
  0
LINE
  5
94
330
39A
100
AcDbEntity
  8
PATTERN_FILL
  6
Continuous
 62
     7
100
AcDbLine
 10
-75.95587861745804
 20
33.44412138254202
 30
0.0
 11
-84.20869565217396
 21
25.19130434782609
 31
0.0
  0
LINE
  5
95
330
39A
100
AcDbEntity
  8
PATTERN_FILL
  6
Continuous
 62
     7
100
AcDbLine
 10
-73.01735655368242
 20
33.58264344631762
 30
0.0
 11
-84.33043478260873
 21
22.26956521739127
 31
0.0
  0
LINE
  5
96
330
39A
100
AcDbEntity
  8
PATTERN_FILL
  6
Continuous
 62
     7
100
AcDbLine
 10
-70.11388969187692
 20
33.68611030812312
 30
0.0
 11
-84.45217391304351
 21
19.34782608695652
 31
0.0
  0
LINE
  5
97
330
39A
100
AcDbEntity
  8
PATTERN_FILL
  6
Continuous
 62
     7
100
AcDbLine
 10
-67.24421198187355
 20
33.75578801812648
 30
0.0
 11
-84.57391304347829
 21
16.42608695652174
 31
0.0
  0
LINE
  5
98
330
39A
100
AcDbEntity
  8
PATTERN_FILL
  6
Continuous
 62
     7
100
AcDbLine
 10
-64.40714409473753
 20
33.79285590526249
 30
0.0
 11
-84.69565217391312
 21
13.50434782608693
 31
0.0
  0
LINE
  5
99
330
39A
100
AcDbEntity
  8
PATTERN_FILL
  6
Continuous
 62
     7
100
AcDbLine
 10
-61.60158536433801
 20
33.79841463566201
 30
0.0
 11
-84.8173913043479
 21
10.58260869565217
 31
0.0
  0
LINE
  5
9A
330
39A
100
AcDbEntity
  8
PATTERN_FILL
  6
Continuous
 62
     7
100
AcDbLine
 10
-58.82650667284042
 20
33.77349332715957
 30
0.0
 11
-84.93913043478267
 21
7.660869565217368
 31
0.0
  0
LINE
  5
9B
330
39A
100
AcDbEntity
  8
PATTERN_FILL
  6
Continuous
 62
     7
100
AcDbLine
 10
-56.0809441482063
 20
33.71905585179373
 30
0.0
 11
-85.06086956521744
 21
4.739130434782624
 31
0.0
  0
LINE
  5
9C
330
39A
100
AcDbEntity
  8
PATTERN_FILL
  6
Continuous
 62
     7
100
AcDbLine
 10
-53.36399356306106
 20
33.63600643693894
 30
0.0
 11
-85.18260869565222
 21
1.817391304347822
 31
0.0
  0
LINE
  5
9D
330
39A
100
AcDbEntity
  8
PATTERN_FILL
  6
Continuous
 62
     7
100
AcDbLine
 10
-50.67480534169408
 20
33.52519465830591
 30
0.0
 11
-85.304347826087
 21
-1.104347826086965
 31
0.0
  0
LINE
  5
9E
330
39A
100
AcDbEntity
  8
PATTERN_FILL
  6
Continuous
 62
     7
100
AcDbLine
 10
-48.01258009627838
 20
33.38741990372171
 30
0.0
 11
-85.42608695652177
 21
-4.026086956521723
 31
0.0
  0
LINE
  5
9F
330
39A
100
AcDbEntity
  8
PATTERN_FILL
  6
Continuous
 62
     7
100
AcDbLine
 10
-45.37656462523097
 20
33.22343537476907
 30
0.0
 11
-85.54782608695655
 21
-6.947826086956496
 31
0.0
  0
LINE
  5
A0
330
39A
100
AcDbEntity
  8
PATTERN_FILL
  6
Continuous
 62
     7
100
AcDbLine
 10
-42.76604831647603
 20
33.03395168352399
 30
0.0
 11
-85.66956521739132
 21
-9.869565217391283
 31
0.0
  0
LINE
  5
A1
330
39A
100
AcDbEntity
  8
PATTERN_FILL
  6
Continuous
 62
     7
100
AcDbLine
 10
-41.08222683100803
 20
31.91777316899199
 30
0.0
 11
-85.7913043478261
 21
-12.79130434782604
 31
0.0
  0
LINE
  5
A2
330
39A
100
AcDbEntity
  8
PATTERN_FILL
  6
Continuous
 62
     7
100
AcDbLine
 10
-40.96000000000004
 20
29.24000000000004
 30
0.0
 11
-85.91304347826087
 21
-15.71304347826086
 31
0.0
  0
LINE
  5
A3
330
39A
100
AcDbEntity
  8
PATTERN_FILL
  6
Continuous
 62
     7
100
AcDbLine
 10
-40.84800000000007
 20
26.55200000000001
 30
0.0
 11
-86.03478260869565
 21
-18.63478260869563
 31
0.0
  0
LINE
  5
A4
330
39A
100
AcDbEntity
  8
PATTERN_FILL
  6
Continuous
 62
     7
100
AcDbLine
 10
-40.73599999999999
 20
23.86400000000003
 30
0.0
 11
-86.15652173913043
 21
-21.5565217391304
 31
0.0
  0
LINE
  5
A5
330
39A
100
AcDbEntity
  8
PATTERN_FILL
  6
Continuous
 62
     7
100
AcDbLine
 10
-40.62400000000002
 20
21.176
 30
0.0
 11
-86.2782608695652
 21
-24.47826086956519
 31
0.0
  0
LINE
  5
A6
330
39A
100
AcDbEntity
  8
PATTERN_FILL
  6
Continuous
 62
     7
100
AcDbLine
 10
-40.51200000000006
 20
18.48800000000001
 30
0.0
 11
-84.14446673727798
 21
-25.14446673727795
 31
0.0
  0
LINE
  5
A7
330
39A
100
AcDbEntity
  8
PATTERN_FILL
  6
Continuous
 62
     7
100
AcDbLine
 10
-40.40000000000003
 20
15.80000000000008
 30
0.0
 11
-81.51558135197075
 21
-25.31558135197065
 31
0.0
  0
LINE
  5
A8
330
39A
100
AcDbEntity
  8
PATTERN_FILL
  6
Continuous
 62
     7
100
AcDbLine
 10
-40.28800000000001
 20
13.11200000000002
 30
0.0
 11
-78.86559811567201
 21
-25.46559811567193
 31
0.0
  0
LINE
  5
A9
330
39A
100
AcDbEntity
  8
PATTERN_FILL
  6
Continuous
 62
     7
100
AcDbLine
 10
-40.17600000000004
 20
10.42400000000002
 30
0.0
 11
-76.1940322419963
 21
-25.59403224199622
 31
0.0
  0
LINE
  5
AA
330
39A
100
AcDbEntity
  8
PATTERN_FILL
  6
Continuous
 62
     7
100
AcDbLine
 10
-40.06400000000002
 20
7.736000000000047
 30
0.0
 11
-73.50037521134266
 21
-25.70037521134262
 31
0.0
  0
LINE
  5
AB
330
39A
100
AcDbEntity
  8
PATTERN_FILL
  6
Continuous
 62
     7
100
AcDbLine
 10
-39.952
 20
5.048000000000073
 30
0.0
 11
-70.7840931394013
 21
-25.78409313940122
 31
0.0
  0
LINE
  5
AC
330
39A
100
AcDbEntity
  8
PATTERN_FILL
  6
Continuous
 62
     7
100
AcDbLine
 10
-39.84000000000003
 20
2.360000000000042
 30
0.0
 11
-68.04462499690686
 21
-25.84462499690679
 31
0.0
  0
LINE
  5
AD
330
39A
100
AcDbEntity
  8
PATTERN_FILL
  6
Continuous
 62
     7
100
AcDbLine
 10
-39.72800000000007
 20
-0.3279999999999745
 30
0.0
 11
-65.28138066369047
 21
-25.88138066369039
 31
0.0
  0
LINE
  5
AE
330
39A
100
AcDbEntity
  8
PATTERN_FILL
  6
Continuous
 62
     7
100
AcDbLine
 10
-39.61600000000004
 20
-3.015999999999948
 30
0.0
 11
-62.5
 21
-25.89999999999995
 31
0.0
  0
LINE
  5
AF
330
39A
100
AcDbEntity
  8
PATTERN_FILL
  6
Continuous
 62
     7
100
AcDbLine
 10
-39.50400000000002
 20
-5.703999999999937
 30
0.0
 11
-59.68104449731413
 21
-25.88104449731405
 31
0.0
  0
LINE
  5
B0
330
39A
100
AcDbEntity
  8
PATTERN_FILL
  6
Continuous
 62
     7
100
AcDbLine
 10
-39.39200000000005
 20
-8.391999999999939
 30
0.0
 11
-56.84260673082235
 21
-25.8426067308223
 31
0.0
  0
LINE
  5
B1
330
39A
100
AcDbEntity
  8
PATTERN_FILL
  6
Continuous
 62
     7
100
AcDbLine
 10
-39.28000000000003
 20
-11.07999999999996
 30
0.0
 11
-53.97769550581449
 21
-25.77769550581441
 31
0.0
  0
LINE
  5
B2
330
39A
100
AcDbEntity
  8
PATTERN_FILL
  6
Continuous
 62
     7
100
AcDbLine
 10
-39.16800000000006
 20
-13.76799999999996
 30
0.0
 11
-51.08553874365896
 21
-25.68553874365888
 31
0.0
  0
LINE
  5
B3
330
39A
100
AcDbEntity
  8
PATTERN_FILL
  6
Continuous
 62
     7
100
AcDbLine
 10
-39.05600000000004
 20
-16.4559999999999
 30
0.0
 11
-48.16531882170358
 21
-25.56531882170344
 31
0.0
  0
LINE
  5
B4
330
39A
100
AcDbEntity
  8
PATTERN_FILL
  6
Continuous
 62
     7
100
AcDbLine
 10
-38.94400000000002
 20
-19.14399999999993
 30
0.0
 11
-45.2161687384887
 21
-25.41616873848858
 31
0.0
  0
LINE
  5
B5
330
39A
100
AcDbEntity
  8
PATTERN_FILL
  6
Continuous
 62
     7
100
AcDbLine
 10
-38.83200000000005
 20
-21.83199999999997
 30
0.0
 11
-42.23716785044655
 21
-25.2371678504465
 31
0.0
  0
LINE
  5
B6
330
39A
100
AcDbEntity
  8
PATTERN_FILL
  6
Continuous
 62
     7
100
AcDbLine
 10
-44.13681253074759
 20
33.13681253074758
 30
0.0
 11
-40.99130434782609
 21
29.99130434782607
 31
0.0
  0
LINE
  5
B7
330
39A
100
AcDbEntity
  8
PATTERN_FILL
  6
Continuous
 62
     7
100
AcDbLine
 10
-47.13593091418704
 20
33.33593091418699
 30
0.0
 11
-40.86956521739131
 21
27.06956521739129
 31
0.0
  0
LINE
  5
B8
330
39A
100
AcDbEntity
  8
PATTERN_FILL
  6
Continuous
 62
     7
100
AcDbLine
 10
-50.09770120265722
 20
33.49770120265721
 30
0.0
 11
-40.74782608695654
 21
24.14782608695653
 31
0.0
  0
LINE
  5
B9
330
39A
100
AcDbEntity
  8
PATTERN_FILL
  6
Continuous
 62
     7
100
AcDbLine
 10
-53.02355239553219
 20
33.62355239553214
 30
0.0
 11
-40.62608695652176
 21
21.22608695652173
 31
0.0
  0
LINE
  5
BA
330
39A
100
AcDbEntity
  8
PATTERN_FILL
  6
Continuous
 62
     7
100
AcDbLine
 10
-55.91481105282753
 20
33.71481105282749
 30
0.0
 11
-40.50434782608698
 21
18.30434782608694
 31
0.0
  0
LINE
  5
BB
330
39A
100
AcDbEntity
  8
PATTERN_FILL
  6
Continuous
 62
     7
100
AcDbLine
 10
-58.77271126219716
 20
33.77271126219713
 30
0.0
 11
-40.38260869565221
 21
15.38260869565217
 31
0.0
  0
LINE
  5
BC
330
39A
100
AcDbEntity
  8
PATTERN_FILL
  6
Continuous
 62
     7
100
AcDbLine
 10
-61.59840338574594
 20
33.79840338574591
 30
0.0
 11
-40.26086956521743
 21
12.46086956521738
 31
0.0
  0
LINE
  5
BD
330
39A
100
AcDbEntity
  8
PATTERN_FILL
  6
Continuous
 62
     7
100
AcDbLine
 10
-64.39296176467445
 20
33.79296176467444
 30
0.0
 11
-40.1391304347826
 21
9.539130434782606
 31
0.0
  0
LINE
  5
BE
330
39A
100
AcDbEntity
  8
PATTERN_FILL
  6
Continuous
 62
     7
100
AcDbLine
 10
-67.15739152983866
 20
33.75739152983863
 30
0.0
 11
-40.01739130434783
 21
6.617391304347809
 31
0.0
  0
LINE
  5
BF
330
39A
100
AcDbEntity
  8
PATTERN_FILL
  6
Continuous
 62
     7
100
AcDbLine
 10
-69.8926346420377
 20
33.69263464203766
 30
0.0
 11
-39.89565217391305
 21
3.695652173913061
 31
0.0
  0
LINE
  5
C0
330
39A
100
AcDbEntity
  8
PATTERN_FILL
  6
Continuous
 62
     7
100
AcDbLine
 10
-72.59957526605626
 20
33.59957526605626
 30
0.0
 11
-39.77391304347827
 21
0.7739130434782524
 31
0.0
  0
LINE
  5
C1
330
39A
100
AcDbEntity
  8
PATTERN_FILL
  6
Continuous
 62
     7
100
AcDbLine
 10
-75.2790445662605
 20
33.47904456626049
 30
0.0
 11
-39.6521739130435
 21
-2.147826086956499
 31
0.0
  0
LINE
  5
C2
330
39A
100
AcDbEntity
  8
PATTERN_FILL
  6
Continuous
 62
     7
100
AcDbLine
 10
-77.93182499817749
 20
33.3318249981775
 30
0.0
 11
-39.53043478260872
 21
-5.0695652173913
 31
0.0
  0
LINE
  5
C3
330
39A
100
AcDbEntity
  8
PATTERN_FILL
  6
Continuous
 62
     7
100
AcDbLine
 10
-80.55865415941298
 20
33.15865415941295
 30
0.0
 11
-39.40869565217395
 21
-7.99130434782608
 31
0.0
  0
LINE
  5
C4
330
39A
100
AcDbEntity
  8
PATTERN_FILL
  6
Continuous
 62
     7
100
AcDbLine
 10
-83.10921447390979
 20
32.9092144739098
 30
0.0
 11
-39.28695652173917
 21
-10.91304347826087
 31
0.0
  0
LINE
  5
C5
330
39A
100
AcDbEntity
  8
PATTERN_FILL
  6
Continuous
 62
     7
100
AcDbLine
 10
-83.96800000000007
 20
30.96800000000005
 30
0.0
 11
-39.1652173913044
 21
-13.83478260869563
 31
0.0
  0
LINE
  5
C6
330
39A
100
AcDbEntity
  8
PATTERN_FILL
  6
Continuous
 62
     7
100
AcDbLine
 10
-84.08000000000004
 20
28.28000000000004
 30
0.0
 11
-39.04347826086962
 21
-16.75652173913041
 31
0.0
  0
LINE
  5
C7
330
39A
100
AcDbEntity
  8
PATTERN_FILL
  6
Continuous
 62
     7
100
AcDbLine
 10
-84.19200000000001
 20
25.59200000000003
 30
0.0
 11
-38.92173913043484
 21
-19.67826086956517
 31
0.0
  0
LINE
  5
C8
330
39A
100
AcDbEntity
  8
PATTERN_FILL
  6
Continuous
 62
     7
100
AcDbLine
 10
-84.30400000000003
 20
22.90400000000002
 30
0.0
 11
-38.80000000000001
 21
-22.59999999999998
 31
0.0
  0
LINE
  5
C9
330
39A
100
AcDbEntity
  8
PATTERN_FILL
  6
Continuous
 62
     7
100
AcDbLine
 10
-84.41600000000005
 20
20.21600000000002
 30
0.0
 11
-39.17646041376338
 21
-25.02353958623663
 31
0.0
  0
LINE
  5
CA
330
39A
100
AcDbEntity
  8
PATTERN_FILL
  6
Continuous
 62
     7
100
AcDbLine
 10
-84.52800000000002
 20
17.52800000000002
 30
0.0
 11
-41.79202848937882
 21
-25.20797151062119
 31
0.0
  0
LINE
  5
CB
330
39A
100
AcDbEntity
  8
PATTERN_FILL
  6
Continuous
 62
     7
100
AcDbLine
 10
-84.63999999999999
 20
14.84
 30
0.0
 11
-44.4283945983243
 21
-25.37160540167573
 31
0.0
  0
LINE
  5
CC
330
39A
100
AcDbEntity
  8
PATTERN_FILL
  6
Continuous
 62
     7
100
AcDbLine
 10
-84.75200000000007
 20
12.15200000000004
 30
0.0
 11
-47.08602906862859
 21
-25.51397093137143
 31
0.0
  0
LINE
  5
CD
330
39A
100
AcDbEntity
  8
PATTERN_FILL
  6
Continuous
 62
     7
100
AcDbLine
 10
-84.86400000000003
 20
9.464000000000027
 30
0.0
 11
-49.76542498424698
 21
-25.63457501575302
 31
0.0
  0
LINE
  5
CE
330
39A
100
AcDbEntity
  8
PATTERN_FILL
  6
Continuous
 62
     7
100
AcDbLine
 10
-84.976
 20
6.776000000000039
 30
0.0
 11
-52.46709972892887
 21
-25.73290027107112
 31
0.0
  0
LINE
  5
CF
330
39A
100
AcDbEntity
  8
PATTERN_FILL
  6
Continuous
 62
     7
100
AcDbLine
 10
-85.08800000000002
 20
4.088000000000036
 30
0.0
 11
-55.19159666902431
 21
-25.80840333097565
 31
0.0
  0
LINE
  5
D0
330
39A
100
AcDbEntity
  8
PATTERN_FILL
  6
Continuous
 62
     7
100
AcDbLine
 10
-85.20000000000005
 20
1.400000000000034
 30
0.0
 11
-57.9394869908503
 21
-25.86051300914967
 31
0.0
  0
LINE
  5
D1
330
39A
100
AcDbEntity
  8
PATTERN_FILL
  6
Continuous
 62
     7
100
AcDbLine
 10
-85.31200000000001
 20
-1.287999999999968
 30
0.0
 11
-60.71137171035923
 21
-25.88862828964076
 31
0.0
  0
LINE
  5
D2
330
39A
100
AcDbEntity
  8
PATTERN_FILL
  6
Continuous
 62
     7
100
AcDbLine
 10
-85.42400000000004
 20
-3.975999999999942
 30
0.0
 11
-63.507883875316
 21
-25.89211612468397
 31
0.0
  0
LINE
  5
D3
330
39A
100
AcDbEntity
  8
PATTERN_FILL
  6
Continuous
 62
     7
100
AcDbLine
 10
-85.53600000000006
 20
-6.663999999999945
 30
0.0
 11
-66.32969098305375
 21
-25.87030901694624
 31
0.0
  0
LINE
  5
D4
330
39A
100
AcDbEntity
  8
PATTERN_FILL
  6
Continuous
 62
     7
100
AcDbLine
 10
-85.64800000000002
 20
-9.351999999999947
 30
0.0
 11
-69.1774976402279
 21
-25.82250235977207
 31
0.0
  0
LINE
  5
D5
330
39A
100
AcDbEntity
  8
PATTERN_FILL
  6
Continuous
 62
     7
100
AcDbLine
 10
-85.76000000000005
 20
-12.03999999999994
 30
0.0
 11
-72.0520484949048
 21
-25.74795150509519
 31
0.0
  0
LINE
  5
D6
330
39A
100
AcDbEntity
  8
PATTERN_FILL
  6
Continuous
 62
     7
100
AcDbLine
 10
-85.87200000000001
 20
-14.72799999999997
 30
0.0
 11
-74.95413147592933
 21
-25.64586852407068
 31
0.0
  0
LINE
  5
D7
330
39A
100
AcDbEntity
  8
PATTERN_FILL
  6
Continuous
 62
     7
100
AcDbLine
 10
-85.98400000000004
 20
-17.41599999999994
 30
0.0
 11
-77.88458137995042
 21
-25.51541862004953
 31
0.0
  0
LINE
  5
D8
330
39A
100
AcDbEntity
  8
PATTERN_FILL
  6
Continuous
 62
     7
100
AcDbLine
 10
-86.096
 20
-20.10399999999993
 30
0.0
 11
-80.84428385291488
 21
-25.35571614708508
 31
0.0
  0
LINE
  5
D9
330
39A
100
AcDbEntity
  8
PATTERN_FILL
  6
Continuous
 62
     7
100
AcDbLine
 10
-86.20800000000003
 20
-22.79199999999992
 30
0.0
 11
-83.83417982049099
 21
-25.16582017950896
 31
0.0
  0
LINE
  5
DA
330
39A
100
AcDbEntity
  8
PATTERN_FILL
  6
Continuous
 62
     7
100
AcDbLine
 10
-10.71446959905916
 20
33.80000000000001
 30
0.0
 11
-14.2083453058396
 21
30.30612429321955
 31
0.0
  0
LINE
  5
DB
330
39A
100
AcDbEntity
  8
PATTERN_FILL
  6
Continuous
 62
     7
100
AcDbLine
 10
-7.914469599059146
 20
33.80000000000001
 30
0.0
 11
-14.38590167731121
 21
27.32856792174793
 31
0.0
  0
LINE
  5
DC
330
39A
100
AcDbEntity
  8
PATTERN_FILL
  6
Continuous
 62
     7
100
AcDbLine
 10
-5.545673715253486
 20
33.36879588380567
 30
0.0
 11
-14.56345804878288
 21
24.3510115502763
 31
0.0
  0
LINE
  5
DD
330
39A
100
AcDbEntity
  8
PATTERN_FILL
  6
Continuous
 62
     7
100
AcDbLine
 10
-5.626332151467466
 20
30.48813744759167
 30
0.0
 11
-14.74101442025449
 21
21.37345517880465
 31
0.0
  0
LINE
  5
DE
330
39A
100
AcDbEntity
  8
PATTERN_FILL
  6
Continuous
 62
     7
100
AcDbLine
 10
-5.706990587681446
 20
27.60747901137769
 30
0.0
 11
-14.9185707917261
 21
18.39589880733304
 31
0.0
  0
LINE
  5
DF
330
39A
100
AcDbEntity
  8
PATTERN_FILL
  6
Continuous
 62
     7
100
AcDbLine
 10
-5.787649023895426
 20
24.72682057516371
 30
0.0
 11
-15.09612716319776
 21
15.41834243586143
 31
0.0
  0
LINE
  5
E0
330
39A
100
AcDbEntity
  8
PATTERN_FILL
  6
Continuous
 62
     7
100
AcDbLine
 10
6.085530400940911
 20
33.80000000000001
 30
0.0
 11
5.548633123761022
 21
33.26310272282014
 31
0.0
  0
LINE
  5
E1
330
39A
100
AcDbEntity
  8
PATTERN_FILL
  6
Continuous
 62
     7
100
AcDbLine
 10
-5.868307460109463
 20
21.84616213894971
 30
0.0
 11
-15.27368353466937
 21
12.4407860643898
 31
0.0
  0
LINE
  5
E2
330
39A
100
AcDbEntity
  8
PATTERN_FILL
  6
Continuous
 62
     7
100
AcDbLine
 10
8.885530400940866
 20
33.80000000000001
 30
0.0
 11
5.624897715200689
 21
30.53936731425983
 31
0.0
  0
LINE
  5
E3
330
39A
100
AcDbEntity
  8
PATTERN_FILL
  6
Continuous
 62
     7
100
AcDbLine
 10
-5.923558148910047
 20
18.9909114501491
 30
0.0
 11
-15.45123990614098
 21
9.463229692918183
 31
0.0
  0
LINE
  5
E4
330
39A
100
AcDbEntity
  8
PATTERN_FILL
  6
Continuous
 62
     7
100
AcDbLine
 10
11.68553040094088
 20
33.80000000000001
 30
0.0
 11
5.701162306640413
 21
27.81563190569952
 31
0.0
  0
LINE
  5
E5
330
39A
100
AcDbEntity
  8
PATTERN_FILL
  6
Continuous
 62
     7
100
AcDbLine
 10
-6.029624332537423
 20
16.08484526652173
 30
0.0
 11
-15.62879627761265
 21
6.485673321446541
 31
0.0
  0
LINE
  5
E6
330
39A
100
AcDbEntity
  8
PATTERN_FILL
  6
Continuous
 62
     7
100
AcDbLine
 10
13.70269324331497
 20
33.01716284237416
 30
0.0
 11
5.77742689808008
 21
25.09189649713925
 31
0.0
  0
LINE
  5
E7
330
39A
100
AcDbEntity
  8
PATTERN_FILL
  6
Continuous
 62
     7
100
AcDbLine
 10
-6.110282768751404
 20
13.20418683030778
 30
0.0
 11
-15.80635264908426
 21
3.508116949974941
 31
0.0
  0
LINE
  5
E8
330
39A
100
AcDbEntity
  8
PATTERN_FILL
  6
Continuous
 62
     7
100
AcDbLine
 10
14.18489572445725
 20
30.69936532351637
 30
0.0
 11
5.853691489519747
 21
22.36816108857892
 31
0.0
  0
LINE
  5
E9
330
39A
100
AcDbEntity
  8
PATTERN_FILL
  6
Continuous
 62
     7
100
AcDbLine
 10
-6.190941204965384
 20
10.32352839409378
 30
0.0
 11
-15.98390902055587
 21
0.5305605785033052
 31
0.0
  0
LINE
  5
EA
330
39A
100
AcDbEntity
  8
PATTERN_FILL
  6
Continuous
 62
     7
100
AcDbLine
 10
14.34246785598646
 20
28.0569374550456
 30
0.0
 11
5.929956080959414
 21
19.6444256800186
 31
0.0
  0
LINE
  5
EB
330
39A
100
AcDbEntity
  8
PATTERN_FILL
  6
Continuous
 62
     7
100
AcDbLine
 10
-6.271599641179364
 20
7.442869957879772
 30
0.0
 11
-16.16146539202754
 21
-2.446995792968359
 31
0.0
  0
LINE
  5
EC
330
39A
100
AcDbEntity
  8
PATTERN_FILL
  6
Continuous
 62
     7
100
AcDbLine
 10
14.50003998751566
 20
25.41450958657482
 30
0.0
 11
6.006220672399138
 21
16.92069027145831
 31
0.0
  0
LINE
  5
ED
330
39A
100
AcDbEntity
  8
PATTERN_FILL
  6
Continuous
 62
     7
100
AcDbLine
 10
-6.352258077393401
 20
4.562211521665802
 30
0.0
 11
-16.33902176349915
 21
-5.424552164439973
 31
0.0
  0
LINE
  5
EE
330
39A
100
AcDbEntity
  8
PATTERN_FILL
  6
Continuous
 62
     7
100
AcDbLine
 10
14.65761211904487
 20
22.77208171810403
 30
0.0
 11
6.082485263838805
 21
14.19695486289799
 31
0.0
  0
LINE
  5
EF
330
39A
100
AcDbEntity
  8
PATTERN_FILL
  6
Continuous
 62
     7
100
AcDbLine
 10
-6.432916513607381
 20
1.681553085451796
 30
0.0
 11
-16.51657813497081
 21
-8.402108535911616
 31
0.0
  0
LINE
  5
F0
330
39A
100
AcDbEntity
  8
PATTERN_FILL
  6
Continuous
 62
     7
100
AcDbLine
 10
14.81518425057408
 20
20.12965384963326
 30
0.0
 11
6.158749855278529
 21
11.47321945433768
 31
0.0
  0
LINE
  5
F1
330
39A
100
AcDbEntity
  8
PATTERN_FILL
  6
Continuous
 62
     7
100
AcDbLine
 10
-6.513574949821361
 20
-1.199105350762196
 30
0.0
 11
-16.69413450644242
 21
-11.37966490738324
 31
0.0
  0
LINE
  5
F2
330
39A
100
AcDbEntity
  8
PATTERN_FILL
  6
Continuous
 62
     7
100
AcDbLine
 10
14.97275638210328
 20
17.48722598116247
 30
0.0
 11
6.235014446718196
 21
8.749484045777372
 31
0.0
  0
LINE
  5
F3
330
39A
100
AcDbEntity
  8
PATTERN_FILL
  6
Continuous
 62
     7
100
AcDbLine
 10
-6.594233386035341
 20
-4.079763786976187
 30
0.0
 11
-16.87169087791403
 21
-14.35722127885487
 31
0.0
  0
LINE
  5
F4
330
39A
100
AcDbEntity
  8
PATTERN_FILL
  6
Continuous
 62
     7
100
AcDbLine
 10
15.13032851363255
 20
14.84479811269166
 30
0.0
 11
6.311279038157863
 21
6.025748637217028
 31
0.0
  0
LINE
  5
F5
330
39A
100
AcDbEntity
  8
PATTERN_FILL
  6
Continuous
 62
     7
100
AcDbLine
 10
-6.674891822249378
 20
-6.960422223190214
 30
0.0
 11
-17.0492472493857
 21
-17.33477765032654
 31
0.0
  0
LINE
  5
F6
330
39A
100
AcDbEntity
  8
PATTERN_FILL
  6
Continuous
 62
     7
100
AcDbLine
 10
15.28790064516176
 20
12.20237024422092
 30
0.0
 11
6.387543629597587
 21
3.302013228656762
 31
0.0
  0
LINE
  5
F7
330
39A
100
AcDbEntity
  8
PATTERN_FILL
  6
Continuous
 62
     7
100
AcDbLine
 10
-6.755550258463359
 20
-9.841080659404163
 30
0.0
 11
-17.22680362085731
 21
-20.31233402179813
 31
0.0
  0
LINE
  5
F8
330
39A
100
AcDbEntity
  8
PATTERN_FILL
  6
Continuous
 62
     7
100
AcDbLine
 10
15.44547277669096
 20
9.559942375750175
 30
0.0
 11
6.463808221037254
 21
0.5782778200964813
 31
0.0
  0
LINE
  5
F9
330
39A
100
AcDbEntity
  8
PATTERN_FILL
  6
Continuous
 62
     7
100
AcDbLine
 10
-6.836208694677339
 20
-12.72173909561812
 30
0.0
 11
-17.40435999232892
 21
-23.28989039326974
 31
0.0
  0
LINE
  5
FA
330
39A
100
AcDbEntity
  8
PATTERN_FILL
  6
Continuous
 62
     7
100
AcDbLine
 10
15.60304490822017
 20
6.917514507279339
 30
0.0
 11
6.540072812476978
 21
-2.145457588463884
 31
0.0
  0
LINE
  5
FB
330
39A
100
AcDbEntity
  8
PATTERN_FILL
  6
Continuous
 62
     7
100
AcDbLine
 10
-6.916867130891319
 20
-15.60239753183217
 30
0.0
 11
-16.00664663534087
 21
-24.69217703628175
 31
0.0
  0
LINE
  5
FC
330
39A
100
AcDbEntity
  8
PATTERN_FILL
  6
Continuous
 62
     7
100
AcDbLine
 10
15.76061703974938
 20
4.27508663880856
 30
0.0
 11
6.616337403916646
 21
-4.869192997024186
 31
0.0
  0
LINE
  5
FD
330
39A
100
AcDbEntity
  8
PATTERN_FILL
  6
Continuous
 62
     7
100
AcDbLine
 10
-6.997525567105299
 20
-18.48305596804617
 30
0.0
 11
-13.04106386620538
 21
-24.52659426714622
 31
0.0
  0
LINE
  5
FE
330
39A
100
AcDbEntity
  8
PATTERN_FILL
  6
Continuous
 62
     7
100
AcDbLine
 10
15.91818917127858
 20
1.632658770337791
 30
0.0
 11
6.692601995356313
 21
-7.592928405584487
 31
0.0
  0
LINE
  5
FF
330
39A
100
AcDbEntity
  8
PATTERN_FILL
  6
Continuous
 62
     7
100
AcDbLine
 10
-7.078184003319279
 20
-21.36371440426014
 30
0.0
 11
-10.11073290334519
 21
-24.39626330428602
 31
0.0
  0
LINE
  5
100
330
39A
100
AcDbEntity
  8
PATTERN_FILL
  6
Continuous
 62
     7
100
AcDbLine
 10
16.07576130280785
 20
-1.009769098132985
 30
0.0
 11
6.768866586796037
 21
-10.31666381414479
 31
0.0
  0
LINE
  5
101
330
39A
100
AcDbEntity
  8
PATTERN_FILL
  6
Continuous
 62
     7
100
AcDbLine
 10
-7.158842439533316
 20
-24.24437284047413
 30
0.0
 11
-7.214375462574083
 21
-24.29990586351492
 31
0.0
  0
LINE
  5
102
330
39A
100
AcDbEntity
  8
PATTERN_FILL
  6
Continuous
 62
     7
100
AcDbLine
 10
16.23333343433706
 20
-3.652196966603768
 30
0.0
 11
6.845131178235704
 21
-13.04039922270511
 31
0.0
  0
LINE
  5
103
330
39A
100
AcDbEntity
  8
PATTERN_FILL
  6
Continuous
 62
     7
100
AcDbLine
 10
16.39090556586626
 20
-6.294624835074565
 30
0.0
 11
6.921395769675428
 21
-15.76413463126543
 31
0.0
  0
LINE
  5
104
330
39A
100
AcDbEntity
  8
PATTERN_FILL
  6
Continuous
 62
     7
100
AcDbLine
 10
16.54847769739547
 20
-8.93705270354532
 30
0.0
 11
6.997660361115095
 21
-18.48787003982572
 31
0.0
  0
LINE
  5
105
330
39A
100
AcDbEntity
  8
PATTERN_FILL
  6
Continuous
 62
     7
100
AcDbLine
 10
16.70604982892468
 20
-11.57948057201611
 30
0.0
 11
7.073924952554762
 21
-21.21160544838603
 31
0.0
  0
LINE
  5
106
330
39A
100
AcDbEntity
  8
PATTERN_FILL
  6
Continuous
 62
     7
100
AcDbLine
 10
16.86362196045394
 20
-14.22190844048691
 30
0.0
 11
7.150189543994486
 21
-23.93534085694635
 31
0.0
  0
LINE
  5
107
330
39A
100
AcDbEntity
  8
PATTERN_FILL
  6
Continuous
 62
     7
100
AcDbLine
 10
17.02119409198315
 20
-16.8643363089577
 30
0.0
 11
9.5118368098573
 21
-24.37369359108352
 31
0.0
  0
LINE
  5
108
330
39A
100
AcDbEntity
  8
PATTERN_FILL
  6
Continuous
 62
     7
100
AcDbLine
 10
17.17876622351235
 20
-19.50676417742847
 30
0.0
 11
12.19973874408629
 21
-24.48579165685456
 31
0.0
  0
LINE
  5
109
330
39A
100
AcDbEntity
  8
PATTERN_FILL
  6
Continuous
 62
     7
100
AcDbLine
 10
17.33633835504156
 20
-22.14919204589921
 30
0.0
 11
14.86132241169344
 21
-24.62420798924735
 31
0.0
  0
LINE
  5
10A
330
39A
100
AcDbEntity
  8
PATTERN_FILL
  6
Continuous
 62
     7
100
AcDbLine
 10
13.16424709259547
 20
33.50310620864362
 30
0.0
 11
13.81881658653634
 21
32.84853671470274
 31
0.0
  0
LINE
  5
10B
330
39A
100
AcDbEntity
  8
PATTERN_FILL
  6
Continuous
 62
     7
100
AcDbLine
 10
10.06735330123905
 20
33.80000000000001
 30
0.0
 11
14.24938088503995
 21
29.61797241619911
 31
0.0
  0
LINE
  5
10C
330
39A
100
AcDbEntity
  8
PATTERN_FILL
  6
Continuous
 62
     7
100
AcDbLine
 10
7.267353301239041
 20
33.80000000000001
 30
0.0
 11
14.42693725651156
 21
26.64041604472749
 31
0.0
  0
LINE
  5
10D
330
39A
100
AcDbEntity
  8
PATTERN_FILL
  6
Continuous
 62
     7
100
AcDbLine
 10
5.564314925478698
 20
32.70303837576037
 30
0.0
 11
14.60449362798317
 21
23.66285967325585
 31
0.0
  0
LINE
  5
10E
330
39A
100
AcDbEntity
  8
PATTERN_FILL
  6
Continuous
 62
     7
100
AcDbLine
 10
5.644973361692678
 20
29.82237993954637
 30
0.0
 11
14.78204999945484
 21
20.68530330178421
 31
0.0
  0
LINE
  5
10F
330
39A
100
AcDbEntity
  8
PATTERN_FILL
  6
Continuous
 62
     7
100
AcDbLine
 10
5.725631797906658
 20
26.9417215033324
 30
0.0
 11
14.95960637092645
 21
17.70774693031261
 31
0.0
  0
LINE
  5
110
330
39A
100
AcDbEntity
  8
PATTERN_FILL
  6
Continuous
 62
     7
100
AcDbLine
 10
5.806290234120638
 20
24.06106306711841
 30
0.0
 11
15.13716274239806
 21
14.730190558841
 31
0.0
  0
LINE
  5
111
330
39A
100
AcDbEntity
  8
PATTERN_FILL
  6
Continuous
 62
     7
100
AcDbLine
 10
-6.732646698760959
 20
33.80000000000001
 30
0.0
 11
-5.566258859499328
 21
32.63361216073842
 31
0.0
  0
LINE
  5
112
330
39A
100
AcDbEntity
  8
PATTERN_FILL
  6
Continuous
 62
     7
100
AcDbLine
 10
5.886948670334618
 20
21.18040463090443
 30
0.0
 11
15.31471911386973
 21
11.75263418736937
 31
0.0
  0
LINE
  5
113
330
39A
100
AcDbEntity
  8
PATTERN_FILL
  6
Continuous
 62
     7
100
AcDbLine
 10
-9.53264669876097
 20
33.80000000000001
 30
0.0
 11
-5.642523450939052
 21
29.9098767521781
 31
0.0
  0
LINE
  5
114
330
39A
100
AcDbEntity
  8
PATTERN_FILL
  6
Continuous
 62
     7
100
AcDbLine
 10
5.967607106548655
 20
18.29974619469043
 30
0.0
 11
15.49227548534134
 21
8.775077815897738
 31
0.0
  0
LINE
  5
115
330
39A
100
AcDbEntity
  8
PATTERN_FILL
  6
Continuous
 62
     7
100
AcDbLine
 10
-12.3219813343884
 20
33.78933463562748
 30
0.0
 11
-5.718788042378719
 21
27.18614134361781
 31
0.0
  0
LINE
  5
116
330
39A
100
AcDbEntity
  8
PATTERN_FILL
  6
Continuous
 62
     7
100
AcDbLine
 10
6.048265542762636
 20
15.41908775847646
 30
0.0
 11
15.66983185681295
 21
5.797521444426138
 31
0.0
  0
LINE
  5
117
330
39A
100
AcDbEntity
  8
PATTERN_FILL
  6
Continuous
 62
     7
100
AcDbLine
 10
-13.94382247887478
 20
32.61117578011386
 30
0.0
 11
-5.795052633818386
 21
24.46240593505748
 31
0.0
  0
LINE
  5
118
330
39A
100
AcDbEntity
  8
PATTERN_FILL
  6
Continuous
 62
     7
100
AcDbLine
 10
6.128923978976616
 20
12.53842932226245
 30
0.0
 11
15.84738822828461
 21
2.819965072954474
 31
0.0
  0
LINE
  5
119
330
39A
100
AcDbEntity
  8
PATTERN_FILL
  6
Continuous
 62
     7
100
AcDbLine
 10
-14.22131268674116
 20
30.08866598798021
 30
0.0
 11
-5.87131722525811
 21
21.73867052649719
 31
0.0
  0
LINE
  5
11A
330
39A
100
AcDbEntity
  8
PATTERN_FILL
  6
Continuous
 62
     7
100
AcDbLine
 10
6.209582415190596
 20
9.65777088604846
 30
0.0
 11
16.02494459975622
 21
-0.1575912985171613
 31
0.0
  0
LINE
  5
11B
330
39A
100
AcDbEntity
  8
PATTERN_FILL
  6
Continuous
 62
     7
100
AcDbLine
 10
-14.37888481827036
 20
27.4462381195094
 30
0.0
 11
-5.923558148910047
 21
18.99091145014911
 31
0.0
  0
LINE
  5
11C
330
39A
100
AcDbEntity
  8
PATTERN_FILL
  6
Continuous
 62
     7
100
AcDbLine
 10
6.290240851404633
 20
6.777112449834455
 30
0.0
 11
16.20250097122789
 21
-3.135147669988804
 31
0.0
  0
LINE
  5
11D
330
39A
100
AcDbEntity
  8
PATTERN_FILL
  6
Continuous
 62
     7
100
AcDbLine
 10
-14.53645694979957
 20
24.80381025103863
 30
0.0
 11
-6.023846408137501
 21
16.29119970937655
 31
0.0
  0
LINE
  5
11E
330
39A
100
AcDbEntity
  8
PATTERN_FILL
  6
Continuous
 62
     7
100
AcDbLine
 10
6.370899287618613
 20
3.89645401362047
 30
0.0
 11
16.3800573426995
 21
-6.112704041460418
 31
0.0
  0
LINE
  5
11F
330
39A
100
AcDbEntity
  8
PATTERN_FILL
  6
Continuous
 62
     7
100
AcDbLine
 10
-14.69402908132878
 20
22.16138238256784
 30
0.0
 11
-6.100110999577169
 21
13.56746430081623
 31
0.0
  0
LINE
  5
120
330
39A
100
AcDbEntity
  8
PATTERN_FILL
  6
Continuous
 62
     7
100
AcDbLine
 10
6.451557723832593
 20
1.015795577406479
 30
0.0
 11
16.55761371417111
 21
-9.090260412932054
 31
0.0
  0
LINE
  5
121
330
39A
100
AcDbEntity
  8
PATTERN_FILL
  6
Continuous
 62
     7
100
AcDbLine
 10
-14.85160121285799
 20
19.51895451409705
 30
0.0
 11
-6.176375591016836
 21
10.84372889225592
 31
0.0
  0
LINE
  5
122
330
39A
100
AcDbEntity
  8
PATTERN_FILL
  6
Continuous
 62
     7
100
AcDbLine
 10
6.532216160046573
 20
-1.86486285880752
 30
0.0
 11
16.73517008564278
 21
-12.0678167844037
 31
0.0
  0
LINE
  5
123
330
39A
100
AcDbEntity
  8
PATTERN_FILL
  6
Continuous
 62
     7
100
AcDbLine
 10
-15.00917334438719
 20
16.87652664562627
 30
0.0
 11
-6.25264018245656
 21
8.119993483695616
 31
0.0
  0
LINE
  5
124
330
39A
100
AcDbEntity
  8
PATTERN_FILL
  6
Continuous
 62
     7
100
AcDbLine
 10
6.612874596260554
 20
-4.745521295021504
 30
0.0
 11
16.91272645711439
 21
-15.04537315587531
 31
0.0
  0
LINE
  5
125
330
39A
100
AcDbEntity
  8
PATTERN_FILL
  6
Continuous
 62
     7
100
AcDbLine
 10
-15.16674547591646
 20
14.23409877715549
 30
0.0
 11
-6.328904773896227
 21
5.3962580751353
 31
0.0
  0
LINE
  5
126
330
39A
100
AcDbEntity
  8
PATTERN_FILL
  6
Continuous
 62
     7
100
AcDbLine
 10
6.693533032474591
 20
-7.62617973123551
 30
0.0
 11
17.090282828586
 21
-18.02292952734695
 31
0.0
  0
LINE
  5
127
330
39A
100
AcDbEntity
  8
PATTERN_FILL
  6
Continuous
 62
     7
100
AcDbLine
 10
-15.32431760744566
 20
11.5916709086847
 30
0.0
 11
-6.405169365335951
 21
2.672522666574991
 31
0.0
  0
LINE
  5
128
330
39A
100
AcDbEntity
  8
PATTERN_FILL
  6
Continuous
 62
     7
100
AcDbLine
 10
6.774191468688571
 20
-10.50683816744949
 30
0.0
 11
17.26783920005767
 21
-21.00048589881858
 31
0.0
  0
LINE
  5
129
330
39A
100
AcDbEntity
  8
PATTERN_FILL
  6
Continuous
 62
     7
100
AcDbLine
 10
-15.48188973897487
 20
8.949243040213915
 30
0.0
 11
-6.481433956775618
 21
-0.0512127419853385
 31
0.0
  0
LINE
  5
12A
330
39A
100
AcDbEntity
  8
PATTERN_FILL
  6
Continuous
 62
     7
100
AcDbLine
 10
6.854849904902551
 20
-13.38749660366349
 30
0.0
 11
17.44539557152928
 21
-23.9780422702902
 31
0.0
  0
LINE
  5
12B
330
39A
100
AcDbEntity
  8
PATTERN_FILL
  6
Continuous
 62
     7
100
AcDbLine
 10
-15.63946187050408
 20
6.306815171743146
 30
0.0
 11
-6.557698548215285
 21
-2.77494815054564
 31
0.0
  0
LINE
  5
12C
330
39A
100
AcDbEntity
  8
PATTERN_FILL
  6
Continuous
 62
     7
100
AcDbLine
 10
6.935508341116531
 20
-16.26815503987747
 30
0.0
 11
15.31805950936121
 21
-24.65070620812214
 31
0.0
  0
LINE
  5
12D
330
39A
100
AcDbEntity
  8
PATTERN_FILL
  6
Continuous
 62
     7
100
AcDbLine
 10
-15.79703400203329
 20
3.664387303272349
 30
0.0
 11
-6.633963139655009
 21
-5.498683559105949
 31
0.0
  0
LINE
  5
12E
330
39A
100
AcDbEntity
  8
PATTERN_FILL
  6
Continuous
 62
     7
100
AcDbLine
 10
7.016166777330511
 20
-19.14881347609146
 30
0.0
 11
12.36074237139121
 21
-24.49338907015213
 31
0.0
  0
LINE
  5
12F
330
39A
100
AcDbEntity
  8
PATTERN_FILL
  6
Continuous
 62
     7
100
AcDbLine
 10
-15.95460613356249
 20
1.021959434801602
 30
0.0
 11
-6.710227731094676
 21
-8.222418967666236
 31
0.0
  0
LINE
  5
130
330
39A
100
AcDbEntity
  8
PATTERN_FILL
  6
Continuous
 62
     7
100
AcDbLine
 10
7.096825213544548
 20
-22.02947191230545
 30
0.0
 11
9.43837337573683
 21
-24.37102007449777
 31
0.0
  0
LINE
  5
131
330
39A
100
AcDbEntity
  8
PATTERN_FILL
  6
Continuous
 62
     7
100
AcDbLine
 10
-16.11217826509176
 20
-1.620468433669188
 30
0.0
 11
-6.7864923225344
 21
-10.94615437622654
 31
0.0
  0
LINE
  5
132
330
39A
100
AcDbEntity
  8
PATTERN_FILL
  6
Continuous
 62
     7
100
AcDbLine
 10
-16.26975039662096
 20
-4.262896302139957
 30
0.0
 11
-6.862756913974067
 21
-13.66988978478685
 31
0.0
  0
LINE
  5
133
330
39A
100
AcDbEntity
  8
PATTERN_FILL
  6
Continuous
 62
     7
100
AcDbLine
 10
-16.42732252815017
 20
-6.90532417061074
 30
0.0
 11
-6.939021505413734
 21
-16.39362519334717
 31
0.0
  0
LINE
  5
134
330
39A
100
AcDbEntity
  8
PATTERN_FILL
  6
Continuous
 62
     7
100
AcDbLine
 10
-16.58489465967938
 20
-9.54775203908153
 30
0.0
 11
-7.015286096853458
 21
-19.11736060190747
 31
0.0
  0
LINE
  5
135
330
39A
100
AcDbEntity
  8
PATTERN_FILL
  6
Continuous
 62
     7
100
AcDbLine
 10
-16.74246679120859
 20
-12.19017990755231
 30
0.0
 11
-7.091550688293125
 21
-21.84109601046779
 31
0.0
  0
LINE
  5
136
330
39A
100
AcDbEntity
  8
PATTERN_FILL
  6
Continuous
 62
     7
100
AcDbLine
 10
-16.90003892273785
 20
-14.8326077760231
 30
0.0
 11
-7.426770466785626
 21
-24.30587623197525
 31
0.0
  0
LINE
  5
137
330
39A
100
AcDbEntity
  8
PATTERN_FILL
  6
Continuous
 62
     7
100
AcDbLine
 10
-17.05761105426706
 20
-17.47503564449389
 30
0.0
 11
-10.13542331067066
 21
-24.39722338809024
 31
0.0
  0
LINE
  5
138
330
39A
100
AcDbEntity
  8
PATTERN_FILL
  6
Continuous
 62
     7
100
AcDbLine
 10
-17.21518318579626
 20
-20.11746351296467
 30
0.0
 11
-12.81717675879401
 21
-24.51546993996689
 31
0.0
  0
LINE
  5
139
330
39A
100
AcDbEntity
  8
PATTERN_FILL
  6
Continuous
 62
     7
100
AcDbLine
 10
-17.37275531732547
 20
-22.75989138143546
 30
0.0
 11
-15.47278158350156
 21
-24.65986511525934
 31
0.0
  0
LINE
  5
13A
330
39A
100
AcDbEntity
  8
PATTERN_FILL
  6
Continuous
 62
     7
100
AcDbLine
 10
-86.30000000000007
 20
59.80625914460298
 30
0.0
 11
-84.46542692468336
 21
57.97168606928628
 31
0.0
  0
LINE
  5
13B
330
39A
100
AcDbEntity
  8
PATTERN_FILL
  6
Continuous
 62
     7
100
AcDbLine
 10
-86.30000000000007
 20
62.60625914460299
 30
0.0
 11
-81.46907098101406
 21
57.77533012561697
 31
0.0
  0
LINE
  5
13C
330
39A
100
AcDbEntity
  8
PATTERN_FILL
  6
Continuous
 62
     7
100
AcDbLine
 10
-86.30000000000007
 20
65.406259144603
 30
0.0
 11
-78.50311341930649
 21
57.60937256390947
 31
0.0
  0
LINE
  5
13D
330
39A
100
AcDbEntity
  8
PATTERN_FILL
  6
Continuous
 62
     7
100
AcDbLine
 10
-86.30000000000007
 20
68.20625914460298
 30
0.0
 11
-75.56660110650438
 21
57.47286025110732
 31
0.0
  0
LINE
  5
13E
330
39A
100
AcDbEntity
  8
PATTERN_FILL
  6
Continuous
 62
     7
100
AcDbLine
 10
-84.64374085539708
 20
69.35000000000001
 30
0.0
 11
-72.65863718157152
 21
57.36489632617445
 31
0.0
  0
LINE
  5
13F
330
39A
100
AcDbEntity
  8
PATTERN_FILL
  6
Continuous
 62
     7
100
AcDbLine
 10
-81.84374085539707
 20
69.35
 30
0.0
 11
-69.77837652314304
 21
57.2846356677459
 31
0.0
  0
LINE
  5
140
330
39A
100
AcDbEntity
  8
PATTERN_FILL
  6
Continuous
 62
     7
100
AcDbLine
 10
-79.04374085539712
 20
69.35
 30
0.0
 11
-66.92502167863404
 21
57.23128082323689
 31
0.0
  0
LINE
  5
141
330
39A
100
AcDbEntity
  8
PATTERN_FILL
  6
Continuous
 62
     7
100
AcDbLine
 10
-76.24374085539705
 20
69.35
 30
0.0
 11
-64.09781919856687
 21
57.20407834316973
 31
0.0
  0
LINE
  5
142
330
39A
100
AcDbEntity
  8
PATTERN_FILL
  6
Continuous
 62
     7
100
AcDbLine
 10
-86.30000000000007
 20
82.20625914460294
 30
0.0
 11
-84.74374085539716
 21
80.65000000000003
 31
0.0
  0
LINE
  5
143
330
39A
100
AcDbEntity
  8
PATTERN_FILL
  6
Continuous
 62
     7
100
AcDbLine
 10
-73.4437408553971
 20
69.34999999999998
 30
0.0
 11
-61.29605632780499
 21
57.2023154724078
 31
0.0
  0
LINE
  5
144
330
39A
100
AcDbEntity
  8
PATTERN_FILL
  6
Continuous
 62
     7
100
AcDbLine
 10
-86.30000000000007
 20
85.00625914460292
 30
0.0
 11
-81.9437408553971
 21
80.65
 31
0.0
  0
LINE
  5
145
330
39A
100
AcDbEntity
  8
PATTERN_FILL
  6
Continuous
 62
     7
100
AcDbLine
 10
-70.64374085539714
 20
69.35
 30
0.0
 11
-58.51905801205822
 21
57.22531715666108
 31
0.0
  0
LINE
  5
146
330
39A
100
AcDbEntity
  8
PATTERN_FILL
  6
Continuous
 62
     7
100
AcDbLine
 10
-86.30000000000007
 20
87.80625914460293
 30
0.0
 11
-79.14374085539714
 21
80.65
 31
0.0
  0
LINE
  5
147
330
39A
100
AcDbEntity
  8
PATTERN_FILL
  6
Continuous
 62
     7
100
AcDbLine
 10
-67.84374085539713
 20
69.35
 30
0.0
 11
-55.766184183647
 21
57.27244332824986
 31
0.0
  0
LINE
  5
148
330
39A
100
AcDbEntity
  8
PATTERN_FILL
  6
Continuous
 62
     7
100
AcDbLine
 10
-86.26555953041822
 20
90.57181867502112
 30
0.0
 11
-76.34374085539707
 21
80.64999999999998
 31
0.0
  0
LINE
  5
149
330
39A
100
AcDbEntity
  8
PATTERN_FILL
  6
Continuous
 62
     7
100
AcDbLine
 10
-65.04374085539712
 20
69.35
 30
0.0
 11
-53.03682729528316
 21
57.34308643988602
 31
0.0
  0
LINE
  5
14A
330
39A
100
AcDbEntity
  8
PATTERN_FILL
  6
Continuous
 62
     7
100
AcDbLine
 10
-84.87552429898619
 20
91.98178344358911
 30
0.0
 11
-73.54374085539712
 21
80.65
 31
0.0
  0
LINE
  5
14B
330
39A
100
AcDbEntity
  8
PATTERN_FILL
  6
Continuous
 62
     7
100
AcDbLine
 10
-62.24374085539711
 20
69.35
 30
0.0
 11
-50.33041007467818
 21
57.43666921928101
 31
0.0
  0
LINE
  5
14C
330
39A
100
AcDbEntity
  8
PATTERN_FILL
  6
Continuous
 62
     7
100
AcDbLine
 10
-82.26882554761141
 20
92.17508469221434
 30
0.0
 11
-70.74374085539716
 21
80.65
 31
0.0
  0
LINE
  5
14D
330
39A
100
AcDbEntity
  8
PATTERN_FILL
  6
Continuous
 62
     7
100
AcDbLine
 10
-59.44374085539715
 20
69.35
 30
0.0
 11
-47.64638347624827
 21
57.55264262085109
 31
0.0
  0
LINE
  5
14E
330
39A
100
AcDbEntity
  8
PATTERN_FILL
  6
Continuous
 62
     7
100
AcDbLine
 10
-79.624918752454
 20
92.3311778970569
 30
0.0
 11
-67.9437408553971
 21
80.65
 31
0.0
  0
LINE
  5
14F
330
39A
100
AcDbEntity
  8
PATTERN_FILL
  6
Continuous
 62
     7
100
AcDbLine
 10
-56.64374085539714
 20
69.35
 30
0.0
 11
-44.984224809144
 21
57.69048395374683
 31
0.0
  0
LINE
  5
150
330
39A
100
AcDbEntity
  8
PATTERN_FILL
  6
Continuous
 62
     7
100
AcDbLine
 10
-76.95957018453635
 20
92.4658293291393
 30
0.0
 11
-65.14374085539714
 21
80.65
 31
0.0
  0
LINE
  5
151
330
39A
100
AcDbEntity
  8
PATTERN_FILL
  6
Continuous
 62
     7
100
AcDbLine
 10
-53.84374085539707
 20
69.35
 30
0.0
 11
-42.3434360233764
 21
57.84969516797931
 31
0.0
  0
LINE
  5
152
330
39A
100
AcDbEntity
  8
PATTERN_FILL
  6
Continuous
 62
     7
100
AcDbLine
 10
-74.27227826555622
 20
92.57853741015913
 30
0.0
 11
-62.34374085539713
 21
80.64999999999998
 31
0.0
  0
LINE
  5
153
330
39A
100
AcDbEntity
  8
PATTERN_FILL
  6
Continuous
 62
     7
100
AcDbLine
 10
-51.04374085539712
 20
69.35
 30
0.0
 11
-39.80989521374954
 21
58.11615435835239
 31
0.0
  0
LINE
  5
154
330
39A
100
AcDbEntity
  8
PATTERN_FILL
  6
Continuous
 62
     7
100
AcDbLine
 10
-71.56251653313495
 20
92.66877567773781
 30
0.0
 11
-59.54374085539717
 21
80.65
 31
0.0
  0
LINE
  5
155
330
39A
100
AcDbEntity
  8
PATTERN_FILL
  6
Continuous
 62
     7
100
AcDbLine
 10
-48.24374085539716
 20
69.35
 30
0.0
 11
-38.70000000000005
 21
59.80625914460282
 31
0.0
  0
LINE
  5
156
330
39A
100
AcDbEntity
  8
PATTERN_FILL
  6
Continuous
 62
     7
100
AcDbLine
 10
-68.82973190470818
 20
92.73599104931108
 30
0.0
 11
-56.74374085539716
 21
80.65
 31
0.0
  0
LINE
  5
157
330
39A
100
AcDbEntity
  8
PATTERN_FILL
  6
Continuous
 62
     7
100
AcDbLine
 10
-45.44374085539715
 20
69.35
 30
0.0
 11
-38.70000000000005
 21
62.60625914460287
 31
0.0
  0
LINE
  5
158
330
39A
100
AcDbEntity
  8
PATTERN_FILL
  6
Continuous
 62
     7
100
AcDbLine
 10
-66.07334278077985
 20
92.77960192538276
 30
0.0
 11
-53.94374085539715
 21
80.65
 31
0.0
  0
LINE
  5
159
330
39A
100
AcDbEntity
  8
PATTERN_FILL
  6
Continuous
 62
     7
100
AcDbLine
 10
-42.64374085539714
 20
69.35
 30
0.0
 11
-38.70000000000005
 21
65.40625914460287
 31
0.0
  0
LINE
  5
15A
330
39A
100
AcDbEntity
  8
PATTERN_FILL
  6
Continuous
 62
     7
100
AcDbLine
 10
-63.29273696895979
 20
92.79899611356268
 30
0.0
 11
-51.14374085539714
 21
80.65
 31
0.0
  0
LINE
  5
15B
330
39A
100
AcDbEntity
  8
PATTERN_FILL
  6
Continuous
 62
     7
100
AcDbLine
 10
-39.84374085539719
 20
69.35
 30
0.0
 11
-38.70000000000005
 21
68.20625914460285
 31
0.0
  0
LINE
  5
15C
330
39A
100
AcDbEntity
  8
PATTERN_FILL
  6
Continuous
 62
     7
100
AcDbLine
 10
-60.48726940760616
 20
92.79352855220895
 30
0.0
 11
-48.34374085539719
 21
80.65
 31
0.0
  0
LINE
  5
15D
330
39A
100
AcDbEntity
  8
PATTERN_FILL
  6
Continuous
 62
     7
100
AcDbLine
 10
-57.6562596648638
 20
92.76251880946663
 30
0.0
 11
-45.54374085539717
 21
80.65
 31
0.0
  0
LINE
  5
15E
330
39A
100
AcDbEntity
  8
PATTERN_FILL
  6
Continuous
 62
     7
100
AcDbLine
 10
-54.79898918535525
 20
92.70524832995804
 30
0.0
 11
-42.74374085539722
 21
80.65
 31
0.0
  0
LINE
  5
15F
330
39A
100
AcDbEntity
  8
PATTERN_FILL
  6
Continuous
 62
     7
100
AcDbLine
 10
-51.91469825262305
 20
92.62095739722582
 30
0.0
 11
-39.94374085539721
 21
80.65
 31
0.0
  0
LINE
  5
160
330
39A
100
AcDbEntity
  8
PATTERN_FILL
  6
Continuous
 62
     7
100
AcDbLine
 10
-49.00258263054553
 20
92.50884177514831
 30
0.0
 11
-38.70000000000005
 21
82.2062591446028
 31
0.0
  0
LINE
  5
161
330
39A
100
AcDbEntity
  8
PATTERN_FILL
  6
Continuous
 62
     7
100
AcDbLine
 10
-46.06178984117281
 20
92.3680489857756
 30
0.0
 11
-38.70000000000005
 21
85.00625914460284
 31
0.0
  0
LINE
  5
162
330
39A
100
AcDbEntity
  8
PATTERN_FILL
  6
Continuous
 62
     7
100
AcDbLine
 10
-43.0914150295921
 20
92.1976741741949
 30
0.0
 11
-38.70000000000005
 21
87.80625914460282
 31
0.0
  0
LINE
  5
163
330
39A
100
AcDbEntity
  8
PATTERN_FILL
  6
Continuous
 62
     7
100
AcDbLine
 10
-40.06070283887402
 20
91.96696198347678
 30
0.0
 11
-38.7544290320277
 21
90.66068817663046
 31
0.0
  0
LINE
  5
164
330
39A
100
AcDbEntity
  8
PATTERN_FILL
  6
Continuous
 62
     7
100
AcDbLine
 10
-86.30000000000007
 20
89.37826086956503
 30
0.0
 11
-83.58956383207573
 21
92.08869703748934
 31
0.0
  0
LINE
  5
165
330
39A
100
AcDbEntity
  8
PATTERN_FILL
  6
Continuous
 62
     7
100
AcDbLine
 10
-86.30000000000007
 20
86.57826086956501
 30
0.0
 11
-80.60216307654991
 21
92.27609779301511
 31
0.0
  0
LINE
  5
166
330
39A
100
AcDbEntity
  8
PATTERN_FILL
  6
Continuous
 62
     7
100
AcDbLine
 10
-86.30000000000007
 20
83.77826086956503
 30
0.0
 11
-77.6448770152611
 21
92.43338385430397
 31
0.0
  0
LINE
  5
167
330
39A
100
AcDbEntity
  8
PATTERN_FILL
  6
Continuous
 62
     7
100
AcDbLine
 10
-86.30000000000007
 20
80.97826086956502
 30
0.0
 11
-74.71676940139673
 21
92.5614914681683
 31
0.0
  0
LINE
  5
168
330
39A
100
AcDbEntity
  8
PATTERN_FILL
  6
Continuous
 62
     7
100
AcDbLine
 10
-83.8282608695651
 20
80.65
 30
0.0
 11
-71.81695888885781
 21
92.6613019807073
 31
0.0
  0
LINE
  5
169
330
39A
100
AcDbEntity
  8
PATTERN_FILL
  6
Continuous
 62
     7
100
AcDbLine
 10
-81.02826086956509
 20
80.65000000000003
 30
0.0
 11
-68.94461464063409
 21
92.73364622893104
 31
0.0
  0
LINE
  5
16A
330
39A
100
AcDbEntity
  8
PATTERN_FILL
  6
Continuous
 62
     7
100
AcDbLine
 10
-78.22826086956513
 20
80.65
 30
0.0
 11
-66.09895238135744
 21
92.7793084882077
 31
0.0
  0
LINE
  5
16B
330
39A
100
AcDbEntity
  8
PATTERN_FILL
  6
Continuous
 62
     7
100
AcDbLine
 10
-75.42826086956512
 20
80.65
 30
0.0
 11
-63.27923084024127
 21
92.79903002932389
 31
0.0
  0
LINE
  5
16C
330
39A
100
AcDbEntity
  8
PATTERN_FILL
  6
Continuous
 62
     7
100
AcDbLine
 10
-86.30000000000007
 20
66.97826086956508
 30
0.0
 11
-83.92826086956518
 21
69.34999999999997
 31
0.0
  0
LINE
  5
16D
330
39A
100
AcDbEntity
  8
PATTERN_FILL
  6
Continuous
 62
     7
100
AcDbLine
 10
-72.62826086956511
 20
80.65000000000003
 30
0.0
 11
-60.48474853816629
 21
92.79351233139892
 31
0.0
  0
LINE
  5
16E
330
39A
100
AcDbEntity
  8
PATTERN_FILL
  6
Continuous
 62
     7
100
AcDbLine
 10
-86.30000000000007
 20
64.17826086956507
 30
0.0
 11
-81.12826086956511
 21
69.35
 31
0.0
  0
LINE
  5
16F
330
39A
100
AcDbEntity
  8
PATTERN_FILL
  6
Continuous
 62
     7
100
AcDbLine
 10
-69.82826086956516
 20
80.65
 30
0.0
 11
-57.71484087900649
 21
92.76341999055865
 31
0.0
  0
LINE
  5
170
330
39A
100
AcDbEntity
  8
PATTERN_FILL
  6
Continuous
 62
     7
100
AcDbLine
 10
-86.30000000000007
 20
61.37826086956508
 30
0.0
 11
-78.3282608695651
 21
69.35000000000001
 31
0.0
  0
LINE
  5
171
330
39A
100
AcDbEntity
  8
PATTERN_FILL
  6
Continuous
 62
     7
100
AcDbLine
 10
-67.0282608695652
 20
80.65
 30
0.0
 11
-54.96887751065958
 21
92.7093833589056
 31
0.0
  0
LINE
  5
172
330
39A
100
AcDbEntity
  8
PATTERN_FILL
  6
Continuous
 62
     7
100
AcDbLine
 10
-86.03679983238862
 20
58.84146103717649
 30
0.0
 11
-75.52826086956514
 21
69.35
 31
0.0
  0
LINE
  5
173
330
39A
100
AcDbEntity
  8
PATTERN_FILL
  6
Continuous
 62
     7
100
AcDbLine
 10
-64.22826086956513
 20
80.65
 30
0.0
 11
-52.24625992578331
 21
92.63200094378186
 31
0.0
  0
LINE
  5
174
330
39A
100
AcDbEntity
  8
PATTERN_FILL
  6
Continuous
 62
     7
100
AcDbLine
 10
-84.12999177855409
 20
57.94826909101101
 30
0.0
 11
-72.72826086956513
 21
69.35
 31
0.0
  0
LINE
  5
175
330
39A
100
AcDbEntity
  8
PATTERN_FILL
  6
Continuous
 62
     7
100
AcDbLine
 10
-61.42826086956512
 20
80.65000000000003
 30
0.0
 11
-49.54641927611664
 21
92.53184159344855
 31
0.0
  0
LINE
  5
176
330
39A
100
AcDbEntity
  8
PATTERN_FILL
  6
Continuous
 62
     7
100
AcDbLine
 10
-81.50099105863092
 20
57.77726981093421
 30
0.0
 11
-69.92826086956518
 21
69.35
 31
0.0
  0
LINE
  5
177
330
39A
100
AcDbEntity
  8
PATTERN_FILL
  6
Continuous
 62
     7
100
AcDbLine
 10
-58.62826086956517
 20
80.65000000000003
 30
0.0
 11
-46.86881437756165
 21
92.40944649200355
 31
0.0
  0
LINE
  5
178
330
39A
100
AcDbEntity
  8
PATTERN_FILL
  6
Continuous
 62
     7
100
AcDbLine
 10
-78.85088987032776
 20
57.62737099923737
 30
0.0
 11
-67.12826086956517
 21
69.34999999999998
 31
0.0
  0
LINE
  5
179
330
39A
100
AcDbEntity
  8
PATTERN_FILL
  6
Continuous
 62
     7
100
AcDbLine
 10
-55.82826086956516
 20
80.65
 30
0.0
 11
-44.21292988603523
 21
92.26533098352996
 31
0.0
  0
LINE
  5
17A
330
39A
100
AcDbEntity
  8
PATTERN_FILL
  6
Continuous
 62
     7
100
AcDbLine
 10
-76.17920330029887
 20
57.49905756926626
 30
0.0
 11
-64.32826086956516
 21
69.35
 31
0.0
  0
LINE
  5
17B
330
39A
100
AcDbEntity
  8
PATTERN_FILL
  6
Continuous
 62
     7
100
AcDbLine
 10
-53.02826086956514
 20
80.65000000000003
 30
0.0
 11
-41.57827462653432
 21
92.09998624303086
 31
0.0
  0
LINE
  5
17C
330
39A
100
AcDbEntity
  8
PATTERN_FILL
  6
Continuous
 62
     7
100
AcDbLine
 10
-73.48542269334519
 20
57.39283817621995
 30
0.0
 11
-61.52826086956514
 21
69.35
 31
0.0
  0
LINE
  5
17D
330
39A
100
AcDbEntity
  8
PATTERN_FILL
  6
Continuous
 62
     7
100
AcDbLine
 10
-50.22826086956513
 20
80.65
 30
0.0
 11
-39.30806176837763
 21
91.57019910118754
 31
0.0
  0
LINE
  5
17E
330
39A
100
AcDbEntity
  8
PATTERN_FILL
  6
Continuous
 62
     7
100
AcDbLine
 10
-47.42826086956518
 20
80.65
 30
0.0
 11
-38.70000000000005
 21
89.37826086956517
 31
0.0
  0
LINE
  5
17F
330
39A
100
AcDbEntity
  8
PATTERN_FILL
  6
Continuous
 62
     7
100
AcDbLine
 10
-68.02941609612105
 20
57.24884477344406
 30
0.0
 11
-55.92826086956512
 21
69.35
 31
0.0
  0
LINE
  5
180
330
39A
100
AcDbEntity
  8
PATTERN_FILL
  6
Continuous
 62
     7
100
AcDbLine
 10
-44.62826086956517
 20
80.64999999999998
 30
0.0
 11
-38.70000000000005
 21
86.57826086956513
 31
0.0
  0
LINE
  5
181
330
39A
100
AcDbEntity
  8
PATTERN_FILL
  6
Continuous
 62
     7
100
AcDbLine
 10
-65.26603863456364
 20
57.21222223500152
 30
0.0
 11
-53.12826086956517
 21
69.35000000000001
 31
0.0
  0
LINE
  5
182
330
39A
100
AcDbEntity
  8
PATTERN_FILL
  6
Continuous
 62
     7
100
AcDbLine
 10
-41.82826086956516
 20
80.65
 30
0.0
 11
-38.70000000000005
 21
83.77826086956514
 31
0.0
  0
LINE
  5
183
330
39A
100
AcDbEntity
  8
PATTERN_FILL
  6
Continuous
 62
     7
100
AcDbLine
 10
-62.47826011457687
 20
57.20000075498824
 30
0.0
 11
-50.32826086956516
 21
69.35
 31
0.0
  0
LINE
  5
184
330
39A
100
AcDbEntity
  8
PATTERN_FILL
  6
Continuous
 62
     7
100
AcDbLine
 10
-39.0282608695652
 20
80.65
 30
0.0
 11
-38.70000000000005
 21
80.97826086956513
 31
0.0
  0
LINE
  5
185
330
39A
100
AcDbEntity
  8
PATTERN_FILL
  6
Continuous
 62
     7
100
AcDbLine
 10
-59.66542544197205
 20
57.21283542759306
 30
0.0
 11
-47.5282608695652
 21
69.34999999999998
 31
0.0
  0
LINE
  5
186
330
39A
100
AcDbEntity
  8
PATTERN_FILL
  6
Continuous
 62
     7
100
AcDbLine
 10
-56.82684337784315
 20
57.25141749172207
 30
0.0
 11
-44.72826086956525
 21
69.35000000000001
 31
0.0
  0
LINE
  5
187
330
39A
100
AcDbEntity
  8
PATTERN_FILL
  6
Continuous
 62
     7
100
AcDbLine
 10
-53.96178370596556
 20
57.31647716359967
 30
0.0
 11
-41.92826086956524
 21
69.35
 31
0.0
  0
LINE
  5
188
330
39A
100
AcDbEntity
  8
PATTERN_FILL
  6
Continuous
 62
     7
100
AcDbLine
 10
-51.06947410577726
 20
57.40878676378796
 30
0.0
 11
-39.12826086956522
 21
69.35
 31
0.0
  0
LINE
  5
189
330
39A
100
AcDbEntity
  8
PATTERN_FILL
  6
Continuous
 62
     7
100
AcDbLine
 10
-48.1490966925773
 20
57.52916417698792
 30
0.0
 11
-38.70000000000005
 21
66.97826086956522
 31
0.0
  0
LINE
  5
18A
330
39A
100
AcDbEntity
  8
PATTERN_FILL
  6
Continuous
 62
     7
100
AcDbLine
 10
-45.19978418051954
 20
57.67847668904568
 30
0.0
 11
-38.70000000000005
 21
64.17826086956521
 31
0.0
  0
LINE
  5
18B
330
39A
100
AcDbEntity
  8
PATTERN_FILL
  6
Continuous
 62
     7
100
AcDbLine
 10
-42.22061561678447
 20
57.85764525278074
 30
0.0
 11
-38.70000000000005
 21
61.3782608695652
 31
0.0
  0
LINE
  5
18C
330
39A
100
AcDbEntity
  8
PATTERN_FILL
  6
Continuous
 62
     7
100
AcDbLine
 10
-70.76901402014119
 20
57.309246849424
 30
0.0
 11
-58.72826086956513
 21
69.35
 31
0.0
  0
LINE
  5
18D
330
39A
100
AcDbEntity
  8
PATTERN_FILL
  6
Continuous
 62
     7
100
AcDbLine
 10
40.58400000000006
 20
20.21600000000002
 30
0.0
 11
85.82353958623662
 21
-25.02353958623663
 31
0.0
  0
LINE
  5
18E
330
39A
100
AcDbEntity
  8
SPEC
  6
Continuous
 62
     7
100
AcDbLine
 10
-164.9999999999999
 20
243.5087852777778
 30
0.0
 11
137.5
 21
243.5087852777778
 31
0.0
  0
LINE
  5
18F
330
39A
100
AcDbEntity
  8
SPEC
  6
Continuous
 62
     7
100
AcDbLine
 10
-164.9999999999999
 20
236.0087852777778
 30
0.0
 11
137.5
 21
236.0087852777778
 31
0.0
  0
LINE
  5
190
330
39A
100
AcDbEntity
  8
SPEC
  6
Continuous
 62
     7
100
AcDbLine
 10
-164.9999999999999
 20
243.5087852777778
 30
0.0
 11
-164.9999999999999
 21
146.0087852777778
 31
0.0
  0
TEXT
  5
191
330
39A
100
AcDbEntity
  8
SPEC
 62
     7
100
AcDbText
 10
-162.4999999999999
 20
246.2953252777778
 30
0.0
 40
4.8865234375
  1
仕様
 41
0.7
 11
-162.4999999999999
 21
251.1818487152778
 31
0.0
100
AcDbText
 73
     3
  0
LINE
  5
192
330
39A
100
AcDbEntity
  8
SPEC
  6
Continuous
 62
     7
100
AcDbLine
 10
-99.99999999999997
 20
243.5087852777778
 30
0.0
 11
-99.99999999999997
 21
146.0087852777778
 31
0.0
  0
LINE
  5
193
330
39A
100
AcDbEntity
  8
SPEC
  6
Continuous
 62
     7
100
AcDbLine
 10
137.5
 20
243.5087852777778
 30
0.0
 11
137.5
 21
146.0087852777778
 31
0.0
  0
TEXT
  5
194
330
39A
100
AcDbEntity
  8
SPEC
 62
     7
100
AcDbText
 10
-163.2
 20
155.0846208333333
 30
0.0
 40
3.800629340277778
  1
寸法(W×H×D)
 41
0.7
 11
-163.2
 21
158.8852501736111
 31
0.0
100
AcDbText
 73
     3
  0
TEXT
  5
195
330
39A
100
AcDbEntity
  8
SPEC
 62
     7
100
AcDbText
 10
-163.2
 20
147.5846208333333
 30
0.0
 40
3.800629340277778
  1
質量
 41
0.7
 11
-163.2
 21
151.3852501736111
 31
0.0
100
AcDbText
 73
     3
  0
TEXT
  5
196
330
39A
100
AcDbEntity
  8
SPEC
 62
     7
100
AcDbText
 10
-98.19999999999997
 20
155.0846208333333
 30
0.0
 40
3.800629340277778
  1
50×160×38mm
 41
0.7
 11
-98.19999999999997
 21
158.8852501736111
 31
0.0
100
AcDbText
 73
     3
  0
TEXT
  5
197
330
39A
100
AcDbEntity
  8
SPEC
 62
     7
100
AcDbText
 10
-98.19999999999997
 20
147.5846208333333
 30
0.0
 40
3.800629340277778
  1
300g
 41
0.7
 11
-98.19999999999997
 21
151.3852501736111
 31
0.0
100
AcDbText
 73
     3
  0
LINE
  5
198
330
39A
100
AcDbEntity
  8
SPEC
  6
Continuous
 62
     7
100
AcDbLine
 10
-164.9999999999999
 20
228.5087852777778
 30
0.0
 11
137.5
 21
228.5087852777778
 31
0.0
  0
LINE
  5
199
330
39A
100
AcDbEntity
  8
SPEC
  6
Continuous
 62
     7
100
AcDbLine
 10
-164.9999999999999
 20
221.0087852777778
 30
0.0
 11
137.5
 21
221.0087852777778
 31
0.0
  0
LINE
  5
19A
330
39A
100
AcDbEntity
  8
SPEC
  6
Continuous
 62
     7
100
AcDbLine
 10
-164.9999999999999
 20
213.5087852777778
 30
0.0
 11
137.5
 21
213.5087852777778
 31
0.0
  0
LINE
  5
19B
330
39A
100
AcDbEntity
  8
SPEC
  6
Continuous
 62
     7
100
AcDbLine
 10
-164.9999999999999
 20
206.0087852777778
 30
0.0
 11
137.5
 21
206.0087852777778
 31
0.0
  0
LINE
  5
19C
330
39A
100
AcDbEntity
  8
SPEC
  6
Continuous
 62
     7
100
AcDbLine
 10
-164.9999999999999
 20
198.5087852777778
 30
0.0
 11
137.5
 21
198.5087852777778
 31
0.0
  0
LINE
  5
19D
330
39A
100
AcDbEntity
  8
SPEC
  6
Continuous
 62
     7
100
AcDbLine
 10
-164.9999999999999
 20
191.0087852777778
 30
0.0
 11
137.5
 21
191.0087852777778
 31
0.0
  0
LINE
  5
19E
330
39A
100
AcDbEntity
  8
SPEC
  6
Continuous
 62
     7
100
AcDbLine
 10
-164.9999999999999
 20
183.5087852777778
 30
0.0
 11
137.5
 21
183.5087852777778
 31
0.0
  0
LINE
  5
19F
330
39A
100
AcDbEntity
  8
SPEC
  6
Continuous
 62
     7
100
AcDbLine
 10
-164.9999999999999
 20
176.0087852777778
 30
0.0
 11
137.5
 21
176.0087852777778
 31
0.0
  0
LINE
  5
1A0
330
39A
100
AcDbEntity
  8
SPEC
  6
Continuous
 62
     7
100
AcDbLine
 10
-164.9999999999999
 20
168.5087852777778
 30
0.0
 11
137.5
 21
168.5087852777778
 31
0.0
  0
LINE
  5
1A1
330
39A
100
AcDbEntity
  8
SPEC
  6
Continuous
 62
     7
100
AcDbLine
 10
-164.9999999999999
 20
161.0087852777778
 30
0.0
 11
137.5
 21
161.0087852777778
 31
0.0
  0
LINE
  5
1A2
330
39A
100
AcDbEntity
  8
SPEC
  6
Continuous
 62
     7
100
AcDbLine
 10
-164.9999999999999
 20
153.5087852777778
 30
0.0
 11
137.5
 21
153.5087852777778
 31
0.0
  0
LINE
  5
1A3
330
39A
100
AcDbEntity
  8
SPEC
  6
Continuous
 62
     7
100
AcDbLine
 10
-164.9999999999999
 20
146.0087852777778
 30
0.0
 11
137.5
 21
146.0087852777778
 31
0.0
  0
TEXT
  5
1A4
330
39A
100
AcDbEntity
  8
SPEC
 62
     7
100
AcDbText
 10
-98.19999999999999
 20
237.5846208333333
 30
0.0
 40
3.800629340277778
  1
コンデンサー型 
 41
0.7
 11
-98.19999999999999
 21
241.3852501736111
 31
0.0
100
AcDbText
 73
     3
  0
TEXT
  5
1A5
330
39A
100
AcDbEntity
  8
SPEC
 62
     7
100
AcDbText
 10
-98.19999999999999
 20
230.0846208333333
 30
0.0
 40
3.800629340277778
  1
無指向性/ワイドカーディオイド/カーディオイド/ハイパーカーディオイド/双指向性と各々の間の9段階
 41
0.7
 11
-98.19999999999999
 21
233.8852501736111
 31
0.0
100
AcDbText
 73
     3
  0
TEXT
  5
1A6
330
39A
100
AcDbEntity
  8
SPEC
 62
     7
100
AcDbText
 10
-98.19999999999999
 20
222.5846208333333
 30
0.0
 40
3.800629340277778
  1
20Hz～20kHz
 41
0.7
 11
-98.19999999999999
 21
226.3852501736111
 31
0.0
100
AcDbText
 73
     3
  0
TEXT
  5
1A7
330
39A
100
AcDbEntity
  8
SPEC
 62
     7
100
AcDbText
 10
-98.19999999999999
 20
215.0846208333333
 30
0.0
 40
3.800629340277778
  1
-33dB re 1V/Pa(±0.5dB)
 41
0.7
 11
-98.19999999999999
 21
218.8852501736111
 31
0.0
100
AcDbText
 73
     3
  0
TEXT
  5
1A8
330
39A
100
AcDbEntity
  8
SPEC
 62
     7
100
AcDbText
 10
-98.19999999999999
 20
207.5846208333333
 30
0.0
 40
3.800629340277778
  1
140dB SPL(パッドOFF、THD 0.5%%%)
 41
0.7
 11
-98.19999999999999
 21
211.3852501736111
 31
0.0
100
AcDbText
 73
     3
  0
TEXT
  5
1A9
330
39A
100
AcDbEntity
  8
SPEC
 62
     7
100
AcDbText
 10
-98.19999999999999
 20
192.5846208333333
 30
0.0
 40
3.800629340277778
  1
0/6/12/18dB
 41
0.7
 11
-98.19999999999999
 21
196.3852501736111
 31
0.0
100
AcDbText
 73
     3
  0
TEXT
  5
1AA
330
39A
100
AcDbEntity
  8
SPEC
 62
     7
100
AcDbText
 10
-98.19999999999999
 20
200.0846208333333
 30
0.0
 40
3.800629340277778
  1
6dB SPL(Aウェイト)
 41
0.7
 11
-98.19999999999999
 21
203.8852501736111
 31
0.0
100
AcDbText
 73
     3
  0
TEXT
  5
1AB
330
39A
100
AcDbEntity
  8
SPEC
 62
     7
100
AcDbText
 10
-98.19999999999999
 20
185.0846208333333
 30
0.0
 40
3.800629340277778
  1
Flat/40Hz(12dB/oct)/80Hz(12dB/oct)/160Hz(6dB/oct)
 41
0.7
 11
-98.19999999999999
 21
188.8852501736111
 31
0.0
100
AcDbText
 73
     3
  0
TEXT
  5
1AC
330
39A
100
AcDbEntity
  8
SPEC
 62
     7
100
AcDbText
 10
-98.19999999999997
 20
177.5846208333333
 30
0.0
 40
3.800629340277778
  1
200Ω以下
 41
0.7
 11
-98.19999999999997
 21
181.3852501736111
 31
0.0
100
AcDbText
 73
     3
  0
TEXT
  5
1AD
330
39A
100
AcDbEntity
  8
SPEC
 62
     7
100
AcDbText
 10
-98.19999999999997
 20
170.0846208333333
 30
0.0
 40
3.800629340277778
  1
ファンタム DC48V/約4.5mA
 41
0.7
 11
-98.19999999999997
 21
173.8852501736111
 31
0.0
100
AcDbText
 73
     3
  0
TEXT
  5
1AE
330
39A
100
AcDbEntity
  8
SPEC
 62
     7
100
AcDbText
 10
-98.19999999999996
 20
162.5846208333333
 30
0.0
 40
3.800629340277778
  1
XLR(3P)
 41
0.7
 11
-98.19999999999996
 21
166.3852501736111
 31
0.0
100
AcDbText
 73
     3
  0
TEXT
  5
1AF
330
39A
100
AcDbEntity
  8
SPEC
 62
     7
100
AcDbText
 10
-163.2
 20
237.5846208333333
 30
0.0
 40
3.800629340277778
  1
形式
 41
0.7
 11
-163.2
 21
241.3852501736111
 31
0.0
100
AcDbText
 73
     3
  0
TEXT
  5
1B0
330
39A
100
AcDbEntity
  8
SPEC
 62
     7
100
AcDbText
 10
-163.2
 20
230.0846208333333
 30
0.0
 40
3.800629340277778
  1
指向特性
 41
0.7
 11
-163.2
 21
233.8852501736111
 31
0.0
100
AcDbText
 73
     3
  0
TEXT
  5
1B1
330
39A
100
AcDbEntity
  8
SPEC
 62
     7
100
AcDbText
 10
-163.2
 20
222.5846208333333
 30
0.0
 40
3.800629340277778
  1
周波数特性
 41
0.7
 11
-163.2
 21
226.3852501736111
 31
0.0
100
AcDbText
 73
     3
  0
TEXT
  5
1B2
330
39A
100
AcDbEntity
  8
SPEC
 62
     7
100
AcDbText
 10
-163.2
 20
215.0846208333333
 30
0.0
 40
3.800629340277778
  1
開回路感度
 41
0.7
 11
-163.2
 21
218.8852501736111
 31
0.0
100
AcDbText
 73
     3
  0
TEXT
  5
1B3
330
39A
100
AcDbEntity
  8
SPEC
 62
     7
100
AcDbText
 10
-163.2
 20
207.5846208333333
 30
0.0
 40
3.800629340277778
  1
最大音圧レベル
 41
0.7
 11
-163.2
 21
211.3852501736111
 31
0.0
100
AcDbText
 73
     3
  0
TEXT
  5
1B4
330
39A
100
AcDbEntity
  8
SPEC
 62
     7
100
AcDbText
 10
-163.2
 20
192.5846208333333
 30
0.0
 40
3.800629340277778
  1
パッド
 41
0.7
 11
-163.2
 21
196.3852501736111
 31
0.0
100
AcDbText
 73
     3
  0
TEXT
  5
1B5
330
39A
100
AcDbEntity
  8
SPEC
 62
     7
100
AcDbText
 10
-163.2
 20
200.0846208333333
 30
0.0
 40
3.800629340277778
  1
等価雑音レベル
 41
0.7
 11
-163.2
 21
203.8852501736111
 31
0.0
100
AcDbText
 73
     3
  0
TEXT
  5
1B6
330
39A
100
AcDbEntity
  8
SPEC
 62
     7
100
AcDbText
 10
-163.2
 20
185.0846208333333
 30
0.0
 40
3.800629340277778
  1
ローカットフィルター
 41
0.7
 11
-163.2
 21
188.8852501736111
 31
0.0
100
AcDbText
 73
     3
  0
TEXT
  5
1B7
330
39A
100
AcDbEntity
  8
SPEC
 62
     7
100
AcDbText
 10
-163.2
 20
177.5846208333333
 30
0.0
 40
3.800629340277778
  1
インピーダンス
 41
0.7
 11
-163.2
 21
181.3852501736111
 31
0.0
100
AcDbText
 73
     3
  0
TEXT
  5
1B8
330
39A
100
AcDbEntity
  8
SPEC
 62
     7
100
AcDbText
 10
-163.2
 20
170.0846208333333
 30
0.0
 40
3.800629340277778
  1
電源
 41
0.7
 11
-163.2
 21
173.8852501736111
 31
0.0
100
AcDbText
 73
     3
  0
TEXT
  5
1B9
330
39A
100
AcDbEntity
  8
SPEC
 62
     7
100
AcDbText
 10
-163.2
 20
162.5846208333333
 30
0.0
 40
3.800629340277778
  1
端子
 41
0.7
 11
-163.2
 21
166.3852501736111
 31
0.0
100
AcDbText
 73
     3
  0
TEXT
  5
1BA
330
39A
100
AcDbEntity
  8
DIMNSIONS
 62
     7
100
AcDbText
 10
-39.99999999999999
 20
-231.9522347222221
 30
0.0
 40
4.8865234375
  1
(単位：mm)
 41
0.7
 11
-39.99999999999999
 21
-227.0657112847221
 31
0.0
100
AcDbText
 73
     3
  0
LINE
  5
1BB
330
39A
100
AcDbEntity
  8
DIMNSIONS
  6
Continuous
 62
     7
100
AcDbLine
 10
-76.40000000000006
 20
-125.0
 30
0.0
 11
-108.25
 21
-125.0
 31
0.0
  0
LINE
  5
1BC
330
39A
100
AcDbEntity
  8
DIMNSIONS
  6
Continuous
 62
     7
100
AcDbLine
 10
-65.07692742812219
 20
34.99993851566489
 30
0.0
 11
-108.25
 21
34.99993851566489
 31
0.0
  0
LINE
  5
1BD
330
39A
100
AcDbEntity
  8
DIMNSIONS
  6
Continuous
 62
     7
100
AcDbLine
 10
-106.25
 20
-125.0
 30
0.0
 11
-106.25
 21
34.99993851566489
 31
0.0
  0
LINE
  5
1BE
330
39A
100
AcDbEntity
  8
DIMNSIONS
  6
Continuous
 62
     7
100
AcDbLine
 10
-106.25
 20
-125.0
 30
0.0
 11
-107.3217313524412
 21
-121.000244140625
 31
0.0
  0
LINE
  5
1BF
330
39A
100
AcDbEntity
  8
DIMNSIONS
  6
Continuous
 62
     7
100
AcDbLine
 10
-106.25
 20
-125.0
 30
0.0
 11
-105.1782686475588
 21
-121.000244140625
 31
0.0
  0
LINE
  5
1C0
330
39A
100
AcDbEntity
  8
DIMNSIONS
  6
Continuous
 62
     7
100
AcDbLine
 10
-106.25
 20
34.99993851566489
 30
0.0
 11
-105.1782686475588
 21
31.00018265628989
 31
0.0
  0
LINE
  5
1C1
330
39A
100
AcDbEntity
  8
DIMNSIONS
  6
Continuous
 62
     7
100
AcDbLine
 10
-106.25
 20
34.99993851566489
 30
0.0
 11
-107.3217313524412
 21
31.00018265628989
 31
0.0
  0
TEXT
  5
1C2
330
39A
100
AcDbEntity
  8
DIMNSIONS
 62
     7
100
AcDbText
 10
-108.2377777777778
 20
-55.29169548744874
 30
0.0
 40
5.429470486111112
  1
160
 50
90.0
 41
0.7
 11
-113.6672482638889
 21
-55.29169548744874
 31
0.0
100
AcDbText
 73
     3
  0
LINE
  5
1C3
330
39A
100
AcDbEntity
  8
DIMNSIONS
  6
Continuous
 62
     7
100
AcDbLine
 10
-87.50000000000006
 20
-27.29373886036999
 30
0.0
 11
-87.50000000000006
 21
-152.0
 31
0.0
  0
LINE
  5
1C4
330
39A
100
AcDbEntity
  8
DIMNSIONS
  6
Continuous
 62
     7
100
AcDbLine
 10
-37.50442754748462
 20
-27.29373886036999
 30
0.0
 11
-37.50442754748462
 21
-152.0
 31
0.0
  0
LINE
  5
1C5
330
39A
100
AcDbEntity
  8
DIMNSIONS
  6
Continuous
 62
     7
100
AcDbLine
 10
-87.50000000000006
 20
-150.0
 30
0.0
 11
-37.50442754748462
 21
-150.0
 31
0.0
  0
LINE
  5
1C6
330
39A
100
AcDbEntity
  8
DIMNSIONS
  6
Continuous
 62
     7
100
AcDbLine
 10
-87.50000000000006
 20
-150.0
 30
0.0
 11
-83.50024414062506
 21
-148.9282686475588
 31
0.0
  0
LINE
  5
1C7
330
39A
100
AcDbEntity
  8
DIMNSIONS
  6
Continuous
 62
     7
100
AcDbLine
 10
-87.50000000000006
 20
-150.0
 30
0.0
 11
-83.50024414062506
 21
-151.0717313524412
 31
0.0
  0
LINE
  5
1C8
330
39A
100
AcDbEntity
  8
DIMNSIONS
  6
Continuous
 62
     7
100
AcDbLine
 10
-37.50442754748462
 20
-150.0
 30
0.0
 11
-41.50418340685962
 21
-151.0717313524412
 31
0.0
  0
LINE
  5
1C9
330
39A
100
AcDbEntity
  8
DIMNSIONS
  6
Continuous
 62
     7
100
AcDbLine
 10
-37.50442754748462
 20
-150.0
 30
0.0
 11
-41.50418340685962
 21
-148.9282686475588
 31
0.0
  0
TEXT
  5
1CA
330
39A
100
AcDbEntity
  8
DIMNSIONS
 62
     7
100
AcDbText
 10
-69.5577693292979
 20
-148.0122222222222
 30
0.0
 40
5.429470486111112
  1
50.0
 41
0.7
 11
-69.5577693292979
 21
-142.5827517361111
 31
0.0
100
AcDbText
 73
     3
  0
LINE
  5
1CB
330
39A
100
AcDbEntity
  8
DIMNSIONS
  6
Continuous
 62
     7
100
AcDbLine
 10
-64.9
 20
56.0
 30
0.0
 11
-108.25
 21
56.0
 31
0.0
  0
LINE
  5
1CC
330
39A
100
AcDbEntity
  8
DIMNSIONS
  6
Continuous
 62
     7
100
AcDbLine
 10
-64.9
 20
94.0
 30
0.0
 11
-108.25
 21
94.0
 31
0.0
  0
LINE
  5
1CD
330
39A
100
AcDbEntity
  8
DIMNSIONS
  6
Continuous
 62
     7
100
AcDbLine
 10
-106.25
 20
56.0
 30
0.0
 11
-106.25
 21
94.0
 31
0.0
  0
LINE
  5
1CE
330
39A
100
AcDbEntity
  8
DIMNSIONS
  6
Continuous
 62
     7
100
AcDbLine
 10
-106.25
 20
56.0
 30
0.0
 11
-107.3217313524412
 21
59.999755859375
 31
0.0
  0
LINE
  5
1CF
330
39A
100
AcDbEntity
  8
DIMNSIONS
  6
Continuous
 62
     7
100
AcDbLine
 10
-106.25
 20
56.0
 30
0.0
 11
-105.1782686475588
 21
59.999755859375
 31
0.0
  0
LINE
  5
1D0
330
39A
100
AcDbEntity
  8
DIMNSIONS
  6
Continuous
 62
     7
100
AcDbLine
 10
-106.25
 20
94.0
 30
0.0
 11
-105.1782686475588
 21
90.000244140625
 31
0.0
  0
LINE
  5
1D1
330
39A
100
AcDbEntity
  8
DIMNSIONS
  6
Continuous
 62
     7
100
AcDbLine
 10
-106.25
 20
94.0
 30
0.0
 11
-107.3217313524412
 21
90.000244140625
 31
0.0
  0
TEXT
  5
1D2
330
39A
100
AcDbEntity
  8
DIMNSIONS
 62
     7
100
AcDbText
 10
-108.2377777777778
 20
67.94444444444446
 30
0.0
 40
5.429470486111112
  1
38.0
 50
90.0
 41
0.7
 11
-113.6672482638889
 21
67.94444444444446
 31
0.0
100
AcDbText
 73
     3
  0
LINE
  5
1D3
330
39A
100
AcDbEntity
  8
DIMNSIONS
  6
Continuous
 62
     7
100
AcDbLine
 10
-75.90000000000006
 20
-125.0
 30
0.0
 11
-95.75
 21
-125.0
 31
0.0
  0
LINE
  5
1D4
330
39A
100
AcDbEntity
  8
DIMNSIONS
  6
Continuous
 62
     7
100
AcDbLine
 10
-84.2198623905692
 20
-83.0
 30
0.0
 11
-95.75
 21
-83.0
 31
0.0
  0
LINE
  5
1D5
330
39A
100
AcDbEntity
  8
DIMNSIONS
  6
Continuous
 62
     7
100
AcDbLine
 10
-93.75
 20
-125.0
 30
0.0
 11
-93.75
 21
-83.0
 31
0.0
  0
LINE
  5
1D6
330
39A
100
AcDbEntity
  8
DIMNSIONS
  6
Continuous
 62
     7
100
AcDbLine
 10
-93.75
 20
-125.0
 30
0.0
 11
-94.82173135244118
 21
-121.000244140625
 31
0.0
  0
LINE
  5
1D7
330
39A
100
AcDbEntity
  8
DIMNSIONS
  6
Continuous
 62
     7
100
AcDbLine
 10
-93.75
 20
-125.0
 30
0.0
 11
-92.67826864755882
 21
-121.000244140625
 31
0.0
  0
LINE
  5
1D8
330
39A
100
AcDbEntity
  8
DIMNSIONS
  6
Continuous
 62
     7
100
AcDbLine
 10
-93.75
 20
-83.0
 30
0.0
 11
-92.67826864755882
 21
-86.999755859375
 31
0.0
  0
LINE
  5
1D9
330
39A
100
AcDbEntity
  8
DIMNSIONS
  6
Continuous
 62
     7
100
AcDbLine
 10
-93.75
 20
-83.0
 30
0.0
 11
-94.82173135244118
 21
-86.999755859375
 31
0.0
  0
TEXT
  5
1DA
330
39A
100
AcDbEntity
  8
DIMNSIONS
 62
     7
100
AcDbText
 10
-95.73777777777778
 20
-111.0555555555555
 30
0.0
 40
5.429470486111112
  1
42.0
 50
90.0
 41
0.7
 11
-101.1672482638889
 21
-111.0555555555555
 31
0.0
100
AcDbText
 73
     3
  0
LINE
  5
1DB
330
39A
100
AcDbEntity
  8
DIMNSIONS
  6
Continuous
 62
     7
100
AcDbLine
 10
-74.0
 20
-126.9
 30
0.0
 11
-74.0
 21
-139.5
 31
0.0
  0
LINE
  5
1DC
330
39A
100
AcDbEntity
  8
DIMNSIONS
  6
Continuous
 62
     7
100
AcDbLine
 10
-51.0
 20
-126.9
 30
0.0
 11
-51.0
 21
-139.5
 31
0.0
  0
LINE
  5
1DD
330
39A
100
AcDbEntity
  8
DIMNSIONS
  6
Continuous
 62
     7
100
AcDbLine
 10
-74.0
 20
-137.5
 30
0.0
 11
-51.0
 21
-137.5
 31
0.0
  0
LINE
  5
1DE
330
39A
100
AcDbEntity
  8
DIMNSIONS
  6
Continuous
 62
     7
100
AcDbLine
 10
-74.0
 20
-137.5
 30
0.0
 11
-70.000244140625
 21
-136.4282686475588
 31
0.0
  0
LINE
  5
1DF
330
39A
100
AcDbEntity
  8
DIMNSIONS
  6
Continuous
 62
     7
100
AcDbLine
 10
-74.0
 20
-137.5
 30
0.0
 11
-70.000244140625
 21
-138.5717313524412
 31
0.0
  0
LINE
  5
1E0
330
39A
100
AcDbEntity
  8
DIMNSIONS
  6
Continuous
 62
     7
100
AcDbLine
 10
-51.0
 20
-137.5
 30
0.0
 11
-54.999755859375
 21
-138.5717313524412
 31
0.0
  0
LINE
  5
1E1
330
39A
100
AcDbEntity
  8
DIMNSIONS
  6
Continuous
 62
     7
100
AcDbLine
 10
-51.0
 20
-137.5
 30
0.0
 11
-54.999755859375
 21
-136.4282686475588
 31
0.0
  0
TEXT
  5
1E2
330
39A
100
AcDbEntity
  8
DIMNSIONS
 62
     7
100
AcDbText
 10
-69.55555555555556
 20
-135.5122222222222
 30
0.0
 40
5.429470486111112
  1
23.0
 41
0.7
 11
-69.55555555555556
 21
-130.0827517361111
 31
0.0
100
AcDbText
 73
     3
  0
TEXT
  5
1E3
330
39A
100
AcDbEntity
  8
DATA
 62
     7
100
AcDbText
 10
-175.0
 20
-240.7386591666667
 30
0.0
 40
3.800629340277778
  1
※仕様及び外観は予告なく変更されることがあります。
 41
0.7
 11
-175.0
 21
-236.9380298263889
 31
0.0
100
AcDbText
 73
     3
  0
TEXT
  5
1E4
330
39A
100
AcDbEntity
  8
DATA
 62
     7
100
AcDbText
 10
-175.0
 20
-245.6775480555556
 30
0.0
 40
3.800629340277778
  1
　また、同一商品でも若干の個体差があることがあります。ご了承ください。
 41
0.7
 11
-175.0
 21
-241.8769187152778
 31
0.0
100
AcDbText
 73
     3
  0
TEXT
  5
1E5
330
39A
100
AcDbEntity
  8
DATA
 62
     7
100
AcDbText
 10
99.99999999999997
 20
-219.7294347222222
 30
0.0
 40
4.8865234375
  1
AKG
 41
0.7
 11
99.99999999999997
 21
-214.8429112847222
 31
0.0
100
AcDbText
 73
     3
  0
LINE
  5
1E6
330
39A
100
AcDbEntity
  8
DATA
  6
Continuous
 62
     7
100
AcDbLine
 10
73.5
 20
-125.0
 30
0.0
 11
51.5
 21
-125.0
 31
0.0
  0
LINE
  5
1E7
330
39A
100
AcDbEntity
  8
DATA
  6
Continuous
 62
     7
100
AcDbLine
 10
81.81986239056914
 20
-83.0
 30
0.0
 11
43.18013760943086
 21
-83.0
 31
0.0
  0
LINE
  5
1E8
330
39A
100
AcDbEntity
  8
DATA
  6
Continuous
 62
     7
100
AcDbLine
 10
51.5
 20
-123.0
 30
0.0
 11
51.5
 21
-83.0
 31
0.0
  0
LINE
  5
1E9
330
39A
100
AcDbEntity
  8
DATA
  6
Continuous
 62
     7
100
AcDbLine
 10
73.5
 20
-83.0
 30
0.0
 11
73.5
 21
-123.0
 31
0.0
  0
LINE
  5
1EA
330
39A
100
AcDbEntity
  8
DATA
  6
Continuous
 62
     7
100
AcDbLine
 10
51.0
 20
-124.5
 30
0.0
 11
51.0
 21
-123.5
 31
0.0
  0
LINE
  5
1EB
330
39A
100
AcDbEntity
  8
DATA
  6
Continuous
 62
     7
100
AcDbLine
 10
74.0
 20
-123.5
 30
0.0
 11
74.0
 21
-124.5
 31
0.0
  0
LINE
  5
1EC
330
39A
100
AcDbEntity
  8
DATA
  6
Continuous
 62
     7
100
AcDbLine
 10
51.5
 20
-123.0
 30
0.0
 11
73.5
 21
-123.0
 31
0.0
  0
LINE
  5
1ED
330
39A
100
AcDbEntity
  8
DATA
  6
Continuous
 62
     7
100
AcDbLine
 10
41.3844030182695
 20
-81.32384376490768
 30
0.0
 11
37.5
 21
-25.0
 31
0.0
  0
LINE
  5
1EE
330
39A
100
AcDbEntity
  8
DATA
  6
Continuous
 62
     7
100
AcDbLine
 10
83.6155969817305
 20
-81.32384376490768
 30
0.0
 11
87.5
 21
-25.0
 31
0.0
  0
LINE
  5
1EF
330
39A
100
AcDbEntity
  8
DATA
  6
Continuous
 62
     7
100
AcDbLine
 10
37.5
 20
-25.0
 30
0.0
 11
39.90339356091772
 21
32.68144546202441
 31
0.0
  0
LINE
  5
1F0
330
39A
100
AcDbEntity
  8
DATA
  6
Continuous
 62
     7
100
AcDbLine
 10
87.5
 20
-25.0
 30
0.0
 11
85.09660643908228
 21
32.6814454620235
 31
0.0
  0
ARC
  5
1F1
330
39A
100
AcDbEntity
  8
DATA
  6
Continuous
 62
     7
100
AcDbCircle
 10
62.5
 20
-219.5633680555561
 30
0.0
 40
254.5633680555561
100
AcDbArc
 50
85.21769682826265
 51
94.78230317173731
  0
ARC
  5
1F2
330
39A
100
AcDbEntity
  8
DATA
  6
Continuous
 62
     7
100
AcDbCircle
 10
41.40209317055974
 20
32.61899964495599
 30
0.0
 40
1.500000000003597
100
AcDbArc
 50
94.78230317186946
 51
177.614055969611
  0
ARC
  5
1F3
330
39A
100
AcDbEntity
  8
DATA
  6
Continuous
 62
     7
100
AcDbCircle
 10
83.59790682943913
 20
32.61899964495504
 30
0.0
 40
1.50000000000463
100
AcDbArc
 50
2.385944030388813
 51
85.21769682808167
  0
LINE
  5
1F4
330
39A
100
AcDbEntity
  8
DATA
  6
Continuous
 62
     7
100
AcDbLine
 10
38.70051623866721
 20
-24.98761027198634
 30
0.0
 11
41.06468112672223
 21
31.75234704133317
 31
0.0
  0
LINE
  5
1F5
330
39A
100
AcDbEntity
  8
DATA
  6
Continuous
 62
     7
100
AcDbLine
 10
86.2994837613328
 20
-24.98761027198998
 30
0.0
 11
83.93531887327799
 21
31.75234704132683
 31
0.0
  0
ARC
  5
1F6
330
39A
100
AcDbEntity
  8
DATA
  6
Continuous
 62
     7
100
AcDbCircle
 10
62.5
 20
-220.7633680555561
 30
0.0
 40
254.5633680555561
100
AcDbArc
 50
85.43971795315504
 51
94.56028204684479
  0
ARC
  5
1F7
330
39A
100
AcDbEntity
  8
DATA
  6
Continuous
 62
     7
100
AcDbCircle
 10
42.36355412173407
 20
31.69822733320768
 30
0.0
 40
1.299999999991849
100
AcDbArc
 50
94.56028204648689
 51
177.614055969611
  0
ARC
  5
1F8
330
39A
100
AcDbEntity
  8
DATA
  6
Continuous
 62
     7
100
AcDbCircle
 10
82.63644587825888
 20
31.69822733320103
 30
0.0
 40
1.299999999999052
100
AcDbArc
 50
2.385944030388813
 51
85.4397179531967
  0
ARC
  5
1F9
330
39A
100
AcDbEntity
  8
DATA
  6
Continuous
 62
     7
100
AcDbCircle
 10
43.18013760943086
 20
-81.2
 30
0.0
 40
1.799999999999993
100
AcDbArc
 50
183.9451862290375
 51
270.0
  0
ARC
  5
1FA
330
39A
100
AcDbEntity
  8
DATA
  6
Continuous
 62
     7
100
AcDbCircle
 10
81.81986239056914
 20
-81.2
 30
0.0
 40
1.799999999999997
100
AcDbArc
 50
270.0
 51
356.0548137709625
  0
LINE
  5
1FB
330
39A
100
AcDbEntity
  8
DATA
  6
Continuous
 62
     7
100
AcDbLine
 10
58.01022164816504
 20
-35.6245044592242
 30
0.0
 11
46.44714913545681
 21
-35.61305165315299
 31
0.0
  0
LINE
  5
1FC
330
39A
100
AcDbEntity
  8
DATA
  6
Continuous
 62
     7
100
AcDbLine
 10
59.39999999999986
 20
-25.87838704618747
 30
0.0
 11
57.86764363163843
 21
-36.62436324084376
 31
0.0
  0
LINE
  5
1FD
330
39A
100
AcDbEntity
  8
DATA
  6
Continuous
 62
     7
100
AcDbLine
 10
45.39999999999986
 20
-25.42628116596728
 30
0.0
 11
46.54995460877649
 21
-36.61315347826459
 31
0.0
  0
ARC
  5
1FE
330
39A
100
AcDbEntity
  8
DATA
  6
Continuous
 62
     7
100
AcDbCircle
 10
62.5
 20
284.8062611396301
 30
0.0
 40
313.0000000000001
100
AcDbArc
 50
266.9117856460758
 51
269.3741385289738
  0
LINE
  5
1FF
330
39A
100
AcDbEntity
  8
DATA
  6
Continuous
 62
     7
100
AcDbLine
 10
57.86764363163843
 20
-36.62436324084376
 30
0.0
 11
46.54995460877649
 21
-36.61315347826459
 31
0.0
  0
LINE
  5
200
330
39A
100
AcDbEntity
  8
DATA
  6
Continuous
 62
     7
100
AcDbLine
 10
48.98750076831834
 20
-33.31437696472196
 30
0.0
 11
46.98750076831834
 21
-31.71437696472195
 31
0.0
  0
LINE
  5
201
330
39A
100
AcDbEntity
  8
DATA
  6
Continuous
 62
     7
100
AcDbLine
 10
48.98750076831834
 20
-30.11437696472194
 30
0.0
 11
46.98750076831834
 21
-31.71437696472195
 31
0.0
  0
LINE
  5
202
330
39A
100
AcDbEntity
  8
DATA
  6
Continuous
 62
     7
100
AcDbLine
 10
48.98750076831834
 20
-33.31437696472196
 30
0.0
 11
48.98750076831834
 21
-30.11437696472194
 31
0.0
  0
LINE
  5
203
330
39A
100
AcDbEntity
  8
DATA
  6
Continuous
 62
     7
100
AcDbLine
 10
55.61657326422187
 20
-33.31437696472196
 30
0.0
 11
57.61657326422187
 21
-31.71437696472195
 31
0.0
  0
LINE
  5
204
330
39A
100
AcDbEntity
  8
DATA
  6
Continuous
 62
     7
100
AcDbLine
 10
55.61657326422187
 20
-30.11437696472194
 30
0.0
 11
57.61657326422187
 21
-31.71437696472195
 31
0.0
  0
LINE
  5
205
330
39A
100
AcDbEntity
  8
DATA
  6
Continuous
 62
     7
100
AcDbLine
 10
55.61657326422187
 20
-33.31437696472196
 30
0.0
 11
55.61657326422187
 21
-30.11437696472194
 31
0.0
  0
LINE
  5
206
330
39A
100
AcDbEntity
  8
DATA
  6
Continuous
 62
     7
100
AcDbLine
 10
66.98977835183473
 20
-35.6245044592242
 30
0.0
 11
78.55285086454319
 21
-35.61305165315299
 31
0.0
  0
LINE
  5
207
330
39A
100
AcDbEntity
  8
DATA
  6
Continuous
 62
     7
100
AcDbLine
 10
65.59999999999991
 20
-25.87838704618747
 30
0.0
 11
67.13235636836157
 21
-36.62436324084376
 31
0.0
  0
LINE
  5
208
330
39A
100
AcDbEntity
  8
DATA
  6
Continuous
 62
     7
100
AcDbLine
 10
79.59999999999991
 20
-25.42628116596728
 30
0.0
 11
78.45004539122351
 21
-36.61315347826459
 31
0.0
  0
ARC
  5
209
330
39A
100
AcDbEntity
  8
DATA
  6
Continuous
 62
     7
100
AcDbCircle
 10
62.5
 20
284.8062611396301
 30
0.0
 40
313.0000000000001
100
AcDbArc
 50
270.6258614710262
 51
273.0882143539242
  0
LINE
  5
20A
330
39A
100
AcDbEntity
  8
DATA
  6
Continuous
 62
     7
100
AcDbLine
 10
67.13235636836157
 20
-36.62436324084376
 30
0.0
 11
78.45004539122351
 21
-36.61315347826459
 31
0.0
  0
LINE
  5
20B
330
39A
100
AcDbEntity
  8
DATA
  6
Continuous
 62
     7
100
AcDbLine
 10
76.01249923168143
 20
-33.31437696472196
 30
0.0
 11
78.01249923168143
 21
-31.71437696472195
 31
0.0
  0
LINE
  5
20C
330
39A
100
AcDbEntity
  8
DATA
  6
Continuous
 62
     7
100
AcDbLine
 10
76.01249923168143
 20
-30.11437696472194
 30
0.0
 11
78.01249923168143
 21
-31.71437696472195
 31
0.0
  0
LINE
  5
20D
330
39A
100
AcDbEntity
  8
DATA
  6
Continuous
 62
     7
100
AcDbLine
 10
76.01249923168143
 20
-33.31437696472196
 30
0.0
 11
76.01249923168143
 21
-30.11437696472194
 31
0.0
  0
LINE
  5
20E
330
39A
100
AcDbEntity
  8
DATA
  6
Continuous
 62
     7
100
AcDbLine
 10
69.3834267357779
 20
-33.31437696472196
 30
0.0
 11
67.3834267357779
 21
-31.71437696472195
 31
0.0
  0
LINE
  5
20F
330
39A
100
AcDbEntity
  8
DATA
  6
Continuous
 62
     7
100
AcDbLine
 10
69.3834267357779
 20
-30.11437696472194
 30
0.0
 11
67.3834267357779
 21
-31.71437696472195
 31
0.0
  0
LINE
  5
210
330
39A
100
AcDbEntity
  8
DATA
  6
Continuous
 62
     7
100
AcDbLine
 10
69.3834267357779
 20
-33.31437696472196
 30
0.0
 11
69.3834267357779
 21
-30.11437696472194
 31
0.0
  0
TEXT
  5
211
330
39A
100
AcDbEntity
  8
DATA
 62
     7
100
AcDbText
 10
46.2973872481337
 20
-40.36172628039292
 30
0.0
 40
2.171788194444445
  1
0-6-12-18
 41
0.7
 72
     1
 11
52.25170654790222
 21
-39.27583218317069
 31
0.0
100
AcDbText
 73
     2
  0
TEXT
  5
212
330
39A
100
AcDbEntity
  8
DATA
 62
     7
100
AcDbText
 10
50.52529003265861
 20
-43.80500745515905
 30
0.0
 40
2.171788194444445
  1
dB
 41
0.7
 72
     1
 11
51.79216647941787
 21
-42.71911335793683
 31
0.0
100
AcDbText
 73
     2
  0
TEXT
  5
213
330
39A
100
AcDbEntity
  8
DATA
 62
     7
100
AcDbText
 10
66.49693831979066
 20
-40.36172628039292
 30
0.0
 40
2.171788194444445
  1
0 40 80 160
 41
0.7
 72
     1
 11
72.93267066932769
 21
-39.27583218317069
 31
0.0
100
AcDbText
 73
     2
  0
TEXT
  5
214
330
39A
100
AcDbEntity
  8
DATA
 62
     7
100
AcDbText
 10
74.38309077137568
 20
-43.80500745515905
 30
0.0
 40
2.171788194444445
  1
Hz
 41
0.7
 72
     1
 11
75.64996721813493
 21
-42.71911335793683
 31
0.0
100
AcDbText
 73
     2
  0
LINE
  5
215
330
39A
100
AcDbEntity
  8
DATA
  6
Continuous
 62
     7
100
AcDbLine
 10
72.52219174370293
 20
-42.27040856599923
 30
0.0
 11
70.3388732122728
 21
-42.27040856599923
 31
0.0
  0
LINE
  5
216
330
39A
100
AcDbEntity
  8
DATA
  6
Continuous
 62
     7
100
AcDbLine
 10
70.3388732122728
 20
-42.27040856599925
 30
0.0
 11
69.59693772840183
 21
-43.27040856599923
 31
0.0
  0
TEXT
  5
217
330
39A
100
AcDbEntity
  8
DATA
 62
     7
100
AcDbText
 10
59.82796084622341
 20
-49.80791529272957
 30
0.0
 40
2.714735243055556
  1
P48
 41
0.7
 72
     1
 11
62.36171373974192
 21
-48.45054767120179
 31
0.0
100
AcDbText
 73
     2
  0
ARC
  5
218
330
39A
100
AcDbEntity
  8
DATA
  6
Continuous
 62
     7
100
AcDbCircle
 10
51.5
 20
-124.5
 30
0.0
 40
0.5
100
AcDbArc
 50
180.0
 51
270.0
  0
ARC
  5
219
330
39A
100
AcDbEntity
  8
DATA
  6
Continuous
 62
     7
100
AcDbCircle
 10
51.5
 20
-123.5
 30
0.0
 40
0.5
100
AcDbArc
 50
90.0
 51
180.0
  0
ARC
  5
21A
330
39A
100
AcDbEntity
  8
DATA
  6
Continuous
 62
     7
100
AcDbCircle
 10
73.5
 20
-123.5
 30
0.0
 40
0.5
100
AcDbArc
 50
0.0
 51
90.0
  0
ARC
  5
21B
330
39A
100
AcDbEntity
  8
DATA
  6
Continuous
 62
     7
100
AcDbCircle
 10
73.5
 20
-124.5
 30
0.0
 40
0.5
100
AcDbArc
 50
270.0
 51
0.0
  0
LINE
  5
21C
330
39A
100
AcDbEntity
  8
DATA
  6
Continuous
 62
     7
100
AcDbLine
 10
-51.5
 20
-125.0
 30
0.0
 11
-73.5
 21
-125.0
 31
0.0
  0
LINE
  5
21D
330
39A
100
AcDbEntity
  8
DATA
  6
Continuous
 62
     7
100
AcDbLine
 10
-43.18013760943086
 20
-83.0
 30
0.0
 11
-81.81986239056914
 21
-83.0
 31
0.0
  0
LINE
  5
21E
330
39A
100
AcDbEntity
  8
DATA
  6
Continuous
 62
     7
100
AcDbLine
 10
-73.5
 20
-123.0
 30
0.0
 11
-73.5
 21
-83.0
 31
0.0
  0
LINE
  5
21F
330
39A
100
AcDbEntity
  8
DATA
  6
Continuous
 62
     7
100
AcDbLine
 10
-51.5
 20
-83.0
 30
0.0
 11
-51.5
 21
-123.0
 31
0.0
  0
LINE
  5
220
330
39A
100
AcDbEntity
  8
DATA
  6
Continuous
 62
     7
100
AcDbLine
 10
-74.0
 20
-124.5
 30
0.0
 11
-74.0
 21
-123.5
 31
0.0
  0
LINE
  5
221
330
39A
100
AcDbEntity
  8
DATA
  6
Continuous
 62
     7
100
AcDbLine
 10
-51.0
 20
-123.5
 30
0.0
 11
-51.0
 21
-124.5
 31
0.0
  0
LINE
  5
222
330
39A
100
AcDbEntity
  8
DATA
  6
Continuous
 62
     7
100
AcDbLine
 10
-73.5
 20
-123.0
 30
0.0
 11
-51.5
 21
-123.0
 31
0.0
  0
LINE
  5
223
330
39A
100
AcDbEntity
  8
DATA
  6
Continuous
 62
     7
100
AcDbLine
 10
-83.6155969817305
 20
-81.32384376490768
 30
0.0
 11
-87.5
 21
-25.0
 31
0.0
  0
LINE
  5
224
330
39A
100
AcDbEntity
  8
DATA
  6
Continuous
 62
     7
100
AcDbLine
 10
-41.3844030182695
 20
-81.32384376490768
 30
0.0
 11
-37.5
 21
-25.0
 31
0.0
  0
LINE
  5
225
330
39A
100
AcDbEntity
  8
DATA
  6
Continuous
 62
     7
100
AcDbLine
 10
-87.5
 20
-25.0
 30
0.0
 11
-85.09660643908234
 21
32.68144546202441
 31
0.0
  0
LINE
  5
226
330
39A
100
AcDbEntity
  8
DATA
  6
Continuous
 62
     7
100
AcDbLine
 10
-37.5
 20
-25.0
 30
0.0
 11
-39.90339356091766
 21
32.6814454620235
 31
0.0
  0
ARC
  5
227
330
39A
100
AcDbEntity
  8
DATA
  6
Continuous
 62
     7
100
AcDbCircle
 10
-62.5
 20
-219.5633680555561
 30
0.0
 40
254.5633680555561
100
AcDbArc
 50
85.21769682826267
 51
94.78230317173731
  0
ARC
  5
228
330
39A
100
AcDbEntity
  8
DATA
  6
Continuous
 62
     7
100
AcDbCircle
 10
-83.5979068294402
 20
32.61899964495599
 30
0.0
 40
1.500000000003606
100
AcDbArc
 50
94.78230317187378
 51
177.6140559696112
  0
ARC
  5
229
330
39A
100
AcDbEntity
  8
DATA
  6
Continuous
 62
     7
100
AcDbCircle
 10
-41.40209317056087
 20
32.61899964495504
 30
0.0
 40
1.500000000004687
100
AcDbArc
 50
2.385944030388722
 51
85.21769682808599
  0
LINE
  5
22A
330
39A
100
AcDbEntity
  8
DATA
  6
Continuous
 62
     7
100
AcDbLine
 10
-86.2994837613328
 20
-24.98761027198634
 30
0.0
 11
-83.93531887327782
 21
31.75234704133317
 31
0.0
  0
LINE
  5
22B
330
39A
100
AcDbEntity
  8
DATA
  6
Continuous
 62
     7
100
AcDbLine
 10
-38.70051623866709
 20
-24.98761027198998
 30
0.0
 11
-41.06468112672201
 21
31.75234704132683
 31
0.0
  0
ARC
  5
22C
330
39A
100
AcDbEntity
  8
DATA
  6
Continuous
 62
     7
100
AcDbCircle
 10
-62.5
 20
-220.7633680555561
 30
0.0
 40
254.5633680555561
100
AcDbArc
 50
85.43971795315504
 51
94.56028204684479
  0
ARC
  5
22D
330
39A
100
AcDbEntity
  8
DATA
  6
Continuous
 62
     7
100
AcDbCircle
 10
-82.63644587826593
 20
31.69822733320768
 30
0.0
 40
1.299999999991849
100
AcDbArc
 50
94.56028204648689
 51
177.6140559696111
  0
ARC
  5
22E
330
39A
100
AcDbEntity
  8
DATA
  6
Continuous
 62
     7
100
AcDbCircle
 10
-42.36355412174112
 20
31.69822733320103
 30
0.0
 40
1.299999999999109
100
AcDbArc
 50
2.385944030388708
 51
85.4397179531967
  0
ARC
  5
22F
330
39A
100
AcDbEntity
  8
DATA
  6
Continuous
 62
     7
100
AcDbCircle
 10
-81.81986239056914
 20
-81.2
 30
0.0
 40
1.799999999999993
100
AcDbArc
 50
183.9451862290375
 51
270.0
  0
ARC
  5
230
330
39A
100
AcDbEntity
  8
DATA
  6
Continuous
 62
     7
100
AcDbCircle
 10
-43.18013760943086
 20
-81.2
 30
0.0
 40
1.799999999999997
100
AcDbArc
 50
270.0
 51
356.0548137709625
  0
ARC
  5
231
330
39A
100
AcDbEntity
  8
DATA
  6
Continuous
 62
     7
100
AcDbCircle
 10
-62.5
 20
287.1062611396301
 30
0.0
 40
313.0000000000001
100
AcDbArc
 50
265.418779914723
 51
274.581220085277
  0
LINE
  5
232
330
39A
100
AcDbEntity
  8
DATA
  6
Continuous
 62
     7
100
AcDbLine
 10
-74.93030740575529
 20
-25.64681631573035
 30
0.0
 11
-73.78649201948843
 21
-36.77396566349685
 31
0.0
  0
LINE
  5
233
330
39A
100
AcDbEntity
  8
DATA
  6
Continuous
 62
     7
100
AcDbLine
 10
-71.34894585994647
 20
-33.47518914995422
 30
0.0
 11
-73.34894585994647
 21
-31.87518914995422
 31
0.0
  0
LINE
  5
234
330
39A
100
AcDbEntity
  8
DATA
  6
Continuous
 62
     7
100
AcDbLine
 10
-71.34894585994647
 20
-30.27518914995422
 30
0.0
 11
-73.34894585994647
 21
-31.87518914995422
 31
0.0
  0
LINE
  5
235
330
39A
100
AcDbEntity
  8
DATA
  6
Continuous
 62
     7
100
AcDbLine
 10
-71.34894585994647
 20
-33.47518914995422
 30
0.0
 11
-71.34894585994647
 21
-30.27518914995422
 31
0.0
  0
LINE
  5
236
330
39A
100
AcDbEntity
  8
DATA
  6
Continuous
 62
     7
100
AcDbLine
 10
-50.11979967765762
 20
-25.64880379134547
 30
0.0
 11
-51.26341076135634
 21
-36.77396566349685
 31
0.0
  0
LINE
  5
237
330
39A
100
AcDbEntity
  8
DATA
  6
Continuous
 62
     7
100
AcDbLine
 10
-53.70094390460724
 20
-33.47506252618632
 30
0.0
 11
-51.70094390460724
 21
-31.87506252618633
 31
0.0
  0
LINE
  5
238
330
39A
100
AcDbEntity
  8
DATA
  6
Continuous
 62
     7
100
AcDbLine
 10
-53.70094390460724
 20
-30.27506252618632
 30
0.0
 11
-51.70094390460724
 21
-31.87506252618633
 31
0.0
  0
LINE
  5
239
330
39A
100
AcDbEntity
  8
DATA
  6
Continuous
 62
     7
100
AcDbLine
 10
-53.70094390460724
 20
-33.47506252618632
 30
0.0
 11
-53.70094390460724
 21
-30.27506252618632
 31
0.0
  0
ARC
  5
23A
330
39A
100
AcDbEntity
  8
DATA
  6
Continuous
 62
     7
100
AcDbCircle
 10
-73.5
 20
-124.5
 30
0.0
 40
0.5
100
AcDbArc
 50
180.0
 51
270.0
  0
ARC
  5
23B
330
39A
100
AcDbEntity
  8
DATA
  6
Continuous
 62
     7
100
AcDbCircle
 10
-73.5
 20
-123.5
 30
0.0
 40
0.5
100
AcDbArc
 50
90.0
 51
180.0
  0
ARC
  5
23C
330
39A
100
AcDbEntity
  8
DATA
  6
Continuous
 62
     7
100
AcDbCircle
 10
-51.5
 20
-123.5
 30
0.0
 40
0.5
100
AcDbArc
 50
0.0
 51
90.0
  0
ARC
  5
23D
330
39A
100
AcDbEntity
  8
DATA
  6
Continuous
 62
     7
100
AcDbCircle
 10
-51.5
 20
-124.5
 30
0.0
 40
0.5
100
AcDbArc
 50
270.0
 51
0.0
  0
ARC
  5
23E
330
39A
100
AcDbEntity
  8
DATA
  6
Continuous
 62
     7
100
AcDbCircle
 10
-62.5
 20
284.6339768067348
 30
0.0
 40
312.9999999999999
100
AcDbArc
 50
267.7707347997767
 51
272.2200867734336
  0
LINE
  5
23F
330
39A
100
AcDbEntity
  8
DATA
  6
Continuous
 62
     7
100
AcDbLine
 10
11.0
 20
-125.0
 30
0.0
 11
-11.0
 21
-125.0
 31
0.0
  0
LINE
  5
240
330
39A
100
AcDbEntity
  8
DATA
  6
Continuous
 62
     7
100
AcDbLine
 10
-11.0
 20
-123.0
 30
0.0
 11
-11.0
 21
-83.0
 31
0.0
  0
LINE
  5
241
330
39A
100
AcDbEntity
  8
DATA
  6
Continuous
 62
     7
100
AcDbLine
 10
11.0
 20
-83.0
 30
0.0
 11
11.0
 21
-123.0
 31
0.0
  0
LINE
  5
242
330
39A
100
AcDbEntity
  8
DATA
  6
Continuous
 62
     7
100
AcDbLine
 10
-11.5
 20
-124.5
 30
0.0
 11
-11.5
 21
-123.5
 31
0.0
  0
LINE
  5
243
330
39A
100
AcDbEntity
  8
DATA
  6
Continuous
 62
     7
100
AcDbLine
 10
-11.0
 20
-123.0
 30
0.0
 11
11.0
 21
-123.0
 31
0.0
  0
ARC
  5
244
330
39A
100
AcDbEntity
  8
DATA
  6
Continuous
 62
     7
100
AcDbCircle
 10
-11.0
 20
-124.5
 30
0.0
 40
0.5
100
AcDbArc
 50
180.0
 51
270.0
  0
ARC
  5
245
330
39A
100
AcDbEntity
  8
DATA
  6
Continuous
 62
     7
100
AcDbCircle
 10
-11.0
 20
-123.5
 30
0.0
 40
0.5
100
AcDbArc
 50
90.0
 51
180.0
  0
LINE
  5
246
330
39A
100
AcDbEntity
  8
DATA
  6
STYLE_01
 62
     7
100
AcDbLine
 10
-93.00000000000006
 20
-38.24236836690653
 30
0.0
 11
-32.00000000000006
 21
-38.24236836690653
 31
0.0
  0
ARC
  5
247
330
39A
100
AcDbEntity
  8
DATA
  6
STYLE_01
 62
     7
100
AcDbCircle
 10
-62.50000000000006
 20
-79.31718143711237
 30
0.0
 40
123.0748130702058
100
AcDbArc
 50
76.60931116338293
 51
103.3906888366133
  0
LINE
  5
248
330
39A
100
AcDbEntity
  8
DATA
  6
STYLE_01
 62
     7
100
AcDbLine
 10
-92.53904114135344
 20
38.51711140464812
 30
0.0
 11
-94.46167980428322
 21
-36.74236836690656
 31
0.0
  0
LINE
  5
249
330
39A
100
AcDbEntity
  8
DATA
  6
STYLE_01
 62
     7
100
AcDbLine
 10
-32.46095885864588
 20
38.5171114046172
 30
0.0
 11
-30.53832019571689
 21
-36.74236836690653
 31
0.0
  0
LINE
  5
24A
330
39A
100
AcDbEntity
  8
DATA
  6
STYLE_01
 62
     7
100
AcDbLine
 10
-93.00000000000006
 20
-38.24236836690653
 30
0.0
 11
-94.46167980428322
 21
-36.74236836690653
 31
0.0
  0
LINE
  5
24B
330
39A
100
AcDbEntity
  8
DATA
  6
STYLE_01
 62
     7
100
AcDbLine
 10
-32.00000000000006
 20
-38.24236836690653
 30
0.0
 11
-30.53832019571689
 21
-36.74236836690653
 31
0.0
  0
ARC
  5
24C
330
39A
100
AcDbEntity
  8
DATA
  6
STYLE_01
 62
     7
100
AcDbCircle
 10
-90.53969346094277
 20
38.4660344750352
 30
0.0
 40
1.99999999997554
100
AcDbArc
 50
103.3906888359371
 51
178.5365946465449
  0
ARC
  5
24D
330
39A
100
AcDbEntity
  8
DATA
  6
STYLE_01
 62
     7
100
AcDbCircle
 10
-34.46030653909673
 20
38.46603447500326
 30
0.0
 40
2.000000000015749
100
AcDbArc
 50
1.463405353454956
 51
76.6093111629461
  0
ARC
  5
24E
330
39A
100
AcDbEntity
  8
DATA
  6
STYLE_01
 62
     7
100
AcDbCircle
 10
-88.92727671970795
 20
97.38142811882989
 30
0.0
 40
1.999999999999996
100
AcDbArc
 50
101.7467055531739
 51
161.9730515435433
  0
ARC
  5
24F
330
39A
100
AcDbEntity
  8
DATA
  6
STYLE_01
 62
     7
100
AcDbCircle
 10
-20.46167980428316
 20
75.1
 30
0.0
 40
74.00000000000004
100
AcDbArc
 50
161.9730515435429
 51
198.0269484564571
  0
ARC
  5
250
330
39A
100
AcDbEntity
  8
DATA
  6
STYLE_01
 62
     7
100
AcDbCircle
 10
-36.07272328029217
 20
97.38142811882986
 30
0.0
 40
1.999999999999997
100
AcDbArc
 50
18.02694845645667
 51
78.25329444682625
  0
ARC
  5
251
330
39A
100
AcDbEntity
  8
DATA
  6
STYLE_01
 62
     7
100
AcDbCircle
 10
-62.50000000000006
 20
-29.70925624620929
 30
0.0
 40
131.8092562462093
100
AcDbArc
 50
78.25329444682711
 51
101.7467055531729
  0
ARC
  5
252
330
39A
100
AcDbEntity
  8
DATA
  6
STYLE_01
 62
     7
100
AcDbCircle
 10
-88.92727671970795
 20
52.81857188117013
 30
0.0
 40
2.000000000000006
100
AcDbArc
 50
198.0269484564574
 51
258.2532944468263
  0
ARC
  5
253
330
39A
100
AcDbEntity
  8
DATA
  6
STYLE_01
 62
     7
100
AcDbCircle
 10
-62.50000000000006
 20
179.9092562462092
 30
0.0
 40
131.8092562462092
100
AcDbArc
 50
258.2532944468271
 51
281.7467055531728
  0
ARC
  5
254
330
39A
100
AcDbEntity
  8
DATA
  6
STYLE_01
 62
     7
100
AcDbCircle
 10
-36.07272328029217
 20
52.81857188117013
 30
0.0
 40
2.000000000000012
100
AcDbArc
 50
281.746705553172
 51
341.9730515435427
  0
ARC
  5
255
330
39A
100
AcDbEntity
  8
DATA
  6
STYLE_01
 62
     7
100
AcDbCircle
 10
-104.5383201957169
 20
75.1
 30
0.0
 40
73.99999999999999
100
AcDbArc
 50
341.9730515435429
 51
18.02694845645721
  0
LINE
  5
256
330
39A
100
AcDbEntity
  8
DATA
  6
Continuous
 62
     7
100
AcDbLine
 10
-32.43497491991869
 20
37.5
 30
0.0
 11
-18.75
 21
56.25
 31
0.0
  0
LINE
  5
257
330
39A
100
AcDbEntity
  8
DATA
  6
Continuous
 62
     7
100
AcDbLine
 10
-32.43497491991869
 20
37.5
 30
0.0
 11
-29.97230977167452
 21
43.59531013278564
 31
0.0
  0
LINE
  5
258
330
39A
100
AcDbEntity
  8
DATA
  6
Continuous
 62
     7
100
AcDbLine
 10
-32.43497491991869
 20
37.5
 30
0.0
 11
-27.25458927413185
 21
41.54736084481498
 31
0.0
  0
LINE
  5
259
330
39A
100
AcDbEntity
  8
DATA
  6
Continuous
 62
     7
100
AcDbLine
 10
-18.75
 20
56.25
 30
0.0
 11
-31.25
 21
64.86173242730608
 31
0.0
  0
LINE
  5
25A
330
39A
100
AcDbEntity
  8
DATA
  6
Continuous
 62
     7
100
AcDbLine
 10
-31.25
 20
64.86173242730608
 30
0.0
 11
-25.03415734247191
 21
62.72144616045534
 31
0.0
  0
LINE
  5
25B
330
39A
100
AcDbEntity
  8
DATA
  6
Continuous
 62
     7
100
AcDbLine
 10
-31.25
 20
64.86173242730608
 30
0.0
 11
-26.93706548607906
 21
59.90026882007834
 31
0.0
  0
TEXT
  5
25C
330
39A
100
AcDbEntity
  8
DATA
 62
     7
100
AcDbText
 10
-18.75
 20
59.67742397614275
 30
0.0
 40
5.429470486111112
  1
ウインドスクリーン
 41
0.7
 11
-18.75
 21
65.10689446225386
 31
0.0
100
AcDbText
 73
     3
  0
LINE
  5
25D
330
39A
100
AcDbEntity
  8
DATA
  6
Continuous
 62
     7
100
AcDbLine
 10
-18.75
 20
56.25
 30
0.0
 11
43.75
 21
56.25
 31
0.0
  0
TEXT
  5
25E
330
39A
100
AcDbEntity
  8
DATA
 62
     7
100
AcDbText
 10
55.58580684100356
 20
-74.2675563766845
 30
0.0
 40
5.429470486111112
  1
C414
 41
0.7
 72
     1
 11
61.92018907479986
 21
-71.55282113362894
 31
0.0
100
AcDbText
 73
     2
  0
CIRCLE
  5
25F
330
39A
100
AcDbEntity
  8
DATA
  6
Continuous
 62
     7
100
AcDbCircle
 10
62.5
 20
3.054326695225107
 30
0.0
 40
16.0
  0
CIRCLE
  5
260
330
39A
100
AcDbEntity
  8
DATA
  6
Continuous
 62
     7
100
AcDbCircle
 10
62.5
 20
3.054326695225107
 30
0.0
 40
14.5
  0
CIRCLE
  5
261
330
39A
100
AcDbEntity
  8
DATA
  6
Continuous
 62
     7
100
AcDbCircle
 10
-62.5
 20
-108.0
 30
0.0
 40
2.0
  0
LINE
  5
262
330
39A
100
AcDbEntity
  8
DATA
  6
Continuous
 62
     7
100
AcDbLine
 10
-63.57480230740356
 20
-108.0
 30
0.0
 11
-61.4251976925965
 21
-108.0
 31
0.0
  0
LINE
  5
263
330
39A
100
AcDbEntity
  8
DATA
  6
Continuous
 62
     7
100
AcDbLine
 10
-62.5
 20
-109.0748023074036
 30
0.0
 11
-62.5
 21
-106.9251976925964
 31
0.0
  0
LINE
  5
264
330
39A
100
AcDbEntity
  8
DATA
  6
Continuous
 62
     7
100
AcDbLine
 10
-73.88929749280817
 20
-35.77386383838527
 30
0.0
 11
-51.16060528803661
 21
-35.77386383838527
 31
0.0
  0
LINE
  5
265
330
39A
100
AcDbEntity
  8
DATA
  6
Continuous
 62
     7
100
AcDbLine
 10
-73.78649201948843
 20
-36.77396566349685
 30
0.0
 11
-51.26341076135634
 21
-36.77396566349685
 31
0.0
  0
CIRCLE
  5
266
330
39A
100
AcDbEntity
  8
DATA
  6
Continuous
 62
     7
100
AcDbCircle
 10
-72.48976418014894
 20
-40.77985362905828
 30
0.0
 40
1.5
  0
LINE
  5
267
330
39A
100
AcDbEntity
  8
DATA
  6
Continuous
 62
     7
100
AcDbLine
 10
-65.79986447134996
 20
-40.836346458675
 30
0.0
 11
-65.79986447134996
 21
-41.25667560893469
 31
0.0
  0
LINE
  5
268
330
39A
100
AcDbEntity
  8
DATA
  6
Continuous
 62
     7
100
AcDbLine
 10
-69.19986447134994
 20
-41.25667560893469
 30
0.0
 11
-69.19986447134994
 21
-40.836346458675
 31
0.0
  0
ARC
  5
269
330
39A
100
AcDbEntity
  8
DATA
  6
Continuous
 62
     7
100
AcDbCircle
 10
-67.49986447134995
 20
-40.96555777420532
 30
0.0
 40
1.704903388483066
100
AcDbArc
 50
4.346503536099888
 51
175.6534964639001
  0
ARC
  5
26A
330
39A
100
AcDbEntity
  8
DATA
  6
Continuous
 62
     7
100
AcDbCircle
 10
-67.49986447134995
 20
-46.60101787082367
 30
0.0
 40
5.22467141214867
100
AcDbArc
 50
75.32068426707157
 51
104.6793157329285
  0
LINE
  5
26B
330
39A
100
AcDbEntity
  8
DATA
  6
Continuous
 62
     7
100
AcDbLine
 10
-60.80230155872454
 20
-40.88313733625351
 30
0.0
 11
-60.80230155872454
 21
-41.01925912117872
 31
0.0
  0
LINE
  5
26C
330
39A
100
AcDbEntity
  8
DATA
  6
Continuous
 62
     7
100
AcDbLine
 10
-64.20230155872451
 20
-41.01925912117872
 30
0.0
 11
-64.20230155872451
 21
-40.88313733625351
 31
0.0
  0
ARC
  5
26D
330
39A
100
AcDbEntity
  8
DATA
  6
Continuous
 62
     7
100
AcDbCircle
 10
-62.50230155872453
 20
-41.01234865178384
 30
0.0
 40
1.704903388483066
100
AcDbArc
 50
4.346503536099888
 51
175.6534964639001
  0
ARC
  5
26E
330
39A
100
AcDbEntity
  8
DATA
  6
Continuous
 62
     7
100
AcDbCircle
 10
-68.89986447134993
 20
-41.25667560893469
 30
0.0
 40
0.3000000000000114
100
AcDbArc
 50
180.0
 51
284.6793157329229
  0
ARC
  5
26F
330
39A
100
AcDbEntity
  8
DATA
  6
Continuous
 62
     7
100
AcDbCircle
 10
-66.09986447134997
 20
-41.25667560893469
 30
0.0
 40
0.2999999999999823
100
AcDbArc
 50
255.3206842670764
 51
0.0
  0
ARC
  5
270
330
39A
100
AcDbEntity
  8
DATA
  6
Continuous
 62
     7
100
AcDbCircle
 10
-62.50230155872453
 20
-43.04827698945272
 30
0.0
 40
2.165139653199201
100
AcDbArc
 50
55.39475161232765
 51
124.6052483876723
  0
ARC
  5
271
330
39A
100
AcDbEntity
  8
DATA
  6
Continuous
 62
     7
100
AcDbCircle
 10
-63.9023015587245
 20
-41.01925912117872
 30
0.0
 40
0.3000000000000114
100
AcDbArc
 50
180.0
 51
304.605248387675
  0
ARC
  5
272
330
39A
100
AcDbEntity
  8
DATA
  6
Continuous
 62
     7
100
AcDbCircle
 10
-61.10230155872455
 20
-41.01925912117872
 30
0.0
 40
0.3000000000000021
100
AcDbArc
 50
235.3947516123251
 51
0.0
  0
ARC
  5
273
330
39A
100
AcDbEntity
  8
DATA
  6
Continuous
 62
     7
100
AcDbCircle
 10
-57.49868182835155
 20
-40.45172688989679
 30
0.0
 40
1.150000000000073
100
AcDbArc
 50
292.3099426292216
 51
247.6900573707845
  0
ARC
  5
274
330
39A
100
AcDbEntity
  8
DATA
  6
Continuous
 62
     7
100
AcDbCircle
 10
-57.49868182835149
 20
-41.74919887729504
 30
0.0
 40
0.49510868449449
100
AcDbArc
 50
151.853486829684
 51
28.14651317032489
  0
CIRCLE
  5
275
330
39A
100
AcDbEntity
  8
DATA
  6
Continuous
 62
     7
100
AcDbCircle
 10
-52.51980754931697
 20
-40.27171062645883
 30
0.0
 40
1.0
  0
CIRCLE
  5
276
330
39A
100
AcDbEntity
  8
DATA
  6
Continuous
 62
     7
100
AcDbCircle
 10
-52.51980754931697
 20
-42.27171062645883
 30
0.0
 40
1.0
  0
LINE
  5
277
330
39A
100
AcDbEntity
  8
DATA
  6
Continuous
 62
     7
100
AcDbLine
 10
-5.013804038400963
 20
35.0
 30
0.0
 11
5.013804038400906
 21
35.0
 31
0.0
  0
LINE
  5
278
330
39A
100
AcDbEntity
  8
DATA
  6
Continuous
 62
     7
100
AcDbLine
 10
-14.77577908592366
 20
-83.0
 30
0.0
 11
14.7757790859236
 21
-83.0
 31
0.0
  0
LINE
  5
279
330
39A
100
AcDbEntity
  8
DATA
  6
Continuous
 62
     7
100
AcDbLine
 10
-16.57411538894928
 20
-81.27737274210021
 30
0.0
 11
-19.0
 21
-24.89373886036999
 31
0.0
  0
LINE
  5
27A
330
39A
100
AcDbEntity
  8
DATA
  6
Continuous
 62
     7
100
AcDbLine
 10
16.57411538894922
 20
-81.27737274210021
 30
0.0
 11
19.0
 21
-24.89373886036999
 31
0.0
  0
LINE
  5
27B
330
39A
100
AcDbEntity
  8
DATA
  6
Continuous
 62
     7
100
AcDbLine
 10
11.0
 20
-123.0
 30
0.0
 11
11.0
 21
-125.0
 31
0.0
  0
LINE
  5
27C
330
39A
100
AcDbEntity
  8
DATA
  6
Continuous
 62
     7
100
AcDbLine
 10
5.5
 20
-123.0
 30
0.0
 11
5.5
 21
-125.0
 31
0.0
  0
LINE
  5
27D
330
39A
100
AcDbEntity
  8
DATA
  6
Continuous
 62
     7
100
AcDbLine
 10
-72.0
 20
-125.0
 30
0.0
 11
-72.0
 21
-123.0
 31
0.0
  0
LINE
  5
27E
330
39A
100
AcDbEntity
  8
DATA
  6
Continuous
 62
     7
100
AcDbLine
 10
-53.0
 20
-125.0
 30
0.0
 11
-53.0
 21
-123.0
 31
0.0
  0
LINE
  5
27F
330
39A
100
AcDbEntity
  8
DATA
  6
Continuous
 62
     7
100
AcDbLine
 10
-12.11571037789281
 20
33.80000000000001
 30
0.0
 11
-5.533600000000035
 21
33.80000000000001
 31
0.0
  0
LINE
  5
280
330
39A
100
AcDbEntity
  8
DATA
  6
Continuous
 62
     7
100
AcDbLine
 10
5.533599999999979
 20
33.80000000000001
 30
0.0
 11
12.11571037789275
 21
33.80000000000001
 31
0.0
  0
LINE
  5
281
330
39A
100
AcDbEntity
  8
DATA
  6
Continuous
 62
     7
100
AcDbLine
 10
-17.49369351661159
 20
-24.78798140633296
 30
0.0
 11
-14.11216390877519
 21
31.91905166536949
 31
0.0
  0
LINE
  5
282
330
39A
100
AcDbEntity
  8
DATA
  6
Continuous
 62
     7
100
AcDbLine
 10
17.49369351661147
 20
-24.78798140633251
 30
0.0
 11
14.11216390877513
 21
31.91905166536949
 31
0.0
  0
LINE
  5
283
330
39A
100
AcDbEntity
  8
DATA
  6
Continuous
 62
     7
100
AcDbLine
 10
-5.193216153603828
 20
-27.5
 30
0.0
 11
5.193216153603771
 21
-27.5
 31
0.0
  0
LINE
  5
284
330
39A
100
AcDbEntity
  8
DATA
  6
Continuous
 62
     7
100
AcDbLine
 10
-5.513608153573728
 20
34.51399451522484
 30
0.0
 11
-7.19243261429483
 21
-25.44402193910065
 31
0.0
  0
LINE
  5
285
330
39A
100
AcDbEntity
  8
DATA
  6
Continuous
 62
     7
100
AcDbLine
 10
5.513608153573671
 20
34.51399451522484
 30
0.0
 11
7.192432614294773
 21
-25.44402193910065
 31
0.0
  0
ARC
  5
286
330
39A
100
AcDbEntity
  8
DATA
  6
Continuous
 62
     7
100
AcDbCircle
 10
-5.193216153603828
 20
-25.5
 30
0.0
 40
1.999999999999977
100
AcDbArc
 50
178.396137228845
 51
270.0
  0
ARC
  5
287
330
39A
100
AcDbEntity
  8
DATA
  6
Continuous
 62
     7
100
AcDbCircle
 10
5.193216153603771
 20
-25.5
 30
0.0
 40
2.0
100
AcDbArc
 50
270.0
 51
1.603862771154979
  0
ARC
  5
288
330
39A
100
AcDbEntity
  8
DATA
  6
Continuous
 62
     7
100
AcDbCircle
 10
-0.0000000000000568
 20
-284.7312274229445
 30
0.0
 40
260.5312274229445
100
AcDbArc
 50
85.81782534986452
 51
88.42510309892829
  0
ARC
  5
289
330
39A
100
AcDbEntity
  8
DATA
  6
Continuous
 62
     7
100
AcDbCircle
 10
-0.0000000000000568
 20
-284.7312274229445
 30
0.0
 40
260.5312274229445
100
AcDbArc
 50
91.57489690107181
 51
94.18217465013544
  0
LINE
  5
28A
330
39A
100
AcDbEntity
  8
DATA
  6
Continuous
 62
     7
100
AcDbLine
 10
-18.76911863565209
 20
-30.25999999999999
 30
0.0
 11
-18.76911863565209
 21
-35.56973163970412
 31
0.0
  0
LINE
  5
28B
330
39A
100
AcDbEntity
  8
DATA
  6
Continuous
 62
     7
100
AcDbLine
 10
18.76911863565203
 20
-30.25999999999999
 30
0.0
 11
18.76911863565203
 21
-35.53251991041483
 31
0.0
  0
LINE
  5
28C
330
39A
100
AcDbEntity
  8
DATA
  6
Continuous
 62
     7
100
AcDbLine
 10
18.76911863565203
 20
-35.53251991041483
 30
0.0
 11
18.54227045238378
 21
-35.53251991041483
 31
0.0
  0
LINE
  5
28D
330
39A
100
AcDbEntity
  8
DATA
  6
Continuous
 62
     7
100
AcDbLine
 10
-18.76911863565209
 20
-35.56973163970412
 30
0.0
 11
-18.54066943174684
 21
-35.56973163970412
 31
0.0
  0
LINE
  5
28E
330
39A
100
AcDbEntity
  8
DATA
  6
Continuous
 62
     7
100
AcDbLine
 10
-37.5
 20
69.35
 30
0.0
 11
-87.5
 21
69.35
 31
0.0
  0
LINE
  5
28F
330
39A
100
AcDbEntity
  8
DATA
  6
Continuous
 62
     7
100
AcDbLine
 10
-87.5
 20
80.65
 30
0.0
 11
-37.5
 21
80.65
 31
0.0
  0
LINE
  5
290
330
39A
100
AcDbEntity
  8
DATA
  6
Continuous
 62
     7
100
AcDbLine
 10
-42.0
 20
85.22016060183319
 30
0.0
 11
-42.0
 21
80.65
 31
0.0
  0
LINE
  5
291
330
39A
100
AcDbEntity
  8
DATA
  6
Continuous
 62
     7
100
AcDbLine
 10
-83.0
 20
80.65
 30
0.0
 11
-83.0
 21
85.22016060183319
 31
0.0
  0
LINE
  5
292
330
39A
100
AcDbEntity
  8
DATA
  6
Continuous
 62
     7
100
AcDbLine
 10
-83.0
 20
64.77983939816681
 30
0.0
 11
-83.0
 21
69.35
 31
0.0
  0
LINE
  5
293
330
39A
100
AcDbEntity
  8
DATA
  6
Continuous
 62
     7
100
AcDbLine
 10
-42.0
 20
69.35
 30
0.0
 11
-42.0
 21
64.77983939816676
 31
0.0
  0
LINE
  5
294
330
39A
100
AcDbEntity
  8
DATA
  6
Continuous
 62
     7
100
AcDbLine
 10
-87.5
 20
58.66598639530343
 30
0.0
 11
-87.5
 21
91.33401360469657
 31
0.0
  0
LINE
  5
295
330
39A
100
AcDbEntity
  8
DATA
  6
Continuous
 62
     7
100
AcDbLine
 10
-37.5
 20
58.66598639530343
 30
0.0
 11
-37.5
 21
91.33401360469657
 31
0.0
  0
ARC
  5
296
330
39A
100
AcDbEntity
  8
DATA
  6
Continuous
 62
     7
100
AcDbCircle
 10
-12.11571037789281
 20
31.80000000000001
 30
0.0
 40
2.0
100
AcDbArc
 50
90.0
 51
176.5874036653557
  0
ARC
  5
297
330
39A
100
AcDbEntity
  8
DATA
  6
Continuous
 62
     7
100
AcDbCircle
 10
12.11571037789275
 20
31.80000000000001
 30
0.0
 40
1.999999999999989
100
AcDbArc
 50
3.412596334644363
 51
90.0
  0
ARC
  5
298
330
39A
100
AcDbEntity
  8
DATA
  6
Continuous
 62
     7
100
AcDbCircle
 10
-14.7757790859236
 20
-81.2
 30
0.0
 40
1.800000000000047
100
AcDbArc
 50
182.463609938537
 51
269.9999999999982
  0
ARC
  5
299
330
39A
100
AcDbEntity
  8
DATA
  6
Continuous
 62
     7
100
AcDbCircle
 10
14.7757790859236
 20
-81.20000000000002
 30
0.0
 40
1.799999999999983
100
AcDbArc
 50
270.0
 51
357.5363900614635
  0
ARC
  5
29A
330
39A
100
AcDbEntity
  8
DATA
  6
Continuous
 62
     7
100
AcDbCircle
 10
-62.5
 20
-219.0
 30
0.0
 40
313.0
100
AcDbArc
 50
85.72462579550398
 51
94.27537420449603
  0
ARC
  5
29B
330
39A
100
AcDbEntity
  8
DATA
  6
Continuous
 62
     7
100
AcDbCircle
 10
-62.5
 20
369.0
 30
0.0
 40
313.0
100
AcDbArc
 50
265.7246257955039
 51
274.2753742044961
  0
ARC
  5
29C
330
39A
100
AcDbEntity
  8
DATA
  6
Continuous
 62
     7
100
AcDbCircle
 10
-85.70000000000005
 20
91.33401360469657
 30
0.0
 40
1.800000000000019
100
AcDbArc
 50
94.27537420449642
 51
180.0
  0
ARC
  5
29D
330
39A
100
AcDbEntity
  8
DATA
  6
Continuous
 62
     7
100
AcDbCircle
 10
-39.30000000000001
 20
91.33401360469657
 30
0.0
 40
1.800000000000011
100
AcDbArc
 50
0.0
 51
85.72462579550539
  0
ARC
  5
29E
330
39A
100
AcDbEntity
  8
DATA
  6
Continuous
 62
     7
100
AcDbCircle
 10
-85.70000000000005
 20
58.66598639530343
 30
0.0
 40
1.799999999999955
100
AcDbArc
 50
180.0
 51
265.7246257955036
  0
ARC
  5
29F
330
39A
100
AcDbEntity
  8
DATA
  6
Continuous
 62
     7
100
AcDbCircle
 10
-39.30000000000007
 20
58.66598639530343
 30
0.0
 40
1.800000000000019
100
AcDbArc
 50
274.2753742044964
 51
0.0
  0
ARC
  5
2A0
330
39A
100
AcDbEntity
  8
DATA
  6
Continuous
 62
     7
100
AcDbCircle
 10
-62.5
 20
-220.2
 30
0.0
 40
313.0
100
AcDbArc
 50
85.94614573478682
 51
94.0538542652132
  0
ARC
  5
2A1
330
39A
100
AcDbEntity
  8
DATA
  6
Continuous
 62
     7
100
AcDbCircle
 10
-62.5
 20
370.2
 30
0.0
 40
313.0000000000001
100
AcDbArc
 50
265.9461457347868
 51
274.0538542652132
  0
LINE
  5
2A2
330
39A
100
AcDbEntity
  8
DATA
  6
Continuous
 62
     7
100
AcDbLine
 10
-86.30000000000007
 20
59.77860898449671
 30
0.0
 11
-86.30000000000007
 21
69.35
 31
0.0
  0
LINE
  5
2A3
330
39A
100
AcDbEntity
  8
DATA
  6
Continuous
 62
     7
100
AcDbLine
 10
-86.30000000000007
 20
80.65
 30
0.0
 11
-86.30000000000007
 21
90.22139101550329
 31
0.0
  0
LINE
  5
2A4
330
39A
100
AcDbEntity
  8
DATA
  6
Continuous
 62
     7
100
AcDbLine
 10
-38.70000000000005
 20
59.77860898449671
 30
0.0
 11
-38.70000000000005
 21
69.35
 31
0.0
  0
LINE
  5
2A5
330
39A
100
AcDbEntity
  8
DATA
  6
Continuous
 62
     7
100
AcDbLine
 10
-38.70000000000005
 20
80.65
 30
0.0
 11
-38.70000000000005
 21
90.22139101550329
 31
0.0
  0
ARC
  5
2A6
330
39A
100
AcDbEntity
  8
DATA
  6
Continuous
 62
     7
100
AcDbCircle
 10
-84.5
 20
90.22139101550329
 30
0.0
 40
1.800000000000048
100
AcDbArc
 50
94.05385426521349
 51
180.0
  0
ARC
  5
2A7
330
39A
100
AcDbEntity
  8
DATA
  6
Continuous
 62
     7
100
AcDbCircle
 10
-84.5
 20
59.77860898449671
 30
0.0
 40
1.800000000000068
100
AcDbArc
 50
180.0
 51
265.9461457347865
  0
ARC
  5
2A8
330
39A
100
AcDbEntity
  8
DATA
  6
Continuous
 62
     7
100
AcDbCircle
 10
-40.50000000000011
 20
90.22139101550329
 30
0.0
 40
1.800000000000068
100
AcDbArc
 50
0.0
 51
85.9461457347847
  0
ARC
  5
2A9
330
39A
100
AcDbEntity
  8
DATA
  6
Continuous
 62
     7
100
AcDbCircle
 10
-40.50000000000006
 20
59.77860898449671
 30
0.0
 40
1.800000000000048
100
AcDbArc
 50
274.0538542652135
 51
0.0
  0
ARC
  5
2AA
330
39A
100
AcDbEntity
  8
DATA
  6
Continuous
 62
     7
100
AcDbCircle
 10
-62.5
 20
-122.125
 30
0.0
 40
210.625
100
AcDbArc
 50
85.03849090474218
 51
94.96150909525785
  0
ARC
  5
2AB
330
39A
100
AcDbEntity
  8
DATA
  6
Continuous
 62
     7
100
AcDbCircle
 10
-62.5
 20
272.125
 30
0.0
 40
210.625
100
AcDbArc
 50
265.0384909047422
 51
274.9615090952578
  0
ARC
  5
2AC
330
39A
100
AcDbEntity
  8
DATA
  6
Continuous
 62
     7
100
AcDbCircle
 10
-80.5
 20
85.22016060183319
 30
0.0
 40
2.499999999999996
100
AcDbArc
 50
94.96150909525868
 51
180.0
  0
ARC
  5
2AD
330
39A
100
AcDbEntity
  8
DATA
  6
Continuous
 62
     7
100
AcDbCircle
 10
-44.5
 20
85.22016060183319
 30
0.0
 40
2.5
100
AcDbArc
 50
0.0
 51
85.03849090474262
  0
ARC
  5
2AE
330
39A
100
AcDbEntity
  8
DATA
  6
Continuous
 62
     7
100
AcDbCircle
 10
-80.5
 20
64.77983939816681
 30
0.0
 40
2.5
100
AcDbArc
 50
180.0
 51
265.0384909047413
  0
ARC
  5
2AF
330
39A
100
AcDbEntity
  8
DATA
  6
Continuous
 62
     7
100
AcDbCircle
 10
-44.5
 20
64.77983939816676
 30
0.0
 40
2.499999999999963
100
AcDbArc
 50
274.9615090952574
 51
0.0
  0
ARC
  5
2B0
330
39A
100
AcDbEntity
  8
DATA
  6
Continuous
 62
     7
100
AcDbCircle
 10
-62.50814890111623
 20
-175.0
 30
0.0
 40
11.49999999999996
100
AcDbArc
 50
167.4313575144671
 51
12.56864248553288
  0
CIRCLE
  5
2B1
330
39A
100
AcDbEntity
  8
DATA
  6
Continuous
 62
     7
100
AcDbCircle
 10
-62.50814890111617
 20
-175.0
 30
0.0
 40
8.0
  0
LWPOLYLINE
  5
2B2
330
39A
100
AcDbEntity
  8
DATA
  6
Continuous
 62
     7
100
AcDbPolyline
 90
        8
 70
   129
 43
0.0
 10
-83.00814890111617
 20
-162.0
 42
-0.4142135623730909
 10
-81.00814890111617
 20
-160.0
 10
-44.00814890111617
 20
-160.0
 42
-0.414213562373095
 10
-42.00814890111617
 20
-162.0
 10
-42.00814890111617
 20
-188.0
 42
-0.4142135623730992
 10
-44.00814890111617
 20
-190.0
 10
-81.00814890111617
 20
-190.0
 42
-0.414213562373095
 10
-83.00814890111617
 20
-188.0
  0
CIRCLE
  5
2BC
330
39A
100
AcDbEntity
  8
DATA
  6
Continuous
 62
     7
100
AcDbCircle
 10
-58.50814890111617
 20
-175.004364563079
 30
0.0
 40
1.150000000000034
  0
CIRCLE
  5
2BD
330
39A
100
AcDbEntity
  8
DATA
  6
Continuous
 62
     7
100
AcDbCircle
 10
-66.50814890111617
 20
-175.004364563079
 30
0.0
 40
1.150000000000034
  0
CIRCLE
  5
2BE
330
39A
100
AcDbEntity
  8
DATA
  6
Continuous
 62
     7
100
AcDbCircle
 10
-62.50814890111617
 20
-171.004364563079
 30
0.0
 40
1.150000000000034
  0
CIRCLE
  5
2BF
330
39A
100
AcDbEntity
  8
DATA
  6
Continuous
 62
     7
100
AcDbCircle
 10
-47.50814890111617
 20
-165.0
 30
0.0
 40
3.0
  0
LINE
  5
2C0
330
39A
100
AcDbEntity
  8
DATA
  6
Continuous
 62
     7
100
AcDbLine
 10
-48.27182422479764
 20
-165.0
 30
0.0
 11
-46.74447357743641
 21
-165.0
 31
0.0
  0
LINE
  5
2C1
330
39A
100
AcDbEntity
  8
DATA
  6
Continuous
 62
     7
100
AcDbLine
 10
-47.50814890111617
 20
-165.7636753236814
 30
0.0
 11
-47.50814890111617
 21
-164.2363246763179
 31
0.0
  0
CIRCLE
  5
2C2
330
39A
100
AcDbEntity
  8
DATA
  6
Continuous
 62
     7
100
AcDbCircle
 10
-77.50814890111617
 20
-185.0
 30
0.0
 40
3.0
  0
LINE
  5
2C3
330
39A
100
AcDbEntity
  8
DATA
  6
Continuous
 62
     7
100
AcDbLine
 10
-78.27182422479764
 20
-185.0
 30
0.0
 11
-76.74447357743641
 21
-185.0
 31
0.0
  0
LINE
  5
2C4
330
39A
100
AcDbEntity
  8
DATA
  6
Continuous
 62
     7
100
AcDbLine
 10
-77.50814890111617
 20
-185.7636753236815
 30
0.0
 11
-77.50814890111617
 21
-184.2363246763179
 31
0.0
  0
ARC
  5
2C5
330
39A
100
AcDbEntity
  8
DATA
  6
Continuous
 62
     7
100
AcDbCircle
 10
-62.50814890111617
 20
-444.5
 30
0.0
 40
288.5
100
AcDbArc
 50
85.64242488931215
 51
94.34074887644097
  0
ARC
  5
2C6
330
39A
100
AcDbEntity
  8
DATA
  6
Continuous
 62
     7
100
AcDbCircle
 10
-62.50814890111617
 20
94.5
 30
0.0
 40
288.4999999999999
100
AcDbArc
 50
265.6424248893122
 51
274.340748876441
  0
ARC
  5
2C7
330
39A
100
AcDbEntity
  8
DATA
  6
Continuous
 62
     7
100
AcDbCircle
 10
-84.23863924294797
 20
-190.6732557402668
 30
0.0
 40
2.500000000000023
100
AcDbArc
 50
185.621586393858
 51
265.6424248893113
  0
ARC
  5
2C8
330
39A
100
AcDbEntity
  8
DATA
  6
Continuous
 62
     7
100
AcDbCircle
 10
-40.77765855928443
 20
-159.3267442597333
 30
0.0
 40
2.500000000000088
100
AcDbArc
 50
5.62158639385981
 51
85.6424248893103
  0
ARC
  5
2C9
330
39A
100
AcDbEntity
  8
DATA
  6
Continuous
 62
     7
100
AcDbCircle
 10
-84.14732177706084
 20
-159.4200880503068
 30
0.0
 40
2.60000000000011
100
AcDbArc
 50
94.34074887644213
 51
174.4084946432278
  0
ARC
  5
2CA
330
39A
100
AcDbEntity
  8
DATA
  6
Continuous
 62
     7
100
AcDbCircle
 10
-40.86897602517156
 20
-190.5799119496934
 30
0.0
 40
2.600000000000021
100
AcDbArc
 50
274.340748876441
 51
354.4084946432289
  0
LINE
  5
2CB
330
39A
100
AcDbEntity
  8
DATA
  6
Continuous
 62
     7
100
AcDbLine
 10
-38.28968214769323
 20
-159.0818496387916
 30
0.0
 11
-38.28134719792043
 21
-190.8332438513145
 31
0.0
  0
LINE
  5
2CC
330
39A
100
AcDbEntity
  8
DATA
  6
Continuous
 62
     7
100
AcDbLine
 10
-86.73495060431203
 20
-159.1667561486856
 30
0.0
 11
-86.72661565453912
 21
-190.9181503612084
 31
0.0
  0
LINE
  5
2CD
330
39A
100
AcDbEntity
  8
DATA
  6
Continuous
 62
     7
100
AcDbLine
 10
-74.00814890111617
 20
-189.9007087915464
 30
0.0
 11
-74.00814890111617
 21
-190.0
 31
0.0
  0
LINE
  5
2CE
330
39A
100
AcDbEntity
  8
DATA
  6
Continuous
 62
     7
100
AcDbLine
 10
-51.00814890111617
 20
-189.9007087915464
 30
0.0
 11
-51.00814890111617
 21
-190.0
 31
0.0
  0
LINE
  5
2CF
330
39A
100
AcDbEntity
  8
DATA
  6
Continuous
 62
     7
100
AcDbLine
 10
-74.00814890111617
 20
-189.9007087915464
 30
0.0
 11
-51.00814890111617
 21
-189.9007087915464
 31
0.0
  0
LINE
  5
2D0
330
39A
100
AcDbEntity
  8
DATA
  6
Continuous
 62
     7
100
AcDbLine
 10
-78.45819429233968
 20
-160.0
 30
0.0
 11
-78.45819429233968
 21
-160.1
 31
0.0
  0
LINE
  5
2D1
330
39A
100
AcDbEntity
  8
DATA
  6
Continuous
 62
     7
100
AcDbLine
 10
-67.14050526947774
 20
-160.0
 30
0.0
 11
-67.14050526947774
 21
-160.1
 31
0.0
  0
LINE
  5
2D2
330
39A
100
AcDbEntity
  8
DATA
  6
Continuous
 62
     7
100
AcDbLine
 10
-57.87579253275472
 20
-160.0
 30
0.0
 11
-57.87579253275472
 21
-160.1
 31
0.0
  0
LINE
  5
2D3
330
39A
100
AcDbEntity
  8
DATA
  6
Continuous
 62
     7
100
AcDbLine
 10
-46.55810350989266
 20
-160.0
 30
0.0
 11
-46.55810350989266
 21
-160.1
 31
0.0
  0
LINE
  5
2D4
330
39A
100
AcDbEntity
  8
DATA
  6
Continuous
 62
     7
100
AcDbLine
 10
-78.45819429233968
 20
-160.1
 30
0.0
 11
-67.14050526947774
 21
-160.1
 31
0.0
  0
LINE
  5
2D5
330
39A
100
AcDbEntity
  8
DATA
  6
Continuous
 62
     7
100
AcDbLine
 10
-57.87579253275472
 20
-160.1
 30
0.0
 11
-46.55810350989266
 21
-160.1
 31
0.0
  0
CIRCLE
  5
2D6
330
39A
100
AcDbEntity
  8
DATA
  6
Continuous
 62
     7
100
AcDbCircle
 10
-62.5
 20
3.054326695225107
 30
0.0
 40
16.0
  0
CIRCLE
  5
2D7
330
39A
100
AcDbEntity
  8
DATA
  6
Continuous
 62
     7
100
AcDbCircle
 10
-62.5
 20
3.054326695225107
 30
0.0
 40
14.5
  0
LINE
  5
2D8
330
39A
100
AcDbEntity
  8
DATA
  6
Continuous
 62
     7
100
AcDbLine
 10
-51.28373485743346
 20
-172.4974953794294
 30
0.0
 11
-51.69392351859246
 21
-172.4974953794294
 31
0.0
  0
LINE
  5
2D9
330
39A
100
AcDbEntity
  8
DATA
  6
Continuous
 62
     7
100
AcDbLine
 10
-73.32237428363995
 20
-172.4974953794294
 30
0.0
 11
-73.732562944799
 21
-172.4974953794294
 31
0.0
  0
ARC
  5
2DA
330
39A
100
AcDbEntity
  8
DATA
  6
Continuous
 62
     7
100
AcDbCircle
 10
-62.50814890111617
 20
-175.0
 30
0.0
 40
11.09999999999995
100
AcDbArc
 50
13.02939215578788
 51
166.9706078442121
  0
ARC
  5
2DB
330
39A
100
AcDbEntity
  8
DATA
  6
Continuous
 62
     7
100
AcDbCircle
 10
62.5
 20
287.1062611396301
 30
0.0
 40
313.0000000000001
100
AcDbArc
 50
265.4195902848981
 51
274.5804097148289
  0
ARC
  5
2DC
330
39A
100
AcDbEntity
  8
DATA
  6
Continuous
 62
     7
100
AcDbCircle
 10
-5.013804038400963
 20
34.5
 30
0.0
 40
0.5
100
AcDbArc
 50
90.0
 51
178.3961372288451
  0
ARC
  5
2DD
330
39A
100
AcDbEntity
  8
DATA
  6
Continuous
 62
     7
100
AcDbCircle
 10
5.013804038400906
 20
34.5
 30
0.0
 40
0.5000000000000085
100
AcDbArc
 50
1.603862771154918
 51
90.00000000000001
  0
TEXT
  5
2DE
330
39A
100
AcDbEntity
  8
DATA
 62
     7
100
AcDbText
 10
49.00370608753731
 20
-78.4186264632007
 30
0.0
 40
2.171788194444445
  1
REFERENCE RECORDING
 41
0.7
 72
     1
 11
62.63529665466694
 21
-77.33273236597847
 31
0.0
100
AcDbText
 73
     2
  0
TEXT
  5
2DF
330
39A
100
AcDbEntity
  8
DATA
 62
     7
100
AcDbText
 10
54.90011296112083
 20
-81.95592409642354
 30
0.0
 40
2.171788194444445
  1
MICROPHONE
 41
0.7
 72
     1
 11
61.99462106297268
 21
-80.87002999920132
 31
0.0
100
AcDbText
 73
     2
  0
TEXT
  5
2E0
330
39A
100
AcDbEntity
  8
DATA
 62
     7
100
AcDbText
 10
-69.1358474314558
 20
-78.34974745592206
 30
0.0
 40
5.429470486111112
  1
C414
 41
0.7
 72
     1
 11
-62.80146519765951
 21
-75.6350122128665
 31
0.0
100
AcDbText
 73
     2
  0
TEXT
  5
2E1
330
39A
100
AcDbEntity
  8
DATA
 62
     7
100
AcDbText
 10
94.99999999999997
 20
-227.1913447222222
 30
0.0
 40
4.343576388888889
  1
サイドアドレス型マイクロホン
 41
0.7
 11
94.99999999999997
 21
-222.8477683333333
 31
0.0
100
AcDbText
 73
     3
  0
TEXT
  5
2E2
330
39A
100
AcDbEntity
  8
DATA
 62
     7
100
AcDbText
 10
99.99999999999997
 20
-234.2294347222222
 30
0.0
 40
4.8865234375
  1
C414-XLII
 41
0.7
 11
99.99999999999997
 21
-229.3429112847222
 31
0.0
100
AcDbText
 73
     3
  0
TEXT
  5
2E3
330
39A
100
AcDbEntity
  8
DATA
 62
     7
100
AcDbText
 10
-66.1334786261012
 20
-33.734862189274
 30
0.0
 40
3.393419053819445
  1
XLII
 41
0.7
 72
     1
 11
-62.57038861959077
 21
-32.03815266236428
 31
0.0
100
AcDbText
 73
     2
  0
ENDSEC
  0
SECTION
  2
OBJECTS
  0
DICTIONARY
  5
2F1
330
0
100
AcDbDictionary
281
     1
  3
ACAD_GROUP
350
2F2
  3
ACAD_LAYOUT
350
2FF
  3
ACAD_MATERIAL
350
312
  3
ACAD_MLEADERSTYLE
350
352
  3
ACAD_MLINESTYLE
350
2FC
  3
ACAD_PLOTSETTINGS
350
2FE
  3
ACAD_PLOTSTYLENAME
350
2F3
  3
ACAD_SCALELIST
350
31F
  3
ACAD_TABLESTYLE
350
34E
  3
ACAD_VISUALSTYLE
350
335
  3
AcDbVariableDictionary
350
356
  3
DWGPROPS
350
3B0
  0
DICTIONARY
  5
3B1
330
2ED
100
AcDbDictionary
280
     1
281
     1
  3
ACAD_XREC_ROUNDTRIP
360
3B2
  0
DICTIONARY
  5
350
330
2E7
100
AcDbDictionary
280
     1
281
     1
  3
ACLYDICTIONARY
360
3A2
  0
DICTIONARY
  5
2F2
102
{ACAD_REACTORS
330
2F1
102
}
330
2F1
100
AcDbDictionary
281
     1
  0
DICTIONARY
  5
2FF
102
{ACAD_REACTORS
330
2F1
102
}
330
2F1
100
AcDbDictionary
281
     1
  3
Model
350
303
  3
レイアウト 1
350
301
  3
レイアウト 2
350
39C
  3
レイアウト 3
350
39D
  0
DICTIONARY
  5
312
102
{ACAD_REACTORS
330
2F1
102
}
330
2F1
100
AcDbDictionary
281
     1
  3
ByBlock
350
314
  3
ByLayer
350
313
  3
Global
350
315
  0
DICTIONARY
  5
352
102
{ACAD_REACTORS
330
2F1
102
}
330
2F1
100
AcDbDictionary
281
     1
  3
Standard
350
353
  0
DICTIONARY
  5
2FC
102
{ACAD_REACTORS
330
2F1
102
}
330
2F1
100
AcDbDictionary
281
     1
  3
Standard
350
2FD
  0
DICTIONARY
  5
2FE
102
{ACAD_REACTORS
330
2F1
102
}
330
2F1
100
AcDbDictionary
281
     1
  0
ACDBDICTIONARYWDFLT
  5
2F3
102
{ACAD_REACTORS
330
2F1
102
}
330
2F1
100
AcDbDictionary
281
     1
  3
ByColor
350
2F6
  3
Normal
350
2F4
100
AcDbDictionaryWithDefault
340
2F4
  0
DICTIONARY
  5
31F
102
{ACAD_REACTORS
330
2F1
102
}
330
2F1
100
AcDbDictionary
281
     1
  3
A0
350
320
  3
B7
350
321
  3
B8
350
322
  3
B9
350
323
  3
C0
350
324
  3
C1
350
325
  3
C2
350
326
  3
C3
350
327
  3
C4
350
328
  3
C5
350
329
  3
C6
350
32A
  3
C7
350
32B
  3
C8
350
32C
  3
C9
350
32D
  3
D0
350
32E
  3
D1
350
32F
  3
D2
350
330
  0
DICTIONARY
  5
34E
102
{ACAD_REACTORS
330
2F1
102
}
330
2F1
100
AcDbDictionary
281
     1
  3
Standard
350
34F
  0
DICTIONARY
  5
335
102
{ACAD_REACTORS
330
2F1
102
}
330
2F1
100
AcDbDictionary
281
     1
  3
2dWireframe
350
33A
  3
Basic
350
33D
  3
Brighten
350
341
  3
ColorChange
350
345
  3
Conceptual
350
33F
  3
Dim
350
340
  3
EdgeColorOff
350
348
  3
Facepattern
350
344
  3
Flat
350
336
  3
FlatWithEdges
350
337
  3
Gouraud
350
338
  3
GouraudWithEdges
350
339
  3
Hidden
350
33C
  3
JitterOff
350
346
  3
Linepattern
350
343
  3
OverhangOff
350
347
  3
Realistic
350
33E
  3
Shaded
350
34D
  3
Shaded with edges
350
34C
  3
Shades of Gray
350
349
  3
Sketchy
350
34A
  3
Thicken
350
342
  3
Wireframe
350
33B
  3
X-Ray
350
34B
  0
DICTIONARY
  5
356
102
{ACAD_REACTORS
330
2F1
102
}
330
2F1
100
AcDbDictionary
281
     1
  3
CANNOSCALE
350
3AD
  3
CMLEADERSTYLE
350
358
  3
CTABLESTYLE
350
357
  3
DIMASSOC
350
35C
  3
HIDETEXT
350
35D
  3
MSLTSCALE
350
359
  0
XRECORD
  5
3B0
102
{ACAD_REACTORS
330
2F1
102
}
330
2F1
100
AcDbXrecord
280
     1
  1
DWGPROPS COOKIE
  2

  3

  4

  6

  7

  8
sasaki_n
  9

300
=
301
=
302
=
303
=
304
=
305
=
306
=
307
=
308
=
309
=
 40
0.0
 41
2459002.262071748
 42
2459002.266065764
  1

 90
        0
  0
XRECORD
  5
3B2
102
{ACAD_REACTORS
330
3B1
102
}
330
3B1
100
AcDbXrecord
280
     1
102
VTR_0.000_0.000_1.000_1.000_VISUALSTYLE
340
33A
102
VTR_0.000_0.000_1.000_1.000_GRIDDISPLAY
 70
     3
102
VTR_0.000_0.000_1.000_1.000_GRIDMAJOR
 70
     5
102
VTR_0.000_0.000_1.000_1.000_DEFAULTLIGHTING
280
     1
102
VTR_0.000_0.000_1.000_1.000_DEFAULTLIGHTINGTYPE
 70
     1
102
VTR_0.000_0.000_1.000_1.000_BRIGHTNESS
141
0.0
102
VTR_0.000_0.000_1.000_1.000_CONTRAST
142
0.0
  0
DICTIONARY
  5
3A2
102
{ACAD_REACTORS
330
350
102
}
330
350
100
AcDbDictionary
281
     1
1001
ACAD
1000
All
  0
LAYOUT
  5
303
102
{ACAD_REACTORS
330
2FF
102
}
330
2FF
100
AcDbPlotSettings
  1

  2
none_device
  4
ISO_A4_(210.00_x_297.00_MM)
  6

 40
7.5
 41
20.0
 42
7.5
 43
20.0
 44
210.0
 45
297.0
 46
0.0
 47
0.0
 48
0.0
 49
0.0
140
0.0
141
0.0
142
1.0
143
1.0
 70
  1712
 72
     0
 73
     1
 74
     0
  7

 75
     0
147
1.0
148
0.0
149
0.0
100
AcDbLayout
  1
Model
 70
     1
 71
     0
 10
0.0
 20
0.0
 11
12.0
 21
9.0
 12
0.0
 22
0.0
 32
0.0
 14
-180.0
 24
-271.7085997753472
 34
0.0
 15
179.9999999999999
 25
263.5087852777777
 35
0.0
146
0.0
 13
0.0
 23
0.0
 33
0.0
 16
1.0
 26
0.0
 36
0.0
 17
0.0
 27
1.0
 37
0.0
 76
     0
330
302
  0
LAYOUT
  5
301
102
{ACAD_REACTORS
330
2FF
102
}
330
2FF
100
AcDbPlotSettings
  1

  2
none_device
  4
ISO_A4_(210.00_x_297.00_MM)
  6

 40
7.5
 41
20.0
 42
7.5
 43
20.0
 44
210.0
 45
297.0
 46
0.0
 47
0.0
 48
0.0
 49
0.0
140
0.0
141
0.0
142
1.0
143
1.0
 70
   688
 72
     0
 73
     1
 74
     5
  7

 75
    16
147
1.0
148
0.0
149
0.0
100
AcDbLayout
  1
レイアウト 1
 70
     0
 71
     2
 10
0.0
 20
0.0
 11
12.0
 21
9.0
 12
0.0
 22
0.0
 32
0.0
 14
1.000000000000000E+20
 24
1.000000000000000E+20
 34
1.000000000000000E+20
 15
-1.000000000000000E+20
 25
-1.000000000000000E+20
 35
-1.000000000000000E+20
146
0.0
 13
0.0
 23
0.0
 33
0.0
 16
1.0
 26
0.0
 36
0.0
 17
0.0
 27
1.0
 37
0.0
 76
     0
330
300
  0
LAYOUT
  5
39C
102
{ACAD_REACTORS
330
2FF
102
}
330
2FF
100
AcDbPlotSettings
  1

  2
none_device
  4
ISO_A4_(210.00_x_297.00_MM)
  6

 40
7.5
 41
20.0
 42
7.5
 43
20.0
 44
210.0
 45
297.0
 46
0.0
 47
0.0
 48
0.0
 49
0.0
140
0.0
141
0.0
142
1.0
143
108.9672146438273
 70
  1712
 72
     0
 73
     1
 74
     0
  7

 75
     0
147
0.0091770722346958
148
0.0
149
0.0
100
AcDbLayout
  1
レイアウト 2
 70
     1
 71
     1
 10
0.0
 20
0.0
 11
0.0
 21
0.0
 12
0.0
 22
0.0
 32
0.0
 14
-180.0
 24
-271.7085997753472
 34
0.0
 15
179.9999999999999
 25
263.5087852777777
 35
0.0
146
0.0
 13
0.0
 23
0.0
 33
0.0
 16
1.0
 26
0.0
 36
0.0
 17
0.0
 27
1.0
 37
0.0
 76
     0
330
39A
331
305
  0
LAYOUT
  5
39D
102
{ACAD_REACTORS
330
2FF
102
}
330
2FF
100
AcDbPlotSettings
  1

  2
none_device
  4
ISO_A4_(210.00_x_297.00_MM)
  6

 40
7.5
 41
20.0
 42
7.5
 43
20.0
 44
210.0
 45
297.0
 46
0.0
 47
0.0
 48
0.0
 49
0.0
140
0.0
141
0.0
142
1.0
143
1.0
 70
   688
 72
     0
 73
     1
 74
     5
  7

 75
    16
147
1.0
148
0.0
149
0.0
100
AcDbLayout
  1
レイアウト 3
 70
     0
 71
     3
 10
0.0
 20
0.0
 11
12.0
 21
9.0
 12
0.0
 22
0.0
 32
0.0
 14
1.000000000000000E+20
 24
1.000000000000000E+20
 34
1.000000000000000E+20
 15
-1.000000000000000E+20
 25
-1.000000000000000E+20
 35
-1.000000000000000E+20
146
0.0
 13
0.0
 23
0.0
 33
0.0
 16
1.0
 26
0.0
 36
0.0
 17
0.0
 27
1.0
 37
0.0
 76
     0
330
39B
  0
MATERIAL
  5
314
102
{ACAD_REACTORS
330
312
102
}
102
{ACAD_XDICTIONARY
360
3B3
102
}
330
312
100
AcDbMaterial
  1
ByBlock
  0
MATERIAL
  5
313
102
{ACAD_REACTORS
330
312
102
}
102
{ACAD_XDICTIONARY
360
3B5
102
}
330
312
100
AcDbMaterial
  1
ByLayer
  0
MATERIAL
  5
315
102
{ACAD_REACTORS
330
312
102
}
102
{ACAD_XDICTIONARY
360
3B7
102
}
330
312
100
AcDbMaterial
  1
Global
  0
MLEADERSTYLE
  5
353
102
{ACAD_REACTORS
330
352
102
}
102
{ACAD_XDICTIONARY
360
3B9
102
}
330
352
100
AcDbMLeaderStyle
170
     2
171
     1
172
     0
 90
        2
 40
0.0
 41
0.0
173
     1
 91
-1056964608
340
2FB
 92
       -2
290
     1
 42
0.09
291
     1
 43
0.36
  3
Standard
341
0
 44
0.18
300

342
2F7
174
     1
178
     6
175
     1
176
     0
 93
-1056964608
 45
0.18
292
     0
297
     0
 46
0.18
343
0
 94
-1056964608
 47
1.0
 49
1.0
140
1.0
293
     1
141
0.0
294
     1
177
     0
142
1.0
295
     0
296
     0
143
0.125
1001
ACAD_MLEADERVER
1070
     2
  0
MLINESTYLE
  5
2FD
102
{ACAD_REACTORS
330
2FC
102
}
330
2FC
100
AcDbMlineStyle
  2
Standard
 70
     0
  3

 62
   256
 51
90.0
 52
90.0
 71
     2
 49
0.5
 62
   256
  6
BYLAYER
 49
-0.5
 62
   256
  6
BYLAYER
  0
ACDBPLACEHOLDER
  5
2F6
102
{ACAD_REACTORS
330
2F3
102
}
330
2F3
  0
ACDBPLACEHOLDER
  5
2F4
102
{ACAD_REACTORS
330
2F3
102
}
330
2F3
  0
SCALE
  5
320
102
{ACAD_REACTORS
330
31F
102
}
330
31F
100
AcDbScale
 70
     0
300
1:1
140
1.0
141
1.0
290
     1
  0
SCALE
  5
321
102
{ACAD_REACTORS
330
31F
102
}
330
31F
100
AcDbScale
 70
     0
300
1/128" = 1'-0"
140
0.0078125
141
12.0
290
     0
  0
SCALE
  5
322
102
{ACAD_REACTORS
330
31F
102
}
330
31F
100
AcDbScale
 70
     0
300
1/64" = 1'-0"
140
0.015625
141
12.0
290
     0
  0
SCALE
  5
323
102
{ACAD_REACTORS
330
31F
102
}
330
31F
100
AcDbScale
 70
     0
300
1/32" = 1'-0"
140
0.03125
141
12.0
290
     0
  0
SCALE
  5
324
102
{ACAD_REACTORS
330
31F
102
}
330
31F
100
AcDbScale
 70
     0
300
1/16" = 1'-0"
140
0.0625
141
12.0
290
     0
  0
SCALE
  5
325
102
{ACAD_REACTORS
330
31F
102
}
330
31F
100
AcDbScale
 70
     0
300
3/32" = 1'-0"
140
0.09375
141
12.0
290
     0
  0
SCALE
  5
326
102
{ACAD_REACTORS
330
31F
102
}
330
31F
100
AcDbScale
 70
     0
300
1/8" = 1'-0"
140
0.125
141
12.0
290
     0
  0
SCALE
  5
327
102
{ACAD_REACTORS
330
31F
102
}
330
31F
100
AcDbScale
 70
     0
300
3/16" = 1'-0"
140
0.1875
141
12.0
290
     0
  0
SCALE
  5
328
102
{ACAD_REACTORS
330
31F
102
}
330
31F
100
AcDbScale
 70
     0
300
1/4" = 1'-0"
140
0.25
141
12.0
290
     0
  0
SCALE
  5
329
102
{ACAD_REACTORS
330
31F
102
}
330
31F
100
AcDbScale
 70
     0
300
3/8" = 1'-0"
140
0.375
141
12.0
290
     0
  0
SCALE
  5
32A
102
{ACAD_REACTORS
330
31F
102
}
330
31F
100
AcDbScale
 70
     0
300
1/2" = 1'-0"
140
0.5
141
12.0
290
     0
  0
SCALE
  5
32B
102
{ACAD_REACTORS
330
31F
102
}
330
31F
100
AcDbScale
 70
     0
300
3/4" = 1'-0"
140
0.75
141
12.0
290
     0
  0
SCALE
  5
32C
102
{ACAD_REACTORS
330
31F
102
}
330
31F
100
AcDbScale
 70
     0
300
1" = 1'-0"
140
1.0
141
12.0
290
     0
  0
SCALE
  5
32D
102
{ACAD_REACTORS
330
31F
102
}
330
31F
100
AcDbScale
 70
     0
300
1-1/2" = 1'-0"
140
1.5
141
12.0
290
     0
  0
SCALE
  5
32E
102
{ACAD_REACTORS
330
31F
102
}
330
31F
100
AcDbScale
 70
     0
300
3" = 1'-0"
140
3.0
141
12.0
290
     0
  0
SCALE
  5
32F
102
{ACAD_REACTORS
330
31F
102
}
330
31F
100
AcDbScale
 70
     0
300
6" = 1'-0"
140
6.0
141
12.0
290
     0
  0
SCALE
  5
330
102
{ACAD_REACTORS
330
31F
102
}
330
31F
100
AcDbScale
 70
     0
300
1'-0" = 1'-0"
140
12.0
141
12.0
290
     0
  0
TABLESTYLE
  5
34F
102
{ACAD_REACTORS
330
34E
102
}
330
34E
100
AcDbTableStyle
  3
Standard
 70
     0
 71
     0
 40
0.06
 41
0.06
280
     0
281
     0
  7
STANDARD
140
0.18
170
     2
 62
     0
 63
   257
283
     0
274
    -2
284
     1
 64
     0
275
    -2
285
     1
 65
     0
276
    -2
286
     1
 66
     0
277
    -2
287
     1
 67
     0
278
    -2
288
     1
 68
     0
279
    -2
289
     1
 69
     0
  7
STANDARD
140
0.25
170
     5
 62
     0
 63
   257
283
     0
274
    -2
284
     1
 64
     0
275
    -2
285
     1
 65
     0
276
    -2
286
     1
 66
     0
277
    -2
287
     1
 67
     0
278
    -2
288
     1
 68
     0
279
    -2
289
     1
 69
     0
  7
STANDARD
140
0.18
170
     5
 62
     0
 63
   257
283
     0
274
    -2
284
     1
 64
     0
275
    -2
285
     1
 65
     0
276
    -2
286
     1
 66
     0
277
    -2
287
     1
 67
     0
278
    -2
288
     1
 68
     0
279
    -2
289
     1
 69
     0
  0
VISUALSTYLE
  5
33A
102
{ACAD_REACTORS
330
335
102
}
102
{ACAD_XDICTIONARY
360
3BB
102
}
330
335
100
AcDbVisualStyle
  2
2dWireframe
 70
     4
 71
     0
 72
     2
 73
     0
 90
        0
 40
0.6
 41
30.0
 62
     5
 63
     7
 74
     1
 91
        4
 64
     7
 65
   257
 75
     1
175
     1
 42
1.0
 92
        0
 66
   257
 43
1.0
 76
     1
 77
     6
 78
     2
 67
     7
 79
     5
170
     0
171
     0
290
     0
174
     0
 93
        1
 44
0.0
173
     0
291
     0
 45
0.0
1001
ACAD
1000
AcDbSavedByObjectVersion
1070
     0
  0
VISUALSTYLE
  5
33D
102
{ACAD_REACTORS
330
335
102
}
102
{ACAD_XDICTIONARY
360
3BD
102
}
330
335
100
AcDbVisualStyle
  2
Basic
 70
     7
 71
     1
 72
     0
 73
     1
 90
        0
 40
0.6
 41
30.0
 62
     5
 63
     7
 74
     0
 91
        4
 64
     7
 65
   257
 75
     1
175
     1
 42
1.0
 92
        8
 66
     7
 43
1.0
 76
     1
 77
     6
 78
     2
 67
     7
 79
     5
170
     0
171
     0
290
     0
174
     0
 93
        1
 44
0.0
173
     0
291
     1
 45
0.0
1001
ACAD
1000
AcDbSavedByObjectVersion
1070
     0
  0
VISUALSTYLE
  5
341
102
{ACAD_REACTORS
330
335
102
}
102
{ACAD_XDICTIONARY
360
3BF
102
}
330
335
100
AcDbVisualStyle
  2
Brighten
 70
    12
 71
     2
 72
     2
 73
     0
 90
        0
 40
0.6
 41
30.0
 62
     5
 63
     7
 74
     1
 91
        4
 64
     7
 65
   257
 75
     1
175
     1
 42
1.0
 92
        8
 66
     7
 43
1.0
 76
     1
 77
     6
 78
     2
 67
     7
 79
     5
170
     0
171
     0
290
     0
174
     0
 93
        1
 44
50.0
173
     0
291
     1
 45
0.0
1001
ACAD
1000
AcDbSavedByObjectVersion
1070
     0
  0
VISUALSTYLE
  5
345
102
{ACAD_REACTORS
330
335
102
}
102
{ACAD_XDICTIONARY
360
3C1
102
}
330
335
100
AcDbVisualStyle
  2
ColorChange
 70
    16
 71
     2
 72
     2
 73
     3
 90
        0
 40
0.6
 41
30.0
 62
     5
 63
     8
 74
     1
 91
        4
 64
     7
 65
   257
 75
     1
175
     1
 42
1.0
 92
        8
 66
     8
 43
1.0
 76
     1
 77
     6
 78
     2
 67
     7
 79
     5
170
     0
171
     0
290
     0
174
     0
 93
        1
 44
0.0
173
     0
291
     1
 45
0.0
1001
ACAD
1000
AcDbSavedByObjectVersion
1070
     0
  0
VISUALSTYLE
  5
33F
102
{ACAD_REACTORS
330
335
102
}
102
{ACAD_XDICTIONARY
360
3C3
102
}
330
335
100
AcDbVisualStyle
  2
Conceptual
 70
     9
 71
     3
 72
     2
 73
     0
 90
        0
 40
0.6
 41
30.0
 62
     5
 63
     7
 74
     2
 91
        2
 64
     7
 65
   257
 75
     1
175
     1
 42
40.0
 92
        8
 66
     7
 43
1.0
 76
     1
 77
     6
 78
     2
 67
     7
 79
     3
170
     0
171
     0
290
     0
174
     0
 93
        1
 44
0.0
173
     0
291
     0
 45
0.0
1001
ACAD
1000
AcDbSavedByObjectVersion
1070
     0
  0
VISUALSTYLE
  5
340
102
{ACAD_REACTORS
330
335
102
}
102
{ACAD_XDICTIONARY
360
3C5
102
}
330
335
100
AcDbVisualStyle
  2
Dim
 70
    11
 71
     2
 72
     2
 73
     0
 90
        0
 40
0.6
 41
30.0
 62
     5
 63
     7
 74
     1
 91
        4
 64
     7
 65
   257
 75
     1
175
     1
 42
1.0
 92
        8
 66
     7
 43
1.0
 76
     1
 77
     6
 78
     2
 67
     7
 79
     5
170
     0
171
     0
290
     0
174
     0
 93
        1
 44
-50.0
173
     0
291
     1
 45
0.0
1001
ACAD
1000
AcDbSavedByObjectVersion
1070
     0
  0
VISUALSTYLE
  5
348
102
{ACAD_REACTORS
330
335
102
}
102
{ACAD_XDICTIONARY
360
3C7
102
}
330
335
100
AcDbVisualStyle
  2
EdgeColorOff
 70
    22
 71
     2
 72
     2
 73
     0
 90
        0
 40
0.6
 41
30.0
 62
     5
 63
     7
 74
     1
 91
        4
 64
     7
 65
   257
 75
     1
175
     1
 42
1.0
 92
        8
 66
     7
 43
1.0
 76
     1
 77
     6
 78
     2
 67
     7
 79
     5
170
     0
171
     0
290
     0
174
     0
 93
        1
 44
0.0
173
     0
291
     1
 45
0.0
1001
ACAD
1000
AcDbSavedByObjectVersion
1070
     0
  0
VISUALSTYLE
  5
344
102
{ACAD_REACTORS
330
335
102
}
102
{ACAD_XDICTIONARY
360
3C9
102
}
330
335
100
AcDbVisualStyle
  2
Facepattern
 70
    15
 71
     2
 72
     2
 73
     0
 90
        0
 40
0.6
 41
30.0
 62
     5
 63
     7
 74
     1
 91
        4
 64
     7
 65
   257
 75
     1
175
     1
 42
1.0
 92
        8
 66
     7
 43
1.0
 76
     1
 77
     6
 78
     2
 67
     7
 79
     5
170
     0
171
     0
290
     0
174
     0
 93
        1
 44
0.0
173
     0
291
     1
 45
0.0
1001
ACAD
1000
AcDbSavedByObjectVersion
1070
     0
  0
VISUALSTYLE
  5
336
102
{ACAD_REACTORS
330
335
102
}
102
{ACAD_XDICTIONARY
360
3CB
102
}
330
335
100
AcDbVisualStyle
  2
Flat
 70
     0
 71
     2
 72
     1
 73
     1
 90
        2
 40
0.6
 41
30.0
 62
     5
 63
     7
 74
     0
 91
        4
 64
     7
 65
   257
 75
     1
175
     1
 42
1.0
 92
        8
 66
     7
 43
1.0
 76
     1
 77
     6
 78
     2
 67
     7
 79
     5
170
     0
171
     0
290
     0
174
     0
 93
       13
 44
0.0
173
     0
291
     1
 45
0.0
1001
ACAD
1000
AcDbSavedByObjectVersion
1070
     0
  0
VISUALSTYLE
  5
337
102
{ACAD_REACTORS
330
335
102
}
102
{ACAD_XDICTIONARY
360
3CD
102
}
330
335
100
AcDbVisualStyle
  2
FlatWithEdges
 70
     1
 71
     2
 72
     1
 73
     1
 90
        2
 40
0.6
 41
30.0
 62
     5
 63
     7
 74
     1
 91
        4
 64
     7
 65
   257
 75
     1
175
     1
 42
1.0
 92
        0
 66
   257
 43
1.0
 76
     1
 77
     6
 78
     2
 67
     7
 79
     5
170
     0
171
     0
290
     0
174
     0
 93
       13
 44
0.0
173
     0
291
     1
 45
0.0
1001
ACAD
1000
AcDbSavedByObjectVersion
1070
     0
  0
VISUALSTYLE
  5
338
102
{ACAD_REACTORS
330
335
102
}
102
{ACAD_XDICTIONARY
360
3CF
102
}
330
335
100
AcDbVisualStyle
  2
Gouraud
 70
     2
 71
     2
 72
     2
 73
     1
 90
        2
 40
0.6
 41
30.0
 62
     5
 63
     7
 74
     0
 91
        4
 64
     7
 65
   257
 75
     1
175
     1
 42
1.0
 92
        0
 66
     7
 43
1.0
 76
     1
 77
     6
 78
     2
 67
     7
 79
     5
170
     0
171
     0
290
     0
174
     0
 93
       13
 44
0.0
173
     0
291
     1
 45
0.0
1001
ACAD
1000
AcDbSavedByObjectVersion
1070
     0
  0
VISUALSTYLE
  5
339
102
{ACAD_REACTORS
330
335
102
}
102
{ACAD_XDICTIONARY
360
3D1
102
}
330
335
100
AcDbVisualStyle
  2
GouraudWithEdges
 70
     3
 71
     2
 72
     2
 73
     1
 90
        2
 40
0.6
 41
30.0
 62
     5
 63
     7
 74
     1
 91
        4
 64
     7
 65
   257
 75
     1
175
     1
 42
1.0
 92
        0
 66
   257
 43
1.0
 76
     1
 77
     6
 78
     2
 67
     7
 79
     5
170
     0
171
     0
290
     0
174
     0
 93
       13
 44
0.0
173
     0
291
     1
 45
0.0
1001
ACAD
1000
AcDbSavedByObjectVersion
1070
     0
  0
VISUALSTYLE
  5
33C
102
{ACAD_REACTORS
330
335
102
}
102
{ACAD_XDICTIONARY
360
3D3
102
}
330
335
100
AcDbVisualStyle
  2
Hidden
 70
     6
 71
     1
 72
     2
 73
     2
 90
        0
 40
0.6
 41
30.0
 62
     5
 63
     7
 74
     2
 91
        2
 64
     7
 65
   257
 75
     2
175
     1
 42
40.0
 92
        0
 66
   257
 43
1.0
 76
     1
 77
     6
 78
     2
 67
     7
 79
     3
170
     0
171
     0
290
     0
174
     0
 93
        1
 44
0.0
173
     0
291
     0
 45
0.0
1001
ACAD
1000
AcDbSavedByObjectVersion
1070
     0
  0
VISUALSTYLE
  5
346
102
{ACAD_REACTORS
330
335
102
}
102
{ACAD_XDICTIONARY
360
3D5
102
}
330
335
100
AcDbVisualStyle
  2
JitterOff
 70
    20
 71
     2
 72
     2
 73
     0
 90
        0
 40
0.6
 41
30.0
 62
     5
 63
     7
 74
     1
 91
        4
 64
     7
 65
   257
 75
     1
175
     1
 42
1.0
 92
       10
 66
     7
 43
1.0
 76
     1
 77
     6
 78
     2
 67
     7
 79
     5
170
     0
171
     0
290
     0
174
     0
 93
        1
 44
0.0
173
     0
291
     1
 45
0.0
1001
ACAD
1000
AcDbSavedByObjectVersion
1070
     0
  0
VISUALSTYLE
  5
343
102
{ACAD_REACTORS
330
335
102
}
102
{ACAD_XDICTIONARY
360
3D7
102
}
330
335
100
AcDbVisualStyle
  2
Linepattern
 70
    14
 71
     2
 72
     2
 73
     0
 90
        0
 40
0.6
 41
30.0
 62
     5
 63
     7
 74
     1
 91
        4
 64
     7
 65
   257
 75
     7
175
     7
 42
1.0
 92
        8
 66
     7
 43
1.0
 76
     1
 77
     6
 78
     2
 67
     7
 79
     5
170
     0
171
     0
290
     0
174
     0
 93
        1
 44
0.0
173
     0
291
     1
 45
0.0
1001
ACAD
1000
AcDbSavedByObjectVersion
1070
     0
  0
VISUALSTYLE
  5
347
102
{ACAD_REACTORS
330
335
102
}
102
{ACAD_XDICTIONARY
360
3D9
102
}
330
335
100
AcDbVisualStyle
  2
OverhangOff
 70
    21
 71
     2
 72
     2
 73
     0
 90
        0
 40
0.6
 41
30.0
 62
     5
 63
     7
 74
     1
 91
        4
 64
     7
 65
   257
 75
     1
175
     1
 42
1.0
 92
        9
 66
     7
 43
1.0
 76
     1
 77
     6
 78
     2
 67
     7
 79
     5
170
     0
171
     0
290
     0
174
     0
 93
        1
 44
0.0
173
     0
291
     1
 45
0.0
1001
ACAD
1000
AcDbSavedByObjectVersion
1070
     0
  0
VISUALSTYLE
  5
33E
102
{ACAD_REACTORS
330
335
102
}
102
{ACAD_XDICTIONARY
360
3DB
102
}
330
335
100
AcDbVisualStyle
  2
Realistic
 70
     8
 71
     2
 72
     3
 73
     0
 90
        2
 40
0.6
 41
30.0
 62
     5
 63
     7
 74
     0
 91
        0
 64
     7
 65
   257
 75
     1
175
     1
 42
1.0
 92
        8
 66
   257
 43
1.0
 76
     1
 77
     6
 78
     2
 67
     7
 79
     3
170
     0
171
     0
290
     0
174
     0
 93
       13
 44
0.0
173
     0
291
     0
 45
0.0
1001
ACAD
1000
AcDbSavedByObjectVersion
1070
     0
  0
VISUALSTYLE
  5
34D
102
{ACAD_REACTORS
330
335
102
}
102
{ACAD_XDICTIONARY
360
3DD
102
}
330
335
100
AcDbVisualStyle
  2
Shaded
 70
    27
 71
     2
 72
     2
 73
     1
 90
        2
 40
0.6
 41
30.0
 62
     5
 63
     7
 74
     0
 91
        4
 64
     7
 65
   257
 75
     1
175
     1
 42
1.0
 92
        8
 66
   257
 43
1.0
 76
     1
 77
     6
 78
     2
 67
   251
 79
     3
170
     0
171
     0
290
     0
174
     0
 93
        5
 44
0.0
173
     0
291
     0
 45
0.0
1001
ACAD
1000
AcDbSavedByObjectVersion
1070
     0
  0
VISUALSTYLE
  5
34C
102
{ACAD_REACTORS
330
335
102
}
102
{ACAD_XDICTIONARY
360
3DF
102
}
330
335
100
AcDbVisualStyle
  2
Shaded with edges
 70
    26
 71
     2
 72
     2
 73
     1
 90
        2
 40
0.6
 41
30.0
 62
     5
 63
     7
 74
     1
 91
       10
 64
     7
 65
   257
 75
     2
175
     1
 42
1.0
 92
        8
 66
   257
 43
1.0
 76
     1
 77
     6
 78
     2
 67
     7
 79
     3
170
     0
171
     0
290
     0
174
     0
 93
        5
 44
0.0
173
     0
291
     0
 45
0.0
1001
ACAD
1000
AcDbSavedByObjectVersion
1070
     0
  0
VISUALSTYLE
  5
349
102
{ACAD_REACTORS
330
335
102
}
102
{ACAD_XDICTIONARY
360
3E1
102
}
330
335
100
AcDbVisualStyle
  2
Shades of Gray
 70
    23
 71
     2
 72
     2
 73
     3
 90
        0
 40
0.6
 41
30.0
 62
     5
 63
     7
 74
     2
 91
        2
 64
     7
 65
     7
 75
     1
175
     1
 42
40.0
 92
        8
 66
     7
 43
1.0
 76
     1
 77
     6
 78
     2
 67
     7
 79
     3
170
     0
171
     0
290
     0
174
     0
 93
        1
 44
0.0
173
     0
291
     0
 45
0.0
1001
ACAD
1000
AcDbSavedByObjectVersion
1070
     0
  0
VISUALSTYLE
  5
34A
102
{ACAD_REACTORS
330
335
102
}
102
{ACAD_XDICTIONARY
360
3E3
102
}
330
335
100
AcDbVisualStyle
  2
Sketchy
 70
    24
 71
     1
 72
     2
 73
     2
 90
        0
 40
0.6
 41
30.0
 62
     5
 63
     7
 74
     2
 91
        2
 64
     7
 65
     7
 75
     1
175
     1
 42
40.0
 92
       11
 66
     7
 43
1.0
 76
     1
 77
     6
 78
     2
 67
     7
 79
     6
170
     0
171
     0
290
     0
174
     0
 93
        1
 44
0.0
173
     0
291
     0
 45
0.0
1001
ACAD
1000
AcDbSavedByObjectVersion
1070
     0
  0
VISUALSTYLE
  5
342
102
{ACAD_REACTORS
330
335
102
}
102
{ACAD_XDICTIONARY
360
3E5
102
}
330
335
100
AcDbVisualStyle
  2
Thicken
 70
    13
 71
     2
 72
     2
 73
     0
 90
        0
 40
0.6
 41
30.0
 62
     5
 63
     7
 74
     1
 91
        4
 64
     7
 65
   257
 75
     1
175
     1
 42
1.0
 92
       12
 66
     7
 43
1.0
 76
     1
 77
     6
 78
     2
 67
     7
 79
     5
170
     0
171
     0
290
     0
174
     0
 93
        1
 44
0.0
173
     0
291
     1
 45
0.0
1001
ACAD
1000
AcDbSavedByObjectVersion
1070
     0
  0
VISUALSTYLE
  5
33B
102
{ACAD_REACTORS
330
335
102
}
102
{ACAD_XDICTIONARY
360
3E7
102
}
330
335
100
AcDbVisualStyle
  2
Wireframe
 70
     5
 71
     0
 72
     2
 73
     0
 90
        0
 40
0.6
 41
30.0
 62
     5
 63
     7
 74
     1
 91
        4
 64
     7
 65
   257
 75
     1
175
     1
 42
1.0
 92
        0
 66
   257
 43
1.0
 76
     1
 77
     6
 78
     2
 67
     7
 79
     5
170
     0
171
     0
290
     0
174
     0
 93
        1
 44
0.0
173
     0
291
     0
 45
0.0
1001
ACAD
1000
AcDbSavedByObjectVersion
1070
     0
  0
VISUALSTYLE
  5
34B
102
{ACAD_REACTORS
330
335
102
}
102
{ACAD_XDICTIONARY
360
3E9
102
}
330
335
100
AcDbVisualStyle
  2
X-Ray
 70
    25
 71
     2
 72
     2
 73
     1
 90
        1
 40
0.5
 41
30.0
 62
     5
 63
     7
 74
     1
 91
        0
 64
     7
 65
   257
 75
     1
175
     1
 42
1.0
 92
        8
 66
     7
 43
1.0
 76
     1
 77
     6
 78
     2
 67
     7
 79
     3
170
     0
171
     0
290
     0
174
     0
 93
       13
 44
0.0
173
     0
291
     0
 45
0.0
1001
ACAD
1000
AcDbSavedByObjectVersion
1070
     0
  0
DICTIONARYVAR
  5
3AD
102
{ACAD_REACTORS
330
356
102
}
330
356
100
DictionaryVariables
280
     0
  1
1:1
  0
DICTIONARYVAR
  5
358
102
{ACAD_REACTORS
330
356
102
}
330
356
100
DictionaryVariables
280
     0
  1
Standard
  0
DICTIONARYVAR
  5
357
102
{ACAD_REACTORS
330
356
102
}
330
356
100
DictionaryVariables
280
     0
  1
Standard
  0
DICTIONARYVAR
  5
35C
102
{ACAD_REACTORS
330
356
102
}
330
356
100
DictionaryVariables
280
     0
  1
2
  0
DICTIONARYVAR
  5
35D
102
{ACAD_REACTORS
330
356
102
}
330
356
100
DictionaryVariables
280
     0
  1
1
  0
DICTIONARYVAR
  5
359
102
{ACAD_REACTORS
330
356
102
}
330
356
100
DictionaryVariables
280
     0
  1
0
  0
DICTIONARY
  5
3B3
330
314
100
AcDbDictionary
280
     1
281
     1
  3
ACAD_XREC_ROUNDTRIP
360
3B4
  0
DICTIONARY
  5
3B5
330
313
100
AcDbDictionary
280
     1
281
     1
  3
ACAD_XREC_ROUNDTRIP
360
3B6
  0
DICTIONARY
  5
3B7
330
315
100
AcDbDictionary
280
     1
281
     1
  3
ACAD_XREC_ROUNDTRIP
360
3B8
  0
DICTIONARY
  5
3B9
330
353
100
AcDbDictionary
280
     1
281
     1
  3
ACAD_XREC_ROUNDTRIP
360
3BA
  0
DICTIONARY
  5
3BB
330
33A
100
AcDbDictionary
280
     1
281
     1
  3
ACAD_XREC_ROUNDTRIP
360
3BC
  0
DICTIONARY
  5
3BD
330
33D
100
AcDbDictionary
280
     1
281
     1
  3
ACAD_XREC_ROUNDTRIP
360
3BE
  0
DICTIONARY
  5
3BF
330
341
100
AcDbDictionary
280
     1
281
     1
  3
ACAD_XREC_ROUNDTRIP
360
3C0
  0
DICTIONARY
  5
3C1
330
345
100
AcDbDictionary
280
     1
281
     1
  3
ACAD_XREC_ROUNDTRIP
360
3C2
  0
DICTIONARY
  5
3C3
330
33F
100
AcDbDictionary
280
     1
281
     1
  3
ACAD_XREC_ROUNDTRIP
360
3C4
  0
DICTIONARY
  5
3C5
330
340
100
AcDbDictionary
280
     1
281
     1
  3
ACAD_XREC_ROUNDTRIP
360
3C6
  0
DICTIONARY
  5
3C7
330
348
100
AcDbDictionary
280
     1
281
     1
  3
ACAD_XREC_ROUNDTRIP
360
3C8
  0
DICTIONARY
  5
3C9
330
344
100
AcDbDictionary
280
     1
281
     1
  3
ACAD_XREC_ROUNDTRIP
360
3CA
  0
DICTIONARY
  5
3CB
330
336
100
AcDbDictionary
280
     1
281
     1
  3
ACAD_XREC_ROUNDTRIP
360
3CC
  0
DICTIONARY
  5
3CD
330
337
100
AcDbDictionary
280
     1
281
     1
  3
ACAD_XREC_ROUNDTRIP
360
3CE
  0
DICTIONARY
  5
3CF
330
338
100
AcDbDictionary
280
     1
281
     1
  3
ACAD_XREC_ROUNDTRIP
360
3D0
  0
DICTIONARY
  5
3D1
330
339
100
AcDbDictionary
280
     1
281
     1
  3
ACAD_XREC_ROUNDTRIP
360
3D2
  0
DICTIONARY
  5
3D3
330
33C
100
AcDbDictionary
280
     1
281
     1
  3
ACAD_XREC_ROUNDTRIP
360
3D4
  0
DICTIONARY
  5
3D5
330
346
100
AcDbDictionary
280
     1
281
     1
  3
ACAD_XREC_ROUNDTRIP
360
3D6
  0
DICTIONARY
  5
3D7
330
343
100
AcDbDictionary
280
     1
281
     1
  3
ACAD_XREC_ROUNDTRIP
360
3D8
  0
DICTIONARY
  5
3D9
330
347
100
AcDbDictionary
280
     1
281
     1
  3
ACAD_XREC_ROUNDTRIP
360
3DA
  0
DICTIONARY
  5
3DB
330
33E
100
AcDbDictionary
280
     1
281
     1
  3
ACAD_XREC_ROUNDTRIP
360
3DC
  0
DICTIONARY
  5
3DD
330
34D
100
AcDbDictionary
280
     1
281
     1
  3
ACAD_XREC_ROUNDTRIP
360
3DE
  0
DICTIONARY
  5
3DF
330
34C
100
AcDbDictionary
280
     1
281
     1
  3
ACAD_XREC_ROUNDTRIP
360
3E0
  0
DICTIONARY
  5
3E1
330
349
100
AcDbDictionary
280
     1
281
     1
  3
ACAD_XREC_ROUNDTRIP
360
3E2
  0
DICTIONARY
  5
3E3
330
34A
100
AcDbDictionary
280
     1
281
     1
  3
ACAD_XREC_ROUNDTRIP
360
3E4
  0
DICTIONARY
  5
3E5
330
342
100
AcDbDictionary
280
     1
281
     1
  3
ACAD_XREC_ROUNDTRIP
360
3E6
  0
DICTIONARY
  5
3E7
330
33B
100
AcDbDictionary
280
     1
281
     1
  3
ACAD_XREC_ROUNDTRIP
360
3E8
  0
DICTIONARY
  5
3E9
330
34B
100
AcDbDictionary
280
     1
281
     1
  3
ACAD_XREC_ROUNDTRIP
360
3EA
  0
XRECORD
  5
3B4
102
{ACAD_REACTORS
330
3B3
102
}
330
3B3
100
AcDbXrecord
280
     1
102
MATERIAL
148
0.0
149
0.0
149
0.0
 93
        0
 94
      127
282
     0
 72
     1
 77
     1
171
     1
175
     1
179
     1
273
     0
  0
XRECORD
  5
3B6
102
{ACAD_REACTORS
330
3B5
102
}
330
3B5
100
AcDbXrecord
280
     1
102
MATERIAL
148
0.0
149
0.0
149
0.0
 93
        0
 94
      127
282
     0
 72
     1
 77
     1
171
     1
175
     1
179
     1
273
     0
  0
XRECORD
  5
3B8
102
{ACAD_REACTORS
330
3B7
102
}
330
3B7
100
AcDbXrecord
280
     1
102
MATERIAL
148
0.0
149
0.0
149
0.0
 93
        0
 94
      127
282
     0
 72
     1
 77
     1
171
     1
175
     1
179
     1
273
     0
  0
XRECORD
  5
3BA
102
{ACAD_REACTORS
330
3B9
102
}
330
3B9
100
AcDbXrecord
280
     1
102
ACAD_ROUNDTRIP_2010_MLEADER_STYLE
  0
XRECORD
  5
3BC
102
{ACAD_REACTORS
330
3BB
102
}
330
3BB
100
AcDbXrecord
280
     1
102
RTVSPropertyOp0
 70
     1
102
RTVSPropertyOp1
 70
     1
102
RTVSPropertyOp2
 70
     1
102
RTVSPropertyOp3
 70
     1
102
RTVSPropertyOp4
 70
     1
102
RTVSPropertyOp5
 70
     1
102
RTVSPropertyOp6
 70
     1
102
RTVSPropertyOp7
 70
     1
102
RTVSPropertyOp8
 70
     1
102
RTVSPropertyOp9
 70
     1
102
RTVSPropertyOp10
 70
     1
102
RTVSPropertyOp11
 70
     1
102
RTVSPropertyOp12
 70
     1
102
RTVSPropertyOp13
 70
     1
102
RTVSPropertyOp14
 70
     1
102
RTVSPropertyOp15
 70
     1
102
RTVSPropertyOp16
 70
     1
102
RTVSPropertyOp17
 70
     1
102
RTVSPropertyOp18
 70
     1
102
RTVSPropertyOp19
 70
     1
102
RTVSPropertyOp20
 70
     1
102
RTVSPropertyOp21
 70
     1
102
RTVSPropertyOp22
 70
     1
102
RTVSPropertyOp23
 70
     1
102
RTVSPropertyOp24
 70
     1
102
RTVSPropertyOp25
 70
     1
102
RTVSPropertyOp26
 70
     1
102
RTVSPropertyOp27
 70
     1
102
RTVSPropertyOp28
 70
     1
102
RTVSPropertyOp29
 70
     1
102
RTVSPropertyOp30
 70
     1
102
RTVSPropertyOp31
 70
     1
102
RTVSPropertyOp32
 70
     1
102
RTVSPropertyOp33
 70
     1
102
RTVSPropertyOp34
 70
     1
102
RTVSPropertyOp35
 70
     1
102
RTVSPropertyOp36
 70
     1
102
RTVSPropertyOp37
 70
     1
102
RTVSPropertyOp38
 70
     1
102
RTVSPropertyOp39
 70
     1
102
RTVSPropertyOp40
 70
     1
102
RTVSPropertyOp41
 70
     1
102
RTVSPropertyOp42
 70
     1
102
RTVSPropertyOp43
 70
     1
102
RTVSPropertyOp44
 70
     1
102
RTVSPropertyOp45
 70
     1
102
RTVSPropertyOp46
 70
     1
102
RTVSPropertyOp47
 70
     1
102
RTVSPropertyOp48
 70
     1
102
RTVSPropertyOp49
 70
     1
102
RTVSPropertyOp50
 70
     1
102
RTVSPropertyOp51
 70
     0
102
RTVSPropertyOp52
 70
     0
102
RTVSPropertyOp53
 70
     1
102
RTVSPropertyOp54
 70
     1
102
RTVSPropertyOp55
 70
     1
102
RTVSPropertyOp56
 70
     1
102
RTVSPropertyOp57
 70
     1
102
RTVSPost2010Prop28
280
     1
102
RTVSPost2010PropOp28
 70
     1
102
RTVSPost2010Prop29
280
     1
102
RTVSPost2010PropOp29
 70
     1
102
RTVSPost2010Prop30
280
     0
102
RTVSPost2010PropOp30
 70
     1
102
RTVSPost2010Prop31
280
     0
102
RTVSPost2010PropOp31
 70
     1
102
RTVSPost2010Prop32
280
     0
102
RTVSPost2010PropOp32
 70
     1
102
RTVSPost2010Prop33
280
     0
102
RTVSPost2010PropOp33
 70
     1
102
RTVSPost2010Prop34
280
     0
102
RTVSPost2010PropOp34
 70
     1
102
RTVSPost2010Prop35
280
     0
102
RTVSPost2010PropOp35
 70
     1
102
RTVSPost2010Prop36
280
     0
102
RTVSPost2010PropOp36
 70
     1
102
RTVSPost2010Prop37
 90
       50
102
RTVSPost2010PropOp37
 70
     1
102
RTVSPost2010Prop38
140
0.0
102
RTVSPost2010PropOp38
 70
     1
102
RTVSPost2010Prop39
140
1.0
102
RTVSPost2010PropOp39
 70
     1
102
RTVSPost2010Prop40
 90
        0
102
RTVSPost2010PropOp40
 70
     1
102
RTVSPost2010Prop41ColorIndex
 90
       18
102
RTVSPost2010Prop41ColorRGB
 90
        0
102
RTVSPost2010PropOp41
 70
     1
102
RTVSPost2010Prop42
 90
       50
102
RTVSPost2010PropOp42
 70
     1
102
RTVSPost2010Prop43
 90
        3
102
RTVSPost2010PropOp43
 70
     1
102
RTVSPost2010Prop44ColorIndex
 90
        5
102
RTVSPost2010Prop44ColorRGB
 90
      255
102
RTVSPost2010PropOp44
 70
     1
102
RTVSPost2010Prop45
280
     0
102
RTVSPost2010PropOp45
 70
     1
102
RTVSPost2010Prop46
 90
       50
102
RTVSPost2010PropOp46
 70
     1
102
RTVSPost2010Prop47
 90
       50
102
RTVSPost2010PropOp47
 70
     1
102
RTVSPost2010Prop48
 90
       50
102
RTVSPost2010PropOp48
 70
     1
102
RTVSPost2010Prop49
280
     0
102
RTVSPost2010PropOp49
 70
     1
102
RTVSPost2010Prop50
 90
       50
102
RTVSPost2010PropOp50
 70
     1
102
RTVSPost2010Prop51ColorIndex
 90
      256
102
RTVSPost2010Prop51ColorRGB
 90
-16777216
102
RTVSPost2010PropOp51
 70
     0
102
RTVSPost2010Prop52
140
1.0
102
RTVSPost2010PropOp52
 70
     0
102
RTVSPost2010Prop53
 90
        2
102
RTVSPost2010PropOp53
 70
     1
102
RTVSPost2010Prop54
  1
strokes_ogs.tif
102
RTVSPost2010PropOp54
 70
     1
102
RTVSPost2010Prop55
280
     0
102
RTVSPost2010PropOp55
 70
     1
102
RTVSPost2010Prop56
140
1.0
102
RTVSPost2010PropOp56
 70
     1
102
RTVSPost2010Prop57
140
1.0
102
RTVSPost2010PropOp57
 70
     1
  0
XRECORD
  5
3BE
102
{ACAD_REACTORS
330
3BD
102
}
330
3BD
100
AcDbXrecord
280
     1
102
RTVSPropertyOp0
 70
     1
102
RTVSPropertyOp1
 70
     1
102
RTVSPropertyOp2
 70
     1
102
RTVSPropertyOp3
 70
     1
102
RTVSPropertyOp4
 70
     1
102
RTVSPropertyOp5
 70
     1
102
RTVSPropertyOp6
 70
     1
102
RTVSPropertyOp7
 70
     1
102
RTVSPropertyOp8
 70
     1
102
RTVSPropertyOp9
 70
     1
102
RTVSPropertyOp10
 70
     1
102
RTVSPropertyOp11
 70
     1
102
RTVSPropertyOp12
 70
     1
102
RTVSPropertyOp13
 70
     1
102
RTVSPropertyOp14
 70
     1
102
RTVSPropertyOp15
 70
     1
102
RTVSPropertyOp16
 70
     1
102
RTVSPropertyOp17
 70
     1
102
RTVSPropertyOp18
 70
     1
102
RTVSPropertyOp19
 70
     1
102
RTVSPropertyOp20
 70
     1
102
RTVSPropertyOp21
 70
     1
102
RTVSPropertyOp22
 70
     1
102
RTVSPropertyOp23
 70
     1
102
RTVSPropertyOp24
 70
     1
102
RTVSPropertyOp25
 70
     1
102
RTVSPropertyOp26
 70
     1
102
RTVSPropertyOp27
 70
     1
102
RTVSPropertyOp28
 70
     1
102
RTVSPropertyOp29
 70
     1
102
RTVSPropertyOp30
 70
     1
102
RTVSPropertyOp31
 70
     1
102
RTVSPropertyOp32
 70
     1
102
RTVSPropertyOp33
 70
     1
102
RTVSPropertyOp34
 70
     1
102
RTVSPropertyOp35
 70
     1
102
RTVSPropertyOp36
 70
     1
102
RTVSPropertyOp37
 70
     1
102
RTVSPropertyOp38
 70
     1
102
RTVSPropertyOp39
 70
     1
102
RTVSPropertyOp40
 70
     1
102
RTVSPropertyOp41
 70
     1
102
RTVSPropertyOp42
 70
     1
102
RTVSPropertyOp43
 70
     1
102
RTVSPropertyOp44
 70
     1
102
RTVSPropertyOp45
 70
     1
102
RTVSPropertyOp46
 70
     1
102
RTVSPropertyOp47
 70
     1
102
RTVSPropertyOp48
 70
     1
102
RTVSPropertyOp49
 70
     1
102
RTVSPropertyOp50
 70
     1
102
RTVSPropertyOp51
 70
     0
102
RTVSPropertyOp52
 70
     0
102
RTVSPropertyOp53
 70
     1
102
RTVSPropertyOp54
 70
     1
102
RTVSPropertyOp55
 70
     1
102
RTVSPropertyOp56
 70
     1
102
RTVSPropertyOp57
 70
     1
102
RTVSPost2010Prop28
280
     0
102
RTVSPost2010PropOp28
 70
     1
102
RTVSPost2010Prop29
280
     1
102
RTVSPost2010PropOp29
 70
     1
102
RTVSPost2010Prop30
280
     1
102
RTVSPost2010PropOp30
 70
     1
102
RTVSPost2010Prop31
280
     0
102
RTVSPost2010PropOp31
 70
     1
102
RTVSPost2010Prop32
280
     0
102
RTVSPost2010PropOp32
 70
     1
102
RTVSPost2010Prop33
280
     0
102
RTVSPost2010PropOp33
 70
     1
102
RTVSPost2010Prop34
280
     0
102
RTVSPost2010PropOp34
 70
     1
102
RTVSPost2010Prop35
280
     0
102
RTVSPost2010PropOp35
 70
     1
102
RTVSPost2010Prop36
280
     0
102
RTVSPost2010PropOp36
 70
     1
102
RTVSPost2010Prop37
 90
       50
102
RTVSPost2010PropOp37
 70
     1
102
RTVSPost2010Prop38
140
0.0
102
RTVSPost2010PropOp38
 70
     1
102
RTVSPost2010Prop39
140
1.0
102
RTVSPost2010PropOp39
 70
     1
102
RTVSPost2010Prop40
 90
        0
102
RTVSPost2010PropOp40
 70
     1
102
RTVSPost2010Prop41ColorIndex
 90
       18
102
RTVSPost2010Prop41ColorRGB
 90
        0
102
RTVSPost2010PropOp41
 70
     1
102
RTVSPost2010Prop42
 90
       50
102
RTVSPost2010PropOp42
 70
     1
102
RTVSPost2010Prop43
 90
        3
102
RTVSPost2010PropOp43
 70
     1
102
RTVSPost2010Prop44ColorIndex
 90
        5
102
RTVSPost2010Prop44ColorRGB
 90
      255
102
RTVSPost2010PropOp44
 70
     1
102
RTVSPost2010Prop45
280
     0
102
RTVSPost2010PropOp45
 70
     1
102
RTVSPost2010Prop46
 90
       50
102
RTVSPost2010PropOp46
 70
     1
102
RTVSPost2010Prop47
 90
       50
102
RTVSPost2010PropOp47
 70
     1
102
RTVSPost2010Prop48
 90
       50
102
RTVSPost2010PropOp48
 70
     1
102
RTVSPost2010Prop49
280
     0
102
RTVSPost2010PropOp49
 70
     1
102
RTVSPost2010Prop50
 90
       50
102
RTVSPost2010PropOp50
 70
     1
102
RTVSPost2010Prop51ColorIndex
 90
      256
102
RTVSPost2010Prop51ColorRGB
 90
-16777216
102
RTVSPost2010PropOp51
 70
     0
102
RTVSPost2010Prop52
140
1.0
102
RTVSPost2010PropOp52
 70
     0
102
RTVSPost2010Prop53
 90
        2
102
RTVSPost2010PropOp53
 70
     1
102
RTVSPost2010Prop54
  1
strokes_ogs.tif
102
RTVSPost2010PropOp54
 70
     1
102
RTVSPost2010Prop55
280
     0
102
RTVSPost2010PropOp55
 70
     1
102
RTVSPost2010Prop56
140
1.0
102
RTVSPost2010PropOp56
 70
     1
102
RTVSPost2010Prop57
140
1.0
102
RTVSPost2010PropOp57
 70
     1
  0
XRECORD
  5
3C0
102
{ACAD_REACTORS
330
3BF
102
}
330
3BF
100
AcDbXrecord
280
     1
102
RTVSPropertyOp0
 70
     1
102
RTVSPropertyOp1
 70
     1
102
RTVSPropertyOp2
 70
     1
102
RTVSPropertyOp3
 70
     1
102
RTVSPropertyOp4
 70
     1
102
RTVSPropertyOp5
 70
     1
102
RTVSPropertyOp6
 70
     1
102
RTVSPropertyOp7
 70
     1
102
RTVSPropertyOp8
 70
     1
102
RTVSPropertyOp9
 70
     1
102
RTVSPropertyOp10
 70
     1
102
RTVSPropertyOp11
 70
     1
102
RTVSPropertyOp12
 70
     1
102
RTVSPropertyOp13
 70
     1
102
RTVSPropertyOp14
 70
     1
102
RTVSPropertyOp15
 70
     1
102
RTVSPropertyOp16
 70
     1
102
RTVSPropertyOp17
 70
     1
102
RTVSPropertyOp18
 70
     1
102
RTVSPropertyOp19
 70
     1
102
RTVSPropertyOp20
 70
     1
102
RTVSPropertyOp21
 70
     1
102
RTVSPropertyOp22
 70
     1
102
RTVSPropertyOp23
 70
     1
102
RTVSPropertyOp24
 70
     1
102
RTVSPropertyOp25
 70
     1
102
RTVSPropertyOp26
 70
     1
102
RTVSPropertyOp27
 70
     1
102
RTVSPropertyOp28
 70
     1
102
RTVSPropertyOp29
 70
     1
102
RTVSPropertyOp30
 70
     1
102
RTVSPropertyOp31
 70
     1
102
RTVSPropertyOp32
 70
     1
102
RTVSPropertyOp33
 70
     1
102
RTVSPropertyOp34
 70
     1
102
RTVSPropertyOp35
 70
     1
102
RTVSPropertyOp36
 70
     1
102
RTVSPropertyOp37
 70
     1
102
RTVSPropertyOp38
 70
     1
102
RTVSPropertyOp39
 70
     1
102
RTVSPropertyOp40
 70
     1
102
RTVSPropertyOp41
 70
     1
102
RTVSPropertyOp42
 70
     1
102
RTVSPropertyOp43
 70
     1
102
RTVSPropertyOp44
 70
     1
102
RTVSPropertyOp45
 70
     1
102
RTVSPropertyOp46
 70
     1
102
RTVSPropertyOp47
 70
     1
102
RTVSPropertyOp48
 70
     1
102
RTVSPropertyOp49
 70
     1
102
RTVSPropertyOp50
 70
     1
102
RTVSPropertyOp51
 70
     0
102
RTVSPropertyOp52
 70
     0
102
RTVSPropertyOp53
 70
     1
102
RTVSPropertyOp54
 70
     1
102
RTVSPropertyOp55
 70
     1
102
RTVSPropertyOp56
 70
     1
102
RTVSPropertyOp57
 70
     1
102
RTVSPost2010Prop28
280
     0
102
RTVSPost2010PropOp28
 70
     1
102
RTVSPost2010Prop29
280
     1
102
RTVSPost2010PropOp29
 70
     1
102
RTVSPost2010Prop30
280
     1
102
RTVSPost2010PropOp30
 70
     1
102
RTVSPost2010Prop31
280
     0
102
RTVSPost2010PropOp31
 70
     1
102
RTVSPost2010Prop32
280
     0
102
RTVSPost2010PropOp32
 70
     1
102
RTVSPost2010Prop33
280
     0
102
RTVSPost2010PropOp33
 70
     1
102
RTVSPost2010Prop34
280
     0
102
RTVSPost2010PropOp34
 70
     1
102
RTVSPost2010Prop35
280
     0
102
RTVSPost2010PropOp35
 70
     1
102
RTVSPost2010Prop36
280
     0
102
RTVSPost2010PropOp36
 70
     1
102
RTVSPost2010Prop37
 90
       50
102
RTVSPost2010PropOp37
 70
     1
102
RTVSPost2010Prop38
140
0.0
102
RTVSPost2010PropOp38
 70
     1
102
RTVSPost2010Prop39
140
1.0
102
RTVSPost2010PropOp39
 70
     1
102
RTVSPost2010Prop40
 90
        0
102
RTVSPost2010PropOp40
 70
     1
102
RTVSPost2010Prop41ColorIndex
 90
       18
102
RTVSPost2010Prop41ColorRGB
 90
        0
102
RTVSPost2010PropOp41
 70
     1
102
RTVSPost2010Prop42
 90
       50
102
RTVSPost2010PropOp42
 70
     1
102
RTVSPost2010Prop43
 90
        3
102
RTVSPost2010PropOp43
 70
     1
102
RTVSPost2010Prop44ColorIndex
 90
        5
102
RTVSPost2010Prop44ColorRGB
 90
      255
102
RTVSPost2010PropOp44
 70
     1
102
RTVSPost2010Prop45
280
     0
102
RTVSPost2010PropOp45
 70
     1
102
RTVSPost2010Prop46
 90
       50
102
RTVSPost2010PropOp46
 70
     1
102
RTVSPost2010Prop47
 90
       50
102
RTVSPost2010PropOp47
 70
     1
102
RTVSPost2010Prop48
 90
       50
102
RTVSPost2010PropOp48
 70
     1
102
RTVSPost2010Prop49
280
     0
102
RTVSPost2010PropOp49
 70
     1
102
RTVSPost2010Prop50
 90
       50
102
RTVSPost2010PropOp50
 70
     1
102
RTVSPost2010Prop51ColorIndex
 90
      256
102
RTVSPost2010Prop51ColorRGB
 90
-16777216
102
RTVSPost2010PropOp51
 70
     0
102
RTVSPost2010Prop52
140
1.0
102
RTVSPost2010PropOp52
 70
     0
102
RTVSPost2010Prop53
 90
        2
102
RTVSPost2010PropOp53
 70
     1
102
RTVSPost2010Prop54
  1
strokes_ogs.tif
102
RTVSPost2010PropOp54
 70
     1
102
RTVSPost2010Prop55
280
     0
102
RTVSPost2010PropOp55
 70
     1
102
RTVSPost2010Prop56
140
1.0
102
RTVSPost2010PropOp56
 70
     1
102
RTVSPost2010Prop57
140
1.0
102
RTVSPost2010PropOp57
 70
     1
  0
XRECORD
  5
3C2
102
{ACAD_REACTORS
330
3C1
102
}
330
3C1
100
AcDbXrecord
280
     1
102
RTVSPropertyOp0
 70
     1
102
RTVSPropertyOp1
 70
     1
102
RTVSPropertyOp2
 70
     1
102
RTVSPropertyOp3
 70
     1
102
RTVSPropertyOp4
 70
     1
102
RTVSPropertyOp5
 70
     1
102
RTVSPropertyOp6
 70
     1
102
RTVSPropertyOp7
 70
     1
102
RTVSPropertyOp8
 70
     1
102
RTVSPropertyOp9
 70
     1
102
RTVSPropertyOp10
 70
     1
102
RTVSPropertyOp11
 70
     1
102
RTVSPropertyOp12
 70
     1
102
RTVSPropertyOp13
 70
     1
102
RTVSPropertyOp14
 70
     1
102
RTVSPropertyOp15
 70
     1
102
RTVSPropertyOp16
 70
     1
102
RTVSPropertyOp17
 70
     1
102
RTVSPropertyOp18
 70
     1
102
RTVSPropertyOp19
 70
     1
102
RTVSPropertyOp20
 70
     1
102
RTVSPropertyOp21
 70
     1
102
RTVSPropertyOp22
 70
     1
102
RTVSPropertyOp23
 70
     1
102
RTVSPropertyOp24
 70
     1
102
RTVSPropertyOp25
 70
     1
102
RTVSPropertyOp26
 70
     1
102
RTVSPropertyOp27
 70
     1
102
RTVSPropertyOp28
 70
     1
102
RTVSPropertyOp29
 70
     1
102
RTVSPropertyOp30
 70
     1
102
RTVSPropertyOp31
 70
     1
102
RTVSPropertyOp32
 70
     1
102
RTVSPropertyOp33
 70
     1
102
RTVSPropertyOp34
 70
     1
102
RTVSPropertyOp35
 70
     1
102
RTVSPropertyOp36
 70
     1
102
RTVSPropertyOp37
 70
     1
102
RTVSPropertyOp38
 70
     1
102
RTVSPropertyOp39
 70
     1
102
RTVSPropertyOp40
 70
     1
102
RTVSPropertyOp41
 70
     1
102
RTVSPropertyOp42
 70
     1
102
RTVSPropertyOp43
 70
     1
102
RTVSPropertyOp44
 70
     1
102
RTVSPropertyOp45
 70
     1
102
RTVSPropertyOp46
 70
     1
102
RTVSPropertyOp47
 70
     1
102
RTVSPropertyOp48
 70
     1
102
RTVSPropertyOp49
 70
     1
102
RTVSPropertyOp50
 70
     1
102
RTVSPropertyOp51
 70
     0
102
RTVSPropertyOp52
 70
     0
102
RTVSPropertyOp53
 70
     1
102
RTVSPropertyOp54
 70
     1
102
RTVSPropertyOp55
 70
     1
102
RTVSPropertyOp56
 70
     1
102
RTVSPropertyOp57
 70
     1
102
RTVSPost2010Prop28
280
     0
102
RTVSPost2010PropOp28
 70
     1
102
RTVSPost2010Prop29
280
     1
102
RTVSPost2010PropOp29
 70
     1
102
RTVSPost2010Prop30
280
     1
102
RTVSPost2010PropOp30
 70
     1
102
RTVSPost2010Prop31
280
     0
102
RTVSPost2010PropOp31
 70
     1
102
RTVSPost2010Prop32
280
     0
102
RTVSPost2010PropOp32
 70
     1
102
RTVSPost2010Prop33
280
     0
102
RTVSPost2010PropOp33
 70
     1
102
RTVSPost2010Prop34
280
     0
102
RTVSPost2010PropOp34
 70
     1
102
RTVSPost2010Prop35
280
     0
102
RTVSPost2010PropOp35
 70
     1
102
RTVSPost2010Prop36
280
     0
102
RTVSPost2010PropOp36
 70
     1
102
RTVSPost2010Prop37
 90
       50
102
RTVSPost2010PropOp37
 70
     1
102
RTVSPost2010Prop38
140
0.0
102
RTVSPost2010PropOp38
 70
     1
102
RTVSPost2010Prop39
140
1.0
102
RTVSPost2010PropOp39
 70
     1
102
RTVSPost2010Prop40
 90
        0
102
RTVSPost2010PropOp40
 70
     1
102
RTVSPost2010Prop41ColorIndex
 90
       18
102
RTVSPost2010Prop41ColorRGB
 90
        0
102
RTVSPost2010PropOp41
 70
     1
102
RTVSPost2010Prop42
 90
       50
102
RTVSPost2010PropOp42
 70
     1
102
RTVSPost2010Prop43
 90
        3
102
RTVSPost2010PropOp43
 70
     1
102
RTVSPost2010Prop44ColorIndex
 90
        5
102
RTVSPost2010Prop44ColorRGB
 90
      255
102
RTVSPost2010PropOp44
 70
     1
102
RTVSPost2010Prop45
280
     0
102
RTVSPost2010PropOp45
 70
     1
102
RTVSPost2010Prop46
 90
       50
102
RTVSPost2010PropOp46
 70
     1
102
RTVSPost2010Prop47
 90
       50
102
RTVSPost2010PropOp47
 70
     1
102
RTVSPost2010Prop48
 90
       50
102
RTVSPost2010PropOp48
 70
     1
102
RTVSPost2010Prop49
280
     0
102
RTVSPost2010PropOp49
 70
     1
102
RTVSPost2010Prop50
 90
       50
102
RTVSPost2010PropOp50
 70
     1
102
RTVSPost2010Prop51ColorIndex
 90
      256
102
RTVSPost2010Prop51ColorRGB
 90
-16777216
102
RTVSPost2010PropOp51
 70
     0
102
RTVSPost2010Prop52
140
1.0
102
RTVSPost2010PropOp52
 70
     0
102
RTVSPost2010Prop53
 90
        2
102
RTVSPost2010PropOp53
 70
     1
102
RTVSPost2010Prop54
  1
strokes_ogs.tif
102
RTVSPost2010PropOp54
 70
     1
102
RTVSPost2010Prop55
280
     0
102
RTVSPost2010PropOp55
 70
     1
102
RTVSPost2010Prop56
140
1.0
102
RTVSPost2010PropOp56
 70
     1
102
RTVSPost2010Prop57
140
1.0
102
RTVSPost2010PropOp57
 70
     1
  0
XRECORD
  5
3C4
102
{ACAD_REACTORS
330
3C3
102
}
330
3C3
100
AcDbXrecord
280
     1
102
RTVSPropertyOp0
 70
     1
102
RTVSPropertyOp1
 70
     1
102
RTVSPropertyOp2
 70
     1
102
RTVSPropertyOp3
 70
     1
102
RTVSPropertyOp4
 70
     1
102
RTVSPropertyOp5
 70
     1
102
RTVSPropertyOp6
 70
     1
102
RTVSPropertyOp7
 70
     1
102
RTVSPropertyOp8
 70
     1
102
RTVSPropertyOp9
 70
     1
102
RTVSPropertyOp10
 70
     1
102
RTVSPropertyOp11
 70
     1
102
RTVSPropertyOp12
 70
     1
102
RTVSPropertyOp13
 70
     1
102
RTVSPropertyOp14
 70
     1
102
RTVSPropertyOp15
 70
     1
102
RTVSPropertyOp16
 70
     1
102
RTVSPropertyOp17
 70
     1
102
RTVSPropertyOp18
 70
     1
102
RTVSPropertyOp19
 70
     1
102
RTVSPropertyOp20
 70
     1
102
RTVSPropertyOp21
 70
     1
102
RTVSPropertyOp22
 70
     1
102
RTVSPropertyOp23
 70
     1
102
RTVSPropertyOp24
 70
     1
102
RTVSPropertyOp25
 70
     1
102
RTVSPropertyOp26
 70
     1
102
RTVSPropertyOp27
 70
     1
102
RTVSPropertyOp28
 70
     1
102
RTVSPropertyOp29
 70
     1
102
RTVSPropertyOp30
 70
     1
102
RTVSPropertyOp31
 70
     1
102
RTVSPropertyOp32
 70
     1
102
RTVSPropertyOp33
 70
     1
102
RTVSPropertyOp34
 70
     1
102
RTVSPropertyOp35
 70
     1
102
RTVSPropertyOp36
 70
     1
102
RTVSPropertyOp37
 70
     1
102
RTVSPropertyOp38
 70
     1
102
RTVSPropertyOp39
 70
     1
102
RTVSPropertyOp40
 70
     1
102
RTVSPropertyOp41
 70
     1
102
RTVSPropertyOp42
 70
     1
102
RTVSPropertyOp43
 70
     1
102
RTVSPropertyOp44
 70
     1
102
RTVSPropertyOp45
 70
     1
102
RTVSPropertyOp46
 70
     1
102
RTVSPropertyOp47
 70
     1
102
RTVSPropertyOp48
 70
     1
102
RTVSPropertyOp49
 70
     1
102
RTVSPropertyOp50
 70
     1
102
RTVSPropertyOp51
 70
     0
102
RTVSPropertyOp52
 70
     0
102
RTVSPropertyOp53
 70
     1
102
RTVSPropertyOp54
 70
     1
102
RTVSPropertyOp55
 70
     1
102
RTVSPropertyOp56
 70
     1
102
RTVSPropertyOp57
 70
     1
102
RTVSPost2010Prop28
280
     0
102
RTVSPost2010PropOp28
 70
     1
102
RTVSPost2010Prop29
280
     1
102
RTVSPost2010PropOp29
 70
     1
102
RTVSPost2010Prop30
280
     1
102
RTVSPost2010PropOp30
 70
     1
102
RTVSPost2010Prop31
280
     0
102
RTVSPost2010PropOp31
 70
     1
102
RTVSPost2010Prop32
280
     0
102
RTVSPost2010PropOp32
 70
     1
102
RTVSPost2010Prop33
280
     0
102
RTVSPost2010PropOp33
 70
     1
102
RTVSPost2010Prop34
280
     0
102
RTVSPost2010PropOp34
 70
     1
102
RTVSPost2010Prop35
280
     0
102
RTVSPost2010PropOp35
 70
     1
102
RTVSPost2010Prop36
280
     0
102
RTVSPost2010PropOp36
 70
     1
102
RTVSPost2010Prop37
 90
       50
102
RTVSPost2010PropOp37
 70
     1
102
RTVSPost2010Prop38
140
0.0
102
RTVSPost2010PropOp38
 70
     1
102
RTVSPost2010Prop39
140
1.0
102
RTVSPost2010PropOp39
 70
     1
102
RTVSPost2010Prop40
 90
        0
102
RTVSPost2010PropOp40
 70
     1
102
RTVSPost2010Prop41ColorIndex
 90
       18
102
RTVSPost2010Prop41ColorRGB
 90
        0
102
RTVSPost2010PropOp41
 70
     1
102
RTVSPost2010Prop42
 90
       50
102
RTVSPost2010PropOp42
 70
     1
102
RTVSPost2010Prop43
 90
        3
102
RTVSPost2010PropOp43
 70
     1
102
RTVSPost2010Prop44ColorIndex
 90
        5
102
RTVSPost2010Prop44ColorRGB
 90
      255
102
RTVSPost2010PropOp44
 70
     1
102
RTVSPost2010Prop45
280
     0
102
RTVSPost2010PropOp45
 70
     1
102
RTVSPost2010Prop46
 90
       50
102
RTVSPost2010PropOp46
 70
     1
102
RTVSPost2010Prop47
 90
       50
102
RTVSPost2010PropOp47
 70
     1
102
RTVSPost2010Prop48
 90
       50
102
RTVSPost2010PropOp48
 70
     1
102
RTVSPost2010Prop49
280
     0
102
RTVSPost2010PropOp49
 70
     1
102
RTVSPost2010Prop50
 90
       50
102
RTVSPost2010PropOp50
 70
     1
102
RTVSPost2010Prop51ColorIndex
 90
      256
102
RTVSPost2010Prop51ColorRGB
 90
-16777216
102
RTVSPost2010PropOp51
 70
     0
102
RTVSPost2010Prop52
140
1.0
102
RTVSPost2010PropOp52
 70
     0
102
RTVSPost2010Prop53
 90
        2
102
RTVSPost2010PropOp53
 70
     1
102
RTVSPost2010Prop54
  1
strokes_ogs.tif
102
RTVSPost2010PropOp54
 70
     1
102
RTVSPost2010Prop55
280
     0
102
RTVSPost2010PropOp55
 70
     1
102
RTVSPost2010Prop56
140
1.0
102
RTVSPost2010PropOp56
 70
     1
102
RTVSPost2010Prop57
140
1.0
102
RTVSPost2010PropOp57
 70
     1
  0
XRECORD
  5
3C6
102
{ACAD_REACTORS
330
3C5
102
}
330
3C5
100
AcDbXrecord
280
     1
102
RTVSPropertyOp0
 70
     1
102
RTVSPropertyOp1
 70
     1
102
RTVSPropertyOp2
 70
     1
102
RTVSPropertyOp3
 70
     1
102
RTVSPropertyOp4
 70
     1
102
RTVSPropertyOp5
 70
     1
102
RTVSPropertyOp6
 70
     1
102
RTVSPropertyOp7
 70
     1
102
RTVSPropertyOp8
 70
     1
102
RTVSPropertyOp9
 70
     1
102
RTVSPropertyOp10
 70
     1
102
RTVSPropertyOp11
 70
     1
102
RTVSPropertyOp12
 70
     1
102
RTVSPropertyOp13
 70
     1
102
RTVSPropertyOp14
 70
     1
102
RTVSPropertyOp15
 70
     1
102
RTVSPropertyOp16
 70
     1
102
RTVSPropertyOp17
 70
     1
102
RTVSPropertyOp18
 70
     1
102
RTVSPropertyOp19
 70
     1
102
RTVSPropertyOp20
 70
     1
102
RTVSPropertyOp21
 70
     1
102
RTVSPropertyOp22
 70
     1
102
RTVSPropertyOp23
 70
     1
102
RTVSPropertyOp24
 70
     1
102
RTVSPropertyOp25
 70
     1
102
RTVSPropertyOp26
 70
     1
102
RTVSPropertyOp27
 70
     1
102
RTVSPropertyOp28
 70
     1
102
RTVSPropertyOp29
 70
     1
102
RTVSPropertyOp30
 70
     1
102
RTVSPropertyOp31
 70
     1
102
RTVSPropertyOp32
 70
     1
102
RTVSPropertyOp33
 70
     1
102
RTVSPropertyOp34
 70
     1
102
RTVSPropertyOp35
 70
     1
102
RTVSPropertyOp36
 70
     1
102
RTVSPropertyOp37
 70
     1
102
RTVSPropertyOp38
 70
     1
102
RTVSPropertyOp39
 70
     1
102
RTVSPropertyOp40
 70
     1
102
RTVSPropertyOp41
 70
     1
102
RTVSPropertyOp42
 70
     1
102
RTVSPropertyOp43
 70
     1
102
RTVSPropertyOp44
 70
     1
102
RTVSPropertyOp45
 70
     1
102
RTVSPropertyOp46
 70
     1
102
RTVSPropertyOp47
 70
     1
102
RTVSPropertyOp48
 70
     1
102
RTVSPropertyOp49
 70
     1
102
RTVSPropertyOp50
 70
     1
102
RTVSPropertyOp51
 70
     0
102
RTVSPropertyOp52
 70
     0
102
RTVSPropertyOp53
 70
     1
102
RTVSPropertyOp54
 70
     1
102
RTVSPropertyOp55
 70
     1
102
RTVSPropertyOp56
 70
     1
102
RTVSPropertyOp57
 70
     1
102
RTVSPost2010Prop28
280
     0
102
RTVSPost2010PropOp28
 70
     1
102
RTVSPost2010Prop29
280
     1
102
RTVSPost2010PropOp29
 70
     1
102
RTVSPost2010Prop30
280
     1
102
RTVSPost2010PropOp30
 70
     1
102
RTVSPost2010Prop31
280
     0
102
RTVSPost2010PropOp31
 70
     1
102
RTVSPost2010Prop32
280
     0
102
RTVSPost2010PropOp32
 70
     1
102
RTVSPost2010Prop33
280
     0
102
RTVSPost2010PropOp33
 70
     1
102
RTVSPost2010Prop34
280
     0
102
RTVSPost2010PropOp34
 70
     1
102
RTVSPost2010Prop35
280
     0
102
RTVSPost2010PropOp35
 70
     1
102
RTVSPost2010Prop36
280
     0
102
RTVSPost2010PropOp36
 70
     1
102
RTVSPost2010Prop37
 90
       50
102
RTVSPost2010PropOp37
 70
     1
102
RTVSPost2010Prop38
140
0.0
102
RTVSPost2010PropOp38
 70
     1
102
RTVSPost2010Prop39
140
1.0
102
RTVSPost2010PropOp39
 70
     1
102
RTVSPost2010Prop40
 90
        0
102
RTVSPost2010PropOp40
 70
     1
102
RTVSPost2010Prop41ColorIndex
 90
       18
102
RTVSPost2010Prop41ColorRGB
 90
        0
102
RTVSPost2010PropOp41
 70
     1
102
RTVSPost2010Prop42
 90
       50
102
RTVSPost2010PropOp42
 70
     1
102
RTVSPost2010Prop43
 90
        3
102
RTVSPost2010PropOp43
 70
     1
102
RTVSPost2010Prop44ColorIndex
 90
        5
102
RTVSPost2010Prop44ColorRGB
 90
      255
102
RTVSPost2010PropOp44
 70
     1
102
RTVSPost2010Prop45
280
     0
102
RTVSPost2010PropOp45
 70
     1
102
RTVSPost2010Prop46
 90
       50
102
RTVSPost2010PropOp46
 70
     1
102
RTVSPost2010Prop47
 90
       50
102
RTVSPost2010PropOp47
 70
     1
102
RTVSPost2010Prop48
 90
       50
102
RTVSPost2010PropOp48
 70
     1
102
RTVSPost2010Prop49
280
     0
102
RTVSPost2010PropOp49
 70
     1
102
RTVSPost2010Prop50
 90
       50
102
RTVSPost2010PropOp50
 70
     1
102
RTVSPost2010Prop51ColorIndex
 90
      256
102
RTVSPost2010Prop51ColorRGB
 90
-16777216
102
RTVSPost2010PropOp51
 70
     0
102
RTVSPost2010Prop52
140
1.0
102
RTVSPost2010PropOp52
 70
     0
102
RTVSPost2010Prop53
 90
        2
102
RTVSPost2010PropOp53
 70
     1
102
RTVSPost2010Prop54
  1
strokes_ogs.tif
102
RTVSPost2010PropOp54
 70
     1
102
RTVSPost2010Prop55
280
     0
102
RTVSPost2010PropOp55
 70
     1
102
RTVSPost2010Prop56
140
1.0
102
RTVSPost2010PropOp56
 70
     1
102
RTVSPost2010Prop57
140
1.0
102
RTVSPost2010PropOp57
 70
     1
  0
XRECORD
  5
3C8
102
{ACAD_REACTORS
330
3C7
102
}
330
3C7
100
AcDbXrecord
280
     1
102
RTVSPropertyOp0
 70
     0
102
RTVSPropertyOp1
 70
     0
102
RTVSPropertyOp2
 70
     0
102
RTVSPropertyOp3
 70
     0
102
RTVSPropertyOp4
 70
     0
102
RTVSPropertyOp5
 70
     0
102
RTVSPropertyOp6
 70
     0
102
RTVSPropertyOp7
 70
     0
102
RTVSPropertyOp8
 70
     0
102
RTVSPropertyOp9
 70
     0
102
RTVSPropertyOp10
 70
     0
102
RTVSPropertyOp11
 70
     0
102
RTVSPropertyOp12
 70
     0
102
RTVSPropertyOp13
 70
     0
102
RTVSPropertyOp14
 70
     0
102
RTVSPropertyOp15
 70
     0
102
RTVSPropertyOp16
 70
     0
102
RTVSPropertyOp17
 70
     0
102
RTVSPropertyOp18
 70
     0
102
RTVSPropertyOp19
 70
     0
102
RTVSPropertyOp20
 70
     0
102
RTVSPropertyOp21
 70
     0
102
RTVSPropertyOp22
 70
     0
102
RTVSPropertyOp23
 70
     0
102
RTVSPropertyOp24
 70
     0
102
RTVSPropertyOp25
 70
     0
102
RTVSPropertyOp26
 70
     0
102
RTVSPropertyOp27
 70
     0
102
RTVSPropertyOp28
 70
     1
102
RTVSPropertyOp29
 70
     1
102
RTVSPropertyOp30
 70
     1
102
RTVSPropertyOp31
 70
     1
102
RTVSPropertyOp32
 70
     1
102
RTVSPropertyOp33
 70
     1
102
RTVSPropertyOp34
 70
     1
102
RTVSPropertyOp35
 70
     1
102
RTVSPropertyOp36
 70
     1
102
RTVSPropertyOp37
 70
     1
102
RTVSPropertyOp38
 70
     1
102
RTVSPropertyOp39
 70
     1
102
RTVSPropertyOp40
 70
     1
102
RTVSPropertyOp41
 70
     1
102
RTVSPropertyOp42
 70
     1
102
RTVSPropertyOp43
 70
     1
102
RTVSPropertyOp44
 70
     1
102
RTVSPropertyOp45
 70
     1
102
RTVSPropertyOp46
 70
     1
102
RTVSPropertyOp47
 70
     1
102
RTVSPropertyOp48
 70
     1
102
RTVSPropertyOp49
 70
     1
102
RTVSPropertyOp50
 70
     1
102
RTVSPropertyOp51
 70
     0
102
RTVSPropertyOp52
 70
     0
102
RTVSPropertyOp53
 70
     1
102
RTVSPropertyOp54
 70
     1
102
RTVSPropertyOp55
 70
     1
102
RTVSPropertyOp56
 70
     1
102
RTVSPropertyOp57
 70
     1
102
RTVSPost2010Prop28
280
     0
102
RTVSPost2010PropOp28
 70
     1
102
RTVSPost2010Prop29
280
     1
102
RTVSPost2010PropOp29
 70
     1
102
RTVSPost2010Prop30
280
     1
102
RTVSPost2010PropOp30
 70
     1
102
RTVSPost2010Prop31
280
     0
102
RTVSPost2010PropOp31
 70
     1
102
RTVSPost2010Prop32
280
     0
102
RTVSPost2010PropOp32
 70
     1
102
RTVSPost2010Prop33
280
     0
102
RTVSPost2010PropOp33
 70
     1
102
RTVSPost2010Prop34
280
     0
102
RTVSPost2010PropOp34
 70
     1
102
RTVSPost2010Prop35
280
     0
102
RTVSPost2010PropOp35
 70
     1
102
RTVSPost2010Prop36
280
     0
102
RTVSPost2010PropOp36
 70
     1
102
RTVSPost2010Prop37
 90
       50
102
RTVSPost2010PropOp37
 70
     1
102
RTVSPost2010Prop38
140
0.0
102
RTVSPost2010PropOp38
 70
     1
102
RTVSPost2010Prop39
140
1.0
102
RTVSPost2010PropOp39
 70
     1
102
RTVSPost2010Prop40
 90
        0
102
RTVSPost2010PropOp40
 70
     1
102
RTVSPost2010Prop41ColorIndex
 90
       18
102
RTVSPost2010Prop41ColorRGB
 90
        0
102
RTVSPost2010PropOp41
 70
     1
102
RTVSPost2010Prop42
 90
       50
102
RTVSPost2010PropOp42
 70
     1
102
RTVSPost2010Prop43
 90
        3
102
RTVSPost2010PropOp43
 70
     1
102
RTVSPost2010Prop44ColorIndex
 90
        5
102
RTVSPost2010Prop44ColorRGB
 90
      255
102
RTVSPost2010PropOp44
 70
     1
102
RTVSPost2010Prop45
280
     0
102
RTVSPost2010PropOp45
 70
     1
102
RTVSPost2010Prop46
 90
       50
102
RTVSPost2010PropOp46
 70
     1
102
RTVSPost2010Prop47
 90
       50
102
RTVSPost2010PropOp47
 70
     1
102
RTVSPost2010Prop48
 90
       50
102
RTVSPost2010PropOp48
 70
     1
102
RTVSPost2010Prop49
280
     0
102
RTVSPost2010PropOp49
 70
     1
102
RTVSPost2010Prop50
 90
       50
102
RTVSPost2010PropOp50
 70
     1
102
RTVSPost2010Prop51ColorIndex
 90
      256
102
RTVSPost2010Prop51ColorRGB
 90
-16777216
102
RTVSPost2010PropOp51
 70
     0
102
RTVSPost2010Prop52
140
1.0
102
RTVSPost2010PropOp52
 70
     0
102
RTVSPost2010Prop53
 90
        2
102
RTVSPost2010PropOp53
 70
     1
102
RTVSPost2010Prop54
  1
strokes_ogs.tif
102
RTVSPost2010PropOp54
 70
     1
102
RTVSPost2010Prop55
280
     0
102
RTVSPost2010PropOp55
 70
     1
102
RTVSPost2010Prop56
140
1.0
102
RTVSPost2010PropOp56
 70
     1
102
RTVSPost2010Prop57
140
1.0
102
RTVSPost2010PropOp57
 70
     1
  0
XRECORD
  5
3CA
102
{ACAD_REACTORS
330
3C9
102
}
330
3C9
100
AcDbXrecord
280
     1
102
RTVSPropertyOp0
 70
     1
102
RTVSPropertyOp1
 70
     1
102
RTVSPropertyOp2
 70
     1
102
RTVSPropertyOp3
 70
     1
102
RTVSPropertyOp4
 70
     1
102
RTVSPropertyOp5
 70
     1
102
RTVSPropertyOp6
 70
     1
102
RTVSPropertyOp7
 70
     1
102
RTVSPropertyOp8
 70
     1
102
RTVSPropertyOp9
 70
     1
102
RTVSPropertyOp10
 70
     1
102
RTVSPropertyOp11
 70
     1
102
RTVSPropertyOp12
 70
     1
102
RTVSPropertyOp13
 70
     1
102
RTVSPropertyOp14
 70
     1
102
RTVSPropertyOp15
 70
     1
102
RTVSPropertyOp16
 70
     1
102
RTVSPropertyOp17
 70
     1
102
RTVSPropertyOp18
 70
     1
102
RTVSPropertyOp19
 70
     1
102
RTVSPropertyOp20
 70
     1
102
RTVSPropertyOp21
 70
     1
102
RTVSPropertyOp22
 70
     1
102
RTVSPropertyOp23
 70
     1
102
RTVSPropertyOp24
 70
     1
102
RTVSPropertyOp25
 70
     1
102
RTVSPropertyOp26
 70
     1
102
RTVSPropertyOp27
 70
     1
102
RTVSPropertyOp28
 70
     1
102
RTVSPropertyOp29
 70
     1
102
RTVSPropertyOp30
 70
     1
102
RTVSPropertyOp31
 70
     1
102
RTVSPropertyOp32
 70
     1
102
RTVSPropertyOp33
 70
     1
102
RTVSPropertyOp34
 70
     1
102
RTVSPropertyOp35
 70
     1
102
RTVSPropertyOp36
 70
     1
102
RTVSPropertyOp37
 70
     1
102
RTVSPropertyOp38
 70
     1
102
RTVSPropertyOp39
 70
     1
102
RTVSPropertyOp40
 70
     1
102
RTVSPropertyOp41
 70
     1
102
RTVSPropertyOp42
 70
     1
102
RTVSPropertyOp43
 70
     1
102
RTVSPropertyOp44
 70
     1
102
RTVSPropertyOp45
 70
     1
102
RTVSPropertyOp46
 70
     1
102
RTVSPropertyOp47
 70
     1
102
RTVSPropertyOp48
 70
     1
102
RTVSPropertyOp49
 70
     1
102
RTVSPropertyOp50
 70
     1
102
RTVSPropertyOp51
 70
     0
102
RTVSPropertyOp52
 70
     0
102
RTVSPropertyOp53
 70
     1
102
RTVSPropertyOp54
 70
     1
102
RTVSPropertyOp55
 70
     1
102
RTVSPropertyOp56
 70
     1
102
RTVSPropertyOp57
 70
     1
102
RTVSPost2010Prop28
280
     0
102
RTVSPost2010PropOp28
 70
     1
102
RTVSPost2010Prop29
280
     1
102
RTVSPost2010PropOp29
 70
     1
102
RTVSPost2010Prop30
280
     1
102
RTVSPost2010PropOp30
 70
     1
102
RTVSPost2010Prop31
280
     0
102
RTVSPost2010PropOp31
 70
     1
102
RTVSPost2010Prop32
280
     0
102
RTVSPost2010PropOp32
 70
     1
102
RTVSPost2010Prop33
280
     0
102
RTVSPost2010PropOp33
 70
     1
102
RTVSPost2010Prop34
280
     0
102
RTVSPost2010PropOp34
 70
     1
102
RTVSPost2010Prop35
280
     0
102
RTVSPost2010PropOp35
 70
     1
102
RTVSPost2010Prop36
280
     0
102
RTVSPost2010PropOp36
 70
     1
102
RTVSPost2010Prop37
 90
       50
102
RTVSPost2010PropOp37
 70
     1
102
RTVSPost2010Prop38
140
0.0
102
RTVSPost2010PropOp38
 70
     1
102
RTVSPost2010Prop39
140
1.0
102
RTVSPost2010PropOp39
 70
     1
102
RTVSPost2010Prop40
 90
        0
102
RTVSPost2010PropOp40
 70
     1
102
RTVSPost2010Prop41ColorIndex
 90
       18
102
RTVSPost2010Prop41ColorRGB
 90
        0
102
RTVSPost2010PropOp41
 70
     1
102
RTVSPost2010Prop42
 90
       50
102
RTVSPost2010PropOp42
 70
     1
102
RTVSPost2010Prop43
 90
        3
102
RTVSPost2010PropOp43
 70
     1
102
RTVSPost2010Prop44ColorIndex
 90
        5
102
RTVSPost2010Prop44ColorRGB
 90
      255
102
RTVSPost2010PropOp44
 70
     1
102
RTVSPost2010Prop45
280
     0
102
RTVSPost2010PropOp45
 70
     1
102
RTVSPost2010Prop46
 90
       50
102
RTVSPost2010PropOp46
 70
     1
102
RTVSPost2010Prop47
 90
       50
102
RTVSPost2010PropOp47
 70
     1
102
RTVSPost2010Prop48
 90
       50
102
RTVSPost2010PropOp48
 70
     1
102
RTVSPost2010Prop49
280
     0
102
RTVSPost2010PropOp49
 70
     1
102
RTVSPost2010Prop50
 90
       50
102
RTVSPost2010PropOp50
 70
     1
102
RTVSPost2010Prop51ColorIndex
 90
      256
102
RTVSPost2010Prop51ColorRGB
 90
-16777216
102
RTVSPost2010PropOp51
 70
     0
102
RTVSPost2010Prop52
140
1.0
102
RTVSPost2010PropOp52
 70
     0
102
RTVSPost2010Prop53
 90
        2
102
RTVSPost2010PropOp53
 70
     1
102
RTVSPost2010Prop54
  1
strokes_ogs.tif
102
RTVSPost2010PropOp54
 70
     1
102
RTVSPost2010Prop55
280
     0
102
RTVSPost2010PropOp55
 70
     1
102
RTVSPost2010Prop56
140
1.0
102
RTVSPost2010PropOp56
 70
     1
102
RTVSPost2010Prop57
140
1.0
102
RTVSPost2010PropOp57
 70
     1
  0
XRECORD
  5
3CC
102
{ACAD_REACTORS
330
3CB
102
}
330
3CB
100
AcDbXrecord
280
     1
102
RTVSPropertyOp0
 70
     1
102
RTVSPropertyOp1
 70
     1
102
RTVSPropertyOp2
 70
     1
102
RTVSPropertyOp3
 70
     1
102
RTVSPropertyOp4
 70
     1
102
RTVSPropertyOp5
 70
     1
102
RTVSPropertyOp6
 70
     1
102
RTVSPropertyOp7
 70
     1
102
RTVSPropertyOp8
 70
     1
102
RTVSPropertyOp9
 70
     1
102
RTVSPropertyOp10
 70
     1
102
RTVSPropertyOp11
 70
     1
102
RTVSPropertyOp12
 70
     1
102
RTVSPropertyOp13
 70
     1
102
RTVSPropertyOp14
 70
     1
102
RTVSPropertyOp15
 70
     1
102
RTVSPropertyOp16
 70
     1
102
RTVSPropertyOp17
 70
     1
102
RTVSPropertyOp18
 70
     1
102
RTVSPropertyOp19
 70
     1
102
RTVSPropertyOp20
 70
     1
102
RTVSPropertyOp21
 70
     1
102
RTVSPropertyOp22
 70
     1
102
RTVSPropertyOp23
 70
     1
102
RTVSPropertyOp24
 70
     1
102
RTVSPropertyOp25
 70
     1
102
RTVSPropertyOp26
 70
     1
102
RTVSPropertyOp27
 70
     1
102
RTVSPropertyOp28
 70
     1
102
RTVSPropertyOp29
 70
     1
102
RTVSPropertyOp30
 70
     1
102
RTVSPropertyOp31
 70
     1
102
RTVSPropertyOp32
 70
     1
102
RTVSPropertyOp33
 70
     1
102
RTVSPropertyOp34
 70
     1
102
RTVSPropertyOp35
 70
     1
102
RTVSPropertyOp36
 70
     1
102
RTVSPropertyOp37
 70
     1
102
RTVSPropertyOp38
 70
     1
102
RTVSPropertyOp39
 70
     1
102
RTVSPropertyOp40
 70
     1
102
RTVSPropertyOp41
 70
     1
102
RTVSPropertyOp42
 70
     1
102
RTVSPropertyOp43
 70
     1
102
RTVSPropertyOp44
 70
     1
102
RTVSPropertyOp45
 70
     1
102
RTVSPropertyOp46
 70
     1
102
RTVSPropertyOp47
 70
     1
102
RTVSPropertyOp48
 70
     1
102
RTVSPropertyOp49
 70
     1
102
RTVSPropertyOp50
 70
     1
102
RTVSPropertyOp51
 70
     0
102
RTVSPropertyOp52
 70
     0
102
RTVSPropertyOp53
 70
     1
102
RTVSPropertyOp54
 70
     1
102
RTVSPropertyOp55
 70
     1
102
RTVSPropertyOp56
 70
     1
102
RTVSPropertyOp57
 70
     1
102
RTVSPost2010Prop28
280
     0
102
RTVSPost2010PropOp28
 70
     1
102
RTVSPost2010Prop29
280
     1
102
RTVSPost2010PropOp29
 70
     1
102
RTVSPost2010Prop30
280
     1
102
RTVSPost2010PropOp30
 70
     1
102
RTVSPost2010Prop31
280
     0
102
RTVSPost2010PropOp31
 70
     1
102
RTVSPost2010Prop32
280
     0
102
RTVSPost2010PropOp32
 70
     1
102
RTVSPost2010Prop33
280
     0
102
RTVSPost2010PropOp33
 70
     1
102
RTVSPost2010Prop34
280
     0
102
RTVSPost2010PropOp34
 70
     1
102
RTVSPost2010Prop35
280
     0
102
RTVSPost2010PropOp35
 70
     1
102
RTVSPost2010Prop36
280
     0
102
RTVSPost2010PropOp36
 70
     1
102
RTVSPost2010Prop37
 90
       50
102
RTVSPost2010PropOp37
 70
     1
102
RTVSPost2010Prop38
140
0.0
102
RTVSPost2010PropOp38
 70
     1
102
RTVSPost2010Prop39
140
1.0
102
RTVSPost2010PropOp39
 70
     1
102
RTVSPost2010Prop40
 90
        0
102
RTVSPost2010PropOp40
 70
     1
102
RTVSPost2010Prop41ColorIndex
 90
       18
102
RTVSPost2010Prop41ColorRGB
 90
        0
102
RTVSPost2010PropOp41
 70
     1
102
RTVSPost2010Prop42
 90
       50
102
RTVSPost2010PropOp42
 70
     1
102
RTVSPost2010Prop43
 90
        3
102
RTVSPost2010PropOp43
 70
     1
102
RTVSPost2010Prop44ColorIndex
 90
        5
102
RTVSPost2010Prop44ColorRGB
 90
      255
102
RTVSPost2010PropOp44
 70
     1
102
RTVSPost2010Prop45
280
     0
102
RTVSPost2010PropOp45
 70
     1
102
RTVSPost2010Prop46
 90
       50
102
RTVSPost2010PropOp46
 70
     1
102
RTVSPost2010Prop47
 90
       50
102
RTVSPost2010PropOp47
 70
     1
102
RTVSPost2010Prop48
 90
       50
102
RTVSPost2010PropOp48
 70
     1
102
RTVSPost2010Prop49
280
     0
102
RTVSPost2010PropOp49
 70
     1
102
RTVSPost2010Prop50
 90
       50
102
RTVSPost2010PropOp50
 70
     1
102
RTVSPost2010Prop51ColorIndex
 90
      256
102
RTVSPost2010Prop51ColorRGB
 90
-16777216
102
RTVSPost2010PropOp51
 70
     0
102
RTVSPost2010Prop52
140
1.0
102
RTVSPost2010PropOp52
 70
     0
102
RTVSPost2010Prop53
 90
        2
102
RTVSPost2010PropOp53
 70
     1
102
RTVSPost2010Prop54
  1
strokes_ogs.tif
102
RTVSPost2010PropOp54
 70
     1
102
RTVSPost2010Prop55
280
     0
102
RTVSPost2010PropOp55
 70
     1
102
RTVSPost2010Prop56
140
1.0
102
RTVSPost2010PropOp56
 70
     1
102
RTVSPost2010Prop57
140
1.0
102
RTVSPost2010PropOp57
 70
     1
  0
XRECORD
  5
3CE
102
{ACAD_REACTORS
330
3CD
102
}
330
3CD
100
AcDbXrecord
280
     1
102
RTVSPropertyOp0
 70
     1
102
RTVSPropertyOp1
 70
     1
102
RTVSPropertyOp2
 70
     1
102
RTVSPropertyOp3
 70
     1
102
RTVSPropertyOp4
 70
     1
102
RTVSPropertyOp5
 70
     1
102
RTVSPropertyOp6
 70
     1
102
RTVSPropertyOp7
 70
     1
102
RTVSPropertyOp8
 70
     1
102
RTVSPropertyOp9
 70
     1
102
RTVSPropertyOp10
 70
     1
102
RTVSPropertyOp11
 70
     1
102
RTVSPropertyOp12
 70
     1
102
RTVSPropertyOp13
 70
     1
102
RTVSPropertyOp14
 70
     1
102
RTVSPropertyOp15
 70
     1
102
RTVSPropertyOp16
 70
     1
102
RTVSPropertyOp17
 70
     1
102
RTVSPropertyOp18
 70
     1
102
RTVSPropertyOp19
 70
     1
102
RTVSPropertyOp20
 70
     1
102
RTVSPropertyOp21
 70
     1
102
RTVSPropertyOp22
 70
     1
102
RTVSPropertyOp23
 70
     1
102
RTVSPropertyOp24
 70
     1
102
RTVSPropertyOp25
 70
     1
102
RTVSPropertyOp26
 70
     1
102
RTVSPropertyOp27
 70
     1
102
RTVSPropertyOp28
 70
     1
102
RTVSPropertyOp29
 70
     1
102
RTVSPropertyOp30
 70
     1
102
RTVSPropertyOp31
 70
     1
102
RTVSPropertyOp32
 70
     1
102
RTVSPropertyOp33
 70
     1
102
RTVSPropertyOp34
 70
     1
102
RTVSPropertyOp35
 70
     1
102
RTVSPropertyOp36
 70
     1
102
RTVSPropertyOp37
 70
     1
102
RTVSPropertyOp38
 70
     1
102
RTVSPropertyOp39
 70
     1
102
RTVSPropertyOp40
 70
     1
102
RTVSPropertyOp41
 70
     1
102
RTVSPropertyOp42
 70
     1
102
RTVSPropertyOp43
 70
     1
102
RTVSPropertyOp44
 70
     1
102
RTVSPropertyOp45
 70
     1
102
RTVSPropertyOp46
 70
     1
102
RTVSPropertyOp47
 70
     1
102
RTVSPropertyOp48
 70
     1
102
RTVSPropertyOp49
 70
     1
102
RTVSPropertyOp50
 70
     1
102
RTVSPropertyOp51
 70
     0
102
RTVSPropertyOp52
 70
     0
102
RTVSPropertyOp53
 70
     1
102
RTVSPropertyOp54
 70
     1
102
RTVSPropertyOp55
 70
     1
102
RTVSPropertyOp56
 70
     1
102
RTVSPropertyOp57
 70
     1
102
RTVSPost2010Prop28
280
     0
102
RTVSPost2010PropOp28
 70
     1
102
RTVSPost2010Prop29
280
     1
102
RTVSPost2010PropOp29
 70
     1
102
RTVSPost2010Prop30
280
     1
102
RTVSPost2010PropOp30
 70
     1
102
RTVSPost2010Prop31
280
     0
102
RTVSPost2010PropOp31
 70
     1
102
RTVSPost2010Prop32
280
     0
102
RTVSPost2010PropOp32
 70
     1
102
RTVSPost2010Prop33
280
     0
102
RTVSPost2010PropOp33
 70
     1
102
RTVSPost2010Prop34
280
     0
102
RTVSPost2010PropOp34
 70
     1
102
RTVSPost2010Prop35
280
     0
102
RTVSPost2010PropOp35
 70
     1
102
RTVSPost2010Prop36
280
     0
102
RTVSPost2010PropOp36
 70
     1
102
RTVSPost2010Prop37
 90
       50
102
RTVSPost2010PropOp37
 70
     1
102
RTVSPost2010Prop38
140
0.0
102
RTVSPost2010PropOp38
 70
     1
102
RTVSPost2010Prop39
140
1.0
102
RTVSPost2010PropOp39
 70
     1
102
RTVSPost2010Prop40
 90
        0
102
RTVSPost2010PropOp40
 70
     1
102
RTVSPost2010Prop41ColorIndex
 90
       18
102
RTVSPost2010Prop41ColorRGB
 90
        0
102
RTVSPost2010PropOp41
 70
     1
102
RTVSPost2010Prop42
 90
       50
102
RTVSPost2010PropOp42
 70
     1
102
RTVSPost2010Prop43
 90
        3
102
RTVSPost2010PropOp43
 70
     1
102
RTVSPost2010Prop44ColorIndex
 90
        5
102
RTVSPost2010Prop44ColorRGB
 90
      255
102
RTVSPost2010PropOp44
 70
     1
102
RTVSPost2010Prop45
280
     0
102
RTVSPost2010PropOp45
 70
     1
102
RTVSPost2010Prop46
 90
       50
102
RTVSPost2010PropOp46
 70
     1
102
RTVSPost2010Prop47
 90
       50
102
RTVSPost2010PropOp47
 70
     1
102
RTVSPost2010Prop48
 90
       50
102
RTVSPost2010PropOp48
 70
     1
102
RTVSPost2010Prop49
280
     0
102
RTVSPost2010PropOp49
 70
     1
102
RTVSPost2010Prop50
 90
       50
102
RTVSPost2010PropOp50
 70
     1
102
RTVSPost2010Prop51ColorIndex
 90
      256
102
RTVSPost2010Prop51ColorRGB
 90
-16777216
102
RTVSPost2010PropOp51
 70
     0
102
RTVSPost2010Prop52
140
1.0
102
RTVSPost2010PropOp52
 70
     0
102
RTVSPost2010Prop53
 90
        2
102
RTVSPost2010PropOp53
 70
     1
102
RTVSPost2010Prop54
  1
strokes_ogs.tif
102
RTVSPost2010PropOp54
 70
     1
102
RTVSPost2010Prop55
280
     0
102
RTVSPost2010PropOp55
 70
     1
102
RTVSPost2010Prop56
140
1.0
102
RTVSPost2010PropOp56
 70
     1
102
RTVSPost2010Prop57
140
1.0
102
RTVSPost2010PropOp57
 70
     1
  0
XRECORD
  5
3D0
102
{ACAD_REACTORS
330
3CF
102
}
330
3CF
100
AcDbXrecord
280
     1
102
RTVSPropertyOp0
 70
     1
102
RTVSPropertyOp1
 70
     1
102
RTVSPropertyOp2
 70
     1
102
RTVSPropertyOp3
 70
     1
102
RTVSPropertyOp4
 70
     1
102
RTVSPropertyOp5
 70
     1
102
RTVSPropertyOp6
 70
     1
102
RTVSPropertyOp7
 70
     1
102
RTVSPropertyOp8
 70
     1
102
RTVSPropertyOp9
 70
     1
102
RTVSPropertyOp10
 70
     1
102
RTVSPropertyOp11
 70
     1
102
RTVSPropertyOp12
 70
     1
102
RTVSPropertyOp13
 70
     1
102
RTVSPropertyOp14
 70
     1
102
RTVSPropertyOp15
 70
     1
102
RTVSPropertyOp16
 70
     1
102
RTVSPropertyOp17
 70
     1
102
RTVSPropertyOp18
 70
     1
102
RTVSPropertyOp19
 70
     1
102
RTVSPropertyOp20
 70
     1
102
RTVSPropertyOp21
 70
     1
102
RTVSPropertyOp22
 70
     1
102
RTVSPropertyOp23
 70
     1
102
RTVSPropertyOp24
 70
     1
102
RTVSPropertyOp25
 70
     1
102
RTVSPropertyOp26
 70
     1
102
RTVSPropertyOp27
 70
     1
102
RTVSPropertyOp28
 70
     1
102
RTVSPropertyOp29
 70
     1
102
RTVSPropertyOp30
 70
     1
102
RTVSPropertyOp31
 70
     1
102
RTVSPropertyOp32
 70
     1
102
RTVSPropertyOp33
 70
     1
102
RTVSPropertyOp34
 70
     1
102
RTVSPropertyOp35
 70
     1
102
RTVSPropertyOp36
 70
     1
102
RTVSPropertyOp37
 70
     1
102
RTVSPropertyOp38
 70
     1
102
RTVSPropertyOp39
 70
     1
102
RTVSPropertyOp40
 70
     1
102
RTVSPropertyOp41
 70
     1
102
RTVSPropertyOp42
 70
     1
102
RTVSPropertyOp43
 70
     1
102
RTVSPropertyOp44
 70
     1
102
RTVSPropertyOp45
 70
     1
102
RTVSPropertyOp46
 70
     1
102
RTVSPropertyOp47
 70
     1
102
RTVSPropertyOp48
 70
     1
102
RTVSPropertyOp49
 70
     1
102
RTVSPropertyOp50
 70
     1
102
RTVSPropertyOp51
 70
     0
102
RTVSPropertyOp52
 70
     0
102
RTVSPropertyOp53
 70
     1
102
RTVSPropertyOp54
 70
     1
102
RTVSPropertyOp55
 70
     1
102
RTVSPropertyOp56
 70
     1
102
RTVSPropertyOp57
 70
     1
102
RTVSPost2010Prop28
280
     0
102
RTVSPost2010PropOp28
 70
     1
102
RTVSPost2010Prop29
280
     1
102
RTVSPost2010PropOp29
 70
     1
102
RTVSPost2010Prop30
280
     1
102
RTVSPost2010PropOp30
 70
     1
102
RTVSPost2010Prop31
280
     0
102
RTVSPost2010PropOp31
 70
     1
102
RTVSPost2010Prop32
280
     0
102
RTVSPost2010PropOp32
 70
     1
102
RTVSPost2010Prop33
280
     0
102
RTVSPost2010PropOp33
 70
     1
102
RTVSPost2010Prop34
280
     0
102
RTVSPost2010PropOp34
 70
     1
102
RTVSPost2010Prop35
280
     0
102
RTVSPost2010PropOp35
 70
     1
102
RTVSPost2010Prop36
280
     0
102
RTVSPost2010PropOp36
 70
     1
102
RTVSPost2010Prop37
 90
       50
102
RTVSPost2010PropOp37
 70
     1
102
RTVSPost2010Prop38
140
0.0
102
RTVSPost2010PropOp38
 70
     1
102
RTVSPost2010Prop39
140
1.0
102
RTVSPost2010PropOp39
 70
     1
102
RTVSPost2010Prop40
 90
        0
102
RTVSPost2010PropOp40
 70
     1
102
RTVSPost2010Prop41ColorIndex
 90
       18
102
RTVSPost2010Prop41ColorRGB
 90
        0
102
RTVSPost2010PropOp41
 70
     1
102
RTVSPost2010Prop42
 90
       50
102
RTVSPost2010PropOp42
 70
     1
102
RTVSPost2010Prop43
 90
        3
102
RTVSPost2010PropOp43
 70
     1
102
RTVSPost2010Prop44ColorIndex
 90
        5
102
RTVSPost2010Prop44ColorRGB
 90
      255
102
RTVSPost2010PropOp44
 70
     1
102
RTVSPost2010Prop45
280
     0
102
RTVSPost2010PropOp45
 70
     1
102
RTVSPost2010Prop46
 90
       50
102
RTVSPost2010PropOp46
 70
     1
102
RTVSPost2010Prop47
 90
       50
102
RTVSPost2010PropOp47
 70
     1
102
RTVSPost2010Prop48
 90
       50
102
RTVSPost2010PropOp48
 70
     1
102
RTVSPost2010Prop49
280
     0
102
RTVSPost2010PropOp49
 70
     1
102
RTVSPost2010Prop50
 90
       50
102
RTVSPost2010PropOp50
 70
     1
102
RTVSPost2010Prop51ColorIndex
 90
      256
102
RTVSPost2010Prop51ColorRGB
 90
-16777216
102
RTVSPost2010PropOp51
 70
     0
102
RTVSPost2010Prop52
140
1.0
102
RTVSPost2010PropOp52
 70
     0
102
RTVSPost2010Prop53
 90
        2
102
RTVSPost2010PropOp53
 70
     1
102
RTVSPost2010Prop54
  1
strokes_ogs.tif
102
RTVSPost2010PropOp54
 70
     1
102
RTVSPost2010Prop55
280
     0
102
RTVSPost2010PropOp55
 70
     1
102
RTVSPost2010Prop56
140
1.0
102
RTVSPost2010PropOp56
 70
     1
102
RTVSPost2010Prop57
140
1.0
102
RTVSPost2010PropOp57
 70
     1
  0
XRECORD
  5
3D2
102
{ACAD_REACTORS
330
3D1
102
}
330
3D1
100
AcDbXrecord
280
     1
102
RTVSPropertyOp0
 70
     1
102
RTVSPropertyOp1
 70
     1
102
RTVSPropertyOp2
 70
     1
102
RTVSPropertyOp3
 70
     1
102
RTVSPropertyOp4
 70
     1
102
RTVSPropertyOp5
 70
     1
102
RTVSPropertyOp6
 70
     1
102
RTVSPropertyOp7
 70
     1
102
RTVSPropertyOp8
 70
     1
102
RTVSPropertyOp9
 70
     1
102
RTVSPropertyOp10
 70
     1
102
RTVSPropertyOp11
 70
     1
102
RTVSPropertyOp12
 70
     1
102
RTVSPropertyOp13
 70
     1
102
RTVSPropertyOp14
 70
     1
102
RTVSPropertyOp15
 70
     1
102
RTVSPropertyOp16
 70
     1
102
RTVSPropertyOp17
 70
     1
102
RTVSPropertyOp18
 70
     1
102
RTVSPropertyOp19
 70
     1
102
RTVSPropertyOp20
 70
     1
102
RTVSPropertyOp21
 70
     1
102
RTVSPropertyOp22
 70
     1
102
RTVSPropertyOp23
 70
     1
102
RTVSPropertyOp24
 70
     1
102
RTVSPropertyOp25
 70
     1
102
RTVSPropertyOp26
 70
     1
102
RTVSPropertyOp27
 70
     1
102
RTVSPropertyOp28
 70
     1
102
RTVSPropertyOp29
 70
     1
102
RTVSPropertyOp30
 70
     1
102
RTVSPropertyOp31
 70
     1
102
RTVSPropertyOp32
 70
     1
102
RTVSPropertyOp33
 70
     1
102
RTVSPropertyOp34
 70
     1
102
RTVSPropertyOp35
 70
     1
102
RTVSPropertyOp36
 70
     1
102
RTVSPropertyOp37
 70
     1
102
RTVSPropertyOp38
 70
     1
102
RTVSPropertyOp39
 70
     1
102
RTVSPropertyOp40
 70
     1
102
RTVSPropertyOp41
 70
     1
102
RTVSPropertyOp42
 70
     1
102
RTVSPropertyOp43
 70
     1
102
RTVSPropertyOp44
 70
     1
102
RTVSPropertyOp45
 70
     1
102
RTVSPropertyOp46
 70
     1
102
RTVSPropertyOp47
 70
     1
102
RTVSPropertyOp48
 70
     1
102
RTVSPropertyOp49
 70
     1
102
RTVSPropertyOp50
 70
     1
102
RTVSPropertyOp51
 70
     0
102
RTVSPropertyOp52
 70
     0
102
RTVSPropertyOp53
 70
     1
102
RTVSPropertyOp54
 70
     1
102
RTVSPropertyOp55
 70
     1
102
RTVSPropertyOp56
 70
     1
102
RTVSPropertyOp57
 70
     1
102
RTVSPost2010Prop28
280
     0
102
RTVSPost2010PropOp28
 70
     1
102
RTVSPost2010Prop29
280
     1
102
RTVSPost2010PropOp29
 70
     1
102
RTVSPost2010Prop30
280
     1
102
RTVSPost2010PropOp30
 70
     1
102
RTVSPost2010Prop31
280
     0
102
RTVSPost2010PropOp31
 70
     1
102
RTVSPost2010Prop32
280
     0
102
RTVSPost2010PropOp32
 70
     1
102
RTVSPost2010Prop33
280
     0
102
RTVSPost2010PropOp33
 70
     1
102
RTVSPost2010Prop34
280
     0
102
RTVSPost2010PropOp34
 70
     1
102
RTVSPost2010Prop35
280
     0
102
RTVSPost2010PropOp35
 70
     1
102
RTVSPost2010Prop36
280
     0
102
RTVSPost2010PropOp36
 70
     1
102
RTVSPost2010Prop37
 90
       50
102
RTVSPost2010PropOp37
 70
     1
102
RTVSPost2010Prop38
140
0.0
102
RTVSPost2010PropOp38
 70
     1
102
RTVSPost2010Prop39
140
1.0
102
RTVSPost2010PropOp39
 70
     1
102
RTVSPost2010Prop40
 90
        0
102
RTVSPost2010PropOp40
 70
     1
102
RTVSPost2010Prop41ColorIndex
 90
       18
102
RTVSPost2010Prop41ColorRGB
 90
        0
102
RTVSPost2010PropOp41
 70
     1
102
RTVSPost2010Prop42
 90
       50
102
RTVSPost2010PropOp42
 70
     1
102
RTVSPost2010Prop43
 90
        3
102
RTVSPost2010PropOp43
 70
     1
102
RTVSPost2010Prop44ColorIndex
 90
        5
102
RTVSPost2010Prop44ColorRGB
 90
      255
102
RTVSPost2010PropOp44
 70
     1
102
RTVSPost2010Prop45
280
     0
102
RTVSPost2010PropOp45
 70
     1
102
RTVSPost2010Prop46
 90
       50
102
RTVSPost2010PropOp46
 70
     1
102
RTVSPost2010Prop47
 90
       50
102
RTVSPost2010PropOp47
 70
     1
102
RTVSPost2010Prop48
 90
       50
102
RTVSPost2010PropOp48
 70
     1
102
RTVSPost2010Prop49
280
     0
102
RTVSPost2010PropOp49
 70
     1
102
RTVSPost2010Prop50
 90
       50
102
RTVSPost2010PropOp50
 70
     1
102
RTVSPost2010Prop51ColorIndex
 90
      256
102
RTVSPost2010Prop51ColorRGB
 90
-16777216
102
RTVSPost2010PropOp51
 70
     0
102
RTVSPost2010Prop52
140
1.0
102
RTVSPost2010PropOp52
 70
     0
102
RTVSPost2010Prop53
 90
        2
102
RTVSPost2010PropOp53
 70
     1
102
RTVSPost2010Prop54
  1
strokes_ogs.tif
102
RTVSPost2010PropOp54
 70
     1
102
RTVSPost2010Prop55
280
     0
102
RTVSPost2010PropOp55
 70
     1
102
RTVSPost2010Prop56
140
1.0
102
RTVSPost2010PropOp56
 70
     1
102
RTVSPost2010Prop57
140
1.0
102
RTVSPost2010PropOp57
 70
     1
  0
XRECORD
  5
3D4
102
{ACAD_REACTORS
330
3D3
102
}
330
3D3
100
AcDbXrecord
280
     1
102
RTVSPropertyOp0
 70
     1
102
RTVSPropertyOp1
 70
     1
102
RTVSPropertyOp2
 70
     1
102
RTVSPropertyOp3
 70
     1
102
RTVSPropertyOp4
 70
     1
102
RTVSPropertyOp5
 70
     1
102
RTVSPropertyOp6
 70
     1
102
RTVSPropertyOp7
 70
     1
102
RTVSPropertyOp8
 70
     1
102
RTVSPropertyOp9
 70
     1
102
RTVSPropertyOp10
 70
     1
102
RTVSPropertyOp11
 70
     1
102
RTVSPropertyOp12
 70
     1
102
RTVSPropertyOp13
 70
     1
102
RTVSPropertyOp14
 70
     1
102
RTVSPropertyOp15
 70
     1
102
RTVSPropertyOp16
 70
     1
102
RTVSPropertyOp17
 70
     1
102
RTVSPropertyOp18
 70
     1
102
RTVSPropertyOp19
 70
     1
102
RTVSPropertyOp20
 70
     1
102
RTVSPropertyOp21
 70
     1
102
RTVSPropertyOp22
 70
     1
102
RTVSPropertyOp23
 70
     1
102
RTVSPropertyOp24
 70
     1
102
RTVSPropertyOp25
 70
     1
102
RTVSPropertyOp26
 70
     1
102
RTVSPropertyOp27
 70
     1
102
RTVSPropertyOp28
 70
     1
102
RTVSPropertyOp29
 70
     1
102
RTVSPropertyOp30
 70
     1
102
RTVSPropertyOp31
 70
     1
102
RTVSPropertyOp32
 70
     1
102
RTVSPropertyOp33
 70
     1
102
RTVSPropertyOp34
 70
     1
102
RTVSPropertyOp35
 70
     1
102
RTVSPropertyOp36
 70
     1
102
RTVSPropertyOp37
 70
     1
102
RTVSPropertyOp38
 70
     1
102
RTVSPropertyOp39
 70
     1
102
RTVSPropertyOp40
 70
     1
102
RTVSPropertyOp41
 70
     1
102
RTVSPropertyOp42
 70
     1
102
RTVSPropertyOp43
 70
     1
102
RTVSPropertyOp44
 70
     1
102
RTVSPropertyOp45
 70
     1
102
RTVSPropertyOp46
 70
     1
102
RTVSPropertyOp47
 70
     1
102
RTVSPropertyOp48
 70
     1
102
RTVSPropertyOp49
 70
     1
102
RTVSPropertyOp50
 70
     1
102
RTVSPropertyOp51
 70
     0
102
RTVSPropertyOp52
 70
     0
102
RTVSPropertyOp53
 70
     1
102
RTVSPropertyOp54
 70
     1
102
RTVSPropertyOp55
 70
     1
102
RTVSPropertyOp56
 70
     1
102
RTVSPropertyOp57
 70
     1
102
RTVSPost2010Prop28
280
     0
102
RTVSPost2010PropOp28
 70
     1
102
RTVSPost2010Prop29
280
     1
102
RTVSPost2010PropOp29
 70
     1
102
RTVSPost2010Prop30
280
     1
102
RTVSPost2010PropOp30
 70
     1
102
RTVSPost2010Prop31
280
     0
102
RTVSPost2010PropOp31
 70
     1
102
RTVSPost2010Prop32
280
     0
102
RTVSPost2010PropOp32
 70
     1
102
RTVSPost2010Prop33
280
     0
102
RTVSPost2010PropOp33
 70
     1
102
RTVSPost2010Prop34
280
     0
102
RTVSPost2010PropOp34
 70
     1
102
RTVSPost2010Prop35
280
     0
102
RTVSPost2010PropOp35
 70
     1
102
RTVSPost2010Prop36
280
     0
102
RTVSPost2010PropOp36
 70
     1
102
RTVSPost2010Prop37
 90
       50
102
RTVSPost2010PropOp37
 70
     1
102
RTVSPost2010Prop38
140
0.0
102
RTVSPost2010PropOp38
 70
     1
102
RTVSPost2010Prop39
140
1.0
102
RTVSPost2010PropOp39
 70
     1
102
RTVSPost2010Prop40
 90
        0
102
RTVSPost2010PropOp40
 70
     1
102
RTVSPost2010Prop41ColorIndex
 90
       18
102
RTVSPost2010Prop41ColorRGB
 90
        0
102
RTVSPost2010PropOp41
 70
     1
102
RTVSPost2010Prop42
 90
       50
102
RTVSPost2010PropOp42
 70
     1
102
RTVSPost2010Prop43
 90
        3
102
RTVSPost2010PropOp43
 70
     1
102
RTVSPost2010Prop44ColorIndex
 90
        5
102
RTVSPost2010Prop44ColorRGB
 90
      255
102
RTVSPost2010PropOp44
 70
     1
102
RTVSPost2010Prop45
280
     0
102
RTVSPost2010PropOp45
 70
     1
102
RTVSPost2010Prop46
 90
       50
102
RTVSPost2010PropOp46
 70
     1
102
RTVSPost2010Prop47
 90
       50
102
RTVSPost2010PropOp47
 70
     1
102
RTVSPost2010Prop48
 90
       50
102
RTVSPost2010PropOp48
 70
     1
102
RTVSPost2010Prop49
280
     0
102
RTVSPost2010PropOp49
 70
     1
102
RTVSPost2010Prop50
 90
       50
102
RTVSPost2010PropOp50
 70
     1
102
RTVSPost2010Prop51ColorIndex
 90
      256
102
RTVSPost2010Prop51ColorRGB
 90
-16777216
102
RTVSPost2010PropOp51
 70
     0
102
RTVSPost2010Prop52
140
1.0
102
RTVSPost2010PropOp52
 70
     0
102
RTVSPost2010Prop53
 90
        2
102
RTVSPost2010PropOp53
 70
     1
102
RTVSPost2010Prop54
  1
strokes_ogs.tif
102
RTVSPost2010PropOp54
 70
     1
102
RTVSPost2010Prop55
280
     0
102
RTVSPost2010PropOp55
 70
     1
102
RTVSPost2010Prop56
140
1.0
102
RTVSPost2010PropOp56
 70
     1
102
RTVSPost2010Prop57
140
1.0
102
RTVSPost2010PropOp57
 70
     1
  0
XRECORD
  5
3D6
102
{ACAD_REACTORS
330
3D5
102
}
330
3D5
100
AcDbXrecord
280
     1
102
RTVSPropertyOp0
 70
     0
102
RTVSPropertyOp1
 70
     0
102
RTVSPropertyOp2
 70
     0
102
RTVSPropertyOp3
 70
     0
102
RTVSPropertyOp4
 70
     0
102
RTVSPropertyOp5
 70
     0
102
RTVSPropertyOp6
 70
     0
102
RTVSPropertyOp7
 70
     0
102
RTVSPropertyOp8
 70
     0
102
RTVSPropertyOp9
 70
     0
102
RTVSPropertyOp10
 70
     0
102
RTVSPropertyOp11
 70
     0
102
RTVSPropertyOp12
 70
     0
102
RTVSPropertyOp13
 70
     0
102
RTVSPropertyOp14
 70
     0
102
RTVSPropertyOp15
 70
     0
102
RTVSPropertyOp16
 70
     0
102
RTVSPropertyOp17
 70
     0
102
RTVSPropertyOp18
 70
     0
102
RTVSPropertyOp19
 70
     0
102
RTVSPropertyOp20
 70
     0
102
RTVSPropertyOp21
 70
     0
102
RTVSPropertyOp22
 70
     0
102
RTVSPropertyOp23
 70
     0
102
RTVSPropertyOp24
 70
     0
102
RTVSPropertyOp25
 70
     0
102
RTVSPropertyOp26
 70
     0
102
RTVSPropertyOp27
 70
     0
102
RTVSPropertyOp28
 70
     1
102
RTVSPropertyOp29
 70
     1
102
RTVSPropertyOp30
 70
     1
102
RTVSPropertyOp31
 70
     1
102
RTVSPropertyOp32
 70
     1
102
RTVSPropertyOp33
 70
     1
102
RTVSPropertyOp34
 70
     1
102
RTVSPropertyOp35
 70
     1
102
RTVSPropertyOp36
 70
     1
102
RTVSPropertyOp37
 70
     1
102
RTVSPropertyOp38
 70
     1
102
RTVSPropertyOp39
 70
     1
102
RTVSPropertyOp40
 70
     1
102
RTVSPropertyOp41
 70
     1
102
RTVSPropertyOp42
 70
     1
102
RTVSPropertyOp43
 70
     1
102
RTVSPropertyOp44
 70
     1
102
RTVSPropertyOp45
 70
     1
102
RTVSPropertyOp46
 70
     1
102
RTVSPropertyOp47
 70
     1
102
RTVSPropertyOp48
 70
     1
102
RTVSPropertyOp49
 70
     1
102
RTVSPropertyOp50
 70
     1
102
RTVSPropertyOp51
 70
     0
102
RTVSPropertyOp52
 70
     0
102
RTVSPropertyOp53
 70
     1
102
RTVSPropertyOp54
 70
     1
102
RTVSPropertyOp55
 70
     1
102
RTVSPropertyOp56
 70
     1
102
RTVSPropertyOp57
 70
     1
102
RTVSPost2010Prop28
280
     0
102
RTVSPost2010PropOp28
 70
     1
102
RTVSPost2010Prop29
280
     1
102
RTVSPost2010PropOp29
 70
     1
102
RTVSPost2010Prop30
280
     1
102
RTVSPost2010PropOp30
 70
     1
102
RTVSPost2010Prop31
280
     0
102
RTVSPost2010PropOp31
 70
     1
102
RTVSPost2010Prop32
280
     0
102
RTVSPost2010PropOp32
 70
     1
102
RTVSPost2010Prop33
280
     0
102
RTVSPost2010PropOp33
 70
     1
102
RTVSPost2010Prop34
280
     0
102
RTVSPost2010PropOp34
 70
     1
102
RTVSPost2010Prop35
280
     0
102
RTVSPost2010PropOp35
 70
     1
102
RTVSPost2010Prop36
280
     0
102
RTVSPost2010PropOp36
 70
     1
102
RTVSPost2010Prop37
 90
       50
102
RTVSPost2010PropOp37
 70
     1
102
RTVSPost2010Prop38
140
0.0
102
RTVSPost2010PropOp38
 70
     1
102
RTVSPost2010Prop39
140
1.0
102
RTVSPost2010PropOp39
 70
     1
102
RTVSPost2010Prop40
 90
        0
102
RTVSPost2010PropOp40
 70
     1
102
RTVSPost2010Prop41ColorIndex
 90
       18
102
RTVSPost2010Prop41ColorRGB
 90
        0
102
RTVSPost2010PropOp41
 70
     1
102
RTVSPost2010Prop42
 90
       50
102
RTVSPost2010PropOp42
 70
     1
102
RTVSPost2010Prop43
 90
        3
102
RTVSPost2010PropOp43
 70
     1
102
RTVSPost2010Prop44ColorIndex
 90
        5
102
RTVSPost2010Prop44ColorRGB
 90
      255
102
RTVSPost2010PropOp44
 70
     1
102
RTVSPost2010Prop45
280
     0
102
RTVSPost2010PropOp45
 70
     1
102
RTVSPost2010Prop46
 90
       50
102
RTVSPost2010PropOp46
 70
     1
102
RTVSPost2010Prop47
 90
       50
102
RTVSPost2010PropOp47
 70
     1
102
RTVSPost2010Prop48
 90
       50
102
RTVSPost2010PropOp48
 70
     1
102
RTVSPost2010Prop49
280
     0
102
RTVSPost2010PropOp49
 70
     1
102
RTVSPost2010Prop50
 90
       50
102
RTVSPost2010PropOp50
 70
     1
102
RTVSPost2010Prop51ColorIndex
 90
      256
102
RTVSPost2010Prop51ColorRGB
 90
-16777216
102
RTVSPost2010PropOp51
 70
     0
102
RTVSPost2010Prop52
140
1.0
102
RTVSPost2010PropOp52
 70
     0
102
RTVSPost2010Prop53
 90
        2
102
RTVSPost2010PropOp53
 70
     1
102
RTVSPost2010Prop54
  1
strokes_ogs.tif
102
RTVSPost2010PropOp54
 70
     1
102
RTVSPost2010Prop55
280
     0
102
RTVSPost2010PropOp55
 70
     1
102
RTVSPost2010Prop56
140
1.0
102
RTVSPost2010PropOp56
 70
     1
102
RTVSPost2010Prop57
140
1.0
102
RTVSPost2010PropOp57
 70
     1
  0
XRECORD
  5
3D8
102
{ACAD_REACTORS
330
3D7
102
}
330
3D7
100
AcDbXrecord
280
     1
102
RTVSPropertyOp0
 70
     1
102
RTVSPropertyOp1
 70
     1
102
RTVSPropertyOp2
 70
     1
102
RTVSPropertyOp3
 70
     1
102
RTVSPropertyOp4
 70
     1
102
RTVSPropertyOp5
 70
     1
102
RTVSPropertyOp6
 70
     1
102
RTVSPropertyOp7
 70
     1
102
RTVSPropertyOp8
 70
     1
102
RTVSPropertyOp9
 70
     1
102
RTVSPropertyOp10
 70
     1
102
RTVSPropertyOp11
 70
     1
102
RTVSPropertyOp12
 70
     1
102
RTVSPropertyOp13
 70
     1
102
RTVSPropertyOp14
 70
     1
102
RTVSPropertyOp15
 70
     1
102
RTVSPropertyOp16
 70
     1
102
RTVSPropertyOp17
 70
     1
102
RTVSPropertyOp18
 70
     1
102
RTVSPropertyOp19
 70
     1
102
RTVSPropertyOp20
 70
     1
102
RTVSPropertyOp21
 70
     1
102
RTVSPropertyOp22
 70
     1
102
RTVSPropertyOp23
 70
     1
102
RTVSPropertyOp24
 70
     1
102
RTVSPropertyOp25
 70
     1
102
RTVSPropertyOp26
 70
     1
102
RTVSPropertyOp27
 70
     1
102
RTVSPropertyOp28
 70
     1
102
RTVSPropertyOp29
 70
     1
102
RTVSPropertyOp30
 70
     1
102
RTVSPropertyOp31
 70
     1
102
RTVSPropertyOp32
 70
     1
102
RTVSPropertyOp33
 70
     1
102
RTVSPropertyOp34
 70
     1
102
RTVSPropertyOp35
 70
     1
102
RTVSPropertyOp36
 70
     1
102
RTVSPropertyOp37
 70
     1
102
RTVSPropertyOp38
 70
     1
102
RTVSPropertyOp39
 70
     1
102
RTVSPropertyOp40
 70
     1
102
RTVSPropertyOp41
 70
     1
102
RTVSPropertyOp42
 70
     1
102
RTVSPropertyOp43
 70
     1
102
RTVSPropertyOp44
 70
     1
102
RTVSPropertyOp45
 70
     1
102
RTVSPropertyOp46
 70
     1
102
RTVSPropertyOp47
 70
     1
102
RTVSPropertyOp48
 70
     1
102
RTVSPropertyOp49
 70
     1
102
RTVSPropertyOp50
 70
     1
102
RTVSPropertyOp51
 70
     0
102
RTVSPropertyOp52
 70
     0
102
RTVSPropertyOp53
 70
     1
102
RTVSPropertyOp54
 70
     1
102
RTVSPropertyOp55
 70
     1
102
RTVSPropertyOp56
 70
     1
102
RTVSPropertyOp57
 70
     1
102
RTVSPost2010Prop28
280
     0
102
RTVSPost2010PropOp28
 70
     1
102
RTVSPost2010Prop29
280
     1
102
RTVSPost2010PropOp29
 70
     1
102
RTVSPost2010Prop30
280
     1
102
RTVSPost2010PropOp30
 70
     1
102
RTVSPost2010Prop31
280
     0
102
RTVSPost2010PropOp31
 70
     1
102
RTVSPost2010Prop32
280
     0
102
RTVSPost2010PropOp32
 70
     1
102
RTVSPost2010Prop33
280
     0
102
RTVSPost2010PropOp33
 70
     1
102
RTVSPost2010Prop34
280
     0
102
RTVSPost2010PropOp34
 70
     1
102
RTVSPost2010Prop35
280
     0
102
RTVSPost2010PropOp35
 70
     1
102
RTVSPost2010Prop36
280
     0
102
RTVSPost2010PropOp36
 70
     1
102
RTVSPost2010Prop37
 90
       50
102
RTVSPost2010PropOp37
 70
     1
102
RTVSPost2010Prop38
140
0.0
102
RTVSPost2010PropOp38
 70
     1
102
RTVSPost2010Prop39
140
1.0
102
RTVSPost2010PropOp39
 70
     1
102
RTVSPost2010Prop40
 90
        0
102
RTVSPost2010PropOp40
 70
     1
102
RTVSPost2010Prop41ColorIndex
 90
       18
102
RTVSPost2010Prop41ColorRGB
 90
        0
102
RTVSPost2010PropOp41
 70
     1
102
RTVSPost2010Prop42
 90
       50
102
RTVSPost2010PropOp42
 70
     1
102
RTVSPost2010Prop43
 90
        3
102
RTVSPost2010PropOp43
 70
     1
102
RTVSPost2010Prop44ColorIndex
 90
        5
102
RTVSPost2010Prop44ColorRGB
 90
      255
102
RTVSPost2010PropOp44
 70
     1
102
RTVSPost2010Prop45
280
     0
102
RTVSPost2010PropOp45
 70
     1
102
RTVSPost2010Prop46
 90
       50
102
RTVSPost2010PropOp46
 70
     1
102
RTVSPost2010Prop47
 90
       50
102
RTVSPost2010PropOp47
 70
     1
102
RTVSPost2010Prop48
 90
       50
102
RTVSPost2010PropOp48
 70
     1
102
RTVSPost2010Prop49
280
     0
102
RTVSPost2010PropOp49
 70
     1
102
RTVSPost2010Prop50
 90
       50
102
RTVSPost2010PropOp50
 70
     1
102
RTVSPost2010Prop51ColorIndex
 90
      256
102
RTVSPost2010Prop51ColorRGB
 90
-16777216
102
RTVSPost2010PropOp51
 70
     0
102
RTVSPost2010Prop52
140
1.0
102
RTVSPost2010PropOp52
 70
     0
102
RTVSPost2010Prop53
 90
        2
102
RTVSPost2010PropOp53
 70
     1
102
RTVSPost2010Prop54
  1
strokes_ogs.tif
102
RTVSPost2010PropOp54
 70
     1
102
RTVSPost2010Prop55
280
     0
102
RTVSPost2010PropOp55
 70
     1
102
RTVSPost2010Prop56
140
1.0
102
RTVSPost2010PropOp56
 70
     1
102
RTVSPost2010Prop57
140
1.0
102
RTVSPost2010PropOp57
 70
     1
  0
XRECORD
  5
3DA
102
{ACAD_REACTORS
330
3D9
102
}
330
3D9
100
AcDbXrecord
280
     1
102
RTVSPropertyOp0
 70
     0
102
RTVSPropertyOp1
 70
     0
102
RTVSPropertyOp2
 70
     0
102
RTVSPropertyOp3
 70
     0
102
RTVSPropertyOp4
 70
     0
102
RTVSPropertyOp5
 70
     0
102
RTVSPropertyOp6
 70
     0
102
RTVSPropertyOp7
 70
     0
102
RTVSPropertyOp8
 70
     0
102
RTVSPropertyOp9
 70
     0
102
RTVSPropertyOp10
 70
     0
102
RTVSPropertyOp11
 70
     0
102
RTVSPropertyOp12
 70
     0
102
RTVSPropertyOp13
 70
     0
102
RTVSPropertyOp14
 70
     0
102
RTVSPropertyOp15
 70
     0
102
RTVSPropertyOp16
 70
     0
102
RTVSPropertyOp17
 70
     0
102
RTVSPropertyOp18
 70
     0
102
RTVSPropertyOp19
 70
     0
102
RTVSPropertyOp20
 70
     0
102
RTVSPropertyOp21
 70
     0
102
RTVSPropertyOp22
 70
     0
102
RTVSPropertyOp23
 70
     0
102
RTVSPropertyOp24
 70
     0
102
RTVSPropertyOp25
 70
     0
102
RTVSPropertyOp26
 70
     0
102
RTVSPropertyOp27
 70
     0
102
RTVSPropertyOp28
 70
     1
102
RTVSPropertyOp29
 70
     1
102
RTVSPropertyOp30
 70
     1
102
RTVSPropertyOp31
 70
     1
102
RTVSPropertyOp32
 70
     1
102
RTVSPropertyOp33
 70
     1
102
RTVSPropertyOp34
 70
     1
102
RTVSPropertyOp35
 70
     1
102
RTVSPropertyOp36
 70
     1
102
RTVSPropertyOp37
 70
     1
102
RTVSPropertyOp38
 70
     1
102
RTVSPropertyOp39
 70
     1
102
RTVSPropertyOp40
 70
     1
102
RTVSPropertyOp41
 70
     1
102
RTVSPropertyOp42
 70
     1
102
RTVSPropertyOp43
 70
     1
102
RTVSPropertyOp44
 70
     1
102
RTVSPropertyOp45
 70
     1
102
RTVSPropertyOp46
 70
     1
102
RTVSPropertyOp47
 70
     1
102
RTVSPropertyOp48
 70
     1
102
RTVSPropertyOp49
 70
     1
102
RTVSPropertyOp50
 70
     1
102
RTVSPropertyOp51
 70
     0
102
RTVSPropertyOp52
 70
     0
102
RTVSPropertyOp53
 70
     1
102
RTVSPropertyOp54
 70
     1
102
RTVSPropertyOp55
 70
     1
102
RTVSPropertyOp56
 70
     1
102
RTVSPropertyOp57
 70
     1
102
RTVSPost2010Prop28
280
     0
102
RTVSPost2010PropOp28
 70
     1
102
RTVSPost2010Prop29
280
     1
102
RTVSPost2010PropOp29
 70
     1
102
RTVSPost2010Prop30
280
     1
102
RTVSPost2010PropOp30
 70
     1
102
RTVSPost2010Prop31
280
     0
102
RTVSPost2010PropOp31
 70
     1
102
RTVSPost2010Prop32
280
     0
102
RTVSPost2010PropOp32
 70
     1
102
RTVSPost2010Prop33
280
     0
102
RTVSPost2010PropOp33
 70
     1
102
RTVSPost2010Prop34
280
     0
102
RTVSPost2010PropOp34
 70
     1
102
RTVSPost2010Prop35
280
     0
102
RTVSPost2010PropOp35
 70
     1
102
RTVSPost2010Prop36
280
     0
102
RTVSPost2010PropOp36
 70
     1
102
RTVSPost2010Prop37
 90
       50
102
RTVSPost2010PropOp37
 70
     1
102
RTVSPost2010Prop38
140
0.0
102
RTVSPost2010PropOp38
 70
     1
102
RTVSPost2010Prop39
140
1.0
102
RTVSPost2010PropOp39
 70
     1
102
RTVSPost2010Prop40
 90
        0
102
RTVSPost2010PropOp40
 70
     1
102
RTVSPost2010Prop41ColorIndex
 90
       18
102
RTVSPost2010Prop41ColorRGB
 90
        0
102
RTVSPost2010PropOp41
 70
     1
102
RTVSPost2010Prop42
 90
       50
102
RTVSPost2010PropOp42
 70
     1
102
RTVSPost2010Prop43
 90
        3
102
RTVSPost2010PropOp43
 70
     1
102
RTVSPost2010Prop44ColorIndex
 90
        5
102
RTVSPost2010Prop44ColorRGB
 90
      255
102
RTVSPost2010PropOp44
 70
     1
102
RTVSPost2010Prop45
280
     0
102
RTVSPost2010PropOp45
 70
     1
102
RTVSPost2010Prop46
 90
       50
102
RTVSPost2010PropOp46
 70
     1
102
RTVSPost2010Prop47
 90
       50
102
RTVSPost2010PropOp47
 70
     1
102
RTVSPost2010Prop48
 90
       50
102
RTVSPost2010PropOp48
 70
     1
102
RTVSPost2010Prop49
280
     0
102
RTVSPost2010PropOp49
 70
     1
102
RTVSPost2010Prop50
 90
       50
102
RTVSPost2010PropOp50
 70
     1
102
RTVSPost2010Prop51ColorIndex
 90
      256
102
RTVSPost2010Prop51ColorRGB
 90
-16777216
102
RTVSPost2010PropOp51
 70
     0
102
RTVSPost2010Prop52
140
1.0
102
RTVSPost2010PropOp52
 70
     0
102
RTVSPost2010Prop53
 90
        2
102
RTVSPost2010PropOp53
 70
     1
102
RTVSPost2010Prop54
  1
strokes_ogs.tif
102
RTVSPost2010PropOp54
 70
     1
102
RTVSPost2010Prop55
280
     0
102
RTVSPost2010PropOp55
 70
     1
102
RTVSPost2010Prop56
140
1.0
102
RTVSPost2010PropOp56
 70
     1
102
RTVSPost2010Prop57
140
1.0
102
RTVSPost2010PropOp57
 70
     1
  0
XRECORD
  5
3DC
102
{ACAD_REACTORS
330
3DB
102
}
330
3DB
100
AcDbXrecord
280
     1
102
RTVSPropertyOp0
 70
     1
102
RTVSPropertyOp1
 70
     1
102
RTVSPropertyOp2
 70
     1
102
RTVSPropertyOp3
 70
     1
102
RTVSPropertyOp4
 70
     1
102
RTVSPropertyOp5
 70
     1
102
RTVSPropertyOp6
 70
     1
102
RTVSPropertyOp7
 70
     1
102
RTVSPropertyOp8
 70
     1
102
RTVSPropertyOp9
 70
     1
102
RTVSPropertyOp10
 70
     1
102
RTVSPropertyOp11
 70
     1
102
RTVSPropertyOp12
 70
     1
102
RTVSPropertyOp13
 70
     1
102
RTVSPropertyOp14
 70
     1
102
RTVSPropertyOp15
 70
     1
102
RTVSPropertyOp16
 70
     1
102
RTVSPropertyOp17
 70
     1
102
RTVSPropertyOp18
 70
     1
102
RTVSPropertyOp19
 70
     1
102
RTVSPropertyOp20
 70
     1
102
RTVSPropertyOp21
 70
     1
102
RTVSPropertyOp22
 70
     1
102
RTVSPropertyOp23
 70
     1
102
RTVSPropertyOp24
 70
     1
102
RTVSPropertyOp25
 70
     1
102
RTVSPropertyOp26
 70
     1
102
RTVSPropertyOp27
 70
     1
102
RTVSPropertyOp28
 70
     1
102
RTVSPropertyOp29
 70
     1
102
RTVSPropertyOp30
 70
     1
102
RTVSPropertyOp31
 70
     1
102
RTVSPropertyOp32
 70
     1
102
RTVSPropertyOp33
 70
     1
102
RTVSPropertyOp34
 70
     1
102
RTVSPropertyOp35
 70
     1
102
RTVSPropertyOp36
 70
     1
102
RTVSPropertyOp37
 70
     1
102
RTVSPropertyOp38
 70
     1
102
RTVSPropertyOp39
 70
     1
102
RTVSPropertyOp40
 70
     1
102
RTVSPropertyOp41
 70
     1
102
RTVSPropertyOp42
 70
     1
102
RTVSPropertyOp43
 70
     1
102
RTVSPropertyOp44
 70
     1
102
RTVSPropertyOp45
 70
     1
102
RTVSPropertyOp46
 70
     1
102
RTVSPropertyOp47
 70
     1
102
RTVSPropertyOp48
 70
     1
102
RTVSPropertyOp49
 70
     1
102
RTVSPropertyOp50
 70
     1
102
RTVSPropertyOp51
 70
     0
102
RTVSPropertyOp52
 70
     0
102
RTVSPropertyOp53
 70
     1
102
RTVSPropertyOp54
 70
     1
102
RTVSPropertyOp55
 70
     1
102
RTVSPropertyOp56
 70
     1
102
RTVSPropertyOp57
 70
     1
102
RTVSPost2010Prop28
280
     0
102
RTVSPost2010PropOp28
 70
     1
102
RTVSPost2010Prop29
280
     1
102
RTVSPost2010PropOp29
 70
     1
102
RTVSPost2010Prop30
280
     1
102
RTVSPost2010PropOp30
 70
     1
102
RTVSPost2010Prop31
280
     0
102
RTVSPost2010PropOp31
 70
     1
102
RTVSPost2010Prop32
280
     0
102
RTVSPost2010PropOp32
 70
     1
102
RTVSPost2010Prop33
280
     0
102
RTVSPost2010PropOp33
 70
     1
102
RTVSPost2010Prop34
280
     0
102
RTVSPost2010PropOp34
 70
     1
102
RTVSPost2010Prop35
280
     0
102
RTVSPost2010PropOp35
 70
     1
102
RTVSPost2010Prop36
280
     0
102
RTVSPost2010PropOp36
 70
     1
102
RTVSPost2010Prop37
 90
       50
102
RTVSPost2010PropOp37
 70
     1
102
RTVSPost2010Prop38
140
0.0
102
RTVSPost2010PropOp38
 70
     1
102
RTVSPost2010Prop39
140
1.0
102
RTVSPost2010PropOp39
 70
     1
102
RTVSPost2010Prop40
 90
        0
102
RTVSPost2010PropOp40
 70
     1
102
RTVSPost2010Prop41ColorIndex
 90
       18
102
RTVSPost2010Prop41ColorRGB
 90
        0
102
RTVSPost2010PropOp41
 70
     1
102
RTVSPost2010Prop42
 90
       50
102
RTVSPost2010PropOp42
 70
     1
102
RTVSPost2010Prop43
 90
        3
102
RTVSPost2010PropOp43
 70
     1
102
RTVSPost2010Prop44ColorIndex
 90
        5
102
RTVSPost2010Prop44ColorRGB
 90
      255
102
RTVSPost2010PropOp44
 70
     1
102
RTVSPost2010Prop45
280
     0
102
RTVSPost2010PropOp45
 70
     1
102
RTVSPost2010Prop46
 90
       50
102
RTVSPost2010PropOp46
 70
     1
102
RTVSPost2010Prop47
 90
       50
102
RTVSPost2010PropOp47
 70
     1
102
RTVSPost2010Prop48
 90
       50
102
RTVSPost2010PropOp48
 70
     1
102
RTVSPost2010Prop49
280
     0
102
RTVSPost2010PropOp49
 70
     1
102
RTVSPost2010Prop50
 90
       50
102
RTVSPost2010PropOp50
 70
     1
102
RTVSPost2010Prop51ColorIndex
 90
      256
102
RTVSPost2010Prop51ColorRGB
 90
-16777216
102
RTVSPost2010PropOp51
 70
     0
102
RTVSPost2010Prop52
140
1.0
102
RTVSPost2010PropOp52
 70
     0
102
RTVSPost2010Prop53
 90
        2
102
RTVSPost2010PropOp53
 70
     1
102
RTVSPost2010Prop54
  1
strokes_ogs.tif
102
RTVSPost2010PropOp54
 70
     1
102
RTVSPost2010Prop55
280
     0
102
RTVSPost2010PropOp55
 70
     1
102
RTVSPost2010Prop56
140
1.0
102
RTVSPost2010PropOp56
 70
     1
102
RTVSPost2010Prop57
140
1.0
102
RTVSPost2010PropOp57
 70
     1
  0
XRECORD
  5
3DE
102
{ACAD_REACTORS
330
3DD
102
}
330
3DD
100
AcDbXrecord
280
     1
102
RTVSPropertyOp0
 70
     1
102
RTVSPropertyOp1
 70
     1
102
RTVSPropertyOp2
 70
     1
102
RTVSPropertyOp3
 70
     1
102
RTVSPropertyOp4
 70
     1
102
RTVSPropertyOp5
 70
     1
102
RTVSPropertyOp6
 70
     1
102
RTVSPropertyOp7
 70
     1
102
RTVSPropertyOp8
 70
     1
102
RTVSPropertyOp9
 70
     1
102
RTVSPropertyOp10
 70
     1
102
RTVSPropertyOp11
 70
     1
102
RTVSPropertyOp12
 70
     1
102
RTVSPropertyOp13
 70
     1
102
RTVSPropertyOp14
 70
     1
102
RTVSPropertyOp15
 70
     1
102
RTVSPropertyOp16
 70
     1
102
RTVSPropertyOp17
 70
     1
102
RTVSPropertyOp18
 70
     1
102
RTVSPropertyOp19
 70
     1
102
RTVSPropertyOp20
 70
     1
102
RTVSPropertyOp21
 70
     1
102
RTVSPropertyOp22
 70
     1
102
RTVSPropertyOp23
 70
     1
102
RTVSPropertyOp24
 70
     1
102
RTVSPropertyOp25
 70
     1
102
RTVSPropertyOp26
 70
     1
102
RTVSPropertyOp27
 70
     1
102
RTVSPropertyOp28
 70
     1
102
RTVSPropertyOp29
 70
     1
102
RTVSPropertyOp30
 70
     1
102
RTVSPropertyOp31
 70
     1
102
RTVSPropertyOp32
 70
     1
102
RTVSPropertyOp33
 70
     1
102
RTVSPropertyOp34
 70
     1
102
RTVSPropertyOp35
 70
     1
102
RTVSPropertyOp36
 70
     1
102
RTVSPropertyOp37
 70
     1
102
RTVSPropertyOp38
 70
     1
102
RTVSPropertyOp39
 70
     1
102
RTVSPropertyOp40
 70
     1
102
RTVSPropertyOp41
 70
     1
102
RTVSPropertyOp42
 70
     1
102
RTVSPropertyOp43
 70
     1
102
RTVSPropertyOp44
 70
     1
102
RTVSPropertyOp45
 70
     1
102
RTVSPropertyOp46
 70
     1
102
RTVSPropertyOp47
 70
     1
102
RTVSPropertyOp48
 70
     1
102
RTVSPropertyOp49
 70
     1
102
RTVSPropertyOp50
 70
     1
102
RTVSPropertyOp51
 70
     0
102
RTVSPropertyOp52
 70
     0
102
RTVSPropertyOp53
 70
     1
102
RTVSPropertyOp54
 70
     1
102
RTVSPropertyOp55
 70
     1
102
RTVSPropertyOp56
 70
     1
102
RTVSPropertyOp57
 70
     1
102
RTVSPost2010Prop28
280
     0
102
RTVSPost2010PropOp28
 70
     1
102
RTVSPost2010Prop29
280
     1
102
RTVSPost2010PropOp29
 70
     1
102
RTVSPost2010Prop30
280
     1
102
RTVSPost2010PropOp30
 70
     1
102
RTVSPost2010Prop31
280
     0
102
RTVSPost2010PropOp31
 70
     1
102
RTVSPost2010Prop32
280
     0
102
RTVSPost2010PropOp32
 70
     1
102
RTVSPost2010Prop33
280
     0
102
RTVSPost2010PropOp33
 70
     1
102
RTVSPost2010Prop34
280
     0
102
RTVSPost2010PropOp34
 70
     1
102
RTVSPost2010Prop35
280
     0
102
RTVSPost2010PropOp35
 70
     1
102
RTVSPost2010Prop36
280
     0
102
RTVSPost2010PropOp36
 70
     1
102
RTVSPost2010Prop37
 90
       50
102
RTVSPost2010PropOp37
 70
     1
102
RTVSPost2010Prop38
140
0.0
102
RTVSPost2010PropOp38
 70
     1
102
RTVSPost2010Prop39
140
1.0
102
RTVSPost2010PropOp39
 70
     1
102
RTVSPost2010Prop40
 90
        0
102
RTVSPost2010PropOp40
 70
     1
102
RTVSPost2010Prop41ColorIndex
 90
       18
102
RTVSPost2010Prop41ColorRGB
 90
        0
102
RTVSPost2010PropOp41
 70
     1
102
RTVSPost2010Prop42
 90
       50
102
RTVSPost2010PropOp42
 70
     1
102
RTVSPost2010Prop43
 90
        3
102
RTVSPost2010PropOp43
 70
     1
102
RTVSPost2010Prop44ColorIndex
 90
        5
102
RTVSPost2010Prop44ColorRGB
 90
      255
102
RTVSPost2010PropOp44
 70
     1
102
RTVSPost2010Prop45
280
     0
102
RTVSPost2010PropOp45
 70
     1
102
RTVSPost2010Prop46
 90
       50
102
RTVSPost2010PropOp46
 70
     1
102
RTVSPost2010Prop47
 90
       50
102
RTVSPost2010PropOp47
 70
     1
102
RTVSPost2010Prop48
 90
       50
102
RTVSPost2010PropOp48
 70
     1
102
RTVSPost2010Prop49
280
     0
102
RTVSPost2010PropOp49
 70
     1
102
RTVSPost2010Prop50
 90
       50
102
RTVSPost2010PropOp50
 70
     1
102
RTVSPost2010Prop51ColorIndex
 90
      256
102
RTVSPost2010Prop51ColorRGB
 90
-16777216
102
RTVSPost2010PropOp51
 70
     0
102
RTVSPost2010Prop52
140
1.0
102
RTVSPost2010PropOp52
 70
     0
102
RTVSPost2010Prop53
 90
        2
102
RTVSPost2010PropOp53
 70
     1
102
RTVSPost2010Prop54
  1
strokes_ogs.tif
102
RTVSPost2010PropOp54
 70
     1
102
RTVSPost2010Prop55
280
     0
102
RTVSPost2010PropOp55
 70
     1
102
RTVSPost2010Prop56
140
1.0
102
RTVSPost2010PropOp56
 70
     1
102
RTVSPost2010Prop57
140
1.0
102
RTVSPost2010PropOp57
 70
     1
  0
XRECORD
  5
3E0
102
{ACAD_REACTORS
330
3DF
102
}
330
3DF
100
AcDbXrecord
280
     1
102
RTVSPropertyOp0
 70
     1
102
RTVSPropertyOp1
 70
     1
102
RTVSPropertyOp2
 70
     1
102
RTVSPropertyOp3
 70
     1
102
RTVSPropertyOp4
 70
     1
102
RTVSPropertyOp5
 70
     1
102
RTVSPropertyOp6
 70
     1
102
RTVSPropertyOp7
 70
     1
102
RTVSPropertyOp8
 70
     1
102
RTVSPropertyOp9
 70
     1
102
RTVSPropertyOp10
 70
     1
102
RTVSPropertyOp11
 70
     1
102
RTVSPropertyOp12
 70
     1
102
RTVSPropertyOp13
 70
     1
102
RTVSPropertyOp14
 70
     1
102
RTVSPropertyOp15
 70
     1
102
RTVSPropertyOp16
 70
     1
102
RTVSPropertyOp17
 70
     1
102
RTVSPropertyOp18
 70
     1
102
RTVSPropertyOp19
 70
     1
102
RTVSPropertyOp20
 70
     1
102
RTVSPropertyOp21
 70
     1
102
RTVSPropertyOp22
 70
     1
102
RTVSPropertyOp23
 70
     1
102
RTVSPropertyOp24
 70
     1
102
RTVSPropertyOp25
 70
     1
102
RTVSPropertyOp26
 70
     1
102
RTVSPropertyOp27
 70
     1
102
RTVSPropertyOp28
 70
     1
102
RTVSPropertyOp29
 70
     1
102
RTVSPropertyOp30
 70
     1
102
RTVSPropertyOp31
 70
     1
102
RTVSPropertyOp32
 70
     1
102
RTVSPropertyOp33
 70
     1
102
RTVSPropertyOp34
 70
     1
102
RTVSPropertyOp35
 70
     1
102
RTVSPropertyOp36
 70
     1
102
RTVSPropertyOp37
 70
     1
102
RTVSPropertyOp38
 70
     1
102
RTVSPropertyOp39
 70
     1
102
RTVSPropertyOp40
 70
     1
102
RTVSPropertyOp41
 70
     1
102
RTVSPropertyOp42
 70
     1
102
RTVSPropertyOp43
 70
     1
102
RTVSPropertyOp44
 70
     1
102
RTVSPropertyOp45
 70
     1
102
RTVSPropertyOp46
 70
     1
102
RTVSPropertyOp47
 70
     1
102
RTVSPropertyOp48
 70
     1
102
RTVSPropertyOp49
 70
     1
102
RTVSPropertyOp50
 70
     1
102
RTVSPropertyOp51
 70
     0
102
RTVSPropertyOp52
 70
     0
102
RTVSPropertyOp53
 70
     1
102
RTVSPropertyOp54
 70
     1
102
RTVSPropertyOp55
 70
     1
102
RTVSPropertyOp56
 70
     1
102
RTVSPropertyOp57
 70
     1
102
RTVSPost2010Prop28
280
     0
102
RTVSPost2010PropOp28
 70
     1
102
RTVSPost2010Prop29
280
     1
102
RTVSPost2010PropOp29
 70
     1
102
RTVSPost2010Prop30
280
     1
102
RTVSPost2010PropOp30
 70
     1
102
RTVSPost2010Prop31
280
     0
102
RTVSPost2010PropOp31
 70
     1
102
RTVSPost2010Prop32
280
     0
102
RTVSPost2010PropOp32
 70
     1
102
RTVSPost2010Prop33
280
     0
102
RTVSPost2010PropOp33
 70
     1
102
RTVSPost2010Prop34
280
     0
102
RTVSPost2010PropOp34
 70
     1
102
RTVSPost2010Prop35
280
     0
102
RTVSPost2010PropOp35
 70
     1
102
RTVSPost2010Prop36
280
     0
102
RTVSPost2010PropOp36
 70
     1
102
RTVSPost2010Prop37
 90
       50
102
RTVSPost2010PropOp37
 70
     1
102
RTVSPost2010Prop38
140
0.0
102
RTVSPost2010PropOp38
 70
     1
102
RTVSPost2010Prop39
140
1.0
102
RTVSPost2010PropOp39
 70
     1
102
RTVSPost2010Prop40
 90
        0
102
RTVSPost2010PropOp40
 70
     1
102
RTVSPost2010Prop41ColorIndex
 90
       18
102
RTVSPost2010Prop41ColorRGB
 90
        0
102
RTVSPost2010PropOp41
 70
     1
102
RTVSPost2010Prop42
 90
       50
102
RTVSPost2010PropOp42
 70
     1
102
RTVSPost2010Prop43
 90
        3
102
RTVSPost2010PropOp43
 70
     1
102
RTVSPost2010Prop44ColorIndex
 90
        5
102
RTVSPost2010Prop44ColorRGB
 90
      255
102
RTVSPost2010PropOp44
 70
     1
102
RTVSPost2010Prop45
280
     0
102
RTVSPost2010PropOp45
 70
     1
102
RTVSPost2010Prop46
 90
       50
102
RTVSPost2010PropOp46
 70
     1
102
RTVSPost2010Prop47
 90
       50
102
RTVSPost2010PropOp47
 70
     1
102
RTVSPost2010Prop48
 90
       50
102
RTVSPost2010PropOp48
 70
     1
102
RTVSPost2010Prop49
280
     0
102
RTVSPost2010PropOp49
 70
     1
102
RTVSPost2010Prop50
 90
       50
102
RTVSPost2010PropOp50
 70
     1
102
RTVSPost2010Prop51ColorIndex
 90
      256
102
RTVSPost2010Prop51ColorRGB
 90
-16777216
102
RTVSPost2010PropOp51
 70
     0
102
RTVSPost2010Prop52
140
1.0
102
RTVSPost2010PropOp52
 70
     0
102
RTVSPost2010Prop53
 90
        2
102
RTVSPost2010PropOp53
 70
     1
102
RTVSPost2010Prop54
  1
strokes_ogs.tif
102
RTVSPost2010PropOp54
 70
     1
102
RTVSPost2010Prop55
280
     0
102
RTVSPost2010PropOp55
 70
     1
102
RTVSPost2010Prop56
140
1.0
102
RTVSPost2010PropOp56
 70
     1
102
RTVSPost2010Prop57
140
1.0
102
RTVSPost2010PropOp57
 70
     1
  0
XRECORD
  5
3E2
102
{ACAD_REACTORS
330
3E1
102
}
330
3E1
100
AcDbXrecord
280
     1
102
RTVSPropertyOp0
 70
     1
102
RTVSPropertyOp1
 70
     1
102
RTVSPropertyOp2
 70
     1
102
RTVSPropertyOp3
 70
     1
102
RTVSPropertyOp4
 70
     1
102
RTVSPropertyOp5
 70
     1
102
RTVSPropertyOp6
 70
     1
102
RTVSPropertyOp7
 70
     1
102
RTVSPropertyOp8
 70
     1
102
RTVSPropertyOp9
 70
     1
102
RTVSPropertyOp10
 70
     1
102
RTVSPropertyOp11
 70
     1
102
RTVSPropertyOp12
 70
     1
102
RTVSPropertyOp13
 70
     1
102
RTVSPropertyOp14
 70
     1
102
RTVSPropertyOp15
 70
     1
102
RTVSPropertyOp16
 70
     1
102
RTVSPropertyOp17
 70
     1
102
RTVSPropertyOp18
 70
     1
102
RTVSPropertyOp19
 70
     1
102
RTVSPropertyOp20
 70
     1
102
RTVSPropertyOp21
 70
     1
102
RTVSPropertyOp22
 70
     1
102
RTVSPropertyOp23
 70
     1
102
RTVSPropertyOp24
 70
     1
102
RTVSPropertyOp25
 70
     1
102
RTVSPropertyOp26
 70
     1
102
RTVSPropertyOp27
 70
     1
102
RTVSPropertyOp28
 70
     1
102
RTVSPropertyOp29
 70
     1
102
RTVSPropertyOp30
 70
     1
102
RTVSPropertyOp31
 70
     1
102
RTVSPropertyOp32
 70
     1
102
RTVSPropertyOp33
 70
     1
102
RTVSPropertyOp34
 70
     1
102
RTVSPropertyOp35
 70
     1
102
RTVSPropertyOp36
 70
     1
102
RTVSPropertyOp37
 70
     1
102
RTVSPropertyOp38
 70
     1
102
RTVSPropertyOp39
 70
     1
102
RTVSPropertyOp40
 70
     1
102
RTVSPropertyOp41
 70
     1
102
RTVSPropertyOp42
 70
     1
102
RTVSPropertyOp43
 70
     1
102
RTVSPropertyOp44
 70
     1
102
RTVSPropertyOp45
 70
     1
102
RTVSPropertyOp46
 70
     1
102
RTVSPropertyOp47
 70
     1
102
RTVSPropertyOp48
 70
     1
102
RTVSPropertyOp49
 70
     1
102
RTVSPropertyOp50
 70
     1
102
RTVSPropertyOp51
 70
     0
102
RTVSPropertyOp52
 70
     0
102
RTVSPropertyOp53
 70
     1
102
RTVSPropertyOp54
 70
     1
102
RTVSPropertyOp55
 70
     1
102
RTVSPropertyOp56
 70
     1
102
RTVSPropertyOp57
 70
     1
102
RTVSPost2010Prop28
280
     0
102
RTVSPost2010PropOp28
 70
     1
102
RTVSPost2010Prop29
280
     1
102
RTVSPost2010PropOp29
 70
     1
102
RTVSPost2010Prop30
280
     1
102
RTVSPost2010PropOp30
 70
     1
102
RTVSPost2010Prop31
280
     0
102
RTVSPost2010PropOp31
 70
     1
102
RTVSPost2010Prop32
280
     0
102
RTVSPost2010PropOp32
 70
     1
102
RTVSPost2010Prop33
280
     0
102
RTVSPost2010PropOp33
 70
     1
102
RTVSPost2010Prop34
280
     0
102
RTVSPost2010PropOp34
 70
     1
102
RTVSPost2010Prop35
280
     0
102
RTVSPost2010PropOp35
 70
     1
102
RTVSPost2010Prop36
280
     0
102
RTVSPost2010PropOp36
 70
     1
102
RTVSPost2010Prop37
 90
       50
102
RTVSPost2010PropOp37
 70
     1
102
RTVSPost2010Prop38
140
0.0
102
RTVSPost2010PropOp38
 70
     1
102
RTVSPost2010Prop39
140
1.0
102
RTVSPost2010PropOp39
 70
     1
102
RTVSPost2010Prop40
 90
        0
102
RTVSPost2010PropOp40
 70
     1
102
RTVSPost2010Prop41ColorIndex
 90
       18
102
RTVSPost2010Prop41ColorRGB
 90
        0
102
RTVSPost2010PropOp41
 70
     1
102
RTVSPost2010Prop42
 90
       50
102
RTVSPost2010PropOp42
 70
     1
102
RTVSPost2010Prop43
 90
        3
102
RTVSPost2010PropOp43
 70
     1
102
RTVSPost2010Prop44ColorIndex
 90
        5
102
RTVSPost2010Prop44ColorRGB
 90
      255
102
RTVSPost2010PropOp44
 70
     1
102
RTVSPost2010Prop45
280
     0
102
RTVSPost2010PropOp45
 70
     1
102
RTVSPost2010Prop46
 90
       50
102
RTVSPost2010PropOp46
 70
     1
102
RTVSPost2010Prop47
 90
       50
102
RTVSPost2010PropOp47
 70
     1
102
RTVSPost2010Prop48
 90
       50
102
RTVSPost2010PropOp48
 70
     1
102
RTVSPost2010Prop49
280
     0
102
RTVSPost2010PropOp49
 70
     1
102
RTVSPost2010Prop50
 90
       50
102
RTVSPost2010PropOp50
 70
     1
102
RTVSPost2010Prop51ColorIndex
 90
      256
102
RTVSPost2010Prop51ColorRGB
 90
-16777216
102
RTVSPost2010PropOp51
 70
     0
102
RTVSPost2010Prop52
140
1.0
102
RTVSPost2010PropOp52
 70
     0
102
RTVSPost2010Prop53
 90
        2
102
RTVSPost2010PropOp53
 70
     1
102
RTVSPost2010Prop54
  1
strokes_ogs.tif
102
RTVSPost2010PropOp54
 70
     1
102
RTVSPost2010Prop55
280
     0
102
RTVSPost2010PropOp55
 70
     1
102
RTVSPost2010Prop56
140
1.0
102
RTVSPost2010PropOp56
 70
     1
102
RTVSPost2010Prop57
140
1.0
102
RTVSPost2010PropOp57
 70
     1
  0
XRECORD
  5
3E4
102
{ACAD_REACTORS
330
3E3
102
}
330
3E3
100
AcDbXrecord
280
     1
102
RTVSPropertyOp0
 70
     1
102
RTVSPropertyOp1
 70
     1
102
RTVSPropertyOp2
 70
     1
102
RTVSPropertyOp3
 70
     1
102
RTVSPropertyOp4
 70
     1
102
RTVSPropertyOp5
 70
     1
102
RTVSPropertyOp6
 70
     1
102
RTVSPropertyOp7
 70
     1
102
RTVSPropertyOp8
 70
     1
102
RTVSPropertyOp9
 70
     1
102
RTVSPropertyOp10
 70
     1
102
RTVSPropertyOp11
 70
     1
102
RTVSPropertyOp12
 70
     1
102
RTVSPropertyOp13
 70
     1
102
RTVSPropertyOp14
 70
     1
102
RTVSPropertyOp15
 70
     1
102
RTVSPropertyOp16
 70
     1
102
RTVSPropertyOp17
 70
     1
102
RTVSPropertyOp18
 70
     1
102
RTVSPropertyOp19
 70
     1
102
RTVSPropertyOp20
 70
     1
102
RTVSPropertyOp21
 70
     1
102
RTVSPropertyOp22
 70
     1
102
RTVSPropertyOp23
 70
     1
102
RTVSPropertyOp24
 70
     1
102
RTVSPropertyOp25
 70
     1
102
RTVSPropertyOp26
 70
     1
102
RTVSPropertyOp27
 70
     1
102
RTVSPropertyOp28
 70
     1
102
RTVSPropertyOp29
 70
     1
102
RTVSPropertyOp30
 70
     1
102
RTVSPropertyOp31
 70
     1
102
RTVSPropertyOp32
 70
     1
102
RTVSPropertyOp33
 70
     1
102
RTVSPropertyOp34
 70
     1
102
RTVSPropertyOp35
 70
     1
102
RTVSPropertyOp36
 70
     1
102
RTVSPropertyOp37
 70
     1
102
RTVSPropertyOp38
 70
     1
102
RTVSPropertyOp39
 70
     1
102
RTVSPropertyOp40
 70
     1
102
RTVSPropertyOp41
 70
     1
102
RTVSPropertyOp42
 70
     1
102
RTVSPropertyOp43
 70
     1
102
RTVSPropertyOp44
 70
     1
102
RTVSPropertyOp45
 70
     1
102
RTVSPropertyOp46
 70
     1
102
RTVSPropertyOp47
 70
     1
102
RTVSPropertyOp48
 70
     1
102
RTVSPropertyOp49
 70
     1
102
RTVSPropertyOp50
 70
     1
102
RTVSPropertyOp51
 70
     0
102
RTVSPropertyOp52
 70
     0
102
RTVSPropertyOp53
 70
     1
102
RTVSPropertyOp54
 70
     1
102
RTVSPropertyOp55
 70
     1
102
RTVSPropertyOp56
 70
     1
102
RTVSPropertyOp57
 70
     1
102
RTVSPost2010Prop28
280
     0
102
RTVSPost2010PropOp28
 70
     1
102
RTVSPost2010Prop29
280
     1
102
RTVSPost2010PropOp29
 70
     1
102
RTVSPost2010Prop30
280
     1
102
RTVSPost2010PropOp30
 70
     1
102
RTVSPost2010Prop31
280
     0
102
RTVSPost2010PropOp31
 70
     1
102
RTVSPost2010Prop32
280
     0
102
RTVSPost2010PropOp32
 70
     1
102
RTVSPost2010Prop33
280
     0
102
RTVSPost2010PropOp33
 70
     1
102
RTVSPost2010Prop34
280
     0
102
RTVSPost2010PropOp34
 70
     1
102
RTVSPost2010Prop35
280
     0
102
RTVSPost2010PropOp35
 70
     1
102
RTVSPost2010Prop36
280
     0
102
RTVSPost2010PropOp36
 70
     1
102
RTVSPost2010Prop37
 90
       50
102
RTVSPost2010PropOp37
 70
     1
102
RTVSPost2010Prop38
140
0.0
102
RTVSPost2010PropOp38
 70
     1
102
RTVSPost2010Prop39
140
1.0
102
RTVSPost2010PropOp39
 70
     1
102
RTVSPost2010Prop40
 90
        0
102
RTVSPost2010PropOp40
 70
     1
102
RTVSPost2010Prop41ColorIndex
 90
       18
102
RTVSPost2010Prop41ColorRGB
 90
        0
102
RTVSPost2010PropOp41
 70
     1
102
RTVSPost2010Prop42
 90
       50
102
RTVSPost2010PropOp42
 70
     1
102
RTVSPost2010Prop43
 90
        3
102
RTVSPost2010PropOp43
 70
     1
102
RTVSPost2010Prop44ColorIndex
 90
        5
102
RTVSPost2010Prop44ColorRGB
 90
      255
102
RTVSPost2010PropOp44
 70
     1
102
RTVSPost2010Prop45
280
     0
102
RTVSPost2010PropOp45
 70
     1
102
RTVSPost2010Prop46
 90
       50
102
RTVSPost2010PropOp46
 70
     1
102
RTVSPost2010Prop47
 90
       50
102
RTVSPost2010PropOp47
 70
     1
102
RTVSPost2010Prop48
 90
       50
102
RTVSPost2010PropOp48
 70
     1
102
RTVSPost2010Prop49
280
     0
102
RTVSPost2010PropOp49
 70
     1
102
RTVSPost2010Prop50
 90
       50
102
RTVSPost2010PropOp50
 70
     1
102
RTVSPost2010Prop51ColorIndex
 90
      256
102
RTVSPost2010Prop51ColorRGB
 90
-16777216
102
RTVSPost2010PropOp51
 70
     0
102
RTVSPost2010Prop52
140
1.0
102
RTVSPost2010PropOp52
 70
     0
102
RTVSPost2010Prop53
 90
        2
102
RTVSPost2010PropOp53
 70
     1
102
RTVSPost2010Prop54
  1
strokes_ogs.tif
102
RTVSPost2010PropOp54
 70
     1
102
RTVSPost2010Prop55
280
     0
102
RTVSPost2010PropOp55
 70
     1
102
RTVSPost2010Prop56
140
1.0
102
RTVSPost2010PropOp56
 70
     1
102
RTVSPost2010Prop57
140
1.0
102
RTVSPost2010PropOp57
 70
     1
  0
XRECORD
  5
3E6
102
{ACAD_REACTORS
330
3E5
102
}
330
3E5
100
AcDbXrecord
280
     1
102
RTVSPropertyOp0
 70
     1
102
RTVSPropertyOp1
 70
     1
102
RTVSPropertyOp2
 70
     1
102
RTVSPropertyOp3
 70
     1
102
RTVSPropertyOp4
 70
     1
102
RTVSPropertyOp5
 70
     1
102
RTVSPropertyOp6
 70
     1
102
RTVSPropertyOp7
 70
     1
102
RTVSPropertyOp8
 70
     1
102
RTVSPropertyOp9
 70
     1
102
RTVSPropertyOp10
 70
     1
102
RTVSPropertyOp11
 70
     1
102
RTVSPropertyOp12
 70
     1
102
RTVSPropertyOp13
 70
     1
102
RTVSPropertyOp14
 70
     1
102
RTVSPropertyOp15
 70
     1
102
RTVSPropertyOp16
 70
     1
102
RTVSPropertyOp17
 70
     1
102
RTVSPropertyOp18
 70
     1
102
RTVSPropertyOp19
 70
     1
102
RTVSPropertyOp20
 70
     1
102
RTVSPropertyOp21
 70
     1
102
RTVSPropertyOp22
 70
     1
102
RTVSPropertyOp23
 70
     1
102
RTVSPropertyOp24
 70
     1
102
RTVSPropertyOp25
 70
     1
102
RTVSPropertyOp26
 70
     1
102
RTVSPropertyOp27
 70
     1
102
RTVSPropertyOp28
 70
     1
102
RTVSPropertyOp29
 70
     1
102
RTVSPropertyOp30
 70
     1
102
RTVSPropertyOp31
 70
     1
102
RTVSPropertyOp32
 70
     1
102
RTVSPropertyOp33
 70
     1
102
RTVSPropertyOp34
 70
     1
102
RTVSPropertyOp35
 70
     1
102
RTVSPropertyOp36
 70
     1
102
RTVSPropertyOp37
 70
     1
102
RTVSPropertyOp38
 70
     1
102
RTVSPropertyOp39
 70
     1
102
RTVSPropertyOp40
 70
     1
102
RTVSPropertyOp41
 70
     1
102
RTVSPropertyOp42
 70
     1
102
RTVSPropertyOp43
 70
     1
102
RTVSPropertyOp44
 70
     1
102
RTVSPropertyOp45
 70
     1
102
RTVSPropertyOp46
 70
     1
102
RTVSPropertyOp47
 70
     1
102
RTVSPropertyOp48
 70
     1
102
RTVSPropertyOp49
 70
     1
102
RTVSPropertyOp50
 70
     1
102
RTVSPropertyOp51
 70
     0
102
RTVSPropertyOp52
 70
     0
102
RTVSPropertyOp53
 70
     1
102
RTVSPropertyOp54
 70
     1
102
RTVSPropertyOp55
 70
     1
102
RTVSPropertyOp56
 70
     1
102
RTVSPropertyOp57
 70
     1
102
RTVSPost2010Prop28
280
     0
102
RTVSPost2010PropOp28
 70
     1
102
RTVSPost2010Prop29
280
     1
102
RTVSPost2010PropOp29
 70
     1
102
RTVSPost2010Prop30
280
     1
102
RTVSPost2010PropOp30
 70
     1
102
RTVSPost2010Prop31
280
     0
102
RTVSPost2010PropOp31
 70
     1
102
RTVSPost2010Prop32
280
     0
102
RTVSPost2010PropOp32
 70
     1
102
RTVSPost2010Prop33
280
     0
102
RTVSPost2010PropOp33
 70
     1
102
RTVSPost2010Prop34
280
     0
102
RTVSPost2010PropOp34
 70
     1
102
RTVSPost2010Prop35
280
     0
102
RTVSPost2010PropOp35
 70
     1
102
RTVSPost2010Prop36
280
     0
102
RTVSPost2010PropOp36
 70
     1
102
RTVSPost2010Prop37
 90
       50
102
RTVSPost2010PropOp37
 70
     1
102
RTVSPost2010Prop38
140
0.0
102
RTVSPost2010PropOp38
 70
     1
102
RTVSPost2010Prop39
140
1.0
102
RTVSPost2010PropOp39
 70
     1
102
RTVSPost2010Prop40
 90
        0
102
RTVSPost2010PropOp40
 70
     1
102
RTVSPost2010Prop41ColorIndex
 90
       18
102
RTVSPost2010Prop41ColorRGB
 90
        0
102
RTVSPost2010PropOp41
 70
     1
102
RTVSPost2010Prop42
 90
       50
102
RTVSPost2010PropOp42
 70
     1
102
RTVSPost2010Prop43
 90
        3
102
RTVSPost2010PropOp43
 70
     1
102
RTVSPost2010Prop44ColorIndex
 90
        5
102
RTVSPost2010Prop44ColorRGB
 90
      255
102
RTVSPost2010PropOp44
 70
     1
102
RTVSPost2010Prop45
280
     0
102
RTVSPost2010PropOp45
 70
     1
102
RTVSPost2010Prop46
 90
       50
102
RTVSPost2010PropOp46
 70
     1
102
RTVSPost2010Prop47
 90
       50
102
RTVSPost2010PropOp47
 70
     1
102
RTVSPost2010Prop48
 90
       50
102
RTVSPost2010PropOp48
 70
     1
102
RTVSPost2010Prop49
280
     0
102
RTVSPost2010PropOp49
 70
     1
102
RTVSPost2010Prop50
 90
       50
102
RTVSPost2010PropOp50
 70
     1
102
RTVSPost2010Prop51ColorIndex
 90
      256
102
RTVSPost2010Prop51ColorRGB
 90
-16777216
102
RTVSPost2010PropOp51
 70
     0
102
RTVSPost2010Prop52
140
1.0
102
RTVSPost2010PropOp52
 70
     0
102
RTVSPost2010Prop53
 90
        2
102
RTVSPost2010PropOp53
 70
     1
102
RTVSPost2010Prop54
  1
strokes_ogs.tif
102
RTVSPost2010PropOp54
 70
     1
102
RTVSPost2010Prop55
280
     0
102
RTVSPost2010PropOp55
 70
     1
102
RTVSPost2010Prop56
140
1.0
102
RTVSPost2010PropOp56
 70
     1
102
RTVSPost2010Prop57
140
1.0
102
RTVSPost2010PropOp57
 70
     1
  0
XRECORD
  5
3E8
102
{ACAD_REACTORS
330
3E7
102
}
330
3E7
100
AcDbXrecord
280
     1
102
RTVSPropertyOp0
 70
     1
102
RTVSPropertyOp1
 70
     1
102
RTVSPropertyOp2
 70
     1
102
RTVSPropertyOp3
 70
     1
102
RTVSPropertyOp4
 70
     1
102
RTVSPropertyOp5
 70
     1
102
RTVSPropertyOp6
 70
     1
102
RTVSPropertyOp7
 70
     1
102
RTVSPropertyOp8
 70
     1
102
RTVSPropertyOp9
 70
     1
102
RTVSPropertyOp10
 70
     1
102
RTVSPropertyOp11
 70
     1
102
RTVSPropertyOp12
 70
     1
102
RTVSPropertyOp13
 70
     1
102
RTVSPropertyOp14
 70
     1
102
RTVSPropertyOp15
 70
     1
102
RTVSPropertyOp16
 70
     1
102
RTVSPropertyOp17
 70
     1
102
RTVSPropertyOp18
 70
     1
102
RTVSPropertyOp19
 70
     1
102
RTVSPropertyOp20
 70
     1
102
RTVSPropertyOp21
 70
     1
102
RTVSPropertyOp22
 70
     1
102
RTVSPropertyOp23
 70
     1
102
RTVSPropertyOp24
 70
     1
102
RTVSPropertyOp25
 70
     1
102
RTVSPropertyOp26
 70
     1
102
RTVSPropertyOp27
 70
     1
102
RTVSPropertyOp28
 70
     1
102
RTVSPropertyOp29
 70
     1
102
RTVSPropertyOp30
 70
     1
102
RTVSPropertyOp31
 70
     1
102
RTVSPropertyOp32
 70
     1
102
RTVSPropertyOp33
 70
     1
102
RTVSPropertyOp34
 70
     1
102
RTVSPropertyOp35
 70
     1
102
RTVSPropertyOp36
 70
     1
102
RTVSPropertyOp37
 70
     1
102
RTVSPropertyOp38
 70
     1
102
RTVSPropertyOp39
 70
     1
102
RTVSPropertyOp40
 70
     1
102
RTVSPropertyOp41
 70
     1
102
RTVSPropertyOp42
 70
     1
102
RTVSPropertyOp43
 70
     1
102
RTVSPropertyOp44
 70
     1
102
RTVSPropertyOp45
 70
     1
102
RTVSPropertyOp46
 70
     1
102
RTVSPropertyOp47
 70
     1
102
RTVSPropertyOp48
 70
     1
102
RTVSPropertyOp49
 70
     1
102
RTVSPropertyOp50
 70
     1
102
RTVSPropertyOp51
 70
     0
102
RTVSPropertyOp52
 70
     0
102
RTVSPropertyOp53
 70
     1
102
RTVSPropertyOp54
 70
     1
102
RTVSPropertyOp55
 70
     1
102
RTVSPropertyOp56
 70
     1
102
RTVSPropertyOp57
 70
     1
102
RTVSPost2010Prop28
280
     0
102
RTVSPost2010PropOp28
 70
     1
102
RTVSPost2010Prop29
280
     1
102
RTVSPost2010PropOp29
 70
     1
102
RTVSPost2010Prop30
280
     1
102
RTVSPost2010PropOp30
 70
     1
102
RTVSPost2010Prop31
280
     0
102
RTVSPost2010PropOp31
 70
     1
102
RTVSPost2010Prop32
280
     0
102
RTVSPost2010PropOp32
 70
     1
102
RTVSPost2010Prop33
280
     0
102
RTVSPost2010PropOp33
 70
     1
102
RTVSPost2010Prop34
280
     0
102
RTVSPost2010PropOp34
 70
     1
102
RTVSPost2010Prop35
280
     0
102
RTVSPost2010PropOp35
 70
     1
102
RTVSPost2010Prop36
280
     0
102
RTVSPost2010PropOp36
 70
     1
102
RTVSPost2010Prop37
 90
       50
102
RTVSPost2010PropOp37
 70
     1
102
RTVSPost2010Prop38
140
0.0
102
RTVSPost2010PropOp38
 70
     1
102
RTVSPost2010Prop39
140
1.0
102
RTVSPost2010PropOp39
 70
     1
102
RTVSPost2010Prop40
 90
        0
102
RTVSPost2010PropOp40
 70
     1
102
RTVSPost2010Prop41ColorIndex
 90
       18
102
RTVSPost2010Prop41ColorRGB
 90
        0
102
RTVSPost2010PropOp41
 70
     1
102
RTVSPost2010Prop42
 90
       50
102
RTVSPost2010PropOp42
 70
     1
102
RTVSPost2010Prop43
 90
        3
102
RTVSPost2010PropOp43
 70
     1
102
RTVSPost2010Prop44ColorIndex
 90
        5
102
RTVSPost2010Prop44ColorRGB
 90
      255
102
RTVSPost2010PropOp44
 70
     1
102
RTVSPost2010Prop45
280
     0
102
RTVSPost2010PropOp45
 70
     1
102
RTVSPost2010Prop46
 90
       50
102
RTVSPost2010PropOp46
 70
     1
102
RTVSPost2010Prop47
 90
       50
102
RTVSPost2010PropOp47
 70
     1
102
RTVSPost2010Prop48
 90
       50
102
RTVSPost2010PropOp48
 70
     1
102
RTVSPost2010Prop49
280
     0
102
RTVSPost2010PropOp49
 70
     1
102
RTVSPost2010Prop50
 90
       50
102
RTVSPost2010PropOp50
 70
     1
102
RTVSPost2010Prop51ColorIndex
 90
      256
102
RTVSPost2010Prop51ColorRGB
 90
-16777216
102
RTVSPost2010PropOp51
 70
     0
102
RTVSPost2010Prop52
140
1.0
102
RTVSPost2010PropOp52
 70
     0
102
RTVSPost2010Prop53
 90
        2
102
RTVSPost2010PropOp53
 70
     1
102
RTVSPost2010Prop54
  1
strokes_ogs.tif
102
RTVSPost2010PropOp54
 70
     1
102
RTVSPost2010Prop55
280
     0
102
RTVSPost2010PropOp55
 70
     1
102
RTVSPost2010Prop56
140
1.0
102
RTVSPost2010PropOp56
 70
     1
102
RTVSPost2010Prop57
140
1.0
102
RTVSPost2010PropOp57
 70
     1
  0
XRECORD
  5
3EA
102
{ACAD_REACTORS
330
3E9
102
}
330
3E9
100
AcDbXrecord
280
     1
102
RTVSPropertyOp0
 70
     1
102
RTVSPropertyOp1
 70
     1
102
RTVSPropertyOp2
 70
     1
102
RTVSPropertyOp3
 70
     1
102
RTVSPropertyOp4
 70
     1
102
RTVSPropertyOp5
 70
     1
102
RTVSPropertyOp6
 70
     1
102
RTVSPropertyOp7
 70
     1
102
RTVSPropertyOp8
 70
     1
102
RTVSPropertyOp9
 70
     1
102
RTVSPropertyOp10
 70
     1
102
RTVSPropertyOp11
 70
     1
102
RTVSPropertyOp12
 70
     1
102
RTVSPropertyOp13
 70
     1
102
RTVSPropertyOp14
 70
     1
102
RTVSPropertyOp15
 70
     1
102
RTVSPropertyOp16
 70
     1
102
RTVSPropertyOp17
 70
     1
102
RTVSPropertyOp18
 70
     1
102
RTVSPropertyOp19
 70
     1
102
RTVSPropertyOp20
 70
     1
102
RTVSPropertyOp21
 70
     1
102
RTVSPropertyOp22
 70
     1
102
RTVSPropertyOp23
 70
     1
102
RTVSPropertyOp24
 70
     1
102
RTVSPropertyOp25
 70
     1
102
RTVSPropertyOp26
 70
     1
102
RTVSPropertyOp27
 70
     1
102
RTVSPropertyOp28
 70
     1
102
RTVSPropertyOp29
 70
     1
102
RTVSPropertyOp30
 70
     1
102
RTVSPropertyOp31
 70
     1
102
RTVSPropertyOp32
 70
     1
102
RTVSPropertyOp33
 70
     1
102
RTVSPropertyOp34
 70
     1
102
RTVSPropertyOp35
 70
     1
102
RTVSPropertyOp36
 70
     1
102
RTVSPropertyOp37
 70
     1
102
RTVSPropertyOp38
 70
     1
102
RTVSPropertyOp39
 70
     1
102
RTVSPropertyOp40
 70
     1
102
RTVSPropertyOp41
 70
     1
102
RTVSPropertyOp42
 70
     1
102
RTVSPropertyOp43
 70
     1
102
RTVSPropertyOp44
 70
     1
102
RTVSPropertyOp45
 70
     1
102
RTVSPropertyOp46
 70
     1
102
RTVSPropertyOp47
 70
     1
102
RTVSPropertyOp48
 70
     1
102
RTVSPropertyOp49
 70
     1
102
RTVSPropertyOp50
 70
     1
102
RTVSPropertyOp51
 70
     0
102
RTVSPropertyOp52
 70
     0
102
RTVSPropertyOp53
 70
     1
102
RTVSPropertyOp54
 70
     1
102
RTVSPropertyOp55
 70
     1
102
RTVSPropertyOp56
 70
     1
102
RTVSPropertyOp57
 70
     1
102
RTVSPost2010Prop28
280
     0
102
RTVSPost2010PropOp28
 70
     1
102
RTVSPost2010Prop29
280
     1
102
RTVSPost2010PropOp29
 70
     1
102
RTVSPost2010Prop30
280
     1
102
RTVSPost2010PropOp30
 70
     1
102
RTVSPost2010Prop31
280
     0
102
RTVSPost2010PropOp31
 70
     1
102
RTVSPost2010Prop32
280
     0
102
RTVSPost2010PropOp32
 70
     1
102
RTVSPost2010Prop33
280
     0
102
RTVSPost2010PropOp33
 70
     1
102
RTVSPost2010Prop34
280
     0
102
RTVSPost2010PropOp34
 70
     1
102
RTVSPost2010Prop35
280
     0
102
RTVSPost2010PropOp35
 70
     1
102
RTVSPost2010Prop36
280
     0
102
RTVSPost2010PropOp36
 70
     1
102
RTVSPost2010Prop37
 90
       50
102
RTVSPost2010PropOp37
 70
     1
102
RTVSPost2010Prop38
140
0.0
102
RTVSPost2010PropOp38
 70
     1
102
RTVSPost2010Prop39
140
1.0
102
RTVSPost2010PropOp39
 70
     1
102
RTVSPost2010Prop40
 90
        0
102
RTVSPost2010PropOp40
 70
     1
102
RTVSPost2010Prop41ColorIndex
 90
       18
102
RTVSPost2010Prop41ColorRGB
 90
        0
102
RTVSPost2010PropOp41
 70
     1
102
RTVSPost2010Prop42
 90
       50
102
RTVSPost2010PropOp42
 70
     1
102
RTVSPost2010Prop43
 90
        3
102
RTVSPost2010PropOp43
 70
     1
102
RTVSPost2010Prop44ColorIndex
 90
        5
102
RTVSPost2010Prop44ColorRGB
 90
      255
102
RTVSPost2010PropOp44
 70
     1
102
RTVSPost2010Prop45
280
     0
102
RTVSPost2010PropOp45
 70
     1
102
RTVSPost2010Prop46
 90
       50
102
RTVSPost2010PropOp46
 70
     1
102
RTVSPost2010Prop47
 90
       50
102
RTVSPost2010PropOp47
 70
     1
102
RTVSPost2010Prop48
 90
       50
102
RTVSPost2010PropOp48
 70
     1
102
RTVSPost2010Prop49
280
     0
102
RTVSPost2010PropOp49
 70
     1
102
RTVSPost2010Prop50
 90
       50
102
RTVSPost2010PropOp50
 70
     1
102
RTVSPost2010Prop51ColorIndex
 90
      256
102
RTVSPost2010Prop51ColorRGB
 90
-16777216
102
RTVSPost2010PropOp51
 70
     0
102
RTVSPost2010Prop52
140
1.0
102
RTVSPost2010PropOp52
 70
     0
102
RTVSPost2010Prop53
 90
        2
102
RTVSPost2010PropOp53
 70
     1
102
RTVSPost2010Prop54
  1
strokes_ogs.tif
102
RTVSPost2010PropOp54
 70
     1
102
RTVSPost2010Prop55
280
     0
102
RTVSPost2010PropOp55
 70
     1
102
RTVSPost2010Prop56
140
1.0
102
RTVSPost2010PropOp56
 70
     1
102
RTVSPost2010Prop57
140
1.0
102
RTVSPost2010PropOp57
 70
     1
  0
ENDSEC
  0
EOF
