  0
SECTION
  2
HEADER
  9
$ACADVER
  1
AC1009
  9
$INSBASE
 10
0.0
 20
0.0
 30
0.0
  9
$EXTMIN
 10
9.9963383446405487
 20
2.381287252508741
 30
-0.0015258207003583
  9
$EXTMAX
 10
190.00579878222879
 20
270.00824037474621
 30
0.0000000349246037
  9
$LIMMIN
 10
0.0
 20
0.0
  9
$LIMMAX
 10
0.0
 20
0.0
  9
$ORTHOMODE
 70
     0
  9
$REGENMODE
 70
     1
  9
$FILLMODE
 70
     1
  9
$QTEXTMODE
 70
     0
  9
$MIRRTEXT
 70
     1
  9
$DRAGMODE
 70
     2
  9
$LTSCALE
 40
5.0800000000000001
  9
$OSMODE
 70
   231
  9
$ATTMODE
 70
     1
  9
$TEXTSIZE
 40
0.0
  9
$TRACEWID
 40
1.0
  9
$TEXTSTYLE
  7
STANDARD
  9
$CLAYER
  8
DATA
  9
$CELTYPE
  6
BYLAYER
  9
$CECOLOR
 62
   256
  9
$DIMSCALE
 40
1.0
  9
$DIMASZ
 40
0.18
  9
$DIMEXO
 40
0.0625
  9
$DIMDLI
 40
0.38
  9
$DIMRND
 40
0.0
  9
$DIMDLE
 40
0.0
  9
$DIMEXE
 40
0.18
  9
$DIMTP
 40
0.0
  9
$DIMTM
 40
0.0
  9
$DIMTXT
 40
0.18
  9
$DIMCEN
 40
0.09
  9
$DIMTSZ
 40
0.0
  9
$DIMTOL
 70
     0
  9
$DIMLIM
 70
     0
  9
$DIMTIH
 70
     1
  9
$DIMTOH
 70
     1
  9
$DIMSE1
 70
     0
  9
$DIMSE2
 70
     0
  9
$DIMTAD
 70
     0
  9
$DIMZIN
 70
     0
  9
$DIMBLK
  1

  9
$DIMASO
 70
     1
  9
$DIMSHO
 70
     1
  9
$DIMPOST
  1

  9
$DIMAPOST
  1

  9
$DIMALT
 70
     0
  9
$DIMALTD
 70
     2
  9
$DIMALTF
 40
25.399999999999999
  9
$DIMLFAC
 40
1.0
  9
$DIMTOFL
 70
     0
  9
$DIMTVP
 40
0.0
  9
$DIMTIX
 70
     0
  9
$DIMSOXD
 70
     0
  9
$DIMSAH
 70
     0
  9
$DIMBLK1
  1

  9
$DIMBLK2
  1

  9
$DIMSTYLE
  2
STANDARD
  9
$DIMCLRD
 70
     0
  9
$DIMCLRE
 70
     0
  9
$DIMCLRT
 70
     0
  9
$DIMTFAC
 40
1.0
  9
$DIMGAP
 40
0.09
  9
$LUNITS
 70
     2
  9
$LUPREC
 70
     4
  9
$SKETCHINC
 40
0.1
  9
$FILLETRAD
 40
0.0
  9
$AUNITS
 70
     0
  9
$AUPREC
 70
     0
  9
$MENU
  1
acad
  9
$ELEVATION
 40
0.0
  9
$PELEVATION
 40
0.0
  9
$THICKNESS
 40
0.0
  9
$LIMCHECK
 70
     0
  9
$BLIPMODE
 70
     0
  9
$CHAMFERA
 40
0.0
  9
$CHAMFERB
 40
0.0
  9
$SKPOLY
 70
     0
  9
$TDCREATE
 40
2455092.668425926
  9
$TDUPDATE
 40
2455092.6811426268
  9
$TDINDWG
 40
0.0003102662
  9
$TDUSRTIMER
 40
0.0003102662
  9
$USRTIMER
 70
     1
  9
$ANGBASE
 50
0.0
  9
$ANGDIR
 70
     0
  9
$PDMODE
 70
     1
  9
$PDSIZE
 40
-2.0
  9
$PLINEWID
 40
0.0
  9
$COORDS
 70
     0
  9
$SPLFRAME
 70
     0
  9
$SPLINETYPE
 70
     6
  9
$SPLINESEGS
 70
     8
  9
$ATTDIA
 70
     0
  9
$ATTREQ
 70
     1
  9
$HANDLING
 70
     1
  9
$HANDSEED
  5
382
  9
$SURFTAB1
 70
     6
  9
$SURFTAB2
 70
     6
  9
$SURFTYPE
 70
     6
  9
$SURFU
 70
     6
  9
$SURFV
 70
     6
  9
$UCSNAME
  2

  9
$UCSORG
 10
0.0
 20
0.0
 30
0.0
  9
$UCSXDIR
 10
1.0
 20
0.0
 30
0.0
  9
$UCSYDIR
 10
0.0
 20
1.0
 30
0.0
  9
$PUCSNAME
  2

  9
$PUCSORG
 10
0.0
 20
0.0
 30
0.0
  9
$PUCSXDIR
 10
1.0
 20
0.0
 30
0.0
  9
$PUCSYDIR
 10
0.0
 20
1.0
 30
0.0
  9
$USERI1
 70
     0
  9
$USERI2
 70
     0
  9
$USERI3
 70
     0
  9
$USERI4
 70
     0
  9
$USERI5
 70
     0
  9
$USERR1
 40
0.0
  9
$USERR2
 40
0.0
  9
$USERR3
 40
0.0
  9
$USERR4
 40
0.0
  9
$USERR5
 40
0.0
  9
$WORLDVIEW
 70
     1
  9
$SHADEDGE
 70
     3
  9
$SHADEDIF
 70
    70
  9
$TILEMODE
 70
     1
  9
$MAXACTVP
 70
    64
  9
$PLIMCHECK
 70
     0
  9
$PEXTMIN
 10
1.0000000000000000E+020
 20
1.0000000000000000E+020
 30
1.0000000000000000E+020
  9
$PEXTMAX
 10
-1.0000000000000000E+020
 20
-1.0000000000000000E+020
 30
-1.0000000000000000E+020
  9
$PLIMMIN
 10
0.0
 20
0.0
  9
$PLIMMAX
 10
12.0
 20
9.0
  9
$UNITMODE
 70
     0
  9
$VISRETAIN
 70
     0
  9
$PLINEGEN
 70
     1
  9
$PSLTSCALE
 70
     0
  0
ENDSEC
  0
SECTION
  2
TABLES
  0
TABLE
  2
VPORT
 70
     1
  0
VPORT
  2
*ACTIVE
 70
     0
 10
0.0
 20
0.0
 11
1.0
 21
1.0
 12
100.0010685634346
 22
136.19476381362739
 13
0.0
 23
0.0
 14
1.0
 24
1.0
 15
0.0
 25
0.0
 16
0.0
 26
0.0
 36
1.0
 17
0.0
 27
0.0
 37
0.0
 40
269.62168817656459
 41
1.9863184079601981
 42
50.0
 43
0.0
 44
0.0
 50
0.0
 51
0.0
 71
     0
 72
  2000
 73
     1
 74
     1
 75
     0
 76
     0
 77
     0
 78
     0
  0
ENDTAB
  0
TABLE
  2
LTYPE
 70
    11
  0
LTYPE
  2
CONTINUOUS
 70
     0
  3
Solid line
 72
    65
 73
     0
 40
0.0
  0
LTYPE
  2
STYLE_01
 70
     0
  3

 72
    65
 73
     2
 40
0.4166412353515625
 49
0.208282470703125
 49
-0.2083587646484375
  0
ENDTAB
  0
TABLE
  2
LAYER
 70
     6
  0
LAYER
  2
0
 70
     0
 62
     7
  6
CONTINUOUS
  0
LAYER
  2
DATA
 70
     0
 62
     7
  6
CONTINUOUS
  0
LAYER
  2
HIBINO-BASE
 70
     0
 62
     7
  6
CONTINUOUS
  0
LAYER
  2
PATTERN_FILL
 70
     0
 62
     7
  6
CONTINUOUS
  0
LAYER
  2
SPEC
 70
     0
 62
     7
  6
CONTINUOUS
  0
LAYER
  2
DIMNSIONS
 70
     0
 62
     7
  6
CONTINUOUS
  0
ENDTAB
  0
TABLE
  2
STYLE
 70
     3
  0
STYLE
  2
STANDARD
 70
     0
 40
0.0
 41
1.0
 50
0.0
 71
     0
 42
0.0
  3
txt
  4
BIGFONT.SHX
  0
ENDTAB
  0
TABLE
  2
VIEW
 70
     0
  0
ENDTAB
  0
TABLE
  2
UCS
 70
     0
  0
ENDTAB
  0
TABLE
  2
APPID
 70
     3
  0
APPID
  2
ACAD
 70
     0
  0
APPID
  2
ACADANNOTATIVE
 70
     0
  0
APPID
  2
ACAD_MLEADERVER
 70
     0
  0
ENDTAB
  0
TABLE
  2
DIMSTYLE
 70
     2
  0
DIMSTYLE
  2
STANDARD
 70
     0
  3

  4

  5

  6

  7

 40
1.0
 41
0.18
 42
0.0625
 43
0.38
 44
0.18
 45
0.0
 46
0.0
 47
0.0
 48
0.0
140
0.18
141
0.09
142
0.0
143
25.399999999999999
144
1.0
145
0.0
146
1.0
147
0.09
 71
     0
 72
     0
 73
     1
 74
     1
 75
     0
 76
     0
 77
     0
 78
     0
170
     0
171
     2
172
     0
173
     0
174
     0
175
     0
176
     0
177
     0
178
     0
  0
ENDTAB
  0
ENDSEC
  0
SECTION
  2
BLOCKS
  0
BLOCK
  8
0
  2
$MODEL_SPACE
 70
     0
 10
0.0
 20
0.0
 30
0.0
  3
$MODEL_SPACE
  1

  0
ENDBLK
  5
264
  8
0
  0
BLOCK
 67
     1
  8
0
  2
$PAPER_SPACE
 70
     0
 10
0.0
 20
0.0
 30
0.0
  3
$PAPER_SPACE
  1

  0
ENDBLK
  5
260
 67
     1
  8
0
  0
ENDSEC
  0
SECTION
  2
ENTITIES
  0
LINE
  5
2D
  8
HIBINO-BASE
  6
CONTINUOUS
 62
     7
 10
10.0
 20
270.0
 30
0.0
 11
190.0
 21
270.0
 31
0.0
  0
LINE
  5
2E
  8
HIBINO-BASE
  6
CONTINUOUS
 62
     7
 10
190.0
 20
10.0
 30
0.0
 11
10.0
 21
10.0
 31
0.0
  0
LINE
  5
2F
  8
HIBINO-BASE
  6
CONTINUOUS
 62
     7
 10
10.0
 20
10.0
 30
0.0
 11
10.0
 21
270.0
 31
0.0
  0
TEXT
  5
30
  8
HIBINO-BASE
 62
     7
 10
17.18399999999999
 20
3.591322200000036
 30
0.0
 40
3.6000441796875
  1
Hibino Corporation
 41
0.7
 11
17.18399999999999
 21
7.191366379687536
 31
0.0
 73
     3
1001
ACADANNOTATIVE
1000
AnnotativeData
1002
{
1070
     1
1070
     0
1002
}
  0
LINE
  5
31
  8
HIBINO-BASE
  6
CONTINUOUS
 62
     7
 10
190.0
 20
270.0
 30
0.0
 11
190.0
 21
10.0
 31
0.0
  0
LINE
  5
32
  8
HIBINO-BASE
  6
CONTINUOUS
 62
     7
 10
100.0
 20
32.500000000000007
 30
0.0
 11
190.0
 21
32.500000000000007
 31
0.0
  0
LINE
  5
33
  8
HIBINO-BASE
  6
CONTINUOUS
 62
     7
 10
100.0
 20
10.0
 30
0.0
 11
100.0
 21
32.500000000000007
 31
0.0
  0
TEXT
  5
34
  8
HIBINO-BASE
 62
     7
 10
100.90000000000001
 20
29.991306666666681
 30
0.0
 40
1.6288411458333329
  1
NOTE
 41
0.7
 11
100.90000000000001
 21
31.620147812500011
 31
0.0
 73
     3
1001
ACADANNOTATIVE
1000
AnnotativeData
1002
{
1070
     1
1070
     0
1002
}
  0
LINE
  5
35
  8
HIBINO-BASE
  6
CONTINUOUS
 62
     7
 10
135.0
 20
10.0
 30
0.0
 11
135.0
 21
32.500000000000007
 31
0.0
  0
TEXT
  5
36
  8
HIBINO-BASE
 62
     7
 10
135.89999999999989
 20
29.991306666666681
 30
0.0
 40
1.6288411458333329
  1
TITLE
 41
0.7
 11
135.89999999999989
 21
31.620147812500011
 31
0.0
 73
     3
1001
ACADANNOTATIVE
1000
AnnotativeData
1002
{
1070
     1
1070
     0
1002
}
  0
TEXT
  5
37
  8
HIBINO-BASE
 62
     7
 10
150.06838999999991
 20
3.591322200000036
 30
0.0
 40
3.6000441796875
  1
ヒビノ株式会社
 41
0.7
 11
150.06838999999991
 21
7.191366379687536
 31
0.0
 73
     3
1001
ACADANNOTATIVE
1000
AnnotativeData
1002
{
1070
     1
1070
     0
1002
}
  0
LINE
  5
38
  8
HIBINO-BASE
  6
CONTINUOUS
 62
     7
 10
100.0
 20
20.000000000000011
 30
0.0
 11
190.0
 21
20.000000000000011
 31
0.0
  0
TEXT
  5
39
  8
HIBINO-BASE
 62
     7
 10
148.39999999999989
 20
17.54762666666667
 30
0.0
 40
1.6288411458333329
  1
DRAWN
 41
0.7
 11
148.39999999999989
 21
19.176467812500011
 31
0.0
 73
     3
1001
ACADANNOTATIVE
1000
AnnotativeData
1002
{
1070
     1
1070
     0
1002
}
  0
TEXT
  5
3A
  8
HIBINO-BASE
 62
     7
 10
123.39999999999991
 20
17.54762666666667
 30
0.0
 40
1.6288411458333329
  1
DATE
 41
0.7
 11
123.39999999999991
 21
19.176467812500011
 31
0.0
 73
     3
1001
ACADANNOTATIVE
1000
AnnotativeData
1002
{
1070
     1
1070
     0
1002
}
  0
TEXT
  5
3B
  8
HIBINO-BASE
 62
     7
 10
113.40000000000001
 20
17.54762666666667
 30
0.0
 40
1.6288411458333329
  1
SCALE
 41
0.7
 11
113.40000000000001
 21
19.176467812500011
 31
0.0
 73
     3
1001
ACADANNOTATIVE
1000
AnnotativeData
1002
{
1070
     1
1070
     0
1002
}
  0
TEXT
  5
3C
  8
HIBINO-BASE
 62
     7
 10
135.89999999999989
 20
17.54762666666667
 30
0.0
 40
1.6288411458333329
  1
DESIGN
 41
0.7
 11
135.89999999999989
 21
19.176467812500011
 31
0.0
 73
     3
1001
ACADANNOTATIVE
1000
AnnotativeData
1002
{
1070
     1
1070
     0
1002
}
  0
TEXT
  5
3D
  8
HIBINO-BASE
 62
     7
 10
173.39999999999989
 20
17.54762666666667
 30
0.0
 40
1.6288411458333329
  1
DRAWING NO.
 41
0.7
 11
173.39999999999989
 21
19.176467812500011
 31
0.0
 73
     3
1001
ACADANNOTATIVE
1000
AnnotativeData
1002
{
1070
     1
1070
     0
1002
}
  0
TEXT
  5
3E
  8
HIBINO-BASE
 62
     7
 10
160.89999999999989
 20
17.54762666666667
 30
0.0
 40
1.6288411458333329
  1
CHECK
 41
0.7
 11
160.89999999999989
 21
19.176467812500011
 31
0.0
 73
     3
1001
ACADANNOTATIVE
1000
AnnotativeData
1002
{
1070
     1
1070
     0
1002
}
  0
LINE
  5
3F
  8
HIBINO-BASE
  6
CONTINUOUS
 62
     7
 10
114.375
 20
11.25
 30
0.0
 11
118.125
 21
15.000000000000011
 31
0.0
  0
TEXT
  5
40
  8
HIBINO-BASE
 62
     7
 10
113.75
 20
13.891056666666669
 30
0.0
 40
1.6288411458333329
  1
1
 41
0.7
 11
113.75
 21
15.5198978125
 31
0.0
 73
     3
1001
ACADANNOTATIVE
1000
AnnotativeData
1002
{
1070
     1
1070
     0
1002
}
  0
LINE
  5
41
  8
HIBINO-BASE
  6
CONTINUOUS
 62
     7
 10
112.5
 20
10.0
 30
0.0
 11
112.5
 21
20.000000000000011
 31
0.0
  0
LINE
  5
42
  8
HIBINO-BASE
  6
CONTINUOUS
 62
     7
 10
122.5
 20
10.0
 30
0.0
 11
122.5
 21
20.000000000000011
 31
0.0
  0
LINE
  5
43
  8
HIBINO-BASE
  6
CONTINUOUS
 62
     7
 10
147.49999999999989
 20
20.000000000000011
 30
0.0
 11
147.49999999999989
 21
10.0
 31
0.0
  0
LINE
  5
44
  8
HIBINO-BASE
  6
CONTINUOUS
 62
     7
 10
172.5
 20
20.000000000000011
 30
0.0
 11
172.5
 21
10.0
 31
0.0
  0
LINE
  5
45
  8
HIBINO-BASE
  6
CONTINUOUS
 62
     7
 10
159.99999999999989
 20
10.0
 30
0.0
 11
159.99999999999989
 21
20.000000000000011
 31
0.0
  0
TEXT
  5
46
  8
HIBINO-BASE
 62
     7
 10
123.35654
 20
12.86364666666667
 30
0.0
 40
1.6288411458333329
  1
'09.09.
 41
0.7
 11
123.35654
 21
14.4924878125
 31
0.0
 73
     3
1001
ACADANNOTATIVE
1000
AnnotativeData
1002
{
1070
     1
1070
     0
1002
}
  0
TEXT
  5
47
  8
HIBINO-BASE
 62
     7
 10
117.5
 20
12.016056666666669
 30
0.0
 40
1.6288411458333329
  1
1
 41
0.7
 11
117.5
 21
13.6448978125
 31
0.0
 73
     3
1001
ACADANNOTATIVE
1000
AnnotativeData
1002
{
1070
     1
1070
     0
1002
}
  0
TEXT
  5
48
  8
HIBINO-BASE
 62
     7
 10
149.00581001103461
 20
12.86364666666667
 30
0.0
 40
1.6288411458333329
  1
N.Sasaki
 41
0.7
 11
149.00581001103461
 21
14.4924878125
 31
0.0
 73
     3
1001
ACADANNOTATIVE
1000
AnnotativeData
1002
{
1070
     1
1070
     0
1002
}
  0
TEXT
  5
49
  8
HIBINO-BASE
 62
     7
 10
103.8833333333333
 20
11.97600000000001
 30
0.0
 40
3.2576822916666659
  1
A4
 41
0.7
 11
103.8833333333333
 21
15.23368229166668
 31
0.0
 73
     3
1001
ACADANNOTATIVE
1000
AnnotativeData
1002
{
1070
     1
1070
     0
1002
}
  0
TEXT
  5
4A
  8
HIBINO-BASE
 62
     7
 10
100.9583333333333
 20
17.380545000000009
 30
0.0
 40
1.6288411458333329
  1
PAPER SIZE
 41
0.7
 11
100.9583333333333
 21
19.009386145833339
 31
0.0
 73
     3
1001
ACADANNOTATIVE
1000
AnnotativeData
1002
{
1070
     1
1070
     0
1002
}
  0
ARC
  5
4B
  8
PATTERN_FILL
  6
CONTINUOUS
 62
     7
 10
85.016575966899353
 20
188.5276711531618
 30
0.0
 40
0.3000000000000023
 50
238.9418232980498
 51
338.74144511204412
  0
ARC
  5
4C
  8
PATTERN_FILL
  6
CONTINUOUS
 62
     7
 10
85.816575966899336
 20
188.5276711531618
 30
0.0
 40
0.2999999999999991
 50
188.3967453183532
 51
17.651703065818388
  0
ARC
  5
4D
  8
PATTERN_FILL
  6
CONTINUOUS
 62
     7
 10
86.616575966899362
 20
188.5276711531618
 30
0.0
 40
0.2999999999999981
 50
153.61958594304471
 51
40.222762662587428
  0
ARC
  5
4E
  8
PATTERN_FILL
  6
CONTINUOUS
 62
     7
 10
87.416575966899359
 20
188.5276711531618
 30
0.0
 40
0.3000000000000023
 50
133.75665768768391
 51
286.1456530573879
  0
ARC
  5
4F
  8
PATTERN_FILL
  6
CONTINUOUS
 62
     7
 10
84.216575966899342
 20
187.72767115316171
 30
0.0
 40
0.3000000000000009
 50
299.98203501673459
 51
78.56550458315894
  0
CIRCLE
  5
50
  8
PATTERN_FILL
  6
CONTINUOUS
 62
     7
 10
85.016575966899353
 20
187.72767115316171
 30
0.0
 40
0.3000000000000007
  0
CIRCLE
  5
51
  8
PATTERN_FILL
  6
CONTINUOUS
 62
     7
 10
85.816575966899336
 20
187.72767115316171
 30
0.0
 40
0.3000000000000007
  0
CIRCLE
  5
52
  8
PATTERN_FILL
  6
CONTINUOUS
 62
     7
 10
86.616575966899362
 20
187.72767115316171
 30
0.0
 40
0.3000000000000007
  0
ARC
  5
53
  8
PATTERN_FILL
  6
CONTINUOUS
 62
     7
 10
87.416575966899359
 20
187.72767115316171
 30
0.0
 40
0.3000000000000015
 50
73.854346942611812
 51
286.14565305738819
  0
CIRCLE
  5
54
  8
PATTERN_FILL
  6
CONTINUOUS
 62
     7
 10
90.616575966899362
 20
187.72767115316171
 30
0.0
 40
0.3000000000000007
  0
ARC
  5
55
  8
PATTERN_FILL
  6
CONTINUOUS
 62
     7
 10
91.416575966899359
 20
187.72767115316171
 30
0.0
 40
0.3000000000000011
 50
163.37578669813479
 51
314.30761774622511
  0
ARC
  5
56
  8
PATTERN_FILL
  6
CONTINUOUS
 62
     7
 10
85.016575966899353
 20
186.9276711531617
 30
0.0
 40
0.2999999999999971
 50
268.96303052258088
 51
166.03900407175681
  0
CIRCLE
  5
57
  8
PATTERN_FILL
  6
CONTINUOUS
 62
     7
 10
85.816575966899336
 20
186.9276711531617
 30
0.0
 40
0.3000000000000007
  0
CIRCLE
  5
58
  8
PATTERN_FILL
  6
CONTINUOUS
 62
     7
 10
86.616575966899362
 20
186.9276711531617
 30
0.0
 40
0.3000000000000007
  0
ARC
  5
59
  8
PATTERN_FILL
  6
CONTINUOUS
 62
     7
 10
87.416575966899359
 20
186.9276711531617
 30
0.0
 40
0.3000000000000015
 50
73.854346942611812
 51
286.14565305738819
  0
CIRCLE
  5
5A
  8
PATTERN_FILL
  6
CONTINUOUS
 62
     7
 10
90.616575966899362
 20
186.9276711531617
 30
0.0
 40
0.3000000000000007
  0
CIRCLE
  5
5B
  8
PATTERN_FILL
  6
CONTINUOUS
 62
     7
 10
91.416575966899359
 20
186.9276711531617
 30
0.0
 40
0.3000000000000007
  0
ARC
  5
5C
  8
PATTERN_FILL
  6
CONTINUOUS
 62
     7
 10
92.216575966899356
 20
186.9276711531617
 30
0.0
 40
0.3000000000000016
 50
118.01833188986031
 51
342.5472366044055
  0
ARC
  5
5D
  8
PATTERN_FILL
  6
CONTINUOUS
 62
     7
 10
81.816575966899364
 20
186.1276711531618
 30
0.0
 40
0.3000000000000014
 50
228.50840605582491
 51
3.4878202756588621
  0
CIRCLE
  5
5E
  8
PATTERN_FILL
  6
CONTINUOUS
 62
     7
 10
85.816575966899336
 20
186.1276711531618
 30
0.0
 40
0.3000000000000007
  0
CIRCLE
  5
5F
  8
PATTERN_FILL
  6
CONTINUOUS
 62
     7
 10
86.616575966899362
 20
186.1276711531618
 30
0.0
 40
0.3000000000000007
  0
ARC
  5
60
  8
PATTERN_FILL
  6
CONTINUOUS
 62
     7
 10
87.416575966899359
 20
186.1276711531618
 30
0.0
 40
0.3000000000000015
 50
73.854346942611812
 51
286.14565305738819
  0
CIRCLE
  5
61
  8
PATTERN_FILL
  6
CONTINUOUS
 62
     7
 10
90.616575966899362
 20
186.1276711531618
 30
0.0
 40
0.3000000000000007
  0
ARC
  5
62
  8
PATTERN_FILL
  6
CONTINUOUS
 62
     7
 10
91.416575966899345
 20
186.1276711531618
 30
0.0
 40
0.300000000000022
 50
356.55786122926122
 51
258.72007167614328
  0
ARC
  5
63
  8
PATTERN_FILL
  6
CONTINUOUS
 62
     7
 10
81.016575966899353
 20
185.32767115316179
 30
0.0
 40
0.3000000000000077
 50
270.82246304129592
 51
24.842849519098571
  0
CIRCLE
  5
64
  8
PATTERN_FILL
  6
CONTINUOUS
 62
     7
 10
81.816575966899364
 20
185.3276711531617
 30
0.0
 40
0.3000000000000007
  0
ARC
  5
65
  8
PATTERN_FILL
  6
CONTINUOUS
 62
     7
 10
82.616575966899362
 20
185.3276711531617
 30
0.0
 40
0.3000000000000007
 50
107.4947404456879
 51
327.78319245971733
  0
ARC
  5
66
  8
PATTERN_FILL
  6
CONTINUOUS
 62
     7
 10
85.816575966899336
 20
185.32767115316179
 30
0.0
 40
0.2999999999999979
 50
338.0443122107867
 51
96.957722383553048
  0
CIRCLE
  5
67
  8
PATTERN_FILL
  6
CONTINUOUS
 62
     7
 10
86.616575966899362
 20
185.3276711531617
 30
0.0
 40
0.3000000000000007
  0
ARC
  5
68
  8
PATTERN_FILL
  6
CONTINUOUS
 62
     7
 10
87.416575966899359
 20
185.3276711531617
 30
0.0
 40
0.3000000000000015
 50
73.854346942611812
 51
286.14565305738819
  0
ARC
  5
69
  8
PATTERN_FILL
  6
CONTINUOUS
 62
     7
 10
90.616575966899362
 20
185.3276711531617
 30
0.0
 40
0.3000000000000023
 50
27.621311083026239
 51
227.6566218223798
  0
ARC
  5
6A
  8
PATTERN_FILL
  6
CONTINUOUS
 62
     7
 10
81.016575966899353
 20
184.5276711531618
 30
0.0
 40
0.2999999999999956
 50
192.2943684458169
 51
114.0682089711721
  0
CIRCLE
  5
6B
  8
PATTERN_FILL
  6
CONTINUOUS
 62
     7
 10
81.816575966899364
 20
184.5276711531618
 30
0.0
 40
0.3000000000000007
  0
CIRCLE
  5
6C
  8
PATTERN_FILL
  6
CONTINUOUS
 62
     7
 10
82.616575966899362
 20
184.5276711531618
 30
0.0
 40
0.3000000000000007
  0
ARC
  5
6D
  8
PATTERN_FILL
  6
CONTINUOUS
 62
     7
 10
83.416575966899359
 20
184.5276711531618
 30
0.0
 40
0.3000000000000008
 50
135.61683606919959
 51
299.66109683620539
  0
ARC
  5
6E
  8
PATTERN_FILL
  6
CONTINUOUS
 62
     7
 10
86.616575966899362
 20
184.5276711531618
 30
0.0
 40
0.2999999999999968
 50
308.41839560715869
 51
126.58363898718081
  0
ARC
  5
6F
  8
PATTERN_FILL
  6
CONTINUOUS
 62
     7
 10
87.416575966899359
 20
184.5276711531618
 30
0.0
 40
0.3000000000000015
 50
73.854346942611812
 51
286.14565305738819
  0
ARC
  5
70
  8
PATTERN_FILL
  6
CONTINUOUS
 62
     7
 10
93.81657596689935
 20
184.5276711531618
 30
0.0
 40
0.3000000000000024
 50
227.91939870561109
 51
27.082635888727278
  0
ARC
  5
71
  8
PATTERN_FILL
  6
CONTINUOUS
 62
     7
 10
81.016575966899353
 20
183.72767115316171
 30
0.0
 40
0.2999999999999961
 50
24.064376094995861
 51
155.9356239050029
  0
ARC
  5
72
  8
PATTERN_FILL
  6
CONTINUOUS
 62
     7
 10
81.816575966899364
 20
183.72767115316171
 30
0.0
 40
0.3000000000000007
 50
24.06437609498952
 51
155.9356239050104
  0
ARC
  5
73
  8
PATTERN_FILL
  6
CONTINUOUS
 62
     7
 10
82.616575966899362
 20
183.72767115316171
 30
0.0
 40
0.3000000000000023
 50
24.06437609499682
 51
155.93562390500321
  0
ARC
  5
74
  8
PATTERN_FILL
  6
CONTINUOUS
 62
     7
 10
83.416575966899359
 20
183.72767115316171
 30
0.0
 40
0.3000000000000023
 50
24.06437609499682
 51
155.93562390500321
  0
ARC
  5
75
  8
PATTERN_FILL
  6
CONTINUOUS
 62
     7
 10
87.416575966899359
 20
183.72767115316171
 30
0.0
 40
0.3000000000000015
 50
73.854346942611812
 51
155.93645095279601
  0
ARC
  5
76
  8
PATTERN_FILL
  6
CONTINUOUS
 62
     7
 10
87.416575966899359
 20
183.72767115316171
 30
0.0
 40
0.2999999999999989
 50
279.06558364154262
 51
286.14565305738819
  0
ARC
  5
77
  8
PATTERN_FILL
  6
CONTINUOUS
 62
     7
 10
93.016575966899353
 20
183.72767115316171
 30
0.0
 40
0.2999999999999996
 50
199.36077070261979
 51
55.641263891718282
  0
CIRCLE
  5
78
  8
PATTERN_FILL
  6
CONTINUOUS
 62
     7
 10
93.81657596689935
 20
183.72767115316171
 30
0.0
 40
0.3000000000000007
  0
ARC
  5
79
  8
PATTERN_FILL
  6
CONTINUOUS
 62
     7
 10
94.616575966899376
 20
183.72767115316171
 30
0.0
 40
0.3000000000000006
 50
117.1351670667234
 51
281.25646335304771
  0
ARC
  5
7A
  8
PATTERN_FILL
  6
CONTINUOUS
 62
     7
 10
91.416575966899359
 20
182.9276711531617
 30
0.0
 40
0.3000000000000032
 50
272.57366368648741
 51
342.42837090785139
  0
ARC
  5
7B
  8
PATTERN_FILL
  6
CONTINUOUS
 62
     7
 10
92.216575966899356
 20
182.9276711531617
 30
0.0
 40
0.3000000000000017
 50
164.0331890111533
 51
90.968845583184077
  0
CIRCLE
  5
7C
  8
PATTERN_FILL
  6
CONTINUOUS
 62
     7
 10
93.016575966899353
 20
182.9276711531617
 30
0.0
 40
0.3000000000000007
  0
CIRCLE
  5
7D
  8
PATTERN_FILL
  6
CONTINUOUS
 62
     7
 10
93.81657596689935
 20
182.9276711531617
 30
0.0
 40
0.3000000000000007
  0
ARC
  5
7E
  8
PATTERN_FILL
  6
CONTINUOUS
 62
     7
 10
94.616575966899376
 20
182.9276711531617
 30
0.0
 40
0.3000000000000028
 50
65.283605081298575
 51
321.24598937406239
  0
ARC
  5
7F
  8
PATTERN_FILL
  6
CONTINUOUS
 62
     7
 10
90.616575966899333
 20
182.1276711531618
 30
0.0
 40
0.3000000000000068
 50
236.6302468205555
 51
18.371787773783179
  0
CIRCLE
  5
80
  8
PATTERN_FILL
  6
CONTINUOUS
 62
     7
 10
91.416575966899359
 20
182.1276711531618
 30
0.0
 40
0.3000000000000007
  0
CIRCLE
  5
81
  8
PATTERN_FILL
  6
CONTINUOUS
 62
     7
 10
92.216575966899356
 20
182.1276711531618
 30
0.0
 40
0.3000000000000007
  0
CIRCLE
  5
82
  8
PATTERN_FILL
  6
CONTINUOUS
 62
     7
 10
93.016575966899353
 20
182.1276711531618
 30
0.0
 40
0.3000000000000007
  0
CIRCLE
  5
83
  8
PATTERN_FILL
  6
CONTINUOUS
 62
     7
 10
93.81657596689935
 20
182.1276711531618
 30
0.0
 40
0.3000000000000007
  0
CIRCLE
  5
84
  8
PATTERN_FILL
  6
CONTINUOUS
 62
     7
 10
94.616575966899376
 20
182.1276711531618
 30
0.0
 40
0.3000000000000007
  0
ARC
  5
85
  8
PATTERN_FILL
  6
CONTINUOUS
 62
     7
 10
80.216575966899342
 20
181.3276711531617
 30
0.0
 40
0.2999999999999987
 50
195.00503006406879
 51
344.99496993593118
  0
ARC
  5
86
  8
PATTERN_FILL
  6
CONTINUOUS
 62
     7
 10
81.016575966899353
 20
181.3276711531617
 30
0.0
 40
0.299999999999996
 50
195.00503006407729
 51
344.9949699359226
  0
ARC
  5
87
  8
PATTERN_FILL
  6
CONTINUOUS
 62
     7
 10
81.816575966899364
 20
181.3276711531617
 30
0.0
 40
0.3
 50
195.00503006406441
 51
344.9949699359355
  0
ARC
  5
88
  8
PATTERN_FILL
  6
CONTINUOUS
 62
     7
 10
82.616575966899362
 20
181.3276711531617
 30
0.0
 40
0.2999999999999987
 50
195.00503006406879
 51
344.99496993593118
  0
ARC
  5
89
  8
PATTERN_FILL
  6
CONTINUOUS
 62
     7
 10
83.416575966899359
 20
181.3276711531617
 30
0.0
 40
0.3000000000000014
 50
195.00503006406021
 51
344.99496993593982
  0
ARC
  5
8A
  8
PATTERN_FILL
  6
CONTINUOUS
 62
     7
 10
84.216575966899342
 20
181.3276711531617
 30
0.0
 40
0.3000000000000003
 50
195.00503006406859
 51
344.99496993593118
  0
ARC
  5
8B
  8
PATTERN_FILL
  6
CONTINUOUS
 62
     7
 10
85.016575966899353
 20
181.3276711531617
 30
0.0
 40
0.3000000000000018
 50
195.00503006406441
 51
250.00370817401719
  0
ARC
  5
8C
  8
PATTERN_FILL
  6
CONTINUOUS
 62
     7
 10
89.81657596689935
 20
181.3276711531617
 30
0.0
 40
0.2999999999999985
 50
344.99496993593402
 51
46.967974796380027
  0
ARC
  5
8D
  8
PATTERN_FILL
  6
CONTINUOUS
 62
     7
 10
90.616575966899362
 20
181.32767115316179
 30
0.0
 40
0.3000000000000037
 50
344.994969935933
 51
195.0050300640672
  0
ARC
  5
8E
  8
PATTERN_FILL
  6
CONTINUOUS
 62
     7
 10
91.416575966899359
 20
181.3276711531617
 30
0.0
 40
0.3000000000000019
 50
344.99496993593419
 51
195.00503006406581
  0
ARC
  5
8F
  8
PATTERN_FILL
  6
CONTINUOUS
 62
     7
 10
92.216575966899356
 20
181.32767115316179
 30
0.0
 40
0.300000000000002
 50
344.99496993593277
 51
195.0050300640672
  0
ARC
  5
90
  8
PATTERN_FILL
  6
CONTINUOUS
 62
     7
 10
93.016575966899353
 20
181.32767115316179
 30
0.0
 40
0.3000000000000054
 50
344.994969935933
 51
195.0050300640672
  0
ARC
  5
91
  8
PATTERN_FILL
  6
CONTINUOUS
 62
     7
 10
93.81657596689935
 20
181.32767115316179
 30
0.0
 40
0.3000000000000029
 50
344.99496993593277
 51
195.0050300640672
  0
ARC
  5
92
  8
PATTERN_FILL
  6
CONTINUOUS
 62
     7
 10
94.616575966899376
 20
181.32767115316179
 30
0.0
 40
0.3000000000000046
 50
344.994969935933
 51
195.0050300640672
  0
ARC
  5
93
  8
PATTERN_FILL
  6
CONTINUOUS
 62
     7
 10
80.21657596689937
 20
180.5276711531618
 30
0.0
 40
0.2999999999999991
 50
239.52298723983191
 51
131.80451567489439
  0
CIRCLE
  5
94
  8
PATTERN_FILL
  6
CONTINUOUS
 62
     7
 10
81.016575966899353
 20
180.5276711531618
 30
0.0
 40
0.2999999999999972
  0
CIRCLE
  5
95
  8
PATTERN_FILL
  6
CONTINUOUS
 62
     7
 10
81.816575966899364
 20
180.5276711531618
 30
0.0
 40
0.3000000000000007
  0
CIRCLE
  5
96
  8
PATTERN_FILL
  6
CONTINUOUS
 62
     7
 10
82.616575966899362
 20
180.5276711531618
 30
0.0
 40
0.3000000000000007
  0
CIRCLE
  5
97
  8
PATTERN_FILL
  6
CONTINUOUS
 62
     7
 10
83.416575966899359
 20
180.5276711531618
 30
0.0
 40
0.3000000000000007
  0
ARC
  5
98
  8
PATTERN_FILL
  6
CONTINUOUS
 62
     7
 10
84.216575966899342
 20
180.5276711531618
 30
0.0
 40
0.3
 50
41.725333131936353
 51
206.1134378001066
  0
ARC
  5
99
  8
PATTERN_FILL
  6
CONTINUOUS
 62
     7
 10
80.216575966899342
 20
179.72767115316179
 30
0.0
 40
0.300000000000006
 50
271.55791551426017
 51
112.0532744862052
  0
CIRCLE
  5
9A
  8
PATTERN_FILL
  6
CONTINUOUS
 62
     7
 10
81.016575966899353
 20
179.72767115316179
 30
0.0
 40
0.2999999999999972
  0
CIRCLE
  5
9B
  8
PATTERN_FILL
  6
CONTINUOUS
 62
     7
 10
81.816575966899364
 20
179.72767115316179
 30
0.0
 40
0.3000000000000007
  0
ARC
  5
9C
  8
PATTERN_FILL
  6
CONTINUOUS
 62
     7
 10
82.616575966899333
 20
179.72767115316179
 30
0.0
 40
0.300000000000012
 50
355.05663352298802
 51
252.78213740905679
  0
ARC
  5
9D
  8
PATTERN_FILL
  6
CONTINUOUS
 62
     7
 10
83.416575966899359
 20
179.72767115316179
 30
0.0
 40
0.3000000000000003
 50
93.304763184059354
 51
154.53400774798271
  0
ARC
  5
9E
  8
PATTERN_FILL
  6
CONTINUOUS
 62
     7
 10
80.216575966899342
 20
178.92767115316181
 30
0.0
 40
0.3000000000000039
 50
317.51296411263178
 51
77.856929682656187
  0
CIRCLE
  5
9F
  8
PATTERN_FILL
  6
CONTINUOUS
 62
     7
 10
81.016575966899353
 20
178.92767115316181
 30
0.0
 40
0.2999999999999972
  0
ARC
  5
A0
  8
PATTERN_FILL
  6
CONTINUOUS
 62
     7
 10
81.816575966899364
 20
178.92767115316181
 30
0.0
 40
0.3000000000000039
 50
39.505210764518843
 51
208.3335601675231
  0
ARC
  5
A1
  8
PATTERN_FILL
  6
CONTINUOUS
 62
     7
 10
87.416575966899359
 20
178.92767115316181
 30
0.0
 40
0.3000000000000015
 50
286.14565305738819
 51
349.9164498969713
  0
ARC
  5
A2
  8
PATTERN_FILL
  6
CONTINUOUS
 62
     7
 10
88.216575966899342
 20
178.1276711531618
 30
0.0
 40
0.2999999999999983
 50
117.2312426863872
 51
317.54127161963419
  0
CIRCLE
  5
A3
  8
PATTERN_FILL
  6
CONTINUOUS
 62
     7
 10
92.155573276724283
 20
178.2348219117967
 30
0.0
 40
0.2999999999999936
  0
CIRCLE
  5
A4
  8
PATTERN_FILL
  6
CONTINUOUS
 62
     7
 10
92.955573276724266
 20
178.2348219117967
 30
0.0
 40
0.2999999999999927
  0
CIRCLE
  5
A5
  8
PATTERN_FILL
  6
CONTINUOUS
 62
     7
 10
93.755573276724263
 20
178.2348219117967
 30
0.0
 40
0.2999999999999936
  0
ARC
  5
A6
  8
PATTERN_FILL
  6
CONTINUOUS
 62
     7
 10
84.216575966899342
 20
177.32767115316179
 30
0.0
 40
0.2999999999999989
 50
192.24715347515141
 51
55.867515767957137
  0
ARC
  5
A7
  8
PATTERN_FILL
  6
CONTINUOUS
 62
     7
 10
85.016575966899353
 20
177.32767115316179
 30
0.0
 40
0.3000000000000021
 50
112.8665793596961
 51
247.13342064030391
  0
ARC
  5
A8
  8
PATTERN_FILL
  6
CONTINUOUS
 62
     7
 10
87.416575966899359
 20
177.32767115316179
 30
0.0
 40
0.3000000000000011
 50
286.1456530573879
 51
73.854346942612125
  0
CIRCLE
  5
A9
  8
PATTERN_FILL
  6
CONTINUOUS
 62
     7
 10
88.216575966899342
 20
177.32767115316179
 30
0.0
 40
0.3000000000000007
  0
ARC
  5
AA
  8
PATTERN_FILL
  6
CONTINUOUS
 62
     7
 10
89.016575966899339
 20
177.32767115316179
 30
0.0
 40
0.3000000000000001
 50
146.25218394288231
 51
288.52033036313912
  0
ARC
  5
AB
  8
PATTERN_FILL
  6
CONTINUOUS
 62
     7
 10
92.155573276724283
 20
177.4348219117968
 30
0.0
 40
0.2999999999999989
 50
294.1890906949003
 51
140.85932192218749
  0
CIRCLE
  5
AC
  8
PATTERN_FILL
  6
CONTINUOUS
 62
     7
 10
92.955573276724266
 20
177.4348219117968
 30
0.0
 40
0.2999999999999927
  0
ARC
  5
AD
  8
PATTERN_FILL
  6
CONTINUOUS
 62
     7
 10
93.755573276724263
 20
177.4348219117968
 30
0.0
 40
0.2999999999999927
 50
24.403935664800319
 51
272.8393166280232
  0
CIRCLE
  5
AE
  8
PATTERN_FILL
  6
CONTINUOUS
 62
     7
 10
83.416575966899359
 20
176.5276711531618
 30
0.0
 40
0.3000000000000007
  0
CIRCLE
  5
AF
  8
PATTERN_FILL
  6
CONTINUOUS
 62
     7
 10
84.216575966899342
 20
176.5276711531618
 30
0.0
 40
0.3000000000000007
  0
ARC
  5
B0
  8
PATTERN_FILL
  6
CONTINUOUS
 62
     7
 10
85.016575966899353
 20
176.5276711531618
 30
0.0
 40
0.3000000000000021
 50
112.8665793596961
 51
247.13342064030391
  0
ARC
  5
B1
  8
PATTERN_FILL
  6
CONTINUOUS
 62
     7
 10
87.416575966899359
 20
176.5276711531618
 30
0.0
 40
0.3000000000000011
 50
286.1456530573879
 51
73.854346942612125
  0
CIRCLE
  5
B2
  8
PATTERN_FILL
  6
CONTINUOUS
 62
     7
 10
88.216575966899342
 20
176.5276711531618
 30
0.0
 40
0.3000000000000007
  0
CIRCLE
  5
B3
  8
PATTERN_FILL
  6
CONTINUOUS
 62
     7
 10
89.016575966899339
 20
176.5276711531618
 30
0.0
 40
0.3000000000000007
  0
ARC
  5
B4
  8
PATTERN_FILL
  6
CONTINUOUS
 62
     7
 10
92.955573276724266
 20
176.63482191179671
 30
0.0
 40
0.2999999999999929
 50
261.36133534087821
 51
173.6870772762089
  0
ARC
  5
B5
  8
PATTERN_FILL
  6
CONTINUOUS
 62
     7
 10
93.755573276724263
 20
176.63482191179671
 30
0.0
 40
0.2999999999999913
 50
119.91652465912151
 51
167.2458439155123
  0
CIRCLE
  5
B6
  8
PATTERN_FILL
  6
CONTINUOUS
 62
     7
 10
83.416575966899359
 20
175.72767115316179
 30
0.0
 40
0.3000000000000007
  0
CIRCLE
  5
B7
  8
PATTERN_FILL
  6
CONTINUOUS
 62
     7
 10
84.216575966899342
 20
175.72767115316179
 30
0.0
 40
0.3000000000000007
  0
ARC
  5
B8
  8
PATTERN_FILL
  6
CONTINUOUS
 62
     7
 10
85.016575966899353
 20
175.72767115316179
 30
0.0
 40
0.3000000000000021
 50
112.8665793596961
 51
247.13342064030391
  0
ARC
  5
B9
  8
PATTERN_FILL
  6
CONTINUOUS
 62
     7
 10
87.416575966899359
 20
175.72767115316179
 30
0.0
 40
0.3000000000000011
 50
286.1456530573879
 51
73.854346942612125
  0
CIRCLE
  5
BA
  8
PATTERN_FILL
  6
CONTINUOUS
 62
     7
 10
88.216575966899342
 20
175.72767115316179
 30
0.0
 40
0.3000000000000007
  0
CIRCLE
  5
BB
  8
PATTERN_FILL
  6
CONTINUOUS
 62
     7
 10
89.016575966899339
 20
175.72767115316179
 30
0.0
 40
0.3000000000000007
  0
ARC
  5
BC
  8
PATTERN_FILL
  6
CONTINUOUS
 62
     7
 10
89.816575966897958
 20
175.72767115316071
 30
0.0
 40
0.3000000000013835
 50
74.62325718088205
 51
0.1492571251338291
  0
CIRCLE
  5
BD
  8
PATTERN_FILL
  6
CONTINUOUS
 62
     7
 10
84.216575966899342
 20
174.92767115316181
 30
0.0
 40
0.3000000000000007
  0
ARC
  5
BE
  8
PATTERN_FILL
  6
CONTINUOUS
 62
     7
 10
85.016575966899353
 20
174.92767115316181
 30
0.0
 40
0.3000000000000021
 50
112.8665793596961
 51
247.13342064030391
  0
ARC
  5
BF
  8
PATTERN_FILL
  6
CONTINUOUS
 62
     7
 10
87.416575966899359
 20
174.92767115316181
 30
0.0
 40
0.3000000000000011
 50
286.1456530573879
 51
73.854346942612125
  0
CIRCLE
  5
C0
  8
PATTERN_FILL
  6
CONTINUOUS
 62
     7
 10
88.216575966899342
 20
174.92767115316181
 30
0.0
 40
0.3000000000000007
  0
CIRCLE
  5
C1
  8
PATTERN_FILL
  6
CONTINUOUS
 62
     7
 10
89.016575966899339
 20
174.92767115316181
 30
0.0
 40
0.3000000000000007
  0
CIRCLE
  5
C2
  8
PATTERN_FILL
  6
CONTINUOUS
 62
     7
 10
89.81657596689935
 20
174.92767115316181
 30
0.0
 40
0.3000000000000007
  0
ARC
  5
C3
  8
PATTERN_FILL
  6
CONTINUOUS
 62
     7
 10
90.616575966899362
 20
174.92767115316181
 30
0.0
 40
0.2999999999999993
 50
110.14039305587259
 51
324.63212125014883
  0
ARC
  5
C4
  8
PATTERN_FILL
  6
CONTINUOUS
 62
     7
 10
87.416575966899359
 20
174.1276711531618
 30
0.0
 40
0.3000000000000011
 50
286.1456530573879
 51
73.854346942612125
  0
CIRCLE
  5
C5
  8
PATTERN_FILL
  6
CONTINUOUS
 62
     7
 10
88.216575966899342
 20
174.1276711531618
 30
0.0
 40
0.3000000000000007
  0
ARC
  5
C6
  8
PATTERN_FILL
  6
CONTINUOUS
 62
     7
 10
89.016575966899339
 20
174.1276711531618
 30
0.0
 40
0.2999999999999982
 50
326.21869504535869
 51
237.82252941978999
  0
ARC
  5
C7
  8
PATTERN_FILL
  6
CONTINUOUS
 62
     7
 10
89.81657596689935
 20
174.1276711531618
 30
0.0
 40
0.3000000000000005
 50
17.177039363148349
 51
198.85775328730759
  0
ARC
  5
C8
  8
PATTERN_FILL
  6
CONTINUOUS
 62
     7
 10
90.616575966899362
 20
174.1276711531618
 30
0.0
 40
0.3000000000000002
 50
90.222105068645007
 51
137.0441733502964
  0
CIRCLE
  5
C9
  8
PATTERN_FILL
  6
CONTINUOUS
 62
     7
 10
82.535105436162269
 20
124.13510543616231
 30
0.0
 40
0.2999999999999972
  0
CIRCLE
  5
CA
  8
PATTERN_FILL
  6
CONTINUOUS
 62
     7
 10
82.535105436162269
 20
124.9351054361623
 30
0.0
 40
0.2999999999999972
  0
CIRCLE
  5
CB
  8
PATTERN_FILL
  6
CONTINUOUS
 62
     7
 10
82.535105436162269
 20
125.7351054361623
 30
0.0
 40
0.2999999999999972
  0
CIRCLE
  5
CC
  8
PATTERN_FILL
  6
CONTINUOUS
 62
     7
 10
82.535105436162269
 20
126.5351054361623
 30
0.0
 40
0.2999999999999972
  0
CIRCLE
  5
CD
  8
PATTERN_FILL
  6
CONTINUOUS
 62
     7
 10
82.535105436162269
 20
127.33510543616229
 30
0.0
 40
0.2999999999999972
  0
CIRCLE
  5
CE
  8
PATTERN_FILL
  6
CONTINUOUS
 62
     7
 10
82.535105436162269
 20
128.13510543616229
 30
0.0
 40
0.2999999999999972
  0
CIRCLE
  5
CF
  8
PATTERN_FILL
  6
CONTINUOUS
 62
     7
 10
82.535105436162269
 20
128.93510543616219
 30
0.0
 40
0.2999999999999972
  0
CIRCLE
  5
D0
  8
PATTERN_FILL
  6
CONTINUOUS
 62
     7
 10
82.535105436162269
 20
129.73510543616231
 30
0.0
 40
0.2999999999999972
  0
CIRCLE
  5
D1
  8
PATTERN_FILL
  6
CONTINUOUS
 62
     7
 10
82.535105436162269
 20
130.53510543616221
 30
0.0
 40
0.2999999999999972
  0
ARC
  5
D2
  8
PATTERN_FILL
  6
CONTINUOUS
 62
     7
 10
83.33510543616228
 20
124.13510543616221
 30
0.0
 40
0.2999999999999901
 50
355.91197363829292
 51
220.39343813500921
  0
CIRCLE
  5
D3
  8
PATTERN_FILL
  6
CONTINUOUS
 62
     7
 10
83.33510543616228
 20
124.9351054361623
 30
0.0
 40
0.2999999999999972
  0
CIRCLE
  5
D4
  8
PATTERN_FILL
  6
CONTINUOUS
 62
     7
 10
83.33510543616228
 20
125.7351054361623
 30
0.0
 40
0.2999999999999972
  0
CIRCLE
  5
D5
  8
PATTERN_FILL
  6
CONTINUOUS
 62
     7
 10
83.33510543616228
 20
126.5351054361623
 30
0.0
 40
0.2999999999999972
  0
CIRCLE
  5
D6
  8
PATTERN_FILL
  6
CONTINUOUS
 62
     7
 10
83.33510543616228
 20
127.33510543616229
 30
0.0
 40
0.2999999999999972
  0
CIRCLE
  5
D7
  8
PATTERN_FILL
  6
CONTINUOUS
 62
     7
 10
83.33510543616228
 20
128.13510543616229
 30
0.0
 40
0.2999999999999972
  0
CIRCLE
  5
D8
  8
PATTERN_FILL
  6
CONTINUOUS
 62
     7
 10
83.33510543616228
 20
128.93510543616219
 30
0.0
 40
0.2999999999999972
  0
CIRCLE
  5
D9
  8
PATTERN_FILL
  6
CONTINUOUS
 62
     7
 10
83.33510543616228
 20
129.73510543616231
 30
0.0
 40
0.2999999999999972
  0
CIRCLE
  5
DA
  8
PATTERN_FILL
  6
CONTINUOUS
 62
     7
 10
83.33510543616228
 20
130.53510543616221
 30
0.0
 40
0.2999999999999972
  0
ARC
  5
DB
  8
PATTERN_FILL
  6
CONTINUOUS
 62
     7
 10
84.135105436162263
 20
124.13510543616231
 30
0.0
 40
0.2999999999999963
 50
45.04423654974957
 51
171.2611752235531
  0
CIRCLE
  5
DC
  8
PATTERN_FILL
  6
CONTINUOUS
 62
     7
 10
84.135105436162263
 20
124.9351054361623
 30
0.0
 40
0.2999999999999972
  0
CIRCLE
  5
DD
  8
PATTERN_FILL
  6
CONTINUOUS
 62
     7
 10
84.135105436162263
 20
125.7351054361623
 30
0.0
 40
0.2999999999999972
  0
CIRCLE
  5
DE
  8
PATTERN_FILL
  6
CONTINUOUS
 62
     7
 10
84.135105436162263
 20
126.5351054361623
 30
0.0
 40
0.2999999999999972
  0
CIRCLE
  5
DF
  8
PATTERN_FILL
  6
CONTINUOUS
 62
     7
 10
84.135105436162263
 20
127.33510543616229
 30
0.0
 40
0.2999999999999972
  0
CIRCLE
  5
E0
  8
PATTERN_FILL
  6
CONTINUOUS
 62
     7
 10
84.135105436162263
 20
128.13510543616229
 30
0.0
 40
0.2999999999999972
  0
CIRCLE
  5
E1
  8
PATTERN_FILL
  6
CONTINUOUS
 62
     7
 10
84.135105436162263
 20
128.93510543616219
 30
0.0
 40
0.2999999999999972
  0
CIRCLE
  5
E2
  8
PATTERN_FILL
  6
CONTINUOUS
 62
     7
 10
84.135105436162263
 20
129.73510543616231
 30
0.0
 40
0.2999999999999972
  0
CIRCLE
  5
E3
  8
PATTERN_FILL
  6
CONTINUOUS
 62
     7
 10
84.135105436162263
 20
130.53510543616221
 30
0.0
 40
0.2999999999999972
  0
ARC
  5
E4
  8
PATTERN_FILL
  6
CONTINUOUS
 62
     7
 10
84.93510543616226
 20
124.9351054361623
 30
0.0
 40
0.2999999999999976
 50
56.657094893414772
 51
303.34290510658519
  0
ARC
  5
E5
  8
PATTERN_FILL
  6
CONTINUOUS
 62
     7
 10
84.93510543616226
 20
125.7351054361623
 30
0.0
 40
0.2999999999999976
 50
56.657094893414772
 51
303.34290510658519
  0
ARC
  5
E6
  8
PATTERN_FILL
  6
CONTINUOUS
 62
     7
 10
84.93510543616226
 20
126.5351054361623
 30
0.0
 40
0.2999999999999976
 50
56.657094893414772
 51
303.34290510658519
  0
ARC
  5
E7
  8
PATTERN_FILL
  6
CONTINUOUS
 62
     7
 10
84.93510543616226
 20
127.33510543616229
 30
0.0
 40
0.2999999999999976
 50
56.657094893414772
 51
303.34290510658519
  0
ARC
  5
E8
  8
PATTERN_FILL
  6
CONTINUOUS
 62
     7
 10
84.93510543616226
 20
128.13510543616229
 30
0.0
 40
0.2999999999999976
 50
56.657094893414772
 51
303.34290510658519
  0
ARC
  5
E9
  8
PATTERN_FILL
  6
CONTINUOUS
 62
     7
 10
84.93510543616226
 20
128.93510543616219
 30
0.0
 40
0.2999999999999976
 50
56.657094893414772
 51
303.34290510658519
  0
ARC
  5
EA
  8
PATTERN_FILL
  6
CONTINUOUS
 62
     7
 10
84.93510543616226
 20
129.73510543616231
 30
0.0
 40
0.2999999999999976
 50
56.657094893414772
 51
303.34290510658519
  0
ARC
  5
EB
  8
PATTERN_FILL
  6
CONTINUOUS
 62
     7
 10
84.93510543616226
 20
130.53510543616221
 30
0.0
 40
0.2999999999999967
 50
34.352895340778183
 51
303.34290510658519
  0
ARC
  5
EC
  8
PATTERN_FILL
  6
CONTINUOUS
 62
     7
 10
86.535105436162254
 20
124.9351054361623
 30
0.0
 40
0.2999999999999969
 50
42.405467073046637
 51
173.8999447002557
  0
CIRCLE
  5
ED
  8
PATTERN_FILL
  6
CONTINUOUS
 62
     7
 10
86.535105436162254
 20
125.7351054361623
 30
0.0
 40
0.2999999999999972
  0
CIRCLE
  5
EE
  8
PATTERN_FILL
  6
CONTINUOUS
 62
     7
 10
86.535105436162254
 20
126.5351054361623
 30
0.0
 40
0.2999999999999972
  0
CIRCLE
  5
EF
  8
PATTERN_FILL
  6
CONTINUOUS
 62
     7
 10
86.535105436162254
 20
127.33510543616229
 30
0.0
 40
0.2999999999999972
  0
CIRCLE
  5
F0
  8
PATTERN_FILL
  6
CONTINUOUS
 62
     7
 10
86.535105436162254
 20
128.13510543616229
 30
0.0
 40
0.2999999999999972
  0
CIRCLE
  5
F1
  8
PATTERN_FILL
  6
CONTINUOUS
 62
     7
 10
86.535105436162254
 20
128.93510543616219
 30
0.0
 40
0.2999999999999972
  0
CIRCLE
  5
F2
  8
PATTERN_FILL
  6
CONTINUOUS
 62
     7
 10
86.535105436162254
 20
129.73510543616231
 30
0.0
 40
0.2999999999999972
  0
CIRCLE
  5
F3
  8
PATTERN_FILL
  6
CONTINUOUS
 62
     7
 10
86.535105436162254
 20
130.53510543616221
 30
0.0
 40
0.2999999999999972
  0
CIRCLE
  5
F4
  8
PATTERN_FILL
  6
CONTINUOUS
 62
     7
 10
87.33510543616228
 20
125.7351054361623
 30
0.0
 40
0.2999999999999972
  0
CIRCLE
  5
F5
  8
PATTERN_FILL
  6
CONTINUOUS
 62
     7
 10
87.33510543616228
 20
126.5351054361623
 30
0.0
 40
0.2999999999999972
  0
CIRCLE
  5
F6
  8
PATTERN_FILL
  6
CONTINUOUS
 62
     7
 10
87.33510543616228
 20
127.33510543616229
 30
0.0
 40
0.2999999999999972
  0
CIRCLE
  5
F7
  8
PATTERN_FILL
  6
CONTINUOUS
 62
     7
 10
87.33510543616228
 20
128.13510543616229
 30
0.0
 40
0.2999999999999972
  0
CIRCLE
  5
F8
  8
PATTERN_FILL
  6
CONTINUOUS
 62
     7
 10
87.33510543616228
 20
128.93510543616219
 30
0.0
 40
0.2999999999999972
  0
CIRCLE
  5
F9
  8
PATTERN_FILL
  6
CONTINUOUS
 62
     7
 10
87.33510543616228
 20
129.73510543616231
 30
0.0
 40
0.2999999999999972
  0
CIRCLE
  5
FA
  8
PATTERN_FILL
  6
CONTINUOUS
 62
     7
 10
87.33510543616228
 20
130.53510543616221
 30
0.0
 40
0.2999999999999972
  0
ARC
  5
FB
  8
PATTERN_FILL
  6
CONTINUOUS
 62
     7
 10
88.135105436162306
 20
125.7351054361623
 30
0.0
 40
0.2999999999999938
 50
350.66365607499472
 51
225.64175569830721
  0
CIRCLE
  5
FC
  8
PATTERN_FILL
  6
CONTINUOUS
 62
     7
 10
88.135105436162263
 20
126.5351054361623
 30
0.0
 40
0.2999999999999972
  0
CIRCLE
  5
FD
  8
PATTERN_FILL
  6
CONTINUOUS
 62
     7
 10
88.135105436162263
 20
127.33510543616229
 30
0.0
 40
0.2999999999999972
  0
CIRCLE
  5
FE
  8
PATTERN_FILL
  6
CONTINUOUS
 62
     7
 10
88.135105436162263
 20
128.13510543616229
 30
0.0
 40
0.2999999999999972
  0
CIRCLE
  5
FF
  8
PATTERN_FILL
  6
CONTINUOUS
 62
     7
 10
88.135105436162263
 20
128.93510543616219
 30
0.0
 40
0.2999999999999972
  0
CIRCLE
  5
100
  8
PATTERN_FILL
  6
CONTINUOUS
 62
     7
 10
88.135105436162263
 20
129.73510543616231
 30
0.0
 40
0.2999999999999972
  0
CIRCLE
  5
101
  8
PATTERN_FILL
  6
CONTINUOUS
 62
     7
 10
88.135105436162263
 20
130.53510543616221
 30
0.0
 40
0.2999999999999972
  0
ARC
  5
102
  8
PATTERN_FILL
  6
CONTINUOUS
 62
     7
 10
88.93510543616226
 20
125.7351054361623
 30
0.0
 40
0.2999999999999963
 50
39.820393202526553
 51
176.48501857077571
  0
CIRCLE
  5
103
  8
PATTERN_FILL
  6
CONTINUOUS
 62
     7
 10
88.93510543616226
 20
126.5351054361623
 30
0.0
 40
0.2999999999999972
  0
CIRCLE
  5
104
  8
PATTERN_FILL
  6
CONTINUOUS
 62
     7
 10
88.93510543616226
 20
127.33510543616229
 30
0.0
 40
0.2999999999999972
  0
CIRCLE
  5
105
  8
PATTERN_FILL
  6
CONTINUOUS
 62
     7
 10
88.93510543616226
 20
128.13510543616229
 30
0.0
 40
0.2999999999999972
  0
CIRCLE
  5
106
  8
PATTERN_FILL
  6
CONTINUOUS
 62
     7
 10
88.93510543616226
 20
128.93510543616219
 30
0.0
 40
0.2999999999999972
  0
CIRCLE
  5
107
  8
PATTERN_FILL
  6
CONTINUOUS
 62
     7
 10
88.93510543616226
 20
129.73510543616231
 30
0.0
 40
0.2999999999999972
  0
CIRCLE
  5
108
  8
PATTERN_FILL
  6
CONTINUOUS
 62
     7
 10
88.93510543616226
 20
130.53510543616221
 30
0.0
 40
0.2999999999999972
  0
ARC
  5
109
  8
PATTERN_FILL
  6
CONTINUOUS
 62
     7
 10
94.035105436162283
 20
124.13510543616231
 30
0.0
 40
0.2999999999999981
 50
282.49269938634262
 51
77.507300613657335
  0
ARC
  5
10A
  8
PATTERN_FILL
  6
CONTINUOUS
 62
     7
 10
94.035105436162283
 20
124.9351054361623
 30
0.0
 40
0.2999999999999981
 50
282.49269938634262
 51
77.507300613657335
  0
ARC
  5
10B
  8
PATTERN_FILL
  6
CONTINUOUS
 62
     7
 10
94.035105436162283
 20
125.7351054361623
 30
0.0
 40
0.2999999999999985
 50
282.49269938634291
 51
77.507300613656994
  0
ARC
  5
10C
  8
PATTERN_FILL
  6
CONTINUOUS
 62
     7
 10
94.035105436162283
 20
126.5351054361623
 30
0.0
 40
0.2999999999999985
 50
282.49269938634291
 51
77.507300613656994
  0
ARC
  5
10D
  8
PATTERN_FILL
  6
CONTINUOUS
 62
     7
 10
94.035105436162283
 20
127.33510543616229
 30
0.0
 40
0.2999999999999985
 50
282.49269938634291
 51
77.507300613656994
  0
ARC
  5
10E
  8
PATTERN_FILL
  6
CONTINUOUS
 62
     7
 10
94.035105436162283
 20
128.13510543616229
 30
0.0
 40
0.2999999999999981
 50
282.49269938634262
 51
77.507300613657335
  0
ARC
  5
10F
  8
PATTERN_FILL
  6
CONTINUOUS
 62
     7
 10
94.035105436162283
 20
128.93510543616219
 30
0.0
 40
0.2999999999999985
 50
282.49269938634291
 51
77.507300613656994
  0
ARC
  5
110
  8
PATTERN_FILL
  6
CONTINUOUS
 62
     7
 10
94.035105436162283
 20
129.73510543616231
 30
0.0
 40
0.2999999999999985
 50
282.49269938634291
 51
77.507300613656994
  0
ARC
  5
111
  8
PATTERN_FILL
  6
CONTINUOUS
 62
     7
 10
94.035105436162283
 20
130.53510543616221
 30
0.0
 40
0.2999999999999964
 50
282.49269938634279
 51
51.959621692677572
  0
ARC
  5
112
  8
PATTERN_FILL
  6
CONTINUOUS
 62
     7
 10
94.83510543616228
 20
124.13510543616231
 30
0.0
 40
0.3000000000000056
 50
317.00913664142121
 51
259.29627513188279
  0
CIRCLE
  5
113
  8
PATTERN_FILL
  6
CONTINUOUS
 62
     7
 10
94.83510543616228
 20
124.9351054361623
 30
0.0
 40
0.2999999999999972
  0
CIRCLE
  5
114
  8
PATTERN_FILL
  6
CONTINUOUS
 62
     7
 10
94.83510543616228
 20
125.7351054361623
 30
0.0
 40
0.2999999999999972
  0
CIRCLE
  5
115
  8
PATTERN_FILL
  6
CONTINUOUS
 62
     7
 10
94.83510543616228
 20
126.5351054361623
 30
0.0
 40
0.2999999999999972
  0
CIRCLE
  5
116
  8
PATTERN_FILL
  6
CONTINUOUS
 62
     7
 10
94.83510543616228
 20
127.33510543616229
 30
0.0
 40
0.2999999999999972
  0
CIRCLE
  5
117
  8
PATTERN_FILL
  6
CONTINUOUS
 62
     7
 10
94.83510543616228
 20
128.13510543616229
 30
0.0
 40
0.2999999999999972
  0
CIRCLE
  5
118
  8
PATTERN_FILL
  6
CONTINUOUS
 62
     7
 10
94.83510543616228
 20
128.93510543616219
 30
0.0
 40
0.2999999999999972
  0
CIRCLE
  5
119
  8
PATTERN_FILL
  6
CONTINUOUS
 62
     7
 10
94.83510543616228
 20
129.73510543616231
 30
0.0
 40
0.2999999999999972
  0
CIRCLE
  5
11A
  8
PATTERN_FILL
  6
CONTINUOUS
 62
     7
 10
94.83510543616228
 20
130.53510543616221
 30
0.0
 40
0.2999999999999972
  0
ARC
  5
11B
  8
PATTERN_FILL
  6
CONTINUOUS
 62
     7
 10
95.635105436162277
 20
124.13510543616231
 30
0.0
 40
0.2999999999999971
 50
15.57180477629548
 51
200.7336069970068
  0
CIRCLE
  5
11C
  8
PATTERN_FILL
  6
CONTINUOUS
 62
     7
 10
95.635105436162277
 20
124.9351054361623
 30
0.0
 40
0.2999999999999972
  0
CIRCLE
  5
11D
  8
PATTERN_FILL
  6
CONTINUOUS
 62
     7
 10
95.635105436162277
 20
125.7351054361623
 30
0.0
 40
0.2999999999999972
  0
CIRCLE
  5
11E
  8
PATTERN_FILL
  6
CONTINUOUS
 62
     7
 10
95.635105436162277
 20
126.5351054361623
 30
0.0
 40
0.2999999999999972
  0
CIRCLE
  5
11F
  8
PATTERN_FILL
  6
CONTINUOUS
 62
     7
 10
95.635105436162277
 20
127.33510543616229
 30
0.0
 40
0.2999999999999972
  0
CIRCLE
  5
120
  8
PATTERN_FILL
  6
CONTINUOUS
 62
     7
 10
95.635105436162277
 20
128.13510543616229
 30
0.0
 40
0.2999999999999972
  0
CIRCLE
  5
121
  8
PATTERN_FILL
  6
CONTINUOUS
 62
     7
 10
95.635105436162277
 20
128.93510543616219
 30
0.0
 40
0.2999999999999972
  0
CIRCLE
  5
122
  8
PATTERN_FILL
  6
CONTINUOUS
 62
     7
 10
95.635105436162277
 20
129.73510543616231
 30
0.0
 40
0.2999999999999972
  0
CIRCLE
  5
123
  8
PATTERN_FILL
  6
CONTINUOUS
 62
     7
 10
95.635105436162277
 20
130.53510543616221
 30
0.0
 40
0.2999999999999972
  0
ARC
  5
124
  8
PATTERN_FILL
  6
CONTINUOUS
 62
     7
 10
96.435105436162274
 20
124.13510543616231
 30
0.0
 40
0.2999999999999974
 50
69.944822122701211
 51
146.36058965060121
  0
CIRCLE
  5
125
  8
PATTERN_FILL
  6
CONTINUOUS
 62
     7
 10
96.435105436162274
 20
124.9351054361623
 30
0.0
 40
0.2999999999999972
  0
CIRCLE
  5
126
  8
PATTERN_FILL
  6
CONTINUOUS
 62
     7
 10
96.435105436162274
 20
125.7351054361623
 30
0.0
 40
0.2999999999999972
  0
CIRCLE
  5
127
  8
PATTERN_FILL
  6
CONTINUOUS
 62
     7
 10
96.435105436162274
 20
126.5351054361623
 30
0.0
 40
0.2999999999999972
  0
CIRCLE
  5
128
  8
PATTERN_FILL
  6
CONTINUOUS
 62
     7
 10
96.435105436162274
 20
127.33510543616229
 30
0.0
 40
0.2999999999999972
  0
CIRCLE
  5
129
  8
PATTERN_FILL
  6
CONTINUOUS
 62
     7
 10
96.435105436162274
 20
128.13510543616229
 30
0.0
 40
0.2999999999999972
  0
CIRCLE
  5
12A
  8
PATTERN_FILL
  6
CONTINUOUS
 62
     7
 10
96.435105436162274
 20
128.93510543616219
 30
0.0
 40
0.2999999999999972
  0
CIRCLE
  5
12B
  8
PATTERN_FILL
  6
CONTINUOUS
 62
     7
 10
96.435105436162274
 20
129.73510543616231
 30
0.0
 40
0.2999999999999972
  0
CIRCLE
  5
12C
  8
PATTERN_FILL
  6
CONTINUOUS
 62
     7
 10
96.435105436162274
 20
130.53510543616221
 30
0.0
 40
0.2999999999999972
  0
ARC
  5
12D
  8
PATTERN_FILL
  6
CONTINUOUS
 62
     7
 10
82.616575966899362
 20
175.72767115316179
 30
0.0
 40
0.2999999999999973
 50
294.27198624276622
 51
162.7550214132514
  0
ARC
  5
12E
  8
PATTERN_FILL
  6
CONTINUOUS
 62
     7
 10
83.416575966899359
 20
174.92767115316181
 30
0.0
 40
0.2999999999999995
 50
333.32336465261551
 51
140.961951517036
  0
ARC
  5
12F
  8
PATTERN_FILL
  6
CONTINUOUS
 62
     7
 10
82.616575966899376
 20
176.52767115316169
 30
0.0
 40
0.2999999999999906
 50
238.00981364899869
 51
10.104855594110351
  0
ARC
  5
130
  8
PATTERN_FILL
  6
CONTINUOUS
 62
     7
 10
91.355573276724286
 20
178.2348219117967
 30
0.0
 40
0.2999999999999958
 50
322.59541208797691
 51
112.4530005291102
  0
ARC
  5
131
  8
PATTERN_FILL
  6
CONTINUOUS
 62
     7
 10
87.416575966899359
 20
178.1276711531618
 30
0.0
 40
0.3000000000000011
 50
286.1456530573879
 51
73.854346942612125
  0
LINE
  5
132
  8
SPEC
  6
CONTINUOUS
 62
     7
 10
17.5
 20
260.0
 30
0.0
 11
165.0
 21
260.0
 31
0.0
  0
LINE
  5
133
  8
SPEC
  6
CONTINUOUS
 62
     7
 10
17.5
 20
256.25
 30
0.0
 11
165.0
 21
256.25
 31
0.0
  0
LINE
  5
134
  8
SPEC
  6
CONTINUOUS
 62
     7
 10
17.5
 20
241.25
 30
0.0
 11
165.0
 21
241.25
 31
0.0
  0
LINE
  5
135
  8
SPEC
  6
CONTINUOUS
 62
     7
 10
17.5
 20
245.0
 30
0.0
 11
165.0
 21
245.0
 31
0.0
  0
LINE
  5
136
  8
SPEC
  6
CONTINUOUS
 62
     7
 10
17.5
 20
248.75
 30
0.0
 11
165.0
 21
248.75
 31
0.0
  0
LINE
  5
137
  8
SPEC
  6
CONTINUOUS
 62
     7
 10
17.5
 20
237.5
 30
0.0
 11
165.0
 21
237.5
 31
0.0
  0
LINE
  5
138
  8
SPEC
  6
CONTINUOUS
 62
     7
 10
17.5
 20
230.0
 30
0.0
 11
165.0
 21
230.0
 31
0.0
  0
LINE
  5
139
  8
SPEC
  6
CONTINUOUS
 62
     7
 10
17.5
 20
233.75
 30
0.0
 11
165.0
 21
233.75
 31
0.0
  0
LINE
  5
13A
  8
SPEC
  6
CONTINUOUS
 62
     7
 10
17.5
 20
252.5
 30
0.0
 11
165.0
 21
252.5
 31
0.0
  0
LINE
  5
13B
  8
SPEC
  6
CONTINUOUS
 62
     7
 10
17.5
 20
260.0
 30
0.0
 11
17.5
 21
226.25
 31
0.0
  0
TEXT
  5
13C
  8
SPEC
 62
     7
 10
18.75
 20
261.39326999999997
 30
0.0
 40
2.4432617187500001
  1
仕様
 41
0.7
 11
18.75
 21
263.83653171875
 31
0.0
 73
     3
1001
ACADANNOTATIVE
1000
AnnotativeData
1002
{
1070
     1
1070
     0
1002
}
  0
LINE
  5
13D
  8
SPEC
  6
CONTINUOUS
 62
     7
 10
50.0
 20
260.0
 30
0.0
 11
50.0
 21
226.25
 31
0.0
  0
LINE
  5
13E
  8
SPEC
  6
CONTINUOUS
 62
     7
 10
165.0
 20
260.0
 30
0.0
 11
165.0
 21
226.25
 31
0.0
  0
TEXT
  5
13F
  8
SPEC
 62
     7
 10
18.344084913846881
 20
257.16036272779462
 30
0.0
 40
1.900314670138888
  1
形式
 41
0.7
 11
18.344084913846881
 21
259.06067739793349
 31
0.0
 73
     3
1001
ACADANNOTATIVE
1000
AnnotativeData
1002
{
1070
     1
1070
     0
1002
}
  0
TEXT
  5
140
  8
SPEC
 62
     7
 10
18.296829440590251
 20
234.80924028228239
 30
0.0
 40
1.900314670138888
  1
寸法
 41
0.7
 11
18.296829440590251
 21
236.70955495242131
 31
0.0
 73
     3
1001
ACADANNOTATIVE
1000
AnnotativeData
1002
{
1070
     1
1070
     0
1002
}
  0
TEXT
  5
141
  8
SPEC
 62
     7
 10
50.630821836314233
 20
234.7028433930428
 30
0.0
 40
1.900314670138888
  1
\U+03A619\U+00D751mm(突起部含まず)
 41
0.7
 11
50.630821836314233
 21
236.6031580631817
 31
0.0
 73
     3
1001
ACADANNOTATIVE
1000
AnnotativeData
1002
{
1070
     1
1070
     0
1002
}
  0
TEXT
  5
142
  8
SPEC
 62
     7
 10
50.888053160648298
 20
231.03411213016631
 30
0.0
 40
1.900314670138888
  1
約32g
 41
0.7
 11
50.888053160648298
 21
232.9344268003052
 31
0.0
 73
     3
1001
ACADANNOTATIVE
1000
AnnotativeData
1002
{
1070
     1
1070
     0
1002
}
  0
TEXT
  5
143
  8
SPEC
 62
     7
 10
18.33343825188388
 20
231.01391534010759
 30
0.0
 40
1.900314670138888
  1
重量
 41
0.7
 11
18.33343825188388
 21
232.91423001024651
 31
0.0
 73
     3
1001
ACADANNOTATIVE
1000
AnnotativeData
1002
{
1070
     1
1070
     0
1002
}
  0
TEXT
  5
144
  8
SPEC
 62
     7
 10
50.620067886635063
 20
257.22259185705963
 30
0.0
 40
1.900314670138888
  1
コンデンサー型 
 41
0.7
 11
50.620067886635063
 21
259.12290652719838
 31
0.0
 73
     3
1001
ACADANNOTATIVE
1000
AnnotativeData
1002
{
1070
     1
1070
     0
1002
}
  0
TEXT
  5
145
  8
SPEC
 62
     7
 10
50.69683262390879
 20
227.36572481047031
 30
0.0
 40
1.900314670138888
  1
ウインドスクリーン（W 90）
 41
0.7
 11
50.69683262390879
 21
229.26603948060921
 31
0.0
 73
     3
1001
ACADANNOTATIVE
1000
AnnotativeData
1002
{
1070
     1
1070
     0
1002
}
  0
TEXT
  5
146
  8
SPEC
 62
     7
 10
18.403658626469571
 20
249.6858088166224
 30
0.0
 40
1.900314670138888
  1
周波数特性
 41
0.7
 11
18.403658626469571
 21
251.58612348676129
 31
0.0
 73
     3
1001
ACADANNOTATIVE
1000
AnnotativeData
1002
{
1070
     1
1070
     0
1002
}
  0
TEXT
  5
147
  8
SPEC
 62
     7
 10
50.923124672102368
 20
249.67519212566631
 30
0.0
 40
1.900314670138888
  1
20Hz～20kHz
 41
0.7
 11
50.923124672102368
 21
251.57550679580521
 31
0.0
 73
     3
1001
ACADANNOTATIVE
1000
AnnotativeData
1002
{
1070
     1
1070
     0
1002
}
  0
TEXT
  5
148
  8
SPEC
 62
     7
 10
18.357326528775001
 20
245.9436666642498
 30
0.0
 40
1.900314670138888
  1
開回路感度
 41
0.7
 11
18.357326528775001
 21
247.8439813343887
 31
0.0
 73
     3
1001
ACADANNOTATIVE
1000
AnnotativeData
1002
{
1070
     1
1070
     0
1002
}
  0
TEXT
  5
149
  8
SPEC
 62
     7
 10
50.876250692287719
 20
246.0159312962021
 30
0.0
 40
1.900314670138888
  1
ー40dBV re 1V/Pa
 41
0.7
 11
50.876250692287719
 21
247.91624596634099
 31
0.0
 73
     3
1001
ACADANNOTATIVE
1000
AnnotativeData
1002
{
1070
     1
1070
     0
1002
}
  0
TEXT
  5
14A
  8
SPEC
 62
     7
 10
18.415037606599519
 20
242.2479401373547
 30
0.0
 40
1.900314670138888
  1
最大音圧レベル
 41
0.7
 11
18.415037606599519
 21
244.1482548074936
 31
0.0
 73
     3
1001
ACADANNOTATIVE
1000
AnnotativeData
1002
{
1070
     1
1070
     0
1002
}
  0
TEXT
  5
14B
  8
SPEC
 62
     7
 10
50.82237099792664
 20
242.1843878753958
 30
0.0
 40
1.900314670138888
  1
132dB SPL(パッドOFF,THD 1%%%）
 41
0.7
 11
50.82237099792664
 21
244.08470254553461
 31
0.0
 73
     3
1001
ACADANNOTATIVE
1000
AnnotativeData
1002
{
1070
     1
1070
     0
1002
}
  0
TEXT
  5
14C
  8
SPEC
 62
     7
 10
18.37316730742447
 20
238.4344166622985
 30
0.0
 40
1.900314670138888
  1
等価雑音レベル
 41
0.7
 11
18.37316730742447
 21
240.3347313324374
 31
0.0
 73
     3
1001
ACADANNOTATIVE
1000
AnnotativeData
1002
{
1070
     1
1070
     0
1002
}
  0
TEXT
  5
14D
  8
SPEC
 62
     7
 10
50.883417625447883
 20
238.41514616509971
 30
0.0
 40
1.900314670138888
  1
17dB SPL（Aウェイト）
 41
0.7
 11
50.883417625447883
 21
240.31546083523861
 31
0.0
 73
     3
1001
ACADANNOTATIVE
1000
AnnotativeData
1002
{
1070
     1
1070
     0
1002
}
  0
TEXT
  5
14E
  8
SPEC
 62
     7
 10
18.37592021697678
 20
227.31031096026351
 30
0.0
 40
1.900314670138888
  1
付属品
 41
0.7
 11
18.37592021697678
 21
229.2106256304024
 31
0.0
 73
     3
1001
ACADANNOTATIVE
1000
AnnotativeData
1002
{
1070
     1
1070
     0
1002
}
  0
LINE
  5
14F
  8
SPEC
  6
CONTINUOUS
 62
     7
 10
17.5
 20
226.25
 30
0.0
 11
165.0
 21
226.25
 31
0.0
  0
TEXT
  5
150
  8
SPEC
 62
     7
 10
18.344084913846881
 20
253.41036272779459
 30
0.0
 40
1.900314670138888
  1
指向特性
 41
0.7
 11
18.344084913846881
 21
255.3106773979334
 31
0.0
 73
     3
1001
ACADANNOTATIVE
1000
AnnotativeData
1002
{
1070
     1
1070
     0
1002
}
  0
TEXT
  5
151
  8
SPEC
 62
     7
 10
50.620067886635063
 20
253.47259185705951
 30
0.0
 40
1.900314670138888
  1
カーディオイド
 41
0.7
 11
50.620067886635063
 21
255.37290652719841
 31
0.0
 73
     3
1001
ACADANNOTATIVE
1000
AnnotativeData
1002
{
1070
     1
1070
     0
1002
}
  0
TEXT
  5
152
  8
DIMNSIONS
 62
     7
 10
79.999999999999986
 20
22.269490000000012
 30
0.0
 40
2.4432617187500001
  1
(単位：mm)
 41
0.7
 11
79.999999999999986
 21
24.71275171875001
 31
0.0
 73
     3
1001
ACADANNOTATIVE
1000
AnnotativeData
1002
{
1070
     1
1070
     0
1002
}
  0
LINE
  5
153
  8
DIMNSIONS
  6
CONTINUOUS
 62
     7
 10
75.5
 20
96.25
 30
0.0
 11
54.25
 21
96.25
 31
0.0
  0
LINE
  5
154
  8
DIMNSIONS
  6
CONTINUOUS
 62
     7
 10
77.0
 20
132.25
 30
0.0
 11
54.25
 21
132.25
 31
0.0
  0
LINE
  5
155
  8
DIMNSIONS
  6
CONTINUOUS
 62
     7
 10
56.25
 20
96.25
 30
0.0
 11
56.25
 21
132.25
 31
0.0
  0
LINE
  5
156
  8
DIMNSIONS
  6
CONTINUOUS
 62
     7
 10
56.25
 20
96.25
 30
0.0
 11
55.579960204849748
 21
98.750622558593733
 31
0.0
  0
LINE
  5
157
  8
DIMNSIONS
  6
CONTINUOUS
 62
     7
 10
56.25
 20
96.25
 30
0.0
 11
56.920039795150252
 21
98.750622558593733
 31
0.0
  0
LINE
  5
158
  8
DIMNSIONS
  6
CONTINUOUS
 62
     7
 10
56.25
 20
132.25
 30
0.0
 11
56.920039795150252
 21
129.74937744140621
 31
0.0
  0
LINE
  5
159
  8
DIMNSIONS
  6
CONTINUOUS
 62
     7
 10
56.25
 20
132.25
 30
0.0
 11
55.579960204849748
 21
129.74937744140621
 31
0.0
  0
TEXT
  5
15A
  8
DIMNSIONS
 62
     7
 10
55.25611111111111
 20
112.4861111111111
 30
0.0
 40
2.7147352430555549
  1
36
 50
90.0
 41
0.7
 11
52.54137586805556
 21
112.4861111111111
 31
0.0
 73
     3
1001
ACADANNOTATIVE
1000
AnnotativeData
1002
{
1070
     1
1070
     0
1002
}
  0
LINE
  5
15B
  8
DIMNSIONS
  6
CONTINUOUS
 62
     7
 10
82.0
 20
81.25
 30
0.0
 11
48.0
 21
81.25
 31
0.0
  0
LINE
  5
15C
  8
DIMNSIONS
  6
CONTINUOUS
 62
     7
 10
76.849251941057261
 20
132.24240578353329
 30
0.0
 11
48.0
 21
132.24240578353329
 31
0.0
  0
LINE
  5
15D
  8
DIMNSIONS
  6
CONTINUOUS
 62
     7
 10
50.0
 20
81.25
 30
0.0
 11
50.0
 21
132.24240578353329
 31
0.0
  0
LINE
  5
15E
  8
DIMNSIONS
  6
CONTINUOUS
 62
     7
 10
50.0
 20
81.25
 30
0.0
 11
49.329960204849748
 21
83.750622558593733
 31
0.0
  0
LINE
  5
15F
  8
DIMNSIONS
  6
CONTINUOUS
 62
     7
 10
50.0
 20
81.25
 30
0.0
 11
50.670039795150252
 21
83.750622558593733
 31
0.0
  0
LINE
  5
160
  8
DIMNSIONS
  6
CONTINUOUS
 62
     7
 10
50.0
 20
132.24240578353329
 30
0.0
 11
50.670039795150252
 21
129.74178322493961
 31
0.0
  0
LINE
  5
161
  8
DIMNSIONS
  6
CONTINUOUS
 62
     7
 10
50.0
 20
132.24240578353329
 30
0.0
 11
49.329960204849748
 21
129.74178322493961
 31
0.0
  0
TEXT
  5
162
  8
DIMNSIONS
 62
     7
 10
49.00611111111111
 20
104.9823140028778
 30
0.0
 40
2.7147352430555549
  1
51
 50
90.0
 41
0.7
 11
46.29137586805556
 21
104.9823140028778
 31
0.0
 73
     3
1001
ACADANNOTATIVE
1000
AnnotativeData
1002
{
1070
     1
1070
     0
1002
}
  0
LINE
  5
163
  8
DIMNSIONS
  6
CONTINUOUS
 62
     7
 10
95.100000000000037
 20
186.94999999999999
 30
0.0
 11
112.5
 21
200.0
 31
0.0
  0
LINE
  5
164
  8
DIMNSIONS
  6
CONTINUOUS
 62
     7
 10
95.100000000000037
 20
186.94999999999999
 30
0.0
 11
96.729206636381321
 21
188.96190264267531
 31
0.0
  0
LINE
  5
165
  8
DIMNSIONS
  6
CONTINUOUS
 62
     7
 10
95.100000000000037
 20
186.94999999999999
 30
0.0
 11
97.516885656458072
 21
187.8777554803072
 31
0.0
  0
LINE
  5
166
  8
DIMNSIONS
  6
CONTINUOUS
 62
     7
 10
112.5
 20
200.0
 30
0.0
 11
121.5555555555555
 21
200.0
 31
0.0
  0
TEXT
  5
167
  8
DIMNSIONS
 62
     7
 10
114.5
 20
200.9938888888889
 30
0.0
 40
2.7147352430555549
  1
\U+03C619
 41
0.7
 11
114.5
 21
203.70862413194439
 31
0.0
 73
     3
1001
ACADANNOTATIVE
1000
AnnotativeData
1002
{
1070
     1
1070
     0
1002
}
  0
TEXT
  5
168
  8
DATA
 62
     7
 10
150.0
 20
21.130890000000011
 30
0.0
 40
2.4432617187500001
  1
CK91
 41
0.7
 11
150.0
 21
23.574151718750009
 31
0.0
 73
     3
1001
ACADANNOTATIVE
1000
AnnotativeData
1002
{
1070
     1
1070
     0
1002
}
  0
TEXT
  5
169
  8
DATA
 62
     7
 10
150.0
 20
28.380890000000011
 30
0.0
 40
2.4432617187500001
  1
AKG
 41
0.7
 11
150.0
 21
30.824151718750009
 31
0.0
 73
     3
1001
ACADANNOTATIVE
1000
AnnotativeData
1002
{
1070
     1
1070
     0
1002
}
  0
TEXT
  5
16A
  8
DATA
 62
     7
 10
147.49999999999989
 20
24.903933800000011
 30
0.0
 40
1.6288437109374989
  1
カートリッジ
 41
0.7
 11
147.49999999999989
 21
26.53277751093751
 31
0.0
 73
     3
1001
ACADANNOTATIVE
1000
AnnotativeData
1002
{
1070
     1
1070
     0
1002
}
  0
TEXT
  5
16B
  8
DATA
 62
     7
 10
20.0
 20
14.238
 30
0.0
 40
1.6288411458333329
  1
仕様および外観は予告なく変更されることがありますので、ご了承ください。
 41
0.7
 11
20.0
 21
15.86684114583333
 31
0.0
 73
     3
1001
ACADANNOTATIVE
1000
AnnotativeData
1002
{
1070
     1
1070
     0
1002
}
  0
LINE
  5
16C
  8
DATA
  6
CONTINUOUS
 62
     7
 10
78.0
 20
96.25
 30
0.0
 11
78.0
 21
130.75
 31
0.0
  0
LINE
  5
16D
  8
DATA
  6
CONTINUOUS
 62
     7
 10
97.0
 20
96.25
 30
0.0
 11
78.0
 21
96.25
 31
0.0
  0
LINE
  5
16E
  8
DATA
  6
CONTINUOUS
 62
     7
 10
97.0
 20
130.75
 30
0.0
 11
97.0
 21
96.25
 31
0.0
  0
ARC
  5
16F
  8
DATA
  6
CONTINUOUS
 62
     7
 10
95.5
 20
130.75
 30
0.0
 40
1.5
 50
0.0
 51
90.0
  0
ARC
  5
170
  8
DATA
  6
CONTINUOUS
 62
     7
 10
79.5
 20
130.75
 30
0.0
 40
1.5
 50
90.0
 51
180.0
  0
LINE
  5
171
  8
DATA
  6
CONTINUOUS
 62
     7
 10
81.5
 20
87.249999999999986
 30
0.0
 11
81.5
 21
94.25
 31
0.0
  0
LINE
  5
172
  8
DATA
  6
CONTINUOUS
 62
     7
 10
93.499999999999986
 20
87.249999999999986
 30
0.0
 11
81.5
 21
87.249999999999986
 31
0.0
  0
LINE
  5
173
  8
DATA
  6
CONTINUOUS
 62
     7
 10
93.499999999999986
 20
94.25
 30
0.0
 11
93.499999999999986
 21
87.249999999999986
 31
0.0
  0
LINE
  5
174
  8
DATA
  6
CONTINUOUS
 62
     7
 10
81.5
 20
94.25
 30
0.0
 11
93.499999999999986
 21
94.25
 31
0.0
  0
LINE
  5
175
  8
DATA
  6
CONTINUOUS
 62
     7
 10
84.0
 20
81.25
 30
0.0
 11
84.0
 21
86.25
 31
0.0
  0
LINE
  5
176
  8
DATA
  6
CONTINUOUS
 62
     7
 10
91.0
 20
81.25
 30
0.0
 11
91.0
 21
86.25
 31
0.0
  0
LINE
  5
177
  8
DATA
  6
CONTINUOUS
 62
     7
 10
84.0
 20
86.25
 30
0.0
 11
81.5
 21
87.249999999999986
 31
0.0
  0
LINE
  5
178
  8
DATA
  6
CONTINUOUS
 62
     7
 10
91.0
 20
86.25
 30
0.0
 11
93.499999999999986
 21
87.249999999999986
 31
0.0
  0
LINE
  5
179
  8
DATA
  6
CONTINUOUS
 62
     7
 10
84.0
 20
86.25
 30
0.0
 11
91.0
 21
86.25
 31
0.0
  0
POLYLINE
  5
17A
  8
DATA
  6
CONTINUOUS
 62
     7
 66
     1
 10
0.0
 20
0.0
 30
0.0
  0
VERTEX
  5
347
  8
DATA
  6
CONTINUOUS
 62
     7
 10
91.0
 20
83.549999999999983
 30
0.0
  0
VERTEX
  5
348
  8
DATA
  6
CONTINUOUS
 62
     7
 10
92.799999999999983
 20
83.549999999999983
 30
0.0
  0
VERTEX
  5
349
  8
DATA
  6
CONTINUOUS
 62
     7
 10
92.799999999999983
 20
82.289230484541307
 30
0.0
  0
SEQEND
  5
34A
  8
DATA
  6
CONTINUOUS
 62
     7
  0
LINE
  5
180
  8
DATA
  6
CONTINUOUS
 62
     7
 10
91.0
 20
81.25
 30
0.0
 11
84.0
 21
81.25
 31
0.0
  0
POLYLINE
  5
181
  8
DATA
  6
CONTINUOUS
 62
     7
 66
     1
 10
0.0
 20
0.0
 30
0.0
  0
VERTEX
  5
34B
  8
DATA
  6
CONTINUOUS
 62
     7
 10
82.200000000000003
 20
82.289230484541307
 30
0.0
  0
VERTEX
  5
34C
  8
DATA
  6
CONTINUOUS
 62
     7
 10
82.200000000000003
 20
83.549999999999983
 30
0.0
  0
VERTEX
  5
34D
  8
DATA
  6
CONTINUOUS
 62
     7
 10
84.0
 20
83.549999999999983
 30
0.0
  0
SEQEND
  5
34E
  8
DATA
  6
CONTINUOUS
 62
     7
  0
LINE
  5
187
  8
DATA
  6
CONTINUOUS
 62
     7
 10
84.0
 20
81.25
 30
0.0
 11
82.200000000000003
 21
82.289230484541307
 31
0.0
  0
LINE
  5
188
  8
DATA
  6
CONTINUOUS
 62
     7
 10
91.0
 20
81.25
 30
0.0
 11
92.799999999999983
 21
82.289230484541307
 31
0.0
  0
CIRCLE
  5
189
  8
DATA
  6
CONTINUOUS
 62
     7
 10
87.5
 20
181.25
 30
0.0
 40
9.5
  0
LINE
  5
18A
  8
DATA
  6
CONTINUOUS
 62
     7
 10
90.099999999999994
 20
184.8633929253796
 30
0.0
 11
90.099999999999994
 21
190.38728624920981
 31
0.0
  0
LINE
  5
18B
  8
DATA
  6
CONTINUOUS
 62
     7
 10
87.5
 20
183.38430276000329
 30
0.0
 11
87.5
 21
190.75
 31
0.0
  0
LINE
  5
18C
  8
DATA
  6
CONTINUOUS
 62
     7
 10
87.5
 20
171.75
 30
0.0
 11
87.5
 21
179.15249242552721
 31
0.0
  0
LINE
  5
18D
  8
DATA
  6
CONTINUOUS
 62
     7
 10
84.900000000000006
 20
172.11271375079011
 30
0.0
 11
84.900000000000006
 21
177.92417792630889
 31
0.0
  0
LINE
  5
18E
  8
DATA
  6
CONTINUOUS
 62
     7
 10
85.217712194856844
 20
181.25
 30
0.0
 11
78.0
 21
181.25
 31
0.0
  0
LINE
  5
18F
  8
DATA
  6
CONTINUOUS
 62
     7
 10
83.886607074620443
 20
183.84999999999999
 30
0.0
 11
78.362713750790107
 21
183.84999999999999
 31
0.0
  0
LINE
  5
190
  8
DATA
  6
CONTINUOUS
 62
     7
 10
89.634302760003322
 20
181.25
 30
0.0
 11
97.0
 21
181.25
 31
0.0
  0
LINE
  5
191
  8
DATA
  6
CONTINUOUS
 62
     7
 10
91.135073183963357
 20
178.65000000000001
 30
0.0
 11
96.637286249209893
 21
178.65000000000001
 31
0.0
  0
LINE
  5
192
  8
DATA
  6
CONTINUOUS
 62
     7
 10
94.177148303078766
 20
188.0076394205885
 30
0.0
 11
90.099999999999994
 21
184.8633929253796
 31
0.0
  0
LINE
  5
193
  8
DATA
  6
CONTINUOUS
 62
     7
 10
95.756919183440957
 20
185.9482215356584
 30
0.0
 11
89.634302760003322
 21
181.25
 31
0.0
  0
LINE
  5
194
  8
DATA
  6
CONTINUOUS
 62
     7
 10
80.742360579411454
 20
187.92714830307881
 30
0.0
 11
83.886607074620443
 21
183.84999999999999
 31
0.0
  0
LINE
  5
195
  8
DATA
  6
CONTINUOUS
 62
     7
 10
82.801778464341567
 20
189.506919183441
 30
0.0
 11
87.5
 21
183.38430276000329
 31
0.0
  0
LINE
  5
196
  8
DATA
  6
CONTINUOUS
 62
     7
 10
92.204258136795303
 20
172.99651859017081
 30
0.0
 11
87.5
 21
179.15249242552721
 31
0.0
  0
LINE
  5
197
  8
DATA
  6
CONTINUOUS
 62
     7
 10
94.262520266507934
 20
174.57779499377691
 30
0.0
 11
91.135073183963357
 21
178.65000000000001
 31
0.0
  0
LINE
  5
198
  8
DATA
  6
CONTINUOUS
 62
     7
 10
78.97714992011349
 20
177.05345064180361
 30
0.0
 11
85.217712194856844
 21
181.25
 31
0.0
  0
LINE
  5
199
  8
DATA
  6
CONTINUOUS
 62
     7
 10
80.431066464303626
 20
174.9033332632076
 30
0.0
 11
84.900000000000006
 21
177.92417792630889
 31
0.0
  0
ARC
  5
19A
  8
DATA
  6
CONTINUOUS
 62
     7
 10
87.499999999999986
 20
181.25
 30
0.0
 40
7.5000000000000346
 50
137.41574423588639
 51
159.71643145805081
  0
ARC
  5
19B
  8
DATA
  6
CONTINUOUS
 62
     7
 10
87.499999999999986
 20
181.25
 30
0.0
 40
7.5000000000000364
 50
179.9999999999998
 51
204.142607682837
  0
ARC
  5
19C
  8
DATA
  6
CONTINUOUS
 62
     7
 10
87.499999999999986
 20
181.25
 30
0.0
 40
7.5000000000000329
 50
224.03367520713539
 51
249.71643145805101
  0
ARC
  5
19D
  8
DATA
  6
CONTINUOUS
 62
     7
 10
87.499999999999986
 20
181.25
 30
0.0
 40
7.5000000000000346
 50
270.00000000000011
 51
297.6094793698262
  0
ARC
  5
19E
  8
DATA
  6
CONTINUOUS
 62
     7
 10
87.499999999999986
 20
181.25
 30
0.0
 40
7.5000000000000329
 50
317.50054689412411
 51
339.7164314580512
  0
ARC
  5
19F
  8
DATA
  6
CONTINUOUS
 62
     7
 10
87.499999999999986
 20
181.25
 30
0.0
 40
7.5000000000000346
 50
0.0000000000001705
 51
27.524676711588381
  0
ARC
  5
1A0
  8
DATA
  6
CONTINUOUS
 62
     7
 10
87.499999999999986
 20
181.25
 30
0.0
 40
7.5000000000000364
 50
47.415744235886841
 51
69.716431458050849
  0
ARC
  5
1A1
  8
DATA
  6
CONTINUOUS
 62
     7
 10
87.499999999999986
 20
181.25
 30
0.0
 40
7.5000000000000346
 50
89.999999999999943
 51
117.5246767115879
  0
LINE
  5
1A2
  8
DATA
  6
CONTINUOUS
 62
     7
 10
93.117781842882124
 20
107.25
 30
0.0
 11
97.0
 21
108.2205545392795
 31
0.0
  0
LINE
  5
1A3
  8
DATA
  6
CONTINUOUS
 62
     7
 10
93.117781842882124
 20
109.15000000000001
 30
0.0
 11
97.0
 21
110.1205545392795
 31
0.0
  0
LINE
  5
1A4
  8
DATA
  6
CONTINUOUS
 62
     7
 10
93.117781842882124
 20
107.25
 30
0.0
 11
93.117781842882124
 21
109.15000000000001
 31
0.0
  0
LINE
  5
1A5
  8
DATA
  6
CONTINUOUS
 62
     7
 10
93.117781842882124
 20
110.0541329599935
 30
0.0
 11
97.0
 21
111.024687499273
 31
0.0
  0
LINE
  5
1A6
  8
DATA
  6
CONTINUOUS
 62
     7
 10
93.117781842882124
 20
111.9541329599935
 30
0.0
 11
97.0
 21
112.92468749927301
 31
0.0
  0
LINE
  5
1A7
  8
DATA
  6
CONTINUOUS
 62
     7
 10
93.117781842882124
 20
110.0541329599935
 30
0.0
 11
93.117781842882124
 21
111.9541329599935
 31
0.0
  0
LINE
  5
1A8
  8
DATA
  6
CONTINUOUS
 62
     7
 10
78.631904385552133
 20
103.34287898746049
 30
0.0
 11
90.631904385552104
 21
106.34287898746059
 31
0.0
  0
LINE
  5
1A9
  8
DATA
  6
CONTINUOUS
 62
     7
 10
78.631904385552133
 20
105.2428789874606
 30
0.0
 11
90.631904385552104
 21
108.2428789874606
 31
0.0
  0
LINE
  5
1AA
  8
DATA
  6
CONTINUOUS
 62
     7
 10
78.631904385552133
 20
103.34287898746049
 30
0.0
 11
78.631904385552133
 21
105.2428789874606
 31
0.0
  0
LINE
  5
1AB
  8
DATA
  6
CONTINUOUS
 62
     7
 10
90.631904385552104
 20
106.34287898746059
 30
0.0
 11
90.631904385552104
 21
108.2428789874606
 31
0.0
  0
LINE
  5
1AC
  8
DATA
  6
CONTINUOUS
 62
     7
 10
78.631904385552133
 20
106.1470119474541
 30
0.0
 11
90.631904385552104
 21
109.1470119474541
 31
0.0
  0
LINE
  5
1AD
  8
DATA
  6
CONTINUOUS
 62
     7
 10
78.631904385552133
 20
108.0470119474541
 30
0.0
 11
90.631904385552104
 21
111.0470119474541
 31
0.0
  0
LINE
  5
1AE
  8
DATA
  6
CONTINUOUS
 62
     7
 10
78.631904385552133
 20
106.1470119474541
 30
0.0
 11
78.631904385552133
 21
108.0470119474541
 31
0.0
  0
LINE
  5
1AF
  8
DATA
  6
CONTINUOUS
 62
     7
 10
90.631904385552104
 20
109.1470119474541
 30
0.0
 11
90.631904385552104
 21
111.0470119474541
 31
0.0
  0
CIRCLE
  5
1B0
  8
DATA
  6
CONTINUOUS
 62
     7
 10
87.5
 20
62.5
 30
0.0
 40
9.5
  0
ARC
  5
1B1
  8
DATA
  6
CONTINUOUS
 62
     7
 10
87.5
 20
62.5
 30
0.0
 40
3.5
 50
213.9272315846857
 51
326.07276841531427
  0
ARC
  5
1B2
  8
DATA
  6
CONTINUOUS
 62
     7
 10
87.5
 20
62.5
 30
0.0
 40
3.5000000000000022
 50
33.927231584687647
 51
146.07276841531231
  0
LINE
  5
1B3
  8
DATA
  6
CONTINUOUS
 62
     7
 10
82.200000000000003
 20
64.100000000000009
 30
0.0
 11
83.932087445017913
 21
64.100000000000009
 31
0.0
  0
LINE
  5
1B4
  8
DATA
  6
CONTINUOUS
 62
     7
 10
91.067912554982058
 20
64.100000000000009
 30
0.0
 11
92.799999999999983
 21
64.100000000000009
 31
0.0
  0
LINE
  5
1B5
  8
DATA
  6
CONTINUOUS
 62
     7
 10
82.200000000000003
 20
60.900000000000013
 30
0.0
 11
83.932087445017658
 21
60.900000000000013
 31
0.0
  0
LINE
  5
1B6
  8
DATA
  6
CONTINUOUS
 62
     7
 10
91.067912554982357
 20
60.900000000000013
 30
0.0
 11
92.799999999999983
 21
60.900000000000013
 31
0.0
  0
LINE
  5
1B7
  8
DATA
  6
CONTINUOUS
 62
     7
 10
82.200000000000003
 20
60.900000000000013
 30
0.0
 11
82.200000000000003
 21
64.100000000000009
 31
0.0
  0
LINE
  5
1B8
  8
DATA
  6
CONTINUOUS
 62
     7
 10
92.799999999999983
 20
60.900000000000013
 30
0.0
 11
92.799999999999983
 21
64.100000000000009
 31
0.0
  0
ARC
  5
1B9
  8
DATA
  6
CONTINUOUS
 62
     7
 10
83.932087445017913
 20
64.899999999999679
 30
0.0
 40
0.7999999999996703
 50
270.0
 51
326.07276841533132
  0
ARC
  5
1BA
  8
DATA
  6
CONTINUOUS
 62
     7
 10
91.067912554982058
 20
64.899999999999679
 30
0.0
 40
0.7999999999996788
 50
213.9272315846695
 51
270.0
  0
ARC
  5
1BB
  8
DATA
  6
CONTINUOUS
 62
     7
 10
91.067912554982357
 20
60.099999999999888
 30
0.0
 40
0.8000000000001249
 50
90.0
 51
146.07276841530671
  0
ARC
  5
1BC
  8
DATA
  6
CONTINUOUS
 62
     7
 10
83.932087445017658
 20
60.099999999999859
 30
0.0
 40
0.8000000000001346
 50
33.927231584694141
 51
90.0
  0
CIRCLE
  5
1BD
  8
DATA
  6
CONTINUOUS
 62
     7
 10
87.5
 20
62.5
 30
0.0
 40
3.2500000000000142
  0
CIRCLE
  5
1BE
  8
DATA
  6
CONTINUOUS
 62
     7
 10
87.5
 20
62.5
 30
0.0
 40
6.0
  0
CIRCLE
  5
1BF
  8
DATA
  6
STYLE_01
 62
     7
 10
87.499999999999986
 20
181.25
 30
0.0
 40
22.5
  0
TEXT
  5
1C0
  8
DATA
 62
     7
 10
84.478444899997697
 20
97.08113169882985
 30
0.0
 40
1.900314670138888
  1
CK 91
 41
0.7
 11
84.478444899997697
 21
98.981446368968733
 31
0.0
 73
     3
1001
ACADANNOTATIVE
1000
AnnotativeData
1002
{
1070
     1
1070
     0
1002
}
  0
LINE
  5
1C1
  8
DATA
  6
CONTINUOUS
 62
     7
 10
90.233787499028281
 20
131.15000000000001
 30
0.0
 11
90.455000000000027
 21
131.15000000000001
 31
0.0
  0
LINE
  5
1C2
  8
DATA
  6
CONTINUOUS
 62
     7
 10
82.100000000000023
 20
123.6106557377049
 30
0.0
 11
85.100000000000037
 21
124.5942622950819
 31
0.0
  0
LINE
  5
1C3
  8
DATA
  6
CONTINUOUS
 62
     7
 10
86.160130393741426
 20
124.94184603073489
 30
0.0
 11
89.433787499028298
 21
126.01517622918961
 31
0.0
  0
LINE
  5
1C4
  8
DATA
  6
CONTINUOUS
 62
     7
 10
82.100000000000023
 20
123.6106557377049
 30
0.0
 11
82.100000000000023
 21
130.34999999999999
 31
0.0
  0
LINE
  5
1C5
  8
DATA
  6
CONTINUOUS
 62
     7
 10
85.100000000000037
 20
124.5942622950819
 30
0.0
 11
85.100000000000037
 21
130.34999999999999
 31
0.0
  0
LINE
  5
1C6
  8
DATA
  6
CONTINUOUS
 62
     7
 10
86.160130393741426
 20
124.94184603073489
 30
0.0
 11
86.160130393741426
 21
130.34999999999999
 31
0.0
  0
LINE
  5
1C7
  8
DATA
  6
CONTINUOUS
 62
     7
 10
89.433787499028298
 20
126.01517622918961
 30
0.0
 11
89.433787499028298
 21
130.34999999999999
 31
0.0
  0
ARC
  5
1C8
  8
DATA
  6
CONTINUOUS
 62
     7
 10
82.900000000000006
 20
130.34999999999999
 30
0.0
 40
0.8000000000000007
 50
90.0
 51
180.0
  0
ARC
  5
1C9
  8
DATA
  6
CONTINUOUS
 62
     7
 10
86.960130393741409
 20
130.34999999999999
 30
0.0
 40
0.8000000000000007
 50
90.0
 51
180.0
  0
ARC
  5
1CA
  8
DATA
  6
CONTINUOUS
 62
     7
 10
90.233787499028281
 20
130.34999999999999
 30
0.0
 40
0.8000000000000007
 50
90.0
 51
180.0
  0
LINE
  5
1CB
  8
DATA
  6
CONTINUOUS
 62
     7
 10
85.900000000000006
 20
131.15000000000001
 30
0.0
 11
90.5
 21
131.15000000000001
 31
0.0
  0
LINE
  5
1CC
  8
DATA
  6
CONTINUOUS
 62
     7
 10
79.5
 20
132.25
 30
0.0
 11
95.5
 21
132.25
 31
0.0
  0
ARC
  5
1CD
  8
DATA
  6
CONTINUOUS
 62
     7
 10
85.900000000000006
 20
130.34999999999999
 30
0.0
 40
0.8000000000000007
 50
90.0
 51
180.0
  0
LINE
  5
1CE
  8
DATA
  6
CONTINUOUS
 62
     7
 10
94.100000000000009
 20
123.6175756165164
 30
0.0
 11
94.100000000000009
 21
130.34999999999999
 31
0.0
  0
ARC
  5
1CF
  8
DATA
  6
CONTINUOUS
 62
     7
 10
94.900000000000006
 20
130.34999999999999
 30
0.0
 40
0.8000000000000007
 50
90.0
 51
180.0
  0
LINE
  5
1D0
  8
DATA
  6
CONTINUOUS
 62
     7
 10
82.900000000000006
 20
131.15000000000001
 30
0.0
 11
95.400000000000006
 21
131.15000000000001
 31
0.0
  0
LINE
  5
1D1
  8
DATA
  6
CONTINUOUS
 62
     7
 10
94.900000000000006
 20
131.15000000000001
 30
0.0
 11
96.945683229480082
 21
131.15000000000001
 31
0.0
  0
LINE
  5
1D2
  8
DATA
  6
CONTINUOUS
 62
     7
 10
94.100000000000009
 20
123.6175756165164
 30
0.0
 11
97.0
 21
124.56839528864749
 31
0.0
  0
ARC
  5
1D3
  8
DATA
  6
STYLE_01
 62
     7
 10
181.75576923076991
 20
133.5019230769233
 30
0.0
 40
118.85729985697181
 50
190.7903255467522
 51
206.07957209909191
  0
ARC
  5
1D4
  8
DATA
  6
STYLE_01
 62
     7
 10
-6.7557692307698991
 20
133.5019230769233
 30
0.0
 40
118.85729985697181
 50
333.92042790090818
 51
349.20967445324783
  0
LINE
  5
1D5
  8
DATA
  6
STYLE_01
 62
     7
 10
75.0
 20
81.25
 30
0.0
 11
100.0
 21
81.25
 31
0.0
  0
ARC
  5
1D6
  8
DATA
  6
STYLE_01
 62
     7
 10
61.977777777777803
 20
113.75
 30
0.0
 40
3.9222222222222078
 50
320.40224729095002
 51
39.597752709050042
  0
LINE
  5
1D7
  8
DATA
  6
STYLE_01
 62
     7
 10
65.0
 20
116.25
 30
0.0
 11
65.0
 21
126.59999999999999
 31
0.0
  0
LINE
  5
1D8
  8
DATA
  6
STYLE_01
 62
     7
 10
86.786448663297534
 20
148.25
 30
0.0
 11
88.21355133670248
 21
148.25
 31
0.0
  0
ARC
  5
1D9
  8
DATA
  6
STYLE_01
 62
     7
 10
89.802790178571399
 20
123.5694196428571
 30
0.0
 40
24.987253109202289
 50
101.6106772163464
 51
173.0337274753544
  0
ARC
  5
1DA
  8
DATA
  6
STYLE_01
 62
     7
 10
113.0222222222222
 20
113.75
 30
0.0
 40
3.9222222222222078
 50
140.40224729094999
 51
219.59775270905001
  0
LINE
  5
1DB
  8
DATA
  6
STYLE_01
 62
     7
 10
110.0
 20
116.25
 30
0.0
 11
110.0
 21
126.59999999999999
 31
0.0
  0
ARC
  5
1DC
  8
DATA
  6
STYLE_01
 62
     7
 10
85.197209821428572
 20
123.5694196428571
 30
0.0
 40
24.987253109202289
 50
6.9662725246456336
 51
78.389322783653569
  0
ARC
  5
1DD
  8
DATA
  6
STYLE_01
 62
     7
 10
86.786448663297534
 20
138.25000000000011
 30
0.0
 40
9.9999999999999112
 50
90.0
 51
101.6106772163465
  0
ARC
  5
1DE
  8
DATA
  6
STYLE_01
 62
     7
 10
88.21355133670248
 20
138.24999999999989
 30
0.0
 40
10.00000000000008
 50
78.389322783653682
 51
90.0
  0
LINE
  5
1DF
  8
DATA
  6
STYLE_01
 62
     7
 10
65.0
 20
116.25
 30
0.0
 11
110.05
 21
116.25
 31
0.0
  0
LINE
  5
1E0
  8
DATA
  6
STYLE_01
 62
     7
 10
65.0
 20
111.25
 30
0.0
 11
110.0
 21
111.25
 31
0.0
  0
TEXT
  5
1E1
  8
DATA
 62
     7
 10
121.2346143181658
 20
151.34920127691871
 30
0.0
 40
2.7147352430555549
  1
ウインドスクリーン
 41
0.7
 11
121.2346143181658
 21
154.06393651997419
 31
0.0
 73
     3
1001
ACADANNOTATIVE
1000
AnnotativeData
1002
{
1070
     1
1070
     0
1002
}
  0
LINE
  5
1E2
  8
DATA
  6
CONTINUOUS
 62
     7
 10
118.75
 20
150.0
 30
0.0
 11
156.25
 21
150.0
 31
0.0
  0
LINE
  5
1E3
  8
DATA
  6
CONTINUOUS
 62
     7
 10
81.5
 20
94.25
 30
0.0
 11
78.0
 21
96.25
 31
0.0
  0
LINE
  5
1E4
  8
DATA
  6
CONTINUOUS
 62
     7
 10
93.499999999999986
 20
94.25
 30
0.0
 11
97.0
 21
96.270725942163693
 31
0.0
  0
LINE
  5
1E5
  8
DATA
  6
CONTINUOUS
 62
     7
 10
118.75
 20
150.0
 30
0.0
 11
106.24159811755661
 21
168.80000000000001
 31
0.0
  0
LINE
  5
1E6
  8
DATA
  6
CONTINUOUS
 62
     7
 10
106.24159811755661
 20
168.80000000000001
 30
0.0
 11
108.7223299211704
 21
166.64353274303949
 31
0.0
  0
LINE
  5
1E7
  8
DATA
  6
CONTINUOUS
 62
     7
 10
106.24159811755661
 20
168.80000000000001
 30
0.0
 11
107.3117412509819
 21
165.692078671236
 31
0.0
  0
LINE
  5
1E8
  8
DATA
  6
CONTINUOUS
 62
     7
 10
118.75
 20
150.0
 30
0.0
 11
106.0643813212484
 21
137.31438132124839
 31
0.0
  0
LINE
  5
1E9
  8
DATA
  6
CONTINUOUS
 62
     7
 10
106.0643813212484
 20
137.31438132124839
 30
0.0
 11
107.7078822576494
 21
140.16100844538201
 31
0.0
  0
LINE
  5
1EA
  8
DATA
  6
CONTINUOUS
 62
     7
 10
106.0643813212484
 20
137.31438132124839
 30
0.0
 11
108.911008445382
 21
138.9578822576494
 31
0.0
  0
ENDSEC
  0
EOF
