  0
SECTION
  2
HEADER
  9
$ACADVER
  1
AC1009
  9
$INSBASE
 10
0.0
 20
0.0
 30
0.0
  9
$EXTMIN
 10
-450.02746372486871
 20
-673.91620263281266
 30
-0.0015258207003583
  9
$EXTMAX
 10
450.02746791582013
 20
664.1680137850426
 30
0.0000000349246037
  9
$LIMMIN
 10
0.0
 20
0.0
  9
$LIMMAX
 10
0.0
 20
0.0
  9
$ORTHOMODE
 70
     0
  9
$REGENMODE
 70
     1
  9
$FILLMODE
 70
     1
  9
$QTEXTMODE
 70
     0
  9
$MIRRTEXT
 70
     1
  9
$DRAGMODE
 70
     2
  9
$LTSCALE
 40
25.399999999999999
  9
$OSMODE
 70
   231
  9
$ATTMODE
 70
     1
  9
$TEXTSIZE
 40
0.0
  9
$TRACEWID
 40
1.0
  9
$TEXTSTYLE
  7
STANDARD
  9
$CLAYER
  8
DATA
  9
$CELTYPE
  6
BYLAYER
  9
$CECOLOR
 62
   256
  9
$DIMSCALE
 40
1.0
  9
$DIMASZ
 40
0.18
  9
$DIMEXO
 40
0.0625
  9
$DIMDLI
 40
0.38
  9
$DIMRND
 40
0.0
  9
$DIMDLE
 40
0.0
  9
$DIMEXE
 40
0.18
  9
$DIMTP
 40
0.0
  9
$DIMTM
 40
0.0
  9
$DIMTXT
 40
0.18
  9
$DIMCEN
 40
0.09
  9
$DIMTSZ
 40
0.0
  9
$DIMTOL
 70
     0
  9
$DIMLIM
 70
     0
  9
$DIMTIH
 70
     1
  9
$DIMTOH
 70
     1
  9
$DIMSE1
 70
     0
  9
$DIMSE2
 70
     0
  9
$DIMTAD
 70
     0
  9
$DIMZIN
 70
     0
  9
$DIMBLK
  1

  9
$DIMASO
 70
     1
  9
$DIMSHO
 70
     1
  9
$DIMPOST
  1

  9
$DIMAPOST
  1

  9
$DIMALT
 70
     0
  9
$DIMALTD
 70
     2
  9
$DIMALTF
 40
25.399999999999999
  9
$DIMLFAC
 40
1.0
  9
$DIMTOFL
 70
     0
  9
$DIMTVP
 40
0.0
  9
$DIMTIX
 70
     0
  9
$DIMSOXD
 70
     0
  9
$DIMSAH
 70
     0
  9
$DIMBLK1
  1

  9
$DIMBLK2
  1

  9
$DIMSTYLE
  2
STANDARD
  9
$DIMCLRD
 70
     0
  9
$DIMCLRE
 70
     0
  9
$DIMCLRT
 70
     0
  9
$DIMTFAC
 40
1.0
  9
$DIMGAP
 40
0.09
  9
$LUNITS
 70
     2
  9
$LUPREC
 70
     4
  9
$SKETCHINC
 40
0.1
  9
$FILLETRAD
 40
0.0
  9
$AUNITS
 70
     0
  9
$AUPREC
 70
     0
  9
$MENU
  1
acad
  9
$ELEVATION
 40
0.0
  9
$PELEVATION
 40
0.0
  9
$THICKNESS
 40
0.0
  9
$LIMCHECK
 70
     0
  9
$BLIPMODE
 70
     0
  9
$CHAMFERA
 40
0.0
  9
$CHAMFERB
 40
0.0
  9
$SKPOLY
 70
     0
  9
$TDCREATE
 40
2456696.716006944
  9
$TDUPDATE
 40
2456696.7166195139
  9
$TDINDWG
 40
0.0004422917
  9
$TDUSRTIMER
 40
0.000435787
  9
$USRTIMER
 70
     1
  9
$ANGBASE
 50
0.0
  9
$ANGDIR
 70
     0
  9
$PDMODE
 70
     1
  9
$PDSIZE
 40
-2.0
  9
$PLINEWID
 40
0.0
  9
$COORDS
 70
     2
  9
$SPLFRAME
 70
     0
  9
$SPLINETYPE
 70
     6
  9
$SPLINESEGS
 70
     8
  9
$ATTDIA
 70
     0
  9
$ATTREQ
 70
     1
  9
$HANDLING
 70
     1
  9
$HANDSEED
  5
A70
  9
$SURFTAB1
 70
     6
  9
$SURFTAB2
 70
     6
  9
$SURFTYPE
 70
     6
  9
$SURFU
 70
     6
  9
$SURFV
 70
     6
  9
$UCSNAME
  2

  9
$UCSORG
 10
0.0
 20
0.0
 30
0.0
  9
$UCSXDIR
 10
1.0
 20
0.0
 30
0.0
  9
$UCSYDIR
 10
0.0
 20
1.0
 30
0.0
  9
$PUCSNAME
  2

  9
$PUCSORG
 10
0.0
 20
0.0
 30
0.0
  9
$PUCSXDIR
 10
1.0
 20
0.0
 30
0.0
  9
$PUCSYDIR
 10
0.0
 20
1.0
 30
0.0
  9
$USERI1
 70
     0
  9
$USERI2
 70
     0
  9
$USERI3
 70
     0
  9
$USERI4
 70
     0
  9
$USERI5
 70
     0
  9
$USERR1
 40
0.0
  9
$USERR2
 40
0.0
  9
$USERR3
 40
0.0
  9
$USERR4
 40
0.0
  9
$USERR5
 40
0.0
  9
$WORLDVIEW
 70
     1
  9
$SHADEDGE
 70
     3
  9
$SHADEDIF
 70
    70
  9
$TILEMODE
 70
     1
  9
$MAXACTVP
 70
    64
  9
$PLIMCHECK
 70
     0
  9
$PEXTMIN
 10
1.0000000000000000E+020
 20
1.0000000000000000E+020
 30
1.0000000000000000E+020
  9
$PEXTMAX
 10
-1.0000000000000000E+020
 20
-1.0000000000000000E+020
 30
-1.0000000000000000E+020
  9
$PLIMMIN
 10
0.0
 20
0.0
  9
$PLIMMAX
 10
12.0
 20
9.0
  9
$UNITMODE
 70
     0
  9
$VISRETAIN
 70
     0
  9
$PLINEGEN
 70
     1
  9
$PSLTSCALE
 70
     0
  0
ENDSEC
  0
SECTION
  2
TABLES
  0
TABLE
  2
VPORT
 70
     1
  0
VPORT
  2
*ACTIVE
 70
     0
 10
0.0
 20
0.0
 11
1.0
 21
1.0
 12
0.0000020954757929
 22
-3.53181189096972
 13
0.0
 23
0.0
 14
1.0
 24
1.0
 15
0.0
 25
0.0
 16
0.0
 26
0.0
 36
1.0
 17
0.0
 27
0.0
 37
0.0
 40
1345.9146092366859
 41
2.1787122207621552
 42
50.0
 43
0.0
 44
0.0
 50
0.0
 51
0.0
 71
     0
 72
  2000
 73
     1
 74
     1
 75
     0
 76
     0
 77
     0
 78
     0
  0
ENDTAB
  0
TABLE
  2
LTYPE
 70
    11
  0
LTYPE
  2
CONTINUOUS
 70
     0
  3
Solid line
 72
    65
 73
     0
 40
0.0
  0
LTYPE
  2
STYLE_01
 70
     0
  3

 72
    65
 73
     2
 40
0.4166412353515625
 49
0.208282470703125
 49
-0.2083587646484375
  0
ENDTAB
  0
TABLE
  2
LAYER
 70
     5
  0
LAYER
  2
0
 70
     0
 62
     7
  6
CONTINUOUS
  0
LAYER
  2
DATA
 70
     0
 62
     7
  6
CONTINUOUS
  0
LAYER
  2
HIBINO-BASE
 70
     0
 62
     7
  6
CONTINUOUS
  0
LAYER
  2
SPEC
 70
     0
 62
     7
  6
CONTINUOUS
  0
LAYER
  2
DIMNSIONS
 70
     0
 62
     7
  6
CONTINUOUS
  0
ENDTAB
  0
TABLE
  2
STYLE
 70
     3
  0
STYLE
  2
STANDARD
 70
     0
 40
0.0
 41
1.0
 50
0.0
 71
     0
 42
0.0
  3
txt
  4
BIGFONT.SHX
  0
ENDTAB
  0
TABLE
  2
VIEW
 70
     0
  0
ENDTAB
  0
TABLE
  2
UCS
 70
     0
  0
ENDTAB
  0
TABLE
  2
APPID
 70
     4
  0
APPID
  2
ACAD
 70
     0
  0
APPID
  2
ACADANNOTATIVE
 70
     0
  0
APPID
  2
ACAD_NAV_VCDISPLAY
 70
     0
  0
APPID
  2
ACAD_MLEADERVER
 70
     0
  0
ENDTAB
  0
TABLE
  2
DIMSTYLE
 70
     2
  0
DIMSTYLE
  2
STANDARD
 70
     0
  3

  4

  5

  6

  7

 40
1.0
 41
0.18
 42
0.0625
 43
0.38
 44
0.18
 45
0.0
 46
0.0
 47
0.0
 48
0.0
140
0.18
141
0.09
142
0.0
143
25.399999999999999
144
1.0
145
0.0
146
1.0
147
0.09
 71
     0
 72
     0
 73
     1
 74
     1
 75
     0
 76
     0
 77
     0
 78
     0
170
     0
171
     2
172
     0
173
     0
174
     0
175
     0
176
     0
177
     0
178
     0
  0
ENDTAB
  0
ENDSEC
  0
SECTION
  2
BLOCKS
  0
BLOCK
  8
0
  2
$MODEL_SPACE
 70
     0
 10
0.0
 20
0.0
 30
0.0
  3
$MODEL_SPACE
  1

  0
ENDBLK
  5
93F
  8
0
  0
BLOCK
 67
     1
  8
0
  2
$PAPER_SPACE
 70
     0
 10
0.0
 20
0.0
 30
0.0
  3
$PAPER_SPACE
  1

  0
ENDBLK
  5
93B
 67
     1
  8
0
  0
ENDSEC
  0
SECTION
  2
ENTITIES
  0
LINE
  5
2C
  8
HIBINO-BASE
  6
CONTINUOUS
 62
     7
 10
-450.0
 20
664.12726000000021
 30
0.0
 11
450.0
 21
664.12726000000021
 31
0.0
  0
LINE
  5
2D
  8
HIBINO-BASE
  6
CONTINUOUS
 62
     7
 10
450.0
 20
-635.87274000000002
 30
0.0
 11
-450.0
 21
-635.87274000000002
 31
0.0
  0
LINE
  5
2E
  8
HIBINO-BASE
  6
CONTINUOUS
 62
     7
 10
-450.0
 20
-635.87274000000002
 30
0.0
 11
-450.0
 21
664.12726000000021
 31
0.0
  0
LINE
  5
2F
  8
HIBINO-BASE
  6
CONTINUOUS
 62
     7
 10
450.0
 20
664.12726000000021
 30
0.0
 11
450.0
 21
-635.87274000000002
 31
0.0
  0
LINE
  5
30
  8
HIBINO-BASE
  6
CONTINUOUS
 62
     7
 10
0.0000000000000355
 20
-523.37274000000002
 30
0.0
 11
450.0
 21
-523.37274000000002
 31
0.0
  0
LINE
  5
31
  8
HIBINO-BASE
  6
CONTINUOUS
 62
     7
 10
0.0000000000000355
 20
-635.87274000000002
 30
0.0
 11
0.0000000000000355
 21
-523.37274000000002
 31
0.0
  0
TEXT
  5
32
  8
HIBINO-BASE
 62
     7
 10
4.5000000000000631
 20
-535.91620666666654
 30
0.0
 40
8.1442057291666661
  1
NOTE
 41
0.7
 11
4.5000000000000631
 21
-527.7720009374998
 31
0.0
 73
     3
  0
LINE
  5
33
  8
HIBINO-BASE
  6
CONTINUOUS
 62
     7
 10
175.00000000000011
 20
-635.87274000000002
 30
0.0
 11
175.00000000000011
 21
-523.37274000000002
 31
0.0
  0
TEXT
  5
34
  8
HIBINO-BASE
 62
     7
 10
179.5
 20
-535.91620666666654
 30
0.0
 40
8.1442057291666661
  1
TITLE
 41
0.7
 11
179.5
 21
-527.7720009374998
 31
0.0
 73
     3
  0
LINE
  5
35
  8
HIBINO-BASE
  6
CONTINUOUS
 62
     7
 10
0.0000000000000355
 20
-585.87274000000002
 30
0.0
 11
450.0
 21
-585.87274000000002
 31
0.0
  0
TEXT
  5
36
  8
HIBINO-BASE
 62
     7
 10
242.0
 20
-598.13460666666651
 30
0.0
 40
8.1442057291666661
  1
DRAWN
 41
0.7
 11
242.0
 21
-589.99040093749977
 31
0.0
 73
     3
  0
TEXT
  5
37
  8
HIBINO-BASE
 62
     7
 10
117.0
 20
-598.13460666666651
 30
0.0
 40
8.1442057291666661
  1
DATE
 41
0.7
 11
117.0
 21
-589.99040093749977
 31
0.0
 73
     3
  0
TEXT
  5
38
  8
HIBINO-BASE
 62
     7
 10
67.0
 20
-598.13460666666651
 30
0.0
 40
8.1442057291666661
  1
SCALE
 41
0.7
 11
67.0
 21
-589.99040093749977
 31
0.0
 73
     3
  0
TEXT
  5
39
  8
HIBINO-BASE
 62
     7
 10
179.5
 20
-598.13460666666651
 30
0.0
 40
8.1442057291666661
  1
DESIGN
 41
0.7
 11
179.5
 21
-589.99040093749977
 31
0.0
 73
     3
  0
TEXT
  5
3A
  8
HIBINO-BASE
 62
     7
 10
367.0
 20
-598.13460666666651
 30
0.0
 40
8.1442057291666661
  1
DRAWING NO.
 41
0.7
 11
367.0
 21
-589.99040093749977
 31
0.0
 73
     3
  0
TEXT
  5
3B
  8
HIBINO-BASE
 62
     7
 10
304.49999999999989
 20
-598.13460666666651
 30
0.0
 40
8.1442057291666661
  1
CHECK
 41
0.7
 11
304.49999999999989
 21
-589.99040093749977
 31
0.0
 73
     3
  0
LINE
  5
3C
  8
HIBINO-BASE
  6
CONTINUOUS
 62
     7
 10
71.875000000000014
 20
-629.62274000000002
 30
0.0
 11
90.625000000000114
 21
-610.87274000000002
 31
0.0
  0
TEXT
  5
3D
  8
HIBINO-BASE
 62
     7
 10
68.750000000000014
 20
-616.41745666666679
 30
0.0
 40
8.1442057291666661
  1
1
 41
0.7
 11
68.750000000000014
 21
-608.27325093750005
 31
0.0
 73
     3
  0
LINE
  5
3E
  8
HIBINO-BASE
  6
CONTINUOUS
 62
     7
 10
62.500000000000028
 20
-635.87274000000002
 30
0.0
 11
62.500000000000028
 21
-585.87274000000002
 31
0.0
  0
LINE
  5
3F
  8
HIBINO-BASE
  6
CONTINUOUS
 62
     7
 10
112.4999999999999
 20
-635.87274000000002
 30
0.0
 11
112.4999999999999
 21
-585.87274000000002
 31
0.0
  0
LINE
  5
40
  8
HIBINO-BASE
  6
CONTINUOUS
 62
     7
 10
237.5
 20
-585.87274000000002
 30
0.0
 11
237.5
 21
-635.87274000000002
 31
0.0
  0
LINE
  5
41
  8
HIBINO-BASE
  6
CONTINUOUS
 62
     7
 10
362.5
 20
-585.87274000000002
 30
0.0
 11
362.5
 21
-635.87274000000002
 31
0.0
  0
LINE
  5
42
  8
HIBINO-BASE
  6
CONTINUOUS
 62
     7
 10
300.0
 20
-635.87274000000002
 30
0.0
 11
300.0
 21
-585.87274000000002
 31
0.0
  0
TEXT
  5
43
  8
HIBINO-BASE
 62
     7
 10
116.7827000000001
 20
-621.55450666666638
 30
0.0
 40
8.1442057291666661
  1
'14.01.
 41
0.7
 11
116.7827000000001
 21
-613.41030093749987
 31
0.0
 73
     3
  0
TEXT
  5
44
  8
HIBINO-BASE
 62
     7
 10
87.500000000000057
 20
-625.79245666666679
 30
0.0
 40
8.1442057291666661
  1
5
 41
0.7
 11
87.500000000000057
 21
-617.64825093750005
 31
0.0
 73
     3
  0
TEXT
  5
45
  8
HIBINO-BASE
 62
     7
 10
245.02905005517309
 20
-621.55450666666638
 30
0.0
 40
8.1442057291666661
  1
N.Sasaki
 41
0.7
 11
245.02905005517309
 21
-613.41030093749987
 31
0.0
 73
     3
  0
TEXT
  5
46
  8
HIBINO-BASE
 62
     7
 10
19.416666666666799
 20
-625.99274000000003
 30
0.0
 40
16.288411458333329
  1
A4
 41
0.7
 11
19.416666666666799
 21
-609.70432854166665
 31
0.0
 73
     3
  0
TEXT
  5
47
  8
HIBINO-BASE
 62
     7
 10
4.7916666666666776
 20
-598.97001499999988
 30
0.0
 40
8.1442057291666661
  1
PAPER SIZE
 41
0.7
 11
4.7916666666666794
 21
-590.82580927083325
 31
0.0
 73
     3
  0
TEXT
  5
48
  8
HIBINO-BASE
 62
     7
 10
-414.07999999999993
 20
-667.91612899999996
 30
0.0
 40
18.00022089843749
  1
Hibino Corporation
 41
0.7
 11
-414.07999999999993
 21
-649.91590810156254
 31
0.0
 73
     3
  0
TEXT
  5
49
  8
HIBINO-BASE
 62
     7
 10
250.34195
 20
-667.91612899999996
 30
0.0
 40
18.00022089843749
  1
ヒビノ株式会社
 41
0.7
 11
250.34195
 21
-649.91590810156254
 31
0.0
 73
     3
  0
LINE
  5
4A
  8
SPEC
  6
CONTINUOUS
 62
     7
 10
-412.49999999999989
 20
614.12725999999986
 30
0.0
 11
325.0
 21
614.12725999999986
 31
0.0
  0
LINE
  5
4B
  8
SPEC
  6
CONTINUOUS
 62
     7
 10
-260.0
 20
595.37725999999975
 30
0.0
 11
325.0
 21
595.37725999999975
 31
0.0
  0
LINE
  5
4C
  8
SPEC
  6
CONTINUOUS
 62
     7
 10
-412.49999999999989
 20
614.12725999999986
 30
0.0
 11
-412.49999999999989
 21
239.12725999999981
 31
0.0
  0
TEXT
  5
4D
  8
SPEC
 62
     7
 10
-406.24999999999989
 20
621.09360999999967
 30
0.0
 40
12.21630859375
  1
仕様
 41
0.7
 11
-406.24999999999989
 21
633.30991859374979
 31
0.0
 73
     3
  0
LINE
  5
4E
  8
SPEC
  6
CONTINUOUS
 62
     7
 10
-260.0
 20
614.12725999999986
 30
0.0
 11
-260.0
 21
370.37725999999992
 31
0.0
  0
LINE
  5
4F
  8
SPEC
  6
CONTINUOUS
 62
     7
 10
325.0
 20
614.12725999999986
 30
0.0
 11
325.0
 21
239.12725999999981
 31
0.0
  0
TEXT
  5
50
  8
SPEC
 62
     7
 10
-408.0
 20
299.31684888888873
 30
0.0
 40
9.5015733506944464
  1
寸法(W\U+00D7H\U+00D7D)
 41
0.7
 11
-408.0
 21
308.81842223958319
 31
0.0
 73
     3
  0
TEXT
  5
51
  8
SPEC
 62
     7
 10
-408.0
 20
280.56684888888873
 30
0.0
 40
9.5015733506944464
  1
質量
 41
0.7
 11
-408.0
 21
290.06842223958319
 31
0.0
 73
     3
  0
LINE
  5
52
  8
SPEC
  6
CONTINUOUS
 62
     7
 10
-260.0
 20
576.62725999999975
 30
0.0
 11
325.0
 21
576.62725999999975
 31
0.0
  0
LINE
  5
53
  8
SPEC
  6
CONTINUOUS
 62
     7
 10
-260.0
 20
557.87725999999986
 30
0.0
 11
325.0
 21
557.87725999999986
 31
0.0
  0
LINE
  5
54
  8
SPEC
  6
CONTINUOUS
 62
     7
 10
-260.0
 20
539.12725999999986
 30
0.0
 11
325.0
 21
539.12725999999986
 31
0.0
  0
LINE
  5
55
  8
SPEC
  6
CONTINUOUS
 62
     7
 10
-412.49999999999989
 20
520.37725999999986
 30
0.0
 11
325.0
 21
520.37725999999986
 31
0.0
  0
LINE
  5
56
  8
SPEC
  6
CONTINUOUS
 62
     7
 10
-260.0
 20
501.62725999999992
 30
0.0
 11
325.0
 21
501.62725999999992
 31
0.0
  0
LINE
  5
57
  8
SPEC
  6
CONTINUOUS
 62
     7
 10
-260.0
 20
482.87725999999992
 30
0.0
 11
325.0
 21
482.87725999999992
 31
0.0
  0
LINE
  5
58
  8
SPEC
  6
CONTINUOUS
 62
     7
 10
-260.0
 20
464.12725999999992
 30
0.0
 11
325.0
 21
464.12725999999992
 31
0.0
  0
LINE
  5
59
  8
SPEC
  6
CONTINUOUS
 62
     7
 10
-370.0
 20
445.37725999999992
 30
0.0
 11
325.0
 21
445.37725999999992
 31
0.0
  0
LINE
  5
5A
  8
SPEC
  6
CONTINUOUS
 62
     7
 10
-260.0
 20
426.62725999999981
 30
0.0
 11
325.0
 21
426.62725999999981
 31
0.0
  0
LINE
  5
5B
  8
SPEC
  6
CONTINUOUS
 62
     7
 10
-260.0
 20
407.87725999999981
 30
0.0
 11
325.0
 21
407.87725999999981
 31
0.0
  0
LINE
  5
5C
  8
SPEC
  6
CONTINUOUS
 62
     7
 10
-260.0
 20
389.12725999999992
 30
0.0
 11
325.0
 21
389.12725999999992
 31
0.0
  0
LINE
  5
5D
  8
SPEC
  6
CONTINUOUS
 62
     7
 10
-412.49999999999989
 20
370.37725999999992
 30
0.0
 11
325.0
 21
370.37725999999992
 31
0.0
  0
LINE
  5
5E
  8
SPEC
  6
CONTINUOUS
 62
     7
 10
-412.49999999999989
 20
351.62725999999992
 30
0.0
 11
325.0
 21
351.62725999999992
 31
0.0
  0
LINE
  5
5F
  8
SPEC
  6
CONTINUOUS
 62
     7
 10
-412.49999999999989
 20
332.87725999999981
 30
0.0
 11
325.0
 21
332.87725999999981
 31
0.0
  0
LINE
  5
60
  8
SPEC
  6
CONTINUOUS
 62
     7
 10
-412.49999999999989
 20
314.12725999999981
 30
0.0
 11
325.0
 21
314.12725999999981
 31
0.0
  0
LINE
  5
61
  8
SPEC
  6
CONTINUOUS
 62
     7
 10
-412.49999999999989
 20
295.37725999999981
 30
0.0
 11
325.0
 21
295.37725999999981
 31
0.0
  0
LINE
  5
62
  8
SPEC
  6
CONTINUOUS
 62
     7
 10
-412.49999999999989
 20
276.62725999999992
 30
0.0
 11
325.0
 21
276.62725999999992
 31
0.0
  0
TEXT
  5
63
  8
SPEC
 62
     7
 10
-408.0
 20
599.31684888888856
 30
0.0
 40
9.5015733506944464
  1
入力
 41
0.7
 11
-408.0
 21
608.81842223958313
 31
0.0
 73
     3
  0
TEXT
  5
64
  8
SPEC
 62
     7
 10
-255.5
 20
599.31684888888856
 30
0.0
 40
9.5015733506944464
  1
チャンネル数
 41
0.7
 11
-255.5
 21
608.81842223958313
 31
0.0
 73
     3
  0
TEXT
  5
65
  8
SPEC
 62
     7
 10
-365.5
 20
599.31684888888856
 30
0.0
 40
9.5015733506944464
  1
マイク/ ライン
 41
0.7
 11
-365.5
 21
608.81842223958313
 31
0.0
 73
     3
  0
TEXT
  5
66
  8
SPEC
 62
     7
 10
-143.32104771646809
 20
599.31684888888856
 30
0.0
 40
9.5015733506944464
  1
12
 41
0.7
 11
-143.32104771646809
 21
608.81842223958313
 31
0.0
 73
     3
  0
LINE
  5
67
  8
SPEC
  6
CONTINUOUS
 62
     7
 10
-370.0
 20
614.12725999999986
 30
0.0
 11
-370.0
 21
370.37725999999992
 31
0.0
  0
LINE
  5
68
  8
SPEC
  6
CONTINUOUS
 62
     7
 10
-147.82104771646809
 20
614.12725999999986
 30
0.0
 11
-147.82104771646809
 21
239.12725999999981
 31
0.0
  0
TEXT
  5
69
  8
SPEC
 62
     7
 10
-143.32104771646809
 20
299.31684888888873
 30
0.0
 40
9.5015733506944464
  1
482\U+00D744.5\U+00D7220mm(除突起部)
 41
0.7
 11
-143.32104771646809
 21
308.81842223958319
 31
0.0
 73
     3
  0
TEXT
  5
6A
  8
SPEC
 62
     7
 10
-143.32104771646809
 20
280.56684888888873
 30
0.0
 40
9.5015733506944464
  1
3.3kg
 41
0.7
 11
-143.32104771646809
 21
290.06842223958319
 31
0.0
 73
     3
  0
TEXT
  5
6B
  8
SPEC
 62
     7
 10
-408.0
 20
261.81684888888873
 30
0.0
 40
9.5015733506944464
  1
付属品
 41
0.7
 11
-408.0
 21
271.31842223958319
 31
0.0
 73
     3
  0
TEXT
  5
6C
  8
SPEC
 62
     7
 10
-255.5
 20
580.56684888888856
 30
0.0
 40
9.5015733506944464
  1
端子・型式
 41
0.7
 11
-255.5
 21
590.06842223958313
 31
0.0
 73
     3
  0
TEXT
  5
6D
  8
SPEC
 62
     7
 10
-143.32104771646809
 20
561.81684888888856
 30
0.0
 40
9.5015733506944464
  1
8k\U+03A9
 41
0.7
 11
-143.32104771646809
 21
571.31842223958313
 31
0.0
 73
     3
  0
TEXT
  5
6E
  8
SPEC
 62
     7
 10
-255.5
 20
561.81684888888856
 30
0.0
 40
9.5015733506944464
  1
インピーダンス
 41
0.7
 11
-255.5
 21
571.31842223958313
 31
0.0
 73
     3
  0
TEXT
  5
6F
  8
SPEC
 62
     7
 10
-255.5
 20
543.06684888888856
 30
0.0
 40
9.5015733506944464
  1
最大レベル
 41
0.7
 11
-255.5
 21
552.56842223958313
 31
0.0
 73
     3
  0
TEXT
  5
70
  8
SPEC
 62
     7
 10
-143.32104771646809
 20
543.06684888888856
 30
0.0
 40
9.5015733506944464
  1
+20dBu
 41
0.7
 11
-143.32104771646809
 21
552.56842223958313
 31
0.0
 73
     3
  0
TEXT
  5
71
  8
SPEC
 62
     7
 10
-255.5
 20
524.31684888888856
 30
0.0
 40
9.5015733506944464
  1
ファンタム電源^I
 41
0.7
 11
-255.5
 21
533.81842223958313
 31
0.0
 73
     3
  0
TEXT
  5
72
  8
SPEC
 62
     7
 10
-143.3210477164682
 20
524.31684888888856
 30
0.0
 40
9.5015733506944464
  1
48V
 41
0.7
 11
-143.3210477164682
 21
533.81842223958313
 31
0.0
 73
     3
  0
TEXT
  5
73
  8
SPEC
 62
     7
 10
-408.0
 20
505.56684888888861
 30
0.0
 40
9.5015733506944464
  1
出力
 41
0.7
 11
-408.0
 21
515.06842223958313
 31
0.0
 73
     3
  0
TEXT
  5
74
  8
SPEC
 62
     7
 10
-255.5
 20
505.56684888888861
 30
0.0
 40
9.5015733506944464
  1
チャンネル数
 41
0.7
 11
-255.5
 21
515.06842223958313
 31
0.0
 73
     3
  0
TEXT
  5
75
  8
SPEC
 62
     7
 10
-255.5
 20
486.81684888888861
 30
0.0
 40
9.5015733506944464
  1
端子・型式
 41
0.7
 11
-255.5
 21
496.31842223958307
 31
0.0
 73
     3
  0
TEXT
  5
76
  8
SPEC
 62
     7
 10
-143.3210477164682
 20
505.56684888888861
 30
0.0
 40
9.5015733506944464
  1
2ステレオ
 41
0.7
 11
-143.3210477164682
 21
515.06842223958313
 31
0.0
 73
     3
  0
TEXT
  5
77
  8
SPEC
 62
     7
 10
-255.5
 20
468.06684888888861
 30
0.0
 40
9.5015733506944464
  1
インピーダンス
 41
0.7
 11
-255.5
 21
477.56842223958307
 31
0.0
 73
     3
  0
TEXT
  5
78
  8
SPEC
 62
     7
 10
-143.32104771646809
 20
468.06684888888861
 30
0.0
 40
9.5015733506944464
  1
100\U+03A9
 41
0.7
 11
-143.32104771646809
 21
477.56842223958307
 31
0.0
 73
     3
  0
TEXT
  5
79
  8
SPEC
 62
     7
 10
-255.5
 20
449.31684888888861
 30
0.0
 40
9.5015733506944464
  1
最大レベル
 41
0.7
 11
-255.5
 21
458.81842223958307
 31
0.0
 73
     3
  0
TEXT
  5
7A
  8
SPEC
 62
     7
 10
-143.32104771646809
 20
449.31684888888861
 30
0.0
 40
9.5015733506944464
  1
+20dBu
 41
0.7
 11
-143.32104771646809
 21
458.81842223958307
 31
0.0
 73
     3
  0
TEXT
  5
7B
  8
SPEC
 62
     7
 10
-365.5
 20
505.56684888888861
 30
0.0
 40
9.5015733506944464
  1
メイン
 41
0.7
 11
-365.5
 21
515.06842223958313
 31
0.0
 73
     3
  0
TEXT
  5
7C
  8
SPEC
 62
     7
 10
-365.5
 20
430.56684888888861
 30
0.0
 40
9.5015733506944464
  1
レコーディング
 41
0.7
 11
-365.5
 21
440.06842223958307
 31
0.0
 73
     3
  0
TEXT
  5
7D
  8
SPEC
 62
     7
 10
-255.5
 20
430.56684888888861
 30
0.0
 40
9.5015733506944464
  1
チャンネル数
 41
0.7
 11
-255.5
 21
440.06842223958307
 31
0.0
 73
     3
  0
TEXT
  5
7E
  8
SPEC
 62
     7
 10
-143.3210477164682
 20
430.56684888888861
 30
0.0
 40
9.5015733506944464
  1
1ステレオ
 41
0.7
 11
-143.3210477164682
 21
440.06842223958307
 31
0.0
 73
     3
  0
TEXT
  5
7F
  8
SPEC
 62
     7
 10
-255.5
 20
393.06684888888873
 30
0.0
 40
9.5015733506944464
  1
インピーダンス
 41
0.7
 11
-255.5
 21
402.56842223958307
 31
0.0
 73
     3
  0
TEXT
  5
80
  8
SPEC
 62
     7
 10
-143.3210477164682
 20
411.81684888888861
 30
0.0
 40
9.5015733506944464
  1
RCA、アンバランス
 41
0.7
 11
-143.3210477164682
 21
421.31842223958307
 31
0.0
 73
     3
  0
TEXT
  5
81
  8
SPEC
 62
     7
 10
-255.5
 20
411.81684888888861
 30
0.0
 40
9.5015733506944464
  1
端子・形式
 41
0.7
 11
-255.5
 21
421.31842223958307
 31
0.0
 73
     3
  0
TEXT
  5
82
  8
SPEC
 62
     7
 10
-143.3210477164682
 20
393.06684888888873
 30
0.0
 40
9.5015733506944464
  1
100\U+03A9
 41
0.7
 11
-143.3210477164682
 21
402.56842223958307
 31
0.0
 73
     3
  0
TEXT
  5
83
  8
SPEC
 62
     7
 10
-255.5
 20
374.31684888888873
 30
0.0
 40
9.5015733506944464
  1
最大レベル
 41
0.7
 11
-255.5
 21
383.81842223958307
 31
0.0
 73
     3
  0
TEXT
  5
84
  8
SPEC
 62
     7
 10
-408.0
 20
355.56684888888873
 30
0.0
 40
9.5015733506944464
  1
AD-DA変換
 41
0.7
 11
-408.0
 21
365.06842223958319
 31
0.0
 73
     3
  0
TEXT
  5
85
  8
SPEC
 62
     7
 10
-143.3210477164682
 20
374.31684888888873
 30
0.0
 40
9.5015733506944464
  1
+20dBu
 41
0.7
 11
-143.3210477164682
 21
383.81842223958307
 31
0.0
 73
     3
  0
TEXT
  5
86
  8
SPEC
 62
     7
 10
-408.0
 20
336.81684888888873
 30
0.0
 40
9.5015733506944464
  1
電源
 41
0.7
 11
-408.0
 21
346.31842223958319
 31
0.0
 73
     3
  0
TEXT
  5
87
  8
SPEC
 62
     7
 10
-408.0
 20
318.06684888888873
 30
0.0
 40
9.5015733506944464
  1
消費電力
 41
0.7
 11
-408.0
 21
327.56842223958319
 31
0.0
 73
     3
  0
TEXT
  5
88
  8
SPEC
 62
     7
 10
-143.32104771646809
 20
355.56684888888873
 30
0.0
 40
9.5015733506944464
  1
24bit、48kHz
 41
0.7
 11
-143.32104771646809
 21
365.06842223958319
 31
0.0
 73
     3
  0
TEXT
  5
89
  8
SPEC
 62
     7
 10
-143.3210477164682
 20
336.81684888888873
 30
0.0
 40
9.5015733506944464
  1
AC100V、50/60Hz
 41
0.7
 11
-143.3210477164682
 21
346.31842223958319
 31
0.0
 73
     3
  0
TEXT
  5
8A
  8
SPEC
 62
     7
 10
-143.3210477164682
 20
318.06684888888873
 30
0.0
 40
9.5015733506944464
  1
75W
 41
0.7
 11
-143.3210477164682
 21
327.56842223958319
 31
0.0
 73
     3
  0
TEXT
  5
8B
  8
SPEC
 62
     7
 10
-143.3210477164682
 20
261.81684888888873
 30
0.0
 40
9.5015733506944464
  1
ゴム足\U+00D74(1シート)、2ピン・ブロックコネクタ ー、
 41
0.7
 11
-143.3210477164682
 21
271.31842223958319
 31
0.0
 73
     3
  0
TEXT
  5
8C
  8
SPEC
 62
     7
 10
-143.32104771646809
 20
580.56684888888856
 30
0.0
 40
9.5015733506944464
  1
ユーロブロック、電子バランス
 41
0.7
 11
-143.32104771646809
 21
590.06842223958313
 31
0.0
 73
     3
  0
TEXT
  5
8D
  8
SPEC
 62
     7
 10
-143.3210477164682
 20
486.81684888888861
 30
0.0
 40
9.5015733506944464
  1
ユーロブロック、電子バランス
 41
0.7
 11
-143.3210477164682
 21
496.31842223958307
 31
0.0
 73
     3
  0
LINE
  5
8E
  8
SPEC
  6
CONTINUOUS
 62
     7
 10
-412.49999999999989
 20
239.12725999999981
 30
0.0
 11
325.0
 21
239.12725999999981
 31
0.0
  0
TEXT
  5
8F
  8
SPEC
 62
     7
 10
-143.3210477164682
 20
243.0668488888887
 30
0.0
 40
9.5015733506944464
  1
3ピン・ブロックコネクタ ー\U+00D716、電源ケーブル
 41
0.7
 11
-143.3210477164682
 21
252.56842223958321
 31
0.0
 73
     3
  0
TEXT
  5
90
  8
DIMNSIONS
 62
     7
 10
-99.999999999999957
 20
-574.52528999999993
 30
0.0
 40
12.21630859375
  1
(単位：mm)
 41
0.7
 11
-99.999999999999957
 21
-562.30898140624993
 31
0.0
 73
     3
  0
LINE
  5
91
  8
DIMNSIONS
  6
CONTINUOUS
 62
     7
 10
-341.5
 20
-50.0
 30
0.0
 11
-341.5
 21
-10.0
 31
0.0
  0
LINE
  5
92
  8
DIMNSIONS
  6
CONTINUOUS
 62
     7
 10
103.5
 20
-50.0
 30
0.0
 11
103.5
 21
-10.0
 31
0.0
  0
LINE
  5
93
  8
DIMNSIONS
  6
CONTINUOUS
 62
     7
 10
-341.5
 20
-20.0
 30
0.0
 11
103.5
 21
-20.0
 31
0.0
  0
LINE
  5
94
  8
DIMNSIONS
  6
CONTINUOUS
 62
     7
 10
-341.5
 20
-20.0
 30
0.0
 11
-328.99688720703119
 21
-16.649801024248781
 31
0.0
  0
LINE
  5
95
  8
DIMNSIONS
  6
CONTINUOUS
 62
     7
 10
-341.5
 20
-20.0
 30
0.0
 11
-328.99688720703119
 21
-23.350198975751219
 31
0.0
  0
LINE
  5
96
  8
DIMNSIONS
  6
CONTINUOUS
 62
     7
 10
103.5
 20
-20.0
 30
0.0
 11
90.996887207031236
 21
-23.350198975751219
 31
0.0
  0
LINE
  5
97
  8
DIMNSIONS
  6
CONTINUOUS
 62
     7
 10
103.5
 20
-20.0
 30
0.0
 11
90.996887207031236
 21
-16.649801024248781
 31
0.0
  0
TEXT
  5
98
  8
DIMNSIONS
 62
     7
 10
-132.2291666666666
 20
-13.53055555555555
 30
0.0
 40
13.57367621527778
  1
445
 41
0.7
 11
-132.2291666666666
 21
0.0431206597222236
 31
0.0
 73
     3
  0
LINE
  5
99
  8
DIMNSIONS
  6
CONTINUOUS
 62
     7
 10
-360.0
 20
-430.0
 30
0.0
 11
-360.0
 21
-470.0
 31
0.0
  0
LINE
  5
9A
  8
DIMNSIONS
  6
CONTINUOUS
 62
     7
 10
122.0
 20
-430.0
 30
0.0
 11
122.0
 21
-470.0
 31
0.0
  0
LINE
  5
9B
  8
DIMNSIONS
  6
CONTINUOUS
 62
     7
 10
-360.0
 20
-460.0
 30
0.0
 11
122.0
 21
-460.0
 31
0.0
  0
LINE
  5
9C
  8
DIMNSIONS
  6
CONTINUOUS
 62
     7
 10
-360.0
 20
-460.0
 30
0.0
 11
-347.49688720703119
 21
-456.64980102424869
 31
0.0
  0
LINE
  5
9D
  8
DIMNSIONS
  6
CONTINUOUS
 62
     7
 10
-360.0
 20
-460.0
 30
0.0
 11
-347.49688720703119
 21
-463.3501989757512
 31
0.0
  0
LINE
  5
9E
  8
DIMNSIONS
  6
CONTINUOUS
 62
     7
 10
122.0
 20
-460.0
 30
0.0
 11
109.49688720703119
 21
-463.3501989757512
 31
0.0
  0
LINE
  5
9F
  8
DIMNSIONS
  6
CONTINUOUS
 62
     7
 10
122.0
 20
-460.0
 30
0.0
 11
109.49688720703119
 21
-456.64980102424869
 31
0.0
  0
TEXT
  5
A0
  8
DIMNSIONS
 62
     7
 10
-132.2291666666666
 20
-453.53055555555551
 30
0.0
 40
13.57367621527778
  1
482
 41
0.7
 11
-132.2291666666666
 21
-439.95687934027768
 31
0.0
 73
     3
  0
LINE
  5
A1
  8
DIMNSIONS
  6
CONTINUOUS
 62
     7
 10
-370.0
 20
-420.0
 30
0.0
 11
-410.0
 21
-420.0
 31
0.0
  0
LINE
  5
A2
  8
DIMNSIONS
  6
CONTINUOUS
 62
     7
 10
-370.0
 20
-375.5
 30
0.0
 11
-410.0
 21
-375.5
 31
0.0
  0
LINE
  5
A3
  8
DIMNSIONS
  6
CONTINUOUS
 62
     7
 10
-400.0
 20
-420.0
 30
0.0
 11
-400.0
 21
-375.5
 31
0.0
  0
LINE
  5
A4
  8
DIMNSIONS
  6
CONTINUOUS
 62
     7
 10
-400.0
 20
-420.0
 30
0.0
 11
-403.35019897575108
 21
-407.49688720703119
 31
0.0
  0
LINE
  5
A5
  8
DIMNSIONS
  6
CONTINUOUS
 62
     7
 10
-400.0
 20
-420.0
 30
0.0
 11
-396.6498010242488
 21
-407.49688720703119
 31
0.0
  0
LINE
  5
A6
  8
DIMNSIONS
  6
CONTINUOUS
 62
     7
 10
-400.0
 20
-375.5
 30
0.0
 11
-396.6498010242488
 21
-388.00311279296881
 31
0.0
  0
LINE
  5
A7
  8
DIMNSIONS
  6
CONTINUOUS
 62
     7
 10
-400.0
 20
-375.5
 30
0.0
 11
-403.35019897575108
 21
-388.00311279296881
 31
0.0
  0
TEXT
  5
A8
  8
DIMNSIONS
 62
     7
 10
-406.46944444444449
 20
-415.3888888888888
 30
0.0
 40
13.57367621527778
  1
44.5
 50
90.0
 41
0.7
 11
-420.04312065972221
 21
-415.3888888888888
 31
0.0
 73
     3
  0
LINE
  5
A9
  8
DIMNSIONS
  6
CONTINUOUS
 62
     7
 10
-370.0
 20
-280.0
 30
0.0
 11
-410.0
 21
-280.0
 31
0.0
  0
LINE
  5
AA
  8
DIMNSIONS
  6
CONTINUOUS
 62
     7
 10
-351.5
 20
-60.0
 30
0.0
 11
-410.0
 21
-60.0
 31
0.0
  0
LINE
  5
AB
  8
DIMNSIONS
  6
CONTINUOUS
 62
     7
 10
-400.0
 20
-280.0
 30
0.0
 11
-400.0
 21
-60.0
 31
0.0
  0
LINE
  5
AC
  8
DIMNSIONS
  6
CONTINUOUS
 62
     7
 10
-400.0
 20
-280.0
 30
0.0
 11
-403.35019897575108
 21
-267.49688720703131
 31
0.0
  0
LINE
  5
AD
  8
DIMNSIONS
  6
CONTINUOUS
 62
     7
 10
-400.0
 20
-280.0
 30
0.0
 11
-396.6498010242488
 21
-267.49688720703131
 31
0.0
  0
LINE
  5
AE
  8
DIMNSIONS
  6
CONTINUOUS
 62
     7
 10
-400.0
 20
-60.0
 30
0.0
 11
-396.6498010242488
 21
-72.50311279296875
 31
0.0
  0
LINE
  5
AF
  8
DIMNSIONS
  6
CONTINUOUS
 62
     7
 10
-400.0
 20
-60.0
 30
0.0
 11
-403.35019897575108
 21
-72.50311279296875
 31
0.0
  0
TEXT
  5
B0
  8
DIMNSIONS
 62
     7
 10
-406.46944444444449
 20
-183.22916666666671
 30
0.0
 40
13.57367621527778
  1
220
 50
90.0
 41
0.7
 11
-420.04312065972221
 21
-183.22916666666671
 31
0.0
 73
     3
  0
LINE
  5
B1
  8
DIMNSIONS
  6
CONTINUOUS
 62
     7
 10
-351.5
 20
-60.0
 30
0.0
 11
-410.0
 21
-60.0
 31
0.0
  0
LINE
  5
B2
  8
DIMNSIONS
  6
CONTINUOUS
 62
     7
 10
-91.442159566199933
 20
-51.5
 30
0.0
 11
-410.0
 21
-51.5
 31
0.0
  0
LINE
  5
B3
  8
DIMNSIONS
  6
CONTINUOUS
 62
     7
 10
-400.0
 20
-51.5
 30
0.0
 11
-400.0
 21
-60.0
 31
0.0
  0
LINE
  5
B4
  8
DIMNSIONS
  6
CONTINUOUS
 62
     7
 10
-400.0
 20
-60.0
 30
0.0
 11
-400.0
 21
-85.0
 31
0.0
  0
LINE
  5
B5
  8
DIMNSIONS
  6
CONTINUOUS
 62
     7
 10
-400.0
 20
-60.0
 30
0.0
 11
-396.6498010242488
 21
-72.50311279296875
 31
0.0
  0
LINE
  5
B6
  8
DIMNSIONS
  6
CONTINUOUS
 62
     7
 10
-400.0
 20
-60.0
 30
0.0
 11
-403.35019897575108
 21
-72.50311279296875
 31
0.0
  0
LINE
  5
B7
  8
DIMNSIONS
  6
CONTINUOUS
 62
     7
 10
-400.0
 20
-51.5
 30
0.0
 11
-400.0
 21
-23.541666666666661
 31
0.0
  0
LINE
  5
B8
  8
DIMNSIONS
  6
CONTINUOUS
 62
     7
 10
-400.0
 20
-51.5
 30
0.0
 11
-403.35019897575108
 21
-38.99688720703125
 31
0.0
  0
LINE
  5
B9
  8
DIMNSIONS
  6
CONTINUOUS
 62
     7
 10
-400.0
 20
-51.5
 30
0.0
 11
-396.6498010242488
 21
-38.99688720703125
 31
0.0
  0
TEXT
  5
BA
  8
DIMNSIONS
 62
     7
 10
-404.96944444444449
 20
-50.0
 30
0.0
 40
13.57367621527778
  1
8.5
 50
90.0
 41
0.7
 11
-418.54312065972221
 21
-50.0
 31
0.0
 73
     3
  0
LINE
  5
BB
  8
DIMNSIONS
  6
CONTINUOUS
 62
     7
 10
-370.0
 20
-280.0
 30
0.0
 11
-410.0
 21
-280.0
 31
0.0
  0
LINE
  5
BC
  8
DIMNSIONS
  6
CONTINUOUS
 62
     7
 10
-320.0
 20
-298.0
 30
0.0
 11
-410.0
 21
-298.0
 31
0.0
  0
LINE
  5
BD
  8
DIMNSIONS
  6
CONTINUOUS
 62
     7
 10
-400.0
 20
-298.0
 30
0.0
 11
-400.0
 21
-280.0
 31
0.0
  0
LINE
  5
BE
  8
DIMNSIONS
  6
CONTINUOUS
 62
     7
 10
-400.0
 20
-280.0
 30
0.0
 11
-400.0
 21
-255.0
 31
0.0
  0
LINE
  5
BF
  8
DIMNSIONS
  6
CONTINUOUS
 62
     7
 10
-400.0
 20
-280.0
 30
0.0
 11
-403.35019897575108
 21
-267.49688720703131
 31
0.0
  0
LINE
  5
C0
  8
DIMNSIONS
  6
CONTINUOUS
 62
     7
 10
-400.0
 20
-280.0
 30
0.0
 11
-396.6498010242488
 21
-267.49688720703131
 31
0.0
  0
LINE
  5
C1
  8
DIMNSIONS
  6
CONTINUOUS
 62
     7
 10
-400.0
 20
-298.0
 30
0.0
 11
-400.0
 21
-340.27777777777783
 31
0.0
  0
LINE
  5
C2
  8
DIMNSIONS
  6
CONTINUOUS
 62
     7
 10
-400.0
 20
-298.0
 30
0.0
 11
-396.6498010242488
 21
-310.50311279296881
 31
0.0
  0
LINE
  5
C3
  8
DIMNSIONS
  6
CONTINUOUS
 62
     7
 10
-400.0
 20
-298.0
 30
0.0
 11
-403.35019897575108
 21
-310.50311279296881
 31
0.0
  0
TEXT
  5
C4
  8
DIMNSIONS
 62
     7
 10
-404.96944444444449
 20
-340.27777777777789
 30
0.0
 40
13.57367621527778
  1
18.0
 50
90.0
 41
0.7
 11
-418.54312065972221
 21
-340.27777777777789
 31
0.0
 73
     3
  0
LINE
  5
C5
  8
DATA
  6
CONTINUOUS
 62
     7
 10
-360.0
 20
84.500000000000014
 30
0.0
 11
-360.0
 21
40.0
 31
0.0
  0
LINE
  5
C6
  8
DATA
  6
CONTINUOUS
 62
     7
 10
122.0
 20
84.500000000000014
 30
0.0
 11
-360.0
 21
84.500000000000014
 31
0.0
  0
LINE
  5
C7
  8
DATA
  6
CONTINUOUS
 62
     7
 10
122.0
 20
40.0
 30
0.0
 11
122.0
 21
84.500000000000014
 31
0.0
  0
LINE
  5
C8
  8
DATA
  6
CONTINUOUS
 62
     7
 10
-360.0
 20
40.0
 30
0.0
 11
122.0
 21
40.0
 31
0.0
  0
LINE
  5
C9
  8
DATA
  6
CONTINUOUS
 62
     7
 10
-352.34999999999991
 20
43.0
 30
0.0
 11
-349.34999999999991
 21
43.0
 31
0.0
  0
LINE
  5
CA
  8
DATA
  6
CONTINUOUS
 62
     7
 10
-352.34999999999991
 20
49.5
 30
0.0
 11
-349.34999999999991
 21
49.5
 31
0.0
  0
ARC
  5
CB
  8
DATA
  6
CONTINUOUS
 62
     7
 10
-349.34999999999991
 20
46.25
 30
0.0
 40
3.25
 50
270.0
 51
90.0
  0
ARC
  5
CC
  8
DATA
  6
CONTINUOUS
 62
     7
 10
-352.34999999999991
 20
46.25
 30
0.0
 40
3.25
 50
90.0
 51
270.0
  0
LINE
  5
CD
  8
DATA
  6
CONTINUOUS
 62
     7
 10
-352.34999999999991
 20
81.5
 30
0.0
 11
-349.34999999999991
 21
81.5
 31
0.0
  0
LINE
  5
CE
  8
DATA
  6
CONTINUOUS
 62
     7
 10
-352.34999999999991
 20
75.0
 30
0.0
 11
-349.34999999999991
 21
75.0
 31
0.0
  0
ARC
  5
CF
  8
DATA
  6
CONTINUOUS
 62
     7
 10
-349.34999999999991
 20
78.25
 30
0.0
 40
3.25
 50
270.0
 51
90.0
  0
ARC
  5
D0
  8
DATA
  6
CONTINUOUS
 62
     7
 10
-352.34999999999991
 20
78.25
 30
0.0
 40
3.25
 50
90.0
 51
270.0
  0
LINE
  5
D1
  8
DATA
  6
CONTINUOUS
 62
     7
 10
114.34999999999989
 20
43.0
 30
0.0
 11
111.34999999999989
 21
43.0
 31
0.0
  0
LINE
  5
D2
  8
DATA
  6
CONTINUOUS
 62
     7
 10
114.34999999999989
 20
49.5
 30
0.0
 11
111.34999999999989
 21
49.5
 31
0.0
  0
ARC
  5
D3
  8
DATA
  6
CONTINUOUS
 62
     7
 10
111.34999999999989
 20
46.25
 30
0.0
 40
3.25
 50
90.0
 51
270.0
  0
ARC
  5
D4
  8
DATA
  6
CONTINUOUS
 62
     7
 10
114.34999999999989
 20
46.25
 30
0.0
 40
3.25
 50
270.0
 51
90.0
  0
LINE
  5
D5
  8
DATA
  6
CONTINUOUS
 62
     7
 10
114.34999999999989
 20
81.5
 30
0.0
 11
111.34999999999989
 21
81.5
 31
0.0
  0
LINE
  5
D6
  8
DATA
  6
CONTINUOUS
 62
     7
 10
114.34999999999989
 20
75.0
 30
0.0
 11
111.34999999999989
 21
75.0
 31
0.0
  0
ARC
  5
D7
  8
DATA
  6
CONTINUOUS
 62
     7
 10
111.34999999999989
 20
78.25
 30
0.0
 40
3.25
 50
90.0
 51
270.0
  0
ARC
  5
D8
  8
DATA
  6
CONTINUOUS
 62
     7
 10
114.34999999999989
 20
78.25
 30
0.0
 40
3.25
 50
270.0
 51
90.0
  0
LINE
  5
D9
  8
DATA
  6
CONTINUOUS
 62
     7
 10
103.5
 20
84.500000000000014
 30
0.0
 11
103.5
 21
40.0
 31
0.0
  0
LINE
  5
DA
  8
DATA
  6
CONTINUOUS
 62
     7
 10
-341.5
 20
84.500000000000014
 30
0.0
 11
103.5
 21
84.500000000000014
 31
0.0
  0
LINE
  5
DB
  8
DATA
  6
CONTINUOUS
 62
     7
 10
-341.5
 20
40.0
 30
0.0
 11
-341.5
 21
84.500000000000014
 31
0.0
  0
LINE
  5
DC
  8
DATA
  6
CONTINUOUS
 62
     7
 10
103.5
 20
40.0
 30
0.0
 11
-341.5
 21
40.0
 31
0.0
  0
LINE
  5
DD
  8
DATA
  6
CONTINUOUS
 62
     7
 10
97.5
 20
84.500000000000014
 30
0.0
 11
97.5
 21
46.0
 31
0.0
  0
LINE
  5
DE
  8
DATA
  6
CONTINUOUS
 62
     7
 10
-335.5
 20
46.0
 30
0.0
 11
-335.5
 21
84.500000000000014
 31
0.0
  0
LINE
  5
DF
  8
DATA
  6
CONTINUOUS
 62
     7
 10
97.5
 20
46.0
 30
0.0
 11
83.499999999999986
 21
46.0
 31
0.0
  0
LINE
  5
E0
  8
DATA
  6
CONTINUOUS
 62
     7
 10
83.499999999999986
 20
43.0
 30
0.0
 11
33.5
 21
43.0
 31
0.0
  0
LINE
  5
E1
  8
DATA
  6
CONTINUOUS
 62
     7
 10
23.5
 20
43.0
 30
0.0
 11
-261.5
 21
43.0
 31
0.0
  0
LINE
  5
E2
  8
DATA
  6
CONTINUOUS
 62
     7
 10
-271.5
 20
46.0
 30
0.0
 11
-335.5
 21
46.0
 31
0.0
  0
LINE
  5
E3
  8
DATA
  6
CONTINUOUS
 62
     7
 10
103.5
 20
40.0
 30
0.0
 11
97.5
 21
46.0
 31
0.0
  0
LINE
  5
E4
  8
DATA
  6
CONTINUOUS
 62
     7
 10
-335.5
 20
46.0
 30
0.0
 11
-341.5
 21
40.0
 31
0.0
  0
LINE
  5
E5
  8
DATA
  6
CONTINUOUS
 62
     7
 10
-261.5
 20
47.0
 30
0.0
 11
-261.5
 21
43.0
 31
0.0
  0
LINE
  5
E6
  8
DATA
  6
CONTINUOUS
 62
     7
 10
-264.5
 20
50.0
 30
0.0
 11
-261.5
 21
47.0
 31
0.0
  0
LINE
  5
E7
  8
DATA
  6
CONTINUOUS
 62
     7
 10
-268.5
 20
50.0
 30
0.0
 11
-264.5
 21
50.0
 31
0.0
  0
LINE
  5
E8
  8
DATA
  6
CONTINUOUS
 62
     7
 10
-271.5
 20
47.0
 30
0.0
 11
-268.5
 21
50.0
 31
0.0
  0
LINE
  5
E9
  8
DATA
  6
CONTINUOUS
 62
     7
 10
-271.5
 20
46.0
 30
0.0
 11
-271.5
 21
47.0
 31
0.0
  0
LINE
  5
EA
  8
DATA
  6
CONTINUOUS
 62
     7
 10
23.5
 20
47.0
 30
0.0
 11
23.5
 21
43.0
 31
0.0
  0
LINE
  5
EB
  8
DATA
  6
CONTINUOUS
 62
     7
 10
26.5
 20
50.0
 30
0.0
 11
23.5
 21
47.0
 31
0.0
  0
LINE
  5
EC
  8
DATA
  6
CONTINUOUS
 62
     7
 10
30.5
 20
50.0
 30
0.0
 11
26.5
 21
50.0
 31
0.0
  0
LINE
  5
ED
  8
DATA
  6
CONTINUOUS
 62
     7
 10
33.5
 20
47.0
 30
0.0
 11
30.5
 21
50.0
 31
0.0
  0
LINE
  5
EE
  8
DATA
  6
CONTINUOUS
 62
     7
 10
33.5
 20
43.0
 30
0.0
 11
33.5
 21
47.0
 31
0.0
  0
CIRCLE
  5
EF
  8
DATA
  6
CONTINUOUS
 62
     7
 10
-169.14999999982501
 20
69.499999999999773
 30
0.0
 40
3.999999999999909
  0
CIRCLE
  5
F0
  8
DATA
  6
CONTINUOUS
 62
     7
 10
-169.14999999982501
 20
69.499999999999773
 30
0.0
 40
2.500000000000008
  0
CIRCLE
  5
F1
  8
DATA
  6
CONTINUOUS
 62
     7
 10
-169.14999999982501
 20
69.499999999999773
 30
0.0
 40
2.0000000000000391
  0
CIRCLE
  5
F2
  8
DATA
  6
CONTINUOUS
 62
     7
 10
-169.14999999982501
 20
54.499999999999773
 30
0.0
 40
3.999999999999909
  0
CIRCLE
  5
F3
  8
DATA
  6
CONTINUOUS
 62
     7
 10
-169.14999999982501
 20
54.499999999999773
 30
0.0
 40
2.500000000000008
  0
CIRCLE
  5
F4
  8
DATA
  6
CONTINUOUS
 62
     7
 10
-169.14999999982501
 20
54.499999999999773
 30
0.0
 40
2.0000000000000391
  0
CIRCLE
  5
F5
  8
DATA
  6
CONTINUOUS
 62
     7
 10
28.5
 20
46.0
 30
0.0
 40
3.0
  0
LINE
  5
F6
  8
DATA
  6
CONTINUOUS
 62
     7
 10
30.0
 20
46.0
 30
0.0
 11
27.0
 21
46.0
 31
0.0
  0
LINE
  5
F7
  8
DATA
  6
CONTINUOUS
 62
     7
 10
28.5
 20
47.5
 30
0.0
 11
28.5
 21
44.5
 31
0.0
  0
CIRCLE
  5
F8
  8
DATA
  6
CONTINUOUS
 62
     7
 10
-266.5
 20
46.0
 30
0.0
 40
3.0
  0
LINE
  5
F9
  8
DATA
  6
CONTINUOUS
 62
     7
 10
-265.0
 20
46.0
 30
0.0
 11
-268.0
 21
46.0
 31
0.0
  0
LINE
  5
FA
  8
DATA
  6
CONTINUOUS
 62
     7
 10
-266.5
 20
47.5
 30
0.0
 11
-266.5
 21
44.5
 31
0.0
  0
LINE
  5
FB
  8
DATA
  6
CONTINUOUS
 62
     7
 10
-180.14999999982501
 20
76.499999999999787
 30
0.0
 11
-180.14999999982501
 21
62.499999999999773
 31
0.0
  0
LINE
  5
FC
  8
DATA
  6
CONTINUOUS
 62
     7
 10
-212.14999999982501
 20
76.499999999999787
 30
0.0
 11
-180.14999999982501
 21
76.499999999999787
 31
0.0
  0
LINE
  5
FD
  8
DATA
  6
CONTINUOUS
 62
     7
 10
-212.14999999982501
 20
62.499999999999773
 30
0.0
 11
-212.14999999982501
 21
76.499999999999787
 31
0.0
  0
LINE
  5
FE
  8
DATA
  6
CONTINUOUS
 62
     7
 10
-180.14999999982501
 20
62.499999999999773
 30
0.0
 11
-212.14999999982501
 21
62.499999999999773
 31
0.0
  0
LINE
  5
FF
  8
DATA
  6
CONTINUOUS
 62
     7
 10
-182.14999999982501
 20
75.499999999999787
 30
0.0
 11
-182.14999999982501
 21
64.499999999999773
 31
0.0
  0
LINE
  5
100
  8
DATA
  6
CONTINUOUS
 62
     7
 10
-210.14999999982501
 20
75.499999999999787
 30
0.0
 11
-196.64999999982501
 21
75.499999999999787
 31
0.0
  0
LINE
  5
101
  8
DATA
  6
CONTINUOUS
 62
     7
 10
-210.14999999982501
 20
64.499999999999773
 30
0.0
 11
-210.14999999982501
 21
75.499999999999787
 31
0.0
  0
LINE
  5
102
  8
DATA
  6
CONTINUOUS
 62
     7
 10
-182.14999999982501
 20
64.499999999999773
 30
0.0
 11
-195.64999999982501
 21
64.499999999999773
 31
0.0
  0
LINE
  5
103
  8
DATA
  6
CONTINUOUS
 62
     7
 10
-195.64999999982501
 20
75.499999999999787
 30
0.0
 11
-195.64999999982501
 21
64.499999999999773
 31
0.0
  0
LINE
  5
104
  8
DATA
  6
CONTINUOUS
 62
     7
 10
-196.64999999982501
 20
75.499999999999787
 30
0.0
 11
-196.64999999982501
 21
64.499999999999773
 31
0.0
  0
LINE
  5
105
  8
DATA
  6
CONTINUOUS
 62
     7
 10
-205.89999999982501
 20
75.499999999999787
 30
0.0
 11
-205.89999999982501
 21
74.499999999999787
 31
0.0
  0
LINE
  5
106
  8
DATA
  6
CONTINUOUS
 62
     7
 10
-205.89999999982501
 20
74.499999999999787
 30
0.0
 11
-206.89999999982501
 21
74.499999999999787
 31
0.0
  0
LINE
  5
107
  8
DATA
  6
CONTINUOUS
 62
     7
 10
-206.89999999982501
 20
74.499999999999787
 30
0.0
 11
-206.89999999982501
 21
73.499999999999787
 31
0.0
  0
LINE
  5
108
  8
DATA
  6
CONTINUOUS
 62
     7
 10
-206.89999999982501
 20
73.499999999999787
 30
0.0
 11
-210.14999999982501
 21
73.499999999999787
 31
0.0
  0
LINE
  5
109
  8
DATA
  6
CONTINUOUS
 62
     7
 10
-200.89999999982501
 20
75.499999999999787
 30
0.0
 11
-200.89999999982501
 21
74.499999999999787
 31
0.0
  0
LINE
  5
10A
  8
DATA
  6
CONTINUOUS
 62
     7
 10
-200.89999999982501
 20
74.499999999999787
 30
0.0
 11
-199.89999999982501
 21
74.499999999999787
 31
0.0
  0
LINE
  5
10B
  8
DATA
  6
CONTINUOUS
 62
     7
 10
-199.89999999982501
 20
74.499999999999787
 30
0.0
 11
-199.89999999982501
 21
73.499999999999787
 31
0.0
  0
LINE
  5
10C
  8
DATA
  6
CONTINUOUS
 62
     7
 10
-199.89999999982501
 20
73.499999999999787
 30
0.0
 11
-196.64999999982501
 21
73.499999999999787
 31
0.0
  0
LINE
  5
10D
  8
DATA
  6
CONTINUOUS
 62
     7
 10
-195.64999999982501
 20
75.499999999999787
 30
0.0
 11
-182.14999999982501
 21
75.499999999999787
 31
0.0
  0
LINE
  5
10E
  8
DATA
  6
CONTINUOUS
 62
     7
 10
-191.39999999982501
 20
75.499999999999787
 30
0.0
 11
-191.39999999982501
 21
74.499999999999787
 31
0.0
  0
LINE
  5
10F
  8
DATA
  6
CONTINUOUS
 62
     7
 10
-191.39999999982501
 20
74.499999999999787
 30
0.0
 11
-192.39999999982501
 21
74.499999999999787
 31
0.0
  0
LINE
  5
110
  8
DATA
  6
CONTINUOUS
 62
     7
 10
-192.39999999982501
 20
74.499999999999787
 30
0.0
 11
-192.39999999982501
 21
73.499999999999787
 31
0.0
  0
LINE
  5
111
  8
DATA
  6
CONTINUOUS
 62
     7
 10
-192.39999999982501
 20
73.499999999999787
 30
0.0
 11
-195.64999999982501
 21
73.499999999999787
 31
0.0
  0
LINE
  5
112
  8
DATA
  6
CONTINUOUS
 62
     7
 10
-186.39999999982501
 20
75.499999999999787
 30
0.0
 11
-186.39999999982501
 21
74.499999999999787
 31
0.0
  0
LINE
  5
113
  8
DATA
  6
CONTINUOUS
 62
     7
 10
-186.39999999982501
 20
74.499999999999787
 30
0.0
 11
-185.39999999982501
 21
74.499999999999787
 31
0.0
  0
LINE
  5
114
  8
DATA
  6
CONTINUOUS
 62
     7
 10
-185.39999999982501
 20
74.499999999999787
 30
0.0
 11
-185.39999999982501
 21
73.499999999999787
 31
0.0
  0
LINE
  5
115
  8
DATA
  6
CONTINUOUS
 62
     7
 10
-185.39999999982501
 20
73.499999999999787
 30
0.0
 11
-182.14999999982501
 21
73.499999999999787
 31
0.0
  0
LINE
  5
116
  8
DATA
  6
CONTINUOUS
 62
     7
 10
-196.64999999982501
 20
64.499999999999773
 30
0.0
 11
-210.14999999982501
 21
64.499999999999773
 31
0.0
  0
LINE
  5
117
  8
DATA
  6
CONTINUOUS
 62
     7
 10
-216.6499999998251
 20
63.899999999999821
 30
0.0
 11
-244.44999999982511
 21
63.899999999999821
 31
0.0
  0
LINE
  5
118
  8
DATA
  6
CONTINUOUS
 62
     7
 10
-216.6499999998251
 20
76.499999999999815
 30
0.0
 11
-244.44999999982511
 21
76.499999999999815
 31
0.0
  0
POLYLINE
  5
119
  8
DATA
  6
CONTINUOUS
 62
     7
 66
     1
 10
0.0
 20
0.0
 30
0.0
 70
   129
  0
VERTEX
  5
96F
  8
DATA
  6
CONTINUOUS
 62
     7
 10
-236.63999999982519
 20
68.779999999999802
 30
0.0
 42
-0.4142135623730951
  0
VERTEX
  5
970
  8
DATA
  6
CONTINUOUS
 62
     7
 10
-236.03999999982511
 20
69.379999999999811
 30
0.0
 42
-0.4142135623730951
  0
VERTEX
  5
971
  8
DATA
  6
CONTINUOUS
 62
     7
 10
-235.4399999998252
 20
68.779999999999802
 30
0.0
 42
-0.4142135623730951
  0
VERTEX
  5
972
  8
DATA
  6
CONTINUOUS
 62
     7
 10
-236.03999999982511
 20
68.179999999999794
 30
0.0
 42
-0.4142135623731091
  0
VERTEX
  5
973
  8
DATA
  6
CONTINUOUS
 62
     7
 10
-236.63999999982519
 20
68.779999999999802
 30
0.0
  0
SEQEND
  5
974
  8
DATA
  6
CONTINUOUS
 62
     7
  0
LINE
  5
120
  8
DATA
  6
CONTINUOUS
 62
     7
 10
-224.41999999982511
 20
66.289999999999822
 30
0.0
 11
-236.6799999998251
 21
66.289999999999822
 31
0.0
  0
LINE
  5
121
  8
DATA
  6
CONTINUOUS
 62
     7
 10
-224.7048799998251
 20
74.109999999999815
 30
0.0
 11
-236.3951299998252
 21
74.109999999999815
 31
0.0
  0
POLYLINE
  5
122
  8
DATA
  6
CONTINUOUS
 62
     7
 66
     1
 10
0.0
 20
0.0
 30
0.0
 70
   129
  0
VERTEX
  5
975
  8
DATA
  6
CONTINUOUS
 62
     7
 10
-219.5549999998251
 20
70.199999999999804
 30
0.0
 42
-0.4142135623730951
  0
VERTEX
  5
976
  8
DATA
  6
CONTINUOUS
 62
     7
 10
-218.0549999998251
 20
71.699999999999804
 30
0.0
 42
-0.4142135623730951
  0
VERTEX
  5
977
  8
DATA
  6
CONTINUOUS
 62
     7
 10
-216.5549999998251
 20
70.199999999999804
 30
0.0
 42
-0.4142135623730951
  0
VERTEX
  5
978
  8
DATA
  6
CONTINUOUS
 62
     7
 10
-218.0549999998251
 20
68.699999999999818
 30
0.0
 42
-0.4142135623730951
  0
VERTEX
  5
979
  8
DATA
  6
CONTINUOUS
 62
     7
 10
-219.5549999998251
 20
70.199999999999804
 30
0.0
  0
SEQEND
  5
97A
  8
DATA
  6
CONTINUOUS
 62
     7
  0
ARC
  5
129
  8
DATA
  6
CONTINUOUS
 62
     7
 10
-216.6499999998251
 20
65.399999999999821
 30
0.0
 40
1.5
 50
270.0
 51
0.0
  0
ARC
  5
12A
  8
DATA
  6
CONTINUOUS
 62
     7
 10
-216.6499999998251
 20
74.999999999999815
 30
0.0
 40
1.5
 50
0.0
 51
90.0
  0
POLYLINE
  5
12B
  8
DATA
  6
CONTINUOUS
 62
     7
 66
     1
 10
0.0
 20
0.0
 30
0.0
 70
   129
  0
VERTEX
  5
97B
  8
DATA
  6
CONTINUOUS
 62
     7
 10
-225.65999999982509
 20
68.779999999999802
 30
0.0
 42
-0.4142135623731091
  0
VERTEX
  5
97C
  8
DATA
  6
CONTINUOUS
 62
     7
 10
-225.0599999998251
 20
69.379999999999811
 30
0.0
 42
-0.4142135623730951
  0
VERTEX
  5
97D
  8
DATA
  6
CONTINUOUS
 62
     7
 10
-224.4599999998251
 20
68.779999999999802
 30
0.0
 42
-0.4142135623730813
  0
VERTEX
  5
97E
  8
DATA
  6
CONTINUOUS
 62
     7
 10
-225.0599999998251
 20
68.179999999999794
 30
0.0
 42
-0.4142135623730951
  0
VERTEX
  5
97F
  8
DATA
  6
CONTINUOUS
 62
     7
 10
-225.65999999982509
 20
68.779999999999802
 30
0.0
  0
SEQEND
  5
980
  8
DATA
  6
CONTINUOUS
 62
     7
  0
POLYLINE
  5
132
  8
DATA
  6
CONTINUOUS
 62
     7
 66
     1
 10
0.0
 20
0.0
 30
0.0
 70
   129
  0
VERTEX
  5
981
  8
DATA
  6
CONTINUOUS
 62
     7
 10
-228.40999999982509
 20
68.779999999999802
 30
0.0
 42
-0.4142135623730951
  0
VERTEX
  5
982
  8
DATA
  6
CONTINUOUS
 62
     7
 10
-227.8099999998251
 20
69.379999999999811
 30
0.0
 42
-0.4142135623730951
  0
VERTEX
  5
983
  8
DATA
  6
CONTINUOUS
 62
     7
 10
-227.2099999998251
 20
68.779999999999802
 30
0.0
 42
-0.4142135623730813
  0
VERTEX
  5
984
  8
DATA
  6
CONTINUOUS
 62
     7
 10
-227.8099999998251
 20
68.179999999999794
 30
0.0
 42
-0.4142135623730951
  0
VERTEX
  5
985
  8
DATA
  6
CONTINUOUS
 62
     7
 10
-228.40999999982509
 20
68.779999999999802
 30
0.0
  0
SEQEND
  5
986
  8
DATA
  6
CONTINUOUS
 62
     7
  0
POLYLINE
  5
139
  8
DATA
  6
CONTINUOUS
 62
     7
 66
     1
 10
0.0
 20
0.0
 30
0.0
 70
   129
  0
VERTEX
  5
987
  8
DATA
  6
CONTINUOUS
 62
     7
 10
-231.1499999998251
 20
68.779999999999802
 30
0.0
 42
-0.4142135623730951
  0
VERTEX
  5
988
  8
DATA
  6
CONTINUOUS
 62
     7
 10
-230.5499999998251
 20
69.379999999999811
 30
0.0
 42
-0.4142135623730813
  0
VERTEX
  5
989
  8
DATA
  6
CONTINUOUS
 62
     7
 10
-229.94999999982511
 20
68.779999999999802
 30
0.0
 42
-0.4142135623730951
  0
VERTEX
  5
98A
  8
DATA
  6
CONTINUOUS
 62
     7
 10
-230.5499999998251
 20
68.179999999999794
 30
0.0
 42
-0.4142135623730951
  0
VERTEX
  5
98B
  8
DATA
  6
CONTINUOUS
 62
     7
 10
-231.1499999998251
 20
68.779999999999802
 30
0.0
  0
SEQEND
  5
98C
  8
DATA
  6
CONTINUOUS
 62
     7
  0
POLYLINE
  5
140
  8
DATA
  6
CONTINUOUS
 62
     7
 66
     1
 10
0.0
 20
0.0
 30
0.0
 70
   129
  0
VERTEX
  5
98D
  8
DATA
  6
CONTINUOUS
 62
     7
 10
-233.88999999982519
 20
68.779999999999802
 30
0.0
 42
-0.4142135623730951
  0
VERTEX
  5
98E
  8
DATA
  6
CONTINUOUS
 62
     7
 10
-233.2899999998252
 20
69.379999999999811
 30
0.0
 42
-0.4142135623731091
  0
VERTEX
  5
98F
  8
DATA
  6
CONTINUOUS
 62
     7
 10
-232.68999999982509
 20
68.779999999999802
 30
0.0
 42
-0.4142135623730951
  0
VERTEX
  5
990
  8
DATA
  6
CONTINUOUS
 62
     7
 10
-233.2899999998252
 20
68.179999999999794
 30
0.0
 42
-0.4142135623731229
  0
VERTEX
  5
991
  8
DATA
  6
CONTINUOUS
 62
     7
 10
-233.88999999982519
 20
68.779999999999802
 30
0.0
  0
SEQEND
  5
992
  8
DATA
  6
CONTINUOUS
 62
     7
  0
POLYLINE
  5
147
  8
DATA
  6
CONTINUOUS
 62
     7
 66
     1
 10
0.0
 20
0.0
 30
0.0
 70
   129
  0
VERTEX
  5
993
  8
DATA
  6
CONTINUOUS
 62
     7
 10
-227.03999999982511
 20
71.619999999999834
 30
0.0
 42
-0.4142135623730951
  0
VERTEX
  5
994
  8
DATA
  6
CONTINUOUS
 62
     7
 10
-226.43999999982509
 20
72.219999999999843
 30
0.0
 42
-0.4142135623731091
  0
VERTEX
  5
995
  8
DATA
  6
CONTINUOUS
 62
     7
 10
-225.8399999998251
 20
71.619999999999834
 30
0.0
 42
-0.4142135623730951
  0
VERTEX
  5
996
  8
DATA
  6
CONTINUOUS
 62
     7
 10
-226.43999999982509
 20
71.019999999999825
 30
0.0
 42
-0.4142135623730951
  0
VERTEX
  5
997
  8
DATA
  6
CONTINUOUS
 62
     7
 10
-227.03999999982511
 20
71.619999999999834
 30
0.0
  0
SEQEND
  5
998
  8
DATA
  6
CONTINUOUS
 62
     7
  0
POLYLINE
  5
14E
  8
DATA
  6
CONTINUOUS
 62
     7
 66
     1
 10
0.0
 20
0.0
 30
0.0
 70
   129
  0
VERTEX
  5
999
  8
DATA
  6
CONTINUOUS
 62
     7
 10
-229.77999999982509
 20
71.619999999999834
 30
0.0
 42
-0.4142135623730951
  0
VERTEX
  5
99A
  8
DATA
  6
CONTINUOUS
 62
     7
 10
-229.1799999998251
 20
72.219999999999843
 30
0.0
 42
-0.4142135623730951
  0
VERTEX
  5
99B
  8
DATA
  6
CONTINUOUS
 62
     7
 10
-228.57999999982511
 20
71.619999999999834
 30
0.0
 42
-0.4142135623730951
  0
VERTEX
  5
99C
  8
DATA
  6
CONTINUOUS
 62
     7
 10
-229.1799999998251
 20
71.019999999999825
 30
0.0
 42
-0.4142135623730951
  0
VERTEX
  5
99D
  8
DATA
  6
CONTINUOUS
 62
     7
 10
-229.77999999982509
 20
71.619999999999834
 30
0.0
  0
SEQEND
  5
99E
  8
DATA
  6
CONTINUOUS
 62
     7
  0
POLYLINE
  5
155
  8
DATA
  6
CONTINUOUS
 62
     7
 66
     1
 10
0.0
 20
0.0
 30
0.0
 70
   129
  0
VERTEX
  5
99F
  8
DATA
  6
CONTINUOUS
 62
     7
 10
-232.5199999998251
 20
71.619999999999834
 30
0.0
 42
-0.4142135623730951
  0
VERTEX
  5
9A0
  8
DATA
  6
CONTINUOUS
 62
     7
 10
-231.91999999982511
 20
72.219999999999843
 30
0.0
 42
-0.4142135623730951
  0
VERTEX
  5
9A1
  8
DATA
  6
CONTINUOUS
 62
     7
 10
-231.31999999982509
 20
71.619999999999834
 30
0.0
 42
-0.4142135623731091
  0
VERTEX
  5
9A2
  8
DATA
  6
CONTINUOUS
 62
     7
 10
-231.91999999982511
 20
71.019999999999825
 30
0.0
 42
-0.4142135623731091
  0
VERTEX
  5
9A3
  8
DATA
  6
CONTINUOUS
 62
     7
 10
-232.5199999998251
 20
71.619999999999834
 30
0.0
  0
SEQEND
  5
9A4
  8
DATA
  6
CONTINUOUS
 62
     7
  0
POLYLINE
  5
15C
  8
DATA
  6
CONTINUOUS
 62
     7
 66
     1
 10
0.0
 20
0.0
 30
0.0
 70
   129
  0
VERTEX
  5
9A5
  8
DATA
  6
CONTINUOUS
 62
     7
 10
-235.2599999998252
 20
71.619999999999834
 30
0.0
 42
-0.4142135623730673
  0
VERTEX
  5
9A6
  8
DATA
  6
CONTINUOUS
 62
     7
 10
-234.6599999998252
 20
72.219999999999843
 30
0.0
 42
-0.4142135623730951
  0
VERTEX
  5
9A7
  8
DATA
  6
CONTINUOUS
 62
     7
 10
-234.0599999998251
 20
71.619999999999834
 30
0.0
 42
-0.4142135623730951
  0
VERTEX
  5
9A8
  8
DATA
  6
CONTINUOUS
 62
     7
 10
-234.6599999998252
 20
71.019999999999825
 30
0.0
 42
-0.4142135623730951
  0
VERTEX
  5
9A9
  8
DATA
  6
CONTINUOUS
 62
     7
 10
-235.2599999998252
 20
71.619999999999834
 30
0.0
  0
SEQEND
  5
9AA
  8
DATA
  6
CONTINUOUS
 62
     7
  0
LINE
  5
163
  8
DATA
  6
CONTINUOUS
 62
     7
 10
-215.1499999998251
 20
74.999999999999815
 30
0.0
 11
-215.1499999998251
 21
65.399999999999821
 31
0.0
  0
ARC
  5
164
  8
DATA
  6
CONTINUOUS
 62
     7
 10
-224.41999999982511
 20
68.289999999999822
 30
0.0
 40
2.0
 50
270.0
 51
0.0
  0
LINE
  5
165
  8
DATA
  6
CONTINUOUS
 62
     7
 10
-222.41999999982511
 20
68.289999999999822
 30
0.0
 11
-223.22765999982511
 21
72.870469999999813
 31
0.0
  0
ARC
  5
166
  8
DATA
  6
CONTINUOUS
 62
     7
 10
-224.7048799998251
 20
72.609999999999815
 30
0.0
 40
1.49999800166532
 50
9.9999255496015902
 51
90.000000000000028
  0
POLYLINE
  5
167
  8
DATA
  6
CONTINUOUS
 62
     7
 66
     1
 10
0.0
 20
0.0
 30
0.0
 70
   129
  0
VERTEX
  5
9AB
  8
DATA
  6
CONTINUOUS
 62
     7
 10
-244.54499999982511
 20
70.199999999999804
 30
0.0
 42
-0.4142135623730951
  0
VERTEX
  5
9AC
  8
DATA
  6
CONTINUOUS
 62
     7
 10
-243.04499999982519
 20
71.699999999999804
 30
0.0
 42
-0.4142135623730951
  0
VERTEX
  5
9AD
  8
DATA
  6
CONTINUOUS
 62
     7
 10
-241.54499999982511
 20
70.199999999999804
 30
0.0
 42
-0.4142135623730951
  0
VERTEX
  5
9AE
  8
DATA
  6
CONTINUOUS
 62
     7
 10
-243.04499999982519
 20
68.699999999999818
 30
0.0
 42
-0.4142135623730951
  0
VERTEX
  5
9AF
  8
DATA
  6
CONTINUOUS
 62
     7
 10
-244.54499999982511
 20
70.199999999999804
 30
0.0
  0
SEQEND
  5
9B0
  8
DATA
  6
CONTINUOUS
 62
     7
  0
ARC
  5
16E
  8
DATA
  6
CONTINUOUS
 62
     7
 10
-244.44999999982511
 20
74.999999999999815
 30
0.0
 40
1.5
 50
90.0
 51
180.0
  0
LINE
  5
16F
  8
DATA
  6
CONTINUOUS
 62
     7
 10
-245.94999999982511
 20
74.999999999999815
 30
0.0
 11
-245.94999999982511
 21
65.399999999999821
 31
0.0
  0
ARC
  5
170
  8
DATA
  6
CONTINUOUS
 62
     7
 10
-244.44999999982511
 20
65.399999999999821
 30
0.0
 40
1.5
 50
180.0
 51
270.0
  0
ARC
  5
171
  8
DATA
  6
CONTINUOUS
 62
     7
 10
-236.6799999998251
 20
68.289999999999822
 30
0.0
 40
2.0
 50
180.0
 51
270.0
  0
LINE
  5
172
  8
DATA
  6
CONTINUOUS
 62
     7
 10
-238.6799999998251
 20
68.289999999999822
 30
0.0
 11
-237.8723399998251
 21
72.870469999999813
 31
0.0
  0
ARC
  5
173
  8
DATA
  6
CONTINUOUS
 62
     7
 10
-236.3951299998252
 20
72.609999999999815
 30
0.0
 40
1.5
 50
90.0
 51
170.0000744503979
  0
LINE
  5
174
  8
DATA
  6
CONTINUOUS
 62
     7
 10
83.499999999999986
 20
46.0
 30
0.0
 11
83.499999999999986
 21
43.0
 31
0.0
  0
LINE
  5
175
  8
DATA
  6
CONTINUOUS
 62
     7
 10
-246.9499999998252
 20
76.499999999999787
 30
0.0
 11
-246.9499999998252
 21
52.909999999999862
 31
0.0
  0
LINE
  5
176
  8
DATA
  6
CONTINUOUS
 62
     7
 10
-255.94999999982511
 20
76.499999999999787
 30
0.0
 11
-246.9499999998252
 21
76.499999999999787
 31
0.0
  0
LINE
  5
177
  8
DATA
  6
CONTINUOUS
 62
     7
 10
-255.94999999982511
 20
52.909999999999862
 30
0.0
 11
-255.94999999982511
 21
76.499999999999787
 31
0.0
  0
LINE
  5
178
  8
DATA
  6
CONTINUOUS
 62
     7
 10
-246.9499999998252
 20
52.909999999999862
 30
0.0
 11
-255.94999999982511
 21
52.909999999999862
 31
0.0
  0
LINE
  5
179
  8
DATA
  6
CONTINUOUS
 62
     7
 10
-254.9499999998252
 20
71.099999999999682
 30
0.0
 11
-254.24999999982541
 21
72.599999999999682
 31
0.0
  0
LINE
  5
17A
  8
DATA
  6
CONTINUOUS
 62
     7
 10
-252.6999999998252
 20
72.599999999999682
 30
0.0
 11
-251.9499999998252
 21
71.099999999999682
 31
0.0
  0
LINE
  5
17B
  8
DATA
  6
CONTINUOUS
 62
     7
 10
-252.6999999998252
 20
72.599999999999682
 30
0.0
 11
-251.9499999998252
 21
72.599999999999682
 31
0.0
  0
LINE
  5
17C
  8
DATA
  6
CONTINUOUS
 62
     7
 10
-254.24999999982541
 20
72.599999999999682
 30
0.0
 11
-254.9499999998252
 21
72.599999999999682
 31
0.0
  0
LINE
  5
17D
  8
DATA
  6
CONTINUOUS
 62
     7
 10
-254.9499999998252
 20
71.099999999999682
 30
0.0
 11
-251.9499999998252
 21
71.099999999999682
 31
0.0
  0
LINE
  5
17E
  8
DATA
  6
CONTINUOUS
 62
     7
 10
-254.9499999998252
 20
75.999999999999787
 30
0.0
 11
-251.9499999998252
 21
75.999999999999787
 31
0.0
  0
LINE
  5
17F
  8
DATA
  6
CONTINUOUS
 62
     7
 10
-251.9499999998252
 20
72.599999999999682
 30
0.0
 11
-251.9499999998252
 21
75.999999999999787
 31
0.0
  0
LINE
  5
180
  8
DATA
  6
CONTINUOUS
 62
     7
 10
-254.9499999998252
 20
72.599999999999682
 30
0.0
 11
-254.9499999998252
 21
75.999999999999787
 31
0.0
  0
CIRCLE
  5
181
  8
DATA
  6
CONTINUOUS
 62
     7
 10
-253.4499999998252
 20
74.299999999999699
 30
0.0
 40
0.5
  0
LINE
  5
182
  8
DATA
  6
CONTINUOUS
 62
     7
 10
-250.9499999998252
 20
71.099999999999682
 30
0.0
 11
-250.24999999982541
 21
72.599999999999682
 31
0.0
  0
LINE
  5
183
  8
DATA
  6
CONTINUOUS
 62
     7
 10
-248.6999999998252
 20
72.599999999999682
 30
0.0
 11
-247.9499999998252
 21
71.099999999999682
 31
0.0
  0
LINE
  5
184
  8
DATA
  6
CONTINUOUS
 62
     7
 10
-248.6999999998252
 20
72.599999999999682
 30
0.0
 11
-247.9499999998252
 21
72.599999999999682
 31
0.0
  0
LINE
  5
185
  8
DATA
  6
CONTINUOUS
 62
     7
 10
-250.24999999982541
 20
72.599999999999682
 30
0.0
 11
-250.9499999998252
 21
72.599999999999682
 31
0.0
  0
LINE
  5
186
  8
DATA
  6
CONTINUOUS
 62
     7
 10
-250.9499999998252
 20
71.099999999999682
 30
0.0
 11
-247.9499999998252
 21
71.099999999999682
 31
0.0
  0
LINE
  5
187
  8
DATA
  6
CONTINUOUS
 62
     7
 10
-250.9499999998252
 20
75.999999999999787
 30
0.0
 11
-247.9499999998252
 21
75.999999999999787
 31
0.0
  0
LINE
  5
188
  8
DATA
  6
CONTINUOUS
 62
     7
 10
-247.9499999998252
 20
72.599999999999682
 30
0.0
 11
-247.9499999998252
 21
75.999999999999787
 31
0.0
  0
LINE
  5
189
  8
DATA
  6
CONTINUOUS
 62
     7
 10
-250.9499999998252
 20
72.599999999999682
 30
0.0
 11
-250.9499999998252
 21
75.999999999999787
 31
0.0
  0
CIRCLE
  5
18A
  8
DATA
  6
CONTINUOUS
 62
     7
 10
-249.4499999998252
 20
74.299999999999699
 30
0.0
 40
0.5
  0
LINE
  5
18B
  8
DATA
  6
CONTINUOUS
 62
     7
 10
-254.9499999998252
 20
53.909999999999847
 30
0.0
 11
-254.24999999982541
 21
55.409999999999862
 31
0.0
  0
LINE
  5
18C
  8
DATA
  6
CONTINUOUS
 62
     7
 10
-252.6999999998252
 20
55.409999999999862
 30
0.0
 11
-251.9499999998252
 21
53.909999999999847
 31
0.0
  0
LINE
  5
18D
  8
DATA
  6
CONTINUOUS
 62
     7
 10
-252.6999999998252
 20
55.409999999999862
 30
0.0
 11
-251.9499999998252
 21
55.409999999999862
 31
0.0
  0
LINE
  5
18E
  8
DATA
  6
CONTINUOUS
 62
     7
 10
-254.24999999982541
 20
55.409999999999862
 30
0.0
 11
-254.9499999998252
 21
55.409999999999862
 31
0.0
  0
LINE
  5
18F
  8
DATA
  6
CONTINUOUS
 62
     7
 10
-254.9499999998252
 20
53.909999999999847
 30
0.0
 11
-251.9499999998252
 21
53.909999999999847
 31
0.0
  0
LINE
  5
190
  8
DATA
  6
CONTINUOUS
 62
     7
 10
-254.9499999998252
 20
58.809999999999931
 30
0.0
 11
-251.9499999998252
 21
58.809999999999931
 31
0.0
  0
LINE
  5
191
  8
DATA
  6
CONTINUOUS
 62
     7
 10
-251.9499999998252
 20
55.409999999999862
 30
0.0
 11
-251.9499999998252
 21
58.809999999999931
 31
0.0
  0
LINE
  5
192
  8
DATA
  6
CONTINUOUS
 62
     7
 10
-254.9499999998252
 20
55.409999999999862
 30
0.0
 11
-254.9499999998252
 21
58.809999999999931
 31
0.0
  0
CIRCLE
  5
193
  8
DATA
  6
CONTINUOUS
 62
     7
 10
-253.4499999998252
 20
57.109999999999893
 30
0.0
 40
0.5
  0
LINE
  5
194
  8
DATA
  6
CONTINUOUS
 62
     7
 10
-250.9499999998252
 20
53.909999999999847
 30
0.0
 11
-250.24999999982541
 21
55.409999999999862
 31
0.0
  0
LINE
  5
195
  8
DATA
  6
CONTINUOUS
 62
     7
 10
-248.6999999998252
 20
55.409999999999862
 30
0.0
 11
-247.9499999998252
 21
53.909999999999847
 31
0.0
  0
LINE
  5
196
  8
DATA
  6
CONTINUOUS
 62
     7
 10
-248.6999999998252
 20
55.409999999999862
 30
0.0
 11
-247.9499999998252
 21
55.409999999999862
 31
0.0
  0
LINE
  5
197
  8
DATA
  6
CONTINUOUS
 62
     7
 10
-250.24999999982541
 20
55.409999999999862
 30
0.0
 11
-250.9499999998252
 21
55.409999999999862
 31
0.0
  0
LINE
  5
198
  8
DATA
  6
CONTINUOUS
 62
     7
 10
-250.9499999998252
 20
53.909999999999847
 30
0.0
 11
-247.9499999998252
 21
53.909999999999847
 31
0.0
  0
LINE
  5
199
  8
DATA
  6
CONTINUOUS
 62
     7
 10
-250.9499999998252
 20
58.809999999999931
 30
0.0
 11
-247.9499999998252
 21
58.809999999999931
 31
0.0
  0
LINE
  5
19A
  8
DATA
  6
CONTINUOUS
 62
     7
 10
-247.9499999998252
 20
55.409999999999862
 30
0.0
 11
-247.9499999998252
 21
58.809999999999931
 31
0.0
  0
LINE
  5
19B
  8
DATA
  6
CONTINUOUS
 62
     7
 10
-250.9499999998252
 20
55.409999999999862
 30
0.0
 11
-250.9499999998252
 21
58.809999999999931
 31
0.0
  0
CIRCLE
  5
19C
  8
DATA
  6
CONTINUOUS
 62
     7
 10
-249.4499999998252
 20
57.109999999999893
 30
0.0
 40
0.5
  0
LINE
  5
19D
  8
DATA
  6
CONTINUOUS
 62
     7
 10
-250.1999999998252
 20
69.599999999999682
 30
0.0
 11
-250.1999999998252
 21
66.849999999999682
 31
0.0
  0
LINE
  5
19E
  8
DATA
  6
CONTINUOUS
 62
     7
 10
-252.6999999998252
 20
69.599999999999682
 30
0.0
 11
-250.1999999998252
 21
69.599999999999682
 31
0.0
  0
LINE
  5
19F
  8
DATA
  6
CONTINUOUS
 62
     7
 10
-252.6999999998252
 20
66.849999999999682
 30
0.0
 11
-252.6999999998252
 21
69.599999999999682
 31
0.0
  0
LINE
  5
1A0
  8
DATA
  6
CONTINUOUS
 62
     7
 10
-250.1999999998252
 20
66.849999999999682
 30
0.0
 11
-252.6999999998252
 21
66.849999999999682
 31
0.0
  0
LINE
  5
1A1
  8
DATA
  6
CONTINUOUS
 62
     7
 10
-250.1999999998252
 20
59.809999999999732
 30
0.0
 11
-250.1999999998252
 21
62.559999999999718
 31
0.0
  0
LINE
  5
1A2
  8
DATA
  6
CONTINUOUS
 62
     7
 10
-252.6999999998252
 20
59.809999999999732
 30
0.0
 11
-250.1999999998252
 21
59.809999999999732
 31
0.0
  0
LINE
  5
1A3
  8
DATA
  6
CONTINUOUS
 62
     7
 10
-252.6999999998252
 20
62.559999999999718
 30
0.0
 11
-252.6999999998252
 21
59.809999999999732
 31
0.0
  0
LINE
  5
1A4
  8
DATA
  6
CONTINUOUS
 62
     7
 10
-250.1999999998252
 20
62.559999999999718
 30
0.0
 11
-252.6999999998252
 21
62.559999999999718
 31
0.0
  0
LINE
  5
1A5
  8
DATA
  6
CONTINUOUS
 62
     7
 10
-281.0
 20
78.5
 30
0.0
 11
-281.0
 21
54.5
 31
0.0
  0
LINE
  5
1A6
  8
DATA
  6
CONTINUOUS
 62
     7
 10
-282.0
 20
79.5
 30
0.0
 11
-282.0
 21
53.5
 31
0.0
  0
LINE
  5
1A7
  8
DATA
  6
CONTINUOUS
 62
     7
 10
-310.5
 20
82.5
 30
0.0
 11
-285.0
 21
82.5
 31
0.0
  0
LINE
  5
1A8
  8
DATA
  6
CONTINUOUS
 62
     7
 10
-311.5
 20
81.5
 30
0.0
 11
-284.0
 21
81.5
 31
0.0
  0
LINE
  5
1A9
  8
DATA
  6
CONTINUOUS
 62
     7
 10
-314.5
 20
54.5
 30
0.0
 11
-314.5
 21
78.5
 31
0.0
  0
LINE
  5
1AA
  8
DATA
  6
CONTINUOUS
 62
     7
 10
-313.5
 20
53.5
 30
0.0
 11
-313.5
 21
79.5
 31
0.0
  0
LINE
  5
1AB
  8
DATA
  6
CONTINUOUS
 62
     7
 10
-285.0
 20
50.5
 30
0.0
 11
-310.5
 21
50.5
 31
0.0
  0
LINE
  5
1AC
  8
DATA
  6
CONTINUOUS
 62
     7
 10
-284.0
 20
51.5
 30
0.0
 11
-311.5
 21
51.5
 31
0.0
  0
ARC
  5
1AD
  8
DATA
  6
CONTINUOUS
 62
     7
 10
-285.0
 20
54.5
 30
0.0
 40
4.0
 50
270.0
 51
0.0
  0
ARC
  5
1AE
  8
DATA
  6
CONTINUOUS
 62
     7
 10
-310.5
 20
54.5
 30
0.0
 40
4.0
 50
180.0
 51
270.0
  0
ARC
  5
1AF
  8
DATA
  6
CONTINUOUS
 62
     7
 10
-285.0
 20
78.5
 30
0.0
 40
4.0
 50
0.0
 51
90.0
  0
ARC
  5
1B0
  8
DATA
  6
CONTINUOUS
 62
     7
 10
-310.5
 20
78.5
 30
0.0
 40
4.0
 50
90.0
 51
180.0
  0
ARC
  5
1B1
  8
DATA
  6
CONTINUOUS
 62
     7
 10
-284.0
 20
53.5
 30
0.0
 40
2.0
 50
270.0
 51
0.0
  0
ARC
  5
1B2
  8
DATA
  6
CONTINUOUS
 62
     7
 10
-311.5
 20
53.5
 30
0.0
 40
2.0
 50
180.0
 51
270.0
  0
ARC
  5
1B3
  8
DATA
  6
CONTINUOUS
 62
     7
 10
-311.5
 20
79.5
 30
0.0
 40
2.0
 50
90.0
 51
180.0
  0
ARC
  5
1B4
  8
DATA
  6
CONTINUOUS
 62
     7
 10
-284.0
 20
79.5
 30
0.0
 40
2.0
 50
0.0
 51
90.0
  0
LINE
  5
1B5
  8
DATA
  6
CONTINUOUS
 62
     7
 10
-283.75301031252911
 20
58.148770951054303
 30
0.0
 11
-287.70891859334
 21
53.544863217083041
 31
0.0
  0
LINE
  5
1B6
  8
DATA
  6
CONTINUOUS
 62
     7
 10
-299.0
 20
55.5
 30
0.0
 11
-299.0
 21
77.5
 31
0.0
  0
LINE
  5
1B7
  8
DATA
  6
CONTINUOUS
 62
     7
 10
-289.9843174946509
 20
52.5
 30
0.0
 11
-296.0
 21
52.5
 31
0.0
  0
LINE
  5
1B8
  8
DATA
  6
CONTINUOUS
 62
     7
 10
-283.0
 20
72.884902032555843
 30
0.0
 11
-283.0
 21
60.136492597663391
 31
0.0
  0
ARC
  5
1B9
  8
DATA
  6
CONTINUOUS
 62
     7
 10
-296.0
 20
55.5
 30
0.0
 40
3.0
 50
180.0
 51
270.0
  0
LINE
  5
1BA
  8
DATA
  6
CONTINUOUS
 62
     7
 10
-283.7283352398772
 20
74.844376252242455
 30
0.0
 11
-287.70918912610159
 21
79.459474219686626
 31
0.0
  0
LINE
  5
1BB
  8
DATA
  6
CONTINUOUS
 62
     7
 10
-289.98085388622428
 20
80.5
 30
0.0
 11
-296.0
 21
80.5
 31
0.0
  0
ARC
  5
1BC
  8
DATA
  6
CONTINUOUS
 62
     7
 10
-296.0
 20
77.5
 30
0.0
 40
3.0
 50
90.0
 51
180.0
  0
ARC
  5
1BD
  8
DATA
  6
CONTINUOUS
 62
     7
 10
-286.0
 20
72.884902032555843
 30
0.0
 40
3.0
 50
0.0
 51
40.78013242750086
  0
ARC
  5
1BE
  8
DATA
  6
CONTINUOUS
 62
     7
 10
-289.98085388622428
 20
77.5
 30
0.0
 40
3.0000000000000511
 50
40.780132427500853
 51
90.0
  0
ARC
  5
1BF
  8
DATA
  6
CONTINUOUS
 62
     7
 10
-286.0
 20
60.136492597663853
 30
0.0
 40
3.000000000000111
 50
318.50353164477468
 51
359.9999999999913
  0
ARC
  5
1C0
  8
DATA
  6
CONTINUOUS
 62
     7
 10
-289.9843174946509
 20
55.499999999999773
 30
0.0
 40
2.9999999999997722
 50
270.0
 51
319.32917624462209
  0
POLYLINE
  5
1C1
  8
DATA
  6
CONTINUOUS
 62
     7
 66
     1
 10
0.0
 20
0.0
 30
0.0
 70
     1
  0
VERTEX
  5
9B1
  8
DATA
  6
CONTINUOUS
 62
     7
 10
-310.75
 20
79.0
 30
0.0
  0
VERTEX
  5
9B2
  8
DATA
  6
CONTINUOUS
 62
     7
 10
-301.75
 20
79.0
 30
0.0
  0
VERTEX
  5
9B3
  8
DATA
  6
CONTINUOUS
 62
     7
 10
-301.75
 20
54.0
 30
0.0
  0
VERTEX
  5
9B4
  8
DATA
  6
CONTINUOUS
 62
     7
 10
-310.75
 20
54.0
 30
0.0
  0
SEQEND
  5
9B5
  8
DATA
  6
CONTINUOUS
 62
     7
  0
ARC
  5
1C8
  8
DATA
  6
CONTINUOUS
 62
     7
 10
-306.28227205998519
 20
60.00000000000454
 30
0.0
 40
2.5
 50
180.0
 51
0.0
  0
ARC
  5
1C9
  8
DATA
  6
CONTINUOUS
 62
     7
 10
-306.28227205998519
 20
73.000000000004547
 30
0.0
 40
2.5
 50
0.0
 51
180.0
  0
LINE
  5
1CA
  8
DATA
  6
CONTINUOUS
 62
     7
 10
-303.78227205998519
 20
60.00000000000454
 30
0.0
 11
-303.78227205998519
 21
73.000000000004547
 31
0.0
  0
LINE
  5
1CB
  8
DATA
  6
CONTINUOUS
 62
     7
 10
-308.78227205998519
 20
60.00000000000454
 30
0.0
 11
-308.78227205998519
 21
73.000000000004547
 31
0.0
  0
ARC
  5
1CC
  8
DATA
  6
CONTINUOUS
 62
     7
 10
-306.28227205998519
 20
70.000000000004533
 30
0.0
 40
2.5
 50
0.0
 51
180.0
  0
CIRCLE
  5
1CD
  8
DATA
  6
CONTINUOUS
 62
     7
 10
-306.28227205998519
 20
60.00000000000454
 30
0.0
 40
1.5
  0
LINE
  5
1CE
  8
DATA
  6
CONTINUOUS
 62
     7
 10
-304.78227205998519
 20
70.000000000004533
 30
0.0
 11
-307.78227205998519
 21
70.000000000004533
 31
0.0
  0
LINE
  5
1CF
  8
DATA
  6
CONTINUOUS
 62
     7
 10
61.280434153989518
 20
47.259999999999991
 30
0.0
 11
57.280434153989532
 21
47.259999999999991
 31
0.0
  0
LINE
  5
1D0
  8
DATA
  6
CONTINUOUS
 62
     7
 10
57.280434153989532
 20
47.259999999999991
 30
0.0
 11
57.280434153989532
 21
45.759999999999991
 31
0.0
  0
LINE
  5
1D1
  8
DATA
  6
CONTINUOUS
 62
     7
 10
57.280434153989532
 20
45.759999999999991
 30
0.0
 11
61.280434153989518
 21
47.259999999999991
 31
0.0
  0
CIRCLE
  5
1D2
  8
DATA
  6
CONTINUOUS
 62
     7
 10
-179.64999999982501
 20
80.519999999999968
 30
0.0
 40
0.7499999999999633
  0
LINE
  5
1D3
  8
DATA
  6
CONTINUOUS
 62
     7
 10
-178.89999999982501
 20
80.519999999999968
 30
0.0
 11
-176.89999999982501
 21
80.519999999999968
 31
0.0
  0
LINE
  5
1D4
  8
DATA
  6
CONTINUOUS
 62
     7
 10
-178.89999999982501
 20
80.519999999999968
 30
0.0
 11
-178.40499999982509
 21
81.014999999999873
 31
0.0
  0
LINE
  5
1D5
  8
DATA
  6
CONTINUOUS
 62
     7
 10
-178.89999999982501
 20
80.519999999999968
 30
0.0
 11
-178.40499999982509
 21
80.025000000000105
 31
0.0
  0
CIRCLE
  5
1D6
  8
DATA
  6
CONTINUOUS
 62
     7
 10
-214.79544371746371
 20
80.652083333333394
 30
0.0
 40
0.7499999999999633
  0
LINE
  5
1D7
  8
DATA
  6
CONTINUOUS
 62
     7
 10
-214.04544371746371
 20
80.652083333333394
 30
0.0
 11
-212.04544371746371
 21
80.652083333333394
 31
0.0
  0
LINE
  5
1D8
  8
DATA
  6
CONTINUOUS
 62
     7
 10
-214.04544371746371
 20
80.652083333333394
 30
0.0
 11
-213.55044371746379
 21
81.147083333333285
 31
0.0
  0
LINE
  5
1D9
  8
DATA
  6
CONTINUOUS
 62
     7
 10
-214.04544371746371
 20
80.652083333333394
 30
0.0
 11
-213.55044371746379
 21
80.157083333333503
 31
0.0
  0
LINE
  5
1DA
  8
DATA
  6
STYLE_01
 62
     7
 10
-184.64999999982501
 20
56.0
 30
0.0
 11
-184.64999999982501
 21
43.0
 31
0.0
  0
LINE
  5
1DB
  8
DATA
  6
STYLE_01
 62
     7
 10
-242.64999999982501
 20
56.0
 30
0.0
 11
-184.64999999982501
 21
56.0
 31
0.0
  0
LINE
  5
1DC
  8
DATA
  6
STYLE_01
 62
     7
 10
-242.64999999982501
 20
43.0
 30
0.0
 11
-242.64999999982501
 21
56.0
 31
0.0
  0
LINE
  5
1DD
  8
DATA
  6
CONTINUOUS
 62
     7
 10
-184.64999999982501
 20
43.0
 30
0.0
 11
-242.64999999982501
 21
43.0
 31
0.0
  0
LINE
  5
1DE
  8
DATA
  6
CONTINUOUS
 62
     7
 10
-253.49282032302739
 20
78.799999999999955
 30
0.0
 11
-253.49282032302739
 21
80.992820323027644
 31
0.0
  0
LINE
  5
1DF
  8
DATA
  6
CONTINUOUS
 62
     7
 10
-254.99282032302739
 20
80.992820323027644
 30
0.0
 11
-254.59282032302781
 21
81.685640646055376
 31
0.0
  0
LINE
  5
1E0
  8
DATA
  6
CONTINUOUS
 62
     7
 10
-253.0528203230279
 20
80.992820323027644
 30
0.0
 11
-252.6528203230273
 21
81.685640646055177
 31
0.0
  0
LINE
  5
1E1
  8
DATA
  6
CONTINUOUS
 62
     7
 10
-251.99282032302739
 20
80.992820323027644
 30
0.0
 11
-251.59282032302781
 21
81.685640646055376
 31
0.0
  0
LINE
  5
1E2
  8
DATA
  6
CONTINUOUS
 62
     7
 10
-251.99282032302739
 20
80.992820323027644
 30
0.0
 11
-254.99282032302739
 21
80.992820323027644
 31
0.0
  0
LINE
  5
1E3
  8
DATA
  6
CONTINUOUS
 62
     7
 10
-254.05282032302779
 20
80.992820323027644
 30
0.0
 11
-253.6528203230273
 21
81.685640646055177
 31
0.0
  0
LINE
  5
1E4
  8
DATA
  6
CONTINUOUS
 62
     7
 10
-249.4499999998252
 20
78.799999999999955
 30
0.0
 11
-249.4499999998252
 21
81.685640646055177
 31
0.0
  0
LINE
  5
1E5
  8
DATA
  6
CONTINUOUS
 62
     7
 10
-247.9499999998252
 20
81.685640646055177
 30
0.0
 11
-250.9499999998252
 21
81.685640646055177
 31
0.0
  0
LINE
  5
1E6
  8
DATA
  6
CONTINUOUS
 62
     7
 10
-249.4499999998252
 20
49.024359353944639
 30
0.0
 11
-249.4499999998252
 21
51.909999999999847
 31
0.0
  0
LINE
  5
1E7
  8
DATA
  6
CONTINUOUS
 62
     7
 10
-247.9499999998252
 20
51.909999999999847
 30
0.0
 11
-250.9499999998252
 21
51.909999999999847
 31
0.0
  0
POLYLINE
  5
1E8
  8
DATA
  6
CONTINUOUS
 62
     7
 66
     1
 10
0.0
 20
0.0
 30
0.0
 70
     1
  0
VERTEX
  5
9B6
  8
DATA
  6
CONTINUOUS
 62
     7
 10
-220.55499999982521
 20
68.756624327025747
 30
0.0
  0
VERTEX
  5
9B7
  8
DATA
  6
CONTINUOUS
 62
     7
 10
-218.05499999982521
 20
67.313248654051677
 30
0.0
  0
VERTEX
  5
9B8
  8
DATA
  6
CONTINUOUS
 62
     7
 10
-215.55499999982521
 20
68.756624327025747
 30
0.0
  0
VERTEX
  5
9B9
  8
DATA
  6
CONTINUOUS
 62
     7
 10
-215.55499999982521
 20
71.643375672973889
 30
0.0
  0
VERTEX
  5
9BA
  8
DATA
  6
CONTINUOUS
 62
     7
 10
-218.05499999982521
 20
73.086751345947945
 30
0.0
  0
VERTEX
  5
9BB
  8
DATA
  6
CONTINUOUS
 62
     7
 10
-220.55499999982521
 20
71.643375672973889
 30
0.0
  0
SEQEND
  5
9BC
  8
DATA
  6
CONTINUOUS
 62
     7
  0
POLYLINE
  5
1F1
  8
DATA
  6
CONTINUOUS
 62
     7
 66
     1
 10
0.0
 20
0.0
 30
0.0
 70
     1
  0
VERTEX
  5
9BD
  8
DATA
  6
CONTINUOUS
 62
     7
 10
-245.544999999825
 20
68.756624327025747
 30
0.0
  0
VERTEX
  5
9BE
  8
DATA
  6
CONTINUOUS
 62
     7
 10
-243.044999999825
 20
67.313248654051677
 30
0.0
  0
VERTEX
  5
9BF
  8
DATA
  6
CONTINUOUS
 62
     7
 10
-240.544999999825
 20
68.756624327025747
 30
0.0
  0
VERTEX
  5
9C0
  8
DATA
  6
CONTINUOUS
 62
     7
 10
-240.544999999825
 20
71.643375672973889
 30
0.0
  0
VERTEX
  5
9C1
  8
DATA
  6
CONTINUOUS
 62
     7
 10
-243.044999999825
 20
73.086751345947945
 30
0.0
  0
VERTEX
  5
9C2
  8
DATA
  6
CONTINUOUS
 62
     7
 10
-245.544999999825
 20
71.643375672973889
 30
0.0
  0
SEQEND
  5
9C3
  8
DATA
  6
CONTINUOUS
 62
     7
  0
CIRCLE
  5
1FA
  8
DATA
  6
CONTINUOUS
 62
     7
 10
-266.5
 20
46.0
 30
0.0
 40
3.0
  0
LINE
  5
1FB
  8
DATA
  6
CONTINUOUS
 62
     7
 10
-265.0
 20
46.0
 30
0.0
 11
-268.0
 21
46.0
 31
0.0
  0
LINE
  5
1FC
  8
DATA
  6
CONTINUOUS
 62
     7
 10
-266.5
 20
47.5
 30
0.0
 11
-266.5
 21
44.5
 31
0.0
  0
CIRCLE
  5
1FD
  8
DATA
  6
CONTINUOUS
 62
     7
 10
68.891960108624971
 20
71.5
 30
0.0
 40
2.9999999999998792
  0
LINE
  5
1FE
  8
DATA
  6
CONTINUOUS
 62
     7
 10
71.850000000174987
 20
71.0
 30
0.0
 11
65.933920217074956
 21
71.0
 31
0.0
  0
LINE
  5
1FF
  8
DATA
  6
CONTINUOUS
 62
     7
 10
71.850000000174987
 20
72.0
 30
0.0
 11
65.933920217074956
 21
72.0
 31
0.0
  0
CIRCLE
  5
200
  8
DATA
  6
CONTINUOUS
 62
     7
 10
55.891960108624971
 20
71.5
 30
0.0
 40
2.9999999999998792
  0
LINE
  5
201
  8
DATA
  6
CONTINUOUS
 62
     7
 10
58.85000000017498
 20
71.0
 30
0.0
 11
52.933920217074963
 21
71.0
 31
0.0
  0
LINE
  5
202
  8
DATA
  6
CONTINUOUS
 62
     7
 10
58.85000000017498
 20
72.0
 30
0.0
 11
52.933920217074963
 21
72.0
 31
0.0
  0
LINE
  5
203
  8
DATA
  6
CONTINUOUS
 62
     7
 10
64.891960108624971
 20
76.0
 30
0.0
 11
64.891960108624971
 21
73.5
 31
0.0
  0
LINE
  5
204
  8
DATA
  6
CONTINUOUS
 62
     7
 10
64.391960108624971
 20
75.5
 30
0.0
 11
64.391960108624971
 21
74.0
 31
0.0
  0
LINE
  5
205
  8
DATA
  6
CONTINUOUS
 62
     7
 10
59.891960108624971
 20
76.0
 30
0.0
 11
64.891960108624971
 21
76.0
 31
0.0
  0
LINE
  5
206
  8
DATA
  6
CONTINUOUS
 62
     7
 10
60.391960108624971
 20
75.5
 30
0.0
 11
64.391960108624971
 21
75.5
 31
0.0
  0
LINE
  5
207
  8
DATA
  6
CONTINUOUS
 62
     7
 10
59.891960108624971
 20
73.5
 30
0.0
 11
59.891960108624971
 21
76.0
 31
0.0
  0
LINE
  5
208
  8
DATA
  6
CONTINUOUS
 62
     7
 10
60.391960108624971
 20
74.0
 30
0.0
 11
60.391960108624971
 21
75.5
 31
0.0
  0
LINE
  5
209
  8
DATA
  6
CONTINUOUS
 62
     7
 10
64.891960108624971
 20
73.5
 30
0.0
 11
59.891960108624971
 21
73.5
 31
0.0
  0
LINE
  5
20A
  8
DATA
  6
CONTINUOUS
 62
     7
 10
64.891960108624971
 20
73.5
 30
0.0
 11
59.891960108624971
 21
73.5
 31
0.0
  0
LINE
  5
20B
  8
DATA
  6
CONTINUOUS
 62
     7
 10
64.391960108624971
 20
74.0
 30
0.0
 11
60.391960108624971
 21
74.0
 31
0.0
  0
POLYLINE
  5
20C
  8
DATA
  6
CONTINUOUS
 62
     7
 66
     1
 10
0.0
 20
0.0
 30
0.0
 70
     1
  0
VERTEX
  5
9C4
  8
DATA
  6
CONTINUOUS
 62
     7
 10
60.48196010862511
 20
75.5
 30
0.0
  0
VERTEX
  5
9C5
  8
DATA
  6
CONTINUOUS
 62
     7
 10
61.981960108625117
 20
75.5
 30
0.0
  0
VERTEX
  5
9C6
  8
DATA
  6
CONTINUOUS
 62
     7
 10
61.981960108625117
 20
74.0
 30
0.0
  0
VERTEX
  5
9C7
  8
DATA
  6
CONTINUOUS
 62
     7
 10
60.48196010862511
 20
74.0
 30
0.0
  0
SEQEND
  5
9C8
  8
DATA
  6
CONTINUOUS
 62
     7
  0
LINE
  5
213
  8
DATA
  6
CONTINUOUS
 62
     7
 10
70.891960108624971
 20
67.500000000000227
 30
0.0
 11
66.891960108624971
 21
67.500000000000227
 31
0.0
  0
LINE
  5
214
  8
DATA
  6
CONTINUOUS
 62
     7
 10
66.891960108624971
 20
67.500000000000227
 30
0.0
 11
66.891960108624971
 21
66.000000000000213
 31
0.0
  0
LINE
  5
215
  8
DATA
  6
CONTINUOUS
 62
     7
 10
66.891960108624971
 20
66.000000000000213
 30
0.0
 11
70.891960108624971
 21
67.500000000000227
 31
0.0
  0
LINE
  5
216
  8
DATA
  6
CONTINUOUS
 62
     7
 10
57.891960108624971
 20
67.500000000000227
 30
0.0
 11
53.891960108624971
 21
67.500000000000227
 31
0.0
  0
LINE
  5
217
  8
DATA
  6
CONTINUOUS
 62
     7
 10
53.891960108624971
 20
67.500000000000227
 30
0.0
 11
53.891960108624971
 21
66.000000000000213
 31
0.0
  0
LINE
  5
218
  8
DATA
  6
CONTINUOUS
 62
     7
 10
53.891960108624971
 20
66.000000000000213
 30
0.0
 11
57.891960108624971
 21
67.500000000000227
 31
0.0
  0
LINE
  5
219
  8
DATA
  6
CONTINUOUS
 62
     7
 10
62.391960108624971
 20
76.0
 30
0.0
 11
62.391960108624971
 21
80.000000000000213
 31
0.0
  0
LINE
  5
21A
  8
DATA
  6
CONTINUOUS
 62
     7
 10
78.311324865579991
 20
80.000000000000213
 30
0.0
 11
46.472595351669952
 21
80.000000000000213
 31
0.0
  0
LINE
  5
21B
  8
DATA
  6
CONTINUOUS
 62
     7
 10
78.311324865579991
 20
80.000000000000213
 30
0.0
 11
78.600000000174987
 21
79.5
 31
0.0
  0
LINE
  5
21C
  8
DATA
  6
CONTINUOUS
 62
     7
 10
46.472595351669952
 20
80.000000000000213
 30
0.0
 11
46.183920217074949
 21
79.5
 31
0.0
  0
LINE
  5
21D
  8
DATA
  6
CONTINUOUS
 62
     7
 10
91.100000000174987
 20
79.5
 30
0.0
 11
91.100000000174987
 21
72.5
 31
0.0
  0
LINE
  5
21E
  8
DATA
  6
CONTINUOUS
 62
     7
 10
78.600000000174987
 20
79.5
 30
0.0
 11
91.100000000174987
 21
79.5
 31
0.0
  0
LINE
  5
21F
  8
DATA
  6
CONTINUOUS
 62
     7
 10
78.600000000174987
 20
72.5
 30
0.0
 11
78.600000000174987
 21
79.5
 31
0.0
  0
LINE
  5
220
  8
DATA
  6
CONTINUOUS
 62
     7
 10
91.100000000174987
 20
72.5
 30
0.0
 11
78.600000000174987
 21
72.5
 31
0.0
  0
LINE
  5
221
  8
DATA
  6
CONTINUOUS
 62
     7
 10
79.600000000174987
 20
73.549999999999955
 30
0.0
 11
80.300000000174805
 21
75.049999999999955
 31
0.0
  0
LINE
  5
222
  8
DATA
  6
CONTINUOUS
 62
     7
 10
81.850000000174987
 20
75.049999999999955
 30
0.0
 11
82.600000000174987
 21
73.549999999999955
 31
0.0
  0
LINE
  5
223
  8
DATA
  6
CONTINUOUS
 62
     7
 10
81.850000000174987
 20
75.049999999999955
 30
0.0
 11
82.600000000174987
 21
75.049999999999955
 31
0.0
  0
LINE
  5
224
  8
DATA
  6
CONTINUOUS
 62
     7
 10
80.300000000174805
 20
75.049999999999955
 30
0.0
 11
79.600000000174987
 21
75.049999999999955
 31
0.0
  0
LINE
  5
225
  8
DATA
  6
CONTINUOUS
 62
     7
 10
79.600000000174987
 20
73.549999999999955
 30
0.0
 11
82.600000000174987
 21
73.549999999999955
 31
0.0
  0
LINE
  5
226
  8
DATA
  6
CONTINUOUS
 62
     7
 10
79.600000000174987
 20
78.450000000000031
 30
0.0
 11
82.600000000174987
 21
78.450000000000031
 31
0.0
  0
LINE
  5
227
  8
DATA
  6
CONTINUOUS
 62
     7
 10
82.600000000174987
 20
75.049999999999955
 30
0.0
 11
82.600000000174987
 21
78.450000000000031
 31
0.0
  0
LINE
  5
228
  8
DATA
  6
CONTINUOUS
 62
     7
 10
79.600000000174987
 20
75.049999999999955
 30
0.0
 11
79.600000000174987
 21
78.450000000000031
 31
0.0
  0
CIRCLE
  5
229
  8
DATA
  6
CONTINUOUS
 62
     7
 10
81.100000000174987
 20
76.75
 30
0.0
 40
0.5
  0
LINE
  5
22A
  8
DATA
  6
CONTINUOUS
 62
     7
 10
83.350000000174987
 20
73.549999999999955
 30
0.0
 11
84.050000000174805
 21
75.049999999999955
 31
0.0
  0
LINE
  5
22B
  8
DATA
  6
CONTINUOUS
 62
     7
 10
85.600000000174987
 20
75.049999999999955
 30
0.0
 11
86.350000000174987
 21
73.549999999999955
 31
0.0
  0
LINE
  5
22C
  8
DATA
  6
CONTINUOUS
 62
     7
 10
85.600000000174987
 20
75.049999999999955
 30
0.0
 11
86.350000000174987
 21
75.049999999999955
 31
0.0
  0
LINE
  5
22D
  8
DATA
  6
CONTINUOUS
 62
     7
 10
84.050000000174805
 20
75.049999999999955
 30
0.0
 11
83.350000000174987
 21
75.049999999999955
 31
0.0
  0
LINE
  5
22E
  8
DATA
  6
CONTINUOUS
 62
     7
 10
83.350000000174987
 20
73.549999999999955
 30
0.0
 11
86.350000000174987
 21
73.549999999999955
 31
0.0
  0
LINE
  5
22F
  8
DATA
  6
CONTINUOUS
 62
     7
 10
83.350000000174987
 20
78.450000000000031
 30
0.0
 11
86.350000000174987
 21
78.450000000000031
 31
0.0
  0
LINE
  5
230
  8
DATA
  6
CONTINUOUS
 62
     7
 10
86.350000000174987
 20
75.049999999999955
 30
0.0
 11
86.350000000174987
 21
78.450000000000031
 31
0.0
  0
LINE
  5
231
  8
DATA
  6
CONTINUOUS
 62
     7
 10
83.350000000174987
 20
75.049999999999955
 30
0.0
 11
83.350000000174987
 21
78.450000000000031
 31
0.0
  0
CIRCLE
  5
232
  8
DATA
  6
CONTINUOUS
 62
     7
 10
84.850000000174987
 20
76.75
 30
0.0
 40
0.5
  0
LINE
  5
233
  8
DATA
  6
CONTINUOUS
 62
     7
 10
90.100000000174987
 20
73.549999999999955
 30
0.0
 11
89.400000000175169
 21
75.049999999999955
 31
0.0
  0
LINE
  5
234
  8
DATA
  6
CONTINUOUS
 62
     7
 10
87.850000000174987
 20
75.049999999999955
 30
0.0
 11
87.100000000174987
 21
73.549999999999955
 31
0.0
  0
LINE
  5
235
  8
DATA
  6
CONTINUOUS
 62
     7
 10
87.850000000174987
 20
75.049999999999955
 30
0.0
 11
87.100000000174987
 21
75.049999999999955
 31
0.0
  0
LINE
  5
236
  8
DATA
  6
CONTINUOUS
 62
     7
 10
89.400000000175169
 20
75.049999999999955
 30
0.0
 11
90.100000000174987
 21
75.049999999999955
 31
0.0
  0
LINE
  5
237
  8
DATA
  6
CONTINUOUS
 62
     7
 10
90.100000000174987
 20
73.549999999999955
 30
0.0
 11
87.100000000174987
 21
73.549999999999955
 31
0.0
  0
LINE
  5
238
  8
DATA
  6
CONTINUOUS
 62
     7
 10
90.100000000174987
 20
78.450000000000031
 30
0.0
 11
87.100000000174987
 21
78.450000000000031
 31
0.0
  0
LINE
  5
239
  8
DATA
  6
CONTINUOUS
 62
     7
 10
87.100000000174987
 20
75.049999999999955
 30
0.0
 11
87.100000000174987
 21
78.450000000000031
 31
0.0
  0
LINE
  5
23A
  8
DATA
  6
CONTINUOUS
 62
     7
 10
90.100000000174987
 20
75.049999999999955
 30
0.0
 11
90.100000000174987
 21
78.450000000000031
 31
0.0
  0
CIRCLE
  5
23B
  8
DATA
  6
CONTINUOUS
 62
     7
 10
88.600000000174987
 20
76.75
 30
0.0
 40
0.5
  0
LINE
  5
23C
  8
DATA
  6
CONTINUOUS
 62
     7
 10
33.683920217074963
 20
79.5
 30
0.0
 11
33.683920217074963
 21
72.5
 31
0.0
  0
LINE
  5
23D
  8
DATA
  6
CONTINUOUS
 62
     7
 10
46.183920217074949
 20
79.5
 30
0.0
 11
33.683920217074963
 21
79.5
 31
0.0
  0
LINE
  5
23E
  8
DATA
  6
CONTINUOUS
 62
     7
 10
46.183920217074949
 20
72.5
 30
0.0
 11
46.183920217074949
 21
79.5
 31
0.0
  0
LINE
  5
23F
  8
DATA
  6
CONTINUOUS
 62
     7
 10
33.683920217074963
 20
72.5
 30
0.0
 11
46.183920217074949
 21
72.5
 31
0.0
  0
LINE
  5
240
  8
DATA
  6
CONTINUOUS
 62
     7
 10
45.183920217074949
 20
73.549999999999955
 30
0.0
 11
44.483920217075131
 21
75.049999999999955
 31
0.0
  0
LINE
  5
241
  8
DATA
  6
CONTINUOUS
 62
     7
 10
42.933920217074963
 20
75.049999999999955
 30
0.0
 11
42.183920217074963
 21
73.549999999999955
 31
0.0
  0
LINE
  5
242
  8
DATA
  6
CONTINUOUS
 62
     7
 10
42.933920217074963
 20
75.049999999999955
 30
0.0
 11
42.183920217074963
 21
75.049999999999955
 31
0.0
  0
LINE
  5
243
  8
DATA
  6
CONTINUOUS
 62
     7
 10
44.483920217075131
 20
75.049999999999955
 30
0.0
 11
45.183920217074949
 21
75.049999999999955
 31
0.0
  0
LINE
  5
244
  8
DATA
  6
CONTINUOUS
 62
     7
 10
45.183920217074949
 20
73.549999999999955
 30
0.0
 11
42.183920217074963
 21
73.549999999999955
 31
0.0
  0
LINE
  5
245
  8
DATA
  6
CONTINUOUS
 62
     7
 10
45.183920217074949
 20
78.450000000000031
 30
0.0
 11
42.183920217074963
 21
78.450000000000031
 31
0.0
  0
LINE
  5
246
  8
DATA
  6
CONTINUOUS
 62
     7
 10
42.183920217074963
 20
75.049999999999955
 30
0.0
 11
42.183920217074963
 21
78.450000000000031
 31
0.0
  0
LINE
  5
247
  8
DATA
  6
CONTINUOUS
 62
     7
 10
45.183920217074949
 20
75.049999999999955
 30
0.0
 11
45.183920217074949
 21
78.450000000000031
 31
0.0
  0
CIRCLE
  5
248
  8
DATA
  6
CONTINUOUS
 62
     7
 10
43.683920217074949
 20
76.75
 30
0.0
 40
0.5
  0
LINE
  5
249
  8
DATA
  6
CONTINUOUS
 62
     7
 10
41.433920217074963
 20
73.549999999999955
 30
0.0
 11
40.733920217075131
 21
75.049999999999955
 31
0.0
  0
LINE
  5
24A
  8
DATA
  6
CONTINUOUS
 62
     7
 10
39.18392021707497
 20
75.049999999999955
 30
0.0
 11
38.433920217074963
 21
73.549999999999955
 31
0.0
  0
LINE
  5
24B
  8
DATA
  6
CONTINUOUS
 62
     7
 10
39.18392021707497
 20
75.049999999999955
 30
0.0
 11
38.433920217074963
 21
75.049999999999955
 31
0.0
  0
LINE
  5
24C
  8
DATA
  6
CONTINUOUS
 62
     7
 10
40.733920217075131
 20
75.049999999999955
 30
0.0
 11
41.433920217074963
 21
75.049999999999955
 31
0.0
  0
LINE
  5
24D
  8
DATA
  6
CONTINUOUS
 62
     7
 10
41.433920217074963
 20
73.549999999999955
 30
0.0
 11
38.433920217074963
 21
73.549999999999955
 31
0.0
  0
LINE
  5
24E
  8
DATA
  6
CONTINUOUS
 62
     7
 10
41.433920217074963
 20
78.450000000000031
 30
0.0
 11
38.433920217074963
 21
78.450000000000031
 31
0.0
  0
LINE
  5
24F
  8
DATA
  6
CONTINUOUS
 62
     7
 10
38.433920217074963
 20
75.049999999999955
 30
0.0
 11
38.433920217074963
 21
78.450000000000031
 31
0.0
  0
LINE
  5
250
  8
DATA
  6
CONTINUOUS
 62
     7
 10
41.433920217074963
 20
75.049999999999955
 30
0.0
 11
41.433920217074963
 21
78.450000000000031
 31
0.0
  0
CIRCLE
  5
251
  8
DATA
  6
CONTINUOUS
 62
     7
 10
39.933920217074963
 20
76.75
 30
0.0
 40
0.5
  0
LINE
  5
252
  8
DATA
  6
CONTINUOUS
 62
     7
 10
34.683920217074963
 20
73.549999999999955
 30
0.0
 11
35.383920217074781
 21
75.049999999999955
 31
0.0
  0
LINE
  5
253
  8
DATA
  6
CONTINUOUS
 62
     7
 10
36.933920217074963
 20
75.049999999999955
 30
0.0
 11
37.68392021707497
 21
73.549999999999955
 31
0.0
  0
LINE
  5
254
  8
DATA
  6
CONTINUOUS
 62
     7
 10
36.933920217074963
 20
75.049999999999955
 30
0.0
 11
37.68392021707497
 21
75.049999999999955
 31
0.0
  0
LINE
  5
255
  8
DATA
  6
CONTINUOUS
 62
     7
 10
35.383920217074781
 20
75.049999999999955
 30
0.0
 11
34.683920217074963
 21
75.049999999999955
 31
0.0
  0
LINE
  5
256
  8
DATA
  6
CONTINUOUS
 62
     7
 10
34.683920217074963
 20
73.549999999999955
 30
0.0
 11
37.68392021707497
 21
73.549999999999955
 31
0.0
  0
LINE
  5
257
  8
DATA
  6
CONTINUOUS
 62
     7
 10
34.683920217074963
 20
78.450000000000031
 30
0.0
 11
37.68392021707497
 21
78.450000000000031
 31
0.0
  0
LINE
  5
258
  8
DATA
  6
CONTINUOUS
 62
     7
 10
37.68392021707497
 20
75.049999999999955
 30
0.0
 11
37.68392021707497
 21
78.450000000000031
 31
0.0
  0
LINE
  5
259
  8
DATA
  6
CONTINUOUS
 62
     7
 10
34.683920217074963
 20
75.049999999999955
 30
0.0
 11
34.683920217074963
 21
78.450000000000031
 31
0.0
  0
CIRCLE
  5
25A
  8
DATA
  6
CONTINUOUS
 62
     7
 10
36.183920217074963
 20
76.75
 30
0.0
 40
0.5
  0
LINE
  5
25B
  8
DATA
  6
CONTINUOUS
 62
     7
 10
81.100000000174987
 20
72.0
 30
0.0
 11
81.100000000174987
 21
70.0
 31
0.0
  0
LINE
  5
25C
  8
DATA
  6
CONTINUOUS
 62
     7
 10
82.100000000174987
 20
72.0
 30
0.0
 11
80.100000000174987
 21
72.0
 31
0.0
  0
LINE
  5
25D
  8
DATA
  6
CONTINUOUS
 62
     7
 10
36.183920217074963
 20
72.0
 30
0.0
 11
36.183920217074963
 21
70.0
 31
0.0
  0
LINE
  5
25E
  8
DATA
  6
CONTINUOUS
 62
     7
 10
37.183920217074963
 20
72.0
 30
0.0
 11
35.18392021707497
 21
72.0
 31
0.0
  0
LINE
  5
25F
  8
DATA
  6
CONTINUOUS
 62
     7
 10
36.183920217074963
 20
73.549999999999955
 30
0.0
 11
36.183920217074963
 21
72.5
 31
0.0
  0
CIRCLE
  5
260
  8
DATA
  6
CONTINUOUS
 62
     7
 10
68.891960108624971
 20
53.5
 30
0.0
 40
2.9999999999998792
  0
LINE
  5
261
  8
DATA
  6
CONTINUOUS
 62
     7
 10
71.850000000174987
 20
53.0
 30
0.0
 11
65.933920217074956
 21
53.0
 31
0.0
  0
LINE
  5
262
  8
DATA
  6
CONTINUOUS
 62
     7
 10
71.850000000174987
 20
54.0
 30
0.0
 11
65.933920217074956
 21
54.0
 31
0.0
  0
CIRCLE
  5
263
  8
DATA
  6
CONTINUOUS
 62
     7
 10
55.891960108624971
 20
53.5
 30
0.0
 40
2.9999999999998792
  0
LINE
  5
264
  8
DATA
  6
CONTINUOUS
 62
     7
 10
58.85000000017498
 20
53.0
 30
0.0
 11
52.933920217074963
 21
53.0
 31
0.0
  0
LINE
  5
265
  8
DATA
  6
CONTINUOUS
 62
     7
 10
58.85000000017498
 20
54.0
 30
0.0
 11
52.933920217074963
 21
54.0
 31
0.0
  0
LINE
  5
266
  8
DATA
  6
CONTINUOUS
 62
     7
 10
64.891960108624971
 20
58.0
 30
0.0
 11
64.891960108624971
 21
55.5
 31
0.0
  0
LINE
  5
267
  8
DATA
  6
CONTINUOUS
 62
     7
 10
64.391960108624971
 20
57.5
 30
0.0
 11
64.391960108624971
 21
56.0
 31
0.0
  0
LINE
  5
268
  8
DATA
  6
CONTINUOUS
 62
     7
 10
59.891960108624971
 20
58.0
 30
0.0
 11
64.891960108624971
 21
58.0
 31
0.0
  0
LINE
  5
269
  8
DATA
  6
CONTINUOUS
 62
     7
 10
60.391960108624971
 20
57.5
 30
0.0
 11
64.391960108624971
 21
57.5
 31
0.0
  0
LINE
  5
26A
  8
DATA
  6
CONTINUOUS
 62
     7
 10
59.891960108624971
 20
55.5
 30
0.0
 11
59.891960108624971
 21
58.0
 31
0.0
  0
LINE
  5
26B
  8
DATA
  6
CONTINUOUS
 62
     7
 10
60.391960108624971
 20
56.0
 30
0.0
 11
60.391960108624971
 21
57.5
 31
0.0
  0
LINE
  5
26C
  8
DATA
  6
CONTINUOUS
 62
     7
 10
64.891960108624971
 20
55.5
 30
0.0
 11
59.891960108624971
 21
55.5
 31
0.0
  0
LINE
  5
26D
  8
DATA
  6
CONTINUOUS
 62
     7
 10
64.891960108624971
 20
55.5
 30
0.0
 11
59.891960108624971
 21
55.5
 31
0.0
  0
LINE
  5
26E
  8
DATA
  6
CONTINUOUS
 62
     7
 10
64.391960108624971
 20
56.0
 30
0.0
 11
60.391960108624971
 21
56.0
 31
0.0
  0
POLYLINE
  5
26F
  8
DATA
  6
CONTINUOUS
 62
     7
 66
     1
 10
0.0
 20
0.0
 30
0.0
 70
     1
  0
VERTEX
  5
9C9
  8
DATA
  6
CONTINUOUS
 62
     7
 10
60.48196010862511
 20
57.5
 30
0.0
  0
VERTEX
  5
9CA
  8
DATA
  6
CONTINUOUS
 62
     7
 10
61.981960108625117
 20
57.5
 30
0.0
  0
VERTEX
  5
9CB
  8
DATA
  6
CONTINUOUS
 62
     7
 10
61.981960108625117
 20
56.0
 30
0.0
  0
VERTEX
  5
9CC
  8
DATA
  6
CONTINUOUS
 62
     7
 10
60.48196010862511
 20
56.0
 30
0.0
  0
SEQEND
  5
9CD
  8
DATA
  6
CONTINUOUS
 62
     7
  0
LINE
  5
276
  8
DATA
  6
CONTINUOUS
 62
     7
 10
70.891960108624971
 20
49.500000000000227
 30
0.0
 11
66.891960108624971
 21
49.500000000000227
 31
0.0
  0
LINE
  5
277
  8
DATA
  6
CONTINUOUS
 62
     7
 10
66.891960108624971
 20
49.500000000000227
 30
0.0
 11
66.891960108624971
 21
48.00000000000022
 31
0.0
  0
LINE
  5
278
  8
DATA
  6
CONTINUOUS
 62
     7
 10
66.891960108624971
 20
48.00000000000022
 30
0.0
 11
70.891960108624971
 21
49.500000000000227
 31
0.0
  0
LINE
  5
279
  8
DATA
  6
CONTINUOUS
 62
     7
 10
57.891960108624971
 20
49.500000000000227
 30
0.0
 11
53.891960108624971
 21
49.500000000000227
 31
0.0
  0
LINE
  5
27A
  8
DATA
  6
CONTINUOUS
 62
     7
 10
53.891960108624971
 20
49.500000000000227
 30
0.0
 11
53.891960108624971
 21
48.00000000000022
 31
0.0
  0
LINE
  5
27B
  8
DATA
  6
CONTINUOUS
 62
     7
 10
53.891960108624971
 20
48.00000000000022
 30
0.0
 11
57.891960108624971
 21
49.500000000000227
 31
0.0
  0
LINE
  5
27C
  8
DATA
  6
CONTINUOUS
 62
     7
 10
62.391960108624971
 20
58.0
 30
0.0
 11
62.391960108624971
 21
62.000000000000227
 31
0.0
  0
LINE
  5
27D
  8
DATA
  6
CONTINUOUS
 62
     7
 10
78.311324865579991
 20
62.000000000000227
 30
0.0
 11
46.472595351669952
 21
62.000000000000227
 31
0.0
  0
LINE
  5
27E
  8
DATA
  6
CONTINUOUS
 62
     7
 10
78.311324865579991
 20
62.000000000000227
 30
0.0
 11
78.600000000174987
 21
61.5
 31
0.0
  0
LINE
  5
27F
  8
DATA
  6
CONTINUOUS
 62
     7
 10
46.472595351669952
 20
62.000000000000227
 30
0.0
 11
46.183920217074949
 21
61.5
 31
0.0
  0
LINE
  5
280
  8
DATA
  6
CONTINUOUS
 62
     7
 10
91.100000000174987
 20
61.5
 30
0.0
 11
91.100000000174987
 21
54.5
 31
0.0
  0
LINE
  5
281
  8
DATA
  6
CONTINUOUS
 62
     7
 10
78.600000000174987
 20
61.5
 30
0.0
 11
91.100000000174987
 21
61.5
 31
0.0
  0
LINE
  5
282
  8
DATA
  6
CONTINUOUS
 62
     7
 10
78.600000000174987
 20
54.5
 30
0.0
 11
78.600000000174987
 21
61.5
 31
0.0
  0
LINE
  5
283
  8
DATA
  6
CONTINUOUS
 62
     7
 10
91.100000000174987
 20
54.5
 30
0.0
 11
78.600000000174987
 21
54.5
 31
0.0
  0
LINE
  5
284
  8
DATA
  6
CONTINUOUS
 62
     7
 10
79.600000000174987
 20
55.549999999999962
 30
0.0
 11
80.300000000174805
 21
57.049999999999962
 31
0.0
  0
LINE
  5
285
  8
DATA
  6
CONTINUOUS
 62
     7
 10
81.850000000174987
 20
57.049999999999962
 30
0.0
 11
82.600000000174987
 21
55.549999999999962
 31
0.0
  0
LINE
  5
286
  8
DATA
  6
CONTINUOUS
 62
     7
 10
81.850000000174987
 20
57.049999999999962
 30
0.0
 11
82.600000000174987
 21
57.049999999999962
 31
0.0
  0
LINE
  5
287
  8
DATA
  6
CONTINUOUS
 62
     7
 10
80.300000000174805
 20
57.049999999999962
 30
0.0
 11
79.600000000174987
 21
57.049999999999962
 31
0.0
  0
LINE
  5
288
  8
DATA
  6
CONTINUOUS
 62
     7
 10
79.600000000174987
 20
55.549999999999962
 30
0.0
 11
82.600000000174987
 21
55.549999999999962
 31
0.0
  0
LINE
  5
289
  8
DATA
  6
CONTINUOUS
 62
     7
 10
79.600000000174987
 20
60.450000000000053
 30
0.0
 11
82.600000000174987
 21
60.450000000000053
 31
0.0
  0
LINE
  5
28A
  8
DATA
  6
CONTINUOUS
 62
     7
 10
82.600000000174987
 20
57.049999999999962
 30
0.0
 11
82.600000000174987
 21
60.450000000000053
 31
0.0
  0
LINE
  5
28B
  8
DATA
  6
CONTINUOUS
 62
     7
 10
79.600000000174987
 20
57.049999999999962
 30
0.0
 11
79.600000000174987
 21
60.450000000000053
 31
0.0
  0
CIRCLE
  5
28C
  8
DATA
  6
CONTINUOUS
 62
     7
 10
81.100000000174987
 20
58.75
 30
0.0
 40
0.5
  0
LINE
  5
28D
  8
DATA
  6
CONTINUOUS
 62
     7
 10
83.350000000174987
 20
55.549999999999962
 30
0.0
 11
84.050000000174805
 21
57.049999999999962
 31
0.0
  0
LINE
  5
28E
  8
DATA
  6
CONTINUOUS
 62
     7
 10
85.600000000174987
 20
57.049999999999962
 30
0.0
 11
86.350000000174987
 21
55.549999999999962
 31
0.0
  0
LINE
  5
28F
  8
DATA
  6
CONTINUOUS
 62
     7
 10
85.600000000174987
 20
57.049999999999962
 30
0.0
 11
86.350000000174987
 21
57.049999999999962
 31
0.0
  0
LINE
  5
290
  8
DATA
  6
CONTINUOUS
 62
     7
 10
84.050000000174805
 20
57.049999999999962
 30
0.0
 11
83.350000000174987
 21
57.049999999999962
 31
0.0
  0
LINE
  5
291
  8
DATA
  6
CONTINUOUS
 62
     7
 10
83.350000000174987
 20
55.549999999999962
 30
0.0
 11
86.350000000174987
 21
55.549999999999962
 31
0.0
  0
LINE
  5
292
  8
DATA
  6
CONTINUOUS
 62
     7
 10
83.350000000174987
 20
60.450000000000053
 30
0.0
 11
86.350000000174987
 21
60.450000000000053
 31
0.0
  0
LINE
  5
293
  8
DATA
  6
CONTINUOUS
 62
     7
 10
86.350000000174987
 20
57.049999999999962
 30
0.0
 11
86.350000000174987
 21
60.450000000000053
 31
0.0
  0
LINE
  5
294
  8
DATA
  6
CONTINUOUS
 62
     7
 10
83.350000000174987
 20
57.049999999999962
 30
0.0
 11
83.350000000174987
 21
60.450000000000053
 31
0.0
  0
CIRCLE
  5
295
  8
DATA
  6
CONTINUOUS
 62
     7
 10
84.850000000174987
 20
58.75
 30
0.0
 40
0.5
  0
LINE
  5
296
  8
DATA
  6
CONTINUOUS
 62
     7
 10
90.100000000174987
 20
55.549999999999962
 30
0.0
 11
89.400000000175169
 21
57.049999999999962
 31
0.0
  0
LINE
  5
297
  8
DATA
  6
CONTINUOUS
 62
     7
 10
87.850000000174987
 20
57.049999999999962
 30
0.0
 11
87.100000000174987
 21
55.549999999999962
 31
0.0
  0
LINE
  5
298
  8
DATA
  6
CONTINUOUS
 62
     7
 10
87.850000000174987
 20
57.049999999999962
 30
0.0
 11
87.100000000174987
 21
57.049999999999962
 31
0.0
  0
LINE
  5
299
  8
DATA
  6
CONTINUOUS
 62
     7
 10
89.400000000175169
 20
57.049999999999962
 30
0.0
 11
90.100000000174987
 21
57.049999999999962
 31
0.0
  0
LINE
  5
29A
  8
DATA
  6
CONTINUOUS
 62
     7
 10
90.100000000174987
 20
55.549999999999962
 30
0.0
 11
87.100000000174987
 21
55.549999999999962
 31
0.0
  0
LINE
  5
29B
  8
DATA
  6
CONTINUOUS
 62
     7
 10
90.100000000174987
 20
60.450000000000053
 30
0.0
 11
87.100000000174987
 21
60.450000000000053
 31
0.0
  0
LINE
  5
29C
  8
DATA
  6
CONTINUOUS
 62
     7
 10
87.100000000174987
 20
57.049999999999962
 30
0.0
 11
87.100000000174987
 21
60.450000000000053
 31
0.0
  0
LINE
  5
29D
  8
DATA
  6
CONTINUOUS
 62
     7
 10
90.100000000174987
 20
57.049999999999962
 30
0.0
 11
90.100000000174987
 21
60.450000000000053
 31
0.0
  0
CIRCLE
  5
29E
  8
DATA
  6
CONTINUOUS
 62
     7
 10
88.600000000174987
 20
58.75
 30
0.0
 40
0.5
  0
LINE
  5
29F
  8
DATA
  6
CONTINUOUS
 62
     7
 10
33.683920217074963
 20
61.5
 30
0.0
 11
33.683920217074963
 21
54.5
 31
0.0
  0
LINE
  5
2A0
  8
DATA
  6
CONTINUOUS
 62
     7
 10
46.183920217074949
 20
61.5
 30
0.0
 11
33.683920217074963
 21
61.5
 31
0.0
  0
LINE
  5
2A1
  8
DATA
  6
CONTINUOUS
 62
     7
 10
46.183920217074949
 20
54.5
 30
0.0
 11
46.183920217074949
 21
61.5
 31
0.0
  0
LINE
  5
2A2
  8
DATA
  6
CONTINUOUS
 62
     7
 10
33.683920217074963
 20
54.5
 30
0.0
 11
46.183920217074949
 21
54.5
 31
0.0
  0
LINE
  5
2A3
  8
DATA
  6
CONTINUOUS
 62
     7
 10
45.183920217074949
 20
55.549999999999962
 30
0.0
 11
44.483920217075131
 21
57.049999999999962
 31
0.0
  0
LINE
  5
2A4
  8
DATA
  6
CONTINUOUS
 62
     7
 10
42.933920217074963
 20
57.049999999999962
 30
0.0
 11
42.183920217074963
 21
55.549999999999962
 31
0.0
  0
LINE
  5
2A5
  8
DATA
  6
CONTINUOUS
 62
     7
 10
42.933920217074963
 20
57.049999999999962
 30
0.0
 11
42.183920217074963
 21
57.049999999999962
 31
0.0
  0
LINE
  5
2A6
  8
DATA
  6
CONTINUOUS
 62
     7
 10
44.483920217075131
 20
57.049999999999962
 30
0.0
 11
45.183920217074949
 21
57.049999999999962
 31
0.0
  0
LINE
  5
2A7
  8
DATA
  6
CONTINUOUS
 62
     7
 10
45.183920217074949
 20
55.549999999999962
 30
0.0
 11
42.183920217074963
 21
55.549999999999962
 31
0.0
  0
LINE
  5
2A8
  8
DATA
  6
CONTINUOUS
 62
     7
 10
45.183920217074949
 20
60.450000000000053
 30
0.0
 11
42.183920217074963
 21
60.450000000000053
 31
0.0
  0
LINE
  5
2A9
  8
DATA
  6
CONTINUOUS
 62
     7
 10
42.183920217074963
 20
57.049999999999962
 30
0.0
 11
42.183920217074963
 21
60.450000000000053
 31
0.0
  0
LINE
  5
2AA
  8
DATA
  6
CONTINUOUS
 62
     7
 10
45.183920217074949
 20
57.049999999999962
 30
0.0
 11
45.183920217074949
 21
60.450000000000053
 31
0.0
  0
CIRCLE
  5
2AB
  8
DATA
  6
CONTINUOUS
 62
     7
 10
43.683920217074949
 20
58.75
 30
0.0
 40
0.5
  0
LINE
  5
2AC
  8
DATA
  6
CONTINUOUS
 62
     7
 10
41.433920217074963
 20
55.549999999999962
 30
0.0
 11
40.733920217075131
 21
57.049999999999962
 31
0.0
  0
LINE
  5
2AD
  8
DATA
  6
CONTINUOUS
 62
     7
 10
39.18392021707497
 20
57.049999999999962
 30
0.0
 11
38.433920217074963
 21
55.549999999999962
 31
0.0
  0
LINE
  5
2AE
  8
DATA
  6
CONTINUOUS
 62
     7
 10
39.18392021707497
 20
57.049999999999962
 30
0.0
 11
38.433920217074963
 21
57.049999999999962
 31
0.0
  0
LINE
  5
2AF
  8
DATA
  6
CONTINUOUS
 62
     7
 10
40.733920217075131
 20
57.049999999999962
 30
0.0
 11
41.433920217074963
 21
57.049999999999962
 31
0.0
  0
LINE
  5
2B0
  8
DATA
  6
CONTINUOUS
 62
     7
 10
41.433920217074963
 20
55.549999999999962
 30
0.0
 11
38.433920217074963
 21
55.549999999999962
 31
0.0
  0
LINE
  5
2B1
  8
DATA
  6
CONTINUOUS
 62
     7
 10
41.433920217074963
 20
60.450000000000053
 30
0.0
 11
38.433920217074963
 21
60.450000000000053
 31
0.0
  0
LINE
  5
2B2
  8
DATA
  6
CONTINUOUS
 62
     7
 10
38.433920217074963
 20
57.049999999999962
 30
0.0
 11
38.433920217074963
 21
60.450000000000053
 31
0.0
  0
LINE
  5
2B3
  8
DATA
  6
CONTINUOUS
 62
     7
 10
41.433920217074963
 20
57.049999999999962
 30
0.0
 11
41.433920217074963
 21
60.450000000000053
 31
0.0
  0
CIRCLE
  5
2B4
  8
DATA
  6
CONTINUOUS
 62
     7
 10
39.933920217074963
 20
58.75
 30
0.0
 40
0.5
  0
LINE
  5
2B5
  8
DATA
  6
CONTINUOUS
 62
     7
 10
34.683920217074963
 20
55.549999999999962
 30
0.0
 11
35.383920217074781
 21
57.049999999999962
 31
0.0
  0
LINE
  5
2B6
  8
DATA
  6
CONTINUOUS
 62
     7
 10
36.933920217074963
 20
57.049999999999962
 30
0.0
 11
37.68392021707497
 21
55.549999999999962
 31
0.0
  0
LINE
  5
2B7
  8
DATA
  6
CONTINUOUS
 62
     7
 10
36.933920217074963
 20
57.049999999999962
 30
0.0
 11
37.68392021707497
 21
57.049999999999962
 31
0.0
  0
LINE
  5
2B8
  8
DATA
  6
CONTINUOUS
 62
     7
 10
35.383920217074781
 20
57.049999999999962
 30
0.0
 11
34.683920217074963
 21
57.049999999999962
 31
0.0
  0
LINE
  5
2B9
  8
DATA
  6
CONTINUOUS
 62
     7
 10
34.683920217074963
 20
55.549999999999962
 30
0.0
 11
37.68392021707497
 21
55.549999999999962
 31
0.0
  0
LINE
  5
2BA
  8
DATA
  6
CONTINUOUS
 62
     7
 10
34.683920217074963
 20
60.450000000000053
 30
0.0
 11
37.68392021707497
 21
60.450000000000053
 31
0.0
  0
LINE
  5
2BB
  8
DATA
  6
CONTINUOUS
 62
     7
 10
37.68392021707497
 20
57.049999999999962
 30
0.0
 11
37.68392021707497
 21
60.450000000000053
 31
0.0
  0
LINE
  5
2BC
  8
DATA
  6
CONTINUOUS
 62
     7
 10
34.683920217074963
 20
57.049999999999962
 30
0.0
 11
34.683920217074963
 21
60.450000000000053
 31
0.0
  0
CIRCLE
  5
2BD
  8
DATA
  6
CONTINUOUS
 62
     7
 10
36.183920217074963
 20
58.75
 30
0.0
 40
0.5
  0
LINE
  5
2BE
  8
DATA
  6
CONTINUOUS
 62
     7
 10
81.100000000174987
 20
54.0
 30
0.0
 11
81.100000000174987
 21
52.0
 31
0.0
  0
LINE
  5
2BF
  8
DATA
  6
CONTINUOUS
 62
     7
 10
82.100000000174987
 20
54.0
 30
0.0
 11
80.100000000174987
 21
54.0
 31
0.0
  0
LINE
  5
2C0
  8
DATA
  6
CONTINUOUS
 62
     7
 10
36.183920217074963
 20
54.0
 30
0.0
 11
36.183920217074963
 21
52.0
 31
0.0
  0
LINE
  5
2C1
  8
DATA
  6
CONTINUOUS
 62
     7
 10
37.183920217074963
 20
54.0
 30
0.0
 11
35.18392021707497
 21
54.0
 31
0.0
  0
CIRCLE
  5
2C2
  8
DATA
  6
CONTINUOUS
 62
     7
 10
0.4758803255249405
 20
71.5
 30
0.0
 40
2.9999999999998792
  0
LINE
  5
2C3
  8
DATA
  6
CONTINUOUS
 62
     7
 10
3.433920217074955
 20
71.0
 30
0.0
 11
-2.482159566025075
 21
71.0
 31
0.0
  0
LINE
  5
2C4
  8
DATA
  6
CONTINUOUS
 62
     7
 10
3.433920217074955
 20
72.0
 30
0.0
 11
-2.482159566025075
 21
72.0
 31
0.0
  0
CIRCLE
  5
2C5
  8
DATA
  6
CONTINUOUS
 62
     7
 10
-12.52411967447506
 20
71.5
 30
0.0
 40
2.9999999999998792
  0
LINE
  5
2C6
  8
DATA
  6
CONTINUOUS
 62
     7
 10
-9.5660797829250424
 20
71.0
 30
0.0
 11
-15.48215956602507
 21
71.0
 31
0.0
  0
LINE
  5
2C7
  8
DATA
  6
CONTINUOUS
 62
     7
 10
-9.5660797829250424
 20
72.0
 30
0.0
 11
-15.48215956602507
 21
72.0
 31
0.0
  0
LINE
  5
2C8
  8
DATA
  6
CONTINUOUS
 62
     7
 10
-3.52411967447506
 20
76.0
 30
0.0
 11
-3.52411967447506
 21
73.5
 31
0.0
  0
LINE
  5
2C9
  8
DATA
  6
CONTINUOUS
 62
     7
 10
-4.0241196744750587
 20
75.5
 30
0.0
 11
-4.0241196744750587
 21
74.0
 31
0.0
  0
LINE
  5
2CA
  8
DATA
  6
CONTINUOUS
 62
     7
 10
-8.5241196744750596
 20
76.0
 30
0.0
 11
-3.52411967447506
 21
76.0
 31
0.0
  0
LINE
  5
2CB
  8
DATA
  6
CONTINUOUS
 62
     7
 10
-8.0241196744750596
 20
75.5
 30
0.0
 11
-4.0241196744750587
 21
75.5
 31
0.0
  0
LINE
  5
2CC
  8
DATA
  6
CONTINUOUS
 62
     7
 10
-8.5241196744750596
 20
73.5
 30
0.0
 11
-8.5241196744750596
 21
76.0
 31
0.0
  0
LINE
  5
2CD
  8
DATA
  6
CONTINUOUS
 62
     7
 10
-8.0241196744750596
 20
74.0
 30
0.0
 11
-8.0241196744750596
 21
75.5
 31
0.0
  0
LINE
  5
2CE
  8
DATA
  6
CONTINUOUS
 62
     7
 10
-3.52411967447506
 20
73.5
 30
0.0
 11
-8.5241196744750596
 21
73.5
 31
0.0
  0
LINE
  5
2CF
  8
DATA
  6
CONTINUOUS
 62
     7
 10
-3.52411967447506
 20
73.5
 30
0.0
 11
-8.5241196744750596
 21
73.5
 31
0.0
  0
LINE
  5
2D0
  8
DATA
  6
CONTINUOUS
 62
     7
 10
-4.0241196744750587
 20
74.0
 30
0.0
 11
-8.0241196744750596
 21
74.0
 31
0.0
  0
POLYLINE
  5
2D1
  8
DATA
  6
CONTINUOUS
 62
     7
 66
     1
 10
0.0
 20
0.0
 30
0.0
 70
     1
  0
VERTEX
  5
9CE
  8
DATA
  6
CONTINUOUS
 62
     7
 10
-7.9341196744749132
 20
75.5
 30
0.0
  0
VERTEX
  5
9CF
  8
DATA
  6
CONTINUOUS
 62
     7
 10
-6.4341196744749132
 20
75.5
 30
0.0
  0
VERTEX
  5
9D0
  8
DATA
  6
CONTINUOUS
 62
     7
 10
-6.4341196744749132
 20
74.0
 30
0.0
  0
VERTEX
  5
9D1
  8
DATA
  6
CONTINUOUS
 62
     7
 10
-7.9341196744749132
 20
74.0
 30
0.0
  0
SEQEND
  5
9D2
  8
DATA
  6
CONTINUOUS
 62
     7
  0
LINE
  5
2D8
  8
DATA
  6
CONTINUOUS
 62
     7
 10
2.47588032552494
 20
67.500000000000227
 30
0.0
 11
-1.5241196744750589
 21
67.500000000000227
 31
0.0
  0
LINE
  5
2D9
  8
DATA
  6
CONTINUOUS
 62
     7
 10
-1.5241196744750589
 20
67.500000000000227
 30
0.0
 11
-1.5241196744750589
 21
66.000000000000213
 31
0.0
  0
LINE
  5
2DA
  8
DATA
  6
CONTINUOUS
 62
     7
 10
-1.5241196744750589
 20
66.000000000000213
 30
0.0
 11
2.47588032552494
 21
67.500000000000227
 31
0.0
  0
LINE
  5
2DB
  8
DATA
  6
CONTINUOUS
 62
     7
 10
-10.52411967447506
 20
67.500000000000227
 30
0.0
 11
-14.52411967447506
 21
67.500000000000227
 31
0.0
  0
LINE
  5
2DC
  8
DATA
  6
CONTINUOUS
 62
     7
 10
-14.52411967447506
 20
67.500000000000227
 30
0.0
 11
-14.52411967447506
 21
66.000000000000213
 31
0.0
  0
LINE
  5
2DD
  8
DATA
  6
CONTINUOUS
 62
     7
 10
-14.52411967447506
 20
66.000000000000213
 30
0.0
 11
-10.52411967447506
 21
67.500000000000227
 31
0.0
  0
LINE
  5
2DE
  8
DATA
  6
CONTINUOUS
 62
     7
 10
-6.0241196744750587
 20
76.0
 30
0.0
 11
-6.0241196744750587
 21
80.000000000000213
 31
0.0
  0
LINE
  5
2DF
  8
DATA
  6
CONTINUOUS
 62
     7
 10
9.8952450824799616
 20
80.000000000000213
 30
0.0
 11
-21.943484431430079
 21
80.000000000000213
 31
0.0
  0
LINE
  5
2E0
  8
DATA
  6
CONTINUOUS
 62
     7
 10
9.8952450824799616
 20
80.000000000000213
 30
0.0
 11
10.183920217074951
 21
79.5
 31
0.0
  0
LINE
  5
2E1
  8
DATA
  6
CONTINUOUS
 62
     7
 10
-21.943484431430079
 20
80.000000000000213
 30
0.0
 11
-22.232159566025079
 21
79.5
 31
0.0
  0
LINE
  5
2E2
  8
DATA
  6
CONTINUOUS
 62
     7
 10
22.683920217074959
 20
79.5
 30
0.0
 11
22.683920217074959
 21
72.5
 31
0.0
  0
LINE
  5
2E3
  8
DATA
  6
CONTINUOUS
 62
     7
 10
10.183920217074951
 20
79.5
 30
0.0
 11
22.683920217074959
 21
79.5
 31
0.0
  0
LINE
  5
2E4
  8
DATA
  6
CONTINUOUS
 62
     7
 10
10.183920217074951
 20
72.5
 30
0.0
 11
10.183920217074951
 21
79.5
 31
0.0
  0
LINE
  5
2E5
  8
DATA
  6
CONTINUOUS
 62
     7
 10
22.683920217074959
 20
72.5
 30
0.0
 11
10.183920217074951
 21
72.5
 31
0.0
  0
LINE
  5
2E6
  8
DATA
  6
CONTINUOUS
 62
     7
 10
11.183920217074959
 20
73.549999999999955
 30
0.0
 11
11.88392021707477
 21
75.049999999999955
 31
0.0
  0
LINE
  5
2E7
  8
DATA
  6
CONTINUOUS
 62
     7
 10
13.433920217074951
 20
75.049999999999955
 30
0.0
 11
14.183920217074951
 21
73.549999999999955
 31
0.0
  0
LINE
  5
2E8
  8
DATA
  6
CONTINUOUS
 62
     7
 10
13.433920217074951
 20
75.049999999999955
 30
0.0
 11
14.183920217074951
 21
75.049999999999955
 31
0.0
  0
LINE
  5
2E9
  8
DATA
  6
CONTINUOUS
 62
     7
 10
11.88392021707477
 20
75.049999999999955
 30
0.0
 11
11.183920217074959
 21
75.049999999999955
 31
0.0
  0
LINE
  5
2EA
  8
DATA
  6
CONTINUOUS
 62
     7
 10
11.183920217074959
 20
73.549999999999955
 30
0.0
 11
14.183920217074951
 21
73.549999999999955
 31
0.0
  0
LINE
  5
2EB
  8
DATA
  6
CONTINUOUS
 62
     7
 10
11.183920217074959
 20
78.450000000000031
 30
0.0
 11
14.183920217074951
 21
78.450000000000031
 31
0.0
  0
LINE
  5
2EC
  8
DATA
  6
CONTINUOUS
 62
     7
 10
14.183920217074951
 20
75.049999999999955
 30
0.0
 11
14.183920217074951
 21
78.450000000000031
 31
0.0
  0
LINE
  5
2ED
  8
DATA
  6
CONTINUOUS
 62
     7
 10
11.183920217074959
 20
75.049999999999955
 30
0.0
 11
11.183920217074959
 21
78.450000000000031
 31
0.0
  0
CIRCLE
  5
2EE
  8
DATA
  6
CONTINUOUS
 62
     7
 10
12.683920217074951
 20
76.75
 30
0.0
 40
0.5
  0
LINE
  5
2EF
  8
DATA
  6
CONTINUOUS
 62
     7
 10
14.933920217074951
 20
73.549999999999955
 30
0.0
 11
15.63392021707477
 21
75.049999999999955
 31
0.0
  0
LINE
  5
2F0
  8
DATA
  6
CONTINUOUS
 62
     7
 10
17.183920217074949
 20
75.049999999999955
 30
0.0
 11
17.933920217074949
 21
73.549999999999955
 31
0.0
  0
LINE
  5
2F1
  8
DATA
  6
CONTINUOUS
 62
     7
 10
17.183920217074949
 20
75.049999999999955
 30
0.0
 11
17.933920217074949
 21
75.049999999999955
 31
0.0
  0
LINE
  5
2F2
  8
DATA
  6
CONTINUOUS
 62
     7
 10
15.63392021707477
 20
75.049999999999955
 30
0.0
 11
14.933920217074951
 21
75.049999999999955
 31
0.0
  0
LINE
  5
2F3
  8
DATA
  6
CONTINUOUS
 62
     7
 10
14.933920217074951
 20
73.549999999999955
 30
0.0
 11
17.933920217074949
 21
73.549999999999955
 31
0.0
  0
LINE
  5
2F4
  8
DATA
  6
CONTINUOUS
 62
     7
 10
14.933920217074951
 20
78.450000000000031
 30
0.0
 11
17.933920217074949
 21
78.450000000000031
 31
0.0
  0
LINE
  5
2F5
  8
DATA
  6
CONTINUOUS
 62
     7
 10
17.933920217074949
 20
75.049999999999955
 30
0.0
 11
17.933920217074949
 21
78.450000000000031
 31
0.0
  0
LINE
  5
2F6
  8
DATA
  6
CONTINUOUS
 62
     7
 10
14.933920217074951
 20
75.049999999999955
 30
0.0
 11
14.933920217074951
 21
78.450000000000031
 31
0.0
  0
CIRCLE
  5
2F7
  8
DATA
  6
CONTINUOUS
 62
     7
 10
16.433920217074949
 20
76.75
 30
0.0
 40
0.5
  0
LINE
  5
2F8
  8
DATA
  6
CONTINUOUS
 62
     7
 10
21.68392021707497
 20
73.549999999999955
 30
0.0
 11
20.983920217075141
 21
75.049999999999955
 31
0.0
  0
LINE
  5
2F9
  8
DATA
  6
CONTINUOUS
 62
     7
 10
19.433920217074959
 20
75.049999999999955
 30
0.0
 11
18.683920217074959
 21
73.549999999999955
 31
0.0
  0
LINE
  5
2FA
  8
DATA
  6
CONTINUOUS
 62
     7
 10
19.433920217074959
 20
75.049999999999955
 30
0.0
 11
18.683920217074959
 21
75.049999999999955
 31
0.0
  0
LINE
  5
2FB
  8
DATA
  6
CONTINUOUS
 62
     7
 10
20.983920217075141
 20
75.049999999999955
 30
0.0
 11
21.68392021707497
 21
75.049999999999955
 31
0.0
  0
LINE
  5
2FC
  8
DATA
  6
CONTINUOUS
 62
     7
 10
21.68392021707497
 20
73.549999999999955
 30
0.0
 11
18.683920217074959
 21
73.549999999999955
 31
0.0
  0
LINE
  5
2FD
  8
DATA
  6
CONTINUOUS
 62
     7
 10
21.68392021707497
 20
78.450000000000031
 30
0.0
 11
18.683920217074959
 21
78.450000000000031
 31
0.0
  0
LINE
  5
2FE
  8
DATA
  6
CONTINUOUS
 62
     7
 10
18.683920217074959
 20
75.049999999999955
 30
0.0
 11
18.683920217074959
 21
78.450000000000031
 31
0.0
  0
LINE
  5
2FF
  8
DATA
  6
CONTINUOUS
 62
     7
 10
21.68392021707497
 20
75.049999999999955
 30
0.0
 11
21.68392021707497
 21
78.450000000000031
 31
0.0
  0
CIRCLE
  5
300
  8
DATA
  6
CONTINUOUS
 62
     7
 10
20.183920217074959
 20
76.75
 30
0.0
 40
0.5
  0
LINE
  5
301
  8
DATA
  6
CONTINUOUS
 62
     7
 10
-34.732159566025082
 20
79.5
 30
0.0
 11
-34.732159566025082
 21
72.5
 31
0.0
  0
LINE
  5
302
  8
DATA
  6
CONTINUOUS
 62
     7
 10
-22.232159566025079
 20
79.5
 30
0.0
 11
-34.732159566025082
 21
79.5
 31
0.0
  0
LINE
  5
303
  8
DATA
  6
CONTINUOUS
 62
     7
 10
-22.232159566025079
 20
72.5
 30
0.0
 11
-22.232159566025079
 21
79.5
 31
0.0
  0
LINE
  5
304
  8
DATA
  6
CONTINUOUS
 62
     7
 10
-34.732159566025082
 20
72.5
 30
0.0
 11
-22.232159566025079
 21
72.5
 31
0.0
  0
LINE
  5
305
  8
DATA
  6
CONTINUOUS
 62
     7
 10
-23.232159566025079
 20
73.549999999999955
 30
0.0
 11
-23.93215956602489
 21
75.049999999999955
 31
0.0
  0
LINE
  5
306
  8
DATA
  6
CONTINUOUS
 62
     7
 10
-25.482159566025079
 20
75.049999999999955
 30
0.0
 11
-26.232159566025071
 21
73.549999999999955
 31
0.0
  0
LINE
  5
307
  8
DATA
  6
CONTINUOUS
 62
     7
 10
-25.482159566025079
 20
75.049999999999955
 30
0.0
 11
-26.232159566025071
 21
75.049999999999955
 31
0.0
  0
LINE
  5
308
  8
DATA
  6
CONTINUOUS
 62
     7
 10
-23.93215956602489
 20
75.049999999999955
 30
0.0
 11
-23.232159566025079
 21
75.049999999999955
 31
0.0
  0
LINE
  5
309
  8
DATA
  6
CONTINUOUS
 62
     7
 10
-23.232159566025079
 20
73.549999999999955
 30
0.0
 11
-26.232159566025071
 21
73.549999999999955
 31
0.0
  0
LINE
  5
30A
  8
DATA
  6
CONTINUOUS
 62
     7
 10
-23.232159566025079
 20
78.450000000000031
 30
0.0
 11
-26.232159566025071
 21
78.450000000000031
 31
0.0
  0
LINE
  5
30B
  8
DATA
  6
CONTINUOUS
 62
     7
 10
-26.232159566025071
 20
75.049999999999955
 30
0.0
 11
-26.232159566025071
 21
78.450000000000031
 31
0.0
  0
LINE
  5
30C
  8
DATA
  6
CONTINUOUS
 62
     7
 10
-23.232159566025079
 20
75.049999999999955
 30
0.0
 11
-23.232159566025079
 21
78.450000000000031
 31
0.0
  0
CIRCLE
  5
30D
  8
DATA
  6
CONTINUOUS
 62
     7
 10
-24.732159566025079
 20
76.75
 30
0.0
 40
0.5
  0
LINE
  5
30E
  8
DATA
  6
CONTINUOUS
 62
     7
 10
-26.982159566025079
 20
73.549999999999955
 30
0.0
 11
-27.68215956602489
 21
75.049999999999955
 31
0.0
  0
LINE
  5
30F
  8
DATA
  6
CONTINUOUS
 62
     7
 10
-29.232159566025079
 20
75.049999999999955
 30
0.0
 11
-29.982159566025071
 21
73.549999999999955
 31
0.0
  0
LINE
  5
310
  8
DATA
  6
CONTINUOUS
 62
     7
 10
-29.232159566025079
 20
75.049999999999955
 30
0.0
 11
-29.982159566025071
 21
75.049999999999955
 31
0.0
  0
LINE
  5
311
  8
DATA
  6
CONTINUOUS
 62
     7
 10
-27.68215956602489
 20
75.049999999999955
 30
0.0
 11
-26.982159566025079
 21
75.049999999999955
 31
0.0
  0
LINE
  5
312
  8
DATA
  6
CONTINUOUS
 62
     7
 10
-26.982159566025079
 20
73.549999999999955
 30
0.0
 11
-29.982159566025071
 21
73.549999999999955
 31
0.0
  0
LINE
  5
313
  8
DATA
  6
CONTINUOUS
 62
     7
 10
-26.982159566025079
 20
78.450000000000031
 30
0.0
 11
-29.982159566025071
 21
78.450000000000031
 31
0.0
  0
LINE
  5
314
  8
DATA
  6
CONTINUOUS
 62
     7
 10
-29.982159566025071
 20
75.049999999999955
 30
0.0
 11
-29.982159566025071
 21
78.450000000000031
 31
0.0
  0
LINE
  5
315
  8
DATA
  6
CONTINUOUS
 62
     7
 10
-26.982159566025079
 20
75.049999999999955
 30
0.0
 11
-26.982159566025079
 21
78.450000000000031
 31
0.0
  0
CIRCLE
  5
316
  8
DATA
  6
CONTINUOUS
 62
     7
 10
-28.482159566025079
 20
76.75
 30
0.0
 40
0.5
  0
LINE
  5
317
  8
DATA
  6
CONTINUOUS
 62
     7
 10
-33.732159566025068
 20
73.549999999999955
 30
0.0
 11
-33.03215956602525
 21
75.049999999999955
 31
0.0
  0
LINE
  5
318
  8
DATA
  6
CONTINUOUS
 62
     7
 10
-31.482159566025079
 20
75.049999999999955
 30
0.0
 11
-30.732159566025079
 21
73.549999999999955
 31
0.0
  0
LINE
  5
319
  8
DATA
  6
CONTINUOUS
 62
     7
 10
-31.482159566025079
 20
75.049999999999955
 30
0.0
 11
-30.732159566025079
 21
75.049999999999955
 31
0.0
  0
LINE
  5
31A
  8
DATA
  6
CONTINUOUS
 62
     7
 10
-33.03215956602525
 20
75.049999999999955
 30
0.0
 11
-33.732159566025068
 21
75.049999999999955
 31
0.0
  0
LINE
  5
31B
  8
DATA
  6
CONTINUOUS
 62
     7
 10
-33.732159566025068
 20
73.549999999999955
 30
0.0
 11
-30.732159566025079
 21
73.549999999999955
 31
0.0
  0
LINE
  5
31C
  8
DATA
  6
CONTINUOUS
 62
     7
 10
-33.732159566025068
 20
78.450000000000031
 30
0.0
 11
-30.732159566025079
 21
78.450000000000031
 31
0.0
  0
LINE
  5
31D
  8
DATA
  6
CONTINUOUS
 62
     7
 10
-30.732159566025079
 20
75.049999999999955
 30
0.0
 11
-30.732159566025079
 21
78.450000000000031
 31
0.0
  0
LINE
  5
31E
  8
DATA
  6
CONTINUOUS
 62
     7
 10
-33.732159566025068
 20
75.049999999999955
 30
0.0
 11
-33.732159566025068
 21
78.450000000000031
 31
0.0
  0
CIRCLE
  5
31F
  8
DATA
  6
CONTINUOUS
 62
     7
 10
-32.232159566025082
 20
76.75
 30
0.0
 40
0.5
  0
LINE
  5
320
  8
DATA
  6
CONTINUOUS
 62
     7
 10
12.683920217074951
 20
72.0
 30
0.0
 11
12.683920217074951
 21
70.0
 31
0.0
  0
LINE
  5
321
  8
DATA
  6
CONTINUOUS
 62
     7
 10
13.683920217074951
 20
72.0
 30
0.0
 11
11.683920217074951
 21
72.0
 31
0.0
  0
LINE
  5
322
  8
DATA
  6
CONTINUOUS
 62
     7
 10
-32.232159566025082
 20
72.0
 30
0.0
 11
-32.232159566025082
 21
70.0
 31
0.0
  0
LINE
  5
323
  8
DATA
  6
CONTINUOUS
 62
     7
 10
-31.232159566025071
 20
72.0
 30
0.0
 11
-33.232159566025082
 21
72.0
 31
0.0
  0
LINE
  5
324
  8
DATA
  6
CONTINUOUS
 62
     7
 10
-32.232159566025082
 20
73.549999999999955
 30
0.0
 11
-32.232159566025082
 21
72.5
 31
0.0
  0
CIRCLE
  5
325
  8
DATA
  6
CONTINUOUS
 62
     7
 10
0.4758803255249405
 20
53.5
 30
0.0
 40
2.9999999999998792
  0
LINE
  5
326
  8
DATA
  6
CONTINUOUS
 62
     7
 10
3.433920217074955
 20
53.0
 30
0.0
 11
-2.482159566025075
 21
53.0
 31
0.0
  0
LINE
  5
327
  8
DATA
  6
CONTINUOUS
 62
     7
 10
3.433920217074955
 20
54.0
 30
0.0
 11
-2.482159566025075
 21
54.0
 31
0.0
  0
CIRCLE
  5
328
  8
DATA
  6
CONTINUOUS
 62
     7
 10
-12.52411967447506
 20
53.5
 30
0.0
 40
2.9999999999998792
  0
LINE
  5
329
  8
DATA
  6
CONTINUOUS
 62
     7
 10
-9.5660797829250424
 20
53.0
 30
0.0
 11
-15.48215956602507
 21
53.0
 31
0.0
  0
LINE
  5
32A
  8
DATA
  6
CONTINUOUS
 62
     7
 10
-9.5660797829250424
 20
54.0
 30
0.0
 11
-15.48215956602507
 21
54.0
 31
0.0
  0
LINE
  5
32B
  8
DATA
  6
CONTINUOUS
 62
     7
 10
-3.52411967447506
 20
58.0
 30
0.0
 11
-3.52411967447506
 21
55.5
 31
0.0
  0
LINE
  5
32C
  8
DATA
  6
CONTINUOUS
 62
     7
 10
-4.0241196744750587
 20
57.5
 30
0.0
 11
-4.0241196744750587
 21
56.0
 31
0.0
  0
LINE
  5
32D
  8
DATA
  6
CONTINUOUS
 62
     7
 10
-8.5241196744750596
 20
58.0
 30
0.0
 11
-3.52411967447506
 21
58.0
 31
0.0
  0
LINE
  5
32E
  8
DATA
  6
CONTINUOUS
 62
     7
 10
-8.0241196744750596
 20
57.5
 30
0.0
 11
-4.0241196744750587
 21
57.5
 31
0.0
  0
LINE
  5
32F
  8
DATA
  6
CONTINUOUS
 62
     7
 10
-8.5241196744750596
 20
55.5
 30
0.0
 11
-8.5241196744750596
 21
58.0
 31
0.0
  0
LINE
  5
330
  8
DATA
  6
CONTINUOUS
 62
     7
 10
-8.0241196744750596
 20
56.0
 30
0.0
 11
-8.0241196744750596
 21
57.5
 31
0.0
  0
LINE
  5
331
  8
DATA
  6
CONTINUOUS
 62
     7
 10
-3.52411967447506
 20
55.5
 30
0.0
 11
-8.5241196744750596
 21
55.5
 31
0.0
  0
LINE
  5
332
  8
DATA
  6
CONTINUOUS
 62
     7
 10
-3.52411967447506
 20
55.5
 30
0.0
 11
-8.5241196744750596
 21
55.5
 31
0.0
  0
LINE
  5
333
  8
DATA
  6
CONTINUOUS
 62
     7
 10
-4.0241196744750587
 20
56.0
 30
0.0
 11
-8.0241196744750596
 21
56.0
 31
0.0
  0
POLYLINE
  5
334
  8
DATA
  6
CONTINUOUS
 62
     7
 66
     1
 10
0.0
 20
0.0
 30
0.0
 70
     1
  0
VERTEX
  5
9D3
  8
DATA
  6
CONTINUOUS
 62
     7
 10
-7.9341196744749132
 20
57.5
 30
0.0
  0
VERTEX
  5
9D4
  8
DATA
  6
CONTINUOUS
 62
     7
 10
-6.4341196744749132
 20
57.5
 30
0.0
  0
VERTEX
  5
9D5
  8
DATA
  6
CONTINUOUS
 62
     7
 10
-6.4341196744749132
 20
56.0
 30
0.0
  0
VERTEX
  5
9D6
  8
DATA
  6
CONTINUOUS
 62
     7
 10
-7.9341196744749132
 20
56.0
 30
0.0
  0
SEQEND
  5
9D7
  8
DATA
  6
CONTINUOUS
 62
     7
  0
LINE
  5
33B
  8
DATA
  6
CONTINUOUS
 62
     7
 10
2.47588032552494
 20
49.500000000000227
 30
0.0
 11
-1.5241196744750589
 21
49.500000000000227
 31
0.0
  0
LINE
  5
33C
  8
DATA
  6
CONTINUOUS
 62
     7
 10
-1.5241196744750589
 20
49.500000000000227
 30
0.0
 11
-1.5241196744750589
 21
48.00000000000022
 31
0.0
  0
LINE
  5
33D
  8
DATA
  6
CONTINUOUS
 62
     7
 10
-1.5241196744750589
 20
48.00000000000022
 30
0.0
 11
2.47588032552494
 21
49.500000000000227
 31
0.0
  0
LINE
  5
33E
  8
DATA
  6
CONTINUOUS
 62
     7
 10
-10.52411967447506
 20
49.500000000000227
 30
0.0
 11
-14.52411967447506
 21
49.500000000000227
 31
0.0
  0
LINE
  5
33F
  8
DATA
  6
CONTINUOUS
 62
     7
 10
-14.52411967447506
 20
49.500000000000227
 30
0.0
 11
-14.52411967447506
 21
48.00000000000022
 31
0.0
  0
LINE
  5
340
  8
DATA
  6
CONTINUOUS
 62
     7
 10
-14.52411967447506
 20
48.00000000000022
 30
0.0
 11
-10.52411967447506
 21
49.500000000000227
 31
0.0
  0
LINE
  5
341
  8
DATA
  6
CONTINUOUS
 62
     7
 10
-6.0241196744750587
 20
58.0
 30
0.0
 11
-6.0241196744750587
 21
62.000000000000227
 31
0.0
  0
LINE
  5
342
  8
DATA
  6
CONTINUOUS
 62
     7
 10
9.8952450824799616
 20
62.000000000000227
 30
0.0
 11
-21.943484431430079
 21
62.000000000000227
 31
0.0
  0
LINE
  5
343
  8
DATA
  6
CONTINUOUS
 62
     7
 10
9.8952450824799616
 20
62.000000000000227
 30
0.0
 11
10.183920217074951
 21
61.5
 31
0.0
  0
LINE
  5
344
  8
DATA
  6
CONTINUOUS
 62
     7
 10
-21.943484431430079
 20
62.000000000000227
 30
0.0
 11
-22.232159566025079
 21
61.5
 31
0.0
  0
LINE
  5
345
  8
DATA
  6
CONTINUOUS
 62
     7
 10
22.683920217074959
 20
61.5
 30
0.0
 11
22.683920217074959
 21
54.5
 31
0.0
  0
LINE
  5
346
  8
DATA
  6
CONTINUOUS
 62
     7
 10
10.183920217074951
 20
61.5
 30
0.0
 11
22.683920217074959
 21
61.5
 31
0.0
  0
LINE
  5
347
  8
DATA
  6
CONTINUOUS
 62
     7
 10
10.183920217074951
 20
54.5
 30
0.0
 11
10.183920217074951
 21
61.5
 31
0.0
  0
LINE
  5
348
  8
DATA
  6
CONTINUOUS
 62
     7
 10
22.683920217074959
 20
54.5
 30
0.0
 11
10.183920217074951
 21
54.5
 31
0.0
  0
LINE
  5
349
  8
DATA
  6
CONTINUOUS
 62
     7
 10
11.183920217074959
 20
55.549999999999962
 30
0.0
 11
11.88392021707477
 21
57.049999999999962
 31
0.0
  0
LINE
  5
34A
  8
DATA
  6
CONTINUOUS
 62
     7
 10
13.433920217074951
 20
57.049999999999962
 30
0.0
 11
14.183920217074951
 21
55.549999999999962
 31
0.0
  0
LINE
  5
34B
  8
DATA
  6
CONTINUOUS
 62
     7
 10
13.433920217074951
 20
57.049999999999962
 30
0.0
 11
14.183920217074951
 21
57.049999999999962
 31
0.0
  0
LINE
  5
34C
  8
DATA
  6
CONTINUOUS
 62
     7
 10
11.88392021707477
 20
57.049999999999962
 30
0.0
 11
11.183920217074959
 21
57.049999999999962
 31
0.0
  0
LINE
  5
34D
  8
DATA
  6
CONTINUOUS
 62
     7
 10
11.183920217074959
 20
55.549999999999962
 30
0.0
 11
14.183920217074951
 21
55.549999999999962
 31
0.0
  0
LINE
  5
34E
  8
DATA
  6
CONTINUOUS
 62
     7
 10
11.183920217074959
 20
60.450000000000053
 30
0.0
 11
14.183920217074951
 21
60.450000000000053
 31
0.0
  0
LINE
  5
34F
  8
DATA
  6
CONTINUOUS
 62
     7
 10
14.183920217074951
 20
57.049999999999962
 30
0.0
 11
14.183920217074951
 21
60.450000000000053
 31
0.0
  0
LINE
  5
350
  8
DATA
  6
CONTINUOUS
 62
     7
 10
11.183920217074959
 20
57.049999999999962
 30
0.0
 11
11.183920217074959
 21
60.450000000000053
 31
0.0
  0
CIRCLE
  5
351
  8
DATA
  6
CONTINUOUS
 62
     7
 10
12.683920217074951
 20
58.75
 30
0.0
 40
0.5
  0
LINE
  5
352
  8
DATA
  6
CONTINUOUS
 62
     7
 10
14.933920217074951
 20
55.549999999999962
 30
0.0
 11
15.63392021707477
 21
57.049999999999962
 31
0.0
  0
LINE
  5
353
  8
DATA
  6
CONTINUOUS
 62
     7
 10
17.183920217074949
 20
57.049999999999962
 30
0.0
 11
17.933920217074949
 21
55.549999999999962
 31
0.0
  0
LINE
  5
354
  8
DATA
  6
CONTINUOUS
 62
     7
 10
17.183920217074949
 20
57.049999999999962
 30
0.0
 11
17.933920217074949
 21
57.049999999999962
 31
0.0
  0
LINE
  5
355
  8
DATA
  6
CONTINUOUS
 62
     7
 10
15.63392021707477
 20
57.049999999999962
 30
0.0
 11
14.933920217074951
 21
57.049999999999962
 31
0.0
  0
LINE
  5
356
  8
DATA
  6
CONTINUOUS
 62
     7
 10
14.933920217074951
 20
55.549999999999962
 30
0.0
 11
17.933920217074949
 21
55.549999999999962
 31
0.0
  0
LINE
  5
357
  8
DATA
  6
CONTINUOUS
 62
     7
 10
14.933920217074951
 20
60.450000000000053
 30
0.0
 11
17.933920217074949
 21
60.450000000000053
 31
0.0
  0
LINE
  5
358
  8
DATA
  6
CONTINUOUS
 62
     7
 10
17.933920217074949
 20
57.049999999999962
 30
0.0
 11
17.933920217074949
 21
60.450000000000053
 31
0.0
  0
LINE
  5
359
  8
DATA
  6
CONTINUOUS
 62
     7
 10
14.933920217074951
 20
57.049999999999962
 30
0.0
 11
14.933920217074951
 21
60.450000000000053
 31
0.0
  0
CIRCLE
  5
35A
  8
DATA
  6
CONTINUOUS
 62
     7
 10
16.433920217074949
 20
58.75
 30
0.0
 40
0.5
  0
LINE
  5
35B
  8
DATA
  6
CONTINUOUS
 62
     7
 10
21.68392021707497
 20
55.549999999999962
 30
0.0
 11
20.983920217075141
 21
57.049999999999962
 31
0.0
  0
LINE
  5
35C
  8
DATA
  6
CONTINUOUS
 62
     7
 10
19.433920217074959
 20
57.049999999999962
 30
0.0
 11
18.683920217074959
 21
55.549999999999962
 31
0.0
  0
LINE
  5
35D
  8
DATA
  6
CONTINUOUS
 62
     7
 10
19.433920217074959
 20
57.049999999999962
 30
0.0
 11
18.683920217074959
 21
57.049999999999962
 31
0.0
  0
LINE
  5
35E
  8
DATA
  6
CONTINUOUS
 62
     7
 10
20.983920217075141
 20
57.049999999999962
 30
0.0
 11
21.68392021707497
 21
57.049999999999962
 31
0.0
  0
LINE
  5
35F
  8
DATA
  6
CONTINUOUS
 62
     7
 10
21.68392021707497
 20
55.549999999999962
 30
0.0
 11
18.683920217074959
 21
55.549999999999962
 31
0.0
  0
LINE
  5
360
  8
DATA
  6
CONTINUOUS
 62
     7
 10
21.68392021707497
 20
60.450000000000053
 30
0.0
 11
18.683920217074959
 21
60.450000000000053
 31
0.0
  0
LINE
  5
361
  8
DATA
  6
CONTINUOUS
 62
     7
 10
18.683920217074959
 20
57.049999999999962
 30
0.0
 11
18.683920217074959
 21
60.450000000000053
 31
0.0
  0
LINE
  5
362
  8
DATA
  6
CONTINUOUS
 62
     7
 10
21.68392021707497
 20
57.049999999999962
 30
0.0
 11
21.68392021707497
 21
60.450000000000053
 31
0.0
  0
CIRCLE
  5
363
  8
DATA
  6
CONTINUOUS
 62
     7
 10
20.183920217074959
 20
58.75
 30
0.0
 40
0.5
  0
LINE
  5
364
  8
DATA
  6
CONTINUOUS
 62
     7
 10
-34.732159566025082
 20
61.5
 30
0.0
 11
-34.732159566025082
 21
54.5
 31
0.0
  0
LINE
  5
365
  8
DATA
  6
CONTINUOUS
 62
     7
 10
-22.232159566025079
 20
61.5
 30
0.0
 11
-34.732159566025082
 21
61.5
 31
0.0
  0
LINE
  5
366
  8
DATA
  6
CONTINUOUS
 62
     7
 10
-22.232159566025079
 20
54.5
 30
0.0
 11
-22.232159566025079
 21
61.5
 31
0.0
  0
LINE
  5
367
  8
DATA
  6
CONTINUOUS
 62
     7
 10
-34.732159566025082
 20
54.5
 30
0.0
 11
-22.232159566025079
 21
54.5
 31
0.0
  0
LINE
  5
368
  8
DATA
  6
CONTINUOUS
 62
     7
 10
-23.232159566025079
 20
55.549999999999962
 30
0.0
 11
-23.93215956602489
 21
57.049999999999962
 31
0.0
  0
LINE
  5
369
  8
DATA
  6
CONTINUOUS
 62
     7
 10
-25.482159566025079
 20
57.049999999999962
 30
0.0
 11
-26.232159566025071
 21
55.549999999999962
 31
0.0
  0
LINE
  5
36A
  8
DATA
  6
CONTINUOUS
 62
     7
 10
-25.482159566025079
 20
57.049999999999962
 30
0.0
 11
-26.232159566025071
 21
57.049999999999962
 31
0.0
  0
LINE
  5
36B
  8
DATA
  6
CONTINUOUS
 62
     7
 10
-23.93215956602489
 20
57.049999999999962
 30
0.0
 11
-23.232159566025079
 21
57.049999999999962
 31
0.0
  0
LINE
  5
36C
  8
DATA
  6
CONTINUOUS
 62
     7
 10
-23.232159566025079
 20
55.549999999999962
 30
0.0
 11
-26.232159566025071
 21
55.549999999999962
 31
0.0
  0
LINE
  5
36D
  8
DATA
  6
CONTINUOUS
 62
     7
 10
-23.232159566025079
 20
60.450000000000053
 30
0.0
 11
-26.232159566025071
 21
60.450000000000053
 31
0.0
  0
LINE
  5
36E
  8
DATA
  6
CONTINUOUS
 62
     7
 10
-26.232159566025071
 20
57.049999999999962
 30
0.0
 11
-26.232159566025071
 21
60.450000000000053
 31
0.0
  0
LINE
  5
36F
  8
DATA
  6
CONTINUOUS
 62
     7
 10
-23.232159566025079
 20
57.049999999999962
 30
0.0
 11
-23.232159566025079
 21
60.450000000000053
 31
0.0
  0
CIRCLE
  5
370
  8
DATA
  6
CONTINUOUS
 62
     7
 10
-24.732159566025079
 20
58.75
 30
0.0
 40
0.5
  0
LINE
  5
371
  8
DATA
  6
CONTINUOUS
 62
     7
 10
-26.982159566025079
 20
55.549999999999962
 30
0.0
 11
-27.68215956602489
 21
57.049999999999962
 31
0.0
  0
LINE
  5
372
  8
DATA
  6
CONTINUOUS
 62
     7
 10
-29.232159566025079
 20
57.049999999999962
 30
0.0
 11
-29.982159566025071
 21
55.549999999999962
 31
0.0
  0
LINE
  5
373
  8
DATA
  6
CONTINUOUS
 62
     7
 10
-29.232159566025079
 20
57.049999999999962
 30
0.0
 11
-29.982159566025071
 21
57.049999999999962
 31
0.0
  0
LINE
  5
374
  8
DATA
  6
CONTINUOUS
 62
     7
 10
-27.68215956602489
 20
57.049999999999962
 30
0.0
 11
-26.982159566025079
 21
57.049999999999962
 31
0.0
  0
LINE
  5
375
  8
DATA
  6
CONTINUOUS
 62
     7
 10
-26.982159566025079
 20
55.549999999999962
 30
0.0
 11
-29.982159566025071
 21
55.549999999999962
 31
0.0
  0
LINE
  5
376
  8
DATA
  6
CONTINUOUS
 62
     7
 10
-26.982159566025079
 20
60.450000000000053
 30
0.0
 11
-29.982159566025071
 21
60.450000000000053
 31
0.0
  0
LINE
  5
377
  8
DATA
  6
CONTINUOUS
 62
     7
 10
-29.982159566025071
 20
57.049999999999962
 30
0.0
 11
-29.982159566025071
 21
60.450000000000053
 31
0.0
  0
LINE
  5
378
  8
DATA
  6
CONTINUOUS
 62
     7
 10
-26.982159566025079
 20
57.049999999999962
 30
0.0
 11
-26.982159566025079
 21
60.450000000000053
 31
0.0
  0
CIRCLE
  5
379
  8
DATA
  6
CONTINUOUS
 62
     7
 10
-28.482159566025079
 20
58.75
 30
0.0
 40
0.5
  0
LINE
  5
37A
  8
DATA
  6
CONTINUOUS
 62
     7
 10
-33.732159566025068
 20
55.549999999999962
 30
0.0
 11
-33.03215956602525
 21
57.049999999999962
 31
0.0
  0
LINE
  5
37B
  8
DATA
  6
CONTINUOUS
 62
     7
 10
-31.482159566025079
 20
57.049999999999962
 30
0.0
 11
-30.732159566025079
 21
55.549999999999962
 31
0.0
  0
LINE
  5
37C
  8
DATA
  6
CONTINUOUS
 62
     7
 10
-31.482159566025079
 20
57.049999999999962
 30
0.0
 11
-30.732159566025079
 21
57.049999999999962
 31
0.0
  0
LINE
  5
37D
  8
DATA
  6
CONTINUOUS
 62
     7
 10
-33.03215956602525
 20
57.049999999999962
 30
0.0
 11
-33.732159566025068
 21
57.049999999999962
 31
0.0
  0
LINE
  5
37E
  8
DATA
  6
CONTINUOUS
 62
     7
 10
-33.732159566025068
 20
55.549999999999962
 30
0.0
 11
-30.732159566025079
 21
55.549999999999962
 31
0.0
  0
LINE
  5
37F
  8
DATA
  6
CONTINUOUS
 62
     7
 10
-33.732159566025068
 20
60.450000000000053
 30
0.0
 11
-30.732159566025079
 21
60.450000000000053
 31
0.0
  0
LINE
  5
380
  8
DATA
  6
CONTINUOUS
 62
     7
 10
-30.732159566025079
 20
57.049999999999962
 30
0.0
 11
-30.732159566025079
 21
60.450000000000053
 31
0.0
  0
LINE
  5
381
  8
DATA
  6
CONTINUOUS
 62
     7
 10
-33.732159566025068
 20
57.049999999999962
 30
0.0
 11
-33.732159566025068
 21
60.450000000000053
 31
0.0
  0
CIRCLE
  5
382
  8
DATA
  6
CONTINUOUS
 62
     7
 10
-32.232159566025082
 20
58.75
 30
0.0
 40
0.5
  0
LINE
  5
383
  8
DATA
  6
CONTINUOUS
 62
     7
 10
12.683920217074951
 20
54.0
 30
0.0
 11
12.683920217074951
 21
52.0
 31
0.0
  0
LINE
  5
384
  8
DATA
  6
CONTINUOUS
 62
     7
 10
13.683920217074951
 20
54.0
 30
0.0
 11
11.683920217074951
 21
54.0
 31
0.0
  0
LINE
  5
385
  8
DATA
  6
CONTINUOUS
 62
     7
 10
-32.232159566025082
 20
54.0
 30
0.0
 11
-32.232159566025082
 21
52.0
 31
0.0
  0
LINE
  5
386
  8
DATA
  6
CONTINUOUS
 62
     7
 10
-31.232159566025071
 20
54.0
 30
0.0
 11
-33.232159566025082
 21
54.0
 31
0.0
  0
CIRCLE
  5
387
  8
DATA
  6
CONTINUOUS
 62
     7
 10
-67.94019945757509
 20
71.5
 30
0.0
 40
2.9999999999998792
  0
LINE
  5
388
  8
DATA
  6
CONTINUOUS
 62
     7
 10
-64.982159566025075
 20
71.0
 30
0.0
 11
-70.898239349125106
 21
71.0
 31
0.0
  0
LINE
  5
389
  8
DATA
  6
CONTINUOUS
 62
     7
 10
-64.982159566025075
 20
72.0
 30
0.0
 11
-70.898239349125106
 21
72.0
 31
0.0
  0
CIRCLE
  5
38A
  8
DATA
  6
CONTINUOUS
 62
     7
 10
-80.94019945757509
 20
71.5
 30
0.0
 40
2.9999999999998792
  0
LINE
  5
38B
  8
DATA
  6
CONTINUOUS
 62
     7
 10
-77.982159566025061
 20
71.0
 30
0.0
 11
-83.898239349125092
 21
71.0
 31
0.0
  0
LINE
  5
38C
  8
DATA
  6
CONTINUOUS
 62
     7
 10
-77.982159566025061
 20
72.0
 30
0.0
 11
-83.898239349125092
 21
72.0
 31
0.0
  0
LINE
  5
38D
  8
DATA
  6
CONTINUOUS
 62
     7
 10
-71.94019945757509
 20
76.0
 30
0.0
 11
-71.94019945757509
 21
73.5
 31
0.0
  0
LINE
  5
38E
  8
DATA
  6
CONTINUOUS
 62
     7
 10
-72.44019945757509
 20
75.5
 30
0.0
 11
-72.44019945757509
 21
74.0
 31
0.0
  0
LINE
  5
38F
  8
DATA
  6
CONTINUOUS
 62
     7
 10
-76.94019945757509
 20
76.0
 30
0.0
 11
-71.94019945757509
 21
76.0
 31
0.0
  0
LINE
  5
390
  8
DATA
  6
CONTINUOUS
 62
     7
 10
-76.44019945757509
 20
75.5
 30
0.0
 11
-72.44019945757509
 21
75.5
 31
0.0
  0
LINE
  5
391
  8
DATA
  6
CONTINUOUS
 62
     7
 10
-76.94019945757509
 20
73.5
 30
0.0
 11
-76.94019945757509
 21
76.0
 31
0.0
  0
LINE
  5
392
  8
DATA
  6
CONTINUOUS
 62
     7
 10
-76.44019945757509
 20
74.0
 30
0.0
 11
-76.44019945757509
 21
75.5
 31
0.0
  0
LINE
  5
393
  8
DATA
  6
CONTINUOUS
 62
     7
 10
-71.94019945757509
 20
73.5
 30
0.0
 11
-76.94019945757509
 21
73.5
 31
0.0
  0
LINE
  5
394
  8
DATA
  6
CONTINUOUS
 62
     7
 10
-71.94019945757509
 20
73.5
 30
0.0
 11
-76.94019945757509
 21
73.5
 31
0.0
  0
LINE
  5
395
  8
DATA
  6
CONTINUOUS
 62
     7
 10
-72.44019945757509
 20
74.0
 30
0.0
 11
-76.44019945757509
 21
74.0
 31
0.0
  0
POLYLINE
  5
396
  8
DATA
  6
CONTINUOUS
 62
     7
 66
     1
 10
0.0
 20
0.0
 30
0.0
 70
     1
  0
VERTEX
  5
9D8
  8
DATA
  6
CONTINUOUS
 62
     7
 10
-76.350199457574945
 20
75.5
 30
0.0
  0
VERTEX
  5
9D9
  8
DATA
  6
CONTINUOUS
 62
     7
 10
-74.850199457574945
 20
75.5
 30
0.0
  0
VERTEX
  5
9DA
  8
DATA
  6
CONTINUOUS
 62
     7
 10
-74.850199457574945
 20
74.0
 30
0.0
  0
VERTEX
  5
9DB
  8
DATA
  6
CONTINUOUS
 62
     7
 10
-76.350199457574945
 20
74.0
 30
0.0
  0
SEQEND
  5
9DC
  8
DATA
  6
CONTINUOUS
 62
     7
  0
LINE
  5
39D
  8
DATA
  6
CONTINUOUS
 62
     7
 10
-65.94019945757509
 20
67.500000000000227
 30
0.0
 11
-69.94019945757509
 21
67.500000000000227
 31
0.0
  0
LINE
  5
39E
  8
DATA
  6
CONTINUOUS
 62
     7
 10
-69.94019945757509
 20
67.500000000000227
 30
0.0
 11
-69.94019945757509
 21
66.000000000000213
 31
0.0
  0
LINE
  5
39F
  8
DATA
  6
CONTINUOUS
 62
     7
 10
-69.94019945757509
 20
66.000000000000213
 30
0.0
 11
-65.94019945757509
 21
67.500000000000227
 31
0.0
  0
LINE
  5
3A0
  8
DATA
  6
CONTINUOUS
 62
     7
 10
-78.94019945757509
 20
67.500000000000227
 30
0.0
 11
-82.940199457575105
 21
67.500000000000227
 31
0.0
  0
LINE
  5
3A1
  8
DATA
  6
CONTINUOUS
 62
     7
 10
-82.940199457575105
 20
67.500000000000227
 30
0.0
 11
-82.940199457575105
 21
66.000000000000213
 31
0.0
  0
LINE
  5
3A2
  8
DATA
  6
CONTINUOUS
 62
     7
 10
-82.940199457575105
 20
66.000000000000213
 30
0.0
 11
-78.94019945757509
 21
67.500000000000227
 31
0.0
  0
LINE
  5
3A3
  8
DATA
  6
CONTINUOUS
 62
     7
 10
-74.44019945757509
 20
76.0
 30
0.0
 11
-74.44019945757509
 21
80.000000000000213
 31
0.0
  0
LINE
  5
3A4
  8
DATA
  6
CONTINUOUS
 62
     7
 10
-58.520834700620071
 20
80.000000000000213
 30
0.0
 11
-90.359564214530124
 21
80.000000000000213
 31
0.0
  0
LINE
  5
3A5
  8
DATA
  6
CONTINUOUS
 62
     7
 10
-58.520834700620071
 20
80.000000000000213
 30
0.0
 11
-58.232159566025068
 21
79.5
 31
0.0
  0
LINE
  5
3A6
  8
DATA
  6
CONTINUOUS
 62
     7
 10
-90.359564214530124
 20
80.000000000000213
 30
0.0
 11
-90.648239349125106
 21
79.5
 31
0.0
  0
LINE
  5
3A7
  8
DATA
  6
CONTINUOUS
 62
     7
 10
-45.732159566025068
 20
79.5
 30
0.0
 11
-45.732159566025068
 21
72.5
 31
0.0
  0
LINE
  5
3A8
  8
DATA
  6
CONTINUOUS
 62
     7
 10
-58.232159566025068
 20
79.5
 30
0.0
 11
-45.732159566025068
 21
79.5
 31
0.0
  0
LINE
  5
3A9
  8
DATA
  6
CONTINUOUS
 62
     7
 10
-58.232159566025068
 20
72.5
 30
0.0
 11
-58.232159566025068
 21
79.5
 31
0.0
  0
LINE
  5
3AA
  8
DATA
  6
CONTINUOUS
 62
     7
 10
-45.732159566025068
 20
72.5
 30
0.0
 11
-58.232159566025068
 21
72.5
 31
0.0
  0
LINE
  5
3AB
  8
DATA
  6
CONTINUOUS
 62
     7
 10
-57.232159566025082
 20
73.549999999999955
 30
0.0
 11
-56.532159566025257
 21
75.049999999999955
 31
0.0
  0
LINE
  5
3AC
  8
DATA
  6
CONTINUOUS
 62
     7
 10
-54.982159566025068
 20
75.049999999999955
 30
0.0
 11
-54.232159566025082
 21
73.549999999999955
 31
0.0
  0
LINE
  5
3AD
  8
DATA
  6
CONTINUOUS
 62
     7
 10
-54.982159566025068
 20
75.049999999999955
 30
0.0
 11
-54.232159566025082
 21
75.049999999999955
 31
0.0
  0
LINE
  5
3AE
  8
DATA
  6
CONTINUOUS
 62
     7
 10
-56.532159566025257
 20
75.049999999999955
 30
0.0
 11
-57.232159566025082
 21
75.049999999999955
 31
0.0
  0
LINE
  5
3AF
  8
DATA
  6
CONTINUOUS
 62
     7
 10
-57.232159566025082
 20
73.549999999999955
 30
0.0
 11
-54.232159566025082
 21
73.549999999999955
 31
0.0
  0
LINE
  5
3B0
  8
DATA
  6
CONTINUOUS
 62
     7
 10
-57.232159566025082
 20
78.450000000000031
 30
0.0
 11
-54.232159566025082
 21
78.450000000000031
 31
0.0
  0
LINE
  5
3B1
  8
DATA
  6
CONTINUOUS
 62
     7
 10
-54.232159566025082
 20
75.049999999999955
 30
0.0
 11
-54.232159566025082
 21
78.450000000000031
 31
0.0
  0
LINE
  5
3B2
  8
DATA
  6
CONTINUOUS
 62
     7
 10
-57.232159566025082
 20
75.049999999999955
 30
0.0
 11
-57.232159566025082
 21
78.450000000000031
 31
0.0
  0
CIRCLE
  5
3B3
  8
DATA
  6
CONTINUOUS
 62
     7
 10
-55.732159566025068
 20
76.75
 30
0.0
 40
0.5
  0
LINE
  5
3B4
  8
DATA
  6
CONTINUOUS
 62
     7
 10
-53.482159566025082
 20
73.549999999999955
 30
0.0
 11
-52.782159566025257
 21
75.049999999999955
 31
0.0
  0
LINE
  5
3B5
  8
DATA
  6
CONTINUOUS
 62
     7
 10
-51.232159566025068
 20
75.049999999999955
 30
0.0
 11
-50.482159566025082
 21
73.549999999999955
 31
0.0
  0
LINE
  5
3B6
  8
DATA
  6
CONTINUOUS
 62
     7
 10
-51.232159566025068
 20
75.049999999999955
 30
0.0
 11
-50.482159566025082
 21
75.049999999999955
 31
0.0
  0
LINE
  5
3B7
  8
DATA
  6
CONTINUOUS
 62
     7
 10
-52.782159566025257
 20
75.049999999999955
 30
0.0
 11
-53.482159566025082
 21
75.049999999999955
 31
0.0
  0
LINE
  5
3B8
  8
DATA
  6
CONTINUOUS
 62
     7
 10
-53.482159566025082
 20
73.549999999999955
 30
0.0
 11
-50.482159566025082
 21
73.549999999999955
 31
0.0
  0
LINE
  5
3B9
  8
DATA
  6
CONTINUOUS
 62
     7
 10
-53.482159566025082
 20
78.450000000000031
 30
0.0
 11
-50.482159566025082
 21
78.450000000000031
 31
0.0
  0
LINE
  5
3BA
  8
DATA
  6
CONTINUOUS
 62
     7
 10
-50.482159566025082
 20
75.049999999999955
 30
0.0
 11
-50.482159566025082
 21
78.450000000000031
 31
0.0
  0
LINE
  5
3BB
  8
DATA
  6
CONTINUOUS
 62
     7
 10
-53.482159566025082
 20
75.049999999999955
 30
0.0
 11
-53.482159566025082
 21
78.450000000000031
 31
0.0
  0
CIRCLE
  5
3BC
  8
DATA
  6
CONTINUOUS
 62
     7
 10
-51.982159566025068
 20
76.75
 30
0.0
 40
0.5
  0
LINE
  5
3BD
  8
DATA
  6
CONTINUOUS
 62
     7
 10
-46.732159566025068
 20
73.549999999999955
 30
0.0
 11
-47.432159566024893
 21
75.049999999999955
 31
0.0
  0
LINE
  5
3BE
  8
DATA
  6
CONTINUOUS
 62
     7
 10
-48.982159566025068
 20
75.049999999999955
 30
0.0
 11
-49.732159566025082
 21
73.549999999999955
 31
0.0
  0
LINE
  5
3BF
  8
DATA
  6
CONTINUOUS
 62
     7
 10
-48.982159566025068
 20
75.049999999999955
 30
0.0
 11
-49.732159566025082
 21
75.049999999999955
 31
0.0
  0
LINE
  5
3C0
  8
DATA
  6
CONTINUOUS
 62
     7
 10
-47.432159566024893
 20
75.049999999999955
 30
0.0
 11
-46.732159566025068
 21
75.049999999999955
 31
0.0
  0
LINE
  5
3C1
  8
DATA
  6
CONTINUOUS
 62
     7
 10
-46.732159566025068
 20
73.549999999999955
 30
0.0
 11
-49.732159566025082
 21
73.549999999999955
 31
0.0
  0
LINE
  5
3C2
  8
DATA
  6
CONTINUOUS
 62
     7
 10
-46.732159566025068
 20
78.450000000000031
 30
0.0
 11
-49.732159566025082
 21
78.450000000000031
 31
0.0
  0
LINE
  5
3C3
  8
DATA
  6
CONTINUOUS
 62
     7
 10
-49.732159566025082
 20
75.049999999999955
 30
0.0
 11
-49.732159566025082
 21
78.450000000000031
 31
0.0
  0
LINE
  5
3C4
  8
DATA
  6
CONTINUOUS
 62
     7
 10
-46.732159566025068
 20
75.049999999999955
 30
0.0
 11
-46.732159566025068
 21
78.450000000000031
 31
0.0
  0
CIRCLE
  5
3C5
  8
DATA
  6
CONTINUOUS
 62
     7
 10
-48.232159566025068
 20
76.75
 30
0.0
 40
0.5
  0
LINE
  5
3C6
  8
DATA
  6
CONTINUOUS
 62
     7
 10
-103.14823934912511
 20
79.5
 30
0.0
 11
-103.14823934912511
 21
72.5
 31
0.0
  0
LINE
  5
3C7
  8
DATA
  6
CONTINUOUS
 62
     7
 10
-90.648239349125106
 20
79.5
 30
0.0
 11
-103.14823934912511
 21
79.5
 31
0.0
  0
LINE
  5
3C8
  8
DATA
  6
CONTINUOUS
 62
     7
 10
-90.648239349125106
 20
72.5
 30
0.0
 11
-90.648239349125106
 21
79.5
 31
0.0
  0
LINE
  5
3C9
  8
DATA
  6
CONTINUOUS
 62
     7
 10
-103.14823934912511
 20
72.5
 30
0.0
 11
-90.648239349125106
 21
72.5
 31
0.0
  0
LINE
  5
3CA
  8
DATA
  6
CONTINUOUS
 62
     7
 10
-91.648239349125106
 20
73.549999999999955
 30
0.0
 11
-92.348239349124924
 21
75.049999999999955
 31
0.0
  0
LINE
  5
3CB
  8
DATA
  6
CONTINUOUS
 62
     7
 10
-93.898239349125106
 20
75.049999999999955
 30
0.0
 11
-94.648239349125106
 21
73.549999999999955
 31
0.0
  0
LINE
  5
3CC
  8
DATA
  6
CONTINUOUS
 62
     7
 10
-93.898239349125106
 20
75.049999999999955
 30
0.0
 11
-94.648239349125106
 21
75.049999999999955
 31
0.0
  0
LINE
  5
3CD
  8
DATA
  6
CONTINUOUS
 62
     7
 10
-92.348239349124924
 20
75.049999999999955
 30
0.0
 11
-91.648239349125106
 21
75.049999999999955
 31
0.0
  0
LINE
  5
3CE
  8
DATA
  6
CONTINUOUS
 62
     7
 10
-91.648239349125106
 20
73.549999999999955
 30
0.0
 11
-94.648239349125106
 21
73.549999999999955
 31
0.0
  0
LINE
  5
3CF
  8
DATA
  6
CONTINUOUS
 62
     7
 10
-91.648239349125106
 20
78.450000000000031
 30
0.0
 11
-94.648239349125106
 21
78.450000000000031
 31
0.0
  0
LINE
  5
3D0
  8
DATA
  6
CONTINUOUS
 62
     7
 10
-94.648239349125106
 20
75.049999999999955
 30
0.0
 11
-94.648239349125106
 21
78.450000000000031
 31
0.0
  0
LINE
  5
3D1
  8
DATA
  6
CONTINUOUS
 62
     7
 10
-91.648239349125106
 20
75.049999999999955
 30
0.0
 11
-91.648239349125106
 21
78.450000000000031
 31
0.0
  0
CIRCLE
  5
3D2
  8
DATA
  6
CONTINUOUS
 62
     7
 10
-93.148239349125106
 20
76.75
 30
0.0
 40
0.5
  0
LINE
  5
3D3
  8
DATA
  6
CONTINUOUS
 62
     7
 10
-95.398239349125106
 20
73.549999999999955
 30
0.0
 11
-96.098239349124924
 21
75.049999999999955
 31
0.0
  0
LINE
  5
3D4
  8
DATA
  6
CONTINUOUS
 62
     7
 10
-97.648239349125106
 20
75.049999999999955
 30
0.0
 11
-98.398239349125106
 21
73.549999999999955
 31
0.0
  0
LINE
  5
3D5
  8
DATA
  6
CONTINUOUS
 62
     7
 10
-97.648239349125106
 20
75.049999999999955
 30
0.0
 11
-98.398239349125106
 21
75.049999999999955
 31
0.0
  0
LINE
  5
3D6
  8
DATA
  6
CONTINUOUS
 62
     7
 10
-96.098239349124924
 20
75.049999999999955
 30
0.0
 11
-95.398239349125106
 21
75.049999999999955
 31
0.0
  0
LINE
  5
3D7
  8
DATA
  6
CONTINUOUS
 62
     7
 10
-95.398239349125106
 20
73.549999999999955
 30
0.0
 11
-98.398239349125106
 21
73.549999999999955
 31
0.0
  0
LINE
  5
3D8
  8
DATA
  6
CONTINUOUS
 62
     7
 10
-95.398239349125106
 20
78.450000000000031
 30
0.0
 11
-98.398239349125106
 21
78.450000000000031
 31
0.0
  0
LINE
  5
3D9
  8
DATA
  6
CONTINUOUS
 62
     7
 10
-98.398239349125106
 20
75.049999999999955
 30
0.0
 11
-98.398239349125106
 21
78.450000000000031
 31
0.0
  0
LINE
  5
3DA
  8
DATA
  6
CONTINUOUS
 62
     7
 10
-95.398239349125106
 20
75.049999999999955
 30
0.0
 11
-95.398239349125106
 21
78.450000000000031
 31
0.0
  0
CIRCLE
  5
3DB
  8
DATA
  6
CONTINUOUS
 62
     7
 10
-96.898239349125106
 20
76.75
 30
0.0
 40
0.5
  0
LINE
  5
3DC
  8
DATA
  6
CONTINUOUS
 62
     7
 10
-102.14823934912511
 20
73.549999999999955
 30
0.0
 11
-101.4482393491253
 21
75.049999999999955
 31
0.0
  0
LINE
  5
3DD
  8
DATA
  6
CONTINUOUS
 62
     7
 10
-99.898239349125106
 20
75.049999999999955
 30
0.0
 11
-99.14823934912512
 21
73.549999999999955
 31
0.0
  0
LINE
  5
3DE
  8
DATA
  6
CONTINUOUS
 62
     7
 10
-99.898239349125106
 20
75.049999999999955
 30
0.0
 11
-99.14823934912512
 21
75.049999999999955
 31
0.0
  0
LINE
  5
3DF
  8
DATA
  6
CONTINUOUS
 62
     7
 10
-101.4482393491253
 20
75.049999999999955
 30
0.0
 11
-102.14823934912511
 21
75.049999999999955
 31
0.0
  0
LINE
  5
3E0
  8
DATA
  6
CONTINUOUS
 62
     7
 10
-102.14823934912511
 20
73.549999999999955
 30
0.0
 11
-99.14823934912512
 21
73.549999999999955
 31
0.0
  0
LINE
  5
3E1
  8
DATA
  6
CONTINUOUS
 62
     7
 10
-102.14823934912511
 20
78.450000000000031
 30
0.0
 11
-99.14823934912512
 21
78.450000000000031
 31
0.0
  0
LINE
  5
3E2
  8
DATA
  6
CONTINUOUS
 62
     7
 10
-99.14823934912512
 20
75.049999999999955
 30
0.0
 11
-99.14823934912512
 21
78.450000000000031
 31
0.0
  0
LINE
  5
3E3
  8
DATA
  6
CONTINUOUS
 62
     7
 10
-102.14823934912511
 20
75.049999999999955
 30
0.0
 11
-102.14823934912511
 21
78.450000000000031
 31
0.0
  0
CIRCLE
  5
3E4
  8
DATA
  6
CONTINUOUS
 62
     7
 10
-100.64823934912511
 20
76.75
 30
0.0
 40
0.5
  0
LINE
  5
3E5
  8
DATA
  6
CONTINUOUS
 62
     7
 10
-55.732159566025068
 20
72.0
 30
0.0
 11
-55.732159566025068
 21
70.0
 31
0.0
  0
LINE
  5
3E6
  8
DATA
  6
CONTINUOUS
 62
     7
 10
-54.732159566025082
 20
72.0
 30
0.0
 11
-56.732159566025082
 21
72.0
 31
0.0
  0
LINE
  5
3E7
  8
DATA
  6
CONTINUOUS
 62
     7
 10
-100.64823934912511
 20
72.0
 30
0.0
 11
-100.64823934912511
 21
70.0
 31
0.0
  0
LINE
  5
3E8
  8
DATA
  6
CONTINUOUS
 62
     7
 10
-99.648239349125106
 20
72.0
 30
0.0
 11
-101.64823934912511
 21
72.0
 31
0.0
  0
LINE
  5
3E9
  8
DATA
  6
CONTINUOUS
 62
     7
 10
-100.64823934912511
 20
73.549999999999955
 30
0.0
 11
-100.64823934912511
 21
72.5
 31
0.0
  0
CIRCLE
  5
3EA
  8
DATA
  6
CONTINUOUS
 62
     7
 10
-67.94019945757509
 20
53.5
 30
0.0
 40
2.9999999999998792
  0
LINE
  5
3EB
  8
DATA
  6
CONTINUOUS
 62
     7
 10
-64.982159566025075
 20
53.0
 30
0.0
 11
-70.898239349125106
 21
53.0
 31
0.0
  0
LINE
  5
3EC
  8
DATA
  6
CONTINUOUS
 62
     7
 10
-64.982159566025075
 20
54.0
 30
0.0
 11
-70.898239349125106
 21
54.0
 31
0.0
  0
CIRCLE
  5
3ED
  8
DATA
  6
CONTINUOUS
 62
     7
 10
-80.94019945757509
 20
53.5
 30
0.0
 40
2.9999999999998792
  0
LINE
  5
3EE
  8
DATA
  6
CONTINUOUS
 62
     7
 10
-77.982159566025061
 20
53.0
 30
0.0
 11
-83.898239349125092
 21
53.0
 31
0.0
  0
LINE
  5
3EF
  8
DATA
  6
CONTINUOUS
 62
     7
 10
-77.982159566025061
 20
54.0
 30
0.0
 11
-83.898239349125092
 21
54.0
 31
0.0
  0
LINE
  5
3F0
  8
DATA
  6
CONTINUOUS
 62
     7
 10
-71.94019945757509
 20
58.0
 30
0.0
 11
-71.94019945757509
 21
55.5
 31
0.0
  0
LINE
  5
3F1
  8
DATA
  6
CONTINUOUS
 62
     7
 10
-72.44019945757509
 20
57.5
 30
0.0
 11
-72.44019945757509
 21
56.0
 31
0.0
  0
LINE
  5
3F2
  8
DATA
  6
CONTINUOUS
 62
     7
 10
-76.94019945757509
 20
58.0
 30
0.0
 11
-71.94019945757509
 21
58.0
 31
0.0
  0
LINE
  5
3F3
  8
DATA
  6
CONTINUOUS
 62
     7
 10
-76.44019945757509
 20
57.5
 30
0.0
 11
-72.44019945757509
 21
57.5
 31
0.0
  0
LINE
  5
3F4
  8
DATA
  6
CONTINUOUS
 62
     7
 10
-76.94019945757509
 20
55.5
 30
0.0
 11
-76.94019945757509
 21
58.0
 31
0.0
  0
LINE
  5
3F5
  8
DATA
  6
CONTINUOUS
 62
     7
 10
-76.44019945757509
 20
56.0
 30
0.0
 11
-76.44019945757509
 21
57.5
 31
0.0
  0
LINE
  5
3F6
  8
DATA
  6
CONTINUOUS
 62
     7
 10
-71.94019945757509
 20
55.5
 30
0.0
 11
-76.94019945757509
 21
55.5
 31
0.0
  0
LINE
  5
3F7
  8
DATA
  6
CONTINUOUS
 62
     7
 10
-71.94019945757509
 20
55.5
 30
0.0
 11
-76.94019945757509
 21
55.5
 31
0.0
  0
LINE
  5
3F8
  8
DATA
  6
CONTINUOUS
 62
     7
 10
-72.44019945757509
 20
56.0
 30
0.0
 11
-76.44019945757509
 21
56.0
 31
0.0
  0
POLYLINE
  5
3F9
  8
DATA
  6
CONTINUOUS
 62
     7
 66
     1
 10
0.0
 20
0.0
 30
0.0
 70
     1
  0
VERTEX
  5
9DD
  8
DATA
  6
CONTINUOUS
 62
     7
 10
-76.350199457574945
 20
57.5
 30
0.0
  0
VERTEX
  5
9DE
  8
DATA
  6
CONTINUOUS
 62
     7
 10
-74.850199457574945
 20
57.5
 30
0.0
  0
VERTEX
  5
9DF
  8
DATA
  6
CONTINUOUS
 62
     7
 10
-74.850199457574945
 20
56.0
 30
0.0
  0
VERTEX
  5
9E0
  8
DATA
  6
CONTINUOUS
 62
     7
 10
-76.350199457574945
 20
56.0
 30
0.0
  0
SEQEND
  5
9E1
  8
DATA
  6
CONTINUOUS
 62
     7
  0
LINE
  5
400
  8
DATA
  6
CONTINUOUS
 62
     7
 10
-65.94019945757509
 20
49.500000000000227
 30
0.0
 11
-69.94019945757509
 21
49.500000000000227
 31
0.0
  0
LINE
  5
401
  8
DATA
  6
CONTINUOUS
 62
     7
 10
-69.94019945757509
 20
49.500000000000227
 30
0.0
 11
-69.94019945757509
 21
48.00000000000022
 31
0.0
  0
LINE
  5
402
  8
DATA
  6
CONTINUOUS
 62
     7
 10
-69.94019945757509
 20
48.00000000000022
 30
0.0
 11
-65.94019945757509
 21
49.500000000000227
 31
0.0
  0
LINE
  5
403
  8
DATA
  6
CONTINUOUS
 62
     7
 10
-78.94019945757509
 20
49.500000000000227
 30
0.0
 11
-82.940199457575105
 21
49.500000000000227
 31
0.0
  0
LINE
  5
404
  8
DATA
  6
CONTINUOUS
 62
     7
 10
-82.940199457575105
 20
49.500000000000227
 30
0.0
 11
-82.940199457575105
 21
48.00000000000022
 31
0.0
  0
LINE
  5
405
  8
DATA
  6
CONTINUOUS
 62
     7
 10
-82.940199457575105
 20
48.00000000000022
 30
0.0
 11
-78.94019945757509
 21
49.500000000000227
 31
0.0
  0
LINE
  5
406
  8
DATA
  6
CONTINUOUS
 62
     7
 10
-74.44019945757509
 20
58.0
 30
0.0
 11
-74.44019945757509
 21
62.000000000000227
 31
0.0
  0
LINE
  5
407
  8
DATA
  6
CONTINUOUS
 62
     7
 10
-58.520834700620071
 20
62.000000000000227
 30
0.0
 11
-90.359564214530124
 21
62.000000000000227
 31
0.0
  0
LINE
  5
408
  8
DATA
  6
CONTINUOUS
 62
     7
 10
-58.520834700620071
 20
62.000000000000227
 30
0.0
 11
-58.232159566025068
 21
61.5
 31
0.0
  0
LINE
  5
409
  8
DATA
  6
CONTINUOUS
 62
     7
 10
-90.359564214530124
 20
62.000000000000227
 30
0.0
 11
-90.648239349125106
 21
61.5
 31
0.0
  0
LINE
  5
40A
  8
DATA
  6
CONTINUOUS
 62
     7
 10
-45.732159566025068
 20
61.5
 30
0.0
 11
-45.732159566025068
 21
54.5
 31
0.0
  0
LINE
  5
40B
  8
DATA
  6
CONTINUOUS
 62
     7
 10
-58.232159566025068
 20
61.5
 30
0.0
 11
-45.732159566025068
 21
61.5
 31
0.0
  0
LINE
  5
40C
  8
DATA
  6
CONTINUOUS
 62
     7
 10
-58.232159566025068
 20
54.5
 30
0.0
 11
-58.232159566025068
 21
61.5
 31
0.0
  0
LINE
  5
40D
  8
DATA
  6
CONTINUOUS
 62
     7
 10
-45.732159566025068
 20
54.5
 30
0.0
 11
-58.232159566025068
 21
54.5
 31
0.0
  0
LINE
  5
40E
  8
DATA
  6
CONTINUOUS
 62
     7
 10
-57.232159566025082
 20
55.549999999999962
 30
0.0
 11
-56.532159566025257
 21
57.049999999999962
 31
0.0
  0
LINE
  5
40F
  8
DATA
  6
CONTINUOUS
 62
     7
 10
-54.982159566025068
 20
57.049999999999962
 30
0.0
 11
-54.232159566025082
 21
55.549999999999962
 31
0.0
  0
LINE
  5
410
  8
DATA
  6
CONTINUOUS
 62
     7
 10
-54.982159566025068
 20
57.049999999999962
 30
0.0
 11
-54.232159566025082
 21
57.049999999999962
 31
0.0
  0
LINE
  5
411
  8
DATA
  6
CONTINUOUS
 62
     7
 10
-56.532159566025257
 20
57.049999999999962
 30
0.0
 11
-57.232159566025082
 21
57.049999999999962
 31
0.0
  0
LINE
  5
412
  8
DATA
  6
CONTINUOUS
 62
     7
 10
-57.232159566025082
 20
55.549999999999962
 30
0.0
 11
-54.232159566025082
 21
55.549999999999962
 31
0.0
  0
LINE
  5
413
  8
DATA
  6
CONTINUOUS
 62
     7
 10
-57.232159566025082
 20
60.450000000000053
 30
0.0
 11
-54.232159566025082
 21
60.450000000000053
 31
0.0
  0
LINE
  5
414
  8
DATA
  6
CONTINUOUS
 62
     7
 10
-54.232159566025082
 20
57.049999999999962
 30
0.0
 11
-54.232159566025082
 21
60.450000000000053
 31
0.0
  0
LINE
  5
415
  8
DATA
  6
CONTINUOUS
 62
     7
 10
-57.232159566025082
 20
57.049999999999962
 30
0.0
 11
-57.232159566025082
 21
60.450000000000053
 31
0.0
  0
CIRCLE
  5
416
  8
DATA
  6
CONTINUOUS
 62
     7
 10
-55.732159566025068
 20
58.75
 30
0.0
 40
0.5
  0
LINE
  5
417
  8
DATA
  6
CONTINUOUS
 62
     7
 10
-53.482159566025082
 20
55.549999999999962
 30
0.0
 11
-52.782159566025257
 21
57.049999999999962
 31
0.0
  0
LINE
  5
418
  8
DATA
  6
CONTINUOUS
 62
     7
 10
-51.232159566025068
 20
57.049999999999962
 30
0.0
 11
-50.482159566025082
 21
55.549999999999962
 31
0.0
  0
LINE
  5
419
  8
DATA
  6
CONTINUOUS
 62
     7
 10
-51.232159566025068
 20
57.049999999999962
 30
0.0
 11
-50.482159566025082
 21
57.049999999999962
 31
0.0
  0
LINE
  5
41A
  8
DATA
  6
CONTINUOUS
 62
     7
 10
-52.782159566025257
 20
57.049999999999962
 30
0.0
 11
-53.482159566025082
 21
57.049999999999962
 31
0.0
  0
LINE
  5
41B
  8
DATA
  6
CONTINUOUS
 62
     7
 10
-53.482159566025082
 20
55.549999999999962
 30
0.0
 11
-50.482159566025082
 21
55.549999999999962
 31
0.0
  0
LINE
  5
41C
  8
DATA
  6
CONTINUOUS
 62
     7
 10
-53.482159566025082
 20
60.450000000000053
 30
0.0
 11
-50.482159566025082
 21
60.450000000000053
 31
0.0
  0
LINE
  5
41D
  8
DATA
  6
CONTINUOUS
 62
     7
 10
-50.482159566025082
 20
57.049999999999962
 30
0.0
 11
-50.482159566025082
 21
60.450000000000053
 31
0.0
  0
LINE
  5
41E
  8
DATA
  6
CONTINUOUS
 62
     7
 10
-53.482159566025082
 20
57.049999999999962
 30
0.0
 11
-53.482159566025082
 21
60.450000000000053
 31
0.0
  0
CIRCLE
  5
41F
  8
DATA
  6
CONTINUOUS
 62
     7
 10
-51.982159566025068
 20
58.75
 30
0.0
 40
0.5
  0
LINE
  5
420
  8
DATA
  6
CONTINUOUS
 62
     7
 10
-46.732159566025068
 20
55.549999999999962
 30
0.0
 11
-47.432159566024893
 21
57.049999999999962
 31
0.0
  0
LINE
  5
421
  8
DATA
  6
CONTINUOUS
 62
     7
 10
-48.982159566025068
 20
57.049999999999962
 30
0.0
 11
-49.732159566025082
 21
55.549999999999962
 31
0.0
  0
LINE
  5
422
  8
DATA
  6
CONTINUOUS
 62
     7
 10
-48.982159566025068
 20
57.049999999999962
 30
0.0
 11
-49.732159566025082
 21
57.049999999999962
 31
0.0
  0
LINE
  5
423
  8
DATA
  6
CONTINUOUS
 62
     7
 10
-47.432159566024893
 20
57.049999999999962
 30
0.0
 11
-46.732159566025068
 21
57.049999999999962
 31
0.0
  0
LINE
  5
424
  8
DATA
  6
CONTINUOUS
 62
     7
 10
-46.732159566025068
 20
55.549999999999962
 30
0.0
 11
-49.732159566025082
 21
55.549999999999962
 31
0.0
  0
LINE
  5
425
  8
DATA
  6
CONTINUOUS
 62
     7
 10
-46.732159566025068
 20
60.450000000000053
 30
0.0
 11
-49.732159566025082
 21
60.450000000000053
 31
0.0
  0
LINE
  5
426
  8
DATA
  6
CONTINUOUS
 62
     7
 10
-49.732159566025082
 20
57.049999999999962
 30
0.0
 11
-49.732159566025082
 21
60.450000000000053
 31
0.0
  0
LINE
  5
427
  8
DATA
  6
CONTINUOUS
 62
     7
 10
-46.732159566025068
 20
57.049999999999962
 30
0.0
 11
-46.732159566025068
 21
60.450000000000053
 31
0.0
  0
CIRCLE
  5
428
  8
DATA
  6
CONTINUOUS
 62
     7
 10
-48.232159566025068
 20
58.75
 30
0.0
 40
0.5
  0
LINE
  5
429
  8
DATA
  6
CONTINUOUS
 62
     7
 10
-103.14823934912511
 20
61.5
 30
0.0
 11
-103.14823934912511
 21
54.5
 31
0.0
  0
LINE
  5
42A
  8
DATA
  6
CONTINUOUS
 62
     7
 10
-90.648239349125106
 20
61.5
 30
0.0
 11
-103.14823934912511
 21
61.5
 31
0.0
  0
LINE
  5
42B
  8
DATA
  6
CONTINUOUS
 62
     7
 10
-90.648239349125106
 20
54.5
 30
0.0
 11
-90.648239349125106
 21
61.5
 31
0.0
  0
LINE
  5
42C
  8
DATA
  6
CONTINUOUS
 62
     7
 10
-103.14823934912511
 20
54.5
 30
0.0
 11
-90.648239349125106
 21
54.5
 31
0.0
  0
LINE
  5
42D
  8
DATA
  6
CONTINUOUS
 62
     7
 10
-91.648239349125106
 20
55.549999999999962
 30
0.0
 11
-92.348239349124924
 21
57.049999999999962
 31
0.0
  0
LINE
  5
42E
  8
DATA
  6
CONTINUOUS
 62
     7
 10
-93.898239349125106
 20
57.049999999999962
 30
0.0
 11
-94.648239349125106
 21
55.549999999999962
 31
0.0
  0
LINE
  5
42F
  8
DATA
  6
CONTINUOUS
 62
     7
 10
-93.898239349125106
 20
57.049999999999962
 30
0.0
 11
-94.648239349125106
 21
57.049999999999962
 31
0.0
  0
LINE
  5
430
  8
DATA
  6
CONTINUOUS
 62
     7
 10
-92.348239349124924
 20
57.049999999999962
 30
0.0
 11
-91.648239349125106
 21
57.049999999999962
 31
0.0
  0
LINE
  5
431
  8
DATA
  6
CONTINUOUS
 62
     7
 10
-91.648239349125106
 20
55.549999999999962
 30
0.0
 11
-94.648239349125106
 21
55.549999999999962
 31
0.0
  0
LINE
  5
432
  8
DATA
  6
CONTINUOUS
 62
     7
 10
-91.648239349125106
 20
60.450000000000053
 30
0.0
 11
-94.648239349125106
 21
60.450000000000053
 31
0.0
  0
LINE
  5
433
  8
DATA
  6
CONTINUOUS
 62
     7
 10
-94.648239349125106
 20
57.049999999999962
 30
0.0
 11
-94.648239349125106
 21
60.450000000000053
 31
0.0
  0
LINE
  5
434
  8
DATA
  6
CONTINUOUS
 62
     7
 10
-91.648239349125106
 20
57.049999999999962
 30
0.0
 11
-91.648239349125106
 21
60.450000000000053
 31
0.0
  0
CIRCLE
  5
435
  8
DATA
  6
CONTINUOUS
 62
     7
 10
-93.148239349125106
 20
58.75
 30
0.0
 40
0.5
  0
LINE
  5
436
  8
DATA
  6
CONTINUOUS
 62
     7
 10
-95.398239349125106
 20
55.549999999999962
 30
0.0
 11
-96.098239349124924
 21
57.049999999999962
 31
0.0
  0
LINE
  5
437
  8
DATA
  6
CONTINUOUS
 62
     7
 10
-97.648239349125106
 20
57.049999999999962
 30
0.0
 11
-98.398239349125106
 21
55.549999999999962
 31
0.0
  0
LINE
  5
438
  8
DATA
  6
CONTINUOUS
 62
     7
 10
-97.648239349125106
 20
57.049999999999962
 30
0.0
 11
-98.398239349125106
 21
57.049999999999962
 31
0.0
  0
LINE
  5
439
  8
DATA
  6
CONTINUOUS
 62
     7
 10
-96.098239349124924
 20
57.049999999999962
 30
0.0
 11
-95.398239349125106
 21
57.049999999999962
 31
0.0
  0
LINE
  5
43A
  8
DATA
  6
CONTINUOUS
 62
     7
 10
-95.398239349125106
 20
55.549999999999962
 30
0.0
 11
-98.398239349125106
 21
55.549999999999962
 31
0.0
  0
LINE
  5
43B
  8
DATA
  6
CONTINUOUS
 62
     7
 10
-95.398239349125106
 20
60.450000000000053
 30
0.0
 11
-98.398239349125106
 21
60.450000000000053
 31
0.0
  0
LINE
  5
43C
  8
DATA
  6
CONTINUOUS
 62
     7
 10
-98.398239349125106
 20
57.049999999999962
 30
0.0
 11
-98.398239349125106
 21
60.450000000000053
 31
0.0
  0
LINE
  5
43D
  8
DATA
  6
CONTINUOUS
 62
     7
 10
-95.398239349125106
 20
57.049999999999962
 30
0.0
 11
-95.398239349125106
 21
60.450000000000053
 31
0.0
  0
CIRCLE
  5
43E
  8
DATA
  6
CONTINUOUS
 62
     7
 10
-96.898239349125106
 20
58.75
 30
0.0
 40
0.5
  0
LINE
  5
43F
  8
DATA
  6
CONTINUOUS
 62
     7
 10
-102.14823934912511
 20
55.549999999999962
 30
0.0
 11
-101.4482393491253
 21
57.049999999999962
 31
0.0
  0
LINE
  5
440
  8
DATA
  6
CONTINUOUS
 62
     7
 10
-99.898239349125106
 20
57.049999999999962
 30
0.0
 11
-99.14823934912512
 21
55.549999999999962
 31
0.0
  0
LINE
  5
441
  8
DATA
  6
CONTINUOUS
 62
     7
 10
-99.898239349125106
 20
57.049999999999962
 30
0.0
 11
-99.14823934912512
 21
57.049999999999962
 31
0.0
  0
LINE
  5
442
  8
DATA
  6
CONTINUOUS
 62
     7
 10
-101.4482393491253
 20
57.049999999999962
 30
0.0
 11
-102.14823934912511
 21
57.049999999999962
 31
0.0
  0
LINE
  5
443
  8
DATA
  6
CONTINUOUS
 62
     7
 10
-102.14823934912511
 20
55.549999999999962
 30
0.0
 11
-99.14823934912512
 21
55.549999999999962
 31
0.0
  0
LINE
  5
444
  8
DATA
  6
CONTINUOUS
 62
     7
 10
-102.14823934912511
 20
60.450000000000053
 30
0.0
 11
-99.14823934912512
 21
60.450000000000053
 31
0.0
  0
LINE
  5
445
  8
DATA
  6
CONTINUOUS
 62
     7
 10
-99.14823934912512
 20
57.049999999999962
 30
0.0
 11
-99.14823934912512
 21
60.450000000000053
 31
0.0
  0
LINE
  5
446
  8
DATA
  6
CONTINUOUS
 62
     7
 10
-102.14823934912511
 20
57.049999999999962
 30
0.0
 11
-102.14823934912511
 21
60.450000000000053
 31
0.0
  0
CIRCLE
  5
447
  8
DATA
  6
CONTINUOUS
 62
     7
 10
-100.64823934912511
 20
58.75
 30
0.0
 40
0.5
  0
LINE
  5
448
  8
DATA
  6
CONTINUOUS
 62
     7
 10
-55.732159566025068
 20
54.0
 30
0.0
 11
-55.732159566025068
 21
52.0
 31
0.0
  0
LINE
  5
449
  8
DATA
  6
CONTINUOUS
 62
     7
 10
-54.732159566025082
 20
54.0
 30
0.0
 11
-56.732159566025082
 21
54.0
 31
0.0
  0
LINE
  5
44A
  8
DATA
  6
CONTINUOUS
 62
     7
 10
-100.64823934912511
 20
54.0
 30
0.0
 11
-100.64823934912511
 21
52.0
 31
0.0
  0
LINE
  5
44B
  8
DATA
  6
CONTINUOUS
 62
     7
 10
-99.648239349125106
 20
54.0
 30
0.0
 11
-101.64823934912511
 21
54.0
 31
0.0
  0
LINE
  5
44C
  8
DATA
  6
CONTINUOUS
 62
     7
 10
-127.64823934912511
 20
61.5
 30
0.0
 11
-127.64823934912511
 21
54.5
 31
0.0
  0
LINE
  5
44D
  8
DATA
  6
CONTINUOUS
 62
     7
 10
-115.14823934912511
 20
61.5
 30
0.0
 11
-127.64823934912511
 21
61.5
 31
0.0
  0
LINE
  5
44E
  8
DATA
  6
CONTINUOUS
 62
     7
 10
-115.14823934912511
 20
54.5
 30
0.0
 11
-115.14823934912511
 21
61.5
 31
0.0
  0
LINE
  5
44F
  8
DATA
  6
CONTINUOUS
 62
     7
 10
-127.64823934912511
 20
54.5
 30
0.0
 11
-115.14823934912511
 21
54.5
 31
0.0
  0
LINE
  5
450
  8
DATA
  6
CONTINUOUS
 62
     7
 10
-116.14823934912511
 20
55.549999999999962
 30
0.0
 11
-116.8482393491249
 21
57.049999999999962
 31
0.0
  0
LINE
  5
451
  8
DATA
  6
CONTINUOUS
 62
     7
 10
-118.39823934912511
 20
57.049999999999962
 30
0.0
 11
-119.14823934912511
 21
55.549999999999962
 31
0.0
  0
LINE
  5
452
  8
DATA
  6
CONTINUOUS
 62
     7
 10
-118.39823934912511
 20
57.049999999999962
 30
0.0
 11
-119.14823934912511
 21
57.049999999999962
 31
0.0
  0
LINE
  5
453
  8
DATA
  6
CONTINUOUS
 62
     7
 10
-116.8482393491249
 20
57.049999999999962
 30
0.0
 11
-116.14823934912511
 21
57.049999999999962
 31
0.0
  0
LINE
  5
454
  8
DATA
  6
CONTINUOUS
 62
     7
 10
-116.14823934912511
 20
55.549999999999962
 30
0.0
 11
-119.14823934912511
 21
55.549999999999962
 31
0.0
  0
LINE
  5
455
  8
DATA
  6
CONTINUOUS
 62
     7
 10
-116.14823934912511
 20
60.450000000000053
 30
0.0
 11
-119.14823934912511
 21
60.450000000000053
 31
0.0
  0
LINE
  5
456
  8
DATA
  6
CONTINUOUS
 62
     7
 10
-119.14823934912511
 20
57.049999999999962
 30
0.0
 11
-119.14823934912511
 21
60.450000000000053
 31
0.0
  0
LINE
  5
457
  8
DATA
  6
CONTINUOUS
 62
     7
 10
-116.14823934912511
 20
57.049999999999962
 30
0.0
 11
-116.14823934912511
 21
60.450000000000053
 31
0.0
  0
CIRCLE
  5
458
  8
DATA
  6
CONTINUOUS
 62
     7
 10
-117.64823934912511
 20
58.75
 30
0.0
 40
0.5
  0
LINE
  5
459
  8
DATA
  6
CONTINUOUS
 62
     7
 10
-119.89823934912511
 20
55.549999999999962
 30
0.0
 11
-120.5982393491249
 21
57.049999999999962
 31
0.0
  0
LINE
  5
45A
  8
DATA
  6
CONTINUOUS
 62
     7
 10
-122.14823934912511
 20
57.049999999999962
 30
0.0
 11
-122.89823934912511
 21
55.549999999999962
 31
0.0
  0
LINE
  5
45B
  8
DATA
  6
CONTINUOUS
 62
     7
 10
-122.14823934912511
 20
57.049999999999962
 30
0.0
 11
-122.89823934912511
 21
57.049999999999962
 31
0.0
  0
LINE
  5
45C
  8
DATA
  6
CONTINUOUS
 62
     7
 10
-120.5982393491249
 20
57.049999999999962
 30
0.0
 11
-119.89823934912511
 21
57.049999999999962
 31
0.0
  0
LINE
  5
45D
  8
DATA
  6
CONTINUOUS
 62
     7
 10
-119.89823934912511
 20
55.549999999999962
 30
0.0
 11
-122.89823934912511
 21
55.549999999999962
 31
0.0
  0
LINE
  5
45E
  8
DATA
  6
CONTINUOUS
 62
     7
 10
-119.89823934912511
 20
60.450000000000053
 30
0.0
 11
-122.89823934912511
 21
60.450000000000053
 31
0.0
  0
LINE
  5
45F
  8
DATA
  6
CONTINUOUS
 62
     7
 10
-122.89823934912511
 20
57.049999999999962
 30
0.0
 11
-122.89823934912511
 21
60.450000000000053
 31
0.0
  0
LINE
  5
460
  8
DATA
  6
CONTINUOUS
 62
     7
 10
-119.89823934912511
 20
57.049999999999962
 30
0.0
 11
-119.89823934912511
 21
60.450000000000053
 31
0.0
  0
CIRCLE
  5
461
  8
DATA
  6
CONTINUOUS
 62
     7
 10
-121.39823934912511
 20
58.75
 30
0.0
 40
0.5
  0
LINE
  5
462
  8
DATA
  6
CONTINUOUS
 62
     7
 10
-126.64823934912511
 20
55.549999999999962
 30
0.0
 11
-125.9482393491253
 21
57.049999999999962
 31
0.0
  0
LINE
  5
463
  8
DATA
  6
CONTINUOUS
 62
     7
 10
-124.39823934912511
 20
57.049999999999962
 30
0.0
 11
-123.64823934912511
 21
55.549999999999962
 31
0.0
  0
LINE
  5
464
  8
DATA
  6
CONTINUOUS
 62
     7
 10
-124.39823934912511
 20
57.049999999999962
 30
0.0
 11
-123.64823934912511
 21
57.049999999999962
 31
0.0
  0
LINE
  5
465
  8
DATA
  6
CONTINUOUS
 62
     7
 10
-125.9482393491253
 20
57.049999999999962
 30
0.0
 11
-126.64823934912511
 21
57.049999999999962
 31
0.0
  0
LINE
  5
466
  8
DATA
  6
CONTINUOUS
 62
     7
 10
-126.64823934912511
 20
55.549999999999962
 30
0.0
 11
-123.64823934912511
 21
55.549999999999962
 31
0.0
  0
LINE
  5
467
  8
DATA
  6
CONTINUOUS
 62
     7
 10
-126.64823934912511
 20
60.450000000000053
 30
0.0
 11
-123.64823934912511
 21
60.450000000000053
 31
0.0
  0
LINE
  5
468
  8
DATA
  6
CONTINUOUS
 62
     7
 10
-123.64823934912511
 20
57.049999999999962
 30
0.0
 11
-123.64823934912511
 21
60.450000000000053
 31
0.0
  0
LINE
  5
469
  8
DATA
  6
CONTINUOUS
 62
     7
 10
-126.64823934912511
 20
57.049999999999962
 30
0.0
 11
-126.64823934912511
 21
60.450000000000053
 31
0.0
  0
CIRCLE
  5
46A
  8
DATA
  6
CONTINUOUS
 62
     7
 10
-125.14823934912511
 20
58.75
 30
0.0
 40
0.5
  0
LINE
  5
46B
  8
DATA
  6
CONTINUOUS
 62
     7
 10
-125.14823934912511
 20
54.0
 30
0.0
 11
-125.14823934912511
 21
52.0
 31
0.0
  0
LINE
  5
46C
  8
DATA
  6
CONTINUOUS
 62
     7
 10
-124.14823934912511
 20
54.0
 30
0.0
 11
-126.14823934912511
 21
54.0
 31
0.0
  0
LINE
  5
46D
  8
DATA
  6
CONTINUOUS
 62
     7
 10
-127.64823934912511
 20
79.5
 30
0.0
 11
-127.64823934912511
 21
72.5
 31
0.0
  0
LINE
  5
46E
  8
DATA
  6
CONTINUOUS
 62
     7
 10
-115.14823934912511
 20
79.5
 30
0.0
 11
-127.64823934912511
 21
79.5
 31
0.0
  0
LINE
  5
46F
  8
DATA
  6
CONTINUOUS
 62
     7
 10
-115.14823934912511
 20
72.5
 30
0.0
 11
-115.14823934912511
 21
79.5
 31
0.0
  0
LINE
  5
470
  8
DATA
  6
CONTINUOUS
 62
     7
 10
-127.64823934912511
 20
72.5
 30
0.0
 11
-115.14823934912511
 21
72.5
 31
0.0
  0
LINE
  5
471
  8
DATA
  6
CONTINUOUS
 62
     7
 10
-116.14823934912511
 20
73.549999999999955
 30
0.0
 11
-116.8482393491249
 21
75.049999999999955
 31
0.0
  0
LINE
  5
472
  8
DATA
  6
CONTINUOUS
 62
     7
 10
-118.39823934912511
 20
75.049999999999955
 30
0.0
 11
-119.14823934912511
 21
73.549999999999955
 31
0.0
  0
LINE
  5
473
  8
DATA
  6
CONTINUOUS
 62
     7
 10
-118.39823934912511
 20
75.049999999999955
 30
0.0
 11
-119.14823934912511
 21
75.049999999999955
 31
0.0
  0
LINE
  5
474
  8
DATA
  6
CONTINUOUS
 62
     7
 10
-116.8482393491249
 20
75.049999999999955
 30
0.0
 11
-116.14823934912511
 21
75.049999999999955
 31
0.0
  0
LINE
  5
475
  8
DATA
  6
CONTINUOUS
 62
     7
 10
-116.14823934912511
 20
73.549999999999955
 30
0.0
 11
-119.14823934912511
 21
73.549999999999955
 31
0.0
  0
LINE
  5
476
  8
DATA
  6
CONTINUOUS
 62
     7
 10
-116.14823934912511
 20
78.450000000000031
 30
0.0
 11
-119.14823934912511
 21
78.450000000000031
 31
0.0
  0
LINE
  5
477
  8
DATA
  6
CONTINUOUS
 62
     7
 10
-119.14823934912511
 20
75.049999999999955
 30
0.0
 11
-119.14823934912511
 21
78.450000000000031
 31
0.0
  0
LINE
  5
478
  8
DATA
  6
CONTINUOUS
 62
     7
 10
-116.14823934912511
 20
75.049999999999955
 30
0.0
 11
-116.14823934912511
 21
78.450000000000031
 31
0.0
  0
CIRCLE
  5
479
  8
DATA
  6
CONTINUOUS
 62
     7
 10
-117.64823934912511
 20
76.75
 30
0.0
 40
0.5
  0
LINE
  5
47A
  8
DATA
  6
CONTINUOUS
 62
     7
 10
-119.89823934912511
 20
73.549999999999955
 30
0.0
 11
-120.5982393491249
 21
75.049999999999955
 31
0.0
  0
LINE
  5
47B
  8
DATA
  6
CONTINUOUS
 62
     7
 10
-122.14823934912511
 20
75.049999999999955
 30
0.0
 11
-122.89823934912511
 21
73.549999999999955
 31
0.0
  0
LINE
  5
47C
  8
DATA
  6
CONTINUOUS
 62
     7
 10
-122.14823934912511
 20
75.049999999999955
 30
0.0
 11
-122.89823934912511
 21
75.049999999999955
 31
0.0
  0
LINE
  5
47D
  8
DATA
  6
CONTINUOUS
 62
     7
 10
-120.5982393491249
 20
75.049999999999955
 30
0.0
 11
-119.89823934912511
 21
75.049999999999955
 31
0.0
  0
LINE
  5
47E
  8
DATA
  6
CONTINUOUS
 62
     7
 10
-119.89823934912511
 20
73.549999999999955
 30
0.0
 11
-122.89823934912511
 21
73.549999999999955
 31
0.0
  0
LINE
  5
47F
  8
DATA
  6
CONTINUOUS
 62
     7
 10
-119.89823934912511
 20
78.450000000000031
 30
0.0
 11
-122.89823934912511
 21
78.450000000000031
 31
0.0
  0
LINE
  5
480
  8
DATA
  6
CONTINUOUS
 62
     7
 10
-122.89823934912511
 20
75.049999999999955
 30
0.0
 11
-122.89823934912511
 21
78.450000000000031
 31
0.0
  0
LINE
  5
481
  8
DATA
  6
CONTINUOUS
 62
     7
 10
-119.89823934912511
 20
75.049999999999955
 30
0.0
 11
-119.89823934912511
 21
78.450000000000031
 31
0.0
  0
CIRCLE
  5
482
  8
DATA
  6
CONTINUOUS
 62
     7
 10
-121.39823934912511
 20
76.75
 30
0.0
 40
0.5
  0
LINE
  5
483
  8
DATA
  6
CONTINUOUS
 62
     7
 10
-126.64823934912511
 20
73.549999999999955
 30
0.0
 11
-125.9482393491253
 21
75.049999999999955
 31
0.0
  0
LINE
  5
484
  8
DATA
  6
CONTINUOUS
 62
     7
 10
-124.39823934912511
 20
75.049999999999955
 30
0.0
 11
-123.64823934912511
 21
73.549999999999955
 31
0.0
  0
LINE
  5
485
  8
DATA
  6
CONTINUOUS
 62
     7
 10
-124.39823934912511
 20
75.049999999999955
 30
0.0
 11
-123.64823934912511
 21
75.049999999999955
 31
0.0
  0
LINE
  5
486
  8
DATA
  6
CONTINUOUS
 62
     7
 10
-125.9482393491253
 20
75.049999999999955
 30
0.0
 11
-126.64823934912511
 21
75.049999999999955
 31
0.0
  0
LINE
  5
487
  8
DATA
  6
CONTINUOUS
 62
     7
 10
-126.64823934912511
 20
73.549999999999955
 30
0.0
 11
-123.64823934912511
 21
73.549999999999955
 31
0.0
  0
LINE
  5
488
  8
DATA
  6
CONTINUOUS
 62
     7
 10
-126.64823934912511
 20
78.450000000000031
 30
0.0
 11
-123.64823934912511
 21
78.450000000000031
 31
0.0
  0
LINE
  5
489
  8
DATA
  6
CONTINUOUS
 62
     7
 10
-123.64823934912511
 20
75.049999999999955
 30
0.0
 11
-123.64823934912511
 21
78.450000000000031
 31
0.0
  0
LINE
  5
48A
  8
DATA
  6
CONTINUOUS
 62
     7
 10
-126.64823934912511
 20
75.049999999999955
 30
0.0
 11
-126.64823934912511
 21
78.450000000000031
 31
0.0
  0
CIRCLE
  5
48B
  8
DATA
  6
CONTINUOUS
 62
     7
 10
-125.14823934912511
 20
76.75
 30
0.0
 40
0.5
  0
LINE
  5
48C
  8
DATA
  6
CONTINUOUS
 62
     7
 10
-125.14823934912511
 20
72.0
 30
0.0
 11
-125.14823934912511
 21
70.0
 31
0.0
  0
LINE
  5
48D
  8
DATA
  6
CONTINUOUS
 62
     7
 10
-124.14823934912511
 20
72.0
 30
0.0
 11
-126.14823934912511
 21
72.0
 31
0.0
  0
LINE
  5
48E
  8
DATA
  6
CONTINUOUS
 62
     7
 10
-152.14823934912511
 20
61.5
 30
0.0
 11
-152.14823934912511
 21
54.5
 31
0.0
  0
LINE
  5
48F
  8
DATA
  6
CONTINUOUS
 62
     7
 10
-139.64823934912511
 20
61.5
 30
0.0
 11
-152.14823934912511
 21
61.5
 31
0.0
  0
LINE
  5
490
  8
DATA
  6
CONTINUOUS
 62
     7
 10
-139.64823934912511
 20
54.5
 30
0.0
 11
-139.64823934912511
 21
61.5
 31
0.0
  0
LINE
  5
491
  8
DATA
  6
CONTINUOUS
 62
     7
 10
-152.14823934912511
 20
54.5
 30
0.0
 11
-139.64823934912511
 21
54.5
 31
0.0
  0
LINE
  5
492
  8
DATA
  6
CONTINUOUS
 62
     7
 10
-140.64823934912511
 20
55.549999999999962
 30
0.0
 11
-141.3482393491249
 21
57.049999999999962
 31
0.0
  0
LINE
  5
493
  8
DATA
  6
CONTINUOUS
 62
     7
 10
-142.89823934912511
 20
57.049999999999962
 30
0.0
 11
-143.64823934912511
 21
55.549999999999962
 31
0.0
  0
LINE
  5
494
  8
DATA
  6
CONTINUOUS
 62
     7
 10
-142.89823934912511
 20
57.049999999999962
 30
0.0
 11
-143.64823934912511
 21
57.049999999999962
 31
0.0
  0
LINE
  5
495
  8
DATA
  6
CONTINUOUS
 62
     7
 10
-141.3482393491249
 20
57.049999999999962
 30
0.0
 11
-140.64823934912511
 21
57.049999999999962
 31
0.0
  0
LINE
  5
496
  8
DATA
  6
CONTINUOUS
 62
     7
 10
-140.64823934912511
 20
55.549999999999962
 30
0.0
 11
-143.64823934912511
 21
55.549999999999962
 31
0.0
  0
LINE
  5
497
  8
DATA
  6
CONTINUOUS
 62
     7
 10
-140.64823934912511
 20
60.450000000000053
 30
0.0
 11
-143.64823934912511
 21
60.450000000000053
 31
0.0
  0
LINE
  5
498
  8
DATA
  6
CONTINUOUS
 62
     7
 10
-143.64823934912511
 20
57.049999999999962
 30
0.0
 11
-143.64823934912511
 21
60.450000000000053
 31
0.0
  0
LINE
  5
499
  8
DATA
  6
CONTINUOUS
 62
     7
 10
-140.64823934912511
 20
57.049999999999962
 30
0.0
 11
-140.64823934912511
 21
60.450000000000053
 31
0.0
  0
CIRCLE
  5
49A
  8
DATA
  6
CONTINUOUS
 62
     7
 10
-142.14823934912511
 20
58.75
 30
0.0
 40
0.5
  0
LINE
  5
49B
  8
DATA
  6
CONTINUOUS
 62
     7
 10
-144.39823934912511
 20
55.549999999999962
 30
0.0
 11
-145.0982393491249
 21
57.049999999999962
 31
0.0
  0
LINE
  5
49C
  8
DATA
  6
CONTINUOUS
 62
     7
 10
-146.64823934912511
 20
57.049999999999962
 30
0.0
 11
-147.39823934912511
 21
55.549999999999962
 31
0.0
  0
LINE
  5
49D
  8
DATA
  6
CONTINUOUS
 62
     7
 10
-146.64823934912511
 20
57.049999999999962
 30
0.0
 11
-147.39823934912511
 21
57.049999999999962
 31
0.0
  0
LINE
  5
49E
  8
DATA
  6
CONTINUOUS
 62
     7
 10
-145.0982393491249
 20
57.049999999999962
 30
0.0
 11
-144.39823934912511
 21
57.049999999999962
 31
0.0
  0
LINE
  5
49F
  8
DATA
  6
CONTINUOUS
 62
     7
 10
-144.39823934912511
 20
55.549999999999962
 30
0.0
 11
-147.39823934912511
 21
55.549999999999962
 31
0.0
  0
LINE
  5
4A0
  8
DATA
  6
CONTINUOUS
 62
     7
 10
-144.39823934912511
 20
60.450000000000053
 30
0.0
 11
-147.39823934912511
 21
60.450000000000053
 31
0.0
  0
LINE
  5
4A1
  8
DATA
  6
CONTINUOUS
 62
     7
 10
-147.39823934912511
 20
57.049999999999962
 30
0.0
 11
-147.39823934912511
 21
60.450000000000053
 31
0.0
  0
LINE
  5
4A2
  8
DATA
  6
CONTINUOUS
 62
     7
 10
-144.39823934912511
 20
57.049999999999962
 30
0.0
 11
-144.39823934912511
 21
60.450000000000053
 31
0.0
  0
CIRCLE
  5
4A3
  8
DATA
  6
CONTINUOUS
 62
     7
 10
-145.89823934912511
 20
58.75
 30
0.0
 40
0.5
  0
LINE
  5
4A4
  8
DATA
  6
CONTINUOUS
 62
     7
 10
-151.14823934912511
 20
55.549999999999962
 30
0.0
 11
-150.44823934912529
 21
57.049999999999962
 31
0.0
  0
LINE
  5
4A5
  8
DATA
  6
CONTINUOUS
 62
     7
 10
-148.89823934912511
 20
57.049999999999962
 30
0.0
 11
-148.14823934912511
 21
55.549999999999962
 31
0.0
  0
LINE
  5
4A6
  8
DATA
  6
CONTINUOUS
 62
     7
 10
-148.89823934912511
 20
57.049999999999962
 30
0.0
 11
-148.14823934912511
 21
57.049999999999962
 31
0.0
  0
LINE
  5
4A7
  8
DATA
  6
CONTINUOUS
 62
     7
 10
-150.44823934912529
 20
57.049999999999962
 30
0.0
 11
-151.14823934912511
 21
57.049999999999962
 31
0.0
  0
LINE
  5
4A8
  8
DATA
  6
CONTINUOUS
 62
     7
 10
-151.14823934912511
 20
55.549999999999962
 30
0.0
 11
-148.14823934912511
 21
55.549999999999962
 31
0.0
  0
LINE
  5
4A9
  8
DATA
  6
CONTINUOUS
 62
     7
 10
-151.14823934912511
 20
60.450000000000053
 30
0.0
 11
-148.14823934912511
 21
60.450000000000053
 31
0.0
  0
LINE
  5
4AA
  8
DATA
  6
CONTINUOUS
 62
     7
 10
-148.14823934912511
 20
57.049999999999962
 30
0.0
 11
-148.14823934912511
 21
60.450000000000053
 31
0.0
  0
LINE
  5
4AB
  8
DATA
  6
CONTINUOUS
 62
     7
 10
-151.14823934912511
 20
57.049999999999962
 30
0.0
 11
-151.14823934912511
 21
60.450000000000053
 31
0.0
  0
CIRCLE
  5
4AC
  8
DATA
  6
CONTINUOUS
 62
     7
 10
-149.64823934912511
 20
58.75
 30
0.0
 40
0.5
  0
LINE
  5
4AD
  8
DATA
  6
CONTINUOUS
 62
     7
 10
-149.64823934912511
 20
54.0
 30
0.0
 11
-149.64823934912511
 21
52.0
 31
0.0
  0
LINE
  5
4AE
  8
DATA
  6
CONTINUOUS
 62
     7
 10
-148.64823934912511
 20
54.0
 30
0.0
 11
-150.64823934912511
 21
54.0
 31
0.0
  0
LINE
  5
4AF
  8
DATA
  6
CONTINUOUS
 62
     7
 10
-152.14823934912511
 20
79.5
 30
0.0
 11
-152.14823934912511
 21
72.5
 31
0.0
  0
LINE
  5
4B0
  8
DATA
  6
CONTINUOUS
 62
     7
 10
-139.64823934912511
 20
79.5
 30
0.0
 11
-152.14823934912511
 21
79.5
 31
0.0
  0
LINE
  5
4B1
  8
DATA
  6
CONTINUOUS
 62
     7
 10
-139.64823934912511
 20
72.5
 30
0.0
 11
-139.64823934912511
 21
79.5
 31
0.0
  0
LINE
  5
4B2
  8
DATA
  6
CONTINUOUS
 62
     7
 10
-152.14823934912511
 20
72.5
 30
0.0
 11
-139.64823934912511
 21
72.5
 31
0.0
  0
LINE
  5
4B3
  8
DATA
  6
CONTINUOUS
 62
     7
 10
-140.64823934912511
 20
73.549999999999955
 30
0.0
 11
-141.3482393491249
 21
75.049999999999955
 31
0.0
  0
LINE
  5
4B4
  8
DATA
  6
CONTINUOUS
 62
     7
 10
-142.89823934912511
 20
75.049999999999955
 30
0.0
 11
-143.64823934912511
 21
73.549999999999955
 31
0.0
  0
LINE
  5
4B5
  8
DATA
  6
CONTINUOUS
 62
     7
 10
-142.89823934912511
 20
75.049999999999955
 30
0.0
 11
-143.64823934912511
 21
75.049999999999955
 31
0.0
  0
LINE
  5
4B6
  8
DATA
  6
CONTINUOUS
 62
     7
 10
-141.3482393491249
 20
75.049999999999955
 30
0.0
 11
-140.64823934912511
 21
75.049999999999955
 31
0.0
  0
LINE
  5
4B7
  8
DATA
  6
CONTINUOUS
 62
     7
 10
-140.64823934912511
 20
73.549999999999955
 30
0.0
 11
-143.64823934912511
 21
73.549999999999955
 31
0.0
  0
LINE
  5
4B8
  8
DATA
  6
CONTINUOUS
 62
     7
 10
-140.64823934912511
 20
78.450000000000031
 30
0.0
 11
-143.64823934912511
 21
78.450000000000031
 31
0.0
  0
LINE
  5
4B9
  8
DATA
  6
CONTINUOUS
 62
     7
 10
-143.64823934912511
 20
75.049999999999955
 30
0.0
 11
-143.64823934912511
 21
78.450000000000031
 31
0.0
  0
LINE
  5
4BA
  8
DATA
  6
CONTINUOUS
 62
     7
 10
-140.64823934912511
 20
75.049999999999955
 30
0.0
 11
-140.64823934912511
 21
78.450000000000031
 31
0.0
  0
CIRCLE
  5
4BB
  8
DATA
  6
CONTINUOUS
 62
     7
 10
-142.14823934912511
 20
76.75
 30
0.0
 40
0.5
  0
LINE
  5
4BC
  8
DATA
  6
CONTINUOUS
 62
     7
 10
-144.39823934912511
 20
73.549999999999955
 30
0.0
 11
-145.0982393491249
 21
75.049999999999955
 31
0.0
  0
LINE
  5
4BD
  8
DATA
  6
CONTINUOUS
 62
     7
 10
-146.64823934912511
 20
75.049999999999955
 30
0.0
 11
-147.39823934912511
 21
73.549999999999955
 31
0.0
  0
LINE
  5
4BE
  8
DATA
  6
CONTINUOUS
 62
     7
 10
-146.64823934912511
 20
75.049999999999955
 30
0.0
 11
-147.39823934912511
 21
75.049999999999955
 31
0.0
  0
LINE
  5
4BF
  8
DATA
  6
CONTINUOUS
 62
     7
 10
-145.0982393491249
 20
75.049999999999955
 30
0.0
 11
-144.39823934912511
 21
75.049999999999955
 31
0.0
  0
LINE
  5
4C0
  8
DATA
  6
CONTINUOUS
 62
     7
 10
-144.39823934912511
 20
73.549999999999955
 30
0.0
 11
-147.39823934912511
 21
73.549999999999955
 31
0.0
  0
LINE
  5
4C1
  8
DATA
  6
CONTINUOUS
 62
     7
 10
-144.39823934912511
 20
78.450000000000031
 30
0.0
 11
-147.39823934912511
 21
78.450000000000031
 31
0.0
  0
LINE
  5
4C2
  8
DATA
  6
CONTINUOUS
 62
     7
 10
-147.39823934912511
 20
75.049999999999955
 30
0.0
 11
-147.39823934912511
 21
78.450000000000031
 31
0.0
  0
LINE
  5
4C3
  8
DATA
  6
CONTINUOUS
 62
     7
 10
-144.39823934912511
 20
75.049999999999955
 30
0.0
 11
-144.39823934912511
 21
78.450000000000031
 31
0.0
  0
CIRCLE
  5
4C4
  8
DATA
  6
CONTINUOUS
 62
     7
 10
-145.89823934912511
 20
76.75
 30
0.0
 40
0.5
  0
LINE
  5
4C5
  8
DATA
  6
CONTINUOUS
 62
     7
 10
-151.14823934912511
 20
73.549999999999955
 30
0.0
 11
-150.44823934912529
 21
75.049999999999955
 31
0.0
  0
LINE
  5
4C6
  8
DATA
  6
CONTINUOUS
 62
     7
 10
-148.89823934912511
 20
75.049999999999955
 30
0.0
 11
-148.14823934912511
 21
73.549999999999955
 31
0.0
  0
LINE
  5
4C7
  8
DATA
  6
CONTINUOUS
 62
     7
 10
-148.89823934912511
 20
75.049999999999955
 30
0.0
 11
-148.14823934912511
 21
75.049999999999955
 31
0.0
  0
LINE
  5
4C8
  8
DATA
  6
CONTINUOUS
 62
     7
 10
-150.44823934912529
 20
75.049999999999955
 30
0.0
 11
-151.14823934912511
 21
75.049999999999955
 31
0.0
  0
LINE
  5
4C9
  8
DATA
  6
CONTINUOUS
 62
     7
 10
-151.14823934912511
 20
73.549999999999955
 30
0.0
 11
-148.14823934912511
 21
73.549999999999955
 31
0.0
  0
LINE
  5
4CA
  8
DATA
  6
CONTINUOUS
 62
     7
 10
-151.14823934912511
 20
78.450000000000031
 30
0.0
 11
-148.14823934912511
 21
78.450000000000031
 31
0.0
  0
LINE
  5
4CB
  8
DATA
  6
CONTINUOUS
 62
     7
 10
-148.14823934912511
 20
75.049999999999955
 30
0.0
 11
-148.14823934912511
 21
78.450000000000031
 31
0.0
  0
LINE
  5
4CC
  8
DATA
  6
CONTINUOUS
 62
     7
 10
-151.14823934912511
 20
75.049999999999955
 30
0.0
 11
-151.14823934912511
 21
78.450000000000031
 31
0.0
  0
CIRCLE
  5
4CD
  8
DATA
  6
CONTINUOUS
 62
     7
 10
-149.64823934912511
 20
76.75
 30
0.0
 40
0.5
  0
LINE
  5
4CE
  8
DATA
  6
CONTINUOUS
 62
     7
 10
-149.64823934912511
 20
72.0
 30
0.0
 11
-149.64823934912511
 21
70.0
 31
0.0
  0
LINE
  5
4CF
  8
DATA
  6
CONTINUOUS
 62
     7
 10
-148.64823934912511
 20
72.0
 30
0.0
 11
-150.64823934912511
 21
72.0
 31
0.0
  0
CIRCLE
  5
4D0
  8
DATA
  6
CONTINUOUS
 62
     7
 10
-176.34999999999991
 20
61.399999999999856
 30
0.0
 40
2.5000000000000999
  0
LINE
  5
4D1
  8
DATA
  6
CONTINUOUS
 62
     7
 10
-174.84999999999991
 20
61.399999999999856
 30
0.0
 11
-177.84999999999991
 21
61.399999999999856
 31
0.0
  0
LINE
  5
4D2
  8
DATA
  6
CONTINUOUS
 62
     7
 10
-176.34999999999991
 20
62.899999999999849
 30
0.0
 11
-176.34999999999991
 21
59.899999999999856
 31
0.0
  0
LINE
  5
4D3
  8
DATA
  6
CONTINUOUS
 62
     7
 10
-360.0
 20
-280.0
 30
0.0
 11
-360.0
 21
-277.0
 31
0.0
  0
LINE
  5
4D4
  8
DATA
  6
CONTINUOUS
 62
     7
 10
122.0
 20
-280.0
 30
0.0
 11
-360.0
 21
-280.0
 31
0.0
  0
LINE
  5
4D5
  8
DATA
  6
CONTINUOUS
 62
     7
 10
122.0
 20
-277.0
 30
0.0
 11
122.0
 21
-280.0
 31
0.0
  0
LINE
  5
4D6
  8
DATA
  6
CONTINUOUS
 62
     7
 10
-360.0
 20
-277.0
 30
0.0
 11
122.0
 21
-277.0
 31
0.0
  0
LINE
  5
4D7
  8
DATA
  6
CONTINUOUS
 62
     7
 10
-341.5
 20
-277.0
 30
0.0
 11
-341.5
 21
-60.0
 31
0.0
  0
LINE
  5
4D8
  8
DATA
  6
CONTINUOUS
 62
     7
 10
103.5
 20
-277.0
 30
0.0
 11
-341.5
 21
-277.0
 31
0.0
  0
LINE
  5
4D9
  8
DATA
  6
CONTINUOUS
 62
     7
 10
103.5
 20
-60.0
 30
0.0
 11
103.5
 21
-277.0
 31
0.0
  0
LINE
  5
4DA
  8
DATA
  6
CONTINUOUS
 62
     7
 10
-341.5
 20
-60.0
 30
0.0
 11
103.5
 21
-60.0
 31
0.0
  0
LINE
  5
4DB
  8
DATA
  6
CONTINUOUS
 62
     7
 10
-310.0
 20
-298.0
 30
0.0
 11
-310.5
 21
-280.0
 31
0.0
  0
LINE
  5
4DC
  8
DATA
  6
CONTINUOUS
 62
     7
 10
-304.0
 20
-298.0
 30
0.0
 11
-310.0
 21
-298.0
 31
0.0
  0
LINE
  5
4DD
  8
DATA
  6
CONTINUOUS
 62
     7
 10
-303.5
 20
-280.0
 30
0.0
 11
-310.5
 21
-280.0
 31
0.0
  0
LINE
  5
4DE
  8
DATA
  6
CONTINUOUS
 62
     7
 10
-304.0
 20
-298.0
 30
0.0
 11
-303.5
 21
-280.0
 31
0.0
  0
LINE
  5
4DF
  8
DATA
  6
CONTINUOUS
 62
     7
 10
-288.0
 20
-298.0
 30
0.0
 11
-288.5
 21
-280.0
 31
0.0
  0
LINE
  5
4E0
  8
DATA
  6
CONTINUOUS
 62
     7
 10
-282.0
 20
-298.0
 30
0.0
 11
-288.0
 21
-298.0
 31
0.0
  0
LINE
  5
4E1
  8
DATA
  6
CONTINUOUS
 62
     7
 10
-281.5
 20
-280.0
 30
0.0
 11
-288.5
 21
-280.0
 31
0.0
  0
LINE
  5
4E2
  8
DATA
  6
CONTINUOUS
 62
     7
 10
-282.0
 20
-298.0
 30
0.0
 11
-281.5
 21
-280.0
 31
0.0
  0
LINE
  5
4E3
  8
DATA
  6
CONTINUOUS
 62
     7
 10
-222.0
 20
-298.0
 30
0.0
 11
-222.5
 21
-280.0
 31
0.0
  0
LINE
  5
4E4
  8
DATA
  6
CONTINUOUS
 62
     7
 10
-215.99999999999969
 20
-298.0
 30
0.0
 11
-222.0
 21
-298.0
 31
0.0
  0
LINE
  5
4E5
  8
DATA
  6
CONTINUOUS
 62
     7
 10
-215.4999999999998
 20
-280.0
 30
0.0
 11
-222.5
 21
-280.0
 31
0.0
  0
LINE
  5
4E6
  8
DATA
  6
CONTINUOUS
 62
     7
 10
-215.99999999999969
 20
-298.0
 30
0.0
 11
-215.4999999999998
 21
-280.0
 31
0.0
  0
LINE
  5
4E7
  8
DATA
  6
CONTINUOUS
 62
     7
 10
-178.0
 20
-298.0
 30
0.0
 11
-178.5
 21
-280.0
 31
0.0
  0
LINE
  5
4E8
  8
DATA
  6
CONTINUOUS
 62
     7
 10
-172.0
 20
-298.0
 30
0.0
 11
-178.0
 21
-298.0
 31
0.0
  0
LINE
  5
4E9
  8
DATA
  6
CONTINUOUS
 62
     7
 10
-171.5
 20
-280.0
 30
0.0
 11
-178.5
 21
-280.0
 31
0.0
  0
LINE
  5
4EA
  8
DATA
  6
CONTINUOUS
 62
     7
 10
-172.0
 20
-298.0
 30
0.0
 11
-171.5
 21
-280.0
 31
0.0
  0
LINE
  5
4EB
  8
DATA
  6
CONTINUOUS
 62
     7
 10
-134.0
 20
-298.0
 30
0.0
 11
-134.5
 21
-280.0
 31
0.0
  0
LINE
  5
4EC
  8
DATA
  6
CONTINUOUS
 62
     7
 10
-128.0
 20
-298.0
 30
0.0
 11
-134.0
 21
-298.0
 31
0.0
  0
LINE
  5
4ED
  8
DATA
  6
CONTINUOUS
 62
     7
 10
-127.5
 20
-280.0
 30
0.0
 11
-134.5
 21
-280.0
 31
0.0
  0
LINE
  5
4EE
  8
DATA
  6
CONTINUOUS
 62
     7
 10
-128.0
 20
-298.0
 30
0.0
 11
-127.5
 21
-280.0
 31
0.0
  0
LINE
  5
4EF
  8
DATA
  6
CONTINUOUS
 62
     7
 10
-90.0
 20
-298.0
 30
0.0
 11
-90.5
 21
-280.0
 31
0.0
  0
LINE
  5
4F0
  8
DATA
  6
CONTINUOUS
 62
     7
 10
-84.0
 20
-298.0
 30
0.0
 11
-90.0
 21
-298.0
 31
0.0
  0
LINE
  5
4F1
  8
DATA
  6
CONTINUOUS
 62
     7
 10
-83.499999999999986
 20
-280.0
 30
0.0
 11
-90.5
 21
-280.0
 31
0.0
  0
LINE
  5
4F2
  8
DATA
  6
CONTINUOUS
 62
     7
 10
-84.0
 20
-298.0
 30
0.0
 11
-83.499999999999986
 21
-280.0
 31
0.0
  0
LINE
  5
4F3
  8
DATA
  6
CONTINUOUS
 62
     7
 10
-33.0
 20
-298.0
 30
0.0
 11
-33.5
 21
-280.0
 31
0.0
  0
LINE
  5
4F4
  8
DATA
  6
CONTINUOUS
 62
     7
 10
-27.0
 20
-298.0
 30
0.0
 11
-33.0
 21
-298.0
 31
0.0
  0
LINE
  5
4F5
  8
DATA
  6
CONTINUOUS
 62
     7
 10
-26.5
 20
-280.0
 30
0.0
 11
-33.5
 21
-280.0
 31
0.0
  0
LINE
  5
4F6
  8
DATA
  6
CONTINUOUS
 62
     7
 10
-27.0
 20
-298.0
 30
0.0
 11
-26.5
 21
-280.0
 31
0.0
  0
LINE
  5
4F7
  8
DATA
  6
CONTINUOUS
 62
     7
 10
38.0
 20
-298.0
 30
0.0
 11
37.5
 21
-280.0
 31
0.0
  0
LINE
  5
4F8
  8
DATA
  6
CONTINUOUS
 62
     7
 10
44.0
 20
-298.0
 30
0.0
 11
38.0
 21
-298.0
 31
0.0
  0
LINE
  5
4F9
  8
DATA
  6
CONTINUOUS
 62
     7
 10
44.5
 20
-280.0
 30
0.0
 11
37.5
 21
-280.0
 31
0.0
  0
LINE
  5
4FA
  8
DATA
  6
CONTINUOUS
 62
     7
 10
44.0
 20
-298.0
 30
0.0
 11
44.5
 21
-280.0
 31
0.0
  0
LINE
  5
4FB
  8
DATA
  6
CONTINUOUS
 62
     7
 10
64.0
 20
-298.0
 30
0.0
 11
63.5
 21
-280.0
 31
0.0
  0
LINE
  5
4FC
  8
DATA
  6
CONTINUOUS
 62
     7
 10
70.0
 20
-298.0
 30
0.0
 11
64.0
 21
-298.0
 31
0.0
  0
LINE
  5
4FD
  8
DATA
  6
CONTINUOUS
 62
     7
 10
70.5
 20
-280.0
 30
0.0
 11
63.5
 21
-280.0
 31
0.0
  0
LINE
  5
4FE
  8
DATA
  6
CONTINUOUS
 62
     7
 10
70.0
 20
-298.0
 30
0.0
 11
70.5
 21
-280.0
 31
0.0
  0
LINE
  5
4FF
  8
DATA
  6
CONTINUOUS
 62
     7
 10
93.499999999999986
 20
-280.0
 30
0.0
 11
78.5
 21
-280.0
 31
0.0
  0
LINE
  5
500
  8
DATA
  6
CONTINUOUS
 62
     7
 10
92.5
 20
-282.0
 30
0.0
 11
79.5
 21
-282.0
 31
0.0
  0
LINE
  5
501
  8
DATA
  6
CONTINUOUS
 62
     7
 10
93.499999999999986
 20
-281.0
 30
0.0
 11
78.5
 21
-281.0
 31
0.0
  0
LINE
  5
502
  8
DATA
  6
CONTINUOUS
 62
     7
 10
88.75
 20
-282.0
 30
0.0
 11
88.75
 21
-283.83455318477007
 31
0.0
  0
LINE
  5
503
  8
DATA
  6
CONTINUOUS
 62
     7
 10
79.5
 20
-282.0
 30
0.0
 11
78.5
 21
-281.0
 31
0.0
  0
LINE
  5
504
  8
DATA
  6
CONTINUOUS
 62
     7
 10
78.5
 20
-281.0
 30
0.0
 11
78.5
 21
-280.0
 31
0.0
  0
LINE
  5
505
  8
DATA
  6
CONTINUOUS
 62
     7
 10
92.5
 20
-282.0
 30
0.0
 11
93.499999999999986
 21
-281.0
 31
0.0
  0
LINE
  5
506
  8
DATA
  6
CONTINUOUS
 62
     7
 10
93.499999999999986
 20
-281.0
 30
0.0
 11
93.499999999999986
 21
-280.0
 31
0.0
  0
LINE
  5
507
  8
DATA
  6
CONTINUOUS
 62
     7
 10
80.5
 20
-283.33083865042482
 30
0.0
 11
80.5
 21
-282.0
 31
0.0
  0
LINE
  5
508
  8
DATA
  6
CONTINUOUS
 62
     7
 10
91.5
 20
-283.33083865042482
 30
0.0
 11
91.5
 21
-282.0
 31
0.0
  0
ARC
  5
509
  8
DATA
  6
CONTINUOUS
 62
     7
 10
86.0
 20
-261.06250000000131
 30
0.0
 40
22.9374999999986
 50
256.1263248469657
 51
283.87367515303538
  0
LINE
  5
50A
  8
DATA
  6
CONTINUOUS
 62
     7
 10
83.250000000000014
 20
-282.0
 30
0.0
 11
88.75
 21
-282.0
 31
0.0
  0
LINE
  5
50B
  8
DATA
  6
CONTINUOUS
 62
     7
 10
83.308384572681462
 20
-282.03370834875398
 30
0.0
 11
83.308384572681462
 21
-283.8415279125652
 31
0.0
  0
CIRCLE
  5
50C
  8
DATA
  6
CONTINUOUS
 62
     7
 10
-119.0
 20
-270.0
 30
0.0
 40
3.0
  0
LINE
  5
50D
  8
DATA
  6
CONTINUOUS
 62
     7
 10
-120.5
 20
-270.0
 30
0.0
 11
-117.5
 21
-270.0
 31
0.0
  0
LINE
  5
50E
  8
DATA
  6
CONTINUOUS
 62
     7
 10
-119.0
 20
-271.5
 30
0.0
 11
-119.0
 21
-268.5
 31
0.0
  0
CIRCLE
  5
50F
  8
DATA
  6
CONTINUOUS
 62
     7
 10
61.0
 20
-270.0
 30
0.0
 40
3.0
  0
LINE
  5
510
  8
DATA
  6
CONTINUOUS
 62
     7
 10
59.5
 20
-270.0
 30
0.0
 11
62.5
 21
-270.0
 31
0.0
  0
LINE
  5
511
  8
DATA
  6
CONTINUOUS
 62
     7
 10
61.0
 20
-271.5
 30
0.0
 11
61.0
 21
-268.5
 31
0.0
  0
CIRCLE
  5
512
  8
DATA
  6
CONTINUOUS
 62
     7
 10
-299.0
 20
-270.0
 30
0.0
 40
3.0
  0
LINE
  5
513
  8
DATA
  6
CONTINUOUS
 62
     7
 10
-300.5
 20
-270.0
 30
0.0
 11
-297.5
 21
-270.0
 31
0.0
  0
LINE
  5
514
  8
DATA
  6
CONTINUOUS
 62
     7
 10
-299.0
 20
-271.5
 30
0.0
 11
-299.0
 21
-268.5
 31
0.0
  0
LINE
  5
515
  8
DATA
  6
CONTINUOUS
 62
     7
 10
25.498039891375129
 20
-60.0
 30
0.0
 11
31.498039891375129
 21
-60.0
 31
0.0
  0
LINE
  5
516
  8
DATA
  6
CONTINUOUS
 62
     7
 10
29.498039891375122
 20
-58.0
 30
0.0
 11
27.498039891375129
 21
-58.0
 31
0.0
  0
ARC
  5
517
  8
DATA
  6
CONTINUOUS
 62
     7
 10
29.498039891375122
 20
-60.0
 30
0.0
 40
2.0
 50
0.0
 51
90.0
  0
ARC
  5
518
  8
DATA
  6
CONTINUOUS
 62
     7
 10
27.498039891375129
 20
-60.0
 30
0.0
 40
2.0
 50
90.0
 51
180.0
  0
LINE
  5
519
  8
DATA
  6
CONTINUOUS
 62
     7
 10
65.8900000000001
 20
-60.0
 30
0.0
 11
71.8900000000001
 21
-60.0
 31
0.0
  0
LINE
  5
51A
  8
DATA
  6
CONTINUOUS
 62
     7
 10
65.8900000000001
 20
-52.5
 30
0.0
 11
65.8900000000001
 21
-60.0
 31
0.0
  0
LINE
  5
51B
  8
DATA
  6
CONTINUOUS
 62
     7
 10
70.8900000000001
 20
-51.5
 30
0.0
 11
69.3900000000001
 21
-51.5
 31
0.0
  0
LINE
  5
51C
  8
DATA
  6
CONTINUOUS
 62
     7
 10
68.3900000000001
 20
-51.5
 30
0.0
 11
66.8900000000001
 21
-51.5
 31
0.0
  0
LINE
  5
51D
  8
DATA
  6
CONTINUOUS
 62
     7
 10
66.8900000000001
 20
-51.5
 30
0.0
 11
65.8900000000001
 21
-52.5
 31
0.0
  0
LINE
  5
51E
  8
DATA
  6
CONTINUOUS
 62
     7
 10
71.8900000000001
 20
-60.0
 30
0.0
 11
71.8900000000001
 21
-52.5
 31
0.0
  0
LINE
  5
51F
  8
DATA
  6
CONTINUOUS
 62
     7
 10
71.8900000000001
 20
-52.5
 30
0.0
 11
70.8900000000001
 21
-51.5
 31
0.0
  0
LINE
  5
520
  8
DATA
  6
CONTINUOUS
 62
     7
 10
68.3900000000001
 20
-60.0
 30
0.0
 11
69.3900000000001
 21
-60.0
 31
0.0
  0
LINE
  5
521
  8
DATA
  6
CONTINUOUS
 62
     7
 10
69.3900000000001
 20
-51.5
 30
0.0
 11
68.3900000000001
 21
-51.5
 31
0.0
  0
LINE
  5
522
  8
DATA
  6
CONTINUOUS
 62
     7
 10
52.890000000000107
 20
-60.0
 30
0.0
 11
58.8900000000001
 21
-60.0
 31
0.0
  0
LINE
  5
523
  8
DATA
  6
CONTINUOUS
 62
     7
 10
52.890000000000107
 20
-52.5
 30
0.0
 11
52.890000000000107
 21
-60.0
 31
0.0
  0
LINE
  5
524
  8
DATA
  6
CONTINUOUS
 62
     7
 10
57.890000000000107
 20
-51.5
 30
0.0
 11
56.3900000000001
 21
-51.5
 31
0.0
  0
LINE
  5
525
  8
DATA
  6
CONTINUOUS
 62
     7
 10
55.390000000000107
 20
-51.5
 30
0.0
 11
53.8900000000001
 21
-51.5
 31
0.0
  0
LINE
  5
526
  8
DATA
  6
CONTINUOUS
 62
     7
 10
53.8900000000001
 20
-51.5
 30
0.0
 11
52.890000000000107
 21
-52.5
 31
0.0
  0
LINE
  5
527
  8
DATA
  6
CONTINUOUS
 62
     7
 10
58.8900000000001
 20
-60.0
 30
0.0
 11
58.8900000000001
 21
-52.5
 31
0.0
  0
LINE
  5
528
  8
DATA
  6
CONTINUOUS
 62
     7
 10
58.8900000000001
 20
-52.5
 30
0.0
 11
57.890000000000107
 21
-51.5
 31
0.0
  0
LINE
  5
529
  8
DATA
  6
CONTINUOUS
 62
     7
 10
55.390000000000107
 20
-60.0
 30
0.0
 11
56.3900000000001
 21
-60.0
 31
0.0
  0
LINE
  5
52A
  8
DATA
  6
CONTINUOUS
 62
     7
 10
56.3900000000001
 20
-51.5
 30
0.0
 11
55.390000000000107
 21
-51.5
 31
0.0
  0
LINE
  5
52B
  8
DATA
  6
CONTINUOUS
 62
     7
 10
-2.52607978309993
 20
-60.0
 30
0.0
 11
3.4739202169000678
 21
-60.0
 31
0.0
  0
LINE
  5
52C
  8
DATA
  6
CONTINUOUS
 62
     7
 10
-2.52607978309993
 20
-52.5
 30
0.0
 11
-2.52607978309993
 21
-60.0
 31
0.0
  0
LINE
  5
52D
  8
DATA
  6
CONTINUOUS
 62
     7
 10
2.4739202169000678
 20
-51.5
 30
0.0
 11
0.9739202169000693
 21
-51.5
 31
0.0
  0
LINE
  5
52E
  8
DATA
  6
CONTINUOUS
 62
     7
 10
-0.0260797830999309
 20
-51.5
 30
0.0
 11
-1.52607978309993
 21
-51.5
 31
0.0
  0
LINE
  5
52F
  8
DATA
  6
CONTINUOUS
 62
     7
 10
-1.52607978309993
 20
-51.5
 30
0.0
 11
-2.52607978309993
 21
-52.5
 31
0.0
  0
LINE
  5
530
  8
DATA
  6
CONTINUOUS
 62
     7
 10
3.4739202169000678
 20
-60.0
 30
0.0
 11
3.4739202169000678
 21
-52.5
 31
0.0
  0
LINE
  5
531
  8
DATA
  6
CONTINUOUS
 62
     7
 10
3.4739202169000678
 20
-52.5
 30
0.0
 11
2.4739202169000678
 21
-51.5
 31
0.0
  0
LINE
  5
532
  8
DATA
  6
CONTINUOUS
 62
     7
 10
-0.0260797830999309
 20
-60.0
 30
0.0
 11
0.9739202169000693
 21
-60.0
 31
0.0
  0
LINE
  5
533
  8
DATA
  6
CONTINUOUS
 62
     7
 10
0.9739202169000693
 20
-51.5
 30
0.0
 11
-0.0260797830999309
 21
-51.5
 31
0.0
  0
LINE
  5
534
  8
DATA
  6
CONTINUOUS
 62
     7
 10
-15.526079783099931
 20
-60.0
 30
0.0
 11
-9.5260797830999309
 21
-60.0
 31
0.0
  0
LINE
  5
535
  8
DATA
  6
CONTINUOUS
 62
     7
 10
-15.526079783099931
 20
-52.5
 30
0.0
 11
-15.526079783099931
 21
-60.0
 31
0.0
  0
LINE
  5
536
  8
DATA
  6
CONTINUOUS
 62
     7
 10
-10.526079783099931
 20
-51.5
 30
0.0
 11
-12.026079783099931
 21
-51.5
 31
0.0
  0
LINE
  5
537
  8
DATA
  6
CONTINUOUS
 62
     7
 10
-13.026079783099931
 20
-51.5
 30
0.0
 11
-14.526079783099931
 21
-51.5
 31
0.0
  0
LINE
  5
538
  8
DATA
  6
CONTINUOUS
 62
     7
 10
-14.526079783099931
 20
-51.5
 30
0.0
 11
-15.526079783099931
 21
-52.5
 31
0.0
  0
LINE
  5
539
  8
DATA
  6
CONTINUOUS
 62
     7
 10
-9.5260797830999309
 20
-60.0
 30
0.0
 11
-9.5260797830999309
 21
-52.5
 31
0.0
  0
LINE
  5
53A
  8
DATA
  6
CONTINUOUS
 62
     7
 10
-9.5260797830999309
 20
-52.5
 30
0.0
 11
-10.526079783099931
 21
-51.5
 31
0.0
  0
LINE
  5
53B
  8
DATA
  6
CONTINUOUS
 62
     7
 10
-13.026079783099931
 20
-60.0
 30
0.0
 11
-12.026079783099931
 21
-60.0
 31
0.0
  0
LINE
  5
53C
  8
DATA
  6
CONTINUOUS
 62
     7
 10
-12.026079783099931
 20
-51.5
 30
0.0
 11
-13.026079783099931
 21
-51.5
 31
0.0
  0
LINE
  5
53D
  8
DATA
  6
CONTINUOUS
 62
     7
 10
-70.942159566199933
 20
-60.0
 30
0.0
 11
-64.942159566199962
 21
-60.0
 31
0.0
  0
LINE
  5
53E
  8
DATA
  6
CONTINUOUS
 62
     7
 10
-70.942159566199933
 20
-52.5
 30
0.0
 11
-70.942159566199933
 21
-60.0
 31
0.0
  0
LINE
  5
53F
  8
DATA
  6
CONTINUOUS
 62
     7
 10
-65.942159566199962
 20
-51.5
 30
0.0
 11
-67.442159566199962
 21
-51.5
 31
0.0
  0
LINE
  5
540
  8
DATA
  6
CONTINUOUS
 62
     7
 10
-68.442159566199962
 20
-51.5
 30
0.0
 11
-69.942159566199962
 21
-51.5
 31
0.0
  0
LINE
  5
541
  8
DATA
  6
CONTINUOUS
 62
     7
 10
-69.942159566199962
 20
-51.5
 30
0.0
 11
-70.942159566199933
 21
-52.5
 31
0.0
  0
LINE
  5
542
  8
DATA
  6
CONTINUOUS
 62
     7
 10
-64.942159566199962
 20
-60.0
 30
0.0
 11
-64.942159566199962
 21
-52.5
 31
0.0
  0
LINE
  5
543
  8
DATA
  6
CONTINUOUS
 62
     7
 10
-64.942159566199962
 20
-52.5
 30
0.0
 11
-65.942159566199962
 21
-51.5
 31
0.0
  0
LINE
  5
544
  8
DATA
  6
CONTINUOUS
 62
     7
 10
-68.442159566199962
 20
-60.0
 30
0.0
 11
-67.442159566199962
 21
-60.0
 31
0.0
  0
LINE
  5
545
  8
DATA
  6
CONTINUOUS
 62
     7
 10
-67.442159566199962
 20
-51.5
 30
0.0
 11
-68.442159566199962
 21
-51.5
 31
0.0
  0
LINE
  5
546
  8
DATA
  6
CONTINUOUS
 62
     7
 10
-83.942159566199976
 20
-60.0
 30
0.0
 11
-77.942159566199976
 21
-60.0
 31
0.0
  0
LINE
  5
547
  8
DATA
  6
CONTINUOUS
 62
     7
 10
-83.942159566199976
 20
-52.5
 30
0.0
 11
-83.942159566199976
 21
-60.0
 31
0.0
  0
LINE
  5
548
  8
DATA
  6
CONTINUOUS
 62
     7
 10
-78.942159566199976
 20
-51.5
 30
0.0
 11
-80.442159566199976
 21
-51.5
 31
0.0
  0
LINE
  5
549
  8
DATA
  6
CONTINUOUS
 62
     7
 10
-81.442159566199976
 20
-51.5
 30
0.0
 11
-82.942159566199976
 21
-51.5
 31
0.0
  0
LINE
  5
54A
  8
DATA
  6
CONTINUOUS
 62
     7
 10
-82.942159566199976
 20
-51.5
 30
0.0
 11
-83.942159566199976
 21
-52.5
 31
0.0
  0
LINE
  5
54B
  8
DATA
  6
CONTINUOUS
 62
     7
 10
-77.942159566199976
 20
-60.0
 30
0.0
 11
-77.942159566199976
 21
-52.5
 31
0.0
  0
LINE
  5
54C
  8
DATA
  6
CONTINUOUS
 62
     7
 10
-77.942159566199976
 20
-52.5
 30
0.0
 11
-78.942159566199976
 21
-51.5
 31
0.0
  0
LINE
  5
54D
  8
DATA
  6
CONTINUOUS
 62
     7
 10
-81.442159566199976
 20
-60.0
 30
0.0
 11
-80.442159566199976
 21
-60.0
 31
0.0
  0
LINE
  5
54E
  8
DATA
  6
CONTINUOUS
 62
     7
 10
-80.442159566199976
 20
-51.5
 30
0.0
 11
-81.442159566199976
 21
-51.5
 31
0.0
  0
LINE
  5
54F
  8
DATA
  6
CONTINUOUS
 62
     7
 10
-173.1519601084498
 20
-55.5
 30
0.0
 11
-173.1519601084498
 21
-60.0
 31
0.0
  0
LINE
  5
550
  8
DATA
  6
CONTINUOUS
 62
     7
 10
-165.65196010844991
 20
-55.0
 30
0.0
 11
-172.6519601084498
 21
-55.0
 31
0.0
  0
LINE
  5
551
  8
DATA
  6
CONTINUOUS
 62
     7
 10
-165.15196010844991
 20
-60.0
 30
0.0
 11
-165.15196010844991
 21
-55.5
 31
0.0
  0
ARC
  5
552
  8
DATA
  6
CONTINUOUS
 62
     7
 10
-165.65196010844991
 20
-55.5
 30
0.0
 40
0.5
 50
0.0
 51
90.0
  0
ARC
  5
553
  8
DATA
  6
CONTINUOUS
 62
     7
 10
-172.6519601084498
 20
-55.5
 30
0.0
 40
0.5
 50
90.0
 51
180.0
  0
LINE
  5
554
  8
DATA
  6
CONTINUOUS
 62
     7
 10
-173.1519601084498
 20
-60.0
 30
0.0
 11
-165.15196010844991
 21
-60.0
 31
0.0
  0
LINE
  5
555
  8
DATA
  6
CONTINUOUS
 62
     7
 10
-218.05196510844991
 20
-60.0
 30
0.0
 11
-243.0519651084501
 21
-60.0
 31
0.0
  0
LINE
  5
556
  8
DATA
  6
CONTINUOUS
 62
     7
 10
-223.02758971831281
 20
-55.0
 30
0.0
 11
-238.07634049858731
 21
-55.0
 31
0.0
  0
LINE
  5
557
  8
DATA
  6
CONTINUOUS
 62
     7
 10
-222.3019651084501
 20
-60.0
 30
0.0
 11
-222.52821354887371
 21
-55.47503119152816
 31
0.0
  0
LINE
  5
558
  8
DATA
  6
CONTINUOUS
 62
     7
 10
-238.8019651084501
 20
-60.0
 30
0.0
 11
-238.57571666802639
 21
-55.47503119152816
 31
0.0
  0
ARC
  5
559
  8
DATA
  6
CONTINUOUS
 62
     7
 10
-223.02758971831281
 20
-55.5
 30
0.0
 40
0.5000000000001464
 50
2.862405226098736
 51
90.0
  0
ARC
  5
55A
  8
DATA
  6
CONTINUOUS
 62
     7
 10
-238.0763404985878
 20
-55.5
 30
0.0
 40
0.5
 50
89.999999999947889
 51
177.13759477389871
  0
LINE
  5
55B
  8
DATA
  6
CONTINUOUS
 62
     7
 10
-240.8019651084501
 20
-60.0
 30
0.0
 11
-240.8019651084501
 21
-55.0
 31
0.0
  0
LINE
  5
55C
  8
DATA
  6
CONTINUOUS
 62
     7
 10
-245.8019651084501
 20
-60.0
 30
0.0
 11
-240.8019651084501
 21
-60.0
 31
0.0
  0
LINE
  5
55D
  8
DATA
  6
CONTINUOUS
 62
     7
 10
-245.8019651084501
 20
-55.0
 30
0.0
 11
-245.8019651084501
 21
-60.0
 31
0.0
  0
LINE
  5
55E
  8
DATA
  6
CONTINUOUS
 62
     7
 10
-240.8019651084501
 20
-55.0
 30
0.0
 11
-245.8019651084501
 21
-55.0
 31
0.0
  0
LINE
  5
55F
  8
DATA
  6
CONTINUOUS
 62
     7
 10
-243.3019651084501
 20
-55.0
 30
0.0
 11
-243.3019651084501
 21
-60.0
 31
0.0
  0
LINE
  5
560
  8
DATA
  6
CONTINUOUS
 62
     7
 10
-215.55196510844991
 20
-60.0
 30
0.0
 11
-215.55196510844991
 21
-55.0
 31
0.0
  0
LINE
  5
561
  8
DATA
  6
CONTINUOUS
 62
     7
 10
-220.55196510844979
 20
-60.0
 30
0.0
 11
-215.55196510844991
 21
-60.0
 31
0.0
  0
LINE
  5
562
  8
DATA
  6
CONTINUOUS
 62
     7
 10
-220.55196510844979
 20
-55.0
 30
0.0
 11
-220.55196510844979
 21
-60.0
 31
0.0
  0
LINE
  5
563
  8
DATA
  6
CONTINUOUS
 62
     7
 10
-215.55196510844991
 20
-55.0
 30
0.0
 11
-220.55196510844979
 21
-55.0
 31
0.0
  0
LINE
  5
564
  8
DATA
  6
CONTINUOUS
 62
     7
 10
-218.05196510844991
 20
-55.0
 30
0.0
 11
-218.05196510844991
 21
-60.0
 31
0.0
  0
LINE
  5
565
  8
DATA
  6
CONTINUOUS
 62
     7
 10
-269.5019601086251
 20
-60.0
 30
0.0
 11
-263.5019601086251
 21
-60.0
 31
0.0
  0
LINE
  5
566
  8
DATA
  6
CONTINUOUS
 62
     7
 10
-265.5019601086251
 20
-58.0
 30
0.0
 11
-267.5019601086251
 21
-58.0
 31
0.0
  0
ARC
  5
567
  8
DATA
  6
CONTINUOUS
 62
     7
 10
-265.5019601086251
 20
-60.0
 30
0.0
 40
2.0
 50
0.0
 51
90.0
  0
ARC
  5
568
  8
DATA
  6
CONTINUOUS
 62
     7
 10
-267.5019601086251
 20
-60.0
 30
0.0
 40
2.0
 50
90.0
 51
180.0
  0
LINE
  5
569
  8
DATA
  6
CONTINUOUS
 62
     7
 10
-281.0019601086251
 20
-60.0
 30
0.0
 11
-281.0019601086251
 21
-59.0
 31
0.0
  0
LINE
  5
56A
  8
DATA
  6
CONTINUOUS
 62
     7
 10
-314.5019601086251
 20
-60.0
 30
0.0
 11
-281.0019601086251
 21
-60.0
 31
0.0
  0
LINE
  5
56B
  8
DATA
  6
CONTINUOUS
 62
     7
 10
-314.5019601086251
 20
-59.0
 30
0.0
 11
-314.5019601086251
 21
-60.0
 31
0.0
  0
LINE
  5
56C
  8
DATA
  6
CONTINUOUS
 62
     7
 10
-281.0019601086251
 20
-59.0
 30
0.0
 11
-314.5019601086251
 21
-59.0
 31
0.0
  0
LINE
  5
56D
  8
DATA
  6
CONTINUOUS
 62
     7
 10
-282.2519601086251
 20
-59.0
 30
0.0
 11
-282.2519601086251
 21
-57.0
 31
0.0
  0
LINE
  5
56E
  8
DATA
  6
CONTINUOUS
 62
     7
 10
-313.2519601086251
 20
-59.0
 30
0.0
 11
-282.2519601086251
 21
-59.0
 31
0.0
  0
LINE
  5
56F
  8
DATA
  6
CONTINUOUS
 62
     7
 10
-313.2519601086251
 20
-57.0
 30
0.0
 11
-313.2519601086251
 21
-59.0
 31
0.0
  0
LINE
  5
570
  8
DATA
  6
CONTINUOUS
 62
     7
 10
-282.2519601086251
 20
-57.0
 30
0.0
 11
-313.2519601086251
 21
-57.0
 31
0.0
  0
ARC
  5
571
  8
DATA
  6
CONTINUOUS
 62
     7
 10
-306.28423216861029
 20
-55.5
 30
0.0
 40
2.5
 50
0.0
 51
180.0
  0
LINE
  5
572
  8
DATA
  6
CONTINUOUS
 62
     7
 10
-303.78423216861029
 20
-55.5
 30
0.0
 11
-303.78423216861029
 21
-57.0
 31
0.0
  0
LINE
  5
573
  8
DATA
  6
CONTINUOUS
 62
     7
 10
-303.78423216861029
 20
-57.0
 30
0.0
 11
-308.78423216861029
 21
-57.0
 31
0.0
  0
LINE
  5
574
  8
DATA
  6
CONTINUOUS
 62
     7
 10
-308.78423216861029
 20
-55.5
 30
0.0
 11
-308.78423216861029
 21
-57.0
 31
0.0
  0
LINE
  5
575
  8
DATA
  6
CONTINUOUS
 62
     7
 10
-266.0
 20
-298.0
 30
0.0
 11
-266.5
 21
-280.0
 31
0.0
  0
LINE
  5
576
  8
DATA
  6
CONTINUOUS
 62
     7
 10
-260.0
 20
-298.0
 30
0.0
 11
-266.0
 21
-298.0
 31
0.0
  0
LINE
  5
577
  8
DATA
  6
CONTINUOUS
 62
     7
 10
-259.5
 20
-280.0
 30
0.0
 11
-266.5
 21
-280.0
 31
0.0
  0
LINE
  5
578
  8
DATA
  6
CONTINUOUS
 62
     7
 10
-260.0
 20
-298.0
 30
0.0
 11
-259.5
 21
-280.0
 31
0.0
  0
LINE
  5
579
  8
DATA
  6
CONTINUOUS
 62
     7
 10
-244.0
 20
-298.0
 30
0.0
 11
-244.5
 21
-280.0
 31
0.0
  0
LINE
  5
57A
  8
DATA
  6
CONTINUOUS
 62
     7
 10
-238.0
 20
-298.0
 30
0.0
 11
-244.0
 21
-298.0
 31
0.0
  0
LINE
  5
57B
  8
DATA
  6
CONTINUOUS
 62
     7
 10
-237.5
 20
-280.0
 30
0.0
 11
-244.5
 21
-280.0
 31
0.0
  0
LINE
  5
57C
  8
DATA
  6
CONTINUOUS
 62
     7
 10
-238.0
 20
-298.0
 30
0.0
 11
-237.5
 21
-280.0
 31
0.0
  0
LINE
  5
57D
  8
DATA
  6
CONTINUOUS
 62
     7
 10
-200.0
 20
-298.0
 30
0.0
 11
-200.5
 21
-280.0
 31
0.0
  0
LINE
  5
57E
  8
DATA
  6
CONTINUOUS
 62
     7
 10
-194.0
 20
-298.0
 30
0.0
 11
-200.0
 21
-298.0
 31
0.0
  0
LINE
  5
57F
  8
DATA
  6
CONTINUOUS
 62
     7
 10
-193.5
 20
-280.0
 30
0.0
 11
-200.5
 21
-280.0
 31
0.0
  0
LINE
  5
580
  8
DATA
  6
CONTINUOUS
 62
     7
 10
-194.0
 20
-298.0
 30
0.0
 11
-193.5
 21
-280.0
 31
0.0
  0
LINE
  5
581
  8
DATA
  6
CONTINUOUS
 62
     7
 10
-156.0
 20
-298.0
 30
0.0
 11
-156.5
 21
-280.0
 31
0.0
  0
LINE
  5
582
  8
DATA
  6
CONTINUOUS
 62
     7
 10
-150.0
 20
-298.0
 30
0.0
 11
-156.0
 21
-298.0
 31
0.0
  0
LINE
  5
583
  8
DATA
  6
CONTINUOUS
 62
     7
 10
-149.5
 20
-280.0
 30
0.0
 11
-156.5
 21
-280.0
 31
0.0
  0
LINE
  5
584
  8
DATA
  6
CONTINUOUS
 62
     7
 10
-150.0
 20
-298.0
 30
0.0
 11
-149.5
 21
-280.0
 31
0.0
  0
LINE
  5
585
  8
DATA
  6
CONTINUOUS
 62
     7
 10
-112.0
 20
-298.0
 30
0.0
 11
-112.5
 21
-280.0
 31
0.0
  0
LINE
  5
586
  8
DATA
  6
CONTINUOUS
 62
     7
 10
-106.0
 20
-298.0
 30
0.0
 11
-112.0
 21
-298.0
 31
0.0
  0
LINE
  5
587
  8
DATA
  6
CONTINUOUS
 62
     7
 10
-105.5
 20
-280.0
 30
0.0
 11
-112.5
 21
-280.0
 31
0.0
  0
LINE
  5
588
  8
DATA
  6
CONTINUOUS
 62
     7
 10
-106.0
 20
-298.0
 30
0.0
 11
-105.5
 21
-280.0
 31
0.0
  0
LINE
  5
589
  8
DATA
  6
CONTINUOUS
 62
     7
 10
-68.0
 20
-298.0
 30
0.0
 11
-68.5
 21
-280.0
 31
0.0
  0
LINE
  5
58A
  8
DATA
  6
CONTINUOUS
 62
     7
 10
-62.0
 20
-298.0
 30
0.0
 11
-68.0
 21
-298.0
 31
0.0
  0
LINE
  5
58B
  8
DATA
  6
CONTINUOUS
 62
     7
 10
-61.5
 20
-280.0
 30
0.0
 11
-68.5
 21
-280.0
 31
0.0
  0
LINE
  5
58C
  8
DATA
  6
CONTINUOUS
 62
     7
 10
-62.0
 20
-298.0
 30
0.0
 11
-61.5
 21
-280.0
 31
0.0
  0
LINE
  5
58D
  8
DATA
  6
CONTINUOUS
 62
     7
 10
13.0
 20
-298.0
 30
0.0
 11
12.5
 21
-280.0
 31
0.0
  0
LINE
  5
58E
  8
DATA
  6
CONTINUOUS
 62
     7
 10
19.0
 20
-298.0
 30
0.0
 11
13.0
 21
-298.0
 31
0.0
  0
LINE
  5
58F
  8
DATA
  6
CONTINUOUS
 62
     7
 10
19.5
 20
-280.0
 30
0.0
 11
12.5
 21
-280.0
 31
0.0
  0
LINE
  5
590
  8
DATA
  6
CONTINUOUS
 62
     7
 10
19.0
 20
-298.0
 30
0.0
 11
19.5
 21
-280.0
 31
0.0
  0
LINE
  5
591
  8
DATA
  6
CONTINUOUS
 62
     7
 10
61.980000000000253
 20
-60.0
 30
0.0
 11
61.980000000000253
 21
-58.0
 31
0.0
  0
LINE
  5
592
  8
DATA
  6
CONTINUOUS
 62
     7
 10
60.480000000000238
 20
-60.0
 30
0.0
 11
61.980000000000253
 21
-60.0
 31
0.0
  0
LINE
  5
593
  8
DATA
  6
CONTINUOUS
 62
     7
 10
60.480000000000238
 20
-58.0
 30
0.0
 11
60.480000000000238
 21
-60.0
 31
0.0
  0
LINE
  5
594
  8
DATA
  6
CONTINUOUS
 62
     7
 10
61.980000000000253
 20
-58.0
 30
0.0
 11
60.480000000000238
 21
-58.0
 31
0.0
  0
LINE
  5
595
  8
DATA
  6
CONTINUOUS
 62
     7
 10
-6.4360797830997836
 20
-60.0
 30
0.0
 11
-6.4360797830997836
 21
-58.0
 31
0.0
  0
LINE
  5
596
  8
DATA
  6
CONTINUOUS
 62
     7
 10
-7.9360797830997853
 20
-60.0
 30
0.0
 11
-6.4360797830997836
 21
-60.0
 31
0.0
  0
LINE
  5
597
  8
DATA
  6
CONTINUOUS
 62
     7
 10
-7.9360797830997853
 20
-58.0
 30
0.0
 11
-7.9360797830997853
 21
-60.0
 31
0.0
  0
LINE
  5
598
  8
DATA
  6
CONTINUOUS
 62
     7
 10
-6.4360797830997836
 20
-58.0
 30
0.0
 11
-7.9360797830997853
 21
-58.0
 31
0.0
  0
LINE
  5
599
  8
DATA
  6
CONTINUOUS
 62
     7
 10
-74.852159566199802
 20
-60.0
 30
0.0
 11
-74.852159566199802
 21
-58.0
 31
0.0
  0
LINE
  5
59A
  8
DATA
  6
CONTINUOUS
 62
     7
 10
-76.352159566199802
 20
-60.0
 30
0.0
 11
-74.852159566199802
 21
-60.0
 31
0.0
  0
LINE
  5
59B
  8
DATA
  6
CONTINUOUS
 62
     7
 10
-76.352159566199802
 20
-58.0
 30
0.0
 11
-76.352159566199802
 21
-60.0
 31
0.0
  0
LINE
  5
59C
  8
DATA
  6
CONTINUOUS
 62
     7
 10
-74.852159566199802
 20
-58.0
 30
0.0
 11
-76.352159566199802
 21
-58.0
 31
0.0
  0
CIRCLE
  5
59D
  8
DATA
  6
CONTINUOUS
 62
     7
 10
86.0
 20
-409.0
 30
0.0
 40
7.5
  0
POLYLINE
  5
59E
  8
DATA
  6
CONTINUOUS
 62
     7
 66
     1
 10
0.0
 20
0.0
 30
0.0
 70
     1
  0
VERTEX
  5
9E2
  8
DATA
  6
CONTINUOUS
 62
     7
 10
91.5
 20
-409.0
 30
0.0
  0
VERTEX
  5
9E3
  8
DATA
  6
CONTINUOUS
 62
     7
 10
88.75
 20
-404.23686027918541
 30
0.0
  0
VERTEX
  5
9E4
  8
DATA
  6
CONTINUOUS
 62
     7
 10
83.250000000000014
 20
-404.23686027918541
 30
0.0
  0
VERTEX
  5
9E5
  8
DATA
  6
CONTINUOUS
 62
     7
 10
80.5
 20
-409.0
 30
0.0
  0
VERTEX
  5
9E6
  8
DATA
  6
CONTINUOUS
 62
     7
 10
83.250000000000014
 20
-413.76313972081448
 30
0.0
  0
VERTEX
  5
9E7
  8
DATA
  6
CONTINUOUS
 62
     7
 10
88.75
 20
-413.76313972081448
 30
0.0
  0
SEQEND
  5
9E8
  8
DATA
  6
CONTINUOUS
 62
     7
  0
CIRCLE
  5
5A7
  8
DATA
  6
CONTINUOUS
 62
     7
 10
86.0
 20
-409.0
 30
0.0
 40
3.1999999999998181
  0
CIRCLE
  5
5A8
  8
DATA
  6
CONTINUOUS
 62
     7
 10
86.0
 20
-409.0
 30
0.0
 40
6.5
  0
CIRCLE
  5
5A9
  8
DATA
  6
CONTINUOUS
 62
     7
 10
66.0
 20
-391.5
 30
0.0
 40
2.9999999999998641
  0
CIRCLE
  5
5AA
  8
DATA
  6
CONTINUOUS
 62
     7
 10
66.0
 20
-391.5
 30
0.0
 40
3.499999999999948
  0
CIRCLE
  5
5AB
  8
DATA
  6
CONTINUOUS
 62
     7
 10
66.0
 20
-391.5
 30
0.0
 40
7.4999999999999796
  0
CIRCLE
  5
5AC
  8
DATA
  6
CONTINUOUS
 62
     7
 10
66.0
 20
-391.5
 30
0.0
 40
11.500000000000011
  0
CIRCLE
  5
5AD
  8
DATA
  6
CONTINUOUS
 62
     7
 10
41.0
 20
-391.5
 30
0.0
 40
2.9999999999998641
  0
CIRCLE
  5
5AE
  8
DATA
  6
CONTINUOUS
 62
     7
 10
41.0
 20
-391.5
 30
0.0
 40
3.499999999999948
  0
CIRCLE
  5
5AF
  8
DATA
  6
CONTINUOUS
 62
     7
 10
41.0
 20
-391.5
 30
0.0
 40
7.4999999999999796
  0
CIRCLE
  5
5B0
  8
DATA
  6
CONTINUOUS
 62
     7
 10
41.0
 20
-391.5
 30
0.0
 40
11.500000000000011
  0
CIRCLE
  5
5B1
  8
DATA
  6
CONTINUOUS
 62
     7
 10
16.0
 20
-391.5
 30
0.0
 40
2.9999999999998641
  0
CIRCLE
  5
5B2
  8
DATA
  6
CONTINUOUS
 62
     7
 10
16.0
 20
-391.5
 30
0.0
 40
3.499999999999948
  0
CIRCLE
  5
5B3
  8
DATA
  6
CONTINUOUS
 62
     7
 10
16.0
 20
-391.5
 30
0.0
 40
7.4999999999999796
  0
CIRCLE
  5
5B4
  8
DATA
  6
CONTINUOUS
 62
     7
 10
16.0
 20
-391.5
 30
0.0
 40
11.500000000000011
  0
CIRCLE
  5
5B5
  8
DATA
  6
CONTINUOUS
 62
     7
 10
-30.5
 20
-397.5
 30
0.0
 40
2.9999999999998641
  0
CIRCLE
  5
5B6
  8
DATA
  6
CONTINUOUS
 62
     7
 10
-30.5
 20
-397.5
 30
0.0
 40
3.499999999999948
  0
CIRCLE
  5
5B7
  8
DATA
  6
CONTINUOUS
 62
     7
 10
-30.5
 20
-397.5
 30
0.0
 40
7.4999999999999796
  0
CIRCLE
  5
5B8
  8
DATA
  6
CONTINUOUS
 62
     7
 10
-30.5
 20
-397.5
 30
0.0
 40
11.500000000000011
  0
CIRCLE
  5
5B9
  8
DATA
  6
CONTINUOUS
 62
     7
 10
-307.0
 20
-391.5
 30
0.0
 40
2.9999999999998641
  0
CIRCLE
  5
5BA
  8
DATA
  6
CONTINUOUS
 62
     7
 10
-307.0
 20
-391.5
 30
0.0
 40
3.499999999999948
  0
CIRCLE
  5
5BB
  8
DATA
  6
CONTINUOUS
 62
     7
 10
-307.0
 20
-391.5
 30
0.0
 40
7.4999999999999796
  0
CIRCLE
  5
5BC
  8
DATA
  6
CONTINUOUS
 62
     7
 10
-307.0
 20
-391.5
 30
0.0
 40
11.500000000000011
  0
CIRCLE
  5
5BD
  8
DATA
  6
CONTINUOUS
 62
     7
 10
-285.0
 20
-404.49999999999989
 30
0.0
 40
2.9999999999998641
  0
CIRCLE
  5
5BE
  8
DATA
  6
CONTINUOUS
 62
     7
 10
-285.0
 20
-404.49999999999989
 30
0.0
 40
3.499999999999948
  0
CIRCLE
  5
5BF
  8
DATA
  6
CONTINUOUS
 62
     7
 10
-285.0
 20
-404.49999999999989
 30
0.0
 40
7.4999999999999796
  0
CIRCLE
  5
5C0
  8
DATA
  6
CONTINUOUS
 62
     7
 10
-285.0
 20
-404.49999999999989
 30
0.0
 40
11.500000000000011
  0
CIRCLE
  5
5C1
  8
DATA
  6
CONTINUOUS
 62
     7
 10
-263.0
 20
-391.5
 30
0.0
 40
2.9999999999998641
  0
CIRCLE
  5
5C2
  8
DATA
  6
CONTINUOUS
 62
     7
 10
-263.0
 20
-391.5
 30
0.0
 40
3.499999999999948
  0
CIRCLE
  5
5C3
  8
DATA
  6
CONTINUOUS
 62
     7
 10
-263.0
 20
-391.5
 30
0.0
 40
7.4999999999999796
  0
CIRCLE
  5
5C4
  8
DATA
  6
CONTINUOUS
 62
     7
 10
-263.0
 20
-391.5
 30
0.0
 40
11.500000000000011
  0
CIRCLE
  5
5C5
  8
DATA
  6
CONTINUOUS
 62
     7
 10
-241.0
 20
-404.49999999999989
 30
0.0
 40
2.9999999999998641
  0
CIRCLE
  5
5C6
  8
DATA
  6
CONTINUOUS
 62
     7
 10
-241.0
 20
-404.49999999999989
 30
0.0
 40
3.499999999999948
  0
CIRCLE
  5
5C7
  8
DATA
  6
CONTINUOUS
 62
     7
 10
-241.0
 20
-404.49999999999989
 30
0.0
 40
7.4999999999999796
  0
CIRCLE
  5
5C8
  8
DATA
  6
CONTINUOUS
 62
     7
 10
-241.0
 20
-404.49999999999989
 30
0.0
 40
11.500000000000011
  0
CIRCLE
  5
5C9
  8
DATA
  6
CONTINUOUS
 62
     7
 10
-219.0
 20
-391.5
 30
0.0
 40
2.9999999999998641
  0
CIRCLE
  5
5CA
  8
DATA
  6
CONTINUOUS
 62
     7
 10
-219.0
 20
-391.5
 30
0.0
 40
3.499999999999948
  0
CIRCLE
  5
5CB
  8
DATA
  6
CONTINUOUS
 62
     7
 10
-219.0
 20
-391.5
 30
0.0
 40
7.4999999999999796
  0
CIRCLE
  5
5CC
  8
DATA
  6
CONTINUOUS
 62
     7
 10
-219.0
 20
-391.5
 30
0.0
 40
11.500000000000011
  0
CIRCLE
  5
5CD
  8
DATA
  6
CONTINUOUS
 62
     7
 10
-197.0
 20
-404.49999999999989
 30
0.0
 40
2.9999999999998641
  0
CIRCLE
  5
5CE
  8
DATA
  6
CONTINUOUS
 62
     7
 10
-197.0
 20
-404.49999999999989
 30
0.0
 40
3.499999999999948
  0
CIRCLE
  5
5CF
  8
DATA
  6
CONTINUOUS
 62
     7
 10
-197.0
 20
-404.49999999999989
 30
0.0
 40
7.4999999999999796
  0
CIRCLE
  5
5D0
  8
DATA
  6
CONTINUOUS
 62
     7
 10
-197.0
 20
-404.49999999999989
 30
0.0
 40
11.500000000000011
  0
CIRCLE
  5
5D1
  8
DATA
  6
CONTINUOUS
 62
     7
 10
-175.0
 20
-391.5
 30
0.0
 40
2.9999999999998641
  0
CIRCLE
  5
5D2
  8
DATA
  6
CONTINUOUS
 62
     7
 10
-175.0
 20
-391.5
 30
0.0
 40
3.499999999999948
  0
CIRCLE
  5
5D3
  8
DATA
  6
CONTINUOUS
 62
     7
 10
-175.0
 20
-391.5
 30
0.0
 40
7.4999999999999796
  0
CIRCLE
  5
5D4
  8
DATA
  6
CONTINUOUS
 62
     7
 10
-175.0
 20
-391.5
 30
0.0
 40
11.500000000000011
  0
CIRCLE
  5
5D5
  8
DATA
  6
CONTINUOUS
 62
     7
 10
-153.0
 20
-404.49999999999989
 30
0.0
 40
2.9999999999998641
  0
CIRCLE
  5
5D6
  8
DATA
  6
CONTINUOUS
 62
     7
 10
-153.0
 20
-404.49999999999989
 30
0.0
 40
3.499999999999948
  0
CIRCLE
  5
5D7
  8
DATA
  6
CONTINUOUS
 62
     7
 10
-153.0
 20
-404.49999999999989
 30
0.0
 40
7.4999999999999796
  0
CIRCLE
  5
5D8
  8
DATA
  6
CONTINUOUS
 62
     7
 10
-153.0
 20
-404.49999999999989
 30
0.0
 40
11.500000000000011
  0
CIRCLE
  5
5D9
  8
DATA
  6
CONTINUOUS
 62
     7
 10
-131.0
 20
-391.5
 30
0.0
 40
2.9999999999998641
  0
CIRCLE
  5
5DA
  8
DATA
  6
CONTINUOUS
 62
     7
 10
-131.0
 20
-391.5
 30
0.0
 40
3.499999999999948
  0
CIRCLE
  5
5DB
  8
DATA
  6
CONTINUOUS
 62
     7
 10
-131.0
 20
-391.5
 30
0.0
 40
7.4999999999999796
  0
CIRCLE
  5
5DC
  8
DATA
  6
CONTINUOUS
 62
     7
 10
-131.0
 20
-391.5
 30
0.0
 40
11.500000000000011
  0
CIRCLE
  5
5DD
  8
DATA
  6
CONTINUOUS
 62
     7
 10
-109.0
 20
-404.49999999999989
 30
0.0
 40
2.9999999999998641
  0
CIRCLE
  5
5DE
  8
DATA
  6
CONTINUOUS
 62
     7
 10
-109.0
 20
-404.49999999999989
 30
0.0
 40
3.499999999999948
  0
CIRCLE
  5
5DF
  8
DATA
  6
CONTINUOUS
 62
     7
 10
-109.0
 20
-404.49999999999989
 30
0.0
 40
7.4999999999999796
  0
CIRCLE
  5
5E0
  8
DATA
  6
CONTINUOUS
 62
     7
 10
-109.0
 20
-404.49999999999989
 30
0.0
 40
11.500000000000011
  0
CIRCLE
  5
5E1
  8
DATA
  6
CONTINUOUS
 62
     7
 10
-87.0
 20
-391.5
 30
0.0
 40
2.9999999999998641
  0
CIRCLE
  5
5E2
  8
DATA
  6
CONTINUOUS
 62
     7
 10
-87.0
 20
-391.5
 30
0.0
 40
3.499999999999948
  0
CIRCLE
  5
5E3
  8
DATA
  6
CONTINUOUS
 62
     7
 10
-87.0
 20
-391.5
 30
0.0
 40
7.4999999999999796
  0
CIRCLE
  5
5E4
  8
DATA
  6
CONTINUOUS
 62
     7
 10
-87.0
 20
-391.5
 30
0.0
 40
11.500000000000011
  0
CIRCLE
  5
5E5
  8
DATA
  6
CONTINUOUS
 62
     7
 10
-65.0
 20
-404.49999999999989
 30
0.0
 40
2.9999999999998641
  0
CIRCLE
  5
5E6
  8
DATA
  6
CONTINUOUS
 62
     7
 10
-65.0
 20
-404.49999999999989
 30
0.0
 40
3.499999999999948
  0
CIRCLE
  5
5E7
  8
DATA
  6
CONTINUOUS
 62
     7
 10
-65.0
 20
-404.49999999999989
 30
0.0
 40
7.4999999999999796
  0
CIRCLE
  5
5E8
  8
DATA
  6
CONTINUOUS
 62
     7
 10
-65.0
 20
-404.49999999999989
 30
0.0
 40
11.500000000000011
  0
LINE
  5
5E9
  8
DATA
  6
CONTINUOUS
 62
     7
 10
-360.0
 20
-420.0
 30
0.0
 11
-360.0
 21
-375.5
 31
0.0
  0
LINE
  5
5EA
  8
DATA
  6
CONTINUOUS
 62
     7
 10
122.0
 20
-420.0
 30
0.0
 11
-360.0
 21
-420.0
 31
0.0
  0
LINE
  5
5EB
  8
DATA
  6
CONTINUOUS
 62
     7
 10
122.0
 20
-375.5
 30
0.0
 11
122.0
 21
-420.0
 31
0.0
  0
LINE
  5
5EC
  8
DATA
  6
CONTINUOUS
 62
     7
 10
-360.0
 20
-375.5
 30
0.0
 11
122.0
 21
-375.5
 31
0.0
  0
LINE
  5
5ED
  8
DATA
  6
CONTINUOUS
 62
     7
 10
-352.34999999999991
 20
-378.5
 30
0.0
 11
-349.34999999999991
 21
-378.5
 31
0.0
  0
LINE
  5
5EE
  8
DATA
  6
CONTINUOUS
 62
     7
 10
-352.34999999999991
 20
-385.0
 30
0.0
 11
-349.34999999999991
 21
-385.0
 31
0.0
  0
ARC
  5
5EF
  8
DATA
  6
CONTINUOUS
 62
     7
 10
-349.34999999999991
 20
-381.75
 30
0.0
 40
3.25
 50
270.0
 51
90.0
  0
ARC
  5
5F0
  8
DATA
  6
CONTINUOUS
 62
     7
 10
-352.34999999999991
 20
-381.75
 30
0.0
 40
3.25
 50
90.0
 51
270.0
  0
LINE
  5
5F1
  8
DATA
  6
CONTINUOUS
 62
     7
 10
-352.34999999999991
 20
-417.0
 30
0.0
 11
-349.34999999999991
 21
-417.0
 31
0.0
  0
LINE
  5
5F2
  8
DATA
  6
CONTINUOUS
 62
     7
 10
-352.34999999999991
 20
-410.5
 30
0.0
 11
-349.34999999999991
 21
-410.5
 31
0.0
  0
ARC
  5
5F3
  8
DATA
  6
CONTINUOUS
 62
     7
 10
-349.34999999999991
 20
-413.75
 30
0.0
 40
3.25
 50
270.0
 51
90.0
  0
ARC
  5
5F4
  8
DATA
  6
CONTINUOUS
 62
     7
 10
-352.34999999999991
 20
-413.75
 30
0.0
 40
3.25
 50
90.0
 51
270.0
  0
LINE
  5
5F5
  8
DATA
  6
CONTINUOUS
 62
     7
 10
114.34999999999989
 20
-378.5
 30
0.0
 11
111.34999999999989
 21
-378.5
 31
0.0
  0
LINE
  5
5F6
  8
DATA
  6
CONTINUOUS
 62
     7
 10
114.34999999999989
 20
-385.0
 30
0.0
 11
111.34999999999989
 21
-385.0
 31
0.0
  0
ARC
  5
5F7
  8
DATA
  6
CONTINUOUS
 62
     7
 10
111.34999999999989
 20
-381.75
 30
0.0
 40
3.25
 50
90.0
 51
270.0
  0
ARC
  5
5F8
  8
DATA
  6
CONTINUOUS
 62
     7
 10
114.34999999999989
 20
-381.75
 30
0.0
 40
3.25
 50
270.0
 51
90.0
  0
LINE
  5
5F9
  8
DATA
  6
CONTINUOUS
 62
     7
 10
114.34999999999989
 20
-417.0
 30
0.0
 11
111.34999999999989
 21
-417.0
 31
0.0
  0
LINE
  5
5FA
  8
DATA
  6
CONTINUOUS
 62
     7
 10
114.34999999999989
 20
-410.5
 30
0.0
 11
111.34999999999989
 21
-410.5
 31
0.0
  0
ARC
  5
5FB
  8
DATA
  6
CONTINUOUS
 62
     7
 10
111.34999999999989
 20
-413.75
 30
0.0
 40
3.25
 50
90.0
 51
270.0
  0
ARC
  5
5FC
  8
DATA
  6
CONTINUOUS
 62
     7
 10
114.34999999999989
 20
-413.75
 30
0.0
 40
3.25
 50
270.0
 51
90.0
  0
LINE
  5
5FD
  8
DATA
  6
CONTINUOUS
 62
     7
 10
-22.144760927938929
 20
-386.0
 30
0.0
 11
-20.144760927938929
 21
-386.0
 31
0.0
  0
LINE
  5
5FE
  8
DATA
  6
CONTINUOUS
 62
     7
 10
-18.189265851300661
 20
-393.5
 30
0.0
 11
-17.189265851300661
 21
-393.5
 31
0.0
  0
LINE
  5
5FF
  8
DATA
  6
CONTINUOUS
 62
     7
 10
-19.488944636231729
 20
-389.5
 30
0.0
 11
-17.988944636231729
 21
-389.5
 31
0.0
  0
LINE
  5
600
  8
DATA
  6
CONTINUOUS
 62
     7
 10
-19.0
 20
-397.4999999999996
 30
0.0
 11
-17.0
 21
-397.4999999999996
 31
0.0
  0
LINE
  5
601
  8
DATA
  6
CONTINUOUS
 62
     7
 10
-19.562850062605769
 20
-393.94630456468758
 30
0.0
 11
-18.189265851300661
 21
-393.5
 31
0.0
  0
LINE
  5
602
  8
DATA
  6
CONTINUOUS
 62
     7
 10
-21.196304564688489
 20
-390.74046959863608
 30
0.0
 11
-19.488944636231729
 21
-389.5
 31
0.0
  0
LINE
  5
603
  8
DATA
  6
CONTINUOUS
 62
     7
 10
-23.74046959863654
 20
-388.19630456468741
 30
0.0
 11
-22.144760927938929
 21
-386.0
 31
0.0
  0
LINE
  5
604
  8
DATA
  6
CONTINUOUS
 62
     7
 10
-26.94630456468758
 20
-386.56285006260401
 30
0.0
 11
-25.463744708390092
 21
-382.0
 31
0.0
  0
LINE
  5
605
  8
DATA
  6
CONTINUOUS
 62
     7
 10
-30.5
 20
-386.0
 30
0.0
 11
-30.5
 21
-381.9999999999996
 31
0.0
  0
LINE
  5
606
  8
DATA
  6
CONTINUOUS
 62
     7
 10
-25.463744708390092
 20
-382.0
 30
0.0
 11
-23.963744708390092
 21
-382.0
 31
0.0
  0
LINE
  5
607
  8
DATA
  6
CONTINUOUS
 62
     7
 10
-18.189265851301119
 20
-401.49999999999972
 30
0.0
 11
-17.189265851301109
 21
-401.49999999999972
 31
0.0
  0
LINE
  5
608
  8
DATA
  6
CONTINUOUS
 62
     7
 10
-19.488944636232191
 20
-405.49999999999972
 30
0.0
 11
-17.988944636232191
 21
-405.49999999999972
 31
0.0
  0
LINE
  5
609
  8
DATA
  6
CONTINUOUS
 62
     7
 10
-19.56285006260623
 20
-401.05369543531208
 30
0.0
 11
-18.189265851301119
 21
-401.49999999999972
 31
0.0
  0
LINE
  5
60A
  8
DATA
  6
CONTINUOUS
 62
     7
 10
-21.196304564688951
 20
-404.25953040136358
 30
0.0
 11
-19.488944636232191
 21
-405.49999999999972
 31
0.0
  0
LINE
  5
60B
  8
DATA
  6
CONTINUOUS
 62
     7
 10
-26.946304564688042
 20
-408.4371499373957
 30
0.0
 11
-26.575664600613891
 21
-409.57786245304658
 31
0.0
  0
LINE
  5
60C
  8
DATA
  6
CONTINUOUS
 62
     7
 10
-26.575664600613891
 20
-409.57786245304658
 30
0.0
 11
-24.575664600613891
 21
-409.57786245304658
 31
0.0
  0
LINE
  5
60D
  8
DATA
  6
CONTINUOUS
 62
     7
 10
-38.85523907206106
 20
-386.0
 30
0.0
 11
-40.85523907206106
 21
-386.0
 31
0.0
  0
LINE
  5
60E
  8
DATA
  6
CONTINUOUS
 62
     7
 10
-42.810734148699339
 20
-393.5
 30
0.0
 11
-43.810734148699332
 21
-393.5
 31
0.0
  0
LINE
  5
60F
  8
DATA
  6
CONTINUOUS
 62
     7
 10
-41.51105536376825
 20
-389.5
 30
0.0
 11
-43.01105536376825
 21
-389.5
 31
0.0
  0
LINE
  5
610
  8
DATA
  6
CONTINUOUS
 62
     7
 10
-42.0
 20
-397.4999999999996
 30
0.0
 11
-44.0
 21
-397.4999999999996
 31
0.0
  0
LINE
  5
611
  8
DATA
  6
CONTINUOUS
 62
     7
 10
-41.437149937394231
 20
-393.94630456468758
 30
0.0
 11
-42.810734148699339
 21
-393.5
 31
0.0
  0
LINE
  5
612
  8
DATA
  6
CONTINUOUS
 62
     7
 10
-39.803695435311511
 20
-390.74046959863608
 30
0.0
 11
-41.51105536376825
 21
-389.5
 31
0.0
  0
LINE
  5
613
  8
DATA
  6
CONTINUOUS
 62
     7
 10
-37.259530401363463
 20
-388.19630456468741
 30
0.0
 11
-38.85523907206106
 21
-386.0
 31
0.0
  0
LINE
  5
614
  8
DATA
  6
CONTINUOUS
 62
     7
 10
-34.05369543531242
 20
-386.56285006260401
 30
0.0
 11
-35.536255291609912
 21
-382.0
 31
0.0
  0
LINE
  5
615
  8
DATA
  6
CONTINUOUS
 62
     7
 10
-35.536255291609912
 20
-382.0
 30
0.0
 11
-37.036255291609912
 21
-382.0
 31
0.0
  0
LINE
  5
616
  8
DATA
  6
CONTINUOUS
 62
     7
 10
-42.810734148698877
 20
-401.49999999999972
 30
0.0
 11
-43.810734148698877
 21
-401.49999999999972
 31
0.0
  0
LINE
  5
617
  8
DATA
  6
CONTINUOUS
 62
     7
 10
-41.511055363767809
 20
-405.49999999999972
 30
0.0
 11
-43.011055363767809
 21
-405.49999999999972
 31
0.0
  0
LINE
  5
618
  8
DATA
  6
CONTINUOUS
 62
     7
 10
-41.437149937393777
 20
-401.05369543531208
 30
0.0
 11
-42.810734148698877
 21
-401.49999999999972
 31
0.0
  0
LINE
  5
619
  8
DATA
  6
CONTINUOUS
 62
     7
 10
-39.803695435311063
 20
-404.25953040136358
 30
0.0
 11
-41.511055363767809
 21
-405.49999999999972
 31
0.0
  0
LINE
  5
61A
  8
DATA
  6
CONTINUOUS
 62
     7
 10
-34.053695435311973
 20
-408.4371499373957
 30
0.0
 11
-34.424335399386109
 21
-409.57786245304658
 31
0.0
  0
LINE
  5
61B
  8
DATA
  6
CONTINUOUS
 62
     7
 10
-34.424335399386109
 20
-409.57786245304658
 30
0.0
 11
-36.424335399386102
 21
-409.57786245304658
 31
0.0
  0
CIRCLE
  5
61C
  8
DATA
  6
CONTINUOUS
 62
     7
 10
16.0
 20
-391.5
 30
0.0
 40
2.9999999999998641
  0
CIRCLE
  5
61D
  8
DATA
  6
CONTINUOUS
 62
     7
 10
16.0
 20
-391.5
 30
0.0
 40
3.499999999999948
  0
CIRCLE
  5
61E
  8
DATA
  6
CONTINUOUS
 62
     7
 10
16.0
 20
-391.5
 30
0.0
 40
7.4999999999999796
  0
CIRCLE
  5
61F
  8
DATA
  6
CONTINUOUS
 62
     7
 10
16.0
 20
-391.5
 30
0.0
 40
11.500000000000011
  0
CIRCLE
  5
620
  8
DATA
  6
CONTINUOUS
 62
     7
 10
41.0
 20
-391.5
 30
0.0
 40
2.9999999999998641
  0
CIRCLE
  5
621
  8
DATA
  6
CONTINUOUS
 62
     7
 10
41.0
 20
-391.5
 30
0.0
 40
3.499999999999948
  0
CIRCLE
  5
622
  8
DATA
  6
CONTINUOUS
 62
     7
 10
41.0
 20
-391.5
 30
0.0
 40
7.4999999999999796
  0
CIRCLE
  5
623
  8
DATA
  6
CONTINUOUS
 62
     7
 10
41.0
 20
-391.5
 30
0.0
 40
11.500000000000011
  0
CIRCLE
  5
624
  8
DATA
  6
CONTINUOUS
 62
     7
 10
41.0
 20
-391.5
 30
0.0
 40
2.9999999999998641
  0
CIRCLE
  5
625
  8
DATA
  6
CONTINUOUS
 62
     7
 10
41.0
 20
-391.5
 30
0.0
 40
3.499999999999948
  0
CIRCLE
  5
626
  8
DATA
  6
CONTINUOUS
 62
     7
 10
41.0
 20
-391.5
 30
0.0
 40
7.4999999999999796
  0
CIRCLE
  5
627
  8
DATA
  6
CONTINUOUS
 62
     7
 10
41.0
 20
-391.5
 30
0.0
 40
11.500000000000011
  0
POLYLINE
  5
628
  8
DATA
  6
CONTINUOUS
 62
     7
 66
     1
 10
0.0
 20
0.0
 30
0.0
 70
     1
  0
VERTEX
  5
9E9
  8
DATA
  6
CONTINUOUS
 62
     7
 10
6.0
 20
-413.0
 30
0.0
  0
VERTEX
  5
9EA
  8
DATA
  6
CONTINUOUS
 62
     7
 10
26.0
 20
-413.0
 30
0.0
  0
VERTEX
  5
9EB
  8
DATA
  6
CONTINUOUS
 62
     7
 10
26.0
 20
-415.0
 30
0.0
  0
VERTEX
  5
9EC
  8
DATA
  6
CONTINUOUS
 62
     7
 10
6.0
 20
-415.0
 30
0.0
  0
SEQEND
  5
9ED
  8
DATA
  6
CONTINUOUS
 62
     7
  0
CIRCLE
  5
62F
  8
DATA
  6
CONTINUOUS
 62
     7
 10
7.25
 20
-414.0
 30
0.0
 40
1.000000000000081
  0
CIRCLE
  5
630
  8
DATA
  6
CONTINUOUS
 62
     7
 10
9.75
 20
-414.0
 30
0.0
 40
1.000000000000081
  0
CIRCLE
  5
631
  8
DATA
  6
CONTINUOUS
 62
     7
 10
12.25
 20
-414.0
 30
0.0
 40
1.000000000000081
  0
CIRCLE
  5
632
  8
DATA
  6
CONTINUOUS
 62
     7
 10
14.75
 20
-414.0
 30
0.0
 40
1.000000000000081
  0
CIRCLE
  5
633
  8
DATA
  6
CONTINUOUS
 62
     7
 10
17.25
 20
-414.0
 30
0.0
 40
1.000000000000081
  0
CIRCLE
  5
634
  8
DATA
  6
CONTINUOUS
 62
     7
 10
19.75
 20
-414.0
 30
0.0
 40
1.000000000000081
  0
CIRCLE
  5
635
  8
DATA
  6
CONTINUOUS
 62
     7
 10
22.25
 20
-414.0
 30
0.0
 40
1.000000000000081
  0
CIRCLE
  5
636
  8
DATA
  6
CONTINUOUS
 62
     7
 10
24.75
 20
-414.0
 30
0.0
 40
1.000000000000081
  0
POLYLINE
  5
637
  8
DATA
  6
CONTINUOUS
 62
     7
 66
     1
 10
0.0
 20
0.0
 30
0.0
 70
     1
  0
VERTEX
  5
9EE
  8
DATA
  6
CONTINUOUS
 62
     7
 10
6.0
 20
-408.0
 30
0.0
  0
VERTEX
  5
9EF
  8
DATA
  6
CONTINUOUS
 62
     7
 10
26.0
 20
-408.0
 30
0.0
  0
VERTEX
  5
9F0
  8
DATA
  6
CONTINUOUS
 62
     7
 10
26.0
 20
-410.0
 30
0.0
  0
VERTEX
  5
9F1
  8
DATA
  6
CONTINUOUS
 62
     7
 10
6.0
 20
-410.0
 30
0.0
  0
SEQEND
  5
9F2
  8
DATA
  6
CONTINUOUS
 62
     7
  0
CIRCLE
  5
63E
  8
DATA
  6
CONTINUOUS
 62
     7
 10
7.25
 20
-409.0
 30
0.0
 40
1.000000000000081
  0
CIRCLE
  5
63F
  8
DATA
  6
CONTINUOUS
 62
     7
 10
9.75
 20
-409.0
 30
0.0
 40
1.000000000000081
  0
CIRCLE
  5
640
  8
DATA
  6
CONTINUOUS
 62
     7
 10
12.25
 20
-409.0
 30
0.0
 40
1.000000000000081
  0
CIRCLE
  5
641
  8
DATA
  6
CONTINUOUS
 62
     7
 10
14.75
 20
-409.0
 30
0.0
 40
1.000000000000081
  0
CIRCLE
  5
642
  8
DATA
  6
CONTINUOUS
 62
     7
 10
17.25
 20
-409.0
 30
0.0
 40
1.000000000000081
  0
CIRCLE
  5
643
  8
DATA
  6
CONTINUOUS
 62
     7
 10
19.75
 20
-409.0
 30
0.0
 40
1.000000000000081
  0
CIRCLE
  5
644
  8
DATA
  6
CONTINUOUS
 62
     7
 10
22.25
 20
-409.0
 30
0.0
 40
1.000000000000081
  0
CIRCLE
  5
645
  8
DATA
  6
CONTINUOUS
 62
     7
 10
24.75
 20
-409.0
 30
0.0
 40
1.000000000000081
  0
POLYLINE
  5
646
  8
DATA
  6
CONTINUOUS
 62
     7
 66
     1
 10
0.0
 20
0.0
 30
0.0
 70
     1
  0
VERTEX
  5
9F3
  8
DATA
  6
CONTINUOUS
 62
     7
 10
31.0
 20
-413.0
 30
0.0
  0
VERTEX
  5
9F4
  8
DATA
  6
CONTINUOUS
 62
     7
 10
51.0
 20
-413.0
 30
0.0
  0
VERTEX
  5
9F5
  8
DATA
  6
CONTINUOUS
 62
     7
 10
51.0
 20
-415.0
 30
0.0
  0
VERTEX
  5
9F6
  8
DATA
  6
CONTINUOUS
 62
     7
 10
31.0
 20
-415.0
 30
0.0
  0
SEQEND
  5
9F7
  8
DATA
  6
CONTINUOUS
 62
     7
  0
CIRCLE
  5
64D
  8
DATA
  6
CONTINUOUS
 62
     7
 10
32.25
 20
-414.0
 30
0.0
 40
1.000000000000081
  0
CIRCLE
  5
64E
  8
DATA
  6
CONTINUOUS
 62
     7
 10
34.75
 20
-414.0
 30
0.0
 40
1.000000000000081
  0
CIRCLE
  5
64F
  8
DATA
  6
CONTINUOUS
 62
     7
 10
37.25
 20
-414.0
 30
0.0
 40
1.000000000000081
  0
CIRCLE
  5
650
  8
DATA
  6
CONTINUOUS
 62
     7
 10
39.75
 20
-414.0
 30
0.0
 40
1.000000000000081
  0
CIRCLE
  5
651
  8
DATA
  6
CONTINUOUS
 62
     7
 10
42.25
 20
-414.0
 30
0.0
 40
1.000000000000081
  0
CIRCLE
  5
652
  8
DATA
  6
CONTINUOUS
 62
     7
 10
44.75
 20
-414.0
 30
0.0
 40
1.000000000000081
  0
CIRCLE
  5
653
  8
DATA
  6
CONTINUOUS
 62
     7
 10
47.25
 20
-414.0
 30
0.0
 40
1.000000000000081
  0
CIRCLE
  5
654
  8
DATA
  6
CONTINUOUS
 62
     7
 10
49.75
 20
-414.0
 30
0.0
 40
1.000000000000081
  0
POLYLINE
  5
655
  8
DATA
  6
CONTINUOUS
 62
     7
 66
     1
 10
0.0
 20
0.0
 30
0.0
 70
     1
  0
VERTEX
  5
9F8
  8
DATA
  6
CONTINUOUS
 62
     7
 10
31.0
 20
-408.0
 30
0.0
  0
VERTEX
  5
9F9
  8
DATA
  6
CONTINUOUS
 62
     7
 10
51.0
 20
-408.0
 30
0.0
  0
VERTEX
  5
9FA
  8
DATA
  6
CONTINUOUS
 62
     7
 10
51.0
 20
-410.0
 30
0.0
  0
VERTEX
  5
9FB
  8
DATA
  6
CONTINUOUS
 62
     7
 10
31.0
 20
-410.0
 30
0.0
  0
SEQEND
  5
9FC
  8
DATA
  6
CONTINUOUS
 62
     7
  0
CIRCLE
  5
65C
  8
DATA
  6
CONTINUOUS
 62
     7
 10
32.25
 20
-409.0
 30
0.0
 40
1.000000000000081
  0
CIRCLE
  5
65D
  8
DATA
  6
CONTINUOUS
 62
     7
 10
34.75
 20
-409.0
 30
0.0
 40
1.000000000000081
  0
CIRCLE
  5
65E
  8
DATA
  6
CONTINUOUS
 62
     7
 10
37.25
 20
-409.0
 30
0.0
 40
1.000000000000081
  0
CIRCLE
  5
65F
  8
DATA
  6
CONTINUOUS
 62
     7
 10
39.75
 20
-409.0
 30
0.0
 40
1.000000000000081
  0
CIRCLE
  5
660
  8
DATA
  6
CONTINUOUS
 62
     7
 10
42.25
 20
-409.0
 30
0.0
 40
1.000000000000081
  0
CIRCLE
  5
661
  8
DATA
  6
CONTINUOUS
 62
     7
 10
44.75
 20
-409.0
 30
0.0
 40
1.000000000000081
  0
CIRCLE
  5
662
  8
DATA
  6
CONTINUOUS
 62
     7
 10
47.25
 20
-409.0
 30
0.0
 40
1.000000000000081
  0
CIRCLE
  5
663
  8
DATA
  6
CONTINUOUS
 62
     7
 10
49.75
 20
-409.0
 30
0.0
 40
1.000000000000081
  0
POLYLINE
  5
664
  8
DATA
  6
CONTINUOUS
 62
     7
 66
     1
 10
0.0
 20
0.0
 30
0.0
 70
     1
  0
VERTEX
  5
9FD
  8
DATA
  6
CONTINUOUS
 62
     7
 10
6.0
 20
-413.0
 30
0.0
  0
VERTEX
  5
9FE
  8
DATA
  6
CONTINUOUS
 62
     7
 10
26.0
 20
-413.0
 30
0.0
  0
VERTEX
  5
9FF
  8
DATA
  6
CONTINUOUS
 62
     7
 10
26.0
 20
-415.0
 30
0.0
  0
VERTEX
  5
A00
  8
DATA
  6
CONTINUOUS
 62
     7
 10
6.0
 20
-415.0
 30
0.0
  0
SEQEND
  5
A01
  8
DATA
  6
CONTINUOUS
 62
     7
  0
CIRCLE
  5
66B
  8
DATA
  6
CONTINUOUS
 62
     7
 10
7.25
 20
-414.0
 30
0.0
 40
1.000000000000081
  0
CIRCLE
  5
66C
  8
DATA
  6
CONTINUOUS
 62
     7
 10
9.75
 20
-414.0
 30
0.0
 40
1.000000000000081
  0
CIRCLE
  5
66D
  8
DATA
  6
CONTINUOUS
 62
     7
 10
12.25
 20
-414.0
 30
0.0
 40
1.000000000000081
  0
CIRCLE
  5
66E
  8
DATA
  6
CONTINUOUS
 62
     7
 10
14.75
 20
-414.0
 30
0.0
 40
1.000000000000081
  0
CIRCLE
  5
66F
  8
DATA
  6
CONTINUOUS
 62
     7
 10
17.25
 20
-414.0
 30
0.0
 40
1.000000000000081
  0
CIRCLE
  5
670
  8
DATA
  6
CONTINUOUS
 62
     7
 10
19.75
 20
-414.0
 30
0.0
 40
1.000000000000081
  0
CIRCLE
  5
671
  8
DATA
  6
CONTINUOUS
 62
     7
 10
22.25
 20
-414.0
 30
0.0
 40
1.000000000000081
  0
CIRCLE
  5
672
  8
DATA
  6
CONTINUOUS
 62
     7
 10
24.75
 20
-414.0
 30
0.0
 40
1.000000000000081
  0
POLYLINE
  5
673
  8
DATA
  6
CONTINUOUS
 62
     7
 66
     1
 10
0.0
 20
0.0
 30
0.0
 70
     1
  0
VERTEX
  5
A02
  8
DATA
  6
CONTINUOUS
 62
     7
 10
6.0
 20
-408.0
 30
0.0
  0
VERTEX
  5
A03
  8
DATA
  6
CONTINUOUS
 62
     7
 10
26.0
 20
-408.0
 30
0.0
  0
VERTEX
  5
A04
  8
DATA
  6
CONTINUOUS
 62
     7
 10
26.0
 20
-410.0
 30
0.0
  0
VERTEX
  5
A05
  8
DATA
  6
CONTINUOUS
 62
     7
 10
6.0
 20
-410.0
 30
0.0
  0
SEQEND
  5
A06
  8
DATA
  6
CONTINUOUS
 62
     7
  0
CIRCLE
  5
67A
  8
DATA
  6
CONTINUOUS
 62
     7
 10
7.25
 20
-409.0
 30
0.0
 40
1.000000000000081
  0
CIRCLE
  5
67B
  8
DATA
  6
CONTINUOUS
 62
     7
 10
9.75
 20
-409.0
 30
0.0
 40
1.000000000000081
  0
CIRCLE
  5
67C
  8
DATA
  6
CONTINUOUS
 62
     7
 10
12.25
 20
-409.0
 30
0.0
 40
1.000000000000081
  0
CIRCLE
  5
67D
  8
DATA
  6
CONTINUOUS
 62
     7
 10
14.75
 20
-409.0
 30
0.0
 40
1.000000000000081
  0
CIRCLE
  5
67E
  8
DATA
  6
CONTINUOUS
 62
     7
 10
17.25
 20
-409.0
 30
0.0
 40
1.000000000000081
  0
CIRCLE
  5
67F
  8
DATA
  6
CONTINUOUS
 62
     7
 10
19.75
 20
-409.0
 30
0.0
 40
1.000000000000081
  0
CIRCLE
  5
680
  8
DATA
  6
CONTINUOUS
 62
     7
 10
22.25
 20
-409.0
 30
0.0
 40
1.000000000000081
  0
CIRCLE
  5
681
  8
DATA
  6
CONTINUOUS
 62
     7
 10
24.75
 20
-409.0
 30
0.0
 40
1.000000000000081
  0
POLYLINE
  5
682
  8
DATA
  6
CONTINUOUS
 62
     7
 66
     1
 10
0.0
 20
0.0
 30
0.0
 70
     1
  0
VERTEX
  5
A07
  8
DATA
  6
CONTINUOUS
 62
     7
 10
31.0
 20
-413.0
 30
0.0
  0
VERTEX
  5
A08
  8
DATA
  6
CONTINUOUS
 62
     7
 10
51.0
 20
-413.0
 30
0.0
  0
VERTEX
  5
A09
  8
DATA
  6
CONTINUOUS
 62
     7
 10
51.0
 20
-415.0
 30
0.0
  0
VERTEX
  5
A0A
  8
DATA
  6
CONTINUOUS
 62
     7
 10
31.0
 20
-415.0
 30
0.0
  0
SEQEND
  5
A0B
  8
DATA
  6
CONTINUOUS
 62
     7
  0
CIRCLE
  5
689
  8
DATA
  6
CONTINUOUS
 62
     7
 10
32.25
 20
-414.0
 30
0.0
 40
1.000000000000081
  0
CIRCLE
  5
68A
  8
DATA
  6
CONTINUOUS
 62
     7
 10
34.75
 20
-414.0
 30
0.0
 40
1.000000000000081
  0
CIRCLE
  5
68B
  8
DATA
  6
CONTINUOUS
 62
     7
 10
37.25
 20
-414.0
 30
0.0
 40
1.000000000000081
  0
CIRCLE
  5
68C
  8
DATA
  6
CONTINUOUS
 62
     7
 10
39.75
 20
-414.0
 30
0.0
 40
1.000000000000081
  0
CIRCLE
  5
68D
  8
DATA
  6
CONTINUOUS
 62
     7
 10
42.25
 20
-414.0
 30
0.0
 40
1.000000000000081
  0
CIRCLE
  5
68E
  8
DATA
  6
CONTINUOUS
 62
     7
 10
44.75
 20
-414.0
 30
0.0
 40
1.000000000000081
  0
CIRCLE
  5
68F
  8
DATA
  6
CONTINUOUS
 62
     7
 10
47.25
 20
-414.0
 30
0.0
 40
1.000000000000081
  0
CIRCLE
  5
690
  8
DATA
  6
CONTINUOUS
 62
     7
 10
49.75
 20
-414.0
 30
0.0
 40
1.000000000000081
  0
POLYLINE
  5
691
  8
DATA
  6
CONTINUOUS
 62
     7
 66
     1
 10
0.0
 20
0.0
 30
0.0
 70
     1
  0
VERTEX
  5
A0C
  8
DATA
  6
CONTINUOUS
 62
     7
 10
31.0
 20
-408.0
 30
0.0
  0
VERTEX
  5
A0D
  8
DATA
  6
CONTINUOUS
 62
     7
 10
51.0
 20
-408.0
 30
0.0
  0
VERTEX
  5
A0E
  8
DATA
  6
CONTINUOUS
 62
     7
 10
51.0
 20
-410.0
 30
0.0
  0
VERTEX
  5
A0F
  8
DATA
  6
CONTINUOUS
 62
     7
 10
31.0
 20
-410.0
 30
0.0
  0
SEQEND
  5
A10
  8
DATA
  6
CONTINUOUS
 62
     7
  0
CIRCLE
  5
698
  8
DATA
  6
CONTINUOUS
 62
     7
 10
32.25
 20
-409.0
 30
0.0
 40
1.000000000000081
  0
CIRCLE
  5
699
  8
DATA
  6
CONTINUOUS
 62
     7
 10
34.75
 20
-409.0
 30
0.0
 40
1.000000000000081
  0
CIRCLE
  5
69A
  8
DATA
  6
CONTINUOUS
 62
     7
 10
37.25
 20
-409.0
 30
0.0
 40
1.000000000000081
  0
CIRCLE
  5
69B
  8
DATA
  6
CONTINUOUS
 62
     7
 10
39.75
 20
-409.0
 30
0.0
 40
1.000000000000081
  0
CIRCLE
  5
69C
  8
DATA
  6
CONTINUOUS
 62
     7
 10
42.25
 20
-409.0
 30
0.0
 40
1.000000000000081
  0
CIRCLE
  5
69D
  8
DATA
  6
CONTINUOUS
 62
     7
 10
44.75
 20
-409.0
 30
0.0
 40
1.000000000000081
  0
CIRCLE
  5
69E
  8
DATA
  6
CONTINUOUS
 62
     7
 10
47.25
 20
-409.0
 30
0.0
 40
1.000000000000081
  0
CIRCLE
  5
69F
  8
DATA
  6
CONTINUOUS
 62
     7
 10
49.75
 20
-409.0
 30
0.0
 40
1.000000000000081
  0
POLYLINE
  5
6A0
  8
DATA
  6
CONTINUOUS
 62
     7
 66
     1
 10
0.0
 20
0.0
 30
0.0
 70
     1
  0
VERTEX
  5
A11
  8
DATA
  6
CONTINUOUS
 62
     7
 10
6.0
 20
-413.0
 30
0.0
  0
VERTEX
  5
A12
  8
DATA
  6
CONTINUOUS
 62
     7
 10
26.0
 20
-413.0
 30
0.0
  0
VERTEX
  5
A13
  8
DATA
  6
CONTINUOUS
 62
     7
 10
26.0
 20
-415.0
 30
0.0
  0
VERTEX
  5
A14
  8
DATA
  6
CONTINUOUS
 62
     7
 10
6.0
 20
-415.0
 30
0.0
  0
SEQEND
  5
A15
  8
DATA
  6
CONTINUOUS
 62
     7
  0
CIRCLE
  5
6A7
  8
DATA
  6
CONTINUOUS
 62
     7
 10
7.25
 20
-414.0
 30
0.0
 40
1.000000000000081
  0
CIRCLE
  5
6A8
  8
DATA
  6
CONTINUOUS
 62
     7
 10
9.75
 20
-414.0
 30
0.0
 40
1.000000000000081
  0
CIRCLE
  5
6A9
  8
DATA
  6
CONTINUOUS
 62
     7
 10
12.25
 20
-414.0
 30
0.0
 40
1.000000000000081
  0
CIRCLE
  5
6AA
  8
DATA
  6
CONTINUOUS
 62
     7
 10
14.75
 20
-414.0
 30
0.0
 40
1.000000000000081
  0
CIRCLE
  5
6AB
  8
DATA
  6
CONTINUOUS
 62
     7
 10
17.25
 20
-414.0
 30
0.0
 40
1.000000000000081
  0
CIRCLE
  5
6AC
  8
DATA
  6
CONTINUOUS
 62
     7
 10
19.75
 20
-414.0
 30
0.0
 40
1.000000000000081
  0
CIRCLE
  5
6AD
  8
DATA
  6
CONTINUOUS
 62
     7
 10
22.25
 20
-414.0
 30
0.0
 40
1.000000000000081
  0
CIRCLE
  5
6AE
  8
DATA
  6
CONTINUOUS
 62
     7
 10
24.75
 20
-414.0
 30
0.0
 40
1.000000000000081
  0
POLYLINE
  5
6AF
  8
DATA
  6
CONTINUOUS
 62
     7
 66
     1
 10
0.0
 20
0.0
 30
0.0
 70
     1
  0
VERTEX
  5
A16
  8
DATA
  6
CONTINUOUS
 62
     7
 10
6.0
 20
-408.0
 30
0.0
  0
VERTEX
  5
A17
  8
DATA
  6
CONTINUOUS
 62
     7
 10
26.0
 20
-408.0
 30
0.0
  0
VERTEX
  5
A18
  8
DATA
  6
CONTINUOUS
 62
     7
 10
26.0
 20
-410.0
 30
0.0
  0
VERTEX
  5
A19
  8
DATA
  6
CONTINUOUS
 62
     7
 10
6.0
 20
-410.0
 30
0.0
  0
SEQEND
  5
A1A
  8
DATA
  6
CONTINUOUS
 62
     7
  0
CIRCLE
  5
6B6
  8
DATA
  6
CONTINUOUS
 62
     7
 10
7.25
 20
-409.0
 30
0.0
 40
1.000000000000081
  0
CIRCLE
  5
6B7
  8
DATA
  6
CONTINUOUS
 62
     7
 10
9.75
 20
-409.0
 30
0.0
 40
1.000000000000081
  0
CIRCLE
  5
6B8
  8
DATA
  6
CONTINUOUS
 62
     7
 10
12.25
 20
-409.0
 30
0.0
 40
1.000000000000081
  0
CIRCLE
  5
6B9
  8
DATA
  6
CONTINUOUS
 62
     7
 10
14.75
 20
-409.0
 30
0.0
 40
1.000000000000081
  0
CIRCLE
  5
6BA
  8
DATA
  6
CONTINUOUS
 62
     7
 10
17.25
 20
-409.0
 30
0.0
 40
1.000000000000081
  0
CIRCLE
  5
6BB
  8
DATA
  6
CONTINUOUS
 62
     7
 10
19.75
 20
-409.0
 30
0.0
 40
1.000000000000081
  0
CIRCLE
  5
6BC
  8
DATA
  6
CONTINUOUS
 62
     7
 10
22.25
 20
-409.0
 30
0.0
 40
1.000000000000081
  0
CIRCLE
  5
6BD
  8
DATA
  6
CONTINUOUS
 62
     7
 10
24.75
 20
-409.0
 30
0.0
 40
1.000000000000081
  0
POLYLINE
  5
6BE
  8
DATA
  6
CONTINUOUS
 62
     7
 66
     1
 10
0.0
 20
0.0
 30
0.0
 70
     1
  0
VERTEX
  5
A1B
  8
DATA
  6
CONTINUOUS
 62
     7
 10
6.0
 20
-413.0
 30
0.0
  0
VERTEX
  5
A1C
  8
DATA
  6
CONTINUOUS
 62
     7
 10
26.0
 20
-413.0
 30
0.0
  0
VERTEX
  5
A1D
  8
DATA
  6
CONTINUOUS
 62
     7
 10
26.0
 20
-415.0
 30
0.0
  0
VERTEX
  5
A1E
  8
DATA
  6
CONTINUOUS
 62
     7
 10
6.0
 20
-415.0
 30
0.0
  0
SEQEND
  5
A1F
  8
DATA
  6
CONTINUOUS
 62
     7
  0
CIRCLE
  5
6C5
  8
DATA
  6
CONTINUOUS
 62
     7
 10
7.25
 20
-414.0
 30
0.0
 40
1.000000000000081
  0
CIRCLE
  5
6C6
  8
DATA
  6
CONTINUOUS
 62
     7
 10
9.75
 20
-414.0
 30
0.0
 40
1.000000000000081
  0
CIRCLE
  5
6C7
  8
DATA
  6
CONTINUOUS
 62
     7
 10
12.25
 20
-414.0
 30
0.0
 40
1.000000000000081
  0
CIRCLE
  5
6C8
  8
DATA
  6
CONTINUOUS
 62
     7
 10
14.75
 20
-414.0
 30
0.0
 40
1.000000000000081
  0
CIRCLE
  5
6C9
  8
DATA
  6
CONTINUOUS
 62
     7
 10
17.25
 20
-414.0
 30
0.0
 40
1.000000000000081
  0
CIRCLE
  5
6CA
  8
DATA
  6
CONTINUOUS
 62
     7
 10
19.75
 20
-414.0
 30
0.0
 40
1.000000000000081
  0
CIRCLE
  5
6CB
  8
DATA
  6
CONTINUOUS
 62
     7
 10
22.25
 20
-414.0
 30
0.0
 40
1.000000000000081
  0
CIRCLE
  5
6CC
  8
DATA
  6
CONTINUOUS
 62
     7
 10
24.75
 20
-414.0
 30
0.0
 40
1.000000000000081
  0
POLYLINE
  5
6CD
  8
DATA
  6
CONTINUOUS
 62
     7
 66
     1
 10
0.0
 20
0.0
 30
0.0
 70
     1
  0
VERTEX
  5
A20
  8
DATA
  6
CONTINUOUS
 62
     7
 10
6.0
 20
-408.0
 30
0.0
  0
VERTEX
  5
A21
  8
DATA
  6
CONTINUOUS
 62
     7
 10
26.0
 20
-408.0
 30
0.0
  0
VERTEX
  5
A22
  8
DATA
  6
CONTINUOUS
 62
     7
 10
26.0
 20
-410.0
 30
0.0
  0
VERTEX
  5
A23
  8
DATA
  6
CONTINUOUS
 62
     7
 10
6.0
 20
-410.0
 30
0.0
  0
SEQEND
  5
A24
  8
DATA
  6
CONTINUOUS
 62
     7
  0
CIRCLE
  5
6D4
  8
DATA
  6
CONTINUOUS
 62
     7
 10
7.25
 20
-409.0
 30
0.0
 40
1.000000000000081
  0
CIRCLE
  5
6D5
  8
DATA
  6
CONTINUOUS
 62
     7
 10
9.75
 20
-409.0
 30
0.0
 40
1.000000000000081
  0
CIRCLE
  5
6D6
  8
DATA
  6
CONTINUOUS
 62
     7
 10
12.25
 20
-409.0
 30
0.0
 40
1.000000000000081
  0
CIRCLE
  5
6D7
  8
DATA
  6
CONTINUOUS
 62
     7
 10
14.75
 20
-409.0
 30
0.0
 40
1.000000000000081
  0
CIRCLE
  5
6D8
  8
DATA
  6
CONTINUOUS
 62
     7
 10
17.25
 20
-409.0
 30
0.0
 40
1.000000000000081
  0
CIRCLE
  5
6D9
  8
DATA
  6
CONTINUOUS
 62
     7
 10
19.75
 20
-409.0
 30
0.0
 40
1.000000000000081
  0
CIRCLE
  5
6DA
  8
DATA
  6
CONTINUOUS
 62
     7
 10
22.25
 20
-409.0
 30
0.0
 40
1.000000000000081
  0
CIRCLE
  5
6DB
  8
DATA
  6
CONTINUOUS
 62
     7
 10
24.75
 20
-409.0
 30
0.0
 40
1.000000000000081
  0
POLYLINE
  5
6DC
  8
DATA
  6
CONTINUOUS
 62
     7
 66
     1
 10
0.0
 20
0.0
 30
0.0
 70
     1
  0
VERTEX
  5
A25
  8
DATA
  6
CONTINUOUS
 62
     7
 10
6.0
 20
-413.0
 30
0.0
  0
VERTEX
  5
A26
  8
DATA
  6
CONTINUOUS
 62
     7
 10
26.0
 20
-413.0
 30
0.0
  0
VERTEX
  5
A27
  8
DATA
  6
CONTINUOUS
 62
     7
 10
26.0
 20
-415.0
 30
0.0
  0
VERTEX
  5
A28
  8
DATA
  6
CONTINUOUS
 62
     7
 10
6.0
 20
-415.0
 30
0.0
  0
SEQEND
  5
A29
  8
DATA
  6
CONTINUOUS
 62
     7
  0
CIRCLE
  5
6E3
  8
DATA
  6
CONTINUOUS
 62
     7
 10
7.25
 20
-414.0
 30
0.0
 40
1.000000000000081
  0
CIRCLE
  5
6E4
  8
DATA
  6
CONTINUOUS
 62
     7
 10
9.75
 20
-414.0
 30
0.0
 40
1.000000000000081
  0
CIRCLE
  5
6E5
  8
DATA
  6
CONTINUOUS
 62
     7
 10
12.25
 20
-414.0
 30
0.0
 40
1.000000000000081
  0
CIRCLE
  5
6E6
  8
DATA
  6
CONTINUOUS
 62
     7
 10
14.75
 20
-414.0
 30
0.0
 40
1.000000000000081
  0
CIRCLE
  5
6E7
  8
DATA
  6
CONTINUOUS
 62
     7
 10
17.25
 20
-414.0
 30
0.0
 40
1.000000000000081
  0
CIRCLE
  5
6E8
  8
DATA
  6
CONTINUOUS
 62
     7
 10
19.75
 20
-414.0
 30
0.0
 40
1.000000000000081
  0
CIRCLE
  5
6E9
  8
DATA
  6
CONTINUOUS
 62
     7
 10
22.25
 20
-414.0
 30
0.0
 40
1.000000000000081
  0
CIRCLE
  5
6EA
  8
DATA
  6
CONTINUOUS
 62
     7
 10
24.75
 20
-414.0
 30
0.0
 40
1.000000000000081
  0
POLYLINE
  5
6EB
  8
DATA
  6
CONTINUOUS
 62
     7
 66
     1
 10
0.0
 20
0.0
 30
0.0
 70
     1
  0
VERTEX
  5
A2A
  8
DATA
  6
CONTINUOUS
 62
     7
 10
6.0
 20
-408.0
 30
0.0
  0
VERTEX
  5
A2B
  8
DATA
  6
CONTINUOUS
 62
     7
 10
26.0
 20
-408.0
 30
0.0
  0
VERTEX
  5
A2C
  8
DATA
  6
CONTINUOUS
 62
     7
 10
26.0
 20
-410.0
 30
0.0
  0
VERTEX
  5
A2D
  8
DATA
  6
CONTINUOUS
 62
     7
 10
6.0
 20
-410.0
 30
0.0
  0
SEQEND
  5
A2E
  8
DATA
  6
CONTINUOUS
 62
     7
  0
CIRCLE
  5
6F2
  8
DATA
  6
CONTINUOUS
 62
     7
 10
7.25
 20
-409.0
 30
0.0
 40
1.000000000000081
  0
CIRCLE
  5
6F3
  8
DATA
  6
CONTINUOUS
 62
     7
 10
9.75
 20
-409.0
 30
0.0
 40
1.000000000000081
  0
CIRCLE
  5
6F4
  8
DATA
  6
CONTINUOUS
 62
     7
 10
12.25
 20
-409.0
 30
0.0
 40
1.000000000000081
  0
CIRCLE
  5
6F5
  8
DATA
  6
CONTINUOUS
 62
     7
 10
14.75
 20
-409.0
 30
0.0
 40
1.000000000000081
  0
CIRCLE
  5
6F6
  8
DATA
  6
CONTINUOUS
 62
     7
 10
17.25
 20
-409.0
 30
0.0
 40
1.000000000000081
  0
CIRCLE
  5
6F7
  8
DATA
  6
CONTINUOUS
 62
     7
 10
19.75
 20
-409.0
 30
0.0
 40
1.000000000000081
  0
CIRCLE
  5
6F8
  8
DATA
  6
CONTINUOUS
 62
     7
 10
22.25
 20
-409.0
 30
0.0
 40
1.000000000000081
  0
CIRCLE
  5
6F9
  8
DATA
  6
CONTINUOUS
 62
     7
 10
24.75
 20
-409.0
 30
0.0
 40
1.000000000000081
  0
LINE
  5
6FA
  8
DATA
  6
CONTINUOUS
 62
     7
 10
180.0
 20
-420.0
 30
0.0
 11
180.0
 21
-375.5
 31
0.0
  0
LINE
  5
6FB
  8
DATA
  6
CONTINUOUS
 62
     7
 10
183.0
 20
-420.0
 30
0.0
 11
183.0
 21
-375.5
 31
0.0
  0
LINE
  5
6FC
  8
DATA
  6
CONTINUOUS
 62
     7
 10
400.0
 20
-420.0
 30
0.0
 11
180.0
 21
-420.0
 31
0.0
  0
LINE
  5
6FD
  8
DATA
  6
CONTINUOUS
 62
     7
 10
400.0
 20
-375.5
 30
0.0
 11
400.0
 21
-420.0
 31
0.0
  0
LINE
  5
6FE
  8
DATA
  6
CONTINUOUS
 62
     7
 10
180.0
 20
-375.5
 30
0.0
 11
400.0
 21
-375.5
 31
0.0
  0
LINE
  5
6FF
  8
DATA
  6
CONTINUOUS
 62
     7
 10
162.0
 20
-388.5
 30
0.0
 11
180.0
 21
-388.0
 31
0.0
  0
LINE
  5
700
  8
DATA
  6
CONTINUOUS
 62
     7
 10
162.0
 20
-394.5
 30
0.0
 11
162.0
 21
-388.5
 31
0.0
  0
LINE
  5
701
  8
DATA
  6
CONTINUOUS
 62
     7
 10
180.0
 20
-395.0
 30
0.0
 11
180.0
 21
-388.0
 31
0.0
  0
LINE
  5
702
  8
DATA
  6
CONTINUOUS
 62
     7
 10
162.0
 20
-394.5
 30
0.0
 11
180.0
 21
-395.0
 31
0.0
  0
LINE
  5
703
  8
DATA
  6
CONTINUOUS
 62
     7
 10
162.0
 20
-400.49999999999989
 30
0.0
 11
162.0
 21
-394.5
 31
0.0
  0
LINE
  5
704
  8
DATA
  6
CONTINUOUS
 62
     7
 10
180.0
 20
-401.0
 30
0.0
 11
180.0
 21
-394.0
 31
0.0
  0
LINE
  5
705
  8
DATA
  6
CONTINUOUS
 62
     7
 10
162.0
 20
-400.49999999999989
 30
0.0
 11
180.0
 21
-401.0
 31
0.0
  0
LINE
  5
706
  8
DATA
  6
CONTINUOUS
 62
     7
 10
180.0
 20
-416.5
 30
0.0
 11
180.0
 21
-401.49999999999989
 31
0.0
  0
LINE
  5
707
  8
DATA
  6
CONTINUOUS
 62
     7
 10
178.0
 20
-415.5
 30
0.0
 11
178.0
 21
-402.5
 31
0.0
  0
LINE
  5
708
  8
DATA
  6
CONTINUOUS
 62
     7
 10
179.0
 20
-416.5
 30
0.0
 11
179.0
 21
-401.49999999999989
 31
0.0
  0
LINE
  5
709
  8
DATA
  6
CONTINUOUS
 62
     7
 10
178.0
 20
-409.0
 30
0.0
 11
176.0
 21
-409.0
 31
0.0
  0
LINE
  5
70A
  8
DATA
  6
CONTINUOUS
 62
     7
 10
178.0
 20
-402.5
 30
0.0
 11
179.0
 21
-401.49999999999989
 31
0.0
  0
LINE
  5
70B
  8
DATA
  6
CONTINUOUS
 62
     7
 10
179.0
 20
-401.49999999999989
 30
0.0
 11
180.0
 21
-401.49999999999989
 31
0.0
  0
LINE
  5
70C
  8
DATA
  6
CONTINUOUS
 62
     7
 10
178.0
 20
-415.5
 30
0.0
 11
179.0
 21
-416.5
 31
0.0
  0
LINE
  5
70D
  8
DATA
  6
CONTINUOUS
 62
     7
 10
179.0
 20
-416.5
 30
0.0
 11
180.0
 21
-416.5
 31
0.0
  0
LINE
  5
70E
  8
DATA
  6
CONTINUOUS
 62
     7
 10
176.5
 20
-404.23686027918541
 30
0.0
 11
178.0
 21
-404.23686027918541
 31
0.0
  0
LINE
  5
70F
  8
DATA
  6
CONTINUOUS
 62
     7
 10
176.5
 20
-413.76313972081448
 30
0.0
 11
178.0
 21
-413.76313972081448
 31
0.0
  0
ARC
  5
710
  8
DATA
  6
CONTINUOUS
 62
     7
 10
198.93749999999861
 20
-409.0
 30
0.0
 40
22.937499999998678
 50
168.0148997076146
 51
191.9851002923854
  0
LINE
  5
711
  8
DATA
  6
CONTINUOUS
 62
     7
 10
400.0
 20
-384.5
 30
0.0
 11
400.0
 21
-378.5
 31
0.0
  0
LINE
  5
712
  8
DATA
  6
CONTINUOUS
 62
     7
 10
402.0
 20
-380.5
 30
0.0
 11
402.0
 21
-382.5
 31
0.0
  0
ARC
  5
713
  8
DATA
  6
CONTINUOUS
 62
     7
 10
400.0
 20
-380.5
 30
0.0
 40
2.0
 50
0.0
 51
90.0
  0
ARC
  5
714
  8
DATA
  6
CONTINUOUS
 62
     7
 10
400.0
 20
-382.5
 30
0.0
 40
2.0
 50
270.0
 51
0.0
  0
LINE
  5
715
  8
DATA
  6
CONTINUOUS
 62
     7
 10
400.0
 20
-393.99999999999977
 30
0.0
 11
400.0
 21
-385.99999999999977
 31
0.0
  0
LINE
  5
716
  8
DATA
  6
CONTINUOUS
 62
     7
 10
404.49999999999989
 20
-393.99999999999977
 30
0.0
 11
400.0
 21
-393.99999999999977
 31
0.0
  0
LINE
  5
717
  8
DATA
  6
CONTINUOUS
 62
     7
 10
405.0
 20
-388.5
 30
0.0
 11
405.0
 21
-389.5
 31
0.0
  0
LINE
  5
718
  8
DATA
  6
CONTINUOUS
 62
     7
 10
405.0
 20
-392.0
 30
0.0
 11
405.0
 21
-393.49999999999977
 31
0.0
  0
LINE
  5
719
  8
DATA
  6
CONTINUOUS
 62
     7
 10
400.0
 20
-385.99999999999977
 30
0.0
 11
403.0
 21
-385.99999999999977
 31
0.0
  0
LINE
  5
71A
  8
DATA
  6
CONTINUOUS
 62
     7
 10
403.5
 20
-385.99999999999977
 30
0.0
 11
404.49999999999989
 21
-385.99999999999977
 31
0.0
  0
ARC
  5
71B
  8
DATA
  6
CONTINUOUS
 62
     7
 10
404.49999999999989
 20
-393.49999999999977
 30
0.0
 40
0.5
 50
270.0
 51
0.0
  0
LINE
  5
71C
  8
DATA
  6
CONTINUOUS
 62
     7
 10
400.0
 20
-408.99999999999977
 30
0.0
 11
400.0
 21
-400.99999999999977
 31
0.0
  0
LINE
  5
71D
  8
DATA
  6
CONTINUOUS
 62
     7
 10
405.0
 20
-401.49999999999972
 30
0.0
 11
405.0
 21
-404.0
 31
0.0
  0
LINE
  5
71E
  8
DATA
  6
CONTINUOUS
 62
     7
 10
400.0
 20
-400.99999999999977
 30
0.0
 11
404.49999999999989
 21
-400.99999999999977
 31
0.0
  0
ARC
  5
71F
  8
DATA
  6
CONTINUOUS
 62
     7
 10
404.49999999999989
 20
-401.49999999999972
 30
0.0
 40
0.5
 50
0.0
 51
90.0
  0
LINE
  5
720
  8
DATA
  6
CONTINUOUS
 62
     7
 10
400.0
 20
-417.99999999999972
 30
0.0
 11
400.0
 21
-385.99999999999977
 31
0.0
  0
LINE
  5
721
  8
DATA
  6
CONTINUOUS
 62
     7
 10
400.49999999999989
 20
-417.99999999999972
 30
0.0
 11
400.0
 21
-417.99999999999972
 31
0.0
  0
LINE
  5
722
  8
DATA
  6
CONTINUOUS
 62
     7
 10
401.0
 20
-393.99999999999977
 30
0.0
 11
401.0
 21
-400.99999999999977
 31
0.0
  0
LINE
  5
723
  8
DATA
  6
CONTINUOUS
 62
     7
 10
401.0
 20
-410.99999999999972
 30
0.0
 11
401.0
 21
-417.49999999999977
 31
0.0
  0
LINE
  5
724
  8
DATA
  6
CONTINUOUS
 62
     7
 10
400.0
 20
-385.99999999999977
 30
0.0
 11
400.49999999999989
 21
-385.99999999999977
 31
0.0
  0
LINE
  5
725
  8
DATA
  6
CONTINUOUS
 62
     7
 10
401.0
 20
-400.99999999999977
 30
0.0
 11
401.0
 21
-393.99999999999977
 31
0.0
  0
LINE
  5
726
  8
DATA
  6
CONTINUOUS
 62
     7
 10
403.0
 20
-393.99999999999977
 30
0.0
 11
403.0
 21
-400.99999999999977
 31
0.0
  0
LINE
  5
727
  8
DATA
  6
CONTINUOUS
 62
     7
 10
401.0
 20
-415.99999999999972
 30
0.0
 11
401.0
 21
-410.0
 31
0.0
  0
LINE
  5
728
  8
DATA
  6
CONTINUOUS
 62
     7
 10
402.0
 20
-415.99999999999972
 30
0.0
 11
401.0
 21
-415.99999999999972
 31
0.0
  0
ARC
  5
729
  8
DATA
  6
CONTINUOUS
 62
     7
 10
402.0
 20
-414.99999999999972
 30
0.0
 40
1.0
 50
270.0
 51
0.0
  0
LINE
  5
72A
  8
DATA
  6
CONTINUOUS
 62
     7
 10
403.0
 20
-410.0
 30
0.0
 11
403.0
 21
-414.99999999999972
 31
0.0
  0
ARC
  5
72B
  8
DATA
  6
CONTINUOUS
 62
     7
 10
400.49999999999989
 20
-417.49999999999977
 30
0.0
 40
0.5
 50
270.0
 51
0.0
  0
LINE
  5
72C
  8
DATA
  6
CONTINUOUS
 62
     7
 10
403.0
 20
-411.99999999999972
 30
0.0
 11
405.6666666666664
 21
-410.0
 31
0.0
  0
LINE
  5
72D
  8
DATA
  6
CONTINUOUS
 62
     7
 10
162.0
 20
-401.49999999999989
 30
0.0
 11
180.0
 21
-401.0
 31
0.0
  0
LINE
  5
72E
  8
DATA
  6
CONTINUOUS
 62
     7
 10
162.0
 20
-407.5
 30
0.0
 11
162.0
 21
-401.49999999999989
 31
0.0
  0
LINE
  5
72F
  8
DATA
  6
CONTINUOUS
 62
     7
 10
180.0
 20
-408.0
 30
0.0
 11
180.0
 21
-401.0
 31
0.0
  0
LINE
  5
730
  8
DATA
  6
CONTINUOUS
 62
     7
 10
162.0
 20
-407.5
 30
0.0
 11
176.02689115303789
 21
-407.8896358653621
 31
0.0
  0
LINE
  5
731
  8
DATA
  6
CONTINUOUS
 62
     7
 10
400.0
 20
-410.0
 30
0.0
 11
400.0
 21
-404.0
 31
0.0
  0
LINE
  5
732
  8
DATA
  6
CONTINUOUS
 62
     7
 10
407.5
 20
-410.0
 30
0.0
 11
400.0
 21
-410.0
 31
0.0
  0
LINE
  5
733
  8
DATA
  6
CONTINUOUS
 62
     7
 10
408.49999999999989
 20
-405.0
 30
0.0
 11
408.49999999999989
 21
-406.5
 31
0.0
  0
LINE
  5
734
  8
DATA
  6
CONTINUOUS
 62
     7
 10
408.49999999999989
 20
-407.5
 30
0.0
 11
408.49999999999989
 21
-409.0
 31
0.0
  0
LINE
  5
735
  8
DATA
  6
CONTINUOUS
 62
     7
 10
408.49999999999989
 20
-409.0
 30
0.0
 11
407.5
 21
-410.0
 31
0.0
  0
LINE
  5
736
  8
DATA
  6
CONTINUOUS
 62
     7
 10
400.0
 20
-404.0
 30
0.0
 11
407.5
 21
-404.0
 31
0.0
  0
LINE
  5
737
  8
DATA
  6
CONTINUOUS
 62
     7
 10
407.5
 20
-404.0
 30
0.0
 11
408.49999999999989
 21
-405.0
 31
0.0
  0
LINE
  5
738
  8
DATA
  6
CONTINUOUS
 62
     7
 10
400.0
 20
-407.5
 30
0.0
 11
400.0
 21
-406.5
 31
0.0
  0
LINE
  5
739
  8
DATA
  6
CONTINUOUS
 62
     7
 10
408.49999999999989
 20
-407.5
 30
0.0
 11
400.0
 21
-407.5
 31
0.0
  0
LINE
  5
73A
  8
DATA
  6
CONTINUOUS
 62
     7
 10
400.0
 20
-406.5
 30
0.0
 11
408.49999999999989
 21
-406.5
 31
0.0
  0
LINE
  5
73B
  8
DATA
  6
CONTINUOUS
 62
     7
 10
405.0
 20
-406.5
 30
0.0
 11
405.0
 21
-407.5
 31
0.0
  0
LINE
  5
73C
  8
DATA
  6
CONTINUOUS
 62
     7
 10
406.07692307692292
 20
-406.5
 30
0.0
 11
406.69230769230762
 21
-407.5
 31
0.0
  0
LINE
  5
73D
  8
DATA
  6
CONTINUOUS
 62
     7
 10
400.0
 20
-392.0
 30
0.0
 11
400.0
 21
-386.0
 31
0.0
  0
LINE
  5
73E
  8
DATA
  6
CONTINUOUS
 62
     7
 10
407.5
 20
-392.0
 30
0.0
 11
400.0
 21
-392.0
 31
0.0
  0
LINE
  5
73F
  8
DATA
  6
CONTINUOUS
 62
     7
 10
408.49999999999989
 20
-387.0
 30
0.0
 11
408.49999999999989
 21
-388.5
 31
0.0
  0
LINE
  5
740
  8
DATA
  6
CONTINUOUS
 62
     7
 10
408.49999999999989
 20
-389.5
 30
0.0
 11
408.49999999999989
 21
-391.0
 31
0.0
  0
LINE
  5
741
  8
DATA
  6
CONTINUOUS
 62
     7
 10
408.49999999999989
 20
-391.0
 30
0.0
 11
407.5
 21
-392.0
 31
0.0
  0
LINE
  5
742
  8
DATA
  6
CONTINUOUS
 62
     7
 10
400.0
 20
-386.0
 30
0.0
 11
407.5
 21
-386.0
 31
0.0
  0
LINE
  5
743
  8
DATA
  6
CONTINUOUS
 62
     7
 10
407.5
 20
-386.0
 30
0.0
 11
408.49999999999989
 21
-387.0
 31
0.0
  0
LINE
  5
744
  8
DATA
  6
CONTINUOUS
 62
     7
 10
400.0
 20
-389.5
 30
0.0
 11
400.0
 21
-388.5
 31
0.0
  0
LINE
  5
745
  8
DATA
  6
CONTINUOUS
 62
     7
 10
408.49999999999989
 20
-389.5
 30
0.0
 11
400.0
 21
-389.5
 31
0.0
  0
LINE
  5
746
  8
DATA
  6
CONTINUOUS
 62
     7
 10
400.0
 20
-388.5
 30
0.0
 11
408.49999999999989
 21
-388.5
 31
0.0
  0
TEXT
  5
747
  8
DATA
 62
     7
 10
-437.5
 20
-596.49135111111104
 30
0.0
 40
9.5015733506944464
  1
※仕様及び外観は予告なく変更されることがあります。
 41
0.7
 11
-437.5
 21
-586.98977776041659
 31
0.0
 73
     3
  0
TEXT
  5
748
  8
DATA
 62
     7
 10
-437.5
 20
-608.83857333333333
 30
0.0
 40
9.5015733506944464
  1
　また、同一商品でも若干の個体差があることがあります。ご了承ください。
 41
0.7
 11
-437.5
 21
-599.33699998263887
 31
0.0
 73
     3
  0
TEXT
  5
749
  8
DATA
 62
     7
 10
250.0
 20
-580.2182899999998
 30
0.0
 40
12.21630859375
  1
DMM12
 41
0.7
 11
250.0
 21
-568.0019814062498
 31
0.0
 73
     3
  0
TEXT
  5
74A
  8
DATA
 62
     7
 10
250.0
 20
-543.96828999999991
 30
0.0
 40
12.21630859375
  1
AKG
 41
0.7
 11
250.0
 21
-531.75198140624991
 31
0.0
 73
     3
  0
TEXT
  5
74B
  8
DATA
 62
     7
 10
75.738045083464826
 20
47.275416666666658
 30
0.0
 40
2.0360514322916661
  1
GAIN: LINE
 50
180.0
 41
0.7
 11
75.738045083464826
 21
45.239365234375001
 31
0.0
 73
     3
  0
TEXT
  5
74C
  8
DATA
 62
     7
 10
56.342075587755062
 20
47.275416666666658
 30
0.0
 40
2.0360514322916661
  1
MIC
 50
180.0
 41
0.7
 11
56.342075587755062
 21
45.239365234375001
 31
0.0
 73
     3
  0
TEXT
  5
74D
  8
DATA
 62
     7
 10
-162.1663435870646
 20
81.985583333333295
 30
0.0
 40
2.8504720052083332
  1
REC(OUT)
 50
180.0
 41
0.7
 72
     1
 11
-169.14999999982501
 21
79.135111328124935
 31
0.0
 73
     3
  0
TEXT
  5
74E
  8
DATA
 62
     7
 10
-160.95747135399171
 20
70.925236002603938
 30
0.0
 40
2.8504720052083332
  1
R 
 50
180.0
 41
0.7
 72
     2
 11
-164.14999999982501
 21
69.499999999999773
 31
0.0
 73
     2
  0
TEXT
  5
74F
  8
DATA
 62
     7
 10
-162.81977973072779
 20
55.925236002603938
 30
0.0
 40
2.8504720052083332
  1
L
 50
180.0
 41
0.7
 72
     2
 11
-164.14999999982501
 21
54.499999999999773
 31
0.0
 73
     2
  0
TEXT
  5
750
  8
DATA
 62
     7
 10
-181.1850219724812
 20
81.985583333333295
 30
0.0
 40
2.8504720052083332
  1
IN-EXPANSION-OUT
 50
180.0
 41
0.7
 72
     1
 11
-196.14999999982501
 21
79.135111328124935
 31
0.0
 73
     3
  0
TEXT
  5
751
  8
DATA
 62
     7
 10
-225.8942290579848
 20
81.985583333333295
 30
0.0
 40
2.8504720052083332
  1
RS232
 50
180.0
 41
0.7
 72
     1
 11
-230.5499999998251
 21
79.135111328124935
 31
0.0
 73
     3
  0
TEXT
  5
752
  8
DATA
 62
     7
 10
-201.096863389757
 20
59.185583333333327
 30
0.0
 40
2.8504720052083332
  1
CONTROL IN/OUT
 50
180.0
 41
0.7
 72
     1
 11
-214.0
 21
56.335111328125002
 31
0.0
 73
     3
  0
TEXT
  5
753
  8
DATA
 62
     7
 10
-253.4499999998252
 20
51.529937065972071
 30
0.0
 40
2.8504720052083332
  1
VCA
 50
180.0
 41
0.7
 11
-253.4499999998252
 21
51.909999999999847
 31
0.0
 73
     1
  0
TEXT
  5
754
  8
DATA
 62
     7
 10
-318.02441100391491
 20
73.368769986166214
 30
0.0
 40
2.0360514322916661
  1
100-240V AC
 50
180.0
 41
0.7
 72
     1
 11
-324.98431348329859
 21
73.640243510471763
 31
0.0
 73
     1
  0
TEXT
  5
755
  8
DATA
 62
     7
 10
-320.47106614171872
 20
76.014603319499543
 30
0.0
 40
2.0360514322916661
  1
50/60Hz
 50
180.0
 41
0.7
 72
     1
 11
-324.98431348329859
 21
76.286076843805091
 31
0.0
 73
     1
  0
TEXT
  5
756
  8
DATA
 62
     7
 10
-317.38305480274312
 20
78.660436652832885
 30
0.0
 40
2.0360514322916661
  1
max.75W/0,7A
 50
180.0
 41
0.7
 72
     1
 11
-324.98431348329859
 21
78.931910177138434
 31
0.0
 73
     1
  0
TEXT
  5
757
  8
DATA
 62
     7
 10
78.600000000174987
 20
78.828526475694375
 30
0.0
 40
2.0360514322916661
  1
IN 7
 50
180.0
 41
0.7
 11
78.600000000174987
 21
79.099999999999923
 31
0.0
 73
     1
  0
TEXT
  5
758
  8
DATA
 62
     7
 10
50.364612491380512
 20
79.228526475694451
 30
0.0
 40
2.0360514322916661
  1
IN 8
 50
180.0
 41
0.7
 72
     2
 11
46.183920217074949
 21
79.5
 31
0.0
 73
     1
  0
TEXT
  5
759
  8
DATA
 62
     7
 10
59.891960108624971
 20
79.275416666666686
 30
0.0
 40
2.0360514322916661
  1
ON
 50
180.0
 41
0.7
 11
59.891960108624971
 21
77.239365234375015
 31
0.0
 73
     3
  0
TEXT
  5
75A
  8
DATA
 62
     7
 10
68.692589448902751
 20
79.275416666666686
 30
0.0
 40
2.0360514322916661
  1
OFF
 50
180.0
 41
0.7
 72
     2
 11
64.891960108624971
 21
77.239365234375015
 31
0.0
 73
     3
  0
TEXT
  5
75B
  8
DATA
 62
     7
 10
68.330443452808993
 20
82.275416666666914
 30
0.0
 40
2.0360514322916661
  1
PHANT.PWR
 50
180.0
 41
0.7
 72
     1
 11
62.391960108624971
 21
80.239365234375256
 31
0.0
 73
     3
  0
TEXT
  5
75C
  8
DATA
 62
     7
 10
89.075078667709704
 20
72.228526475694451
 30
0.0
 40
2.0360514322916661
  1
a
 50
180.0
 41
0.7
 72
     1
 11
88.600000000174987
 21
72.5
 31
0.0
 73
     1
  0
TEXT
  5
75D
  8
DATA
 62
     7
 10
85.325078667709704
 20
72.228526475694451
 30
0.0
 40
2.0360514322916661
  1
b
 50
180.0
 41
0.7
 72
     1
 11
84.850000000174987
 21
72.5
 31
0.0
 73
     1
  0
TEXT
  5
75E
  8
DATA
 62
     7
 10
44.15899888460968
 20
72.228526475694451
 30
0.0
 40
2.0360514322916661
  1
a
 50
180.0
 41
0.7
 72
     1
 11
43.683920217074949
 21
72.5
 31
0.0
 73
     1
  0
TEXT
  5
75F
  8
DATA
 62
     7
 10
40.408998884609687
 20
72.228526475694451
 30
0.0
 40
2.0360514322916661
  1
b
 50
180.0
 41
0.7
 72
     1
 11
39.933920217074963
 21
72.5
 31
0.0
 73
     1
  0
TEXT
  5
760
  8
DATA
 62
     7
 10
78.600000000174987
 20
60.828526475694353
 30
0.0
 40
2.0360514322916661
  1
IN 1
 50
180.0
 41
0.7
 11
78.600000000174987
 21
61.099999999999902
 31
0.0
 73
     1
  0
TEXT
  5
761
  8
DATA
 62
     7
 10
50.364612491380512
 20
61.228526475694451
 30
0.0
 40
2.0360514322916661
  1
IN 2
 50
180.0
 41
0.7
 72
     2
 11
46.183920217074949
 21
61.5
 31
0.0
 73
     1
  0
TEXT
  5
762
  8
DATA
 62
     7
 10
59.891960108624971
 20
61.275416666666658
 30
0.0
 40
2.0360514322916661
  1
ON
 50
180.0
 41
0.7
 11
59.891960108624971
 21
59.239365234375001
 31
0.0
 73
     3
  0
TEXT
  5
763
  8
DATA
 62
     7
 10
68.692589448902751
 20
61.275416666666658
 30
0.0
 40
2.0360514322916661
  1
OFF
 50
180.0
 41
0.7
 72
     2
 11
64.891960108624971
 21
59.239365234375001
 31
0.0
 73
     3
  0
TEXT
  5
764
  8
DATA
 62
     7
 10
68.330443452808993
 20
64.275416666666885
 30
0.0
 40
2.0360514322916661
  1
PHANT.PWR
 50
180.0
 41
0.7
 72
     1
 11
62.391960108624971
 21
62.239365234375221
 31
0.0
 73
     3
  0
TEXT
  5
765
  8
DATA
 62
     7
 10
89.075078667709704
 20
54.228526475694437
 30
0.0
 40
2.0360514322916661
  1
a
 50
180.0
 41
0.7
 72
     1
 11
88.600000000174987
 21
54.5
 31
0.0
 73
     1
  0
TEXT
  5
766
  8
DATA
 62
     7
 10
85.325078667709704
 20
54.228526475694437
 30
0.0
 40
2.0360514322916661
  1
b
 50
180.0
 41
0.7
 72
     1
 11
84.850000000174987
 21
54.5
 31
0.0
 73
     1
  0
TEXT
  5
767
  8
DATA
 62
     7
 10
44.15899888460968
 20
54.228526475694437
 30
0.0
 40
2.0360514322916661
  1
a
 50
180.0
 41
0.7
 72
     1
 11
43.683920217074949
 21
54.5
 31
0.0
 73
     1
  0
TEXT
  5
768
  8
DATA
 62
     7
 10
40.408998884609687
 20
54.228526475694437
 30
0.0
 40
2.0360514322916661
  1
b
 50
180.0
 41
0.7
 72
     1
 11
39.933920217074963
 21
54.5
 31
0.0
 73
     1
  0
TEXT
  5
769
  8
DATA
 62
     7
 10
10.183920217074951
 20
78.828526475694375
 30
0.0
 40
2.0360514322916661
  1
IN 9
 50
180.0
 41
0.7
 11
10.183920217074951
 21
79.099999999999923
 31
0.0
 73
     1
  0
TEXT
  5
76A
  8
DATA
 62
     7
 10
-17.338849290417429
 20
79.228526475694451
 30
0.0
 40
2.0360514322916661
  1
IN 10
 50
180.0
 41
0.7
 72
     2
 11
-22.232159566025079
 21
79.5
 31
0.0
 73
     1
  0
TEXT
  5
76B
  8
DATA
 62
     7
 10
-8.5241196744750596
 20
79.275416666666686
 30
0.0
 40
2.0360514322916661
  1
ON
 50
180.0
 41
0.7
 11
-8.5241196744750596
 21
77.239365234375015
 31
0.0
 73
     3
  0
TEXT
  5
76C
  8
DATA
 62
     7
 10
0.2765096658027172
 20
79.275416666666686
 30
0.0
 40
2.0360514322916661
  1
OFF
 50
180.0
 41
0.7
 72
     2
 11
-3.52411967447506
 21
77.239365234375015
 31
0.0
 73
     3
  0
TEXT
  5
76D
  8
DATA
 62
     7
 10
-0.0856363302910333
 20
82.275416666666914
 30
0.0
 40
2.0360514322916661
  1
PHANT.PWR
 50
180.0
 41
0.7
 72
     1
 11
-6.0241196744750587
 21
80.239365234375256
 31
0.0
 73
     3
  0
TEXT
  5
76E
  8
DATA
 62
     7
 10
20.65899888460968
 20
72.228526475694451
 30
0.0
 40
2.0360514322916661
  1
a
 50
180.0
 41
0.7
 72
     1
 11
20.183920217074959
 21
72.5
 31
0.0
 73
     1
  0
TEXT
  5
76F
  8
DATA
 62
     7
 10
16.90899888460968
 20
72.228526475694451
 30
0.0
 40
2.0360514322916661
  1
b
 50
180.0
 41
0.7
 72
     1
 11
16.433920217074949
 21
72.5
 31
0.0
 73
     1
  0
TEXT
  5
770
  8
DATA
 62
     7
 10
-24.257080898490351
 20
72.228526475694451
 30
0.0
 40
2.0360514322916661
  1
a
 50
180.0
 41
0.7
 72
     1
 11
-24.732159566025079
 21
72.5
 31
0.0
 73
     1
  0
TEXT
  5
771
  8
DATA
 62
     7
 10
-28.007080898490351
 20
72.228526475694451
 30
0.0
 40
2.0360514322916661
  1
b
 50
180.0
 41
0.7
 72
     1
 11
-28.482159566025079
 21
72.5
 31
0.0
 73
     1
  0
TEXT
  5
772
  8
DATA
 62
     7
 10
10.183920217074951
 20
60.828526475694353
 30
0.0
 40
2.0360514322916661
  1
IN 3
 50
180.0
 41
0.7
 11
10.183920217074951
 21
61.099999999999902
 31
0.0
 73
     1
  0
TEXT
  5
773
  8
DATA
 62
     7
 10
-18.051467291719518
 20
61.228526475694451
 30
0.0
 40
2.0360514322916661
  1
IN 4
 50
180.0
 41
0.7
 72
     2
 11
-22.232159566025079
 21
61.5
 31
0.0
 73
     1
  0
TEXT
  5
774
  8
DATA
 62
     7
 10
-8.5241196744750596
 20
61.275416666666658
 30
0.0
 40
2.0360514322916661
  1
ON
 50
180.0
 41
0.7
 11
-8.5241196744750596
 21
59.239365234375001
 31
0.0
 73
     3
  0
TEXT
  5
775
  8
DATA
 62
     7
 10
0.2765096658027172
 20
61.275416666666658
 30
0.0
 40
2.0360514322916661
  1
OFF
 50
180.0
 41
0.7
 72
     2
 11
-3.52411967447506
 21
59.239365234375001
 31
0.0
 73
     3
  0
TEXT
  5
776
  8
DATA
 62
     7
 10
-0.0856363302910333
 20
64.275416666666885
 30
0.0
 40
2.0360514322916661
  1
PHANT.PWR
 50
180.0
 41
0.7
 72
     1
 11
-6.0241196744750587
 21
62.239365234375221
 31
0.0
 73
     3
  0
TEXT
  5
777
  8
DATA
 62
     7
 10
20.65899888460968
 20
54.228526475694437
 30
0.0
 40
2.0360514322916661
  1
a
 50
180.0
 41
0.7
 72
     1
 11
20.183920217074959
 21
54.5
 31
0.0
 73
     1
  0
TEXT
  5
778
  8
DATA
 62
     7
 10
16.90899888460968
 20
54.228526475694437
 30
0.0
 40
2.0360514322916661
  1
b
 50
180.0
 41
0.7
 72
     1
 11
16.433920217074949
 21
54.5
 31
0.0
 73
     1
  0
TEXT
  5
779
  8
DATA
 62
     7
 10
-24.257080898490351
 20
54.228526475694437
 30
0.0
 40
2.0360514322916661
  1
a
 50
180.0
 41
0.7
 72
     1
 11
-24.732159566025079
 21
54.5
 31
0.0
 73
     1
  0
TEXT
  5
77A
  8
DATA
 62
     7
 10
-28.007080898490351
 20
54.228526475694437
 30
0.0
 40
2.0360514322916661
  1
b
 50
180.0
 41
0.7
 72
     1
 11
-28.482159566025079
 21
54.5
 31
0.0
 73
     1
  0
TEXT
  5
77B
  8
DATA
 62
     7
 10
-58.232159566025068
 20
78.828526475694375
 30
0.0
 40
2.0360514322916661
  1
IN 11
 50
180.0
 41
0.7
 11
-58.232159566025068
 21
79.099999999999923
 31
0.0
 73
     1
  0
TEXT
  5
77C
  8
DATA
 62
     7
 10
-85.517389739750115
 20
79.228526475694451
 30
0.0
 40
2.0360514322916661
  1
IN 12
 50
180.0
 41
0.7
 72
     2
 11
-90.648239349125106
 21
79.5
 31
0.0
 73
     1
  0
TEXT
  5
77D
  8
DATA
 62
     7
 10
-76.94019945757509
 20
79.275416666666686
 30
0.0
 40
2.0360514322916661
  1
ON
 50
180.0
 41
0.7
 11
-76.94019945757509
 21
77.239365234375015
 31
0.0
 73
     3
  0
TEXT
  5
77E
  8
DATA
 62
     7
 10
-68.139570117297311
 20
79.275416666666686
 30
0.0
 40
2.0360514322916661
  1
OFF
 50
180.0
 41
0.7
 72
     2
 11
-71.94019945757509
 21
77.239365234375015
 31
0.0
 73
     3
  0
TEXT
  5
77F
  8
DATA
 62
     7
 10
-68.501716113391055
 20
82.275416666666914
 30
0.0
 40
2.0360514322916661
  1
PHANT.PWR
 50
180.0
 41
0.7
 72
     1
 11
-74.44019945757509
 21
80.239365234375256
 31
0.0
 73
     3
  0
TEXT
  5
780
  8
DATA
 62
     7
 10
-47.757080898490351
 20
72.228526475694451
 30
0.0
 40
2.0360514322916661
  1
a
 50
180.0
 41
0.7
 72
     1
 11
-48.232159566025068
 21
72.5
 31
0.0
 73
     1
  0
TEXT
  5
781
  8
DATA
 62
     7
 10
-51.507080898490351
 20
72.228526475694451
 30
0.0
 40
2.0360514322916661
  1
b
 50
180.0
 41
0.7
 72
     1
 11
-51.982159566025068
 21
72.5
 31
0.0
 73
     1
  0
TEXT
  5
782
  8
DATA
 62
     7
 10
-92.673160681590375
 20
72.228526475694451
 30
0.0
 40
2.0360514322916661
  1
a
 50
180.0
 41
0.7
 72
     1
 11
-93.148239349125106
 21
72.5
 31
0.0
 73
     1
  0
TEXT
  5
783
  8
DATA
 62
     7
 10
-96.423160681590403
 20
72.228526475694451
 30
0.0
 40
2.0360514322916661
  1
b
 50
180.0
 41
0.7
 72
     1
 11
-96.898239349125106
 21
72.5
 31
0.0
 73
     1
  0
TEXT
  5
784
  8
DATA
 62
     7
 10
-58.232159566025068
 20
60.828526475694353
 30
0.0
 40
2.0360514322916661
  1
IN 5
 50
180.0
 41
0.7
 11
-58.232159566025068
 21
61.099999999999902
 31
0.0
 73
     1
  0
TEXT
  5
785
  8
DATA
 62
     7
 10
-86.467547074819549
 20
61.228526475694451
 30
0.0
 40
2.0360514322916661
  1
IN 6
 50
180.0
 41
0.7
 72
     2
 11
-90.648239349125106
 21
61.5
 31
0.0
 73
     1
  0
TEXT
  5
786
  8
DATA
 62
     7
 10
-76.94019945757509
 20
61.275416666666658
 30
0.0
 40
2.0360514322916661
  1
ON
 50
180.0
 41
0.7
 11
-76.94019945757509
 21
59.239365234375001
 31
0.0
 73
     3
  0
TEXT
  5
787
  8
DATA
 62
     7
 10
-68.139570117297311
 20
61.275416666666658
 30
0.0
 40
2.0360514322916661
  1
OFF
 50
180.0
 41
0.7
 72
     2
 11
-71.94019945757509
 21
59.239365234375001
 31
0.0
 73
     3
  0
TEXT
  5
788
  8
DATA
 62
     7
 10
-68.501716113391055
 20
64.275416666666885
 30
0.0
 40
2.0360514322916661
  1
PHANT.PWR
 50
180.0
 41
0.7
 72
     1
 11
-74.44019945757509
 21
62.239365234375221
 31
0.0
 73
     3
  0
TEXT
  5
789
  8
DATA
 62
     7
 10
-47.757080898490351
 20
54.228526475694437
 30
0.0
 40
2.0360514322916661
  1
a
 50
180.0
 41
0.7
 72
     1
 11
-48.232159566025068
 21
54.5
 31
0.0
 73
     1
  0
TEXT
  5
78A
  8
DATA
 62
     7
 10
-51.507080898490351
 20
54.228526475694437
 30
0.0
 40
2.0360514322916661
  1
b
 50
180.0
 41
0.7
 72
     1
 11
-51.982159566025068
 21
54.5
 31
0.0
 73
     1
  0
TEXT
  5
78B
  8
DATA
 62
     7
 10
-92.673160681590375
 20
54.228526475694437
 30
0.0
 40
2.0360514322916661
  1
a
 50
180.0
 41
0.7
 72
     1
 11
-93.148239349125106
 21
54.5
 31
0.0
 73
     1
  0
TEXT
  5
78C
  8
DATA
 62
     7
 10
-96.423160681590403
 20
54.228526475694437
 30
0.0
 40
2.0360514322916661
  1
b
 50
180.0
 41
0.7
 72
     1
 11
-96.898239349125106
 21
54.5
 31
0.0
 73
     1
  0
TEXT
  5
78D
  8
DATA
 62
     7
 10
-117.1731606815904
 20
54.228526475694437
 30
0.0
 40
2.0360514322916661
  1
a
 50
180.0
 41
0.7
 72
     1
 11
-117.64823934912511
 21
54.5
 31
0.0
 73
     1
  0
TEXT
  5
78E
  8
DATA
 62
     7
 10
-120.9231606815904
 20
54.228526475694437
 30
0.0
 40
2.0360514322916661
  1
b
 50
180.0
 41
0.7
 72
     1
 11
-121.39823934912511
 21
54.5
 31
0.0
 73
     1
  0
TEXT
  5
78F
  8
DATA
 62
     7
 10
-117.1731606815904
 20
72.228526475694451
 30
0.0
 40
2.0360514322916661
  1
a
 50
180.0
 41
0.7
 72
     1
 11
-117.64823934912511
 21
72.5
 31
0.0
 73
     1
  0
TEXT
  5
790
  8
DATA
 62
     7
 10
-120.9231606815904
 20
72.228526475694451
 30
0.0
 40
2.0360514322916661
  1
b
 50
180.0
 41
0.7
 72
     1
 11
-121.39823934912511
 21
72.5
 31
0.0
 73
     1
  0
TEXT
  5
791
  8
DATA
 62
     7
 10
-141.67316068159039
 20
54.228526475694437
 30
0.0
 40
2.0360514322916661
  1
a
 50
180.0
 41
0.7
 72
     1
 11
-142.14823934912511
 21
54.5
 31
0.0
 73
     1
  0
TEXT
  5
792
  8
DATA
 62
     7
 10
-145.42316068159039
 20
54.228526475694437
 30
0.0
 40
2.0360514322916661
  1
b
 50
180.0
 41
0.7
 72
     1
 11
-145.89823934912511
 21
54.5
 31
0.0
 73
     1
  0
TEXT
  5
793
  8
DATA
 62
     7
 10
-141.67316068159039
 20
72.228526475694451
 30
0.0
 40
2.0360514322916661
  1
a
 50
180.0
 41
0.7
 72
     1
 11
-142.14823934912511
 21
72.5
 31
0.0
 73
     1
  0
TEXT
  5
794
  8
DATA
 62
     7
 10
-145.42316068159039
 20
72.228526475694451
 30
0.0
 40
2.0360514322916661
  1
b
 50
180.0
 41
0.7
 72
     1
 11
-145.89823934912511
 21
72.5
 31
0.0
 73
     1
  0
TEXT
  5
795
  8
DATA
 62
     7
 10
-140.24480320546189
 20
82.685583333333312
 30
0.0
 40
2.8504720052083332
  1
OUT2/R
 50
180.0
 41
0.7
 72
     1
 11
-145.89823934912511
 21
79.835111328124981
 31
0.0
 73
     3
  0
TEXT
  5
796
  8
DATA
 62
     7
 10
-115.74480320546191
 20
82.685583333333312
 30
0.0
 40
2.8504720052083332
  1
OUT2/L
 50
180.0
 41
0.7
 72
     1
 11
-121.39823934912511
 21
79.835111328124981
 31
0.0
 73
     3
  0
TEXT
  5
797
  8
DATA
 62
     7
 10
-140.57735827273621
 20
64.685583333333341
 30
0.0
 40
2.8504720052083332
  1
OUT1/R
 50
180.0
 41
0.7
 72
     1
 11
-145.89823934912511
 21
61.835111328125002
 31
0.0
 73
     3
  0
TEXT
  5
798
  8
DATA
 62
     7
 10
-116.07735827273621
 20
64.685583333333341
 30
0.0
 40
2.8504720052083332
  1
OUT1/L
 50
180.0
 41
0.7
 72
     1
 11
-121.39823934912511
 21
61.835111328125002
 31
0.0
 73
     3
  0
TEXT
  5
799
  8
DATA
 62
     7
 10
65.714952799479164
 20
-379.83711588541672
 30
0.0
 40
1.221630859375
  1
8
 41
0.7
 72
     1
 11
66.0
 21
-380.0
 31
0.0
 73
     1
  0
TEXT
  5
79A
  8
DATA
 62
     7
 10
62.124874607661042
 20
-380.4960224931902
 30
0.0
 40
1.221630859375
  1
7
 50
18.0
 41
0.7
 72
     1
 11
62.446304564688042
 21
-380.56285006260572
 31
0.0
 73
     1
  0
TEXT
  5
79B
  8
DATA
 62
     7
 10
58.914120688831382
 20
-382.23207508855029
 30
0.0
 40
1.221630859375
  1
6
 50
36.0
 41
0.7
 72
     1
 11
59.240469598636537
 21
-382.19630456468849
 31
0.0
 73
     1
  0
TEXT
  5
79C
  8
DATA
 62
     7
 10
56.396982007203
 20
-384.87533674767252
 30
0.0
 40
1.221630859375
  1
5
 50
54.0
 41
0.7
 72
     1
 11
56.696304564688042
 21
-384.74046959863688
 31
0.0
 73
     1
  0
TEXT
  5
79D
  8
DATA
 62
     7
 10
54.819853634870839
 20
-388.16706660267511
 30
0.0
 40
1.221630859375
  1
4
 50
72.0
 41
0.7
 72
     1
 11
55.06285006260623
 21
-387.94630456468798
 31
0.0
 73
     1
  0
TEXT
  5
79E
  8
DATA
 62
     7
 10
69.332933397323956
 20
-380.3198536348699
 30
0.0
 40
1.221630859375
  1
9
 50
342.00000000000688
 41
0.7
 72
     1
 11
69.553695435311056
 21
-380.56285006260532
 31
0.0
 73
     1
  0
TEXT
  5
79F
  8
DATA
 62
     7
 10
72.451707230262144
 20
-381.77132210169771
 30
0.0
 40
1.221630859375
  1
10
 50
324.00000000000688
 41
0.7
 72
     1
 11
72.759530401363023
 21
-382.19630456468781
 31
0.0
 73
     1
  0
TEXT
  5
7A0
  8
DATA
 62
     7
 10
75.184151641112976
 20
-384.2988166741207
 30
0.0
 40
1.221630859375
  1
11
 50
306.00000000000688
 41
0.7
 72
     1
 11
75.303695435311496
 21
-384.74046959863603
 31
0.0
 73
     1
  0
TEXT
  5
7A1
  8
DATA
 62
     7
 10
76.915893077649272
 20
-387.35377861015257
 30
0.0
 40
1.221630859375
  1
12
 50
288.00000000000699
 41
0.7
 72
     1
 11
76.937149937393755
 21
-387.94630456468673
 31
0.0
 73
     1
  0
TEXT
  5
7A2
  8
DATA
 62
     7
 10
77.662884114583719
 20
-390.92990559895679
 30
0.0
 40
1.221630859375
  1
13
 50
270.00000000000688
 41
0.7
 72
     1
 11
77.500000000000455
 21
-391.49999999999852
 31
0.0
 73
     1
  0
TEXT
  5
7A3
  8
DATA
 62
     7
 10
54.996022493190281
 20
-395.37512539233887
 30
0.0
 40
1.221630859375
  1
2
 50
108.0
 41
0.7
 72
     1
 11
55.062850062605783
 21
-395.05369543531202
 31
0.0
 73
     1
  0
TEXT
  5
7A4
  8
DATA
 62
     7
 10
56.648301818213113
 20
-398.47057529645849
 30
0.0
 40
1.221630859375
  1
1
 50
126.0
 41
0.7
 72
     1
 11
56.696304564688042
 21
-398.25953040136352
 31
0.0
 73
     1
  0
TEXT
  5
7A5
  8
DATA
 62
     7
 10
77.268230794289948
 20
-394.56183739981782
 30
0.0
 40
1.221630859375
  1
14
 50
252.00000000000691
 41
0.7
 72
     1
 11
76.937149937394679
 21
-395.05369543531202
 31
0.0
 73
     1
  0
TEXT
  5
7A6
  8
DATA
 62
     7
 10
75.770564533470349
 20
-397.89405522290792
 30
0.0
 40
1.221630859375
  1
15
 50
234.00000000000691
 41
0.7
 72
     1
 11
75.303695435311965
 21
-398.25953040136392
 31
0.0
 73
     1
  0
TEXT
  5
7A7
  8
DATA
 62
     7
 10
-65.285047200520836
 20
-392.83711588541672
 30
0.0
 40
1.221630859375
  1
8
 41
0.7
 72
     1
 11
-65.0
 21
-393.0
 31
0.0
 73
     1
  0
TEXT
  5
7A8
  8
DATA
 62
     7
 10
-68.875125392338944
 20
-393.4960224931902
 30
0.0
 40
1.221630859375
  1
7
 50
18.0
 41
0.7
 72
     1
 11
-68.553695435311965
 21
-393.56285006260572
 31
0.0
 73
     1
  0
TEXT
  5
7A9
  8
DATA
 62
     7
 10
-72.085879311168597
 20
-395.23207508855029
 30
0.0
 40
1.221630859375
  1
6
 50
36.0
 41
0.7
 72
     1
 11
-71.759530401363449
 21
-395.19630456468849
 31
0.0
 73
     1
  0
TEXT
  5
7AA
  8
DATA
 62
     7
 10
-61.66706660267603
 20
-393.3198536348699
 30
0.0
 40
1.221630859375
  1
9
 50
342.00000000000688
 41
0.7
 72
     1
 11
-61.446304564688937
 21
-393.56285006260521
 31
0.0
 73
     1
  0
TEXT
  5
7AB
  8
DATA
 62
     7
 10
-58.548292769737863
 20
-394.77132210169771
 30
0.0
 40
1.221630859375
  1
10
 50
324.00000000000688
 41
0.7
 72
     1
 11
-58.240469598636992
 21
-395.19630456468781
 31
0.0
 73
     1
  0
TEXT
  5
7AC
  8
DATA
 62
     7
 10
-55.81584835888701
 20
-397.29881667412059
 30
0.0
 40
1.221630859375
  1
11
 50
306.00000000000688
 41
0.7
 72
     1
 11
-55.696304564688489
 21
-397.74046959863603
 31
0.0
 73
     1
  0
TEXT
  5
7AD
  8
DATA
 62
     7
 10
-54.084106922350728
 20
-400.35377861015257
 30
0.0
 40
1.221630859375
  1
12
 50
288.00000000000699
 41
0.7
 72
     1
 11
-54.06285006260623
 21
-400.94630456468661
 31
0.0
 73
     1
  0
TEXT
  5
7AE
  8
DATA
 62
     7
 10
-53.337115885416281
 20
-403.92990559895679
 30
0.0
 40
1.221630859375
  1
13
 50
270.00000000000688
 41
0.7
 72
     1
 11
-53.499999999999552
 21
-404.49999999999852
 31
0.0
 73
     1
  0
TEXT
  5
7AF
  8
DATA
 62
     7
 10
-61.446304564688937
 20
-418.27541666666662
 30
0.0
 40
2.0360514322916661
  1
PEAK
 41
0.7
 11
-61.446304564688937
 21
-416.23936523437487
 31
0.0
 73
     3
  0
TEXT
  5
7B0
  8
DATA
 62
     7
 10
-76.662884114583335
 20
-404.78504720052069
 30
0.0
 40
1.221630859375
  1
3
 50
90.0
 41
0.7
 72
     1
 11
-76.5
 21
-404.49999999999989
 31
0.0
 73
     1
  0
TEXT
  5
7B1
  8
DATA
 62
     7
 10
-76.003977506809733
 20
-408.37512539233887
 30
0.0
 40
1.221630859375
  1
2
 50
108.0
 41
0.7
 72
     1
 11
-75.937149937394224
 21
-408.05369543531191
 31
0.0
 73
     1
  0
TEXT
  5
7B2
  8
DATA
 62
     7
 10
-74.351698181786887
 20
-411.47057529645838
 30
0.0
 40
1.221630859375
  1
1
 50
126.0
 41
0.7
 72
     1
 11
-74.303695435311965
 21
-411.25953040136341
 31
0.0
 73
     1
  0
TEXT
  5
7B3
  8
DATA
 62
     7
 10
-70.929088772985125
 20
-418.24173327072759
 30
0.0
 40
2.0360514322916661
  1
ON
 41
0.7
 72
     2
 11
-68.553695435311511
 21
-416.20568183843602
 31
0.0
 73
     3
  0
TEXT
  5
7B4
  8
DATA
 62
     7
 10
-53.731769205710052
 20
-407.56183739981782
 30
0.0
 40
1.221630859375
  1
14
 50
252.00000000000691
 41
0.7
 72
     1
 11
-54.062850062605321
 21
-408.05369543531191
 31
0.0
 73
     1
  0
TEXT
  5
7B5
  8
DATA
 62
     7
 10
-55.229435466529651
 20
-410.89405522290781
 30
0.0
 40
1.221630859375
  1
15
 50
234.00000000000691
 41
0.7
 72
     1
 11
-55.696304564688042
 21
-411.2595304013638
 31
0.0
 73
     1
  0
TEXT
  5
7B6
  8
DATA
 62
     7
 10
-109.28504720052079
 20
-392.83711588541672
 30
0.0
 40
1.221630859375
  1
8
 41
0.7
 72
     1
 11
-109.0
 21
-393.0
 31
0.0
 73
     1
  0
TEXT
  5
7B7
  8
DATA
 62
     7
 10
-112.8751253923389
 20
-393.4960224931902
 30
0.0
 40
1.221630859375
  1
7
 50
18.0
 41
0.7
 72
     1
 11
-112.55369543531189
 21
-393.56285006260572
 31
0.0
 73
     1
  0
TEXT
  5
7B8
  8
DATA
 62
     7
 10
-116.0858793111686
 20
-395.23207508855029
 30
0.0
 40
1.221630859375
  1
6
 50
36.0
 41
0.7
 72
     1
 11
-115.75953040136341
 21
-395.19630456468849
 31
0.0
 73
     1
  0
TEXT
  5
7B9
  8
DATA
 62
     7
 10
-105.667066602676
 20
-393.3198536348699
 30
0.0
 40
1.221630859375
  1
9
 50
342.00000000000688
 41
0.7
 72
     1
 11
-105.4463045646889
 21
-393.56285006260521
 31
0.0
 73
     1
  0
TEXT
  5
7BA
  8
DATA
 62
     7
 10
-102.5482927697379
 20
-394.77132210169771
 30
0.0
 40
1.221630859375
  1
10
 50
324.00000000000688
 41
0.7
 72
     1
 11
-102.24046959863701
 21
-395.19630456468781
 31
0.0
 73
     1
  0
TEXT
  5
7BB
  8
DATA
 62
     7
 10
-97.337115885416296
 20
-403.92990559895679
 30
0.0
 40
1.221630859375
  1
13
 50
270.00000000000688
 41
0.7
 72
     1
 11
-97.499999999999545
 21
-404.49999999999852
 31
0.0
 73
     1
  0
TEXT
  5
7BC
  8
DATA
 62
     7
 10
-105.4463045646889
 20
-418.27541666666662
 30
0.0
 40
2.0360514322916661
  1
PEAK
 41
0.7
 11
-105.4463045646889
 21
-416.23936523437487
 31
0.0
 73
     3
  0
TEXT
  5
7BD
  8
DATA
 62
     7
 10
-120.66288411458331
 20
-404.78504720052069
 30
0.0
 40
1.221630859375
  1
3
 50
90.0
 41
0.7
 72
     1
 11
-120.5
 21
-404.49999999999989
 31
0.0
 73
     1
  0
TEXT
  5
7BE
  8
DATA
 62
     7
 10
-120.0039775068097
 20
-408.37512539233887
 30
0.0
 40
1.221630859375
  1
2
 50
108.0
 41
0.7
 72
     1
 11
-119.9371499373942
 21
-408.05369543531191
 31
0.0
 73
     1
  0
TEXT
  5
7BF
  8
DATA
 62
     7
 10
-118.3516981817869
 20
-411.47057529645838
 30
0.0
 40
1.221630859375
  1
1
 50
126.0
 41
0.7
 72
     1
 11
-118.30369543531189
 21
-411.25953040136341
 31
0.0
 73
     1
  0
TEXT
  5
7C0
  8
DATA
 62
     7
 10
-114.9290887729851
 20
-418.24173327072759
 30
0.0
 40
2.0360514322916661
  1
ON
 41
0.7
 72
     2
 11
-112.5536954353115
 21
-416.20568183843602
 31
0.0
 73
     3
  0
TEXT
  5
7C1
  8
DATA
 62
     7
 10
-97.731769205710023
 20
-407.56183739981782
 30
0.0
 40
1.221630859375
  1
14
 50
252.00000000000691
 41
0.7
 72
     1
 11
-98.062850062605307
 21
-408.05369543531191
 31
0.0
 73
     1
  0
TEXT
  5
7C2
  8
DATA
 62
     7
 10
-99.229435466529665
 20
-410.89405522290781
 30
0.0
 40
1.221630859375
  1
15
 50
234.00000000000691
 41
0.7
 72
     1
 11
-99.696304564688063
 21
-411.2595304013638
 31
0.0
 73
     1
  0
TEXT
  5
7C3
  8
DATA
 62
     7
 10
-153.28504720052081
 20
-392.83711588541672
 30
0.0
 40
1.221630859375
  1
8
 41
0.7
 72
     1
 11
-153.0
 21
-393.0
 31
0.0
 73
     1
  0
TEXT
  5
7C4
  8
DATA
 62
     7
 10
-156.8751253923389
 20
-393.4960224931902
 30
0.0
 40
1.221630859375
  1
7
 50
18.0
 41
0.7
 72
     1
 11
-156.55369543531191
 21
-393.56285006260572
 31
0.0
 73
     1
  0
TEXT
  5
7C5
  8
DATA
 62
     7
 10
-160.08587931116861
 20
-395.23207508855029
 30
0.0
 40
1.221630859375
  1
6
 50
36.0
 41
0.7
 72
     1
 11
-159.75953040136341
 21
-395.19630456468849
 31
0.0
 73
     1
  0
TEXT
  5
7C6
  8
DATA
 62
     7
 10
-149.66706660267599
 20
-393.3198536348699
 30
0.0
 40
1.221630859375
  1
9
 50
342.00000000000688
 41
0.7
 72
     1
 11
-149.44630456468889
 21
-393.56285006260521
 31
0.0
 73
     1
  0
TEXT
  5
7C7
  8
DATA
 62
     7
 10
-146.54829276973791
 20
-394.77132210169771
 30
0.0
 40
1.221630859375
  1
10
 50
324.00000000000688
 41
0.7
 72
     1
 11
-146.24046959863699
 21
-395.19630456468781
 31
0.0
 73
     1
  0
TEXT
  5
7C8
  8
DATA
 62
     7
 10
-141.3371158854163
 20
-403.92990559895679
 30
0.0
 40
1.221630859375
  1
13
 50
270.00000000000688
 41
0.7
 72
     1
 11
-141.4999999999996
 21
-404.49999999999852
 31
0.0
 73
     1
  0
TEXT
  5
7C9
  8
DATA
 62
     7
 10
-149.44630456468889
 20
-418.27541666666662
 30
0.0
 40
2.0360514322916661
  1
PEAK
 41
0.7
 11
-149.44630456468889
 21
-416.23936523437487
 31
0.0
 73
     3
  0
TEXT
  5
7CA
  8
DATA
 62
     7
 10
-164.66288411458331
 20
-404.78504720052069
 30
0.0
 40
1.221630859375
  1
3
 50
90.0
 41
0.7
 72
     1
 11
-164.5
 21
-404.49999999999989
 31
0.0
 73
     1
  0
TEXT
  5
7CB
  8
DATA
 62
     7
 10
-164.00397750680969
 20
-408.37512539233887
 30
0.0
 40
1.221630859375
  1
2
 50
108.0
 41
0.7
 72
     1
 11
-163.9371499373942
 21
-408.05369543531191
 31
0.0
 73
     1
  0
TEXT
  5
7CC
  8
DATA
 62
     7
 10
-162.3516981817869
 20
-411.47057529645838
 30
0.0
 40
1.221630859375
  1
1
 50
126.0
 41
0.7
 72
     1
 11
-162.30369543531199
 21
-411.25953040136341
 31
0.0
 73
     1
  0
TEXT
  5
7CD
  8
DATA
 62
     7
 10
-158.9290887729851
 20
-418.24173327072759
 30
0.0
 40
2.0360514322916661
  1
ON
 41
0.7
 72
     2
 11
-156.55369543531151
 21
-416.20568183843602
 31
0.0
 73
     3
  0
TEXT
  5
7CE
  8
DATA
 62
     7
 10
-141.73176920571001
 20
-407.56183739981782
 30
0.0
 40
1.221630859375
  1
14
 50
252.00000000000691
 41
0.7
 72
     1
 11
-142.06285006260529
 21
-408.05369543531191
 31
0.0
 73
     1
  0
TEXT
  5
7CF
  8
DATA
 62
     7
 10
-143.22943546652959
 20
-410.89405522290781
 30
0.0
 40
1.221630859375
  1
15
 50
234.00000000000691
 41
0.7
 72
     1
 11
-143.69630456468801
 21
-411.2595304013638
 31
0.0
 73
     1
  0
TEXT
  5
7D0
  8
DATA
 62
     7
 10
-197.28504720052081
 20
-392.83711588541672
 30
0.0
 40
1.221630859375
  1
8
 41
0.7
 72
     1
 11
-197.0
 21
-393.0
 31
0.0
 73
     1
  0
TEXT
  5
7D1
  8
DATA
 62
     7
 10
-200.87512539233899
 20
-393.4960224931902
 30
0.0
 40
1.221630859375
  1
7
 50
18.0
 41
0.7
 72
     1
 11
-200.55369543531199
 21
-393.56285006260572
 31
0.0
 73
     1
  0
TEXT
  5
7D2
  8
DATA
 62
     7
 10
-204.08587931116861
 20
-395.23207508855029
 30
0.0
 40
1.221630859375
  1
6
 50
36.0
 41
0.7
 72
     1
 11
-203.75953040136349
 21
-395.19630456468849
 31
0.0
 73
     1
  0
TEXT
  5
7D3
  8
DATA
 62
     7
 10
-193.66706660267599
 20
-393.3198536348699
 30
0.0
 40
1.221630859375
  1
9
 50
342.00000000000688
 41
0.7
 72
     1
 11
-193.44630456468889
 21
-393.56285006260521
 31
0.0
 73
     1
  0
TEXT
  5
7D4
  8
DATA
 62
     7
 10
-190.5482927697378
 20
-394.77132210169771
 30
0.0
 40
1.221630859375
  1
10
 50
324.00000000000688
 41
0.7
 72
     1
 11
-190.24046959863691
 21
-395.19630456468781
 31
0.0
 73
     1
  0
TEXT
  5
7D5
  8
DATA
 62
     7
 10
-185.3371158854163
 20
-403.92990559895679
 30
0.0
 40
1.221630859375
  1
13
 50
270.00000000000688
 41
0.7
 72
     1
 11
-185.49999999999949
 21
-404.49999999999852
 31
0.0
 73
     1
  0
TEXT
  5
7D6
  8
DATA
 62
     7
 10
-193.44630456468889
 20
-418.27541666666662
 30
0.0
 40
2.0360514322916661
  1
PEAK
 41
0.7
 11
-193.44630456468889
 21
-416.23936523437487
 31
0.0
 73
     3
  0
TEXT
  5
7D7
  8
DATA
 62
     7
 10
-208.66288411458339
 20
-404.78504720052069
 30
0.0
 40
1.221630859375
  1
3
 50
90.0
 41
0.7
 72
     1
 11
-208.5
 21
-404.49999999999989
 31
0.0
 73
     1
  0
TEXT
  5
7D8
  8
DATA
 62
     7
 10
-208.00397750680969
 20
-408.37512539233887
 30
0.0
 40
1.221630859375
  1
2
 50
108.0
 41
0.7
 72
     1
 11
-207.93714993739431
 21
-408.05369543531191
 31
0.0
 73
     1
  0
TEXT
  5
7D9
  8
DATA
 62
     7
 10
-206.3516981817869
 20
-411.47057529645838
 30
0.0
 40
1.221630859375
  1
1
 50
126.0
 41
0.7
 72
     1
 11
-206.30369543531199
 21
-411.25953040136341
 31
0.0
 73
     1
  0
TEXT
  5
7DA
  8
DATA
 62
     7
 10
-202.9290887729851
 20
-418.24173327072759
 30
0.0
 40
2.0360514322916661
  1
ON
 41
0.7
 72
     2
 11
-200.55369543531151
 21
-416.20568183843602
 31
0.0
 73
     3
  0
TEXT
  5
7DB
  8
DATA
 62
     7
 10
-185.73176920571001
 20
-407.56183739981782
 30
0.0
 40
1.221630859375
  1
14
 50
252.00000000000691
 41
0.7
 72
     1
 11
-186.06285006260529
 21
-408.05369543531191
 31
0.0
 73
     1
  0
TEXT
  5
7DC
  8
DATA
 62
     7
 10
-187.22943546652959
 20
-410.89405522290781
 30
0.0
 40
1.221630859375
  1
15
 50
234.00000000000691
 41
0.7
 72
     1
 11
-187.69630456468801
 21
-411.2595304013638
 31
0.0
 73
     1
  0
TEXT
  5
7DD
  8
DATA
 62
     7
 10
-241.28504720052081
 20
-392.83711588541672
 30
0.0
 40
1.221630859375
  1
8
 41
0.7
 72
     1
 11
-241.0
 21
-393.0
 31
0.0
 73
     1
  0
TEXT
  5
7DE
  8
DATA
 62
     7
 10
-244.87512539233899
 20
-393.4960224931902
 30
0.0
 40
1.221630859375
  1
7
 50
18.0
 41
0.7
 72
     1
 11
-244.55369543531199
 21
-393.56285006260572
 31
0.0
 73
     1
  0
TEXT
  5
7DF
  8
DATA
 62
     7
 10
-248.08587931116861
 20
-395.23207508855029
 30
0.0
 40
1.221630859375
  1
6
 50
36.0
 41
0.7
 72
     1
 11
-247.75953040136349
 21
-395.19630456468849
 31
0.0
 73
     1
  0
TEXT
  5
7E0
  8
DATA
 62
     7
 10
-237.66706660267599
 20
-393.3198536348699
 30
0.0
 40
1.221630859375
  1
9
 50
342.00000000000688
 41
0.7
 72
     1
 11
-237.44630456468889
 21
-393.56285006260521
 31
0.0
 73
     1
  0
TEXT
  5
7E1
  8
DATA
 62
     7
 10
-234.5482927697378
 20
-394.77132210169771
 30
0.0
 40
1.221630859375
  1
10
 50
324.00000000000688
 41
0.7
 72
     1
 11
-234.24046959863699
 21
-395.19630456468781
 31
0.0
 73
     1
  0
TEXT
  5
7E2
  8
DATA
 62
     7
 10
-229.3371158854163
 20
-403.92990559895679
 30
0.0
 40
1.221630859375
  1
13
 50
270.00000000000688
 41
0.7
 72
     1
 11
-229.4999999999996
 21
-404.49999999999852
 31
0.0
 73
     1
  0
TEXT
  5
7E3
  8
DATA
 62
     7
 10
-237.44630456468889
 20
-418.27541666666662
 30
0.0
 40
2.0360514322916661
  1
PEAK
 41
0.7
 11
-237.44630456468889
 21
-416.23936523437487
 31
0.0
 73
     3
  0
TEXT
  5
7E4
  8
DATA
 62
     7
 10
-252.66288411458331
 20
-404.78504720052069
 30
0.0
 40
1.221630859375
  1
3
 50
90.0
 41
0.7
 72
     1
 11
-252.5
 21
-404.49999999999989
 31
0.0
 73
     1
  0
TEXT
  5
7E5
  8
DATA
 62
     7
 10
-252.00397750680969
 20
-408.37512539233887
 30
0.0
 40
1.221630859375
  1
2
 50
108.0
 41
0.7
 72
     1
 11
-251.93714993739431
 21
-408.05369543531191
 31
0.0
 73
     1
  0
TEXT
  5
7E6
  8
DATA
 62
     7
 10
-250.3516981817869
 20
-411.47057529645838
 30
0.0
 40
1.221630859375
  1
1
 50
126.0
 41
0.7
 72
     1
 11
-250.30369543531199
 21
-411.25953040136341
 31
0.0
 73
     1
  0
TEXT
  5
7E7
  8
DATA
 62
     7
 10
-246.9290887729851
 20
-418.24173327072759
 30
0.0
 40
2.0360514322916661
  1
ON
 41
0.7
 72
     2
 11
-244.55369543531151
 21
-416.20568183843602
 31
0.0
 73
     3
  0
TEXT
  5
7E8
  8
DATA
 62
     7
 10
-229.73176920571009
 20
-407.56183739981782
 30
0.0
 40
1.221630859375
  1
14
 50
252.00000000000691
 41
0.7
 72
     1
 11
-230.06285006260529
 21
-408.05369543531191
 31
0.0
 73
     1
  0
TEXT
  5
7E9
  8
DATA
 62
     7
 10
-231.22943546652971
 20
-410.89405522290781
 30
0.0
 40
1.221630859375
  1
15
 50
234.00000000000691
 41
0.7
 72
     1
 11
-231.69630456468801
 21
-411.2595304013638
 31
0.0
 73
     1
  0
TEXT
  5
7EA
  8
DATA
 62
     7
 10
-285.28504720052081
 20
-392.83711588541672
 30
0.0
 40
1.221630859375
  1
8
 41
0.7
 72
     1
 11
-285.0
 21
-393.0
 31
0.0
 73
     1
  0
TEXT
  5
7EB
  8
DATA
 62
     7
 10
-288.87512539233899
 20
-393.4960224931902
 30
0.0
 40
1.221630859375
  1
7
 50
18.0
 41
0.7
 72
     1
 11
-288.55369543531202
 21
-393.56285006260572
 31
0.0
 73
     1
  0
TEXT
  5
7EC
  8
DATA
 62
     7
 10
-292.0858793111687
 20
-395.23207508855029
 30
0.0
 40
1.221630859375
  1
6
 50
36.0
 41
0.7
 72
     1
 11
-291.75953040136352
 21
-395.19630456468849
 31
0.0
 73
     1
  0
TEXT
  5
7ED
  8
DATA
 62
     7
 10
-281.66706660267602
 20
-393.3198536348699
 30
0.0
 40
1.221630859375
  1
9
 50
342.00000000000688
 41
0.7
 72
     1
 11
-281.44630456468889
 21
-393.56285006260521
 31
0.0
 73
     1
  0
TEXT
  5
7EE
  8
DATA
 62
     7
 10
-278.54829276973788
 20
-394.77132210169771
 30
0.0
 40
1.221630859375
  1
10
 50
324.00000000000688
 41
0.7
 72
     1
 11
-278.24046959863699
 21
-395.19630456468781
 31
0.0
 73
     1
  0
TEXT
  5
7EF
  8
DATA
 62
     7
 10
-273.33711588541632
 20
-403.92990559895679
 30
0.0
 40
1.221630859375
  1
13
 50
270.00000000000688
 41
0.7
 72
     1
 11
-273.4999999999996
 21
-404.49999999999852
 31
0.0
 73
     1
  0
TEXT
  5
7F0
  8
DATA
 62
     7
 10
-281.44630456468889
 20
-418.27541666666662
 30
0.0
 40
2.0360514322916661
  1
PEAK
 41
0.7
 11
-281.44630456468889
 21
-416.23936523437487
 31
0.0
 73
     3
  0
TEXT
  5
7F1
  8
DATA
 62
     7
 10
-296.66288411458328
 20
-404.78504720052069
 30
0.0
 40
1.221630859375
  1
3
 50
90.0
 41
0.7
 72
     1
 11
-296.5
 21
-404.49999999999989
 31
0.0
 73
     1
  0
TEXT
  5
7F2
  8
DATA
 62
     7
 10
-296.0039775068098
 20
-408.37512539233887
 30
0.0
 40
1.221630859375
  1
2
 50
108.0
 41
0.7
 72
     1
 11
-295.93714993739428
 21
-408.05369543531191
 31
0.0
 73
     1
  0
TEXT
  5
7F3
  8
DATA
 62
     7
 10
-294.35169818178701
 20
-411.47057529645838
 30
0.0
 40
1.221630859375
  1
1
 50
126.0
 41
0.7
 72
     1
 11
-294.30369543531202
 21
-411.25953040136341
 31
0.0
 73
     1
  0
TEXT
  5
7F4
  8
DATA
 62
     7
 10
-290.9290887729851
 20
-418.24173327072759
 30
0.0
 40
2.0360514322916661
  1
ON
 41
0.7
 72
     2
 11
-288.55369543531151
 21
-416.20568183843602
 31
0.0
 73
     3
  0
TEXT
  5
7F5
  8
DATA
 62
     7
 10
-273.73176920571001
 20
-407.56183739981782
 30
0.0
 40
1.221630859375
  1
14
 50
252.00000000000691
 41
0.7
 72
     1
 11
-274.06285006260532
 21
-408.05369543531191
 31
0.0
 73
     1
  0
TEXT
  5
7F6
  8
DATA
 62
     7
 10
-275.22943546652959
 20
-410.89405522290781
 30
0.0
 40
1.221630859375
  1
15
 50
234.00000000000691
 41
0.7
 72
     1
 11
-275.69630456468798
 21
-411.2595304013638
 31
0.0
 73
     1
  0
TEXT
  5
7F7
  8
DATA
 62
     7
 10
-87.285047200520836
 20
-379.83711588541672
 30
0.0
 40
1.221630859375
  1
8
 41
0.7
 72
     1
 11
-87.0
 21
-380.0
 31
0.0
 73
     1
  0
TEXT
  5
7F8
  8
DATA
 62
     7
 10
-90.875125392338944
 20
-380.4960224931902
 30
0.0
 40
1.221630859375
  1
7
 50
18.0
 41
0.7
 72
     1
 11
-90.553695435311951
 21
-380.56285006260572
 31
0.0
 73
     1
  0
TEXT
  5
7F9
  8
DATA
 62
     7
 10
-94.085879311168597
 20
-382.23207508855029
 30
0.0
 40
1.221630859375
  1
6
 50
36.0
 41
0.7
 72
     1
 11
-93.759530401363435
 21
-382.19630456468849
 31
0.0
 73
     1
  0
TEXT
  5
7FA
  8
DATA
 62
     7
 10
-96.603017992796978
 20
-384.87533674767252
 30
0.0
 40
1.221630859375
  1
5
 50
54.0
 41
0.7
 72
     1
 11
-96.303695435311951
 21
-384.74046959863688
 31
0.0
 73
     1
  0
TEXT
  5
7FB
  8
DATA
 62
     7
 10
-98.180146365129133
 20
-388.16706660267511
 30
0.0
 40
1.221630859375
  1
4
 50
72.0
 41
0.7
 72
     1
 11
-97.937149937393755
 21
-387.94630456468798
 31
0.0
 73
     1
  0
TEXT
  5
7FC
  8
DATA
 62
     7
 10
-83.667066602676044
 20
-380.3198536348699
 30
0.0
 40
1.221630859375
  1
9
 50
342.00000000000688
 41
0.7
 72
     1
 11
-83.446304564688944
 21
-380.56285006260532
 31
0.0
 73
     1
  0
TEXT
  5
7FD
  8
DATA
 62
     7
 10
-80.548292769737856
 20
-381.77132210169771
 30
0.0
 40
1.221630859375
  1
10
 50
324.00000000000688
 41
0.7
 72
     1
 11
-80.240469598636977
 21
-382.19630456468781
 31
0.0
 73
     1
  0
TEXT
  5
7FE
  8
DATA
 62
     7
 10
-77.815848358887024
 20
-384.2988166741207
 30
0.0
 40
1.221630859375
  1
11
 50
306.00000000000688
 41
0.7
 72
     1
 11
-77.696304564688504
 21
-384.74046959863603
 31
0.0
 73
     1
  0
TEXT
  5
7FF
  8
DATA
 62
     7
 10
-76.084106922350713
 20
-387.35377861015257
 30
0.0
 40
1.221630859375
  1
12
 50
288.00000000000699
 41
0.7
 72
     1
 11
-76.06285006260623
 21
-387.94630456468673
 31
0.0
 73
     1
  0
TEXT
  5
800
  8
DATA
 62
     7
 10
-75.337115885416281
 20
-390.92990559895679
 30
0.0
 40
1.221630859375
  1
13
 50
270.00000000000688
 41
0.7
 72
     1
 11
-75.499999999999545
 21
-391.49999999999852
 31
0.0
 73
     1
  0
TEXT
  5
801
  8
DATA
 62
     7
 10
-83.446304564688944
 20
-405.27541666666662
 30
0.0
 40
2.0360514322916661
  1
PEAK
 41
0.7
 11
-83.446304564688944
 21
-403.23936523437487
 31
0.0
 73
     3
  0
TEXT
  5
802
  8
DATA
 62
     7
 10
-98.662884114583335
 20
-391.78504720052081
 30
0.0
 40
1.221630859375
  1
3
 50
90.0
 41
0.7
 72
     1
 11
-98.500000000000014
 21
-391.5
 31
0.0
 73
     1
  0
TEXT
  5
803
  8
DATA
 62
     7
 10
-98.003977506809733
 20
-395.37512539233887
 30
0.0
 40
1.221630859375
  1
2
 50
108.0
 41
0.7
 72
     1
 11
-97.937149937394224
 21
-395.05369543531202
 31
0.0
 73
     1
  0
TEXT
  5
804
  8
DATA
 62
     7
 10
-96.351698181786887
 20
-398.47057529645849
 30
0.0
 40
1.221630859375
  1
1
 50
126.0
 41
0.7
 72
     1
 11
-96.303695435311951
 21
-398.25953040136352
 31
0.0
 73
     1
  0
TEXT
  5
805
  8
DATA
 62
     7
 10
-92.929088772985125
 20
-405.24173327072759
 30
0.0
 40
2.0360514322916661
  1
ON
 41
0.7
 72
     2
 11
-90.553695435311511
 21
-403.20568183843602
 31
0.0
 73
     3
  0
TEXT
  5
806
  8
DATA
 62
     7
 10
-75.731769205710052
 20
-394.56183739981782
 30
0.0
 40
1.221630859375
  1
14
 50
252.00000000000691
 41
0.7
 72
     1
 11
-76.062850062605321
 21
-395.05369543531202
 31
0.0
 73
     1
  0
TEXT
  5
807
  8
DATA
 62
     7
 10
-77.229435466529651
 20
-397.89405522290792
 30
0.0
 40
1.221630859375
  1
15
 50
234.00000000000691
 41
0.7
 72
     1
 11
-77.696304564688035
 21
-398.25953040136392
 31
0.0
 73
     1
  0
TEXT
  5
808
  8
DATA
 62
     7
 10
-131.28504720052081
 20
-379.83711588541672
 30
0.0
 40
1.221630859375
  1
8
 41
0.7
 72
     1
 11
-131.0
 21
-380.0
 31
0.0
 73
     1
  0
TEXT
  5
809
  8
DATA
 62
     7
 10
-134.8751253923389
 20
-380.4960224931902
 30
0.0
 40
1.221630859375
  1
7
 50
18.0
 41
0.7
 72
     1
 11
-134.55369543531191
 21
-380.56285006260572
 31
0.0
 73
     1
  0
TEXT
  5
80A
  8
DATA
 62
     7
 10
-138.08587931116861
 20
-382.23207508855029
 30
0.0
 40
1.221630859375
  1
6
 50
36.0
 41
0.7
 72
     1
 11
-137.75953040136341
 21
-382.19630456468849
 31
0.0
 73
     1
  0
TEXT
  5
80B
  8
DATA
 62
     7
 10
-140.60301799279699
 20
-384.87533674767252
 30
0.0
 40
1.221630859375
  1
5
 50
54.0
 41
0.7
 72
     1
 11
-140.30369543531191
 21
-384.74046959863688
 31
0.0
 73
     1
  0
TEXT
  5
80C
  8
DATA
 62
     7
 10
-142.1801463651291
 20
-388.16706660267511
 30
0.0
 40
1.221630859375
  1
4
 50
72.0
 41
0.7
 72
     1
 11
-141.93714993739371
 21
-387.94630456468798
 31
0.0
 73
     1
  0
TEXT
  5
80D
  8
DATA
 62
     7
 10
-127.667066602676
 20
-380.3198536348699
 30
0.0
 40
1.221630859375
  1
9
 50
342.00000000000688
 41
0.7
 72
     1
 11
-127.4463045646889
 21
-380.56285006260532
 31
0.0
 73
     1
  0
TEXT
  5
80E
  8
DATA
 62
     7
 10
-124.5482927697379
 20
-381.77132210169771
 30
0.0
 40
1.221630859375
  1
10
 50
324.00000000000688
 41
0.7
 72
     1
 11
-124.24046959863701
 21
-382.19630456468781
 31
0.0
 73
     1
  0
TEXT
  5
80F
  8
DATA
 62
     7
 10
-121.815848358887
 20
-384.2988166741207
 30
0.0
 40
1.221630859375
  1
11
 50
306.00000000000688
 41
0.7
 72
     1
 11
-121.6963045646885
 21
-384.74046959863603
 31
0.0
 73
     1
  0
TEXT
  5
810
  8
DATA
 62
     7
 10
-120.0841069223507
 20
-387.35377861015257
 30
0.0
 40
1.221630859375
  1
12
 50
288.00000000000699
 41
0.7
 72
     1
 11
-120.0628500626062
 21
-387.94630456468673
 31
0.0
 73
     1
  0
TEXT
  5
811
  8
DATA
 62
     7
 10
-119.3371158854163
 20
-390.92990559895679
 30
0.0
 40
1.221630859375
  1
13
 50
270.00000000000688
 41
0.7
 72
     1
 11
-119.4999999999995
 21
-391.49999999999852
 31
0.0
 73
     1
  0
TEXT
  5
812
  8
DATA
 62
     7
 10
-127.4463045646889
 20
-405.27541666666662
 30
0.0
 40
2.0360514322916661
  1
PEAK
 41
0.7
 11
-127.4463045646889
 21
-403.23936523437487
 31
0.0
 73
     3
  0
TEXT
  5
813
  8
DATA
 62
     7
 10
-142.66288411458331
 20
-391.78504720052081
 30
0.0
 40
1.221630859375
  1
3
 50
90.0
 41
0.7
 72
     1
 11
-142.5
 21
-391.5
 31
0.0
 73
     1
  0
TEXT
  5
814
  8
DATA
 62
     7
 10
-142.00397750680969
 20
-395.37512539233887
 30
0.0
 40
1.221630859375
  1
2
 50
108.0
 41
0.7
 72
     1
 11
-141.9371499373942
 21
-395.05369543531202
 31
0.0
 73
     1
  0
TEXT
  5
815
  8
DATA
 62
     7
 10
-140.35169818178679
 20
-398.47057529645849
 30
0.0
 40
1.221630859375
  1
1
 50
126.0
 41
0.7
 72
     1
 11
-140.30369543531191
 21
-398.25953040136352
 31
0.0
 73
     1
  0
TEXT
  5
816
  8
DATA
 62
     7
 10
-136.9290887729851
 20
-405.24173327072759
 30
0.0
 40
2.0360514322916661
  1
ON
 41
0.7
 72
     2
 11
-134.55369543531151
 21
-403.20568183843602
 31
0.0
 73
     3
  0
TEXT
  5
817
  8
DATA
 62
     7
 10
-119.73176920570999
 20
-394.56183739981782
 30
0.0
 40
1.221630859375
  1
14
 50
252.00000000000691
 41
0.7
 72
     1
 11
-120.06285006260531
 21
-395.05369543531202
 31
0.0
 73
     1
  0
TEXT
  5
818
  8
DATA
 62
     7
 10
-121.22943546652959
 20
-397.89405522290792
 30
0.0
 40
1.221630859375
  1
15
 50
234.00000000000691
 41
0.7
 72
     1
 11
-121.69630456468801
 21
-398.25953040136392
 31
0.0
 73
     1
  0
TEXT
  5
819
  8
DATA
 62
     7
 10
-175.28504720052081
 20
-379.83711588541672
 30
0.0
 40
1.221630859375
  1
8
 41
0.7
 72
     1
 11
-175.0
 21
-380.0
 31
0.0
 73
     1
  0
TEXT
  5
81A
  8
DATA
 62
     7
 10
-178.8751253923389
 20
-380.4960224931902
 30
0.0
 40
1.221630859375
  1
7
 50
18.0
 41
0.7
 72
     1
 11
-178.55369543531191
 21
-380.56285006260572
 31
0.0
 73
     1
  0
TEXT
  5
81B
  8
DATA
 62
     7
 10
-182.08587931116861
 20
-382.23207508855029
 30
0.0
 40
1.221630859375
  1
6
 50
36.0
 41
0.7
 72
     1
 11
-181.75953040136341
 21
-382.19630456468849
 31
0.0
 73
     1
  0
TEXT
  5
81C
  8
DATA
 62
     7
 10
-184.60301799279699
 20
-384.87533674767252
 30
0.0
 40
1.221630859375
  1
5
 50
54.0
 41
0.7
 72
     1
 11
-184.30369543531199
 21
-384.74046959863688
 31
0.0
 73
     1
  0
TEXT
  5
81D
  8
DATA
 62
     7
 10
-186.1801463651291
 20
-388.16706660267511
 30
0.0
 40
1.221630859375
  1
4
 50
72.0
 41
0.7
 72
     1
 11
-185.93714993739371
 21
-387.94630456468798
 31
0.0
 73
     1
  0
TEXT
  5
81E
  8
DATA
 62
     7
 10
-171.66706660267599
 20
-380.3198536348699
 30
0.0
 40
1.221630859375
  1
9
 50
342.00000000000688
 41
0.7
 72
     1
 11
-171.44630456468889
 21
-380.56285006260532
 31
0.0
 73
     1
  0
TEXT
  5
81F
  8
DATA
 62
     7
 10
-168.54829276973791
 20
-381.77132210169771
 30
0.0
 40
1.221630859375
  1
10
 50
324.00000000000688
 41
0.7
 72
     1
 11
-168.24046959863699
 21
-382.19630456468781
 31
0.0
 73
     1
  0
TEXT
  5
820
  8
DATA
 62
     7
 10
-165.815848358887
 20
-384.2988166741207
 30
0.0
 40
1.221630859375
  1
11
 50
306.00000000000688
 41
0.7
 72
     1
 11
-165.6963045646884
 21
-384.74046959863603
 31
0.0
 73
     1
  0
TEXT
  5
821
  8
DATA
 62
     7
 10
-164.08410692235071
 20
-387.35377861015257
 30
0.0
 40
1.221630859375
  1
12
 50
288.00000000000699
 41
0.7
 72
     1
 11
-164.0628500626062
 21
-387.94630456468673
 31
0.0
 73
     1
  0
TEXT
  5
822
  8
DATA
 62
     7
 10
-163.3371158854163
 20
-390.92990559895679
 30
0.0
 40
1.221630859375
  1
13
 50
270.00000000000688
 41
0.7
 72
     1
 11
-163.4999999999996
 21
-391.49999999999852
 31
0.0
 73
     1
  0
TEXT
  5
823
  8
DATA
 62
     7
 10
-171.44630456468889
 20
-405.27541666666662
 30
0.0
 40
2.0360514322916661
  1
PEAK
 41
0.7
 11
-171.44630456468889
 21
-403.23936523437487
 31
0.0
 73
     3
  0
TEXT
  5
824
  8
DATA
 62
     7
 10
-186.66288411458331
 20
-391.78504720052081
 30
0.0
 40
1.221630859375
  1
3
 50
90.0
 41
0.7
 72
     1
 11
-186.5
 21
-391.5
 31
0.0
 73
     1
  0
TEXT
  5
825
  8
DATA
 62
     7
 10
-186.00397750680969
 20
-395.37512539233887
 30
0.0
 40
1.221630859375
  1
2
 50
108.0
 41
0.7
 72
     1
 11
-185.9371499373942
 21
-395.05369543531202
 31
0.0
 73
     1
  0
TEXT
  5
826
  8
DATA
 62
     7
 10
-184.3516981817869
 20
-398.47057529645849
 30
0.0
 40
1.221630859375
  1
1
 50
126.0
 41
0.7
 72
     1
 11
-184.30369543531199
 21
-398.25953040136352
 31
0.0
 73
     1
  0
TEXT
  5
827
  8
DATA
 62
     7
 10
-180.9290887729851
 20
-405.24173327072759
 30
0.0
 40
2.0360514322916661
  1
ON
 41
0.7
 72
     2
 11
-178.55369543531151
 21
-403.20568183843602
 31
0.0
 73
     3
  0
TEXT
  5
828
  8
DATA
 62
     7
 10
-163.73176920571001
 20
-394.56183739981782
 30
0.0
 40
1.221630859375
  1
14
 50
252.00000000000691
 41
0.7
 72
     1
 11
-164.06285006260529
 21
-395.05369543531202
 31
0.0
 73
     1
  0
TEXT
  5
829
  8
DATA
 62
     7
 10
-165.22943546652959
 20
-397.89405522290792
 30
0.0
 40
1.221630859375
  1
15
 50
234.00000000000691
 41
0.7
 72
     1
 11
-165.69630456468801
 21
-398.25953040136392
 31
0.0
 73
     1
  0
TEXT
  5
82A
  8
DATA
 62
     7
 10
-219.28504720052081
 20
-379.83711588541672
 30
0.0
 40
1.221630859375
  1
8
 41
0.7
 72
     1
 11
-219.0
 21
-380.0
 31
0.0
 73
     1
  0
TEXT
  5
82B
  8
DATA
 62
     7
 10
-222.87512539233899
 20
-380.4960224931902
 30
0.0
 40
1.221630859375
  1
7
 50
18.0
 41
0.7
 72
     1
 11
-222.55369543531199
 21
-380.56285006260572
 31
0.0
 73
     1
  0
TEXT
  5
82C
  8
DATA
 62
     7
 10
-226.08587931116861
 20
-382.23207508855029
 30
0.0
 40
1.221630859375
  1
6
 50
36.0
 41
0.7
 72
     1
 11
-225.75953040136341
 21
-382.19630456468849
 31
0.0
 73
     1
  0
TEXT
  5
82D
  8
DATA
 62
     7
 10
-228.60301799279699
 20
-384.87533674767252
 30
0.0
 40
1.221630859375
  1
5
 50
54.0
 41
0.7
 72
     1
 11
-228.30369543531199
 21
-384.74046959863688
 31
0.0
 73
     1
  0
TEXT
  5
82E
  8
DATA
 62
     7
 10
-230.18014636512919
 20
-388.16706660267511
 30
0.0
 40
1.221630859375
  1
4
 50
72.0
 41
0.7
 72
     1
 11
-229.9371499373938
 21
-387.94630456468798
 31
0.0
 73
     1
  0
TEXT
  5
82F
  8
DATA
 62
     7
 10
-215.66706660267599
 20
-380.3198536348699
 30
0.0
 40
1.221630859375
  1
9
 50
342.00000000000688
 41
0.7
 72
     1
 11
-215.44630456468889
 21
-380.56285006260532
 31
0.0
 73
     1
  0
TEXT
  5
830
  8
DATA
 62
     7
 10
-212.5482927697378
 20
-381.77132210169771
 30
0.0
 40
1.221630859375
  1
10
 50
324.00000000000688
 41
0.7
 72
     1
 11
-212.24046959863699
 21
-382.19630456468781
 31
0.0
 73
     1
  0
TEXT
  5
831
  8
DATA
 62
     7
 10
-209.815848358887
 20
-384.2988166741207
 30
0.0
 40
1.221630859375
  1
11
 50
306.00000000000688
 41
0.7
 72
     1
 11
-209.69630456468849
 21
-384.74046959863603
 31
0.0
 73
     1
  0
TEXT
  5
832
  8
DATA
 62
     7
 10
-208.08410692235071
 20
-387.35377861015257
 30
0.0
 40
1.221630859375
  1
12
 50
288.00000000000699
 41
0.7
 72
     1
 11
-208.0628500626062
 21
-387.94630456468673
 31
0.0
 73
     1
  0
TEXT
  5
833
  8
DATA
 62
     7
 10
-207.3371158854163
 20
-390.92990559895679
 30
0.0
 40
1.221630859375
  1
13
 50
270.00000000000688
 41
0.7
 72
     1
 11
-207.4999999999996
 21
-391.49999999999852
 31
0.0
 73
     1
  0
TEXT
  5
834
  8
DATA
 62
     7
 10
-215.44630456468889
 20
-405.27541666666662
 30
0.0
 40
2.0360514322916661
  1
PEAK
 41
0.7
 11
-215.44630456468889
 21
-403.23936523437487
 31
0.0
 73
     3
  0
TEXT
  5
835
  8
DATA
 62
     7
 10
-230.66288411458331
 20
-391.78504720052081
 30
0.0
 40
1.221630859375
  1
3
 50
90.0
 41
0.7
 72
     1
 11
-230.5
 21
-391.5
 31
0.0
 73
     1
  0
TEXT
  5
836
  8
DATA
 62
     7
 10
-230.0039775068098
 20
-395.37512539233887
 30
0.0
 40
1.221630859375
  1
2
 50
108.0
 41
0.7
 72
     1
 11
-229.9371499373942
 21
-395.05369543531202
 31
0.0
 73
     1
  0
TEXT
  5
837
  8
DATA
 62
     7
 10
-228.3516981817869
 20
-398.47057529645849
 30
0.0
 40
1.221630859375
  1
1
 50
126.0
 41
0.7
 72
     1
 11
-228.30369543531199
 21
-398.25953040136352
 31
0.0
 73
     1
  0
TEXT
  5
838
  8
DATA
 62
     7
 10
-224.92908877298521
 20
-405.24173327072759
 30
0.0
 40
2.0360514322916661
  1
ON
 41
0.7
 72
     2
 11
-222.5536954353116
 21
-403.20568183843602
 31
0.0
 73
     3
  0
TEXT
  5
839
  8
DATA
 62
     7
 10
-207.73176920571001
 20
-394.56183739981782
 30
0.0
 40
1.221630859375
  1
14
 50
252.00000000000691
 41
0.7
 72
     1
 11
-208.06285006260529
 21
-395.05369543531202
 31
0.0
 73
     1
  0
TEXT
  5
83A
  8
DATA
 62
     7
 10
-209.22943546652971
 20
-397.89405522290792
 30
0.0
 40
1.221630859375
  1
15
 50
234.00000000000691
 41
0.7
 72
     1
 11
-209.69630456468801
 21
-398.25953040136392
 31
0.0
 73
     1
  0
TEXT
  5
83B
  8
DATA
 62
     7
 10
-263.58504720052088
 20
-379.83711588541672
 30
0.0
 40
1.221630859375
  1
8
 41
0.7
 72
     1
 11
-263.30000000000013
 21
-380.0
 31
0.0
 73
     1
  0
TEXT
  5
83C
  8
DATA
 62
     7
 10
-267.17512539233911
 20
-380.4960224931902
 30
0.0
 40
1.221630859375
  1
7
 50
18.0
 41
0.7
 72
     1
 11
-266.85369543531209
 21
-380.56285006260572
 31
0.0
 73
     1
  0
TEXT
  5
83D
  8
DATA
 62
     7
 10
-270.38587931116882
 20
-382.23207508855029
 30
0.0
 40
1.221630859375
  1
6
 50
36.0
 41
0.7
 72
     1
 11
-270.05953040136359
 21
-382.19630456468849
 31
0.0
 73
     1
  0
TEXT
  5
83E
  8
DATA
 62
     7
 10
-272.90301799279712
 20
-384.87533674767252
 30
0.0
 40
1.221630859375
  1
5
 50
54.0
 41
0.7
 72
     1
 11
-272.60369543531209
 21
-384.74046959863688
 31
0.0
 73
     1
  0
TEXT
  5
83F
  8
DATA
 62
     7
 10
-274.48014636512937
 20
-388.16706660267511
 30
0.0
 40
1.221630859375
  1
4
 50
72.0
 41
0.7
 72
     1
 11
-274.23714993739389
 21
-387.94630456468798
 31
0.0
 73
     1
  0
TEXT
  5
840
  8
DATA
 62
     7
 10
-259.9670666026762
 20
-380.3198536348699
 30
0.0
 40
1.221630859375
  1
9
 50
342.00000000000688
 41
0.7
 72
     1
 11
-259.74630456468913
 21
-380.56285006260532
 31
0.0
 73
     1
  0
TEXT
  5
841
  8
DATA
 62
     7
 10
-256.84829276973812
 20
-381.77132210169771
 30
0.0
 40
1.221630859375
  1
10
 50
324.00000000000688
 41
0.7
 72
     1
 11
-256.54046959863717
 21
-382.19630456468781
 31
0.0
 73
     1
  0
TEXT
  5
842
  8
DATA
 62
     7
 10
-254.11584835888721
 20
-384.2988166741207
 30
0.0
 40
1.221630859375
  1
11
 50
306.00000000000688
 41
0.7
 72
     1
 11
-253.9963045646887
 21
-384.74046959863603
 31
0.0
 73
     1
  0
TEXT
  5
843
  8
DATA
 62
     7
 10
-252.3841069223509
 20
-387.35377861015257
 30
0.0
 40
1.221630859375
  1
12
 50
288.00000000000699
 41
0.7
 72
     1
 11
-252.36285006260641
 21
-387.94630456468673
 31
0.0
 73
     1
  0
TEXT
  5
844
  8
DATA
 62
     7
 10
-251.63711588541639
 20
-390.92990559895679
 30
0.0
 40
1.221630859375
  1
13
 50
270.00000000000688
 41
0.7
 72
     1
 11
-251.7999999999997
 21
-391.49999999999852
 31
0.0
 73
     1
  0
TEXT
  5
845
  8
DATA
 62
     7
 10
-259.74630456468913
 20
-405.27541666666662
 30
0.0
 40
2.0360514322916661
  1
PEAK
 41
0.7
 11
-259.74630456468913
 21
-403.23936523437487
 31
0.0
 73
     3
  0
TEXT
  5
846
  8
DATA
 62
     7
 10
-274.96288411458352
 20
-391.78504720052081
 30
0.0
 40
1.221630859375
  1
3
 50
90.0
 41
0.7
 72
     1
 11
-274.80000000000013
 21
-391.5
 31
0.0
 73
     1
  0
TEXT
  5
847
  8
DATA
 62
     7
 10
-274.30397750680987
 20
-395.37512539233887
 30
0.0
 40
1.221630859375
  1
2
 50
108.0
 41
0.7
 72
     1
 11
-274.23714993739441
 21
-395.05369543531202
 31
0.0
 73
     1
  0
TEXT
  5
848
  8
DATA
 62
     7
 10
-272.65169818178703
 20
-398.47057529645849
 30
0.0
 40
1.221630859375
  1
1
 50
126.0
 41
0.7
 72
     1
 11
-272.60369543531209
 21
-398.25953040136352
 31
0.0
 73
     1
  0
TEXT
  5
849
  8
DATA
 62
     7
 10
-269.22908877298528
 20
-405.24173327072759
 30
0.0
 40
2.0360514322916661
  1
ON
 41
0.7
 72
     2
 11
-266.85369543531169
 21
-403.20568183843602
 31
0.0
 73
     3
  0
TEXT
  5
84A
  8
DATA
 62
     7
 10
-252.0317692057103
 20
-394.56183739981782
 30
0.0
 40
1.221630859375
  1
14
 50
252.00000000000691
 41
0.7
 72
     1
 11
-252.3628500626055
 21
-395.05369543531202
 31
0.0
 73
     1
  0
TEXT
  5
84B
  8
DATA
 62
     7
 10
-253.52943546652989
 20
-397.89405522290792
 30
0.0
 40
1.221630859375
  1
15
 50
234.00000000000691
 41
0.7
 72
     1
 11
-253.9963045646883
 21
-398.25953040136392
 31
0.0
 73
     1
  0
TEXT
  5
84C
  8
DATA
 62
     7
 10
-307.28504720052081
 20
-379.83711588541672
 30
0.0
 40
1.221630859375
  1
8
 41
0.7
 72
     1
 11
-307.0
 21
-380.0
 31
0.0
 73
     1
  0
TEXT
  5
84D
  8
DATA
 62
     7
 10
-310.87512539233899
 20
-380.4960224931902
 30
0.0
 40
1.221630859375
  1
7
 50
18.0
 41
0.7
 72
     1
 11
-310.55369543531202
 21
-380.56285006260572
 31
0.0
 73
     1
  0
TEXT
  5
84E
  8
DATA
 62
     7
 10
-314.08587931116858
 20
-382.23207508855029
 30
0.0
 40
1.221630859375
  1
6
 50
36.0
 41
0.7
 72
     1
 11
-313.75953040136352
 21
-382.19630456468849
 31
0.0
 73
     1
  0
TEXT
  5
84F
  8
DATA
 62
     7
 10
-316.60301799279699
 20
-384.87533674767252
 30
0.0
 40
1.221630859375
  1
5
 50
54.0
 41
0.7
 72
     1
 11
-316.30369543531202
 21
-384.74046959863688
 31
0.0
 73
     1
  0
TEXT
  5
850
  8
DATA
 62
     7
 10
-318.18014636512919
 20
-388.16706660267511
 30
0.0
 40
1.221630859375
  1
4
 50
72.0
 41
0.7
 72
     1
 11
-317.93714993739383
 21
-387.94630456468798
 31
0.0
 73
     1
  0
TEXT
  5
851
  8
DATA
 62
     7
 10
-303.66706660267602
 20
-380.3198536348699
 30
0.0
 40
1.221630859375
  1
9
 50
342.00000000000688
 41
0.7
 72
     1
 11
-303.44630456468889
 21
-380.56285006260532
 31
0.0
 73
     1
  0
TEXT
  5
852
  8
DATA
 62
     7
 10
-300.54829276973783
 20
-381.77132210169771
 30
0.0
 40
1.221630859375
  1
10
 50
324.00000000000688
 41
0.7
 72
     1
 11
-300.24046959863688
 21
-382.19630456468781
 31
0.0
 73
     1
  0
TEXT
  5
853
  8
DATA
 62
     7
 10
-297.81584835888702
 20
-384.2988166741207
 30
0.0
 40
1.221630859375
  1
11
 50
306.00000000000688
 41
0.7
 72
     1
 11
-297.69630456468849
 21
-384.74046959863603
 31
0.0
 73
     1
  0
TEXT
  5
854
  8
DATA
 62
     7
 10
-296.08410692235083
 20
-387.35377861015257
 30
0.0
 40
1.221630859375
  1
12
 50
288.00000000000699
 41
0.7
 72
     1
 11
-296.06285006260617
 21
-387.94630456468673
 31
0.0
 73
     1
  0
TEXT
  5
855
  8
DATA
 62
     7
 10
-295.33711588541632
 20
-390.92990559895679
 30
0.0
 40
1.221630859375
  1
13
 50
270.00000000000688
 41
0.7
 72
     1
 11
-295.4999999999996
 21
-391.49999999999852
 31
0.0
 73
     1
  0
TEXT
  5
856
  8
DATA
 62
     7
 10
-303.44630456468889
 20
-405.27541666666662
 30
0.0
 40
2.0360514322916661
  1
PEAK
 41
0.7
 11
-303.44630456468889
 21
-403.23936523437487
 31
0.0
 73
     3
  0
TEXT
  5
857
  8
DATA
 62
     7
 10
-318.66288411458328
 20
-391.78504720052081
 30
0.0
 40
1.221630859375
  1
3
 50
90.0
 41
0.7
 72
     1
 11
-318.5
 21
-391.5
 31
0.0
 73
     1
  0
TEXT
  5
858
  8
DATA
 62
     7
 10
-318.0039775068098
 20
-395.37512539233887
 30
0.0
 40
1.221630859375
  1
2
 50
108.0
 41
0.7
 72
     1
 11
-317.93714993739428
 21
-395.05369543531202
 31
0.0
 73
     1
  0
TEXT
  5
859
  8
DATA
 62
     7
 10
-316.35169818178701
 20
-398.47057529645849
 30
0.0
 40
1.221630859375
  1
1
 50
126.0
 41
0.7
 72
     1
 11
-316.30369543531202
 21
-398.25953040136352
 31
0.0
 73
     1
  0
TEXT
  5
85A
  8
DATA
 62
     7
 10
-312.9290887729851
 20
-405.24173327072759
 30
0.0
 40
2.0360514322916661
  1
ON
 41
0.7
 72
     2
 11
-310.55369543531151
 21
-403.20568183843602
 31
0.0
 73
     3
  0
TEXT
  5
85B
  8
DATA
 62
     7
 10
-295.7317692057099
 20
-394.56183739981782
 30
0.0
 40
1.221630859375
  1
14
 50
252.00000000000691
 41
0.7
 72
     1
 11
-296.06285006260532
 21
-395.05369543531202
 31
0.0
 73
     1
  0
TEXT
  5
85C
  8
DATA
 62
     7
 10
-297.22943546652959
 20
-397.89405522290792
 30
0.0
 40
1.221630859375
  1
15
 50
234.00000000000691
 41
0.7
 72
     1
 11
-297.69630456468809
 21
-398.25953040136392
 31
0.0
 73
     1
  0
TEXT
  5
85D
  8
DATA
 62
     7
 10
-309.59392952473962
 20
-413.42523600260409
 30
0.0
 40
2.8504720052083332
  1
IN 1
 41
0.7
 72
     1
 11
-307.0
 21
-412.0
 31
0.0
 73
     2
  0
TEXT
  5
85E
  8
DATA
 62
     7
 10
-287.92648459201388
 20
-387.27731933593759
 30
0.0
 40
2.8504720052083332
  1
IN 2
 41
0.7
 72
     1
 11
-285.0
 21
-385.85208333333338
 31
0.0
 73
     2
  0
TEXT
  5
85F
  8
DATA
 62
     7
 10
-265.92648459201388
 20
-413.50996106521012
 30
0.0
 40
2.8504720052083332
  1
IN 3
 41
0.7
 72
     1
 11
-263.0
 21
-412.08472506260591
 31
0.0
 73
     2
  0
TEXT
  5
860
  8
DATA
 62
     7
 10
-243.92648459201391
 20
-387.36204439854362
 30
0.0
 40
2.8504720052083332
  1
IN 4
 41
0.7
 72
     1
 11
-241.0
 21
-385.93680839593941
 31
0.0
 73
     2
  0
TEXT
  5
861
  8
DATA
 62
     7
 10
-221.92648459201391
 20
-413.42523600260409
 30
0.0
 40
2.8504720052083332
  1
IN 5
 41
0.7
 72
     1
 11
-219.0
 21
-412.0
 31
0.0
 73
     2
  0
TEXT
  5
862
  8
DATA
 62
     7
 10
-199.92648459201391
 20
-387.27731933593759
 30
0.0
 40
2.8504720052083332
  1
IN 6
 41
0.7
 72
     1
 11
-197.0
 21
-385.85208333333338
 31
0.0
 73
     2
  0
TEXT
  5
863
  8
DATA
 62
     7
 10
-177.62648459201409
 20
-413.42523600260409
 30
0.0
 40
2.8504720052083332
  1
IN 7
 41
0.7
 72
     1
 11
-174.70000000000019
 21
-412.0
 31
0.0
 73
     2
  0
TEXT
  5
864
  8
DATA
 62
     7
 10
-155.62648459201409
 20
-387.27731933593759
 30
0.0
 40
2.8504720052083332
  1
IN 8
 41
0.7
 72
     1
 11
-152.70000000000019
 21
-385.85208333333338
 31
0.0
 73
     2
  0
TEXT
  5
865
  8
DATA
 62
     7
 10
-133.92648459201391
 20
-413.42523600260409
 30
0.0
 40
2.8504720052083332
  1
IN 9
 41
0.7
 72
     1
 11
-131.0
 21
-412.0
 31
0.0
 73
     2
  0
TEXT
  5
866
  8
DATA
 62
     7
 10
-112.42531719292531
 20
-387.27731933593759
 30
0.0
 40
2.8504720052083332
  1
IN 10
 41
0.7
 72
     1
 11
-109.0
 21
-385.85208333333338
 31
0.0
 73
     2
  0
TEXT
  5
867
  8
DATA
 62
     7
 10
-90.259039659288192
 20
-413.42523600260409
 30
0.0
 40
2.8504720052083332
  1
IN 11
 41
0.7
 72
     1
 11
-87.0
 21
-412.0
 31
0.0
 73
     2
  0
TEXT
  5
868
  8
DATA
 62
     7
 10
-68.591594726562505
 20
-387.27731933593759
 30
0.0
 40
2.8504720052083332
  1
IN 12
 41
0.7
 72
     1
 11
-65.0
 21
-385.85208333333338
 31
0.0
 73
     2
  0
TEXT
  5
869
  8
DATA
 62
     7
 10
-43.735691677517352
 20
-415.92523600260409
 30
0.0
 40
2.8504720052083332
  1
SYSTEM CONTROL
 41
0.7
 72
     1
 11
-30.5
 21
-414.5
 31
0.0
 73
     2
  0
TEXT
  5
86A
  8
DATA
 62
     7
 10
-24.575664600613891
 20
-410.59588816919239
 30
0.0
 40
2.0360514322916661
  1
 REMOTE CONTROL
 41
0.7
 11
-24.575664600613891
 21
-409.57786245304658
 31
0.0
 73
     2
  0
TEXT
  5
86B
  8
DATA
 62
     7
 10
-17.189265851301109
 20
-402.51802571614559
 30
0.0
 40
2.0360514322916661
  1
A
 41
0.7
 11
-17.189265851301109
 21
-401.49999999999972
 31
0.0
 73
     2
  0
TEXT
  5
86C
  8
DATA
 62
     7
 10
-17.988944636232191
 20
-406.51802571614559
 30
0.0
 40
2.0360514322916661
  1
B
 41
0.7
 11
-17.988944636232191
 21
-405.49999999999972
 31
0.0
 73
     2
  0
TEXT
  5
86D
  8
DATA
 62
     7
 10
-17.0
 20
-398.51802571614542
 30
0.0
 40
2.0360514322916661
  1
ROUTING TO REC
 41
0.7
 11
-17.0
 21
-397.4999999999996
 31
0.0
 73
     2
  0
TEXT
  5
86E
  8
DATA
 62
     7
 10
-17.189265851300661
 20
-394.51802571614581
 30
0.0
 40
2.0360514322916661
  1
ROUTING TO OUT2
 41
0.7
 11
-17.189265851300661
 21
-393.5
 31
0.0
 73
     2
  0
TEXT
  5
86F
  8
DATA
 62
     7
 10
-17.988944636231729
 20
-390.51802571614581
 30
0.0
 40
2.0360514322916661
  1
ROUTING TO OUT1
 41
0.7
 11
-17.988944636231729
 21
-389.5
 31
0.0
 73
     2
  0
TEXT
  5
870
  8
DATA
 62
     7
 10
-20.144760927938929
 20
-387.01802571614581
 30
0.0
 40
2.0360514322916661
  1
DELAY
 41
0.7
 11
-20.144760927938929
 21
-386.0
 31
0.0
 73
     2
  0
TEXT
  5
871
  8
DATA
 62
     7
 10
-23.963744708390092
 20
-383.01802571614581
 30
0.0
 40
2.0360514322916661
  1
PAN/BALANCE
 41
0.7
 11
-23.963744708390092
 21
-382.0
 31
0.0
 73
     2
  0
TEXT
  5
872
  8
DATA
 62
     7
 10
-52.193599584144629
 20
-383.01802571614581
 30
0.0
 40
2.0360514322916661
  1
AUTOMIXING 
 41
0.7
 72
     2
 11
-38.036255291609912
 21
-382.0
 31
0.0
 73
     2
  0
TEXT
  5
873
  8
DATA
 62
     7
 10
-35.617528579513817
 20
-381.50474105929419
 30
0.0
 40
2.0360514322916661
  1
PRIORITY
 41
0.7
 72
     1
 11
-30.62920257039924
 21
-381.77621458359971
 31
0.0
 73
     1
  0
TEXT
  5
874
  8
DATA
 62
     7
 10
-55.962740699665218
 20
-387.01802571614581
 30
0.0
 40
2.0360514322916661
  1
COMPRESSOR 
 41
0.7
 72
     2
 11
-40.85523907206106
 21
-386.0
 31
0.0
 73
     2
  0
TEXT
  5
875
  8
DATA
 62
     7
 10
-52.892691648490469
 20
-390.51802571614581
 30
0.0
 40
2.0360514322916661
  1
LIMITER 
 41
0.7
 72
     2
 11
-43.01105536376825
 21
-389.5
 31
0.0
 73
     2
  0
TEXT
  5
876
  8
DATA
 62
     7
 10
-54.547512034984052
 20
-394.51802571614581
 30
0.0
 40
2.0360514322916661
  1
LOW CUT 
 41
0.7
 72
     2
 11
-43.810734148699332
 21
-393.5
 31
0.0
 73
     2
  0
TEXT
  5
877
  8
DATA
 62
     7
 10
-50.556085611979171
 20
-398.51802571614542
 30
0.0
 40
2.0360514322916661
  1
BASS 
 41
0.7
 72
     2
 11
-44.0
 21
-397.4999999999996
 31
0.0
 73
     2
  0
TEXT
  5
878
  8
DATA
 62
     7
 10
-53.217291765886387
 20
-402.51802571614559
 30
0.0
 40
2.0360514322916661
  1
TREBLE 
 41
0.7
 72
     2
 11
-43.810734148698877
 21
-401.49999999999972
 31
0.0
 73
     2
  0
TEXT
  5
879
  8
DATA
 62
     7
 10
-51.46745564588587
 20
-406.51802571614559
 30
0.0
 40
2.0360514322916661
  1
LEVEL 
 41
0.7
 72
     2
 11
-43.011055363767809
 21
-405.49999999999972
 31
0.0
 73
     2
  0
TEXT
  5
87A
  8
DATA
 62
     7
 10
-46.830893016573597
 20
-410.59588816919239
 30
0.0
 40
2.0360514322916661
  1
LOCKED 
 41
0.7
 72
     2
 11
-37.424335399386102
 21
-409.57786245304658
 31
0.0
 73
     2
  0
TEXT
  5
87B
  8
DATA
 62
     7
 10
12.674449327256941
 20
-406.18558333333323
 30
0.0
 40
2.8504720052083332
  1
OUT1
 41
0.7
 72
     1
 11
16.0
 21
-403.33511132812481
 31
0.0
 73
     3
  0
TEXT
  5
87C
  8
DATA
 62
     7
 10
15.714952799479169
 20
-379.83711588541672
 30
0.0
 40
1.221630859375
  1
8
 41
0.7
 72
     1
 11
16.0
 21
-380.0
 31
0.0
 73
     1
  0
TEXT
  5
87D
  8
DATA
 62
     7
 10
12.12487460766104
 20
-380.4960224931902
 30
0.0
 40
1.221630859375
  1
7
 50
18.0
 41
0.7
 72
     1
 11
12.446304564688029
 21
-380.56285006260572
 31
0.0
 73
     1
  0
TEXT
  5
87E
  8
DATA
 62
     7
 10
8.9141206888313782
 20
-382.23207508855029
 30
0.0
 40
1.221630859375
  1
6
 50
36.0
 41
0.7
 72
     1
 11
9.2404695986365368
 21
-382.19630456468849
 31
0.0
 73
     1
  0
TEXT
  5
87F
  8
DATA
 62
     7
 10
6.3969820072030004
 20
-384.87533674767252
 30
0.0
 40
1.221630859375
  1
5
 50
54.0
 41
0.7
 72
     1
 11
6.6963045646880337
 21
-384.74046959863688
 31
0.0
 73
     1
  0
TEXT
  5
880
  8
DATA
 62
     7
 10
4.8198536348708441
 20
-388.16706660267511
 30
0.0
 40
1.221630859375
  1
4
 50
72.0
 41
0.7
 72
     1
 11
5.0628500626062314
 21
-387.94630456468798
 31
0.0
 73
     1
  0
TEXT
  5
881
  8
DATA
 62
     7
 10
19.332933397323959
 20
-380.3198536348699
 30
0.0
 40
1.221630859375
  1
9
 50
342.00000000000688
 41
0.7
 72
     1
 11
19.553695435311049
 21
-380.56285006260532
 31
0.0
 73
     1
  0
TEXT
  5
882
  8
DATA
 62
     7
 10
22.451707230262141
 20
-381.77132210169771
 30
0.0
 40
1.221630859375
  1
10
 50
324.00000000000688
 41
0.7
 72
     1
 11
22.759530401363008
 21
-382.19630456468781
 31
0.0
 73
     1
  0
TEXT
  5
883
  8
DATA
 62
     7
 10
25.18415164111299
 20
-384.2988166741207
 30
0.0
 40
1.221630859375
  1
11
 50
306.00000000000688
 41
0.7
 72
     1
 11
25.303695435311511
 21
-384.74046959863603
 31
0.0
 73
     1
  0
TEXT
  5
884
  8
DATA
 62
     7
 10
26.915893077649262
 20
-387.35377861015257
 30
0.0
 40
1.221630859375
  1
12
 50
288.00000000000699
 41
0.7
 72
     1
 11
26.93714993739377
 21
-387.94630456468673
 31
0.0
 73
     1
  0
TEXT
  5
885
  8
DATA
 62
     7
 10
4.337115885416666
 20
-391.78504720052081
 30
0.0
 40
1.221630859375
  1
3
 50
90.0
 41
0.7
 72
     1
 11
4.5
 21
-391.5
 31
0.0
 73
     1
  0
TEXT
  5
886
  8
DATA
 62
     7
 10
4.9960224931902699
 20
-395.37512539233887
 30
0.0
 40
1.221630859375
  1
2
 50
108.0
 41
0.7
 72
     1
 11
5.0628500626057749
 21
-395.05369543531202
 31
0.0
 73
     1
  0
TEXT
  5
887
  8
DATA
 62
     7
 10
6.6483018182131008
 20
-398.47057529645849
 30
0.0
 40
1.221630859375
  1
1
 50
126.0
 41
0.7
 72
     1
 11
6.6963045646880337
 21
-398.25953040136352
 31
0.0
 73
     1
  0
TEXT
  5
888
  8
DATA
 62
     7
 10
27.268230794289948
 20
-394.56183739981782
 30
0.0
 40
1.221630859375
  1
14
 50
252.00000000000691
 41
0.7
 72
     1
 11
26.937149937394679
 21
-395.05369543531202
 31
0.0
 73
     1
  0
TEXT
  5
889
  8
DATA
 62
     7
 10
25.77056453347036
 20
-397.89405522290792
 30
0.0
 40
1.221630859375
  1
15
 50
234.00000000000691
 41
0.7
 72
     1
 11
25.303695435311969
 21
-398.25953040136392
 31
0.0
 73
     1
  0
TEXT
  5
88A
  8
DATA
 62
     7
 10
37.341894259982638
 20
-406.18558333333323
 30
0.0
 40
2.8504720052083332
  1
OUT2
 41
0.7
 72
     1
 11
41.0
 21
-403.33511132812481
 31
0.0
 73
     3
  0
TEXT
  5
88B
  8
DATA
 62
     7
 10
40.714952799479157
 20
-379.83711588541672
 30
0.0
 40
1.221630859375
  1
8
 41
0.7
 72
     1
 11
41.0
 21
-380.0
 31
0.0
 73
     1
  0
TEXT
  5
88C
  8
DATA
 62
     7
 10
37.124874607661042
 20
-380.4960224931902
 30
0.0
 40
1.221630859375
  1
7
 50
18.0
 41
0.7
 72
     1
 11
37.446304564688042
 21
-380.56285006260572
 31
0.0
 73
     1
  0
TEXT
  5
88D
  8
DATA
 62
     7
 10
33.914120688831382
 20
-382.23207508855029
 30
0.0
 40
1.221630859375
  1
6
 50
36.0
 41
0.7
 72
     1
 11
34.240469598636537
 21
-382.19630456468849
 31
0.0
 73
     1
  0
TEXT
  5
88E
  8
DATA
 62
     7
 10
31.396982007203
 20
-384.87533674767252
 30
0.0
 40
1.221630859375
  1
5
 50
54.0
 41
0.7
 72
     1
 11
31.696304564688042
 21
-384.74046959863688
 31
0.0
 73
     1
  0
TEXT
  5
88F
  8
DATA
 62
     7
 10
44.332933397323949
 20
-380.3198536348699
 30
0.0
 40
1.221630859375
  1
9
 50
342.00000000000688
 41
0.7
 72
     1
 11
44.553695435311042
 21
-380.56285006260532
 31
0.0
 73
     1
  0
TEXT
  5
890
  8
DATA
 62
     7
 10
47.45170723026213
 20
-381.77132210169771
 30
0.0
 40
1.221630859375
  1
10
 50
324.00000000000688
 41
0.7
 72
     1
 11
47.759530401363001
 21
-382.19630456468781
 31
0.0
 73
     1
  0
TEXT
  5
891
  8
DATA
 62
     7
 10
50.18415164111299
 20
-384.2988166741207
 30
0.0
 40
1.221630859375
  1
11
 50
306.00000000000688
 41
0.7
 72
     1
 11
50.303695435311511
 21
-384.74046959863603
 31
0.0
 73
     1
  0
TEXT
  5
892
  8
DATA
 62
     7
 10
31.648301818213099
 20
-398.47057529645849
 30
0.0
 40
1.221630859375
  1
1
 50
126.0
 41
0.7
 72
     1
 11
31.696304564688042
 21
-398.25953040136352
 31
0.0
 73
     1
  0
TEXT
  5
893
  8
DATA
 62
     7
 10
50.770564533470363
 20
-397.89405522290792
 30
0.0
 40
1.221630859375
  1
15
 50
234.00000000000691
 41
0.7
 72
     1
 11
50.303695435311973
 21
-398.25953040136392
 31
0.0
 73
     1
  0
TEXT
  5
894
  8
DATA
 62
     7
 10
57.353568250868051
 20
-406.18558333333323
 30
0.0
 40
2.8504720052083332
  1
HEADPHONE
 41
0.7
 72
     1
 11
66.0
 21
-403.33511132812481
 31
0.0
 73
     3
  0
TEXT
  5
895
  8
DATA
 62
     7
 10
6.5373819986979171
 20
-411.90721028645828
 30
0.0
 40
0.8144205729166667
  1
-50
 41
0.7
 72
     1
 11
7.25
 21
-411.5
 31
0.0
 73
     2
  0
TEXT
  5
896
  8
DATA
 62
     7
 10
9.0373819986979171
 20
-411.90721028645828
 30
0.0
 40
0.8144205729166667
  1
-40
 41
0.7
 72
     1
 11
9.75
 21
-411.5
 31
0.0
 73
     2
  0
TEXT
  5
897
  8
DATA
 62
     7
 10
11.53738199869791
 20
-411.90721028645828
 30
0.0
 40
0.8144205729166667
  1
-30
 41
0.7
 72
     1
 11
12.25
 21
-411.5
 31
0.0
 73
     2
  0
TEXT
  5
898
  8
DATA
 62
     7
 10
14.03738199869791
 20
-411.90721028645828
 30
0.0
 40
0.8144205729166667
  1
-20
 41
0.7
 72
     1
 11
14.75
 21
-411.5
 31
0.0
 73
     2
  0
TEXT
  5
899
  8
DATA
 62
     7
 10
16.632397732204861
 20
-411.90721028645828
 30
0.0
 40
0.8144205729166667
  1
-10
 41
0.7
 72
     1
 11
17.25
 21
-411.5
 31
0.0
 73
     2
  0
TEXT
  5
89A
  8
DATA
 62
     7
 10
19.274921332465279
 20
-411.90721028645828
 30
0.0
 40
0.8144205729166667
  1
-5
 41
0.7
 72
     1
 11
19.75
 21
-411.5
 31
0.0
 73
     2
  0
TEXT
  5
89B
  8
DATA
 62
     7
 10
22.107476399739578
 20
-411.90721028645828
 30
0.0
 40
0.8144205729166667
  1
0
 41
0.7
 72
     1
 11
22.25
 21
-411.5
 31
0.0
 73
     2
  0
TEXT
  5
89C
  8
DATA
 62
     7
 10
24.274921332465279
 20
-411.90721028645828
 30
0.0
 40
0.8144205729166667
  1
+5
 41
0.7
 72
     1
 11
24.75
 21
-411.5
 31
0.0
 73
     2
  0
TEXT
  5
89D
  8
DATA
 62
     7
 10
26.774921332465279
 20
-411.90721028645828
 30
0.0
 40
0.8144205729166667
  1
dB
 41
0.7
 72
     1
 11
27.25
 21
-411.5
 31
0.0
 73
     2
  0
TEXT
  5
89E
  8
DATA
 62
     7
 10
27.059968532986112
 20
-409.40721028645828
 30
0.0
 40
0.8144205729166667
  1
L
 41
0.7
 72
     1
 11
27.25
 21
-409.0
 31
0.0
 73
     2
  0
TEXT
  5
89F
  8
DATA
 62
     7
 10
27.059968532986112
 20
-414.40721028645828
 30
0.0
 40
0.8144205729166667
  1
R
 41
0.7
 72
     1
 11
27.25
 21
-414.0
 31
0.0
 73
     2
  0
TEXT
  5
8A0
  8
DATA
 62
     7
 10
31.537381998697921
 20
-411.90721028645828
 30
0.0
 40
0.8144205729166667
  1
-50
 41
0.7
 72
     1
 11
32.25
 21
-411.5
 31
0.0
 73
     2
  0
TEXT
  5
8A1
  8
DATA
 62
     7
 10
34.037381998697917
 20
-411.90721028645828
 30
0.0
 40
0.8144205729166667
  1
-40
 41
0.7
 72
     1
 11
34.75
 21
-411.5
 31
0.0
 73
     2
  0
TEXT
  5
8A2
  8
DATA
 62
     7
 10
36.537381998697917
 20
-411.90721028645828
 30
0.0
 40
0.8144205729166667
  1
-30
 41
0.7
 72
     1
 11
37.25
 21
-411.5
 31
0.0
 73
     2
  0
TEXT
  5
8A3
  8
DATA
 62
     7
 10
39.037381998697917
 20
-411.90721028645828
 30
0.0
 40
0.8144205729166667
  1
-20
 41
0.7
 72
     1
 11
39.75
 21
-411.5
 31
0.0
 73
     2
  0
TEXT
  5
8A4
  8
DATA
 62
     7
 10
41.632397732204858
 20
-411.90721028645828
 30
0.0
 40
0.8144205729166667
  1
-10
 41
0.7
 72
     1
 11
42.25
 21
-411.5
 31
0.0
 73
     2
  0
TEXT
  5
8A5
  8
DATA
 62
     7
 10
44.274921332465269
 20
-411.90721028645828
 30
0.0
 40
0.8144205729166667
  1
-5
 41
0.7
 72
     1
 11
44.75
 21
-411.5
 31
0.0
 73
     2
  0
TEXT
  5
8A6
  8
DATA
 62
     7
 10
47.107476399739582
 20
-411.90721028645828
 30
0.0
 40
0.8144205729166667
  1
0
 41
0.7
 72
     1
 11
47.25
 21
-411.5
 31
0.0
 73
     2
  0
TEXT
  5
8A7
  8
DATA
 62
     7
 10
49.274921332465269
 20
-411.90721028645828
 30
0.0
 40
0.8144205729166667
  1
+5
 41
0.7
 72
     1
 11
49.75
 21
-411.5
 31
0.0
 73
     2
  0
TEXT
  5
8A8
  8
DATA
 62
     7
 10
51.774921332465269
 20
-411.90721028645828
 30
0.0
 40
0.8144205729166667
  1
dB
 41
0.7
 72
     1
 11
52.25
 21
-411.5
 31
0.0
 73
     2
  0
TEXT
  5
8A9
  8
DATA
 62
     7
 10
52.059968532986112
 20
-409.40721028645828
 30
0.0
 40
0.8144205729166667
  1
L
 41
0.7
 72
     1
 11
52.25
 21
-409.0
 31
0.0
 73
     2
  0
TEXT
  5
8AA
  8
DATA
 62
     7
 10
52.059968532986112
 20
-414.40721028645828
 30
0.0
 40
0.8144205729166667
  1
R
 41
0.7
 72
     1
 11
52.25
 21
-414.0
 31
0.0
 73
     2
  0
TEXT
  5
8AB
  8
DATA
 62
     7
 10
6.5373819986979171
 20
-411.90721028645828
 30
0.0
 40
0.8144205729166667
  1
-50
 41
0.7
 72
     1
 11
7.25
 21
-411.5
 31
0.0
 73
     2
  0
TEXT
  5
8AC
  8
DATA
 62
     7
 10
9.0373819986979171
 20
-411.90721028645828
 30
0.0
 40
0.8144205729166667
  1
-40
 41
0.7
 72
     1
 11
9.75
 21
-411.5
 31
0.0
 73
     2
  0
TEXT
  5
8AD
  8
DATA
 62
     7
 10
11.53738199869791
 20
-411.90721028645828
 30
0.0
 40
0.8144205729166667
  1
-30
 41
0.7
 72
     1
 11
12.25
 21
-411.5
 31
0.0
 73
     2
  0
TEXT
  5
8AE
  8
DATA
 62
     7
 10
14.03738199869791
 20
-411.90721028645828
 30
0.0
 40
0.8144205729166667
  1
-20
 41
0.7
 72
     1
 11
14.75
 21
-411.5
 31
0.0
 73
     2
  0
TEXT
  5
8AF
  8
DATA
 62
     7
 10
16.632397732204861
 20
-411.90721028645828
 30
0.0
 40
0.8144205729166667
  1
-10
 41
0.7
 72
     1
 11
17.25
 21
-411.5
 31
0.0
 73
     2
  0
TEXT
  5
8B0
  8
DATA
 62
     7
 10
19.274921332465279
 20
-411.90721028645828
 30
0.0
 40
0.8144205729166667
  1
-5
 41
0.7
 72
     1
 11
19.75
 21
-411.5
 31
0.0
 73
     2
  0
TEXT
  5
8B1
  8
DATA
 62
     7
 10
22.107476399739578
 20
-411.90721028645828
 30
0.0
 40
0.8144205729166667
  1
0
 41
0.7
 72
     1
 11
22.25
 21
-411.5
 31
0.0
 73
     2
  0
TEXT
  5
8B2
  8
DATA
 62
     7
 10
24.274921332465279
 20
-411.90721028645828
 30
0.0
 40
0.8144205729166667
  1
+5
 41
0.7
 72
     1
 11
24.75
 21
-411.5
 31
0.0
 73
     2
  0
TEXT
  5
8B3
  8
DATA
 62
     7
 10
26.774921332465279
 20
-411.90721028645828
 30
0.0
 40
0.8144205729166667
  1
dB
 41
0.7
 72
     1
 11
27.25
 21
-411.5
 31
0.0
 73
     2
  0
TEXT
  5
8B4
  8
DATA
 62
     7
 10
27.059968532986112
 20
-409.40721028645828
 30
0.0
 40
0.8144205729166667
  1
L
 41
0.7
 72
     1
 11
27.25
 21
-409.0
 31
0.0
 73
     2
  0
TEXT
  5
8B5
  8
DATA
 62
     7
 10
27.059968532986112
 20
-414.40721028645828
 30
0.0
 40
0.8144205729166667
  1
R
 41
0.7
 72
     1
 11
27.25
 21
-414.0
 31
0.0
 73
     2
  0
TEXT
  5
8B6
  8
DATA
 62
     7
 10
6.5373819986979171
 20
-411.90721028645828
 30
0.0
 40
0.8144205729166667
  1
-50
 41
0.7
 72
     1
 11
7.25
 21
-411.5
 31
0.0
 73
     2
  0
TEXT
  5
8B7
  8
DATA
 62
     7
 10
9.0373819986979171
 20
-411.90721028645828
 30
0.0
 40
0.8144205729166667
  1
-40
 41
0.7
 72
     1
 11
9.75
 21
-411.5
 31
0.0
 73
     2
  0
TEXT
  5
8B8
  8
DATA
 62
     7
 10
11.53738199869791
 20
-411.90721028645828
 30
0.0
 40
0.8144205729166667
  1
-30
 41
0.7
 72
     1
 11
12.25
 21
-411.5
 31
0.0
 73
     2
  0
TEXT
  5
8B9
  8
DATA
 62
     7
 10
14.03738199869791
 20
-411.90721028645828
 30
0.0
 40
0.8144205729166667
  1
-20
 41
0.7
 72
     1
 11
14.75
 21
-411.5
 31
0.0
 73
     2
  0
TEXT
  5
8BA
  8
DATA
 62
     7
 10
16.632397732204861
 20
-411.90721028645828
 30
0.0
 40
0.8144205729166667
  1
-10
 41
0.7
 72
     1
 11
17.25
 21
-411.5
 31
0.0
 73
     2
  0
TEXT
  5
8BB
  8
DATA
 62
     7
 10
19.274921332465279
 20
-411.90721028645828
 30
0.0
 40
0.8144205729166667
  1
-5
 41
0.7
 72
     1
 11
19.75
 21
-411.5
 31
0.0
 73
     2
  0
TEXT
  5
8BC
  8
DATA
 62
     7
 10
22.107476399739578
 20
-411.90721028645828
 30
0.0
 40
0.8144205729166667
  1
0
 41
0.7
 72
     1
 11
22.25
 21
-411.5
 31
0.0
 73
     2
  0
TEXT
  5
8BD
  8
DATA
 62
     7
 10
24.274921332465279
 20
-411.90721028645828
 30
0.0
 40
0.8144205729166667
  1
+5
 41
0.7
 72
     1
 11
24.75
 21
-411.5
 31
0.0
 73
     2
  0
TEXT
  5
8BE
  8
DATA
 62
     7
 10
26.774921332465279
 20
-411.90721028645828
 30
0.0
 40
0.8144205729166667
  1
dB
 41
0.7
 72
     1
 11
27.25
 21
-411.5
 31
0.0
 73
     2
  0
TEXT
  5
8BF
  8
DATA
 62
     7
 10
27.059968532986112
 20
-409.40721028645828
 30
0.0
 40
0.8144205729166667
  1
L
 41
0.7
 72
     1
 11
27.25
 21
-409.0
 31
0.0
 73
     2
  0
TEXT
  5
8C0
  8
DATA
 62
     7
 10
27.059968532986112
 20
-414.40721028645828
 30
0.0
 40
0.8144205729166667
  1
R
 41
0.7
 72
     1
 11
27.25
 21
-414.0
 31
0.0
 73
     2
  0
TEXT
  5
8C1
  8
DATA
 62
     7
 10
6.5373819986979171
 20
-411.90721028645828
 30
0.0
 40
0.8144205729166667
  1
-50
 41
0.7
 72
     1
 11
7.25
 21
-411.5
 31
0.0
 73
     2
  0
TEXT
  5
8C2
  8
DATA
 62
     7
 10
9.0373819986979171
 20
-411.90721028645828
 30
0.0
 40
0.8144205729166667
  1
-40
 41
0.7
 72
     1
 11
9.75
 21
-411.5
 31
0.0
 73
     2
  0
TEXT
  5
8C3
  8
DATA
 62
     7
 10
11.53738199869791
 20
-411.90721028645828
 30
0.0
 40
0.8144205729166667
  1
-30
 41
0.7
 72
     1
 11
12.25
 21
-411.5
 31
0.0
 73
     2
  0
TEXT
  5
8C4
  8
DATA
 62
     7
 10
14.03738199869791
 20
-411.90721028645828
 30
0.0
 40
0.8144205729166667
  1
-20
 41
0.7
 72
     1
 11
14.75
 21
-411.5
 31
0.0
 73
     2
  0
TEXT
  5
8C5
  8
DATA
 62
     7
 10
16.632397732204861
 20
-411.90721028645828
 30
0.0
 40
0.8144205729166667
  1
-10
 41
0.7
 72
     1
 11
17.25
 21
-411.5
 31
0.0
 73
     2
  0
TEXT
  5
8C6
  8
DATA
 62
     7
 10
19.274921332465279
 20
-411.90721028645828
 30
0.0
 40
0.8144205729166667
  1
-5
 41
0.7
 72
     1
 11
19.75
 21
-411.5
 31
0.0
 73
     2
  0
TEXT
  5
8C7
  8
DATA
 62
     7
 10
22.107476399739578
 20
-411.90721028645828
 30
0.0
 40
0.8144205729166667
  1
0
 41
0.7
 72
     1
 11
22.25
 21
-411.5
 31
0.0
 73
     2
  0
TEXT
  5
8C8
  8
DATA
 62
     7
 10
24.274921332465279
 20
-411.90721028645828
 30
0.0
 40
0.8144205729166667
  1
+5
 41
0.7
 72
     1
 11
24.75
 21
-411.5
 31
0.0
 73
     2
  0
TEXT
  5
8C9
  8
DATA
 62
     7
 10
26.774921332465279
 20
-411.90721028645828
 30
0.0
 40
0.8144205729166667
  1
dB
 41
0.7
 72
     1
 11
27.25
 21
-411.5
 31
0.0
 73
     2
  0
TEXT
  5
8CA
  8
DATA
 62
     7
 10
27.059968532986112
 20
-409.40721028645828
 30
0.0
 40
0.8144205729166667
  1
L
 41
0.7
 72
     1
 11
27.25
 21
-409.0
 31
0.0
 73
     2
  0
TEXT
  5
8CB
  8
DATA
 62
     7
 10
27.059968532986112
 20
-414.40721028645828
 30
0.0
 40
0.8144205729166667
  1
R
 41
0.7
 72
     1
 11
27.25
 21
-414.0
 31
0.0
 73
     2
  0
TEXT
  5
8CC
  8
DATA
 62
     7
 10
237.5
 20
-561.35306500000002
 30
0.0
 40
8.1442057291666661
  1
オートマチックミキサー
 41
0.7
 11
237.5
 21
-553.20885927083327
 31
0.0
 73
     3
  0
ENDSEC
  0
EOF
