  0
SECTION
  2
HEADER
  9
$ACADVER
  1
AC1015
  9
$ACADMAINTVER
 70
    20
  9
$DWGCODEPAGE
  3
ANSI_932
  9
$INSBASE
 10
0.0
 20
0.0
 30
0.0
  9
$EXTMIN
 10
-720.0439419236081
 20
-1076.25260406254
 30
-0.0015258207003583
  9
$EXTMAX
 10
720.0439486291298
 20
1064.787911002384
 30
0.0000000349246037
  9
$LIMMIN
 10
0.0
 20
0.0
  9
$LIMMAX
 10
12.0
 20
9.0
  9
$ORTHOMODE
 70
     0
  9
$REGENMODE
 70
     1
  9
$FILLMODE
 70
     1
  9
$QTEXTMODE
 70
     0
  9
$MIRRTEXT
 70
     1
  9
$LTSCALE
 40
40.64
  9
$ATTMODE
 70
     1
  9
$TEXTSIZE
 40
0.2
  9
$TRACEWID
 40
1.0
  9
$TEXTSTYLE
  7
STANDARD
  9
$CLAYER
  8
DATA
  9
$CELTYPE
  6
ByLayer
  9
$CECOLOR
 62
   256
  9
$CELTSCALE
 40
1.0
  9
$DISPSILH
 70
     0
  9
$DIMSCALE
 40
1.0
  9
$DIMASZ
 40
0.18
  9
$DIMEXO
 40
0.0625
  9
$DIMDLI
 40
0.38
  9
$DIMRND
 40
0.0
  9
$DIMDLE
 40
0.0
  9
$DIMEXE
 40
0.18
  9
$DIMTP
 40
0.0
  9
$DIMTM
 40
0.0
  9
$DIMTXT
 40
0.18
  9
$DIMCEN
 40
0.09
  9
$DIMTSZ
 40
0.0
  9
$DIMTOL
 70
     0
  9
$DIMLIM
 70
     0
  9
$DIMTIH
 70
     1
  9
$DIMTOH
 70
     1
  9
$DIMSE1
 70
     0
  9
$DIMSE2
 70
     0
  9
$DIMTAD
 70
     0
  9
$DIMZIN
 70
     0
  9
$DIMBLK
  1

  9
$DIMASO
 70
     1
  9
$DIMSHO
 70
     1
  9
$DIMPOST
  1

  9
$DIMAPOST
  1

  9
$DIMALT
 70
     0
  9
$DIMALTD
 70
     2
  9
$DIMALTF
 40
25.4
  9
$DIMLFAC
 40
1.0
  9
$DIMTOFL
 70
     0
  9
$DIMTVP
 40
0.0
  9
$DIMTIX
 70
     0
  9
$DIMSOXD
 70
     0
  9
$DIMSAH
 70
     0
  9
$DIMBLK1
  1

  9
$DIMBLK2
  1

  9
$DIMSTYLE
  2
STANDARD
  9
$DIMCLRD
 70
     0
  9
$DIMCLRE
 70
     0
  9
$DIMCLRT
 70
     0
  9
$DIMTFAC
 40
1.0
  9
$DIMGAP
 40
0.09
  9
$DIMJUST
 70
     0
  9
$DIMSD1
 70
     0
  9
$DIMSD2
 70
     0
  9
$DIMTOLJ
 70
     1
  9
$DIMTZIN
 70
     0
  9
$DIMALTZ
 70
     0
  9
$DIMALTTZ
 70
     0
  9
$DIMUPT
 70
     0
  9
$DIMDEC
 70
     4
  9
$DIMTDEC
 70
     4
  9
$DIMALTU
 70
     2
  9
$DIMALTTD
 70
     2
  9
$DIMTXSTY
  7
STANDARD
  9
$DIMAUNIT
 70
     0
  9
$DIMADEC
 70
     0
  9
$DIMALTRND
 40
0.0
  9
$DIMAZIN
 70
     0
  9
$DIMDSEP
 70
    46
  9
$DIMATFIT
 70
     3
  9
$DIMFRAC
 70
     0
  9
$DIMLDRBLK
  1

  9
$DIMLUNIT
 70
     2
  9
$DIMLWD
 70
    -2
  9
$DIMLWE
 70
    -2
  9
$DIMTMOVE
 70
     0
  9
$LUNITS
 70
     2
  9
$LUPREC
 70
     2
  9
$SKETCHINC
 40
0.1
  9
$FILLETRAD
 40
0.5
  9
$AUNITS
 70
     0
  9
$AUPREC
 70
     1
  9
$MENU
  1
.
  9
$ELEVATION
 40
0.0
  9
$PELEVATION
 40
0.0
  9
$THICKNESS
 40
0.0
  9
$LIMCHECK
 70
     0
  9
$CHAMFERA
 40
0.0
  9
$CHAMFERB
 40
0.0
  9
$CHAMFERC
 40
0.0
  9
$CHAMFERD
 40
0.0
  9
$SKPOLY
 70
     0
  9
$TDCREATE
 40
2458843.616701389
  9
$TDUCREATE
 40
2458843.241701389
  9
$TDUPDATE
 40
2458843.618321759
  9
$TDUUPDATE
 40
2458843.243321759
  9
$TDINDWG
 40
0.0004861227
  9
$TDUSRTIMER
 40
0.0004861227
  9
$USRTIMER
 70
     1
  9
$ANGBASE
 50
0.0
  9
$ANGDIR
 70
     0
  9
$PDMODE
 70
     1
  9
$PDSIZE
 40
-2.0
  9
$PLINEWID
 40
0.0
  9
$SPLFRAME
 70
     0
  9
$SPLINETYPE
 70
     6
  9
$SPLINESEGS
 70
     8
  9
$HANDSEED
  5
42C
  9
$SURFTAB1
 70
     6
  9
$SURFTAB2
 70
     6
  9
$SURFTYPE
 70
     6
  9
$SURFU
 70
     6
  9
$SURFV
 70
     6
  9
$UCSBASE
  2

  9
$UCSNAME
  2

  9
$UCSORG
 10
0.0
 20
0.0
 30
0.0
  9
$UCSXDIR
 10
1.0
 20
0.0
 30
0.0
  9
$UCSYDIR
 10
0.0
 20
1.0
 30
0.0
  9
$UCSORTHOREF
  2

  9
$UCSORTHOVIEW
 70
     0
  9
$UCSORGTOP
 10
0.0
 20
0.0
 30
0.0
  9
$UCSORGBOTTOM
 10
0.0
 20
0.0
 30
0.0
  9
$UCSORGLEFT
 10
0.0
 20
0.0
 30
0.0
  9
$UCSORGRIGHT
 10
0.0
 20
0.0
 30
0.0
  9
$UCSORGFRONT
 10
0.0
 20
0.0
 30
0.0
  9
$UCSORGBACK
 10
0.0
 20
0.0
 30
0.0
  9
$PUCSBASE
  2

  9
$PUCSNAME
  2

  9
$PUCSORG
 10
0.0
 20
0.0
 30
0.0
  9
$PUCSXDIR
 10
1.0
 20
0.0
 30
0.0
  9
$PUCSYDIR
 10
0.0
 20
1.0
 30
0.0
  9
$PUCSORTHOREF
  2

  9
$PUCSORTHOVIEW
 70
     0
  9
$PUCSORGTOP
 10
0.0
 20
0.0
 30
0.0
  9
$PUCSORGBOTTOM
 10
0.0
 20
0.0
 30
0.0
  9
$PUCSORGLEFT
 10
0.0
 20
0.0
 30
0.0
  9
$PUCSORGRIGHT
 10
0.0
 20
0.0
 30
0.0
  9
$PUCSORGFRONT
 10
0.0
 20
0.0
 30
0.0
  9
$PUCSORGBACK
 10
0.0
 20
0.0
 30
0.0
  9
$USERI1
 70
     0
  9
$USERI2
 70
     0
  9
$USERI3
 70
     0
  9
$USERI4
 70
     0
  9
$USERI5
 70
     0
  9
$USERR1
 40
0.0
  9
$USERR2
 40
0.0
  9
$USERR3
 40
0.0
  9
$USERR4
 40
0.0
  9
$USERR5
 40
0.0
  9
$WORLDVIEW
 70
     1
  9
$SHADEDGE
 70
     3
  9
$SHADEDIF
 70
    70
  9
$TILEMODE
 70
     1
  9
$MAXACTVP
 70
    64
  9
$PINSBASE
 10
0.0
 20
0.0
 30
0.0
  9
$PLIMCHECK
 70
     0
  9
$PEXTMIN
 10
1.000000000000000E+20
 20
1.000000000000000E+20
 30
1.000000000000000E+20
  9
$PEXTMAX
 10
-1.000000000000000E+20
 20
-1.000000000000000E+20
 30
-1.000000000000000E+20
  9
$PLIMMIN
 10
-20.0
 20
-7.5
  9
$PLIMMAX
 10
277.0
 20
202.5
  9
$UNITMODE
 70
     0
  9
$VISRETAIN
 70
     1
  9
$PLINEGEN
 70
     0
  9
$PSLTSCALE
 70
     1
  9
$TREEDEPTH
 70
  3020
  9
$CMLSTYLE
  2
Standard
  9
$CMLJUST
 70
     0
  9
$CMLSCALE
 40
1.0
  9
$PROXYGRAPHICS
 70
     1
  9
$MEASUREMENT
 70
     0
  9
$CELWEIGHT
370
    -1
  9
$ENDCAPS
280
     0
  9
$JOINSTYLE
280
     0
  9
$LWDISPLAY
290
     0
  9
$INSUNITS
 70
     4
  9
$HYPERLINKBASE
  1

  9
$STYLESHEET
  1

  9
$XEDIT
290
     1
  9
$CEPSNTYPE
380
     0
  9
$PSTYLEMODE
290
     1
  9
$FINGERPRINTGUID
  2
{9BCA5A12-10AC-0249-A9CD-4AD9028DCEE4}
  9
$VERSIONGUID
  2
{96EDAFF5-97A3-A94D-82F8-35F2B818995A}
  9
$EXTNAMES
290
     1
  9
$PSVPSCALE
 40
0.0
  9
$OLESTARTUP
290
     0
  0
ENDSEC
  0
SECTION
  2
CLASSES
  0
CLASS
  1
ACDBDICTIONARYWDFLT
  2
AcDbDictionaryWithDefault
  3
ObjectDBX Classes
 90
        0
280
     0
281
     0
  0
CLASS
  1
MATERIAL
  2
AcDbMaterial
  3
ObjectDBX Classes
 90
     1153
280
     0
281
     0
  0
CLASS
  1
VISUALSTYLE
  2
AcDbVisualStyle
  3
ObjectDBX Classes
 90
     4095
280
     0
281
     0
  0
CLASS
  1
SCALE
  2
AcDbScale
  3
ObjectDBX Classes
 90
     1153
280
     0
281
     0
  0
CLASS
  1
TABLESTYLE
  2
AcDbTableStyle
  3
ObjectDBX Classes
 90
     4095
280
     0
281
     0
  0
CLASS
  1
MLEADERSTYLE
  2
AcDbMLeaderStyle
  3
ACDB_MLEADERSTYLE_CLASS
 90
     4095
280
     0
281
     0
  0
CLASS
  1
ACDBSECTIONVIEWSTYLE
  2
AcDbSectionViewStyle
  3
ObjectDBX Classes
 90
     1025
280
     0
281
     0
  0
CLASS
  1
ACDBDETAILVIEWSTYLE
  2
AcDbDetailViewStyle
  3
ObjectDBX Classes
 90
     1025
280
     0
281
     0
  0
CLASS
  1
DICTIONARYVAR
  2
AcDbDictionaryVar
  3
ObjectDBX Classes
 90
        0
280
     0
281
     0
  0
CLASS
  1
CELLSTYLEMAP
  2
AcDbCellStyleMap
  3
ObjectDBX Classes
 90
     1152
280
     0
281
     0
  0
CLASS
  1
ACDBPLACEHOLDER
  2
AcDbPlaceHolder
  3
ObjectDBX Classes
 90
        0
280
     0
281
     0
  0
CLASS
  1
LAYOUT
  2
AcDbLayout
  3
ObjectDBX Classes
 90
        0
280
     0
281
     0
  0
ENDSEC
  0
SECTION
  2
TABLES
  0
TABLE
  2
VPORT
  5
349
330
0
100
AcDbSymbolTable
 70
     1
  0
VPORT
  5
3B5
330
349
100
AcDbSymbolTableRecord
100
AcDbViewportTableRecord
  2
*ACTIVE
 70
     0
 10
0.0
 20
0.0
 11
1.0
 21
1.0
 12
0.0000033527605865
 22
-5.732346530077848
 13
0.0
 23
0.0
 14
0.5
 24
0.5
 15
0.5
 25
0.5
 16
0.0
 26
0.0
 36
1.0
 17
0.0
 27
0.0
 37
0.0
 40
2150.47241160706
 41
2.33651726671565
 42
2000.0
 43
0.0
 44
0.0
 50
0.0
 51
0.0
 71
     0
 72
   100
 73
     1
 74
     3
 75
     0
 76
     0
 77
     0
 78
     0
281
     0
 65
     1
110
0.0
120
0.0
130
0.0
111
1.0
121
0.0
131
0.0
112
0.0
122
1.0
132
0.0
 79
     0
146
0.0
1001
ACAD_NAV_VCDISPLAY
1070
     3
  0
ENDTAB
  0
TABLE
  2
LTYPE
  5
346
330
0
100
AcDbSymbolTable
 70
    12
  0
LTYPE
  5
39B
330
346
100
AcDbSymbolTableRecord
100
AcDbLinetypeTableRecord
  2
ByBlock
 70
     0
  3

 72
    65
 73
     0
 40
0.0
  0
LTYPE
  5
39C
330
346
100
AcDbSymbolTableRecord
100
AcDbLinetypeTableRecord
  2
ByLayer
 70
     0
  3

 72
    65
 73
     0
 40
0.0
  0
LTYPE
  5
39D
330
346
100
AcDbSymbolTableRecord
100
AcDbLinetypeTableRecord
  2
CONTINUOUS
 70
     0
  3
Solid line
 72
    65
 73
     0
 40
0.0
  0
ENDTAB
  0
TABLE
  2
LAYER
  5
343
330
0
100
AcDbSymbolTable
 70
     6
  0
LAYER
  5
395
102
{ACAD_XDICTIONARY
360
3D2
102
}
330
343
100
AcDbSymbolTableRecord
100
AcDbLayerTableRecord
  2
0
 70
     0
 62
     7
  6
CONTINUOUS
370
    -3
390
350
  0
LAYER
  5
3B4
102
{ACAD_XDICTIONARY
360
3D4
102
}
330
343
100
AcDbSymbolTableRecord
100
AcDbLayerTableRecord
  2
DATA
 70
     0
 62
     7
  6
CONTINUOUS
370
    -3
390
350
  0
LAYER
  5
3C1
102
{ACAD_XDICTIONARY
360
3D6
102
}
330
343
100
AcDbSymbolTableRecord
100
AcDbLayerTableRecord
  2
HIBINO-BASE
 70
     0
 62
     7
  6
CONTINUOUS
370
    -3
390
350
  0
LAYER
  5
3C2
102
{ACAD_XDICTIONARY
360
3D8
102
}
330
343
100
AcDbSymbolTableRecord
100
AcDbLayerTableRecord
  2
PATTERN_FILL
 70
     0
 62
     7
  6
CONTINUOUS
370
    -3
390
350
  0
LAYER
  5
3C3
102
{ACAD_XDICTIONARY
360
3DA
102
}
330
343
100
AcDbSymbolTableRecord
100
AcDbLayerTableRecord
  2
SPEC
 70
     0
 62
     7
  6
CONTINUOUS
370
    -3
390
350
  0
LAYER
  5
3C4
102
{ACAD_XDICTIONARY
360
3DC
102
}
330
343
100
AcDbSymbolTableRecord
100
AcDbLayerTableRecord
  2
DIMNSIONS
 70
     0
 62
     7
  6
CONTINUOUS
370
    -3
390
350
  0
ENDTAB
  0
TABLE
  2
STYLE
  5
344
330
0
100
AcDbSymbolTable
 70
     3
  0
STYLE
  5
396
330
344
100
AcDbSymbolTableRecord
100
AcDbTextStyleTableRecord
  2
STANDARD
 70
     0
 40
0.0
 41
1.0
 50
0.0
 71
     0
 42
0.2
  3
txt
  4
BIGFONT.SHX
  0
ENDTAB
  0
TABLE
  2
VIEW
  5
347
330
0
100
AcDbSymbolTable
 70
     0
  0
ENDTAB
  0
TABLE
  2
UCS
  5
348
330
0
100
AcDbSymbolTable
 70
     0
  0
ENDTAB
  0
TABLE
  2
APPID
  5
34A
330
0
100
AcDbSymbolTable
 70
     5
  0
APPID
  5
397
330
34A
100
AcDbSymbolTableRecord
100
AcDbRegAppTableRecord
  2
ACAD
 70
     0
  0
APPID
  5
39E
330
34A
100
AcDbSymbolTableRecord
100
AcDbRegAppTableRecord
  2
AcadAnnotative
 70
     0
  0
APPID
  5
3C6
330
34A
100
AcDbSymbolTableRecord
100
AcDbRegAppTableRecord
  2
ACAECLAYERSTANDARD
 70
     0
  0
APPID
  5
3E8
330
34A
100
AcDbSymbolTableRecord
100
AcDbRegAppTableRecord
  2
ACAD_NAV_VCDISPLAY
 70
     0
  0
APPID
  5
423
330
34A
100
AcDbSymbolTableRecord
100
AcDbRegAppTableRecord
  2
ACAD_MLEADERVER
 70
     0
  0
ENDTAB
  0
TABLE
  2
DIMSTYLE
  5
34B
330
0
100
AcDbSymbolTable
 70
     2
100
AcDbDimStyleTable
 71
     0
  0
DIMSTYLE
105
398
330
34B
100
AcDbSymbolTableRecord
100
AcDbDimStyleTableRecord
  2
STANDARD
 70
     0
271
     2
272
     2
279
     2
340
396
  0
ENDTAB
  0
TABLE
  2
BLOCK_RECORD
  5
342
330
0
100
AcDbSymbolTable
 70
     2
  0
BLOCK_RECORD
  5
3B0
330
342
100
AcDbSymbolTableRecord
100
AcDbBlockTableRecord
  2
*Model_Space
340
3B3
  0
BLOCK_RECORD
  5
3AC
330
342
100
AcDbSymbolTableRecord
100
AcDbBlockTableRecord
  2
*Paper_Space
340
3AF
  0
ENDTAB
  0
ENDSEC
  0
SECTION
  2
BLOCKS
  0
BLOCK
  5
3B1
330
3B0
100
AcDbEntity
  8
0
100
AcDbBlockBegin
  2
*Model_Space
 70
     0
 10
0.0
 20
0.0
 30
0.0
  3
*Model_Space
  1

  0
ENDBLK
  5
3B2
330
3B0
100
AcDbEntity
  8
0
100
AcDbBlockEnd
  0
BLOCK
  5
3AD
330
3AC
100
AcDbEntity
 67
     1
  8
0
100
AcDbBlockBegin
  2
*Paper_Space
 70
     0
 10
0.0
 20
0.0
 30
0.0
  3
*Paper_Space
  1

  0
ENDBLK
  5
3AE
330
3AC
100
AcDbEntity
 67
     1
  8
0
100
AcDbBlockEnd
  0
ENDSEC
  0
SECTION
  2
ENTITIES
  0
LINE
  5
81
330
3B0
100
AcDbEntity
  8
HIBINO-BASE
  6
Continuous
 62
     7
100
AcDbLine
 10
-719.99999996382
 20
1064.72270494632
 30
0.0
 11
719.99999996382
 21
1064.72270494632
 31
0.0
  0
LINE
  5
82
330
3B0
100
AcDbEntity
  8
HIBINO-BASE
  6
Continuous
 62
     7
100
AcDbLine
 10
719.99999996382
 20
-1015.277294949159
 30
0.0
 11
-719.99999996382
 21
-1015.277294949159
 31
0.0
  0
LINE
  5
83
330
3B0
100
AcDbEntity
  8
HIBINO-BASE
  6
Continuous
 62
     7
100
AcDbLine
 10
-719.99999996382
 20
-1015.277294949159
 30
0.0
 11
-719.99999996382
 21
1064.72270494632
 31
0.0
  0
LINE
  5
84
330
3B0
100
AcDbEntity
  8
HIBINO-BASE
  6
Continuous
 62
     7
100
AcDbLine
 10
719.99999996382
 20
1064.72270494632
 30
0.0
 11
719.99999996382
 21
-1015.277294949159
 31
0.0
  0
LINE
  5
85
330
3B0
100
AcDbEntity
  8
HIBINO-BASE
  6
Continuous
 62
     7
100
AcDbLine
 10
0.0000000000001137
 20
-835.2772949582044
 30
0.0
 11
719.99999996382
 21
-835.2772949582044
 31
0.0
  0
LINE
  5
86
330
3B0
100
AcDbEntity
  8
HIBINO-BASE
  6
Continuous
 62
     7
100
AcDbLine
 10
0.0000000000001137
 20
-1015.277294949159
 30
0.0
 11
0.0000000000001137
 21
-835.2772949582044
 31
0.0
  0
TEXT
  5
87
330
3B0
100
AcDbEntity
  8
HIBINO-BASE
 62
     7
100
AcDbText
 10
7.199999999638357
 20
-855.3468416238626
 30
0.0
 40
12.99765624934687
  1
NOTE
 41
0.7
 11
7.199999999638358
 21
-842.3491853745158
 31
0.0
100
AcDbText
 73
     3
  0
LINE
  5
88
330
3B0
100
AcDbEntity
  8
HIBINO-BASE
  6
Continuous
 62
     7
100
AcDbLine
 10
279.9999999859301
 20
-1015.277294949159
 30
0.0
 11
279.9999999859301
 21
-835.2772949582044
 31
0.0
  0
TEXT
  5
89
330
3B0
100
AcDbEntity
  8
HIBINO-BASE
 62
     7
100
AcDbText
 10
287.1999999855681
 20
-855.3468416238626
 30
0.0
 40
12.99765624934687
  1
TITLE
 41
0.7
 11
287.1999999855681
 21
-842.3491853745158
 31
0.0
100
AcDbText
 73
     3
  0
LINE
  5
8A
330
3B0
100
AcDbEntity
  8
HIBINO-BASE
  6
Continuous
 62
     7
100
AcDbLine
 10
0.0000000000001137
 20
-935.2772949531797
 30
0.0
 11
719.99999996382
 21
-935.2772949531797
 31
0.0
  0
TEXT
  5
8B
330
3B0
100
AcDbEntity
  8
HIBINO-BASE
 62
     7
100
AcDbText
 10
387.1999999805431
 20
-954.8962816188604
 30
0.0
 40
12.99765624934687
  1
DRAWN
 41
0.7
 11
387.1999999805431
 21
-941.8986253695136
 31
0.0
100
AcDbText
 73
     3
  0
TEXT
  5
8C
330
3B0
100
AcDbEntity
  8
HIBINO-BASE
 62
     7
100
AcDbText
 10
187.1999999905931
 20
-954.8962816188604
 30
0.0
 40
12.99765624934687
  1
DATE
 41
0.7
 11
187.1999999905931
 21
-941.8986253695136
 31
0.0
100
AcDbText
 73
     3
  0
TEXT
  5
8D
330
3B0
100
AcDbEntity
  8
HIBINO-BASE
 62
     7
100
AcDbText
 10
107.1999999946131
 20
-954.8962816188604
 30
0.0
 40
12.99765624934687
  1
SCALE
 41
0.7
 11
107.1999999946131
 21
-941.8986253695136
 31
0.0
100
AcDbText
 73
     3
  0
TEXT
  5
8E
330
3B0
100
AcDbEntity
  8
HIBINO-BASE
 62
     7
100
AcDbText
 10
287.1999999855681
 20
-954.8962816188604
 30
0.0
 40
12.99765624934687
  1
DESIGN
 41
0.7
 11
287.1999999855681
 21
-941.8986253695136
 31
0.0
100
AcDbText
 73
     3
  0
TEXT
  5
8F
330
3B0
100
AcDbEntity
  8
HIBINO-BASE
 62
     7
100
AcDbText
 10
587.199999970493
 20
-954.8962816188604
 30
0.0
 40
12.99765624934687
  1
DRAWING NO.
 41
0.7
 11
587.199999970493
 21
-941.8986253695136
 31
0.0
100
AcDbText
 73
     3
  0
TEXT
  5
90
330
3B0
100
AcDbEntity
  8
HIBINO-BASE
 62
     7
100
AcDbText
 10
487.1999999755181
 20
-954.8962816188604
 30
0.0
 40
12.99765624934687
  1
CHECK
 41
0.7
 11
487.1999999755181
 21
-941.8986253695136
 31
0.0
100
AcDbText
 73
     3
  0
LINE
  5
91
330
3B0
100
AcDbEntity
  8
HIBINO-BASE
  6
Continuous
 62
     7
100
AcDbLine
 10
114.9999999942214
 20
-1005.277294949662
 30
0.0
 11
144.9999999927138
 21
-975.2772949511694
 31
0.0
  0
TEXT
  5
92
330
3B0
100
AcDbEntity
  8
HIBINO-BASE
 62
     7
100
AcDbText
 10
109.9999999944726
 20
-984.1488416173906
 30
0.0
 40
12.99765624934687
  1
1
 41
0.7
 11
109.9999999944726
 21
-971.1511853680436
 31
0.0
100
AcDbText
 73
     3
  0
LINE
  5
93
330
3B0
100
AcDbEntity
  8
HIBINO-BASE
  6
Continuous
 62
     7
100
AcDbLine
 10
99.99999999497513
 20
-1015.277294949159
 30
0.0
 11
99.99999999497513
 21
-935.2772949531797
 31
0.0
  0
LINE
  5
94
330
3B0
100
AcDbEntity
  8
HIBINO-BASE
  6
Continuous
 62
     7
100
AcDbLine
 10
179.9999999909549
 20
-1015.277294949159
 30
0.0
 11
179.9999999909549
 21
-935.2772949531797
 31
0.0
  0
LINE
  5
95
330
3B0
100
AcDbEntity
  8
HIBINO-BASE
  6
Continuous
 62
     7
100
AcDbLine
 10
379.9999999809049
 20
-935.2772949531797
 30
0.0
 11
379.9999999809049
 21
-1015.277294949159
 31
0.0
  0
LINE
  5
96
330
3B0
100
AcDbEntity
  8
HIBINO-BASE
  6
Continuous
 62
     7
100
AcDbLine
 10
579.999999970855
 20
-935.2772949531797
 30
0.0
 11
579.999999970855
 21
-1015.277294949159
 31
0.0
  0
LINE
  5
97
330
3B0
100
AcDbEntity
  8
HIBINO-BASE
  6
Continuous
 62
     7
100
AcDbLine
 10
479.9999999758798
 20
-1015.277294949159
 30
0.0
 11
479.9999999758798
 21
-935.2772949531797
 31
0.0
  0
TEXT
  5
98
330
3B0
100
AcDbEntity
  8
HIBINO-BASE
 62
     7
100
AcDbText
 10
186.8523199906107
 20
-992.3681216169772
 30
0.0
 40
12.99765624934687
  1
'19.12.
 41
0.7
 11
186.8523199906107
 21
-979.3704653676304
 31
0.0
100
AcDbText
 73
     3
  0
TEXT
  5
99
330
3B0
100
AcDbEntity
  8
HIBINO-BASE
 62
     7
100
AcDbText
 10
139.9999999929651
 20
-999.1488416166363
 30
0.0
 40
12.99765624934687
  1
8
 41
0.7
 11
139.9999999929651
 21
-986.1511853672896
 31
0.0
100
AcDbText
 73
     3
  0
TEXT
  5
9A
330
3B0
100
AcDbEntity
  8
HIBINO-BASE
 62
     7
100
AcDbText
 10
392.0464800685767
 20
-992.3681216169772
 30
0.0
 40
12.99765624934687
  1
N.Sasaki
 41
0.7
 11
392.0464800685767
 21
-979.3704653676304
 31
0.0
100
AcDbText
 73
     3
  0
TEXT
  5
9B
330
3B0
100
AcDbEntity
  8
HIBINO-BASE
 62
     7
100
AcDbText
 10
31.06666666510585
 20
-999.469294949954
 30
0.0
 40
25.99531249869374
  1
A4
 41
0.7
 11
31.06666666510585
 21
-973.4739824512603
 31
0.0
100
AcDbText
 73
     3
  0
TEXT
  5
9C
330
3B0
100
AcDbEntity
  8
HIBINO-BASE
 62
     7
100
AcDbText
 10
7.666666666281378
 20
-956.2329349521265
 30
0.0
 40
12.99765624934687
  1
PAPER SIZE
 41
0.7
 11
7.666666666281379
 21
-943.2352787027797
 31
0.0
100
AcDbText
 73
     3
  0
TEXT
  5
9D
330
3B0
100
AcDbEntity
  8
HIBINO-BASE
 62
     7
100
AcDbText
 10
-662.5279999667077
 20
-1066.546717346583
 30
0.0
 40
28.72725609230645
  1
Hibino Corporation
 41
0.7
 11
-662.5279999667077
 21
-1037.819461254277
 31
0.0
100
AcDbText
 73
     3
  0
TEXT
  5
9E
330
3B0
100
AcDbEntity
  8
HIBINO-BASE
 62
     7
100
AcDbText
 10
400.5471199798726
 20
-1066.546717346583
 30
0.0
 40
28.72725609230645
  1
ヒビノ株式会社
 41
0.7
 11
400.5471199798726
 21
-1037.819461254277
 31
0.0
100
AcDbText
 73
     3
  0
ARC
  5
9F
330
3B0
100
AcDbEntity
  8
PATTERN_FILL
  6
Continuous
 62
     7
100
AcDbCircle
 10
226.0
 20
-347.5576923076923
 30
0.0
 40
47.55769230769227
100
AcDbArc
 50
59.69186389937477
 51
88.7566909717937
  0
ARC
  5
A0
330
3B0
100
AcDbEntity
  8
PATTERN_FILL
  6
Continuous
 62
     7
100
AcDbCircle
 10
226.0
 20
-347.5576923076923
 30
0.0
 40
50.56
100
AcDbArc
 50
54.29757102386315
 51
88.22636685540059
  0
ARC
  5
A1
330
3B0
100
AcDbEntity
  8
PATTERN_FILL
  6
Continuous
 62
     7
100
AcDbCircle
 10
226.0
 20
-347.5576923076923
 30
0.0
 40
53.56000000000001
100
AcDbArc
 50
50.04720745437896
 51
87.7176448947034
  0
ARC
  5
A2
330
3B0
100
AcDbEntity
  8
PATTERN_FILL
  6
Continuous
 62
     7
100
AcDbCircle
 10
226.0
 20
-347.5576923076923
 30
0.0
 40
56.56000000000001
100
AcDbArc
 50
46.54492984864135
 51
87.22668766606444
  0
ARC
  5
A3
330
3B0
100
AcDbEntity
  8
PATTERN_FILL
  6
Continuous
 62
     7
100
AcDbCircle
 10
226.0
 20
-347.5576923076923
 30
0.0
 40
59.55999999999997
100
AcDbArc
 50
43.57868611329996
 51
86.75076248517608
  0
ARC
  5
A4
330
3B0
100
AcDbEntity
  8
PATTERN_FILL
  6
Continuous
 62
     7
100
AcDbCircle
 10
226.0
 20
-347.5576923076923
 30
0.0
 40
62.55999999999997
100
AcDbArc
 50
41.0177676281801
 51
86.28765928202698
  0
ARC
  5
A5
330
3B0
100
AcDbEntity
  8
PATTERN_FILL
  6
Continuous
 62
     7
100
AcDbCircle
 10
226.0
 20
-347.5576923076923
 30
0.0
 40
65.55999999999997
100
AcDbArc
 50
43.77945917272564
 51
85.83557078250647
  0
ARC
  5
A6
330
3B0
100
AcDbEntity
  8
PATTERN_FILL
  6
Continuous
 62
     7
100
AcDbCircle
 10
226.0
 20
-347.5576923076923
 30
0.0
 40
68.56
100
AcDbArc
 50
47.34363557311279
 51
85.39300421081367
  0
ARC
  5
A7
330
3B0
100
AcDbEntity
  8
PATTERN_FILL
  6
Continuous
 62
     7
100
AcDbCircle
 10
226.0
 20
-347.5576923076923
 30
0.0
 40
71.56000000000003
100
AcDbArc
 50
50.48881222488257
 51
84.59528981651251
  0
ARC
  5
A8
330
3B0
100
AcDbEntity
  8
PATTERN_FILL
  6
Continuous
 62
     7
100
AcDbCircle
 10
226.0
 20
-347.5576923076923
 30
0.0
 40
74.56000000000003
100
AcDbArc
 50
53.30570106050213
 51
75.11402819258545
  0
ARC
  5
A9
330
3B0
100
AcDbEntity
  8
PATTERN_FILL
  6
Continuous
 62
     7
100
AcDbCircle
 10
226.0
 20
-347.5576923076923
 30
0.0
 40
77.56
100
AcDbArc
 50
55.85784514272795
 51
68.28835515545951
  0
ARC
  5
AA
330
3B0
100
AcDbEntity
  8
PATTERN_FILL
  6
Continuous
 62
     7
100
AcDbCircle
 10
226.0
 20
-347.5576923076923
 30
0.0
 40
80.55999999999995
100
AcDbArc
 50
58.19177844611687
 51
63.43914411270037
  0
ARC
  5
AB
330
3B0
100
AcDbEntity
  8
PATTERN_FILL
  6
Continuous
 62
     7
100
AcDbCircle
 10
226.0
 20
-347.5576923076923
 30
0.0
 40
44.56
100
AcDbArc
 50
67.13197654393518
 51
89.31170762259748
  0
ARC
  5
AC
330
3B0
100
AcDbEntity
  8
PATTERN_FILL
  6
Continuous
 62
     7
100
AcDbCircle
 10
226.0
 20
-347.5576923076923
 30
0.0
 40
41.56
100
AcDbArc
 50
81.08290966144091
 51
89.89826166903633
  0
ARC
  5
AD
330
3B0
100
AcDbEntity
  8
PATTERN_FILL
  6
Continuous
 62
     7
100
AcDbCircle
 10
274.0
 20
-372.0576923076923
 30
0.0
 40
47.55769230769231
100
AcDbArc
 50
91.24979905161048
 51
120.3081361006252
  0
ARC
  5
AE
330
3B0
100
AcDbEntity
  8
PATTERN_FILL
  6
Continuous
 62
     7
100
AcDbCircle
 10
274.0
 20
-372.0576923076923
 30
0.0
 40
50.56000000000007
100
AcDbArc
 50
90.94335039894493
 51
125.7024289761368
  0
ARC
  5
AF
330
3B0
100
AcDbEntity
  8
PATTERN_FILL
  6
Continuous
 62
     7
100
AcDbCircle
 10
274.0
 20
-372.0576923076923
 30
0.0
 40
53.56000000000004
100
AcDbArc
 50
90.67801101620318
 51
129.952792545621
  0
ARC
  5
B0
330
3B0
100
AcDbEntity
  8
PATTERN_FILL
  6
Continuous
 62
     7
100
AcDbCircle
 10
274.0
 20
-372.0576923076923
 30
0.0
 40
56.56
100
AcDbArc
 50
100.8025654160281
 51
133.4550701513586
  0
ARC
  5
B1
330
3B0
100
AcDbEntity
  8
PATTERN_FILL
  6
Continuous
 62
     7
100
AcDbCircle
 10
274.0
 20
-372.0576923076923
 30
0.0
 40
59.56000000000002
100
AcDbArc
 50
111.1240907432509
 51
136.4213138867001
  0
ARC
  5
B2
330
3B0
100
AcDbEntity
  8
PATTERN_FILL
  6
Continuous
 62
     7
100
AcDbCircle
 10
274.0
 20
-372.0576923076923
 30
0.0
 40
62.56000000000007
100
AcDbArc
 50
117.3682170517489
 51
138.0857183290724
  0
ARC
  5
B3
330
3B0
100
AcDbEntity
  8
PATTERN_FILL
  6
Continuous
 62
     7
100
AcDbCircle
 10
274.0
 20
-372.0576923076923
 30
0.0
 40
65.56000000000003
100
AcDbArc
 50
122.0664685874621
 51
135.6058480685915
  0
ARC
  5
B4
330
3B0
100
AcDbEntity
  8
PATTERN_FILL
  6
Continuous
 62
     7
100
AcDbCircle
 10
274.0
 20
-372.0576923076923
 30
0.0
 40
68.56000000000005
100
AcDbArc
 50
125.8697211727262
 51
133.4119554021642
  0
ARC
  5
B5
330
3B0
100
AcDbEntity
  8
PATTERN_FILL
  6
Continuous
 62
     7
100
AcDbCircle
 10
274.0
 20
-372.0576923076923
 30
0.0
 40
71.5600000000001
100
AcDbArc
 50
129.0697606499649
 51
131.4511546072796
  0
ARC
  5
B6
330
3B0
100
AcDbEntity
  8
PATTERN_FILL
  6
Continuous
 62
     7
100
AcDbCircle
 10
274.0
 20
-372.0576923076923
 30
0.0
 40
44.56
100
AcDbArc
 50
91.6049143345843
 51
112.8680234560649
  0
ARC
  5
B7
330
3B0
100
AcDbEntity
  8
PATTERN_FILL
  6
Continuous
 62
     7
100
AcDbCircle
 10
274.0
 20
-372.0576923076923
 30
0.0
 40
41.56000000000007
100
AcDbArc
 50
92.02020122518488
 51
98.91709033855901
  0
ARC
  5
B8
330
3B0
100
AcDbEntity
  8
PATTERN_FILL
  6
Continuous
 62
     7
100
AcDbCircle
 10
226.0
 20
-372.0576923076923
 30
0.0
 40
47.55769230769227
100
AcDbArc
 50
59.69186389937477
 51
88.7502009483895
  0
ARC
  5
B9
330
3B0
100
AcDbEntity
  8
PATTERN_FILL
  6
Continuous
 62
     7
100
AcDbCircle
 10
226.0
 20
-372.0576923076923
 30
0.0
 40
50.56000000000004
100
AcDbArc
 50
54.2975710238632
 51
89.05664960105507
  0
ARC
  5
BA
330
3B0
100
AcDbEntity
  8
PATTERN_FILL
  6
Continuous
 62
     7
100
AcDbCircle
 10
226.0
 20
-372.0576923076923
 30
0.0
 40
53.56
100
AcDbArc
 50
50.04720745437897
 51
89.32198898379684
  0
ARC
  5
BB
330
3B0
100
AcDbEntity
  8
PATTERN_FILL
  6
Continuous
 62
     7
100
AcDbCircle
 10
226.0
 20
-372.0576923076923
 30
0.0
 40
56.55999999999998
100
AcDbArc
 50
46.54492984864138
 51
79.19743458397191
  0
ARC
  5
BC
330
3B0
100
AcDbEntity
  8
PATTERN_FILL
  6
Continuous
 62
     7
100
AcDbCircle
 10
226.0
 20
-372.0576923076923
 30
0.0
 40
59.56
100
AcDbArc
 50
43.57868611329994
 51
68.87590925674908
  0
ARC
  5
BD
330
3B0
100
AcDbEntity
  8
PATTERN_FILL
  6
Continuous
 62
     7
100
AcDbCircle
 10
226.0
 20
-372.0576923076923
 30
0.0
 40
62.56000000000002
100
AcDbArc
 50
41.91428167092763
 51
62.63178294825108
  0
ARC
  5
BE
330
3B0
100
AcDbEntity
  8
PATTERN_FILL
  6
Continuous
 62
     7
100
AcDbCircle
 10
226.0
 20
-372.0576923076923
 30
0.0
 40
65.55999999999996
100
AcDbArc
 50
44.39415193140852
 51
57.93353141253795
  0
ARC
  5
BF
330
3B0
100
AcDbEntity
  8
PATTERN_FILL
  6
Continuous
 62
     7
100
AcDbCircle
 10
226.0
 20
-372.0576923076923
 30
0.0
 40
68.56000000000001
100
AcDbArc
 50
46.58804459783588
 51
54.13027882727377
  0
ARC
  5
C0
330
3B0
100
AcDbEntity
  8
PATTERN_FILL
  6
Continuous
 62
     7
100
AcDbCircle
 10
226.0
 20
-372.0576923076923
 30
0.0
 40
71.56000000000007
100
AcDbArc
 50
48.54884539272046
 51
50.93023935003511
  0
ARC
  5
C1
330
3B0
100
AcDbEntity
  8
PATTERN_FILL
  6
Continuous
 62
     7
100
AcDbCircle
 10
226.0
 20
-372.0576923076923
 30
0.0
 40
44.56
100
AcDbArc
 50
67.13197654393518
 51
88.39508566541566
  0
ARC
  5
C2
330
3B0
100
AcDbEntity
  8
PATTERN_FILL
  6
Continuous
 62
     7
100
AcDbCircle
 10
226.0
 20
-372.0576923076923
 30
0.0
 40
41.56000000000004
100
AcDbArc
 50
81.08290966144101
 51
87.97979877481514
  0
ARC
  5
C3
330
3B0
100
AcDbEntity
  8
PATTERN_FILL
  6
Continuous
 62
     7
100
AcDbCircle
 10
274.0
 20
-347.5576923076923
 30
0.0
 40
47.55769230769224
100
AcDbArc
 50
91.24330902820631
 51
120.3081361006252
  0
ARC
  5
C4
330
3B0
100
AcDbEntity
  8
PATTERN_FILL
  6
Continuous
 62
     7
100
AcDbCircle
 10
274.0
 20
-347.5576923076923
 30
0.0
 40
50.56000000000004
100
AcDbArc
 50
91.77363314459936
 51
125.7024289761368
  0
ARC
  5
C5
330
3B0
100
AcDbEntity
  8
PATTERN_FILL
  6
Continuous
 62
     7
100
AcDbCircle
 10
274.0
 20
-347.5576923076923
 30
0.0
 40
53.56
100
AcDbArc
 50
92.28235510529657
 51
129.952792545621
  0
ARC
  5
C6
330
3B0
100
AcDbEntity
  8
PATTERN_FILL
  6
Continuous
 62
     7
100
AcDbCircle
 10
274.0
 20
-347.5576923076923
 30
0.0
 40
56.55999999999998
100
AcDbArc
 50
92.77331233393555
 51
133.4550701513586
  0
ARC
  5
C7
330
3B0
100
AcDbEntity
  8
PATTERN_FILL
  6
Continuous
 62
     7
100
AcDbCircle
 10
274.0
 20
-347.5576923076923
 30
0.0
 40
59.55999999999997
100
AcDbArc
 50
93.24923751482391
 51
136.4213138867001
  0
ARC
  5
C8
330
3B0
100
AcDbEntity
  8
PATTERN_FILL
  6
Continuous
 62
     7
100
AcDbCircle
 10
274.0
 20
-347.5576923076923
 30
0.0
 40
62.56000000000002
100
AcDbArc
 50
93.71234071797301
 51
138.9822323718199
  0
ARC
  5
C9
330
3B0
100
AcDbEntity
  8
PATTERN_FILL
  6
Continuous
 62
     7
100
AcDbCircle
 10
274.0
 20
-347.5576923076923
 30
0.0
 40
65.55999999999997
100
AcDbArc
 50
94.16442921749348
 51
136.2205408272744
  0
ARC
  5
CA
330
3B0
100
AcDbEntity
  8
PATTERN_FILL
  6
Continuous
 62
     7
100
AcDbCircle
 10
274.0
 20
-347.5576923076923
 30
0.0
 40
68.55999999999998
100
AcDbArc
 50
94.60699578918628
 51
132.6563644268872
  0
ARC
  5
CB
330
3B0
100
AcDbEntity
  8
PATTERN_FILL
  6
Continuous
 62
     7
100
AcDbCircle
 10
274.0
 20
-347.5576923076923
 30
0.0
 40
71.56000000000005
100
AcDbArc
 50
95.4047101834875
 51
129.5111877751174
  0
ARC
  5
CC
330
3B0
100
AcDbEntity
  8
PATTERN_FILL
  6
Continuous
 62
     7
100
AcDbCircle
 10
274.0
 20
-347.5576923076923
 30
0.0
 40
74.56000000000002
100
AcDbArc
 50
104.8859718074145
 51
126.6942989394978
  0
ARC
  5
CD
330
3B0
100
AcDbEntity
  8
PATTERN_FILL
  6
Continuous
 62
     7
100
AcDbCircle
 10
274.0
 20
-347.5576923076923
 30
0.0
 40
77.55999999999997
100
AcDbArc
 50
111.7116448445405
 51
124.142154857272
  0
ARC
  5
CE
330
3B0
100
AcDbEntity
  8
PATTERN_FILL
  6
Continuous
 62
     7
100
AcDbCircle
 10
274.0
 20
-347.5576923076923
 30
0.0
 40
80.55999999999995
100
AcDbArc
 50
116.5608558872996
 51
121.8082215538831
  0
ARC
  5
CF
330
3B0
100
AcDbEntity
  8
PATTERN_FILL
  6
Continuous
 62
     7
100
AcDbCircle
 10
274.0
 20
-347.5576923076923
 30
0.0
 40
44.56000000000003
100
AcDbArc
 50
90.68829237740251
 51
112.8680234560648
  0
ARC
  5
D0
330
3B0
100
AcDbEntity
  8
PATTERN_FILL
  6
Continuous
 62
     7
100
AcDbCircle
 10
274.0
 20
-347.5576923076923
 30
0.0
 40
41.56000000000003
100
AcDbArc
 50
90.10173833096365
 51
98.91709033855905
  0
LINE
  5
D1
330
3B0
100
AcDbEntity
  8
PATTERN_FILL
  6
Continuous
 62
     7
100
AcDbLine
 10
240.4083369533751
 20
-247.0
 30
0.0
 11
259.5916630466249
 21
-247.0
 31
0.0
  0
LINE
  5
D2
330
3B0
100
AcDbEntity
  8
PATTERN_FILL
  6
Continuous
 62
     7
100
AcDbLine
 10
240.4083369533751
 20
-247.0
 30
0.0
 11
259.5916630466249
 21
-247.0
 31
0.0
  0
LINE
  5
D3
330
3B0
100
AcDbEntity
  8
PATTERN_FILL
  6
Continuous
 62
     7
100
AcDbLine
 10
236.7335008385788
 20
-245.0
 30
0.0
 11
263.2664991614212
 21
-245.0
 31
0.0
  0
LINE
  5
D4
330
3B0
100
AcDbEntity
  8
PATTERN_FILL
  6
Continuous
 62
     7
100
AcDbLine
 10
234.1254921336128
 20
-243.0
 30
0.0
 11
265.8745078663873
 21
-243.0
 31
0.0
  0
LINE
  5
D5
330
3B0
100
AcDbEntity
  8
PATTERN_FILL
  6
Continuous
 62
     7
100
AcDbLine
 10
232.111456180002
 20
-241.0
 30
0.0
 11
267.8885438199981
 21
-241.0
 31
0.0
  0
LINE
  5
D6
330
3B0
100
AcDbEntity
  8
PATTERN_FILL
  6
Continuous
 62
     7
100
AcDbLine
 10
230.5064113103823
 20
-239.0
 30
0.0
 11
269.4935886896177
 21
-239.0
 31
0.0
  0
LINE
  5
D7
330
3B0
100
AcDbEntity
  8
PATTERN_FILL
  6
Continuous
 62
     7
100
AcDbLine
 10
229.2153903091737
 20
-237.0
 30
0.0
 11
270.7846096908263
 21
-237.0
 31
0.0
  0
LINE
  5
D8
330
3B0
100
AcDbEntity
  8
PATTERN_FILL
  6
Continuous
 62
     7
100
AcDbLine
 10
228.1825757707288
 20
-235.0
 30
0.0
 11
271.8174242292712
 21
-235.0
 31
0.0
  0
LINE
  5
D9
330
3B0
100
AcDbEntity
  8
PATTERN_FILL
  6
Continuous
 62
     7
100
AcDbLine
 10
227.3725830020307
 20
-233.0
 30
0.0
 11
272.6274169979694
 21
-233.0
 31
0.0
  0
LINE
  5
DA
330
3B0
100
AcDbEntity
  8
PATTERN_FILL
  6
Continuous
 62
     7
100
AcDbLine
 10
226.7620999227557
 20
-231.0
 30
0.0
 11
273.2379000772443
 21
-231.0
 31
0.0
  0
LINE
  5
DB
330
3B0
100
AcDbEntity
  8
PATTERN_FILL
  6
Continuous
 62
     7
100
AcDbLine
 10
226.3356808676017
 20
-229.0
 30
0.0
 11
273.6643191323983
 21
-229.0
 31
0.0
  0
LINE
  5
DC
330
3B0
100
AcDbEntity
  8
PATTERN_FILL
  6
Continuous
 62
     7
100
AcDbLine
 10
226.0834785137974
 20
-227.0
 30
0.0
 11
273.9165214862027
 21
-227.0
 31
0.0
  0
LINE
  5
DD
330
3B0
100
AcDbEntity
  8
PATTERN_FILL
  6
Continuous
 62
     7
100
AcDbLine
 10
226.0000000000002
 20
-225.0
 30
0.0
 11
273.9999999999998
 21
-225.0
 31
0.0
  0
LINE
  5
DE
330
3B0
100
AcDbEntity
  8
PATTERN_FILL
  6
Continuous
 62
     7
100
AcDbLine
 10
226.0834785137974
 20
-223.0
 30
0.0
 11
273.9165214862027
 21
-223.0
 31
0.0
  0
LINE
  5
DF
330
3B0
100
AcDbEntity
  8
PATTERN_FILL
  6
Continuous
 62
     7
100
AcDbLine
 10
226.3356808676017
 20
-221.0
 30
0.0
 11
273.6643191323983
 21
-221.0
 31
0.0
  0
LINE
  5
E0
330
3B0
100
AcDbEntity
  8
PATTERN_FILL
  6
Continuous
 62
     7
100
AcDbLine
 10
226.7620999227557
 20
-219.0
 30
0.0
 11
273.2379000772443
 21
-219.0
 31
0.0
  0
LINE
  5
E1
330
3B0
100
AcDbEntity
  8
PATTERN_FILL
  6
Continuous
 62
     7
100
AcDbLine
 10
227.3725830020307
 20
-217.0
 30
0.0
 11
272.6274169979694
 21
-217.0
 31
0.0
  0
LINE
  5
E2
330
3B0
100
AcDbEntity
  8
PATTERN_FILL
  6
Continuous
 62
     7
100
AcDbLine
 10
228.1825757707288
 20
-215.0
 30
0.0
 11
271.8174242292712
 21
-215.0
 31
0.0
  0
LINE
  5
E3
330
3B0
100
AcDbEntity
  8
PATTERN_FILL
  6
Continuous
 62
     7
100
AcDbLine
 10
229.2153903091737
 20
-213.0
 30
0.0
 11
270.7846096908263
 21
-213.0
 31
0.0
  0
LINE
  5
E4
330
3B0
100
AcDbEntity
  8
PATTERN_FILL
  6
Continuous
 62
     7
100
AcDbLine
 10
230.5064113103823
 20
-211.0
 30
0.0
 11
269.4935886896177
 21
-211.0
 31
0.0
  0
LINE
  5
E5
330
3B0
100
AcDbEntity
  8
PATTERN_FILL
  6
Continuous
 62
     7
100
AcDbLine
 10
232.111456180002
 20
-209.0
 30
0.0
 11
267.8885438199981
 21
-209.0
 31
0.0
  0
LINE
  5
E6
330
3B0
100
AcDbEntity
  8
PATTERN_FILL
  6
Continuous
 62
     7
100
AcDbLine
 10
234.1254921336128
 20
-207.0
 30
0.0
 11
265.8745078663873
 21
-207.0
 31
0.0
  0
LINE
  5
E7
330
3B0
100
AcDbEntity
  8
PATTERN_FILL
  6
Continuous
 62
     7
100
AcDbLine
 10
236.7335008385788
 20
-205.0
 30
0.0
 11
263.2664991614212
 21
-205.0
 31
0.0
  0
LINE
  5
E8
330
3B0
100
AcDbEntity
  8
PATTERN_FILL
  6
Continuous
 62
     7
100
AcDbLine
 10
240.4083369533751
 20
-203.0
 30
0.0
 11
259.5916630466249
 21
-203.0
 31
0.0
  0
LINE
  5
E9
330
3B0
100
AcDbEntity
  8
PATTERN_FILL
  6
Continuous
 62
     7
100
AcDbLine
 10
272.0
 20
-234.5916630466248
 30
0.0
 11
272.0
 21
-215.4083369533751
 31
0.0
  0
LINE
  5
EA
330
3B0
100
AcDbEntity
  8
PATTERN_FILL
  6
Continuous
 62
     7
100
AcDbLine
 10
272.0
 20
-234.5916630466248
 30
0.0
 11
272.0
 21
-215.4083369533751
 31
0.0
  0
LINE
  5
EB
330
3B0
100
AcDbEntity
  8
PATTERN_FILL
  6
Continuous
 62
     7
100
AcDbLine
 10
270.0
 20
-238.2664991614212
 30
0.0
 11
270.0
 21
-211.7335008385788
 31
0.0
  0
LINE
  5
EC
330
3B0
100
AcDbEntity
  8
PATTERN_FILL
  6
Continuous
 62
     7
100
AcDbLine
 10
268.0
 20
-240.8745078663872
 30
0.0
 11
268.0
 21
-209.1254921336127
 31
0.0
  0
LINE
  5
ED
330
3B0
100
AcDbEntity
  8
PATTERN_FILL
  6
Continuous
 62
     7
100
AcDbLine
 10
266.0
 20
-242.8885438199981
 30
0.0
 11
266.0
 21
-207.1114561800019
 31
0.0
  0
LINE
  5
EE
330
3B0
100
AcDbEntity
  8
PATTERN_FILL
  6
Continuous
 62
     7
100
AcDbLine
 10
264.0
 20
-244.4935886896177
 30
0.0
 11
264.0
 21
-205.5064113103823
 31
0.0
  0
LINE
  5
EF
330
3B0
100
AcDbEntity
  8
PATTERN_FILL
  6
Continuous
 62
     7
100
AcDbLine
 10
262.0
 20
-245.7846096908263
 30
0.0
 11
262.0
 21
-204.2153903091737
 31
0.0
  0
LINE
  5
F0
330
3B0
100
AcDbEntity
  8
PATTERN_FILL
  6
Continuous
 62
     7
100
AcDbLine
 10
260.0
 20
-246.8174242292712
 30
0.0
 11
260.0
 21
-203.1825757707288
 31
0.0
  0
LINE
  5
F1
330
3B0
100
AcDbEntity
  8
PATTERN_FILL
  6
Continuous
 62
     7
100
AcDbLine
 10
258.0
 20
-247.6274169979693
 30
0.0
 11
258.0
 21
-202.3725830020306
 31
0.0
  0
LINE
  5
F2
330
3B0
100
AcDbEntity
  8
PATTERN_FILL
  6
Continuous
 62
     7
100
AcDbLine
 10
256.0
 20
-248.2379000772443
 30
0.0
 11
256.0
 21
-201.7620999227557
 31
0.0
  0
LINE
  5
F3
330
3B0
100
AcDbEntity
  8
PATTERN_FILL
  6
Continuous
 62
     7
100
AcDbLine
 10
254.0
 20
-248.6643191323983
 30
0.0
 11
254.0
 21
-201.3356808676017
 31
0.0
  0
LINE
  5
F4
330
3B0
100
AcDbEntity
  8
PATTERN_FILL
  6
Continuous
 62
     7
100
AcDbLine
 10
252.0
 20
-248.9165214862026
 30
0.0
 11
252.0
 21
-201.0834785137973
 31
0.0
  0
LINE
  5
F5
330
3B0
100
AcDbEntity
  8
PATTERN_FILL
  6
Continuous
 62
     7
100
AcDbLine
 10
250.0
 20
-248.9999999999998
 30
0.0
 11
250.0
 21
-201.0000000000002
 31
0.0
  0
LINE
  5
F6
330
3B0
100
AcDbEntity
  8
PATTERN_FILL
  6
Continuous
 62
     7
100
AcDbLine
 10
248.0
 20
-248.9165214862026
 30
0.0
 11
248.0
 21
-201.0834785137973
 31
0.0
  0
LINE
  5
F7
330
3B0
100
AcDbEntity
  8
PATTERN_FILL
  6
Continuous
 62
     7
100
AcDbLine
 10
246.0
 20
-248.6643191323983
 30
0.0
 11
246.0
 21
-201.3356808676017
 31
0.0
  0
LINE
  5
F8
330
3B0
100
AcDbEntity
  8
PATTERN_FILL
  6
Continuous
 62
     7
100
AcDbLine
 10
244.0
 20
-248.2379000772443
 30
0.0
 11
244.0
 21
-201.7620999227557
 31
0.0
  0
LINE
  5
F9
330
3B0
100
AcDbEntity
  8
PATTERN_FILL
  6
Continuous
 62
     7
100
AcDbLine
 10
242.0
 20
-247.6274169979693
 30
0.0
 11
242.0
 21
-202.3725830020306
 31
0.0
  0
LINE
  5
FA
330
3B0
100
AcDbEntity
  8
PATTERN_FILL
  6
Continuous
 62
     7
100
AcDbLine
 10
240.0
 20
-246.8174242292712
 30
0.0
 11
240.0
 21
-203.1825757707288
 31
0.0
  0
LINE
  5
FB
330
3B0
100
AcDbEntity
  8
PATTERN_FILL
  6
Continuous
 62
     7
100
AcDbLine
 10
238.0
 20
-245.7846096908263
 30
0.0
 11
238.0
 21
-204.2153903091737
 31
0.0
  0
LINE
  5
FC
330
3B0
100
AcDbEntity
  8
PATTERN_FILL
  6
Continuous
 62
     7
100
AcDbLine
 10
236.0
 20
-244.4935886896177
 30
0.0
 11
236.0
 21
-205.5064113103823
 31
0.0
  0
LINE
  5
FD
330
3B0
100
AcDbEntity
  8
PATTERN_FILL
  6
Continuous
 62
     7
100
AcDbLine
 10
234.0
 20
-242.8885438199981
 30
0.0
 11
234.0
 21
-207.1114561800019
 31
0.0
  0
LINE
  5
FE
330
3B0
100
AcDbEntity
  8
PATTERN_FILL
  6
Continuous
 62
     7
100
AcDbLine
 10
232.0
 20
-240.8745078663872
 30
0.0
 11
232.0
 21
-209.1254921336127
 31
0.0
  0
LINE
  5
FF
330
3B0
100
AcDbEntity
  8
PATTERN_FILL
  6
Continuous
 62
     7
100
AcDbLine
 10
230.0
 20
-238.2664991614212
 30
0.0
 11
230.0
 21
-211.7335008385788
 31
0.0
  0
LINE
  5
100
330
3B0
100
AcDbEntity
  8
PATTERN_FILL
  6
Continuous
 62
     7
100
AcDbLine
 10
228.0
 20
-234.5916630466248
 30
0.0
 11
228.0
 21
-215.4083369533751
 31
0.0
  0
LINE
  5
101
330
3B0
100
AcDbEntity
  8
SPEC
  6
Continuous
 62
     7
100
AcDbLine
 10
-659.9999999668347
 20
984.7227049503404
 30
0.0
 11
685.7142856798287
 21
984.7227049503404
 31
0.0
  0
LINE
  5
102
330
3B0
100
AcDbEntity
  8
SPEC
  6
Continuous
 62
     7
100
AcDbLine
 10
-516.6666666665374
 20
954.7227049518477
 30
0.0
 11
685.7142856798287
 21
954.7227049518477
 31
0.0
  0
LINE
  5
103
330
3B0
100
AcDbEntity
  8
SPEC
  6
Continuous
 62
     7
100
AcDbLine
 10
-659.9999999668347
 20
984.7227049503404
 30
0.0
 11
-659.9999999668347
 21
114.9253678511903
 31
0.0
  0
TEXT
  5
104
330
3B0
100
AcDbEntity
  8
SPEC
 62
     7
100
AcDbText
 10
-649.9999999673373
 20
995.8688649497798
 30
0.0
 40
19.4964843740203
  1
仕様
 41
0.7
 11
-649.9999999673373
 21
1015.3653493238
 31
0.0
100
AcDbText
 73
     3
  0
LINE
  5
105
330
3B0
100
AcDbEntity
  8
SPEC
  6
Continuous
 62
     7
100
AcDbLine
 10
-249.9999999999375
 20
984.7227049503404
 30
0.0
 11
-249.9999999999375
 21
114.9253678511903
 31
0.0
  0
LINE
  5
106
330
3B0
100
AcDbEntity
  8
SPEC
  6
Continuous
 62
     7
100
AcDbLine
 10
685.7142856798287
 20
984.7227049503404
 30
0.0
 11
685.7142856798287
 21
114.9253678511903
 31
0.0
  0
LINE
  5
107
330
3B0
100
AcDbEntity
  8
SPEC
  6
Continuous
 62
     7
100
AcDbLine
 10
-516.6666666665374
 20
924.7227049533552
 30
0.0
 11
685.7142856798287
 21
924.7227049533552
 31
0.0
  0
LINE
  5
108
330
3B0
100
AcDbEntity
  8
SPEC
  6
Continuous
 62
     7
100
AcDbLine
 10
-516.6666666665374
 20
894.7227049548628
 30
0.0
 11
685.7142856798287
 21
894.7227049548628
 31
0.0
  0
LINE
  5
109
330
3B0
100
AcDbEntity
  8
SPEC
  6
Continuous
 62
     7
100
AcDbLine
 10
-516.6666666665374
 20
864.7227049563701
 30
0.0
 11
685.7142856798287
 21
864.7227049563701
 31
0.0
  0
LINE
  5
10A
330
3B0
100
AcDbEntity
  8
SPEC
  6
Continuous
 62
     7
100
AcDbLine
 10
-516.6666666665374
 20
834.7227049578778
 30
0.0
 11
685.7142856798287
 21
834.7227049578778
 31
0.0
  0
LINE
  5
10B
330
3B0
100
AcDbEntity
  8
SPEC
  6
Continuous
 62
     7
100
AcDbLine
 10
-516.6666666665374
 20
804.7227049593852
 30
0.0
 11
685.7142856798287
 21
804.7227049593852
 31
0.0
  0
LINE
  5
10C
330
3B0
100
AcDbEntity
  8
SPEC
  6
Continuous
 62
     7
100
AcDbLine
 10
-516.6666666665374
 20
774.7227049608928
 30
0.0
 11
685.7142856798287
 21
774.7227049608928
 31
0.0
  0
LINE
  5
10D
330
3B0
100
AcDbEntity
  8
SPEC
  6
Continuous
 62
     7
100
AcDbLine
 10
-516.6666666665374
 20
744.7227049624002
 30
0.0
 11
685.7142856798287
 21
744.7227049624002
 31
0.0
  0
LINE
  5
10E
330
3B0
100
AcDbEntity
  8
SPEC
  6
Continuous
 62
     7
100
AcDbLine
 10
-516.6666666665374
 20
714.7227049639079
 30
0.0
 11
685.7142856798287
 21
714.7227049639079
 31
0.0
  0
LINE
  5
10F
330
3B0
100
AcDbEntity
  8
SPEC
  6
Continuous
 62
     7
100
AcDbLine
 10
-516.6666666665374
 20
684.7227049654152
 30
0.0
 11
685.7142856798287
 21
684.7227049654152
 31
0.0
  0
LINE
  5
110
330
3B0
100
AcDbEntity
  8
SPEC
  6
Continuous
 62
     7
100
AcDbLine
 10
-516.6666666665374
 20
654.7227049669227
 30
0.0
 11
685.7142856798287
 21
654.7227049669227
 31
0.0
  0
LINE
  5
111
330
3B0
100
AcDbEntity
  8
SPEC
  6
Continuous
 62
     7
100
AcDbLine
 10
-516.6666666665374
 20
624.7227049684302
 30
0.0
 11
685.7142856798287
 21
624.7227049684302
 31
0.0
  0
LINE
  5
112
330
3B0
100
AcDbEntity
  8
SPEC
  6
Continuous
 62
     7
100
AcDbLine
 10
-659.9999999668347
 20
594.7227049699376
 30
0.0
 11
685.7142856798287
 21
594.7227049699376
 31
0.0
  0
LINE
  5
113
330
3B0
100
AcDbEntity
  8
SPEC
  6
Continuous
 62
     7
100
AcDbLine
 10
-516.6666666665374
 20
564.7227049714452
 30
0.0
 11
685.7142856798287
 21
564.7227049714452
 31
0.0
  0
LINE
  5
114
330
3B0
100
AcDbEntity
  8
SPEC
  6
Continuous
 62
     7
100
AcDbLine
 10
-516.6666666665374
 20
534.7227049729528
 30
0.0
 11
685.7142856798287
 21
534.7227049729528
 31
0.0
  0
LINE
  5
115
330
3B0
100
AcDbEntity
  8
SPEC
  6
Continuous
 62
     7
100
AcDbLine
 10
-516.6666666665374
 20
504.7227049744602
 30
0.0
 11
685.7142856798287
 21
504.7227049744602
 31
0.0
  0
LINE
  5
116
330
3B0
100
AcDbEntity
  8
SPEC
  6
Continuous
 62
     7
100
AcDbLine
 10
-516.6666666665374
 20
474.7227049759678
 30
0.0
 11
685.7142856798287
 21
474.7227049759678
 31
0.0
  0
TEXT
  5
117
330
3B0
100
AcDbEntity
  8
SPEC
 62
     7
100
AcDbText
 10
-652.7999999671967
 20
961.0260471729034
 30
0.0
 40
15.16393229166287
  1
システム性能
 41
0.7
 11
-652.7999999671967
 21
976.1899794645664
 31
0.0
100
AcDbText
 73
     3
  0
LINE
  5
118
330
3B0
100
AcDbEntity
  8
SPEC
  6
Continuous
 62
     7
100
AcDbLine
 10
-516.6666666665374
 20
984.7227049503404
 30
0.0
 11
-516.6666666665374
 21
174.7902592767536
 31
0.0
  0
TEXT
  5
119
330
3B0
100
AcDbEntity
  8
SPEC
 62
     7
100
AcDbText
 10
-652.7999999671967
 20
571.0260471924967
 30
0.0
 40
15.16393229166667
  1
受信機
 41
0.7
 11
-652.7999999671967
 21
586.1899794841634
 31
0.0
100
AcDbText
 73
     3
  0
TEXT
  5
11A
330
3B0
100
AcDbEntity
  8
SPEC
 62
     7
100
AcDbText
 10
-652.7999999671967
 20
391.0260472015417
 30
0.0
 40
15.16393229166667
  1
送信機
 41
0.7
 11
-652.7999999671967
 21
406.1899794932084
 31
0.0
100
AcDbText
 73
     3
  0
TEXT
  5
11B
330
3B0
100
AcDbEntity
  8
SPEC
 62
     7
100
AcDbText
 10
-509.4666666668993
 20
961.0260471729034
 30
0.0
 40
15.16393229166287
  1
電波形式
 41
0.7
 11
-509.4666666668993
 21
976.1899794645664
 31
0.0
100
AcDbText
 73
     3
  0
TEXT
  5
11C
330
3B0
100
AcDbEntity
  8
SPEC
 62
     7
100
AcDbText
 10
-509.4666666668993
 20
931.0260471744113
 30
0.0
 40
15.16393229166287
  1
伝送(変調)方式
 41
0.7
 11
-509.4666666668993
 21
946.1899794660741
 31
0.0
100
AcDbText
 73
     3
  0
TEXT
  5
11D
330
3B0
100
AcDbEntity
  8
SPEC
 62
     7
100
AcDbText
 10
-509.4666666668993
 20
901.0260471759188
 30
0.0
 40
15.16393229166287
  1
搬送波周波数
 41
0.7
 11
-509.4666666668993
 21
916.1899794675816
 31
0.0
100
AcDbText
 73
     3
  0
TEXT
  5
11E
330
3B0
100
AcDbEntity
  8
SPEC
 62
     7
100
AcDbText
 10
-509.4666666668993
 20
871.0260471774258
 30
0.0
 40
15.16393229166287
  1
到達距離
 41
0.7
 11
-509.4666666668993
 21
886.1899794690886
 31
0.0
100
AcDbText
 73
     3
  0
TEXT
  5
11F
330
3B0
100
AcDbEntity
  8
SPEC
 62
     7
100
AcDbText
 10
-509.4666666668993
 20
841.0260471789291
 30
0.0
 40
15.16393229166667
  1
空中線電力
 41
0.7
 11
-509.4666666668993
 21
856.1899794705958
 31
0.0
100
AcDbText
 73
     3
  0
TEXT
  5
120
330
3B0
100
AcDbEntity
  8
SPEC
 62
     7
100
AcDbText
 10
-242.8000000002993
 20
961.0260471729034
 30
0.0
 40
15.16393229166287
  1
F1D
 41
0.7
 11
-242.8000000002993
 21
976.1899794645664
 31
0.0
100
AcDbText
 73
     3
  0
TEXT
  5
121
330
3B0
100
AcDbEntity
  8
SPEC
 62
     7
100
AcDbText
 10
-242.8000000002993
 20
931.0260471744113
 30
0.0
 40
15.16393229166287
  1
GFSK(ガウスフィルター・シフトキーイング)
 41
0.7
 11
-242.8000000002993
 21
946.1899794660741
 31
0.0
100
AcDbText
 73
     3
  0
TEXT
  5
122
330
3B0
100
AcDbEntity
  8
SPEC
 62
     7
100
AcDbText
 10
-242.8000000002993
 20
901.0260471759188
 30
0.0
 40
15.16393229166287
  1
2.4GHz帯(2402MHz～2480MHz)
 41
0.7
 11
-242.8000000002993
 21
916.1899794675816
 31
0.0
100
AcDbText
 73
     3
  0
TEXT
  5
123
330
3B0
100
AcDbEntity
  8
SPEC
 62
     7
100
AcDbText
 10
-242.8000000002993
 20
871.0260471774258
 30
0.0
 40
15.16393229166287
  1
約30m
 41
0.7
 11
-242.8000000002993
 21
886.1899794690886
 31
0.0
100
AcDbText
 73
     3
  0
TEXT
  5
124
330
3B0
100
AcDbEntity
  8
SPEC
 62
     7
100
AcDbText
 10
-509.4666666668993
 20
811.0260471804368
 30
0.0
 40
15.16393229166667
  1
レイテンシー
 41
0.7
 11
-509.4666666668993
 21
826.1899794721035
 31
0.0
100
AcDbText
 73
     3
  0
TEXT
  5
125
330
3B0
100
AcDbEntity
  8
SPEC
 62
     7
100
AcDbText
 10
-509.4666666668993
 20
781.0260471819442
 30
0.0
 40
15.16393229166667
  1
THD
 41
0.7
 11
-509.4666666668993
 21
796.1899794736109
 31
0.0
100
AcDbText
 73
     3
  0
TEXT
  5
126
330
3B0
100
AcDbEntity
  8
SPEC
 62
     7
100
AcDbText
 10
-509.4666666668993
 20
751.0260471834518
 30
0.0
 40
15.16393229166667
  1
周波数特性
 41
0.7
 11
-509.4666666668993
 21
766.1899794751185
 31
0.0
100
AcDbText
 73
     3
  0
TEXT
  5
127
330
3B0
100
AcDbEntity
  8
SPEC
 62
     7
100
AcDbText
 10
-509.4666666668993
 20
721.0260471849591
 30
0.0
 40
15.16393229166667
  1
AD-DA変換
 41
0.7
 11
-509.4666666668993
 21
736.1899794766258
 31
0.0
100
AcDbText
 73
     3
  0
TEXT
  5
128
330
3B0
100
AcDbEntity
  8
SPEC
 62
     7
100
AcDbText
 10
-509.4666666668993
 20
691.0260471864666
 30
0.0
 40
15.16393229166667
  1
ダイナミックレンジ(1kHz)
 41
0.7
 11
-509.4666666668993
 21
706.1899794781332
 31
0.0
100
AcDbText
 73
     3
  0
TEXT
  5
129
330
3B0
100
AcDbEntity
  8
SPEC
 62
     7
100
AcDbText
 10
-509.4666666668993
 20
661.0260471879741
 30
0.0
 40
15.16393229166667
  1
SN比
 41
0.7
 11
-509.4666666668993
 21
676.1899794796408
 31
0.0
100
AcDbText
 73
     3
  0
TEXT
  5
12A
330
3B0
100
AcDbEntity
  8
SPEC
 62
     7
100
AcDbText
 10
-509.4666666668993
 20
631.0260471894816
 30
0.0
 40
15.16393229166667
  1
暗号化
 41
0.7
 11
-509.4666666668993
 21
646.1899794811484
 31
0.0
100
AcDbText
 73
     3
  0
TEXT
  5
12B
330
3B0
100
AcDbEntity
  8
SPEC
 62
     7
100
AcDbText
 10
-509.4666666668993
 20
601.0260471909892
 30
0.0
 40
15.16393229166667
  1
同時使用チャンネル数
 41
0.7
 11
-509.4666666668993
 21
616.1899794826559
 31
0.0
100
AcDbText
 73
     3
  0
TEXT
  5
12C
330
3B0
100
AcDbEntity
  8
SPEC
 62
     7
100
AcDbText
 10
-242.8000000002993
 20
841.0260471789291
 30
0.0
 40
15.16393229166667
  1
10mW
 41
0.7
 11
-242.8000000002993
 21
856.1899794705958
 31
0.0
100
AcDbText
 73
     3
  0
TEXT
  5
12D
330
3B0
100
AcDbEntity
  8
SPEC
 62
     7
100
AcDbText
 10
-242.8000000002993
 20
811.0260471804368
 30
0.0
 40
15.16393229166667
  1
2.9ms以下
 41
0.7
 11
-242.8000000002993
 21
826.1899794721035
 31
0.0
100
AcDbText
 73
     3
  0
TEXT
  5
12E
330
3B0
100
AcDbEntity
  8
SPEC
 62
     7
100
AcDbText
 10
-242.8000000002993
 20
781.0260471819442
 30
0.0
 40
15.16393229166667
  1
0.05%%%以下
 41
0.7
 11
-242.8000000002993
 21
796.1899794736109
 31
0.0
100
AcDbText
 73
     3
  0
TEXT
  5
12F
330
3B0
100
AcDbEntity
  8
SPEC
 62
     7
100
AcDbText
 10
-242.8000000002993
 20
751.0260471834518
 30
0.0
 40
15.16393229166667
  1
70Hz～20kHz(+1/-3dB)
 41
0.7
 11
-242.8000000002993
 21
766.1899794751185
 31
0.0
100
AcDbText
 73
     3
  0
TEXT
  5
130
330
3B0
100
AcDbEntity
  8
SPEC
 62
     7
100
AcDbText
 10
-242.8000000002993
 20
721.0260471849591
 30
0.0
 40
15.16393229166667
  1
24bit、48kHz
 41
0.7
 11
-242.8000000002993
 21
736.1899794766258
 31
0.0
100
AcDbText
 73
     3
  0
TEXT
  5
131
330
3B0
100
AcDbEntity
  8
SPEC
 62
     7
100
AcDbText
 10
-242.8000000002993
 20
691.0260471864666
 30
0.0
 40
15.16393229166667
  1
116dB
 41
0.7
 11
-242.8000000002993
 21
706.1899794781332
 31
0.0
100
AcDbText
 73
     3
  0
TEXT
  5
132
330
3B0
100
AcDbEntity
  8
SPEC
 62
     7
100
AcDbText
 10
-242.8000000002993
 20
661.0260471879741
 30
0.0
 40
15.16393229166667
  1
90dB以上(Aウェイト)
 41
0.7
 11
-242.8000000002993
 21
676.1899794796408
 31
0.0
100
AcDbText
 73
     3
  0
TEXT
  5
133
330
3B0
100
AcDbEntity
  8
SPEC
 62
     7
100
AcDbText
 10
-242.8000000002993
 20
631.0260471894816
 30
0.0
 40
15.16393229166667
  1
256ビット AES暗号化
 41
0.7
 11
-242.8000000002993
 21
646.1899794811484
 31
0.0
100
AcDbText
 73
     3
  0
TEXT
  5
134
330
3B0
100
AcDbEntity
  8
SPEC
 62
     7
100
AcDbText
 10
-242.8000000002993
 20
601.0260471909892
 30
0.0
 40
15.16393229166667
  1
4
 41
0.7
 11
-242.8000000002993
 21
616.1899794826559
 31
0.0
100
AcDbText
 73
     3
  0
TEXT
  5
135
330
3B0
100
AcDbEntity
  8
SPEC
 62
     7
100
AcDbText
 10
-509.4666666668993
 20
571.0260471924967
 30
0.0
 40
15.16393229166667
  1
出力数
 41
0.7
 11
-509.4666666668993
 21
586.1899794841634
 31
0.0
100
AcDbText
 73
     3
  0
TEXT
  5
136
330
3B0
100
AcDbEntity
  8
SPEC
 62
     7
100
AcDbText
 10
-509.4666666668993
 20
541.0260471940042
 30
0.0
 40
15.16393229166667
  1
出力形式
 41
0.7
 11
-509.4666666668993
 21
556.1899794856709
 31
0.0
100
AcDbText
 73
     3
  0
TEXT
  5
137
330
3B0
100
AcDbEntity
  8
SPEC
 62
     7
100
AcDbText
 10
-509.4666666668993
 20
511.0260471955116
 30
0.0
 40
15.16393229166667
  1
最大出力
 41
0.7
 11
-509.4666666668993
 21
526.1899794871783
 31
0.0
100
AcDbText
 73
     3
  0
TEXT
  5
138
330
3B0
100
AcDbEntity
  8
SPEC
 62
     7
100
AcDbText
 10
-509.4666666668993
 20
481.0260471970193
 30
0.0
 40
15.16393229166667
  1
電源
 41
0.7
 11
-509.4666666668993
 21
496.189979488686
 31
0.0
100
AcDbText
 73
     3
  0
TEXT
  5
139
330
3B0
100
AcDbEntity
  8
SPEC
 62
     7
100
AcDbText
 10
-509.4666666668993
 20
421.0260472000342
 30
0.0
 40
15.16393229166667
  1
質量
 41
0.7
 11
-509.4666666668993
 21
436.1899794917009
 31
0.0
100
AcDbText
 73
     3
  0
TEXT
  5
13A
330
3B0
100
AcDbEntity
  8
SPEC
 62
     7
100
AcDbText
 10
-242.8000000002994
 20
571.0260471924967
 30
0.0
 40
15.16393229166667
  1
2
 41
0.7
 11
-242.8000000002994
 21
586.1899794841634
 31
0.0
100
AcDbText
 73
     3
  0
TEXT
  5
13B
330
3B0
100
AcDbEntity
  8
SPEC
 62
     7
100
AcDbText
 10
-242.8000000002994
 20
541.0260471940042
 30
0.0
 40
15.16393229166667
  1
XLR(バランス)、標準フォーン(アンバランス)
 41
0.7
 11
-242.8000000002994
 21
556.1899794856709
 31
0.0
100
AcDbText
 73
     3
  0
TEXT
  5
13C
330
3B0
100
AcDbEntity
  8
SPEC
 62
     7
100
AcDbText
 10
-242.8000000002994
 20
511.0260471955116
 30
0.0
 40
15.16393229166667
  1
+15dBu(XLR)、+9dBu(TRS)
 41
0.7
 11
-242.8000000002994
 21
526.1899794871783
 31
0.0
100
AcDbText
 73
     3
  0
TEXT
  5
13D
330
3B0
100
AcDbEntity
  8
SPEC
 62
     7
100
AcDbText
 10
-242.8000000002994
 20
481.0260471970193
 30
0.0
 40
15.16393229166667
  1
DC9V(1300mA)、電源アダプター(AC100V、50/60Hz)
 41
0.7
 11
-242.8000000002994
 21
496.189979488686
 31
0.0
100
AcDbText
 73
     3
  0
TEXT
  5
13E
330
3B0
100
AcDbEntity
  8
SPEC
 62
     7
100
AcDbText
 10
-242.8000000002994
 20
451.0260471985268
 30
0.0
 40
15.16393229166667
  1
200×44×141mm(除突起部)
 41
0.7
 11
-242.8000000002994
 21
466.1899794901934
 31
0.0
100
AcDbText
 73
     3
  0
TEXT
  5
13F
330
3B0
100
AcDbEntity
  8
SPEC
 62
     7
100
AcDbText
 10
-242.8000000002994
 20
421.0260472000342
 30
0.0
 40
15.16393229166667
  1
368g
 41
0.7
 11
-242.8000000002994
 21
436.1899794917009
 31
0.0
100
AcDbText
 73
     3
  0
LINE
  5
140
330
3B0
100
AcDbEntity
  8
SPEC
  6
Continuous
 62
     7
100
AcDbLine
 10
-516.6666666665374
 20
444.7227049774752
 30
0.0
 11
685.7142856798287
 21
444.7227049774752
 31
0.0
  0
LINE
  5
141
330
3B0
100
AcDbEntity
  8
SPEC
  6
Continuous
 62
     7
100
AcDbLine
 10
-659.9999999668347
 20
414.7227049789826
 30
0.0
 11
685.7142856798287
 21
414.7227049789826
 31
0.0
  0
TEXT
  5
142
330
3B0
100
AcDbEntity
  8
SPEC
 62
     7
100
AcDbText
 10
-509.4666666668993
 20
451.0260471985268
 30
0.0
 40
15.16393229166667
  1
寸法(W×H×D)
 41
0.7
 11
-509.4666666668993
 21
466.1899794901934
 31
0.0
100
AcDbText
 73
     3
  0
TEXT
  5
143
330
3B0
100
AcDbEntity
  8
SPEC
 62
     7
100
AcDbText
 10
-509.4666666668993
 20
391.0260472015417
 30
0.0
 40
15.16393229166667
  1
形式
 41
0.7
 11
-509.4666666668993
 21
406.1899794932084
 31
0.0
100
AcDbText
 73
     3
  0
TEXT
  5
144
330
3B0
100
AcDbEntity
  8
SPEC
 62
     7
100
AcDbText
 10
-242.8000000002994
 20
391.0260472015417
 30
0.0
 40
15.16393229166667
  1
ハンドヘルド
 41
0.7
 11
-242.8000000002994
 21
406.1899794932084
 31
0.0
100
AcDbText
 73
     3
  0
LINE
  5
145
330
3B0
100
AcDbEntity
  8
SPEC
  6
Continuous
 62
     7
100
AcDbLine
 10
-516.6666666665374
 20
384.7902592662011
 30
0.0
 11
685.7142856798287
 21
384.7902592662011
 31
0.0
  0
TEXT
  5
146
330
3B0
100
AcDbEntity
  8
SPEC
 62
     7
100
AcDbText
 10
-509.4666666668993
 20
361.0936014887601
 30
0.0
 40
15.16393229166667
  1
アンテナ形式
 41
0.7
 11
-509.4666666668993
 21
376.2575337804269
 31
0.0
100
AcDbText
 73
     3
  0
TEXT
  5
147
330
3B0
100
AcDbEntity
  8
SPEC
 62
     7
100
AcDbText
 10
-242.8000000002994
 20
361.0936014887601
 30
0.0
 40
15.16393229166667
  1
内蔵式アンテナ
 41
0.7
 11
-242.8000000002994
 21
376.2575337804269
 31
0.0
100
AcDbText
 73
     3
  0
TEXT
  5
148
330
3B0
100
AcDbEntity
  8
SPEC
 62
     7
100
AcDbText
 10
-652.7999999671968
 20
151.0936014993127
 30
0.0
 40
15.16393229166667
  1
セット内容
 41
0.7
 11
-652.7999999671968
 21
166.2575337909794
 31
0.0
100
AcDbText
 73
     3
  0
TEXT
  5
149
330
3B0
100
AcDbEntity
  8
SPEC
 62
     7
100
AcDbText
 10
-652.7999999671967
 20
211.0260472105868
 30
0.0
 40
15.16393229166667
  1
マイクロホン
 41
0.7
 11
-652.7999999671967
 21
226.1899795022535
 31
0.0
100
AcDbText
 73
     3
  0
LINE
  5
14A
330
3B0
100
AcDbEntity
  8
SPEC
  6
Continuous
 62
     7
100
AcDbLine
 10
-659.9999999668347
 20
234.7227049880277
 30
0.0
 11
685.7142856798287
 21
234.7227049880277
 31
0.0
  0
LINE
  5
14B
330
3B0
100
AcDbEntity
  8
SPEC
  6
Continuous
 62
     7
100
AcDbLine
 10
-516.6666666665374
 20
354.7902592677086
 30
0.0
 11
685.7142856798287
 21
354.7902592677086
 31
0.0
  0
LINE
  5
14C
330
3B0
100
AcDbEntity
  8
SPEC
  6
Continuous
 62
     7
100
AcDbLine
 10
-516.6666666665374
 20
324.7902592692161
 30
0.0
 11
685.7142856798287
 21
324.7902592692161
 31
0.0
  0
LINE
  5
14D
330
3B0
100
AcDbEntity
  8
SPEC
  6
Continuous
 62
     7
100
AcDbLine
 10
-516.6666666665374
 20
294.8578135564345
 30
0.0
 11
685.7142856798287
 21
294.8578135564345
 31
0.0
  0
LINE
  5
14E
330
3B0
100
AcDbEntity
  8
SPEC
  6
Continuous
 62
     7
100
AcDbLine
 10
-516.6666666665374
 20
264.857813557942
 30
0.0
 11
685.7142856798287
 21
264.857813557942
 31
0.0
  0
TEXT
  5
14F
330
3B0
100
AcDbEntity
  8
SPEC
 62
     7
100
AcDbText
 10
-509.4666666668993
 20
271.1611557789935
 30
0.0
 40
15.16393229166667
  1
寸法(φ×D)
 41
0.7
 11
-509.4666666668993
 21
286.3250880706602
 31
0.0
100
AcDbText
 73
     3
  0
LINE
  5
150
330
3B0
100
AcDbEntity
  8
SPEC
  6
Continuous
 62
     7
100
AcDbLine
 10
-516.6666666665374
 20
204.7902592752461
 30
0.0
 11
685.7142856798287
 21
204.7902592752461
 31
0.0
  0
LINE
  5
151
330
3B0
100
AcDbEntity
  8
SPEC
  6
Continuous
 62
     7
100
AcDbLine
 10
-659.9999999668347
 20
174.7902592767536
 30
0.0
 11
685.7142856798287
 21
174.7902592767536
 31
0.0
  0
TEXT
  5
152
330
3B0
100
AcDbEntity
  8
SPEC
 62
     7
100
AcDbText
 10
-509.4666666668993
 20
331.0936014902676
 30
0.0
 40
15.16393229166667
  1
電源
 41
0.7
 11
-509.4666666668993
 21
346.2575337819343
 31
0.0
100
AcDbText
 73
     3
  0
TEXT
  5
153
330
3B0
100
AcDbEntity
  8
SPEC
 62
     7
100
AcDbText
 10
-509.4666666668993
 20
301.0936014917751
 30
0.0
 40
15.16393229166667
  1
電池寿命
 41
0.7
 11
-509.4666666668993
 21
316.2575337834419
 31
0.0
100
AcDbText
 73
     3
  0
TEXT
  5
154
330
3B0
100
AcDbEntity
  8
SPEC
 62
     7
100
AcDbText
 10
-509.4666666668993
 20
241.1611557805012
 30
0.0
 40
15.16393229166667
  1
質量
 41
0.7
 11
-509.4666666668993
 21
256.3250880721678
 31
0.0
100
AcDbText
 73
     3
  0
TEXT
  5
155
330
3B0
100
AcDbEntity
  8
SPEC
 62
     7
100
AcDbText
 10
-242.8000000002994
 20
331.0936014902676
 30
0.0
 40
15.16393229166667
  1
単3形アルカリ乾電池×2
 41
0.7
 11
-242.8000000002994
 21
346.2575337819343
 31
0.0
100
AcDbText
 73
     3
  0
TEXT
  5
156
330
3B0
100
AcDbEntity
  8
SPEC
 62
     7
100
AcDbText
 10
-242.8000000002994
 20
301.0936014917751
 30
0.0
 40
15.16393229166667
  1
約12時間 ※使用環境により異なる
 41
0.7
 11
-242.8000000002994
 21
316.2575337834419
 31
0.0
100
AcDbText
 73
     3
  0
TEXT
  5
157
330
3B0
100
AcDbEntity
  8
SPEC
 62
     7
100
AcDbText
 10
-242.8000000002994
 20
271.1611557789935
 30
0.0
 40
15.16393229166667
  1
51×250mm(除突起部)
 41
0.7
 11
-242.8000000002994
 21
286.3250880706602
 31
0.0
100
AcDbText
 73
     3
  0
TEXT
  5
158
330
3B0
100
AcDbEntity
  8
SPEC
 62
     7
100
AcDbText
 10
-242.8000000002994
 20
241.1611557805012
 30
0.0
 40
15.16393229166667
  1
248g
 41
0.7
 11
-242.8000000002994
 21
256.3250880721678
 31
0.0
100
AcDbText
 73
     3
  0
TEXT
  5
159
330
3B0
100
AcDbEntity
  8
SPEC
 62
     7
100
AcDbText
 10
-509.4666666668993
 20
211.0260472105868
 30
0.0
 40
15.16393229166667
  1
形式
 41
0.7
 11
-509.4666666668993
 21
226.1899795022535
 31
0.0
100
AcDbText
 73
     3
  0
TEXT
  5
15A
330
3B0
100
AcDbEntity
  8
SPEC
 62
     7
100
AcDbText
 10
-509.4666666668993
 20
181.0936014978052
 30
0.0
 40
15.16393229166667
  1
指向特性
 41
0.7
 11
-509.4666666668993
 21
196.2575337894719
 31
0.0
100
AcDbText
 73
     3
  0
TEXT
  5
15B
330
3B0
100
AcDbEntity
  8
SPEC
 62
     7
100
AcDbText
 10
-242.8000000002994
 20
211.0260472105868
 30
0.0
 40
15.16393229166667
  1
ダイナミック型
 41
0.7
 11
-242.8000000002994
 21
226.1899795022535
 31
0.0
100
AcDbText
 73
     3
  0
TEXT
  5
15C
330
3B0
100
AcDbEntity
  8
SPEC
 62
     7
100
AcDbText
 10
-242.8000000002994
 20
181.0936014978052
 30
0.0
 40
15.16393229166667
  1
スーパーカーディオイド
 41
0.7
 11
-242.8000000002994
 21
196.2575337894719
 31
0.0
100
AcDbText
 73
     3
  0
TEXT
  5
15D
330
3B0
100
AcDbEntity
  8
SPEC
 62
     7
100
AcDbText
 10
-242.8000000002993
 20
151.0936014993152
 30
0.0
 40
15.16393229166667
  1
受信機、ハンドヘルド型送信機、マイクホルダー、単3形アルカリ乾電池×2、電源アダプター、
 41
0.7
 11
-242.8000000002993
 21
166.2575337909819
 31
0.0
100
AcDbText
 73
     3
  0
LINE
  5
15E
330
3B0
100
AcDbEntity
  8
SPEC
  6
Continuous
 62
     7
100
AcDbLine
 10
-659.9999999668347
 20
114.9253678511903
 30
0.0
 11
685.7142856798287
 21
114.9253678511903
 31
0.0
  0
TEXT
  5
15F
330
3B0
100
AcDbEntity
  8
SPEC
 62
     7
100
AcDbText
 10
-242.8000000002993
 20
121.1611557865335
 30
0.0
 40
15.16393229166667
  1
和文取扱説明書
 41
0.7
 11
-242.8000000002993
 21
136.3250880782002
 31
0.0
100
AcDbText
 73
     3
  0
TEXT
  5
160
330
3B0
100
AcDbEntity
  8
DIMNSIONS
 62
     7
100
AcDbText
 10
-159.99999999196
 20
-917.1213749540918
 30
0.0
 40
19.4964843740203
  1
(単位：mm)
 41
0.7
 11
-159.99999999196
 21
-897.6248905800716
 31
0.0
100
AcDbText
 73
     3
  0
LINE
  5
161
330
3B0
100
AcDbEntity
  8
DIMNSIONS
  6
Continuous
 62
     7
100
AcDbLine
 10
-350.0
 20
-458.1
 30
0.0
 11
-350.0
 21
-495.5
 31
0.0
  0
LINE
  5
162
330
3B0
100
AcDbEntity
  8
DIMNSIONS
  6
Continuous
 62
     7
100
AcDbLine
 10
-150.0
 20
-458.1
 30
0.0
 11
-150.0
 21
-495.5
 31
0.0
  0
LINE
  5
163
330
3B0
100
AcDbEntity
  8
DIMNSIONS
  6
Continuous
 62
     7
100
AcDbLine
 10
-350.0
 20
-487.5
 30
0.0
 11
-150.0
 21
-487.5
 31
0.0
  0
LWPOLYLINE
  5
164
330
3B0
100
AcDbEntity
  8
DIMNSIONS
  6
Continuous
 62
     7
100
AcDbPolyline
 90
        3
 70
   128
 43
0.0
 10
-334.0009765625
 20
-491.7869254097647
 10
-350.0
 20
-487.5
 10
-334.0009765625
 20
-483.2130745902353
  0
LWPOLYLINE
  5
169
330
3B0
100
AcDbEntity
  8
DIMNSIONS
  6
Continuous
 62
     7
100
AcDbPolyline
 90
        3
 70
   128
 43
0.0
 10
-165.9990234375
 20
-483.2130745902353
 10
-150.0
 20
-487.5
 10
-165.9990234375
 20
-491.7869254097647
  0
TEXT
  5
16E
330
3B0
100
AcDbEntity
  8
DIMNSIONS
 62
     7
100
AcDbText
 10
-271.1666666666667
 20
-479.5488888888889
 30
0.0
 40
21.66276041666666
  1
200
 41
0.7
 11
-271.1666666666667
 21
-457.8861284722221
 31
0.0
100
AcDbText
 73
     3
  0
LINE
  5
16F
330
3B0
100
AcDbEntity
  8
DIMNSIONS
  6
Continuous
 62
     7
100
AcDbLine
 10
-349.95
 20
-450.0
 30
0.0
 11
-395.5
 21
-450.0
 31
0.0
  0
LINE
  5
170
330
3B0
100
AcDbEntity
  8
DIMNSIONS
  6
Continuous
 62
     7
100
AcDbLine
 10
-359.6
 20
-406.0
 30
0.0
 11
-395.5
 21
-406.0
 31
0.0
  0
LINE
  5
171
330
3B0
100
AcDbEntity
  8
DIMNSIONS
  6
Continuous
 62
     7
100
AcDbLine
 10
-387.5
 20
-450.0
 30
0.0
 11
-387.5
 21
-406.0
 31
0.0
  0
LWPOLYLINE
  5
172
330
3B0
100
AcDbEntity
  8
DIMNSIONS
  6
Continuous
 62
     7
100
AcDbPolyline
 90
        3
 70
   128
 43
0.0
 10
-383.2130745902353
 20
-434.0009765625
 10
-387.5
 20
-450.0
 10
-391.7869254097647
 20
-434.0009765625
  0
LWPOLYLINE
  5
177
330
3B0
100
AcDbEntity
  8
DIMNSIONS
  6
Continuous
 62
     7
100
AcDbPolyline
 90
        3
 70
   128
 43
0.0
 10
-391.7869254097647
 20
-421.9990234375
 10
-387.5
 20
-406.0
 10
-383.2130745902353
 20
-421.9990234375
  0
TEXT
  5
17C
330
3B0
100
AcDbEntity
  8
DIMNSIONS
 62
     7
100
AcDbText
 10
-399.4511111111111
 20
-456.2222222222222
 30
0.0
 40
21.66276041666666
  1
44.0
 50
90.0
 41
0.7
 11
-421.1138715277778
 21
-456.2222222222222
 31
0.0
100
AcDbText
 73
     3
  0
LINE
  5
17D
330
3B0
100
AcDbEntity
  8
DIMNSIONS
  6
Continuous
 62
     7
100
AcDbLine
 10
-359.6
 20
-209.5000000000015
 30
0.0
 11
-395.5
 21
-209.5000000000015
 31
0.0
  0
LINE
  5
17E
330
3B0
100
AcDbEntity
  8
DIMNSIONS
  6
Continuous
 62
     7
100
AcDbLine
 10
-336.6
 20
-196.5000000000014
 30
0.0
 11
-395.5
 21
-196.5000000000014
 31
0.0
  0
LINE
  5
17F
330
3B0
100
AcDbEntity
  8
DIMNSIONS
  6
Continuous
 62
     7
100
AcDbLine
 10
-387.5
 20
-196.5000000000014
 30
0.0
 11
-387.5
 21
-209.5000000000015
 31
0.0
  0
LINE
  5
180
330
3B0
100
AcDbEntity
  8
DIMNSIONS
  6
Continuous
 62
     7
100
AcDbLine
 10
-387.5
 20
-209.5000000000015
 30
0.0
 11
-387.5
 21
-237.5000000000015
 31
0.0
  0
LWPOLYLINE
  5
181
330
3B0
100
AcDbEntity
  8
DIMNSIONS
  6
Continuous
 62
     7
100
AcDbPolyline
 90
        3
 70
   128
 43
0.0
 10
-391.7869254097647
 20
-225.4990234375015
 10
-387.5
 20
-209.5000000000015
 10
-383.2130745902353
 20
-225.4990234375015
  0
LINE
  5
186
330
3B0
100
AcDbEntity
  8
DIMNSIONS
  6
Continuous
 62
     7
100
AcDbLine
 10
-387.5
 20
-196.5000000000014
 30
0.0
 11
-387.5
 21
-168.5000000000015
 31
0.0
  0
LWPOLYLINE
  5
187
330
3B0
100
AcDbEntity
  8
DIMNSIONS
  6
Continuous
 62
     7
100
AcDbPolyline
 90
        3
 70
   128
 43
0.0
 10
-383.2130745902353
 20
-180.5009765625015
 10
-387.5
 20
-196.5000000000014
 10
-391.7869254097647
 20
-180.5009765625015
  0
TEXT
  5
18C
330
3B0
100
AcDbEntity
  8
DIMNSIONS
 62
     7
100
AcDbText
 10
-399.4511111111111
 20
-231.2222222222237
 30
0.0
 40
21.66276041666666
  1
13.0
 50
90.0
 41
0.7
 11
-421.1138715277778
 21
-231.2222222222237
 31
0.0
100
AcDbText
 73
     3
  0
LINE
  5
18D
330
3B0
100
AcDbEntity
  8
DIMNSIONS
  6
Continuous
 62
     7
100
AcDbLine
 10
-259.6
 20
-350.0
 30
0.0
 11
-395.5
 21
-350.0
 31
0.0
  0
LINE
  5
18E
330
3B0
100
AcDbEntity
  8
DIMNSIONS
  6
Continuous
 62
     7
100
AcDbLine
 10
-227.6
 20
-363.5000000000015
 30
0.0
 11
-395.5
 21
-363.5000000000015
 31
0.0
  0
LINE
  5
18F
330
3B0
100
AcDbEntity
  8
DIMNSIONS
  6
Continuous
 62
     7
100
AcDbLine
 10
-387.5
 20
-363.5000000000015
 30
0.0
 11
-387.5
 21
-350.0
 31
0.0
  0
LINE
  5
190
330
3B0
100
AcDbEntity
  8
DIMNSIONS
  6
Continuous
 62
     7
100
AcDbLine
 10
-387.5
 20
-350.0
 30
0.0
 11
-387.5
 21
-322.0
 31
0.0
  0
LWPOLYLINE
  5
191
330
3B0
100
AcDbEntity
  8
DIMNSIONS
  6
Continuous
 62
     7
100
AcDbPolyline
 90
        3
 70
   128
 43
0.0
 10
-383.2130745902353
 20
-334.0009765625
 10
-387.5
 20
-350.0
 10
-391.7869254097647
 20
-334.0009765625
  0
LINE
  5
196
330
3B0
100
AcDbEntity
  8
DIMNSIONS
  6
Continuous
 62
     7
100
AcDbLine
 10
-387.5
 20
-363.5000000000015
 30
0.0
 11
-387.5
 21
-391.5000000000016
 31
0.0
  0
LWPOLYLINE
  5
197
330
3B0
100
AcDbEntity
  8
DIMNSIONS
  6
Continuous
 62
     7
100
AcDbPolyline
 90
        3
 70
   128
 43
0.0
 10
-391.7869254097647
 20
-379.4990234375015
 10
-387.5
 20
-363.5000000000015
 10
-383.2130745902353
 20
-379.4990234375015
  0
TEXT
  5
19C
330
3B0
100
AcDbEntity
  8
DIMNSIONS
 62
     7
100
AcDbText
 10
-399.4511111111111
 20
-384.972222222223
 30
0.0
 40
21.66276041666666
  1
13.5
 50
90.0
 41
0.7
 11
-421.1138715277778
 21
-384.972222222223
 31
0.0
100
AcDbText
 73
     3
  0
LINE
  5
19D
330
3B0
100
AcDbEntity
  8
DIMNSIONS
  6
Continuous
 62
     7
100
AcDbLine
 10
-259.6
 20
-350.0
 30
0.0
 11
-395.5
 21
-350.0
 31
0.0
  0
LINE
  5
19E
330
3B0
100
AcDbEntity
  8
DIMNSIONS
  6
Continuous
 62
     7
100
AcDbLine
 10
-359.6
 20
-209.5000000000015
 30
0.0
 11
-395.5
 21
-209.5000000000015
 31
0.0
  0
LINE
  5
19F
330
3B0
100
AcDbEntity
  8
DIMNSIONS
  6
Continuous
 62
     7
100
AcDbLine
 10
-387.5
 20
-350.0
 30
0.0
 11
-387.5
 21
-209.5000000000015
 31
0.0
  0
LWPOLYLINE
  5
1A0
330
3B0
100
AcDbEntity
  8
DIMNSIONS
  6
Continuous
 62
     7
100
AcDbPolyline
 90
        3
 70
   128
 43
0.0
 10
-383.2130745902353
 20
-334.0009765625
 10
-387.5
 20
-350.0
 10
-391.7869254097647
 20
-334.0009765625
  0
LWPOLYLINE
  5
1A5
330
3B0
100
AcDbEntity
  8
DIMNSIONS
  6
Continuous
 62
     7
100
AcDbPolyline
 90
        3
 70
   128
 43
0.0
 10
-391.7869254097647
 20
-225.4990234375015
 10
-387.5
 20
-209.5000000000015
 10
-383.2130745902353
 20
-225.4990234375015
  0
TEXT
  5
1AA
330
3B0
100
AcDbEntity
  8
DIMNSIONS
 62
     7
100
AcDbText
 10
-395.4511111111111
 20
-300.9166666666674
 30
0.0
 40
21.66276041666666
  1
141
 50
90.0
 41
0.7
 11
-417.1138715277778
 21
-300.9166666666674
 31
0.0
100
AcDbText
 73
     3
  0
LINE
  5
1AB
330
3B0
100
AcDbEntity
  8
DIMNSIONS
  6
Continuous
 62
     7
100
AcDbLine
 10
271.2172825056148
 20
-548.3551449962567
 30
0.0
 11
287.4999999999999
 21
-537.5
 31
0.0
  0
LWPOLYLINE
  5
1AC
330
3B0
100
AcDbEntity
  8
DIMNSIONS
  6
Continuous
 62
     7
100
AcDbPolyline
 90
        3
 70
   128
 43
0.0
 10
286.9700194968707
 20
-543.2367704782209
 10
271.2172825056148
 20
-548.3551449962567
 10
282.3003656601594
 20
-536.0461341419269
  0
LINE
  5
1B1
330
3B0
100
AcDbEntity
  8
DIMNSIONS
  6
Continuous
 62
     7
100
AcDbLine
 10
287.4999999999999
 20
-537.5
 30
0.0
 11
303.4999999999999
 21
-537.5
 31
0.0
  0
TEXT
  5
1B2
330
3B0
100
AcDbEntity
  8
DIMNSIONS
 62
     7
100
AcDbText
 10
303.4999999999999
 20
-547.6599999999998
 30
0.0
 40
21.66276041666666
  1
φ51.0
 41
0.7
 11
303.4999999999999
 21
-525.9972395833332
 31
0.0
100
AcDbText
 73
     3
  0
LINE
  5
1B3
330
3B0
100
AcDbEntity
  8
DIMNSIONS
  6
Continuous
 62
     7
100
AcDbLine
 10
224.4
 20
-525.0
 30
0.0
 11
204.5
 21
-525.0
 31
0.0
  0
LINE
  5
1B4
330
3B0
100
AcDbEntity
  8
DIMNSIONS
  6
Continuous
 62
     7
100
AcDbLine
 10
218.55
 20
-338.5
 30
0.0
 11
204.5
 21
-338.5
 31
0.0
  0
LINE
  5
1B5
330
3B0
100
AcDbEntity
  8
DIMNSIONS
  6
Continuous
 62
     7
100
AcDbLine
 10
212.5
 20
-525.0
 30
0.0
 11
212.5
 21
-338.5
 31
0.0
  0
LWPOLYLINE
  5
1B6
330
3B0
100
AcDbEntity
  8
DIMNSIONS
  6
Continuous
 62
     7
100
AcDbPolyline
 90
        3
 70
   128
 43
0.0
 10
216.7869254097647
 20
-509.0009765625
 10
212.5
 20
-525.0
 10
208.2130745902353
 20
-509.0009765625
  0
LWPOLYLINE
  5
1BB
330
3B0
100
AcDbEntity
  8
DIMNSIONS
  6
Continuous
 62
     7
100
AcDbPolyline
 90
        3
 70
   128
 43
0.0
 10
208.2130745902353
 20
-354.4990234375
 10
212.5
 20
-338.5
 10
216.7869254097647
 20
-354.4990234375
  0
TEXT
  5
1C0
330
3B0
100
AcDbEntity
  8
DIMNSIONS
 62
     7
100
AcDbText
 10
204.5488888888888
 20
-452.9166666666666
 30
0.0
 40
21.66276041666666
  1
187
 50
90.0
 41
0.7
 11
182.8861284722221
 21
-452.9166666666666
 31
0.0
100
AcDbText
 73
     3
  0
LINE
  5
1C1
330
3B0
100
AcDbEntity
  8
DIMNSIONS
  6
Continuous
 62
     7
100
AcDbLine
 10
227.9
 20
-275.0
 30
0.0
 11
167.0
 21
-275.0
 31
0.0
  0
LINE
  5
1C2
330
3B0
100
AcDbEntity
  8
DIMNSIONS
  6
Continuous
 62
     7
100
AcDbLine
 10
224.4
 20
-525.0
 30
0.0
 11
167.0
 21
-525.0
 31
0.0
  0
LINE
  5
1C3
330
3B0
100
AcDbEntity
  8
DIMNSIONS
  6
Continuous
 62
     7
100
AcDbLine
 10
175.0
 20
-275.0
 30
0.0
 11
175.0
 21
-525.0
 31
0.0
  0
LWPOLYLINE
  5
1C4
330
3B0
100
AcDbEntity
  8
DIMNSIONS
  6
Continuous
 62
     7
100
AcDbPolyline
 90
        3
 70
   128
 43
0.0
 10
170.7130745902353
 20
-290.9990234375
 10
175.0
 20
-275.0
 10
179.2869254097646
 20
-290.9990234375
  0
LWPOLYLINE
  5
1C9
330
3B0
100
AcDbEntity
  8
DIMNSIONS
  6
Continuous
 62
     7
100
AcDbPolyline
 90
        3
 70
   128
 43
0.0
 10
179.2869254097646
 20
-509.0009765625
 10
175.0
 20
-525.0
 10
170.7130745902353
 20
-509.0009765625
  0
TEXT
  5
1CE
330
3B0
100
AcDbEntity
  8
DIMNSIONS
 62
     7
100
AcDbText
 10
167.0488888888888
 20
-421.1666666666666
 30
0.0
 40
21.66276041666666
  1
250
 50
90.0
 41
0.7
 11
145.3861284722222
 21
-421.1666666666666
 31
0.0
100
AcDbText
 73
     3
  0
LINE
  5
1CF
330
3B0
100
AcDbEntity
  8
DIMNSIONS
  6
Continuous
 62
     7
100
AcDbLine
 10
-359.6
 20
-448.5
 30
0.0
 11
-370.5
 21
-448.5
 31
0.0
  0
LINE
  5
1D0
330
3B0
100
AcDbEntity
  8
DIMNSIONS
  6
Continuous
 62
     7
100
AcDbLine
 10
-349.95
 20
-450.0
 30
0.0
 11
-370.5
 21
-450.0
 31
0.0
  0
LINE
  5
1D1
330
3B0
100
AcDbEntity
  8
DIMNSIONS
  6
Continuous
 62
     7
100
AcDbLine
 10
-362.5
 20
-450.0
 30
0.0
 11
-362.5
 21
-448.5
 31
0.0
  0
LINE
  5
1D2
330
3B0
100
AcDbEntity
  8
DIMNSIONS
  6
Continuous
 62
     7
100
AcDbLine
 10
-362.5
 20
-448.5
 30
0.0
 11
-362.5
 21
-420.5
 31
0.0
  0
LWPOLYLINE
  5
1D3
330
3B0
100
AcDbEntity
  8
DIMNSIONS
  6
Continuous
 62
     7
100
AcDbPolyline
 90
        3
 70
   128
 43
0.0
 10
-358.2130745902353
 20
-432.5009765625
 10
-362.5
 20
-448.5
 10
-366.7869254097647
 20
-432.5009765625
  0
LINE
  5
1D8
330
3B0
100
AcDbEntity
  8
DIMNSIONS
  6
Continuous
 62
     7
100
AcDbLine
 10
-362.5
 20
-450.0
 30
0.0
 11
-362.5
 21
-504.8333333333332
 31
0.0
  0
LWPOLYLINE
  5
1D9
330
3B0
100
AcDbEntity
  8
DIMNSIONS
  6
Continuous
 62
     7
100
AcDbPolyline
 90
        3
 70
   128
 43
0.0
 10
-366.7869254097647
 20
-465.9990234374999
 10
-362.5
 20
-450.0
 10
-358.2130745902353
 20
-465.9990234374999
  0
TEXT
  5
1DE
330
3B0
100
AcDbEntity
  8
DIMNSIONS
 62
     7
100
AcDbText
 10
-370.4511111111111
 20
-504.8333333333332
 30
0.0
 40
21.66276041666666
  1
1.5
 50
90.0
 41
0.7
 11
-392.1138715277778
 21
-504.8333333333332
 31
0.0
100
AcDbText
 73
     3
  0
TEXT
  5
1DF
330
3B0
100
AcDbEntity
  8
DATA
 62
     7
100
AcDbText
 10
-699.9999999648249
 20
-952.2670727301036
 30
0.0
 40
15.16393229090468
  1
●仕様及び外観は予告なく変更されることがあります。 
 41
0.7
 11
-699.9999999648249
 21
-937.103140439199
 31
0.0
100
AcDbText
 73
     3
  0
TEXT
  5
1E0
330
3B0
100
AcDbEntity
  8
DATA
 62
     7
100
AcDbText
 10
-699.9999999648249
 20
-972.0226282846667
 30
0.0
 40
15.16393229090468
  1
　また、同一商品でも若干の個体差があることがあります。ご了承ください。
 41
0.7
 11
-699.9999999648249
 21
-956.858695993762
 31
0.0
100
AcDbText
 73
     3
  0
TEXT
  5
1E1
330
3B0
100
AcDbEntity
  8
DATA
 62
     7
100
AcDbText
 10
399.9999999798999
 20
-868.2301749565484
 30
0.0
 40
19.4964843740203
  1
AKG
 41
0.7
 11
399.9999999798999
 21
-848.733690582528
 31
0.0
100
AcDbText
 73
     3
  0
LINE
  5
1E2
330
3B0
100
AcDbEntity
  8
DATA
  6
Continuous
 62
     7
100
AcDbLine
 10
-350.0
 20
-344.5485253580792
 30
0.0
 11
-350.0
 21
-209.5000000000015
 31
0.0
  0
LINE
  5
1E3
330
3B0
100
AcDbEntity
  8
DATA
  6
Continuous
 62
     7
100
AcDbLine
 10
-150.0
 20
-209.5000000000015
 30
0.0
 11
-150.0
 21
-344.5485253580792
 31
0.0
  0
LINE
  5
1E4
330
3B0
100
AcDbEntity
  8
DATA
  6
Continuous
 62
     7
100
AcDbLine
 10
-350.0
 20
-209.5000000000015
 30
0.0
 11
-150.0
 21
-209.5000000000015
 31
0.0
  0
ARC
  5
1E5
330
3B0
100
AcDbEntity
  8
DATA
  6
Continuous
 62
     7
100
AcDbCircle
 10
-250.0
 20
9650.249999999999
 30
0.0
 40
10000.25
100
AcDbArc
 50
269.4554232252129
 51
270.5445767747872
  0
LINE
  5
1E6
330
3B0
100
AcDbEntity
  8
DATA
  6
Continuous
 62
     7
100
AcDbLine
 10
-218.0
 20
-363.5000000000015
 30
0.0
 11
-192.0
 21
-363.5000000000015
 31
0.0
  0
LINE
  5
1E7
330
3B0
100
AcDbEntity
  8
DATA
  6
Continuous
 62
     7
100
AcDbLine
 10
-218.25
 20
-352.0000000000016
 30
0.0
 11
-191.75
 21
-352.0000000000016
 31
0.0
  0
LINE
  5
1E8
330
3B0
100
AcDbEntity
  8
DATA
  6
Continuous
 62
     7
100
AcDbLine
 10
-218.25
 20
-352.0000000000016
 30
0.0
 11
-218.0
 21
-363.5000000000015
 31
0.0
  0
LINE
  5
1E9
330
3B0
100
AcDbEntity
  8
DATA
  6
Continuous
 62
     7
100
AcDbLine
 10
-192.0
 20
-363.5000000000015
 30
0.0
 11
-191.75
 21
-352.0000000000016
 31
0.0
  0
LINE
  5
1EA
330
3B0
100
AcDbEntity
  8
DATA
  6
Continuous
 62
     7
100
AcDbLine
 10
-207.5
 20
-352.0000000000016
 30
0.0
 11
-207.5
 21
-349.9096893499664
 31
0.0
  0
LINE
  5
1EB
330
3B0
100
AcDbEntity
  8
DATA
  6
Continuous
 62
     7
100
AcDbLine
 10
-202.5
 20
-352.0000000000016
 30
0.0
 11
-202.5
 21
-349.8871896839501
 31
0.0
  0
LINE
  5
1EC
330
3B0
100
AcDbEntity
  8
DATA
  6
Continuous
 62
     7
100
AcDbLine
 10
-327.0
 20
-196.5000000000014
 30
0.0
 11
-318.0
 21
-196.5000000000014
 31
0.0
  0
LWPOLYLINE
  5
1ED
330
3B0
100
AcDbEntity
  8
DATA
  6
Continuous
 62
     7
100
AcDbPolyline
 90
        4
 70
   129
 43
0.0
 10
-350.0
 20
-406.0
 10
-150.0
 20
-406.0
 10
-150.0
 20
-448.5
 10
-350.0
 20
-448.5
  0
LWPOLYLINE
  5
1F3
330
3B0
100
AcDbEntity
  8
DATA
  6
Continuous
 62
     7
100
AcDbPolyline
 90
        4
 70
   129
 43
0.0
 10
-125.0
 20
-406.0
 10
15.5
 20
-406.0
 10
15.5
 20
-448.5
 10
-125.0
 20
-448.5
  0
ARC
  5
1F9
330
3B0
100
AcDbEntity
  8
DATA
  6
Continuous
 62
     7
100
AcDbCircle
 10
-344.9999999999994
 20
-344.5485253580792
 30
0.0
 40
5.000000000000568
100
AcDbArc
 50
180.0
 51
269.4554232252063
  0
ARC
  5
1FA
330
3B0
100
AcDbEntity
  8
DATA
  6
Continuous
 62
     7
100
AcDbCircle
 10
-155.0000000000006
 20
-344.5485253580792
 30
0.0
 40
5.000000000000579
100
AcDbArc
 50
270.5445767747937
 51
0.0
  0
LINE
  5
1FB
330
3B0
100
AcDbEntity
  8
DATA
  6
Continuous
 62
     7
100
AcDbLine
 10
-319.75
 20
-448.5
 30
0.0
 11
-319.75
 21
-406.0
 31
0.0
  0
LINE
  5
1FC
330
3B0
100
AcDbEntity
  8
DATA
  6
Continuous
 62
     7
100
AcDbLine
 10
-180.25
 20
-406.0
 30
0.0
 11
-180.25
 21
-448.5
 31
0.0
  0
CIRCLE
  5
1FD
330
3B0
100
AcDbEntity
  8
DATA
  6
Continuous
 62
     7
100
AcDbCircle
 10
-205.0
 20
-427.2499999999999
 30
0.0
 40
13.25
  0
CIRCLE
  5
1FE
330
3B0
100
AcDbEntity
  8
DATA
  6
Continuous
 62
     7
100
AcDbCircle
 10
-205.0
 20
-427.2499999999999
 30
0.0
 40
13.0
  0
CIRCLE
  5
1FF
330
3B0
100
AcDbEntity
  8
DATA
  6
Continuous
 62
     7
100
AcDbCircle
 10
-213.5
 20
-440.805441711726
 30
0.0
 40
1.0
  0
CIRCLE
  5
200
330
3B0
100
AcDbEntity
  8
DATA
  6
Continuous
 62
     7
100
AcDbCircle
 10
-211.1093750000022
 20
-436.9929737303063
 30
0.0
 40
1.0
  0
CIRCLE
  5
201
330
3B0
100
AcDbEntity
  8
DATA
  6
Continuous
 62
     7
100
AcDbCircle
 10
-196.5
 20
-440.805441711726
 30
0.0
 40
1.0
  0
TEXT
  5
202
330
3B0
100
AcDbEntity
  8
DATA
 62
     7
100
AcDbText
 10
-168.4543266849019
 20
-445.0523126477023
 30
0.0
 40
4.061767578124999
  1
DMS100
 41
0.7
 11
-168.4543266849019
 21
-440.9905450695774
 31
0.0
100
AcDbText
 73
     3
  0
LINE
  5
203
330
3B0
100
AcDbEntity
  8
DATA
  6
Continuous
 62
     7
100
AcDbLine
 10
-340.35
 20
-450.0
 30
0.0
 11
-329.35
 21
-450.0
 31
0.0
  0
LINE
  5
204
330
3B0
100
AcDbEntity
  8
DATA
  6
Continuous
 62
     7
100
AcDbLine
 10
-340.35
 20
-450.0
 30
0.0
 11
-341.2
 21
-448.5
 31
0.0
  0
LINE
  5
205
330
3B0
100
AcDbEntity
  8
DATA
  6
Continuous
 62
     7
100
AcDbLine
 10
-329.35
 20
-450.0
 30
0.0
 11
-328.5
 21
-448.5
 31
0.0
  0
LINE
  5
206
330
3B0
100
AcDbEntity
  8
DATA
  6
Continuous
 62
     7
100
AcDbLine
 10
-159.65
 20
-450.0
 30
0.0
 11
-170.65
 21
-450.0
 31
0.0
  0
LINE
  5
207
330
3B0
100
AcDbEntity
  8
DATA
  6
Continuous
 62
     7
100
AcDbLine
 10
-159.65
 20
-450.0
 30
0.0
 11
-158.8
 21
-448.5
 31
0.0
  0
LINE
  5
208
330
3B0
100
AcDbEntity
  8
DATA
  6
Continuous
 62
     7
100
AcDbLine
 10
-170.65
 20
-450.0
 30
0.0
 11
-171.5
 21
-448.5
 31
0.0
  0
LINE
  5
209
330
3B0
100
AcDbEntity
  8
DATA
  6
Continuous
 62
     7
100
AcDbLine
 10
-331.0
 20
-209.5000000000015
 30
0.0
 11
-331.0
 21
-200.5000000000015
 31
0.0
  0
LINE
  5
20A
330
3B0
100
AcDbEntity
  8
DATA
  6
Continuous
 62
     7
100
AcDbLine
 10
-314.0
 20
-209.5000000000015
 30
0.0
 11
-314.0
 21
-200.5000000000015
 31
0.0
  0
LINE
  5
20B
330
3B0
100
AcDbEntity
  8
DATA
  6
Continuous
 62
     7
100
AcDbLine
 10
-331.0
 20
-200.5000000000015
 30
0.0
 11
-327.0
 21
-200.5000000000015
 31
0.0
  0
LINE
  5
20C
330
3B0
100
AcDbEntity
  8
DATA
  6
Continuous
 62
     7
100
AcDbLine
 10
-318.0
 20
-200.5000000000015
 30
0.0
 11
-314.0
 21
-200.5000000000015
 31
0.0
  0
LINE
  5
20D
330
3B0
100
AcDbEntity
  8
DATA
  6
Continuous
 62
     7
100
AcDbLine
 10
-327.0
 20
-196.5000000000014
 30
0.0
 11
-327.0
 21
-200.5000000000015
 31
0.0
  0
LINE
  5
20E
330
3B0
100
AcDbEntity
  8
DATA
  6
Continuous
 62
     7
100
AcDbLine
 10
-318.0
 20
-196.5000000000014
 30
0.0
 11
-318.0
 21
-200.5000000000015
 31
0.0
  0
LINE
  5
20F
330
3B0
100
AcDbEntity
  8
DATA
  6
Continuous
 62
     7
100
AcDbLine
 10
-327.0
 20
-199.5
 30
0.0
 11
-318.0
 21
-199.5
 31
0.0
  0
LINE
  5
210
330
3B0
100
AcDbEntity
  8
DATA
  6
Continuous
 62
     7
100
AcDbLine
 10
-326.8000000000001
 20
-209.5000000000015
 30
0.0
 11
-326.8000000000001
 21
-203.5000000000015
 31
0.0
  0
LINE
  5
211
330
3B0
100
AcDbEntity
  8
DATA
  6
Continuous
 62
     7
100
AcDbLine
 10
-326.8000000000001
 20
-203.5000000000015
 30
0.0
 11
-318.2
 21
-203.5000000000015
 31
0.0
  0
LINE
  5
212
330
3B0
100
AcDbEntity
  8
DATA
  6
Continuous
 62
     7
100
AcDbLine
 10
-318.2
 20
-209.5000000000015
 30
0.0
 11
-318.2
 21
-203.5000000000015
 31
0.0
  0
LINE
  5
213
330
3B0
100
AcDbEntity
  8
DATA
  6
Continuous
 62
     7
100
AcDbLine
 10
-138.5
 20
-414.25
 30
0.0
 11
-138.5
 21
-440.2499999999999
 31
0.0
  0
LINE
  5
214
330
3B0
100
AcDbEntity
  8
DATA
  6
Continuous
 62
     7
100
AcDbLine
 10
-127.0
 20
-414.0
 30
0.0
 11
-127.0
 21
-440.5
 31
0.0
  0
LINE
  5
215
330
3B0
100
AcDbEntity
  8
DATA
  6
Continuous
 62
     7
100
AcDbLine
 10
-127.0
 20
-414.0
 30
0.0
 11
-138.5
 21
-414.25
 31
0.0
  0
LINE
  5
216
330
3B0
100
AcDbEntity
  8
DATA
  6
Continuous
 62
     7
100
AcDbLine
 10
-138.5
 20
-440.2499999999999
 30
0.0
 11
-127.0
 21
-440.5
 31
0.0
  0
LINE
  5
217
330
3B0
100
AcDbEntity
  8
DATA
  6
Continuous
 62
     7
100
AcDbLine
 10
-127.0
 20
-424.75
 30
0.0
 11
-125.0
 21
-424.75
 31
0.0
  0
LINE
  5
218
330
3B0
100
AcDbEntity
  8
DATA
  6
Continuous
 62
     7
100
AcDbLine
 10
-127.0
 20
-429.75
 30
0.0
 11
-125.0
 21
-429.75
 31
0.0
  0
LINE
  5
219
330
3B0
100
AcDbEntity
  8
DATA
  6
Continuous
 62
     7
100
AcDbLine
 10
15.5
 20
-418.0
 30
0.0
 11
24.5
 21
-418.0
 31
0.0
  0
LINE
  5
21A
330
3B0
100
AcDbEntity
  8
DATA
  6
Continuous
 62
     7
100
AcDbLine
 10
15.5
 20
-422.0
 30
0.0
 11
28.5
 21
-422.0
 31
0.0
  0
LINE
  5
21B
330
3B0
100
AcDbEntity
  8
DATA
  6
Continuous
 62
     7
100
AcDbLine
 10
24.5
 20
-416.0
 30
0.0
 11
24.5
 21
-422.0
 31
0.0
  0
LINE
  5
21C
330
3B0
100
AcDbEntity
  8
DATA
  6
Continuous
 62
     7
100
AcDbLine
 10
28.5
 20
-416.0
 30
0.0
 11
28.5
 21
-422.0
 31
0.0
  0
LINE
  5
21D
330
3B0
100
AcDbEntity
  8
DATA
  6
Continuous
 62
     7
100
AcDbLine
 10
24.5
 20
-416.0
 30
0.0
 11
28.5
 21
-416.0
 31
0.0
  0
LINE
  5
21E
330
3B0
100
AcDbEntity
  8
DATA
  6
Continuous
 62
     7
100
AcDbLine
 10
-350.0
 20
-334.0000000000015
 30
0.0
 11
-150.0
 21
-334.0000000000015
 31
0.0
  0
LINE
  5
21F
330
3B0
100
AcDbEntity
  8
DATA
  6
Continuous
 62
     7
100
AcDbLine
 10
-319.75
 20
-349.7567499977213
 30
0.0
 11
-319.75
 21
-348.0
 31
0.0
  0
LINE
  5
220
330
3B0
100
AcDbEntity
  8
DATA
  6
Continuous
 62
     7
100
AcDbLine
 10
-180.25
 20
-348.0
 30
0.0
 11
-180.25
 21
-349.7567499977213
 31
0.0
  0
LINE
  5
221
330
3B0
100
AcDbEntity
  8
DATA
  6
Continuous
 62
     7
100
AcDbLine
 10
-319.75
 20
-348.0
 30
0.0
 11
-180.25
 21
-348.0
 31
0.0
  0
LINE
  5
222
330
3B0
100
AcDbEntity
  8
DATA
  6
Continuous
 62
     7
100
AcDbLine
 10
-350.0
 20
-517.9514746419208
 30
0.0
 11
-350.0
 21
-652.9999999999985
 31
0.0
  0
LINE
  5
223
330
3B0
100
AcDbEntity
  8
DATA
  6
Continuous
 62
     7
100
AcDbLine
 10
-150.0
 20
-652.9999999999985
 30
0.0
 11
-150.0
 21
-517.9514746419208
 31
0.0
  0
LINE
  5
224
330
3B0
100
AcDbEntity
  8
DATA
  6
Continuous
 62
     7
100
AcDbLine
 10
-350.0
 20
-652.9999999999985
 30
0.0
 11
-150.0
 21
-652.9999999999985
 31
0.0
  0
ARC
  5
225
330
3B0
100
AcDbEntity
  8
DATA
  6
Continuous
 62
     7
100
AcDbCircle
 10
-250.0
 20
-10512.75
 30
0.0
 40
10000.25
100
AcDbArc
 50
89.45542322521289
 51
90.54457677478715
  0
LINE
  5
226
330
3B0
100
AcDbEntity
  8
DATA
  6
Continuous
 62
     7
100
AcDbLine
 10
-218.0
 20
-498.9999999999985
 30
0.0
 11
-192.0
 21
-498.9999999999985
 31
0.0
  0
LINE
  5
227
330
3B0
100
AcDbEntity
  8
DATA
  6
Continuous
 62
     7
100
AcDbLine
 10
-218.25
 20
-510.4999999999984
 30
0.0
 11
-191.75
 21
-510.4999999999984
 31
0.0
  0
LINE
  5
228
330
3B0
100
AcDbEntity
  8
DATA
  6
Continuous
 62
     7
100
AcDbLine
 10
-218.25
 20
-510.4999999999984
 30
0.0
 11
-218.0
 21
-498.9999999999985
 31
0.0
  0
LINE
  5
229
330
3B0
100
AcDbEntity
  8
DATA
  6
Continuous
 62
     7
100
AcDbLine
 10
-192.0
 20
-498.9999999999985
 30
0.0
 11
-191.75
 21
-510.4999999999984
 31
0.0
  0
LINE
  5
22A
330
3B0
100
AcDbEntity
  8
DATA
  6
Continuous
 62
     7
100
AcDbLine
 10
-207.5
 20
-510.4999999999984
 30
0.0
 11
-207.5
 21
-512.5903106500336
 31
0.0
  0
LINE
  5
22B
330
3B0
100
AcDbEntity
  8
DATA
  6
Continuous
 62
     7
100
AcDbLine
 10
-202.5
 20
-510.4999999999984
 30
0.0
 11
-202.5
 21
-512.6128103160501
 31
0.0
  0
LINE
  5
22C
330
3B0
100
AcDbEntity
  8
DATA
  6
Continuous
 62
     7
100
AcDbLine
 10
-327.0
 20
-665.9999999999985
 30
0.0
 11
-318.0
 21
-665.9999999999985
 31
0.0
  0
ARC
  5
22D
330
3B0
100
AcDbEntity
  8
DATA
  6
Continuous
 62
     7
100
AcDbCircle
 10
-344.9999999999994
 20
-517.9514746419208
 30
0.0
 40
5.000000000000579
100
AcDbArc
 50
90.54457677479375
 51
180.0
  0
ARC
  5
22E
330
3B0
100
AcDbEntity
  8
DATA
  6
Continuous
 62
     7
100
AcDbCircle
 10
-155.0000000000006
 20
-517.9514746419208
 30
0.0
 40
5.000000000000568
100
AcDbArc
 50
0.0
 51
89.45542322520624
  0
LINE
  5
22F
330
3B0
100
AcDbEntity
  8
DATA
  6
Continuous
 62
     7
100
AcDbLine
 10
-331.0
 20
-652.9999999999985
 30
0.0
 11
-331.0
 21
-661.9999999999985
 31
0.0
  0
LINE
  5
230
330
3B0
100
AcDbEntity
  8
DATA
  6
Continuous
 62
     7
100
AcDbLine
 10
-314.0
 20
-652.9999999999985
 30
0.0
 11
-314.0
 21
-661.9999999999985
 31
0.0
  0
LINE
  5
231
330
3B0
100
AcDbEntity
  8
DATA
  6
Continuous
 62
     7
100
AcDbLine
 10
-331.0
 20
-661.9999999999985
 30
0.0
 11
-327.0
 21
-661.9999999999985
 31
0.0
  0
LINE
  5
232
330
3B0
100
AcDbEntity
  8
DATA
  6
Continuous
 62
     7
100
AcDbLine
 10
-318.0
 20
-661.9999999999985
 30
0.0
 11
-314.0
 21
-661.9999999999985
 31
0.0
  0
LINE
  5
233
330
3B0
100
AcDbEntity
  8
DATA
  6
Continuous
 62
     7
100
AcDbLine
 10
-327.0
 20
-665.9999999999985
 30
0.0
 11
-327.0
 21
-661.9999999999985
 31
0.0
  0
LINE
  5
234
330
3B0
100
AcDbEntity
  8
DATA
  6
Continuous
 62
     7
100
AcDbLine
 10
-318.0
 20
-665.9999999999985
 30
0.0
 11
-318.0
 21
-661.9999999999985
 31
0.0
  0
LINE
  5
235
330
3B0
100
AcDbEntity
  8
DATA
  6
Continuous
 62
     7
100
AcDbLine
 10
-327.0
 20
-663.0
 30
0.0
 11
-318.0
 21
-663.0
 31
0.0
  0
LINE
  5
236
330
3B0
100
AcDbEntity
  8
DATA
  6
Continuous
 62
     7
100
AcDbLine
 10
-326.8000000000001
 20
-652.9999999999985
 30
0.0
 11
-326.8000000000001
 21
-658.9999999999985
 31
0.0
  0
LINE
  5
237
330
3B0
100
AcDbEntity
  8
DATA
  6
Continuous
 62
     7
100
AcDbLine
 10
-326.8000000000001
 20
-658.9999999999985
 30
0.0
 11
-318.2
 21
-658.9999999999985
 31
0.0
  0
LINE
  5
238
330
3B0
100
AcDbEntity
  8
DATA
  6
Continuous
 62
     7
100
AcDbLine
 10
-318.2
 20
-652.9999999999985
 30
0.0
 11
-318.2
 21
-658.9999999999985
 31
0.0
  0
LINE
  5
239
330
3B0
100
AcDbEntity
  8
DATA
  6
Continuous
 62
     7
100
AcDbLine
 10
-350.0
 20
-528.4999999999985
 30
0.0
 11
-150.0
 21
-528.4999999999985
 31
0.0
  0
LINE
  5
23A
330
3B0
100
AcDbEntity
  8
DATA
  6
Continuous
 62
     7
100
AcDbLine
 10
-319.75
 20
-512.7432500022787
 30
0.0
 11
-319.75
 21
-514.5
 31
0.0
  0
LINE
  5
23B
330
3B0
100
AcDbEntity
  8
DATA
  6
Continuous
 62
     7
100
AcDbLine
 10
-180.25
 20
-514.5
 30
0.0
 11
-180.25
 21
-512.7432500022787
 31
0.0
  0
LINE
  5
23C
330
3B0
100
AcDbEntity
  8
DATA
  6
Continuous
 62
     7
100
AcDbLine
 10
-319.75
 20
-514.5
 30
0.0
 11
-180.25
 21
-514.5
 31
0.0
  0
LWPOLYLINE
  5
23D
330
3B0
100
AcDbEntity
  8
DATA
  6
Continuous
 62
     7
100
AcDbPolyline
 90
        4
 70
   129
 43
0.0
 10
-350.0
 20
-145.0
 10
-150.0
 20
-145.0
 10
-150.0
 20
-187.5
 10
-350.0
 20
-187.5
  0
LINE
  5
243
330
3B0
100
AcDbEntity
  8
DATA
  6
Continuous
 62
     7
100
AcDbLine
 10
-340.35
 20
-143.5
 30
0.0
 11
-329.35
 21
-143.5
 31
0.0
  0
LINE
  5
244
330
3B0
100
AcDbEntity
  8
DATA
  6
Continuous
 62
     7
100
AcDbLine
 10
-340.35
 20
-143.5
 30
0.0
 11
-341.2
 21
-145.0
 31
0.0
  0
LINE
  5
245
330
3B0
100
AcDbEntity
  8
DATA
  6
Continuous
 62
     7
100
AcDbLine
 10
-329.35
 20
-143.5
 30
0.0
 11
-328.5
 21
-145.0
 31
0.0
  0
LINE
  5
246
330
3B0
100
AcDbEntity
  8
DATA
  6
Continuous
 62
     7
100
AcDbLine
 10
-159.65
 20
-143.5
 30
0.0
 11
-170.65
 21
-143.5
 31
0.0
  0
LINE
  5
247
330
3B0
100
AcDbEntity
  8
DATA
  6
Continuous
 62
     7
100
AcDbLine
 10
-159.65
 20
-143.5
 30
0.0
 11
-158.8
 21
-145.0
 31
0.0
  0
LINE
  5
248
330
3B0
100
AcDbEntity
  8
DATA
  6
Continuous
 62
     7
100
AcDbLine
 10
-170.65
 20
-143.5
 30
0.0
 11
-171.5
 21
-145.0
 31
0.0
  0
LINE
  5
249
330
3B0
100
AcDbEntity
  8
DATA
  6
Continuous
 62
     7
100
AcDbLine
 10
-343.7
 20
-183.3
 30
0.0
 11
-343.7
 21
-145.0
 31
0.0
  0
LINE
  5
24A
330
3B0
100
AcDbEntity
  8
DATA
  6
Continuous
 62
     7
100
AcDbLine
 10
-156.3
 20
-183.3
 30
0.0
 11
-343.7
 21
-183.3
 31
0.0
  0
LINE
  5
24B
330
3B0
100
AcDbEntity
  8
DATA
  6
Continuous
 62
     7
100
AcDbLine
 10
-156.3
 20
-145.0
 30
0.0
 11
-156.3
 21
-183.3
 31
0.0
  0
LINE
  5
24C
330
3B0
100
AcDbEntity
  8
DATA
  6
Continuous
 62
     7
100
AcDbLine
 10
-109.0
 20
-406.0
 30
0.0
 11
-109.0
 21
-448.5
 31
0.0
  0
LINE
  5
24D
330
3B0
100
AcDbEntity
  8
DATA
  6
Continuous
 62
     7
100
AcDbLine
 10
-109.0
 20
-427.2499999999999
 30
0.0
 11
15.5
 21
-427.2499999999999
 31
0.0
  0
LINE
  5
24E
330
3B0
100
AcDbEntity
  8
DATA
  6
Continuous
 62
     7
100
AcDbLine
 10
-350.0
 20
-541.4999999999984
 30
0.0
 11
-328.5
 21
-541.4999999999984
 31
0.0
  0
LINE
  5
24F
330
3B0
100
AcDbEntity
  8
DATA
  6
Continuous
 62
     7
100
AcDbLine
 10
-341.2
 20
-541.4999999999984
 30
0.0
 11
-341.2
 21
-561.9999999999985
 31
0.0
  0
LINE
  5
250
330
3B0
100
AcDbEntity
  8
DATA
  6
Continuous
 62
     7
100
AcDbLine
 10
-328.5
 20
-541.4999999999984
 30
0.0
 11
-328.5
 21
-561.9999999999985
 31
0.0
  0
LINE
  5
251
330
3B0
100
AcDbEntity
  8
DATA
  6
Continuous
 62
     7
100
AcDbLine
 10
-350.0
 20
-561.9999999999985
 30
0.0
 11
-328.5
 21
-561.9999999999985
 31
0.0
  0
LINE
  5
252
330
3B0
100
AcDbEntity
  8
DATA
  6
Continuous
 62
     7
100
AcDbLine
 10
-340.35
 20
-561.1499999999985
 30
0.0
 11
-340.35
 21
-553.8748076809254
 31
0.0
  0
LINE
  5
253
330
3B0
100
AcDbEntity
  8
DATA
  6
Continuous
 62
     7
100
AcDbLine
 10
-329.35
 20
-561.1499999999985
 30
0.0
 11
-340.35
 21
-561.1499999999985
 31
0.0
  0
LINE
  5
254
330
3B0
100
AcDbEntity
  8
DATA
  6
Continuous
 62
     7
100
AcDbLine
 10
-329.35
 20
-542.3499999999984
 30
0.0
 11
-329.35
 21
-561.1499999999985
 31
0.0
  0
LINE
  5
255
330
3B0
100
AcDbEntity
  8
DATA
  6
Continuous
 62
     7
100
AcDbLine
 10
-340.35
 20
-542.3499999999984
 30
0.0
 11
-329.35
 21
-542.3499999999984
 31
0.0
  0
LINE
  5
256
330
3B0
100
AcDbEntity
  8
DATA
  6
Continuous
 62
     7
100
AcDbLine
 10
-340.35
 20
-550.6251923190715
 30
0.0
 11
-340.35
 21
-542.3499999999984
 31
0.0
  0
LINE
  5
257
330
3B0
100
AcDbEntity
  8
DATA
  6
Continuous
 62
     7
100
AcDbLine
 10
-350.0
 20
-606.9999999999985
 30
0.0
 11
-328.5
 21
-606.9999999999985
 31
0.0
  0
LINE
  5
258
330
3B0
100
AcDbEntity
  8
DATA
  6
Continuous
 62
     7
100
AcDbLine
 10
-341.2
 20
-606.9999999999985
 30
0.0
 11
-341.2
 21
-627.4999999999985
 31
0.0
  0
LINE
  5
259
330
3B0
100
AcDbEntity
  8
DATA
  6
Continuous
 62
     7
100
AcDbLine
 10
-328.5
 20
-606.9999999999985
 30
0.0
 11
-328.5
 21
-627.4999999999985
 31
0.0
  0
LINE
  5
25A
330
3B0
100
AcDbEntity
  8
DATA
  6
Continuous
 62
     7
100
AcDbLine
 10
-350.0
 20
-627.4999999999985
 30
0.0
 11
-328.5
 21
-627.4999999999985
 31
0.0
  0
LINE
  5
25B
330
3B0
100
AcDbEntity
  8
DATA
  6
Continuous
 62
     7
100
AcDbLine
 10
-340.35
 20
-626.6499999999985
 30
0.0
 11
-340.35
 21
-618.3748076809299
 31
0.0
  0
LINE
  5
25C
330
3B0
100
AcDbEntity
  8
DATA
  6
Continuous
 62
     7
100
AcDbLine
 10
-329.35
 20
-626.6499999999985
 30
0.0
 11
-340.35
 21
-626.6499999999985
 31
0.0
  0
LINE
  5
25D
330
3B0
100
AcDbEntity
  8
DATA
  6
Continuous
 62
     7
100
AcDbLine
 10
-329.35
 20
-607.8499999999984
 30
0.0
 11
-329.35
 21
-626.6499999999985
 31
0.0
  0
LINE
  5
25E
330
3B0
100
AcDbEntity
  8
DATA
  6
Continuous
 62
     7
100
AcDbLine
 10
-340.35
 20
-607.8499999999984
 30
0.0
 11
-329.35
 21
-607.8499999999984
 31
0.0
  0
LINE
  5
25F
330
3B0
100
AcDbEntity
  8
DATA
  6
Continuous
 62
     7
100
AcDbLine
 10
-340.35
 20
-615.1251923190671
 30
0.0
 11
-340.35
 21
-607.8499999999984
 31
0.0
  0
LINE
  5
260
330
3B0
100
AcDbEntity
  8
DATA
  6
Continuous
 62
     7
100
AcDbLine
 10
-150.0
 20
-541.4999999999984
 30
0.0
 11
-171.5
 21
-541.4999999999984
 31
0.0
  0
LINE
  5
261
330
3B0
100
AcDbEntity
  8
DATA
  6
Continuous
 62
     7
100
AcDbLine
 10
-158.8
 20
-541.4999999999984
 30
0.0
 11
-158.8
 21
-561.9999999999985
 31
0.0
  0
LINE
  5
262
330
3B0
100
AcDbEntity
  8
DATA
  6
Continuous
 62
     7
100
AcDbLine
 10
-171.5
 20
-541.4999999999984
 30
0.0
 11
-171.5
 21
-561.9999999999985
 31
0.0
  0
LINE
  5
263
330
3B0
100
AcDbEntity
  8
DATA
  6
Continuous
 62
     7
100
AcDbLine
 10
-150.0
 20
-561.9999999999985
 30
0.0
 11
-171.5
 21
-561.9999999999985
 31
0.0
  0
LINE
  5
264
330
3B0
100
AcDbEntity
  8
DATA
  6
Continuous
 62
     7
100
AcDbLine
 10
-159.65
 20
-542.3499999999984
 30
0.0
 11
-159.65
 21
-550.6251923190715
 31
0.0
  0
LINE
  5
265
330
3B0
100
AcDbEntity
  8
DATA
  6
Continuous
 62
     7
100
AcDbLine
 10
-170.65
 20
-542.3499999999984
 30
0.0
 11
-159.65
 21
-542.3499999999984
 31
0.0
  0
LINE
  5
266
330
3B0
100
AcDbEntity
  8
DATA
  6
Continuous
 62
     7
100
AcDbLine
 10
-170.65
 20
-561.1499999999985
 30
0.0
 11
-170.65
 21
-542.3499999999984
 31
0.0
  0
LINE
  5
267
330
3B0
100
AcDbEntity
  8
DATA
  6
Continuous
 62
     7
100
AcDbLine
 10
-159.65
 20
-561.1499999999985
 30
0.0
 11
-170.65
 21
-561.1499999999985
 31
0.0
  0
LINE
  5
268
330
3B0
100
AcDbEntity
  8
DATA
  6
Continuous
 62
     7
100
AcDbLine
 10
-159.65
 20
-553.8748076809254
 30
0.0
 11
-159.65
 21
-561.1499999999985
 31
0.0
  0
LINE
  5
269
330
3B0
100
AcDbEntity
  8
DATA
  6
Continuous
 62
     7
100
AcDbLine
 10
-150.0
 20
-606.9999999999985
 30
0.0
 11
-171.5
 21
-606.9999999999985
 31
0.0
  0
LINE
  5
26A
330
3B0
100
AcDbEntity
  8
DATA
  6
Continuous
 62
     7
100
AcDbLine
 10
-158.8
 20
-606.9999999999985
 30
0.0
 11
-158.8
 21
-627.4999999999985
 31
0.0
  0
LINE
  5
26B
330
3B0
100
AcDbEntity
  8
DATA
  6
Continuous
 62
     7
100
AcDbLine
 10
-171.5
 20
-606.9999999999985
 30
0.0
 11
-171.5
 21
-627.4999999999985
 31
0.0
  0
LINE
  5
26C
330
3B0
100
AcDbEntity
  8
DATA
  6
Continuous
 62
     7
100
AcDbLine
 10
-150.0
 20
-627.4999999999985
 30
0.0
 11
-171.5
 21
-627.4999999999985
 31
0.0
  0
LINE
  5
26D
330
3B0
100
AcDbEntity
  8
DATA
  6
Continuous
 62
     7
100
AcDbLine
 10
-159.65
 20
-607.8499999999984
 30
0.0
 11
-159.65
 21
-615.1251923190671
 31
0.0
  0
LINE
  5
26E
330
3B0
100
AcDbEntity
  8
DATA
  6
Continuous
 62
     7
100
AcDbLine
 10
-170.65
 20
-607.8499999999984
 30
0.0
 11
-159.65
 21
-607.8499999999984
 31
0.0
  0
LINE
  5
26F
330
3B0
100
AcDbEntity
  8
DATA
  6
Continuous
 62
     7
100
AcDbLine
 10
-170.65
 20
-626.6499999999985
 30
0.0
 11
-170.65
 21
-607.8499999999984
 31
0.0
  0
LINE
  5
270
330
3B0
100
AcDbEntity
  8
DATA
  6
Continuous
 62
     7
100
AcDbLine
 10
-159.65
 20
-626.6499999999985
 30
0.0
 11
-170.65
 21
-626.6499999999985
 31
0.0
  0
LINE
  5
271
330
3B0
100
AcDbEntity
  8
DATA
  6
Continuous
 62
     7
100
AcDbLine
 10
-159.65
 20
-618.3748076809299
 30
0.0
 11
-159.65
 21
-626.6499999999985
 31
0.0
  0
CIRCLE
  5
272
330
3B0
100
AcDbEntity
  8
DATA
  6
Continuous
 62
     7
100
AcDbCircle
 10
-337.25
 20
-552.2499999999985
 30
0.0
 40
3.5
  0
CIRCLE
  5
273
330
3B0
100
AcDbEntity
  8
DATA
  6
Continuous
 62
     7
100
AcDbCircle
 10
-337.25
 20
-552.2499999999985
 30
0.0
 40
2.25
  0
LINE
  5
274
330
3B0
100
AcDbEntity
  8
DATA
  6
Continuous
 62
     7
100
AcDbLine
 10
-338.75
 20
-552.2499999999985
 30
0.0
 11
-335.75
 21
-552.2499999999985
 31
0.0
  0
LINE
  5
275
330
3B0
100
AcDbEntity
  8
DATA
  6
Continuous
 62
     7
100
AcDbLine
 10
-337.25
 20
-553.7499999999985
 30
0.0
 11
-337.25
 21
-550.7499999999985
 31
0.0
  0
CIRCLE
  5
276
330
3B0
100
AcDbEntity
  8
DATA
  6
Continuous
 62
     7
100
AcDbCircle
 10
-337.25
 20
-616.7499999999985
 30
0.0
 40
3.5
  0
CIRCLE
  5
277
330
3B0
100
AcDbEntity
  8
DATA
  6
Continuous
 62
     7
100
AcDbCircle
 10
-337.25
 20
-616.7499999999985
 30
0.0
 40
2.25
  0
LINE
  5
278
330
3B0
100
AcDbEntity
  8
DATA
  6
Continuous
 62
     7
100
AcDbLine
 10
-338.75
 20
-616.7499999999985
 30
0.0
 11
-335.75
 21
-616.7499999999985
 31
0.0
  0
LINE
  5
279
330
3B0
100
AcDbEntity
  8
DATA
  6
Continuous
 62
     7
100
AcDbLine
 10
-337.25
 20
-618.2499999999985
 30
0.0
 11
-337.25
 21
-615.2499999999985
 31
0.0
  0
CIRCLE
  5
27A
330
3B0
100
AcDbEntity
  8
DATA
  6
Continuous
 62
     7
100
AcDbCircle
 10
-162.75
 20
-552.2499999999985
 30
0.0
 40
3.5
  0
CIRCLE
  5
27B
330
3B0
100
AcDbEntity
  8
DATA
  6
Continuous
 62
     7
100
AcDbCircle
 10
-162.75
 20
-552.2499999999985
 30
0.0
 40
2.25
  0
LINE
  5
27C
330
3B0
100
AcDbEntity
  8
DATA
  6
Continuous
 62
     7
100
AcDbLine
 10
-164.25
 20
-552.2499999999985
 30
0.0
 11
-161.25
 21
-552.2499999999985
 31
0.0
  0
LINE
  5
27D
330
3B0
100
AcDbEntity
  8
DATA
  6
Continuous
 62
     7
100
AcDbLine
 10
-162.75
 20
-553.7499999999985
 30
0.0
 11
-162.75
 21
-550.7499999999985
 31
0.0
  0
CIRCLE
  5
27E
330
3B0
100
AcDbEntity
  8
DATA
  6
Continuous
 62
     7
100
AcDbCircle
 10
-162.75
 20
-616.7499999999985
 30
0.0
 40
3.5
  0
CIRCLE
  5
27F
330
3B0
100
AcDbEntity
  8
DATA
  6
Continuous
 62
     7
100
AcDbCircle
 10
-162.75
 20
-616.7499999999985
 30
0.0
 40
2.25
  0
LINE
  5
280
330
3B0
100
AcDbEntity
  8
DATA
  6
Continuous
 62
     7
100
AcDbLine
 10
-164.25
 20
-616.7499999999985
 30
0.0
 11
-161.25
 21
-616.7499999999985
 31
0.0
  0
LINE
  5
281
330
3B0
100
AcDbEntity
  8
DATA
  6
Continuous
 62
     7
100
AcDbLine
 10
-162.75
 20
-618.2499999999985
 30
0.0
 11
-162.75
 21
-615.2499999999985
 31
0.0
  0
LWPOLYLINE
  5
282
330
3B0
100
AcDbEntity
  8
DATA
  6
Continuous
 62
     7
100
AcDbPolyline
 90
        4
 70
   129
 43
0.0
 10
-347.5
 20
-610.7499999999985
 10
-342.5
 20
-610.7499999999985
 10
-342.5
 20
-623.7499999999985
 10
-347.5
 20
-623.7499999999985
  0
LWPOLYLINE
  5
288
330
3B0
100
AcDbEntity
  8
DATA
  6
Continuous
 62
     7
100
AcDbPolyline
 90
        4
 70
   129
 43
0.0
 10
-157.5
 20
-610.7499999999985
 10
-152.5
 20
-610.7499999999985
 10
-152.5
 20
-623.7499999999985
 10
-157.5
 20
-623.7499999999985
  0
LINE
  5
28E
330
3B0
100
AcDbEntity
  8
DATA
  6
Continuous
 62
     7
100
AcDbLine
 10
-350.0
 20
-652.5
 30
0.0
 11
-150.0
 21
-652.5
 31
0.0
  0
LINE
  5
28F
330
3B0
100
AcDbEntity
  8
DATA
  6
Continuous
 62
     7
100
AcDbLine
 10
-343.7
 20
-652.9999999999985
 30
0.0
 11
-343.7
 21
-652.5
 31
0.0
  0
LINE
  5
290
330
3B0
100
AcDbEntity
  8
DATA
  6
Continuous
 62
     7
100
AcDbLine
 10
-156.3
 20
-652.5
 30
0.0
 11
-156.3
 21
-652.9999999999985
 31
0.0
  0
LINE
  5
291
330
3B0
100
AcDbEntity
  8
DATA
  6
Continuous
 62
     7
100
AcDbLine
 10
-76.35000000000002
 20
-450.0
 30
0.0
 11
-95.15
 21
-450.0
 31
0.0
  0
LINE
  5
292
330
3B0
100
AcDbEntity
  8
DATA
  6
Continuous
 62
     7
100
AcDbLine
 10
-95.15
 20
-450.0
 30
0.0
 11
-96.0
 21
-448.5
 31
0.0
  0
LINE
  5
293
330
3B0
100
AcDbEntity
  8
DATA
  6
Continuous
 62
     7
100
AcDbLine
 10
-76.35000000000002
 20
-450.0
 30
0.0
 11
-75.5
 21
-448.5
 31
0.0
  0
LINE
  5
294
330
3B0
100
AcDbEntity
  8
DATA
  6
Continuous
 62
     7
100
AcDbLine
 10
-10.85000000000001
 20
-450.0
 30
0.0
 11
-29.64999999999999
 21
-450.0
 31
0.0
  0
LINE
  5
295
330
3B0
100
AcDbEntity
  8
DATA
  6
Continuous
 62
     7
100
AcDbLine
 10
-29.64999999999999
 20
-450.0
 30
0.0
 11
-30.5
 21
-448.5
 31
0.0
  0
LINE
  5
296
330
3B0
100
AcDbEntity
  8
DATA
  6
Continuous
 62
     7
100
AcDbLine
 10
-10.85000000000001
 20
-450.0
 30
0.0
 11
-10.0
 21
-448.5
 31
0.0
  0
LINE
  5
297
330
3B0
100
AcDbEntity
  8
DATA
  6
Continuous
 62
     7
100
AcDbLine
 10
-96.0
 20
-444.0
 30
0.0
 11
-75.5
 21
-444.0
 31
0.0
  0
LINE
  5
298
330
3B0
100
AcDbEntity
  8
DATA
  6
Continuous
 62
     7
100
AcDbLine
 10
-30.5
 20
-444.0
 30
0.0
 11
-10.0
 21
-444.0
 31
0.0
  0
LINE
  5
299
330
3B0
100
AcDbEntity
  8
DATA
  6
Continuous
 62
     7
100
AcDbLine
 10
-96.0
 20
-448.5
 30
0.0
 11
-96.0
 21
-444.0
 31
0.0
  0
LINE
  5
29A
330
3B0
100
AcDbEntity
  8
DATA
  6
Continuous
 62
     7
100
AcDbLine
 10
-75.5
 20
-448.5
 30
0.0
 11
-75.5
 21
-444.0
 31
0.0
  0
LINE
  5
29B
330
3B0
100
AcDbEntity
  8
DATA
  6
Continuous
 62
     7
100
AcDbLine
 10
-30.5
 20
-448.5
 30
0.0
 11
-30.5
 21
-444.0
 31
0.0
  0
LINE
  5
29C
330
3B0
100
AcDbEntity
  8
DATA
  6
Continuous
 62
     7
100
AcDbLine
 10
-10.0
 20
-448.5
 30
0.0
 11
-10.0
 21
-444.0
 31
0.0
  0
CIRCLE
  5
29D
330
3B0
100
AcDbEntity
  8
DATA
  6
Continuous
 62
     7
100
AcDbCircle
 10
-87.0
 20
-418.5
 30
0.0
 40
5.0
  0
CIRCLE
  5
29E
330
3B0
100
AcDbEntity
  8
DATA
  6
Continuous
 62
     7
100
AcDbCircle
 10
-87.0
 20
-418.5
 30
0.0
 40
4.0
  0
CIRCLE
  5
29F
330
3B0
100
AcDbEntity
  8
DATA
  6
Continuous
 62
     7
100
AcDbCircle
 10
-87.0
 20
-418.5
 30
0.0
 40
2.25
  0
LINE
  5
2A0
330
3B0
100
AcDbEntity
  8
DATA
  6
Continuous
 62
     7
100
AcDbLine
 10
-88.49999999999999
 20
-418.5
 30
0.0
 11
-85.5
 21
-418.5
 31
0.0
  0
LINE
  5
2A1
330
3B0
100
AcDbEntity
  8
DATA
  6
Continuous
 62
     7
100
AcDbLine
 10
-87.0
 20
-420.0
 30
0.0
 11
-87.0
 21
-417.0
 31
0.0
  0
CIRCLE
  5
2A2
330
3B0
100
AcDbEntity
  8
DATA
  6
Continuous
 62
     7
100
AcDbCircle
 10
-22.5
 20
-418.5
 30
0.0
 40
5.0
  0
CIRCLE
  5
2A3
330
3B0
100
AcDbEntity
  8
DATA
  6
Continuous
 62
     7
100
AcDbCircle
 10
-22.5
 20
-418.5
 30
0.0
 40
4.0
  0
CIRCLE
  5
2A4
330
3B0
100
AcDbEntity
  8
DATA
  6
Continuous
 62
     7
100
AcDbCircle
 10
-22.5
 20
-418.5
 30
0.0
 40
2.25
  0
LINE
  5
2A5
330
3B0
100
AcDbEntity
  8
DATA
  6
Continuous
 62
     7
100
AcDbLine
 10
-24.0
 20
-418.5
 30
0.0
 11
-21.0
 21
-418.5
 31
0.0
  0
LINE
  5
2A6
330
3B0
100
AcDbEntity
  8
DATA
  6
Continuous
 62
     7
100
AcDbLine
 10
-22.5
 20
-420.0
 30
0.0
 11
-22.5
 21
-417.0
 31
0.0
  0
LINE
  5
2A7
330
3B0
100
AcDbEntity
  8
DATA
  6
Continuous
 62
     7
100
AcDbLine
 10
-150.0
 20
-166.25
 30
0.0
 11
-156.3
 21
-166.25
 31
0.0
  0
LINE
  5
2A8
330
3B0
100
AcDbEntity
  8
DATA
  6
Continuous
 62
     7
100
AcDbLine
 10
-343.7
 20
-166.25
 30
0.0
 11
-350.0
 21
-166.25
 31
0.0
  0
LINE
  5
2A9
330
3B0
100
AcDbEntity
  8
DATA
  6
Continuous
 62
     7
100
AcDbLine
 10
-314.0
 20
-171.5
 30
0.0
 11
-331.0
 21
-171.5
 31
0.0
  0
LINE
  5
2AA
330
3B0
100
AcDbEntity
  8
DATA
  6
Continuous
 62
     7
100
AcDbLine
 10
-318.0
 20
-177.5
 30
0.0
 11
-327.0
 21
-177.5
 31
0.0
  0
LINE
  5
2AB
330
3B0
100
AcDbEntity
  8
DATA
  6
Continuous
 62
     7
100
AcDbLine
 10
-314.0
 20
-175.5
 30
0.0
 11
-318.0
 21
-175.5
 31
0.0
  0
LINE
  5
2AC
330
3B0
100
AcDbEntity
  8
DATA
  6
Continuous
 62
     7
100
AcDbLine
 10
-327.0
 20
-175.5
 30
0.0
 11
-331.0
 21
-175.5
 31
0.0
  0
LINE
  5
2AD
330
3B0
100
AcDbEntity
  8
DATA
  6
Continuous
 62
     7
100
AcDbLine
 10
-331.0
 20
-175.5
 30
0.0
 11
-331.0
 21
-171.5
 31
0.0
  0
LINE
  5
2AE
330
3B0
100
AcDbEntity
  8
DATA
  6
Continuous
 62
     7
100
AcDbLine
 10
-314.0
 20
-175.5
 30
0.0
 11
-314.0
 21
-171.5
 31
0.0
  0
LINE
  5
2AF
330
3B0
100
AcDbEntity
  8
DATA
  6
Continuous
 62
     7
100
AcDbLine
 10
-327.0
 20
-171.5
 30
0.0
 11
-327.0
 21
-177.5
 31
0.0
  0
LINE
  5
2B0
330
3B0
100
AcDbEntity
  8
DATA
  6
Continuous
 62
     7
100
AcDbLine
 10
-318.0
 20
-171.5
 30
0.0
 11
-318.0
 21
-177.5
 31
0.0
  0
CIRCLE
  5
2B1
330
3B0
100
AcDbEntity
  8
DATA
  6
Continuous
 62
     7
100
AcDbCircle
 10
-322.5
 20
-180.0
 30
0.0
 40
1.999999999999941
  0
LINE
  5
2B2
330
3B0
100
AcDbEntity
  8
DATA
  6
Continuous
 62
     7
100
AcDbLine
 10
-323.75
 20
-180.0
 30
0.0
 11
-321.25
 21
-180.0
 31
0.0
  0
LINE
  5
2B3
330
3B0
100
AcDbEntity
  8
DATA
  6
Continuous
 62
     7
100
AcDbLine
 10
-322.5
 20
-181.25
 30
0.0
 11
-322.5
 21
-178.75
 31
0.0
  0
ARC
  5
2B4
330
3B0
100
AcDbEntity
  8
DATA
  6
Continuous
 62
     7
100
AcDbCircle
 10
-204.0
 20
-168.5
 30
0.0
 40
8.149999999184929
100
AcDbArc
 50
231.2594040000002
 51
218.858166
  0
CIRCLE
  5
2B5
330
3B0
100
AcDbEntity
  8
DATA
  6
Continuous
 62
     7
100
AcDbCircle
 10
-199.50000000045
 20
-168.5
 30
0.0
 40
1.174999999882515
  0
CIRCLE
  5
2B6
330
3B0
100
AcDbEntity
  8
DATA
  6
Continuous
 62
     7
100
AcDbCircle
 10
-213.9
 20
-158.6
 30
0.0
 40
1.749999999825035
  0
CIRCLE
  5
2B7
330
3B0
100
AcDbEntity
  8
DATA
  6
Continuous
 62
     7
100
AcDbCircle
 10
-208.49999999955
 20
-168.5
 30
0.0
 40
1.174999999882515
  0
CIRCLE
  5
2B8
330
3B0
100
AcDbEntity
  8
DATA
  6
Continuous
 62
     7
100
AcDbCircle
 10
-204.0
 20
-164.550000000395
 30
0.0
 40
1.174999999882515
  0
ARC
  5
2B9
330
3B0
100
AcDbEntity
  8
DATA
  6
Continuous
 62
     7
100
AcDbCircle
 10
-209.5774946661089
 20
-174.0889513327744
 30
0.0
 40
0.9041666665761775
100
AcDbArc
 50
148.2574679999964
 51
301.8601010000022
  0
CIRCLE
  5
2BA
330
3B0
100
AcDbEntity
  8
DATA
  6
Continuous
 62
     7
100
AcDbCircle
 10
-204.0
 20
-168.5
 30
0.0
 40
10.90000000000003
  0
LINE
  5
2BB
330
3B0
100
AcDbEntity
  8
DATA
  6
Continuous
 62
     7
100
AcDbLine
 10
-212.9
 20
-158.5999999999999
 30
0.0
 11
-214.9
 21
-158.5999999999999
 31
0.0
  0
CIRCLE
  5
2BC
330
3B0
100
AcDbEntity
  8
DATA
  6
Continuous
 62
     7
100
AcDbCircle
 10
-322.5
 20
-162.0
 30
0.0
 40
3.100000000000023
  0
CIRCLE
  5
2BD
330
3B0
100
AcDbEntity
  8
DATA
  6
Continuous
 62
     7
100
AcDbCircle
 10
-322.5
 20
-162.0
 30
0.0
 40
1.0
  0
LWPOLYLINE
  5
2BE
330
3B0
100
AcDbEntity
  8
DATA
  6
Continuous
 62
     7
100
AcDbPolyline
 90
        4
 70
   129
 43
0.0
 10
-327.0
 20
-155.0
 10
-318.0
 20
-155.0
 10
-318.0
 20
-166.0
 10
-327.0
 20
-166.0
  0
CIRCLE
  5
2C4
330
3B0
100
AcDbEntity
  8
DATA
  6
Continuous
 62
     7
100
AcDbCircle
 10
-245.0
 20
-162.0
 30
0.0
 40
5.0
  0
CIRCLE
  5
2C5
330
3B0
100
AcDbEntity
  8
DATA
  6
Continuous
 62
     7
100
AcDbCircle
 10
-245.0
 20
-162.0
 30
0.0
 40
2.5
  0
TEXT
  5
2C6
330
3B0
100
AcDbEntity
  8
DATA
 62
     7
100
AcDbText
 10
-310.5093684106955
 20
-149.4845581054687
 30
0.0
 40
2.0308837890625
  1
DC IN| 9V 1300mA
 50
180.0
 41
0.7
 11
-310.5093684106955
 21
-150.5
 31
0.0
100
AcDbText
 73
     2
  0
LINE
  5
2C7
330
3B0
100
AcDbEntity
  8
DATA
  6
Continuous
 62
     7
100
AcDbLine
 10
-339.6000000000078
 20
-150.5
 30
0.0
 11
-337.45
 21
-150.5
 31
0.0
  0
LINE
  5
2C8
330
3B0
100
AcDbEntity
  8
DATA
  6
Continuous
 62
     7
100
AcDbLine
 10
-336.3500000000078
 20
-150.5
 30
0.0
 11
-334.6
 21
-150.5
 31
0.0
  0
CIRCLE
  5
2C9
330
3B0
100
AcDbEntity
  8
DATA
  6
Continuous
 62
     7
100
AcDbCircle
 10
-340.35
 20
-150.5
 30
0.0
 40
0.75
  0
ARC
  5
2CA
330
3B0
100
AcDbEntity
  8
DATA
  6
Continuous
 62
     7
100
AcDbCircle
 10
-337.1
 20
-150.5
 30
0.0
 40
0.7500000000000401
100
AcDbArc
 50
199.4712206362698
 51
160.5287793637241
  0
CIRCLE
  5
2CB
330
3B0
100
AcDbEntity
  8
DATA
  6
Continuous
 62
     7
100
AcDbCircle
 10
-333.85
 20
-150.5
 30
0.0
 40
0.75
  0
CIRCLE
  5
2CC
330
3B0
100
AcDbEntity
  8
DATA
  6
Continuous
 62
     7
100
AcDbCircle
 10
-337.1
 20
-150.5
 30
0.0
 40
0.3500000000000227
  0
LINE
  5
2CD
330
3B0
100
AcDbEntity
  8
DATA
  6
Continuous
 62
     7
100
AcDbLine
 10
-340.7500000000001
 20
-150.5
 30
0.0
 11
-339.95
 21
-150.5
 31
0.0
  0
LINE
  5
2CE
330
3B0
100
AcDbEntity
  8
DATA
  6
Continuous
 62
     7
100
AcDbLine
 10
-334.2500000000001
 20
-150.5
 30
0.0
 11
-333.45
 21
-150.5
 31
0.0
  0
LINE
  5
2CF
330
3B0
100
AcDbEntity
  8
DATA
  6
Continuous
 62
     7
100
AcDbLine
 10
-333.85
 20
-150.9
 30
0.0
 11
-333.85
 21
-150.1
 31
0.0
  0
LINE
  5
2D0
330
3B0
100
AcDbEntity
  8
DATA
  6
Continuous
 62
     7
100
AcDbLine
 10
-337.3474873734153
 20
-150.7474873734153
 30
0.0
 11
-336.8525126265847
 21
-150.2525126265847
 31
0.0
  0
LINE
  5
2D1
330
3B0
100
AcDbEntity
  8
DATA
  6
Continuous
 62
     7
100
AcDbLine
 10
-337.2664601463932
 20
-150.8078815026306
 30
0.0
 11
-336.7921184973695
 21
-150.3335398536068
 31
0.0
  0
LINE
  5
2D2
330
3B0
100
AcDbEntity
  8
DATA
  6
Continuous
 62
     7
100
AcDbLine
 10
-337.1616796038769
 20
-150.8445223163515
 30
0.0
 11
-336.7554776836485
 21
-150.438320396123
 31
0.0
  0
LINE
  5
2D3
330
3B0
100
AcDbEntity
  8
DATA
  6
Continuous
 62
     7
100
AcDbLine
 10
-337.0153434534825
 20
-150.8396075221946
 30
0.0
 11
-336.7603924778054
 21
-150.5846565465175
 31
0.0
  0
LINE
  5
2D4
330
3B0
100
AcDbEntity
  8
DATA
  6
Continuous
 62
     7
100
AcDbLine
 10
-337.4078815026305
 20
-150.6664601463931
 30
0.0
 11
-336.9335398536068
 21
-150.1921184973694
 31
0.0
  0
LINE
  5
2D5
330
3B0
100
AcDbEntity
  8
DATA
  6
Continuous
 62
     7
100
AcDbLine
 10
-337.4445223163517
 20
-150.5616796038769
 30
0.0
 11
-337.0383203961231
 21
-150.1554776836484
 31
0.0
  0
LINE
  5
2D6
330
3B0
100
AcDbEntity
  8
DATA
  6
Continuous
 62
     7
100
AcDbLine
 10
-337.4396075221946
 20
-150.4153434534825
 30
0.0
 11
-337.1846565465175
 21
-150.1603924778055
 31
0.0
  0
TEXT
  5
2D7
330
3B0
100
AcDbEntity
  8
DATA
 62
     7
100
AcDbText
 10
-238.1288431803386
 20
-149.4845581054687
 30
0.0
 40
2.0308837890625
  1
UNBALANCED
 50
180.0
 41
0.7
 72
     1
 11
-245.0
 21
-150.5
 31
0.0
100
AcDbText
 73
     2
  0
LWPOLYLINE
  5
2D8
330
3B0
100
AcDbEntity
  8
DATA
  6
Continuous
 62
     7
100
AcDbPolyline
 90
        4
 70
   129
 43
0.0
 10
-231.0
 20
-158.5
 10
-225.5
 20
-158.5
 10
-225.5
 20
-162.5
 10
-231.0
 20
-162.5
  0
TEXT
  5
2DE
330
3B0
100
AcDbEntity
  8
DATA
 62
     7
100
AcDbText
 10
-222.9426236979167
 20
-149.4845581054687
 30
0.0
 40
2.0308837890625
  1
dB -30 0 |
 50
180.0
 41
0.7
 72
     1
 11
-228.25
 21
-150.5
 31
0.0
100
AcDbText
 73
     2
  0
LINE
  5
2DF
330
3B0
100
AcDbEntity
  8
DATA
  6
Continuous
 62
     7
100
AcDbLine
 10
-229.0
 20
-158.5
 30
0.0
 11
-229.0
 21
-162.5
 31
0.0
  0
LINE
  5
2E0
330
3B0
100
AcDbEntity
  8
DATA
  6
Continuous
 62
     7
100
AcDbLine
 10
-230.0
 20
-158.5
 30
0.0
 11
-230.0
 21
-162.5
 31
0.0
  0
LINE
  5
2E1
330
3B0
100
AcDbEntity
  8
DATA
  6
Continuous
 62
     7
100
AcDbLine
 10
-229.625
 20
-158.5
 30
0.0
 11
-231.0
 21
-158.5
 31
0.0
  0
LINE
  5
2E2
330
3B0
100
AcDbEntity
  8
DATA
  6
Continuous
 62
     7
100
AcDbLine
 10
-229.5
 20
-158.5
 30
0.0
 11
-229.5
 21
-162.5
 31
0.0
  0
LINE
  5
2E3
330
3B0
100
AcDbEntity
  8
DATA
  6
Continuous
 62
     7
100
AcDbLine
 10
-230.5
 20
-158.5
 30
0.0
 11
-230.5
 21
-162.5
 31
0.0
  0
LINE
  5
2E4
330
3B0
100
AcDbEntity
  8
DATA
  6
Continuous
 62
     7
100
AcDbLine
 10
-213.9000000000001
 20
-157.5999999999999
 30
0.0
 11
-213.9000000000001
 21
-159.5999999999999
 31
0.0
  0
CIRCLE
  5
2E5
330
3B0
100
AcDbEntity
  8
DATA
  6
Continuous
 62
     7
100
AcDbCircle
 10
-194.0999999999999
 20
-178.4
 30
0.0
 40
1.749999999825035
  0
LINE
  5
2E6
330
3B0
100
AcDbEntity
  8
DATA
  6
Continuous
 62
     7
100
AcDbLine
 10
-193.1000000000001
 20
-178.4
 30
0.0
 11
-195.1
 21
-178.4
 31
0.0
  0
LINE
  5
2E7
330
3B0
100
AcDbEntity
  8
DATA
  6
Continuous
 62
     7
100
AcDbLine
 10
-194.1000000000001
 20
-177.4
 30
0.0
 11
-194.1000000000001
 21
-179.4
 31
0.0
  0
TEXT
  5
2E8
330
3B0
100
AcDbEntity
  8
DATA
 62
     7
100
AcDbText
 10
-191.5845304361979
 20
-149.4845581054687
 30
0.0
 40
2.0308837890625
  1
AUDIO OUT | BALANCED
 50
180.0
 41
0.7
 72
     1
 11
-204.0
 21
-150.5
 31
0.0
100
AcDbText
 73
     2
  0
TEXT
  5
2E9
330
3B0
100
AcDbEntity
  8
DATA
 62
     7
100
AcDbText
 10
-160.6070913622634
 20
-148.8075968424479
 30
0.0
 40
3.384806315104166
  1
SR100
 50
180.0
 41
0.7
 11
-160.6070913622634
 21
-150.5
 31
0.0
100
AcDbText
 73
     2
  0
LINE
  5
2EA
330
3B0
100
AcDbEntity
  8
DATA
  6
Continuous
 62
     7
100
AcDbLine
 10
-231.0
 20
-209.5000000000015
 30
0.0
 11
-231.0
 21
-207.5000000000015
 31
0.0
  0
LINE
  5
2EB
330
3B0
100
AcDbEntity
  8
DATA
  6
Continuous
 62
     7
100
AcDbLine
 10
-229.0
 20
-207.5000000000015
 30
0.0
 11
-229.0
 21
-209.5000000000015
 31
0.0
  0
LINE
  5
2EC
330
3B0
100
AcDbEntity
  8
DATA
  6
Continuous
 62
     7
100
AcDbLine
 10
-231.0
 20
-207.5000000000015
 30
0.0
 11
-229.0
 21
-207.5000000000015
 31
0.0
  0
LWPOLYLINE
  5
2ED
330
3B0
100
AcDbEntity
  8
DATA
  6
Continuous
 62
     7
100
AcDbPolyline
 90
        4
 70
   129
 43
0.0
 10
15.5
 20
-431.0
 10
17.5
 20
-431.0
 10
17.5
 20
-435.0
 10
15.5
 20
-435.0
  0
TEXT
  5
2F3
330
3B0
100
AcDbEntity
  8
DATA
 62
     7
100
AcDbText
 10
-275.2732204861111
 20
-698.3313802083333
 30
0.0
 40
21.66276041666666
  1
受信機
 41
0.7
 72
     1
 11
-250.0
 21
-687.5
 31
0.0
100
AcDbText
 73
     2
  0
TEXT
  5
2F4
330
3B0
100
AcDbEntity
  8
DATA
 62
     7
100
AcDbText
 10
161.0382638888889
 20
-623.3313802083333
 30
0.0
 40
21.66276041666666
  1
ハンドヘルド型送信機
 41
0.7
 72
     1
 11
250.0
 21
-612.5
 31
0.0
100
AcDbText
 73
     2
  0
TEXT
  5
2F5
330
3B0
100
AcDbEntity
  8
DATA
 62
     7
100
AcDbText
 10
325.0
 20
-926.2301749536339
 30
0.0
 40
19.4964843740203
  1
DMS100 SET ハンドヘルドマイク
 41
0.7
 11
325.0
 21
-906.7336905796135
 31
0.0
100
AcDbText
 73
     3
  0
LINE
  5
2F6
330
3B0
100
AcDbEntity
  8
DATA
  6
Continuous
 62
     7
100
AcDbLine
 10
230.9
 20
-355.0
 30
0.0
 11
228.15
 21
-338.5
 31
0.0
  0
LINE
  5
2F7
330
3B0
100
AcDbEntity
  8
DATA
  6
Continuous
 62
     7
100
AcDbLine
 10
228.15
 20
-338.5
 30
0.0
 11
271.85
 21
-338.5
 31
0.0
  0
LINE
  5
2F8
330
3B0
100
AcDbEntity
  8
DATA
  6
Continuous
 62
     7
100
AcDbLine
 10
228.15
 20
-338.5
 30
0.0
 11
227.2337278106509
 21
-331.2662721893492
 31
0.0
  0
LINE
  5
2F9
330
3B0
100
AcDbEntity
  8
DATA
  6
Continuous
 62
     7
100
AcDbLine
 10
272.7662721893491
 20
-331.2662721893492
 30
0.0
 11
271.85
 21
-338.5
 31
0.0
  0
LINE
  5
2FA
330
3B0
100
AcDbEntity
  8
DATA
  6
Continuous
 62
     7
100
AcDbLine
 10
272.5
 20
-331.0
 30
0.0
 11
227.5
 21
-331.0
 31
0.0
  0
LINE
  5
2FB
330
3B0
100
AcDbEntity
  8
DATA
  6
Continuous
 62
     7
100
AcDbLine
 10
225.5
 20
-316.5
 30
0.0
 11
224.5
 21
-307.8636363636364
 31
0.0
  0
LINE
  5
2FC
330
3B0
100
AcDbEntity
  8
DATA
  6
Continuous
 62
     7
100
AcDbLine
 10
225.5
 20
-316.5
 30
0.0
 11
274.5
 21
-316.5
 31
0.0
  0
LINE
  5
2FD
330
3B0
100
AcDbEntity
  8
DATA
  6
Continuous
 62
     7
100
AcDbLine
 10
275.5
 20
-307.8636363636364
 30
0.0
 11
274.5
 21
-316.5
 31
0.0
  0
LINE
  5
2FE
330
3B0
100
AcDbEntity
  8
DATA
  6
Continuous
 62
     7
100
AcDbLine
 10
226.0
 20
-306.5
 30
0.0
 11
274.0
 21
-306.5
 31
0.0
  0
LINE
  5
2FF
330
3B0
100
AcDbEntity
  8
DATA
  6
Continuous
 62
     7
100
AcDbLine
 10
234.7968005494497
 20
-275.5
 30
0.0
 11
265.2031994505503
 21
-275.5
 31
0.0
  0
ARC
  5
300
330
3B0
100
AcDbEntity
  8
DATA
  6
Continuous
 62
     7
100
AcDbCircle
 10
479.8125000000001
 20
-343.5372983870968
 30
0.0
 40
256.5005782216969
100
AcDbArc
 50
165.1341472462211
 51
171.697776606008
  0
ARC
  5
301
330
3B0
100
AcDbEntity
  8
DATA
  6
Continuous
 62
     7
100
AcDbCircle
 10
234.7968005494497
 20
-278.5000000000001
 30
0.0
 40
3.000000000000056
100
AcDbArc
 50
90.0
 51
165.1341472462201
  0
ARC
  5
302
330
3B0
100
AcDbEntity
  8
DATA
  6
Continuous
 62
     7
100
AcDbCircle
 10
20.18749999999994
 20
-343.5372983870968
 30
0.0
 40
256.5005782216969
100
AcDbArc
 50
8.30222339399199
 51
14.86585275377883
  0
ARC
  5
303
330
3B0
100
AcDbEntity
  8
DATA
  6
Continuous
 62
     7
100
AcDbCircle
 10
265.2031994505503
 20
-278.5000000000001
 30
0.0
 40
3.000000000000001
100
AcDbArc
 50
14.86585275378005
 51
90.0
  0
TEXT
  5
304
330
3B0
100
AcDbEntity
  8
DATA
 62
     7
100
AcDbText
 10
242.8919067382813
 20
-313.5308837890625
 30
0.0
 40
4.061767578124999
  1
DMS100
 41
0.7
 72
     1
 11
250.0
 21
-311.5
 31
0.0
100
AcDbText
 73
     2
  0
LINE
  5
305
330
3B0
100
AcDbEntity
  8
DATA
  6
Continuous
 62
     7
100
AcDbLine
 10
224.5
 20
-307.8636363636364
 30
0.0
 11
226.0
 21
-306.5
 31
0.0
  0
LINE
  5
306
330
3B0
100
AcDbEntity
  8
DATA
  6
Continuous
 62
     7
100
AcDbLine
 10
224.5
 20
-307.8636363636364
 30
0.0
 11
275.5
 21
-307.8636363636364
 31
0.0
  0
LINE
  5
307
330
3B0
100
AcDbEntity
  8
DATA
  6
Continuous
 62
     7
100
AcDbLine
 10
275.5
 20
-307.8636363636364
 30
0.0
 11
274.0
 21
-306.5
 31
0.0
  0
LINE
  5
308
330
3B0
100
AcDbEntity
  8
DATA
  6
Continuous
 62
     7
100
AcDbLine
 10
227.2337278106509
 20
-331.2662721893492
 30
0.0
 11
227.5
 21
-331.0
 31
0.0
  0
LINE
  5
309
330
3B0
100
AcDbEntity
  8
DATA
  6
Continuous
 62
     7
100
AcDbLine
 10
272.7662721893491
 20
-331.2662721893492
 30
0.0
 11
227.2337278106509
 21
-331.2662721893492
 31
0.0
  0
LINE
  5
30A
330
3B0
100
AcDbEntity
  8
DATA
  6
Continuous
 62
     7
100
AcDbLine
 10
272.7662721893491
 20
-331.2662721893492
 30
0.0
 11
272.5
 21
-331.0
 31
0.0
  0
ARC
  5
30B
330
3B0
100
AcDbEntity
  8
DATA
  6
Continuous
 62
     7
100
AcDbCircle
 10
1733.700000000082
 20
-220.3336734693827
 30
0.0
 40
1510.260068937807
100
AcDbArc
 50
183.6507982575649
 51
184.2021911701133
  0
ARC
  5
30C
330
3B0
100
AcDbEntity
  8
DATA
  6
Continuous
 62
     7
100
AcDbCircle
 10
-1233.700000000082
 20
-220.3336734693827
 30
0.0
 40
1510.260068937807
100
AcDbArc
 50
355.7978088298867
 51
356.3492017424351
  0
LINE
  5
30D
330
3B0
100
AcDbEntity
  8
DATA
  6
Continuous
 62
     7
100
AcDbLine
 10
269.1
 20
-355.0
 30
0.0
 11
271.85
 21
-338.5
 31
0.0
  0
LINE
  5
30E
330
3B0
100
AcDbEntity
  8
DATA
  6
Continuous
 62
     7
100
AcDbLine
 10
233.7328326180258
 20
-524.0
 30
0.0
 11
231.75
 21
-408.4999999999999
 31
0.0
  0
LINE
  5
30F
330
3B0
100
AcDbEntity
  8
DATA
  6
Continuous
 62
     7
100
AcDbLine
 10
266.0
 20
-525.0
 30
0.0
 11
234.0
 21
-525.0
 31
0.0
  0
LINE
  5
310
330
3B0
100
AcDbEntity
  8
DATA
  6
Continuous
 62
     7
100
AcDbLine
 10
268.25
 20
-408.4999999999999
 30
0.0
 11
266.2671673819742
 21
-524.0
 31
0.0
  0
LINE
  5
311
330
3B0
100
AcDbEntity
  8
DATA
  6
Continuous
 62
     7
100
AcDbLine
 10
231.75
 20
-408.4999999999999
 30
0.0
 11
268.25
 21
-408.4999999999999
 31
0.0
  0
LINE
  5
312
330
3B0
100
AcDbEntity
  8
DATA
  6
Continuous
 62
     7
100
AcDbLine
 10
231.75
 20
-408.4999999999999
 30
0.0
 11
230.9
 21
-355.0
 31
0.0
  0
LINE
  5
313
330
3B0
100
AcDbEntity
  8
DATA
  6
Continuous
 62
     7
100
AcDbLine
 10
269.1
 20
-355.0
 30
0.0
 11
268.25
 21
-408.4999999999999
 31
0.0
  0
LINE
  5
314
330
3B0
100
AcDbEntity
  8
DATA
  6
Continuous
 62
     7
100
AcDbLine
 10
230.9
 20
-355.0
 30
0.0
 11
269.1
 21
-355.0
 31
0.0
  0
LINE
  5
315
330
3B0
100
AcDbEntity
  8
DATA
  6
Continuous
 62
     7
100
AcDbLine
 10
266.2671673819742
 20
-524.0
 30
0.0
 11
233.7328326180258
 21
-524.0
 31
0.0
  0
LINE
  5
316
330
3B0
100
AcDbEntity
  8
DATA
  6
Continuous
 62
     7
100
AcDbLine
 10
266.2671673819742
 20
-524.0
 30
0.0
 11
266.0
 21
-525.0
 31
0.0
  0
LINE
  5
317
330
3B0
100
AcDbEntity
  8
DATA
  6
Continuous
 62
     7
100
AcDbLine
 10
234.0
 20
-525.0
 30
0.0
 11
233.7328326180258
 21
-524.0
 31
0.0
  0
TEXT
  5
318
330
3B0
100
AcDbEntity
  8
DATA
 62
     7
100
AcDbText
 10
246.2090169270833
 20
-405.3539225260417
 30
0.0
 40
2.707845052083333
  1
HT100
 41
0.7
 72
     1
 11
250.0
 21
-404.0
 31
0.0
100
AcDbText
 73
     2
  0
LWPOLYLINE
  5
319
330
3B0
100
AcDbEntity
  8
DATA
  6
Continuous
 62
     7
100
AcDbPolyline
 90
        4
 70
   129
 43
0.0
 10
244.3471030996388
 20
-390.5
 10
246.3471030996388
 20
-390.5
 10
246.3471030996388
 20
-391.5
 10
244.3471030996388
 20
-391.5
  0
CIRCLE
  5
31F
330
3B0
100
AcDbEntity
  8
DATA
  6
Continuous
 62
     7
100
AcDbCircle
 10
245.8471030996388
 20
-395.0
 30
0.0
 40
0.5
  0
TEXT
  5
320
330
3B0
100
AcDbEntity
  8
DATA
 62
     7
100
AcDbText
 10
247.3471030996389
 20
-396.3539225260417
 30
0.0
 40
2.707845052083333
  1
MUTE
 41
0.7
 11
247.3471030996389
 21
-395.0
 31
0.0
100
AcDbText
 73
     2
  0
TEXT
  5
321
330
3B0
100
AcDbEntity
  8
DATA
 62
     7
100
AcDbText
 10
247.3471030996389
 20
-392.3539225260417
 30
0.0
 40
2.707845052083333
  1
POWER
 41
0.7
 11
247.3471030996389
 21
-391.0
 31
0.0
100
AcDbText
 73
     2
  0
LWPOLYLINE
  5
322
330
3B0
100
AcDbEntity
  8
DATA
  6
Continuous
 62
     7
100
AcDbPolyline
 90
        4
 70
   129
 43
0.0
 10
242.75
 20
-384.0
 10
257.25
 20
-384.0
 10
257.25
 20
-387.0
 10
242.75
 20
-387.0
  0
TEXT
  5
328
330
3B0
100
AcDbEntity
  8
DATA
 62
     7
100
AcDbText
 10
325.0
 20
-897.0618149550999
 30
0.0
 40
15.16393229090468
  1
2.4GHz帯デジタル・ワイヤレスシステム
 41
0.7
 11
325.0
 21
-881.8978826641952
 31
0.0
100
AcDbText
 73
     3
  0
CIRCLE
  5
329
330
3B0
100
AcDbEntity
  8
DATA
  6
Continuous
 62
     7
100
AcDbCircle
 10
250.0
 20
-562.5
 30
0.0
 40
16.0
  0
CIRCLE
  5
32A
330
3B0
100
AcDbEntity
  8
DATA
  6
Continuous
 62
     7
100
AcDbCircle
 10
250.0
 20
-562.5
 30
0.0
 40
10.0
  0
TEXT
  5
32B
330
3B0
100
AcDbEntity
  8
DATA
 62
     7
100
AcDbText
 10
254.061767578125
 20
-570.0819661458333
 30
0.0
 40
8.123535156249998
  1
AKG
 50
90.0
 41
0.7
 72
     1
 11
250.0
 21
-562.5
 31
0.0
100
AcDbText
 73
     2
  0
CIRCLE
  5
32C
330
3B0
100
AcDbEntity
  8
DATA
  6
Continuous
 62
     7
100
AcDbCircle
 10
250.0
 20
-562.5
 30
0.0
 40
18.24999999999999
  0
CIRCLE
  5
32D
330
3B0
100
AcDbEntity
  8
DATA
  6
Continuous
 62
     7
100
AcDbCircle
 10
250.0
 20
-562.5
 30
0.0
 40
19.10000000000009
  0
CIRCLE
  5
32E
330
3B0
100
AcDbEntity
  8
DATA
  6
Continuous
 62
     7
100
AcDbCircle
 10
250.0
 20
-562.5
 30
0.0
 40
21.84999999999996
  0
CIRCLE
  5
32F
330
3B0
100
AcDbEntity
  8
DATA
  6
Continuous
 62
     7
100
AcDbCircle
 10
250.0
 20
-562.5
 30
0.0
 40
22.76627218934903
  0
CIRCLE
  5
330
330
3B0
100
AcDbEntity
  8
DATA
  6
Continuous
 62
     7
100
AcDbCircle
 10
250.0
 20
-562.5
 30
0.0
 40
24.5
  0
CIRCLE
  5
331
330
3B0
100
AcDbEntity
  8
DATA
  6
Continuous
 62
     7
100
AcDbCircle
 10
250.0
 20
-562.5
 30
0.0
 40
25.50000000000003
  0
CIRCLE
  5
332
330
3B0
100
AcDbEntity
  8
DATA
  6
Continuous
 62
     7
100
AcDbCircle
 10
250.0
 20
-225.0
 30
0.0
 40
17.5
  0
CIRCLE
  5
333
330
3B0
100
AcDbEntity
  8
DATA
  6
Continuous
 62
     7
100
AcDbCircle
 10
250.0
 20
-225.0
 30
0.0
 40
23.99999999999995
  0
CIRCLE
  5
334
330
3B0
100
AcDbEntity
  8
DATA
  6
Continuous
 62
     7
100
AcDbCircle
 10
250.0
 20
-225.0
 30
0.0
 40
25.49999999999999
  0
LINE
  5
335
330
3B0
100
AcDbEntity
  8
DATA
  6
Continuous
 62
     7
100
AcDbLine
 10
-300.0
 20
-710.8888888888888
 30
0.0
 11
-200.0
 21
-710.8888888888888
 31
0.0
  0
LINE
  5
336
330
3B0
100
AcDbEntity
  8
DATA
  6
Continuous
 62
     7
100
AcDbLine
 10
100.0
 20
-637.5
 30
0.0
 11
400.0
 21
-637.5
 31
0.0
  0
VIEWPORT
  5
337
102
{ACAD_XDICTIONARY
360
3ED
102
}
330
3AC
100
AcDbEntity
 67
     1
  8
0
100
AcDbViewport
 10
128.5
 20
97.5
 30
0.0
 40
314.226
 41
222.18
 68
     1
 69
     1
 12
128.5
 22
97.5
 13
0.0
 23
0.0
 14
10.0
 24
10.0
 15
10.0
 25
10.0
 16
0.0
 26
0.0
 36
1.0
 17
0.0
 27
0.0
 37
0.0
 42
50.0
 43
0.0
 44
0.0
 45
222.18
 50
0.0
 51
0.0
 72
   100
 90
    32864
  1

281
     0
 71
     0
 74
     0
110
0.0
120
0.0
130
0.0
111
1.0
121
0.0
131
0.0
112
0.0
122
1.0
132
0.0
 79
     0
146
0.0
  0
ENDSEC
  0
SECTION
  2
OBJECTS
  0
DICTIONARY
  5
34D
330
0
100
AcDbDictionary
281
     1
  3
ACAD_CIP_PREVIOUS_PRODUCT_INFO
350
3D1
  3
ACAD_COLOR
350
3A3
  3
ACAD_DETAILVIEWSTYLE
350
3AA
  3
ACAD_GROUP
350
34E
  3
ACAD_LAYOUT
350
3A2
  3
ACAD_MATERIAL
350
351
  3
ACAD_MLEADERSTYLE
350
3A6
  3
ACAD_MLINESTYLE
350
39F
  3
ACAD_PLOTSETTINGS
350
3A1
  3
ACAD_PLOTSTYLENAME
350
34F
  3
ACAD_SCALELIST
350
383
  3
ACAD_SECTIONVIEWSTYLE
350
3A8
  3
ACAD_TABLESTYLE
350
3A4
  3
ACAD_VISUALSTYLE
350
36A
  3
ACDB_RECOMPOSE_DATA
350
3EB
  3
AcDbVariableDictionary
350
3DE
  3
DWGPROPS
350
3EC
  0
DICTIONARY
  5
3D2
330
395
100
AcDbDictionary
280
     1
281
     1
  3
ADSK_XREC_LAYER_RECONCILED
360
3D3
  0
DICTIONARY
  5
3D4
330
3B4
100
AcDbDictionary
280
     1
281
     1
  3
ADSK_XREC_LAYER_RECONCILED
360
3D5
  0
DICTIONARY
  5
3D6
330
3C1
100
AcDbDictionary
280
     1
281
     1
  3
ADSK_XREC_LAYER_RECONCILED
360
3D7
  0
DICTIONARY
  5
3D8
330
3C2
100
AcDbDictionary
280
     1
281
     1
  3
ADSK_XREC_LAYER_RECONCILED
360
3D9
  0
DICTIONARY
  5
3DA
330
3C3
100
AcDbDictionary
280
     1
281
     1
  3
ADSK_XREC_LAYER_RECONCILED
360
3DB
  0
DICTIONARY
  5
3DC
330
3C4
100
AcDbDictionary
280
     1
281
     1
  3
ADSK_XREC_LAYER_RECONCILED
360
3DD
  0
DICTIONARY
  5
3ED
330
337
100
AcDbDictionary
280
     1
281
     1
  3
ACAD_XREC_ROUNDTRIP
360
3EE
  0
XRECORD
  5
3D1
102
{ACAD_REACTORS
330
34D
102
}
330
34D
100
AcDbXrecord
280
     1
300
ACDLT
300
2020
300

  0
DICTIONARY
  5
3A3
102
{ACAD_REACTORS
330
34D
102
}
330
34D
100
AcDbDictionary
281
     1
  0
DICTIONARY
  5
3AA
102
{ACAD_REACTORS
330
34D
102
}
330
34D
100
AcDbDictionary
281
     1
  3
Imperial24
350
3AB
  0
DICTIONARY
  5
34E
102
{ACAD_REACTORS
330
34D
102
}
330
34D
100
AcDbDictionary
281
     1
  0
DICTIONARY
  5
3A2
102
{ACAD_REACTORS
330
34D
102
}
330
34D
100
AcDbDictionary
281
     1
  3
Model
350
3B3
  3
レイアウト1
350
3AF
  0
DICTIONARY
  5
351
102
{ACAD_REACTORS
330
34D
102
}
330
34D
100
AcDbDictionary
281
     1
  3
ByBlock
350
35A
  3
ByLayer
350
352
  3
Global
350
362
  0
DICTIONARY
  5
3A6
102
{ACAD_REACTORS
330
34D
102
}
330
34D
100
AcDbDictionary
281
     1
  3
Standard
350
3A7
  0
DICTIONARY
  5
39F
102
{ACAD_REACTORS
330
34D
102
}
330
34D
100
AcDbDictionary
281
     1
  3
Standard
350
3A0
  0
DICTIONARY
  5
3A1
102
{ACAD_REACTORS
330
34D
102
}
330
34D
100
AcDbDictionary
281
     1
  0
ACDBDICTIONARYWDFLT
  5
34F
102
{ACAD_REACTORS
330
34D
102
}
330
34D
100
AcDbDictionary
281
     1
  3
Normal
350
350
100
AcDbDictionaryWithDefault
340
350
  0
DICTIONARY
  5
383
102
{ACAD_REACTORS
330
34D
102
}
330
34D
100
AcDbDictionary
281
     1
  3
A0
350
384
  3
A1
350
385
  3
A2
350
386
  3
A3
350
387
  3
A4
350
388
  3
A5
350
389
  3
A6
350
38A
  3
A7
350
38B
  3
A8
350
38C
  3
A9
350
38D
  3
B0
350
38E
  3
B1
350
38F
  3
B2
350
390
  3
B3
350
391
  3
B4
350
392
  3
B5
350
393
  3
B6
350
394
  0
DICTIONARY
  5
3A8
102
{ACAD_REACTORS
330
34D
102
}
330
34D
100
AcDbDictionary
281
     1
  3
Imperial24
350
3A9
  0
DICTIONARY
  5
3A4
102
{ACAD_REACTORS
330
34D
102
}
330
34D
100
AcDbDictionary
281
     1
  3
Standard
350
3A5
  0
DICTIONARY
  5
36A
102
{ACAD_REACTORS
330
34D
102
}
330
34D
100
AcDbDictionary
281
     1
  3
2dWireframe
350
370
  3
Basic
350
36F
  3
Brighten
350
376
  3
ColorChange
350
37A
  3
Conceptual
350
373
  3
Dim
350
375
  3
EdgeColorOff
350
382
  3
Facepattern
350
379
  3
Flat
350
36B
  3
FlatWithEdges
350
36C
  3
Gouraud
350
36D
  3
GouraudWithEdges
350
36E
  3
Hidden
350
372
  3
JitterOff
350
380
  3
Linepattern
350
378
  3
OverhangOff
350
381
  3
Realistic
350
374
  3
Shaded
350
37F
  3
Shaded with edges
350
37E
  3
Shades of Gray
350
37B
  3
Sketchy
350
37C
  3
Thicken
350
377
  3
Wireframe
350
371
  3
X-Ray
350
37D
  0
XRECORD
  5
3EB
102
{ACAD_REACTORS
330
34D
102
}
330
34D
100
AcDbXrecord
280
     1
 90
        1
330
3A5
  0
DICTIONARY
  5
3DE
102
{ACAD_REACTORS
330
34D
102
}
330
34D
100
AcDbDictionary
281
     1
  3
CANNOSCALE
350
3E3
  3
CMLEADERSTYLE
350
3E0
  3
CTABLESTYLE
350
3DF
  3
CVIEWDETAILSTYLE
350
3E1
  3
CVIEWSECTIONSTYLE
350
3E2
  3
DIMASSOC
350
3E6
  3
INDEXCTL
350
3E5
  3
SORTENTS
350
3E4
  3
XCLIPFRAME
350
3E7
  0
XRECORD
  5
3EC
102
{ACAD_REACTORS
330
34D
102
}
330
34D
100
AcDbXrecord
280
     1
  1
DWGPROPS COOKIE
  2

  3

  4

  6

  7

  8
sasaki_n
  9

300
=
301
=
302
=
303
=
304
=
305
=
306
=
307
=
308
=
309
=
 40
0.0004861226851852
 41
2458843.616701389
 42
2458843.618321759
  1

 90
        0
  0
XRECORD
  5
3D3
102
{ACAD_REACTORS
330
3D2
102
}
330
3D2
100
AcDbXrecord
280
     1
290
     1
  0
XRECORD
  5
3D5
102
{ACAD_REACTORS
330
3D4
102
}
330
3D4
100
AcDbXrecord
280
     1
290
     1
  0
XRECORD
  5
3D7
102
{ACAD_REACTORS
330
3D6
102
}
330
3D6
100
AcDbXrecord
280
     1
290
     1
  0
XRECORD
  5
3D9
102
{ACAD_REACTORS
330
3D8
102
}
330
3D8
100
AcDbXrecord
280
     1
290
     1
  0
XRECORD
  5
3DB
102
{ACAD_REACTORS
330
3DA
102
}
330
3DA
100
AcDbXrecord
280
     1
290
     1
  0
XRECORD
  5
3DD
102
{ACAD_REACTORS
330
3DC
102
}
330
3DC
100
AcDbXrecord
280
     1
290
     1
  0
XRECORD
  5
3EE
102
{ACAD_REACTORS
330
3ED
102
}
330
3ED
100
AcDbXrecord
280
     1
102
SHADEPLOT
 70
     0
  0
ACDBDETAILVIEWSTYLE
  5
3AB
102
{ACAD_XDICTIONARY
360
426
102
}
102
{ACAD_REACTORS
330
3AA
102
}
330
3AA
100
AcDbModelDocViewStyle
 70
     0
  3
Imperial24
290
     0
100
AcDbDetailViewStyle
 70
     0
 71
     0
 90
        3
 71
     1
340
396
 40
0.24
340
0
 40
0.24
300

 40
0.36
280
     3
 71
     2
340
39D
 90
       25
 71
     3
340
396
 40
0.24
 90
        1
 40
0.75
 90
        1
300
%<\AcVar ViewType \f "%tc1">% %<\AcVar ViewDetailId>%\PSCALE %<\AcVar ViewScale \f "%sn">%
 71
     4
340
39D
 90
       25
340
39D
 90
       25
280
     0
  0
LAYOUT
  5
3B3
102
{ACAD_XDICTIONARY
360
42A
102
}
102
{ACAD_REACTORS
330
3A2
102
}
330
3A2
100
AcDbPlotSettings
  1

  2
DocuPrint 3000-3
  4

  6

 40
0.0
 41
0.0
 42
0.0
 43
0.0
 44
0.0
 45
0.0
 46
0.0
 47
0.0
 48
0.0
 49
0.0
140
0.0
141
0.0
142
1.0
143
1.0
 70
  1712
 72
     0
 73
     0
 74
     0
  7

 75
     0
147
1.0
148
0.0
149
0.0
100
AcDbLayout
  1
Model
 70
     1
 71
     0
 10
0.0
 20
0.0
 11
12.0
 21
9.0
 12
0.0
 22
0.0
 32
0.0
 14
0.0
 24
0.0
 34
0.0
 15
0.0
 25
0.0
 35
0.0
146
0.0
 13
0.0
 23
0.0
 33
0.0
 16
1.0
 26
0.0
 36
0.0
 17
0.0
 27
1.0
 37
0.0
 76
     0
330
3B0
331
3B5
  0
LAYOUT
  5
3AF
102
{ACAD_XDICTIONARY
360
428
102
}
102
{ACAD_REACTORS
330
3A2
102
}
330
3A2
100
AcDbPlotSettings
  1

  2
DocuPrint 3000-3
  4

  6

 40
0.0
 41
0.0
 42
0.0
 43
0.0
 44
0.0
 45
0.0
 46
0.0
 47
0.0
 48
0.0
 49
0.0
140
0.0
141
0.0
142
1.0
143
1.0
 70
   688
 72
     0
 73
     0
 74
     5
  7

 75
    16
147
1.0
148
0.0
149
0.0
100
AcDbLayout
  1
レイアウト1
 70
     1
 71
     1
 10
-20.0
 20
-7.5
 11
277.0
 21
202.5
 12
0.0
 22
0.0
 32
0.0
 14
1.000000000000000E+20
 24
1.000000000000000E+20
 34
1.000000000000000E+20
 15
-1.000000000000000E+20
 25
-1.000000000000000E+20
 35
-1.000000000000000E+20
146
0.0
 13
0.0
 23
0.0
 33
0.0
 16
1.0
 26
0.0
 36
0.0
 17
0.0
 27
1.0
 37
0.0
 76
     0
330
3AC
331
337
  0
MATERIAL
  5
35A
102
{ACAD_XDICTIONARY
360
35B
102
}
102
{ACAD_REACTORS
330
351
102
}
330
351
100
AcDbMaterial
  1
ByBlock
 72
     0
 43
0.0208333333333333
 43
0.0
 43
0.0
 43
0.0
 43
0.0
 43
0.0208333333333333
 43
0.0
 43
0.0
 43
0.0
 43
0.0
 43
1.0
 43
0.0
 43
0.0
 43
0.0
 43
0.0
 43
1.0
 77
     0
 47
0.0208333333333333
 47
0.0
 47
0.0
 47
0.0
 47
0.0
 47
0.0208333333333333
 47
0.0
 47
0.0
 47
0.0
 47
0.0
 47
1.0
 47
0.0
 47
0.0
 47
0.0
 47
0.0
 47
1.0
171
     0
 49
0.0208333333333333
 49
0.0
 49
0.0
 49
0.0
 49
0.0
 49
0.0208333333333333
 49
0.0
 49
0.0
 49
0.0
 49
0.0
 49
1.0
 49
0.0
 49
0.0
 49
0.0
 49
0.0
 49
1.0
175
     0
142
0.0208333333333333
142
0.0
142
0.0
142
0.0
142
0.0
142
0.0208333333333333
142
0.0
142
0.0
142
0.0
142
0.0
142
1.0
142
0.0
142
0.0
142
0.0
142
0.0
142
1.0
179
     0
144
0.0208333333333333
144
0.0
144
0.0
144
0.0
144
0.0
144
0.0208333333333333
144
0.0
144
0.0
144
0.0
144
0.0
144
1.0
144
0.0
144
0.0
144
0.0
144
0.0
144
1.0
147
0.0208333333333333
147
0.0
147
0.0
147
0.0
147
0.0
147
0.0208333333333333
147
0.0
147
0.0
147
0.0
147
0.0
147
1.0
147
0.0
147
0.0
147
0.0
147
0.0
147
1.0
  0
MATERIAL
  5
352
102
{ACAD_XDICTIONARY
360
353
102
}
102
{ACAD_REACTORS
330
351
102
}
330
351
100
AcDbMaterial
  1
ByLayer
 72
     0
 43
0.0208333333333333
 43
0.0
 43
0.0
 43
0.0
 43
0.0
 43
0.0208333333333333
 43
0.0
 43
0.0
 43
0.0
 43
0.0
 43
1.0
 43
0.0
 43
0.0
 43
0.0
 43
0.0
 43
1.0
 77
     0
 47
0.0208333333333333
 47
0.0
 47
0.0
 47
0.0
 47
0.0
 47
0.0208333333333333
 47
0.0
 47
0.0
 47
0.0
 47
0.0
 47
1.0
 47
0.0
 47
0.0
 47
0.0
 47
0.0
 47
1.0
171
     0
 49
0.0208333333333333
 49
0.0
 49
0.0
 49
0.0
 49
0.0
 49
0.0208333333333333
 49
0.0
 49
0.0
 49
0.0
 49
0.0
 49
1.0
 49
0.0
 49
0.0
 49
0.0
 49
0.0
 49
1.0
175
     0
142
0.0208333333333333
142
0.0
142
0.0
142
0.0
142
0.0
142
0.0208333333333333
142
0.0
142
0.0
142
0.0
142
0.0
142
1.0
142
0.0
142
0.0
142
0.0
142
0.0
142
1.0
179
     0
144
0.0208333333333333
144
0.0
144
0.0
144
0.0
144
0.0
144
0.0208333333333333
144
0.0
144
0.0
144
0.0
144
0.0
144
1.0
144
0.0
144
0.0
144
0.0
144
0.0
144
1.0
147
0.0208333333333333
147
0.0
147
0.0
147
0.0
147
0.0
147
0.0208333333333333
147
0.0
147
0.0
147
0.0
147
0.0
147
1.0
147
0.0
147
0.0
147
0.0
147
0.0
147
1.0
  0
MATERIAL
  5
362
102
{ACAD_XDICTIONARY
360
363
102
}
102
{ACAD_REACTORS
330
351
102
}
330
351
100
AcDbMaterial
  1
Global
 72
     0
 43
0.0208333333333333
 43
0.0
 43
0.0
 43
0.0
 43
0.0
 43
0.0208333333333333
 43
0.0
 43
0.0
 43
0.0
 43
0.0
 43
1.0
 43
0.0
 43
0.0
 43
0.0
 43
0.0
 43
1.0
 77
     0
 47
0.0208333333333333
 47
0.0
 47
0.0
 47
0.0
 47
0.0
 47
0.0208333333333333
 47
0.0
 47
0.0
 47
0.0
 47
0.0
 47
1.0
 47
0.0
 47
0.0
 47
0.0
 47
0.0
 47
1.0
171
     0
 49
0.0208333333333333
 49
0.0
 49
0.0
 49
0.0
 49
0.0
 49
0.0208333333333333
 49
0.0
 49
0.0
 49
0.0
 49
0.0
 49
1.0
 49
0.0
 49
0.0
 49
0.0
 49
0.0
 49
1.0
175
     0
142
0.0208333333333333
142
0.0
142
0.0
142
0.0
142
0.0
142
0.0208333333333333
142
0.0
142
0.0
142
0.0
142
0.0
142
1.0
142
0.0
142
0.0
142
0.0
142
0.0
142
1.0
179
     0
144
0.0208333333333333
144
0.0
144
0.0
144
0.0
144
0.0
144
0.0208333333333333
144
0.0
144
0.0
144
0.0
144
0.0
144
1.0
144
0.0
144
0.0
144
0.0
144
0.0
144
1.0
147
0.0208333333333333
147
0.0
147
0.0
147
0.0
147
0.0
147
0.0208333333333333
147
0.0
147
0.0
147
0.0
147
0.0
147
1.0
147
0.0
147
0.0
147
0.0
147
0.0
147
1.0
  0
MLEADERSTYLE
  5
3A7
102
{ACAD_REACTORS
330
3A6
102
}
330
3A6
100
AcDbMLeaderStyle
170
     2
171
     1
172
     0
 90
        2
 40
0.0
 41
0.0
173
     1
 91
-1056964608
340
39B
 92
       -2
290
     1
 42
0.09
291
     1
 43
0.36
  3
Standard
 44
0.18
300

342
396
174
     1
178
     6
175
     1
176
     0
 93
-1056964608
 45
0.18
292
     0
297
     0
 46
0.18
 94
-1056964608
 47
1.0
 49
1.0
140
1.0
293
     1
141
0.0
294
     1
177
     0
142
1.0
295
     0
296
     0
143
0.125
1001
ACAD_MLEADERVER
1070
     2
  0
MLINESTYLE
  5
3A0
102
{ACAD_REACTORS
330
39F
102
}
330
39F
100
AcDbMlineStyle
  2
STANDARD
 70
     0
  3

 62
   256
 51
90.0
 52
90.0
 71
     2
 49
0.5
 62
   256
  6
BYLAYER
 49
-0.5
 62
   256
  6
BYLAYER
  0
ACDBPLACEHOLDER
  5
350
102
{ACAD_REACTORS
330
34F
102
}
330
34F
  0
SCALE
  5
384
102
{ACAD_REACTORS
330
383
102
}
330
383
100
AcDbScale
 70
     0
300
1:1
140
1.0
141
1.0
290
     1
  0
SCALE
  5
385
102
{ACAD_REACTORS
330
383
102
}
330
383
100
AcDbScale
 70
     0
300
1/128" = 1'-0"
140
0.0078125
141
12.0
290
     0
  0
SCALE
  5
386
102
{ACAD_REACTORS
330
383
102
}
330
383
100
AcDbScale
 70
     0
300
1/64" = 1'-0"
140
0.015625
141
12.0
290
     0
  0
SCALE
  5
387
102
{ACAD_REACTORS
330
383
102
}
330
383
100
AcDbScale
 70
     0
300
1/32" = 1'-0"
140
0.03125
141
12.0
290
     0
  0
SCALE
  5
388
102
{ACAD_REACTORS
330
383
102
}
330
383
100
AcDbScale
 70
     0
300
1/16" = 1'-0"
140
0.0625
141
12.0
290
     0
  0
SCALE
  5
389
102
{ACAD_REACTORS
330
383
102
}
330
383
100
AcDbScale
 70
     0
300
3/32" = 1'-0"
140
0.09375
141
12.0
290
     0
  0
SCALE
  5
38A
102
{ACAD_REACTORS
330
383
102
}
330
383
100
AcDbScale
 70
     0
300
1/8" = 1'-0"
140
0.125
141
12.0
290
     0
  0
SCALE
  5
38B
102
{ACAD_REACTORS
330
383
102
}
330
383
100
AcDbScale
 70
     0
300
3/16" = 1'-0"
140
0.1875
141
12.0
290
     0
  0
SCALE
  5
38C
102
{ACAD_REACTORS
330
383
102
}
330
383
100
AcDbScale
 70
     0
300
1/4" = 1'-0"
140
0.25
141
12.0
290
     0
  0
SCALE
  5
38D
102
{ACAD_REACTORS
330
383
102
}
330
383
100
AcDbScale
 70
     0
300
3/8" = 1'-0"
140
0.375
141
12.0
290
     0
  0
SCALE
  5
38E
102
{ACAD_REACTORS
330
383
102
}
330
383
100
AcDbScale
 70
     0
300
1/2" = 1'-0"
140
0.5
141
12.0
290
     0
  0
SCALE
  5
38F
102
{ACAD_REACTORS
330
383
102
}
330
383
100
AcDbScale
 70
     0
300
3/4" = 1'-0"
140
0.75
141
12.0
290
     0
  0
SCALE
  5
390
102
{ACAD_REACTORS
330
383
102
}
330
383
100
AcDbScale
 70
     0
300
1" = 1'-0"
140
1.0
141
12.0
290
     0
  0
SCALE
  5
391
102
{ACAD_REACTORS
330
383
102
}
330
383
100
AcDbScale
 70
     0
300
1-1/2" = 1'-0"
140
1.5
141
12.0
290
     0
  0
SCALE
  5
392
102
{ACAD_REACTORS
330
383
102
}
330
383
100
AcDbScale
 70
     0
300
3" = 1'-0"
140
3.0
141
12.0
290
     0
  0
SCALE
  5
393
102
{ACAD_REACTORS
330
383
102
}
330
383
100
AcDbScale
 70
     0
300
6" = 1'-0"
140
6.0
141
12.0
290
     0
  0
SCALE
  5
394
102
{ACAD_REACTORS
330
383
102
}
330
383
100
AcDbScale
 70
     0
300
1'-0" = 1'-0"
140
12.0
141
12.0
290
     0
  0
ACDBSECTIONVIEWSTYLE
  5
3A9
102
{ACAD_XDICTIONARY
360
424
102
}
102
{ACAD_REACTORS
330
3A8
102
}
330
3A8
100
AcDbModelDocViewStyle
 70
     0
  3
Imperial24
290
     0
100
AcDbSectionViewStyle
 70
     0
 71
     0
 90
       78
 71
     1
340
396
 40
0.24
340
0
340
0
 40
0.24
300
I, O, Q, S, X, Z
 40
0.48
 90
        3
 40
0.18
 90
        1
 71
     2
340
39D
 90
       25
340
39D
 90
       50
 40
0.24
 40
0.0
 40
0.24
 71
     3
340
396
 40
0.24
 90
        1
 40
0.75
 90
        1
300
%<\AcVar ViewType \f "%tc1">% %<\AcVar ViewSectionStartId>%-%<\AcVar ViewSectionEndId>%\PSCALE %<\AcVar ViewScale \f "%sn">%
 71
     4
300
ANSI31
 40
1.0
 90
        0
290
     0
290
     0
 90
        6
 40
0.0
 40
1.570796326794896
 40
0.2617993877991494
 40
1.308996938995747
 40
-0.2617993877991494
 40
1.832595714594046
  0
TABLESTYLE
  5
3A5
102
{ACAD_XDICTIONARY
360
3E9
102
}
102
{ACAD_REACTORS
330
3A4
102
}
330
3A4
100
AcDbTableStyle
  3
Standard
 70
     0
 71
     0
 40
0.06
 41
0.06
280
     0
281
     0
  7
STANDARD
140
0.18
170
     2
 62
     0
 63
     7
283
     0
274
    -2
284
     1
 64
     0
275
    -2
285
     1
 65
     0
276
    -2
286
     1
 66
     0
277
    -2
287
     1
 67
     0
278
    -2
288
     1
 68
     0
279
    -2
289
     1
 69
     0
  7
STANDARD
140
0.25
170
     5
 62
     0
 63
     7
283
     0
274
    -2
284
     1
 64
     0
275
    -2
285
     1
 65
     0
276
    -2
286
     1
 66
     0
277
    -2
287
     1
 67
     0
278
    -2
288
     1
 68
     0
279
    -2
289
     1
 69
     0
  7
STANDARD
140
0.18
170
     5
 62
     0
 63
     7
283
     0
274
    -2
284
     1
 64
     0
275
    -2
285
     1
 65
     0
276
    -2
286
     1
 66
     0
277
    -2
287
     1
 67
     0
278
    -2
288
     1
 68
     0
279
    -2
289
     1
 69
     0
  0
VISUALSTYLE
  5
370
102
{ACAD_XDICTIONARY
360
3FC
102
}
102
{ACAD_REACTORS
330
36A
102
}
330
36A
100
AcDbVisualStyle
  2
2dWireframe
 70
     4
 71
     0
 72
     2
 73
     0
 90
        0
 40
-0.6
 41
-30.0
 62
     5
 63
     7
 74
     1
 91
        4
 64
     7
 65
   257
 75
     1
175
     1
 42
1.0
 92
        0
 66
   257
 43
1.0
 76
     1
 77
     6
 78
     2
 67
     7
 79
     5
170
     0
171
     0
290
     0
174
     0
 93
        1
 44
0.0
173
     0
291
     0
 45
0.0
1001
ACAD
1000
AcDbSavedByObjectVersion
1070
     0
  0
VISUALSTYLE
  5
36F
102
{ACAD_XDICTIONARY
360
3FA
102
}
102
{ACAD_REACTORS
330
36A
102
}
330
36A
100
AcDbVisualStyle
  2
Basic
 70
     7
 71
     1
 72
     0
 73
     1
 90
        0
 40
-0.6
 41
-30.0
 62
     5
 63
     7
 74
     0
 91
        4
 64
     7
 65
   257
 75
     1
175
     1
 42
1.0
 92
        8
 66
     7
 43
1.0
 76
     1
 77
     6
 78
     2
 67
     7
 79
     5
170
     0
171
     0
290
     0
174
     0
 93
        1
 44
0.0
173
     0
291
     1
 45
0.0
1001
ACAD
1000
AcDbSavedByObjectVersion
1070
     0
  0
VISUALSTYLE
  5
376
102
{ACAD_XDICTIONARY
360
408
102
}
102
{ACAD_REACTORS
330
36A
102
}
330
36A
100
AcDbVisualStyle
  2
Brighten
 70
    12
 71
     2
 72
     2
 73
     0
 90
        0
 40
-0.6
 41
-30.0
 62
     5
 63
     7
 74
     1
 91
        4
 64
     7
 65
   257
 75
     1
175
     1
 42
1.0
 92
        8
 66
     7
 43
1.0
 76
     1
 77
     6
 78
     2
 67
     7
 79
     5
170
     0
171
     0
290
     0
174
     0
 93
        1
 44
50.0
173
     0
291
     1
 45
0.0
1001
ACAD
1000
AcDbSavedByObjectVersion
1070
     0
  0
VISUALSTYLE
  5
37A
102
{ACAD_XDICTIONARY
360
410
102
}
102
{ACAD_REACTORS
330
36A
102
}
330
36A
100
AcDbVisualStyle
  2
ColorChange
 70
    16
 71
     2
 72
     2
 73
     3
 90
        0
 40
-0.6
 41
-30.0
 62
     5
 63
     8
 74
     1
 91
        4
 64
     7
 65
   257
 75
     1
175
     1
 42
1.0
 92
        8
 66
     8
 43
1.0
 76
     1
 77
     6
 78
     2
 67
     7
 79
     5
170
     0
171
     0
290
     0
174
     0
 93
        1
 44
0.0
173
     0
291
     1
 45
0.0
1001
ACAD
1000
AcDbSavedByObjectVersion
1070
     0
  0
VISUALSTYLE
  5
373
102
{ACAD_XDICTIONARY
360
402
102
}
102
{ACAD_REACTORS
330
36A
102
}
330
36A
100
AcDbVisualStyle
  2
Conceptual
 70
     9
 71
     3
 72
     2
 73
     0
 90
        0
 40
-0.6
 41
-30.0
 62
     5
 63
     7
 74
     2
 91
        2
 64
     7
 65
   257
 75
     1
175
     1
 42
179.0
 92
        8
 66
     7
 43
1.0
 76
     1
 77
     6
 78
     2
 67
     7
 79
     3
170
     0
171
     0
290
     0
174
     0
 93
        1
 44
0.0
173
     0
291
     0
 45
0.0
1001
ACAD
1000
AcDbSavedByObjectVersion
1070
     0
  0
VISUALSTYLE
  5
375
102
{ACAD_XDICTIONARY
360
406
102
}
102
{ACAD_REACTORS
330
36A
102
}
330
36A
100
AcDbVisualStyle
  2
Dim
 70
    11
 71
     2
 72
     2
 73
     0
 90
        0
 40
-0.6
 41
-30.0
 62
     5
 63
     7
 74
     1
 91
        4
 64
     7
 65
   257
 75
     1
175
     1
 42
1.0
 92
        8
 66
     7
 43
1.0
 76
     1
 77
     6
 78
     2
 67
     7
 79
     5
170
     0
171
     0
290
     0
174
     0
 93
        1
 44
-50.0
173
     0
291
     1
 45
0.0
1001
ACAD
1000
AcDbSavedByObjectVersion
1070
     0
  0
VISUALSTYLE
  5
382
102
{ACAD_XDICTIONARY
360
420
102
}
102
{ACAD_REACTORS
330
36A
102
}
330
36A
100
AcDbVisualStyle
  2
EdgeColorOff
 70
    22
 71
     2
 72
     2
 73
     0
 90
        0
 40
-0.6
 41
-30.0
 62
     5
 63
     7
 74
     1
 91
        4
 64
     7
 65
   257
 75
     1
175
     1
 42
1.0
 92
        8
 66
     7
 43
1.0
 76
     1
 77
     6
 78
     2
 67
     7
 79
     5
170
     0
171
     0
290
     0
174
     0
 93
        1
 44
0.0
173
     0
291
     1
 45
0.0
1001
ACAD
1000
AcDbSavedByObjectVersion
1070
     0
  0
VISUALSTYLE
  5
379
102
{ACAD_XDICTIONARY
360
40E
102
}
102
{ACAD_REACTORS
330
36A
102
}
330
36A
100
AcDbVisualStyle
  2
Facepattern
 70
    15
 71
     2
 72
     2
 73
     0
 90
        0
 40
-0.6
 41
-30.0
 62
     5
 63
     7
 74
     1
 91
        4
 64
     7
 65
   257
 75
     1
175
     1
 42
1.0
 92
        8
 66
     7
 43
1.0
 76
     1
 77
     6
 78
     2
 67
     7
 79
     5
170
     0
171
     0
290
     0
174
     0
 93
        1
 44
0.0
173
     0
291
     1
 45
0.0
1001
ACAD
1000
AcDbSavedByObjectVersion
1070
     0
  0
VISUALSTYLE
  5
36B
102
{ACAD_XDICTIONARY
360
3F2
102
}
102
{ACAD_REACTORS
330
36A
102
}
330
36A
100
AcDbVisualStyle
  2
Flat
 70
     0
 71
     2
 72
     1
 73
     1
 90
        2
 40
-0.6
 41
30.0
 62
     5
 63
     7
 74
     0
 91
        0
 64
     7
 65
   257
 75
     1
175
     1
 42
1.0
 92
        8
 66
     7
 43
1.0
 76
     1
 77
     6
 78
     2
 67
     7
 79
     5
170
     0
171
     0
290
     0
174
     0
 93
       13
 44
0.0
173
     0
291
     1
 45
0.0
1001
ACAD
1000
AcDbSavedByObjectVersion
1070
     0
  0
VISUALSTYLE
  5
36C
102
{ACAD_XDICTIONARY
360
3F4
102
}
102
{ACAD_REACTORS
330
36A
102
}
330
36A
100
AcDbVisualStyle
  2
FlatWithEdges
 70
     1
 71
     2
 72
     1
 73
     1
 90
        2
 40
-0.6
 41
30.0
 62
     5
 63
     7
 74
     1
 91
        0
 64
     7
 65
   257
 75
     1
175
     1
 42
1.0
 92
        0
 66
   257
 43
1.0
 76
     1
 77
     6
 78
     2
 67
     7
 79
     5
170
     0
171
     0
290
     0
174
     0
 93
       13
 44
0.0
173
     0
291
     1
 45
0.0
1001
ACAD
1000
AcDbSavedByObjectVersion
1070
     0
  0
VISUALSTYLE
  5
36D
102
{ACAD_XDICTIONARY
360
3F6
102
}
102
{ACAD_REACTORS
330
36A
102
}
330
36A
100
AcDbVisualStyle
  2
Gouraud
 70
     2
 71
     2
 72
     2
 73
     1
 90
        2
 40
-0.6
 41
30.0
 62
     5
 63
     7
 74
     0
 91
        0
 64
     7
 65
   257
 75
     1
175
     1
 42
1.0
 92
        0
 66
     7
 43
1.0
 76
     1
 77
     6
 78
     2
 67
     7
 79
     5
170
     0
171
     0
290
     0
174
     0
 93
       13
 44
0.0
173
     0
291
     1
 45
0.0
1001
ACAD
1000
AcDbSavedByObjectVersion
1070
     0
  0
VISUALSTYLE
  5
36E
102
{ACAD_XDICTIONARY
360
3F8
102
}
102
{ACAD_REACTORS
330
36A
102
}
330
36A
100
AcDbVisualStyle
  2
GouraudWithEdges
 70
     3
 71
     2
 72
     2
 73
     1
 90
        2
 40
-0.6
 41
30.0
 62
     5
 63
     7
 74
     1
 91
        0
 64
     7
 65
   257
 75
     1
175
     1
 42
1.0
 92
        0
 66
   257
 43
1.0
 76
     1
 77
     6
 78
     2
 67
     7
 79
     5
170
     0
171
     0
290
     0
174
     0
 93
       13
 44
0.0
173
     0
291
     1
 45
0.0
1001
ACAD
1000
AcDbSavedByObjectVersion
1070
     0
  0
VISUALSTYLE
  5
372
102
{ACAD_XDICTIONARY
360
400
102
}
102
{ACAD_REACTORS
330
36A
102
}
330
36A
100
AcDbVisualStyle
  2
Hidden
 70
     6
 71
     1
 72
     2
 73
     2
 90
        0
 40
-0.6
 41
-30.0
 62
     5
 63
     7
 74
     2
 91
        2
 64
     7
 65
   257
 75
     2
175
     1
 42
40.0
 92
        0
 66
   257
 43
1.0
 76
     1
 77
     6
 78
     2
 67
     7
 79
     3
170
     0
171
     0
290
     0
174
     0
 93
        1
 44
0.0
173
     0
291
     0
 45
0.0
1001
ACAD
1000
AcDbSavedByObjectVersion
1070
     0
  0
VISUALSTYLE
  5
380
102
{ACAD_XDICTIONARY
360
41C
102
}
102
{ACAD_REACTORS
330
36A
102
}
330
36A
100
AcDbVisualStyle
  2
JitterOff
 70
    20
 71
     2
 72
     2
 73
     0
 90
        0
 40
-0.6
 41
-30.0
 62
     5
 63
     7
 74
     1
 91
        4
 64
     7
 65
   257
 75
     1
175
     1
 42
1.0
 92
       10
 66
     7
 43
1.0
 76
     1
 77
     6
 78
     2
 67
     7
 79
     5
170
     0
171
     0
290
     0
174
     0
 93
        1
 44
0.0
173
     0
291
     1
 45
0.0
1001
ACAD
1000
AcDbSavedByObjectVersion
1070
     0
  0
VISUALSTYLE
  5
378
102
{ACAD_XDICTIONARY
360
40C
102
}
102
{ACAD_REACTORS
330
36A
102
}
330
36A
100
AcDbVisualStyle
  2
Linepattern
 70
    14
 71
     2
 72
     2
 73
     0
 90
        0
 40
-0.6
 41
-30.0
 62
     5
 63
     7
 74
     1
 91
        4
 64
     7
 65
   257
 75
     7
175
     7
 42
1.0
 92
        8
 66
     7
 43
1.0
 76
     1
 77
     6
 78
     2
 67
     7
 79
     5
170
     0
171
     0
290
     0
174
     0
 93
        1
 44
0.0
173
     0
291
     1
 45
0.0
1001
ACAD
1000
AcDbSavedByObjectVersion
1070
     0
  0
VISUALSTYLE
  5
381
102
{ACAD_XDICTIONARY
360
41E
102
}
102
{ACAD_REACTORS
330
36A
102
}
330
36A
100
AcDbVisualStyle
  2
OverhangOff
 70
    21
 71
     2
 72
     2
 73
     0
 90
        0
 40
-0.6
 41
-30.0
 62
     5
 63
     7
 74
     1
 91
        4
 64
     7
 65
   257
 75
     1
175
     1
 42
1.0
 92
        9
 66
     7
 43
1.0
 76
     1
 77
     6
 78
     2
 67
     7
 79
     5
170
     0
171
     0
290
     0
174
     0
 93
        1
 44
0.0
173
     0
291
     1
 45
0.0
1001
ACAD
1000
AcDbSavedByObjectVersion
1070
     0
  0
VISUALSTYLE
  5
374
102
{ACAD_XDICTIONARY
360
404
102
}
102
{ACAD_REACTORS
330
36A
102
}
330
36A
100
AcDbVisualStyle
  2
Realistic
 70
     8
 71
     2
 72
     3
 73
     0
 90
        2
 40
-0.6
 41
30.0
 62
     5
 63
     7
 74
     0
 91
        0
 64
     7
 65
   257
 75
     1
175
     1
 42
1.0
 92
        8
 66
   257
 43
1.0
 76
     1
 77
     6
 78
     2
 67
     7
 79
     3
170
     0
171
     0
290
     0
174
     0
 93
       13
 44
0.0
173
     0
291
     0
 45
0.0
1001
ACAD
1000
AcDbSavedByObjectVersion
1070
     0
  0
VISUALSTYLE
  5
37F
102
{ACAD_XDICTIONARY
360
41A
102
}
102
{ACAD_REACTORS
330
36A
102
}
330
36A
100
AcDbVisualStyle
  2
Shaded
 70
    27
 71
     2
 72
     2
 73
     1
 90
        2
 40
-0.6
 41
30.0
 62
     5
 63
     7
 74
     0
 91
        4
 64
     7
 65
   257
 75
     1
175
     1
 42
1.0
 92
        8
 66
   257
 43
1.0
 76
     1
 77
     6
 78
     2
 67
     8
 79
     3
170
     0
171
     0
290
     0
174
     0
 93
        5
 44
0.0
173
     0
291
     0
 45
0.0
1001
ACAD
1000
AcDbSavedByObjectVersion
1070
     0
  0
VISUALSTYLE
  5
37E
102
{ACAD_XDICTIONARY
360
418
102
}
102
{ACAD_REACTORS
330
36A
102
}
330
36A
100
AcDbVisualStyle
  2
Shaded with edges
 70
    26
 71
     2
 72
     2
 73
     1
 90
        2
 40
-0.6
 41
30.0
 62
     5
 63
     7
 74
     1
 91
        2
 64
     7
 65
   257
 75
     2
175
     1
 42
1.0
 92
        8
 66
   257
 43
1.0
 76
     1
 77
     6
 78
     2
 67
     7
 79
     3
170
     0
171
     0
290
     0
174
     0
 93
        5
 44
0.0
173
     0
291
     0
 45
0.0
1001
ACAD
1000
AcDbSavedByObjectVersion
1070
     0
  0
VISUALSTYLE
  5
37B
102
{ACAD_XDICTIONARY
360
412
102
}
102
{ACAD_REACTORS
330
36A
102
}
330
36A
100
AcDbVisualStyle
  2
Shades of Gray
 70
    23
 71
     2
 72
     2
 73
     3
 90
        0
 40
-0.6
 41
-30.0
 62
     5
 63
     7
 74
     2
 91
        2
 64
     7
 65
     7
 75
     1
175
     1
 42
40.0
 92
        8
 66
     7
 43
1.0
 76
     1
 77
     6
 78
     2
 67
     7
 79
     3
170
     0
171
     0
290
     0
174
     0
 93
        1
 44
0.0
173
     0
291
     0
 45
0.0
1001
ACAD
1000
AcDbSavedByObjectVersion
1070
     0
  0
VISUALSTYLE
  5
37C
102
{ACAD_XDICTIONARY
360
414
102
}
102
{ACAD_REACTORS
330
36A
102
}
330
36A
100
AcDbVisualStyle
  2
Sketchy
 70
    24
 71
     1
 72
     2
 73
     2
 90
        0
 40
-0.6
 41
-30.0
 62
     5
 63
     7
 74
     2
 91
        2
 64
     7
 65
     7
 75
     1
175
     1
 42
40.0
 92
       11
 66
     7
 43
1.0
 76
     1
 77
     6
 78
     2
 67
     7
 79
     6
170
     0
171
     0
290
     0
174
     0
 93
        1
 44
0.0
173
     0
291
     0
 45
0.0
1001
ACAD
1000
AcDbSavedByObjectVersion
1070
     0
  0
VISUALSTYLE
  5
377
102
{ACAD_XDICTIONARY
360
40A
102
}
102
{ACAD_REACTORS
330
36A
102
}
330
36A
100
AcDbVisualStyle
  2
Thicken
 70
    13
 71
     2
 72
     2
 73
     0
 90
        0
 40
-0.6
 41
-30.0
 62
     5
 63
     7
 74
     1
 91
        4
 64
     7
 65
   257
 75
     1
175
     1
 42
1.0
 92
       12
 66
     7
 43
1.0
 76
     1
 77
     6
 78
     2
 67
     7
 79
     5
170
     0
171
     0
290
     0
174
     0
 93
        1
 44
0.0
173
     0
291
     1
 45
0.0
1001
ACAD
1000
AcDbSavedByObjectVersion
1070
     0
  0
VISUALSTYLE
  5
371
102
{ACAD_XDICTIONARY
360
3FE
102
}
102
{ACAD_REACTORS
330
36A
102
}
330
36A
100
AcDbVisualStyle
  2
Wireframe
 70
     5
 71
     0
 72
     2
 73
     0
 90
        0
 40
-0.6
 41
-30.0
 62
     5
 63
     7
 74
     1
 91
        4
 64
     7
 65
   257
 75
     1
175
     1
 42
1.0
 92
        0
 66
   257
 43
1.0
 76
     1
 77
     6
 78
     2
 67
     7
 79
     3
170
     0
171
     0
290
     0
174
     0
 93
        1
 44
0.0
173
     0
291
     0
 45
0.0
1001
ACAD
1000
AcDbSavedByObjectVersion
1070
     0
  0
VISUALSTYLE
  5
37D
102
{ACAD_XDICTIONARY
360
416
102
}
102
{ACAD_REACTORS
330
36A
102
}
330
36A
100
AcDbVisualStyle
  2
X-Ray
 70
    25
 71
     2
 72
     2
 73
     1
 90
        1
 40
0.5
 41
-30.0
 62
     5
 63
     7
 74
     1
 91
        0
 64
     7
 65
   257
 75
     1
175
     1
 42
1.0
 92
        8
 66
     7
 43
1.0
 76
     1
 77
     6
 78
     2
 67
     7
 79
     3
170
     0
171
     0
290
     0
174
     0
 93
       13
 44
0.0
173
     0
291
     0
 45
0.0
1001
ACAD
1000
AcDbSavedByObjectVersion
1070
     0
  0
DICTIONARYVAR
  5
3E3
102
{ACAD_REACTORS
330
3DE
102
}
330
3DE
100
DictionaryVariables
280
     0
  1
1:1
  0
DICTIONARYVAR
  5
3E0
102
{ACAD_REACTORS
330
3DE
102
}
330
3DE
100
DictionaryVariables
280
     0
  1
STANDARD
  0
DICTIONARYVAR
  5
3DF
102
{ACAD_REACTORS
330
3DE
102
}
330
3DE
100
DictionaryVariables
280
     0
  1
STANDARD
  0
DICTIONARYVAR
  5
3E1
102
{ACAD_REACTORS
330
3DE
102
}
330
3DE
100
DictionaryVariables
280
     0
  1
Imperial24
  0
DICTIONARYVAR
  5
3E2
102
{ACAD_REACTORS
330
3DE
102
}
330
3DE
100
DictionaryVariables
280
     0
  1
Imperial24
  0
DICTIONARYVAR
  5
3E6
102
{ACAD_REACTORS
330
3DE
102
}
330
3DE
100
DictionaryVariables
280
     0
  1
1
  0
DICTIONARYVAR
  5
3E5
102
{ACAD_REACTORS
330
3DE
102
}
330
3DE
100
DictionaryVariables
280
     0
  1
0
  0
DICTIONARYVAR
  5
3E4
102
{ACAD_REACTORS
330
3DE
102
}
330
3DE
100
DictionaryVariables
280
     0
  1
127
  0
DICTIONARYVAR
  5
3E7
102
{ACAD_REACTORS
330
3DE
102
}
330
3DE
100
DictionaryVariables
280
     0
  1
2
  0
DICTIONARY
  5
426
330
3AB
100
AcDbDictionary
280
     1
281
     1
  3
ACAD_XREC_ROUNDTRIP
360
427
  0
DICTIONARY
  5
42A
330
3B3
100
AcDbDictionary
280
     1
281
     1
  3
ACAD_XREC_ROUNDTRIP
360
42B
  0
DICTIONARY
  5
428
330
3AF
100
AcDbDictionary
280
     1
281
     1
  3
ACAD_XREC_ROUNDTRIP
360
429
  0
DICTIONARY
  5
35B
330
35A
100
AcDbDictionary
280
     1
281
     1
  3
ACAD_XREC_ROUNDTRIP
360
3F0
  3
BUMPTILE
360
35D
  3
DIFFUSETILE
360
35C
  3
OPACITYTILE
360
360
  3
REFLECTIONTILE
360
35F
  3
REFRACTIONTILE
360
361
  3
SPECULARTILE
360
35E
  0
DICTIONARY
  5
353
330
352
100
AcDbDictionary
280
     1
281
     1
  3
ACAD_XREC_ROUNDTRIP
360
3EF
  3
BUMPTILE
360
355
  3
DIFFUSETILE
360
354
  3
OPACITYTILE
360
358
  3
REFLECTIONTILE
360
357
  3
REFRACTIONTILE
360
359
  3
SPECULARTILE
360
356
  0
DICTIONARY
  5
363
330
362
100
AcDbDictionary
280
     1
281
     1
  3
ACAD_XREC_ROUNDTRIP
360
3F1
  3
BUMPTILE
360
365
  3
DIFFUSETILE
360
364
  3
OPACITYTILE
360
368
  3
REFLECTIONTILE
360
367
  3
REFRACTIONTILE
360
369
  3
SPECULARTILE
360
366
  0
DICTIONARY
  5
424
330
3A9
100
AcDbDictionary
280
     1
281
     1
  3
ACAD_XREC_ROUNDTRIP
360
425
  0
DICTIONARY
  5
3E9
330
3A5
100
AcDbDictionary
280
     1
281
     1
  3
ACAD_ROUNDTRIP_2008_TABLESTYLE_CELLSTYLEMAP
360
3EA
  3
ACAD_XREC_ROUNDTRIP
360
422
  0
DICTIONARY
  5
3FC
330
370
100
AcDbDictionary
280
     1
281
     1
  3
ACAD_XREC_ROUNDTRIP
360
3FD
  0
DICTIONARY
  5
3FA
330
36F
100
AcDbDictionary
280
     1
281
     1
  3
ACAD_XREC_ROUNDTRIP
360
3FB
  0
DICTIONARY
  5
408
330
376
100
AcDbDictionary
280
     1
281
     1
  3
ACAD_XREC_ROUNDTRIP
360
409
  0
DICTIONARY
  5
410
330
37A
100
AcDbDictionary
280
     1
281
     1
  3
ACAD_XREC_ROUNDTRIP
360
411
  0
DICTIONARY
  5
402
330
373
100
AcDbDictionary
280
     1
281
     1
  3
ACAD_XREC_ROUNDTRIP
360
403
  0
DICTIONARY
  5
406
330
375
100
AcDbDictionary
280
     1
281
     1
  3
ACAD_XREC_ROUNDTRIP
360
407
  0
DICTIONARY
  5
420
330
382
100
AcDbDictionary
280
     1
281
     1
  3
ACAD_XREC_ROUNDTRIP
360
421
  0
DICTIONARY
  5
40E
330
379
100
AcDbDictionary
280
     1
281
     1
  3
ACAD_XREC_ROUNDTRIP
360
40F
  0
DICTIONARY
  5
3F2
330
36B
100
AcDbDictionary
280
     1
281
     1
  3
ACAD_XREC_ROUNDTRIP
360
3F3
  0
DICTIONARY
  5
3F4
330
36C
100
AcDbDictionary
280
     1
281
     1
  3
ACAD_XREC_ROUNDTRIP
360
3F5
  0
DICTIONARY
  5
3F6
330
36D
100
AcDbDictionary
280
     1
281
     1
  3
ACAD_XREC_ROUNDTRIP
360
3F7
  0
DICTIONARY
  5
3F8
330
36E
100
AcDbDictionary
280
     1
281
     1
  3
ACAD_XREC_ROUNDTRIP
360
3F9
  0
DICTIONARY
  5
400
330
372
100
AcDbDictionary
280
     1
281
     1
  3
ACAD_XREC_ROUNDTRIP
360
401
  0
DICTIONARY
  5
41C
330
380
100
AcDbDictionary
280
     1
281
     1
  3
ACAD_XREC_ROUNDTRIP
360
41D
  0
DICTIONARY
  5
40C
330
378
100
AcDbDictionary
280
     1
281
     1
  3
ACAD_XREC_ROUNDTRIP
360
40D
  0
DICTIONARY
  5
41E
330
381
100
AcDbDictionary
280
     1
281
     1
  3
ACAD_XREC_ROUNDTRIP
360
41F
  0
DICTIONARY
  5
404
330
374
100
AcDbDictionary
280
     1
281
     1
  3
ACAD_XREC_ROUNDTRIP
360
405
  0
DICTIONARY
  5
41A
330
37F
100
AcDbDictionary
280
     1
281
     1
  3
ACAD_XREC_ROUNDTRIP
360
41B
  0
DICTIONARY
  5
418
330
37E
100
AcDbDictionary
280
     1
281
     1
  3
ACAD_XREC_ROUNDTRIP
360
419
  0
DICTIONARY
  5
412
330
37B
100
AcDbDictionary
280
     1
281
     1
  3
ACAD_XREC_ROUNDTRIP
360
413
  0
DICTIONARY
  5
414
330
37C
100
AcDbDictionary
280
     1
281
     1
  3
ACAD_XREC_ROUNDTRIP
360
415
  0
DICTIONARY
  5
40A
330
377
100
AcDbDictionary
280
     1
281
     1
  3
ACAD_XREC_ROUNDTRIP
360
40B
  0
DICTIONARY
  5
3FE
330
371
100
AcDbDictionary
280
     1
281
     1
  3
ACAD_XREC_ROUNDTRIP
360
3FF
  0
DICTIONARY
  5
416
330
37D
100
AcDbDictionary
280
     1
281
     1
  3
ACAD_XREC_ROUNDTRIP
360
417
  0
XRECORD
  5
427
102
{ACAD_REACTORS
330
426
102
}
330
426
100
AcDbXrecord
280
     1
102
DISPLAYNAME
  1
Imperial24
102
FLAGS
 90
        0
  0
XRECORD
  5
42B
102
{ACAD_REACTORS
330
42A
102
}
330
42A
100
AcDbXrecord
280
     1
102
SHADEPLOT
 70
     0
102
SHADEPLOTRESLEVEL
 70
     2
102
SHADEPLOTCUSTOMDPI
 70
   300
  0
XRECORD
  5
429
102
{ACAD_REACTORS
330
428
102
}
330
428
100
AcDbXrecord
280
     1
102
SHADEPLOT
 70
     0
102
SHADEPLOTRESLEVEL
 70
     2
102
SHADEPLOTCUSTOMDPI
 70
   300
  0
XRECORD
  5
3F0
102
{ACAD_REACTORS
330
35B
102
}
330
35B
100
AcDbXrecord
280
     1
102
MATERIAL
148
0.0
149
0.0
149
0.0
 93
        0
 94
      127
282
     0
 72
     0
 77
     0
171
     0
175
     0
179
     0
273
     0
  0
XRECORD
  5
35D
102
{ACAD_REACTORS
330
35B
102
}
330
35B
100
AcDbXrecord
280
     1
270
     1
271
     1
  0
XRECORD
  5
35C
102
{ACAD_REACTORS
330
35B
102
}
330
35B
100
AcDbXrecord
280
     1
270
     1
271
     1
  0
XRECORD
  5
360
102
{ACAD_REACTORS
330
35B
102
}
330
35B
100
AcDbXrecord
280
     1
270
     1
271
     1
  0
XRECORD
  5
35F
102
{ACAD_REACTORS
330
35B
102
}
330
35B
100
AcDbXrecord
280
     1
270
     1
271
     1
  0
XRECORD
  5
361
102
{ACAD_REACTORS
330
35B
102
}
330
35B
100
AcDbXrecord
280
     1
270
     1
271
     1
  0
XRECORD
  5
35E
102
{ACAD_REACTORS
330
35B
102
}
330
35B
100
AcDbXrecord
280
     1
270
     1
271
     1
  0
XRECORD
  5
3EF
102
{ACAD_REACTORS
330
353
102
}
330
353
100
AcDbXrecord
280
     1
102
MATERIAL
148
0.0
149
0.0
149
0.0
 93
        0
 94
      127
282
     0
 72
     0
 77
     0
171
     0
175
     0
179
     0
273
     0
  0
XRECORD
  5
355
102
{ACAD_REACTORS
330
353
102
}
330
353
100
AcDbXrecord
280
     1
270
     1
271
     1
  0
XRECORD
  5
354
102
{ACAD_REACTORS
330
353
102
}
330
353
100
AcDbXrecord
280
     1
270
     1
271
     1
  0
XRECORD
  5
358
102
{ACAD_REACTORS
330
353
102
}
330
353
100
AcDbXrecord
280
     1
270
     1
271
     1
  0
XRECORD
  5
357
102
{ACAD_REACTORS
330
353
102
}
330
353
100
AcDbXrecord
280
     1
270
     1
271
     1
  0
XRECORD
  5
359
102
{ACAD_REACTORS
330
353
102
}
330
353
100
AcDbXrecord
280
     1
270
     1
271
     1
  0
XRECORD
  5
356
102
{ACAD_REACTORS
330
353
102
}
330
353
100
AcDbXrecord
280
     1
270
     1
271
     1
  0
XRECORD
  5
3F1
102
{ACAD_REACTORS
330
363
102
}
330
363
100
AcDbXrecord
280
     1
102
MATERIAL
148
0.0
149
0.0
149
0.0
 93
        0
 94
      127
282
     0
 72
     0
 77
     0
171
     0
175
     0
179
     0
273
     0
  0
XRECORD
  5
365
102
{ACAD_REACTORS
330
363
102
}
330
363
100
AcDbXrecord
280
     1
270
     1
271
     1
  0
XRECORD
  5
364
102
{ACAD_REACTORS
330
363
102
}
330
363
100
AcDbXrecord
280
     1
270
     1
271
     1
  0
XRECORD
  5
368
102
{ACAD_REACTORS
330
363
102
}
330
363
100
AcDbXrecord
280
     1
270
     1
271
     1
  0
XRECORD
  5
367
102
{ACAD_REACTORS
330
363
102
}
330
363
100
AcDbXrecord
280
     1
270
     1
271
     1
  0
XRECORD
  5
369
102
{ACAD_REACTORS
330
363
102
}
330
363
100
AcDbXrecord
280
     1
270
     1
271
     1
  0
XRECORD
  5
366
102
{ACAD_REACTORS
330
363
102
}
330
363
100
AcDbXrecord
280
     1
270
     1
271
     1
  0
XRECORD
  5
425
102
{ACAD_REACTORS
330
424
102
}
330
424
100
AcDbXrecord
280
     1
102
DISPLAYNAME
  1
Imperial24
102
FLAGS
 90
        0
  0
CELLSTYLEMAP
  5
3EA
102
{ACAD_REACTORS
330
3E9
102
}
330
3E9
100
AcDbCellStyleMap
 90
        3
300
CELLSTYLE
  1
TABLEFORMAT_BEGIN
 90
        5
170
     1
 91
        0
 92
    32768
 62
   257
 93
        1
300
CONTENTFORMAT
  1
CONTENTFORMAT_BEGIN
 90
        0
 91
        0
 92
      512
 93
        0
300

 40
0.0
140
1.0
 94
        5
 62
     0
340
396
144
0.25
309
CONTENTFORMAT_END
171
     0
 94
        0
309
TABLEFORMAT_END
  1
CELLSTYLE_BEGIN
 90
        1
 91
        1
300
_TITLE
309
CELLSTYLE_END
300
CELLSTYLE
  1
TABLEFORMAT_BEGIN
 90
        5
170
     1
 91
        0
 92
        0
 62
   257
 93
        1
300
CONTENTFORMAT
  1
CONTENTFORMAT_BEGIN
 90
        0
 91
        0
 92
      512
 93
        0
300

 40
0.0
140
1.0
 94
        5
 62
     0
340
396
144
0.18
309
CONTENTFORMAT_END
171
     0
 94
        0
309
TABLEFORMAT_END
  1
CELLSTYLE_BEGIN
 90
        2
 91
        1
300
_HEADER
309
CELLSTYLE_END
300
CELLSTYLE
  1
TABLEFORMAT_BEGIN
 90
        5
170
     1
 91
        0
 92
        0
 62
   257
 93
        1
300
CONTENTFORMAT
  1
CONTENTFORMAT_BEGIN
 90
        0
 91
        0
 92
      512
 93
        0
300

 40
0.0
140
1.0
 94
        2
 62
     0
340
396
144
0.18
309
CONTENTFORMAT_END
171
     0
 94
        0
309
TABLEFORMAT_END
  1
CELLSTYLE_BEGIN
 90
        3
 91
        2
300
_DATA
309
CELLSTYLE_END
  0
XRECORD
  5
422
102
{ACAD_REACTORS
330
3E9
102
}
330
3E9
100
AcDbXrecord
280
     1
102
ACAD_ROUNDTRIP_PRE2007_TABLESTYLE
 90
      512
 91
        0
  1

 92
      512
 93
        0
  2

 94
      512
 95
        0
  3

  0
XRECORD
  5
3FD
102
{ACAD_REACTORS
330
3FC
102
}
330
3FC
100
AcDbXrecord
280
     1
102
RTVSPost2010Prop28
280
     1
102
RTVSPost2010PropOp28
 70
     1
102
RTVSPost2010Prop29
280
     1
102
RTVSPost2010PropOp29
 70
     1
102
RTVSPost2010Prop30
280
     0
102
RTVSPost2010PropOp30
 70
     1
102
RTVSPost2010Prop31
280
     0
102
RTVSPost2010PropOp31
 70
     1
102
RTVSPost2010Prop32
280
     0
102
RTVSPost2010PropOp32
 70
     1
102
RTVSPost2010Prop33
280
     0
102
RTVSPost2010PropOp33
 70
     1
102
RTVSPost2010Prop34
280
     0
102
RTVSPost2010PropOp34
 70
     1
102
RTVSPost2010Prop35
280
     0
102
RTVSPost2010PropOp35
 70
     1
102
RTVSPost2010Prop36
280
     0
102
RTVSPost2010PropOp36
 70
     1
102
RTVSPost2010Prop37
 90
       50
102
RTVSPost2010PropOp37
 70
     1
102
RTVSPost2010Prop38
140
0.0
102
RTVSPost2010PropOp38
 70
     1
102
RTVSPost2010Prop39
140
1.0
102
RTVSPost2010PropOp39
 70
     1
102
RTVSPost2010Prop40
 90
        0
102
RTVSPost2010PropOp40
 70
     1
102
RTVSPost2010Prop41ColorIndex
 90
       18
102
RTVSPost2010Prop41ColorRGB
 90
        0
102
RTVSPost2010PropOp41
 70
     1
102
RTVSPost2010Prop42
 90
       50
102
RTVSPost2010PropOp42
 70
     1
102
RTVSPost2010Prop43
 90
        3
102
RTVSPost2010PropOp43
 70
     1
102
RTVSPost2010Prop44ColorIndex
 90
        5
102
RTVSPost2010Prop44ColorRGB
 90
      255
102
RTVSPost2010PropOp44
 70
     1
102
RTVSPost2010Prop45
280
     0
102
RTVSPost2010PropOp45
 70
     1
102
RTVSPost2010Prop46
 90
       50
102
RTVSPost2010PropOp46
 70
     1
102
RTVSPost2010Prop47
 90
       50
102
RTVSPost2010PropOp47
 70
     1
102
RTVSPost2010Prop48
 90
       50
102
RTVSPost2010PropOp48
 70
     1
102
RTVSPost2010Prop49
280
     0
102
RTVSPost2010PropOp49
 70
     1
102
RTVSPost2010Prop50
 90
       50
102
RTVSPost2010PropOp50
 70
     1
102
RTVSPost2010Prop51ColorIndex
 90
      256
102
RTVSPost2010Prop51ColorRGB
 90
-16777216
102
RTVSPost2010PropOp51
 70
     0
102
RTVSPost2010Prop52
140
1.0
102
RTVSPost2010PropOp52
 70
     0
102
RTVSPost2010Prop53
 90
        2
102
RTVSPost2010PropOp53
 70
     1
102
RTVSPost2010Prop54
  1
strokes_ogs.tif
102
RTVSPost2010PropOp54
 70
     1
102
RTVSPost2010Prop55
280
     0
102
RTVSPost2010PropOp55
 70
     1
102
RTVSPost2010Prop56
140
1.0
102
RTVSPost2010PropOp56
 70
     1
102
RTVSPost2010Prop57
140
1.0
102
RTVSPost2010PropOp57
 70
     1
102
RTVSPropertyOp0
 70
     1
102
RTVSPropertyOp1
 70
     1
102
RTVSPropertyOp2
 70
     1
102
RTVSPropertyOp3
 70
     1
102
RTVSPropertyOp4
 70
     1
102
RTVSPropertyOp5
 70
     1
102
RTVSPropertyOp6
 70
     1
102
RTVSPropertyOp7
 70
     1
102
RTVSPropertyOp8
 70
     1
102
RTVSPropertyOp9
 70
     1
102
RTVSPropertyOp10
 70
     1
102
RTVSPropertyOp11
 70
     1
102
RTVSPropertyOp12
 70
     1
102
RTVSPropertyOp13
 70
     1
102
RTVSPropertyOp14
 70
     1
102
RTVSPropertyOp15
 70
     1
102
RTVSPropertyOp16
 70
     1
102
RTVSPropertyOp17
 70
     1
102
RTVSPropertyOp18
 70
     1
102
RTVSPropertyOp19
 70
     1
102
RTVSPropertyOp20
 70
     1
102
RTVSPropertyOp21
 70
     1
102
RTVSPropertyOp22
 70
     1
102
RTVSPropertyOp23
 70
     1
102
RTVSPropertyOp24
 70
     1
102
RTVSPropertyOp25
 70
     1
102
RTVSPropertyOp26
 70
     1
102
RTVSPropertyOp27
 70
     1
102
RTVSPropertyOp28
 70
     1
102
RTVSPropertyOp29
 70
     1
102
RTVSPropertyOp30
 70
     1
102
RTVSPropertyOp31
 70
     1
102
RTVSPropertyOp32
 70
     1
102
RTVSPropertyOp33
 70
     1
102
RTVSPropertyOp34
 70
     1
102
RTVSPropertyOp35
 70
     1
102
RTVSPropertyOp36
 70
     1
102
RTVSPropertyOp37
 70
     1
102
RTVSPropertyOp38
 70
     1
102
RTVSPropertyOp39
 70
     1
102
RTVSPropertyOp40
 70
     1
102
RTVSPropertyOp41
 70
     1
102
RTVSPropertyOp42
 70
     1
102
RTVSPropertyOp43
 70
     1
102
RTVSPropertyOp44
 70
     1
102
RTVSPropertyOp45
 70
     1
102
RTVSPropertyOp46
 70
     1
102
RTVSPropertyOp47
 70
     1
102
RTVSPropertyOp48
 70
     1
102
RTVSPropertyOp49
 70
     1
102
RTVSPropertyOp50
 70
     1
102
RTVSPropertyOp51
 70
     0
102
RTVSPropertyOp52
 70
     0
102
RTVSPropertyOp53
 70
     1
102
RTVSPropertyOp54
 70
     1
102
RTVSPropertyOp55
 70
     1
102
RTVSPropertyOp56
 70
     1
102
RTVSPropertyOp57
 70
     1
102
RTVSPropertyOp58
 70
     1
102
RTVSPropertyOp59
 70
     1
102
RTVSPropertyOp60
 70
     1
102
RTVSPropertyOp61
 70
     1
102
RTVSPropertyOp62
 70
     1
  0
XRECORD
  5
3FB
102
{ACAD_REACTORS
330
3FA
102
}
330
3FA
100
AcDbXrecord
280
     1
102
RTVSPost2010Prop28
280
     0
102
RTVSPost2010PropOp28
 70
     1
102
RTVSPost2010Prop29
280
     1
102
RTVSPost2010PropOp29
 70
     1
102
RTVSPost2010Prop30
280
     1
102
RTVSPost2010PropOp30
 70
     1
102
RTVSPost2010Prop31
280
     0
102
RTVSPost2010PropOp31
 70
     1
102
RTVSPost2010Prop32
280
     0
102
RTVSPost2010PropOp32
 70
     1
102
RTVSPost2010Prop33
280
     0
102
RTVSPost2010PropOp33
 70
     1
102
RTVSPost2010Prop34
280
     0
102
RTVSPost2010PropOp34
 70
     1
102
RTVSPost2010Prop35
280
     0
102
RTVSPost2010PropOp35
 70
     1
102
RTVSPost2010Prop36
280
     0
102
RTVSPost2010PropOp36
 70
     1
102
RTVSPost2010Prop37
 90
       50
102
RTVSPost2010PropOp37
 70
     1
102
RTVSPost2010Prop38
140
0.0
102
RTVSPost2010PropOp38
 70
     1
102
RTVSPost2010Prop39
140
1.0
102
RTVSPost2010PropOp39
 70
     1
102
RTVSPost2010Prop40
 90
        0
102
RTVSPost2010PropOp40
 70
     1
102
RTVSPost2010Prop41ColorIndex
 90
       18
102
RTVSPost2010Prop41ColorRGB
 90
        0
102
RTVSPost2010PropOp41
 70
     1
102
RTVSPost2010Prop42
 90
       50
102
RTVSPost2010PropOp42
 70
     1
102
RTVSPost2010Prop43
 90
        3
102
RTVSPost2010PropOp43
 70
     1
102
RTVSPost2010Prop44ColorIndex
 90
        5
102
RTVSPost2010Prop44ColorRGB
 90
      255
102
RTVSPost2010PropOp44
 70
     1
102
RTVSPost2010Prop45
280
     0
102
RTVSPost2010PropOp45
 70
     1
102
RTVSPost2010Prop46
 90
       50
102
RTVSPost2010PropOp46
 70
     1
102
RTVSPost2010Prop47
 90
       50
102
RTVSPost2010PropOp47
 70
     1
102
RTVSPost2010Prop48
 90
       50
102
RTVSPost2010PropOp48
 70
     1
102
RTVSPost2010Prop49
280
     0
102
RTVSPost2010PropOp49
 70
     1
102
RTVSPost2010Prop50
 90
       50
102
RTVSPost2010PropOp50
 70
     1
102
RTVSPost2010Prop51ColorIndex
 90
      256
102
RTVSPost2010Prop51ColorRGB
 90
-16777216
102
RTVSPost2010PropOp51
 70
     0
102
RTVSPost2010Prop52
140
1.0
102
RTVSPost2010PropOp52
 70
     0
102
RTVSPost2010Prop53
 90
        2
102
RTVSPost2010PropOp53
 70
     1
102
RTVSPost2010Prop54
  1
strokes_ogs.tif
102
RTVSPost2010PropOp54
 70
     1
102
RTVSPost2010Prop55
280
     0
102
RTVSPost2010PropOp55
 70
     1
102
RTVSPost2010Prop56
140
1.0
102
RTVSPost2010PropOp56
 70
     1
102
RTVSPost2010Prop57
140
1.0
102
RTVSPost2010PropOp57
 70
     1
102
RTVSPropertyOp0
 70
     1
102
RTVSPropertyOp1
 70
     1
102
RTVSPropertyOp2
 70
     1
102
RTVSPropertyOp3
 70
     1
102
RTVSPropertyOp4
 70
     1
102
RTVSPropertyOp5
 70
     1
102
RTVSPropertyOp6
 70
     1
102
RTVSPropertyOp7
 70
     1
102
RTVSPropertyOp8
 70
     1
102
RTVSPropertyOp9
 70
     1
102
RTVSPropertyOp10
 70
     1
102
RTVSPropertyOp11
 70
     1
102
RTVSPropertyOp12
 70
     1
102
RTVSPropertyOp13
 70
     1
102
RTVSPropertyOp14
 70
     1
102
RTVSPropertyOp15
 70
     1
102
RTVSPropertyOp16
 70
     1
102
RTVSPropertyOp17
 70
     1
102
RTVSPropertyOp18
 70
     1
102
RTVSPropertyOp19
 70
     1
102
RTVSPropertyOp20
 70
     1
102
RTVSPropertyOp21
 70
     1
102
RTVSPropertyOp22
 70
     1
102
RTVSPropertyOp23
 70
     1
102
RTVSPropertyOp24
 70
     1
102
RTVSPropertyOp25
 70
     1
102
RTVSPropertyOp26
 70
     1
102
RTVSPropertyOp27
 70
     1
102
RTVSPropertyOp28
 70
     1
102
RTVSPropertyOp29
 70
     1
102
RTVSPropertyOp30
 70
     1
102
RTVSPropertyOp31
 70
     1
102
RTVSPropertyOp32
 70
     1
102
RTVSPropertyOp33
 70
     1
102
RTVSPropertyOp34
 70
     1
102
RTVSPropertyOp35
 70
     1
102
RTVSPropertyOp36
 70
     1
102
RTVSPropertyOp37
 70
     1
102
RTVSPropertyOp38
 70
     1
102
RTVSPropertyOp39
 70
     1
102
RTVSPropertyOp40
 70
     1
102
RTVSPropertyOp41
 70
     1
102
RTVSPropertyOp42
 70
     1
102
RTVSPropertyOp43
 70
     1
102
RTVSPropertyOp44
 70
     1
102
RTVSPropertyOp45
 70
     1
102
RTVSPropertyOp46
 70
     1
102
RTVSPropertyOp47
 70
     1
102
RTVSPropertyOp48
 70
     1
102
RTVSPropertyOp49
 70
     1
102
RTVSPropertyOp50
 70
     1
102
RTVSPropertyOp51
 70
     0
102
RTVSPropertyOp52
 70
     0
102
RTVSPropertyOp53
 70
     1
102
RTVSPropertyOp54
 70
     1
102
RTVSPropertyOp55
 70
     1
102
RTVSPropertyOp56
 70
     1
102
RTVSPropertyOp57
 70
     1
102
RTVSPropertyOp58
 70
     1
102
RTVSPropertyOp59
 70
     1
102
RTVSPropertyOp60
 70
     1
102
RTVSPropertyOp61
 70
     1
102
RTVSPropertyOp62
 70
     1
  0
XRECORD
  5
409
102
{ACAD_REACTORS
330
408
102
}
330
408
100
AcDbXrecord
280
     1
102
RTVSPost2010Prop28
280
     0
102
RTVSPost2010PropOp28
 70
     1
102
RTVSPost2010Prop29
280
     1
102
RTVSPost2010PropOp29
 70
     1
102
RTVSPost2010Prop30
280
     1
102
RTVSPost2010PropOp30
 70
     1
102
RTVSPost2010Prop31
280
     0
102
RTVSPost2010PropOp31
 70
     1
102
RTVSPost2010Prop32
280
     0
102
RTVSPost2010PropOp32
 70
     1
102
RTVSPost2010Prop33
280
     0
102
RTVSPost2010PropOp33
 70
     1
102
RTVSPost2010Prop34
280
     0
102
RTVSPost2010PropOp34
 70
     1
102
RTVSPost2010Prop35
280
     0
102
RTVSPost2010PropOp35
 70
     1
102
RTVSPost2010Prop36
280
     0
102
RTVSPost2010PropOp36
 70
     1
102
RTVSPost2010Prop37
 90
       50
102
RTVSPost2010PropOp37
 70
     1
102
RTVSPost2010Prop38
140
0.0
102
RTVSPost2010PropOp38
 70
     1
102
RTVSPost2010Prop39
140
1.0
102
RTVSPost2010PropOp39
 70
     1
102
RTVSPost2010Prop40
 90
        0
102
RTVSPost2010PropOp40
 70
     1
102
RTVSPost2010Prop41ColorIndex
 90
       18
102
RTVSPost2010Prop41ColorRGB
 90
        0
102
RTVSPost2010PropOp41
 70
     1
102
RTVSPost2010Prop42
 90
       50
102
RTVSPost2010PropOp42
 70
     1
102
RTVSPost2010Prop43
 90
        3
102
RTVSPost2010PropOp43
 70
     1
102
RTVSPost2010Prop44ColorIndex
 90
        5
102
RTVSPost2010Prop44ColorRGB
 90
      255
102
RTVSPost2010PropOp44
 70
     1
102
RTVSPost2010Prop45
280
     0
102
RTVSPost2010PropOp45
 70
     1
102
RTVSPost2010Prop46
 90
       50
102
RTVSPost2010PropOp46
 70
     1
102
RTVSPost2010Prop47
 90
       50
102
RTVSPost2010PropOp47
 70
     1
102
RTVSPost2010Prop48
 90
       50
102
RTVSPost2010PropOp48
 70
     1
102
RTVSPost2010Prop49
280
     0
102
RTVSPost2010PropOp49
 70
     1
102
RTVSPost2010Prop50
 90
       50
102
RTVSPost2010PropOp50
 70
     1
102
RTVSPost2010Prop51ColorIndex
 90
      256
102
RTVSPost2010Prop51ColorRGB
 90
-16777216
102
RTVSPost2010PropOp51
 70
     0
102
RTVSPost2010Prop52
140
1.0
102
RTVSPost2010PropOp52
 70
     0
102
RTVSPost2010Prop53
 90
        2
102
RTVSPost2010PropOp53
 70
     1
102
RTVSPost2010Prop54
  1
strokes_ogs.tif
102
RTVSPost2010PropOp54
 70
     1
102
RTVSPost2010Prop55
280
     0
102
RTVSPost2010PropOp55
 70
     1
102
RTVSPost2010Prop56
140
1.0
102
RTVSPost2010PropOp56
 70
     1
102
RTVSPost2010Prop57
140
1.0
102
RTVSPost2010PropOp57
 70
     1
102
RTVSPropertyOp0
 70
     1
102
RTVSPropertyOp1
 70
     1
102
RTVSPropertyOp2
 70
     1
102
RTVSPropertyOp3
 70
     1
102
RTVSPropertyOp4
 70
     1
102
RTVSPropertyOp5
 70
     1
102
RTVSPropertyOp6
 70
     1
102
RTVSPropertyOp7
 70
     1
102
RTVSPropertyOp8
 70
     1
102
RTVSPropertyOp9
 70
     1
102
RTVSPropertyOp10
 70
     1
102
RTVSPropertyOp11
 70
     1
102
RTVSPropertyOp12
 70
     1
102
RTVSPropertyOp13
 70
     1
102
RTVSPropertyOp14
 70
     1
102
RTVSPropertyOp15
 70
     1
102
RTVSPropertyOp16
 70
     1
102
RTVSPropertyOp17
 70
     1
102
RTVSPropertyOp18
 70
     1
102
RTVSPropertyOp19
 70
     1
102
RTVSPropertyOp20
 70
     1
102
RTVSPropertyOp21
 70
     1
102
RTVSPropertyOp22
 70
     1
102
RTVSPropertyOp23
 70
     1
102
RTVSPropertyOp24
 70
     1
102
RTVSPropertyOp25
 70
     1
102
RTVSPropertyOp26
 70
     1
102
RTVSPropertyOp27
 70
     1
102
RTVSPropertyOp28
 70
     1
102
RTVSPropertyOp29
 70
     1
102
RTVSPropertyOp30
 70
     1
102
RTVSPropertyOp31
 70
     1
102
RTVSPropertyOp32
 70
     1
102
RTVSPropertyOp33
 70
     1
102
RTVSPropertyOp34
 70
     1
102
RTVSPropertyOp35
 70
     1
102
RTVSPropertyOp36
 70
     1
102
RTVSPropertyOp37
 70
     1
102
RTVSPropertyOp38
 70
     1
102
RTVSPropertyOp39
 70
     1
102
RTVSPropertyOp40
 70
     1
102
RTVSPropertyOp41
 70
     1
102
RTVSPropertyOp42
 70
     1
102
RTVSPropertyOp43
 70
     1
102
RTVSPropertyOp44
 70
     1
102
RTVSPropertyOp45
 70
     1
102
RTVSPropertyOp46
 70
     1
102
RTVSPropertyOp47
 70
     1
102
RTVSPropertyOp48
 70
     1
102
RTVSPropertyOp49
 70
     1
102
RTVSPropertyOp50
 70
     1
102
RTVSPropertyOp51
 70
     0
102
RTVSPropertyOp52
 70
     0
102
RTVSPropertyOp53
 70
     1
102
RTVSPropertyOp54
 70
     1
102
RTVSPropertyOp55
 70
     1
102
RTVSPropertyOp56
 70
     1
102
RTVSPropertyOp57
 70
     1
102
RTVSPropertyOp58
 70
     1
102
RTVSPropertyOp59
 70
     1
102
RTVSPropertyOp60
 70
     1
102
RTVSPropertyOp61
 70
     1
102
RTVSPropertyOp62
 70
     1
  0
XRECORD
  5
411
102
{ACAD_REACTORS
330
410
102
}
330
410
100
AcDbXrecord
280
     1
102
RTVSPost2010Prop28
280
     0
102
RTVSPost2010PropOp28
 70
     1
102
RTVSPost2010Prop29
280
     1
102
RTVSPost2010PropOp29
 70
     1
102
RTVSPost2010Prop30
280
     1
102
RTVSPost2010PropOp30
 70
     1
102
RTVSPost2010Prop31
280
     0
102
RTVSPost2010PropOp31
 70
     1
102
RTVSPost2010Prop32
280
     0
102
RTVSPost2010PropOp32
 70
     1
102
RTVSPost2010Prop33
280
     0
102
RTVSPost2010PropOp33
 70
     1
102
RTVSPost2010Prop34
280
     0
102
RTVSPost2010PropOp34
 70
     1
102
RTVSPost2010Prop35
280
     0
102
RTVSPost2010PropOp35
 70
     1
102
RTVSPost2010Prop36
280
     0
102
RTVSPost2010PropOp36
 70
     1
102
RTVSPost2010Prop37
 90
       50
102
RTVSPost2010PropOp37
 70
     1
102
RTVSPost2010Prop38
140
0.0
102
RTVSPost2010PropOp38
 70
     1
102
RTVSPost2010Prop39
140
1.0
102
RTVSPost2010PropOp39
 70
     1
102
RTVSPost2010Prop40
 90
        0
102
RTVSPost2010PropOp40
 70
     1
102
RTVSPost2010Prop41ColorIndex
 90
       18
102
RTVSPost2010Prop41ColorRGB
 90
        0
102
RTVSPost2010PropOp41
 70
     1
102
RTVSPost2010Prop42
 90
       50
102
RTVSPost2010PropOp42
 70
     1
102
RTVSPost2010Prop43
 90
        3
102
RTVSPost2010PropOp43
 70
     1
102
RTVSPost2010Prop44ColorIndex
 90
        5
102
RTVSPost2010Prop44ColorRGB
 90
      255
102
RTVSPost2010PropOp44
 70
     1
102
RTVSPost2010Prop45
280
     0
102
RTVSPost2010PropOp45
 70
     1
102
RTVSPost2010Prop46
 90
       50
102
RTVSPost2010PropOp46
 70
     1
102
RTVSPost2010Prop47
 90
       50
102
RTVSPost2010PropOp47
 70
     1
102
RTVSPost2010Prop48
 90
       50
102
RTVSPost2010PropOp48
 70
     1
102
RTVSPost2010Prop49
280
     0
102
RTVSPost2010PropOp49
 70
     1
102
RTVSPost2010Prop50
 90
       50
102
RTVSPost2010PropOp50
 70
     1
102
RTVSPost2010Prop51ColorIndex
 90
      256
102
RTVSPost2010Prop51ColorRGB
 90
-16777216
102
RTVSPost2010PropOp51
 70
     0
102
RTVSPost2010Prop52
140
1.0
102
RTVSPost2010PropOp52
 70
     0
102
RTVSPost2010Prop53
 90
        2
102
RTVSPost2010PropOp53
 70
     1
102
RTVSPost2010Prop54
  1
strokes_ogs.tif
102
RTVSPost2010PropOp54
 70
     1
102
RTVSPost2010Prop55
280
     0
102
RTVSPost2010PropOp55
 70
     1
102
RTVSPost2010Prop56
140
1.0
102
RTVSPost2010PropOp56
 70
     1
102
RTVSPost2010Prop57
140
1.0
102
RTVSPost2010PropOp57
 70
     1
102
RTVSPropertyOp0
 70
     1
102
RTVSPropertyOp1
 70
     1
102
RTVSPropertyOp2
 70
     1
102
RTVSPropertyOp3
 70
     1
102
RTVSPropertyOp4
 70
     1
102
RTVSPropertyOp5
 70
     1
102
RTVSPropertyOp6
 70
     1
102
RTVSPropertyOp7
 70
     1
102
RTVSPropertyOp8
 70
     1
102
RTVSPropertyOp9
 70
     1
102
RTVSPropertyOp10
 70
     1
102
RTVSPropertyOp11
 70
     1
102
RTVSPropertyOp12
 70
     1
102
RTVSPropertyOp13
 70
     1
102
RTVSPropertyOp14
 70
     1
102
RTVSPropertyOp15
 70
     1
102
RTVSPropertyOp16
 70
     1
102
RTVSPropertyOp17
 70
     1
102
RTVSPropertyOp18
 70
     1
102
RTVSPropertyOp19
 70
     1
102
RTVSPropertyOp20
 70
     1
102
RTVSPropertyOp21
 70
     1
102
RTVSPropertyOp22
 70
     1
102
RTVSPropertyOp23
 70
     1
102
RTVSPropertyOp24
 70
     1
102
RTVSPropertyOp25
 70
     1
102
RTVSPropertyOp26
 70
     1
102
RTVSPropertyOp27
 70
     1
102
RTVSPropertyOp28
 70
     1
102
RTVSPropertyOp29
 70
     1
102
RTVSPropertyOp30
 70
     1
102
RTVSPropertyOp31
 70
     1
102
RTVSPropertyOp32
 70
     1
102
RTVSPropertyOp33
 70
     1
102
RTVSPropertyOp34
 70
     1
102
RTVSPropertyOp35
 70
     1
102
RTVSPropertyOp36
 70
     1
102
RTVSPropertyOp37
 70
     1
102
RTVSPropertyOp38
 70
     1
102
RTVSPropertyOp39
 70
     1
102
RTVSPropertyOp40
 70
     1
102
RTVSPropertyOp41
 70
     1
102
RTVSPropertyOp42
 70
     1
102
RTVSPropertyOp43
 70
     1
102
RTVSPropertyOp44
 70
     1
102
RTVSPropertyOp45
 70
     1
102
RTVSPropertyOp46
 70
     1
102
RTVSPropertyOp47
 70
     1
102
RTVSPropertyOp48
 70
     1
102
RTVSPropertyOp49
 70
     1
102
RTVSPropertyOp50
 70
     1
102
RTVSPropertyOp51
 70
     0
102
RTVSPropertyOp52
 70
     0
102
RTVSPropertyOp53
 70
     1
102
RTVSPropertyOp54
 70
     1
102
RTVSPropertyOp55
 70
     1
102
RTVSPropertyOp56
 70
     1
102
RTVSPropertyOp57
 70
     1
102
RTVSPropertyOp58
 70
     1
102
RTVSPropertyOp59
 70
     1
102
RTVSPropertyOp60
 70
     1
102
RTVSPropertyOp61
 70
     1
102
RTVSPropertyOp62
 70
     1
  0
XRECORD
  5
403
102
{ACAD_REACTORS
330
402
102
}
330
402
100
AcDbXrecord
280
     1
102
RTVSPost2010Prop28
280
     0
102
RTVSPost2010PropOp28
 70
     1
102
RTVSPost2010Prop29
280
     1
102
RTVSPost2010PropOp29
 70
     1
102
RTVSPost2010Prop30
280
     1
102
RTVSPost2010PropOp30
 70
     1
102
RTVSPost2010Prop31
280
     0
102
RTVSPost2010PropOp31
 70
     1
102
RTVSPost2010Prop32
280
     0
102
RTVSPost2010PropOp32
 70
     1
102
RTVSPost2010Prop33
280
     0
102
RTVSPost2010PropOp33
 70
     1
102
RTVSPost2010Prop34
280
     0
102
RTVSPost2010PropOp34
 70
     1
102
RTVSPost2010Prop35
280
     0
102
RTVSPost2010PropOp35
 70
     1
102
RTVSPost2010Prop36
280
     0
102
RTVSPost2010PropOp36
 70
     1
102
RTVSPost2010Prop37
 90
       50
102
RTVSPost2010PropOp37
 70
     1
102
RTVSPost2010Prop38
140
0.0
102
RTVSPost2010PropOp38
 70
     1
102
RTVSPost2010Prop39
140
1.0
102
RTVSPost2010PropOp39
 70
     1
102
RTVSPost2010Prop40
 90
        0
102
RTVSPost2010PropOp40
 70
     1
102
RTVSPost2010Prop41ColorIndex
 90
       18
102
RTVSPost2010Prop41ColorRGB
 90
        0
102
RTVSPost2010PropOp41
 70
     1
102
RTVSPost2010Prop42
 90
       50
102
RTVSPost2010PropOp42
 70
     1
102
RTVSPost2010Prop43
 90
        3
102
RTVSPost2010PropOp43
 70
     1
102
RTVSPost2010Prop44ColorIndex
 90
        5
102
RTVSPost2010Prop44ColorRGB
 90
      255
102
RTVSPost2010PropOp44
 70
     1
102
RTVSPost2010Prop45
280
     0
102
RTVSPost2010PropOp45
 70
     1
102
RTVSPost2010Prop46
 90
       50
102
RTVSPost2010PropOp46
 70
     1
102
RTVSPost2010Prop47
 90
       50
102
RTVSPost2010PropOp47
 70
     1
102
RTVSPost2010Prop48
 90
       50
102
RTVSPost2010PropOp48
 70
     1
102
RTVSPost2010Prop49
280
     0
102
RTVSPost2010PropOp49
 70
     1
102
RTVSPost2010Prop50
 90
       50
102
RTVSPost2010PropOp50
 70
     1
102
RTVSPost2010Prop51ColorIndex
 90
      256
102
RTVSPost2010Prop51ColorRGB
 90
-16777216
102
RTVSPost2010PropOp51
 70
     0
102
RTVSPost2010Prop52
140
1.0
102
RTVSPost2010PropOp52
 70
     0
102
RTVSPost2010Prop53
 90
        2
102
RTVSPost2010PropOp53
 70
     1
102
RTVSPost2010Prop54
  1
strokes_ogs.tif
102
RTVSPost2010PropOp54
 70
     1
102
RTVSPost2010Prop55
280
     0
102
RTVSPost2010PropOp55
 70
     1
102
RTVSPost2010Prop56
140
1.0
102
RTVSPost2010PropOp56
 70
     1
102
RTVSPost2010Prop57
140
1.0
102
RTVSPost2010PropOp57
 70
     1
102
RTVSPropertyOp0
 70
     1
102
RTVSPropertyOp1
 70
     1
102
RTVSPropertyOp2
 70
     1
102
RTVSPropertyOp3
 70
     1
102
RTVSPropertyOp4
 70
     1
102
RTVSPropertyOp5
 70
     1
102
RTVSPropertyOp6
 70
     1
102
RTVSPropertyOp7
 70
     1
102
RTVSPropertyOp8
 70
     1
102
RTVSPropertyOp9
 70
     1
102
RTVSPropertyOp10
 70
     1
102
RTVSPropertyOp11
 70
     1
102
RTVSPropertyOp12
 70
     1
102
RTVSPropertyOp13
 70
     1
102
RTVSPropertyOp14
 70
     1
102
RTVSPropertyOp15
 70
     1
102
RTVSPropertyOp16
 70
     1
102
RTVSPropertyOp17
 70
     1
102
RTVSPropertyOp18
 70
     1
102
RTVSPropertyOp19
 70
     1
102
RTVSPropertyOp20
 70
     1
102
RTVSPropertyOp21
 70
     1
102
RTVSPropertyOp22
 70
     1
102
RTVSPropertyOp23
 70
     1
102
RTVSPropertyOp24
 70
     1
102
RTVSPropertyOp25
 70
     1
102
RTVSPropertyOp26
 70
     1
102
RTVSPropertyOp27
 70
     1
102
RTVSPropertyOp28
 70
     1
102
RTVSPropertyOp29
 70
     1
102
RTVSPropertyOp30
 70
     1
102
RTVSPropertyOp31
 70
     1
102
RTVSPropertyOp32
 70
     1
102
RTVSPropertyOp33
 70
     1
102
RTVSPropertyOp34
 70
     1
102
RTVSPropertyOp35
 70
     1
102
RTVSPropertyOp36
 70
     1
102
RTVSPropertyOp37
 70
     1
102
RTVSPropertyOp38
 70
     1
102
RTVSPropertyOp39
 70
     1
102
RTVSPropertyOp40
 70
     1
102
RTVSPropertyOp41
 70
     1
102
RTVSPropertyOp42
 70
     1
102
RTVSPropertyOp43
 70
     1
102
RTVSPropertyOp44
 70
     1
102
RTVSPropertyOp45
 70
     1
102
RTVSPropertyOp46
 70
     1
102
RTVSPropertyOp47
 70
     1
102
RTVSPropertyOp48
 70
     1
102
RTVSPropertyOp49
 70
     1
102
RTVSPropertyOp50
 70
     1
102
RTVSPropertyOp51
 70
     0
102
RTVSPropertyOp52
 70
     0
102
RTVSPropertyOp53
 70
     1
102
RTVSPropertyOp54
 70
     1
102
RTVSPropertyOp55
 70
     1
102
RTVSPropertyOp56
 70
     1
102
RTVSPropertyOp57
 70
     1
102
RTVSPropertyOp58
 70
     1
102
RTVSPropertyOp59
 70
     1
102
RTVSPropertyOp60
 70
     1
102
RTVSPropertyOp61
 70
     1
102
RTVSPropertyOp62
 70
     1
  0
XRECORD
  5
407
102
{ACAD_REACTORS
330
406
102
}
330
406
100
AcDbXrecord
280
     1
102
RTVSPost2010Prop28
280
     0
102
RTVSPost2010PropOp28
 70
     1
102
RTVSPost2010Prop29
280
     1
102
RTVSPost2010PropOp29
 70
     1
102
RTVSPost2010Prop30
280
     1
102
RTVSPost2010PropOp30
 70
     1
102
RTVSPost2010Prop31
280
     0
102
RTVSPost2010PropOp31
 70
     1
102
RTVSPost2010Prop32
280
     0
102
RTVSPost2010PropOp32
 70
     1
102
RTVSPost2010Prop33
280
     0
102
RTVSPost2010PropOp33
 70
     1
102
RTVSPost2010Prop34
280
     0
102
RTVSPost2010PropOp34
 70
     1
102
RTVSPost2010Prop35
280
     0
102
RTVSPost2010PropOp35
 70
     1
102
RTVSPost2010Prop36
280
     0
102
RTVSPost2010PropOp36
 70
     1
102
RTVSPost2010Prop37
 90
       50
102
RTVSPost2010PropOp37
 70
     1
102
RTVSPost2010Prop38
140
0.0
102
RTVSPost2010PropOp38
 70
     1
102
RTVSPost2010Prop39
140
1.0
102
RTVSPost2010PropOp39
 70
     1
102
RTVSPost2010Prop40
 90
        0
102
RTVSPost2010PropOp40
 70
     1
102
RTVSPost2010Prop41ColorIndex
 90
       18
102
RTVSPost2010Prop41ColorRGB
 90
        0
102
RTVSPost2010PropOp41
 70
     1
102
RTVSPost2010Prop42
 90
       50
102
RTVSPost2010PropOp42
 70
     1
102
RTVSPost2010Prop43
 90
        3
102
RTVSPost2010PropOp43
 70
     1
102
RTVSPost2010Prop44ColorIndex
 90
        5
102
RTVSPost2010Prop44ColorRGB
 90
      255
102
RTVSPost2010PropOp44
 70
     1
102
RTVSPost2010Prop45
280
     0
102
RTVSPost2010PropOp45
 70
     1
102
RTVSPost2010Prop46
 90
       50
102
RTVSPost2010PropOp46
 70
     1
102
RTVSPost2010Prop47
 90
       50
102
RTVSPost2010PropOp47
 70
     1
102
RTVSPost2010Prop48
 90
       50
102
RTVSPost2010PropOp48
 70
     1
102
RTVSPost2010Prop49
280
     0
102
RTVSPost2010PropOp49
 70
     1
102
RTVSPost2010Prop50
 90
       50
102
RTVSPost2010PropOp50
 70
     1
102
RTVSPost2010Prop51ColorIndex
 90
      256
102
RTVSPost2010Prop51ColorRGB
 90
-16777216
102
RTVSPost2010PropOp51
 70
     0
102
RTVSPost2010Prop52
140
1.0
102
RTVSPost2010PropOp52
 70
     0
102
RTVSPost2010Prop53
 90
        2
102
RTVSPost2010PropOp53
 70
     1
102
RTVSPost2010Prop54
  1
strokes_ogs.tif
102
RTVSPost2010PropOp54
 70
     1
102
RTVSPost2010Prop55
280
     0
102
RTVSPost2010PropOp55
 70
     1
102
RTVSPost2010Prop56
140
1.0
102
RTVSPost2010PropOp56
 70
     1
102
RTVSPost2010Prop57
140
1.0
102
RTVSPost2010PropOp57
 70
     1
102
RTVSPropertyOp0
 70
     1
102
RTVSPropertyOp1
 70
     1
102
RTVSPropertyOp2
 70
     1
102
RTVSPropertyOp3
 70
     1
102
RTVSPropertyOp4
 70
     1
102
RTVSPropertyOp5
 70
     1
102
RTVSPropertyOp6
 70
     1
102
RTVSPropertyOp7
 70
     1
102
RTVSPropertyOp8
 70
     1
102
RTVSPropertyOp9
 70
     1
102
RTVSPropertyOp10
 70
     1
102
RTVSPropertyOp11
 70
     1
102
RTVSPropertyOp12
 70
     1
102
RTVSPropertyOp13
 70
     1
102
RTVSPropertyOp14
 70
     1
102
RTVSPropertyOp15
 70
     1
102
RTVSPropertyOp16
 70
     1
102
RTVSPropertyOp17
 70
     1
102
RTVSPropertyOp18
 70
     1
102
RTVSPropertyOp19
 70
     1
102
RTVSPropertyOp20
 70
     1
102
RTVSPropertyOp21
 70
     1
102
RTVSPropertyOp22
 70
     1
102
RTVSPropertyOp23
 70
     1
102
RTVSPropertyOp24
 70
     1
102
RTVSPropertyOp25
 70
     1
102
RTVSPropertyOp26
 70
     1
102
RTVSPropertyOp27
 70
     1
102
RTVSPropertyOp28
 70
     1
102
RTVSPropertyOp29
 70
     1
102
RTVSPropertyOp30
 70
     1
102
RTVSPropertyOp31
 70
     1
102
RTVSPropertyOp32
 70
     1
102
RTVSPropertyOp33
 70
     1
102
RTVSPropertyOp34
 70
     1
102
RTVSPropertyOp35
 70
     1
102
RTVSPropertyOp36
 70
     1
102
RTVSPropertyOp37
 70
     1
102
RTVSPropertyOp38
 70
     1
102
RTVSPropertyOp39
 70
     1
102
RTVSPropertyOp40
 70
     1
102
RTVSPropertyOp41
 70
     1
102
RTVSPropertyOp42
 70
     1
102
RTVSPropertyOp43
 70
     1
102
RTVSPropertyOp44
 70
     1
102
RTVSPropertyOp45
 70
     1
102
RTVSPropertyOp46
 70
     1
102
RTVSPropertyOp47
 70
     1
102
RTVSPropertyOp48
 70
     1
102
RTVSPropertyOp49
 70
     1
102
RTVSPropertyOp50
 70
     1
102
RTVSPropertyOp51
 70
     0
102
RTVSPropertyOp52
 70
     0
102
RTVSPropertyOp53
 70
     1
102
RTVSPropertyOp54
 70
     1
102
RTVSPropertyOp55
 70
     1
102
RTVSPropertyOp56
 70
     1
102
RTVSPropertyOp57
 70
     1
102
RTVSPropertyOp58
 70
     1
102
RTVSPropertyOp59
 70
     1
102
RTVSPropertyOp60
 70
     1
102
RTVSPropertyOp61
 70
     1
102
RTVSPropertyOp62
 70
     1
  0
XRECORD
  5
421
102
{ACAD_REACTORS
330
420
102
}
330
420
100
AcDbXrecord
280
     1
102
RTVSPost2010Prop28
280
     0
102
RTVSPost2010PropOp28
 70
     1
102
RTVSPost2010Prop29
280
     1
102
RTVSPost2010PropOp29
 70
     1
102
RTVSPost2010Prop30
280
     1
102
RTVSPost2010PropOp30
 70
     1
102
RTVSPost2010Prop31
280
     0
102
RTVSPost2010PropOp31
 70
     1
102
RTVSPost2010Prop32
280
     0
102
RTVSPost2010PropOp32
 70
     1
102
RTVSPost2010Prop33
280
     0
102
RTVSPost2010PropOp33
 70
     1
102
RTVSPost2010Prop34
280
     0
102
RTVSPost2010PropOp34
 70
     1
102
RTVSPost2010Prop35
280
     0
102
RTVSPost2010PropOp35
 70
     1
102
RTVSPost2010Prop36
280
     0
102
RTVSPost2010PropOp36
 70
     1
102
RTVSPost2010Prop37
 90
       50
102
RTVSPost2010PropOp37
 70
     0
102
RTVSPost2010Prop38
140
0.0
102
RTVSPost2010PropOp38
 70
     0
102
RTVSPost2010Prop39
140
1.0
102
RTVSPost2010PropOp39
 70
     0
102
RTVSPost2010Prop40
 90
        0
102
RTVSPost2010PropOp40
 70
     0
102
RTVSPost2010Prop41ColorIndex
 90
       18
102
RTVSPost2010Prop41ColorRGB
 90
        0
102
RTVSPost2010PropOp41
 70
     0
102
RTVSPost2010Prop42
 90
       50
102
RTVSPost2010PropOp42
 70
     0
102
RTVSPost2010Prop43
 90
        3
102
RTVSPost2010PropOp43
 70
     0
102
RTVSPost2010Prop44ColorIndex
 90
        5
102
RTVSPost2010Prop44ColorRGB
 90
      255
102
RTVSPost2010PropOp44
 70
     0
102
RTVSPost2010Prop45
280
     0
102
RTVSPost2010PropOp45
 70
     1
102
RTVSPost2010Prop46
 90
       50
102
RTVSPost2010PropOp46
 70
     0
102
RTVSPost2010Prop47
 90
       50
102
RTVSPost2010PropOp47
 70
     0
102
RTVSPost2010Prop48
 90
       50
102
RTVSPost2010PropOp48
 70
     0
102
RTVSPost2010Prop49
280
     0
102
RTVSPost2010PropOp49
 70
     1
102
RTVSPost2010Prop50
 90
       50
102
RTVSPost2010PropOp50
 70
     0
102
RTVSPost2010Prop51ColorIndex
 90
      256
102
RTVSPost2010Prop51ColorRGB
 90
-16777216
102
RTVSPost2010PropOp51
 70
     0
102
RTVSPost2010Prop52
140
1.0
102
RTVSPost2010PropOp52
 70
     0
102
RTVSPost2010Prop53
 90
        2
102
RTVSPost2010PropOp53
 70
     0
102
RTVSPost2010Prop54
  1
strokes_ogs.tif
102
RTVSPost2010PropOp54
 70
     0
102
RTVSPost2010Prop55
280
     0
102
RTVSPost2010PropOp55
 70
     1
102
RTVSPost2010Prop56
140
1.0
102
RTVSPost2010PropOp56
 70
     0
102
RTVSPost2010Prop57
140
1.0
102
RTVSPost2010PropOp57
 70
     0
102
RTVSPropertyOp0
 70
     0
102
RTVSPropertyOp1
 70
     0
102
RTVSPropertyOp2
 70
     0
102
RTVSPropertyOp3
 70
     0
102
RTVSPropertyOp4
 70
     0
102
RTVSPropertyOp5
 70
     0
102
RTVSPropertyOp6
 70
     0
102
RTVSPropertyOp7
 70
     0
102
RTVSPropertyOp8
 70
     0
102
RTVSPropertyOp9
 70
     0
102
RTVSPropertyOp10
 70
     0
102
RTVSPropertyOp11
 70
     0
102
RTVSPropertyOp12
 70
     0
102
RTVSPropertyOp13
 70
     0
102
RTVSPropertyOp14
 70
     2
102
RTVSPropertyOp15
 70
     0
102
RTVSPropertyOp16
 70
     0
102
RTVSPropertyOp17
 70
     0
102
RTVSPropertyOp18
 70
     0
102
RTVSPropertyOp19
 70
     0
102
RTVSPropertyOp20
 70
     0
102
RTVSPropertyOp21
 70
     0
102
RTVSPropertyOp22
 70
     0
102
RTVSPropertyOp23
 70
     0
102
RTVSPropertyOp24
 70
     0
102
RTVSPropertyOp25
 70
     0
102
RTVSPropertyOp26
 70
     0
102
RTVSPropertyOp27
 70
     0
102
RTVSPropertyOp28
 70
     1
102
RTVSPropertyOp29
 70
     1
102
RTVSPropertyOp30
 70
     1
102
RTVSPropertyOp31
 70
     1
102
RTVSPropertyOp32
 70
     1
102
RTVSPropertyOp33
 70
     1
102
RTVSPropertyOp34
 70
     1
102
RTVSPropertyOp35
 70
     1
102
RTVSPropertyOp36
 70
     1
102
RTVSPropertyOp37
 70
     0
102
RTVSPropertyOp38
 70
     0
102
RTVSPropertyOp39
 70
     0
102
RTVSPropertyOp40
 70
     0
102
RTVSPropertyOp41
 70
     0
102
RTVSPropertyOp42
 70
     0
102
RTVSPropertyOp43
 70
     0
102
RTVSPropertyOp44
 70
     0
102
RTVSPropertyOp45
 70
     1
102
RTVSPropertyOp46
 70
     0
102
RTVSPropertyOp47
 70
     0
102
RTVSPropertyOp48
 70
     0
102
RTVSPropertyOp49
 70
     1
102
RTVSPropertyOp50
 70
     0
102
RTVSPropertyOp51
 70
     0
102
RTVSPropertyOp52
 70
     0
102
RTVSPropertyOp53
 70
     0
102
RTVSPropertyOp54
 70
     0
102
RTVSPropertyOp55
 70
     1
102
RTVSPropertyOp56
 70
     0
102
RTVSPropertyOp57
 70
     0
102
RTVSPropertyOp58
 70
     0
102
RTVSPropertyOp59
 70
     0
102
RTVSPropertyOp60
 70
     0
102
RTVSPropertyOp61
 70
     0
102
RTVSPropertyOp62
 70
     0
  0
XRECORD
  5
40F
102
{ACAD_REACTORS
330
40E
102
}
330
40E
100
AcDbXrecord
280
     1
102
RTVSPost2010Prop28
280
     0
102
RTVSPost2010PropOp28
 70
     1
102
RTVSPost2010Prop29
280
     1
102
RTVSPost2010PropOp29
 70
     1
102
RTVSPost2010Prop30
280
     1
102
RTVSPost2010PropOp30
 70
     1
102
RTVSPost2010Prop31
280
     0
102
RTVSPost2010PropOp31
 70
     1
102
RTVSPost2010Prop32
280
     0
102
RTVSPost2010PropOp32
 70
     1
102
RTVSPost2010Prop33
280
     0
102
RTVSPost2010PropOp33
 70
     1
102
RTVSPost2010Prop34
280
     0
102
RTVSPost2010PropOp34
 70
     1
102
RTVSPost2010Prop35
280
     0
102
RTVSPost2010PropOp35
 70
     1
102
RTVSPost2010Prop36
280
     0
102
RTVSPost2010PropOp36
 70
     1
102
RTVSPost2010Prop37
 90
       50
102
RTVSPost2010PropOp37
 70
     1
102
RTVSPost2010Prop38
140
0.0
102
RTVSPost2010PropOp38
 70
     1
102
RTVSPost2010Prop39
140
1.0
102
RTVSPost2010PropOp39
 70
     1
102
RTVSPost2010Prop40
 90
        0
102
RTVSPost2010PropOp40
 70
     1
102
RTVSPost2010Prop41ColorIndex
 90
       18
102
RTVSPost2010Prop41ColorRGB
 90
        0
102
RTVSPost2010PropOp41
 70
     1
102
RTVSPost2010Prop42
 90
       50
102
RTVSPost2010PropOp42
 70
     1
102
RTVSPost2010Prop43
 90
        3
102
RTVSPost2010PropOp43
 70
     1
102
RTVSPost2010Prop44ColorIndex
 90
        5
102
RTVSPost2010Prop44ColorRGB
 90
      255
102
RTVSPost2010PropOp44
 70
     1
102
RTVSPost2010Prop45
280
     0
102
RTVSPost2010PropOp45
 70
     1
102
RTVSPost2010Prop46
 90
       50
102
RTVSPost2010PropOp46
 70
     1
102
RTVSPost2010Prop47
 90
       50
102
RTVSPost2010PropOp47
 70
     1
102
RTVSPost2010Prop48
 90
       50
102
RTVSPost2010PropOp48
 70
     1
102
RTVSPost2010Prop49
280
     0
102
RTVSPost2010PropOp49
 70
     1
102
RTVSPost2010Prop50
 90
       50
102
RTVSPost2010PropOp50
 70
     1
102
RTVSPost2010Prop51ColorIndex
 90
      256
102
RTVSPost2010Prop51ColorRGB
 90
-16777216
102
RTVSPost2010PropOp51
 70
     0
102
RTVSPost2010Prop52
140
1.0
102
RTVSPost2010PropOp52
 70
     0
102
RTVSPost2010Prop53
 90
        2
102
RTVSPost2010PropOp53
 70
     1
102
RTVSPost2010Prop54
  1
strokes_ogs.tif
102
RTVSPost2010PropOp54
 70
     1
102
RTVSPost2010Prop55
280
     0
102
RTVSPost2010PropOp55
 70
     1
102
RTVSPost2010Prop56
140
1.0
102
RTVSPost2010PropOp56
 70
     1
102
RTVSPost2010Prop57
140
1.0
102
RTVSPost2010PropOp57
 70
     1
102
RTVSPropertyOp0
 70
     1
102
RTVSPropertyOp1
 70
     1
102
RTVSPropertyOp2
 70
     1
102
RTVSPropertyOp3
 70
     1
102
RTVSPropertyOp4
 70
     1
102
RTVSPropertyOp5
 70
     1
102
RTVSPropertyOp6
 70
     1
102
RTVSPropertyOp7
 70
     1
102
RTVSPropertyOp8
 70
     1
102
RTVSPropertyOp9
 70
     1
102
RTVSPropertyOp10
 70
     1
102
RTVSPropertyOp11
 70
     1
102
RTVSPropertyOp12
 70
     1
102
RTVSPropertyOp13
 70
     1
102
RTVSPropertyOp14
 70
     1
102
RTVSPropertyOp15
 70
     1
102
RTVSPropertyOp16
 70
     1
102
RTVSPropertyOp17
 70
     1
102
RTVSPropertyOp18
 70
     1
102
RTVSPropertyOp19
 70
     1
102
RTVSPropertyOp20
 70
     1
102
RTVSPropertyOp21
 70
     1
102
RTVSPropertyOp22
 70
     1
102
RTVSPropertyOp23
 70
     1
102
RTVSPropertyOp24
 70
     1
102
RTVSPropertyOp25
 70
     1
102
RTVSPropertyOp26
 70
     1
102
RTVSPropertyOp27
 70
     1
102
RTVSPropertyOp28
 70
     1
102
RTVSPropertyOp29
 70
     1
102
RTVSPropertyOp30
 70
     1
102
RTVSPropertyOp31
 70
     1
102
RTVSPropertyOp32
 70
     1
102
RTVSPropertyOp33
 70
     1
102
RTVSPropertyOp34
 70
     1
102
RTVSPropertyOp35
 70
     1
102
RTVSPropertyOp36
 70
     1
102
RTVSPropertyOp37
 70
     1
102
RTVSPropertyOp38
 70
     1
102
RTVSPropertyOp39
 70
     1
102
RTVSPropertyOp40
 70
     1
102
RTVSPropertyOp41
 70
     1
102
RTVSPropertyOp42
 70
     1
102
RTVSPropertyOp43
 70
     1
102
RTVSPropertyOp44
 70
     1
102
RTVSPropertyOp45
 70
     1
102
RTVSPropertyOp46
 70
     1
102
RTVSPropertyOp47
 70
     1
102
RTVSPropertyOp48
 70
     1
102
RTVSPropertyOp49
 70
     1
102
RTVSPropertyOp50
 70
     1
102
RTVSPropertyOp51
 70
     0
102
RTVSPropertyOp52
 70
     0
102
RTVSPropertyOp53
 70
     1
102
RTVSPropertyOp54
 70
     1
102
RTVSPropertyOp55
 70
     1
102
RTVSPropertyOp56
 70
     1
102
RTVSPropertyOp57
 70
     1
102
RTVSPropertyOp58
 70
     1
102
RTVSPropertyOp59
 70
     1
102
RTVSPropertyOp60
 70
     1
102
RTVSPropertyOp61
 70
     1
102
RTVSPropertyOp62
 70
     1
  0
XRECORD
  5
3F3
102
{ACAD_REACTORS
330
3F2
102
}
330
3F2
100
AcDbXrecord
280
     1
102
RTVSPost2010Prop28
280
     0
102
RTVSPost2010PropOp28
 70
     1
102
RTVSPost2010Prop29
280
     1
102
RTVSPost2010PropOp29
 70
     1
102
RTVSPost2010Prop30
280
     1
102
RTVSPost2010PropOp30
 70
     1
102
RTVSPost2010Prop31
280
     0
102
RTVSPost2010PropOp31
 70
     1
102
RTVSPost2010Prop32
280
     0
102
RTVSPost2010PropOp32
 70
     1
102
RTVSPost2010Prop33
280
     0
102
RTVSPost2010PropOp33
 70
     1
102
RTVSPost2010Prop34
280
     0
102
RTVSPost2010PropOp34
 70
     1
102
RTVSPost2010Prop35
280
     0
102
RTVSPost2010PropOp35
 70
     1
102
RTVSPost2010Prop36
280
     0
102
RTVSPost2010PropOp36
 70
     1
102
RTVSPost2010Prop37
 90
       50
102
RTVSPost2010PropOp37
 70
     1
102
RTVSPost2010Prop38
140
0.0
102
RTVSPost2010PropOp38
 70
     1
102
RTVSPost2010Prop39
140
1.0
102
RTVSPost2010PropOp39
 70
     1
102
RTVSPost2010Prop40
 90
        0
102
RTVSPost2010PropOp40
 70
     1
102
RTVSPost2010Prop41ColorIndex
 90
       18
102
RTVSPost2010Prop41ColorRGB
 90
        0
102
RTVSPost2010PropOp41
 70
     1
102
RTVSPost2010Prop42
 90
       50
102
RTVSPost2010PropOp42
 70
     1
102
RTVSPost2010Prop43
 90
        3
102
RTVSPost2010PropOp43
 70
     1
102
RTVSPost2010Prop44ColorIndex
 90
        5
102
RTVSPost2010Prop44ColorRGB
 90
      255
102
RTVSPost2010PropOp44
 70
     1
102
RTVSPost2010Prop45
280
     0
102
RTVSPost2010PropOp45
 70
     1
102
RTVSPost2010Prop46
 90
       50
102
RTVSPost2010PropOp46
 70
     1
102
RTVSPost2010Prop47
 90
       50
102
RTVSPost2010PropOp47
 70
     1
102
RTVSPost2010Prop48
 90
       50
102
RTVSPost2010PropOp48
 70
     1
102
RTVSPost2010Prop49
280
     0
102
RTVSPost2010PropOp49
 70
     1
102
RTVSPost2010Prop50
 90
       50
102
RTVSPost2010PropOp50
 70
     1
102
RTVSPost2010Prop51ColorIndex
 90
      256
102
RTVSPost2010Prop51ColorRGB
 90
-16777216
102
RTVSPost2010PropOp51
 70
     0
102
RTVSPost2010Prop52
140
1.0
102
RTVSPost2010PropOp52
 70
     0
102
RTVSPost2010Prop53
 90
        2
102
RTVSPost2010PropOp53
 70
     1
102
RTVSPost2010Prop54
  1
strokes_ogs.tif
102
RTVSPost2010PropOp54
 70
     1
102
RTVSPost2010Prop55
280
     0
102
RTVSPost2010PropOp55
 70
     1
102
RTVSPost2010Prop56
140
1.0
102
RTVSPost2010PropOp56
 70
     1
102
RTVSPost2010Prop57
140
1.0
102
RTVSPost2010PropOp57
 70
     1
102
RTVSPropertyOp0
 70
     1
102
RTVSPropertyOp1
 70
     1
102
RTVSPropertyOp2
 70
     1
102
RTVSPropertyOp3
 70
     1
102
RTVSPropertyOp4
 70
     1
102
RTVSPropertyOp5
 70
     1
102
RTVSPropertyOp6
 70
     1
102
RTVSPropertyOp7
 70
     1
102
RTVSPropertyOp8
 70
     1
102
RTVSPropertyOp9
 70
     1
102
RTVSPropertyOp10
 70
     1
102
RTVSPropertyOp11
 70
     1
102
RTVSPropertyOp12
 70
     1
102
RTVSPropertyOp13
 70
     1
102
RTVSPropertyOp14
 70
     1
102
RTVSPropertyOp15
 70
     1
102
RTVSPropertyOp16
 70
     1
102
RTVSPropertyOp17
 70
     1
102
RTVSPropertyOp18
 70
     1
102
RTVSPropertyOp19
 70
     1
102
RTVSPropertyOp20
 70
     1
102
RTVSPropertyOp21
 70
     1
102
RTVSPropertyOp22
 70
     1
102
RTVSPropertyOp23
 70
     1
102
RTVSPropertyOp24
 70
     1
102
RTVSPropertyOp25
 70
     1
102
RTVSPropertyOp26
 70
     1
102
RTVSPropertyOp27
 70
     1
102
RTVSPropertyOp28
 70
     1
102
RTVSPropertyOp29
 70
     1
102
RTVSPropertyOp30
 70
     1
102
RTVSPropertyOp31
 70
     1
102
RTVSPropertyOp32
 70
     1
102
RTVSPropertyOp33
 70
     1
102
RTVSPropertyOp34
 70
     1
102
RTVSPropertyOp35
 70
     1
102
RTVSPropertyOp36
 70
     1
102
RTVSPropertyOp37
 70
     1
102
RTVSPropertyOp38
 70
     1
102
RTVSPropertyOp39
 70
     1
102
RTVSPropertyOp40
 70
     1
102
RTVSPropertyOp41
 70
     1
102
RTVSPropertyOp42
 70
     1
102
RTVSPropertyOp43
 70
     1
102
RTVSPropertyOp44
 70
     1
102
RTVSPropertyOp45
 70
     1
102
RTVSPropertyOp46
 70
     1
102
RTVSPropertyOp47
 70
     1
102
RTVSPropertyOp48
 70
     1
102
RTVSPropertyOp49
 70
     1
102
RTVSPropertyOp50
 70
     1
102
RTVSPropertyOp51
 70
     0
102
RTVSPropertyOp52
 70
     0
102
RTVSPropertyOp53
 70
     1
102
RTVSPropertyOp54
 70
     1
102
RTVSPropertyOp55
 70
     1
102
RTVSPropertyOp56
 70
     1
102
RTVSPropertyOp57
 70
     1
102
RTVSPropertyOp58
 70
     1
102
RTVSPropertyOp59
 70
     1
102
RTVSPropertyOp60
 70
     1
102
RTVSPropertyOp61
 70
     1
102
RTVSPropertyOp62
 70
     1
  0
XRECORD
  5
3F5
102
{ACAD_REACTORS
330
3F4
102
}
330
3F4
100
AcDbXrecord
280
     1
102
RTVSPost2010Prop28
280
     0
102
RTVSPost2010PropOp28
 70
     1
102
RTVSPost2010Prop29
280
     1
102
RTVSPost2010PropOp29
 70
     1
102
RTVSPost2010Prop30
280
     1
102
RTVSPost2010PropOp30
 70
     1
102
RTVSPost2010Prop31
280
     0
102
RTVSPost2010PropOp31
 70
     1
102
RTVSPost2010Prop32
280
     0
102
RTVSPost2010PropOp32
 70
     1
102
RTVSPost2010Prop33
280
     0
102
RTVSPost2010PropOp33
 70
     1
102
RTVSPost2010Prop34
280
     0
102
RTVSPost2010PropOp34
 70
     1
102
RTVSPost2010Prop35
280
     0
102
RTVSPost2010PropOp35
 70
     1
102
RTVSPost2010Prop36
280
     0
102
RTVSPost2010PropOp36
 70
     1
102
RTVSPost2010Prop37
 90
       50
102
RTVSPost2010PropOp37
 70
     1
102
RTVSPost2010Prop38
140
0.0
102
RTVSPost2010PropOp38
 70
     1
102
RTVSPost2010Prop39
140
1.0
102
RTVSPost2010PropOp39
 70
     1
102
RTVSPost2010Prop40
 90
        0
102
RTVSPost2010PropOp40
 70
     1
102
RTVSPost2010Prop41ColorIndex
 90
       18
102
RTVSPost2010Prop41ColorRGB
 90
        0
102
RTVSPost2010PropOp41
 70
     1
102
RTVSPost2010Prop42
 90
       50
102
RTVSPost2010PropOp42
 70
     1
102
RTVSPost2010Prop43
 90
        3
102
RTVSPost2010PropOp43
 70
     1
102
RTVSPost2010Prop44ColorIndex
 90
        5
102
RTVSPost2010Prop44ColorRGB
 90
      255
102
RTVSPost2010PropOp44
 70
     1
102
RTVSPost2010Prop45
280
     0
102
RTVSPost2010PropOp45
 70
     1
102
RTVSPost2010Prop46
 90
       50
102
RTVSPost2010PropOp46
 70
     1
102
RTVSPost2010Prop47
 90
       50
102
RTVSPost2010PropOp47
 70
     1
102
RTVSPost2010Prop48
 90
       50
102
RTVSPost2010PropOp48
 70
     1
102
RTVSPost2010Prop49
280
     0
102
RTVSPost2010PropOp49
 70
     1
102
RTVSPost2010Prop50
 90
       50
102
RTVSPost2010PropOp50
 70
     1
102
RTVSPost2010Prop51ColorIndex
 90
      256
102
RTVSPost2010Prop51ColorRGB
 90
-16777216
102
RTVSPost2010PropOp51
 70
     0
102
RTVSPost2010Prop52
140
1.0
102
RTVSPost2010PropOp52
 70
     0
102
RTVSPost2010Prop53
 90
        2
102
RTVSPost2010PropOp53
 70
     1
102
RTVSPost2010Prop54
  1
strokes_ogs.tif
102
RTVSPost2010PropOp54
 70
     1
102
RTVSPost2010Prop55
280
     0
102
RTVSPost2010PropOp55
 70
     1
102
RTVSPost2010Prop56
140
1.0
102
RTVSPost2010PropOp56
 70
     1
102
RTVSPost2010Prop57
140
1.0
102
RTVSPost2010PropOp57
 70
     1
102
RTVSPropertyOp0
 70
     1
102
RTVSPropertyOp1
 70
     1
102
RTVSPropertyOp2
 70
     1
102
RTVSPropertyOp3
 70
     1
102
RTVSPropertyOp4
 70
     1
102
RTVSPropertyOp5
 70
     1
102
RTVSPropertyOp6
 70
     1
102
RTVSPropertyOp7
 70
     1
102
RTVSPropertyOp8
 70
     1
102
RTVSPropertyOp9
 70
     1
102
RTVSPropertyOp10
 70
     1
102
RTVSPropertyOp11
 70
     1
102
RTVSPropertyOp12
 70
     1
102
RTVSPropertyOp13
 70
     1
102
RTVSPropertyOp14
 70
     1
102
RTVSPropertyOp15
 70
     1
102
RTVSPropertyOp16
 70
     1
102
RTVSPropertyOp17
 70
     1
102
RTVSPropertyOp18
 70
     1
102
RTVSPropertyOp19
 70
     1
102
RTVSPropertyOp20
 70
     1
102
RTVSPropertyOp21
 70
     1
102
RTVSPropertyOp22
 70
     1
102
RTVSPropertyOp23
 70
     1
102
RTVSPropertyOp24
 70
     1
102
RTVSPropertyOp25
 70
     1
102
RTVSPropertyOp26
 70
     1
102
RTVSPropertyOp27
 70
     1
102
RTVSPropertyOp28
 70
     1
102
RTVSPropertyOp29
 70
     1
102
RTVSPropertyOp30
 70
     1
102
RTVSPropertyOp31
 70
     1
102
RTVSPropertyOp32
 70
     1
102
RTVSPropertyOp33
 70
     1
102
RTVSPropertyOp34
 70
     1
102
RTVSPropertyOp35
 70
     1
102
RTVSPropertyOp36
 70
     1
102
RTVSPropertyOp37
 70
     1
102
RTVSPropertyOp38
 70
     1
102
RTVSPropertyOp39
 70
     1
102
RTVSPropertyOp40
 70
     1
102
RTVSPropertyOp41
 70
     1
102
RTVSPropertyOp42
 70
     1
102
RTVSPropertyOp43
 70
     1
102
RTVSPropertyOp44
 70
     1
102
RTVSPropertyOp45
 70
     1
102
RTVSPropertyOp46
 70
     1
102
RTVSPropertyOp47
 70
     1
102
RTVSPropertyOp48
 70
     1
102
RTVSPropertyOp49
 70
     1
102
RTVSPropertyOp50
 70
     1
102
RTVSPropertyOp51
 70
     0
102
RTVSPropertyOp52
 70
     0
102
RTVSPropertyOp53
 70
     1
102
RTVSPropertyOp54
 70
     1
102
RTVSPropertyOp55
 70
     1
102
RTVSPropertyOp56
 70
     1
102
RTVSPropertyOp57
 70
     1
102
RTVSPropertyOp58
 70
     1
102
RTVSPropertyOp59
 70
     1
102
RTVSPropertyOp60
 70
     1
102
RTVSPropertyOp61
 70
     1
102
RTVSPropertyOp62
 70
     1
  0
XRECORD
  5
3F7
102
{ACAD_REACTORS
330
3F6
102
}
330
3F6
100
AcDbXrecord
280
     1
102
RTVSPost2010Prop28
280
     0
102
RTVSPost2010PropOp28
 70
     1
102
RTVSPost2010Prop29
280
     1
102
RTVSPost2010PropOp29
 70
     1
102
RTVSPost2010Prop30
280
     1
102
RTVSPost2010PropOp30
 70
     1
102
RTVSPost2010Prop31
280
     0
102
RTVSPost2010PropOp31
 70
     1
102
RTVSPost2010Prop32
280
     0
102
RTVSPost2010PropOp32
 70
     1
102
RTVSPost2010Prop33
280
     0
102
RTVSPost2010PropOp33
 70
     1
102
RTVSPost2010Prop34
280
     0
102
RTVSPost2010PropOp34
 70
     1
102
RTVSPost2010Prop35
280
     0
102
RTVSPost2010PropOp35
 70
     1
102
RTVSPost2010Prop36
280
     0
102
RTVSPost2010PropOp36
 70
     1
102
RTVSPost2010Prop37
 90
       50
102
RTVSPost2010PropOp37
 70
     1
102
RTVSPost2010Prop38
140
0.0
102
RTVSPost2010PropOp38
 70
     1
102
RTVSPost2010Prop39
140
1.0
102
RTVSPost2010PropOp39
 70
     1
102
RTVSPost2010Prop40
 90
        0
102
RTVSPost2010PropOp40
 70
     1
102
RTVSPost2010Prop41ColorIndex
 90
       18
102
RTVSPost2010Prop41ColorRGB
 90
        0
102
RTVSPost2010PropOp41
 70
     1
102
RTVSPost2010Prop42
 90
       50
102
RTVSPost2010PropOp42
 70
     1
102
RTVSPost2010Prop43
 90
        3
102
RTVSPost2010PropOp43
 70
     1
102
RTVSPost2010Prop44ColorIndex
 90
        5
102
RTVSPost2010Prop44ColorRGB
 90
      255
102
RTVSPost2010PropOp44
 70
     1
102
RTVSPost2010Prop45
280
     0
102
RTVSPost2010PropOp45
 70
     1
102
RTVSPost2010Prop46
 90
       50
102
RTVSPost2010PropOp46
 70
     1
102
RTVSPost2010Prop47
 90
       50
102
RTVSPost2010PropOp47
 70
     1
102
RTVSPost2010Prop48
 90
       50
102
RTVSPost2010PropOp48
 70
     1
102
RTVSPost2010Prop49
280
     0
102
RTVSPost2010PropOp49
 70
     1
102
RTVSPost2010Prop50
 90
       50
102
RTVSPost2010PropOp50
 70
     1
102
RTVSPost2010Prop51ColorIndex
 90
      256
102
RTVSPost2010Prop51ColorRGB
 90
-16777216
102
RTVSPost2010PropOp51
 70
     0
102
RTVSPost2010Prop52
140
1.0
102
RTVSPost2010PropOp52
 70
     0
102
RTVSPost2010Prop53
 90
        2
102
RTVSPost2010PropOp53
 70
     1
102
RTVSPost2010Prop54
  1
strokes_ogs.tif
102
RTVSPost2010PropOp54
 70
     1
102
RTVSPost2010Prop55
280
     0
102
RTVSPost2010PropOp55
 70
     1
102
RTVSPost2010Prop56
140
1.0
102
RTVSPost2010PropOp56
 70
     1
102
RTVSPost2010Prop57
140
1.0
102
RTVSPost2010PropOp57
 70
     1
102
RTVSPropertyOp0
 70
     1
102
RTVSPropertyOp1
 70
     1
102
RTVSPropertyOp2
 70
     1
102
RTVSPropertyOp3
 70
     1
102
RTVSPropertyOp4
 70
     1
102
RTVSPropertyOp5
 70
     1
102
RTVSPropertyOp6
 70
     1
102
RTVSPropertyOp7
 70
     1
102
RTVSPropertyOp8
 70
     1
102
RTVSPropertyOp9
 70
     1
102
RTVSPropertyOp10
 70
     1
102
RTVSPropertyOp11
 70
     1
102
RTVSPropertyOp12
 70
     1
102
RTVSPropertyOp13
 70
     1
102
RTVSPropertyOp14
 70
     1
102
RTVSPropertyOp15
 70
     1
102
RTVSPropertyOp16
 70
     1
102
RTVSPropertyOp17
 70
     1
102
RTVSPropertyOp18
 70
     1
102
RTVSPropertyOp19
 70
     1
102
RTVSPropertyOp20
 70
     1
102
RTVSPropertyOp21
 70
     1
102
RTVSPropertyOp22
 70
     1
102
RTVSPropertyOp23
 70
     1
102
RTVSPropertyOp24
 70
     1
102
RTVSPropertyOp25
 70
     1
102
RTVSPropertyOp26
 70
     1
102
RTVSPropertyOp27
 70
     1
102
RTVSPropertyOp28
 70
     1
102
RTVSPropertyOp29
 70
     1
102
RTVSPropertyOp30
 70
     1
102
RTVSPropertyOp31
 70
     1
102
RTVSPropertyOp32
 70
     1
102
RTVSPropertyOp33
 70
     1
102
RTVSPropertyOp34
 70
     1
102
RTVSPropertyOp35
 70
     1
102
RTVSPropertyOp36
 70
     1
102
RTVSPropertyOp37
 70
     1
102
RTVSPropertyOp38
 70
     1
102
RTVSPropertyOp39
 70
     1
102
RTVSPropertyOp40
 70
     1
102
RTVSPropertyOp41
 70
     1
102
RTVSPropertyOp42
 70
     1
102
RTVSPropertyOp43
 70
     1
102
RTVSPropertyOp44
 70
     1
102
RTVSPropertyOp45
 70
     1
102
RTVSPropertyOp46
 70
     1
102
RTVSPropertyOp47
 70
     1
102
RTVSPropertyOp48
 70
     1
102
RTVSPropertyOp49
 70
     1
102
RTVSPropertyOp50
 70
     1
102
RTVSPropertyOp51
 70
     0
102
RTVSPropertyOp52
 70
     0
102
RTVSPropertyOp53
 70
     1
102
RTVSPropertyOp54
 70
     1
102
RTVSPropertyOp55
 70
     1
102
RTVSPropertyOp56
 70
     1
102
RTVSPropertyOp57
 70
     1
102
RTVSPropertyOp58
 70
     1
102
RTVSPropertyOp59
 70
     1
102
RTVSPropertyOp60
 70
     1
102
RTVSPropertyOp61
 70
     1
102
RTVSPropertyOp62
 70
     1
  0
XRECORD
  5
3F9
102
{ACAD_REACTORS
330
3F8
102
}
330
3F8
100
AcDbXrecord
280
     1
102
RTVSPost2010Prop28
280
     0
102
RTVSPost2010PropOp28
 70
     1
102
RTVSPost2010Prop29
280
     1
102
RTVSPost2010PropOp29
 70
     1
102
RTVSPost2010Prop30
280
     1
102
RTVSPost2010PropOp30
 70
     1
102
RTVSPost2010Prop31
280
     0
102
RTVSPost2010PropOp31
 70
     1
102
RTVSPost2010Prop32
280
     0
102
RTVSPost2010PropOp32
 70
     1
102
RTVSPost2010Prop33
280
     0
102
RTVSPost2010PropOp33
 70
     1
102
RTVSPost2010Prop34
280
     0
102
RTVSPost2010PropOp34
 70
     1
102
RTVSPost2010Prop35
280
     0
102
RTVSPost2010PropOp35
 70
     1
102
RTVSPost2010Prop36
280
     0
102
RTVSPost2010PropOp36
 70
     1
102
RTVSPost2010Prop37
 90
       50
102
RTVSPost2010PropOp37
 70
     1
102
RTVSPost2010Prop38
140
0.0
102
RTVSPost2010PropOp38
 70
     1
102
RTVSPost2010Prop39
140
1.0
102
RTVSPost2010PropOp39
 70
     1
102
RTVSPost2010Prop40
 90
        0
102
RTVSPost2010PropOp40
 70
     1
102
RTVSPost2010Prop41ColorIndex
 90
       18
102
RTVSPost2010Prop41ColorRGB
 90
        0
102
RTVSPost2010PropOp41
 70
     1
102
RTVSPost2010Prop42
 90
       50
102
RTVSPost2010PropOp42
 70
     1
102
RTVSPost2010Prop43
 90
        3
102
RTVSPost2010PropOp43
 70
     1
102
RTVSPost2010Prop44ColorIndex
 90
        5
102
RTVSPost2010Prop44ColorRGB
 90
      255
102
RTVSPost2010PropOp44
 70
     1
102
RTVSPost2010Prop45
280
     0
102
RTVSPost2010PropOp45
 70
     1
102
RTVSPost2010Prop46
 90
       50
102
RTVSPost2010PropOp46
 70
     1
102
RTVSPost2010Prop47
 90
       50
102
RTVSPost2010PropOp47
 70
     1
102
RTVSPost2010Prop48
 90
       50
102
RTVSPost2010PropOp48
 70
     1
102
RTVSPost2010Prop49
280
     0
102
RTVSPost2010PropOp49
 70
     1
102
RTVSPost2010Prop50
 90
       50
102
RTVSPost2010PropOp50
 70
     1
102
RTVSPost2010Prop51ColorIndex
 90
      256
102
RTVSPost2010Prop51ColorRGB
 90
-16777216
102
RTVSPost2010PropOp51
 70
     0
102
RTVSPost2010Prop52
140
1.0
102
RTVSPost2010PropOp52
 70
     0
102
RTVSPost2010Prop53
 90
        2
102
RTVSPost2010PropOp53
 70
     1
102
RTVSPost2010Prop54
  1
strokes_ogs.tif
102
RTVSPost2010PropOp54
 70
     1
102
RTVSPost2010Prop55
280
     0
102
RTVSPost2010PropOp55
 70
     1
102
RTVSPost2010Prop56
140
1.0
102
RTVSPost2010PropOp56
 70
     1
102
RTVSPost2010Prop57
140
1.0
102
RTVSPost2010PropOp57
 70
     1
102
RTVSPropertyOp0
 70
     1
102
RTVSPropertyOp1
 70
     1
102
RTVSPropertyOp2
 70
     1
102
RTVSPropertyOp3
 70
     1
102
RTVSPropertyOp4
 70
     1
102
RTVSPropertyOp5
 70
     1
102
RTVSPropertyOp6
 70
     1
102
RTVSPropertyOp7
 70
     1
102
RTVSPropertyOp8
 70
     1
102
RTVSPropertyOp9
 70
     1
102
RTVSPropertyOp10
 70
     1
102
RTVSPropertyOp11
 70
     1
102
RTVSPropertyOp12
 70
     1
102
RTVSPropertyOp13
 70
     1
102
RTVSPropertyOp14
 70
     1
102
RTVSPropertyOp15
 70
     1
102
RTVSPropertyOp16
 70
     1
102
RTVSPropertyOp17
 70
     1
102
RTVSPropertyOp18
 70
     1
102
RTVSPropertyOp19
 70
     1
102
RTVSPropertyOp20
 70
     1
102
RTVSPropertyOp21
 70
     1
102
RTVSPropertyOp22
 70
     1
102
RTVSPropertyOp23
 70
     1
102
RTVSPropertyOp24
 70
     1
102
RTVSPropertyOp25
 70
     1
102
RTVSPropertyOp26
 70
     1
102
RTVSPropertyOp27
 70
     1
102
RTVSPropertyOp28
 70
     1
102
RTVSPropertyOp29
 70
     1
102
RTVSPropertyOp30
 70
     1
102
RTVSPropertyOp31
 70
     1
102
RTVSPropertyOp32
 70
     1
102
RTVSPropertyOp33
 70
     1
102
RTVSPropertyOp34
 70
     1
102
RTVSPropertyOp35
 70
     1
102
RTVSPropertyOp36
 70
     1
102
RTVSPropertyOp37
 70
     1
102
RTVSPropertyOp38
 70
     1
102
RTVSPropertyOp39
 70
     1
102
RTVSPropertyOp40
 70
     1
102
RTVSPropertyOp41
 70
     1
102
RTVSPropertyOp42
 70
     1
102
RTVSPropertyOp43
 70
     1
102
RTVSPropertyOp44
 70
     1
102
RTVSPropertyOp45
 70
     1
102
RTVSPropertyOp46
 70
     1
102
RTVSPropertyOp47
 70
     1
102
RTVSPropertyOp48
 70
     1
102
RTVSPropertyOp49
 70
     1
102
RTVSPropertyOp50
 70
     1
102
RTVSPropertyOp51
 70
     0
102
RTVSPropertyOp52
 70
     0
102
RTVSPropertyOp53
 70
     1
102
RTVSPropertyOp54
 70
     1
102
RTVSPropertyOp55
 70
     1
102
RTVSPropertyOp56
 70
     1
102
RTVSPropertyOp57
 70
     1
102
RTVSPropertyOp58
 70
     1
102
RTVSPropertyOp59
 70
     1
102
RTVSPropertyOp60
 70
     1
102
RTVSPropertyOp61
 70
     1
102
RTVSPropertyOp62
 70
     1
  0
XRECORD
  5
401
102
{ACAD_REACTORS
330
400
102
}
330
400
100
AcDbXrecord
280
     1
102
RTVSPost2010Prop28
280
     0
102
RTVSPost2010PropOp28
 70
     1
102
RTVSPost2010Prop29
280
     1
102
RTVSPost2010PropOp29
 70
     1
102
RTVSPost2010Prop30
280
     1
102
RTVSPost2010PropOp30
 70
     1
102
RTVSPost2010Prop31
280
     0
102
RTVSPost2010PropOp31
 70
     1
102
RTVSPost2010Prop32
280
     0
102
RTVSPost2010PropOp32
 70
     1
102
RTVSPost2010Prop33
280
     0
102
RTVSPost2010PropOp33
 70
     1
102
RTVSPost2010Prop34
280
     0
102
RTVSPost2010PropOp34
 70
     1
102
RTVSPost2010Prop35
280
     0
102
RTVSPost2010PropOp35
 70
     1
102
RTVSPost2010Prop36
280
     0
102
RTVSPost2010PropOp36
 70
     1
102
RTVSPost2010Prop37
 90
       50
102
RTVSPost2010PropOp37
 70
     1
102
RTVSPost2010Prop38
140
0.0
102
RTVSPost2010PropOp38
 70
     1
102
RTVSPost2010Prop39
140
1.0
102
RTVSPost2010PropOp39
 70
     1
102
RTVSPost2010Prop40
 90
        0
102
RTVSPost2010PropOp40
 70
     1
102
RTVSPost2010Prop41ColorIndex
 90
       18
102
RTVSPost2010Prop41ColorRGB
 90
        0
102
RTVSPost2010PropOp41
 70
     1
102
RTVSPost2010Prop42
 90
       50
102
RTVSPost2010PropOp42
 70
     1
102
RTVSPost2010Prop43
 90
        3
102
RTVSPost2010PropOp43
 70
     1
102
RTVSPost2010Prop44ColorIndex
 90
        5
102
RTVSPost2010Prop44ColorRGB
 90
      255
102
RTVSPost2010PropOp44
 70
     1
102
RTVSPost2010Prop45
280
     0
102
RTVSPost2010PropOp45
 70
     1
102
RTVSPost2010Prop46
 90
       50
102
RTVSPost2010PropOp46
 70
     1
102
RTVSPost2010Prop47
 90
       50
102
RTVSPost2010PropOp47
 70
     1
102
RTVSPost2010Prop48
 90
       50
102
RTVSPost2010PropOp48
 70
     1
102
RTVSPost2010Prop49
280
     0
102
RTVSPost2010PropOp49
 70
     1
102
RTVSPost2010Prop50
 90
       50
102
RTVSPost2010PropOp50
 70
     1
102
RTVSPost2010Prop51ColorIndex
 90
      256
102
RTVSPost2010Prop51ColorRGB
 90
-16777216
102
RTVSPost2010PropOp51
 70
     0
102
RTVSPost2010Prop52
140
1.0
102
RTVSPost2010PropOp52
 70
     0
102
RTVSPost2010Prop53
 90
        2
102
RTVSPost2010PropOp53
 70
     1
102
RTVSPost2010Prop54
  1
strokes_ogs.tif
102
RTVSPost2010PropOp54
 70
     1
102
RTVSPost2010Prop55
280
     0
102
RTVSPost2010PropOp55
 70
     1
102
RTVSPost2010Prop56
140
1.0
102
RTVSPost2010PropOp56
 70
     1
102
RTVSPost2010Prop57
140
1.0
102
RTVSPost2010PropOp57
 70
     1
102
RTVSPropertyOp0
 70
     1
102
RTVSPropertyOp1
 70
     1
102
RTVSPropertyOp2
 70
     1
102
RTVSPropertyOp3
 70
     1
102
RTVSPropertyOp4
 70
     1
102
RTVSPropertyOp5
 70
     1
102
RTVSPropertyOp6
 70
     1
102
RTVSPropertyOp7
 70
     1
102
RTVSPropertyOp8
 70
     1
102
RTVSPropertyOp9
 70
     1
102
RTVSPropertyOp10
 70
     1
102
RTVSPropertyOp11
 70
     1
102
RTVSPropertyOp12
 70
     1
102
RTVSPropertyOp13
 70
     1
102
RTVSPropertyOp14
 70
     1
102
RTVSPropertyOp15
 70
     1
102
RTVSPropertyOp16
 70
     1
102
RTVSPropertyOp17
 70
     1
102
RTVSPropertyOp18
 70
     1
102
RTVSPropertyOp19
 70
     1
102
RTVSPropertyOp20
 70
     1
102
RTVSPropertyOp21
 70
     1
102
RTVSPropertyOp22
 70
     1
102
RTVSPropertyOp23
 70
     1
102
RTVSPropertyOp24
 70
     1
102
RTVSPropertyOp25
 70
     1
102
RTVSPropertyOp26
 70
     1
102
RTVSPropertyOp27
 70
     1
102
RTVSPropertyOp28
 70
     1
102
RTVSPropertyOp29
 70
     1
102
RTVSPropertyOp30
 70
     1
102
RTVSPropertyOp31
 70
     1
102
RTVSPropertyOp32
 70
     1
102
RTVSPropertyOp33
 70
     1
102
RTVSPropertyOp34
 70
     1
102
RTVSPropertyOp35
 70
     1
102
RTVSPropertyOp36
 70
     1
102
RTVSPropertyOp37
 70
     1
102
RTVSPropertyOp38
 70
     1
102
RTVSPropertyOp39
 70
     1
102
RTVSPropertyOp40
 70
     1
102
RTVSPropertyOp41
 70
     1
102
RTVSPropertyOp42
 70
     1
102
RTVSPropertyOp43
 70
     1
102
RTVSPropertyOp44
 70
     1
102
RTVSPropertyOp45
 70
     1
102
RTVSPropertyOp46
 70
     1
102
RTVSPropertyOp47
 70
     1
102
RTVSPropertyOp48
 70
     1
102
RTVSPropertyOp49
 70
     1
102
RTVSPropertyOp50
 70
     1
102
RTVSPropertyOp51
 70
     0
102
RTVSPropertyOp52
 70
     0
102
RTVSPropertyOp53
 70
     1
102
RTVSPropertyOp54
 70
     1
102
RTVSPropertyOp55
 70
     1
102
RTVSPropertyOp56
 70
     1
102
RTVSPropertyOp57
 70
     1
102
RTVSPropertyOp58
 70
     1
102
RTVSPropertyOp59
 70
     1
102
RTVSPropertyOp60
 70
     1
102
RTVSPropertyOp61
 70
     1
102
RTVSPropertyOp62
 70
     1
  0
XRECORD
  5
41D
102
{ACAD_REACTORS
330
41C
102
}
330
41C
100
AcDbXrecord
280
     1
102
RTVSPost2010Prop28
280
     0
102
RTVSPost2010PropOp28
 70
     1
102
RTVSPost2010Prop29
280
     1
102
RTVSPost2010PropOp29
 70
     1
102
RTVSPost2010Prop30
280
     1
102
RTVSPost2010PropOp30
 70
     1
102
RTVSPost2010Prop31
280
     0
102
RTVSPost2010PropOp31
 70
     1
102
RTVSPost2010Prop32
280
     0
102
RTVSPost2010PropOp32
 70
     1
102
RTVSPost2010Prop33
280
     0
102
RTVSPost2010PropOp33
 70
     1
102
RTVSPost2010Prop34
280
     0
102
RTVSPost2010PropOp34
 70
     1
102
RTVSPost2010Prop35
280
     0
102
RTVSPost2010PropOp35
 70
     1
102
RTVSPost2010Prop36
280
     0
102
RTVSPost2010PropOp36
 70
     1
102
RTVSPost2010Prop37
 90
       50
102
RTVSPost2010PropOp37
 70
     0
102
RTVSPost2010Prop38
140
0.0
102
RTVSPost2010PropOp38
 70
     0
102
RTVSPost2010Prop39
140
1.0
102
RTVSPost2010PropOp39
 70
     0
102
RTVSPost2010Prop40
 90
        0
102
RTVSPost2010PropOp40
 70
     0
102
RTVSPost2010Prop41ColorIndex
 90
       18
102
RTVSPost2010Prop41ColorRGB
 90
        0
102
RTVSPost2010PropOp41
 70
     0
102
RTVSPost2010Prop42
 90
       50
102
RTVSPost2010PropOp42
 70
     0
102
RTVSPost2010Prop43
 90
        3
102
RTVSPost2010PropOp43
 70
     0
102
RTVSPost2010Prop44ColorIndex
 90
        5
102
RTVSPost2010Prop44ColorRGB
 90
      255
102
RTVSPost2010PropOp44
 70
     0
102
RTVSPost2010Prop45
280
     0
102
RTVSPost2010PropOp45
 70
     1
102
RTVSPost2010Prop46
 90
       50
102
RTVSPost2010PropOp46
 70
     0
102
RTVSPost2010Prop47
 90
       50
102
RTVSPost2010PropOp47
 70
     0
102
RTVSPost2010Prop48
 90
       50
102
RTVSPost2010PropOp48
 70
     0
102
RTVSPost2010Prop49
280
     0
102
RTVSPost2010PropOp49
 70
     1
102
RTVSPost2010Prop50
 90
       50
102
RTVSPost2010PropOp50
 70
     0
102
RTVSPost2010Prop51ColorIndex
 90
      256
102
RTVSPost2010Prop51ColorRGB
 90
-16777216
102
RTVSPost2010PropOp51
 70
     0
102
RTVSPost2010Prop52
140
1.0
102
RTVSPost2010PropOp52
 70
     0
102
RTVSPost2010Prop53
 90
        2
102
RTVSPost2010PropOp53
 70
     0
102
RTVSPost2010Prop54
  1
strokes_ogs.tif
102
RTVSPost2010PropOp54
 70
     0
102
RTVSPost2010Prop55
280
     0
102
RTVSPost2010PropOp55
 70
     1
102
RTVSPost2010Prop56
140
1.0
102
RTVSPost2010PropOp56
 70
     0
102
RTVSPost2010Prop57
140
1.0
102
RTVSPost2010PropOp57
 70
     0
102
RTVSPropertyOp0
 70
     0
102
RTVSPropertyOp1
 70
     0
102
RTVSPropertyOp2
 70
     0
102
RTVSPropertyOp3
 70
     0
102
RTVSPropertyOp4
 70
     0
102
RTVSPropertyOp5
 70
     0
102
RTVSPropertyOp6
 70
     0
102
RTVSPropertyOp7
 70
     0
102
RTVSPropertyOp8
 70
     0
102
RTVSPropertyOp9
 70
     0
102
RTVSPropertyOp10
 70
     0
102
RTVSPropertyOp11
 70
     0
102
RTVSPropertyOp12
 70
     0
102
RTVSPropertyOp13
 70
     0
102
RTVSPropertyOp14
 70
     2
102
RTVSPropertyOp15
 70
     0
102
RTVSPropertyOp16
 70
     0
102
RTVSPropertyOp17
 70
     0
102
RTVSPropertyOp18
 70
     0
102
RTVSPropertyOp19
 70
     0
102
RTVSPropertyOp20
 70
     0
102
RTVSPropertyOp21
 70
     0
102
RTVSPropertyOp22
 70
     0
102
RTVSPropertyOp23
 70
     0
102
RTVSPropertyOp24
 70
     0
102
RTVSPropertyOp25
 70
     0
102
RTVSPropertyOp26
 70
     0
102
RTVSPropertyOp27
 70
     0
102
RTVSPropertyOp28
 70
     1
102
RTVSPropertyOp29
 70
     1
102
RTVSPropertyOp30
 70
     1
102
RTVSPropertyOp31
 70
     1
102
RTVSPropertyOp32
 70
     1
102
RTVSPropertyOp33
 70
     1
102
RTVSPropertyOp34
 70
     1
102
RTVSPropertyOp35
 70
     1
102
RTVSPropertyOp36
 70
     1
102
RTVSPropertyOp37
 70
     0
102
RTVSPropertyOp38
 70
     0
102
RTVSPropertyOp39
 70
     0
102
RTVSPropertyOp40
 70
     0
102
RTVSPropertyOp41
 70
     0
102
RTVSPropertyOp42
 70
     0
102
RTVSPropertyOp43
 70
     0
102
RTVSPropertyOp44
 70
     0
102
RTVSPropertyOp45
 70
     1
102
RTVSPropertyOp46
 70
     0
102
RTVSPropertyOp47
 70
     0
102
RTVSPropertyOp48
 70
     0
102
RTVSPropertyOp49
 70
     1
102
RTVSPropertyOp50
 70
     0
102
RTVSPropertyOp51
 70
     0
102
RTVSPropertyOp52
 70
     0
102
RTVSPropertyOp53
 70
     0
102
RTVSPropertyOp54
 70
     0
102
RTVSPropertyOp55
 70
     1
102
RTVSPropertyOp56
 70
     0
102
RTVSPropertyOp57
 70
     0
102
RTVSPropertyOp58
 70
     0
102
RTVSPropertyOp59
 70
     0
102
RTVSPropertyOp60
 70
     0
102
RTVSPropertyOp61
 70
     0
102
RTVSPropertyOp62
 70
     0
  0
XRECORD
  5
40D
102
{ACAD_REACTORS
330
40C
102
}
330
40C
100
AcDbXrecord
280
     1
102
RTVSPost2010Prop28
280
     0
102
RTVSPost2010PropOp28
 70
     1
102
RTVSPost2010Prop29
280
     1
102
RTVSPost2010PropOp29
 70
     1
102
RTVSPost2010Prop30
280
     1
102
RTVSPost2010PropOp30
 70
     1
102
RTVSPost2010Prop31
280
     0
102
RTVSPost2010PropOp31
 70
     1
102
RTVSPost2010Prop32
280
     0
102
RTVSPost2010PropOp32
 70
     1
102
RTVSPost2010Prop33
280
     0
102
RTVSPost2010PropOp33
 70
     1
102
RTVSPost2010Prop34
280
     0
102
RTVSPost2010PropOp34
 70
     1
102
RTVSPost2010Prop35
280
     0
102
RTVSPost2010PropOp35
 70
     1
102
RTVSPost2010Prop36
280
     0
102
RTVSPost2010PropOp36
 70
     1
102
RTVSPost2010Prop37
 90
       50
102
RTVSPost2010PropOp37
 70
     1
102
RTVSPost2010Prop38
140
0.0
102
RTVSPost2010PropOp38
 70
     1
102
RTVSPost2010Prop39
140
1.0
102
RTVSPost2010PropOp39
 70
     1
102
RTVSPost2010Prop40
 90
        0
102
RTVSPost2010PropOp40
 70
     1
102
RTVSPost2010Prop41ColorIndex
 90
       18
102
RTVSPost2010Prop41ColorRGB
 90
        0
102
RTVSPost2010PropOp41
 70
     1
102
RTVSPost2010Prop42
 90
       50
102
RTVSPost2010PropOp42
 70
     1
102
RTVSPost2010Prop43
 90
        3
102
RTVSPost2010PropOp43
 70
     1
102
RTVSPost2010Prop44ColorIndex
 90
        5
102
RTVSPost2010Prop44ColorRGB
 90
      255
102
RTVSPost2010PropOp44
 70
     1
102
RTVSPost2010Prop45
280
     0
102
RTVSPost2010PropOp45
 70
     1
102
RTVSPost2010Prop46
 90
       50
102
RTVSPost2010PropOp46
 70
     1
102
RTVSPost2010Prop47
 90
       50
102
RTVSPost2010PropOp47
 70
     1
102
RTVSPost2010Prop48
 90
       50
102
RTVSPost2010PropOp48
 70
     1
102
RTVSPost2010Prop49
280
     0
102
RTVSPost2010PropOp49
 70
     1
102
RTVSPost2010Prop50
 90
       50
102
RTVSPost2010PropOp50
 70
     1
102
RTVSPost2010Prop51ColorIndex
 90
      256
102
RTVSPost2010Prop51ColorRGB
 90
-16777216
102
RTVSPost2010PropOp51
 70
     0
102
RTVSPost2010Prop52
140
1.0
102
RTVSPost2010PropOp52
 70
     0
102
RTVSPost2010Prop53
 90
        2
102
RTVSPost2010PropOp53
 70
     1
102
RTVSPost2010Prop54
  1
strokes_ogs.tif
102
RTVSPost2010PropOp54
 70
     1
102
RTVSPost2010Prop55
280
     0
102
RTVSPost2010PropOp55
 70
     1
102
RTVSPost2010Prop56
140
1.0
102
RTVSPost2010PropOp56
 70
     1
102
RTVSPost2010Prop57
140
1.0
102
RTVSPost2010PropOp57
 70
     1
102
RTVSPropertyOp0
 70
     1
102
RTVSPropertyOp1
 70
     1
102
RTVSPropertyOp2
 70
     1
102
RTVSPropertyOp3
 70
     1
102
RTVSPropertyOp4
 70
     1
102
RTVSPropertyOp5
 70
     1
102
RTVSPropertyOp6
 70
     1
102
RTVSPropertyOp7
 70
     1
102
RTVSPropertyOp8
 70
     1
102
RTVSPropertyOp9
 70
     1
102
RTVSPropertyOp10
 70
     1
102
RTVSPropertyOp11
 70
     1
102
RTVSPropertyOp12
 70
     1
102
RTVSPropertyOp13
 70
     1
102
RTVSPropertyOp14
 70
     1
102
RTVSPropertyOp15
 70
     1
102
RTVSPropertyOp16
 70
     1
102
RTVSPropertyOp17
 70
     1
102
RTVSPropertyOp18
 70
     1
102
RTVSPropertyOp19
 70
     1
102
RTVSPropertyOp20
 70
     1
102
RTVSPropertyOp21
 70
     1
102
RTVSPropertyOp22
 70
     1
102
RTVSPropertyOp23
 70
     1
102
RTVSPropertyOp24
 70
     1
102
RTVSPropertyOp25
 70
     1
102
RTVSPropertyOp26
 70
     1
102
RTVSPropertyOp27
 70
     1
102
RTVSPropertyOp28
 70
     1
102
RTVSPropertyOp29
 70
     1
102
RTVSPropertyOp30
 70
     1
102
RTVSPropertyOp31
 70
     1
102
RTVSPropertyOp32
 70
     1
102
RTVSPropertyOp33
 70
     1
102
RTVSPropertyOp34
 70
     1
102
RTVSPropertyOp35
 70
     1
102
RTVSPropertyOp36
 70
     1
102
RTVSPropertyOp37
 70
     1
102
RTVSPropertyOp38
 70
     1
102
RTVSPropertyOp39
 70
     1
102
RTVSPropertyOp40
 70
     1
102
RTVSPropertyOp41
 70
     1
102
RTVSPropertyOp42
 70
     1
102
RTVSPropertyOp43
 70
     1
102
RTVSPropertyOp44
 70
     1
102
RTVSPropertyOp45
 70
     1
102
RTVSPropertyOp46
 70
     1
102
RTVSPropertyOp47
 70
     1
102
RTVSPropertyOp48
 70
     1
102
RTVSPropertyOp49
 70
     1
102
RTVSPropertyOp50
 70
     1
102
RTVSPropertyOp51
 70
     0
102
RTVSPropertyOp52
 70
     0
102
RTVSPropertyOp53
 70
     1
102
RTVSPropertyOp54
 70
     1
102
RTVSPropertyOp55
 70
     1
102
RTVSPropertyOp56
 70
     1
102
RTVSPropertyOp57
 70
     1
102
RTVSPropertyOp58
 70
     1
102
RTVSPropertyOp59
 70
     1
102
RTVSPropertyOp60
 70
     1
102
RTVSPropertyOp61
 70
     1
102
RTVSPropertyOp62
 70
     1
  0
XRECORD
  5
41F
102
{ACAD_REACTORS
330
41E
102
}
330
41E
100
AcDbXrecord
280
     1
102
RTVSPost2010Prop28
280
     0
102
RTVSPost2010PropOp28
 70
     1
102
RTVSPost2010Prop29
280
     1
102
RTVSPost2010PropOp29
 70
     1
102
RTVSPost2010Prop30
280
     1
102
RTVSPost2010PropOp30
 70
     1
102
RTVSPost2010Prop31
280
     0
102
RTVSPost2010PropOp31
 70
     1
102
RTVSPost2010Prop32
280
     0
102
RTVSPost2010PropOp32
 70
     1
102
RTVSPost2010Prop33
280
     0
102
RTVSPost2010PropOp33
 70
     1
102
RTVSPost2010Prop34
280
     0
102
RTVSPost2010PropOp34
 70
     1
102
RTVSPost2010Prop35
280
     0
102
RTVSPost2010PropOp35
 70
     1
102
RTVSPost2010Prop36
280
     0
102
RTVSPost2010PropOp36
 70
     1
102
RTVSPost2010Prop37
 90
       50
102
RTVSPost2010PropOp37
 70
     0
102
RTVSPost2010Prop38
140
0.0
102
RTVSPost2010PropOp38
 70
     0
102
RTVSPost2010Prop39
140
1.0
102
RTVSPost2010PropOp39
 70
     0
102
RTVSPost2010Prop40
 90
        0
102
RTVSPost2010PropOp40
 70
     0
102
RTVSPost2010Prop41ColorIndex
 90
       18
102
RTVSPost2010Prop41ColorRGB
 90
        0
102
RTVSPost2010PropOp41
 70
     0
102
RTVSPost2010Prop42
 90
       50
102
RTVSPost2010PropOp42
 70
     0
102
RTVSPost2010Prop43
 90
        3
102
RTVSPost2010PropOp43
 70
     0
102
RTVSPost2010Prop44ColorIndex
 90
        5
102
RTVSPost2010Prop44ColorRGB
 90
      255
102
RTVSPost2010PropOp44
 70
     0
102
RTVSPost2010Prop45
280
     0
102
RTVSPost2010PropOp45
 70
     1
102
RTVSPost2010Prop46
 90
       50
102
RTVSPost2010PropOp46
 70
     0
102
RTVSPost2010Prop47
 90
       50
102
RTVSPost2010PropOp47
 70
     0
102
RTVSPost2010Prop48
 90
       50
102
RTVSPost2010PropOp48
 70
     0
102
RTVSPost2010Prop49
280
     0
102
RTVSPost2010PropOp49
 70
     1
102
RTVSPost2010Prop50
 90
       50
102
RTVSPost2010PropOp50
 70
     0
102
RTVSPost2010Prop51ColorIndex
 90
      256
102
RTVSPost2010Prop51ColorRGB
 90
-16777216
102
RTVSPost2010PropOp51
 70
     0
102
RTVSPost2010Prop52
140
1.0
102
RTVSPost2010PropOp52
 70
     0
102
RTVSPost2010Prop53
 90
        2
102
RTVSPost2010PropOp53
 70
     0
102
RTVSPost2010Prop54
  1
strokes_ogs.tif
102
RTVSPost2010PropOp54
 70
     0
102
RTVSPost2010Prop55
280
     0
102
RTVSPost2010PropOp55
 70
     1
102
RTVSPost2010Prop56
140
1.0
102
RTVSPost2010PropOp56
 70
     0
102
RTVSPost2010Prop57
140
1.0
102
RTVSPost2010PropOp57
 70
     0
102
RTVSPropertyOp0
 70
     0
102
RTVSPropertyOp1
 70
     0
102
RTVSPropertyOp2
 70
     0
102
RTVSPropertyOp3
 70
     0
102
RTVSPropertyOp4
 70
     0
102
RTVSPropertyOp5
 70
     0
102
RTVSPropertyOp6
 70
     0
102
RTVSPropertyOp7
 70
     0
102
RTVSPropertyOp8
 70
     0
102
RTVSPropertyOp9
 70
     0
102
RTVSPropertyOp10
 70
     0
102
RTVSPropertyOp11
 70
     0
102
RTVSPropertyOp12
 70
     0
102
RTVSPropertyOp13
 70
     0
102
RTVSPropertyOp14
 70
     2
102
RTVSPropertyOp15
 70
     0
102
RTVSPropertyOp16
 70
     0
102
RTVSPropertyOp17
 70
     0
102
RTVSPropertyOp18
 70
     0
102
RTVSPropertyOp19
 70
     0
102
RTVSPropertyOp20
 70
     0
102
RTVSPropertyOp21
 70
     0
102
RTVSPropertyOp22
 70
     0
102
RTVSPropertyOp23
 70
     0
102
RTVSPropertyOp24
 70
     0
102
RTVSPropertyOp25
 70
     0
102
RTVSPropertyOp26
 70
     0
102
RTVSPropertyOp27
 70
     0
102
RTVSPropertyOp28
 70
     1
102
RTVSPropertyOp29
 70
     1
102
RTVSPropertyOp30
 70
     1
102
RTVSPropertyOp31
 70
     1
102
RTVSPropertyOp32
 70
     1
102
RTVSPropertyOp33
 70
     1
102
RTVSPropertyOp34
 70
     1
102
RTVSPropertyOp35
 70
     1
102
RTVSPropertyOp36
 70
     1
102
RTVSPropertyOp37
 70
     0
102
RTVSPropertyOp38
 70
     0
102
RTVSPropertyOp39
 70
     0
102
RTVSPropertyOp40
 70
     0
102
RTVSPropertyOp41
 70
     0
102
RTVSPropertyOp42
 70
     0
102
RTVSPropertyOp43
 70
     0
102
RTVSPropertyOp44
 70
     0
102
RTVSPropertyOp45
 70
     1
102
RTVSPropertyOp46
 70
     0
102
RTVSPropertyOp47
 70
     0
102
RTVSPropertyOp48
 70
     0
102
RTVSPropertyOp49
 70
     1
102
RTVSPropertyOp50
 70
     0
102
RTVSPropertyOp51
 70
     0
102
RTVSPropertyOp52
 70
     0
102
RTVSPropertyOp53
 70
     0
102
RTVSPropertyOp54
 70
     0
102
RTVSPropertyOp55
 70
     1
102
RTVSPropertyOp56
 70
     0
102
RTVSPropertyOp57
 70
     0
102
RTVSPropertyOp58
 70
     0
102
RTVSPropertyOp59
 70
     0
102
RTVSPropertyOp60
 70
     0
102
RTVSPropertyOp61
 70
     0
102
RTVSPropertyOp62
 70
     0
  0
XRECORD
  5
405
102
{ACAD_REACTORS
330
404
102
}
330
404
100
AcDbXrecord
280
     1
102
RTVSPost2010Prop28
280
     0
102
RTVSPost2010PropOp28
 70
     1
102
RTVSPost2010Prop29
280
     1
102
RTVSPost2010PropOp29
 70
     1
102
RTVSPost2010Prop30
280
     1
102
RTVSPost2010PropOp30
 70
     1
102
RTVSPost2010Prop31
280
     0
102
RTVSPost2010PropOp31
 70
     1
102
RTVSPost2010Prop32
280
     0
102
RTVSPost2010PropOp32
 70
     1
102
RTVSPost2010Prop33
280
     0
102
RTVSPost2010PropOp33
 70
     1
102
RTVSPost2010Prop34
280
     0
102
RTVSPost2010PropOp34
 70
     1
102
RTVSPost2010Prop35
280
     0
102
RTVSPost2010PropOp35
 70
     1
102
RTVSPost2010Prop36
280
     0
102
RTVSPost2010PropOp36
 70
     1
102
RTVSPost2010Prop37
 90
       50
102
RTVSPost2010PropOp37
 70
     1
102
RTVSPost2010Prop38
140
0.0
102
RTVSPost2010PropOp38
 70
     1
102
RTVSPost2010Prop39
140
1.0
102
RTVSPost2010PropOp39
 70
     1
102
RTVSPost2010Prop40
 90
        0
102
RTVSPost2010PropOp40
 70
     1
102
RTVSPost2010Prop41ColorIndex
 90
       18
102
RTVSPost2010Prop41ColorRGB
 90
        0
102
RTVSPost2010PropOp41
 70
     1
102
RTVSPost2010Prop42
 90
       50
102
RTVSPost2010PropOp42
 70
     1
102
RTVSPost2010Prop43
 90
        3
102
RTVSPost2010PropOp43
 70
     1
102
RTVSPost2010Prop44ColorIndex
 90
        5
102
RTVSPost2010Prop44ColorRGB
 90
      255
102
RTVSPost2010PropOp44
 70
     1
102
RTVSPost2010Prop45
280
     0
102
RTVSPost2010PropOp45
 70
     1
102
RTVSPost2010Prop46
 90
       50
102
RTVSPost2010PropOp46
 70
     1
102
RTVSPost2010Prop47
 90
       50
102
RTVSPost2010PropOp47
 70
     1
102
RTVSPost2010Prop48
 90
       50
102
RTVSPost2010PropOp48
 70
     1
102
RTVSPost2010Prop49
280
     0
102
RTVSPost2010PropOp49
 70
     1
102
RTVSPost2010Prop50
 90
       50
102
RTVSPost2010PropOp50
 70
     1
102
RTVSPost2010Prop51ColorIndex
 90
      256
102
RTVSPost2010Prop51ColorRGB
 90
-16777216
102
RTVSPost2010PropOp51
 70
     0
102
RTVSPost2010Prop52
140
1.0
102
RTVSPost2010PropOp52
 70
     0
102
RTVSPost2010Prop53
 90
        2
102
RTVSPost2010PropOp53
 70
     1
102
RTVSPost2010Prop54
  1
strokes_ogs.tif
102
RTVSPost2010PropOp54
 70
     1
102
RTVSPost2010Prop55
280
     0
102
RTVSPost2010PropOp55
 70
     1
102
RTVSPost2010Prop56
140
1.0
102
RTVSPost2010PropOp56
 70
     1
102
RTVSPost2010Prop57
140
1.0
102
RTVSPost2010PropOp57
 70
     1
102
RTVSPropertyOp0
 70
     1
102
RTVSPropertyOp1
 70
     1
102
RTVSPropertyOp2
 70
     1
102
RTVSPropertyOp3
 70
     1
102
RTVSPropertyOp4
 70
     1
102
RTVSPropertyOp5
 70
     1
102
RTVSPropertyOp6
 70
     1
102
RTVSPropertyOp7
 70
     1
102
RTVSPropertyOp8
 70
     1
102
RTVSPropertyOp9
 70
     1
102
RTVSPropertyOp10
 70
     1
102
RTVSPropertyOp11
 70
     1
102
RTVSPropertyOp12
 70
     1
102
RTVSPropertyOp13
 70
     1
102
RTVSPropertyOp14
 70
     1
102
RTVSPropertyOp15
 70
     1
102
RTVSPropertyOp16
 70
     1
102
RTVSPropertyOp17
 70
     1
102
RTVSPropertyOp18
 70
     1
102
RTVSPropertyOp19
 70
     1
102
RTVSPropertyOp20
 70
     1
102
RTVSPropertyOp21
 70
     1
102
RTVSPropertyOp22
 70
     1
102
RTVSPropertyOp23
 70
     1
102
RTVSPropertyOp24
 70
     1
102
RTVSPropertyOp25
 70
     1
102
RTVSPropertyOp26
 70
     1
102
RTVSPropertyOp27
 70
     1
102
RTVSPropertyOp28
 70
     1
102
RTVSPropertyOp29
 70
     1
102
RTVSPropertyOp30
 70
     1
102
RTVSPropertyOp31
 70
     1
102
RTVSPropertyOp32
 70
     1
102
RTVSPropertyOp33
 70
     1
102
RTVSPropertyOp34
 70
     1
102
RTVSPropertyOp35
 70
     1
102
RTVSPropertyOp36
 70
     1
102
RTVSPropertyOp37
 70
     1
102
RTVSPropertyOp38
 70
     1
102
RTVSPropertyOp39
 70
     1
102
RTVSPropertyOp40
 70
     1
102
RTVSPropertyOp41
 70
     1
102
RTVSPropertyOp42
 70
     1
102
RTVSPropertyOp43
 70
     1
102
RTVSPropertyOp44
 70
     1
102
RTVSPropertyOp45
 70
     1
102
RTVSPropertyOp46
 70
     1
102
RTVSPropertyOp47
 70
     1
102
RTVSPropertyOp48
 70
     1
102
RTVSPropertyOp49
 70
     1
102
RTVSPropertyOp50
 70
     1
102
RTVSPropertyOp51
 70
     0
102
RTVSPropertyOp52
 70
     0
102
RTVSPropertyOp53
 70
     1
102
RTVSPropertyOp54
 70
     1
102
RTVSPropertyOp55
 70
     1
102
RTVSPropertyOp56
 70
     1
102
RTVSPropertyOp57
 70
     1
102
RTVSPropertyOp58
 70
     1
102
RTVSPropertyOp59
 70
     1
102
RTVSPropertyOp60
 70
     1
102
RTVSPropertyOp61
 70
     1
102
RTVSPropertyOp62
 70
     1
  0
XRECORD
  5
41B
102
{ACAD_REACTORS
330
41A
102
}
330
41A
100
AcDbXrecord
280
     1
102
RTVSPost2010Prop28
280
     0
102
RTVSPost2010PropOp28
 70
     1
102
RTVSPost2010Prop29
280
     1
102
RTVSPost2010PropOp29
 70
     1
102
RTVSPost2010Prop30
280
     1
102
RTVSPost2010PropOp30
 70
     1
102
RTVSPost2010Prop31
280
     0
102
RTVSPost2010PropOp31
 70
     1
102
RTVSPost2010Prop32
280
     0
102
RTVSPost2010PropOp32
 70
     1
102
RTVSPost2010Prop33
280
     0
102
RTVSPost2010PropOp33
 70
     1
102
RTVSPost2010Prop34
280
     0
102
RTVSPost2010PropOp34
 70
     1
102
RTVSPost2010Prop35
280
     0
102
RTVSPost2010PropOp35
 70
     1
102
RTVSPost2010Prop36
280
     0
102
RTVSPost2010PropOp36
 70
     1
102
RTVSPost2010Prop37
 90
       50
102
RTVSPost2010PropOp37
 70
     1
102
RTVSPost2010Prop38
140
0.0
102
RTVSPost2010PropOp38
 70
     1
102
RTVSPost2010Prop39
140
1.0
102
RTVSPost2010PropOp39
 70
     1
102
RTVSPost2010Prop40
 90
        0
102
RTVSPost2010PropOp40
 70
     1
102
RTVSPost2010Prop41ColorIndex
 90
       18
102
RTVSPost2010Prop41ColorRGB
 90
        0
102
RTVSPost2010PropOp41
 70
     1
102
RTVSPost2010Prop42
 90
       50
102
RTVSPost2010PropOp42
 70
     1
102
RTVSPost2010Prop43
 90
        3
102
RTVSPost2010PropOp43
 70
     1
102
RTVSPost2010Prop44ColorIndex
 90
        5
102
RTVSPost2010Prop44ColorRGB
 90
      255
102
RTVSPost2010PropOp44
 70
     1
102
RTVSPost2010Prop45
280
     0
102
RTVSPost2010PropOp45
 70
     1
102
RTVSPost2010Prop46
 90
       50
102
RTVSPost2010PropOp46
 70
     1
102
RTVSPost2010Prop47
 90
       50
102
RTVSPost2010PropOp47
 70
     1
102
RTVSPost2010Prop48
 90
       50
102
RTVSPost2010PropOp48
 70
     1
102
RTVSPost2010Prop49
280
     0
102
RTVSPost2010PropOp49
 70
     1
102
RTVSPost2010Prop50
 90
       50
102
RTVSPost2010PropOp50
 70
     1
102
RTVSPost2010Prop51ColorIndex
 90
      256
102
RTVSPost2010Prop51ColorRGB
 90
-16777216
102
RTVSPost2010PropOp51
 70
     0
102
RTVSPost2010Prop52
140
1.0
102
RTVSPost2010PropOp52
 70
     0
102
RTVSPost2010Prop53
 90
        2
102
RTVSPost2010PropOp53
 70
     1
102
RTVSPost2010Prop54
  1
strokes_ogs.tif
102
RTVSPost2010PropOp54
 70
     1
102
RTVSPost2010Prop55
280
     0
102
RTVSPost2010PropOp55
 70
     1
102
RTVSPost2010Prop56
140
1.0
102
RTVSPost2010PropOp56
 70
     1
102
RTVSPost2010Prop57
140
1.0
102
RTVSPost2010PropOp57
 70
     1
102
RTVSPropertyOp0
 70
     1
102
RTVSPropertyOp1
 70
     1
102
RTVSPropertyOp2
 70
     1
102
RTVSPropertyOp3
 70
     1
102
RTVSPropertyOp4
 70
     1
102
RTVSPropertyOp5
 70
     1
102
RTVSPropertyOp6
 70
     1
102
RTVSPropertyOp7
 70
     1
102
RTVSPropertyOp8
 70
     1
102
RTVSPropertyOp9
 70
     1
102
RTVSPropertyOp10
 70
     1
102
RTVSPropertyOp11
 70
     1
102
RTVSPropertyOp12
 70
     1
102
RTVSPropertyOp13
 70
     1
102
RTVSPropertyOp14
 70
     1
102
RTVSPropertyOp15
 70
     1
102
RTVSPropertyOp16
 70
     1
102
RTVSPropertyOp17
 70
     1
102
RTVSPropertyOp18
 70
     1
102
RTVSPropertyOp19
 70
     1
102
RTVSPropertyOp20
 70
     1
102
RTVSPropertyOp21
 70
     1
102
RTVSPropertyOp22
 70
     1
102
RTVSPropertyOp23
 70
     1
102
RTVSPropertyOp24
 70
     1
102
RTVSPropertyOp25
 70
     1
102
RTVSPropertyOp26
 70
     1
102
RTVSPropertyOp27
 70
     1
102
RTVSPropertyOp28
 70
     1
102
RTVSPropertyOp29
 70
     1
102
RTVSPropertyOp30
 70
     1
102
RTVSPropertyOp31
 70
     1
102
RTVSPropertyOp32
 70
     1
102
RTVSPropertyOp33
 70
     1
102
RTVSPropertyOp34
 70
     1
102
RTVSPropertyOp35
 70
     1
102
RTVSPropertyOp36
 70
     1
102
RTVSPropertyOp37
 70
     1
102
RTVSPropertyOp38
 70
     1
102
RTVSPropertyOp39
 70
     1
102
RTVSPropertyOp40
 70
     1
102
RTVSPropertyOp41
 70
     1
102
RTVSPropertyOp42
 70
     1
102
RTVSPropertyOp43
 70
     1
102
RTVSPropertyOp44
 70
     1
102
RTVSPropertyOp45
 70
     1
102
RTVSPropertyOp46
 70
     1
102
RTVSPropertyOp47
 70
     1
102
RTVSPropertyOp48
 70
     1
102
RTVSPropertyOp49
 70
     1
102
RTVSPropertyOp50
 70
     1
102
RTVSPropertyOp51
 70
     0
102
RTVSPropertyOp52
 70
     0
102
RTVSPropertyOp53
 70
     1
102
RTVSPropertyOp54
 70
     1
102
RTVSPropertyOp55
 70
     1
102
RTVSPropertyOp56
 70
     1
102
RTVSPropertyOp57
 70
     1
102
RTVSPropertyOp58
 70
     1
102
RTVSPropertyOp59
 70
     1
102
RTVSPropertyOp60
 70
     1
102
RTVSPropertyOp61
 70
     1
102
RTVSPropertyOp62
 70
     1
  0
XRECORD
  5
419
102
{ACAD_REACTORS
330
418
102
}
330
418
100
AcDbXrecord
280
     1
102
RTVSPost2010Prop28
280
     0
102
RTVSPost2010PropOp28
 70
     1
102
RTVSPost2010Prop29
280
     1
102
RTVSPost2010PropOp29
 70
     1
102
RTVSPost2010Prop30
280
     1
102
RTVSPost2010PropOp30
 70
     1
102
RTVSPost2010Prop31
280
     0
102
RTVSPost2010PropOp31
 70
     1
102
RTVSPost2010Prop32
280
     0
102
RTVSPost2010PropOp32
 70
     1
102
RTVSPost2010Prop33
280
     0
102
RTVSPost2010PropOp33
 70
     1
102
RTVSPost2010Prop34
280
     0
102
RTVSPost2010PropOp34
 70
     1
102
RTVSPost2010Prop35
280
     0
102
RTVSPost2010PropOp35
 70
     1
102
RTVSPost2010Prop36
280
     0
102
RTVSPost2010PropOp36
 70
     1
102
RTVSPost2010Prop37
 90
       50
102
RTVSPost2010PropOp37
 70
     1
102
RTVSPost2010Prop38
140
0.0
102
RTVSPost2010PropOp38
 70
     1
102
RTVSPost2010Prop39
140
1.0
102
RTVSPost2010PropOp39
 70
     1
102
RTVSPost2010Prop40
 90
        0
102
RTVSPost2010PropOp40
 70
     1
102
RTVSPost2010Prop41ColorIndex
 90
       18
102
RTVSPost2010Prop41ColorRGB
 90
        0
102
RTVSPost2010PropOp41
 70
     1
102
RTVSPost2010Prop42
 90
       50
102
RTVSPost2010PropOp42
 70
     1
102
RTVSPost2010Prop43
 90
        3
102
RTVSPost2010PropOp43
 70
     1
102
RTVSPost2010Prop44ColorIndex
 90
        5
102
RTVSPost2010Prop44ColorRGB
 90
      255
102
RTVSPost2010PropOp44
 70
     1
102
RTVSPost2010Prop45
280
     0
102
RTVSPost2010PropOp45
 70
     1
102
RTVSPost2010Prop46
 90
       50
102
RTVSPost2010PropOp46
 70
     1
102
RTVSPost2010Prop47
 90
       50
102
RTVSPost2010PropOp47
 70
     1
102
RTVSPost2010Prop48
 90
       50
102
RTVSPost2010PropOp48
 70
     1
102
RTVSPost2010Prop49
280
     0
102
RTVSPost2010PropOp49
 70
     1
102
RTVSPost2010Prop50
 90
       50
102
RTVSPost2010PropOp50
 70
     1
102
RTVSPost2010Prop51ColorIndex
 90
      256
102
RTVSPost2010Prop51ColorRGB
 90
-16777216
102
RTVSPost2010PropOp51
 70
     0
102
RTVSPost2010Prop52
140
1.0
102
RTVSPost2010PropOp52
 70
     0
102
RTVSPost2010Prop53
 90
        2
102
RTVSPost2010PropOp53
 70
     1
102
RTVSPost2010Prop54
  1
strokes_ogs.tif
102
RTVSPost2010PropOp54
 70
     1
102
RTVSPost2010Prop55
280
     0
102
RTVSPost2010PropOp55
 70
     1
102
RTVSPost2010Prop56
140
1.0
102
RTVSPost2010PropOp56
 70
     1
102
RTVSPost2010Prop57
140
1.0
102
RTVSPost2010PropOp57
 70
     1
102
RTVSPropertyOp0
 70
     1
102
RTVSPropertyOp1
 70
     1
102
RTVSPropertyOp2
 70
     1
102
RTVSPropertyOp3
 70
     1
102
RTVSPropertyOp4
 70
     1
102
RTVSPropertyOp5
 70
     1
102
RTVSPropertyOp6
 70
     1
102
RTVSPropertyOp7
 70
     1
102
RTVSPropertyOp8
 70
     1
102
RTVSPropertyOp9
 70
     1
102
RTVSPropertyOp10
 70
     1
102
RTVSPropertyOp11
 70
     1
102
RTVSPropertyOp12
 70
     1
102
RTVSPropertyOp13
 70
     1
102
RTVSPropertyOp14
 70
     1
102
RTVSPropertyOp15
 70
     1
102
RTVSPropertyOp16
 70
     1
102
RTVSPropertyOp17
 70
     1
102
RTVSPropertyOp18
 70
     1
102
RTVSPropertyOp19
 70
     1
102
RTVSPropertyOp20
 70
     1
102
RTVSPropertyOp21
 70
     1
102
RTVSPropertyOp22
 70
     1
102
RTVSPropertyOp23
 70
     1
102
RTVSPropertyOp24
 70
     1
102
RTVSPropertyOp25
 70
     1
102
RTVSPropertyOp26
 70
     1
102
RTVSPropertyOp27
 70
     1
102
RTVSPropertyOp28
 70
     1
102
RTVSPropertyOp29
 70
     1
102
RTVSPropertyOp30
 70
     1
102
RTVSPropertyOp31
 70
     1
102
RTVSPropertyOp32
 70
     1
102
RTVSPropertyOp33
 70
     1
102
RTVSPropertyOp34
 70
     1
102
RTVSPropertyOp35
 70
     1
102
RTVSPropertyOp36
 70
     1
102
RTVSPropertyOp37
 70
     1
102
RTVSPropertyOp38
 70
     1
102
RTVSPropertyOp39
 70
     1
102
RTVSPropertyOp40
 70
     1
102
RTVSPropertyOp41
 70
     1
102
RTVSPropertyOp42
 70
     1
102
RTVSPropertyOp43
 70
     1
102
RTVSPropertyOp44
 70
     1
102
RTVSPropertyOp45
 70
     1
102
RTVSPropertyOp46
 70
     1
102
RTVSPropertyOp47
 70
     1
102
RTVSPropertyOp48
 70
     1
102
RTVSPropertyOp49
 70
     1
102
RTVSPropertyOp50
 70
     1
102
RTVSPropertyOp51
 70
     0
102
RTVSPropertyOp52
 70
     0
102
RTVSPropertyOp53
 70
     1
102
RTVSPropertyOp54
 70
     1
102
RTVSPropertyOp55
 70
     1
102
RTVSPropertyOp56
 70
     1
102
RTVSPropertyOp57
 70
     1
102
RTVSPropertyOp58
 70
     1
102
RTVSPropertyOp59
 70
     1
102
RTVSPropertyOp60
 70
     1
102
RTVSPropertyOp61
 70
     1
102
RTVSPropertyOp62
 70
     1
  0
XRECORD
  5
413
102
{ACAD_REACTORS
330
412
102
}
330
412
100
AcDbXrecord
280
     1
102
RTVSPost2010Prop28
280
     0
102
RTVSPost2010PropOp28
 70
     1
102
RTVSPost2010Prop29
280
     1
102
RTVSPost2010PropOp29
 70
     1
102
RTVSPost2010Prop30
280
     1
102
RTVSPost2010PropOp30
 70
     1
102
RTVSPost2010Prop31
280
     0
102
RTVSPost2010PropOp31
 70
     1
102
RTVSPost2010Prop32
280
     0
102
RTVSPost2010PropOp32
 70
     1
102
RTVSPost2010Prop33
280
     0
102
RTVSPost2010PropOp33
 70
     1
102
RTVSPost2010Prop34
280
     0
102
RTVSPost2010PropOp34
 70
     1
102
RTVSPost2010Prop35
280
     0
102
RTVSPost2010PropOp35
 70
     1
102
RTVSPost2010Prop36
280
     0
102
RTVSPost2010PropOp36
 70
     1
102
RTVSPost2010Prop37
 90
       50
102
RTVSPost2010PropOp37
 70
     1
102
RTVSPost2010Prop38
140
0.0
102
RTVSPost2010PropOp38
 70
     1
102
RTVSPost2010Prop39
140
1.0
102
RTVSPost2010PropOp39
 70
     1
102
RTVSPost2010Prop40
 90
        0
102
RTVSPost2010PropOp40
 70
     1
102
RTVSPost2010Prop41ColorIndex
 90
       18
102
RTVSPost2010Prop41ColorRGB
 90
        0
102
RTVSPost2010PropOp41
 70
     1
102
RTVSPost2010Prop42
 90
       50
102
RTVSPost2010PropOp42
 70
     1
102
RTVSPost2010Prop43
 90
        3
102
RTVSPost2010PropOp43
 70
     1
102
RTVSPost2010Prop44ColorIndex
 90
        5
102
RTVSPost2010Prop44ColorRGB
 90
      255
102
RTVSPost2010PropOp44
 70
     1
102
RTVSPost2010Prop45
280
     0
102
RTVSPost2010PropOp45
 70
     1
102
RTVSPost2010Prop46
 90
       50
102
RTVSPost2010PropOp46
 70
     1
102
RTVSPost2010Prop47
 90
       50
102
RTVSPost2010PropOp47
 70
     1
102
RTVSPost2010Prop48
 90
       50
102
RTVSPost2010PropOp48
 70
     1
102
RTVSPost2010Prop49
280
     0
102
RTVSPost2010PropOp49
 70
     1
102
RTVSPost2010Prop50
 90
       50
102
RTVSPost2010PropOp50
 70
     1
102
RTVSPost2010Prop51ColorIndex
 90
      256
102
RTVSPost2010Prop51ColorRGB
 90
-16777216
102
RTVSPost2010PropOp51
 70
     0
102
RTVSPost2010Prop52
140
1.0
102
RTVSPost2010PropOp52
 70
     0
102
RTVSPost2010Prop53
 90
        2
102
RTVSPost2010PropOp53
 70
     1
102
RTVSPost2010Prop54
  1
strokes_ogs.tif
102
RTVSPost2010PropOp54
 70
     1
102
RTVSPost2010Prop55
280
     0
102
RTVSPost2010PropOp55
 70
     1
102
RTVSPost2010Prop56
140
1.0
102
RTVSPost2010PropOp56
 70
     1
102
RTVSPost2010Prop57
140
1.0
102
RTVSPost2010PropOp57
 70
     1
102
RTVSPropertyOp0
 70
     1
102
RTVSPropertyOp1
 70
     1
102
RTVSPropertyOp2
 70
     1
102
RTVSPropertyOp3
 70
     1
102
RTVSPropertyOp4
 70
     1
102
RTVSPropertyOp5
 70
     1
102
RTVSPropertyOp6
 70
     1
102
RTVSPropertyOp7
 70
     1
102
RTVSPropertyOp8
 70
     1
102
RTVSPropertyOp9
 70
     1
102
RTVSPropertyOp10
 70
     1
102
RTVSPropertyOp11
 70
     1
102
RTVSPropertyOp12
 70
     1
102
RTVSPropertyOp13
 70
     1
102
RTVSPropertyOp14
 70
     1
102
RTVSPropertyOp15
 70
     1
102
RTVSPropertyOp16
 70
     1
102
RTVSPropertyOp17
 70
     1
102
RTVSPropertyOp18
 70
     1
102
RTVSPropertyOp19
 70
     1
102
RTVSPropertyOp20
 70
     1
102
RTVSPropertyOp21
 70
     1
102
RTVSPropertyOp22
 70
     1
102
RTVSPropertyOp23
 70
     1
102
RTVSPropertyOp24
 70
     1
102
RTVSPropertyOp25
 70
     1
102
RTVSPropertyOp26
 70
     1
102
RTVSPropertyOp27
 70
     1
102
RTVSPropertyOp28
 70
     1
102
RTVSPropertyOp29
 70
     1
102
RTVSPropertyOp30
 70
     1
102
RTVSPropertyOp31
 70
     1
102
RTVSPropertyOp32
 70
     1
102
RTVSPropertyOp33
 70
     1
102
RTVSPropertyOp34
 70
     1
102
RTVSPropertyOp35
 70
     1
102
RTVSPropertyOp36
 70
     1
102
RTVSPropertyOp37
 70
     1
102
RTVSPropertyOp38
 70
     1
102
RTVSPropertyOp39
 70
     1
102
RTVSPropertyOp40
 70
     1
102
RTVSPropertyOp41
 70
     1
102
RTVSPropertyOp42
 70
     1
102
RTVSPropertyOp43
 70
     1
102
RTVSPropertyOp44
 70
     1
102
RTVSPropertyOp45
 70
     1
102
RTVSPropertyOp46
 70
     1
102
RTVSPropertyOp47
 70
     1
102
RTVSPropertyOp48
 70
     1
102
RTVSPropertyOp49
 70
     1
102
RTVSPropertyOp50
 70
     1
102
RTVSPropertyOp51
 70
     0
102
RTVSPropertyOp52
 70
     0
102
RTVSPropertyOp53
 70
     1
102
RTVSPropertyOp54
 70
     1
102
RTVSPropertyOp55
 70
     1
102
RTVSPropertyOp56
 70
     1
102
RTVSPropertyOp57
 70
     1
102
RTVSPropertyOp58
 70
     1
102
RTVSPropertyOp59
 70
     1
102
RTVSPropertyOp60
 70
     1
102
RTVSPropertyOp61
 70
     1
102
RTVSPropertyOp62
 70
     1
  0
XRECORD
  5
415
102
{ACAD_REACTORS
330
414
102
}
330
414
100
AcDbXrecord
280
     1
102
RTVSPost2010Prop28
280
     0
102
RTVSPost2010PropOp28
 70
     1
102
RTVSPost2010Prop29
280
     1
102
RTVSPost2010PropOp29
 70
     1
102
RTVSPost2010Prop30
280
     1
102
RTVSPost2010PropOp30
 70
     1
102
RTVSPost2010Prop31
280
     0
102
RTVSPost2010PropOp31
 70
     1
102
RTVSPost2010Prop32
280
     0
102
RTVSPost2010PropOp32
 70
     1
102
RTVSPost2010Prop33
280
     0
102
RTVSPost2010PropOp33
 70
     1
102
RTVSPost2010Prop34
280
     0
102
RTVSPost2010PropOp34
 70
     1
102
RTVSPost2010Prop35
280
     0
102
RTVSPost2010PropOp35
 70
     1
102
RTVSPost2010Prop36
280
     0
102
RTVSPost2010PropOp36
 70
     1
102
RTVSPost2010Prop37
 90
       50
102
RTVSPost2010PropOp37
 70
     1
102
RTVSPost2010Prop38
140
0.0
102
RTVSPost2010PropOp38
 70
     1
102
RTVSPost2010Prop39
140
1.0
102
RTVSPost2010PropOp39
 70
     1
102
RTVSPost2010Prop40
 90
        0
102
RTVSPost2010PropOp40
 70
     1
102
RTVSPost2010Prop41ColorIndex
 90
       18
102
RTVSPost2010Prop41ColorRGB
 90
        0
102
RTVSPost2010PropOp41
 70
     1
102
RTVSPost2010Prop42
 90
       50
102
RTVSPost2010PropOp42
 70
     1
102
RTVSPost2010Prop43
 90
        3
102
RTVSPost2010PropOp43
 70
     1
102
RTVSPost2010Prop44ColorIndex
 90
        5
102
RTVSPost2010Prop44ColorRGB
 90
      255
102
RTVSPost2010PropOp44
 70
     1
102
RTVSPost2010Prop45
280
     0
102
RTVSPost2010PropOp45
 70
     1
102
RTVSPost2010Prop46
 90
       50
102
RTVSPost2010PropOp46
 70
     1
102
RTVSPost2010Prop47
 90
       50
102
RTVSPost2010PropOp47
 70
     1
102
RTVSPost2010Prop48
 90
       50
102
RTVSPost2010PropOp48
 70
     1
102
RTVSPost2010Prop49
280
     0
102
RTVSPost2010PropOp49
 70
     1
102
RTVSPost2010Prop50
 90
       50
102
RTVSPost2010PropOp50
 70
     1
102
RTVSPost2010Prop51ColorIndex
 90
      256
102
RTVSPost2010Prop51ColorRGB
 90
-16777216
102
RTVSPost2010PropOp51
 70
     0
102
RTVSPost2010Prop52
140
1.0
102
RTVSPost2010PropOp52
 70
     0
102
RTVSPost2010Prop53
 90
        2
102
RTVSPost2010PropOp53
 70
     1
102
RTVSPost2010Prop54
  1
strokes_ogs.tif
102
RTVSPost2010PropOp54
 70
     1
102
RTVSPost2010Prop55
280
     0
102
RTVSPost2010PropOp55
 70
     1
102
RTVSPost2010Prop56
140
1.0
102
RTVSPost2010PropOp56
 70
     1
102
RTVSPost2010Prop57
140
1.0
102
RTVSPost2010PropOp57
 70
     1
102
RTVSPropertyOp0
 70
     1
102
RTVSPropertyOp1
 70
     1
102
RTVSPropertyOp2
 70
     1
102
RTVSPropertyOp3
 70
     1
102
RTVSPropertyOp4
 70
     1
102
RTVSPropertyOp5
 70
     1
102
RTVSPropertyOp6
 70
     1
102
RTVSPropertyOp7
 70
     1
102
RTVSPropertyOp8
 70
     1
102
RTVSPropertyOp9
 70
     1
102
RTVSPropertyOp10
 70
     1
102
RTVSPropertyOp11
 70
     1
102
RTVSPropertyOp12
 70
     1
102
RTVSPropertyOp13
 70
     1
102
RTVSPropertyOp14
 70
     1
102
RTVSPropertyOp15
 70
     1
102
RTVSPropertyOp16
 70
     1
102
RTVSPropertyOp17
 70
     1
102
RTVSPropertyOp18
 70
     1
102
RTVSPropertyOp19
 70
     1
102
RTVSPropertyOp20
 70
     1
102
RTVSPropertyOp21
 70
     1
102
RTVSPropertyOp22
 70
     1
102
RTVSPropertyOp23
 70
     1
102
RTVSPropertyOp24
 70
     1
102
RTVSPropertyOp25
 70
     1
102
RTVSPropertyOp26
 70
     1
102
RTVSPropertyOp27
 70
     1
102
RTVSPropertyOp28
 70
     1
102
RTVSPropertyOp29
 70
     1
102
RTVSPropertyOp30
 70
     1
102
RTVSPropertyOp31
 70
     1
102
RTVSPropertyOp32
 70
     1
102
RTVSPropertyOp33
 70
     1
102
RTVSPropertyOp34
 70
     1
102
RTVSPropertyOp35
 70
     1
102
RTVSPropertyOp36
 70
     1
102
RTVSPropertyOp37
 70
     1
102
RTVSPropertyOp38
 70
     1
102
RTVSPropertyOp39
 70
     1
102
RTVSPropertyOp40
 70
     1
102
RTVSPropertyOp41
 70
     1
102
RTVSPropertyOp42
 70
     1
102
RTVSPropertyOp43
 70
     1
102
RTVSPropertyOp44
 70
     1
102
RTVSPropertyOp45
 70
     1
102
RTVSPropertyOp46
 70
     1
102
RTVSPropertyOp47
 70
     1
102
RTVSPropertyOp48
 70
     1
102
RTVSPropertyOp49
 70
     1
102
RTVSPropertyOp50
 70
     1
102
RTVSPropertyOp51
 70
     0
102
RTVSPropertyOp52
 70
     0
102
RTVSPropertyOp53
 70
     1
102
RTVSPropertyOp54
 70
     1
102
RTVSPropertyOp55
 70
     1
102
RTVSPropertyOp56
 70
     1
102
RTVSPropertyOp57
 70
     1
102
RTVSPropertyOp58
 70
     1
102
RTVSPropertyOp59
 70
     1
102
RTVSPropertyOp60
 70
     1
102
RTVSPropertyOp61
 70
     1
102
RTVSPropertyOp62
 70
     1
  0
XRECORD
  5
40B
102
{ACAD_REACTORS
330
40A
102
}
330
40A
100
AcDbXrecord
280
     1
102
RTVSPost2010Prop28
280
     0
102
RTVSPost2010PropOp28
 70
     1
102
RTVSPost2010Prop29
280
     1
102
RTVSPost2010PropOp29
 70
     1
102
RTVSPost2010Prop30
280
     1
102
RTVSPost2010PropOp30
 70
     1
102
RTVSPost2010Prop31
280
     0
102
RTVSPost2010PropOp31
 70
     1
102
RTVSPost2010Prop32
280
     0
102
RTVSPost2010PropOp32
 70
     1
102
RTVSPost2010Prop33
280
     0
102
RTVSPost2010PropOp33
 70
     1
102
RTVSPost2010Prop34
280
     0
102
RTVSPost2010PropOp34
 70
     1
102
RTVSPost2010Prop35
280
     0
102
RTVSPost2010PropOp35
 70
     1
102
RTVSPost2010Prop36
280
     0
102
RTVSPost2010PropOp36
 70
     1
102
RTVSPost2010Prop37
 90
       50
102
RTVSPost2010PropOp37
 70
     1
102
RTVSPost2010Prop38
140
0.0
102
RTVSPost2010PropOp38
 70
     1
102
RTVSPost2010Prop39
140
1.0
102
RTVSPost2010PropOp39
 70
     1
102
RTVSPost2010Prop40
 90
        0
102
RTVSPost2010PropOp40
 70
     1
102
RTVSPost2010Prop41ColorIndex
 90
       18
102
RTVSPost2010Prop41ColorRGB
 90
        0
102
RTVSPost2010PropOp41
 70
     1
102
RTVSPost2010Prop42
 90
       50
102
RTVSPost2010PropOp42
 70
     1
102
RTVSPost2010Prop43
 90
        3
102
RTVSPost2010PropOp43
 70
     1
102
RTVSPost2010Prop44ColorIndex
 90
        5
102
RTVSPost2010Prop44ColorRGB
 90
      255
102
RTVSPost2010PropOp44
 70
     1
102
RTVSPost2010Prop45
280
     0
102
RTVSPost2010PropOp45
 70
     1
102
RTVSPost2010Prop46
 90
       50
102
RTVSPost2010PropOp46
 70
     1
102
RTVSPost2010Prop47
 90
       50
102
RTVSPost2010PropOp47
 70
     1
102
RTVSPost2010Prop48
 90
       50
102
RTVSPost2010PropOp48
 70
     1
102
RTVSPost2010Prop49
280
     0
102
RTVSPost2010PropOp49
 70
     1
102
RTVSPost2010Prop50
 90
       50
102
RTVSPost2010PropOp50
 70
     1
102
RTVSPost2010Prop51ColorIndex
 90
      256
102
RTVSPost2010Prop51ColorRGB
 90
-16777216
102
RTVSPost2010PropOp51
 70
     0
102
RTVSPost2010Prop52
140
1.0
102
RTVSPost2010PropOp52
 70
     0
102
RTVSPost2010Prop53
 90
        2
102
RTVSPost2010PropOp53
 70
     1
102
RTVSPost2010Prop54
  1
strokes_ogs.tif
102
RTVSPost2010PropOp54
 70
     1
102
RTVSPost2010Prop55
280
     0
102
RTVSPost2010PropOp55
 70
     1
102
RTVSPost2010Prop56
140
1.0
102
RTVSPost2010PropOp56
 70
     1
102
RTVSPost2010Prop57
140
1.0
102
RTVSPost2010PropOp57
 70
     1
102
RTVSPropertyOp0
 70
     1
102
RTVSPropertyOp1
 70
     1
102
RTVSPropertyOp2
 70
     1
102
RTVSPropertyOp3
 70
     1
102
RTVSPropertyOp4
 70
     1
102
RTVSPropertyOp5
 70
     1
102
RTVSPropertyOp6
 70
     1
102
RTVSPropertyOp7
 70
     1
102
RTVSPropertyOp8
 70
     1
102
RTVSPropertyOp9
 70
     1
102
RTVSPropertyOp10
 70
     1
102
RTVSPropertyOp11
 70
     1
102
RTVSPropertyOp12
 70
     1
102
RTVSPropertyOp13
 70
     1
102
RTVSPropertyOp14
 70
     1
102
RTVSPropertyOp15
 70
     1
102
RTVSPropertyOp16
 70
     1
102
RTVSPropertyOp17
 70
     1
102
RTVSPropertyOp18
 70
     1
102
RTVSPropertyOp19
 70
     1
102
RTVSPropertyOp20
 70
     1
102
RTVSPropertyOp21
 70
     1
102
RTVSPropertyOp22
 70
     1
102
RTVSPropertyOp23
 70
     1
102
RTVSPropertyOp24
 70
     1
102
RTVSPropertyOp25
 70
     1
102
RTVSPropertyOp26
 70
     1
102
RTVSPropertyOp27
 70
     1
102
RTVSPropertyOp28
 70
     1
102
RTVSPropertyOp29
 70
     1
102
RTVSPropertyOp30
 70
     1
102
RTVSPropertyOp31
 70
     1
102
RTVSPropertyOp32
 70
     1
102
RTVSPropertyOp33
 70
     1
102
RTVSPropertyOp34
 70
     1
102
RTVSPropertyOp35
 70
     1
102
RTVSPropertyOp36
 70
     1
102
RTVSPropertyOp37
 70
     1
102
RTVSPropertyOp38
 70
     1
102
RTVSPropertyOp39
 70
     1
102
RTVSPropertyOp40
 70
     1
102
RTVSPropertyOp41
 70
     1
102
RTVSPropertyOp42
 70
     1
102
RTVSPropertyOp43
 70
     1
102
RTVSPropertyOp44
 70
     1
102
RTVSPropertyOp45
 70
     1
102
RTVSPropertyOp46
 70
     1
102
RTVSPropertyOp47
 70
     1
102
RTVSPropertyOp48
 70
     1
102
RTVSPropertyOp49
 70
     1
102
RTVSPropertyOp50
 70
     1
102
RTVSPropertyOp51
 70
     0
102
RTVSPropertyOp52
 70
     0
102
RTVSPropertyOp53
 70
     1
102
RTVSPropertyOp54
 70
     1
102
RTVSPropertyOp55
 70
     1
102
RTVSPropertyOp56
 70
     1
102
RTVSPropertyOp57
 70
     1
102
RTVSPropertyOp58
 70
     1
102
RTVSPropertyOp59
 70
     1
102
RTVSPropertyOp60
 70
     1
102
RTVSPropertyOp61
 70
     1
102
RTVSPropertyOp62
 70
     1
  0
XRECORD
  5
3FF
102
{ACAD_REACTORS
330
3FE
102
}
330
3FE
100
AcDbXrecord
280
     1
102
RTVSPost2010Prop28
280
     0
102
RTVSPost2010PropOp28
 70
     1
102
RTVSPost2010Prop29
280
     1
102
RTVSPost2010PropOp29
 70
     1
102
RTVSPost2010Prop30
280
     1
102
RTVSPost2010PropOp30
 70
     1
102
RTVSPost2010Prop31
280
     0
102
RTVSPost2010PropOp31
 70
     1
102
RTVSPost2010Prop32
280
     0
102
RTVSPost2010PropOp32
 70
     1
102
RTVSPost2010Prop33
280
     0
102
RTVSPost2010PropOp33
 70
     1
102
RTVSPost2010Prop34
280
     0
102
RTVSPost2010PropOp34
 70
     1
102
RTVSPost2010Prop35
280
     0
102
RTVSPost2010PropOp35
 70
     1
102
RTVSPost2010Prop36
280
     0
102
RTVSPost2010PropOp36
 70
     1
102
RTVSPost2010Prop37
 90
       50
102
RTVSPost2010PropOp37
 70
     1
102
RTVSPost2010Prop38
140
0.0
102
RTVSPost2010PropOp38
 70
     1
102
RTVSPost2010Prop39
140
1.0
102
RTVSPost2010PropOp39
 70
     1
102
RTVSPost2010Prop40
 90
        0
102
RTVSPost2010PropOp40
 70
     1
102
RTVSPost2010Prop41ColorIndex
 90
       18
102
RTVSPost2010Prop41ColorRGB
 90
        0
102
RTVSPost2010PropOp41
 70
     1
102
RTVSPost2010Prop42
 90
       50
102
RTVSPost2010PropOp42
 70
     1
102
RTVSPost2010Prop43
 90
        3
102
RTVSPost2010PropOp43
 70
     1
102
RTVSPost2010Prop44ColorIndex
 90
        5
102
RTVSPost2010Prop44ColorRGB
 90
      255
102
RTVSPost2010PropOp44
 70
     1
102
RTVSPost2010Prop45
280
     0
102
RTVSPost2010PropOp45
 70
     1
102
RTVSPost2010Prop46
 90
       50
102
RTVSPost2010PropOp46
 70
     1
102
RTVSPost2010Prop47
 90
       50
102
RTVSPost2010PropOp47
 70
     1
102
RTVSPost2010Prop48
 90
       50
102
RTVSPost2010PropOp48
 70
     1
102
RTVSPost2010Prop49
280
     0
102
RTVSPost2010PropOp49
 70
     1
102
RTVSPost2010Prop50
 90
       50
102
RTVSPost2010PropOp50
 70
     1
102
RTVSPost2010Prop51ColorIndex
 90
      256
102
RTVSPost2010Prop51ColorRGB
 90
-16777216
102
RTVSPost2010PropOp51
 70
     0
102
RTVSPost2010Prop52
140
1.0
102
RTVSPost2010PropOp52
 70
     0
102
RTVSPost2010Prop53
 90
        2
102
RTVSPost2010PropOp53
 70
     1
102
RTVSPost2010Prop54
  1
strokes_ogs.tif
102
RTVSPost2010PropOp54
 70
     1
102
RTVSPost2010Prop55
280
     0
102
RTVSPost2010PropOp55
 70
     1
102
RTVSPost2010Prop56
140
1.0
102
RTVSPost2010PropOp56
 70
     1
102
RTVSPost2010Prop57
140
1.0
102
RTVSPost2010PropOp57
 70
     1
102
RTVSPropertyOp0
 70
     1
102
RTVSPropertyOp1
 70
     1
102
RTVSPropertyOp2
 70
     1
102
RTVSPropertyOp3
 70
     1
102
RTVSPropertyOp4
 70
     1
102
RTVSPropertyOp5
 70
     1
102
RTVSPropertyOp6
 70
     1
102
RTVSPropertyOp7
 70
     1
102
RTVSPropertyOp8
 70
     1
102
RTVSPropertyOp9
 70
     1
102
RTVSPropertyOp10
 70
     1
102
RTVSPropertyOp11
 70
     1
102
RTVSPropertyOp12
 70
     1
102
RTVSPropertyOp13
 70
     1
102
RTVSPropertyOp14
 70
     1
102
RTVSPropertyOp15
 70
     1
102
RTVSPropertyOp16
 70
     1
102
RTVSPropertyOp17
 70
     1
102
RTVSPropertyOp18
 70
     1
102
RTVSPropertyOp19
 70
     1
102
RTVSPropertyOp20
 70
     1
102
RTVSPropertyOp21
 70
     1
102
RTVSPropertyOp22
 70
     1
102
RTVSPropertyOp23
 70
     1
102
RTVSPropertyOp24
 70
     1
102
RTVSPropertyOp25
 70
     1
102
RTVSPropertyOp26
 70
     1
102
RTVSPropertyOp27
 70
     1
102
RTVSPropertyOp28
 70
     1
102
RTVSPropertyOp29
 70
     1
102
RTVSPropertyOp30
 70
     1
102
RTVSPropertyOp31
 70
     1
102
RTVSPropertyOp32
 70
     1
102
RTVSPropertyOp33
 70
     1
102
RTVSPropertyOp34
 70
     1
102
RTVSPropertyOp35
 70
     1
102
RTVSPropertyOp36
 70
     1
102
RTVSPropertyOp37
 70
     1
102
RTVSPropertyOp38
 70
     1
102
RTVSPropertyOp39
 70
     1
102
RTVSPropertyOp40
 70
     1
102
RTVSPropertyOp41
 70
     1
102
RTVSPropertyOp42
 70
     1
102
RTVSPropertyOp43
 70
     1
102
RTVSPropertyOp44
 70
     1
102
RTVSPropertyOp45
 70
     1
102
RTVSPropertyOp46
 70
     1
102
RTVSPropertyOp47
 70
     1
102
RTVSPropertyOp48
 70
     1
102
RTVSPropertyOp49
 70
     1
102
RTVSPropertyOp50
 70
     1
102
RTVSPropertyOp51
 70
     0
102
RTVSPropertyOp52
 70
     0
102
RTVSPropertyOp53
 70
     1
102
RTVSPropertyOp54
 70
     1
102
RTVSPropertyOp55
 70
     1
102
RTVSPropertyOp56
 70
     1
102
RTVSPropertyOp57
 70
     1
102
RTVSPropertyOp58
 70
     1
102
RTVSPropertyOp59
 70
     1
102
RTVSPropertyOp60
 70
     1
102
RTVSPropertyOp61
 70
     1
102
RTVSPropertyOp62
 70
     1
  0
XRECORD
  5
417
102
{ACAD_REACTORS
330
416
102
}
330
416
100
AcDbXrecord
280
     1
102
RTVSPost2010Prop28
280
     0
102
RTVSPost2010PropOp28
 70
     1
102
RTVSPost2010Prop29
280
     1
102
RTVSPost2010PropOp29
 70
     1
102
RTVSPost2010Prop30
280
     1
102
RTVSPost2010PropOp30
 70
     1
102
RTVSPost2010Prop31
280
     0
102
RTVSPost2010PropOp31
 70
     1
102
RTVSPost2010Prop32
280
     0
102
RTVSPost2010PropOp32
 70
     1
102
RTVSPost2010Prop33
280
     0
102
RTVSPost2010PropOp33
 70
     1
102
RTVSPost2010Prop34
280
     0
102
RTVSPost2010PropOp34
 70
     1
102
RTVSPost2010Prop35
280
     0
102
RTVSPost2010PropOp35
 70
     1
102
RTVSPost2010Prop36
280
     0
102
RTVSPost2010PropOp36
 70
     1
102
RTVSPost2010Prop37
 90
       50
102
RTVSPost2010PropOp37
 70
     1
102
RTVSPost2010Prop38
140
0.0
102
RTVSPost2010PropOp38
 70
     1
102
RTVSPost2010Prop39
140
1.0
102
RTVSPost2010PropOp39
 70
     1
102
RTVSPost2010Prop40
 90
        0
102
RTVSPost2010PropOp40
 70
     1
102
RTVSPost2010Prop41ColorIndex
 90
       18
102
RTVSPost2010Prop41ColorRGB
 90
        0
102
RTVSPost2010PropOp41
 70
     1
102
RTVSPost2010Prop42
 90
       50
102
RTVSPost2010PropOp42
 70
     1
102
RTVSPost2010Prop43
 90
        3
102
RTVSPost2010PropOp43
 70
     1
102
RTVSPost2010Prop44ColorIndex
 90
        5
102
RTVSPost2010Prop44ColorRGB
 90
      255
102
RTVSPost2010PropOp44
 70
     1
102
RTVSPost2010Prop45
280
     0
102
RTVSPost2010PropOp45
 70
     1
102
RTVSPost2010Prop46
 90
       50
102
RTVSPost2010PropOp46
 70
     1
102
RTVSPost2010Prop47
 90
       50
102
RTVSPost2010PropOp47
 70
     1
102
RTVSPost2010Prop48
 90
       50
102
RTVSPost2010PropOp48
 70
     1
102
RTVSPost2010Prop49
280
     0
102
RTVSPost2010PropOp49
 70
     1
102
RTVSPost2010Prop50
 90
       50
102
RTVSPost2010PropOp50
 70
     1
102
RTVSPost2010Prop51ColorIndex
 90
      256
102
RTVSPost2010Prop51ColorRGB
 90
-16777216
102
RTVSPost2010PropOp51
 70
     0
102
RTVSPost2010Prop52
140
1.0
102
RTVSPost2010PropOp52
 70
     0
102
RTVSPost2010Prop53
 90
        2
102
RTVSPost2010PropOp53
 70
     1
102
RTVSPost2010Prop54
  1
strokes_ogs.tif
102
RTVSPost2010PropOp54
 70
     1
102
RTVSPost2010Prop55
280
     0
102
RTVSPost2010PropOp55
 70
     1
102
RTVSPost2010Prop56
140
1.0
102
RTVSPost2010PropOp56
 70
     1
102
RTVSPost2010Prop57
140
1.0
102
RTVSPost2010PropOp57
 70
     1
102
RTVSPropertyOp0
 70
     1
102
RTVSPropertyOp1
 70
     1
102
RTVSPropertyOp2
 70
     1
102
RTVSPropertyOp3
 70
     1
102
RTVSPropertyOp4
 70
     1
102
RTVSPropertyOp5
 70
     1
102
RTVSPropertyOp6
 70
     1
102
RTVSPropertyOp7
 70
     1
102
RTVSPropertyOp8
 70
     1
102
RTVSPropertyOp9
 70
     1
102
RTVSPropertyOp10
 70
     1
102
RTVSPropertyOp11
 70
     1
102
RTVSPropertyOp12
 70
     1
102
RTVSPropertyOp13
 70
     1
102
RTVSPropertyOp14
 70
     1
102
RTVSPropertyOp15
 70
     1
102
RTVSPropertyOp16
 70
     1
102
RTVSPropertyOp17
 70
     1
102
RTVSPropertyOp18
 70
     1
102
RTVSPropertyOp19
 70
     1
102
RTVSPropertyOp20
 70
     1
102
RTVSPropertyOp21
 70
     1
102
RTVSPropertyOp22
 70
     1
102
RTVSPropertyOp23
 70
     1
102
RTVSPropertyOp24
 70
     1
102
RTVSPropertyOp25
 70
     1
102
RTVSPropertyOp26
 70
     1
102
RTVSPropertyOp27
 70
     1
102
RTVSPropertyOp28
 70
     1
102
RTVSPropertyOp29
 70
     1
102
RTVSPropertyOp30
 70
     1
102
RTVSPropertyOp31
 70
     1
102
RTVSPropertyOp32
 70
     1
102
RTVSPropertyOp33
 70
     1
102
RTVSPropertyOp34
 70
     1
102
RTVSPropertyOp35
 70
     1
102
RTVSPropertyOp36
 70
     1
102
RTVSPropertyOp37
 70
     1
102
RTVSPropertyOp38
 70
     1
102
RTVSPropertyOp39
 70
     1
102
RTVSPropertyOp40
 70
     1
102
RTVSPropertyOp41
 70
     1
102
RTVSPropertyOp42
 70
     1
102
RTVSPropertyOp43
 70
     1
102
RTVSPropertyOp44
 70
     1
102
RTVSPropertyOp45
 70
     1
102
RTVSPropertyOp46
 70
     1
102
RTVSPropertyOp47
 70
     1
102
RTVSPropertyOp48
 70
     1
102
RTVSPropertyOp49
 70
     1
102
RTVSPropertyOp50
 70
     1
102
RTVSPropertyOp51
 70
     0
102
RTVSPropertyOp52
 70
     0
102
RTVSPropertyOp53
 70
     1
102
RTVSPropertyOp54
 70
     1
102
RTVSPropertyOp55
 70
     1
102
RTVSPropertyOp56
 70
     1
102
RTVSPropertyOp57
 70
     1
102
RTVSPropertyOp58
 70
     1
102
RTVSPropertyOp59
 70
     1
102
RTVSPropertyOp60
 70
     1
102
RTVSPropertyOp61
 70
     1
102
RTVSPropertyOp62
 70
     1
  0
ENDSEC
  0
EOF
