  0
SECTION
  2
HEADER
  9
$ACADVER
  1
AC1015
  9
$ACADMAINTVER
 70
    20
  9
$DWGCODEPAGE
  3
ANSI_932
  9
$INSBASE
 10
0.0
 20
0.0
 30
0.0
  9
$EXTMIN
 10
-720.0439419596095
 20
-1076.252604116176
 30
-0.0015258207003583
  9
$EXTMAX
 10
720.0439486651321
 20
1064.7879110558
 30
0.0000000349246037
  9
$LIMMIN
 10
0.0
 20
0.0
  9
$LIMMAX
 10
0.0
 20
0.0
  9
$ORTHOMODE
 70
     0
  9
$REGENMODE
 70
     1
  9
$FILLMODE
 70
     1
  9
$QTEXTMODE
 70
     0
  9
$MIRRTEXT
 70
     1
  9
$LTSCALE
 40
40.64
  9
$ATTMODE
 70
     1
  9
$TEXTSIZE
 40
0.0
  9
$TRACEWID
 40
1.0
  9
$TEXTSTYLE
  7
STANDARD
  9
$CLAYER
  8
DATA
  9
$CELTYPE
  6
ByLayer
  9
$CECOLOR
 62
   256
  9
$CELTSCALE
 40
1.0
  9
$DISPSILH
 70
     0
  9
$DIMSCALE
 40
1.0
  9
$DIMASZ
 40
0.18
  9
$DIMEXO
 40
0.0625
  9
$DIMDLI
 40
0.38
  9
$DIMRND
 40
0.0
  9
$DIMDLE
 40
0.0
  9
$DIMEXE
 40
0.18
  9
$DIMTP
 40
0.0
  9
$DIMTM
 40
0.0
  9
$DIMTXT
 40
0.18
  9
$DIMCEN
 40
0.09
  9
$DIMTSZ
 40
0.0
  9
$DIMTOL
 70
     0
  9
$DIMLIM
 70
     0
  9
$DIMTIH
 70
     1
  9
$DIMTOH
 70
     1
  9
$DIMSE1
 70
     0
  9
$DIMSE2
 70
     0
  9
$DIMTAD
 70
     0
  9
$DIMZIN
 70
     0
  9
$DIMBLK
  1

  9
$DIMASO
 70
     1
  9
$DIMSHO
 70
     1
  9
$DIMPOST
  1

  9
$DIMAPOST
  1

  9
$DIMALT
 70
     0
  9
$DIMALTD
 70
     2
  9
$DIMALTF
 40
25.4
  9
$DIMLFAC
 40
1.0
  9
$DIMTOFL
 70
     0
  9
$DIMTVP
 40
0.0
  9
$DIMTIX
 70
     0
  9
$DIMSOXD
 70
     0
  9
$DIMSAH
 70
     0
  9
$DIMBLK1
  1

  9
$DIMBLK2
  1

  9
$DIMSTYLE
  2
STANDARD
  9
$DIMCLRD
 70
     0
  9
$DIMCLRE
 70
     0
  9
$DIMCLRT
 70
     0
  9
$DIMTFAC
 40
1.0
  9
$DIMGAP
 40
0.09
  9
$DIMJUST
 70
     0
  9
$DIMSD1
 70
     0
  9
$DIMSD2
 70
     0
  9
$DIMTOLJ
 70
     1
  9
$DIMTZIN
 70
     0
  9
$DIMALTZ
 70
     0
  9
$DIMALTTZ
 70
     0
  9
$DIMUPT
 70
     0
  9
$DIMDEC
 70
     4
  9
$DIMTDEC
 70
     4
  9
$DIMALTU
 70
     2
  9
$DIMALTTD
 70
     2
  9
$DIMTXSTY
  7
STANDARD
  9
$DIMAUNIT
 70
     0
  9
$DIMADEC
 70
     0
  9
$DIMALTRND
 40
0.0
  9
$DIMAZIN
 70
     0
  9
$DIMDSEP
 70
    46
  9
$DIMATFIT
 70
     3
  9
$DIMFRAC
 70
     0
  9
$DIMLDRBLK
  1

  9
$DIMLUNIT
 70
     2
  9
$DIMLWD
 70
    -2
  9
$DIMLWE
 70
    -2
  9
$DIMTMOVE
 70
     0
  9
$LUNITS
 70
     2
  9
$LUPREC
 70
     2
  9
$SKETCHINC
 40
0.1
  9
$FILLETRAD
 40
0.0
  9
$AUNITS
 70
     0
  9
$AUPREC
 70
     0
  9
$MENU
  1
acad
  9
$ELEVATION
 40
0.0
  9
$PELEVATION
 40
0.0
  9
$THICKNESS
 40
0.0
  9
$LIMCHECK
 70
     0
  9
$CHAMFERA
 40
0.0
  9
$CHAMFERB
 40
0.0
  9
$CHAMFERC
 40
0.0
  9
$CHAMFERD
 40
0.0
  9
$SKPOLY
 70
     0
  9
$TDCREATE
 40
2458863.692222223
  9
$TDUCREATE
 40
2458863.317222222
  9
$TDUPDATE
 40
2458863.693182871
  9
$TDUUPDATE
 40
2458863.318182870
  9
$TDINDWG
 40
0.0007291667
  9
$TDUSRTIMER
 40
0.0007291667
  9
$USRTIMER
 70
     1
  9
$ANGBASE
 50
0.0
  9
$ANGDIR
 70
     0
  9
$PDMODE
 70
     1
  9
$PDSIZE
 40
-2.0
  9
$PLINEWID
 40
0.0
  9
$SPLFRAME
 70
     0
  9
$SPLINETYPE
 70
     6
  9
$SPLINESEGS
 70
     8
  9
$HANDSEED
  5
464
  9
$SURFTAB1
 70
     6
  9
$SURFTAB2
 70
     6
  9
$SURFTYPE
 70
     6
  9
$SURFU
 70
     6
  9
$SURFV
 70
     6
  9
$UCSBASE
  2

  9
$UCSNAME
  2

  9
$UCSORG
 10
0.0
 20
0.0
 30
0.0
  9
$UCSXDIR
 10
1.0
 20
0.0
 30
0.0
  9
$UCSYDIR
 10
0.0
 20
1.0
 30
0.0
  9
$UCSORTHOREF
  2

  9
$UCSORTHOVIEW
 70
     0
  9
$UCSORGTOP
 10
0.0
 20
0.0
 30
0.0
  9
$UCSORGBOTTOM
 10
0.0
 20
0.0
 30
0.0
  9
$UCSORGLEFT
 10
0.0
 20
0.0
 30
0.0
  9
$UCSORGRIGHT
 10
0.0
 20
0.0
 30
0.0
  9
$UCSORGFRONT
 10
0.0
 20
0.0
 30
0.0
  9
$UCSORGBACK
 10
0.0
 20
0.0
 30
0.0
  9
$PUCSBASE
  2

  9
$PUCSNAME
  2

  9
$PUCSORG
 10
0.0
 20
0.0
 30
0.0
  9
$PUCSXDIR
 10
1.0
 20
0.0
 30
0.0
  9
$PUCSYDIR
 10
0.0
 20
1.0
 30
0.0
  9
$PUCSORTHOREF
  2

  9
$PUCSORTHOVIEW
 70
     0
  9
$PUCSORGTOP
 10
0.0
 20
0.0
 30
0.0
  9
$PUCSORGBOTTOM
 10
0.0
 20
0.0
 30
0.0
  9
$PUCSORGLEFT
 10
0.0
 20
0.0
 30
0.0
  9
$PUCSORGRIGHT
 10
0.0
 20
0.0
 30
0.0
  9
$PUCSORGFRONT
 10
0.0
 20
0.0
 30
0.0
  9
$PUCSORGBACK
 10
0.0
 20
0.0
 30
0.0
  9
$USERI1
 70
     0
  9
$USERI2
 70
     0
  9
$USERI3
 70
     0
  9
$USERI4
 70
     0
  9
$USERI5
 70
     0
  9
$USERR1
 40
0.0
  9
$USERR2
 40
0.0
  9
$USERR3
 40
0.0
  9
$USERR4
 40
0.0
  9
$USERR5
 40
0.0
  9
$WORLDVIEW
 70
     1
  9
$SHADEDGE
 70
     3
  9
$SHADEDIF
 70
    70
  9
$TILEMODE
 70
     1
  9
$MAXACTVP
 70
    64
  9
$PINSBASE
 10
0.0
 20
0.0
 30
0.0
  9
$PLIMCHECK
 70
     0
  9
$PEXTMIN
 10
1.000000000000000E+20
 20
1.000000000000000E+20
 30
1.000000000000000E+20
  9
$PEXTMAX
 10
-1.000000000000000E+20
 20
-1.000000000000000E+20
 30
-1.000000000000000E+20
  9
$PLIMMIN
 10
0.0
 20
0.0
  9
$PLIMMAX
 10
12.0
 20
9.0
  9
$UNITMODE
 70
     0
  9
$VISRETAIN
 70
     0
  9
$PLINEGEN
 70
     1
  9
$PSLTSCALE
 70
     0
  9
$TREEDEPTH
 70
  3020
  9
$CMLSTYLE
  2
Standard
  9
$CMLJUST
 70
     0
  9
$CMLSCALE
 40
1.0
  9
$PROXYGRAPHICS
 70
     1
  9
$MEASUREMENT
 70
     0
  9
$CELWEIGHT
370
    -1
  9
$ENDCAPS
280
     0
  9
$JOINSTYLE
280
     0
  9
$LWDISPLAY
290
     0
  9
$INSUNITS
 70
     4
  9
$HYPERLINKBASE
  1

  9
$STYLESHEET
  1

  9
$XEDIT
290
     1
  9
$CEPSNTYPE
380
     0
  9
$PSTYLEMODE
290
     1
  9
$FINGERPRINTGUID
  2
{E2C8AA2B-FA3A-E14A-BBA3-B426BD4BC308}
  9
$VERSIONGUID
  2
{E352F212-8ACC-694F-82F2-36DDAC71D608}
  9
$EXTNAMES
290
     1
  9
$PSVPSCALE
 40
0.0
  9
$OLESTARTUP
290
     0
  0
ENDSEC
  0
SECTION
  2
CLASSES
  0
CLASS
  1
ACDBDICTIONARYWDFLT
  2
AcDbDictionaryWithDefault
  3
ObjectDBX Classes
 90
        0
280
     0
281
     0
  0
CLASS
  1
MATERIAL
  2
AcDbMaterial
  3
ObjectDBX Classes
 90
     1153
280
     0
281
     0
  0
CLASS
  1
VISUALSTYLE
  2
AcDbVisualStyle
  3
ObjectDBX Classes
 90
     4095
280
     0
281
     0
  0
CLASS
  1
SCALE
  2
AcDbScale
  3
ObjectDBX Classes
 90
     1153
280
     0
281
     0
  0
CLASS
  1
TABLESTYLE
  2
AcDbTableStyle
  3
ObjectDBX Classes
 90
     4095
280
     0
281
     0
  0
CLASS
  1
MLEADERSTYLE
  2
AcDbMLeaderStyle
  3
ACDB_MLEADERSTYLE_CLASS
 90
     4095
280
     0
281
     0
  0
CLASS
  1
ACDBSECTIONVIEWSTYLE
  2
AcDbSectionViewStyle
  3
ObjectDBX Classes
 90
     1025
280
     0
281
     0
  0
CLASS
  1
ACDBDETAILVIEWSTYLE
  2
AcDbDetailViewStyle
  3
ObjectDBX Classes
 90
     1025
280
     0
281
     0
  0
CLASS
  1
DICTIONARYVAR
  2
AcDbDictionaryVar
  3
ObjectDBX Classes
 90
        0
280
     0
281
     0
  0
CLASS
  1
CELLSTYLEMAP
  2
AcDbCellStyleMap
  3
ObjectDBX Classes
 90
     1152
280
     0
281
     0
  0
CLASS
  1
ACDBPLACEHOLDER
  2
AcDbPlaceHolder
  3
ObjectDBX Classes
 90
        0
280
     0
281
     0
  0
CLASS
  1
LAYOUT
  2
AcDbLayout
  3
ObjectDBX Classes
 90
        0
280
     0
281
     0
  0
ENDSEC
  0
SECTION
  2
TABLES
  0
TABLE
  2
VPORT
  5
38A
330
0
100
AcDbSymbolTable
 70
     1
  0
VPORT
  5
3F6
330
38A
100
AcDbSymbolTableRecord
100
AcDbViewportTableRecord
  2
*ACTIVE
 70
     0
 10
0.0
 20
0.0
 11
1.0
 21
1.0
 12
0.000003352761496
 22
-5.732346530187896
 13
0.0
 23
0.0
 14
1.0
 24
1.0
 15
0.0
 25
0.0
 16
0.0
 26
0.0
 36
1.0
 17
0.0
 27
0.0
 37
0.0
 40
2150.138421043813
 41
2.253720765414599
 42
50.0
 43
0.0
 44
0.0
 50
0.0
 51
0.0
 71
     0
 72
  2000
 73
     1
 74
     1
 75
     0
 76
     0
 77
     0
 78
     0
281
     0
 65
     1
110
0.0
120
0.0
130
0.0
111
1.0
121
0.0
131
0.0
112
0.0
122
1.0
132
0.0
 79
     0
146
0.0
1001
ACAD_NAV_VCDISPLAY
1070
     3
  0
ENDTAB
  0
TABLE
  2
LTYPE
  5
387
330
0
100
AcDbSymbolTable
 70
    12
  0
LTYPE
  5
3DC
330
387
100
AcDbSymbolTableRecord
100
AcDbLinetypeTableRecord
  2
ByBlock
 70
     0
  3

 72
    65
 73
     0
 40
0.0
  0
LTYPE
  5
3DD
330
387
100
AcDbSymbolTableRecord
100
AcDbLinetypeTableRecord
  2
ByLayer
 70
     0
  3

 72
    65
 73
     0
 40
0.0
  0
LTYPE
  5
3DE
330
387
100
AcDbSymbolTableRecord
100
AcDbLinetypeTableRecord
  2
CONTINUOUS
 70
     0
  3
Solid line
 72
    65
 73
     0
 40
0.0
  0
LTYPE
  5
3F7
330
387
100
AcDbSymbolTableRecord
100
AcDbLinetypeTableRecord
  2
STYLE_01
 70
     0
  3

 72
    65
 73
     2
 40
0.4166412353515625
 49
0.208282470703125
 74
     0
 49
-0.2083587646484375
 74
     0
  0
ENDTAB
  0
TABLE
  2
LAYER
  5
384
330
0
100
AcDbSymbolTable
 70
     6
  0
LAYER
  5
3D6
102
{ACAD_XDICTIONARY
360
40C
102
}
330
384
100
AcDbSymbolTableRecord
100
AcDbLayerTableRecord
  2
0
 70
     0
 62
     7
  6
CONTINUOUS
370
    -3
390
391
  0
LAYER
  5
3F5
102
{ACAD_XDICTIONARY
360
40E
102
}
330
384
100
AcDbSymbolTableRecord
100
AcDbLayerTableRecord
  2
DATA
 70
     0
 62
     7
  6
CONTINUOUS
370
    -3
390
391
  0
LAYER
  5
402
102
{ACAD_XDICTIONARY
360
410
102
}
330
384
100
AcDbSymbolTableRecord
100
AcDbLayerTableRecord
  2
HIBINO-BASE
 70
     0
 62
     7
  6
CONTINUOUS
370
    -3
390
391
  0
LAYER
  5
403
102
{ACAD_XDICTIONARY
360
412
102
}
330
384
100
AcDbSymbolTableRecord
100
AcDbLayerTableRecord
  2
PATTERN_FILL
 70
     0
 62
     7
  6
CONTINUOUS
370
    -3
390
391
  0
LAYER
  5
404
102
{ACAD_XDICTIONARY
360
414
102
}
330
384
100
AcDbSymbolTableRecord
100
AcDbLayerTableRecord
  2
SPEC
 70
     0
 62
     7
  6
CONTINUOUS
370
    -3
390
391
  0
LAYER
  5
405
102
{ACAD_XDICTIONARY
360
416
102
}
330
384
100
AcDbSymbolTableRecord
100
AcDbLayerTableRecord
  2
DIMNSIONS
 70
     0
 62
     7
  6
CONTINUOUS
370
    -3
390
391
  0
ENDTAB
  0
TABLE
  2
STYLE
  5
385
330
0
100
AcDbSymbolTable
 70
     3
  0
STYLE
  5
3D7
330
385
100
AcDbSymbolTableRecord
100
AcDbTextStyleTableRecord
  2
STANDARD
 70
     0
 40
0.0
 41
1.0
 50
0.0
 71
     0
 42
0.0
  3
txt
  4
BIGFONT.SHX
  0
ENDTAB
  0
TABLE
  2
VIEW
  5
388
330
0
100
AcDbSymbolTable
 70
     0
  0
ENDTAB
  0
TABLE
  2
UCS
  5
389
330
0
100
AcDbSymbolTable
 70
     0
  0
ENDTAB
  0
TABLE
  2
APPID
  5
38B
330
0
100
AcDbSymbolTable
 70
     4
  0
APPID
  5
3D8
330
38B
100
AcDbSymbolTableRecord
100
AcDbRegAppTableRecord
  2
ACAD
 70
     0
  0
APPID
  5
3DF
330
38B
100
AcDbSymbolTableRecord
100
AcDbRegAppTableRecord
  2
AcadAnnotative
 70
     0
  0
APPID
  5
422
330
38B
100
AcDbSymbolTableRecord
100
AcDbRegAppTableRecord
  2
ACAD_NAV_VCDISPLAY
 70
     0
  0
APPID
  5
45B
330
38B
100
AcDbSymbolTableRecord
100
AcDbRegAppTableRecord
  2
ACAD_MLEADERVER
 70
     0
  0
ENDTAB
  0
TABLE
  2
DIMSTYLE
  5
38C
330
0
100
AcDbSymbolTable
 70
     2
100
AcDbDimStyleTable
 71
     0
  0
DIMSTYLE
105
3D9
330
38C
100
AcDbSymbolTableRecord
100
AcDbDimStyleTableRecord
  2
STANDARD
 70
     0
279
     2
340
3D7
  0
ENDTAB
  0
TABLE
  2
BLOCK_RECORD
  5
383
330
0
100
AcDbSymbolTable
 70
     0
  0
BLOCK_RECORD
  5
3F1
330
383
100
AcDbSymbolTableRecord
100
AcDbBlockTableRecord
  2
*Model_Space
340
3F4
  0
BLOCK_RECORD
  5
3ED
330
383
100
AcDbSymbolTableRecord
100
AcDbBlockTableRecord
  2
*Paper_Space
340
3F0
  0
ENDTAB
  0
ENDSEC
  0
SECTION
  2
BLOCKS
  0
BLOCK
  5
3F2
330
3F1
100
AcDbEntity
  8
0
100
AcDbBlockBegin
  2
*Model_Space
 70
     0
 10
0.0
 20
0.0
 30
0.0
  3
*Model_Space
  1

  0
ENDBLK
  5
3F3
330
3F1
100
AcDbEntity
  8
0
100
AcDbBlockEnd
  0
BLOCK
  5
3EE
330
3ED
100
AcDbEntity
 67
     1
  8
0
100
AcDbBlockBegin
  2
*Paper_Space
 70
     0
 10
0.0
 20
0.0
 30
0.0
  3
*Paper_Space
  1

  0
ENDBLK
  5
3EF
330
3ED
100
AcDbEntity
 67
     1
  8
0
100
AcDbBlockEnd
  0
ENDSEC
  0
SECTION
  2
ENTITIES
  0
LINE
  5
2E
330
3F1
100
AcDbEntity
  8
HIBINO-BASE
  6
Continuous
 62
     7
100
AcDbLine
 10
-719.9999999998198
 20
1064.722704999733
 30
0.0
 11
719.9999999998198
 21
1064.722704999733
 31
0.0
  0
LINE
  5
2F
330
3F1
100
AcDbEntity
  8
HIBINO-BASE
  6
Continuous
 62
     7
100
AcDbLine
 10
719.9999999998198
 20
-1015.277294999747
 30
0.0
 11
-719.9999999998198
 21
-1015.277294999747
 31
0.0
  0
LINE
  5
30
330
3F1
100
AcDbEntity
  8
HIBINO-BASE
  6
Continuous
 62
     7
100
AcDbLine
 10
-719.9999999998198
 20
-1015.277294999747
 30
0.0
 11
-719.9999999998198
 21
1064.722704999733
 31
0.0
  0
LINE
  5
31
330
3F1
100
AcDbEntity
  8
HIBINO-BASE
  6
Continuous
 62
     7
100
AcDbLine
 10
719.9999999998198
 20
1064.722704999733
 30
0.0
 11
719.9999999998198
 21
-1015.277294999747
 31
0.0
  0
LINE
  5
32
330
3F1
100
AcDbEntity
  8
HIBINO-BASE
  6
Continuous
 62
     7
100
AcDbLine
 10
0.0000000000001137
 20
-835.2772949997918
 30
0.0
 11
719.9999999998198
 21
-835.2772949997918
 31
0.0
  0
LINE
  5
33
330
3F1
100
AcDbEntity
  8
HIBINO-BASE
  6
Continuous
 62
     7
100
AcDbLine
 10
0.0000000000001137
 20
-1015.277294999747
 30
0.0
 11
0.0000000000001137
 21
-835.2772949997918
 31
0.0
  0
TEXT
  5
34
330
3F1
100
AcDbEntity
  8
HIBINO-BASE
 62
     7
100
AcDbText
 10
7.199999999998357
 20
-855.3468416664532
 30
0.0
 40
13.0307291666634
  1
NOTE
 41
0.7
 11
7.199999999998358
 21
-842.31611249979
 31
0.0
100
AcDbText
 73
     3
  0
LINE
  5
35
330
3F1
100
AcDbEntity
  8
HIBINO-BASE
  6
Continuous
 62
     7
100
AcDbLine
 10
279.9999999999301
 20
-1015.277294999747
 30
0.0
 11
279.9999999999301
 21
-835.2772949997918
 31
0.0
  0
TEXT
  5
36
330
3F1
100
AcDbEntity
  8
HIBINO-BASE
 62
     7
100
AcDbText
 10
287.1999999999281
 20
-855.3468416664532
 30
0.0
 40
13.0307291666634
  1
TITLE
 41
0.7
 11
287.1999999999281
 21
-842.31611249979
 31
0.0
100
AcDbText
 73
     3
  0
LINE
  5
37
330
3F1
100
AcDbEntity
  8
HIBINO-BASE
  6
Continuous
 62
     7
100
AcDbLine
 10
0.0000000000001137
 20
-935.2772949997667
 30
0.0
 11
719.9999999998198
 21
-935.2772949997667
 31
0.0
  0
TEXT
  5
38
330
3F1
100
AcDbEntity
  8
HIBINO-BASE
 62
     7
100
AcDbText
 10
387.1999999999031
 20
-954.8962816664285
 30
0.0
 40
13.0307291666634
  1
DRAWN
 41
0.7
 11
387.1999999999031
 21
-941.8655524997653
 31
0.0
100
AcDbText
 73
     3
  0
TEXT
  5
39
330
3F1
100
AcDbEntity
  8
HIBINO-BASE
 62
     7
100
AcDbText
 10
187.1999999999531
 20
-954.8962816664285
 30
0.0
 40
13.0307291666634
  1
DATE
 41
0.7
 11
187.1999999999531
 21
-941.8655524997653
 31
0.0
100
AcDbText
 73
     3
  0
TEXT
  5
3A
330
3F1
100
AcDbEntity
  8
HIBINO-BASE
 62
     7
100
AcDbText
 10
107.1999999999731
 20
-954.8962816664285
 30
0.0
 40
13.0307291666634
  1
SCALE
 41
0.7
 11
107.1999999999731
 21
-941.8655524997653
 31
0.0
100
AcDbText
 73
     3
  0
TEXT
  5
3B
330
3F1
100
AcDbEntity
  8
HIBINO-BASE
 62
     7
100
AcDbText
 10
287.1999999999281
 20
-954.8962816664285
 30
0.0
 40
13.0307291666634
  1
DESIGN
 41
0.7
 11
287.1999999999281
 21
-941.8655524997653
 31
0.0
100
AcDbText
 73
     3
  0
TEXT
  5
3C
330
3F1
100
AcDbEntity
  8
HIBINO-BASE
 62
     7
100
AcDbText
 10
587.1999999998529
 20
-954.8962816664285
 30
0.0
 40
13.0307291666634
  1
DRAWING NO.
 41
0.7
 11
587.1999999998529
 21
-941.8655524997653
 31
0.0
100
AcDbText
 73
     3
  0
TEXT
  5
3D
330
3F1
100
AcDbEntity
  8
HIBINO-BASE
 62
     7
100
AcDbText
 10
487.199999999878
 20
-954.8962816664285
 30
0.0
 40
13.0307291666634
  1
CHECK
 41
0.7
 11
487.199999999878
 21
-941.8655524997653
 31
0.0
100
AcDbText
 73
     3
  0
LINE
  5
3E
330
3F1
100
AcDbEntity
  8
HIBINO-BASE
  6
Continuous
 62
     7
100
AcDbLine
 10
114.9999999999713
 20
-1005.277294999749
 30
0.0
 11
144.9999999999638
 21
-975.2772949997568
 31
0.0
  0
TEXT
  5
3F
330
3F1
100
AcDbEntity
  8
HIBINO-BASE
 62
     7
100
AcDbText
 10
109.9999999999726
 20
-984.148841666421
 30
0.0
 40
13.0307291666634
  1
1
 41
0.7
 11
109.9999999999726
 21
-971.1181124997576
 31
0.0
100
AcDbText
 73
     3
  0
LINE
  5
40
330
3F1
100
AcDbEntity
  8
HIBINO-BASE
  6
Continuous
 62
     7
100
AcDbLine
 10
99.99999999997513
 20
-1015.277294999747
 30
0.0
 11
99.99999999997513
 21
-935.2772949997667
 31
0.0
  0
LINE
  5
41
330
3F1
100
AcDbEntity
  8
HIBINO-BASE
  6
Continuous
 62
     7
100
AcDbLine
 10
179.9999999999548
 20
-1015.277294999747
 30
0.0
 11
179.9999999999548
 21
-935.2772949997667
 31
0.0
  0
LINE
  5
42
330
3F1
100
AcDbEntity
  8
HIBINO-BASE
  6
Continuous
 62
     7
100
AcDbLine
 10
379.9999999999049
 20
-935.2772949997667
 30
0.0
 11
379.9999999999049
 21
-1015.277294999747
 31
0.0
  0
LINE
  5
43
330
3F1
100
AcDbEntity
  8
HIBINO-BASE
  6
Continuous
 62
     7
100
AcDbLine
 10
579.9999999998552
 20
-935.2772949997667
 30
0.0
 11
579.9999999998552
 21
-1015.277294999747
 31
0.0
  0
LINE
  5
44
330
3F1
100
AcDbEntity
  8
HIBINO-BASE
  6
Continuous
 62
     7
100
AcDbLine
 10
479.9999999998799
 20
-1015.277294999747
 30
0.0
 11
479.9999999998799
 21
-935.2772949997667
 31
0.0
  0
TEXT
  5
45
330
3F1
100
AcDbEntity
  8
HIBINO-BASE
 62
     7
100
AcDbText
 10
186.8523199999533
 20
-992.3681216664189
 30
0.0
 40
13.0307291666634
  1
'20.01.
 41
0.7
 11
186.8523199999533
 21
-979.3373924997554
 31
0.0
100
AcDbText
 73
     3
  0
TEXT
  5
46
330
3F1
100
AcDbEntity
  8
HIBINO-BASE
 62
     7
100
AcDbText
 10
139.9999999999651
 20
-999.1488416664173
 30
0.0
 40
13.0307291666634
  1
8
 41
0.7
 11
139.9999999999651
 21
-986.1181124997539
 31
0.0
100
AcDbText
 73
     3
  0
TEXT
  5
47
330
3F1
100
AcDbEntity
  8
HIBINO-BASE
 62
     7
100
AcDbText
 10
392.046480088179
 20
-992.3681216664189
 30
0.0
 40
13.0307291666634
  1
N.Sasaki
 41
0.7
 11
392.046480088179
 21
-979.3373924997554
 31
0.0
100
AcDbText
 73
     3
  0
TEXT
  5
48
330
3F1
100
AcDbEntity
  8
HIBINO-BASE
 62
     7
100
AcDbText
 10
31.06666666665918
 20
-999.4692949997505
 30
0.0
 40
26.06145833332681
  1
A4
 41
0.7
 11
31.06666666665918
 21
-973.4078366664238
 31
0.0
100
AcDbText
 73
     3
  0
TEXT
  5
49
330
3F1
100
AcDbEntity
  8
HIBINO-BASE
 62
     7
100
AcDbText
 10
7.666666666664711
 20
-956.2329349997616
 30
0.0
 40
13.0307291666634
  1
PAPER SIZE
 41
0.7
 11
7.666666666664712
 21
-943.2022058330984
 31
0.0
100
AcDbText
 73
     3
  0
TEXT
  5
4A
330
3F1
100
AcDbEntity
  8
HIBINO-BASE
 62
     7
100
AcDbText
 10
-662.5279999998341
 20
-1066.546717399734
 30
0.0
 40
28.8003534374928
  1
Hibino Corporation
 41
0.7
 11
-662.5279999998341
 21
-1037.746363962241
 31
0.0
100
AcDbText
 73
     3
  0
TEXT
  5
4B
330
3F1
100
AcDbEntity
  8
HIBINO-BASE
 62
     7
100
AcDbText
 10
400.5471199998999
 20
-1066.546717399734
 30
0.0
 40
28.8003534374928
  1
ヒビノ株式会社
 41
0.7
 11
400.5471199998999
 21
-1037.746363962241
 31
0.0
100
AcDbText
 73
     3
  0
ARC
  5
4C
330
3F1
100
AcDbEntity
  8
PATTERN_FILL
  6
Continuous
 62
     7
100
AcDbCircle
 10
326.0
 20
-348.5576923076923
 30
0.0
 40
47.55769230769227
100
AcDbArc
 50
59.69186389937477
 51
88.7566909717937
  0
ARC
  5
4D
330
3F1
100
AcDbEntity
  8
PATTERN_FILL
  6
Continuous
 62
     7
100
AcDbCircle
 10
326.0
 20
-348.5576923076923
 30
0.0
 40
50.56000000000001
100
AcDbArc
 50
54.29757102386314
 51
88.22636685540061
  0
ARC
  5
4E
330
3F1
100
AcDbEntity
  8
PATTERN_FILL
  6
Continuous
 62
     7
100
AcDbCircle
 10
326.0
 20
-348.5576923076923
 30
0.0
 40
53.56
100
AcDbArc
 50
50.04720745437897
 51
87.71764489470347
  0
ARC
  5
4F
330
3F1
100
AcDbEntity
  8
PATTERN_FILL
  6
Continuous
 62
     7
100
AcDbCircle
 10
326.0
 20
-348.5576923076923
 30
0.0
 40
56.56000000000003
100
AcDbArc
 50
46.54492984864134
 51
87.22668766606449
  0
ARC
  5
50
330
3F1
100
AcDbEntity
  8
PATTERN_FILL
  6
Continuous
 62
     7
100
AcDbCircle
 10
326.0
 20
-348.5576923076923
 30
0.0
 40
59.55999999999995
100
AcDbArc
 50
43.57868611329998
 51
86.75076248517608
  0
ARC
  5
51
330
3F1
100
AcDbEntity
  8
PATTERN_FILL
  6
Continuous
 62
     7
100
AcDbCircle
 10
326.0
 20
-348.5576923076923
 30
0.0
 40
62.55999999999995
100
AcDbArc
 50
41.01776762818013
 51
86.28765928202701
  0
ARC
  5
52
330
3F1
100
AcDbEntity
  8
PATTERN_FILL
  6
Continuous
 62
     7
100
AcDbCircle
 10
326.0
 20
-348.5576923076923
 30
0.0
 40
65.55999999999996
100
AcDbArc
 50
43.77945917272565
 51
85.83557078250651
  0
ARC
  5
53
330
3F1
100
AcDbEntity
  8
PATTERN_FILL
  6
Continuous
 62
     7
100
AcDbCircle
 10
326.0
 20
-348.5576923076923
 30
0.0
 40
68.55999999999998
100
AcDbArc
 50
47.3436355731128
 51
85.39300421081373
  0
ARC
  5
54
330
3F1
100
AcDbEntity
  8
PATTERN_FILL
  6
Continuous
 62
     7
100
AcDbCircle
 10
326.0
 20
-348.5576923076923
 30
0.0
 40
71.56000000000003
100
AcDbArc
 50
50.48881222488257
 51
84.59528981651253
  0
ARC
  5
55
330
3F1
100
AcDbEntity
  8
PATTERN_FILL
  6
Continuous
 62
     7
100
AcDbCircle
 10
326.0
 20
-348.5576923076923
 30
0.0
 40
74.56000000000003
100
AcDbArc
 50
53.30570106050212
 51
75.11402819258545
  0
ARC
  5
56
330
3F1
100
AcDbEntity
  8
PATTERN_FILL
  6
Continuous
 62
     7
100
AcDbCircle
 10
326.0
 20
-348.5576923076923
 30
0.0
 40
77.56
100
AcDbArc
 50
55.85784514272797
 51
68.28835515545953
  0
ARC
  5
57
330
3F1
100
AcDbEntity
  8
PATTERN_FILL
  6
Continuous
 62
     7
100
AcDbCircle
 10
326.0
 20
-348.5576923076923
 30
0.0
 40
80.55999999999993
100
AcDbArc
 50
58.19177844611689
 51
63.43914411270035
  0
ARC
  5
58
330
3F1
100
AcDbEntity
  8
PATTERN_FILL
  6
Continuous
 62
     7
100
AcDbCircle
 10
326.0
 20
-348.5576923076923
 30
0.0
 40
44.55999999999997
100
AcDbArc
 50
67.13197654393527
 51
89.31170762259746
  0
ARC
  5
59
330
3F1
100
AcDbEntity
  8
PATTERN_FILL
  6
Continuous
 62
     7
100
AcDbCircle
 10
326.0
 20
-348.5576923076923
 30
0.0
 40
41.55999999999998
100
AcDbArc
 50
81.08290966144094
 51
89.89826166903638
  0
ARC
  5
5A
330
3F1
100
AcDbEntity
  8
PATTERN_FILL
  6
Continuous
 62
     7
100
AcDbCircle
 10
374.0
 20
-373.0576923076923
 30
0.0
 40
47.55769230769231
100
AcDbArc
 50
91.24979905161048
 51
120.3081361006252
  0
ARC
  5
5B
330
3F1
100
AcDbEntity
  8
PATTERN_FILL
  6
Continuous
 62
     7
100
AcDbCircle
 10
374.0
 20
-373.0576923076923
 30
0.0
 40
50.56000000000007
100
AcDbArc
 50
90.94335039894493
 51
125.7024289761368
  0
ARC
  5
5C
330
3F1
100
AcDbEntity
  8
PATTERN_FILL
  6
Continuous
 62
     7
100
AcDbCircle
 10
374.0
 20
-373.0576923076923
 30
0.0
 40
53.56000000000005
100
AcDbArc
 50
90.67801101620318
 51
129.952792545621
  0
ARC
  5
5D
330
3F1
100
AcDbEntity
  8
PATTERN_FILL
  6
Continuous
 62
     7
100
AcDbCircle
 10
374.0
 20
-373.0576923076923
 30
0.0
 40
56.56
100
AcDbArc
 50
100.8025654160281
 51
133.4550701513587
  0
ARC
  5
5E
330
3F1
100
AcDbEntity
  8
PATTERN_FILL
  6
Continuous
 62
     7
100
AcDbCircle
 10
374.0
 20
-373.0576923076923
 30
0.0
 40
59.56000000000003
100
AcDbArc
 50
111.1240907432509
 51
136.4213138867
  0
ARC
  5
5F
330
3F1
100
AcDbEntity
  8
PATTERN_FILL
  6
Continuous
 62
     7
100
AcDbCircle
 10
374.0
 20
-373.0576923076923
 30
0.0
 40
62.56000000000007
100
AcDbArc
 50
117.3682170517489
 51
138.0857183290723
  0
ARC
  5
60
330
3F1
100
AcDbEntity
  8
PATTERN_FILL
  6
Continuous
 62
     7
100
AcDbCircle
 10
374.0
 20
-373.0576923076923
 30
0.0
 40
65.56000000000003
100
AcDbArc
 50
122.066468587462
 51
135.6058480685915
  0
ARC
  5
61
330
3F1
100
AcDbEntity
  8
PATTERN_FILL
  6
Continuous
 62
     7
100
AcDbCircle
 10
374.0
 20
-373.0576923076923
 30
0.0
 40
68.56000000000007
100
AcDbArc
 50
125.8697211727263
 51
133.4119554021641
  0
ARC
  5
62
330
3F1
100
AcDbEntity
  8
PATTERN_FILL
  6
Continuous
 62
     7
100
AcDbCircle
 10
374.0
 20
-373.0576923076923
 30
0.0
 40
71.5600000000001
100
AcDbArc
 50
129.0697606499648
 51
131.4511546072795
  0
ARC
  5
63
330
3F1
100
AcDbEntity
  8
PATTERN_FILL
  6
Continuous
 62
     7
100
AcDbCircle
 10
374.0
 20
-373.0576923076923
 30
0.0
 40
44.56
100
AcDbArc
 50
91.6049143345843
 51
112.8680234560648
  0
ARC
  5
64
330
3F1
100
AcDbEntity
  8
PATTERN_FILL
  6
Continuous
 62
     7
100
AcDbCircle
 10
374.0
 20
-373.0576923076923
 30
0.0
 40
41.56000000000007
100
AcDbArc
 50
92.02020122518488
 51
98.91709033855901
  0
ARC
  5
65
330
3F1
100
AcDbEntity
  8
PATTERN_FILL
  6
Continuous
 62
     7
100
AcDbCircle
 10
326.0
 20
-373.0576923076923
 30
0.0
 40
47.55769230769227
100
AcDbArc
 50
59.69186389937477
 51
88.7502009483895
  0
ARC
  5
66
330
3F1
100
AcDbEntity
  8
PATTERN_FILL
  6
Continuous
 62
     7
100
AcDbCircle
 10
326.0
 20
-373.0576923076923
 30
0.0
 40
50.56000000000007
100
AcDbArc
 50
54.29757102386317
 51
89.05664960105506
  0
ARC
  5
67
330
3F1
100
AcDbEntity
  8
PATTERN_FILL
  6
Continuous
 62
     7
100
AcDbCircle
 10
326.0
 20
-373.0576923076923
 30
0.0
 40
53.56
100
AcDbArc
 50
50.04720745437897
 51
89.32198898379679
  0
ARC
  5
68
330
3F1
100
AcDbEntity
  8
PATTERN_FILL
  6
Continuous
 62
     7
100
AcDbCircle
 10
326.0
 20
-373.0576923076923
 30
0.0
 40
56.56000000000003
100
AcDbArc
 50
46.54492984864134
 51
79.19743458397187
  0
ARC
  5
69
330
3F1
100
AcDbEntity
  8
PATTERN_FILL
  6
Continuous
 62
     7
100
AcDbCircle
 10
326.0
 20
-373.0576923076923
 30
0.0
 40
59.55999999999995
100
AcDbArc
 50
43.57868611329998
 51
68.87590925674904
  0
ARC
  5
6A
330
3F1
100
AcDbEntity
  8
PATTERN_FILL
  6
Continuous
 62
     7
100
AcDbCircle
 10
326.0
 20
-373.0576923076923
 30
0.0
 40
62.56000000000002
100
AcDbArc
 50
41.91428167092763
 51
62.63178294825105
  0
ARC
  5
6B
330
3F1
100
AcDbEntity
  8
PATTERN_FILL
  6
Continuous
 62
     7
100
AcDbCircle
 10
326.0
 20
-373.0576923076923
 30
0.0
 40
65.55999999999996
100
AcDbArc
 50
44.39415193140852
 51
57.93353141253795
  0
ARC
  5
6C
330
3F1
100
AcDbEntity
  8
PATTERN_FILL
  6
Continuous
 62
     7
100
AcDbCircle
 10
326.0
 20
-373.0576923076923
 30
0.0
 40
68.56000000000001
100
AcDbArc
 50
46.58804459783586
 51
54.13027882727377
  0
ARC
  5
6D
330
3F1
100
AcDbEntity
  8
PATTERN_FILL
  6
Continuous
 62
     7
100
AcDbCircle
 10
326.0
 20
-373.0576923076923
 30
0.0
 40
71.56000000000007
100
AcDbArc
 50
48.54884539272046
 51
50.93023935003511
  0
ARC
  5
6E
330
3F1
100
AcDbEntity
  8
PATTERN_FILL
  6
Continuous
 62
     7
100
AcDbCircle
 10
326.0
 20
-373.0576923076923
 30
0.0
 40
44.56000000000001
100
AcDbArc
 50
67.13197654393512
 51
88.39508566541571
  0
ARC
  5
6F
330
3F1
100
AcDbEntity
  8
PATTERN_FILL
  6
Continuous
 62
     7
100
AcDbCircle
 10
326.0
 20
-373.0576923076923
 30
0.0
 40
41.56000000000005
100
AcDbArc
 50
81.08290966144098
 51
87.97979877481514
  0
ARC
  5
70
330
3F1
100
AcDbEntity
  8
PATTERN_FILL
  6
Continuous
 62
     7
100
AcDbCircle
 10
374.0
 20
-348.5576923076923
 30
0.0
 40
47.55769230769224
100
AcDbArc
 50
91.24330902820627
 51
120.3081361006252
  0
ARC
  5
71
330
3F1
100
AcDbEntity
  8
PATTERN_FILL
  6
Continuous
 62
     7
100
AcDbCircle
 10
374.0
 20
-348.5576923076923
 30
0.0
 40
50.56000000000004
100
AcDbArc
 50
91.77363314459936
 51
125.7024289761369
  0
ARC
  5
72
330
3F1
100
AcDbEntity
  8
PATTERN_FILL
  6
Continuous
 62
     7
100
AcDbCircle
 10
374.0
 20
-348.5576923076923
 30
0.0
 40
53.56
100
AcDbArc
 50
92.2823551052965
 51
129.952792545621
  0
ARC
  5
73
330
3F1
100
AcDbEntity
  8
PATTERN_FILL
  6
Continuous
 62
     7
100
AcDbCircle
 10
374.0
 20
-348.5576923076923
 30
0.0
 40
56.55999999999998
100
AcDbArc
 50
92.7733123339355
 51
133.4550701513587
  0
ARC
  5
74
330
3F1
100
AcDbEntity
  8
PATTERN_FILL
  6
Continuous
 62
     7
100
AcDbCircle
 10
374.0
 20
-348.5576923076923
 30
0.0
 40
59.55999999999997
100
AcDbArc
 50
93.24923751482391
 51
136.4213138867
  0
ARC
  5
75
330
3F1
100
AcDbEntity
  8
PATTERN_FILL
  6
Continuous
 62
     7
100
AcDbCircle
 10
374.0
 20
-348.5576923076923
 30
0.0
 40
62.56000000000002
100
AcDbArc
 50
93.71234071797301
 51
138.9822323718199
  0
ARC
  5
76
330
3F1
100
AcDbEntity
  8
PATTERN_FILL
  6
Continuous
 62
     7
100
AcDbCircle
 10
374.0
 20
-348.5576923076923
 30
0.0
 40
65.55999999999997
100
AcDbArc
 50
94.16442921749348
 51
136.2205408272743
  0
ARC
  5
77
330
3F1
100
AcDbEntity
  8
PATTERN_FILL
  6
Continuous
 62
     7
100
AcDbCircle
 10
374.0
 20
-348.5576923076923
 30
0.0
 40
68.55999999999996
100
AcDbArc
 50
94.60699578918623
 51
132.6563644268872
  0
ARC
  5
78
330
3F1
100
AcDbEntity
  8
PATTERN_FILL
  6
Continuous
 62
     7
100
AcDbCircle
 10
374.0
 20
-348.5576923076923
 30
0.0
 40
71.56000000000005
100
AcDbArc
 50
95.40471018348744
 51
129.5111877751174
  0
ARC
  5
79
330
3F1
100
AcDbEntity
  8
PATTERN_FILL
  6
Continuous
 62
     7
100
AcDbCircle
 10
374.0
 20
-348.5576923076923
 30
0.0
 40
74.56000000000002
100
AcDbArc
 50
104.8859718074145
 51
126.6942989394979
  0
ARC
  5
7A
330
3F1
100
AcDbEntity
  8
PATTERN_FILL
  6
Continuous
 62
     7
100
AcDbCircle
 10
374.0
 20
-348.5576923076923
 30
0.0
 40
77.56
100
AcDbArc
 50
111.7116448445405
 51
124.142154857272
  0
ARC
  5
7B
330
3F1
100
AcDbEntity
  8
PATTERN_FILL
  6
Continuous
 62
     7
100
AcDbCircle
 10
374.0
 20
-348.5576923076923
 30
0.0
 40
80.55999999999997
100
AcDbArc
 50
116.5608558872997
 51
121.8082215538831
  0
ARC
  5
7C
330
3F1
100
AcDbEntity
  8
PATTERN_FILL
  6
Continuous
 62
     7
100
AcDbCircle
 10
374.0
 20
-348.5576923076923
 30
0.0
 40
44.56000000000003
100
AcDbArc
 50
90.68829237740255
 51
112.8680234560647
  0
ARC
  5
7D
330
3F1
100
AcDbEntity
  8
PATTERN_FILL
  6
Continuous
 62
     7
100
AcDbCircle
 10
374.0
 20
-348.5576923076923
 30
0.0
 40
41.56000000000003
100
AcDbArc
 50
90.10173833096363
 51
98.91709033855903
  0
LINE
  5
7E
330
3F1
100
AcDbEntity
  8
PATTERN_FILL
  6
Continuous
 62
     7
100
AcDbLine
 10
340.4083369533752
 20
-248.0
 30
0.0
 11
359.5916630466249
 21
-248.0
 31
0.0
  0
LINE
  5
7F
330
3F1
100
AcDbEntity
  8
PATTERN_FILL
  6
Continuous
 62
     7
100
AcDbLine
 10
340.4083369533752
 20
-248.0
 30
0.0
 11
359.5916630466249
 21
-248.0
 31
0.0
  0
LINE
  5
80
330
3F1
100
AcDbEntity
  8
PATTERN_FILL
  6
Continuous
 62
     7
100
AcDbLine
 10
336.7335008385788
 20
-246.0
 30
0.0
 11
363.2664991614212
 21
-246.0
 31
0.0
  0
LINE
  5
81
330
3F1
100
AcDbEntity
  8
PATTERN_FILL
  6
Continuous
 62
     7
100
AcDbLine
 10
334.1254921336128
 20
-244.0
 30
0.0
 11
365.8745078663873
 21
-244.0
 31
0.0
  0
LINE
  5
82
330
3F1
100
AcDbEntity
  8
PATTERN_FILL
  6
Continuous
 62
     7
100
AcDbLine
 10
332.1114561800019
 20
-242.0
 30
0.0
 11
367.8885438199981
 21
-242.0
 31
0.0
  0
LINE
  5
83
330
3F1
100
AcDbEntity
  8
PATTERN_FILL
  6
Continuous
 62
     7
100
AcDbLine
 10
330.5064113103823
 20
-240.0
 30
0.0
 11
369.4935886896177
 21
-240.0
 31
0.0
  0
LINE
  5
84
330
3F1
100
AcDbEntity
  8
PATTERN_FILL
  6
Continuous
 62
     7
100
AcDbLine
 10
329.2153903091737
 20
-238.0
 30
0.0
 11
370.7846096908264
 21
-238.0
 31
0.0
  0
LINE
  5
85
330
3F1
100
AcDbEntity
  8
PATTERN_FILL
  6
Continuous
 62
     7
100
AcDbLine
 10
328.1825757707288
 20
-236.0
 30
0.0
 11
371.8174242292712
 21
-236.0
 31
0.0
  0
LINE
  5
86
330
3F1
100
AcDbEntity
  8
PATTERN_FILL
  6
Continuous
 62
     7
100
AcDbLine
 10
327.3725830020307
 20
-234.0
 30
0.0
 11
372.6274169979693
 21
-234.0
 31
0.0
  0
LINE
  5
87
330
3F1
100
AcDbEntity
  8
PATTERN_FILL
  6
Continuous
 62
     7
100
AcDbLine
 10
326.7620999227557
 20
-232.0
 30
0.0
 11
373.2379000772443
 21
-232.0
 31
0.0
  0
LINE
  5
88
330
3F1
100
AcDbEntity
  8
PATTERN_FILL
  6
Continuous
 62
     7
100
AcDbLine
 10
326.3356808676017
 20
-230.0
 30
0.0
 11
373.6643191323983
 21
-230.0
 31
0.0
  0
LINE
  5
89
330
3F1
100
AcDbEntity
  8
PATTERN_FILL
  6
Continuous
 62
     7
100
AcDbLine
 10
326.0834785137975
 20
-228.0
 30
0.0
 11
373.9165214862026
 21
-228.0
 31
0.0
  0
LINE
  5
8A
330
3F1
100
AcDbEntity
  8
PATTERN_FILL
  6
Continuous
 62
     7
100
AcDbLine
 10
326.0000000000003
 20
-226.0
 30
0.0
 11
373.9999999999998
 21
-226.0
 31
0.0
  0
LINE
  5
8B
330
3F1
100
AcDbEntity
  8
PATTERN_FILL
  6
Continuous
 62
     7
100
AcDbLine
 10
326.0834785137975
 20
-224.0
 30
0.0
 11
373.9165214862026
 21
-224.0
 31
0.0
  0
LINE
  5
8C
330
3F1
100
AcDbEntity
  8
PATTERN_FILL
  6
Continuous
 62
     7
100
AcDbLine
 10
326.3356808676017
 20
-222.0
 30
0.0
 11
373.6643191323983
 21
-222.0
 31
0.0
  0
LINE
  5
8D
330
3F1
100
AcDbEntity
  8
PATTERN_FILL
  6
Continuous
 62
     7
100
AcDbLine
 10
326.7620999227557
 20
-220.0
 30
0.0
 11
373.2379000772443
 21
-220.0
 31
0.0
  0
LINE
  5
8E
330
3F1
100
AcDbEntity
  8
PATTERN_FILL
  6
Continuous
 62
     7
100
AcDbLine
 10
327.3725830020307
 20
-218.0
 30
0.0
 11
372.6274169979693
 21
-218.0
 31
0.0
  0
LINE
  5
8F
330
3F1
100
AcDbEntity
  8
PATTERN_FILL
  6
Continuous
 62
     7
100
AcDbLine
 10
328.1825757707288
 20
-216.0
 30
0.0
 11
371.8174242292712
 21
-216.0
 31
0.0
  0
LINE
  5
90
330
3F1
100
AcDbEntity
  8
PATTERN_FILL
  6
Continuous
 62
     7
100
AcDbLine
 10
329.2153903091737
 20
-214.0
 30
0.0
 11
370.7846096908264
 21
-214.0
 31
0.0
  0
LINE
  5
91
330
3F1
100
AcDbEntity
  8
PATTERN_FILL
  6
Continuous
 62
     7
100
AcDbLine
 10
330.5064113103823
 20
-212.0
 30
0.0
 11
369.4935886896177
 21
-212.0
 31
0.0
  0
LINE
  5
92
330
3F1
100
AcDbEntity
  8
PATTERN_FILL
  6
Continuous
 62
     7
100
AcDbLine
 10
332.1114561800019
 20
-210.0
 30
0.0
 11
367.8885438199981
 21
-210.0
 31
0.0
  0
LINE
  5
93
330
3F1
100
AcDbEntity
  8
PATTERN_FILL
  6
Continuous
 62
     7
100
AcDbLine
 10
334.1254921336128
 20
-208.0
 30
0.0
 11
365.8745078663873
 21
-208.0
 31
0.0
  0
LINE
  5
94
330
3F1
100
AcDbEntity
  8
PATTERN_FILL
  6
Continuous
 62
     7
100
AcDbLine
 10
336.7335008385788
 20
-206.0
 30
0.0
 11
363.2664991614212
 21
-206.0
 31
0.0
  0
LINE
  5
95
330
3F1
100
AcDbEntity
  8
PATTERN_FILL
  6
Continuous
 62
     7
100
AcDbLine
 10
340.4083369533752
 20
-204.0
 30
0.0
 11
359.5916630466249
 21
-204.0
 31
0.0
  0
LINE
  5
96
330
3F1
100
AcDbEntity
  8
PATTERN_FILL
  6
Continuous
 62
     7
100
AcDbLine
 10
372.0
 20
-235.5916630466248
 30
0.0
 11
372.0
 21
-216.4083369533751
 31
0.0
  0
LINE
  5
97
330
3F1
100
AcDbEntity
  8
PATTERN_FILL
  6
Continuous
 62
     7
100
AcDbLine
 10
372.0
 20
-235.5916630466248
 30
0.0
 11
372.0
 21
-216.4083369533751
 31
0.0
  0
LINE
  5
98
330
3F1
100
AcDbEntity
  8
PATTERN_FILL
  6
Continuous
 62
     7
100
AcDbLine
 10
370.0
 20
-239.2664991614212
 30
0.0
 11
370.0
 21
-212.7335008385788
 31
0.0
  0
LINE
  5
99
330
3F1
100
AcDbEntity
  8
PATTERN_FILL
  6
Continuous
 62
     7
100
AcDbLine
 10
368.0
 20
-241.8745078663872
 30
0.0
 11
368.0
 21
-210.1254921336127
 31
0.0
  0
LINE
  5
9A
330
3F1
100
AcDbEntity
  8
PATTERN_FILL
  6
Continuous
 62
     7
100
AcDbLine
 10
366.0
 20
-243.8885438199981
 30
0.0
 11
366.0
 21
-208.111456180002
 31
0.0
  0
LINE
  5
9B
330
3F1
100
AcDbEntity
  8
PATTERN_FILL
  6
Continuous
 62
     7
100
AcDbLine
 10
364.0
 20
-245.4935886896177
 30
0.0
 11
364.0
 21
-206.5064113103823
 31
0.0
  0
LINE
  5
9C
330
3F1
100
AcDbEntity
  8
PATTERN_FILL
  6
Continuous
 62
     7
100
AcDbLine
 10
362.0
 20
-246.7846096908263
 30
0.0
 11
362.0
 21
-205.2153903091737
 31
0.0
  0
LINE
  5
9D
330
3F1
100
AcDbEntity
  8
PATTERN_FILL
  6
Continuous
 62
     7
100
AcDbLine
 10
360.0
 20
-247.8174242292712
 30
0.0
 11
360.0
 21
-204.1825757707288
 31
0.0
  0
LINE
  5
9E
330
3F1
100
AcDbEntity
  8
PATTERN_FILL
  6
Continuous
 62
     7
100
AcDbLine
 10
358.0
 20
-248.6274169979693
 30
0.0
 11
358.0
 21
-203.3725830020306
 31
0.0
  0
LINE
  5
9F
330
3F1
100
AcDbEntity
  8
PATTERN_FILL
  6
Continuous
 62
     7
100
AcDbLine
 10
356.0
 20
-249.2379000772443
 30
0.0
 11
356.0
 21
-202.7620999227557
 31
0.0
  0
LINE
  5
A0
330
3F1
100
AcDbEntity
  8
PATTERN_FILL
  6
Continuous
 62
     7
100
AcDbLine
 10
354.0
 20
-249.6643191323983
 30
0.0
 11
354.0
 21
-202.3356808676017
 31
0.0
  0
LINE
  5
A1
330
3F1
100
AcDbEntity
  8
PATTERN_FILL
  6
Continuous
 62
     7
100
AcDbLine
 10
352.0
 20
-249.9165214862026
 30
0.0
 11
352.0
 21
-202.0834785137973
 31
0.0
  0
LINE
  5
A2
330
3F1
100
AcDbEntity
  8
PATTERN_FILL
  6
Continuous
 62
     7
100
AcDbLine
 10
350.0
 20
-249.9999999999997
 30
0.0
 11
350.0
 21
-202.0000000000001
 31
0.0
  0
LINE
  5
A3
330
3F1
100
AcDbEntity
  8
PATTERN_FILL
  6
Continuous
 62
     7
100
AcDbLine
 10
348.0
 20
-249.9165214862026
 30
0.0
 11
348.0
 21
-202.0834785137973
 31
0.0
  0
LINE
  5
A4
330
3F1
100
AcDbEntity
  8
PATTERN_FILL
  6
Continuous
 62
     7
100
AcDbLine
 10
346.0
 20
-249.6643191323983
 30
0.0
 11
346.0
 21
-202.3356808676017
 31
0.0
  0
LINE
  5
A5
330
3F1
100
AcDbEntity
  8
PATTERN_FILL
  6
Continuous
 62
     7
100
AcDbLine
 10
344.0
 20
-249.2379000772443
 30
0.0
 11
344.0
 21
-202.7620999227557
 31
0.0
  0
LINE
  5
A6
330
3F1
100
AcDbEntity
  8
PATTERN_FILL
  6
Continuous
 62
     7
100
AcDbLine
 10
342.0
 20
-248.6274169979693
 30
0.0
 11
342.0
 21
-203.3725830020306
 31
0.0
  0
LINE
  5
A7
330
3F1
100
AcDbEntity
  8
PATTERN_FILL
  6
Continuous
 62
     7
100
AcDbLine
 10
340.0
 20
-247.8174242292712
 30
0.0
 11
340.0
 21
-204.1825757707288
 31
0.0
  0
LINE
  5
A8
330
3F1
100
AcDbEntity
  8
PATTERN_FILL
  6
Continuous
 62
     7
100
AcDbLine
 10
338.0
 20
-246.7846096908263
 30
0.0
 11
338.0
 21
-205.2153903091737
 31
0.0
  0
LINE
  5
A9
330
3F1
100
AcDbEntity
  8
PATTERN_FILL
  6
Continuous
 62
     7
100
AcDbLine
 10
336.0
 20
-245.4935886896177
 30
0.0
 11
336.0
 21
-206.5064113103823
 31
0.0
  0
LINE
  5
AA
330
3F1
100
AcDbEntity
  8
PATTERN_FILL
  6
Continuous
 62
     7
100
AcDbLine
 10
334.0
 20
-243.8885438199981
 30
0.0
 11
334.0
 21
-208.111456180002
 31
0.0
  0
LINE
  5
AB
330
3F1
100
AcDbEntity
  8
PATTERN_FILL
  6
Continuous
 62
     7
100
AcDbLine
 10
332.0
 20
-241.8745078663872
 30
0.0
 11
332.0
 21
-210.1254921336127
 31
0.0
  0
LINE
  5
AC
330
3F1
100
AcDbEntity
  8
PATTERN_FILL
  6
Continuous
 62
     7
100
AcDbLine
 10
330.0
 20
-239.2664991614212
 30
0.0
 11
330.0
 21
-212.7335008385788
 31
0.0
  0
LINE
  5
AD
330
3F1
100
AcDbEntity
  8
PATTERN_FILL
  6
Continuous
 62
     7
100
AcDbLine
 10
328.0
 20
-235.5916630466248
 30
0.0
 11
328.0
 21
-216.4083369533751
 31
0.0
  0
LINE
  5
AE
330
3F1
100
AcDbEntity
  8
SPEC
  6
Continuous
 62
     7
100
AcDbLine
 10
-659.9999999998346
 20
984.7227049997533
 30
0.0
 11
679.99999999983
 21
984.7227049997533
 31
0.0
  0
LINE
  5
AF
330
3F1
100
AcDbEntity
  8
SPEC
  6
Continuous
 62
     7
100
AcDbLine
 10
-516.6666666665374
 20
954.7227049997601
 30
0.0
 11
679.99999999983
 21
954.7227049997601
 31
0.0
  0
LINE
  5
B0
330
3F1
100
AcDbEntity
  8
SPEC
  6
Continuous
 62
     7
100
AcDbLine
 10
-659.9999999998346
 20
984.7227049997533
 30
0.0
 11
-659.9999999998346
 21
84.72270499997781
 31
0.0
  0
TEXT
  5
B1
330
3F1
100
AcDbEntity
  8
SPEC
 62
     7
100
AcDbText
 10
-649.9999999998372
 20
995.8688649997499
 30
0.0
 40
19.54609374999512
  1
仕様
 41
0.7
 11
-649.9999999998372
 21
1015.414958749745
 31
0.0
100
AcDbText
 73
     3
  0
LINE
  5
B2
330
3F1
100
AcDbEntity
  8
SPEC
  6
Continuous
 62
     7
100
AcDbLine
 10
-249.9999999999374
 20
984.7227049997533
 30
0.0
 11
-249.9999999999374
 21
84.72270499997781
 31
0.0
  0
LINE
  5
B3
330
3F1
100
AcDbEntity
  8
SPEC
  6
Continuous
 62
     7
100
AcDbLine
 10
679.99999999983
 20
984.7227049997533
 30
0.0
 11
679.99999999983
 21
84.72270499997781
 31
0.0
  0
LINE
  5
B4
330
3F1
100
AcDbEntity
  8
SPEC
  6
Continuous
 62
     7
100
AcDbLine
 10
-516.6666666665374
 20
924.7227049997675
 30
0.0
 11
679.99999999983
 21
924.7227049997675
 31
0.0
  0
LINE
  5
B5
330
3F1
100
AcDbEntity
  8
SPEC
  6
Continuous
 62
     7
100
AcDbLine
 10
-516.6666666665374
 20
894.7227049997753
 30
0.0
 11
679.99999999983
 21
894.7227049997753
 31
0.0
  0
LINE
  5
B6
330
3F1
100
AcDbEntity
  8
SPEC
  6
Continuous
 62
     7
100
AcDbLine
 10
-516.6666666665374
 20
864.7227049997827
 30
0.0
 11
679.99999999983
 21
864.7227049997827
 31
0.0
  0
LINE
  5
B7
330
3F1
100
AcDbEntity
  8
SPEC
  6
Continuous
 62
     7
100
AcDbLine
 10
-516.6666666665374
 20
834.7227049997901
 30
0.0
 11
679.99999999983
 21
834.7227049997901
 31
0.0
  0
LINE
  5
B8
330
3F1
100
AcDbEntity
  8
SPEC
  6
Continuous
 62
     7
100
AcDbLine
 10
-516.6666666665374
 20
804.7227049997978
 30
0.0
 11
679.99999999983
 21
804.7227049997978
 31
0.0
  0
LINE
  5
B9
330
3F1
100
AcDbEntity
  8
SPEC
  6
Continuous
 62
     7
100
AcDbLine
 10
-516.6666666665374
 20
774.7227049998051
 30
0.0
 11
679.99999999983
 21
774.7227049998051
 31
0.0
  0
LINE
  5
BA
330
3F1
100
AcDbEntity
  8
SPEC
  6
Continuous
 62
     7
100
AcDbLine
 10
-516.6666666665374
 20
744.7227049998128
 30
0.0
 11
679.99999999983
 21
744.7227049998128
 31
0.0
  0
LINE
  5
BB
330
3F1
100
AcDbEntity
  8
SPEC
  6
Continuous
 62
     7
100
AcDbLine
 10
-516.6666666665374
 20
714.7227049998202
 30
0.0
 11
679.99999999983
 21
714.7227049998202
 31
0.0
  0
LINE
  5
BC
330
3F1
100
AcDbEntity
  8
SPEC
  6
Continuous
 62
     7
100
AcDbLine
 10
-516.6666666665374
 20
684.7227049998277
 30
0.0
 11
679.99999999983
 21
684.7227049998277
 31
0.0
  0
LINE
  5
BD
330
3F1
100
AcDbEntity
  8
SPEC
  6
Continuous
 62
     7
100
AcDbLine
 10
-516.6666666665374
 20
654.7227049998355
 30
0.0
 11
679.99999999983
 21
654.7227049998355
 31
0.0
  0
LINE
  5
BE
330
3F1
100
AcDbEntity
  8
SPEC
  6
Continuous
 62
     7
100
AcDbLine
 10
-516.6666666665374
 20
624.7227049998429
 30
0.0
 11
679.99999999983
 21
624.7227049998429
 31
0.0
  0
LINE
  5
BF
330
3F1
100
AcDbEntity
  8
SPEC
  6
Continuous
 62
     7
100
AcDbLine
 10
-659.9999999998346
 20
594.7227049998503
 30
0.0
 11
679.99999999983
 21
594.7227049998503
 31
0.0
  0
LINE
  5
C0
330
3F1
100
AcDbEntity
  8
SPEC
  6
Continuous
 62
     7
100
AcDbLine
 10
-516.6666666665374
 20
564.722704999858
 30
0.0
 11
679.99999999983
 21
564.722704999858
 31
0.0
  0
LINE
  5
C1
330
3F1
100
AcDbEntity
  8
SPEC
  6
Continuous
 62
     7
100
AcDbLine
 10
-516.6666666665374
 20
504.7227049998729
 30
0.0
 11
679.99999999983
 21
504.7227049998729
 31
0.0
  0
LINE
  5
C2
330
3F1
100
AcDbEntity
  8
SPEC
  6
Continuous
 62
     7
100
AcDbLine
 10
-516.6666666665374
 20
474.7227049998802
 30
0.0
 11
679.99999999983
 21
474.7227049998802
 31
0.0
  0
LINE
  5
C3
330
3F1
100
AcDbEntity
  8
SPEC
  6
Continuous
 62
     7
100
AcDbLine
 10
-516.6666666665374
 20
444.7227049998878
 30
0.0
 11
679.99999999983
 21
444.7227049998878
 31
0.0
  0
LINE
  5
C4
330
3F1
100
AcDbEntity
  8
SPEC
  6
Continuous
 62
     7
100
AcDbLine
 10
-516.6666666665374
 20
414.7227049998952
 30
0.0
 11
679.99999999983
 21
414.7227049998952
 31
0.0
  0
TEXT
  5
C5
330
3F1
100
AcDbEntity
  8
SPEC
 62
     7
100
AcDbText
 10
-652.7999999998367
 20
961.0260472219771
 30
0.0
 40
15.20251736111111
  1
システム性能
 41
0.7
 11
-652.7999999998367
 21
976.2285645830882
 31
0.0
100
AcDbText
 73
     3
  0
TEXT
  5
C6
330
3F1
100
AcDbEntity
  8
SPEC
 62
     7
100
AcDbText
 10
-652.7999999998367
 20
571.0260472220742
 30
0.0
 40
15.20251736111111
  1
受信機
 41
0.7
 11
-652.7999999998367
 21
586.2285645831852
 31
0.0
100
AcDbText
 73
     3
  0
TEXT
  5
C7
330
3F1
100
AcDbEntity
  8
SPEC
 62
     7
100
AcDbText
 10
-652.7999999998367
 20
361.0260472221266
 30
0.0
 40
15.20251736111111
  1
送信機
 41
0.7
 11
-652.7999999998367
 21
376.2285645832377
 31
0.0
100
AcDbText
 73
     3
  0
TEXT
  5
C8
330
3F1
100
AcDbEntity
  8
SPEC
 62
     7
100
AcDbText
 10
-652.7999999998367
 20
181.0260472221716
 30
0.0
 40
15.20251736111111
  1
マイクロホン
 41
0.7
 11
-652.7999999998367
 21
196.2285645832827
 31
0.0
100
AcDbText
 73
     3
  0
LINE
  5
C9
330
3F1
100
AcDbEntity
  8
SPEC
  6
Continuous
 62
     7
100
AcDbLine
 10
-516.6666666665374
 20
984.7227049997533
 30
0.0
 11
-516.6666666665374
 21
144.7227049999627
 31
0.0
  0
TEXT
  5
CA
330
3F1
100
AcDbEntity
  8
SPEC
 62
     7
100
AcDbText
 10
-509.4666666665391
 20
961.0260472219771
 30
0.0
 40
15.20251736111111
  1
電波形式
 41
0.7
 11
-509.4666666665391
 21
976.2285645830882
 31
0.0
100
AcDbText
 73
     3
  0
TEXT
  5
CB
330
3F1
100
AcDbEntity
  8
SPEC
 62
     7
100
AcDbText
 10
-509.4666666665391
 20
931.0260472219844
 30
0.0
 40
15.20251736111111
  1
伝送(変調)方式
 41
0.7
 11
-509.4666666665391
 21
946.2285645830956
 31
0.0
100
AcDbText
 73
     3
  0
TEXT
  5
CC
330
3F1
100
AcDbEntity
  8
SPEC
 62
     7
100
AcDbText
 10
-509.4666666665392
 20
901.0260472219922
 30
0.0
 40
15.20251736111111
  1
搬送波周波数
 41
0.7
 11
-509.4666666665392
 21
916.2285645831031
 31
0.0
100
AcDbText
 73
     3
  0
TEXT
  5
CD
330
3F1
100
AcDbEntity
  8
SPEC
 62
     7
100
AcDbText
 10
-509.4666666665392
 20
871.0260472219998
 30
0.0
 40
15.20251736111111
  1
到達距離
 41
0.7
 11
-509.4666666665392
 21
886.2285645831107
 31
0.0
100
AcDbText
 73
     3
  0
TEXT
  5
CE
330
3F1
100
AcDbEntity
  8
SPEC
 62
     7
100
AcDbText
 10
-509.4666666665392
 20
841.0260472220072
 30
0.0
 40
15.20251736111111
  1
空中線電力
 41
0.7
 11
-509.4666666665392
 21
856.2285645831183
 31
0.0
100
AcDbText
 73
     3
  0
TEXT
  5
CF
330
3F1
100
AcDbEntity
  8
SPEC
 62
     7
100
AcDbText
 10
-509.4666666665392
 20
811.0260472220145
 30
0.0
 40
15.20251736111111
  1
レイテンシー
 41
0.7
 11
-509.4666666665392
 21
826.2285645831257
 31
0.0
100
AcDbText
 73
     3
  0
TEXT
  5
D0
330
3F1
100
AcDbEntity
  8
SPEC
 62
     7
100
AcDbText
 10
-509.4666666665392
 20
781.026047222022
 30
0.0
 40
15.20251736111111
  1
THD
 41
0.7
 11
-509.4666666665392
 21
796.2285645831331
 31
0.0
100
AcDbText
 73
     3
  0
TEXT
  5
D1
330
3F1
100
AcDbEntity
  8
SPEC
 62
     7
100
AcDbText
 10
-509.4666666665392
 20
751.0260472220295
 30
0.0
 40
15.20251736111111
  1
周波数特性
 41
0.7
 11
-509.4666666665392
 21
766.2285645831405
 31
0.0
100
AcDbText
 73
     3
  0
TEXT
  5
D2
330
3F1
100
AcDbEntity
  8
SPEC
 62
     7
100
AcDbText
 10
-509.4666666665392
 20
721.0260472220364
 30
0.0
 40
15.20251736111111
  1
AD-DA変換
 41
0.7
 11
-509.4666666665392
 21
736.2285645831475
 31
0.0
100
AcDbText
 73
     3
  0
TEXT
  5
D3
330
3F1
100
AcDbEntity
  8
SPEC
 62
     7
100
AcDbText
 10
-509.4666666665392
 20
691.0260472220441
 30
0.0
 40
15.20251736111111
  1
ダイナミックレンジ(1kHz)
 41
0.7
 11
-509.4666666665392
 21
706.2285645831551
 31
0.0
100
AcDbText
 73
     3
  0
TEXT
  5
D4
330
3F1
100
AcDbEntity
  8
SPEC
 62
     7
100
AcDbText
 10
-509.4666666665392
 20
661.0260472220517
 30
0.0
 40
15.20251736111111
  1
SN比
 41
0.7
 11
-509.4666666665392
 21
676.2285645831627
 31
0.0
100
AcDbText
 73
     3
  0
TEXT
  5
D5
330
3F1
100
AcDbEntity
  8
SPEC
 62
     7
100
AcDbText
 10
-509.4666666665392
 20
631.0260472220594
 30
0.0
 40
15.20251736111111
  1
暗号化^I
 41
0.7
 11
-509.4666666665392
 21
646.2285645831705
 31
0.0
100
AcDbText
 73
     3
  0
TEXT
  5
D6
330
3F1
100
AcDbEntity
  8
SPEC
 62
     7
100
AcDbText
 10
-509.4666666665392
 20
601.0260472220669
 30
0.0
 40
15.20251736111111
  1
同時使用チャンネル数
 41
0.7
 11
-509.4666666665392
 21
616.2285645831779
 31
0.0
100
AcDbText
 73
     3
  0
TEXT
  5
D7
330
3F1
100
AcDbEntity
  8
SPEC
 62
     7
100
AcDbText
 10
-242.7999999999392
 20
961.0260472219771
 30
0.0
 40
15.20251736111111
  1
F1D
 41
0.7
 11
-242.7999999999392
 21
976.2285645830882
 31
0.0
100
AcDbText
 73
     3
  0
TEXT
  5
D8
330
3F1
100
AcDbEntity
  8
SPEC
 62
     7
100
AcDbText
 10
-242.7999999999392
 20
931.0260472219844
 30
0.0
 40
15.20251736111111
  1
GFSK(ガウスフィルタ ー・シフトキーイング)
 41
0.7
 11
-242.7999999999392
 21
946.2285645830956
 31
0.0
100
AcDbText
 73
     3
  0
TEXT
  5
D9
330
3F1
100
AcDbEntity
  8
SPEC
 62
     7
100
AcDbText
 10
-242.7999999999392
 20
901.0260472219922
 30
0.0
 40
15.20251736111111
  1
2.4GHz帯(2402MHz～2480MHz)
 41
0.7
 11
-242.7999999999392
 21
916.2285645831031
 31
0.0
100
AcDbText
 73
     3
  0
TEXT
  5
DA
330
3F1
100
AcDbEntity
  8
SPEC
 62
     7
100
AcDbText
 10
-242.7999999999392
 20
871.0260472219998
 30
0.0
 40
15.20251736111111
  1
約30m
 41
0.7
 11
-242.7999999999392
 21
886.2285645831107
 31
0.0
100
AcDbText
 73
     3
  0
TEXT
  5
DB
330
3F1
100
AcDbEntity
  8
SPEC
 62
     7
100
AcDbText
 10
-242.7999999999392
 20
841.0260472220072
 30
0.0
 40
15.20251736111111
  1
10mW
 41
0.7
 11
-242.7999999999392
 21
856.2285645831183
 31
0.0
100
AcDbText
 73
     3
  0
TEXT
  5
DC
330
3F1
100
AcDbEntity
  8
SPEC
 62
     7
100
AcDbText
 10
-242.7999999999392
 20
811.0260472220145
 30
0.0
 40
15.20251736111111
  1
2.9ms以下
 41
0.7
 11
-242.7999999999392
 21
826.2285645831257
 31
0.0
100
AcDbText
 73
     3
  0
TEXT
  5
DD
330
3F1
100
AcDbEntity
  8
SPEC
 62
     7
100
AcDbText
 10
-242.7999999999392
 20
781.026047222022
 30
0.0
 40
15.20251736111111
  1
0.05%%%以下
 41
0.7
 11
-242.7999999999392
 21
796.2285645831331
 31
0.0
100
AcDbText
 73
     3
  0
TEXT
  5
DE
330
3F1
100
AcDbEntity
  8
SPEC
 62
     7
100
AcDbText
 10
-242.7999999999392
 20
751.0260472220295
 30
0.0
 40
15.20251736111111
  1
70Hz～20kHz(+1/-3dB)
 41
0.7
 11
-242.7999999999392
 21
766.2285645831405
 31
0.0
100
AcDbText
 73
     3
  0
TEXT
  5
DF
330
3F1
100
AcDbEntity
  8
SPEC
 62
     7
100
AcDbText
 10
-242.7999999999392
 20
721.0260472220364
 30
0.0
 40
15.20251736111111
  1
24bit、48kHz
 41
0.7
 11
-242.7999999999392
 21
736.2285645831475
 31
0.0
100
AcDbText
 73
     3
  0
TEXT
  5
E0
330
3F1
100
AcDbEntity
  8
SPEC
 62
     7
100
AcDbText
 10
-242.7999999999392
 20
691.0260472220441
 30
0.0
 40
15.20251736111111
  1
116dB
 41
0.7
 11
-242.7999999999392
 21
706.2285645831551
 31
0.0
100
AcDbText
 73
     3
  0
TEXT
  5
E1
330
3F1
100
AcDbEntity
  8
SPEC
 62
     7
100
AcDbText
 10
-242.7999999999392
 20
661.0260472220517
 30
0.0
 40
15.20251736111111
  1
90dB以上(Aウェイト)
 41
0.7
 11
-242.7999999999392
 21
676.2285645831627
 31
0.0
100
AcDbText
 73
     3
  0
TEXT
  5
E2
330
3F1
100
AcDbEntity
  8
SPEC
 62
     7
100
AcDbText
 10
-242.7999999999392
 20
631.0260472220594
 30
0.0
 40
15.20251736111111
  1
256ビット AES暗号化
 41
0.7
 11
-242.7999999999392
 21
646.2285645831705
 31
0.0
100
AcDbText
 73
     3
  0
TEXT
  5
E3
330
3F1
100
AcDbEntity
  8
SPEC
 62
     7
100
AcDbText
 10
-242.7999999999392
 20
601.0260472220669
 30
0.0
 40
15.20251736111111
  1
8
 41
0.7
 11
-242.7999999999392
 21
616.2285645831779
 31
0.0
100
AcDbText
 73
     3
  0
TEXT
  5
E4
330
3F1
100
AcDbEntity
  8
SPEC
 62
     7
100
AcDbText
 10
-509.4666666665391
 20
571.0260472220742
 30
0.0
 40
15.20251736111111
  1
出力数
 41
0.7
 11
-509.4666666665391
 21
586.2285645831852
 31
0.0
100
AcDbText
 73
     3
  0
TEXT
  5
E5
330
3F1
100
AcDbEntity
  8
SPEC
 62
     7
100
AcDbText
 10
-509.4666666665391
 20
541.0260472220817
 30
0.0
 40
15.20251736111111
  1
出力形式
 41
0.7
 11
-509.4666666665391
 21
556.2285645831927
 31
0.0
100
AcDbText
 73
     3
  0
TEXT
  5
E6
330
3F1
100
AcDbEntity
  8
SPEC
 62
     7
100
AcDbText
 10
-509.4666666665391
 20
481.0260472220965
 30
0.0
 40
15.20251736111111
  1
最大出力
 41
0.7
 11
-509.4666666665391
 21
496.2285645832077
 31
0.0
100
AcDbText
 73
     3
  0
TEXT
  5
E7
330
3F1
100
AcDbEntity
  8
SPEC
 62
     7
100
AcDbText
 10
-509.4666666665391
 20
451.026047222104
 30
0.0
 40
15.20251736111111
  1
電源
 41
0.7
 11
-509.4666666665391
 21
466.2285645832151
 31
0.0
100
AcDbText
 73
     3
  0
TEXT
  5
E8
330
3F1
100
AcDbEntity
  8
SPEC
 62
     7
100
AcDbText
 10
-509.4666666665391
 20
391.0260472221191
 30
0.0
 40
15.20251736111111
  1
質量
 41
0.7
 11
-509.4666666665391
 21
406.2285645832302
 31
0.0
100
AcDbText
 73
     3
  0
TEXT
  5
E9
330
3F1
100
AcDbEntity
  8
SPEC
 62
     7
100
AcDbText
 10
-242.7999999999392
 20
571.0260472220742
 30
0.0
 40
15.20251736111111
  1
2
 41
0.7
 11
-242.7999999999392
 21
586.2285645831852
 31
0.0
100
AcDbText
 73
     3
  0
TEXT
  5
EA
330
3F1
100
AcDbEntity
  8
SPEC
 62
     7
100
AcDbText
 10
-242.7999999999392
 20
541.0260472220817
 30
0.0
 40
15.20251736111111
  1
XLR(バランス)、標準フォーン(アンバランス)
 41
0.7
 11
-242.7999999999392
 21
556.2285645831927
 31
0.0
100
AcDbText
 73
     3
  0
TEXT
  5
EB
330
3F1
100
AcDbEntity
  8
SPEC
 62
     7
100
AcDbText
 10
-242.7999999999392
 20
481.0260472220965
 30
0.0
 40
15.20251736111111
  1
+15dBu(XLR), +9dBu(TRS)
 41
0.7
 11
-242.7999999999392
 21
496.2285645832077
 31
0.0
100
AcDbText
 73
     3
  0
TEXT
  5
EC
330
3F1
100
AcDbEntity
  8
SPEC
 62
     7
100
AcDbText
 10
-242.7999999999392
 20
451.026047222104
 30
0.0
 40
15.20251736111111
  1
DC9V(1300mA)、電源アダプター(AC100V、50/60Hz)
 41
0.7
 11
-242.7999999999392
 21
466.2285645832151
 31
0.0
100
AcDbText
 73
     3
  0
TEXT
  5
ED
330
3F1
100
AcDbEntity
  8
SPEC
 62
     7
100
AcDbText
 10
-242.7999999999392
 20
421.0260472221115
 30
0.0
 40
15.20251736111111
  1
200×44×141mm(除突起部)
 41
0.7
 11
-242.7999999999392
 21
436.2285645832226
 31
0.0
100
AcDbText
 73
     3
  0
TEXT
  5
EE
330
3F1
100
AcDbEntity
  8
SPEC
 62
     7
100
AcDbText
 10
-242.7999999999392
 20
391.0260472221191
 30
0.0
 40
15.20251736111111
  1
404g
 41
0.7
 11
-242.7999999999392
 21
406.2285645832302
 31
0.0
100
AcDbText
 73
     3
  0
TEXT
  5
EF
330
3F1
100
AcDbEntity
  8
SPEC
 62
     7
100
AcDbText
 10
-509.4666666665391
 20
421.0260472221115
 30
0.0
 40
15.20251736111111
  1
寸法(W×H×D)
 41
0.7
 11
-509.4666666665391
 21
436.2285645832226
 31
0.0
100
AcDbText
 73
     3
  0
LINE
  5
F0
330
3F1
100
AcDbEntity
  8
SPEC
  6
Continuous
 62
     7
100
AcDbLine
 10
-659.9999999998346
 20
384.7227049999028
 30
0.0
 11
679.99999999983
 21
384.7227049999028
 31
0.0
  0
LINE
  5
F1
330
3F1
100
AcDbEntity
  8
SPEC
  6
Continuous
 62
     7
100
AcDbLine
 10
-516.6666666665374
 20
324.7227049999178
 30
0.0
 11
679.99999999983
 21
324.7227049999178
 31
0.0
  0
LINE
  5
F2
330
3F1
100
AcDbEntity
  8
SPEC
  6
Continuous
 62
     7
100
AcDbLine
 10
-516.6666666665374
 20
294.7227049999253
 30
0.0
 11
679.99999999983
 21
294.7227049999253
 31
0.0
  0
LINE
  5
F3
330
3F1
100
AcDbEntity
  8
SPEC
  6
Continuous
 62
     7
100
AcDbLine
 10
-516.6666666665374
 20
264.7227049999329
 30
0.0
 11
679.99999999983
 21
264.7227049999329
 31
0.0
  0
LINE
  5
F4
330
3F1
100
AcDbEntity
  8
SPEC
  6
Continuous
 62
     7
100
AcDbLine
 10
-516.6666666665374
 20
234.7227049999404
 30
0.0
 11
679.99999999983
 21
234.7227049999404
 31
0.0
  0
TEXT
  5
F5
330
3F1
100
AcDbEntity
  8
SPEC
 62
     7
100
AcDbText
 10
-509.4666666665392
 20
361.0260472221266
 30
0.0
 40
15.20251736111111
  1
形式
 41
0.7
 11
-509.4666666665392
 21
376.2285645832377
 31
0.0
100
AcDbText
 73
     3
  0
TEXT
  5
F6
330
3F1
100
AcDbEntity
  8
SPEC
 62
     7
100
AcDbText
 10
-509.4666666665392
 20
301.0260472221415
 30
0.0
 40
15.20251736111111
  1
電源
 41
0.7
 11
-509.4666666665392
 21
316.2285645832526
 31
0.0
100
AcDbText
 73
     3
  0
TEXT
  5
F7
330
3F1
100
AcDbEntity
  8
SPEC
 62
     7
100
AcDbText
 10
-509.4666666665392
 20
271.026047222149
 30
0.0
 40
15.20251736111111
  1
電池寿命
 41
0.7
 11
-509.4666666665392
 21
286.2285645832601
 31
0.0
100
AcDbText
 73
     3
  0
TEXT
  5
F8
330
3F1
100
AcDbEntity
  8
SPEC
 62
     7
100
AcDbText
 10
-509.4666666665392
 20
211.0260472221641
 30
0.0
 40
15.20251736111111
  1
質量
 41
0.7
 11
-509.4666666665392
 21
226.2285645832752
 31
0.0
100
AcDbText
 73
     3
  0
TEXT
  5
F9
330
3F1
100
AcDbEntity
  8
SPEC
 62
     7
100
AcDbText
 10
-242.7999999999392
 20
361.0260472221266
 30
0.0
 40
15.20251736111111
  1
ハンドヘルド
 41
0.7
 11
-242.7999999999392
 21
376.2285645832377
 31
0.0
100
AcDbText
 73
     3
  0
TEXT
  5
FA
330
3F1
100
AcDbEntity
  8
SPEC
 62
     7
100
AcDbText
 10
-242.7999999999392
 20
301.0260472221415
 30
0.0
 40
15.20251736111111
  1
単3形アルカリ乾電池×2
 41
0.7
 11
-242.7999999999392
 21
316.2285645832526
 31
0.0
100
AcDbText
 73
     3
  0
TEXT
  5
FB
330
3F1
100
AcDbEntity
  8
SPEC
 62
     7
100
AcDbText
 10
-242.7999999999392
 20
271.026047222149
 30
0.0
 40
15.20251736111111
  1
約12時間 ※使用環境により異なる
 41
0.7
 11
-242.7999999999392
 21
286.2285645832601
 31
0.0
100
AcDbText
 73
     3
  0
TEXT
  5
FC
330
3F1
100
AcDbEntity
  8
SPEC
 62
     7
100
AcDbText
 10
-242.7999999999392
 20
241.0260472221565
 30
0.0
 40
15.20251736111111
  1
51×250mm(除突起部)
 41
0.7
 11
-242.7999999999392
 21
256.2285645832677
 31
0.0
100
AcDbText
 73
     3
  0
TEXT
  5
FD
330
3F1
100
AcDbEntity
  8
SPEC
 62
     7
100
AcDbText
 10
-242.7999999999392
 20
211.0260472221642
 30
0.0
 40
15.20251736111111
  1
252g
 41
0.7
 11
-242.7999999999392
 21
226.2285645832753
 31
0.0
100
AcDbText
 73
     3
  0
LINE
  5
FE
330
3F1
100
AcDbEntity
  8
SPEC
  6
Continuous
 62
     7
100
AcDbLine
 10
-659.9999999998346
 20
204.7227049999479
 30
0.0
 11
679.99999999983
 21
204.7227049999479
 31
0.0
  0
LINE
  5
FF
330
3F1
100
AcDbEntity
  8
SPEC
  6
Continuous
 62
     7
100
AcDbLine
 10
-516.6666666665374
 20
174.7227049999553
 30
0.0
 11
679.99999999983
 21
174.7227049999553
 31
0.0
  0
LINE
  5
100
330
3F1
100
AcDbEntity
  8
SPEC
  6
Continuous
 62
     7
100
AcDbLine
 10
-659.9999999998346
 20
144.7227049999627
 30
0.0
 11
679.99999999983
 21
144.7227049999627
 31
0.0
  0
TEXT
  5
101
330
3F1
100
AcDbEntity
  8
SPEC
 62
     7
100
AcDbText
 10
-652.7999999998367
 20
121.0260472221867
 30
0.0
 40
15.20251736111111
  1
セット内容
 41
0.7
 11
-652.7999999998367
 21
136.2285645832978
 31
0.0
100
AcDbText
 73
     3
  0
TEXT
  5
102
330
3F1
100
AcDbEntity
  8
SPEC
 62
     7
100
AcDbText
 10
-509.4666666665391
 20
241.0260472221565
 30
0.0
 40
15.20251736111111
  1
寸法(φ×D)
 41
0.7
 11
-509.4666666665391
 21
256.2285645832677
 31
0.0
100
AcDbText
 73
     3
  0
TEXT
  5
103
330
3F1
100
AcDbEntity
  8
SPEC
 62
     7
100
AcDbText
 10
-509.4666666665392
 20
181.0260472221716
 30
0.0
 40
15.20251736111111
  1
形式
 41
0.7
 11
-509.4666666665392
 21
196.2285645832827
 31
0.0
100
AcDbText
 73
     3
  0
TEXT
  5
104
330
3F1
100
AcDbEntity
  8
SPEC
 62
     7
100
AcDbText
 10
-509.4666666665392
 20
151.0260472221791
 30
0.0
 40
15.20251736111111
  1
指向特性
 41
0.7
 11
-509.4666666665392
 21
166.2285645832902
 31
0.0
100
AcDbText
 73
     3
  0
TEXT
  5
105
330
3F1
100
AcDbEntity
  8
SPEC
 62
     7
100
AcDbText
 10
-242.7999999999392
 20
181.0260472221716
 30
0.0
 40
15.20251736111111
  1
ダイナミック型 
 41
0.7
 11
-242.7999999999392
 21
196.2285645832827
 31
0.0
100
AcDbText
 73
     3
  0
TEXT
  5
106
330
3F1
100
AcDbEntity
  8
SPEC
 62
     7
100
AcDbText
 10
-242.7999999999392
 20
151.0260472221791
 30
0.0
 40
15.20251736111111
  1
スーパーカーディオイド
 41
0.7
 11
-242.7999999999392
 21
166.2285645832902
 31
0.0
100
AcDbText
 73
     3
  0
TEXT
  5
107
330
3F1
100
AcDbEntity
  8
SPEC
 62
     7
100
AcDbText
 10
-242.7999999999392
 20
121.0260472221892
 30
0.0
 40
15.20251736111111
  1
受信機、ハンドヘルド型送信機、マイクホルダー、単3形アルカリ乾電池×2、電源アダプター、
 41
0.7
 11
-242.7999999999392
 21
136.2285645833003
 31
0.0
100
AcDbText
 73
     3
  0
LINE
  5
108
330
3F1
100
AcDbEntity
  8
SPEC
  6
Continuous
 62
     7
100
AcDbLine
 10
-659.9999999998346
 20
84.72270499997781
 30
0.0
 11
679.99999999983
 21
84.72270499997781
 31
0.0
  0
TEXT
  5
109
330
3F1
100
AcDbEntity
  8
SPEC
 62
     7
100
AcDbText
 10
-242.7999999999392
 20
91.02604722219675
 30
0.0
 40
15.20251736111111
  1
シンクケーブル、和文取扱説明書
 41
0.7
 11
-242.7999999999392
 21
106.2285645833078
 31
0.0
100
AcDbText
 73
     3
  0
LINE
  5
10A
330
3F1
100
AcDbEntity
  8
SPEC
  6
Continuous
 62
     7
100
AcDbLine
 10
-516.6666666665373
 20
534.7227049998655
 30
0.0
 11
679.99999999983
 21
534.7227049998655
 31
0.0
  0
TEXT
  5
10B
330
3F1
100
AcDbEntity
  8
SPEC
 62
     7
100
AcDbText
 10
-242.7999999999392
 20
511.0260472220916
 30
0.0
 40
15.20251736111111
  1
IN×1、OUT×1
 41
0.7
 11
-242.7999999999392
 21
526.2285645832028
 31
0.0
100
AcDbText
 73
     3
  0
LINE
  5
10C
330
3F1
100
AcDbEntity
  8
SPEC
  6
Continuous
 62
     7
100
AcDbLine
 10
-516.6666666661772
 20
354.7902592867882
 30
0.0
 11
685.7142856801886
 21
354.7902592867882
 31
0.0
  0
TEXT
  5
10D
330
3F1
100
AcDbEntity
  8
SPEC
 62
     7
100
AcDbText
 10
-509.4666666665392
 20
331.0936015093474
 30
0.0
 40
15.20251736111111
  1
アンテナ形式
 41
0.7
 11
-509.4666666665392
 21
346.2961188704586
 31
0.0
100
AcDbText
 73
     3
  0
TEXT
  5
10E
330
3F1
100
AcDbEntity
  8
SPEC
 62
     7
100
AcDbText
 10
-242.7999999999392
 20
331.0936015093474
 30
0.0
 40
15.20251736111111
  1
内蔵式アンテナ
 41
0.7
 11
-242.7999999999392
 21
346.2961188704586
 31
0.0
100
AcDbText
 73
     3
  0
TEXT
  5
10F
330
3F1
100
AcDbEntity
  8
SPEC
 62
     7
100
AcDbText
 10
-509.4666666665391
 20
511.0260472220917
 30
0.0
 40
15.20251736111111
  1
RJ-12(6極6芯)シンク端子
 41
0.7
 11
-509.4666666665391
 21
526.2285645832029
 31
0.0
100
AcDbText
 73
     3
  0
TEXT
  5
110
330
3F1
100
AcDbEntity
  8
DIMNSIONS
 62
     7
100
AcDbText
 10
-159.9999999999599
 20
-917.1213749997711
 30
0.0
 40
19.54609374999512
  1
(単位：mm)
 41
0.7
 11
-159.9999999999599
 21
-897.5752812497759
 31
0.0
100
AcDbText
 73
     3
  0
LINE
  5
111
330
3F1
100
AcDbEntity
  8
DIMNSIONS
  6
Continuous
 62
     7
100
AcDbLine
 10
-400.0
 20
-508.1
 30
0.0
 11
-400.0
 21
-545.5
 31
0.0
  0
LINE
  5
112
330
3F1
100
AcDbEntity
  8
DIMNSIONS
  6
Continuous
 62
     7
100
AcDbLine
 10
-200.0
 20
-508.1
 30
0.0
 11
-200.0
 21
-545.5
 31
0.0
  0
LINE
  5
113
330
3F1
100
AcDbEntity
  8
DIMNSIONS
  6
Continuous
 62
     7
100
AcDbLine
 10
-400.0
 20
-537.5
 30
0.0
 11
-200.0
 21
-537.5
 31
0.0
  0
LINE
  5
114
330
3F1
100
AcDbEntity
  8
DIMNSIONS
  6
Continuous
 62
     7
100
AcDbLine
 10
-400.0
 20
-537.5
 30
0.0
 11
-384.0009765625
 21
-533.2130745902352
 31
0.0
  0
LINE
  5
115
330
3F1
100
AcDbEntity
  8
DIMNSIONS
  6
Continuous
 62
     7
100
AcDbLine
 10
-400.0
 20
-537.5
 30
0.0
 11
-384.0009765625
 21
-541.7869254097647
 31
0.0
  0
LINE
  5
116
330
3F1
100
AcDbEntity
  8
DIMNSIONS
  6
Continuous
 62
     7
100
AcDbLine
 10
-200.0
 20
-537.5
 30
0.0
 11
-215.9990234375
 21
-541.7869254097647
 31
0.0
  0
LINE
  5
117
330
3F1
100
AcDbEntity
  8
DIMNSIONS
  6
Continuous
 62
     7
100
AcDbLine
 10
-200.0
 20
-537.5
 30
0.0
 11
-215.9990234375
 21
-533.2130745902352
 31
0.0
  0
TEXT
  5
118
330
3F1
100
AcDbEntity
  8
DIMNSIONS
 62
     7
100
AcDbText
 10
-321.1666666666667
 20
-529.5488888888887
 30
0.0
 40
21.71788194444445
  1
200
 41
0.7
 11
-321.1666666666667
 21
-507.8310069444444
 31
0.0
100
AcDbText
 73
     3
  0
LINE
  5
119
330
3F1
100
AcDbEntity
  8
DIMNSIONS
  6
Continuous
 62
     7
100
AcDbLine
 10
-399.9500000000001
 20
-500.0
 30
0.0
 11
-433.0
 21
-500.0
 31
0.0
  0
LINE
  5
11A
330
3F1
100
AcDbEntity
  8
DIMNSIONS
  6
Continuous
 62
     7
100
AcDbLine
 10
-409.6
 20
-456.0
 30
0.0
 11
-433.0
 21
-456.0
 31
0.0
  0
LINE
  5
11B
330
3F1
100
AcDbEntity
  8
DIMNSIONS
  6
Continuous
 62
     7
100
AcDbLine
 10
-425.0
 20
-500.0
 30
0.0
 11
-425.0
 21
-456.0
 31
0.0
  0
LINE
  5
11C
330
3F1
100
AcDbEntity
  8
DIMNSIONS
  6
Continuous
 62
     7
100
AcDbLine
 10
-425.0
 20
-500.0
 30
0.0
 11
-429.2869254097647
 21
-484.0009765625
 31
0.0
  0
LINE
  5
11D
330
3F1
100
AcDbEntity
  8
DIMNSIONS
  6
Continuous
 62
     7
100
AcDbLine
 10
-425.0
 20
-500.0
 30
0.0
 11
-420.7130745902352
 21
-484.0009765625
 31
0.0
  0
LINE
  5
11E
330
3F1
100
AcDbEntity
  8
DIMNSIONS
  6
Continuous
 62
     7
100
AcDbLine
 10
-425.0
 20
-456.0
 30
0.0
 11
-420.7130745902352
 21
-471.9990234375
 31
0.0
  0
LINE
  5
11F
330
3F1
100
AcDbEntity
  8
DIMNSIONS
  6
Continuous
 62
     7
100
AcDbLine
 10
-425.0
 20
-456.0
 30
0.0
 11
-429.2869254097647
 21
-471.9990234375
 31
0.0
  0
TEXT
  5
120
330
3F1
100
AcDbEntity
  8
DIMNSIONS
 62
     7
100
AcDbText
 10
-436.9511111111111
 20
-506.2222222222222
 30
0.0
 40
21.71788194444445
  1
44.0
 50
90.0
 41
0.7
 11
-458.6689930555556
 21
-506.2222222222222
 31
0.0
100
AcDbText
 73
     3
  0
LINE
  5
121
330
3F1
100
AcDbEntity
  8
DIMNSIONS
  6
Continuous
 62
     7
100
AcDbLine
 10
-409.6
 20
-189.8250000000015
 30
0.0
 11
-433.0
 21
-189.8250000000015
 31
0.0
  0
LINE
  5
122
330
3F1
100
AcDbEntity
  8
DIMNSIONS
  6
Continuous
 62
     7
100
AcDbLine
 10
-386.6
 20
-176.8250000000015
 30
0.0
 11
-433.0
 21
-176.8250000000015
 31
0.0
  0
LINE
  5
123
330
3F1
100
AcDbEntity
  8
DIMNSIONS
  6
Continuous
 62
     7
100
AcDbLine
 10
-425.0
 20
-176.8250000000015
 30
0.0
 11
-425.0
 21
-189.8250000000015
 31
0.0
  0
LINE
  5
124
330
3F1
100
AcDbEntity
  8
DIMNSIONS
  6
Continuous
 62
     7
100
AcDbLine
 10
-425.0
 20
-189.8250000000015
 30
0.0
 11
-425.0
 21
-217.8250000000015
 31
0.0
  0
LINE
  5
125
330
3F1
100
AcDbEntity
  8
DIMNSIONS
  6
Continuous
 62
     7
100
AcDbLine
 10
-425.0
 20
-189.8250000000015
 30
0.0
 11
-420.7130745902352
 21
-205.8240234375015
 31
0.0
  0
LINE
  5
126
330
3F1
100
AcDbEntity
  8
DIMNSIONS
  6
Continuous
 62
     7
100
AcDbLine
 10
-425.0
 20
-189.8250000000015
 30
0.0
 11
-429.2869254097647
 21
-205.8240234375015
 31
0.0
  0
LINE
  5
127
330
3F1
100
AcDbEntity
  8
DIMNSIONS
  6
Continuous
 62
     7
100
AcDbLine
 10
-425.0
 20
-176.8250000000015
 30
0.0
 11
-425.0
 21
-148.8250000000015
 31
0.0
  0
LINE
  5
128
330
3F1
100
AcDbEntity
  8
DIMNSIONS
  6
Continuous
 62
     7
100
AcDbLine
 10
-425.0
 20
-176.8250000000015
 30
0.0
 11
-429.2869254097647
 21
-160.8259765625015
 31
0.0
  0
LINE
  5
129
330
3F1
100
AcDbEntity
  8
DIMNSIONS
  6
Continuous
 62
     7
100
AcDbLine
 10
-425.0
 20
-176.8250000000015
 30
0.0
 11
-420.7130745902352
 21
-160.8259765625015
 31
0.0
  0
TEXT
  5
12A
330
3F1
100
AcDbEntity
  8
DIMNSIONS
 62
     7
100
AcDbText
 10
-436.9511111111111
 20
-211.5472222222237
 30
0.0
 40
21.71788194444445
  1
13.0
 50
90.0
 41
0.7
 11
-458.6689930555556
 21
-211.5472222222237
 31
0.0
100
AcDbText
 73
     3
  0
LINE
  5
12B
330
3F1
100
AcDbEntity
  8
DIMNSIONS
  6
Continuous
 62
     7
100
AcDbLine
 10
-309.6
 20
-330.3250000000001
 30
0.0
 11
-433.0
 21
-330.3250000000001
 31
0.0
  0
LINE
  5
12C
330
3F1
100
AcDbEntity
  8
DIMNSIONS
  6
Continuous
 62
     7
100
AcDbLine
 10
-391.6
 20
-362.5
 30
0.0
 11
-433.0
 21
-362.5
 31
0.0
  0
LINE
  5
12D
330
3F1
100
AcDbEntity
  8
DIMNSIONS
  6
Continuous
 62
     7
100
AcDbLine
 10
-425.0
 20
-362.5
 30
0.0
 11
-425.0
 21
-330.3250000000001
 31
0.0
  0
LINE
  5
12E
330
3F1
100
AcDbEntity
  8
DIMNSIONS
  6
Continuous
 62
     7
100
AcDbLine
 10
-425.0
 20
-330.3250000000001
 30
0.0
 11
-425.0
 21
-302.3250000000001
 31
0.0
  0
LINE
  5
12F
330
3F1
100
AcDbEntity
  8
DIMNSIONS
  6
Continuous
 62
     7
100
AcDbLine
 10
-425.0
 20
-330.3250000000001
 30
0.0
 11
-429.2869254097647
 21
-314.3259765625001
 31
0.0
  0
LINE
  5
130
330
3F1
100
AcDbEntity
  8
DIMNSIONS
  6
Continuous
 62
     7
100
AcDbLine
 10
-425.0
 20
-330.3250000000001
 30
0.0
 11
-420.7130745902352
 21
-314.3259765625001
 31
0.0
  0
LINE
  5
131
330
3F1
100
AcDbEntity
  8
DIMNSIONS
  6
Continuous
 62
     7
100
AcDbLine
 10
-425.0
 20
-362.5
 30
0.0
 11
-425.0
 21
-390.5
 31
0.0
  0
LINE
  5
132
330
3F1
100
AcDbEntity
  8
DIMNSIONS
  6
Continuous
 62
     7
100
AcDbLine
 10
-425.0
 20
-362.5
 30
0.0
 11
-420.7130745902352
 21
-378.4990234375
 31
0.0
  0
LINE
  5
133
330
3F1
100
AcDbEntity
  8
DIMNSIONS
  6
Continuous
 62
     7
100
AcDbLine
 10
-425.0
 20
-362.5
 30
0.0
 11
-429.2869254097647
 21
-378.4990234375
 31
0.0
  0
TEXT
  5
134
330
3F1
100
AcDbEntity
  8
DIMNSIONS
 62
     7
100
AcDbText
 10
-432.951111111111
 20
-360.5236111111111
 30
0.0
 40
21.71788194444445
  1
32
 50
90.0
 41
0.7
 11
-454.6689930555555
 21
-360.5236111111111
 31
0.0
100
AcDbText
 73
     3
  0
LINE
  5
135
330
3F1
100
AcDbEntity
  8
DIMNSIONS
  6
Continuous
 62
     7
100
AcDbLine
 10
-309.6
 20
-330.3250000000001
 30
0.0
 11
-433.0
 21
-330.3250000000001
 31
0.0
  0
LINE
  5
136
330
3F1
100
AcDbEntity
  8
DIMNSIONS
  6
Continuous
 62
     7
100
AcDbLine
 10
-409.6
 20
-189.8250000000015
 30
0.0
 11
-433.0
 21
-189.8250000000015
 31
0.0
  0
LINE
  5
137
330
3F1
100
AcDbEntity
  8
DIMNSIONS
  6
Continuous
 62
     7
100
AcDbLine
 10
-425.0
 20
-330.3250000000001
 30
0.0
 11
-425.0
 21
-189.8250000000015
 31
0.0
  0
LINE
  5
138
330
3F1
100
AcDbEntity
  8
DIMNSIONS
  6
Continuous
 62
     7
100
AcDbLine
 10
-425.0
 20
-330.3250000000001
 30
0.0
 11
-429.2869254097647
 21
-314.3259765625001
 31
0.0
  0
LINE
  5
139
330
3F1
100
AcDbEntity
  8
DIMNSIONS
  6
Continuous
 62
     7
100
AcDbLine
 10
-425.0
 20
-330.3250000000001
 30
0.0
 11
-420.7130745902352
 21
-314.3259765625001
 31
0.0
  0
LINE
  5
13A
330
3F1
100
AcDbEntity
  8
DIMNSIONS
  6
Continuous
 62
     7
100
AcDbLine
 10
-425.0
 20
-189.8250000000015
 30
0.0
 11
-420.7130745902352
 21
-205.8240234375015
 31
0.0
  0
LINE
  5
13B
330
3F1
100
AcDbEntity
  8
DIMNSIONS
  6
Continuous
 62
     7
100
AcDbLine
 10
-425.0
 20
-189.8250000000015
 30
0.0
 11
-429.2869254097647
 21
-205.8240234375015
 31
0.0
  0
TEXT
  5
13C
330
3F1
100
AcDbEntity
  8
DIMNSIONS
 62
     7
100
AcDbText
 10
-432.9511111111111
 20
-281.2416666666674
 30
0.0
 40
21.71788194444445
  1
141
 50
90.0
 41
0.7
 11
-454.6689930555556
 21
-281.2416666666674
 31
0.0
100
AcDbText
 73
     3
  0
LINE
  5
13D
330
3F1
100
AcDbEntity
  8
DIMNSIONS
  6
Continuous
 62
     7
100
AcDbLine
 10
-399.9500000000001
 20
-500.0
 30
0.0
 11
-420.5
 21
-500.0
 31
0.0
  0
LINE
  5
13E
330
3F1
100
AcDbEntity
  8
DIMNSIONS
  6
Continuous
 62
     7
100
AcDbLine
 10
-409.6
 20
-498.5
 30
0.0
 11
-420.5
 21
-498.5
 31
0.0
  0
LINE
  5
13F
330
3F1
100
AcDbEntity
  8
DIMNSIONS
  6
Continuous
 62
     7
100
AcDbLine
 10
-412.5
 20
-498.5
 30
0.0
 11
-412.5
 21
-500.0
 31
0.0
  0
LINE
  5
140
330
3F1
100
AcDbEntity
  8
DIMNSIONS
  6
Continuous
 62
     7
100
AcDbLine
 10
-412.5
 20
-500.0
 30
0.0
 11
-412.5
 21
-554.8333333333333
 31
0.0
  0
LINE
  5
141
330
3F1
100
AcDbEntity
  8
DIMNSIONS
  6
Continuous
 62
     7
100
AcDbLine
 10
-412.5
 20
-500.0
 30
0.0
 11
-408.2130745902352
 21
-515.9990234374999
 31
0.0
  0
LINE
  5
142
330
3F1
100
AcDbEntity
  8
DIMNSIONS
  6
Continuous
 62
     7
100
AcDbLine
 10
-412.5
 20
-500.0
 30
0.0
 11
-416.7869254097647
 21
-515.9990234374999
 31
0.0
  0
LINE
  5
143
330
3F1
100
AcDbEntity
  8
DIMNSIONS
  6
Continuous
 62
     7
100
AcDbLine
 10
-412.5
 20
-498.5
 30
0.0
 11
-412.5
 21
-470.5
 31
0.0
  0
LINE
  5
144
330
3F1
100
AcDbEntity
  8
DIMNSIONS
  6
Continuous
 62
     7
100
AcDbLine
 10
-412.5
 20
-498.5
 30
0.0
 11
-416.7869254097647
 21
-482.5009765625
 31
0.0
  0
LINE
  5
145
330
3F1
100
AcDbEntity
  8
DIMNSIONS
  6
Continuous
 62
     7
100
AcDbLine
 10
-412.5
 20
-498.5
 30
0.0
 11
-408.2130745902352
 21
-482.5009765625
 31
0.0
  0
TEXT
  5
146
330
3F1
100
AcDbEntity
  8
DIMNSIONS
 62
     7
100
AcDbText
 10
-420.4511111111111
 20
-554.8333333333332
 30
0.0
 40
21.71788194444445
  1
1.5
 50
90.0
 41
0.7
 11
-442.1689930555556
 21
-554.8333333333332
 31
0.0
100
AcDbText
 73
     3
  0
LINE
  5
147
330
3F1
100
AcDbEntity
  8
DIMNSIONS
  6
Continuous
 62
     7
100
AcDbLine
 10
-405.5661772832311
 20
-551.5841396777972
 30
0.0
 11
-412.5
 21
-575.0
 31
0.0
  0
LINE
  5
148
330
3F1
100
AcDbEntity
  8
DIMNSIONS
  6
Continuous
 62
     7
100
AcDbLine
 10
-405.5661772832311
 20
-551.5841396777972
 30
0.0
 11
-405.8552486094464
 21
-568.1450248652176
 31
0.0
  0
LINE
  5
149
330
3F1
100
AcDbEntity
  8
DIMNSIONS
  6
Continuous
 62
     7
100
AcDbLine
 10
-405.5661772832311
 20
-551.5841396777972
 30
0.0
 11
-414.0969629889494
 21
-565.7817512961533
 31
0.0
  0
LINE
  5
14A
330
3F1
100
AcDbEntity
  8
DIMNSIONS
  6
Continuous
 62
     7
100
AcDbLine
 10
-412.5
 20
-575.0
 30
0.0
 11
-428.5
 21
-575.0
 31
0.0
  0
TEXT
  5
14B
330
3F1
100
AcDbEntity
  8
DIMNSIONS
 62
     7
100
AcDbText
 10
-499.0555555555554
 20
-585.1600000000001
 30
0.0
 40
21.71788194444445
  1
φ166
 41
0.7
 11
-499.0555555555554
 21
-563.4421180555555
 31
0.0
100
AcDbText
 73
     3
  0
LINE
  5
14C
330
3F1
100
AcDbEntity
  8
DIMNSIONS
  6
Continuous
 62
     7
100
AcDbLine
 10
-195.1187649295984
 20
-551.7837645242003
 30
0.0
 11
-187.5
 21
-578.349364905389
 31
0.0
  0
LINE
  5
14D
330
3F1
100
AcDbEntity
  8
DIMNSIONS
  6
Continuous
 62
     7
100
AcDbLine
 10
-195.1187649295984
 20
-551.7837645242003
 30
0.0
 11
-186.3414960154608
 21
-565.8303310381736
 31
0.0
  0
LINE
  5
14E
330
3F1
100
AcDbEntity
  8
DIMNSIONS
  6
Continuous
 62
     7
100
AcDbLine
 10
-195.1187649295984
 20
-551.7837645242003
 30
0.0
 11
-194.5407103310944
 21
-568.3370824183176
 31
0.0
  0
LINE
  5
14F
330
3F1
100
AcDbEntity
  8
DIMNSIONS
  6
Continuous
 62
     7
100
AcDbLine
 10
-187.5
 20
-578.349364905389
 30
0.0
 11
-171.5
 21
-578.349364905389
 31
0.0
  0
TEXT
  5
150
330
3F1
100
AcDbEntity
  8
DIMNSIONS
 62
     7
100
AcDbText
 10
-171.5
 20
-588.509364905389
 30
0.0
 40
21.71788194444445
  1
φ166
 41
0.7
 11
-171.5
 21
-566.7914829609445
 31
0.0
100
AcDbText
 73
     3
  0
LINE
  5
151
330
3F1
100
AcDbEntity
  8
DIMNSIONS
  6
Continuous
 62
     7
100
AcDbLine
 10
-9.599999999999999
 20
-498.5
 30
0.0
 11
-58.0
 21
-498.5
 31
0.0
  0
LINE
  5
152
330
3F1
100
AcDbEntity
  8
DIMNSIONS
  6
Continuous
 62
     7
100
AcDbLine
 10
-36.89999999999996
 20
-472.0
 30
0.0
 11
-58.0
 21
-472.0
 31
0.0
  0
LINE
  5
153
330
3F1
100
AcDbEntity
  8
DIMNSIONS
  6
Continuous
 62
     7
100
AcDbLine
 10
-50.0
 20
-472.0
 30
0.0
 11
-50.0
 21
-498.5
 31
0.0
  0
LINE
  5
154
330
3F1
100
AcDbEntity
  8
DIMNSIONS
  6
Continuous
 62
     7
100
AcDbLine
 10
-50.0
 20
-498.5
 30
0.0
 11
-50.0
 21
-556.4444444444444
 31
0.0
  0
LINE
  5
155
330
3F1
100
AcDbEntity
  8
DIMNSIONS
  6
Continuous
 62
     7
100
AcDbLine
 10
-50.0
 20
-498.5
 30
0.0
 11
-45.71307459023527
 21
-514.4990234375
 31
0.0
  0
LINE
  5
156
330
3F1
100
AcDbEntity
  8
DIMNSIONS
  6
Continuous
 62
     7
100
AcDbLine
 10
-50.0
 20
-498.5
 30
0.0
 11
-54.28692540976474
 21
-514.4990234375
 31
0.0
  0
LINE
  5
157
330
3F1
100
AcDbEntity
  8
DIMNSIONS
  6
Continuous
 62
     7
100
AcDbLine
 10
-50.0
 20
-472.0
 30
0.0
 11
-50.0
 21
-444.0
 31
0.0
  0
LINE
  5
158
330
3F1
100
AcDbEntity
  8
DIMNSIONS
  6
Continuous
 62
     7
100
AcDbLine
 10
-50.0
 20
-472.0
 30
0.0
 11
-54.28692540976474
 21
-456.0009765624999
 31
0.0
  0
LINE
  5
159
330
3F1
100
AcDbEntity
  8
DIMNSIONS
  6
Continuous
 62
     7
100
AcDbLine
 10
-50.0
 20
-472.0
 30
0.0
 11
-45.71307459023527
 21
-456.0009765624999
 31
0.0
  0
TEXT
  5
15A
330
3F1
100
AcDbEntity
  8
DIMNSIONS
 62
     7
100
AcDbText
 10
-57.95111111111111
 20
-556.4444444444442
 30
0.0
 40
21.71788194444445
  1
26.5
 50
90.0
 41
0.7
 11
-79.66899305555556
 21
-556.4444444444442
 31
0.0
100
AcDbText
 73
     3
  0
LINE
  5
15B
330
3F1
100
AcDbEntity
  8
DIMNSIONS
  6
Continuous
 62
     7
100
AcDbLine
 10
-36.89999999999996
 20
-472.0
 30
0.0
 11
-58.0
 21
-472.0
 31
0.0
  0
LINE
  5
15C
330
3F1
100
AcDbEntity
  8
DIMNSIONS
  6
Continuous
 62
     7
100
AcDbLine
 10
-36.89999999999996
 20
-389.0
 30
0.0
 11
-58.0
 21
-389.0
 31
0.0
  0
LINE
  5
15D
330
3F1
100
AcDbEntity
  8
DIMNSIONS
  6
Continuous
 62
     7
100
AcDbLine
 10
-50.0
 20
-472.0
 30
0.0
 11
-50.0
 21
-389.0
 31
0.0
  0
LINE
  5
15E
330
3F1
100
AcDbEntity
  8
DIMNSIONS
  6
Continuous
 62
     7
100
AcDbLine
 10
-50.0
 20
-472.0
 30
0.0
 11
-54.28692540976474
 21
-456.0009765624999
 31
0.0
  0
LINE
  5
15F
330
3F1
100
AcDbEntity
  8
DIMNSIONS
  6
Continuous
 62
     7
100
AcDbLine
 10
-50.0
 20
-472.0
 30
0.0
 11
-45.71307459023527
 21
-456.0009765624999
 31
0.0
  0
LINE
  5
160
330
3F1
100
AcDbEntity
  8
DIMNSIONS
  6
Continuous
 62
     7
100
AcDbLine
 10
-50.0
 20
-389.0
 30
0.0
 11
-45.71307459023527
 21
-404.9990234375
 31
0.0
  0
LINE
  5
161
330
3F1
100
AcDbEntity
  8
DIMNSIONS
  6
Continuous
 62
     7
100
AcDbLine
 10
-50.0
 20
-389.0
 30
0.0
 11
-54.28692540976474
 21
-404.9990234375
 31
0.0
  0
TEXT
  5
162
330
3F1
100
AcDbEntity
  8
DIMNSIONS
 62
     7
100
AcDbText
 10
-57.95111111111111
 20
-458.7222222222222
 30
0.0
 40
21.71788194444445
  1
83.0
 50
90.0
 41
0.7
 11
-79.66899305555556
 21
-458.7222222222222
 31
0.0
100
AcDbText
 73
     3
  0
LINE
  5
163
330
3F1
100
AcDbEntity
  8
DIMNSIONS
  6
Continuous
 62
     7
100
AcDbLine
 10
371.217282505615
 20
-549.3551449962565
 30
0.0
 11
387.5
 21
-538.4999999999999
 31
0.0
  0
LINE
  5
164
330
3F1
100
AcDbEntity
  8
DIMNSIONS
  6
Continuous
 62
     7
100
AcDbLine
 10
371.217282505615
 20
-549.3551449962565
 30
0.0
 11
382.3003656601596
 21
-537.0461341419268
 31
0.0
  0
LINE
  5
165
330
3F1
100
AcDbEntity
  8
DIMNSIONS
  6
Continuous
 62
     7
100
AcDbLine
 10
371.217282505615
 20
-549.3551449962565
 30
0.0
 11
386.9700194968709
 21
-544.2367704782209
 31
0.0
  0
LINE
  5
166
330
3F1
100
AcDbEntity
  8
DIMNSIONS
  6
Continuous
 62
     7
100
AcDbLine
 10
387.5
 20
-538.4999999999999
 30
0.0
 11
403.5
 21
-538.4999999999999
 31
0.0
  0
TEXT
  5
167
330
3F1
100
AcDbEntity
  8
DIMNSIONS
 62
     7
100
AcDbText
 10
403.5
 20
-548.6600000000001
 30
0.0
 40
21.71788194444445
  1
φ51.0
 41
0.7
 11
403.5
 21
-526.9421180555556
 31
0.0
100
AcDbText
 73
     3
  0
LINE
  5
168
330
3F1
100
AcDbEntity
  8
DIMNSIONS
  6
Continuous
 62
     7
100
AcDbLine
 10
324.4
 20
-526.0
 30
0.0
 11
304.5
 21
-526.0
 31
0.0
  0
LINE
  5
169
330
3F1
100
AcDbEntity
  8
DIMNSIONS
  6
Continuous
 62
     7
100
AcDbLine
 10
318.5499999999999
 20
-339.5
 30
0.0
 11
304.5
 21
-339.5
 31
0.0
  0
LINE
  5
16A
330
3F1
100
AcDbEntity
  8
DIMNSIONS
  6
Continuous
 62
     7
100
AcDbLine
 10
312.5
 20
-526.0
 30
0.0
 11
312.5
 21
-339.5
 31
0.0
  0
LINE
  5
16B
330
3F1
100
AcDbEntity
  8
DIMNSIONS
  6
Continuous
 62
     7
100
AcDbLine
 10
312.5
 20
-526.0
 30
0.0
 11
308.2130745902353
 21
-510.0009765624999
 31
0.0
  0
LINE
  5
16C
330
3F1
100
AcDbEntity
  8
DIMNSIONS
  6
Continuous
 62
     7
100
AcDbLine
 10
312.5
 20
-526.0
 30
0.0
 11
316.7869254097648
 21
-510.0009765624999
 31
0.0
  0
LINE
  5
16D
330
3F1
100
AcDbEntity
  8
DIMNSIONS
  6
Continuous
 62
     7
100
AcDbLine
 10
312.5
 20
-339.5
 30
0.0
 11
316.7869254097648
 21
-355.4990234375
 31
0.0
  0
LINE
  5
16E
330
3F1
100
AcDbEntity
  8
DIMNSIONS
  6
Continuous
 62
     7
100
AcDbLine
 10
312.5
 20
-339.5
 30
0.0
 11
308.2130745902353
 21
-355.4990234375
 31
0.0
  0
TEXT
  5
16F
330
3F1
100
AcDbEntity
  8
DIMNSIONS
 62
     7
100
AcDbText
 10
304.5488888888889
 20
-453.9166666666665
 30
0.0
 40
21.71788194444445
  1
187
 50
90.0
 41
0.7
 11
282.8310069444444
 21
-453.9166666666665
 31
0.0
100
AcDbText
 73
     3
  0
LINE
  5
170
330
3F1
100
AcDbEntity
  8
DIMNSIONS
  6
Continuous
 62
     7
100
AcDbLine
 10
327.9
 20
-276.0
 30
0.0
 11
267.0
 21
-276.0
 31
0.0
  0
LINE
  5
171
330
3F1
100
AcDbEntity
  8
DIMNSIONS
  6
Continuous
 62
     7
100
AcDbLine
 10
324.4
 20
-526.0
 30
0.0
 11
267.0
 21
-526.0
 31
0.0
  0
LINE
  5
172
330
3F1
100
AcDbEntity
  8
DIMNSIONS
  6
Continuous
 62
     7
100
AcDbLine
 10
275.0
 20
-276.0
 30
0.0
 11
275.0
 21
-526.0
 31
0.0
  0
LINE
  5
173
330
3F1
100
AcDbEntity
  8
DIMNSIONS
  6
Continuous
 62
     7
100
AcDbLine
 10
275.0
 20
-276.0
 30
0.0
 11
279.2869254097647
 21
-291.9990234375
 31
0.0
  0
LINE
  5
174
330
3F1
100
AcDbEntity
  8
DIMNSIONS
  6
Continuous
 62
     7
100
AcDbLine
 10
275.0
 20
-276.0
 30
0.0
 11
270.7130745902353
 21
-291.9990234375
 31
0.0
  0
LINE
  5
175
330
3F1
100
AcDbEntity
  8
DIMNSIONS
  6
Continuous
 62
     7
100
AcDbLine
 10
275.0
 20
-526.0
 30
0.0
 11
270.7130745902353
 21
-510.0009765624999
 31
0.0
  0
LINE
  5
176
330
3F1
100
AcDbEntity
  8
DIMNSIONS
  6
Continuous
 62
     7
100
AcDbLine
 10
275.0
 20
-526.0
 30
0.0
 11
279.2869254097647
 21
-510.0009765624999
 31
0.0
  0
TEXT
  5
177
330
3F1
100
AcDbEntity
  8
DIMNSIONS
 62
     7
100
AcDbText
 10
267.0488888888889
 20
-422.1666666666665
 30
0.0
 40
21.71788194444445
  1
250
 50
90.0
 41
0.7
 11
245.3310069444444
 21
-422.1666666666665
 31
0.0
100
AcDbText
 73
     3
  0
TEXT
  5
178
330
3F1
100
AcDbEntity
  8
DATA
 62
     7
100
AcDbText
 10
-325.3375289351852
 20
-785.8589409722221
 30
0.0
 40
21.71788194444445
  1
受信機
 41
0.7
 72
     1
 11
-300.0
 21
-775.0
 31
0.0
100
AcDbText
 73
     2
  0
TEXT
  5
179
330
3F1
100
AcDbEntity
  8
DATA
 62
     7
100
AcDbText
 10
260.8118981481482
 20
-623.3589409722221
 30
0.0
 40
21.71788194444445
  1
ハンドヘルド型送信機
 41
0.7
 72
     1
 11
350.0
 21
-612.5
 31
0.0
100
AcDbText
 73
     2
  0
LINE
  5
17A
330
3F1
100
AcDbEntity
  8
DATA
  6
Continuous
 62
     7
100
AcDbLine
 10
-340.25
 20
-67.5
 30
0.0
 11
-340.25
 21
-70.5
 31
0.0
  0
TEXT
  5
17B
330
3F1
100
AcDbEntity
  8
DATA
 62
     7
100
AcDbText
 10
-699.9999999998246
 20
-952.2670727775404
 30
0.0
 40
15.20251736110731
  1
●仕様及び外観は予告なく変更されることがあります。
 41
0.7
 11
-699.9999999998246
 21
-937.064555416433
 31
0.0
100
AcDbText
 73
     3
  0
TEXT
  5
17C
330
3F1
100
AcDbEntity
  8
DATA
 62
     7
100
AcDbText
 10
-699.9999999998246
 20
-972.0226283330912
 30
0.0
 40
15.20251736110731
  1
　また、同一商品でも若干の個体差があることがあります。ご了承ください。
 41
0.7
 11
-699.9999999998246
 21
-956.8201109719838
 31
0.0
100
AcDbText
 73
     3
  0
TEXT
  5
17D
330
3F1
100
AcDbEntity
  8
DATA
 62
     7
100
AcDbText
 10
399.9999999998999
 20
-868.2301749997831
 30
0.0
 40
19.54609374999512
  1
AKG
 41
0.7
 11
399.9999999998999
 21
-848.6840812497881
 31
0.0
100
AcDbText
 73
     3
  0
LINE
  5
17E
330
3F1
100
AcDbEntity
  8
DATA
  6
Continuous
 62
     7
100
AcDbLine
 10
-400.0
 20
-324.8735253580792
 30
0.0
 11
-400.0
 21
-189.8250000000015
 31
0.0
  0
LINE
  5
17F
330
3F1
100
AcDbEntity
  8
DATA
  6
Continuous
 62
     7
100
AcDbLine
 10
-200.0
 20
-189.8250000000015
 30
0.0
 11
-200.0
 21
-324.8735253580792
 31
0.0
  0
LINE
  5
180
330
3F1
100
AcDbEntity
  8
DATA
  6
Continuous
 62
     7
100
AcDbLine
 10
-400.0
 20
-189.8250000000015
 30
0.0
 11
-200.0
 21
-189.8250000000015
 31
0.0
  0
LINE
  5
181
330
3F1
100
AcDbEntity
  8
DATA
  6
Continuous
 62
     7
100
AcDbLine
 10
-268.0
 20
-343.8250000000015
 30
0.0
 11
-242.0
 21
-343.8250000000015
 31
0.0
  0
LINE
  5
182
330
3F1
100
AcDbEntity
  8
DATA
  6
Continuous
 62
     7
100
AcDbLine
 10
-268.25
 20
-332.3250000000015
 30
0.0
 11
-241.75
 21
-332.3250000000015
 31
0.0
  0
LINE
  5
183
330
3F1
100
AcDbEntity
  8
DATA
  6
Continuous
 62
     7
100
AcDbLine
 10
-268.25
 20
-332.3250000000015
 30
0.0
 11
-268.0
 21
-343.8250000000015
 31
0.0
  0
LINE
  5
184
330
3F1
100
AcDbEntity
  8
DATA
  6
Continuous
 62
     7
100
AcDbLine
 10
-242.0
 20
-343.8250000000015
 30
0.0
 11
-241.75
 21
-332.3250000000015
 31
0.0
  0
LINE
  5
185
330
3F1
100
AcDbEntity
  8
DATA
  6
Continuous
 62
     7
100
AcDbLine
 10
-257.5
 20
-332.3250000000015
 30
0.0
 11
-257.5
 21
-330.2346893499664
 31
0.0
  0
LINE
  5
186
330
3F1
100
AcDbEntity
  8
DATA
  6
Continuous
 62
     7
100
AcDbLine
 10
-252.5
 20
-332.3250000000015
 30
0.0
 11
-252.5
 21
-330.2121896839501
 31
0.0
  0
LINE
  5
187
330
3F1
100
AcDbEntity
  8
DATA
  6
Continuous
 62
     7
100
AcDbLine
 10
-377.0
 20
-176.8250000000015
 30
0.0
 11
-368.0
 21
-176.8250000000015
 31
0.0
  0
LINE
  5
188
330
3F1
100
AcDbEntity
  8
DATA
  6
Continuous
 62
     7
100
AcDbLine
 10
-400.0
 20
-498.5
 30
0.0
 11
-400.0
 21
-456.0
 31
0.0
  0
LINE
  5
189
330
3F1
100
AcDbEntity
  8
DATA
  6
Continuous
 62
     7
100
AcDbLine
 10
-200.0
 20
-498.5
 30
0.0
 11
-400.0
 21
-498.5
 31
0.0
  0
LINE
  5
18A
330
3F1
100
AcDbEntity
  8
DATA
  6
Continuous
 62
     7
100
AcDbLine
 10
-200.0
 20
-456.0
 30
0.0
 11
-200.0
 21
-498.5
 31
0.0
  0
LINE
  5
18B
330
3F1
100
AcDbEntity
  8
DATA
  6
Continuous
 62
     7
100
AcDbLine
 10
-400.0
 20
-456.0
 30
0.0
 11
-386.6265625
 21
-456.0
 31
0.0
  0
LINE
  5
18C
330
3F1
100
AcDbEntity
  8
DATA
  6
Continuous
 62
     7
100
AcDbLine
 10
-377.3734374999999
 20
-456.0
 30
0.0
 11
-200.0
 21
-456.0
 31
0.0
  0
LWPOLYLINE
  5
18D
330
3F1
100
AcDbEntity
  8
DATA
  6
Continuous
 62
     7
100
AcDbPolyline
 90
        4
 70
     1
 43
0.0
 10
0.0
 20
-456.0
 10
140.5
 20
-456.0
 10
140.5
 20
-498.5
 10
0.0
 20
-498.5
  0
ARC
  5
194
330
3F1
100
AcDbEntity
  8
DATA
  6
Continuous
 62
     7
100
AcDbCircle
 10
-394.9999999999993
 20
-324.8735253580792
 30
0.0
 40
5.000000000000681
100
AcDbArc
 50
180.0
 51
269.4554232252049
  0
ARC
  5
195
330
3F1
100
AcDbEntity
  8
DATA
  6
Continuous
 62
     7
100
AcDbCircle
 10
-205.0000000000006
 20
-324.8735253580792
 30
0.0
 40
5.000000000000579
100
AcDbArc
 50
270.5445767747937
 51
0.0
  0
LINE
  5
196
330
3F1
100
AcDbEntity
  8
DATA
  6
Continuous
 62
     7
100
AcDbLine
 10
-369.75
 20
-498.5
 30
0.0
 11
-369.75
 21
-456.0
 31
0.0
  0
LINE
  5
197
330
3F1
100
AcDbEntity
  8
DATA
  6
Continuous
 62
     7
100
AcDbLine
 10
-230.25
 20
-456.0
 30
0.0
 11
-230.25
 21
-498.5
 31
0.0
  0
CIRCLE
  5
198
330
3F1
100
AcDbEntity
  8
DATA
  6
Continuous
 62
     7
100
AcDbCircle
 10
-255.0
 20
-477.2499999999999
 30
0.0
 40
13.25
  0
CIRCLE
  5
199
330
3F1
100
AcDbEntity
  8
DATA
  6
Continuous
 62
     7
100
AcDbCircle
 10
-255.0
 20
-477.2499999999999
 30
0.0
 40
13.0
  0
TEXT
  5
19A
330
3F1
100
AcDbEntity
  8
DATA
 62
     7
100
AcDbText
 10
-218.4543266849019
 20
-495.0523126477023
 30
0.0
 40
4.072102864583333
  1
DMS300
 41
0.7
 11
-218.4543266849019
 21
-490.980209783119
 31
0.0
100
AcDbText
 73
     3
  0
LINE
  5
19B
330
3F1
100
AcDbEntity
  8
DATA
  6
Continuous
 62
     7
100
AcDbLine
 10
-390.35
 20
-500.0
 30
0.0
 11
-379.35
 21
-500.0
 31
0.0
  0
LINE
  5
19C
330
3F1
100
AcDbEntity
  8
DATA
  6
Continuous
 62
     7
100
AcDbLine
 10
-390.35
 20
-500.0
 30
0.0
 11
-391.1999999999999
 21
-498.5
 31
0.0
  0
LINE
  5
19D
330
3F1
100
AcDbEntity
  8
DATA
  6
Continuous
 62
     7
100
AcDbLine
 10
-379.35
 20
-500.0
 30
0.0
 11
-378.5
 21
-498.5
 31
0.0
  0
LINE
  5
19E
330
3F1
100
AcDbEntity
  8
DATA
  6
Continuous
 62
     7
100
AcDbLine
 10
-209.65
 20
-500.0
 30
0.0
 11
-220.65
 21
-500.0
 31
0.0
  0
LINE
  5
19F
330
3F1
100
AcDbEntity
  8
DATA
  6
Continuous
 62
     7
100
AcDbLine
 10
-209.65
 20
-500.0
 30
0.0
 11
-208.8
 21
-498.5
 31
0.0
  0
LINE
  5
1A0
330
3F1
100
AcDbEntity
  8
DATA
  6
Continuous
 62
     7
100
AcDbLine
 10
-220.65
 20
-500.0
 30
0.0
 11
-221.5
 21
-498.5
 31
0.0
  0
LINE
  5
1A1
330
3F1
100
AcDbEntity
  8
DATA
  6
Continuous
 62
     7
100
AcDbLine
 10
-381.0
 20
-189.8250000000015
 30
0.0
 11
-381.0
 21
-180.8250000000015
 31
0.0
  0
LINE
  5
1A2
330
3F1
100
AcDbEntity
  8
DATA
  6
Continuous
 62
     7
100
AcDbLine
 10
-364.0
 20
-189.8250000000015
 30
0.0
 11
-364.0
 21
-180.8250000000015
 31
0.0
  0
LINE
  5
1A3
330
3F1
100
AcDbEntity
  8
DATA
  6
Continuous
 62
     7
100
AcDbLine
 10
-381.0
 20
-180.8250000000015
 30
0.0
 11
-377.0
 21
-180.8250000000015
 31
0.0
  0
LINE
  5
1A4
330
3F1
100
AcDbEntity
  8
DATA
  6
Continuous
 62
     7
100
AcDbLine
 10
-368.0
 20
-180.8250000000015
 30
0.0
 11
-364.0
 21
-180.8250000000015
 31
0.0
  0
LINE
  5
1A5
330
3F1
100
AcDbEntity
  8
DATA
  6
Continuous
 62
     7
100
AcDbLine
 10
-377.0
 20
-176.8250000000015
 30
0.0
 11
-377.0
 21
-180.8250000000015
 31
0.0
  0
LINE
  5
1A6
330
3F1
100
AcDbEntity
  8
DATA
  6
Continuous
 62
     7
100
AcDbLine
 10
-368.0
 20
-176.8250000000015
 30
0.0
 11
-368.0
 21
-180.8250000000015
 31
0.0
  0
LINE
  5
1A7
330
3F1
100
AcDbEntity
  8
DATA
  6
Continuous
 62
     7
100
AcDbLine
 10
-377.0
 20
-179.825
 30
0.0
 11
-368.0
 21
-179.825
 31
0.0
  0
LINE
  5
1A8
330
3F1
100
AcDbEntity
  8
DATA
  6
Continuous
 62
     7
100
AcDbLine
 10
-376.8
 20
-189.8250000000015
 30
0.0
 11
-376.8
 21
-183.8250000000015
 31
0.0
  0
LINE
  5
1A9
330
3F1
100
AcDbEntity
  8
DATA
  6
Continuous
 62
     7
100
AcDbLine
 10
-376.8
 20
-183.8250000000015
 30
0.0
 11
-368.1999999999999
 21
-183.8250000000015
 31
0.0
  0
LINE
  5
1AA
330
3F1
100
AcDbEntity
  8
DATA
  6
Continuous
 62
     7
100
AcDbLine
 10
-368.1999999999999
 20
-189.8250000000015
 30
0.0
 11
-368.1999999999999
 21
-183.8250000000015
 31
0.0
  0
LINE
  5
1AB
330
3F1
100
AcDbEntity
  8
DATA
  6
Continuous
 62
     7
100
AcDbLine
 10
-13.5
 20
-464.25
 30
0.0
 11
-13.5
 21
-467.3
 31
0.0
  0
LINE
  5
1AC
330
3F1
100
AcDbEntity
  8
DATA
  6
Continuous
 62
     7
100
AcDbLine
 10
-13.5
 20
-476.7000000000001
 30
0.0
 11
-13.5
 21
-490.2499999999999
 31
0.0
  0
LINE
  5
1AD
330
3F1
100
AcDbEntity
  8
DATA
  6
Continuous
 62
     7
100
AcDbLine
 10
-2.0
 20
-464.0
 30
0.0
 11
-2.0
 21
-466.9500000000001
 31
0.0
  0
LINE
  5
1AE
330
3F1
100
AcDbEntity
  8
DATA
  6
Continuous
 62
     7
100
AcDbLine
 10
-2.0
 20
-477.05
 30
0.0
 11
-2.0
 21
-490.5
 31
0.0
  0
LINE
  5
1AF
330
3F1
100
AcDbEntity
  8
DATA
  6
Continuous
 62
     7
100
AcDbLine
 10
-2.0
 20
-464.0
 30
0.0
 11
-13.5
 21
-464.25
 31
0.0
  0
LINE
  5
1B0
330
3F1
100
AcDbEntity
  8
DATA
  6
Continuous
 62
     7
100
AcDbLine
 10
-13.5
 20
-490.2499999999999
 30
0.0
 11
-2.0
 21
-490.5
 31
0.0
  0
LINE
  5
1B1
330
3F1
100
AcDbEntity
  8
DATA
  6
Continuous
 62
     7
100
AcDbLine
 10
-2.0
 20
-479.75
 30
0.0
 11
0.0
 21
-479.75
 31
0.0
  0
LINE
  5
1B2
330
3F1
100
AcDbEntity
  8
DATA
  6
Continuous
 62
     7
100
AcDbLine
 10
140.5
 20
-468.0
 30
0.0
 11
149.5
 21
-468.0
 31
0.0
  0
LINE
  5
1B3
330
3F1
100
AcDbEntity
  8
DATA
  6
Continuous
 62
     7
100
AcDbLine
 10
140.5
 20
-472.0
 30
0.0
 11
153.5
 21
-472.0
 31
0.0
  0
LINE
  5
1B4
330
3F1
100
AcDbEntity
  8
DATA
  6
Continuous
 62
     7
100
AcDbLine
 10
149.5
 20
-466.0
 30
0.0
 11
149.5
 21
-472.0
 31
0.0
  0
LINE
  5
1B5
330
3F1
100
AcDbEntity
  8
DATA
  6
Continuous
 62
     7
100
AcDbLine
 10
153.5
 20
-466.0
 30
0.0
 11
153.5
 21
-472.0
 31
0.0
  0
LINE
  5
1B6
330
3F1
100
AcDbEntity
  8
DATA
  6
Continuous
 62
     7
100
AcDbLine
 10
149.5
 20
-466.0
 30
0.0
 11
153.5
 21
-466.0
 31
0.0
  0
LINE
  5
1B7
330
3F1
100
AcDbEntity
  8
DATA
  6
Continuous
 62
     7
100
AcDbLine
 10
-400.0
 20
-314.3250000000015
 30
0.0
 11
-200.0
 21
-314.3250000000015
 31
0.0
  0
LINE
  5
1B8
330
3F1
100
AcDbEntity
  8
DATA
  6
Continuous
 62
     7
100
AcDbLine
 10
-369.75
 20
-330.0817499977213
 30
0.0
 11
-369.75
 21
-328.3250000000001
 31
0.0
  0
LINE
  5
1B9
330
3F1
100
AcDbEntity
  8
DATA
  6
Continuous
 62
     7
100
AcDbLine
 10
-230.25
 20
-328.3250000000001
 30
0.0
 11
-230.25
 21
-330.0817499977213
 31
0.0
  0
LINE
  5
1BA
330
3F1
100
AcDbEntity
  8
DATA
  6
Continuous
 62
     7
100
AcDbLine
 10
-369.75
 20
-328.3250000000001
 30
0.0
 11
-230.25
 21
-328.3250000000001
 31
0.0
  0
LINE
  5
1BB
330
3F1
100
AcDbEntity
  8
DATA
  6
Continuous
 62
     7
100
AcDbLine
 10
-400.0
 20
-605.4514746419208
 30
0.0
 11
-400.0
 21
-740.4999999999985
 31
0.0
  0
LINE
  5
1BC
330
3F1
100
AcDbEntity
  8
DATA
  6
Continuous
 62
     7
100
AcDbLine
 10
-200.0
 20
-740.4999999999985
 30
0.0
 11
-200.0
 21
-605.4514746419208
 31
0.0
  0
LINE
  5
1BD
330
3F1
100
AcDbEntity
  8
DATA
  6
Continuous
 62
     7
100
AcDbLine
 10
-400.0
 20
-740.4999999999985
 30
0.0
 11
-200.0
 21
-740.4999999999985
 31
0.0
  0
ARC
  5
1BE
330
3F1
100
AcDbEntity
  8
DATA
  6
Continuous
 62
     7
100
AcDbCircle
 10
-300.0
 20
-10600.25
 30
0.0
 40
10000.25
100
AcDbArc
 50
89.45542322521289
 51
90.54457677478715
  0
LINE
  5
1BF
330
3F1
100
AcDbEntity
  8
DATA
  6
Continuous
 62
     7
100
AcDbLine
 10
-268.0
 20
-586.4999999999985
 30
0.0
 11
-242.0
 21
-586.4999999999985
 31
0.0
  0
LINE
  5
1C0
330
3F1
100
AcDbEntity
  8
DATA
  6
Continuous
 62
     7
100
AcDbLine
 10
-268.25
 20
-597.9999999999985
 30
0.0
 11
-241.75
 21
-597.9999999999985
 31
0.0
  0
LINE
  5
1C1
330
3F1
100
AcDbEntity
  8
DATA
  6
Continuous
 62
     7
100
AcDbLine
 10
-268.25
 20
-597.9999999999985
 30
0.0
 11
-268.0
 21
-586.4999999999985
 31
0.0
  0
LINE
  5
1C2
330
3F1
100
AcDbEntity
  8
DATA
  6
Continuous
 62
     7
100
AcDbLine
 10
-242.0
 20
-586.4999999999985
 30
0.0
 11
-241.75
 21
-597.9999999999985
 31
0.0
  0
LINE
  5
1C3
330
3F1
100
AcDbEntity
  8
DATA
  6
Continuous
 62
     7
100
AcDbLine
 10
-257.5
 20
-597.9999999999985
 30
0.0
 11
-257.5
 21
-600.0903106500336
 31
0.0
  0
LINE
  5
1C4
330
3F1
100
AcDbEntity
  8
DATA
  6
Continuous
 62
     7
100
AcDbLine
 10
-252.5
 20
-597.9999999999985
 30
0.0
 11
-252.5
 21
-600.1128103160498
 31
0.0
  0
LINE
  5
1C5
330
3F1
100
AcDbEntity
  8
DATA
  6
Continuous
 62
     7
100
AcDbLine
 10
-377.0
 20
-753.4999999999985
 30
0.0
 11
-368.0
 21
-753.4999999999985
 31
0.0
  0
ARC
  5
1C6
330
3F1
100
AcDbEntity
  8
DATA
  6
Continuous
 62
     7
100
AcDbCircle
 10
-394.9999999999993
 20
-605.4514746419208
 30
0.0
 40
5.00000000000058
100
AcDbArc
 50
90.54457677479504
 51
180.0
  0
ARC
  5
1C7
330
3F1
100
AcDbEntity
  8
DATA
  6
Continuous
 62
     7
100
AcDbCircle
 10
-205.0000000000006
 20
-605.4514746419208
 30
0.0
 40
5.000000000000568
100
AcDbArc
 50
0.0
 51
89.45542322520621
  0
LINE
  5
1C8
330
3F1
100
AcDbEntity
  8
DATA
  6
Continuous
 62
     7
100
AcDbLine
 10
-381.0
 20
-740.4999999999985
 30
0.0
 11
-381.0
 21
-749.4999999999985
 31
0.0
  0
LINE
  5
1C9
330
3F1
100
AcDbEntity
  8
DATA
  6
Continuous
 62
     7
100
AcDbLine
 10
-364.0
 20
-740.4999999999985
 30
0.0
 11
-364.0
 21
-749.4999999999985
 31
0.0
  0
LINE
  5
1CA
330
3F1
100
AcDbEntity
  8
DATA
  6
Continuous
 62
     7
100
AcDbLine
 10
-381.0
 20
-749.4999999999985
 30
0.0
 11
-377.0
 21
-749.4999999999985
 31
0.0
  0
LINE
  5
1CB
330
3F1
100
AcDbEntity
  8
DATA
  6
Continuous
 62
     7
100
AcDbLine
 10
-368.0
 20
-749.4999999999985
 30
0.0
 11
-364.0
 21
-749.4999999999985
 31
0.0
  0
LINE
  5
1CC
330
3F1
100
AcDbEntity
  8
DATA
  6
Continuous
 62
     7
100
AcDbLine
 10
-377.0
 20
-753.4999999999985
 30
0.0
 11
-377.0
 21
-749.4999999999985
 31
0.0
  0
LINE
  5
1CD
330
3F1
100
AcDbEntity
  8
DATA
  6
Continuous
 62
     7
100
AcDbLine
 10
-368.0
 20
-753.4999999999985
 30
0.0
 11
-368.0
 21
-749.4999999999985
 31
0.0
  0
LINE
  5
1CE
330
3F1
100
AcDbEntity
  8
DATA
  6
Continuous
 62
     7
100
AcDbLine
 10
-377.0
 20
-750.4999999999999
 30
0.0
 11
-368.0
 21
-750.4999999999999
 31
0.0
  0
LINE
  5
1CF
330
3F1
100
AcDbEntity
  8
DATA
  6
Continuous
 62
     7
100
AcDbLine
 10
-376.8
 20
-740.4999999999985
 30
0.0
 11
-376.8
 21
-746.4999999999985
 31
0.0
  0
LINE
  5
1D0
330
3F1
100
AcDbEntity
  8
DATA
  6
Continuous
 62
     7
100
AcDbLine
 10
-376.8
 20
-746.4999999999985
 30
0.0
 11
-368.1999999999999
 21
-746.4999999999985
 31
0.0
  0
LINE
  5
1D1
330
3F1
100
AcDbEntity
  8
DATA
  6
Continuous
 62
     7
100
AcDbLine
 10
-368.1999999999999
 20
-740.4999999999985
 30
0.0
 11
-368.1999999999999
 21
-746.4999999999985
 31
0.0
  0
LINE
  5
1D2
330
3F1
100
AcDbEntity
  8
DATA
  6
Continuous
 62
     7
100
AcDbLine
 10
-400.0
 20
-615.9999999999985
 30
0.0
 11
-200.0
 21
-615.9999999999985
 31
0.0
  0
LINE
  5
1D3
330
3F1
100
AcDbEntity
  8
DATA
  6
Continuous
 62
     7
100
AcDbLine
 10
-369.75
 20
-600.2432500022787
 30
0.0
 11
-369.75
 21
-602.0
 31
0.0
  0
LINE
  5
1D4
330
3F1
100
AcDbEntity
  8
DATA
  6
Continuous
 62
     7
100
AcDbLine
 10
-230.25
 20
-602.0
 30
0.0
 11
-230.25
 21
-600.2432500022787
 31
0.0
  0
LINE
  5
1D5
330
3F1
100
AcDbEntity
  8
DATA
  6
Continuous
 62
     7
100
AcDbLine
 10
-369.75
 20
-602.0
 30
0.0
 11
-230.25
 21
-602.0
 31
0.0
  0
LWPOLYLINE
  5
1D6
330
3F1
100
AcDbEntity
  8
DATA
  6
Continuous
 62
     7
100
AcDbPolyline
 90
        4
 70
     1
 43
0.0
 10
-400.0
 20
-57.5
 10
-200.0
 20
-57.5
 10
-200.0
 20
-100.0
 10
-400.0
 20
-100.0
  0
LINE
  5
1DD
330
3F1
100
AcDbEntity
  8
DATA
  6
Continuous
 62
     7
100
AcDbLine
 10
-390.35
 20
-56.0
 30
0.0
 11
-379.35
 21
-56.0
 31
0.0
  0
LINE
  5
1DE
330
3F1
100
AcDbEntity
  8
DATA
  6
Continuous
 62
     7
100
AcDbLine
 10
-390.35
 20
-56.0
 30
0.0
 11
-391.1999999999999
 21
-57.5
 31
0.0
  0
LINE
  5
1DF
330
3F1
100
AcDbEntity
  8
DATA
  6
Continuous
 62
     7
100
AcDbLine
 10
-379.35
 20
-56.0
 30
0.0
 11
-378.5
 21
-57.5
 31
0.0
  0
LINE
  5
1E0
330
3F1
100
AcDbEntity
  8
DATA
  6
Continuous
 62
     7
100
AcDbLine
 10
-209.65
 20
-56.0
 30
0.0
 11
-220.65
 21
-56.0
 31
0.0
  0
LINE
  5
1E1
330
3F1
100
AcDbEntity
  8
DATA
  6
Continuous
 62
     7
100
AcDbLine
 10
-209.65
 20
-56.0
 30
0.0
 11
-208.8
 21
-57.5
 31
0.0
  0
LINE
  5
1E2
330
3F1
100
AcDbEntity
  8
DATA
  6
Continuous
 62
     7
100
AcDbLine
 10
-220.65
 20
-56.0
 30
0.0
 11
-221.5
 21
-57.5
 31
0.0
  0
LINE
  5
1E3
330
3F1
100
AcDbEntity
  8
DATA
  6
Continuous
 62
     7
100
AcDbLine
 10
-393.6999999999999
 20
-95.8
 30
0.0
 11
-393.6999999999999
 21
-57.5
 31
0.0
  0
LINE
  5
1E4
330
3F1
100
AcDbEntity
  8
DATA
  6
Continuous
 62
     7
100
AcDbLine
 10
-206.3
 20
-95.8
 30
0.0
 11
-393.6999999999999
 21
-95.8
 31
0.0
  0
LINE
  5
1E5
330
3F1
100
AcDbEntity
  8
DATA
  6
Continuous
 62
     7
100
AcDbLine
 10
-206.3
 20
-57.5
 30
0.0
 11
-206.3
 21
-95.8
 31
0.0
  0
LINE
  5
1E6
330
3F1
100
AcDbEntity
  8
DATA
  6
Continuous
 62
     7
100
AcDbLine
 10
16.0
 20
-456.0
 30
0.0
 11
16.0
 21
-498.5
 31
0.0
  0
LINE
  5
1E7
330
3F1
100
AcDbEntity
  8
DATA
  6
Continuous
 62
     7
100
AcDbLine
 10
16.0
 20
-477.2499999999999
 30
0.0
 11
140.5
 21
-477.2499999999999
 31
0.0
  0
LINE
  5
1E8
330
3F1
100
AcDbEntity
  8
DATA
  6
Continuous
 62
     7
100
AcDbLine
 10
-400.0
 20
-628.9999999999984
 30
0.0
 11
-378.5
 21
-628.9999999999984
 31
0.0
  0
LINE
  5
1E9
330
3F1
100
AcDbEntity
  8
DATA
  6
Continuous
 62
     7
100
AcDbLine
 10
-391.1999999999999
 20
-628.9999999999984
 30
0.0
 11
-391.1999999999999
 21
-649.4999999999985
 31
0.0
  0
LINE
  5
1EA
330
3F1
100
AcDbEntity
  8
DATA
  6
Continuous
 62
     7
100
AcDbLine
 10
-378.5
 20
-628.9999999999984
 30
0.0
 11
-378.5
 21
-649.4999999999985
 31
0.0
  0
LINE
  5
1EB
330
3F1
100
AcDbEntity
  8
DATA
  6
Continuous
 62
     7
100
AcDbLine
 10
-400.0
 20
-649.4999999999985
 30
0.0
 11
-378.5
 21
-649.4999999999985
 31
0.0
  0
LINE
  5
1EC
330
3F1
100
AcDbEntity
  8
DATA
  6
Continuous
 62
     7
100
AcDbLine
 10
-390.35
 20
-648.6499999999985
 30
0.0
 11
-390.35
 21
-641.3748076809255
 31
0.0
  0
LINE
  5
1ED
330
3F1
100
AcDbEntity
  8
DATA
  6
Continuous
 62
     7
100
AcDbLine
 10
-379.35
 20
-648.6499999999985
 30
0.0
 11
-390.35
 21
-648.6499999999985
 31
0.0
  0
LINE
  5
1EE
330
3F1
100
AcDbEntity
  8
DATA
  6
Continuous
 62
     7
100
AcDbLine
 10
-379.35
 20
-629.8499999999984
 30
0.0
 11
-379.35
 21
-648.6499999999985
 31
0.0
  0
LINE
  5
1EF
330
3F1
100
AcDbEntity
  8
DATA
  6
Continuous
 62
     7
100
AcDbLine
 10
-390.35
 20
-629.8499999999984
 30
0.0
 11
-379.35
 21
-629.8499999999984
 31
0.0
  0
LINE
  5
1F0
330
3F1
100
AcDbEntity
  8
DATA
  6
Continuous
 62
     7
100
AcDbLine
 10
-390.35
 20
-638.1251923190715
 30
0.0
 11
-390.35
 21
-629.8499999999984
 31
0.0
  0
LINE
  5
1F1
330
3F1
100
AcDbEntity
  8
DATA
  6
Continuous
 62
     7
100
AcDbLine
 10
-400.0
 20
-694.4999999999985
 30
0.0
 11
-378.5
 21
-694.4999999999985
 31
0.0
  0
LINE
  5
1F2
330
3F1
100
AcDbEntity
  8
DATA
  6
Continuous
 62
     7
100
AcDbLine
 10
-391.1999999999999
 20
-694.4999999999985
 30
0.0
 11
-391.1999999999999
 21
-714.9999999999985
 31
0.0
  0
LINE
  5
1F3
330
3F1
100
AcDbEntity
  8
DATA
  6
Continuous
 62
     7
100
AcDbLine
 10
-378.5
 20
-694.4999999999985
 30
0.0
 11
-378.5
 21
-714.9999999999985
 31
0.0
  0
LINE
  5
1F4
330
3F1
100
AcDbEntity
  8
DATA
  6
Continuous
 62
     7
100
AcDbLine
 10
-400.0
 20
-714.9999999999985
 30
0.0
 11
-378.5
 21
-714.9999999999985
 31
0.0
  0
LINE
  5
1F5
330
3F1
100
AcDbEntity
  8
DATA
  6
Continuous
 62
     7
100
AcDbLine
 10
-390.35
 20
-714.1499999999985
 30
0.0
 11
-390.35
 21
-705.87480768093
 31
0.0
  0
LINE
  5
1F6
330
3F1
100
AcDbEntity
  8
DATA
  6
Continuous
 62
     7
100
AcDbLine
 10
-379.35
 20
-714.1499999999985
 30
0.0
 11
-390.35
 21
-714.1499999999985
 31
0.0
  0
LINE
  5
1F7
330
3F1
100
AcDbEntity
  8
DATA
  6
Continuous
 62
     7
100
AcDbLine
 10
-379.35
 20
-695.3499999999984
 30
0.0
 11
-379.35
 21
-714.1499999999985
 31
0.0
  0
LINE
  5
1F8
330
3F1
100
AcDbEntity
  8
DATA
  6
Continuous
 62
     7
100
AcDbLine
 10
-390.35
 20
-695.3499999999984
 30
0.0
 11
-379.35
 21
-695.3499999999984
 31
0.0
  0
LINE
  5
1F9
330
3F1
100
AcDbEntity
  8
DATA
  6
Continuous
 62
     7
100
AcDbLine
 10
-390.35
 20
-702.625192319067
 30
0.0
 11
-390.35
 21
-695.3499999999984
 31
0.0
  0
LINE
  5
1FA
330
3F1
100
AcDbEntity
  8
DATA
  6
Continuous
 62
     7
100
AcDbLine
 10
-200.0
 20
-628.9999999999984
 30
0.0
 11
-221.5
 21
-628.9999999999984
 31
0.0
  0
LINE
  5
1FB
330
3F1
100
AcDbEntity
  8
DATA
  6
Continuous
 62
     7
100
AcDbLine
 10
-208.8
 20
-628.9999999999984
 30
0.0
 11
-208.8
 21
-649.4999999999985
 31
0.0
  0
LINE
  5
1FC
330
3F1
100
AcDbEntity
  8
DATA
  6
Continuous
 62
     7
100
AcDbLine
 10
-221.5
 20
-628.9999999999984
 30
0.0
 11
-221.5
 21
-649.4999999999985
 31
0.0
  0
LINE
  5
1FD
330
3F1
100
AcDbEntity
  8
DATA
  6
Continuous
 62
     7
100
AcDbLine
 10
-200.0
 20
-649.4999999999985
 30
0.0
 11
-221.5
 21
-649.4999999999985
 31
0.0
  0
LINE
  5
1FE
330
3F1
100
AcDbEntity
  8
DATA
  6
Continuous
 62
     7
100
AcDbLine
 10
-209.65
 20
-629.8499999999984
 30
0.0
 11
-209.65
 21
-638.1251923190715
 31
0.0
  0
LINE
  5
1FF
330
3F1
100
AcDbEntity
  8
DATA
  6
Continuous
 62
     7
100
AcDbLine
 10
-220.65
 20
-629.8499999999984
 30
0.0
 11
-209.65
 21
-629.8499999999984
 31
0.0
  0
LINE
  5
200
330
3F1
100
AcDbEntity
  8
DATA
  6
Continuous
 62
     7
100
AcDbLine
 10
-220.65
 20
-648.6499999999985
 30
0.0
 11
-220.65
 21
-629.8499999999984
 31
0.0
  0
LINE
  5
201
330
3F1
100
AcDbEntity
  8
DATA
  6
Continuous
 62
     7
100
AcDbLine
 10
-209.65
 20
-648.6499999999985
 30
0.0
 11
-220.65
 21
-648.6499999999985
 31
0.0
  0
LINE
  5
202
330
3F1
100
AcDbEntity
  8
DATA
  6
Continuous
 62
     7
100
AcDbLine
 10
-209.65
 20
-641.3748076809255
 30
0.0
 11
-209.65
 21
-648.6499999999985
 31
0.0
  0
LINE
  5
203
330
3F1
100
AcDbEntity
  8
DATA
  6
Continuous
 62
     7
100
AcDbLine
 10
-200.0
 20
-694.4999999999985
 30
0.0
 11
-221.5
 21
-694.4999999999985
 31
0.0
  0
LINE
  5
204
330
3F1
100
AcDbEntity
  8
DATA
  6
Continuous
 62
     7
100
AcDbLine
 10
-208.8
 20
-694.4999999999985
 30
0.0
 11
-208.8
 21
-714.9999999999985
 31
0.0
  0
LINE
  5
205
330
3F1
100
AcDbEntity
  8
DATA
  6
Continuous
 62
     7
100
AcDbLine
 10
-221.5
 20
-694.4999999999985
 30
0.0
 11
-221.5
 21
-714.9999999999985
 31
0.0
  0
LINE
  5
206
330
3F1
100
AcDbEntity
  8
DATA
  6
Continuous
 62
     7
100
AcDbLine
 10
-200.0
 20
-714.9999999999985
 30
0.0
 11
-221.5
 21
-714.9999999999985
 31
0.0
  0
LINE
  5
207
330
3F1
100
AcDbEntity
  8
DATA
  6
Continuous
 62
     7
100
AcDbLine
 10
-209.65
 20
-695.3499999999984
 30
0.0
 11
-209.65
 21
-702.625192319067
 31
0.0
  0
LINE
  5
208
330
3F1
100
AcDbEntity
  8
DATA
  6
Continuous
 62
     7
100
AcDbLine
 10
-220.65
 20
-695.3499999999984
 30
0.0
 11
-209.65
 21
-695.3499999999984
 31
0.0
  0
LINE
  5
209
330
3F1
100
AcDbEntity
  8
DATA
  6
Continuous
 62
     7
100
AcDbLine
 10
-220.65
 20
-714.1499999999985
 30
0.0
 11
-220.65
 21
-695.3499999999984
 31
0.0
  0
LINE
  5
20A
330
3F1
100
AcDbEntity
  8
DATA
  6
Continuous
 62
     7
100
AcDbLine
 10
-209.65
 20
-714.1499999999985
 30
0.0
 11
-220.65
 21
-714.1499999999985
 31
0.0
  0
LINE
  5
20B
330
3F1
100
AcDbEntity
  8
DATA
  6
Continuous
 62
     7
100
AcDbLine
 10
-209.65
 20
-705.87480768093
 30
0.0
 11
-209.65
 21
-714.1499999999985
 31
0.0
  0
CIRCLE
  5
20C
330
3F1
100
AcDbEntity
  8
DATA
  6
Continuous
 62
     7
100
AcDbCircle
 10
-387.25
 20
-639.7499999999985
 30
0.0
 40
3.5
  0
CIRCLE
  5
20D
330
3F1
100
AcDbEntity
  8
DATA
  6
Continuous
 62
     7
100
AcDbCircle
 10
-387.25
 20
-639.7499999999985
 30
0.0
 40
2.25
  0
LINE
  5
20E
330
3F1
100
AcDbEntity
  8
DATA
  6
Continuous
 62
     7
100
AcDbLine
 10
-388.75
 20
-639.7499999999985
 30
0.0
 11
-385.75
 21
-639.7499999999985
 31
0.0
  0
LINE
  5
20F
330
3F1
100
AcDbEntity
  8
DATA
  6
Continuous
 62
     7
100
AcDbLine
 10
-387.25
 20
-641.2499999999985
 30
0.0
 11
-387.25
 21
-638.2499999999985
 31
0.0
  0
CIRCLE
  5
210
330
3F1
100
AcDbEntity
  8
DATA
  6
Continuous
 62
     7
100
AcDbCircle
 10
-387.25
 20
-704.2499999999985
 30
0.0
 40
3.5
  0
CIRCLE
  5
211
330
3F1
100
AcDbEntity
  8
DATA
  6
Continuous
 62
     7
100
AcDbCircle
 10
-387.25
 20
-704.2499999999985
 30
0.0
 40
2.25
  0
LINE
  5
212
330
3F1
100
AcDbEntity
  8
DATA
  6
Continuous
 62
     7
100
AcDbLine
 10
-388.75
 20
-704.2499999999985
 30
0.0
 11
-385.75
 21
-704.2499999999985
 31
0.0
  0
LINE
  5
213
330
3F1
100
AcDbEntity
  8
DATA
  6
Continuous
 62
     7
100
AcDbLine
 10
-387.25
 20
-705.7499999999985
 30
0.0
 11
-387.25
 21
-702.7499999999985
 31
0.0
  0
CIRCLE
  5
214
330
3F1
100
AcDbEntity
  8
DATA
  6
Continuous
 62
     7
100
AcDbCircle
 10
-212.75
 20
-639.7499999999985
 30
0.0
 40
3.5
  0
CIRCLE
  5
215
330
3F1
100
AcDbEntity
  8
DATA
  6
Continuous
 62
     7
100
AcDbCircle
 10
-212.75
 20
-639.7499999999985
 30
0.0
 40
2.25
  0
LINE
  5
216
330
3F1
100
AcDbEntity
  8
DATA
  6
Continuous
 62
     7
100
AcDbLine
 10
-214.25
 20
-639.7499999999985
 30
0.0
 11
-211.25
 21
-639.7499999999985
 31
0.0
  0
LINE
  5
217
330
3F1
100
AcDbEntity
  8
DATA
  6
Continuous
 62
     7
100
AcDbLine
 10
-212.75
 20
-641.2499999999985
 30
0.0
 11
-212.75
 21
-638.2499999999985
 31
0.0
  0
CIRCLE
  5
218
330
3F1
100
AcDbEntity
  8
DATA
  6
Continuous
 62
     7
100
AcDbCircle
 10
-212.75
 20
-704.2499999999985
 30
0.0
 40
3.5
  0
CIRCLE
  5
219
330
3F1
100
AcDbEntity
  8
DATA
  6
Continuous
 62
     7
100
AcDbCircle
 10
-212.75
 20
-704.2499999999985
 30
0.0
 40
2.25
  0
LINE
  5
21A
330
3F1
100
AcDbEntity
  8
DATA
  6
Continuous
 62
     7
100
AcDbLine
 10
-214.25
 20
-704.2499999999985
 30
0.0
 11
-211.25
 21
-704.2499999999985
 31
0.0
  0
LINE
  5
21B
330
3F1
100
AcDbEntity
  8
DATA
  6
Continuous
 62
     7
100
AcDbLine
 10
-212.75
 20
-705.7499999999985
 30
0.0
 11
-212.75
 21
-702.7499999999985
 31
0.0
  0
LWPOLYLINE
  5
21C
330
3F1
100
AcDbEntity
  8
DATA
  6
Continuous
 62
     7
100
AcDbPolyline
 90
        4
 70
     1
 43
0.0
 10
-397.5
 20
-698.2499999999985
 10
-392.5
 20
-698.2499999999985
 10
-392.5
 20
-711.2499999999985
 10
-397.5
 20
-711.2499999999985
  0
LWPOLYLINE
  5
223
330
3F1
100
AcDbEntity
  8
DATA
  6
Continuous
 62
     7
100
AcDbPolyline
 90
        4
 70
     1
 43
0.0
 10
-207.5
 20
-698.2499999999985
 10
-202.5
 20
-698.2499999999985
 10
-202.5
 20
-711.2499999999985
 10
-207.5
 20
-711.2499999999985
  0
LINE
  5
22A
330
3F1
100
AcDbEntity
  8
DATA
  6
Continuous
 62
     7
100
AcDbLine
 10
-400.0
 20
-740.0
 30
0.0
 11
-200.0
 21
-740.0
 31
0.0
  0
LINE
  5
22B
330
3F1
100
AcDbEntity
  8
DATA
  6
Continuous
 62
     7
100
AcDbLine
 10
-393.6999999999999
 20
-740.4999999999985
 30
0.0
 11
-393.6999999999999
 21
-740.0
 31
0.0
  0
LINE
  5
22C
330
3F1
100
AcDbEntity
  8
DATA
  6
Continuous
 62
     7
100
AcDbLine
 10
-206.3
 20
-740.0
 30
0.0
 11
-206.3
 21
-740.4999999999985
 31
0.0
  0
LINE
  5
22D
330
3F1
100
AcDbEntity
  8
DATA
  6
Continuous
 62
     7
100
AcDbLine
 10
48.64999999999998
 20
-500.0
 30
0.0
 11
29.85000000000001
 21
-500.0
 31
0.0
  0
LINE
  5
22E
330
3F1
100
AcDbEntity
  8
DATA
  6
Continuous
 62
     7
100
AcDbLine
 10
29.85000000000001
 20
-500.0
 30
0.0
 11
29.0
 21
-498.5
 31
0.0
  0
LINE
  5
22F
330
3F1
100
AcDbEntity
  8
DATA
  6
Continuous
 62
     7
100
AcDbLine
 10
48.64999999999998
 20
-500.0
 30
0.0
 11
49.5
 21
-498.5
 31
0.0
  0
LINE
  5
230
330
3F1
100
AcDbEntity
  8
DATA
  6
Continuous
 62
     7
100
AcDbLine
 10
114.15
 20
-500.0
 30
0.0
 11
95.35000000000001
 21
-500.0
 31
0.0
  0
LINE
  5
231
330
3F1
100
AcDbEntity
  8
DATA
  6
Continuous
 62
     7
100
AcDbLine
 10
95.35000000000001
 20
-500.0
 30
0.0
 11
94.50000000000001
 21
-498.5
 31
0.0
  0
LINE
  5
232
330
3F1
100
AcDbEntity
  8
DATA
  6
Continuous
 62
     7
100
AcDbLine
 10
114.15
 20
-500.0
 30
0.0
 11
115.0
 21
-498.5
 31
0.0
  0
LINE
  5
233
330
3F1
100
AcDbEntity
  8
DATA
  6
Continuous
 62
     7
100
AcDbLine
 10
29.0
 20
-494.0
 30
0.0
 11
49.5
 21
-494.0
 31
0.0
  0
LINE
  5
234
330
3F1
100
AcDbEntity
  8
DATA
  6
Continuous
 62
     7
100
AcDbLine
 10
94.50000000000001
 20
-494.0
 30
0.0
 11
115.0
 21
-494.0
 31
0.0
  0
LINE
  5
235
330
3F1
100
AcDbEntity
  8
DATA
  6
Continuous
 62
     7
100
AcDbLine
 10
29.0
 20
-498.5
 30
0.0
 11
29.0
 21
-494.0
 31
0.0
  0
LINE
  5
236
330
3F1
100
AcDbEntity
  8
DATA
  6
Continuous
 62
     7
100
AcDbLine
 10
49.5
 20
-498.5
 30
0.0
 11
49.5
 21
-494.0
 31
0.0
  0
LINE
  5
237
330
3F1
100
AcDbEntity
  8
DATA
  6
Continuous
 62
     7
100
AcDbLine
 10
94.50000000000001
 20
-498.5
 30
0.0
 11
94.50000000000001
 21
-494.0
 31
0.0
  0
LINE
  5
238
330
3F1
100
AcDbEntity
  8
DATA
  6
Continuous
 62
     7
100
AcDbLine
 10
115.0
 20
-498.5
 30
0.0
 11
115.0
 21
-494.0
 31
0.0
  0
CIRCLE
  5
239
330
3F1
100
AcDbEntity
  8
DATA
  6
Continuous
 62
     7
100
AcDbCircle
 10
38.0
 20
-468.5
 30
0.0
 40
5.0
  0
CIRCLE
  5
23A
330
3F1
100
AcDbEntity
  8
DATA
  6
Continuous
 62
     7
100
AcDbCircle
 10
38.0
 20
-468.5
 30
0.0
 40
4.0
  0
CIRCLE
  5
23B
330
3F1
100
AcDbEntity
  8
DATA
  6
Continuous
 62
     7
100
AcDbCircle
 10
38.0
 20
-468.5
 30
0.0
 40
2.25
  0
LINE
  5
23C
330
3F1
100
AcDbEntity
  8
DATA
  6
Continuous
 62
     7
100
AcDbLine
 10
36.5
 20
-468.5
 30
0.0
 11
39.5
 21
-468.5
 31
0.0
  0
LINE
  5
23D
330
3F1
100
AcDbEntity
  8
DATA
  6
Continuous
 62
     7
100
AcDbLine
 10
38.0
 20
-470.0
 30
0.0
 11
38.0
 21
-467.0
 31
0.0
  0
CIRCLE
  5
23E
330
3F1
100
AcDbEntity
  8
DATA
  6
Continuous
 62
     7
100
AcDbCircle
 10
102.5
 20
-468.5
 30
0.0
 40
5.0
  0
CIRCLE
  5
23F
330
3F1
100
AcDbEntity
  8
DATA
  6
Continuous
 62
     7
100
AcDbCircle
 10
102.5
 20
-468.5
 30
0.0
 40
4.0
  0
CIRCLE
  5
240
330
3F1
100
AcDbEntity
  8
DATA
  6
Continuous
 62
     7
100
AcDbCircle
 10
102.5
 20
-468.5
 30
0.0
 40
2.25
  0
LINE
  5
241
330
3F1
100
AcDbEntity
  8
DATA
  6
Continuous
 62
     7
100
AcDbLine
 10
101.0
 20
-468.5
 30
0.0
 11
104.0
 21
-468.5
 31
0.0
  0
LINE
  5
242
330
3F1
100
AcDbEntity
  8
DATA
  6
Continuous
 62
     7
100
AcDbLine
 10
102.5
 20
-470.0
 30
0.0
 11
102.5
 21
-467.0
 31
0.0
  0
LINE
  5
243
330
3F1
100
AcDbEntity
  8
DATA
  6
Continuous
 62
     7
100
AcDbLine
 10
-200.0
 20
-78.75
 30
0.0
 11
-206.3
 21
-78.75
 31
0.0
  0
LINE
  5
244
330
3F1
100
AcDbEntity
  8
DATA
  6
Continuous
 62
     7
100
AcDbLine
 10
-393.6999999999999
 20
-78.75
 30
0.0
 11
-400.0
 21
-78.75
 31
0.0
  0
LINE
  5
245
330
3F1
100
AcDbEntity
  8
DATA
  6
Continuous
 62
     7
100
AcDbLine
 10
-364.0
 20
-84.0
 30
0.0
 11
-381.0
 21
-84.0
 31
0.0
  0
LINE
  5
246
330
3F1
100
AcDbEntity
  8
DATA
  6
Continuous
 62
     7
100
AcDbLine
 10
-368.0
 20
-90.0
 30
0.0
 11
-377.0
 21
-90.0
 31
0.0
  0
LINE
  5
247
330
3F1
100
AcDbEntity
  8
DATA
  6
Continuous
 62
     7
100
AcDbLine
 10
-364.0
 20
-88.0
 30
0.0
 11
-368.0
 21
-88.0
 31
0.0
  0
LINE
  5
248
330
3F1
100
AcDbEntity
  8
DATA
  6
Continuous
 62
     7
100
AcDbLine
 10
-377.0
 20
-88.0
 30
0.0
 11
-381.0
 21
-88.0
 31
0.0
  0
LINE
  5
249
330
3F1
100
AcDbEntity
  8
DATA
  6
Continuous
 62
     7
100
AcDbLine
 10
-381.0
 20
-88.0
 30
0.0
 11
-381.0
 21
-84.0
 31
0.0
  0
LINE
  5
24A
330
3F1
100
AcDbEntity
  8
DATA
  6
Continuous
 62
     7
100
AcDbLine
 10
-364.0
 20
-88.0
 30
0.0
 11
-364.0
 21
-84.0
 31
0.0
  0
LINE
  5
24B
330
3F1
100
AcDbEntity
  8
DATA
  6
Continuous
 62
     7
100
AcDbLine
 10
-377.0
 20
-84.0
 30
0.0
 11
-377.0
 21
-90.0
 31
0.0
  0
LINE
  5
24C
330
3F1
100
AcDbEntity
  8
DATA
  6
Continuous
 62
     7
100
AcDbLine
 10
-368.0
 20
-84.0
 30
0.0
 11
-368.0
 21
-90.0
 31
0.0
  0
CIRCLE
  5
24D
330
3F1
100
AcDbEntity
  8
DATA
  6
Continuous
 62
     7
100
AcDbCircle
 10
-372.5
 20
-92.5
 30
0.0
 40
2.000000000000051
  0
LINE
  5
24E
330
3F1
100
AcDbEntity
  8
DATA
  6
Continuous
 62
     7
100
AcDbLine
 10
-373.75
 20
-92.5
 30
0.0
 11
-371.25
 21
-92.5
 31
0.0
  0
LINE
  5
24F
330
3F1
100
AcDbEntity
  8
DATA
  6
Continuous
 62
     7
100
AcDbLine
 10
-372.5
 20
-93.75
 30
0.0
 11
-372.5
 21
-91.25
 31
0.0
  0
ARC
  5
250
330
3F1
100
AcDbEntity
  8
DATA
  6
Continuous
 62
     7
100
AcDbCircle
 10
-254.0
 20
-81.0
 30
0.0
 40
8.149999999184945
100
AcDbArc
 50
231.259404
 51
218.8581659999998
  0
CIRCLE
  5
251
330
3F1
100
AcDbEntity
  8
DATA
  6
Continuous
 62
     7
100
AcDbCircle
 10
-249.50000000045
 20
-81.0
 30
0.0
 40
1.174999999882515
  0
CIRCLE
  5
252
330
3F1
100
AcDbEntity
  8
DATA
  6
Continuous
 62
     7
100
AcDbCircle
 10
-263.9
 20
-71.09999999999996
 30
0.0
 40
1.749999999825035
  0
CIRCLE
  5
253
330
3F1
100
AcDbEntity
  8
DATA
  6
Continuous
 62
     7
100
AcDbCircle
 10
-258.49999999955
 20
-81.0
 30
0.0
 40
1.174999999882515
  0
CIRCLE
  5
254
330
3F1
100
AcDbEntity
  8
DATA
  6
Continuous
 62
     7
100
AcDbCircle
 10
-254.0
 20
-77.05000000039496
 30
0.0
 40
1.174999999882515
  0
ARC
  5
255
330
3F1
100
AcDbEntity
  8
DATA
  6
Continuous
 62
     7
100
AcDbCircle
 10
-259.5774946661089
 20
-86.58895133277441
 30
0.0
 40
0.9041666665761775
100
AcDbArc
 50
148.2574679999964
 51
301.8601010000022
  0
CIRCLE
  5
256
330
3F1
100
AcDbEntity
  8
DATA
  6
Continuous
 62
     7
100
AcDbCircle
 10
-254.0
 20
-81.0
 30
0.0
 40
10.90000000000004
  0
LINE
  5
257
330
3F1
100
AcDbEntity
  8
DATA
  6
Continuous
 62
     7
100
AcDbLine
 10
-262.9000000000001
 20
-71.09999999999985
 30
0.0
 11
-264.9000000000001
 21
-71.09999999999985
 31
0.0
  0
CIRCLE
  5
258
330
3F1
100
AcDbEntity
  8
DATA
  6
Continuous
 62
     7
100
AcDbCircle
 10
-372.5
 20
-74.5
 30
0.0
 40
3.100000000000022
  0
CIRCLE
  5
259
330
3F1
100
AcDbEntity
  8
DATA
  6
Continuous
 62
     7
100
AcDbCircle
 10
-372.5
 20
-74.5
 30
0.0
 40
1.0
  0
LWPOLYLINE
  5
25A
330
3F1
100
AcDbEntity
  8
DATA
  6
Continuous
 62
     7
100
AcDbPolyline
 90
        4
 70
     1
 43
0.0
 10
-377.0
 20
-67.5
 10
-368.0
 20
-67.5
 10
-368.0
 20
-78.5
 10
-377.0
 20
-78.5
  0
CIRCLE
  5
261
330
3F1
100
AcDbEntity
  8
DATA
  6
Continuous
 62
     7
100
AcDbCircle
 10
-295.0
 20
-74.5
 30
0.0
 40
5.0
  0
CIRCLE
  5
262
330
3F1
100
AcDbEntity
  8
DATA
  6
Continuous
 62
     7
100
AcDbCircle
 10
-295.0
 20
-74.5
 30
0.0
 40
2.5
  0
TEXT
  5
263
330
3F1
100
AcDbEntity
  8
DATA
 62
     7
100
AcDbText
 10
-360.5093684106955
 20
-61.98197428385416
 30
0.0
 40
2.036051432291666
  1
DC IN| 9V 1300mA
 50
180.0
 41
0.7
 11
-360.5093684106955
 21
-63.0
 31
0.0
100
AcDbText
 73
     2
  0
LINE
  5
264
330
3F1
100
AcDbEntity
  8
DATA
  6
Continuous
 62
     7
100
AcDbLine
 10
-389.6000000000077
 20
-63.0
 30
0.0
 11
-387.4500000000001
 21
-63.0
 31
0.0
  0
LINE
  5
265
330
3F1
100
AcDbEntity
  8
DATA
  6
Continuous
 62
     7
100
AcDbLine
 10
-386.3500000000077
 20
-63.0
 30
0.0
 11
-384.6
 21
-63.0
 31
0.0
  0
CIRCLE
  5
266
330
3F1
100
AcDbEntity
  8
DATA
  6
Continuous
 62
     7
100
AcDbCircle
 10
-390.35
 20
-63.0
 30
0.0
 40
0.75
  0
ARC
  5
267
330
3F1
100
AcDbEntity
  8
DATA
  6
Continuous
 62
     7
100
AcDbCircle
 10
-387.1
 20
-63.00000000000011
 30
0.0
 40
0.749999999999933
100
AcDbArc
 50
199.4712206362727
 51
160.5287793637211
  0
CIRCLE
  5
268
330
3F1
100
AcDbEntity
  8
DATA
  6
Continuous
 62
     7
100
AcDbCircle
 10
-383.85
 20
-63.0
 30
0.0
 40
0.75
  0
CIRCLE
  5
269
330
3F1
100
AcDbEntity
  8
DATA
  6
Continuous
 62
     7
100
AcDbCircle
 10
-387.1
 20
-63.0
 30
0.0
 40
0.3500000000000227
  0
LINE
  5
26A
330
3F1
100
AcDbEntity
  8
DATA
  6
Continuous
 62
     7
100
AcDbLine
 10
-390.75
 20
-63.0
 30
0.0
 11
-389.9500000000001
 21
-63.0
 31
0.0
  0
LINE
  5
26B
330
3F1
100
AcDbEntity
  8
DATA
  6
Continuous
 62
     7
100
AcDbLine
 10
-384.25
 20
-63.0
 30
0.0
 11
-383.4500000000001
 21
-63.0
 31
0.0
  0
LINE
  5
26C
330
3F1
100
AcDbEntity
  8
DATA
  6
Continuous
 62
     7
100
AcDbLine
 10
-383.85
 20
-63.40000000000003
 30
0.0
 11
-383.85
 21
-62.60000000000001
 31
0.0
  0
LINE
  5
26D
330
3F1
100
AcDbEntity
  8
DATA
  6
Continuous
 62
     7
100
AcDbLine
 10
-387.3474873734152
 20
-63.24748737341531
 30
0.0
 11
-386.8525126265848
 21
-62.75251262658469
 31
0.0
  0
LINE
  5
26E
330
3F1
100
AcDbEntity
  8
DATA
  6
Continuous
 62
     7
100
AcDbLine
 10
-387.2664601463932
 20
-63.30788150263055
 30
0.0
 11
-386.7921184973695
 21
-62.8335398536068
 31
0.0
  0
LINE
  5
26F
330
3F1
100
AcDbEntity
  8
DATA
  6
Continuous
 62
     7
100
AcDbLine
 10
-387.1616796038768
 20
-63.34452231635157
 30
0.0
 11
-386.7554776836485
 21
-62.93832039612311
 31
0.0
  0
LINE
  5
270
330
3F1
100
AcDbEntity
  8
DATA
  6
Continuous
 62
     7
100
AcDbLine
 10
-387.0153434534825
 20
-63.33960752219457
 30
0.0
 11
-386.7603924778054
 21
-63.08465654651746
 31
0.0
  0
LINE
  5
271
330
3F1
100
AcDbEntity
  8
DATA
  6
Continuous
 62
     7
100
AcDbLine
 10
-387.4078815026305
 20
-63.16646014639321
 30
0.0
 11
-386.9335398536068
 21
-62.69211849736945
 31
0.0
  0
LINE
  5
272
330
3F1
100
AcDbEntity
  8
DATA
  6
Continuous
 62
     7
100
AcDbLine
 10
-387.4445223163515
 20
-63.06167960387689
 30
0.0
 11
-387.0383203961232
 21
-62.65547768364842
 31
0.0
  0
LINE
  5
273
330
3F1
100
AcDbEntity
  8
DATA
  6
Continuous
 62
     7
100
AcDbLine
 10
-387.4396075221946
 20
-62.91534345348254
 30
0.0
 11
-387.1846565465174
 21
-62.66039247780549
 31
0.0
  0
TEXT
  5
274
330
3F1
100
AcDbEntity
  8
DATA
 62
     7
100
AcDbText
 10
-288.1113593207465
 20
-61.98197428385416
 30
0.0
 40
2.036051432291666
  1
UNBALANCED
 50
180.0
 41
0.7
 72
     1
 11
-295.0
 21
-63.0
 31
0.0
100
AcDbText
 73
     2
  0
LWPOLYLINE
  5
275
330
3F1
100
AcDbEntity
  8
DATA
  6
Continuous
 62
     7
100
AcDbPolyline
 90
        4
 70
     1
 43
0.0
 10
-281.0
 20
-71.0
 10
-275.5
 20
-71.0
 10
-275.5
 20
-75.0
 10
-281.0
 20
-75.0
  0
TEXT
  5
27C
330
3F1
100
AcDbEntity
  8
DATA
 62
     7
100
AcDbText
 10
-272.9291189236111
 20
-61.98197428385416
 30
0.0
 40
2.036051432291666
  1
dB -30 0 |
 50
180.0
 41
0.7
 72
     1
 11
-278.25
 21
-63.0
 31
0.0
100
AcDbText
 73
     2
  0
LINE
  5
27D
330
3F1
100
AcDbEntity
  8
DATA
  6
Continuous
 62
     7
100
AcDbLine
 10
-279.0
 20
-71.0
 30
0.0
 11
-279.0
 21
-75.0
 31
0.0
  0
LINE
  5
27E
330
3F1
100
AcDbEntity
  8
DATA
  6
Continuous
 62
     7
100
AcDbLine
 10
-280.0
 20
-71.0
 30
0.0
 11
-280.0
 21
-75.0
 31
0.0
  0
LINE
  5
27F
330
3F1
100
AcDbEntity
  8
DATA
  6
Continuous
 62
     7
100
AcDbLine
 10
-279.625
 20
-71.0
 30
0.0
 11
-281.0
 21
-71.0
 31
0.0
  0
LINE
  5
280
330
3F1
100
AcDbEntity
  8
DATA
  6
Continuous
 62
     7
100
AcDbLine
 10
-279.5
 20
-71.0
 30
0.0
 11
-279.5
 21
-75.0
 31
0.0
  0
LINE
  5
281
330
3F1
100
AcDbEntity
  8
DATA
  6
Continuous
 62
     7
100
AcDbLine
 10
-280.5
 20
-71.0
 30
0.0
 11
-280.5
 21
-75.0
 31
0.0
  0
LINE
  5
282
330
3F1
100
AcDbEntity
  8
DATA
  6
Continuous
 62
     7
100
AcDbLine
 10
-263.9000000000001
 20
-70.09999999999985
 30
0.0
 11
-263.9000000000001
 21
-72.09999999999985
 31
0.0
  0
CIRCLE
  5
283
330
3F1
100
AcDbEntity
  8
DATA
  6
Continuous
 62
     7
100
AcDbCircle
 10
-244.0999999999999
 20
-90.90000000000006
 30
0.0
 40
1.749999999825035
  0
LINE
  5
284
330
3F1
100
AcDbEntity
  8
DATA
  6
Continuous
 62
     7
100
AcDbLine
 10
-243.1
 20
-90.89999999999996
 30
0.0
 11
-245.1
 21
-90.89999999999996
 31
0.0
  0
LINE
  5
285
330
3F1
100
AcDbEntity
  8
DATA
  6
Continuous
 62
     7
100
AcDbLine
 10
-244.1
 20
-89.89999999999996
 30
0.0
 11
-244.1
 21
-91.89999999999995
 31
0.0
  0
TEXT
  5
286
330
3F1
100
AcDbEntity
  8
DATA
 62
     7
100
AcDbText
 10
-241.5529389105903
 20
-61.98197428385416
 30
0.0
 40
2.036051432291666
  1
AUDIO OUT | BALANCED
 50
180.0
 41
0.7
 72
     1
 11
-254.0
 21
-63.0
 31
0.0
100
AcDbText
 73
     2
  0
TEXT
  5
287
330
3F1
100
AcDbEntity
  8
DATA
 62
     7
100
AcDbText
 10
-210.6070913622633
 20
-61.30329047309028
 30
0.0
 40
3.393419053819444
  1
SR300
 50
180.0
 41
0.7
 11
-210.6070913622633
 21
-63.0
 31
0.0
100
AcDbText
 73
     2
  0
LINE
  5
288
330
3F1
100
AcDbEntity
  8
DATA
  6
Continuous
 62
     7
100
AcDbLine
 10
-281.0
 20
-189.8250000000015
 30
0.0
 11
-281.0
 21
-187.8250000000015
 31
0.0
  0
LINE
  5
289
330
3F1
100
AcDbEntity
  8
DATA
  6
Continuous
 62
     7
100
AcDbLine
 10
-279.0
 20
-187.8250000000015
 30
0.0
 11
-279.0
 21
-189.8250000000015
 31
0.0
  0
LINE
  5
28A
330
3F1
100
AcDbEntity
  8
DATA
  6
Continuous
 62
     7
100
AcDbLine
 10
-281.0
 20
-187.8250000000015
 30
0.0
 11
-279.0
 21
-187.8250000000015
 31
0.0
  0
LWPOLYLINE
  5
28B
330
3F1
100
AcDbEntity
  8
DATA
  6
Continuous
 62
     7
100
AcDbPolyline
 90
        4
 70
     1
 43
0.0
 10
140.5
 20
-481.0
 10
142.5
 20
-481.0
 10
142.5
 20
-485.0
 10
140.5
 20
-485.0
  0
LINE
  5
292
330
3F1
100
AcDbEntity
  8
DATA
  6
Continuous
 62
     7
100
AcDbLine
 10
-350.0
 20
-800.0
 30
0.0
 11
-250.0
 21
-800.0
 31
0.0
  0
TEXT
  5
293
330
3F1
100
AcDbEntity
  8
DATA
 62
     7
100
AcDbText
 10
325.0
 20
-897.0618149997767
 30
0.0
 40
15.20251736110731
  1
2.4GHz帯デジタル・ワイヤレスシステム
 41
0.7
 11
325.0
 21
-881.8592976386693
 31
0.0
100
AcDbText
 73
     3
  0
ARC
  5
294
330
3F1
100
AcDbEntity
  8
DATA
  6
Continuous
 62
     7
100
AcDbCircle
 10
-300.0
 20
9669.924999999999
 30
0.0
 40
10000.25
100
AcDbArc
 50
269.4554232252129
 51
270.5445767747872
  0
LWPOLYLINE
  5
295
330
3F1
100
AcDbEntity
  8
DATA
  6
Continuous
 62
     7
100
AcDbPolyline
 90
        4
 70
     1
 43
0.0
 10
-386.7000000000001
 20
-340.3250000000002
 10
-377.3
 20
-340.3250000000002
 10
-377.3
 20
-352.8250000000002
 10
-386.7000000000001
 20
-352.8250000000002
  0
LWPOLYLINE
  5
29C
330
3F1
100
AcDbEntity
  8
DATA
  6
Continuous
 62
     7
100
AcDbPolyline
 90
        4
 70
     1
 43
0.0
 10
-387.05
 20
-331.8250000000002
 10
-376.9500000000001
 20
-331.8250000000002
 10
-376.9500000000001
 20
-340.3250000000002
 10
-387.05
 20
-340.3250000000002
  0
LINE
  5
2A3
330
3F1
100
AcDbEntity
  8
DATA
  6
Continuous
 62
     7
100
AcDbLine
 10
-384.5
 20
-352.8250000000002
 30
0.0
 11
-384.5
 21
-353.8746044501851
 31
0.0
  0
LINE
  5
2A4
330
3F1
100
AcDbEntity
  8
DATA
  6
Continuous
 62
     7
100
AcDbLine
 10
-379.5
 20
-352.8250000000002
 30
0.0
 11
-379.5
 21
-353.8746044501851
 31
0.0
  0
CIRCLE
  5
2A5
330
3F1
100
AcDbEntity
  8
DATA
  6
Continuous
 62
     7
100
AcDbCircle
 10
-382.0
 20
-357.8250000000001
 30
0.0
 40
3.90000000000009
  0
CIRCLE
  5
2A6
330
3F1
100
AcDbEntity
  8
DATA
  6
Continuous
 62
     7
100
AcDbCircle
 10
-382.0
 20
-357.8250000000001
 30
0.0
 40
4.674999999999954
  0
LINE
  5
2A7
330
3F1
100
AcDbEntity
  8
DATA
  6
Continuous
 62
     7
100
AcDbLine
 10
-385.9274252061624
 20
-331.8250000000002
 30
0.0
 11
-385.9274252061624
 21
-329.9558262947532
 31
0.0
  0
LINE
  5
2A8
330
3F1
100
AcDbEntity
  8
DATA
  6
Continuous
 62
     7
100
AcDbLine
 10
-378.0725747938376
 20
-331.8250000000002
 30
0.0
 11
-378.0725747938376
 21
-330.0202366283022
 31
0.0
  0
LINE
  5
2A9
330
3F1
100
AcDbEntity
  8
DATA
  6
Continuous
 62
     7
100
AcDbLine
 10
-377.3
 20
-476.7999999999999
 30
0.0
 11
-377.3
 21
-456.8
 31
0.0
  0
LINE
  5
2AA
330
3F1
100
AcDbEntity
  8
DATA
  6
Continuous
 62
     7
100
AcDbLine
 10
-386.6999999999999
 20
-476.7999999999999
 30
0.0
 11
-377.3
 21
-476.7999999999999
 31
0.0
  0
LINE
  5
2AB
330
3F1
100
AcDbEntity
  8
DATA
  6
Continuous
 62
     7
100
AcDbLine
 10
-378.1
 20
-444.0
 30
0.0
 11
-378.1
 21
-392.9
 31
0.0
  0
LINE
  5
2AC
330
3F1
100
AcDbEntity
  8
DATA
  6
Continuous
 62
     7
100
AcDbLine
 10
-385.9
 20
-392.9
 30
0.0
 11
-385.9
 21
-444.0
 31
0.0
  0
LINE
  5
2AD
330
3F1
100
AcDbEntity
  8
DATA
  6
Continuous
 62
     7
100
AcDbLine
 10
-378.1
 20
-444.0
 30
0.0
 11
-377.3249999999999
 21
-456.8
 31
0.0
  0
LINE
  5
2AE
330
3F1
100
AcDbEntity
  8
DATA
  6
Continuous
 62
     7
100
AcDbLine
 10
-386.6999999999999
 20
-476.7999999999999
 30
0.0
 11
-386.6999999999999
 21
-456.8
 31
0.0
  0
LINE
  5
2AF
330
3F1
100
AcDbEntity
  8
DATA
  6
Continuous
 62
     7
100
AcDbLine
 10
-385.9
 20
-444.0
 30
0.0
 11
-386.675
 21
-456.8
 31
0.0
  0
ARC
  5
2B0
330
3F1
100
AcDbEntity
  8
DATA
  6
Continuous
 62
     7
100
AcDbCircle
 10
-382.0
 20
-392.9
 30
0.0
 40
3.90000000000009
100
AcDbArc
 50
0.0
 51
180.0
  0
LINE
  5
2B1
330
3F1
100
AcDbEntity
  8
DATA
  6
Continuous
 62
     7
100
AcDbLine
 10
-377.3
 20
-456.8
 30
0.0
 11
-386.6999999999999
 21
-456.8
 31
0.0
  0
CIRCLE
  5
2B2
330
3F1
100
AcDbEntity
  8
DATA
  6
STYLE_01
 62
     7
100
AcDbCircle
 10
-382.0
 20
-472.0
 30
0.0
 40
82.99999999999988
  0
LINE
  5
2B3
330
3F1
100
AcDbEntity
  8
DATA
  6
Continuous
 62
     7
100
AcDbLine
 10
-213.3
 20
-476.7999999999999
 30
0.0
 11
-213.3
 21
-456.8
 31
0.0
  0
LINE
  5
2B4
330
3F1
100
AcDbEntity
  8
DATA
  6
Continuous
 62
     7
100
AcDbLine
 10
-222.7
 20
-476.7999999999999
 30
0.0
 11
-213.3
 21
-476.7999999999999
 31
0.0
  0
LINE
  5
2B5
330
3F1
100
AcDbEntity
  8
DATA
  6
Continuous
 62
     7
100
AcDbLine
 10
-214.1
 20
-444.0
 30
0.0
 11
-214.1
 21
-392.9
 31
0.0
  0
LINE
  5
2B6
330
3F1
100
AcDbEntity
  8
DATA
  6
Continuous
 62
     7
100
AcDbLine
 10
-221.9
 20
-392.9
 30
0.0
 11
-221.9
 21
-444.0
 31
0.0
  0
LINE
  5
2B7
330
3F1
100
AcDbEntity
  8
DATA
  6
Continuous
 62
     7
100
AcDbLine
 10
-214.1
 20
-444.0
 30
0.0
 11
-213.3249999999999
 21
-456.8
 31
0.0
  0
LINE
  5
2B8
330
3F1
100
AcDbEntity
  8
DATA
  6
Continuous
 62
     7
100
AcDbLine
 10
-222.7
 20
-476.7999999999999
 30
0.0
 11
-222.7
 21
-456.8
 31
0.0
  0
LINE
  5
2B9
330
3F1
100
AcDbEntity
  8
DATA
  6
Continuous
 62
     7
100
AcDbLine
 10
-221.9
 20
-444.0
 30
0.0
 11
-222.675
 21
-456.8
 31
0.0
  0
ARC
  5
2BA
330
3F1
100
AcDbEntity
  8
DATA
  6
Continuous
 62
     7
100
AcDbCircle
 10
-218.0
 20
-392.9
 30
0.0
 40
3.90000000000009
100
AcDbArc
 50
0.0
 51
180.0
  0
LINE
  5
2BB
330
3F1
100
AcDbEntity
  8
DATA
  6
Continuous
 62
     7
100
AcDbLine
 10
-213.3
 20
-456.8
 30
0.0
 11
-222.7
 21
-456.8
 31
0.0
  0
CIRCLE
  5
2BC
330
3F1
100
AcDbEntity
  8
DATA
  6
STYLE_01
 62
     7
100
AcDbCircle
 10
-218.0
 20
-472.0
 30
0.0
 40
82.99999999999988
  0
LWPOLYLINE
  5
2BD
330
3F1
100
AcDbEntity
  8
DATA
  6
Continuous
 62
     7
100
AcDbPolyline
 90
        4
 70
     1
 43
0.0
 10
-222.7
 20
-340.3250000000002
 10
-213.3
 20
-340.3250000000002
 10
-213.3
 20
-352.8250000000002
 10
-222.7
 20
-352.8250000000002
  0
LWPOLYLINE
  5
2C4
330
3F1
100
AcDbEntity
  8
DATA
  6
Continuous
 62
     7
100
AcDbPolyline
 90
        4
 70
     1
 43
0.0
 10
-223.05
 20
-331.8250000000002
 10
-212.9500000000001
 20
-331.8250000000002
 10
-212.9500000000001
 20
-340.3250000000002
 10
-223.05
 20
-340.3250000000002
  0
LINE
  5
2CB
330
3F1
100
AcDbEntity
  8
DATA
  6
Continuous
 62
     7
100
AcDbLine
 10
-215.5
 20
-352.8250000000002
 30
0.0
 11
-215.5
 21
-353.8746044501851
 31
0.0
  0
LINE
  5
2CC
330
3F1
100
AcDbEntity
  8
DATA
  6
Continuous
 62
     7
100
AcDbLine
 10
-220.5
 20
-352.8250000000002
 30
0.0
 11
-220.5
 21
-353.8746044501851
 31
0.0
  0
CIRCLE
  5
2CD
330
3F1
100
AcDbEntity
  8
DATA
  6
Continuous
 62
     7
100
AcDbCircle
 10
-218.0
 20
-357.8250000000001
 30
0.0
 40
3.90000000000009
  0
CIRCLE
  5
2CE
330
3F1
100
AcDbEntity
  8
DATA
  6
Continuous
 62
     7
100
AcDbCircle
 10
-218.0
 20
-357.8250000000001
 30
0.0
 40
4.67499999999984
  0
LINE
  5
2CF
330
3F1
100
AcDbEntity
  8
DATA
  6
Continuous
 62
     7
100
AcDbLine
 10
-214.0725747938375
 20
-331.8250000000002
 30
0.0
 11
-214.0725747938375
 21
-329.9558262947532
 31
0.0
  0
LINE
  5
2D0
330
3F1
100
AcDbEntity
  8
DATA
  6
Continuous
 62
     7
100
AcDbLine
 10
-221.9274252061624
 20
-331.8250000000002
 30
0.0
 11
-221.9274252061624
 21
-330.0202366283022
 31
0.0
  0
LINE
  5
2D1
330
3F1
100
AcDbEntity
  8
DATA
  6
Continuous
 62
     7
100
AcDbLine
 10
-378.1
 20
-112.0
 30
0.0
 11
-378.1
 21
-163.1
 31
0.0
  0
LINE
  5
2D2
330
3F1
100
AcDbEntity
  8
DATA
  6
Continuous
 62
     7
100
AcDbLine
 10
-385.9
 20
-163.1
 30
0.0
 11
-385.9
 21
-112.0
 31
0.0
  0
LINE
  5
2D3
330
3F1
100
AcDbEntity
  8
DATA
  6
Continuous
 62
     7
100
AcDbLine
 10
-378.1
 20
-112.0
 30
0.0
 11
-377.3734374999999
 21
-100.0
 31
0.0
  0
LINE
  5
2D4
330
3F1
100
AcDbEntity
  8
DATA
  6
Continuous
 62
     7
100
AcDbLine
 10
-385.9
 20
-112.0
 30
0.0
 11
-386.6265625
 21
-100.0
 31
0.0
  0
ARC
  5
2D5
330
3F1
100
AcDbEntity
  8
DATA
  6
Continuous
 62
     7
100
AcDbCircle
 10
-382.0
 20
-163.1
 30
0.0
 40
3.899999999999976
100
AcDbArc
 50
180.0
 51
0.0
  0
LINE
  5
2D6
330
3F1
100
AcDbEntity
  8
DATA
  6
Continuous
 62
     7
100
AcDbLine
 10
-214.1
 20
-112.0
 30
0.0
 11
-214.1
 21
-163.1
 31
0.0
  0
LINE
  5
2D7
330
3F1
100
AcDbEntity
  8
DATA
  6
Continuous
 62
     7
100
AcDbLine
 10
-221.9
 20
-163.1
 30
0.0
 11
-221.9
 21
-112.0
 31
0.0
  0
LINE
  5
2D8
330
3F1
100
AcDbEntity
  8
DATA
  6
Continuous
 62
     7
100
AcDbLine
 10
-214.1
 20
-112.0
 30
0.0
 11
-213.3734375
 21
-100.0
 31
0.0
  0
LINE
  5
2D9
330
3F1
100
AcDbEntity
  8
DATA
  6
Continuous
 62
     7
100
AcDbLine
 10
-221.9
 20
-112.0
 30
0.0
 11
-222.6265625
 21
-100.0
 31
0.0
  0
ARC
  5
2DA
330
3F1
100
AcDbEntity
  8
DATA
  6
Continuous
 62
     7
100
AcDbCircle
 10
-218.0
 20
-163.1
 30
0.0
 40
3.899999999999976
100
AcDbArc
 50
180.0
 51
0.0
  0
LWPOLYLINE
  5
2DB
330
3F1
100
AcDbEntity
  8
DATA
  6
Continuous
 62
     7
100
AcDbPolyline
 90
        4
 70
     1
 43
0.0
 10
-22.29999999999995
 20
-467.3
 10
-9.799999999999952
 20
-467.3
 10
-9.799999999999952
 20
-476.7000000000001
 10
-22.29999999999995
 20
-476.7000000000001
  0
LWPOLYLINE
  5
2E2
330
3F1
100
AcDbEntity
  8
DATA
  6
Continuous
 62
     7
100
AcDbPolyline
 90
        4
 70
     1
 43
0.0
 10
-9.799999999999952
 20
-466.9500000000001
 10
-1.299999999999954
 20
-466.9500000000001
 10
-1.299999999999954
 20
-477.05
 10
-9.799999999999952
 20
-477.05
  0
LINE
  5
2E9
330
3F1
100
AcDbEntity
  8
DATA
  6
Continuous
 62
     7
100
AcDbLine
 10
-22.60000000000002
 20
-467.3
 30
0.0
 11
-22.60000000000002
 21
-456.8
 31
0.0
  0
LINE
  5
2EA
330
3F1
100
AcDbEntity
  8
DATA
  6
Continuous
 62
     7
100
AcDbLine
 10
-32.0
 20
-476.7999999999999
 30
0.0
 11
-24.39999999999998
 21
-476.7999999999999
 31
0.0
  0
LINE
  5
2EB
330
3F1
100
AcDbEntity
  8
DATA
  6
Continuous
 62
     7
100
AcDbLine
 10
-23.39999999999998
 20
-444.0
 30
0.0
 11
-23.39999999999998
 21
-392.9
 31
0.0
  0
LINE
  5
2EC
330
3F1
100
AcDbEntity
  8
DATA
  6
Continuous
 62
     7
100
AcDbLine
 10
-31.20000000000005
 20
-392.9
 30
0.0
 11
-31.20000000000005
 21
-444.0
 31
0.0
  0
LINE
  5
2ED
330
3F1
100
AcDbEntity
  8
DATA
  6
Continuous
 62
     7
100
AcDbLine
 10
-23.39999999999998
 20
-444.0
 30
0.0
 11
-22.625
 21
-456.8
 31
0.0
  0
LINE
  5
2EE
330
3F1
100
AcDbEntity
  8
DATA
  6
Continuous
 62
     7
100
AcDbLine
 10
-32.0
 20
-476.7999999999999
 30
0.0
 11
-32.0
 21
-456.8
 31
0.0
  0
LINE
  5
2EF
330
3F1
100
AcDbEntity
  8
DATA
  6
Continuous
 62
     7
100
AcDbLine
 10
-31.20000000000005
 20
-444.0
 30
0.0
 11
-31.97500000000002
 21
-456.8
 31
0.0
  0
ARC
  5
2F0
330
3F1
100
AcDbEntity
  8
DATA
  6
Continuous
 62
     7
100
AcDbCircle
 10
-27.29999999999995
 20
-392.9
 30
0.0
 40
3.899999999999976
100
AcDbArc
 50
0.0
 51
180.0
  0
LINE
  5
2F1
330
3F1
100
AcDbEntity
  8
DATA
  6
Continuous
 62
     7
100
AcDbLine
 10
-22.60000000000002
 20
-456.8
 30
0.0
 11
-32.0
 21
-456.8
 31
0.0
  0
CIRCLE
  5
2F2
330
3F1
100
AcDbEntity
  8
DATA
  6
Continuous
 62
     7
100
AcDbCircle
 10
-27.29999999999995
 20
-472.0
 30
0.0
 40
0.5
  0
LINE
  5
2F3
330
3F1
100
AcDbEntity
  8
DATA
  6
Continuous
 62
     7
100
AcDbLine
 10
-23.5
 20
-468.2000000000001
 30
0.0
 11
-23.5
 21
-475.8999999999999
 31
0.0
  0
LINE
  5
2F4
330
3F1
100
AcDbEntity
  8
DATA
  6
Continuous
 62
     7
100
AcDbLine
 10
-22.60000000000002
 20
-467.3
 30
0.0
 11
-23.5
 21
-468.2000000000001
 31
0.0
  0
LINE
  5
2F5
330
3F1
100
AcDbEntity
  8
DATA
  6
Continuous
 62
     7
100
AcDbLine
 10
-23.5
 20
-475.8999999999999
 30
0.0
 11
-24.39999999999998
 21
-476.7999999999999
 31
0.0
  0
LINE
  5
2F6
330
3F1
100
AcDbEntity
  8
DATA
  6
Continuous
 62
     7
100
AcDbLine
 10
-22.29999999999995
 20
-469.5
 30
0.0
 11
-23.5
 21
-469.5
 31
0.0
  0
LINE
  5
2F7
330
3F1
100
AcDbEntity
  8
DATA
  6
Continuous
 62
     7
100
AcDbLine
 10
-22.29999999999995
 20
-474.5
 30
0.0
 11
-23.5
 21
-474.5
 31
0.0
  0
LINE
  5
2F8
330
3F1
100
AcDbEntity
  8
DATA
  6
Continuous
 62
     7
100
AcDbLine
 10
-1.299999999999954
 20
-468.0725747938375
 30
0.0
 11
0.0
 21
-468.0725747938375
 31
0.0
  0
LINE
  5
2F9
330
3F1
100
AcDbEntity
  8
DATA
  6
Continuous
 62
     7
100
AcDbLine
 10
-1.299999999999954
 20
-475.9274252061624
 30
0.0
 11
0.0
 21
-475.9274252061624
 31
0.0
  0
LWPOLYLINE
  5
2FA
330
3F1
100
AcDbEntity
  8
DATA
  6
Continuous
 62
     7
100
AcDbPolyline
 90
        4
 70
     1
 43
0.0
 10
-386.7000000000001
 20
-577.4999999999998
 10
-377.3
 20
-577.4999999999998
 10
-377.3
 20
-589.9999999999998
 10
-386.7000000000001
 20
-589.9999999999998
  0
LWPOLYLINE
  5
301
330
3F1
100
AcDbEntity
  8
DATA
  6
Continuous
 62
     7
100
AcDbPolyline
 90
        4
 70
     1
 43
0.0
 10
-387.05
 20
-589.9999999999998
 10
-376.9500000000001
 20
-589.9999999999998
 10
-376.9500000000001
 20
-598.4999999999999
 10
-387.05
 20
-598.4999999999999
  0
LINE
  5
308
330
3F1
100
AcDbEntity
  8
DATA
  6
Continuous
 62
     7
100
AcDbLine
 10
-384.5
 20
-577.4999999999998
 30
0.0
 11
-384.5
 21
-576.4503955498149
 31
0.0
  0
LINE
  5
309
330
3F1
100
AcDbEntity
  8
DATA
  6
Continuous
 62
     7
100
AcDbLine
 10
-379.5
 20
-577.4999999999998
 30
0.0
 11
-379.5
 21
-576.4503955498149
 31
0.0
  0
CIRCLE
  5
30A
330
3F1
100
AcDbEntity
  8
DATA
  6
Continuous
 62
     7
100
AcDbCircle
 10
-382.0
 20
-572.4999999999998
 30
0.0
 40
3.90000000000009
  0
CIRCLE
  5
30B
330
3F1
100
AcDbEntity
  8
DATA
  6
Continuous
 62
     7
100
AcDbCircle
 10
-382.0
 20
-572.4999999999998
 30
0.0
 40
4.674999999999954
  0
LINE
  5
30C
330
3F1
100
AcDbEntity
  8
DATA
  6
Continuous
 62
     7
100
AcDbLine
 10
-385.9274252061624
 20
-598.4999999999999
 30
0.0
 11
-385.9274252061624
 21
-600.3691737052466
 31
0.0
  0
LINE
  5
30D
330
3F1
100
AcDbEntity
  8
DATA
  6
Continuous
 62
     7
100
AcDbLine
 10
-378.0725747938376
 20
-598.4999999999999
 30
0.0
 11
-378.0725747938376
 21
-600.3047633716978
 31
0.0
  0
LWPOLYLINE
  5
30E
330
3F1
100
AcDbEntity
  8
DATA
  6
Continuous
 62
     7
100
AcDbPolyline
 90
        4
 70
     1
 43
0.0
 10
-222.7
 20
-577.4999999999998
 10
-213.3
 20
-577.4999999999998
 10
-213.3
 20
-589.9999999999998
 10
-222.7
 20
-589.9999999999998
  0
LWPOLYLINE
  5
315
330
3F1
100
AcDbEntity
  8
DATA
  6
Continuous
 62
     7
100
AcDbPolyline
 90
        4
 70
     1
 43
0.0
 10
-223.05
 20
-589.9999999999998
 10
-212.9500000000001
 20
-589.9999999999998
 10
-212.9500000000001
 20
-598.4999999999999
 10
-223.05
 20
-598.4999999999999
  0
LINE
  5
31C
330
3F1
100
AcDbEntity
  8
DATA
  6
Continuous
 62
     7
100
AcDbLine
 10
-215.5
 20
-577.4999999999998
 30
0.0
 11
-215.5
 21
-576.4503955498149
 31
0.0
  0
LINE
  5
31D
330
3F1
100
AcDbEntity
  8
DATA
  6
Continuous
 62
     7
100
AcDbLine
 10
-220.5
 20
-577.4999999999998
 30
0.0
 11
-220.5
 21
-576.4503955498149
 31
0.0
  0
CIRCLE
  5
31E
330
3F1
100
AcDbEntity
  8
DATA
  6
Continuous
 62
     7
100
AcDbCircle
 10
-218.0
 20
-572.4999999999998
 30
0.0
 40
3.90000000000009
  0
CIRCLE
  5
31F
330
3F1
100
AcDbEntity
  8
DATA
  6
Continuous
 62
     7
100
AcDbCircle
 10
-218.0
 20
-572.4999999999998
 30
0.0
 40
4.67499999999984
  0
LINE
  5
320
330
3F1
100
AcDbEntity
  8
DATA
  6
Continuous
 62
     7
100
AcDbLine
 10
-214.0725747938375
 20
-598.4999999999999
 30
0.0
 11
-214.0725747938375
 21
-600.3691737052466
 31
0.0
  0
LINE
  5
321
330
3F1
100
AcDbEntity
  8
DATA
  6
Continuous
 62
     7
100
AcDbLine
 10
-221.9274252061624
 20
-598.4999999999999
 30
0.0
 11
-221.9274252061624
 21
-600.3047633716978
 31
0.0
  0
LINE
  5
322
330
3F1
100
AcDbEntity
  8
DATA
  6
Continuous
 62
     7
100
AcDbLine
 10
-348.5
 20
-77.5
 30
0.0
 11
-348.5
 21
-70.5
 31
0.0
  0
LINE
  5
323
330
3F1
100
AcDbEntity
  8
DATA
  6
Continuous
 62
     7
100
AcDbLine
 10
-338.5
 20
-70.5
 30
0.0
 11
-338.5
 21
-77.5
 31
0.0
  0
LINE
  5
324
330
3F1
100
AcDbEntity
  8
DATA
  6
Continuous
 62
     7
100
AcDbLine
 10
-348.5
 20
-70.5
 30
0.0
 11
-346.75
 21
-70.5
 31
0.0
  0
LINE
  5
325
330
3F1
100
AcDbEntity
  8
DATA
  6
Continuous
 62
     7
100
AcDbLine
 10
-340.25
 20
-70.5
 30
0.0
 11
-338.5
 21
-70.5
 31
0.0
  0
LINE
  5
326
330
3F1
100
AcDbEntity
  8
DATA
  6
Continuous
 62
     7
100
AcDbLine
 10
-348.5
 20
-77.5
 30
0.0
 11
-338.5
 21
-77.5
 31
0.0
  0
LINE
  5
327
330
3F1
100
AcDbEntity
  8
DATA
  6
Continuous
 62
     7
100
AcDbLine
 10
-346.75
 20
-67.5
 30
0.0
 11
-346.75
 21
-70.5
 31
0.0
  0
LWPOLYLINE
  5
328
330
3F1
100
AcDbEntity
  8
DATA
  6
Continuous
 62
     7
100
AcDbPolyline
 90
        4
 70
     1
 43
0.0
 10
-350.0
 20
-67.5
 10
-337.0
 20
-67.5
 10
-337.0
 20
-79.0
 10
-350.0
 20
-79.0
  0
TEXT
  5
32F
330
3F1
100
AcDbEntity
  8
DATA
 62
     7
100
AcDbText
 10
-320.0
 20
-61.98197428385416
 30
0.0
 40
2.036051432291666
  1
SYNC |  OUT  IN
 50
180.0
 41
0.7
 11
-320.0
 21
-63.0
 31
0.0
100
AcDbText
 73
     2
  0
LINE
  5
330
330
3F1
100
AcDbEntity
  8
DATA
  6
Continuous
 62
     7
100
AcDbLine
 10
-323.25
 20
-67.5
 30
0.0
 11
-323.25
 21
-70.5
 31
0.0
  0
LINE
  5
331
330
3F1
100
AcDbEntity
  8
DATA
  6
Continuous
 62
     7
100
AcDbLine
 10
-331.5
 20
-77.5
 30
0.0
 11
-331.5
 21
-70.5
 31
0.0
  0
LINE
  5
332
330
3F1
100
AcDbEntity
  8
DATA
  6
Continuous
 62
     7
100
AcDbLine
 10
-321.5
 20
-70.5
 30
0.0
 11
-321.5
 21
-77.5
 31
0.0
  0
LINE
  5
333
330
3F1
100
AcDbEntity
  8
DATA
  6
Continuous
 62
     7
100
AcDbLine
 10
-331.5
 20
-70.5
 30
0.0
 11
-329.75
 21
-70.5
 31
0.0
  0
LINE
  5
334
330
3F1
100
AcDbEntity
  8
DATA
  6
Continuous
 62
     7
100
AcDbLine
 10
-323.25
 20
-70.5
 30
0.0
 11
-321.5
 21
-70.5
 31
0.0
  0
LINE
  5
335
330
3F1
100
AcDbEntity
  8
DATA
  6
Continuous
 62
     7
100
AcDbLine
 10
-331.5
 20
-77.5
 30
0.0
 11
-321.5
 21
-77.5
 31
0.0
  0
LINE
  5
336
330
3F1
100
AcDbEntity
  8
DATA
  6
Continuous
 62
     7
100
AcDbLine
 10
-329.75
 20
-67.5
 30
0.0
 11
-329.75
 21
-70.5
 31
0.0
  0
LWPOLYLINE
  5
337
330
3F1
100
AcDbEntity
  8
DATA
  6
Continuous
 62
     7
100
AcDbPolyline
 90
        4
 70
     1
 43
0.0
 10
-333.0
 20
-67.5
 10
-320.0
 20
-67.5
 10
-320.0
 20
-79.0
 10
-333.0
 20
-79.0
  0
TEXT
  5
33E
330
3F1
100
AcDbEntity
  8
DATA
 62
     7
100
AcDbText
 10
325.0
 20
-926.2301749997687
 30
0.0
 40
19.54609374999511
  1
DMS300 SET ハンドヘルドマイク
 41
0.7
 11
325.0
 21
-906.6840812497735
 31
0.0
100
AcDbText
 73
     3
  0
LINE
  5
33F
330
3F1
100
AcDbEntity
  8
DATA
  6
Continuous
 62
     7
100
AcDbLine
 10
200.0
 20
-637.5000000505874
 30
0.0
 11
500.0
 21
-637.5000000505874
 31
0.0
  0
LINE
  5
340
330
3F1
100
AcDbEntity
  8
DATA
  6
Continuous
 62
     7
100
AcDbLine
 10
330.9
 20
-356.0
 30
0.0
 11
328.15
 21
-339.5
 31
0.0
  0
LINE
  5
341
330
3F1
100
AcDbEntity
  8
DATA
  6
Continuous
 62
     7
100
AcDbLine
 10
328.15
 20
-339.5
 30
0.0
 11
371.85
 21
-339.5
 31
0.0
  0
LINE
  5
342
330
3F1
100
AcDbEntity
  8
DATA
  6
Continuous
 62
     7
100
AcDbLine
 10
328.15
 20
-339.5
 30
0.0
 11
327.2337278106509
 21
-332.2662721893492
 31
0.0
  0
LINE
  5
343
330
3F1
100
AcDbEntity
  8
DATA
  6
Continuous
 62
     7
100
AcDbLine
 10
372.7662721893491
 20
-332.2662721893492
 30
0.0
 11
371.85
 21
-339.5
 31
0.0
  0
LINE
  5
344
330
3F1
100
AcDbEntity
  8
DATA
  6
Continuous
 62
     7
100
AcDbLine
 10
372.5
 20
-332.0
 30
0.0
 11
327.5
 21
-332.0
 31
0.0
  0
LINE
  5
345
330
3F1
100
AcDbEntity
  8
DATA
  6
Continuous
 62
     7
100
AcDbLine
 10
325.5
 20
-317.5
 30
0.0
 11
324.5
 21
-308.8636363636364
 31
0.0
  0
LINE
  5
346
330
3F1
100
AcDbEntity
  8
DATA
  6
Continuous
 62
     7
100
AcDbLine
 10
325.5
 20
-317.5
 30
0.0
 11
374.5
 21
-317.5
 31
0.0
  0
LINE
  5
347
330
3F1
100
AcDbEntity
  8
DATA
  6
Continuous
 62
     7
100
AcDbLine
 10
375.5
 20
-308.8636363636364
 30
0.0
 11
374.5
 21
-317.5
 31
0.0
  0
LINE
  5
348
330
3F1
100
AcDbEntity
  8
DATA
  6
Continuous
 62
     7
100
AcDbLine
 10
326.0
 20
-307.5
 30
0.0
 11
374.0
 21
-307.5
 31
0.0
  0
LINE
  5
349
330
3F1
100
AcDbEntity
  8
DATA
  6
Continuous
 62
     7
100
AcDbLine
 10
334.7968005494497
 20
-276.5
 30
0.0
 11
365.2031994505503
 21
-276.5
 31
0.0
  0
ARC
  5
34A
330
3F1
100
AcDbEntity
  8
DATA
  6
Continuous
 62
     7
100
AcDbCircle
 10
579.8124999999999
 20
-344.5372983870968
 30
0.0
 40
256.5005782216969
100
AcDbArc
 50
165.1341472462211
 51
171.697776606008
  0
ARC
  5
34B
330
3F1
100
AcDbEntity
  8
DATA
  6
Continuous
 62
     7
100
AcDbCircle
 10
334.7968005494497
 20
-279.5000000000001
 30
0.0
 40
3.000000000000056
100
AcDbArc
 50
90.0
 51
165.1341472462199
  0
ARC
  5
34C
330
3F1
100
AcDbEntity
  8
DATA
  6
Continuous
 62
     7
100
AcDbCircle
 10
120.1874999999999
 20
-344.5372983870968
 30
0.0
 40
256.5005782216969
100
AcDbArc
 50
8.30222339399199
 51
14.86585275377883
  0
ARC
  5
34D
330
3F1
100
AcDbEntity
  8
DATA
  6
Continuous
 62
     7
100
AcDbCircle
 10
365.2031994505503
 20
-279.5000000000001
 30
0.0
 40
3.000000000000002
100
AcDbArc
 50
14.86585275378005
 51
90.0
  0
TEXT
  5
34E
330
3F1
100
AcDbEntity
  8
DATA
 62
     7
100
AcDbText
 10
342.3987413194445
 20
-314.5360514322917
 30
0.0
 40
4.072102864583333
  1
DMS300
 41
0.7
 72
     1
 11
350.0
 21
-312.5
 31
0.0
100
AcDbText
 73
     2
  0
LINE
  5
34F
330
3F1
100
AcDbEntity
  8
DATA
  6
Continuous
 62
     7
100
AcDbLine
 10
324.5
 20
-308.8636363636364
 30
0.0
 11
326.0
 21
-307.5
 31
0.0
  0
LINE
  5
350
330
3F1
100
AcDbEntity
  8
DATA
  6
Continuous
 62
     7
100
AcDbLine
 10
324.5
 20
-308.8636363636364
 30
0.0
 11
375.5
 21
-308.8636363636364
 31
0.0
  0
LINE
  5
351
330
3F1
100
AcDbEntity
  8
DATA
  6
Continuous
 62
     7
100
AcDbLine
 10
375.5
 20
-308.8636363636364
 30
0.0
 11
374.0
 21
-307.5
 31
0.0
  0
LINE
  5
352
330
3F1
100
AcDbEntity
  8
DATA
  6
Continuous
 62
     7
100
AcDbLine
 10
327.2337278106509
 20
-332.2662721893492
 30
0.0
 11
327.5
 21
-332.0
 31
0.0
  0
LINE
  5
353
330
3F1
100
AcDbEntity
  8
DATA
  6
Continuous
 62
     7
100
AcDbLine
 10
372.7662721893491
 20
-332.2662721893492
 30
0.0
 11
327.2337278106509
 21
-332.2662721893492
 31
0.0
  0
LINE
  5
354
330
3F1
100
AcDbEntity
  8
DATA
  6
Continuous
 62
     7
100
AcDbLine
 10
372.7662721893491
 20
-332.2662721893492
 30
0.0
 11
372.5
 21
-332.0
 31
0.0
  0
ARC
  5
355
330
3F1
100
AcDbEntity
  8
DATA
  6
Continuous
 62
     7
100
AcDbCircle
 10
1833.700000000082
 20
-221.3336734693827
 30
0.0
 40
1510.260068937807
100
AcDbArc
 50
183.6507982575649
 51
184.2021911701132
  0
ARC
  5
356
330
3F1
100
AcDbEntity
  8
DATA
  6
Continuous
 62
     7
100
AcDbCircle
 10
-1133.700000000082
 20
-221.3336734693827
 30
0.0
 40
1510.260068937807
100
AcDbArc
 50
355.7978088298868
 51
356.3492017424351
  0
LINE
  5
357
330
3F1
100
AcDbEntity
  8
DATA
  6
Continuous
 62
     7
100
AcDbLine
 10
369.1
 20
-356.0
 30
0.0
 11
371.85
 21
-339.5
 31
0.0
  0
LINE
  5
358
330
3F1
100
AcDbEntity
  8
DATA
  6
Continuous
 62
     7
100
AcDbLine
 10
333.7328326180257
 20
-525.0
 30
0.0
 11
331.75
 21
-409.4999999999999
 31
0.0
  0
LINE
  5
359
330
3F1
100
AcDbEntity
  8
DATA
  6
Continuous
 62
     7
100
AcDbLine
 10
366.0
 20
-526.0
 30
0.0
 11
334.0
 21
-526.0
 31
0.0
  0
LINE
  5
35A
330
3F1
100
AcDbEntity
  8
DATA
  6
Continuous
 62
     7
100
AcDbLine
 10
368.25
 20
-409.4999999999999
 30
0.0
 11
366.2671673819743
 21
-525.0
 31
0.0
  0
LINE
  5
35B
330
3F1
100
AcDbEntity
  8
DATA
  6
Continuous
 62
     7
100
AcDbLine
 10
331.75
 20
-409.4999999999999
 30
0.0
 11
368.25
 21
-409.4999999999999
 31
0.0
  0
LINE
  5
35C
330
3F1
100
AcDbEntity
  8
DATA
  6
Continuous
 62
     7
100
AcDbLine
 10
331.75
 20
-409.4999999999999
 30
0.0
 11
330.9
 21
-356.0
 31
0.0
  0
LINE
  5
35D
330
3F1
100
AcDbEntity
  8
DATA
  6
Continuous
 62
     7
100
AcDbLine
 10
369.1
 20
-356.0
 30
0.0
 11
368.25
 21
-409.4999999999999
 31
0.0
  0
LINE
  5
35E
330
3F1
100
AcDbEntity
  8
DATA
  6
Continuous
 62
     7
100
AcDbLine
 10
330.9
 20
-356.0
 30
0.0
 11
369.1
 21
-356.0
 31
0.0
  0
LINE
  5
35F
330
3F1
100
AcDbEntity
  8
DATA
  6
Continuous
 62
     7
100
AcDbLine
 10
366.2671673819743
 20
-525.0
 30
0.0
 11
333.7328326180257
 21
-525.0
 31
0.0
  0
LINE
  5
360
330
3F1
100
AcDbEntity
  8
DATA
  6
Continuous
 62
     7
100
AcDbLine
 10
366.2671673819743
 20
-525.0
 30
0.0
 11
366.0
 21
-526.0
 31
0.0
  0
LINE
  5
361
330
3F1
100
AcDbEntity
  8
DATA
  6
Continuous
 62
     7
100
AcDbLine
 10
334.0
 20
-526.0
 30
0.0
 11
333.7328326180257
 21
-525.0
 31
0.0
  0
TEXT
  5
362
330
3F1
100
AcDbEntity
  8
DATA
 62
     7
100
AcDbText
 10
345.8826515480324
 20
-406.3573676215277
 30
0.0
 40
2.714735243055555
  1
HT300
 41
0.7
 72
     1
 11
350.0
 21
-405.0
 31
0.0
100
AcDbText
 73
     2
  0
LWPOLYLINE
  5
363
330
3F1
100
AcDbEntity
  8
DATA
  6
Continuous
 62
     7
100
AcDbPolyline
 90
        4
 70
     1
 43
0.0
 10
344.3471030996388
 20
-391.5
 10
346.3471030996388
 20
-391.5
 10
346.3471030996388
 20
-392.5
 10
344.3471030996388
 20
-392.5
  0
CIRCLE
  5
36A
330
3F1
100
AcDbEntity
  8
DATA
  6
Continuous
 62
     7
100
AcDbCircle
 10
345.8471030996388
 20
-396.0
 30
0.0
 40
0.5
  0
TEXT
  5
36B
330
3F1
100
AcDbEntity
  8
DATA
 62
     7
100
AcDbText
 10
347.3471030996388
 20
-397.3573676215278
 30
0.0
 40
2.714735243055555
  1
MUTE
 41
0.7
 11
347.3471030996388
 21
-396.0
 31
0.0
100
AcDbText
 73
     2
  0
TEXT
  5
36C
330
3F1
100
AcDbEntity
  8
DATA
 62
     7
100
AcDbText
 10
347.3471030996388
 20
-393.3573676215278
 30
0.0
 40
2.714735243055555
  1
POWER
 41
0.7
 11
347.3471030996388
 21
-392.0
 31
0.0
100
AcDbText
 73
     2
  0
LWPOLYLINE
  5
36D
330
3F1
100
AcDbEntity
  8
DATA
  6
Continuous
 62
     7
100
AcDbPolyline
 90
        4
 70
     1
 43
0.0
 10
343.0
 20
-364.0
 10
357.0
 20
-364.0
 10
357.0
 20
-389.5
 10
343.0
 20
-389.5
  0
CIRCLE
  5
374
330
3F1
100
AcDbEntity
  8
DATA
  6
Continuous
 62
     7
100
AcDbCircle
 10
350.0
 20
-563.4999999999999
 30
0.0
 40
16.0
  0
CIRCLE
  5
375
330
3F1
100
AcDbEntity
  8
DATA
  6
Continuous
 62
     7
100
AcDbCircle
 10
350.0
 20
-563.4999999999999
 30
0.0
 40
10.0
  0
TEXT
  5
376
330
3F1
100
AcDbEntity
  8
DATA
 62
     7
100
AcDbText
 10
354.0721028645833
 20
-571.1012586805556
 30
0.0
 40
8.144205729166666
  1
AKG
 50
90.0
 41
0.7
 72
     1
 11
350.0
 21
-563.4999999999999
 31
0.0
100
AcDbText
 73
     2
  0
CIRCLE
  5
377
330
3F1
100
AcDbEntity
  8
DATA
  6
Continuous
 62
     7
100
AcDbCircle
 10
350.0
 20
-563.4999999999999
 30
0.0
 40
18.24999999999997
  0
CIRCLE
  5
378
330
3F1
100
AcDbEntity
  8
DATA
  6
Continuous
 62
     7
100
AcDbCircle
 10
350.0
 20
-563.4999999999999
 30
0.0
 40
19.10000000000009
  0
CIRCLE
  5
379
330
3F1
100
AcDbEntity
  8
DATA
  6
Continuous
 62
     7
100
AcDbCircle
 10
350.0
 20
-563.4999999999999
 30
0.0
 40
21.84999999999996
  0
CIRCLE
  5
37A
330
3F1
100
AcDbEntity
  8
DATA
  6
Continuous
 62
     7
100
AcDbCircle
 10
350.0
 20
-563.4999999999999
 30
0.0
 40
22.76627218934903
  0
CIRCLE
  5
37B
330
3F1
100
AcDbEntity
  8
DATA
  6
Continuous
 62
     7
100
AcDbCircle
 10
350.0
 20
-563.4999999999999
 30
0.0
 40
24.50000000000001
  0
CIRCLE
  5
37C
330
3F1
100
AcDbEntity
  8
DATA
  6
Continuous
 62
     7
100
AcDbCircle
 10
350.0
 20
-563.4999999999999
 30
0.0
 40
25.50000000000003
  0
CIRCLE
  5
37D
330
3F1
100
AcDbEntity
  8
DATA
  6
Continuous
 62
     7
100
AcDbCircle
 10
350.0
 20
-226.0
 30
0.0
 40
17.5
  0
CIRCLE
  5
37E
330
3F1
100
AcDbEntity
  8
DATA
  6
Continuous
 62
     7
100
AcDbCircle
 10
350.0
 20
-226.0
 30
0.0
 40
23.99999999999995
  0
CIRCLE
  5
37F
330
3F1
100
AcDbEntity
  8
DATA
  6
Continuous
 62
     7
100
AcDbCircle
 10
350.0
 20
-226.0
 30
0.0
 40
25.49999999999997
  0
LINE
  5
380
330
3F1
100
AcDbEntity
  8
DATA
  6
Continuous
 62
     7
100
AcDbLine
 10
357.0
 20
-385.0
 30
0.0
 11
343.0
 21
-385.0
 31
0.0
  0
ENDSEC
  0
SECTION
  2
OBJECTS
  0
DICTIONARY
  5
38E
330
0
100
AcDbDictionary
281
     1
  3
ACAD_CIP_PREVIOUS_PRODUCT_INFO
350
40B
  3
ACAD_COLOR
350
3E4
  3
ACAD_DETAILVIEWSTYLE
350
3EB
  3
ACAD_GROUP
350
38F
  3
ACAD_LAYOUT
350
3E3
  3
ACAD_MATERIAL
350
392
  3
ACAD_MLEADERSTYLE
350
3E7
  3
ACAD_MLINESTYLE
350
3E0
  3
ACAD_PLOTSETTINGS
350
3E2
  3
ACAD_PLOTSTYLENAME
350
390
  3
ACAD_SCALELIST
350
3C4
  3
ACAD_SECTIONVIEWSTYLE
350
3E9
  3
ACAD_TABLESTYLE
350
3E5
  3
ACAD_VISUALSTYLE
350
3AB
  3
ACDB_RECOMPOSE_DATA
350
425
  3
AcDbVariableDictionary
350
418
  3
DWGPROPS
350
426
  0
DICTIONARY
  5
40C
330
3D6
100
AcDbDictionary
280
     1
281
     1
  3
ADSK_XREC_LAYER_RECONCILED
360
40D
  0
DICTIONARY
  5
40E
330
3F5
100
AcDbDictionary
280
     1
281
     1
  3
ADSK_XREC_LAYER_RECONCILED
360
40F
  0
DICTIONARY
  5
410
330
402
100
AcDbDictionary
280
     1
281
     1
  3
ADSK_XREC_LAYER_RECONCILED
360
411
  0
DICTIONARY
  5
412
330
403
100
AcDbDictionary
280
     1
281
     1
  3
ADSK_XREC_LAYER_RECONCILED
360
413
  0
DICTIONARY
  5
414
330
404
100
AcDbDictionary
280
     1
281
     1
  3
ADSK_XREC_LAYER_RECONCILED
360
415
  0
DICTIONARY
  5
416
330
405
100
AcDbDictionary
280
     1
281
     1
  3
ADSK_XREC_LAYER_RECONCILED
360
417
  0
XRECORD
  5
40B
102
{ACAD_REACTORS
330
38E
102
}
330
38E
100
AcDbXrecord
280
     1
300
ACDLT
300
2020
300

  0
DICTIONARY
  5
3E4
102
{ACAD_REACTORS
330
38E
102
}
330
38E
100
AcDbDictionary
281
     1
  0
DICTIONARY
  5
3EB
102
{ACAD_REACTORS
330
38E
102
}
330
38E
100
AcDbDictionary
281
     1
  3
Imperial24
350
3EC
  0
DICTIONARY
  5
38F
102
{ACAD_REACTORS
330
38E
102
}
330
38E
100
AcDbDictionary
281
     1
  0
DICTIONARY
  5
3E3
102
{ACAD_REACTORS
330
38E
102
}
330
38E
100
AcDbDictionary
281
     1
  3
Model
350
3F4
  3
レイアウト1
350
3F0
  0
DICTIONARY
  5
392
102
{ACAD_REACTORS
330
38E
102
}
330
38E
100
AcDbDictionary
281
     1
  3
ByBlock
350
39B
  3
ByLayer
350
393
  3
Global
350
3A3
  0
DICTIONARY
  5
3E7
102
{ACAD_REACTORS
330
38E
102
}
330
38E
100
AcDbDictionary
281
     1
  3
Standard
350
3E8
  0
DICTIONARY
  5
3E0
102
{ACAD_REACTORS
330
38E
102
}
330
38E
100
AcDbDictionary
281
     1
  3
Standard
350
3E1
  0
DICTIONARY
  5
3E2
102
{ACAD_REACTORS
330
38E
102
}
330
38E
100
AcDbDictionary
281
     1
  0
ACDBDICTIONARYWDFLT
  5
390
102
{ACAD_REACTORS
330
38E
102
}
330
38E
100
AcDbDictionary
281
     1
  3
Normal
350
391
100
AcDbDictionaryWithDefault
340
391
  0
DICTIONARY
  5
3C4
102
{ACAD_REACTORS
330
38E
102
}
330
38E
100
AcDbDictionary
281
     1
  3
A0
350
3C5
  3
A1
350
3C6
  3
A2
350
3C7
  3
A3
350
3C8
  3
A4
350
3C9
  3
A5
350
3CA
  3
A6
350
3CB
  3
A7
350
3CC
  3
A8
350
3CD
  3
A9
350
3CE
  3
B0
350
3CF
  3
B1
350
3D0
  3
B2
350
3D1
  3
B3
350
3D2
  3
B4
350
3D3
  3
B5
350
3D4
  3
B6
350
3D5
  0
DICTIONARY
  5
3E9
102
{ACAD_REACTORS
330
38E
102
}
330
38E
100
AcDbDictionary
281
     1
  3
Imperial24
350
3EA
  0
DICTIONARY
  5
3E5
102
{ACAD_REACTORS
330
38E
102
}
330
38E
100
AcDbDictionary
281
     1
  3
Standard
350
3E6
  0
DICTIONARY
  5
3AB
102
{ACAD_REACTORS
330
38E
102
}
330
38E
100
AcDbDictionary
281
     1
  3
2dWireframe
350
3B1
  3
Basic
350
3B0
  3
Brighten
350
3B7
  3
ColorChange
350
3BB
  3
Conceptual
350
3B4
  3
Dim
350
3B6
  3
EdgeColorOff
350
3C3
  3
Facepattern
350
3BA
  3
Flat
350
3AC
  3
FlatWithEdges
350
3AD
  3
Gouraud
350
3AE
  3
GouraudWithEdges
350
3AF
  3
Hidden
350
3B3
  3
JitterOff
350
3C1
  3
Linepattern
350
3B9
  3
OverhangOff
350
3C2
  3
Realistic
350
3B5
  3
Shaded
350
3C0
  3
Shaded with edges
350
3BF
  3
Shades of Gray
350
3BC
  3
Sketchy
350
3BD
  3
Thicken
350
3B8
  3
Wireframe
350
3B2
  3
X-Ray
350
3BE
  0
XRECORD
  5
425
102
{ACAD_REACTORS
330
38E
102
}
330
38E
100
AcDbXrecord
280
     1
 90
        1
330
3E6
  0
DICTIONARY
  5
418
102
{ACAD_REACTORS
330
38E
102
}
330
38E
100
AcDbDictionary
281
     1
  3
CANNOSCALE
350
41D
  3
CMLEADERSTYLE
350
41A
  3
CTABLESTYLE
350
419
  3
CVIEWDETAILSTYLE
350
41B
  3
CVIEWSECTIONSTYLE
350
41C
  3
DIMASSOC
350
420
  3
INDEXCTL
350
41F
  3
SORTENTS
350
41E
  3
XCLIPFRAME
350
421
  0
XRECORD
  5
426
102
{ACAD_REACTORS
330
38E
102
}
330
38E
100
AcDbXrecord
280
     1
  1
DWGPROPS COOKIE
  2

  3

  4

  6

  7

  8
sasaki_n
  9

300
=
301
=
302
=
303
=
304
=
305
=
306
=
307
=
308
=
309
=
 40
0.0007291666666667
 41
2458863.692222223
 42
2458863.693182871
  1

 90
        0
  0
XRECORD
  5
40D
102
{ACAD_REACTORS
330
40C
102
}
330
40C
100
AcDbXrecord
280
     1
290
     1
  0
XRECORD
  5
40F
102
{ACAD_REACTORS
330
40E
102
}
330
40E
100
AcDbXrecord
280
     1
290
     1
  0
XRECORD
  5
411
102
{ACAD_REACTORS
330
410
102
}
330
410
100
AcDbXrecord
280
     1
290
     1
  0
XRECORD
  5
413
102
{ACAD_REACTORS
330
412
102
}
330
412
100
AcDbXrecord
280
     1
290
     1
  0
XRECORD
  5
415
102
{ACAD_REACTORS
330
414
102
}
330
414
100
AcDbXrecord
280
     1
290
     1
  0
XRECORD
  5
417
102
{ACAD_REACTORS
330
416
102
}
330
416
100
AcDbXrecord
280
     1
290
     1
  0
ACDBDETAILVIEWSTYLE
  5
3EC
102
{ACAD_XDICTIONARY
360
45E
102
}
102
{ACAD_REACTORS
330
3EB
102
}
330
3EB
100
AcDbModelDocViewStyle
 70
     0
  3
Imperial24
290
     0
100
AcDbDetailViewStyle
 70
     0
 71
     0
 90
        3
 71
     1
340
3D7
 40
0.24
340
0
 40
0.24
300

 40
0.36
280
     3
 71
     2
340
3DE
 90
       25
 71
     3
340
3D7
 40
0.24
 90
        1
 40
0.75
 90
        1
300
%<\AcVar ViewType \f "%tc1">% %<\AcVar ViewDetailId>%\PSCALE %<\AcVar ViewScale \f "%sn">%
 71
     4
340
3DE
 90
       25
340
3DE
 90
       25
280
     0
  0
LAYOUT
  5
3F4
102
{ACAD_XDICTIONARY
360
462
102
}
102
{ACAD_REACTORS
330
3E3
102
}
330
3E3
100
AcDbPlotSettings
  1

  2
DocuPrint 3000-3
  4

  6

 40
0.0
 41
0.0
 42
0.0
 43
0.0
 44
0.0
 45
0.0
 46
0.0
 47
0.0
 48
0.0
 49
0.0
140
0.0
141
0.0
142
1.0
143
1.0
 70
  1712
 72
     0
 73
     0
 74
     0
  7

 75
     0
147
1.0
148
0.0
149
0.0
100
AcDbLayout
  1
Model
 70
     1
 71
     0
 10
0.0
 20
0.0
 11
12.0
 21
9.0
 12
0.0
 22
0.0
 32
0.0
 14
0.0
 24
0.0
 34
0.0
 15
0.0
 25
0.0
 35
0.0
146
0.0
 13
0.0
 23
0.0
 33
0.0
 16
1.0
 26
0.0
 36
0.0
 17
0.0
 27
1.0
 37
0.0
 76
     0
330
3F1
331
3F6
  0
LAYOUT
  5
3F0
102
{ACAD_XDICTIONARY
360
460
102
}
102
{ACAD_REACTORS
330
3E3
102
}
330
3E3
100
AcDbPlotSettings
  1

  2
DocuPrint 3000-3
  4

  6

 40
0.0
 41
0.0
 42
0.0
 43
0.0
 44
0.0
 45
0.0
 46
0.0
 47
0.0
 48
0.0
 49
0.0
140
0.0
141
0.0
142
1.0
143
1.0
 70
   688
 72
     0
 73
     0
 74
     5
  7

 75
    16
147
1.0
148
0.0
149
0.0
100
AcDbLayout
  1
レイアウト1
 70
     0
 71
     1
 10
0.0
 20
0.0
 11
12.0
 21
9.0
 12
0.0
 22
0.0
 32
0.0
 14
1.000000000000000E+20
 24
1.000000000000000E+20
 34
1.000000000000000E+20
 15
-1.000000000000000E+20
 25
-1.000000000000000E+20
 35
-1.000000000000000E+20
146
0.0
 13
0.0
 23
0.0
 33
0.0
 16
1.0
 26
0.0
 36
0.0
 17
0.0
 27
1.0
 37
0.0
 76
     0
330
3ED
  0
MATERIAL
  5
39B
102
{ACAD_XDICTIONARY
360
39C
102
}
102
{ACAD_REACTORS
330
392
102
}
330
392
100
AcDbMaterial
  1
ByBlock
 72
     0
 43
0.0208333333333333
 43
0.0
 43
0.0
 43
0.0
 43
0.0
 43
0.0208333333333333
 43
0.0
 43
0.0
 43
0.0
 43
0.0
 43
1.0
 43
0.0
 43
0.0
 43
0.0
 43
0.0
 43
1.0
 77
     0
 47
0.0208333333333333
 47
0.0
 47
0.0
 47
0.0
 47
0.0
 47
0.0208333333333333
 47
0.0
 47
0.0
 47
0.0
 47
0.0
 47
1.0
 47
0.0
 47
0.0
 47
0.0
 47
0.0
 47
1.0
171
     0
 49
0.0208333333333333
 49
0.0
 49
0.0
 49
0.0
 49
0.0
 49
0.0208333333333333
 49
0.0
 49
0.0
 49
0.0
 49
0.0
 49
1.0
 49
0.0
 49
0.0
 49
0.0
 49
0.0
 49
1.0
175
     0
142
0.0208333333333333
142
0.0
142
0.0
142
0.0
142
0.0
142
0.0208333333333333
142
0.0
142
0.0
142
0.0
142
0.0
142
1.0
142
0.0
142
0.0
142
0.0
142
0.0
142
1.0
179
     0
144
0.0208333333333333
144
0.0
144
0.0
144
0.0
144
0.0
144
0.0208333333333333
144
0.0
144
0.0
144
0.0
144
0.0
144
1.0
144
0.0
144
0.0
144
0.0
144
0.0
144
1.0
147
0.0208333333333333
147
0.0
147
0.0
147
0.0
147
0.0
147
0.0208333333333333
147
0.0
147
0.0
147
0.0
147
0.0
147
1.0
147
0.0
147
0.0
147
0.0
147
0.0
147
1.0
  0
MATERIAL
  5
393
102
{ACAD_XDICTIONARY
360
394
102
}
102
{ACAD_REACTORS
330
392
102
}
330
392
100
AcDbMaterial
  1
ByLayer
 72
     0
 43
0.0208333333333333
 43
0.0
 43
0.0
 43
0.0
 43
0.0
 43
0.0208333333333333
 43
0.0
 43
0.0
 43
0.0
 43
0.0
 43
1.0
 43
0.0
 43
0.0
 43
0.0
 43
0.0
 43
1.0
 77
     0
 47
0.0208333333333333
 47
0.0
 47
0.0
 47
0.0
 47
0.0
 47
0.0208333333333333
 47
0.0
 47
0.0
 47
0.0
 47
0.0
 47
1.0
 47
0.0
 47
0.0
 47
0.0
 47
0.0
 47
1.0
171
     0
 49
0.0208333333333333
 49
0.0
 49
0.0
 49
0.0
 49
0.0
 49
0.0208333333333333
 49
0.0
 49
0.0
 49
0.0
 49
0.0
 49
1.0
 49
0.0
 49
0.0
 49
0.0
 49
0.0
 49
1.0
175
     0
142
0.0208333333333333
142
0.0
142
0.0
142
0.0
142
0.0
142
0.0208333333333333
142
0.0
142
0.0
142
0.0
142
0.0
142
1.0
142
0.0
142
0.0
142
0.0
142
0.0
142
1.0
179
     0
144
0.0208333333333333
144
0.0
144
0.0
144
0.0
144
0.0
144
0.0208333333333333
144
0.0
144
0.0
144
0.0
144
0.0
144
1.0
144
0.0
144
0.0
144
0.0
144
0.0
144
1.0
147
0.0208333333333333
147
0.0
147
0.0
147
0.0
147
0.0
147
0.0208333333333333
147
0.0
147
0.0
147
0.0
147
0.0
147
1.0
147
0.0
147
0.0
147
0.0
147
0.0
147
1.0
  0
MATERIAL
  5
3A3
102
{ACAD_XDICTIONARY
360
3A4
102
}
102
{ACAD_REACTORS
330
392
102
}
330
392
100
AcDbMaterial
  1
Global
 72
     0
 43
0.0208333333333333
 43
0.0
 43
0.0
 43
0.0
 43
0.0
 43
0.0208333333333333
 43
0.0
 43
0.0
 43
0.0
 43
0.0
 43
1.0
 43
0.0
 43
0.0
 43
0.0
 43
0.0
 43
1.0
 77
     0
 47
0.0208333333333333
 47
0.0
 47
0.0
 47
0.0
 47
0.0
 47
0.0208333333333333
 47
0.0
 47
0.0
 47
0.0
 47
0.0
 47
1.0
 47
0.0
 47
0.0
 47
0.0
 47
0.0
 47
1.0
171
     0
 49
0.0208333333333333
 49
0.0
 49
0.0
 49
0.0
 49
0.0
 49
0.0208333333333333
 49
0.0
 49
0.0
 49
0.0
 49
0.0
 49
1.0
 49
0.0
 49
0.0
 49
0.0
 49
0.0
 49
1.0
175
     0
142
0.0208333333333333
142
0.0
142
0.0
142
0.0
142
0.0
142
0.0208333333333333
142
0.0
142
0.0
142
0.0
142
0.0
142
1.0
142
0.0
142
0.0
142
0.0
142
0.0
142
1.0
179
     0
144
0.0208333333333333
144
0.0
144
0.0
144
0.0
144
0.0
144
0.0208333333333333
144
0.0
144
0.0
144
0.0
144
0.0
144
1.0
144
0.0
144
0.0
144
0.0
144
0.0
144
1.0
147
0.0208333333333333
147
0.0
147
0.0
147
0.0
147
0.0
147
0.0208333333333333
147
0.0
147
0.0
147
0.0
147
0.0
147
1.0
147
0.0
147
0.0
147
0.0
147
0.0
147
1.0
  0
MLEADERSTYLE
  5
3E8
102
{ACAD_REACTORS
330
3E7
102
}
330
3E7
100
AcDbMLeaderStyle
170
     2
171
     1
172
     0
 90
        2
 40
0.0
 41
0.0
173
     1
 91
-1056964608
340
3DC
 92
       -2
290
     1
 42
0.09
291
     1
 43
0.36
  3
Standard
 44
0.18
300

342
3D7
174
     1
178
     6
175
     1
176
     0
 93
-1056964608
 45
0.18
292
     0
297
     0
 46
0.18
 94
-1056964608
 47
1.0
 49
1.0
140
1.0
293
     1
141
0.0
294
     1
177
     0
142
1.0
295
     0
296
     0
143
0.125
1001
ACAD_MLEADERVER
1070
     2
  0
MLINESTYLE
  5
3E1
102
{ACAD_REACTORS
330
3E0
102
}
330
3E0
100
AcDbMlineStyle
  2
STANDARD
 70
     0
  3

 62
   256
 51
90.0
 52
90.0
 71
     2
 49
0.5
 62
   256
  6
BYLAYER
 49
-0.5
 62
   256
  6
BYLAYER
  0
ACDBPLACEHOLDER
  5
391
102
{ACAD_REACTORS
330
390
102
}
330
390
  0
SCALE
  5
3C5
102
{ACAD_REACTORS
330
3C4
102
}
330
3C4
100
AcDbScale
 70
     0
300
1:1
140
1.0
141
1.0
290
     1
  0
SCALE
  5
3C6
102
{ACAD_REACTORS
330
3C4
102
}
330
3C4
100
AcDbScale
 70
     0
300
1/128" = 1'-0"
140
0.0078125
141
12.0
290
     0
  0
SCALE
  5
3C7
102
{ACAD_REACTORS
330
3C4
102
}
330
3C4
100
AcDbScale
 70
     0
300
1/64" = 1'-0"
140
0.015625
141
12.0
290
     0
  0
SCALE
  5
3C8
102
{ACAD_REACTORS
330
3C4
102
}
330
3C4
100
AcDbScale
 70
     0
300
1/32" = 1'-0"
140
0.03125
141
12.0
290
     0
  0
SCALE
  5
3C9
102
{ACAD_REACTORS
330
3C4
102
}
330
3C4
100
AcDbScale
 70
     0
300
1/16" = 1'-0"
140
0.0625
141
12.0
290
     0
  0
SCALE
  5
3CA
102
{ACAD_REACTORS
330
3C4
102
}
330
3C4
100
AcDbScale
 70
     0
300
3/32" = 1'-0"
140
0.09375
141
12.0
290
     0
  0
SCALE
  5
3CB
102
{ACAD_REACTORS
330
3C4
102
}
330
3C4
100
AcDbScale
 70
     0
300
1/8" = 1'-0"
140
0.125
141
12.0
290
     0
  0
SCALE
  5
3CC
102
{ACAD_REACTORS
330
3C4
102
}
330
3C4
100
AcDbScale
 70
     0
300
3/16" = 1'-0"
140
0.1875
141
12.0
290
     0
  0
SCALE
  5
3CD
102
{ACAD_REACTORS
330
3C4
102
}
330
3C4
100
AcDbScale
 70
     0
300
1/4" = 1'-0"
140
0.25
141
12.0
290
     0
  0
SCALE
  5
3CE
102
{ACAD_REACTORS
330
3C4
102
}
330
3C4
100
AcDbScale
 70
     0
300
3/8" = 1'-0"
140
0.375
141
12.0
290
     0
  0
SCALE
  5
3CF
102
{ACAD_REACTORS
330
3C4
102
}
330
3C4
100
AcDbScale
 70
     0
300
1/2" = 1'-0"
140
0.5
141
12.0
290
     0
  0
SCALE
  5
3D0
102
{ACAD_REACTORS
330
3C4
102
}
330
3C4
100
AcDbScale
 70
     0
300
3/4" = 1'-0"
140
0.75
141
12.0
290
     0
  0
SCALE
  5
3D1
102
{ACAD_REACTORS
330
3C4
102
}
330
3C4
100
AcDbScale
 70
     0
300
1" = 1'-0"
140
1.0
141
12.0
290
     0
  0
SCALE
  5
3D2
102
{ACAD_REACTORS
330
3C4
102
}
330
3C4
100
AcDbScale
 70
     0
300
1-1/2" = 1'-0"
140
1.5
141
12.0
290
     0
  0
SCALE
  5
3D3
102
{ACAD_REACTORS
330
3C4
102
}
330
3C4
100
AcDbScale
 70
     0
300
3" = 1'-0"
140
3.0
141
12.0
290
     0
  0
SCALE
  5
3D4
102
{ACAD_REACTORS
330
3C4
102
}
330
3C4
100
AcDbScale
 70
     0
300
6" = 1'-0"
140
6.0
141
12.0
290
     0
  0
SCALE
  5
3D5
102
{ACAD_REACTORS
330
3C4
102
}
330
3C4
100
AcDbScale
 70
     0
300
1'-0" = 1'-0"
140
12.0
141
12.0
290
     0
  0
ACDBSECTIONVIEWSTYLE
  5
3EA
102
{ACAD_XDICTIONARY
360
45C
102
}
102
{ACAD_REACTORS
330
3E9
102
}
330
3E9
100
AcDbModelDocViewStyle
 70
     0
  3
Imperial24
290
     0
100
AcDbSectionViewStyle
 70
     0
 71
     0
 90
       78
 71
     1
340
3D7
 40
0.24
340
0
340
0
 40
0.24
300
I, O, Q, S, X, Z
 40
0.48
 90
        3
 40
0.18
 90
        1
 71
     2
340
3DE
 90
       25
340
3DE
 90
       50
 40
0.24
 40
0.0
 40
0.24
 71
     3
340
3D7
 40
0.24
 90
        1
 40
0.75
 90
        1
300
%<\AcVar ViewType \f "%tc1">% %<\AcVar ViewSectionStartId>%-%<\AcVar ViewSectionEndId>%\PSCALE %<\AcVar ViewScale \f "%sn">%
 71
     4
300
ANSI31
 40
1.0
 90
        0
290
     0
290
     0
 90
        6
 40
0.0
 40
1.570796326794896
 40
0.2617993877991494
 40
1.308996938995747
 40
-0.2617993877991494
 40
1.832595714594046
  0
TABLESTYLE
  5
3E6
102
{ACAD_XDICTIONARY
360
423
102
}
102
{ACAD_REACTORS
330
3E5
102
}
330
3E5
100
AcDbTableStyle
  3
Standard
 70
     0
 71
     0
 40
0.06
 41
0.06
280
     0
281
     0
  7
STANDARD
140
0.18
170
     2
 62
     0
 63
     7
283
     0
274
    -2
284
     1
 64
     0
275
    -2
285
     1
 65
     0
276
    -2
286
     1
 66
     0
277
    -2
287
     1
 67
     0
278
    -2
288
     1
 68
     0
279
    -2
289
     1
 69
     0
  7
STANDARD
140
0.25
170
     5
 62
     0
 63
     7
283
     0
274
    -2
284
     1
 64
     0
275
    -2
285
     1
 65
     0
276
    -2
286
     1
 66
     0
277
    -2
287
     1
 67
     0
278
    -2
288
     1
 68
     0
279
    -2
289
     1
 69
     0
  7
STANDARD
140
0.18
170
     5
 62
     0
 63
     7
283
     0
274
    -2
284
     1
 64
     0
275
    -2
285
     1
 65
     0
276
    -2
286
     1
 66
     0
277
    -2
287
     1
 67
     0
278
    -2
288
     1
 68
     0
279
    -2
289
     1
 69
     0
  0
VISUALSTYLE
  5
3B1
102
{ACAD_XDICTIONARY
360
434
102
}
102
{ACAD_REACTORS
330
3AB
102
}
330
3AB
100
AcDbVisualStyle
  2
2dWireframe
 70
     4
 71
     0
 72
     2
 73
     0
 90
        0
 40
-0.6
 41
-30.0
 62
     5
 63
     7
 74
     1
 91
        4
 64
     7
 65
   257
 75
     1
175
     1
 42
1.0
 92
        0
 66
   257
 43
1.0
 76
     1
 77
     6
 78
     2
 67
     7
 79
     5
170
     0
171
     0
290
     0
174
     0
 93
        1
 44
0.0
173
     0
291
     0
 45
0.0
1001
ACAD
1000
AcDbSavedByObjectVersion
1070
     0
  0
VISUALSTYLE
  5
3B0
102
{ACAD_XDICTIONARY
360
432
102
}
102
{ACAD_REACTORS
330
3AB
102
}
330
3AB
100
AcDbVisualStyle
  2
Basic
 70
     7
 71
     1
 72
     0
 73
     1
 90
        0
 40
-0.6
 41
-30.0
 62
     5
 63
     7
 74
     0
 91
        4
 64
     7
 65
   257
 75
     1
175
     1
 42
1.0
 92
        8
 66
     7
 43
1.0
 76
     1
 77
     6
 78
     2
 67
     7
 79
     5
170
     0
171
     0
290
     0
174
     0
 93
        1
 44
0.0
173
     0
291
     1
 45
0.0
1001
ACAD
1000
AcDbSavedByObjectVersion
1070
     0
  0
VISUALSTYLE
  5
3B7
102
{ACAD_XDICTIONARY
360
440
102
}
102
{ACAD_REACTORS
330
3AB
102
}
330
3AB
100
AcDbVisualStyle
  2
Brighten
 70
    12
 71
     2
 72
     2
 73
     0
 90
        0
 40
-0.6
 41
-30.0
 62
     5
 63
     7
 74
     1
 91
        4
 64
     7
 65
   257
 75
     1
175
     1
 42
1.0
 92
        8
 66
     7
 43
1.0
 76
     1
 77
     6
 78
     2
 67
     7
 79
     5
170
     0
171
     0
290
     0
174
     0
 93
        1
 44
50.0
173
     0
291
     1
 45
0.0
1001
ACAD
1000
AcDbSavedByObjectVersion
1070
     0
  0
VISUALSTYLE
  5
3BB
102
{ACAD_XDICTIONARY
360
448
102
}
102
{ACAD_REACTORS
330
3AB
102
}
330
3AB
100
AcDbVisualStyle
  2
ColorChange
 70
    16
 71
     2
 72
     2
 73
     3
 90
        0
 40
-0.6
 41
-30.0
 62
     5
 63
     8
 74
     1
 91
        4
 64
     7
 65
   257
 75
     1
175
     1
 42
1.0
 92
        8
 66
     8
 43
1.0
 76
     1
 77
     6
 78
     2
 67
     7
 79
     5
170
     0
171
     0
290
     0
174
     0
 93
        1
 44
0.0
173
     0
291
     1
 45
0.0
1001
ACAD
1000
AcDbSavedByObjectVersion
1070
     0
  0
VISUALSTYLE
  5
3B4
102
{ACAD_XDICTIONARY
360
43A
102
}
102
{ACAD_REACTORS
330
3AB
102
}
330
3AB
100
AcDbVisualStyle
  2
Conceptual
 70
     9
 71
     3
 72
     2
 73
     0
 90
        0
 40
-0.6
 41
-30.0
 62
     5
 63
     7
 74
     2
 91
        2
 64
     7
 65
   257
 75
     1
175
     1
 42
179.0
 92
        8
 66
     7
 43
1.0
 76
     1
 77
     6
 78
     2
 67
     7
 79
     3
170
     0
171
     0
290
     0
174
     0
 93
        1
 44
0.0
173
     0
291
     0
 45
0.0
1001
ACAD
1000
AcDbSavedByObjectVersion
1070
     0
  0
VISUALSTYLE
  5
3B6
102
{ACAD_XDICTIONARY
360
43E
102
}
102
{ACAD_REACTORS
330
3AB
102
}
330
3AB
100
AcDbVisualStyle
  2
Dim
 70
    11
 71
     2
 72
     2
 73
     0
 90
        0
 40
-0.6
 41
-30.0
 62
     5
 63
     7
 74
     1
 91
        4
 64
     7
 65
   257
 75
     1
175
     1
 42
1.0
 92
        8
 66
     7
 43
1.0
 76
     1
 77
     6
 78
     2
 67
     7
 79
     5
170
     0
171
     0
290
     0
174
     0
 93
        1
 44
-50.0
173
     0
291
     1
 45
0.0
1001
ACAD
1000
AcDbSavedByObjectVersion
1070
     0
  0
VISUALSTYLE
  5
3C3
102
{ACAD_XDICTIONARY
360
458
102
}
102
{ACAD_REACTORS
330
3AB
102
}
330
3AB
100
AcDbVisualStyle
  2
EdgeColorOff
 70
    22
 71
     2
 72
     2
 73
     0
 90
        0
 40
-0.6
 41
-30.0
 62
     5
 63
     7
 74
     1
 91
        4
 64
     7
 65
   257
 75
     1
175
     1
 42
1.0
 92
        8
 66
     7
 43
1.0
 76
     1
 77
     6
 78
     2
 67
     7
 79
     5
170
     0
171
     0
290
     0
174
     0
 93
        1
 44
0.0
173
     0
291
     1
 45
0.0
1001
ACAD
1000
AcDbSavedByObjectVersion
1070
     0
  0
VISUALSTYLE
  5
3BA
102
{ACAD_XDICTIONARY
360
446
102
}
102
{ACAD_REACTORS
330
3AB
102
}
330
3AB
100
AcDbVisualStyle
  2
Facepattern
 70
    15
 71
     2
 72
     2
 73
     0
 90
        0
 40
-0.6
 41
-30.0
 62
     5
 63
     7
 74
     1
 91
        4
 64
     7
 65
   257
 75
     1
175
     1
 42
1.0
 92
        8
 66
     7
 43
1.0
 76
     1
 77
     6
 78
     2
 67
     7
 79
     5
170
     0
171
     0
290
     0
174
     0
 93
        1
 44
0.0
173
     0
291
     1
 45
0.0
1001
ACAD
1000
AcDbSavedByObjectVersion
1070
     0
  0
VISUALSTYLE
  5
3AC
102
{ACAD_XDICTIONARY
360
42A
102
}
102
{ACAD_REACTORS
330
3AB
102
}
330
3AB
100
AcDbVisualStyle
  2
Flat
 70
     0
 71
     2
 72
     1
 73
     1
 90
        2
 40
-0.6
 41
30.0
 62
     5
 63
     7
 74
     0
 91
        0
 64
     7
 65
   257
 75
     1
175
     1
 42
1.0
 92
        8
 66
     7
 43
1.0
 76
     1
 77
     6
 78
     2
 67
     7
 79
     5
170
     0
171
     0
290
     0
174
     0
 93
       13
 44
0.0
173
     0
291
     1
 45
0.0
1001
ACAD
1000
AcDbSavedByObjectVersion
1070
     0
  0
VISUALSTYLE
  5
3AD
102
{ACAD_XDICTIONARY
360
42C
102
}
102
{ACAD_REACTORS
330
3AB
102
}
330
3AB
100
AcDbVisualStyle
  2
FlatWithEdges
 70
     1
 71
     2
 72
     1
 73
     1
 90
        2
 40
-0.6
 41
30.0
 62
     5
 63
     7
 74
     1
 91
        0
 64
     7
 65
   257
 75
     1
175
     1
 42
1.0
 92
        0
 66
   257
 43
1.0
 76
     1
 77
     6
 78
     2
 67
     7
 79
     5
170
     0
171
     0
290
     0
174
     0
 93
       13
 44
0.0
173
     0
291
     1
 45
0.0
1001
ACAD
1000
AcDbSavedByObjectVersion
1070
     0
  0
VISUALSTYLE
  5
3AE
102
{ACAD_XDICTIONARY
360
42E
102
}
102
{ACAD_REACTORS
330
3AB
102
}
330
3AB
100
AcDbVisualStyle
  2
Gouraud
 70
     2
 71
     2
 72
     2
 73
     1
 90
        2
 40
-0.6
 41
30.0
 62
     5
 63
     7
 74
     0
 91
        0
 64
     7
 65
   257
 75
     1
175
     1
 42
1.0
 92
        0
 66
     7
 43
1.0
 76
     1
 77
     6
 78
     2
 67
     7
 79
     5
170
     0
171
     0
290
     0
174
     0
 93
       13
 44
0.0
173
     0
291
     1
 45
0.0
1001
ACAD
1000
AcDbSavedByObjectVersion
1070
     0
  0
VISUALSTYLE
  5
3AF
102
{ACAD_XDICTIONARY
360
430
102
}
102
{ACAD_REACTORS
330
3AB
102
}
330
3AB
100
AcDbVisualStyle
  2
GouraudWithEdges
 70
     3
 71
     2
 72
     2
 73
     1
 90
        2
 40
-0.6
 41
30.0
 62
     5
 63
     7
 74
     1
 91
        0
 64
     7
 65
   257
 75
     1
175
     1
 42
1.0
 92
        0
 66
   257
 43
1.0
 76
     1
 77
     6
 78
     2
 67
     7
 79
     5
170
     0
171
     0
290
     0
174
     0
 93
       13
 44
0.0
173
     0
291
     1
 45
0.0
1001
ACAD
1000
AcDbSavedByObjectVersion
1070
     0
  0
VISUALSTYLE
  5
3B3
102
{ACAD_XDICTIONARY
360
438
102
}
102
{ACAD_REACTORS
330
3AB
102
}
330
3AB
100
AcDbVisualStyle
  2
Hidden
 70
     6
 71
     1
 72
     2
 73
     2
 90
        0
 40
-0.6
 41
-30.0
 62
     5
 63
     7
 74
     2
 91
        2
 64
     7
 65
   257
 75
     2
175
     1
 42
40.0
 92
        0
 66
   257
 43
1.0
 76
     1
 77
     6
 78
     2
 67
     7
 79
     3
170
     0
171
     0
290
     0
174
     0
 93
        1
 44
0.0
173
     0
291
     0
 45
0.0
1001
ACAD
1000
AcDbSavedByObjectVersion
1070
     0
  0
VISUALSTYLE
  5
3C1
102
{ACAD_XDICTIONARY
360
454
102
}
102
{ACAD_REACTORS
330
3AB
102
}
330
3AB
100
AcDbVisualStyle
  2
JitterOff
 70
    20
 71
     2
 72
     2
 73
     0
 90
        0
 40
-0.6
 41
-30.0
 62
     5
 63
     7
 74
     1
 91
        4
 64
     7
 65
   257
 75
     1
175
     1
 42
1.0
 92
       10
 66
     7
 43
1.0
 76
     1
 77
     6
 78
     2
 67
     7
 79
     5
170
     0
171
     0
290
     0
174
     0
 93
        1
 44
0.0
173
     0
291
     1
 45
0.0
1001
ACAD
1000
AcDbSavedByObjectVersion
1070
     0
  0
VISUALSTYLE
  5
3B9
102
{ACAD_XDICTIONARY
360
444
102
}
102
{ACAD_REACTORS
330
3AB
102
}
330
3AB
100
AcDbVisualStyle
  2
Linepattern
 70
    14
 71
     2
 72
     2
 73
     0
 90
        0
 40
-0.6
 41
-30.0
 62
     5
 63
     7
 74
     1
 91
        4
 64
     7
 65
   257
 75
     7
175
     7
 42
1.0
 92
        8
 66
     7
 43
1.0
 76
     1
 77
     6
 78
     2
 67
     7
 79
     5
170
     0
171
     0
290
     0
174
     0
 93
        1
 44
0.0
173
     0
291
     1
 45
0.0
1001
ACAD
1000
AcDbSavedByObjectVersion
1070
     0
  0
VISUALSTYLE
  5
3C2
102
{ACAD_XDICTIONARY
360
456
102
}
102
{ACAD_REACTORS
330
3AB
102
}
330
3AB
100
AcDbVisualStyle
  2
OverhangOff
 70
    21
 71
     2
 72
     2
 73
     0
 90
        0
 40
-0.6
 41
-30.0
 62
     5
 63
     7
 74
     1
 91
        4
 64
     7
 65
   257
 75
     1
175
     1
 42
1.0
 92
        9
 66
     7
 43
1.0
 76
     1
 77
     6
 78
     2
 67
     7
 79
     5
170
     0
171
     0
290
     0
174
     0
 93
        1
 44
0.0
173
     0
291
     1
 45
0.0
1001
ACAD
1000
AcDbSavedByObjectVersion
1070
     0
  0
VISUALSTYLE
  5
3B5
102
{ACAD_XDICTIONARY
360
43C
102
}
102
{ACAD_REACTORS
330
3AB
102
}
330
3AB
100
AcDbVisualStyle
  2
Realistic
 70
     8
 71
     2
 72
     3
 73
     0
 90
        2
 40
-0.6
 41
30.0
 62
     5
 63
     7
 74
     0
 91
        0
 64
     7
 65
   257
 75
     1
175
     1
 42
1.0
 92
        8
 66
   257
 43
1.0
 76
     1
 77
     6
 78
     2
 67
     7
 79
     3
170
     0
171
     0
290
     0
174
     0
 93
       13
 44
0.0
173
     0
291
     0
 45
0.0
1001
ACAD
1000
AcDbSavedByObjectVersion
1070
     0
  0
VISUALSTYLE
  5
3C0
102
{ACAD_XDICTIONARY
360
452
102
}
102
{ACAD_REACTORS
330
3AB
102
}
330
3AB
100
AcDbVisualStyle
  2
Shaded
 70
    27
 71
     2
 72
     2
 73
     1
 90
        2
 40
-0.6
 41
30.0
 62
     5
 63
     7
 74
     0
 91
        4
 64
     7
 65
   257
 75
     1
175
     1
 42
1.0
 92
        8
 66
   257
 43
1.0
 76
     1
 77
     6
 78
     2
 67
     8
 79
     3
170
     0
171
     0
290
     0
174
     0
 93
        5
 44
0.0
173
     0
291
     0
 45
0.0
1001
ACAD
1000
AcDbSavedByObjectVersion
1070
     0
  0
VISUALSTYLE
  5
3BF
102
{ACAD_XDICTIONARY
360
450
102
}
102
{ACAD_REACTORS
330
3AB
102
}
330
3AB
100
AcDbVisualStyle
  2
Shaded with edges
 70
    26
 71
     2
 72
     2
 73
     1
 90
        2
 40
-0.6
 41
30.0
 62
     5
 63
     7
 74
     1
 91
        2
 64
     7
 65
   257
 75
     2
175
     1
 42
1.0
 92
        8
 66
   257
 43
1.0
 76
     1
 77
     6
 78
     2
 67
     7
 79
     3
170
     0
171
     0
290
     0
174
     0
 93
        5
 44
0.0
173
     0
291
     0
 45
0.0
1001
ACAD
1000
AcDbSavedByObjectVersion
1070
     0
  0
VISUALSTYLE
  5
3BC
102
{ACAD_XDICTIONARY
360
44A
102
}
102
{ACAD_REACTORS
330
3AB
102
}
330
3AB
100
AcDbVisualStyle
  2
Shades of Gray
 70
    23
 71
     2
 72
     2
 73
     3
 90
        0
 40
-0.6
 41
-30.0
 62
     5
 63
     7
 74
     2
 91
        2
 64
     7
 65
     7
 75
     1
175
     1
 42
40.0
 92
        8
 66
     7
 43
1.0
 76
     1
 77
     6
 78
     2
 67
     7
 79
     3
170
     0
171
     0
290
     0
174
     0
 93
        1
 44
0.0
173
     0
291
     0
 45
0.0
1001
ACAD
1000
AcDbSavedByObjectVersion
1070
     0
  0
VISUALSTYLE
  5
3BD
102
{ACAD_XDICTIONARY
360
44C
102
}
102
{ACAD_REACTORS
330
3AB
102
}
330
3AB
100
AcDbVisualStyle
  2
Sketchy
 70
    24
 71
     1
 72
     2
 73
     2
 90
        0
 40
-0.6
 41
-30.0
 62
     5
 63
     7
 74
     2
 91
        2
 64
     7
 65
     7
 75
     1
175
     1
 42
40.0
 92
       11
 66
     7
 43
1.0
 76
     1
 77
     6
 78
     2
 67
     7
 79
     6
170
     0
171
     0
290
     0
174
     0
 93
        1
 44
0.0
173
     0
291
     0
 45
0.0
1001
ACAD
1000
AcDbSavedByObjectVersion
1070
     0
  0
VISUALSTYLE
  5
3B8
102
{ACAD_XDICTIONARY
360
442
102
}
102
{ACAD_REACTORS
330
3AB
102
}
330
3AB
100
AcDbVisualStyle
  2
Thicken
 70
    13
 71
     2
 72
     2
 73
     0
 90
        0
 40
-0.6
 41
-30.0
 62
     5
 63
     7
 74
     1
 91
        4
 64
     7
 65
   257
 75
     1
175
     1
 42
1.0
 92
       12
 66
     7
 43
1.0
 76
     1
 77
     6
 78
     2
 67
     7
 79
     5
170
     0
171
     0
290
     0
174
     0
 93
        1
 44
0.0
173
     0
291
     1
 45
0.0
1001
ACAD
1000
AcDbSavedByObjectVersion
1070
     0
  0
VISUALSTYLE
  5
3B2
102
{ACAD_XDICTIONARY
360
436
102
}
102
{ACAD_REACTORS
330
3AB
102
}
330
3AB
100
AcDbVisualStyle
  2
Wireframe
 70
     5
 71
     0
 72
     2
 73
     0
 90
        0
 40
-0.6
 41
-30.0
 62
     5
 63
     7
 74
     1
 91
        4
 64
     7
 65
   257
 75
     1
175
     1
 42
1.0
 92
        0
 66
   257
 43
1.0
 76
     1
 77
     6
 78
     2
 67
     7
 79
     3
170
     0
171
     0
290
     0
174
     0
 93
        1
 44
0.0
173
     0
291
     0
 45
0.0
1001
ACAD
1000
AcDbSavedByObjectVersion
1070
     0
  0
VISUALSTYLE
  5
3BE
102
{ACAD_XDICTIONARY
360
44E
102
}
102
{ACAD_REACTORS
330
3AB
102
}
330
3AB
100
AcDbVisualStyle
  2
X-Ray
 70
    25
 71
     2
 72
     2
 73
     1
 90
        1
 40
0.5
 41
-30.0
 62
     5
 63
     7
 74
     1
 91
        0
 64
     7
 65
   257
 75
     1
175
     1
 42
1.0
 92
        8
 66
     7
 43
1.0
 76
     1
 77
     6
 78
     2
 67
     7
 79
     3
170
     0
171
     0
290
     0
174
     0
 93
       13
 44
0.0
173
     0
291
     0
 45
0.0
1001
ACAD
1000
AcDbSavedByObjectVersion
1070
     0
  0
DICTIONARYVAR
  5
41D
102
{ACAD_REACTORS
330
418
102
}
330
418
100
DictionaryVariables
280
     0
  1
1:1
  0
DICTIONARYVAR
  5
41A
102
{ACAD_REACTORS
330
418
102
}
330
418
100
DictionaryVariables
280
     0
  1
STANDARD
  0
DICTIONARYVAR
  5
419
102
{ACAD_REACTORS
330
418
102
}
330
418
100
DictionaryVariables
280
     0
  1
STANDARD
  0
DICTIONARYVAR
  5
41B
102
{ACAD_REACTORS
330
418
102
}
330
418
100
DictionaryVariables
280
     0
  1
Imperial24
  0
DICTIONARYVAR
  5
41C
102
{ACAD_REACTORS
330
418
102
}
330
418
100
DictionaryVariables
280
     0
  1
Imperial24
  0
DICTIONARYVAR
  5
420
102
{ACAD_REACTORS
330
418
102
}
330
418
100
DictionaryVariables
280
     0
  1
1
  0
DICTIONARYVAR
  5
41F
102
{ACAD_REACTORS
330
418
102
}
330
418
100
DictionaryVariables
280
     0
  1
0
  0
DICTIONARYVAR
  5
41E
102
{ACAD_REACTORS
330
418
102
}
330
418
100
DictionaryVariables
280
     0
  1
127
  0
DICTIONARYVAR
  5
421
102
{ACAD_REACTORS
330
418
102
}
330
418
100
DictionaryVariables
280
     0
  1
2
  0
DICTIONARY
  5
45E
330
3EC
100
AcDbDictionary
280
     1
281
     1
  3
ACAD_XREC_ROUNDTRIP
360
45F
  0
DICTIONARY
  5
462
330
3F4
100
AcDbDictionary
280
     1
281
     1
  3
ACAD_XREC_ROUNDTRIP
360
463
  0
DICTIONARY
  5
460
330
3F0
100
AcDbDictionary
280
     1
281
     1
  3
ACAD_XREC_ROUNDTRIP
360
461
  0
DICTIONARY
  5
39C
330
39B
100
AcDbDictionary
280
     1
281
     1
  3
ACAD_XREC_ROUNDTRIP
360
428
  3
BUMPTILE
360
39E
  3
DIFFUSETILE
360
39D
  3
OPACITYTILE
360
3A1
  3
REFLECTIONTILE
360
3A0
  3
REFRACTIONTILE
360
3A2
  3
SPECULARTILE
360
39F
  0
DICTIONARY
  5
394
330
393
100
AcDbDictionary
280
     1
281
     1
  3
ACAD_XREC_ROUNDTRIP
360
427
  3
BUMPTILE
360
396
  3
DIFFUSETILE
360
395
  3
OPACITYTILE
360
399
  3
REFLECTIONTILE
360
398
  3
REFRACTIONTILE
360
39A
  3
SPECULARTILE
360
397
  0
DICTIONARY
  5
3A4
330
3A3
100
AcDbDictionary
280
     1
281
     1
  3
ACAD_XREC_ROUNDTRIP
360
429
  3
BUMPTILE
360
3A6
  3
DIFFUSETILE
360
3A5
  3
OPACITYTILE
360
3A9
  3
REFLECTIONTILE
360
3A8
  3
REFRACTIONTILE
360
3AA
  3
SPECULARTILE
360
3A7
  0
DICTIONARY
  5
45C
330
3EA
100
AcDbDictionary
280
     1
281
     1
  3
ACAD_XREC_ROUNDTRIP
360
45D
  0
DICTIONARY
  5
423
330
3E6
100
AcDbDictionary
280
     1
281
     1
  3
ACAD_ROUNDTRIP_2008_TABLESTYLE_CELLSTYLEMAP
360
424
  3
ACAD_XREC_ROUNDTRIP
360
45A
  0
DICTIONARY
  5
434
330
3B1
100
AcDbDictionary
280
     1
281
     1
  3
ACAD_XREC_ROUNDTRIP
360
435
  0
DICTIONARY
  5
432
330
3B0
100
AcDbDictionary
280
     1
281
     1
  3
ACAD_XREC_ROUNDTRIP
360
433
  0
DICTIONARY
  5
440
330
3B7
100
AcDbDictionary
280
     1
281
     1
  3
ACAD_XREC_ROUNDTRIP
360
441
  0
DICTIONARY
  5
448
330
3BB
100
AcDbDictionary
280
     1
281
     1
  3
ACAD_XREC_ROUNDTRIP
360
449
  0
DICTIONARY
  5
43A
330
3B4
100
AcDbDictionary
280
     1
281
     1
  3
ACAD_XREC_ROUNDTRIP
360
43B
  0
DICTIONARY
  5
43E
330
3B6
100
AcDbDictionary
280
     1
281
     1
  3
ACAD_XREC_ROUNDTRIP
360
43F
  0
DICTIONARY
  5
458
330
3C3
100
AcDbDictionary
280
     1
281
     1
  3
ACAD_XREC_ROUNDTRIP
360
459
  0
DICTIONARY
  5
446
330
3BA
100
AcDbDictionary
280
     1
281
     1
  3
ACAD_XREC_ROUNDTRIP
360
447
  0
DICTIONARY
  5
42A
330
3AC
100
AcDbDictionary
280
     1
281
     1
  3
ACAD_XREC_ROUNDTRIP
360
42B
  0
DICTIONARY
  5
42C
330
3AD
100
AcDbDictionary
280
     1
281
     1
  3
ACAD_XREC_ROUNDTRIP
360
42D
  0
DICTIONARY
  5
42E
330
3AE
100
AcDbDictionary
280
     1
281
     1
  3
ACAD_XREC_ROUNDTRIP
360
42F
  0
DICTIONARY
  5
430
330
3AF
100
AcDbDictionary
280
     1
281
     1
  3
ACAD_XREC_ROUNDTRIP
360
431
  0
DICTIONARY
  5
438
330
3B3
100
AcDbDictionary
280
     1
281
     1
  3
ACAD_XREC_ROUNDTRIP
360
439
  0
DICTIONARY
  5
454
330
3C1
100
AcDbDictionary
280
     1
281
     1
  3
ACAD_XREC_ROUNDTRIP
360
455
  0
DICTIONARY
  5
444
330
3B9
100
AcDbDictionary
280
     1
281
     1
  3
ACAD_XREC_ROUNDTRIP
360
445
  0
DICTIONARY
  5
456
330
3C2
100
AcDbDictionary
280
     1
281
     1
  3
ACAD_XREC_ROUNDTRIP
360
457
  0
DICTIONARY
  5
43C
330
3B5
100
AcDbDictionary
280
     1
281
     1
  3
ACAD_XREC_ROUNDTRIP
360
43D
  0
DICTIONARY
  5
452
330
3C0
100
AcDbDictionary
280
     1
281
     1
  3
ACAD_XREC_ROUNDTRIP
360
453
  0
DICTIONARY
  5
450
330
3BF
100
AcDbDictionary
280
     1
281
     1
  3
ACAD_XREC_ROUNDTRIP
360
451
  0
DICTIONARY
  5
44A
330
3BC
100
AcDbDictionary
280
     1
281
     1
  3
ACAD_XREC_ROUNDTRIP
360
44B
  0
DICTIONARY
  5
44C
330
3BD
100
AcDbDictionary
280
     1
281
     1
  3
ACAD_XREC_ROUNDTRIP
360
44D
  0
DICTIONARY
  5
442
330
3B8
100
AcDbDictionary
280
     1
281
     1
  3
ACAD_XREC_ROUNDTRIP
360
443
  0
DICTIONARY
  5
436
330
3B2
100
AcDbDictionary
280
     1
281
     1
  3
ACAD_XREC_ROUNDTRIP
360
437
  0
DICTIONARY
  5
44E
330
3BE
100
AcDbDictionary
280
     1
281
     1
  3
ACAD_XREC_ROUNDTRIP
360
44F
  0
XRECORD
  5
45F
102
{ACAD_REACTORS
330
45E
102
}
330
45E
100
AcDbXrecord
280
     1
102
DISPLAYNAME
  1
Imperial24
102
FLAGS
 90
        0
  0
XRECORD
  5
463
102
{ACAD_REACTORS
330
462
102
}
330
462
100
AcDbXrecord
280
     1
102
SHADEPLOT
 70
     0
102
SHADEPLOTRESLEVEL
 70
     2
102
SHADEPLOTCUSTOMDPI
 70
   300
  0
XRECORD
  5
461
102
{ACAD_REACTORS
330
460
102
}
330
460
100
AcDbXrecord
280
     1
102
SHADEPLOT
 70
     0
102
SHADEPLOTRESLEVEL
 70
     2
102
SHADEPLOTCUSTOMDPI
 70
   300
  0
XRECORD
  5
428
102
{ACAD_REACTORS
330
39C
102
}
330
39C
100
AcDbXrecord
280
     1
102
MATERIAL
148
0.0
149
0.0
149
0.0
 93
        0
 94
      127
282
     0
 72
     0
 77
     0
171
     0
175
     0
179
     0
273
     0
  0
XRECORD
  5
39E
102
{ACAD_REACTORS
330
39C
102
}
330
39C
100
AcDbXrecord
280
     1
270
     1
271
     1
  0
XRECORD
  5
39D
102
{ACAD_REACTORS
330
39C
102
}
330
39C
100
AcDbXrecord
280
     1
270
     1
271
     1
  0
XRECORD
  5
3A1
102
{ACAD_REACTORS
330
39C
102
}
330
39C
100
AcDbXrecord
280
     1
270
     1
271
     1
  0
XRECORD
  5
3A0
102
{ACAD_REACTORS
330
39C
102
}
330
39C
100
AcDbXrecord
280
     1
270
     1
271
     1
  0
XRECORD
  5
3A2
102
{ACAD_REACTORS
330
39C
102
}
330
39C
100
AcDbXrecord
280
     1
270
     1
271
     1
  0
XRECORD
  5
39F
102
{ACAD_REACTORS
330
39C
102
}
330
39C
100
AcDbXrecord
280
     1
270
     1
271
     1
  0
XRECORD
  5
427
102
{ACAD_REACTORS
330
394
102
}
330
394
100
AcDbXrecord
280
     1
102
MATERIAL
148
0.0
149
0.0
149
0.0
 93
        0
 94
      127
282
     0
 72
     0
 77
     0
171
     0
175
     0
179
     0
273
     0
  0
XRECORD
  5
396
102
{ACAD_REACTORS
330
394
102
}
330
394
100
AcDbXrecord
280
     1
270
     1
271
     1
  0
XRECORD
  5
395
102
{ACAD_REACTORS
330
394
102
}
330
394
100
AcDbXrecord
280
     1
270
     1
271
     1
  0
XRECORD
  5
399
102
{ACAD_REACTORS
330
394
102
}
330
394
100
AcDbXrecord
280
     1
270
     1
271
     1
  0
XRECORD
  5
398
102
{ACAD_REACTORS
330
394
102
}
330
394
100
AcDbXrecord
280
     1
270
     1
271
     1
  0
XRECORD
  5
39A
102
{ACAD_REACTORS
330
394
102
}
330
394
100
AcDbXrecord
280
     1
270
     1
271
     1
  0
XRECORD
  5
397
102
{ACAD_REACTORS
330
394
102
}
330
394
100
AcDbXrecord
280
     1
270
     1
271
     1
  0
XRECORD
  5
429
102
{ACAD_REACTORS
330
3A4
102
}
330
3A4
100
AcDbXrecord
280
     1
102
MATERIAL
148
0.0
149
0.0
149
0.0
 93
        0
 94
      127
282
     0
 72
     0
 77
     0
171
     0
175
     0
179
     0
273
     0
  0
XRECORD
  5
3A6
102
{ACAD_REACTORS
330
3A4
102
}
330
3A4
100
AcDbXrecord
280
     1
270
     1
271
     1
  0
XRECORD
  5
3A5
102
{ACAD_REACTORS
330
3A4
102
}
330
3A4
100
AcDbXrecord
280
     1
270
     1
271
     1
  0
XRECORD
  5
3A9
102
{ACAD_REACTORS
330
3A4
102
}
330
3A4
100
AcDbXrecord
280
     1
270
     1
271
     1
  0
XRECORD
  5
3A8
102
{ACAD_REACTORS
330
3A4
102
}
330
3A4
100
AcDbXrecord
280
     1
270
     1
271
     1
  0
XRECORD
  5
3AA
102
{ACAD_REACTORS
330
3A4
102
}
330
3A4
100
AcDbXrecord
280
     1
270
     1
271
     1
  0
XRECORD
  5
3A7
102
{ACAD_REACTORS
330
3A4
102
}
330
3A4
100
AcDbXrecord
280
     1
270
     1
271
     1
  0
XRECORD
  5
45D
102
{ACAD_REACTORS
330
45C
102
}
330
45C
100
AcDbXrecord
280
     1
102
DISPLAYNAME
  1
Imperial24
102
FLAGS
 90
        0
  0
CELLSTYLEMAP
  5
424
102
{ACAD_REACTORS
330
423
102
}
330
423
100
AcDbCellStyleMap
 90
        3
300
CELLSTYLE
  1
TABLEFORMAT_BEGIN
 90
        5
170
     1
 91
        0
 92
    32768
 62
   257
 93
        1
300
CONTENTFORMAT
  1
CONTENTFORMAT_BEGIN
 90
        0
 91
        0
 92
      512
 93
        0
300

 40
0.0
140
1.0
 94
        5
 62
     0
340
3D7
144
0.25
309
CONTENTFORMAT_END
171
     0
 94
        0
309
TABLEFORMAT_END
  1
CELLSTYLE_BEGIN
 90
        1
 91
        1
300
_TITLE
309
CELLSTYLE_END
300
CELLSTYLE
  1
TABLEFORMAT_BEGIN
 90
        5
170
     1
 91
        0
 92
        0
 62
   257
 93
        1
300
CONTENTFORMAT
  1
CONTENTFORMAT_BEGIN
 90
        0
 91
        0
 92
      512
 93
        0
300

 40
0.0
140
1.0
 94
        5
 62
     0
340
3D7
144
0.18
309
CONTENTFORMAT_END
171
     0
 94
        0
309
TABLEFORMAT_END
  1
CELLSTYLE_BEGIN
 90
        2
 91
        1
300
_HEADER
309
CELLSTYLE_END
300
CELLSTYLE
  1
TABLEFORMAT_BEGIN
 90
        5
170
     1
 91
        0
 92
        0
 62
   257
 93
        1
300
CONTENTFORMAT
  1
CONTENTFORMAT_BEGIN
 90
        0
 91
        0
 92
      512
 93
        0
300

 40
0.0
140
1.0
 94
        2
 62
     0
340
3D7
144
0.18
309
CONTENTFORMAT_END
171
     0
 94
        0
309
TABLEFORMAT_END
  1
CELLSTYLE_BEGIN
 90
        3
 91
        2
300
_DATA
309
CELLSTYLE_END
  0
XRECORD
  5
45A
102
{ACAD_REACTORS
330
423
102
}
330
423
100
AcDbXrecord
280
     1
102
ACAD_ROUNDTRIP_PRE2007_TABLESTYLE
 90
      512
 91
        0
  1

 92
      512
 93
        0
  2

 94
      512
 95
        0
  3

  0
XRECORD
  5
435
102
{ACAD_REACTORS
330
434
102
}
330
434
100
AcDbXrecord
280
     1
102
RTVSPost2010Prop28
280
     1
102
RTVSPost2010PropOp28
 70
     1
102
RTVSPost2010Prop29
280
     1
102
RTVSPost2010PropOp29
 70
     1
102
RTVSPost2010Prop30
280
     0
102
RTVSPost2010PropOp30
 70
     1
102
RTVSPost2010Prop31
280
     0
102
RTVSPost2010PropOp31
 70
     1
102
RTVSPost2010Prop32
280
     0
102
RTVSPost2010PropOp32
 70
     1
102
RTVSPost2010Prop33
280
     0
102
RTVSPost2010PropOp33
 70
     1
102
RTVSPost2010Prop34
280
     0
102
RTVSPost2010PropOp34
 70
     1
102
RTVSPost2010Prop35
280
     0
102
RTVSPost2010PropOp35
 70
     1
102
RTVSPost2010Prop36
280
     0
102
RTVSPost2010PropOp36
 70
     1
102
RTVSPost2010Prop37
 90
       50
102
RTVSPost2010PropOp37
 70
     1
102
RTVSPost2010Prop38
140
0.0
102
RTVSPost2010PropOp38
 70
     1
102
RTVSPost2010Prop39
140
1.0
102
RTVSPost2010PropOp39
 70
     1
102
RTVSPost2010Prop40
 90
        0
102
RTVSPost2010PropOp40
 70
     1
102
RTVSPost2010Prop41ColorIndex
 90
       18
102
RTVSPost2010Prop41ColorRGB
 90
        0
102
RTVSPost2010PropOp41
 70
     1
102
RTVSPost2010Prop42
 90
       50
102
RTVSPost2010PropOp42
 70
     1
102
RTVSPost2010Prop43
 90
        3
102
RTVSPost2010PropOp43
 70
     1
102
RTVSPost2010Prop44ColorIndex
 90
        5
102
RTVSPost2010Prop44ColorRGB
 90
      255
102
RTVSPost2010PropOp44
 70
     1
102
RTVSPost2010Prop45
280
     0
102
RTVSPost2010PropOp45
 70
     1
102
RTVSPost2010Prop46
 90
       50
102
RTVSPost2010PropOp46
 70
     1
102
RTVSPost2010Prop47
 90
       50
102
RTVSPost2010PropOp47
 70
     1
102
RTVSPost2010Prop48
 90
       50
102
RTVSPost2010PropOp48
 70
     1
102
RTVSPost2010Prop49
280
     0
102
RTVSPost2010PropOp49
 70
     1
102
RTVSPost2010Prop50
 90
       50
102
RTVSPost2010PropOp50
 70
     1
102
RTVSPost2010Prop51ColorIndex
 90
      256
102
RTVSPost2010Prop51ColorRGB
 90
-16777216
102
RTVSPost2010PropOp51
 70
     0
102
RTVSPost2010Prop52
140
1.0
102
RTVSPost2010PropOp52
 70
     0
102
RTVSPost2010Prop53
 90
        2
102
RTVSPost2010PropOp53
 70
     1
102
RTVSPost2010Prop54
  1
strokes_ogs.tif
102
RTVSPost2010PropOp54
 70
     1
102
RTVSPost2010Prop55
280
     0
102
RTVSPost2010PropOp55
 70
     1
102
RTVSPost2010Prop56
140
1.0
102
RTVSPost2010PropOp56
 70
     1
102
RTVSPost2010Prop57
140
1.0
102
RTVSPost2010PropOp57
 70
     1
102
RTVSPropertyOp0
 70
     1
102
RTVSPropertyOp1
 70
     1
102
RTVSPropertyOp2
 70
     1
102
RTVSPropertyOp3
 70
     1
102
RTVSPropertyOp4
 70
     1
102
RTVSPropertyOp5
 70
     1
102
RTVSPropertyOp6
 70
     1
102
RTVSPropertyOp7
 70
     1
102
RTVSPropertyOp8
 70
     1
102
RTVSPropertyOp9
 70
     1
102
RTVSPropertyOp10
 70
     1
102
RTVSPropertyOp11
 70
     1
102
RTVSPropertyOp12
 70
     1
102
RTVSPropertyOp13
 70
     1
102
RTVSPropertyOp14
 70
     1
102
RTVSPropertyOp15
 70
     1
102
RTVSPropertyOp16
 70
     1
102
RTVSPropertyOp17
 70
     1
102
RTVSPropertyOp18
 70
     1
102
RTVSPropertyOp19
 70
     1
102
RTVSPropertyOp20
 70
     1
102
RTVSPropertyOp21
 70
     1
102
RTVSPropertyOp22
 70
     1
102
RTVSPropertyOp23
 70
     1
102
RTVSPropertyOp24
 70
     1
102
RTVSPropertyOp25
 70
     1
102
RTVSPropertyOp26
 70
     1
102
RTVSPropertyOp27
 70
     1
102
RTVSPropertyOp28
 70
     1
102
RTVSPropertyOp29
 70
     1
102
RTVSPropertyOp30
 70
     1
102
RTVSPropertyOp31
 70
     1
102
RTVSPropertyOp32
 70
     1
102
RTVSPropertyOp33
 70
     1
102
RTVSPropertyOp34
 70
     1
102
RTVSPropertyOp35
 70
     1
102
RTVSPropertyOp36
 70
     1
102
RTVSPropertyOp37
 70
     1
102
RTVSPropertyOp38
 70
     1
102
RTVSPropertyOp39
 70
     1
102
RTVSPropertyOp40
 70
     1
102
RTVSPropertyOp41
 70
     1
102
RTVSPropertyOp42
 70
     1
102
RTVSPropertyOp43
 70
     1
102
RTVSPropertyOp44
 70
     1
102
RTVSPropertyOp45
 70
     1
102
RTVSPropertyOp46
 70
     1
102
RTVSPropertyOp47
 70
     1
102
RTVSPropertyOp48
 70
     1
102
RTVSPropertyOp49
 70
     1
102
RTVSPropertyOp50
 70
     1
102
RTVSPropertyOp51
 70
     0
102
RTVSPropertyOp52
 70
     0
102
RTVSPropertyOp53
 70
     1
102
RTVSPropertyOp54
 70
     1
102
RTVSPropertyOp55
 70
     1
102
RTVSPropertyOp56
 70
     1
102
RTVSPropertyOp57
 70
     1
102
RTVSPropertyOp58
 70
     1
102
RTVSPropertyOp59
 70
     1
102
RTVSPropertyOp60
 70
     1
102
RTVSPropertyOp61
 70
     1
102
RTVSPropertyOp62
 70
     1
  0
XRECORD
  5
433
102
{ACAD_REACTORS
330
432
102
}
330
432
100
AcDbXrecord
280
     1
102
RTVSPost2010Prop28
280
     0
102
RTVSPost2010PropOp28
 70
     1
102
RTVSPost2010Prop29
280
     1
102
RTVSPost2010PropOp29
 70
     1
102
RTVSPost2010Prop30
280
     1
102
RTVSPost2010PropOp30
 70
     1
102
RTVSPost2010Prop31
280
     0
102
RTVSPost2010PropOp31
 70
     1
102
RTVSPost2010Prop32
280
     0
102
RTVSPost2010PropOp32
 70
     1
102
RTVSPost2010Prop33
280
     0
102
RTVSPost2010PropOp33
 70
     1
102
RTVSPost2010Prop34
280
     0
102
RTVSPost2010PropOp34
 70
     1
102
RTVSPost2010Prop35
280
     0
102
RTVSPost2010PropOp35
 70
     1
102
RTVSPost2010Prop36
280
     0
102
RTVSPost2010PropOp36
 70
     1
102
RTVSPost2010Prop37
 90
       50
102
RTVSPost2010PropOp37
 70
     1
102
RTVSPost2010Prop38
140
0.0
102
RTVSPost2010PropOp38
 70
     1
102
RTVSPost2010Prop39
140
1.0
102
RTVSPost2010PropOp39
 70
     1
102
RTVSPost2010Prop40
 90
        0
102
RTVSPost2010PropOp40
 70
     1
102
RTVSPost2010Prop41ColorIndex
 90
       18
102
RTVSPost2010Prop41ColorRGB
 90
        0
102
RTVSPost2010PropOp41
 70
     1
102
RTVSPost2010Prop42
 90
       50
102
RTVSPost2010PropOp42
 70
     1
102
RTVSPost2010Prop43
 90
        3
102
RTVSPost2010PropOp43
 70
     1
102
RTVSPost2010Prop44ColorIndex
 90
        5
102
RTVSPost2010Prop44ColorRGB
 90
      255
102
RTVSPost2010PropOp44
 70
     1
102
RTVSPost2010Prop45
280
     0
102
RTVSPost2010PropOp45
 70
     1
102
RTVSPost2010Prop46
 90
       50
102
RTVSPost2010PropOp46
 70
     1
102
RTVSPost2010Prop47
 90
       50
102
RTVSPost2010PropOp47
 70
     1
102
RTVSPost2010Prop48
 90
       50
102
RTVSPost2010PropOp48
 70
     1
102
RTVSPost2010Prop49
280
     0
102
RTVSPost2010PropOp49
 70
     1
102
RTVSPost2010Prop50
 90
       50
102
RTVSPost2010PropOp50
 70
     1
102
RTVSPost2010Prop51ColorIndex
 90
      256
102
RTVSPost2010Prop51ColorRGB
 90
-16777216
102
RTVSPost2010PropOp51
 70
     0
102
RTVSPost2010Prop52
140
1.0
102
RTVSPost2010PropOp52
 70
     0
102
RTVSPost2010Prop53
 90
        2
102
RTVSPost2010PropOp53
 70
     1
102
RTVSPost2010Prop54
  1
strokes_ogs.tif
102
RTVSPost2010PropOp54
 70
     1
102
RTVSPost2010Prop55
280
     0
102
RTVSPost2010PropOp55
 70
     1
102
RTVSPost2010Prop56
140
1.0
102
RTVSPost2010PropOp56
 70
     1
102
RTVSPost2010Prop57
140
1.0
102
RTVSPost2010PropOp57
 70
     1
102
RTVSPropertyOp0
 70
     1
102
RTVSPropertyOp1
 70
     1
102
RTVSPropertyOp2
 70
     1
102
RTVSPropertyOp3
 70
     1
102
RTVSPropertyOp4
 70
     1
102
RTVSPropertyOp5
 70
     1
102
RTVSPropertyOp6
 70
     1
102
RTVSPropertyOp7
 70
     1
102
RTVSPropertyOp8
 70
     1
102
RTVSPropertyOp9
 70
     1
102
RTVSPropertyOp10
 70
     1
102
RTVSPropertyOp11
 70
     1
102
RTVSPropertyOp12
 70
     1
102
RTVSPropertyOp13
 70
     1
102
RTVSPropertyOp14
 70
     1
102
RTVSPropertyOp15
 70
     1
102
RTVSPropertyOp16
 70
     1
102
RTVSPropertyOp17
 70
     1
102
RTVSPropertyOp18
 70
     1
102
RTVSPropertyOp19
 70
     1
102
RTVSPropertyOp20
 70
     1
102
RTVSPropertyOp21
 70
     1
102
RTVSPropertyOp22
 70
     1
102
RTVSPropertyOp23
 70
     1
102
RTVSPropertyOp24
 70
     1
102
RTVSPropertyOp25
 70
     1
102
RTVSPropertyOp26
 70
     1
102
RTVSPropertyOp27
 70
     1
102
RTVSPropertyOp28
 70
     1
102
RTVSPropertyOp29
 70
     1
102
RTVSPropertyOp30
 70
     1
102
RTVSPropertyOp31
 70
     1
102
RTVSPropertyOp32
 70
     1
102
RTVSPropertyOp33
 70
     1
102
RTVSPropertyOp34
 70
     1
102
RTVSPropertyOp35
 70
     1
102
RTVSPropertyOp36
 70
     1
102
RTVSPropertyOp37
 70
     1
102
RTVSPropertyOp38
 70
     1
102
RTVSPropertyOp39
 70
     1
102
RTVSPropertyOp40
 70
     1
102
RTVSPropertyOp41
 70
     1
102
RTVSPropertyOp42
 70
     1
102
RTVSPropertyOp43
 70
     1
102
RTVSPropertyOp44
 70
     1
102
RTVSPropertyOp45
 70
     1
102
RTVSPropertyOp46
 70
     1
102
RTVSPropertyOp47
 70
     1
102
RTVSPropertyOp48
 70
     1
102
RTVSPropertyOp49
 70
     1
102
RTVSPropertyOp50
 70
     1
102
RTVSPropertyOp51
 70
     0
102
RTVSPropertyOp52
 70
     0
102
RTVSPropertyOp53
 70
     1
102
RTVSPropertyOp54
 70
     1
102
RTVSPropertyOp55
 70
     1
102
RTVSPropertyOp56
 70
     1
102
RTVSPropertyOp57
 70
     1
102
RTVSPropertyOp58
 70
     1
102
RTVSPropertyOp59
 70
     1
102
RTVSPropertyOp60
 70
     1
102
RTVSPropertyOp61
 70
     1
102
RTVSPropertyOp62
 70
     1
  0
XRECORD
  5
441
102
{ACAD_REACTORS
330
440
102
}
330
440
100
AcDbXrecord
280
     1
102
RTVSPost2010Prop28
280
     0
102
RTVSPost2010PropOp28
 70
     1
102
RTVSPost2010Prop29
280
     1
102
RTVSPost2010PropOp29
 70
     1
102
RTVSPost2010Prop30
280
     1
102
RTVSPost2010PropOp30
 70
     1
102
RTVSPost2010Prop31
280
     0
102
RTVSPost2010PropOp31
 70
     1
102
RTVSPost2010Prop32
280
     0
102
RTVSPost2010PropOp32
 70
     1
102
RTVSPost2010Prop33
280
     0
102
RTVSPost2010PropOp33
 70
     1
102
RTVSPost2010Prop34
280
     0
102
RTVSPost2010PropOp34
 70
     1
102
RTVSPost2010Prop35
280
     0
102
RTVSPost2010PropOp35
 70
     1
102
RTVSPost2010Prop36
280
     0
102
RTVSPost2010PropOp36
 70
     1
102
RTVSPost2010Prop37
 90
       50
102
RTVSPost2010PropOp37
 70
     1
102
RTVSPost2010Prop38
140
0.0
102
RTVSPost2010PropOp38
 70
     1
102
RTVSPost2010Prop39
140
1.0
102
RTVSPost2010PropOp39
 70
     1
102
RTVSPost2010Prop40
 90
        0
102
RTVSPost2010PropOp40
 70
     1
102
RTVSPost2010Prop41ColorIndex
 90
       18
102
RTVSPost2010Prop41ColorRGB
 90
        0
102
RTVSPost2010PropOp41
 70
     1
102
RTVSPost2010Prop42
 90
       50
102
RTVSPost2010PropOp42
 70
     1
102
RTVSPost2010Prop43
 90
        3
102
RTVSPost2010PropOp43
 70
     1
102
RTVSPost2010Prop44ColorIndex
 90
        5
102
RTVSPost2010Prop44ColorRGB
 90
      255
102
RTVSPost2010PropOp44
 70
     1
102
RTVSPost2010Prop45
280
     0
102
RTVSPost2010PropOp45
 70
     1
102
RTVSPost2010Prop46
 90
       50
102
RTVSPost2010PropOp46
 70
     1
102
RTVSPost2010Prop47
 90
       50
102
RTVSPost2010PropOp47
 70
     1
102
RTVSPost2010Prop48
 90
       50
102
RTVSPost2010PropOp48
 70
     1
102
RTVSPost2010Prop49
280
     0
102
RTVSPost2010PropOp49
 70
     1
102
RTVSPost2010Prop50
 90
       50
102
RTVSPost2010PropOp50
 70
     1
102
RTVSPost2010Prop51ColorIndex
 90
      256
102
RTVSPost2010Prop51ColorRGB
 90
-16777216
102
RTVSPost2010PropOp51
 70
     0
102
RTVSPost2010Prop52
140
1.0
102
RTVSPost2010PropOp52
 70
     0
102
RTVSPost2010Prop53
 90
        2
102
RTVSPost2010PropOp53
 70
     1
102
RTVSPost2010Prop54
  1
strokes_ogs.tif
102
RTVSPost2010PropOp54
 70
     1
102
RTVSPost2010Prop55
280
     0
102
RTVSPost2010PropOp55
 70
     1
102
RTVSPost2010Prop56
140
1.0
102
RTVSPost2010PropOp56
 70
     1
102
RTVSPost2010Prop57
140
1.0
102
RTVSPost2010PropOp57
 70
     1
102
RTVSPropertyOp0
 70
     1
102
RTVSPropertyOp1
 70
     1
102
RTVSPropertyOp2
 70
     1
102
RTVSPropertyOp3
 70
     1
102
RTVSPropertyOp4
 70
     1
102
RTVSPropertyOp5
 70
     1
102
RTVSPropertyOp6
 70
     1
102
RTVSPropertyOp7
 70
     1
102
RTVSPropertyOp8
 70
     1
102
RTVSPropertyOp9
 70
     1
102
RTVSPropertyOp10
 70
     1
102
RTVSPropertyOp11
 70
     1
102
RTVSPropertyOp12
 70
     1
102
RTVSPropertyOp13
 70
     1
102
RTVSPropertyOp14
 70
     1
102
RTVSPropertyOp15
 70
     1
102
RTVSPropertyOp16
 70
     1
102
RTVSPropertyOp17
 70
     1
102
RTVSPropertyOp18
 70
     1
102
RTVSPropertyOp19
 70
     1
102
RTVSPropertyOp20
 70
     1
102
RTVSPropertyOp21
 70
     1
102
RTVSPropertyOp22
 70
     1
102
RTVSPropertyOp23
 70
     1
102
RTVSPropertyOp24
 70
     1
102
RTVSPropertyOp25
 70
     1
102
RTVSPropertyOp26
 70
     1
102
RTVSPropertyOp27
 70
     1
102
RTVSPropertyOp28
 70
     1
102
RTVSPropertyOp29
 70
     1
102
RTVSPropertyOp30
 70
     1
102
RTVSPropertyOp31
 70
     1
102
RTVSPropertyOp32
 70
     1
102
RTVSPropertyOp33
 70
     1
102
RTVSPropertyOp34
 70
     1
102
RTVSPropertyOp35
 70
     1
102
RTVSPropertyOp36
 70
     1
102
RTVSPropertyOp37
 70
     1
102
RTVSPropertyOp38
 70
     1
102
RTVSPropertyOp39
 70
     1
102
RTVSPropertyOp40
 70
     1
102
RTVSPropertyOp41
 70
     1
102
RTVSPropertyOp42
 70
     1
102
RTVSPropertyOp43
 70
     1
102
RTVSPropertyOp44
 70
     1
102
RTVSPropertyOp45
 70
     1
102
RTVSPropertyOp46
 70
     1
102
RTVSPropertyOp47
 70
     1
102
RTVSPropertyOp48
 70
     1
102
RTVSPropertyOp49
 70
     1
102
RTVSPropertyOp50
 70
     1
102
RTVSPropertyOp51
 70
     0
102
RTVSPropertyOp52
 70
     0
102
RTVSPropertyOp53
 70
     1
102
RTVSPropertyOp54
 70
     1
102
RTVSPropertyOp55
 70
     1
102
RTVSPropertyOp56
 70
     1
102
RTVSPropertyOp57
 70
     1
102
RTVSPropertyOp58
 70
     1
102
RTVSPropertyOp59
 70
     1
102
RTVSPropertyOp60
 70
     1
102
RTVSPropertyOp61
 70
     1
102
RTVSPropertyOp62
 70
     1
  0
XRECORD
  5
449
102
{ACAD_REACTORS
330
448
102
}
330
448
100
AcDbXrecord
280
     1
102
RTVSPost2010Prop28
280
     0
102
RTVSPost2010PropOp28
 70
     1
102
RTVSPost2010Prop29
280
     1
102
RTVSPost2010PropOp29
 70
     1
102
RTVSPost2010Prop30
280
     1
102
RTVSPost2010PropOp30
 70
     1
102
RTVSPost2010Prop31
280
     0
102
RTVSPost2010PropOp31
 70
     1
102
RTVSPost2010Prop32
280
     0
102
RTVSPost2010PropOp32
 70
     1
102
RTVSPost2010Prop33
280
     0
102
RTVSPost2010PropOp33
 70
     1
102
RTVSPost2010Prop34
280
     0
102
RTVSPost2010PropOp34
 70
     1
102
RTVSPost2010Prop35
280
     0
102
RTVSPost2010PropOp35
 70
     1
102
RTVSPost2010Prop36
280
     0
102
RTVSPost2010PropOp36
 70
     1
102
RTVSPost2010Prop37
 90
       50
102
RTVSPost2010PropOp37
 70
     1
102
RTVSPost2010Prop38
140
0.0
102
RTVSPost2010PropOp38
 70
     1
102
RTVSPost2010Prop39
140
1.0
102
RTVSPost2010PropOp39
 70
     1
102
RTVSPost2010Prop40
 90
        0
102
RTVSPost2010PropOp40
 70
     1
102
RTVSPost2010Prop41ColorIndex
 90
       18
102
RTVSPost2010Prop41ColorRGB
 90
        0
102
RTVSPost2010PropOp41
 70
     1
102
RTVSPost2010Prop42
 90
       50
102
RTVSPost2010PropOp42
 70
     1
102
RTVSPost2010Prop43
 90
        3
102
RTVSPost2010PropOp43
 70
     1
102
RTVSPost2010Prop44ColorIndex
 90
        5
102
RTVSPost2010Prop44ColorRGB
 90
      255
102
RTVSPost2010PropOp44
 70
     1
102
RTVSPost2010Prop45
280
     0
102
RTVSPost2010PropOp45
 70
     1
102
RTVSPost2010Prop46
 90
       50
102
RTVSPost2010PropOp46
 70
     1
102
RTVSPost2010Prop47
 90
       50
102
RTVSPost2010PropOp47
 70
     1
102
RTVSPost2010Prop48
 90
       50
102
RTVSPost2010PropOp48
 70
     1
102
RTVSPost2010Prop49
280
     0
102
RTVSPost2010PropOp49
 70
     1
102
RTVSPost2010Prop50
 90
       50
102
RTVSPost2010PropOp50
 70
     1
102
RTVSPost2010Prop51ColorIndex
 90
      256
102
RTVSPost2010Prop51ColorRGB
 90
-16777216
102
RTVSPost2010PropOp51
 70
     0
102
RTVSPost2010Prop52
140
1.0
102
RTVSPost2010PropOp52
 70
     0
102
RTVSPost2010Prop53
 90
        2
102
RTVSPost2010PropOp53
 70
     1
102
RTVSPost2010Prop54
  1
strokes_ogs.tif
102
RTVSPost2010PropOp54
 70
     1
102
RTVSPost2010Prop55
280
     0
102
RTVSPost2010PropOp55
 70
     1
102
RTVSPost2010Prop56
140
1.0
102
RTVSPost2010PropOp56
 70
     1
102
RTVSPost2010Prop57
140
1.0
102
RTVSPost2010PropOp57
 70
     1
102
RTVSPropertyOp0
 70
     1
102
RTVSPropertyOp1
 70
     1
102
RTVSPropertyOp2
 70
     1
102
RTVSPropertyOp3
 70
     1
102
RTVSPropertyOp4
 70
     1
102
RTVSPropertyOp5
 70
     1
102
RTVSPropertyOp6
 70
     1
102
RTVSPropertyOp7
 70
     1
102
RTVSPropertyOp8
 70
     1
102
RTVSPropertyOp9
 70
     1
102
RTVSPropertyOp10
 70
     1
102
RTVSPropertyOp11
 70
     1
102
RTVSPropertyOp12
 70
     1
102
RTVSPropertyOp13
 70
     1
102
RTVSPropertyOp14
 70
     1
102
RTVSPropertyOp15
 70
     1
102
RTVSPropertyOp16
 70
     1
102
RTVSPropertyOp17
 70
     1
102
RTVSPropertyOp18
 70
     1
102
RTVSPropertyOp19
 70
     1
102
RTVSPropertyOp20
 70
     1
102
RTVSPropertyOp21
 70
     1
102
RTVSPropertyOp22
 70
     1
102
RTVSPropertyOp23
 70
     1
102
RTVSPropertyOp24
 70
     1
102
RTVSPropertyOp25
 70
     1
102
RTVSPropertyOp26
 70
     1
102
RTVSPropertyOp27
 70
     1
102
RTVSPropertyOp28
 70
     1
102
RTVSPropertyOp29
 70
     1
102
RTVSPropertyOp30
 70
     1
102
RTVSPropertyOp31
 70
     1
102
RTVSPropertyOp32
 70
     1
102
RTVSPropertyOp33
 70
     1
102
RTVSPropertyOp34
 70
     1
102
RTVSPropertyOp35
 70
     1
102
RTVSPropertyOp36
 70
     1
102
RTVSPropertyOp37
 70
     1
102
RTVSPropertyOp38
 70
     1
102
RTVSPropertyOp39
 70
     1
102
RTVSPropertyOp40
 70
     1
102
RTVSPropertyOp41
 70
     1
102
RTVSPropertyOp42
 70
     1
102
RTVSPropertyOp43
 70
     1
102
RTVSPropertyOp44
 70
     1
102
RTVSPropertyOp45
 70
     1
102
RTVSPropertyOp46
 70
     1
102
RTVSPropertyOp47
 70
     1
102
RTVSPropertyOp48
 70
     1
102
RTVSPropertyOp49
 70
     1
102
RTVSPropertyOp50
 70
     1
102
RTVSPropertyOp51
 70
     0
102
RTVSPropertyOp52
 70
     0
102
RTVSPropertyOp53
 70
     1
102
RTVSPropertyOp54
 70
     1
102
RTVSPropertyOp55
 70
     1
102
RTVSPropertyOp56
 70
     1
102
RTVSPropertyOp57
 70
     1
102
RTVSPropertyOp58
 70
     1
102
RTVSPropertyOp59
 70
     1
102
RTVSPropertyOp60
 70
     1
102
RTVSPropertyOp61
 70
     1
102
RTVSPropertyOp62
 70
     1
  0
XRECORD
  5
43B
102
{ACAD_REACTORS
330
43A
102
}
330
43A
100
AcDbXrecord
280
     1
102
RTVSPost2010Prop28
280
     0
102
RTVSPost2010PropOp28
 70
     1
102
RTVSPost2010Prop29
280
     1
102
RTVSPost2010PropOp29
 70
     1
102
RTVSPost2010Prop30
280
     1
102
RTVSPost2010PropOp30
 70
     1
102
RTVSPost2010Prop31
280
     0
102
RTVSPost2010PropOp31
 70
     1
102
RTVSPost2010Prop32
280
     0
102
RTVSPost2010PropOp32
 70
     1
102
RTVSPost2010Prop33
280
     0
102
RTVSPost2010PropOp33
 70
     1
102
RTVSPost2010Prop34
280
     0
102
RTVSPost2010PropOp34
 70
     1
102
RTVSPost2010Prop35
280
     0
102
RTVSPost2010PropOp35
 70
     1
102
RTVSPost2010Prop36
280
     0
102
RTVSPost2010PropOp36
 70
     1
102
RTVSPost2010Prop37
 90
       50
102
RTVSPost2010PropOp37
 70
     1
102
RTVSPost2010Prop38
140
0.0
102
RTVSPost2010PropOp38
 70
     1
102
RTVSPost2010Prop39
140
1.0
102
RTVSPost2010PropOp39
 70
     1
102
RTVSPost2010Prop40
 90
        0
102
RTVSPost2010PropOp40
 70
     1
102
RTVSPost2010Prop41ColorIndex
 90
       18
102
RTVSPost2010Prop41ColorRGB
 90
        0
102
RTVSPost2010PropOp41
 70
     1
102
RTVSPost2010Prop42
 90
       50
102
RTVSPost2010PropOp42
 70
     1
102
RTVSPost2010Prop43
 90
        3
102
RTVSPost2010PropOp43
 70
     1
102
RTVSPost2010Prop44ColorIndex
 90
        5
102
RTVSPost2010Prop44ColorRGB
 90
      255
102
RTVSPost2010PropOp44
 70
     1
102
RTVSPost2010Prop45
280
     0
102
RTVSPost2010PropOp45
 70
     1
102
RTVSPost2010Prop46
 90
       50
102
RTVSPost2010PropOp46
 70
     1
102
RTVSPost2010Prop47
 90
       50
102
RTVSPost2010PropOp47
 70
     1
102
RTVSPost2010Prop48
 90
       50
102
RTVSPost2010PropOp48
 70
     1
102
RTVSPost2010Prop49
280
     0
102
RTVSPost2010PropOp49
 70
     1
102
RTVSPost2010Prop50
 90
       50
102
RTVSPost2010PropOp50
 70
     1
102
RTVSPost2010Prop51ColorIndex
 90
      256
102
RTVSPost2010Prop51ColorRGB
 90
-16777216
102
RTVSPost2010PropOp51
 70
     0
102
RTVSPost2010Prop52
140
1.0
102
RTVSPost2010PropOp52
 70
     0
102
RTVSPost2010Prop53
 90
        2
102
RTVSPost2010PropOp53
 70
     1
102
RTVSPost2010Prop54
  1
strokes_ogs.tif
102
RTVSPost2010PropOp54
 70
     1
102
RTVSPost2010Prop55
280
     0
102
RTVSPost2010PropOp55
 70
     1
102
RTVSPost2010Prop56
140
1.0
102
RTVSPost2010PropOp56
 70
     1
102
RTVSPost2010Prop57
140
1.0
102
RTVSPost2010PropOp57
 70
     1
102
RTVSPropertyOp0
 70
     1
102
RTVSPropertyOp1
 70
     1
102
RTVSPropertyOp2
 70
     1
102
RTVSPropertyOp3
 70
     1
102
RTVSPropertyOp4
 70
     1
102
RTVSPropertyOp5
 70
     1
102
RTVSPropertyOp6
 70
     1
102
RTVSPropertyOp7
 70
     1
102
RTVSPropertyOp8
 70
     1
102
RTVSPropertyOp9
 70
     1
102
RTVSPropertyOp10
 70
     1
102
RTVSPropertyOp11
 70
     1
102
RTVSPropertyOp12
 70
     1
102
RTVSPropertyOp13
 70
     1
102
RTVSPropertyOp14
 70
     1
102
RTVSPropertyOp15
 70
     1
102
RTVSPropertyOp16
 70
     1
102
RTVSPropertyOp17
 70
     1
102
RTVSPropertyOp18
 70
     1
102
RTVSPropertyOp19
 70
     1
102
RTVSPropertyOp20
 70
     1
102
RTVSPropertyOp21
 70
     1
102
RTVSPropertyOp22
 70
     1
102
RTVSPropertyOp23
 70
     1
102
RTVSPropertyOp24
 70
     1
102
RTVSPropertyOp25
 70
     1
102
RTVSPropertyOp26
 70
     1
102
RTVSPropertyOp27
 70
     1
102
RTVSPropertyOp28
 70
     1
102
RTVSPropertyOp29
 70
     1
102
RTVSPropertyOp30
 70
     1
102
RTVSPropertyOp31
 70
     1
102
RTVSPropertyOp32
 70
     1
102
RTVSPropertyOp33
 70
     1
102
RTVSPropertyOp34
 70
     1
102
RTVSPropertyOp35
 70
     1
102
RTVSPropertyOp36
 70
     1
102
RTVSPropertyOp37
 70
     1
102
RTVSPropertyOp38
 70
     1
102
RTVSPropertyOp39
 70
     1
102
RTVSPropertyOp40
 70
     1
102
RTVSPropertyOp41
 70
     1
102
RTVSPropertyOp42
 70
     1
102
RTVSPropertyOp43
 70
     1
102
RTVSPropertyOp44
 70
     1
102
RTVSPropertyOp45
 70
     1
102
RTVSPropertyOp46
 70
     1
102
RTVSPropertyOp47
 70
     1
102
RTVSPropertyOp48
 70
     1
102
RTVSPropertyOp49
 70
     1
102
RTVSPropertyOp50
 70
     1
102
RTVSPropertyOp51
 70
     0
102
RTVSPropertyOp52
 70
     0
102
RTVSPropertyOp53
 70
     1
102
RTVSPropertyOp54
 70
     1
102
RTVSPropertyOp55
 70
     1
102
RTVSPropertyOp56
 70
     1
102
RTVSPropertyOp57
 70
     1
102
RTVSPropertyOp58
 70
     1
102
RTVSPropertyOp59
 70
     1
102
RTVSPropertyOp60
 70
     1
102
RTVSPropertyOp61
 70
     1
102
RTVSPropertyOp62
 70
     1
  0
XRECORD
  5
43F
102
{ACAD_REACTORS
330
43E
102
}
330
43E
100
AcDbXrecord
280
     1
102
RTVSPost2010Prop28
280
     0
102
RTVSPost2010PropOp28
 70
     1
102
RTVSPost2010Prop29
280
     1
102
RTVSPost2010PropOp29
 70
     1
102
RTVSPost2010Prop30
280
     1
102
RTVSPost2010PropOp30
 70
     1
102
RTVSPost2010Prop31
280
     0
102
RTVSPost2010PropOp31
 70
     1
102
RTVSPost2010Prop32
280
     0
102
RTVSPost2010PropOp32
 70
     1
102
RTVSPost2010Prop33
280
     0
102
RTVSPost2010PropOp33
 70
     1
102
RTVSPost2010Prop34
280
     0
102
RTVSPost2010PropOp34
 70
     1
102
RTVSPost2010Prop35
280
     0
102
RTVSPost2010PropOp35
 70
     1
102
RTVSPost2010Prop36
280
     0
102
RTVSPost2010PropOp36
 70
     1
102
RTVSPost2010Prop37
 90
       50
102
RTVSPost2010PropOp37
 70
     1
102
RTVSPost2010Prop38
140
0.0
102
RTVSPost2010PropOp38
 70
     1
102
RTVSPost2010Prop39
140
1.0
102
RTVSPost2010PropOp39
 70
     1
102
RTVSPost2010Prop40
 90
        0
102
RTVSPost2010PropOp40
 70
     1
102
RTVSPost2010Prop41ColorIndex
 90
       18
102
RTVSPost2010Prop41ColorRGB
 90
        0
102
RTVSPost2010PropOp41
 70
     1
102
RTVSPost2010Prop42
 90
       50
102
RTVSPost2010PropOp42
 70
     1
102
RTVSPost2010Prop43
 90
        3
102
RTVSPost2010PropOp43
 70
     1
102
RTVSPost2010Prop44ColorIndex
 90
        5
102
RTVSPost2010Prop44ColorRGB
 90
      255
102
RTVSPost2010PropOp44
 70
     1
102
RTVSPost2010Prop45
280
     0
102
RTVSPost2010PropOp45
 70
     1
102
RTVSPost2010Prop46
 90
       50
102
RTVSPost2010PropOp46
 70
     1
102
RTVSPost2010Prop47
 90
       50
102
RTVSPost2010PropOp47
 70
     1
102
RTVSPost2010Prop48
 90
       50
102
RTVSPost2010PropOp48
 70
     1
102
RTVSPost2010Prop49
280
     0
102
RTVSPost2010PropOp49
 70
     1
102
RTVSPost2010Prop50
 90
       50
102
RTVSPost2010PropOp50
 70
     1
102
RTVSPost2010Prop51ColorIndex
 90
      256
102
RTVSPost2010Prop51ColorRGB
 90
-16777216
102
RTVSPost2010PropOp51
 70
     0
102
RTVSPost2010Prop52
140
1.0
102
RTVSPost2010PropOp52
 70
     0
102
RTVSPost2010Prop53
 90
        2
102
RTVSPost2010PropOp53
 70
     1
102
RTVSPost2010Prop54
  1
strokes_ogs.tif
102
RTVSPost2010PropOp54
 70
     1
102
RTVSPost2010Prop55
280
     0
102
RTVSPost2010PropOp55
 70
     1
102
RTVSPost2010Prop56
140
1.0
102
RTVSPost2010PropOp56
 70
     1
102
RTVSPost2010Prop57
140
1.0
102
RTVSPost2010PropOp57
 70
     1
102
RTVSPropertyOp0
 70
     1
102
RTVSPropertyOp1
 70
     1
102
RTVSPropertyOp2
 70
     1
102
RTVSPropertyOp3
 70
     1
102
RTVSPropertyOp4
 70
     1
102
RTVSPropertyOp5
 70
     1
102
RTVSPropertyOp6
 70
     1
102
RTVSPropertyOp7
 70
     1
102
RTVSPropertyOp8
 70
     1
102
RTVSPropertyOp9
 70
     1
102
RTVSPropertyOp10
 70
     1
102
RTVSPropertyOp11
 70
     1
102
RTVSPropertyOp12
 70
     1
102
RTVSPropertyOp13
 70
     1
102
RTVSPropertyOp14
 70
     1
102
RTVSPropertyOp15
 70
     1
102
RTVSPropertyOp16
 70
     1
102
RTVSPropertyOp17
 70
     1
102
RTVSPropertyOp18
 70
     1
102
RTVSPropertyOp19
 70
     1
102
RTVSPropertyOp20
 70
     1
102
RTVSPropertyOp21
 70
     1
102
RTVSPropertyOp22
 70
     1
102
RTVSPropertyOp23
 70
     1
102
RTVSPropertyOp24
 70
     1
102
RTVSPropertyOp25
 70
     1
102
RTVSPropertyOp26
 70
     1
102
RTVSPropertyOp27
 70
     1
102
RTVSPropertyOp28
 70
     1
102
RTVSPropertyOp29
 70
     1
102
RTVSPropertyOp30
 70
     1
102
RTVSPropertyOp31
 70
     1
102
RTVSPropertyOp32
 70
     1
102
RTVSPropertyOp33
 70
     1
102
RTVSPropertyOp34
 70
     1
102
RTVSPropertyOp35
 70
     1
102
RTVSPropertyOp36
 70
     1
102
RTVSPropertyOp37
 70
     1
102
RTVSPropertyOp38
 70
     1
102
RTVSPropertyOp39
 70
     1
102
RTVSPropertyOp40
 70
     1
102
RTVSPropertyOp41
 70
     1
102
RTVSPropertyOp42
 70
     1
102
RTVSPropertyOp43
 70
     1
102
RTVSPropertyOp44
 70
     1
102
RTVSPropertyOp45
 70
     1
102
RTVSPropertyOp46
 70
     1
102
RTVSPropertyOp47
 70
     1
102
RTVSPropertyOp48
 70
     1
102
RTVSPropertyOp49
 70
     1
102
RTVSPropertyOp50
 70
     1
102
RTVSPropertyOp51
 70
     0
102
RTVSPropertyOp52
 70
     0
102
RTVSPropertyOp53
 70
     1
102
RTVSPropertyOp54
 70
     1
102
RTVSPropertyOp55
 70
     1
102
RTVSPropertyOp56
 70
     1
102
RTVSPropertyOp57
 70
     1
102
RTVSPropertyOp58
 70
     1
102
RTVSPropertyOp59
 70
     1
102
RTVSPropertyOp60
 70
     1
102
RTVSPropertyOp61
 70
     1
102
RTVSPropertyOp62
 70
     1
  0
XRECORD
  5
459
102
{ACAD_REACTORS
330
458
102
}
330
458
100
AcDbXrecord
280
     1
102
RTVSPost2010Prop28
280
     0
102
RTVSPost2010PropOp28
 70
     1
102
RTVSPost2010Prop29
280
     1
102
RTVSPost2010PropOp29
 70
     1
102
RTVSPost2010Prop30
280
     1
102
RTVSPost2010PropOp30
 70
     1
102
RTVSPost2010Prop31
280
     0
102
RTVSPost2010PropOp31
 70
     1
102
RTVSPost2010Prop32
280
     0
102
RTVSPost2010PropOp32
 70
     1
102
RTVSPost2010Prop33
280
     0
102
RTVSPost2010PropOp33
 70
     1
102
RTVSPost2010Prop34
280
     0
102
RTVSPost2010PropOp34
 70
     1
102
RTVSPost2010Prop35
280
     0
102
RTVSPost2010PropOp35
 70
     1
102
RTVSPost2010Prop36
280
     0
102
RTVSPost2010PropOp36
 70
     1
102
RTVSPost2010Prop37
 90
       50
102
RTVSPost2010PropOp37
 70
     0
102
RTVSPost2010Prop38
140
0.0
102
RTVSPost2010PropOp38
 70
     0
102
RTVSPost2010Prop39
140
1.0
102
RTVSPost2010PropOp39
 70
     0
102
RTVSPost2010Prop40
 90
        0
102
RTVSPost2010PropOp40
 70
     0
102
RTVSPost2010Prop41ColorIndex
 90
       18
102
RTVSPost2010Prop41ColorRGB
 90
        0
102
RTVSPost2010PropOp41
 70
     0
102
RTVSPost2010Prop42
 90
       50
102
RTVSPost2010PropOp42
 70
     0
102
RTVSPost2010Prop43
 90
        3
102
RTVSPost2010PropOp43
 70
     0
102
RTVSPost2010Prop44ColorIndex
 90
        5
102
RTVSPost2010Prop44ColorRGB
 90
      255
102
RTVSPost2010PropOp44
 70
     0
102
RTVSPost2010Prop45
280
     0
102
RTVSPost2010PropOp45
 70
     1
102
RTVSPost2010Prop46
 90
       50
102
RTVSPost2010PropOp46
 70
     0
102
RTVSPost2010Prop47
 90
       50
102
RTVSPost2010PropOp47
 70
     0
102
RTVSPost2010Prop48
 90
       50
102
RTVSPost2010PropOp48
 70
     0
102
RTVSPost2010Prop49
280
     0
102
RTVSPost2010PropOp49
 70
     1
102
RTVSPost2010Prop50
 90
       50
102
RTVSPost2010PropOp50
 70
     0
102
RTVSPost2010Prop51ColorIndex
 90
      256
102
RTVSPost2010Prop51ColorRGB
 90
-16777216
102
RTVSPost2010PropOp51
 70
     0
102
RTVSPost2010Prop52
140
1.0
102
RTVSPost2010PropOp52
 70
     0
102
RTVSPost2010Prop53
 90
        2
102
RTVSPost2010PropOp53
 70
     0
102
RTVSPost2010Prop54
  1
strokes_ogs.tif
102
RTVSPost2010PropOp54
 70
     0
102
RTVSPost2010Prop55
280
     0
102
RTVSPost2010PropOp55
 70
     1
102
RTVSPost2010Prop56
140
1.0
102
RTVSPost2010PropOp56
 70
     0
102
RTVSPost2010Prop57
140
1.0
102
RTVSPost2010PropOp57
 70
     0
102
RTVSPropertyOp0
 70
     0
102
RTVSPropertyOp1
 70
     0
102
RTVSPropertyOp2
 70
     0
102
RTVSPropertyOp3
 70
     0
102
RTVSPropertyOp4
 70
     0
102
RTVSPropertyOp5
 70
     0
102
RTVSPropertyOp6
 70
     0
102
RTVSPropertyOp7
 70
     0
102
RTVSPropertyOp8
 70
     0
102
RTVSPropertyOp9
 70
     0
102
RTVSPropertyOp10
 70
     0
102
RTVSPropertyOp11
 70
     0
102
RTVSPropertyOp12
 70
     0
102
RTVSPropertyOp13
 70
     0
102
RTVSPropertyOp14
 70
     2
102
RTVSPropertyOp15
 70
     0
102
RTVSPropertyOp16
 70
     0
102
RTVSPropertyOp17
 70
     0
102
RTVSPropertyOp18
 70
     0
102
RTVSPropertyOp19
 70
     0
102
RTVSPropertyOp20
 70
     0
102
RTVSPropertyOp21
 70
     0
102
RTVSPropertyOp22
 70
     0
102
RTVSPropertyOp23
 70
     0
102
RTVSPropertyOp24
 70
     0
102
RTVSPropertyOp25
 70
     0
102
RTVSPropertyOp26
 70
     0
102
RTVSPropertyOp27
 70
     0
102
RTVSPropertyOp28
 70
     1
102
RTVSPropertyOp29
 70
     1
102
RTVSPropertyOp30
 70
     1
102
RTVSPropertyOp31
 70
     1
102
RTVSPropertyOp32
 70
     1
102
RTVSPropertyOp33
 70
     1
102
RTVSPropertyOp34
 70
     1
102
RTVSPropertyOp35
 70
     1
102
RTVSPropertyOp36
 70
     1
102
RTVSPropertyOp37
 70
     0
102
RTVSPropertyOp38
 70
     0
102
RTVSPropertyOp39
 70
     0
102
RTVSPropertyOp40
 70
     0
102
RTVSPropertyOp41
 70
     0
102
RTVSPropertyOp42
 70
     0
102
RTVSPropertyOp43
 70
     0
102
RTVSPropertyOp44
 70
     0
102
RTVSPropertyOp45
 70
     1
102
RTVSPropertyOp46
 70
     0
102
RTVSPropertyOp47
 70
     0
102
RTVSPropertyOp48
 70
     0
102
RTVSPropertyOp49
 70
     1
102
RTVSPropertyOp50
 70
     0
102
RTVSPropertyOp51
 70
     0
102
RTVSPropertyOp52
 70
     0
102
RTVSPropertyOp53
 70
     0
102
RTVSPropertyOp54
 70
     0
102
RTVSPropertyOp55
 70
     1
102
RTVSPropertyOp56
 70
     0
102
RTVSPropertyOp57
 70
     0
102
RTVSPropertyOp58
 70
     0
102
RTVSPropertyOp59
 70
     0
102
RTVSPropertyOp60
 70
     0
102
RTVSPropertyOp61
 70
     0
102
RTVSPropertyOp62
 70
     0
  0
XRECORD
  5
447
102
{ACAD_REACTORS
330
446
102
}
330
446
100
AcDbXrecord
280
     1
102
RTVSPost2010Prop28
280
     0
102
RTVSPost2010PropOp28
 70
     1
102
RTVSPost2010Prop29
280
     1
102
RTVSPost2010PropOp29
 70
     1
102
RTVSPost2010Prop30
280
     1
102
RTVSPost2010PropOp30
 70
     1
102
RTVSPost2010Prop31
280
     0
102
RTVSPost2010PropOp31
 70
     1
102
RTVSPost2010Prop32
280
     0
102
RTVSPost2010PropOp32
 70
     1
102
RTVSPost2010Prop33
280
     0
102
RTVSPost2010PropOp33
 70
     1
102
RTVSPost2010Prop34
280
     0
102
RTVSPost2010PropOp34
 70
     1
102
RTVSPost2010Prop35
280
     0
102
RTVSPost2010PropOp35
 70
     1
102
RTVSPost2010Prop36
280
     0
102
RTVSPost2010PropOp36
 70
     1
102
RTVSPost2010Prop37
 90
       50
102
RTVSPost2010PropOp37
 70
     1
102
RTVSPost2010Prop38
140
0.0
102
RTVSPost2010PropOp38
 70
     1
102
RTVSPost2010Prop39
140
1.0
102
RTVSPost2010PropOp39
 70
     1
102
RTVSPost2010Prop40
 90
        0
102
RTVSPost2010PropOp40
 70
     1
102
RTVSPost2010Prop41ColorIndex
 90
       18
102
RTVSPost2010Prop41ColorRGB
 90
        0
102
RTVSPost2010PropOp41
 70
     1
102
RTVSPost2010Prop42
 90
       50
102
RTVSPost2010PropOp42
 70
     1
102
RTVSPost2010Prop43
 90
        3
102
RTVSPost2010PropOp43
 70
     1
102
RTVSPost2010Prop44ColorIndex
 90
        5
102
RTVSPost2010Prop44ColorRGB
 90
      255
102
RTVSPost2010PropOp44
 70
     1
102
RTVSPost2010Prop45
280
     0
102
RTVSPost2010PropOp45
 70
     1
102
RTVSPost2010Prop46
 90
       50
102
RTVSPost2010PropOp46
 70
     1
102
RTVSPost2010Prop47
 90
       50
102
RTVSPost2010PropOp47
 70
     1
102
RTVSPost2010Prop48
 90
       50
102
RTVSPost2010PropOp48
 70
     1
102
RTVSPost2010Prop49
280
     0
102
RTVSPost2010PropOp49
 70
     1
102
RTVSPost2010Prop50
 90
       50
102
RTVSPost2010PropOp50
 70
     1
102
RTVSPost2010Prop51ColorIndex
 90
      256
102
RTVSPost2010Prop51ColorRGB
 90
-16777216
102
RTVSPost2010PropOp51
 70
     0
102
RTVSPost2010Prop52
140
1.0
102
RTVSPost2010PropOp52
 70
     0
102
RTVSPost2010Prop53
 90
        2
102
RTVSPost2010PropOp53
 70
     1
102
RTVSPost2010Prop54
  1
strokes_ogs.tif
102
RTVSPost2010PropOp54
 70
     1
102
RTVSPost2010Prop55
280
     0
102
RTVSPost2010PropOp55
 70
     1
102
RTVSPost2010Prop56
140
1.0
102
RTVSPost2010PropOp56
 70
     1
102
RTVSPost2010Prop57
140
1.0
102
RTVSPost2010PropOp57
 70
     1
102
RTVSPropertyOp0
 70
     1
102
RTVSPropertyOp1
 70
     1
102
RTVSPropertyOp2
 70
     1
102
RTVSPropertyOp3
 70
     1
102
RTVSPropertyOp4
 70
     1
102
RTVSPropertyOp5
 70
     1
102
RTVSPropertyOp6
 70
     1
102
RTVSPropertyOp7
 70
     1
102
RTVSPropertyOp8
 70
     1
102
RTVSPropertyOp9
 70
     1
102
RTVSPropertyOp10
 70
     1
102
RTVSPropertyOp11
 70
     1
102
RTVSPropertyOp12
 70
     1
102
RTVSPropertyOp13
 70
     1
102
RTVSPropertyOp14
 70
     1
102
RTVSPropertyOp15
 70
     1
102
RTVSPropertyOp16
 70
     1
102
RTVSPropertyOp17
 70
     1
102
RTVSPropertyOp18
 70
     1
102
RTVSPropertyOp19
 70
     1
102
RTVSPropertyOp20
 70
     1
102
RTVSPropertyOp21
 70
     1
102
RTVSPropertyOp22
 70
     1
102
RTVSPropertyOp23
 70
     1
102
RTVSPropertyOp24
 70
     1
102
RTVSPropertyOp25
 70
     1
102
RTVSPropertyOp26
 70
     1
102
RTVSPropertyOp27
 70
     1
102
RTVSPropertyOp28
 70
     1
102
RTVSPropertyOp29
 70
     1
102
RTVSPropertyOp30
 70
     1
102
RTVSPropertyOp31
 70
     1
102
RTVSPropertyOp32
 70
     1
102
RTVSPropertyOp33
 70
     1
102
RTVSPropertyOp34
 70
     1
102
RTVSPropertyOp35
 70
     1
102
RTVSPropertyOp36
 70
     1
102
RTVSPropertyOp37
 70
     1
102
RTVSPropertyOp38
 70
     1
102
RTVSPropertyOp39
 70
     1
102
RTVSPropertyOp40
 70
     1
102
RTVSPropertyOp41
 70
     1
102
RTVSPropertyOp42
 70
     1
102
RTVSPropertyOp43
 70
     1
102
RTVSPropertyOp44
 70
     1
102
RTVSPropertyOp45
 70
     1
102
RTVSPropertyOp46
 70
     1
102
RTVSPropertyOp47
 70
     1
102
RTVSPropertyOp48
 70
     1
102
RTVSPropertyOp49
 70
     1
102
RTVSPropertyOp50
 70
     1
102
RTVSPropertyOp51
 70
     0
102
RTVSPropertyOp52
 70
     0
102
RTVSPropertyOp53
 70
     1
102
RTVSPropertyOp54
 70
     1
102
RTVSPropertyOp55
 70
     1
102
RTVSPropertyOp56
 70
     1
102
RTVSPropertyOp57
 70
     1
102
RTVSPropertyOp58
 70
     1
102
RTVSPropertyOp59
 70
     1
102
RTVSPropertyOp60
 70
     1
102
RTVSPropertyOp61
 70
     1
102
RTVSPropertyOp62
 70
     1
  0
XRECORD
  5
42B
102
{ACAD_REACTORS
330
42A
102
}
330
42A
100
AcDbXrecord
280
     1
102
RTVSPost2010Prop28
280
     0
102
RTVSPost2010PropOp28
 70
     1
102
RTVSPost2010Prop29
280
     1
102
RTVSPost2010PropOp29
 70
     1
102
RTVSPost2010Prop30
280
     1
102
RTVSPost2010PropOp30
 70
     1
102
RTVSPost2010Prop31
280
     0
102
RTVSPost2010PropOp31
 70
     1
102
RTVSPost2010Prop32
280
     0
102
RTVSPost2010PropOp32
 70
     1
102
RTVSPost2010Prop33
280
     0
102
RTVSPost2010PropOp33
 70
     1
102
RTVSPost2010Prop34
280
     0
102
RTVSPost2010PropOp34
 70
     1
102
RTVSPost2010Prop35
280
     0
102
RTVSPost2010PropOp35
 70
     1
102
RTVSPost2010Prop36
280
     0
102
RTVSPost2010PropOp36
 70
     1
102
RTVSPost2010Prop37
 90
       50
102
RTVSPost2010PropOp37
 70
     1
102
RTVSPost2010Prop38
140
0.0
102
RTVSPost2010PropOp38
 70
     1
102
RTVSPost2010Prop39
140
1.0
102
RTVSPost2010PropOp39
 70
     1
102
RTVSPost2010Prop40
 90
        0
102
RTVSPost2010PropOp40
 70
     1
102
RTVSPost2010Prop41ColorIndex
 90
       18
102
RTVSPost2010Prop41ColorRGB
 90
        0
102
RTVSPost2010PropOp41
 70
     1
102
RTVSPost2010Prop42
 90
       50
102
RTVSPost2010PropOp42
 70
     1
102
RTVSPost2010Prop43
 90
        3
102
RTVSPost2010PropOp43
 70
     1
102
RTVSPost2010Prop44ColorIndex
 90
        5
102
RTVSPost2010Prop44ColorRGB
 90
      255
102
RTVSPost2010PropOp44
 70
     1
102
RTVSPost2010Prop45
280
     0
102
RTVSPost2010PropOp45
 70
     1
102
RTVSPost2010Prop46
 90
       50
102
RTVSPost2010PropOp46
 70
     1
102
RTVSPost2010Prop47
 90
       50
102
RTVSPost2010PropOp47
 70
     1
102
RTVSPost2010Prop48
 90
       50
102
RTVSPost2010PropOp48
 70
     1
102
RTVSPost2010Prop49
280
     0
102
RTVSPost2010PropOp49
 70
     1
102
RTVSPost2010Prop50
 90
       50
102
RTVSPost2010PropOp50
 70
     1
102
RTVSPost2010Prop51ColorIndex
 90
      256
102
RTVSPost2010Prop51ColorRGB
 90
-16777216
102
RTVSPost2010PropOp51
 70
     0
102
RTVSPost2010Prop52
140
1.0
102
RTVSPost2010PropOp52
 70
     0
102
RTVSPost2010Prop53
 90
        2
102
RTVSPost2010PropOp53
 70
     1
102
RTVSPost2010Prop54
  1
strokes_ogs.tif
102
RTVSPost2010PropOp54
 70
     1
102
RTVSPost2010Prop55
280
     0
102
RTVSPost2010PropOp55
 70
     1
102
RTVSPost2010Prop56
140
1.0
102
RTVSPost2010PropOp56
 70
     1
102
RTVSPost2010Prop57
140
1.0
102
RTVSPost2010PropOp57
 70
     1
102
RTVSPropertyOp0
 70
     1
102
RTVSPropertyOp1
 70
     1
102
RTVSPropertyOp2
 70
     1
102
RTVSPropertyOp3
 70
     1
102
RTVSPropertyOp4
 70
     1
102
RTVSPropertyOp5
 70
     1
102
RTVSPropertyOp6
 70
     1
102
RTVSPropertyOp7
 70
     1
102
RTVSPropertyOp8
 70
     1
102
RTVSPropertyOp9
 70
     1
102
RTVSPropertyOp10
 70
     1
102
RTVSPropertyOp11
 70
     1
102
RTVSPropertyOp12
 70
     1
102
RTVSPropertyOp13
 70
     1
102
RTVSPropertyOp14
 70
     1
102
RTVSPropertyOp15
 70
     1
102
RTVSPropertyOp16
 70
     1
102
RTVSPropertyOp17
 70
     1
102
RTVSPropertyOp18
 70
     1
102
RTVSPropertyOp19
 70
     1
102
RTVSPropertyOp20
 70
     1
102
RTVSPropertyOp21
 70
     1
102
RTVSPropertyOp22
 70
     1
102
RTVSPropertyOp23
 70
     1
102
RTVSPropertyOp24
 70
     1
102
RTVSPropertyOp25
 70
     1
102
RTVSPropertyOp26
 70
     1
102
RTVSPropertyOp27
 70
     1
102
RTVSPropertyOp28
 70
     1
102
RTVSPropertyOp29
 70
     1
102
RTVSPropertyOp30
 70
     1
102
RTVSPropertyOp31
 70
     1
102
RTVSPropertyOp32
 70
     1
102
RTVSPropertyOp33
 70
     1
102
RTVSPropertyOp34
 70
     1
102
RTVSPropertyOp35
 70
     1
102
RTVSPropertyOp36
 70
     1
102
RTVSPropertyOp37
 70
     1
102
RTVSPropertyOp38
 70
     1
102
RTVSPropertyOp39
 70
     1
102
RTVSPropertyOp40
 70
     1
102
RTVSPropertyOp41
 70
     1
102
RTVSPropertyOp42
 70
     1
102
RTVSPropertyOp43
 70
     1
102
RTVSPropertyOp44
 70
     1
102
RTVSPropertyOp45
 70
     1
102
RTVSPropertyOp46
 70
     1
102
RTVSPropertyOp47
 70
     1
102
RTVSPropertyOp48
 70
     1
102
RTVSPropertyOp49
 70
     1
102
RTVSPropertyOp50
 70
     1
102
RTVSPropertyOp51
 70
     0
102
RTVSPropertyOp52
 70
     0
102
RTVSPropertyOp53
 70
     1
102
RTVSPropertyOp54
 70
     1
102
RTVSPropertyOp55
 70
     1
102
RTVSPropertyOp56
 70
     1
102
RTVSPropertyOp57
 70
     1
102
RTVSPropertyOp58
 70
     1
102
RTVSPropertyOp59
 70
     1
102
RTVSPropertyOp60
 70
     1
102
RTVSPropertyOp61
 70
     1
102
RTVSPropertyOp62
 70
     1
  0
XRECORD
  5
42D
102
{ACAD_REACTORS
330
42C
102
}
330
42C
100
AcDbXrecord
280
     1
102
RTVSPost2010Prop28
280
     0
102
RTVSPost2010PropOp28
 70
     1
102
RTVSPost2010Prop29
280
     1
102
RTVSPost2010PropOp29
 70
     1
102
RTVSPost2010Prop30
280
     1
102
RTVSPost2010PropOp30
 70
     1
102
RTVSPost2010Prop31
280
     0
102
RTVSPost2010PropOp31
 70
     1
102
RTVSPost2010Prop32
280
     0
102
RTVSPost2010PropOp32
 70
     1
102
RTVSPost2010Prop33
280
     0
102
RTVSPost2010PropOp33
 70
     1
102
RTVSPost2010Prop34
280
     0
102
RTVSPost2010PropOp34
 70
     1
102
RTVSPost2010Prop35
280
     0
102
RTVSPost2010PropOp35
 70
     1
102
RTVSPost2010Prop36
280
     0
102
RTVSPost2010PropOp36
 70
     1
102
RTVSPost2010Prop37
 90
       50
102
RTVSPost2010PropOp37
 70
     1
102
RTVSPost2010Prop38
140
0.0
102
RTVSPost2010PropOp38
 70
     1
102
RTVSPost2010Prop39
140
1.0
102
RTVSPost2010PropOp39
 70
     1
102
RTVSPost2010Prop40
 90
        0
102
RTVSPost2010PropOp40
 70
     1
102
RTVSPost2010Prop41ColorIndex
 90
       18
102
RTVSPost2010Prop41ColorRGB
 90
        0
102
RTVSPost2010PropOp41
 70
     1
102
RTVSPost2010Prop42
 90
       50
102
RTVSPost2010PropOp42
 70
     1
102
RTVSPost2010Prop43
 90
        3
102
RTVSPost2010PropOp43
 70
     1
102
RTVSPost2010Prop44ColorIndex
 90
        5
102
RTVSPost2010Prop44ColorRGB
 90
      255
102
RTVSPost2010PropOp44
 70
     1
102
RTVSPost2010Prop45
280
     0
102
RTVSPost2010PropOp45
 70
     1
102
RTVSPost2010Prop46
 90
       50
102
RTVSPost2010PropOp46
 70
     1
102
RTVSPost2010Prop47
 90
       50
102
RTVSPost2010PropOp47
 70
     1
102
RTVSPost2010Prop48
 90
       50
102
RTVSPost2010PropOp48
 70
     1
102
RTVSPost2010Prop49
280
     0
102
RTVSPost2010PropOp49
 70
     1
102
RTVSPost2010Prop50
 90
       50
102
RTVSPost2010PropOp50
 70
     1
102
RTVSPost2010Prop51ColorIndex
 90
      256
102
RTVSPost2010Prop51ColorRGB
 90
-16777216
102
RTVSPost2010PropOp51
 70
     0
102
RTVSPost2010Prop52
140
1.0
102
RTVSPost2010PropOp52
 70
     0
102
RTVSPost2010Prop53
 90
        2
102
RTVSPost2010PropOp53
 70
     1
102
RTVSPost2010Prop54
  1
strokes_ogs.tif
102
RTVSPost2010PropOp54
 70
     1
102
RTVSPost2010Prop55
280
     0
102
RTVSPost2010PropOp55
 70
     1
102
RTVSPost2010Prop56
140
1.0
102
RTVSPost2010PropOp56
 70
     1
102
RTVSPost2010Prop57
140
1.0
102
RTVSPost2010PropOp57
 70
     1
102
RTVSPropertyOp0
 70
     1
102
RTVSPropertyOp1
 70
     1
102
RTVSPropertyOp2
 70
     1
102
RTVSPropertyOp3
 70
     1
102
RTVSPropertyOp4
 70
     1
102
RTVSPropertyOp5
 70
     1
102
RTVSPropertyOp6
 70
     1
102
RTVSPropertyOp7
 70
     1
102
RTVSPropertyOp8
 70
     1
102
RTVSPropertyOp9
 70
     1
102
RTVSPropertyOp10
 70
     1
102
RTVSPropertyOp11
 70
     1
102
RTVSPropertyOp12
 70
     1
102
RTVSPropertyOp13
 70
     1
102
RTVSPropertyOp14
 70
     1
102
RTVSPropertyOp15
 70
     1
102
RTVSPropertyOp16
 70
     1
102
RTVSPropertyOp17
 70
     1
102
RTVSPropertyOp18
 70
     1
102
RTVSPropertyOp19
 70
     1
102
RTVSPropertyOp20
 70
     1
102
RTVSPropertyOp21
 70
     1
102
RTVSPropertyOp22
 70
     1
102
RTVSPropertyOp23
 70
     1
102
RTVSPropertyOp24
 70
     1
102
RTVSPropertyOp25
 70
     1
102
RTVSPropertyOp26
 70
     1
102
RTVSPropertyOp27
 70
     1
102
RTVSPropertyOp28
 70
     1
102
RTVSPropertyOp29
 70
     1
102
RTVSPropertyOp30
 70
     1
102
RTVSPropertyOp31
 70
     1
102
RTVSPropertyOp32
 70
     1
102
RTVSPropertyOp33
 70
     1
102
RTVSPropertyOp34
 70
     1
102
RTVSPropertyOp35
 70
     1
102
RTVSPropertyOp36
 70
     1
102
RTVSPropertyOp37
 70
     1
102
RTVSPropertyOp38
 70
     1
102
RTVSPropertyOp39
 70
     1
102
RTVSPropertyOp40
 70
     1
102
RTVSPropertyOp41
 70
     1
102
RTVSPropertyOp42
 70
     1
102
RTVSPropertyOp43
 70
     1
102
RTVSPropertyOp44
 70
     1
102
RTVSPropertyOp45
 70
     1
102
RTVSPropertyOp46
 70
     1
102
RTVSPropertyOp47
 70
     1
102
RTVSPropertyOp48
 70
     1
102
RTVSPropertyOp49
 70
     1
102
RTVSPropertyOp50
 70
     1
102
RTVSPropertyOp51
 70
     0
102
RTVSPropertyOp52
 70
     0
102
RTVSPropertyOp53
 70
     1
102
RTVSPropertyOp54
 70
     1
102
RTVSPropertyOp55
 70
     1
102
RTVSPropertyOp56
 70
     1
102
RTVSPropertyOp57
 70
     1
102
RTVSPropertyOp58
 70
     1
102
RTVSPropertyOp59
 70
     1
102
RTVSPropertyOp60
 70
     1
102
RTVSPropertyOp61
 70
     1
102
RTVSPropertyOp62
 70
     1
  0
XRECORD
  5
42F
102
{ACAD_REACTORS
330
42E
102
}
330
42E
100
AcDbXrecord
280
     1
102
RTVSPost2010Prop28
280
     0
102
RTVSPost2010PropOp28
 70
     1
102
RTVSPost2010Prop29
280
     1
102
RTVSPost2010PropOp29
 70
     1
102
RTVSPost2010Prop30
280
     1
102
RTVSPost2010PropOp30
 70
     1
102
RTVSPost2010Prop31
280
     0
102
RTVSPost2010PropOp31
 70
     1
102
RTVSPost2010Prop32
280
     0
102
RTVSPost2010PropOp32
 70
     1
102
RTVSPost2010Prop33
280
     0
102
RTVSPost2010PropOp33
 70
     1
102
RTVSPost2010Prop34
280
     0
102
RTVSPost2010PropOp34
 70
     1
102
RTVSPost2010Prop35
280
     0
102
RTVSPost2010PropOp35
 70
     1
102
RTVSPost2010Prop36
280
     0
102
RTVSPost2010PropOp36
 70
     1
102
RTVSPost2010Prop37
 90
       50
102
RTVSPost2010PropOp37
 70
     1
102
RTVSPost2010Prop38
140
0.0
102
RTVSPost2010PropOp38
 70
     1
102
RTVSPost2010Prop39
140
1.0
102
RTVSPost2010PropOp39
 70
     1
102
RTVSPost2010Prop40
 90
        0
102
RTVSPost2010PropOp40
 70
     1
102
RTVSPost2010Prop41ColorIndex
 90
       18
102
RTVSPost2010Prop41ColorRGB
 90
        0
102
RTVSPost2010PropOp41
 70
     1
102
RTVSPost2010Prop42
 90
       50
102
RTVSPost2010PropOp42
 70
     1
102
RTVSPost2010Prop43
 90
        3
102
RTVSPost2010PropOp43
 70
     1
102
RTVSPost2010Prop44ColorIndex
 90
        5
102
RTVSPost2010Prop44ColorRGB
 90
      255
102
RTVSPost2010PropOp44
 70
     1
102
RTVSPost2010Prop45
280
     0
102
RTVSPost2010PropOp45
 70
     1
102
RTVSPost2010Prop46
 90
       50
102
RTVSPost2010PropOp46
 70
     1
102
RTVSPost2010Prop47
 90
       50
102
RTVSPost2010PropOp47
 70
     1
102
RTVSPost2010Prop48
 90
       50
102
RTVSPost2010PropOp48
 70
     1
102
RTVSPost2010Prop49
280
     0
102
RTVSPost2010PropOp49
 70
     1
102
RTVSPost2010Prop50
 90
       50
102
RTVSPost2010PropOp50
 70
     1
102
RTVSPost2010Prop51ColorIndex
 90
      256
102
RTVSPost2010Prop51ColorRGB
 90
-16777216
102
RTVSPost2010PropOp51
 70
     0
102
RTVSPost2010Prop52
140
1.0
102
RTVSPost2010PropOp52
 70
     0
102
RTVSPost2010Prop53
 90
        2
102
RTVSPost2010PropOp53
 70
     1
102
RTVSPost2010Prop54
  1
strokes_ogs.tif
102
RTVSPost2010PropOp54
 70
     1
102
RTVSPost2010Prop55
280
     0
102
RTVSPost2010PropOp55
 70
     1
102
RTVSPost2010Prop56
140
1.0
102
RTVSPost2010PropOp56
 70
     1
102
RTVSPost2010Prop57
140
1.0
102
RTVSPost2010PropOp57
 70
     1
102
RTVSPropertyOp0
 70
     1
102
RTVSPropertyOp1
 70
     1
102
RTVSPropertyOp2
 70
     1
102
RTVSPropertyOp3
 70
     1
102
RTVSPropertyOp4
 70
     1
102
RTVSPropertyOp5
 70
     1
102
RTVSPropertyOp6
 70
     1
102
RTVSPropertyOp7
 70
     1
102
RTVSPropertyOp8
 70
     1
102
RTVSPropertyOp9
 70
     1
102
RTVSPropertyOp10
 70
     1
102
RTVSPropertyOp11
 70
     1
102
RTVSPropertyOp12
 70
     1
102
RTVSPropertyOp13
 70
     1
102
RTVSPropertyOp14
 70
     1
102
RTVSPropertyOp15
 70
     1
102
RTVSPropertyOp16
 70
     1
102
RTVSPropertyOp17
 70
     1
102
RTVSPropertyOp18
 70
     1
102
RTVSPropertyOp19
 70
     1
102
RTVSPropertyOp20
 70
     1
102
RTVSPropertyOp21
 70
     1
102
RTVSPropertyOp22
 70
     1
102
RTVSPropertyOp23
 70
     1
102
RTVSPropertyOp24
 70
     1
102
RTVSPropertyOp25
 70
     1
102
RTVSPropertyOp26
 70
     1
102
RTVSPropertyOp27
 70
     1
102
RTVSPropertyOp28
 70
     1
102
RTVSPropertyOp29
 70
     1
102
RTVSPropertyOp30
 70
     1
102
RTVSPropertyOp31
 70
     1
102
RTVSPropertyOp32
 70
     1
102
RTVSPropertyOp33
 70
     1
102
RTVSPropertyOp34
 70
     1
102
RTVSPropertyOp35
 70
     1
102
RTVSPropertyOp36
 70
     1
102
RTVSPropertyOp37
 70
     1
102
RTVSPropertyOp38
 70
     1
102
RTVSPropertyOp39
 70
     1
102
RTVSPropertyOp40
 70
     1
102
RTVSPropertyOp41
 70
     1
102
RTVSPropertyOp42
 70
     1
102
RTVSPropertyOp43
 70
     1
102
RTVSPropertyOp44
 70
     1
102
RTVSPropertyOp45
 70
     1
102
RTVSPropertyOp46
 70
     1
102
RTVSPropertyOp47
 70
     1
102
RTVSPropertyOp48
 70
     1
102
RTVSPropertyOp49
 70
     1
102
RTVSPropertyOp50
 70
     1
102
RTVSPropertyOp51
 70
     0
102
RTVSPropertyOp52
 70
     0
102
RTVSPropertyOp53
 70
     1
102
RTVSPropertyOp54
 70
     1
102
RTVSPropertyOp55
 70
     1
102
RTVSPropertyOp56
 70
     1
102
RTVSPropertyOp57
 70
     1
102
RTVSPropertyOp58
 70
     1
102
RTVSPropertyOp59
 70
     1
102
RTVSPropertyOp60
 70
     1
102
RTVSPropertyOp61
 70
     1
102
RTVSPropertyOp62
 70
     1
  0
XRECORD
  5
431
102
{ACAD_REACTORS
330
430
102
}
330
430
100
AcDbXrecord
280
     1
102
RTVSPost2010Prop28
280
     0
102
RTVSPost2010PropOp28
 70
     1
102
RTVSPost2010Prop29
280
     1
102
RTVSPost2010PropOp29
 70
     1
102
RTVSPost2010Prop30
280
     1
102
RTVSPost2010PropOp30
 70
     1
102
RTVSPost2010Prop31
280
     0
102
RTVSPost2010PropOp31
 70
     1
102
RTVSPost2010Prop32
280
     0
102
RTVSPost2010PropOp32
 70
     1
102
RTVSPost2010Prop33
280
     0
102
RTVSPost2010PropOp33
 70
     1
102
RTVSPost2010Prop34
280
     0
102
RTVSPost2010PropOp34
 70
     1
102
RTVSPost2010Prop35
280
     0
102
RTVSPost2010PropOp35
 70
     1
102
RTVSPost2010Prop36
280
     0
102
RTVSPost2010PropOp36
 70
     1
102
RTVSPost2010Prop37
 90
       50
102
RTVSPost2010PropOp37
 70
     1
102
RTVSPost2010Prop38
140
0.0
102
RTVSPost2010PropOp38
 70
     1
102
RTVSPost2010Prop39
140
1.0
102
RTVSPost2010PropOp39
 70
     1
102
RTVSPost2010Prop40
 90
        0
102
RTVSPost2010PropOp40
 70
     1
102
RTVSPost2010Prop41ColorIndex
 90
       18
102
RTVSPost2010Prop41ColorRGB
 90
        0
102
RTVSPost2010PropOp41
 70
     1
102
RTVSPost2010Prop42
 90
       50
102
RTVSPost2010PropOp42
 70
     1
102
RTVSPost2010Prop43
 90
        3
102
RTVSPost2010PropOp43
 70
     1
102
RTVSPost2010Prop44ColorIndex
 90
        5
102
RTVSPost2010Prop44ColorRGB
 90
      255
102
RTVSPost2010PropOp44
 70
     1
102
RTVSPost2010Prop45
280
     0
102
RTVSPost2010PropOp45
 70
     1
102
RTVSPost2010Prop46
 90
       50
102
RTVSPost2010PropOp46
 70
     1
102
RTVSPost2010Prop47
 90
       50
102
RTVSPost2010PropOp47
 70
     1
102
RTVSPost2010Prop48
 90
       50
102
RTVSPost2010PropOp48
 70
     1
102
RTVSPost2010Prop49
280
     0
102
RTVSPost2010PropOp49
 70
     1
102
RTVSPost2010Prop50
 90
       50
102
RTVSPost2010PropOp50
 70
     1
102
RTVSPost2010Prop51ColorIndex
 90
      256
102
RTVSPost2010Prop51ColorRGB
 90
-16777216
102
RTVSPost2010PropOp51
 70
     0
102
RTVSPost2010Prop52
140
1.0
102
RTVSPost2010PropOp52
 70
     0
102
RTVSPost2010Prop53
 90
        2
102
RTVSPost2010PropOp53
 70
     1
102
RTVSPost2010Prop54
  1
strokes_ogs.tif
102
RTVSPost2010PropOp54
 70
     1
102
RTVSPost2010Prop55
280
     0
102
RTVSPost2010PropOp55
 70
     1
102
RTVSPost2010Prop56
140
1.0
102
RTVSPost2010PropOp56
 70
     1
102
RTVSPost2010Prop57
140
1.0
102
RTVSPost2010PropOp57
 70
     1
102
RTVSPropertyOp0
 70
     1
102
RTVSPropertyOp1
 70
     1
102
RTVSPropertyOp2
 70
     1
102
RTVSPropertyOp3
 70
     1
102
RTVSPropertyOp4
 70
     1
102
RTVSPropertyOp5
 70
     1
102
RTVSPropertyOp6
 70
     1
102
RTVSPropertyOp7
 70
     1
102
RTVSPropertyOp8
 70
     1
102
RTVSPropertyOp9
 70
     1
102
RTVSPropertyOp10
 70
     1
102
RTVSPropertyOp11
 70
     1
102
RTVSPropertyOp12
 70
     1
102
RTVSPropertyOp13
 70
     1
102
RTVSPropertyOp14
 70
     1
102
RTVSPropertyOp15
 70
     1
102
RTVSPropertyOp16
 70
     1
102
RTVSPropertyOp17
 70
     1
102
RTVSPropertyOp18
 70
     1
102
RTVSPropertyOp19
 70
     1
102
RTVSPropertyOp20
 70
     1
102
RTVSPropertyOp21
 70
     1
102
RTVSPropertyOp22
 70
     1
102
RTVSPropertyOp23
 70
     1
102
RTVSPropertyOp24
 70
     1
102
RTVSPropertyOp25
 70
     1
102
RTVSPropertyOp26
 70
     1
102
RTVSPropertyOp27
 70
     1
102
RTVSPropertyOp28
 70
     1
102
RTVSPropertyOp29
 70
     1
102
RTVSPropertyOp30
 70
     1
102
RTVSPropertyOp31
 70
     1
102
RTVSPropertyOp32
 70
     1
102
RTVSPropertyOp33
 70
     1
102
RTVSPropertyOp34
 70
     1
102
RTVSPropertyOp35
 70
     1
102
RTVSPropertyOp36
 70
     1
102
RTVSPropertyOp37
 70
     1
102
RTVSPropertyOp38
 70
     1
102
RTVSPropertyOp39
 70
     1
102
RTVSPropertyOp40
 70
     1
102
RTVSPropertyOp41
 70
     1
102
RTVSPropertyOp42
 70
     1
102
RTVSPropertyOp43
 70
     1
102
RTVSPropertyOp44
 70
     1
102
RTVSPropertyOp45
 70
     1
102
RTVSPropertyOp46
 70
     1
102
RTVSPropertyOp47
 70
     1
102
RTVSPropertyOp48
 70
     1
102
RTVSPropertyOp49
 70
     1
102
RTVSPropertyOp50
 70
     1
102
RTVSPropertyOp51
 70
     0
102
RTVSPropertyOp52
 70
     0
102
RTVSPropertyOp53
 70
     1
102
RTVSPropertyOp54
 70
     1
102
RTVSPropertyOp55
 70
     1
102
RTVSPropertyOp56
 70
     1
102
RTVSPropertyOp57
 70
     1
102
RTVSPropertyOp58
 70
     1
102
RTVSPropertyOp59
 70
     1
102
RTVSPropertyOp60
 70
     1
102
RTVSPropertyOp61
 70
     1
102
RTVSPropertyOp62
 70
     1
  0
XRECORD
  5
439
102
{ACAD_REACTORS
330
438
102
}
330
438
100
AcDbXrecord
280
     1
102
RTVSPost2010Prop28
280
     0
102
RTVSPost2010PropOp28
 70
     1
102
RTVSPost2010Prop29
280
     1
102
RTVSPost2010PropOp29
 70
     1
102
RTVSPost2010Prop30
280
     1
102
RTVSPost2010PropOp30
 70
     1
102
RTVSPost2010Prop31
280
     0
102
RTVSPost2010PropOp31
 70
     1
102
RTVSPost2010Prop32
280
     0
102
RTVSPost2010PropOp32
 70
     1
102
RTVSPost2010Prop33
280
     0
102
RTVSPost2010PropOp33
 70
     1
102
RTVSPost2010Prop34
280
     0
102
RTVSPost2010PropOp34
 70
     1
102
RTVSPost2010Prop35
280
     0
102
RTVSPost2010PropOp35
 70
     1
102
RTVSPost2010Prop36
280
     0
102
RTVSPost2010PropOp36
 70
     1
102
RTVSPost2010Prop37
 90
       50
102
RTVSPost2010PropOp37
 70
     1
102
RTVSPost2010Prop38
140
0.0
102
RTVSPost2010PropOp38
 70
     1
102
RTVSPost2010Prop39
140
1.0
102
RTVSPost2010PropOp39
 70
     1
102
RTVSPost2010Prop40
 90
        0
102
RTVSPost2010PropOp40
 70
     1
102
RTVSPost2010Prop41ColorIndex
 90
       18
102
RTVSPost2010Prop41ColorRGB
 90
        0
102
RTVSPost2010PropOp41
 70
     1
102
RTVSPost2010Prop42
 90
       50
102
RTVSPost2010PropOp42
 70
     1
102
RTVSPost2010Prop43
 90
        3
102
RTVSPost2010PropOp43
 70
     1
102
RTVSPost2010Prop44ColorIndex
 90
        5
102
RTVSPost2010Prop44ColorRGB
 90
      255
102
RTVSPost2010PropOp44
 70
     1
102
RTVSPost2010Prop45
280
     0
102
RTVSPost2010PropOp45
 70
     1
102
RTVSPost2010Prop46
 90
       50
102
RTVSPost2010PropOp46
 70
     1
102
RTVSPost2010Prop47
 90
       50
102
RTVSPost2010PropOp47
 70
     1
102
RTVSPost2010Prop48
 90
       50
102
RTVSPost2010PropOp48
 70
     1
102
RTVSPost2010Prop49
280
     0
102
RTVSPost2010PropOp49
 70
     1
102
RTVSPost2010Prop50
 90
       50
102
RTVSPost2010PropOp50
 70
     1
102
RTVSPost2010Prop51ColorIndex
 90
      256
102
RTVSPost2010Prop51ColorRGB
 90
-16777216
102
RTVSPost2010PropOp51
 70
     0
102
RTVSPost2010Prop52
140
1.0
102
RTVSPost2010PropOp52
 70
     0
102
RTVSPost2010Prop53
 90
        2
102
RTVSPost2010PropOp53
 70
     1
102
RTVSPost2010Prop54
  1
strokes_ogs.tif
102
RTVSPost2010PropOp54
 70
     1
102
RTVSPost2010Prop55
280
     0
102
RTVSPost2010PropOp55
 70
     1
102
RTVSPost2010Prop56
140
1.0
102
RTVSPost2010PropOp56
 70
     1
102
RTVSPost2010Prop57
140
1.0
102
RTVSPost2010PropOp57
 70
     1
102
RTVSPropertyOp0
 70
     1
102
RTVSPropertyOp1
 70
     1
102
RTVSPropertyOp2
 70
     1
102
RTVSPropertyOp3
 70
     1
102
RTVSPropertyOp4
 70
     1
102
RTVSPropertyOp5
 70
     1
102
RTVSPropertyOp6
 70
     1
102
RTVSPropertyOp7
 70
     1
102
RTVSPropertyOp8
 70
     1
102
RTVSPropertyOp9
 70
     1
102
RTVSPropertyOp10
 70
     1
102
RTVSPropertyOp11
 70
     1
102
RTVSPropertyOp12
 70
     1
102
RTVSPropertyOp13
 70
     1
102
RTVSPropertyOp14
 70
     1
102
RTVSPropertyOp15
 70
     1
102
RTVSPropertyOp16
 70
     1
102
RTVSPropertyOp17
 70
     1
102
RTVSPropertyOp18
 70
     1
102
RTVSPropertyOp19
 70
     1
102
RTVSPropertyOp20
 70
     1
102
RTVSPropertyOp21
 70
     1
102
RTVSPropertyOp22
 70
     1
102
RTVSPropertyOp23
 70
     1
102
RTVSPropertyOp24
 70
     1
102
RTVSPropertyOp25
 70
     1
102
RTVSPropertyOp26
 70
     1
102
RTVSPropertyOp27
 70
     1
102
RTVSPropertyOp28
 70
     1
102
RTVSPropertyOp29
 70
     1
102
RTVSPropertyOp30
 70
     1
102
RTVSPropertyOp31
 70
     1
102
RTVSPropertyOp32
 70
     1
102
RTVSPropertyOp33
 70
     1
102
RTVSPropertyOp34
 70
     1
102
RTVSPropertyOp35
 70
     1
102
RTVSPropertyOp36
 70
     1
102
RTVSPropertyOp37
 70
     1
102
RTVSPropertyOp38
 70
     1
102
RTVSPropertyOp39
 70
     1
102
RTVSPropertyOp40
 70
     1
102
RTVSPropertyOp41
 70
     1
102
RTVSPropertyOp42
 70
     1
102
RTVSPropertyOp43
 70
     1
102
RTVSPropertyOp44
 70
     1
102
RTVSPropertyOp45
 70
     1
102
RTVSPropertyOp46
 70
     1
102
RTVSPropertyOp47
 70
     1
102
RTVSPropertyOp48
 70
     1
102
RTVSPropertyOp49
 70
     1
102
RTVSPropertyOp50
 70
     1
102
RTVSPropertyOp51
 70
     0
102
RTVSPropertyOp52
 70
     0
102
RTVSPropertyOp53
 70
     1
102
RTVSPropertyOp54
 70
     1
102
RTVSPropertyOp55
 70
     1
102
RTVSPropertyOp56
 70
     1
102
RTVSPropertyOp57
 70
     1
102
RTVSPropertyOp58
 70
     1
102
RTVSPropertyOp59
 70
     1
102
RTVSPropertyOp60
 70
     1
102
RTVSPropertyOp61
 70
     1
102
RTVSPropertyOp62
 70
     1
  0
XRECORD
  5
455
102
{ACAD_REACTORS
330
454
102
}
330
454
100
AcDbXrecord
280
     1
102
RTVSPost2010Prop28
280
     0
102
RTVSPost2010PropOp28
 70
     1
102
RTVSPost2010Prop29
280
     1
102
RTVSPost2010PropOp29
 70
     1
102
RTVSPost2010Prop30
280
     1
102
RTVSPost2010PropOp30
 70
     1
102
RTVSPost2010Prop31
280
     0
102
RTVSPost2010PropOp31
 70
     1
102
RTVSPost2010Prop32
280
     0
102
RTVSPost2010PropOp32
 70
     1
102
RTVSPost2010Prop33
280
     0
102
RTVSPost2010PropOp33
 70
     1
102
RTVSPost2010Prop34
280
     0
102
RTVSPost2010PropOp34
 70
     1
102
RTVSPost2010Prop35
280
     0
102
RTVSPost2010PropOp35
 70
     1
102
RTVSPost2010Prop36
280
     0
102
RTVSPost2010PropOp36
 70
     1
102
RTVSPost2010Prop37
 90
       50
102
RTVSPost2010PropOp37
 70
     0
102
RTVSPost2010Prop38
140
0.0
102
RTVSPost2010PropOp38
 70
     0
102
RTVSPost2010Prop39
140
1.0
102
RTVSPost2010PropOp39
 70
     0
102
RTVSPost2010Prop40
 90
        0
102
RTVSPost2010PropOp40
 70
     0
102
RTVSPost2010Prop41ColorIndex
 90
       18
102
RTVSPost2010Prop41ColorRGB
 90
        0
102
RTVSPost2010PropOp41
 70
     0
102
RTVSPost2010Prop42
 90
       50
102
RTVSPost2010PropOp42
 70
     0
102
RTVSPost2010Prop43
 90
        3
102
RTVSPost2010PropOp43
 70
     0
102
RTVSPost2010Prop44ColorIndex
 90
        5
102
RTVSPost2010Prop44ColorRGB
 90
      255
102
RTVSPost2010PropOp44
 70
     0
102
RTVSPost2010Prop45
280
     0
102
RTVSPost2010PropOp45
 70
     1
102
RTVSPost2010Prop46
 90
       50
102
RTVSPost2010PropOp46
 70
     0
102
RTVSPost2010Prop47
 90
       50
102
RTVSPost2010PropOp47
 70
     0
102
RTVSPost2010Prop48
 90
       50
102
RTVSPost2010PropOp48
 70
     0
102
RTVSPost2010Prop49
280
     0
102
RTVSPost2010PropOp49
 70
     1
102
RTVSPost2010Prop50
 90
       50
102
RTVSPost2010PropOp50
 70
     0
102
RTVSPost2010Prop51ColorIndex
 90
      256
102
RTVSPost2010Prop51ColorRGB
 90
-16777216
102
RTVSPost2010PropOp51
 70
     0
102
RTVSPost2010Prop52
140
1.0
102
RTVSPost2010PropOp52
 70
     0
102
RTVSPost2010Prop53
 90
        2
102
RTVSPost2010PropOp53
 70
     0
102
RTVSPost2010Prop54
  1
strokes_ogs.tif
102
RTVSPost2010PropOp54
 70
     0
102
RTVSPost2010Prop55
280
     0
102
RTVSPost2010PropOp55
 70
     1
102
RTVSPost2010Prop56
140
1.0
102
RTVSPost2010PropOp56
 70
     0
102
RTVSPost2010Prop57
140
1.0
102
RTVSPost2010PropOp57
 70
     0
102
RTVSPropertyOp0
 70
     0
102
RTVSPropertyOp1
 70
     0
102
RTVSPropertyOp2
 70
     0
102
RTVSPropertyOp3
 70
     0
102
RTVSPropertyOp4
 70
     0
102
RTVSPropertyOp5
 70
     0
102
RTVSPropertyOp6
 70
     0
102
RTVSPropertyOp7
 70
     0
102
RTVSPropertyOp8
 70
     0
102
RTVSPropertyOp9
 70
     0
102
RTVSPropertyOp10
 70
     0
102
RTVSPropertyOp11
 70
     0
102
RTVSPropertyOp12
 70
     0
102
RTVSPropertyOp13
 70
     0
102
RTVSPropertyOp14
 70
     2
102
RTVSPropertyOp15
 70
     0
102
RTVSPropertyOp16
 70
     0
102
RTVSPropertyOp17
 70
     0
102
RTVSPropertyOp18
 70
     0
102
RTVSPropertyOp19
 70
     0
102
RTVSPropertyOp20
 70
     0
102
RTVSPropertyOp21
 70
     0
102
RTVSPropertyOp22
 70
     0
102
RTVSPropertyOp23
 70
     0
102
RTVSPropertyOp24
 70
     0
102
RTVSPropertyOp25
 70
     0
102
RTVSPropertyOp26
 70
     0
102
RTVSPropertyOp27
 70
     0
102
RTVSPropertyOp28
 70
     1
102
RTVSPropertyOp29
 70
     1
102
RTVSPropertyOp30
 70
     1
102
RTVSPropertyOp31
 70
     1
102
RTVSPropertyOp32
 70
     1
102
RTVSPropertyOp33
 70
     1
102
RTVSPropertyOp34
 70
     1
102
RTVSPropertyOp35
 70
     1
102
RTVSPropertyOp36
 70
     1
102
RTVSPropertyOp37
 70
     0
102
RTVSPropertyOp38
 70
     0
102
RTVSPropertyOp39
 70
     0
102
RTVSPropertyOp40
 70
     0
102
RTVSPropertyOp41
 70
     0
102
RTVSPropertyOp42
 70
     0
102
RTVSPropertyOp43
 70
     0
102
RTVSPropertyOp44
 70
     0
102
RTVSPropertyOp45
 70
     1
102
RTVSPropertyOp46
 70
     0
102
RTVSPropertyOp47
 70
     0
102
RTVSPropertyOp48
 70
     0
102
RTVSPropertyOp49
 70
     1
102
RTVSPropertyOp50
 70
     0
102
RTVSPropertyOp51
 70
     0
102
RTVSPropertyOp52
 70
     0
102
RTVSPropertyOp53
 70
     0
102
RTVSPropertyOp54
 70
     0
102
RTVSPropertyOp55
 70
     1
102
RTVSPropertyOp56
 70
     0
102
RTVSPropertyOp57
 70
     0
102
RTVSPropertyOp58
 70
     0
102
RTVSPropertyOp59
 70
     0
102
RTVSPropertyOp60
 70
     0
102
RTVSPropertyOp61
 70
     0
102
RTVSPropertyOp62
 70
     0
  0
XRECORD
  5
445
102
{ACAD_REACTORS
330
444
102
}
330
444
100
AcDbXrecord
280
     1
102
RTVSPost2010Prop28
280
     0
102
RTVSPost2010PropOp28
 70
     1
102
RTVSPost2010Prop29
280
     1
102
RTVSPost2010PropOp29
 70
     1
102
RTVSPost2010Prop30
280
     1
102
RTVSPost2010PropOp30
 70
     1
102
RTVSPost2010Prop31
280
     0
102
RTVSPost2010PropOp31
 70
     1
102
RTVSPost2010Prop32
280
     0
102
RTVSPost2010PropOp32
 70
     1
102
RTVSPost2010Prop33
280
     0
102
RTVSPost2010PropOp33
 70
     1
102
RTVSPost2010Prop34
280
     0
102
RTVSPost2010PropOp34
 70
     1
102
RTVSPost2010Prop35
280
     0
102
RTVSPost2010PropOp35
 70
     1
102
RTVSPost2010Prop36
280
     0
102
RTVSPost2010PropOp36
 70
     1
102
RTVSPost2010Prop37
 90
       50
102
RTVSPost2010PropOp37
 70
     1
102
RTVSPost2010Prop38
140
0.0
102
RTVSPost2010PropOp38
 70
     1
102
RTVSPost2010Prop39
140
1.0
102
RTVSPost2010PropOp39
 70
     1
102
RTVSPost2010Prop40
 90
        0
102
RTVSPost2010PropOp40
 70
     1
102
RTVSPost2010Prop41ColorIndex
 90
       18
102
RTVSPost2010Prop41ColorRGB
 90
        0
102
RTVSPost2010PropOp41
 70
     1
102
RTVSPost2010Prop42
 90
       50
102
RTVSPost2010PropOp42
 70
     1
102
RTVSPost2010Prop43
 90
        3
102
RTVSPost2010PropOp43
 70
     1
102
RTVSPost2010Prop44ColorIndex
 90
        5
102
RTVSPost2010Prop44ColorRGB
 90
      255
102
RTVSPost2010PropOp44
 70
     1
102
RTVSPost2010Prop45
280
     0
102
RTVSPost2010PropOp45
 70
     1
102
RTVSPost2010Prop46
 90
       50
102
RTVSPost2010PropOp46
 70
     1
102
RTVSPost2010Prop47
 90
       50
102
RTVSPost2010PropOp47
 70
     1
102
RTVSPost2010Prop48
 90
       50
102
RTVSPost2010PropOp48
 70
     1
102
RTVSPost2010Prop49
280
     0
102
RTVSPost2010PropOp49
 70
     1
102
RTVSPost2010Prop50
 90
       50
102
RTVSPost2010PropOp50
 70
     1
102
RTVSPost2010Prop51ColorIndex
 90
      256
102
RTVSPost2010Prop51ColorRGB
 90
-16777216
102
RTVSPost2010PropOp51
 70
     0
102
RTVSPost2010Prop52
140
1.0
102
RTVSPost2010PropOp52
 70
     0
102
RTVSPost2010Prop53
 90
        2
102
RTVSPost2010PropOp53
 70
     1
102
RTVSPost2010Prop54
  1
strokes_ogs.tif
102
RTVSPost2010PropOp54
 70
     1
102
RTVSPost2010Prop55
280
     0
102
RTVSPost2010PropOp55
 70
     1
102
RTVSPost2010Prop56
140
1.0
102
RTVSPost2010PropOp56
 70
     1
102
RTVSPost2010Prop57
140
1.0
102
RTVSPost2010PropOp57
 70
     1
102
RTVSPropertyOp0
 70
     1
102
RTVSPropertyOp1
 70
     1
102
RTVSPropertyOp2
 70
     1
102
RTVSPropertyOp3
 70
     1
102
RTVSPropertyOp4
 70
     1
102
RTVSPropertyOp5
 70
     1
102
RTVSPropertyOp6
 70
     1
102
RTVSPropertyOp7
 70
     1
102
RTVSPropertyOp8
 70
     1
102
RTVSPropertyOp9
 70
     1
102
RTVSPropertyOp10
 70
     1
102
RTVSPropertyOp11
 70
     1
102
RTVSPropertyOp12
 70
     1
102
RTVSPropertyOp13
 70
     1
102
RTVSPropertyOp14
 70
     1
102
RTVSPropertyOp15
 70
     1
102
RTVSPropertyOp16
 70
     1
102
RTVSPropertyOp17
 70
     1
102
RTVSPropertyOp18
 70
     1
102
RTVSPropertyOp19
 70
     1
102
RTVSPropertyOp20
 70
     1
102
RTVSPropertyOp21
 70
     1
102
RTVSPropertyOp22
 70
     1
102
RTVSPropertyOp23
 70
     1
102
RTVSPropertyOp24
 70
     1
102
RTVSPropertyOp25
 70
     1
102
RTVSPropertyOp26
 70
     1
102
RTVSPropertyOp27
 70
     1
102
RTVSPropertyOp28
 70
     1
102
RTVSPropertyOp29
 70
     1
102
RTVSPropertyOp30
 70
     1
102
RTVSPropertyOp31
 70
     1
102
RTVSPropertyOp32
 70
     1
102
RTVSPropertyOp33
 70
     1
102
RTVSPropertyOp34
 70
     1
102
RTVSPropertyOp35
 70
     1
102
RTVSPropertyOp36
 70
     1
102
RTVSPropertyOp37
 70
     1
102
RTVSPropertyOp38
 70
     1
102
RTVSPropertyOp39
 70
     1
102
RTVSPropertyOp40
 70
     1
102
RTVSPropertyOp41
 70
     1
102
RTVSPropertyOp42
 70
     1
102
RTVSPropertyOp43
 70
     1
102
RTVSPropertyOp44
 70
     1
102
RTVSPropertyOp45
 70
     1
102
RTVSPropertyOp46
 70
     1
102
RTVSPropertyOp47
 70
     1
102
RTVSPropertyOp48
 70
     1
102
RTVSPropertyOp49
 70
     1
102
RTVSPropertyOp50
 70
     1
102
RTVSPropertyOp51
 70
     0
102
RTVSPropertyOp52
 70
     0
102
RTVSPropertyOp53
 70
     1
102
RTVSPropertyOp54
 70
     1
102
RTVSPropertyOp55
 70
     1
102
RTVSPropertyOp56
 70
     1
102
RTVSPropertyOp57
 70
     1
102
RTVSPropertyOp58
 70
     1
102
RTVSPropertyOp59
 70
     1
102
RTVSPropertyOp60
 70
     1
102
RTVSPropertyOp61
 70
     1
102
RTVSPropertyOp62
 70
     1
  0
XRECORD
  5
457
102
{ACAD_REACTORS
330
456
102
}
330
456
100
AcDbXrecord
280
     1
102
RTVSPost2010Prop28
280
     0
102
RTVSPost2010PropOp28
 70
     1
102
RTVSPost2010Prop29
280
     1
102
RTVSPost2010PropOp29
 70
     1
102
RTVSPost2010Prop30
280
     1
102
RTVSPost2010PropOp30
 70
     1
102
RTVSPost2010Prop31
280
     0
102
RTVSPost2010PropOp31
 70
     1
102
RTVSPost2010Prop32
280
     0
102
RTVSPost2010PropOp32
 70
     1
102
RTVSPost2010Prop33
280
     0
102
RTVSPost2010PropOp33
 70
     1
102
RTVSPost2010Prop34
280
     0
102
RTVSPost2010PropOp34
 70
     1
102
RTVSPost2010Prop35
280
     0
102
RTVSPost2010PropOp35
 70
     1
102
RTVSPost2010Prop36
280
     0
102
RTVSPost2010PropOp36
 70
     1
102
RTVSPost2010Prop37
 90
       50
102
RTVSPost2010PropOp37
 70
     0
102
RTVSPost2010Prop38
140
0.0
102
RTVSPost2010PropOp38
 70
     0
102
RTVSPost2010Prop39
140
1.0
102
RTVSPost2010PropOp39
 70
     0
102
RTVSPost2010Prop40
 90
        0
102
RTVSPost2010PropOp40
 70
     0
102
RTVSPost2010Prop41ColorIndex
 90
       18
102
RTVSPost2010Prop41ColorRGB
 90
        0
102
RTVSPost2010PropOp41
 70
     0
102
RTVSPost2010Prop42
 90
       50
102
RTVSPost2010PropOp42
 70
     0
102
RTVSPost2010Prop43
 90
        3
102
RTVSPost2010PropOp43
 70
     0
102
RTVSPost2010Prop44ColorIndex
 90
        5
102
RTVSPost2010Prop44ColorRGB
 90
      255
102
RTVSPost2010PropOp44
 70
     0
102
RTVSPost2010Prop45
280
     0
102
RTVSPost2010PropOp45
 70
     1
102
RTVSPost2010Prop46
 90
       50
102
RTVSPost2010PropOp46
 70
     0
102
RTVSPost2010Prop47
 90
       50
102
RTVSPost2010PropOp47
 70
     0
102
RTVSPost2010Prop48
 90
       50
102
RTVSPost2010PropOp48
 70
     0
102
RTVSPost2010Prop49
280
     0
102
RTVSPost2010PropOp49
 70
     1
102
RTVSPost2010Prop50
 90
       50
102
RTVSPost2010PropOp50
 70
     0
102
RTVSPost2010Prop51ColorIndex
 90
      256
102
RTVSPost2010Prop51ColorRGB
 90
-16777216
102
RTVSPost2010PropOp51
 70
     0
102
RTVSPost2010Prop52
140
1.0
102
RTVSPost2010PropOp52
 70
     0
102
RTVSPost2010Prop53
 90
        2
102
RTVSPost2010PropOp53
 70
     0
102
RTVSPost2010Prop54
  1
strokes_ogs.tif
102
RTVSPost2010PropOp54
 70
     0
102
RTVSPost2010Prop55
280
     0
102
RTVSPost2010PropOp55
 70
     1
102
RTVSPost2010Prop56
140
1.0
102
RTVSPost2010PropOp56
 70
     0
102
RTVSPost2010Prop57
140
1.0
102
RTVSPost2010PropOp57
 70
     0
102
RTVSPropertyOp0
 70
     0
102
RTVSPropertyOp1
 70
     0
102
RTVSPropertyOp2
 70
     0
102
RTVSPropertyOp3
 70
     0
102
RTVSPropertyOp4
 70
     0
102
RTVSPropertyOp5
 70
     0
102
RTVSPropertyOp6
 70
     0
102
RTVSPropertyOp7
 70
     0
102
RTVSPropertyOp8
 70
     0
102
RTVSPropertyOp9
 70
     0
102
RTVSPropertyOp10
 70
     0
102
RTVSPropertyOp11
 70
     0
102
RTVSPropertyOp12
 70
     0
102
RTVSPropertyOp13
 70
     0
102
RTVSPropertyOp14
 70
     2
102
RTVSPropertyOp15
 70
     0
102
RTVSPropertyOp16
 70
     0
102
RTVSPropertyOp17
 70
     0
102
RTVSPropertyOp18
 70
     0
102
RTVSPropertyOp19
 70
     0
102
RTVSPropertyOp20
 70
     0
102
RTVSPropertyOp21
 70
     0
102
RTVSPropertyOp22
 70
     0
102
RTVSPropertyOp23
 70
     0
102
RTVSPropertyOp24
 70
     0
102
RTVSPropertyOp25
 70
     0
102
RTVSPropertyOp26
 70
     0
102
RTVSPropertyOp27
 70
     0
102
RTVSPropertyOp28
 70
     1
102
RTVSPropertyOp29
 70
     1
102
RTVSPropertyOp30
 70
     1
102
RTVSPropertyOp31
 70
     1
102
RTVSPropertyOp32
 70
     1
102
RTVSPropertyOp33
 70
     1
102
RTVSPropertyOp34
 70
     1
102
RTVSPropertyOp35
 70
     1
102
RTVSPropertyOp36
 70
     1
102
RTVSPropertyOp37
 70
     0
102
RTVSPropertyOp38
 70
     0
102
RTVSPropertyOp39
 70
     0
102
RTVSPropertyOp40
 70
     0
102
RTVSPropertyOp41
 70
     0
102
RTVSPropertyOp42
 70
     0
102
RTVSPropertyOp43
 70
     0
102
RTVSPropertyOp44
 70
     0
102
RTVSPropertyOp45
 70
     1
102
RTVSPropertyOp46
 70
     0
102
RTVSPropertyOp47
 70
     0
102
RTVSPropertyOp48
 70
     0
102
RTVSPropertyOp49
 70
     1
102
RTVSPropertyOp50
 70
     0
102
RTVSPropertyOp51
 70
     0
102
RTVSPropertyOp52
 70
     0
102
RTVSPropertyOp53
 70
     0
102
RTVSPropertyOp54
 70
     0
102
RTVSPropertyOp55
 70
     1
102
RTVSPropertyOp56
 70
     0
102
RTVSPropertyOp57
 70
     0
102
RTVSPropertyOp58
 70
     0
102
RTVSPropertyOp59
 70
     0
102
RTVSPropertyOp60
 70
     0
102
RTVSPropertyOp61
 70
     0
102
RTVSPropertyOp62
 70
     0
  0
XRECORD
  5
43D
102
{ACAD_REACTORS
330
43C
102
}
330
43C
100
AcDbXrecord
280
     1
102
RTVSPost2010Prop28
280
     0
102
RTVSPost2010PropOp28
 70
     1
102
RTVSPost2010Prop29
280
     1
102
RTVSPost2010PropOp29
 70
     1
102
RTVSPost2010Prop30
280
     1
102
RTVSPost2010PropOp30
 70
     1
102
RTVSPost2010Prop31
280
     0
102
RTVSPost2010PropOp31
 70
     1
102
RTVSPost2010Prop32
280
     0
102
RTVSPost2010PropOp32
 70
     1
102
RTVSPost2010Prop33
280
     0
102
RTVSPost2010PropOp33
 70
     1
102
RTVSPost2010Prop34
280
     0
102
RTVSPost2010PropOp34
 70
     1
102
RTVSPost2010Prop35
280
     0
102
RTVSPost2010PropOp35
 70
     1
102
RTVSPost2010Prop36
280
     0
102
RTVSPost2010PropOp36
 70
     1
102
RTVSPost2010Prop37
 90
       50
102
RTVSPost2010PropOp37
 70
     1
102
RTVSPost2010Prop38
140
0.0
102
RTVSPost2010PropOp38
 70
     1
102
RTVSPost2010Prop39
140
1.0
102
RTVSPost2010PropOp39
 70
     1
102
RTVSPost2010Prop40
 90
        0
102
RTVSPost2010PropOp40
 70
     1
102
RTVSPost2010Prop41ColorIndex
 90
       18
102
RTVSPost2010Prop41ColorRGB
 90
        0
102
RTVSPost2010PropOp41
 70
     1
102
RTVSPost2010Prop42
 90
       50
102
RTVSPost2010PropOp42
 70
     1
102
RTVSPost2010Prop43
 90
        3
102
RTVSPost2010PropOp43
 70
     1
102
RTVSPost2010Prop44ColorIndex
 90
        5
102
RTVSPost2010Prop44ColorRGB
 90
      255
102
RTVSPost2010PropOp44
 70
     1
102
RTVSPost2010Prop45
280
     0
102
RTVSPost2010PropOp45
 70
     1
102
RTVSPost2010Prop46
 90
       50
102
RTVSPost2010PropOp46
 70
     1
102
RTVSPost2010Prop47
 90
       50
102
RTVSPost2010PropOp47
 70
     1
102
RTVSPost2010Prop48
 90
       50
102
RTVSPost2010PropOp48
 70
     1
102
RTVSPost2010Prop49
280
     0
102
RTVSPost2010PropOp49
 70
     1
102
RTVSPost2010Prop50
 90
       50
102
RTVSPost2010PropOp50
 70
     1
102
RTVSPost2010Prop51ColorIndex
 90
      256
102
RTVSPost2010Prop51ColorRGB
 90
-16777216
102
RTVSPost2010PropOp51
 70
     0
102
RTVSPost2010Prop52
140
1.0
102
RTVSPost2010PropOp52
 70
     0
102
RTVSPost2010Prop53
 90
        2
102
RTVSPost2010PropOp53
 70
     1
102
RTVSPost2010Prop54
  1
strokes_ogs.tif
102
RTVSPost2010PropOp54
 70
     1
102
RTVSPost2010Prop55
280
     0
102
RTVSPost2010PropOp55
 70
     1
102
RTVSPost2010Prop56
140
1.0
102
RTVSPost2010PropOp56
 70
     1
102
RTVSPost2010Prop57
140
1.0
102
RTVSPost2010PropOp57
 70
     1
102
RTVSPropertyOp0
 70
     1
102
RTVSPropertyOp1
 70
     1
102
RTVSPropertyOp2
 70
     1
102
RTVSPropertyOp3
 70
     1
102
RTVSPropertyOp4
 70
     1
102
RTVSPropertyOp5
 70
     1
102
RTVSPropertyOp6
 70
     1
102
RTVSPropertyOp7
 70
     1
102
RTVSPropertyOp8
 70
     1
102
RTVSPropertyOp9
 70
     1
102
RTVSPropertyOp10
 70
     1
102
RTVSPropertyOp11
 70
     1
102
RTVSPropertyOp12
 70
     1
102
RTVSPropertyOp13
 70
     1
102
RTVSPropertyOp14
 70
     1
102
RTVSPropertyOp15
 70
     1
102
RTVSPropertyOp16
 70
     1
102
RTVSPropertyOp17
 70
     1
102
RTVSPropertyOp18
 70
     1
102
RTVSPropertyOp19
 70
     1
102
RTVSPropertyOp20
 70
     1
102
RTVSPropertyOp21
 70
     1
102
RTVSPropertyOp22
 70
     1
102
RTVSPropertyOp23
 70
     1
102
RTVSPropertyOp24
 70
     1
102
RTVSPropertyOp25
 70
     1
102
RTVSPropertyOp26
 70
     1
102
RTVSPropertyOp27
 70
     1
102
RTVSPropertyOp28
 70
     1
102
RTVSPropertyOp29
 70
     1
102
RTVSPropertyOp30
 70
     1
102
RTVSPropertyOp31
 70
     1
102
RTVSPropertyOp32
 70
     1
102
RTVSPropertyOp33
 70
     1
102
RTVSPropertyOp34
 70
     1
102
RTVSPropertyOp35
 70
     1
102
RTVSPropertyOp36
 70
     1
102
RTVSPropertyOp37
 70
     1
102
RTVSPropertyOp38
 70
     1
102
RTVSPropertyOp39
 70
     1
102
RTVSPropertyOp40
 70
     1
102
RTVSPropertyOp41
 70
     1
102
RTVSPropertyOp42
 70
     1
102
RTVSPropertyOp43
 70
     1
102
RTVSPropertyOp44
 70
     1
102
RTVSPropertyOp45
 70
     1
102
RTVSPropertyOp46
 70
     1
102
RTVSPropertyOp47
 70
     1
102
RTVSPropertyOp48
 70
     1
102
RTVSPropertyOp49
 70
     1
102
RTVSPropertyOp50
 70
     1
102
RTVSPropertyOp51
 70
     0
102
RTVSPropertyOp52
 70
     0
102
RTVSPropertyOp53
 70
     1
102
RTVSPropertyOp54
 70
     1
102
RTVSPropertyOp55
 70
     1
102
RTVSPropertyOp56
 70
     1
102
RTVSPropertyOp57
 70
     1
102
RTVSPropertyOp58
 70
     1
102
RTVSPropertyOp59
 70
     1
102
RTVSPropertyOp60
 70
     1
102
RTVSPropertyOp61
 70
     1
102
RTVSPropertyOp62
 70
     1
  0
XRECORD
  5
453
102
{ACAD_REACTORS
330
452
102
}
330
452
100
AcDbXrecord
280
     1
102
RTVSPost2010Prop28
280
     0
102
RTVSPost2010PropOp28
 70
     1
102
RTVSPost2010Prop29
280
     1
102
RTVSPost2010PropOp29
 70
     1
102
RTVSPost2010Prop30
280
     1
102
RTVSPost2010PropOp30
 70
     1
102
RTVSPost2010Prop31
280
     0
102
RTVSPost2010PropOp31
 70
     1
102
RTVSPost2010Prop32
280
     0
102
RTVSPost2010PropOp32
 70
     1
102
RTVSPost2010Prop33
280
     0
102
RTVSPost2010PropOp33
 70
     1
102
RTVSPost2010Prop34
280
     0
102
RTVSPost2010PropOp34
 70
     1
102
RTVSPost2010Prop35
280
     0
102
RTVSPost2010PropOp35
 70
     1
102
RTVSPost2010Prop36
280
     0
102
RTVSPost2010PropOp36
 70
     1
102
RTVSPost2010Prop37
 90
       50
102
RTVSPost2010PropOp37
 70
     1
102
RTVSPost2010Prop38
140
0.0
102
RTVSPost2010PropOp38
 70
     1
102
RTVSPost2010Prop39
140
1.0
102
RTVSPost2010PropOp39
 70
     1
102
RTVSPost2010Prop40
 90
        0
102
RTVSPost2010PropOp40
 70
     1
102
RTVSPost2010Prop41ColorIndex
 90
       18
102
RTVSPost2010Prop41ColorRGB
 90
        0
102
RTVSPost2010PropOp41
 70
     1
102
RTVSPost2010Prop42
 90
       50
102
RTVSPost2010PropOp42
 70
     1
102
RTVSPost2010Prop43
 90
        3
102
RTVSPost2010PropOp43
 70
     1
102
RTVSPost2010Prop44ColorIndex
 90
        5
102
RTVSPost2010Prop44ColorRGB
 90
      255
102
RTVSPost2010PropOp44
 70
     1
102
RTVSPost2010Prop45
280
     0
102
RTVSPost2010PropOp45
 70
     1
102
RTVSPost2010Prop46
 90
       50
102
RTVSPost2010PropOp46
 70
     1
102
RTVSPost2010Prop47
 90
       50
102
RTVSPost2010PropOp47
 70
     1
102
RTVSPost2010Prop48
 90
       50
102
RTVSPost2010PropOp48
 70
     1
102
RTVSPost2010Prop49
280
     0
102
RTVSPost2010PropOp49
 70
     1
102
RTVSPost2010Prop50
 90
       50
102
RTVSPost2010PropOp50
 70
     1
102
RTVSPost2010Prop51ColorIndex
 90
      256
102
RTVSPost2010Prop51ColorRGB
 90
-16777216
102
RTVSPost2010PropOp51
 70
     0
102
RTVSPost2010Prop52
140
1.0
102
RTVSPost2010PropOp52
 70
     0
102
RTVSPost2010Prop53
 90
        2
102
RTVSPost2010PropOp53
 70
     1
102
RTVSPost2010Prop54
  1
strokes_ogs.tif
102
RTVSPost2010PropOp54
 70
     1
102
RTVSPost2010Prop55
280
     0
102
RTVSPost2010PropOp55
 70
     1
102
RTVSPost2010Prop56
140
1.0
102
RTVSPost2010PropOp56
 70
     1
102
RTVSPost2010Prop57
140
1.0
102
RTVSPost2010PropOp57
 70
     1
102
RTVSPropertyOp0
 70
     1
102
RTVSPropertyOp1
 70
     1
102
RTVSPropertyOp2
 70
     1
102
RTVSPropertyOp3
 70
     1
102
RTVSPropertyOp4
 70
     1
102
RTVSPropertyOp5
 70
     1
102
RTVSPropertyOp6
 70
     1
102
RTVSPropertyOp7
 70
     1
102
RTVSPropertyOp8
 70
     1
102
RTVSPropertyOp9
 70
     1
102
RTVSPropertyOp10
 70
     1
102
RTVSPropertyOp11
 70
     1
102
RTVSPropertyOp12
 70
     1
102
RTVSPropertyOp13
 70
     1
102
RTVSPropertyOp14
 70
     1
102
RTVSPropertyOp15
 70
     1
102
RTVSPropertyOp16
 70
     1
102
RTVSPropertyOp17
 70
     1
102
RTVSPropertyOp18
 70
     1
102
RTVSPropertyOp19
 70
     1
102
RTVSPropertyOp20
 70
     1
102
RTVSPropertyOp21
 70
     1
102
RTVSPropertyOp22
 70
     1
102
RTVSPropertyOp23
 70
     1
102
RTVSPropertyOp24
 70
     1
102
RTVSPropertyOp25
 70
     1
102
RTVSPropertyOp26
 70
     1
102
RTVSPropertyOp27
 70
     1
102
RTVSPropertyOp28
 70
     1
102
RTVSPropertyOp29
 70
     1
102
RTVSPropertyOp30
 70
     1
102
RTVSPropertyOp31
 70
     1
102
RTVSPropertyOp32
 70
     1
102
RTVSPropertyOp33
 70
     1
102
RTVSPropertyOp34
 70
     1
102
RTVSPropertyOp35
 70
     1
102
RTVSPropertyOp36
 70
     1
102
RTVSPropertyOp37
 70
     1
102
RTVSPropertyOp38
 70
     1
102
RTVSPropertyOp39
 70
     1
102
RTVSPropertyOp40
 70
     1
102
RTVSPropertyOp41
 70
     1
102
RTVSPropertyOp42
 70
     1
102
RTVSPropertyOp43
 70
     1
102
RTVSPropertyOp44
 70
     1
102
RTVSPropertyOp45
 70
     1
102
RTVSPropertyOp46
 70
     1
102
RTVSPropertyOp47
 70
     1
102
RTVSPropertyOp48
 70
     1
102
RTVSPropertyOp49
 70
     1
102
RTVSPropertyOp50
 70
     1
102
RTVSPropertyOp51
 70
     0
102
RTVSPropertyOp52
 70
     0
102
RTVSPropertyOp53
 70
     1
102
RTVSPropertyOp54
 70
     1
102
RTVSPropertyOp55
 70
     1
102
RTVSPropertyOp56
 70
     1
102
RTVSPropertyOp57
 70
     1
102
RTVSPropertyOp58
 70
     1
102
RTVSPropertyOp59
 70
     1
102
RTVSPropertyOp60
 70
     1
102
RTVSPropertyOp61
 70
     1
102
RTVSPropertyOp62
 70
     1
  0
XRECORD
  5
451
102
{ACAD_REACTORS
330
450
102
}
330
450
100
AcDbXrecord
280
     1
102
RTVSPost2010Prop28
280
     0
102
RTVSPost2010PropOp28
 70
     1
102
RTVSPost2010Prop29
280
     1
102
RTVSPost2010PropOp29
 70
     1
102
RTVSPost2010Prop30
280
     1
102
RTVSPost2010PropOp30
 70
     1
102
RTVSPost2010Prop31
280
     0
102
RTVSPost2010PropOp31
 70
     1
102
RTVSPost2010Prop32
280
     0
102
RTVSPost2010PropOp32
 70
     1
102
RTVSPost2010Prop33
280
     0
102
RTVSPost2010PropOp33
 70
     1
102
RTVSPost2010Prop34
280
     0
102
RTVSPost2010PropOp34
 70
     1
102
RTVSPost2010Prop35
280
     0
102
RTVSPost2010PropOp35
 70
     1
102
RTVSPost2010Prop36
280
     0
102
RTVSPost2010PropOp36
 70
     1
102
RTVSPost2010Prop37
 90
       50
102
RTVSPost2010PropOp37
 70
     1
102
RTVSPost2010Prop38
140
0.0
102
RTVSPost2010PropOp38
 70
     1
102
RTVSPost2010Prop39
140
1.0
102
RTVSPost2010PropOp39
 70
     1
102
RTVSPost2010Prop40
 90
        0
102
RTVSPost2010PropOp40
 70
     1
102
RTVSPost2010Prop41ColorIndex
 90
       18
102
RTVSPost2010Prop41ColorRGB
 90
        0
102
RTVSPost2010PropOp41
 70
     1
102
RTVSPost2010Prop42
 90
       50
102
RTVSPost2010PropOp42
 70
     1
102
RTVSPost2010Prop43
 90
        3
102
RTVSPost2010PropOp43
 70
     1
102
RTVSPost2010Prop44ColorIndex
 90
        5
102
RTVSPost2010Prop44ColorRGB
 90
      255
102
RTVSPost2010PropOp44
 70
     1
102
RTVSPost2010Prop45
280
     0
102
RTVSPost2010PropOp45
 70
     1
102
RTVSPost2010Prop46
 90
       50
102
RTVSPost2010PropOp46
 70
     1
102
RTVSPost2010Prop47
 90
       50
102
RTVSPost2010PropOp47
 70
     1
102
RTVSPost2010Prop48
 90
       50
102
RTVSPost2010PropOp48
 70
     1
102
RTVSPost2010Prop49
280
     0
102
RTVSPost2010PropOp49
 70
     1
102
RTVSPost2010Prop50
 90
       50
102
RTVSPost2010PropOp50
 70
     1
102
RTVSPost2010Prop51ColorIndex
 90
      256
102
RTVSPost2010Prop51ColorRGB
 90
-16777216
102
RTVSPost2010PropOp51
 70
     0
102
RTVSPost2010Prop52
140
1.0
102
RTVSPost2010PropOp52
 70
     0
102
RTVSPost2010Prop53
 90
        2
102
RTVSPost2010PropOp53
 70
     1
102
RTVSPost2010Prop54
  1
strokes_ogs.tif
102
RTVSPost2010PropOp54
 70
     1
102
RTVSPost2010Prop55
280
     0
102
RTVSPost2010PropOp55
 70
     1
102
RTVSPost2010Prop56
140
1.0
102
RTVSPost2010PropOp56
 70
     1
102
RTVSPost2010Prop57
140
1.0
102
RTVSPost2010PropOp57
 70
     1
102
RTVSPropertyOp0
 70
     1
102
RTVSPropertyOp1
 70
     1
102
RTVSPropertyOp2
 70
     1
102
RTVSPropertyOp3
 70
     1
102
RTVSPropertyOp4
 70
     1
102
RTVSPropertyOp5
 70
     1
102
RTVSPropertyOp6
 70
     1
102
RTVSPropertyOp7
 70
     1
102
RTVSPropertyOp8
 70
     1
102
RTVSPropertyOp9
 70
     1
102
RTVSPropertyOp10
 70
     1
102
RTVSPropertyOp11
 70
     1
102
RTVSPropertyOp12
 70
     1
102
RTVSPropertyOp13
 70
     1
102
RTVSPropertyOp14
 70
     1
102
RTVSPropertyOp15
 70
     1
102
RTVSPropertyOp16
 70
     1
102
RTVSPropertyOp17
 70
     1
102
RTVSPropertyOp18
 70
     1
102
RTVSPropertyOp19
 70
     1
102
RTVSPropertyOp20
 70
     1
102
RTVSPropertyOp21
 70
     1
102
RTVSPropertyOp22
 70
     1
102
RTVSPropertyOp23
 70
     1
102
RTVSPropertyOp24
 70
     1
102
RTVSPropertyOp25
 70
     1
102
RTVSPropertyOp26
 70
     1
102
RTVSPropertyOp27
 70
     1
102
RTVSPropertyOp28
 70
     1
102
RTVSPropertyOp29
 70
     1
102
RTVSPropertyOp30
 70
     1
102
RTVSPropertyOp31
 70
     1
102
RTVSPropertyOp32
 70
     1
102
RTVSPropertyOp33
 70
     1
102
RTVSPropertyOp34
 70
     1
102
RTVSPropertyOp35
 70
     1
102
RTVSPropertyOp36
 70
     1
102
RTVSPropertyOp37
 70
     1
102
RTVSPropertyOp38
 70
     1
102
RTVSPropertyOp39
 70
     1
102
RTVSPropertyOp40
 70
     1
102
RTVSPropertyOp41
 70
     1
102
RTVSPropertyOp42
 70
     1
102
RTVSPropertyOp43
 70
     1
102
RTVSPropertyOp44
 70
     1
102
RTVSPropertyOp45
 70
     1
102
RTVSPropertyOp46
 70
     1
102
RTVSPropertyOp47
 70
     1
102
RTVSPropertyOp48
 70
     1
102
RTVSPropertyOp49
 70
     1
102
RTVSPropertyOp50
 70
     1
102
RTVSPropertyOp51
 70
     0
102
RTVSPropertyOp52
 70
     0
102
RTVSPropertyOp53
 70
     1
102
RTVSPropertyOp54
 70
     1
102
RTVSPropertyOp55
 70
     1
102
RTVSPropertyOp56
 70
     1
102
RTVSPropertyOp57
 70
     1
102
RTVSPropertyOp58
 70
     1
102
RTVSPropertyOp59
 70
     1
102
RTVSPropertyOp60
 70
     1
102
RTVSPropertyOp61
 70
     1
102
RTVSPropertyOp62
 70
     1
  0
XRECORD
  5
44B
102
{ACAD_REACTORS
330
44A
102
}
330
44A
100
AcDbXrecord
280
     1
102
RTVSPost2010Prop28
280
     0
102
RTVSPost2010PropOp28
 70
     1
102
RTVSPost2010Prop29
280
     1
102
RTVSPost2010PropOp29
 70
     1
102
RTVSPost2010Prop30
280
     1
102
RTVSPost2010PropOp30
 70
     1
102
RTVSPost2010Prop31
280
     0
102
RTVSPost2010PropOp31
 70
     1
102
RTVSPost2010Prop32
280
     0
102
RTVSPost2010PropOp32
 70
     1
102
RTVSPost2010Prop33
280
     0
102
RTVSPost2010PropOp33
 70
     1
102
RTVSPost2010Prop34
280
     0
102
RTVSPost2010PropOp34
 70
     1
102
RTVSPost2010Prop35
280
     0
102
RTVSPost2010PropOp35
 70
     1
102
RTVSPost2010Prop36
280
     0
102
RTVSPost2010PropOp36
 70
     1
102
RTVSPost2010Prop37
 90
       50
102
RTVSPost2010PropOp37
 70
     1
102
RTVSPost2010Prop38
140
0.0
102
RTVSPost2010PropOp38
 70
     1
102
RTVSPost2010Prop39
140
1.0
102
RTVSPost2010PropOp39
 70
     1
102
RTVSPost2010Prop40
 90
        0
102
RTVSPost2010PropOp40
 70
     1
102
RTVSPost2010Prop41ColorIndex
 90
       18
102
RTVSPost2010Prop41ColorRGB
 90
        0
102
RTVSPost2010PropOp41
 70
     1
102
RTVSPost2010Prop42
 90
       50
102
RTVSPost2010PropOp42
 70
     1
102
RTVSPost2010Prop43
 90
        3
102
RTVSPost2010PropOp43
 70
     1
102
RTVSPost2010Prop44ColorIndex
 90
        5
102
RTVSPost2010Prop44ColorRGB
 90
      255
102
RTVSPost2010PropOp44
 70
     1
102
RTVSPost2010Prop45
280
     0
102
RTVSPost2010PropOp45
 70
     1
102
RTVSPost2010Prop46
 90
       50
102
RTVSPost2010PropOp46
 70
     1
102
RTVSPost2010Prop47
 90
       50
102
RTVSPost2010PropOp47
 70
     1
102
RTVSPost2010Prop48
 90
       50
102
RTVSPost2010PropOp48
 70
     1
102
RTVSPost2010Prop49
280
     0
102
RTVSPost2010PropOp49
 70
     1
102
RTVSPost2010Prop50
 90
       50
102
RTVSPost2010PropOp50
 70
     1
102
RTVSPost2010Prop51ColorIndex
 90
      256
102
RTVSPost2010Prop51ColorRGB
 90
-16777216
102
RTVSPost2010PropOp51
 70
     0
102
RTVSPost2010Prop52
140
1.0
102
RTVSPost2010PropOp52
 70
     0
102
RTVSPost2010Prop53
 90
        2
102
RTVSPost2010PropOp53
 70
     1
102
RTVSPost2010Prop54
  1
strokes_ogs.tif
102
RTVSPost2010PropOp54
 70
     1
102
RTVSPost2010Prop55
280
     0
102
RTVSPost2010PropOp55
 70
     1
102
RTVSPost2010Prop56
140
1.0
102
RTVSPost2010PropOp56
 70
     1
102
RTVSPost2010Prop57
140
1.0
102
RTVSPost2010PropOp57
 70
     1
102
RTVSPropertyOp0
 70
     1
102
RTVSPropertyOp1
 70
     1
102
RTVSPropertyOp2
 70
     1
102
RTVSPropertyOp3
 70
     1
102
RTVSPropertyOp4
 70
     1
102
RTVSPropertyOp5
 70
     1
102
RTVSPropertyOp6
 70
     1
102
RTVSPropertyOp7
 70
     1
102
RTVSPropertyOp8
 70
     1
102
RTVSPropertyOp9
 70
     1
102
RTVSPropertyOp10
 70
     1
102
RTVSPropertyOp11
 70
     1
102
RTVSPropertyOp12
 70
     1
102
RTVSPropertyOp13
 70
     1
102
RTVSPropertyOp14
 70
     1
102
RTVSPropertyOp15
 70
     1
102
RTVSPropertyOp16
 70
     1
102
RTVSPropertyOp17
 70
     1
102
RTVSPropertyOp18
 70
     1
102
RTVSPropertyOp19
 70
     1
102
RTVSPropertyOp20
 70
     1
102
RTVSPropertyOp21
 70
     1
102
RTVSPropertyOp22
 70
     1
102
RTVSPropertyOp23
 70
     1
102
RTVSPropertyOp24
 70
     1
102
RTVSPropertyOp25
 70
     1
102
RTVSPropertyOp26
 70
     1
102
RTVSPropertyOp27
 70
     1
102
RTVSPropertyOp28
 70
     1
102
RTVSPropertyOp29
 70
     1
102
RTVSPropertyOp30
 70
     1
102
RTVSPropertyOp31
 70
     1
102
RTVSPropertyOp32
 70
     1
102
RTVSPropertyOp33
 70
     1
102
RTVSPropertyOp34
 70
     1
102
RTVSPropertyOp35
 70
     1
102
RTVSPropertyOp36
 70
     1
102
RTVSPropertyOp37
 70
     1
102
RTVSPropertyOp38
 70
     1
102
RTVSPropertyOp39
 70
     1
102
RTVSPropertyOp40
 70
     1
102
RTVSPropertyOp41
 70
     1
102
RTVSPropertyOp42
 70
     1
102
RTVSPropertyOp43
 70
     1
102
RTVSPropertyOp44
 70
     1
102
RTVSPropertyOp45
 70
     1
102
RTVSPropertyOp46
 70
     1
102
RTVSPropertyOp47
 70
     1
102
RTVSPropertyOp48
 70
     1
102
RTVSPropertyOp49
 70
     1
102
RTVSPropertyOp50
 70
     1
102
RTVSPropertyOp51
 70
     0
102
RTVSPropertyOp52
 70
     0
102
RTVSPropertyOp53
 70
     1
102
RTVSPropertyOp54
 70
     1
102
RTVSPropertyOp55
 70
     1
102
RTVSPropertyOp56
 70
     1
102
RTVSPropertyOp57
 70
     1
102
RTVSPropertyOp58
 70
     1
102
RTVSPropertyOp59
 70
     1
102
RTVSPropertyOp60
 70
     1
102
RTVSPropertyOp61
 70
     1
102
RTVSPropertyOp62
 70
     1
  0
XRECORD
  5
44D
102
{ACAD_REACTORS
330
44C
102
}
330
44C
100
AcDbXrecord
280
     1
102
RTVSPost2010Prop28
280
     0
102
RTVSPost2010PropOp28
 70
     1
102
RTVSPost2010Prop29
280
     1
102
RTVSPost2010PropOp29
 70
     1
102
RTVSPost2010Prop30
280
     1
102
RTVSPost2010PropOp30
 70
     1
102
RTVSPost2010Prop31
280
     0
102
RTVSPost2010PropOp31
 70
     1
102
RTVSPost2010Prop32
280
     0
102
RTVSPost2010PropOp32
 70
     1
102
RTVSPost2010Prop33
280
     0
102
RTVSPost2010PropOp33
 70
     1
102
RTVSPost2010Prop34
280
     0
102
RTVSPost2010PropOp34
 70
     1
102
RTVSPost2010Prop35
280
     0
102
RTVSPost2010PropOp35
 70
     1
102
RTVSPost2010Prop36
280
     0
102
RTVSPost2010PropOp36
 70
     1
102
RTVSPost2010Prop37
 90
       50
102
RTVSPost2010PropOp37
 70
     1
102
RTVSPost2010Prop38
140
0.0
102
RTVSPost2010PropOp38
 70
     1
102
RTVSPost2010Prop39
140
1.0
102
RTVSPost2010PropOp39
 70
     1
102
RTVSPost2010Prop40
 90
        0
102
RTVSPost2010PropOp40
 70
     1
102
RTVSPost2010Prop41ColorIndex
 90
       18
102
RTVSPost2010Prop41ColorRGB
 90
        0
102
RTVSPost2010PropOp41
 70
     1
102
RTVSPost2010Prop42
 90
       50
102
RTVSPost2010PropOp42
 70
     1
102
RTVSPost2010Prop43
 90
        3
102
RTVSPost2010PropOp43
 70
     1
102
RTVSPost2010Prop44ColorIndex
 90
        5
102
RTVSPost2010Prop44ColorRGB
 90
      255
102
RTVSPost2010PropOp44
 70
     1
102
RTVSPost2010Prop45
280
     0
102
RTVSPost2010PropOp45
 70
     1
102
RTVSPost2010Prop46
 90
       50
102
RTVSPost2010PropOp46
 70
     1
102
RTVSPost2010Prop47
 90
       50
102
RTVSPost2010PropOp47
 70
     1
102
RTVSPost2010Prop48
 90
       50
102
RTVSPost2010PropOp48
 70
     1
102
RTVSPost2010Prop49
280
     0
102
RTVSPost2010PropOp49
 70
     1
102
RTVSPost2010Prop50
 90
       50
102
RTVSPost2010PropOp50
 70
     1
102
RTVSPost2010Prop51ColorIndex
 90
      256
102
RTVSPost2010Prop51ColorRGB
 90
-16777216
102
RTVSPost2010PropOp51
 70
     0
102
RTVSPost2010Prop52
140
1.0
102
RTVSPost2010PropOp52
 70
     0
102
RTVSPost2010Prop53
 90
        2
102
RTVSPost2010PropOp53
 70
     1
102
RTVSPost2010Prop54
  1
strokes_ogs.tif
102
RTVSPost2010PropOp54
 70
     1
102
RTVSPost2010Prop55
280
     0
102
RTVSPost2010PropOp55
 70
     1
102
RTVSPost2010Prop56
140
1.0
102
RTVSPost2010PropOp56
 70
     1
102
RTVSPost2010Prop57
140
1.0
102
RTVSPost2010PropOp57
 70
     1
102
RTVSPropertyOp0
 70
     1
102
RTVSPropertyOp1
 70
     1
102
RTVSPropertyOp2
 70
     1
102
RTVSPropertyOp3
 70
     1
102
RTVSPropertyOp4
 70
     1
102
RTVSPropertyOp5
 70
     1
102
RTVSPropertyOp6
 70
     1
102
RTVSPropertyOp7
 70
     1
102
RTVSPropertyOp8
 70
     1
102
RTVSPropertyOp9
 70
     1
102
RTVSPropertyOp10
 70
     1
102
RTVSPropertyOp11
 70
     1
102
RTVSPropertyOp12
 70
     1
102
RTVSPropertyOp13
 70
     1
102
RTVSPropertyOp14
 70
     1
102
RTVSPropertyOp15
 70
     1
102
RTVSPropertyOp16
 70
     1
102
RTVSPropertyOp17
 70
     1
102
RTVSPropertyOp18
 70
     1
102
RTVSPropertyOp19
 70
     1
102
RTVSPropertyOp20
 70
     1
102
RTVSPropertyOp21
 70
     1
102
RTVSPropertyOp22
 70
     1
102
RTVSPropertyOp23
 70
     1
102
RTVSPropertyOp24
 70
     1
102
RTVSPropertyOp25
 70
     1
102
RTVSPropertyOp26
 70
     1
102
RTVSPropertyOp27
 70
     1
102
RTVSPropertyOp28
 70
     1
102
RTVSPropertyOp29
 70
     1
102
RTVSPropertyOp30
 70
     1
102
RTVSPropertyOp31
 70
     1
102
RTVSPropertyOp32
 70
     1
102
RTVSPropertyOp33
 70
     1
102
RTVSPropertyOp34
 70
     1
102
RTVSPropertyOp35
 70
     1
102
RTVSPropertyOp36
 70
     1
102
RTVSPropertyOp37
 70
     1
102
RTVSPropertyOp38
 70
     1
102
RTVSPropertyOp39
 70
     1
102
RTVSPropertyOp40
 70
     1
102
RTVSPropertyOp41
 70
     1
102
RTVSPropertyOp42
 70
     1
102
RTVSPropertyOp43
 70
     1
102
RTVSPropertyOp44
 70
     1
102
RTVSPropertyOp45
 70
     1
102
RTVSPropertyOp46
 70
     1
102
RTVSPropertyOp47
 70
     1
102
RTVSPropertyOp48
 70
     1
102
RTVSPropertyOp49
 70
     1
102
RTVSPropertyOp50
 70
     1
102
RTVSPropertyOp51
 70
     0
102
RTVSPropertyOp52
 70
     0
102
RTVSPropertyOp53
 70
     1
102
RTVSPropertyOp54
 70
     1
102
RTVSPropertyOp55
 70
     1
102
RTVSPropertyOp56
 70
     1
102
RTVSPropertyOp57
 70
     1
102
RTVSPropertyOp58
 70
     1
102
RTVSPropertyOp59
 70
     1
102
RTVSPropertyOp60
 70
     1
102
RTVSPropertyOp61
 70
     1
102
RTVSPropertyOp62
 70
     1
  0
XRECORD
  5
443
102
{ACAD_REACTORS
330
442
102
}
330
442
100
AcDbXrecord
280
     1
102
RTVSPost2010Prop28
280
     0
102
RTVSPost2010PropOp28
 70
     1
102
RTVSPost2010Prop29
280
     1
102
RTVSPost2010PropOp29
 70
     1
102
RTVSPost2010Prop30
280
     1
102
RTVSPost2010PropOp30
 70
     1
102
RTVSPost2010Prop31
280
     0
102
RTVSPost2010PropOp31
 70
     1
102
RTVSPost2010Prop32
280
     0
102
RTVSPost2010PropOp32
 70
     1
102
RTVSPost2010Prop33
280
     0
102
RTVSPost2010PropOp33
 70
     1
102
RTVSPost2010Prop34
280
     0
102
RTVSPost2010PropOp34
 70
     1
102
RTVSPost2010Prop35
280
     0
102
RTVSPost2010PropOp35
 70
     1
102
RTVSPost2010Prop36
280
     0
102
RTVSPost2010PropOp36
 70
     1
102
RTVSPost2010Prop37
 90
       50
102
RTVSPost2010PropOp37
 70
     1
102
RTVSPost2010Prop38
140
0.0
102
RTVSPost2010PropOp38
 70
     1
102
RTVSPost2010Prop39
140
1.0
102
RTVSPost2010PropOp39
 70
     1
102
RTVSPost2010Prop40
 90
        0
102
RTVSPost2010PropOp40
 70
     1
102
RTVSPost2010Prop41ColorIndex
 90
       18
102
RTVSPost2010Prop41ColorRGB
 90
        0
102
RTVSPost2010PropOp41
 70
     1
102
RTVSPost2010Prop42
 90
       50
102
RTVSPost2010PropOp42
 70
     1
102
RTVSPost2010Prop43
 90
        3
102
RTVSPost2010PropOp43
 70
     1
102
RTVSPost2010Prop44ColorIndex
 90
        5
102
RTVSPost2010Prop44ColorRGB
 90
      255
102
RTVSPost2010PropOp44
 70
     1
102
RTVSPost2010Prop45
280
     0
102
RTVSPost2010PropOp45
 70
     1
102
RTVSPost2010Prop46
 90
       50
102
RTVSPost2010PropOp46
 70
     1
102
RTVSPost2010Prop47
 90
       50
102
RTVSPost2010PropOp47
 70
     1
102
RTVSPost2010Prop48
 90
       50
102
RTVSPost2010PropOp48
 70
     1
102
RTVSPost2010Prop49
280
     0
102
RTVSPost2010PropOp49
 70
     1
102
RTVSPost2010Prop50
 90
       50
102
RTVSPost2010PropOp50
 70
     1
102
RTVSPost2010Prop51ColorIndex
 90
      256
102
RTVSPost2010Prop51ColorRGB
 90
-16777216
102
RTVSPost2010PropOp51
 70
     0
102
RTVSPost2010Prop52
140
1.0
102
RTVSPost2010PropOp52
 70
     0
102
RTVSPost2010Prop53
 90
        2
102
RTVSPost2010PropOp53
 70
     1
102
RTVSPost2010Prop54
  1
strokes_ogs.tif
102
RTVSPost2010PropOp54
 70
     1
102
RTVSPost2010Prop55
280
     0
102
RTVSPost2010PropOp55
 70
     1
102
RTVSPost2010Prop56
140
1.0
102
RTVSPost2010PropOp56
 70
     1
102
RTVSPost2010Prop57
140
1.0
102
RTVSPost2010PropOp57
 70
     1
102
RTVSPropertyOp0
 70
     1
102
RTVSPropertyOp1
 70
     1
102
RTVSPropertyOp2
 70
     1
102
RTVSPropertyOp3
 70
     1
102
RTVSPropertyOp4
 70
     1
102
RTVSPropertyOp5
 70
     1
102
RTVSPropertyOp6
 70
     1
102
RTVSPropertyOp7
 70
     1
102
RTVSPropertyOp8
 70
     1
102
RTVSPropertyOp9
 70
     1
102
RTVSPropertyOp10
 70
     1
102
RTVSPropertyOp11
 70
     1
102
RTVSPropertyOp12
 70
     1
102
RTVSPropertyOp13
 70
     1
102
RTVSPropertyOp14
 70
     1
102
RTVSPropertyOp15
 70
     1
102
RTVSPropertyOp16
 70
     1
102
RTVSPropertyOp17
 70
     1
102
RTVSPropertyOp18
 70
     1
102
RTVSPropertyOp19
 70
     1
102
RTVSPropertyOp20
 70
     1
102
RTVSPropertyOp21
 70
     1
102
RTVSPropertyOp22
 70
     1
102
RTVSPropertyOp23
 70
     1
102
RTVSPropertyOp24
 70
     1
102
RTVSPropertyOp25
 70
     1
102
RTVSPropertyOp26
 70
     1
102
RTVSPropertyOp27
 70
     1
102
RTVSPropertyOp28
 70
     1
102
RTVSPropertyOp29
 70
     1
102
RTVSPropertyOp30
 70
     1
102
RTVSPropertyOp31
 70
     1
102
RTVSPropertyOp32
 70
     1
102
RTVSPropertyOp33
 70
     1
102
RTVSPropertyOp34
 70
     1
102
RTVSPropertyOp35
 70
     1
102
RTVSPropertyOp36
 70
     1
102
RTVSPropertyOp37
 70
     1
102
RTVSPropertyOp38
 70
     1
102
RTVSPropertyOp39
 70
     1
102
RTVSPropertyOp40
 70
     1
102
RTVSPropertyOp41
 70
     1
102
RTVSPropertyOp42
 70
     1
102
RTVSPropertyOp43
 70
     1
102
RTVSPropertyOp44
 70
     1
102
RTVSPropertyOp45
 70
     1
102
RTVSPropertyOp46
 70
     1
102
RTVSPropertyOp47
 70
     1
102
RTVSPropertyOp48
 70
     1
102
RTVSPropertyOp49
 70
     1
102
RTVSPropertyOp50
 70
     1
102
RTVSPropertyOp51
 70
     0
102
RTVSPropertyOp52
 70
     0
102
RTVSPropertyOp53
 70
     1
102
RTVSPropertyOp54
 70
     1
102
RTVSPropertyOp55
 70
     1
102
RTVSPropertyOp56
 70
     1
102
RTVSPropertyOp57
 70
     1
102
RTVSPropertyOp58
 70
     1
102
RTVSPropertyOp59
 70
     1
102
RTVSPropertyOp60
 70
     1
102
RTVSPropertyOp61
 70
     1
102
RTVSPropertyOp62
 70
     1
  0
XRECORD
  5
437
102
{ACAD_REACTORS
330
436
102
}
330
436
100
AcDbXrecord
280
     1
102
RTVSPost2010Prop28
280
     0
102
RTVSPost2010PropOp28
 70
     1
102
RTVSPost2010Prop29
280
     1
102
RTVSPost2010PropOp29
 70
     1
102
RTVSPost2010Prop30
280
     1
102
RTVSPost2010PropOp30
 70
     1
102
RTVSPost2010Prop31
280
     0
102
RTVSPost2010PropOp31
 70
     1
102
RTVSPost2010Prop32
280
     0
102
RTVSPost2010PropOp32
 70
     1
102
RTVSPost2010Prop33
280
     0
102
RTVSPost2010PropOp33
 70
     1
102
RTVSPost2010Prop34
280
     0
102
RTVSPost2010PropOp34
 70
     1
102
RTVSPost2010Prop35
280
     0
102
RTVSPost2010PropOp35
 70
     1
102
RTVSPost2010Prop36
280
     0
102
RTVSPost2010PropOp36
 70
     1
102
RTVSPost2010Prop37
 90
       50
102
RTVSPost2010PropOp37
 70
     1
102
RTVSPost2010Prop38
140
0.0
102
RTVSPost2010PropOp38
 70
     1
102
RTVSPost2010Prop39
140
1.0
102
RTVSPost2010PropOp39
 70
     1
102
RTVSPost2010Prop40
 90
        0
102
RTVSPost2010PropOp40
 70
     1
102
RTVSPost2010Prop41ColorIndex
 90
       18
102
RTVSPost2010Prop41ColorRGB
 90
        0
102
RTVSPost2010PropOp41
 70
     1
102
RTVSPost2010Prop42
 90
       50
102
RTVSPost2010PropOp42
 70
     1
102
RTVSPost2010Prop43
 90
        3
102
RTVSPost2010PropOp43
 70
     1
102
RTVSPost2010Prop44ColorIndex
 90
        5
102
RTVSPost2010Prop44ColorRGB
 90
      255
102
RTVSPost2010PropOp44
 70
     1
102
RTVSPost2010Prop45
280
     0
102
RTVSPost2010PropOp45
 70
     1
102
RTVSPost2010Prop46
 90
       50
102
RTVSPost2010PropOp46
 70
     1
102
RTVSPost2010Prop47
 90
       50
102
RTVSPost2010PropOp47
 70
     1
102
RTVSPost2010Prop48
 90
       50
102
RTVSPost2010PropOp48
 70
     1
102
RTVSPost2010Prop49
280
     0
102
RTVSPost2010PropOp49
 70
     1
102
RTVSPost2010Prop50
 90
       50
102
RTVSPost2010PropOp50
 70
     1
102
RTVSPost2010Prop51ColorIndex
 90
      256
102
RTVSPost2010Prop51ColorRGB
 90
-16777216
102
RTVSPost2010PropOp51
 70
     0
102
RTVSPost2010Prop52
140
1.0
102
RTVSPost2010PropOp52
 70
     0
102
RTVSPost2010Prop53
 90
        2
102
RTVSPost2010PropOp53
 70
     1
102
RTVSPost2010Prop54
  1
strokes_ogs.tif
102
RTVSPost2010PropOp54
 70
     1
102
RTVSPost2010Prop55
280
     0
102
RTVSPost2010PropOp55
 70
     1
102
RTVSPost2010Prop56
140
1.0
102
RTVSPost2010PropOp56
 70
     1
102
RTVSPost2010Prop57
140
1.0
102
RTVSPost2010PropOp57
 70
     1
102
RTVSPropertyOp0
 70
     1
102
RTVSPropertyOp1
 70
     1
102
RTVSPropertyOp2
 70
     1
102
RTVSPropertyOp3
 70
     1
102
RTVSPropertyOp4
 70
     1
102
RTVSPropertyOp5
 70
     1
102
RTVSPropertyOp6
 70
     1
102
RTVSPropertyOp7
 70
     1
102
RTVSPropertyOp8
 70
     1
102
RTVSPropertyOp9
 70
     1
102
RTVSPropertyOp10
 70
     1
102
RTVSPropertyOp11
 70
     1
102
RTVSPropertyOp12
 70
     1
102
RTVSPropertyOp13
 70
     1
102
RTVSPropertyOp14
 70
     1
102
RTVSPropertyOp15
 70
     1
102
RTVSPropertyOp16
 70
     1
102
RTVSPropertyOp17
 70
     1
102
RTVSPropertyOp18
 70
     1
102
RTVSPropertyOp19
 70
     1
102
RTVSPropertyOp20
 70
     1
102
RTVSPropertyOp21
 70
     1
102
RTVSPropertyOp22
 70
     1
102
RTVSPropertyOp23
 70
     1
102
RTVSPropertyOp24
 70
     1
102
RTVSPropertyOp25
 70
     1
102
RTVSPropertyOp26
 70
     1
102
RTVSPropertyOp27
 70
     1
102
RTVSPropertyOp28
 70
     1
102
RTVSPropertyOp29
 70
     1
102
RTVSPropertyOp30
 70
     1
102
RTVSPropertyOp31
 70
     1
102
RTVSPropertyOp32
 70
     1
102
RTVSPropertyOp33
 70
     1
102
RTVSPropertyOp34
 70
     1
102
RTVSPropertyOp35
 70
     1
102
RTVSPropertyOp36
 70
     1
102
RTVSPropertyOp37
 70
     1
102
RTVSPropertyOp38
 70
     1
102
RTVSPropertyOp39
 70
     1
102
RTVSPropertyOp40
 70
     1
102
RTVSPropertyOp41
 70
     1
102
RTVSPropertyOp42
 70
     1
102
RTVSPropertyOp43
 70
     1
102
RTVSPropertyOp44
 70
     1
102
RTVSPropertyOp45
 70
     1
102
RTVSPropertyOp46
 70
     1
102
RTVSPropertyOp47
 70
     1
102
RTVSPropertyOp48
 70
     1
102
RTVSPropertyOp49
 70
     1
102
RTVSPropertyOp50
 70
     1
102
RTVSPropertyOp51
 70
     0
102
RTVSPropertyOp52
 70
     0
102
RTVSPropertyOp53
 70
     1
102
RTVSPropertyOp54
 70
     1
102
RTVSPropertyOp55
 70
     1
102
RTVSPropertyOp56
 70
     1
102
RTVSPropertyOp57
 70
     1
102
RTVSPropertyOp58
 70
     1
102
RTVSPropertyOp59
 70
     1
102
RTVSPropertyOp60
 70
     1
102
RTVSPropertyOp61
 70
     1
102
RTVSPropertyOp62
 70
     1
  0
XRECORD
  5
44F
102
{ACAD_REACTORS
330
44E
102
}
330
44E
100
AcDbXrecord
280
     1
102
RTVSPost2010Prop28
280
     0
102
RTVSPost2010PropOp28
 70
     1
102
RTVSPost2010Prop29
280
     1
102
RTVSPost2010PropOp29
 70
     1
102
RTVSPost2010Prop30
280
     1
102
RTVSPost2010PropOp30
 70
     1
102
RTVSPost2010Prop31
280
     0
102
RTVSPost2010PropOp31
 70
     1
102
RTVSPost2010Prop32
280
     0
102
RTVSPost2010PropOp32
 70
     1
102
RTVSPost2010Prop33
280
     0
102
RTVSPost2010PropOp33
 70
     1
102
RTVSPost2010Prop34
280
     0
102
RTVSPost2010PropOp34
 70
     1
102
RTVSPost2010Prop35
280
     0
102
RTVSPost2010PropOp35
 70
     1
102
RTVSPost2010Prop36
280
     0
102
RTVSPost2010PropOp36
 70
     1
102
RTVSPost2010Prop37
 90
       50
102
RTVSPost2010PropOp37
 70
     1
102
RTVSPost2010Prop38
140
0.0
102
RTVSPost2010PropOp38
 70
     1
102
RTVSPost2010Prop39
140
1.0
102
RTVSPost2010PropOp39
 70
     1
102
RTVSPost2010Prop40
 90
        0
102
RTVSPost2010PropOp40
 70
     1
102
RTVSPost2010Prop41ColorIndex
 90
       18
102
RTVSPost2010Prop41ColorRGB
 90
        0
102
RTVSPost2010PropOp41
 70
     1
102
RTVSPost2010Prop42
 90
       50
102
RTVSPost2010PropOp42
 70
     1
102
RTVSPost2010Prop43
 90
        3
102
RTVSPost2010PropOp43
 70
     1
102
RTVSPost2010Prop44ColorIndex
 90
        5
102
RTVSPost2010Prop44ColorRGB
 90
      255
102
RTVSPost2010PropOp44
 70
     1
102
RTVSPost2010Prop45
280
     0
102
RTVSPost2010PropOp45
 70
     1
102
RTVSPost2010Prop46
 90
       50
102
RTVSPost2010PropOp46
 70
     1
102
RTVSPost2010Prop47
 90
       50
102
RTVSPost2010PropOp47
 70
     1
102
RTVSPost2010Prop48
 90
       50
102
RTVSPost2010PropOp48
 70
     1
102
RTVSPost2010Prop49
280
     0
102
RTVSPost2010PropOp49
 70
     1
102
RTVSPost2010Prop50
 90
       50
102
RTVSPost2010PropOp50
 70
     1
102
RTVSPost2010Prop51ColorIndex
 90
      256
102
RTVSPost2010Prop51ColorRGB
 90
-16777216
102
RTVSPost2010PropOp51
 70
     0
102
RTVSPost2010Prop52
140
1.0
102
RTVSPost2010PropOp52
 70
     0
102
RTVSPost2010Prop53
 90
        2
102
RTVSPost2010PropOp53
 70
     1
102
RTVSPost2010Prop54
  1
strokes_ogs.tif
102
RTVSPost2010PropOp54
 70
     1
102
RTVSPost2010Prop55
280
     0
102
RTVSPost2010PropOp55
 70
     1
102
RTVSPost2010Prop56
140
1.0
102
RTVSPost2010PropOp56
 70
     1
102
RTVSPost2010Prop57
140
1.0
102
RTVSPost2010PropOp57
 70
     1
102
RTVSPropertyOp0
 70
     1
102
RTVSPropertyOp1
 70
     1
102
RTVSPropertyOp2
 70
     1
102
RTVSPropertyOp3
 70
     1
102
RTVSPropertyOp4
 70
     1
102
RTVSPropertyOp5
 70
     1
102
RTVSPropertyOp6
 70
     1
102
RTVSPropertyOp7
 70
     1
102
RTVSPropertyOp8
 70
     1
102
RTVSPropertyOp9
 70
     1
102
RTVSPropertyOp10
 70
     1
102
RTVSPropertyOp11
 70
     1
102
RTVSPropertyOp12
 70
     1
102
RTVSPropertyOp13
 70
     1
102
RTVSPropertyOp14
 70
     1
102
RTVSPropertyOp15
 70
     1
102
RTVSPropertyOp16
 70
     1
102
RTVSPropertyOp17
 70
     1
102
RTVSPropertyOp18
 70
     1
102
RTVSPropertyOp19
 70
     1
102
RTVSPropertyOp20
 70
     1
102
RTVSPropertyOp21
 70
     1
102
RTVSPropertyOp22
 70
     1
102
RTVSPropertyOp23
 70
     1
102
RTVSPropertyOp24
 70
     1
102
RTVSPropertyOp25
 70
     1
102
RTVSPropertyOp26
 70
     1
102
RTVSPropertyOp27
 70
     1
102
RTVSPropertyOp28
 70
     1
102
RTVSPropertyOp29
 70
     1
102
RTVSPropertyOp30
 70
     1
102
RTVSPropertyOp31
 70
     1
102
RTVSPropertyOp32
 70
     1
102
RTVSPropertyOp33
 70
     1
102
RTVSPropertyOp34
 70
     1
102
RTVSPropertyOp35
 70
     1
102
RTVSPropertyOp36
 70
     1
102
RTVSPropertyOp37
 70
     1
102
RTVSPropertyOp38
 70
     1
102
RTVSPropertyOp39
 70
     1
102
RTVSPropertyOp40
 70
     1
102
RTVSPropertyOp41
 70
     1
102
RTVSPropertyOp42
 70
     1
102
RTVSPropertyOp43
 70
     1
102
RTVSPropertyOp44
 70
     1
102
RTVSPropertyOp45
 70
     1
102
RTVSPropertyOp46
 70
     1
102
RTVSPropertyOp47
 70
     1
102
RTVSPropertyOp48
 70
     1
102
RTVSPropertyOp49
 70
     1
102
RTVSPropertyOp50
 70
     1
102
RTVSPropertyOp51
 70
     0
102
RTVSPropertyOp52
 70
     0
102
RTVSPropertyOp53
 70
     1
102
RTVSPropertyOp54
 70
     1
102
RTVSPropertyOp55
 70
     1
102
RTVSPropertyOp56
 70
     1
102
RTVSPropertyOp57
 70
     1
102
RTVSPropertyOp58
 70
     1
102
RTVSPropertyOp59
 70
     1
102
RTVSPropertyOp60
 70
     1
102
RTVSPropertyOp61
 70
     1
102
RTVSPropertyOp62
 70
     1
  0
ENDSEC
  0
EOF
