  0
SECTION
  2
HEADER
  9
$ACADVER
  1
AC1009
  9
$INSBASE
 10
0.0
 20
0.0
 30
0.0
  9
$EXTMIN
 10
-180.0
 20
-271.68557005312482
 30
0.0
  9
$EXTMAX
 10
180.0
 20
263.53181500000011
 30
0.0
  9
$LIMMIN
 10
0.0
 20
0.0
  9
$LIMMAX
 10
0.0
 20
0.0
  9
$ORTHOMODE
 70
     0
  9
$REGENMODE
 70
     1
  9
$FILLMODE
 70
     1
  9
$QTEXTMODE
 70
     0
  9
$MIRRTEXT
 70
     1
  9
$DRAGMODE
 70
     2
  9
$LTSCALE
 40
10.16
  9
$OSMODE
 70
   231
  9
$ATTMODE
 70
     1
  9
$TEXTSIZE
 40
0.0
  9
$TRACEWID
 40
1.0
  9
$TEXTSTYLE
  7
STANDARD
  9
$CLAYER
  8
DATA
  9
$CELTYPE
  6
CONTINUOUS
  9
$CECOLOR
 62
   256
  9
$DIMSCALE
 40
1.0
  9
$DIMASZ
 40
0.18
  9
$DIMEXO
 40
0.0625
  9
$DIMDLI
 40
0.38
  9
$DIMRND
 40
0.0
  9
$DIMDLE
 40
0.0
  9
$DIMEXE
 40
0.18
  9
$DIMTP
 40
0.0
  9
$DIMTM
 40
0.0
  9
$DIMTXT
 40
0.18
  9
$DIMCEN
 40
0.09
  9
$DIMTSZ
 40
0.0
  9
$DIMTOL
 70
     0
  9
$DIMLIM
 70
     0
  9
$DIMTIH
 70
     1
  9
$DIMTOH
 70
     1
  9
$DIMSE1
 70
     0
  9
$DIMSE2
 70
     0
  9
$DIMTAD
 70
     0
  9
$DIMZIN
 70
     0
  9
$DIMBLK
  1

  9
$DIMASO
 70
     1
  9
$DIMSHO
 70
     1
  9
$DIMPOST
  1

  9
$DIMAPOST
  1

  9
$DIMALT
 70
     0
  9
$DIMALTD
 70
     2
  9
$DIMALTF
 40
25.399999999999999
  9
$DIMLFAC
 40
1.0
  9
$DIMTOFL
 70
     0
  9
$DIMTVP
 40
0.0
  9
$DIMTIX
 70
     0
  9
$DIMSOXD
 70
     0
  9
$DIMSAH
 70
     0
  9
$DIMBLK1
  1

  9
$DIMBLK2
  1

  9
$DIMSTYLE
  2
STANDARD
  9
$DIMCLRD
 70
     0
  9
$DIMCLRE
 70
     0
  9
$DIMCLRT
 70
     0
  9
$DIMTFAC
 40
1.0
  9
$DIMGAP
 40
0.09
  9
$LUNITS
 70
     2
  9
$LUPREC
 70
     4
  9
$SKETCHINC
 40
0.1
  9
$FILLETRAD
 40
0.0
  9
$AUNITS
 70
     0
  9
$AUPREC
 70
     0
  9
$MENU
  1
acad
  9
$ELEVATION
 40
0.0
  9
$PELEVATION
 40
0.0
  9
$THICKNESS
 40
0.0
  9
$LIMCHECK
 70
     0
  9
$BLIPMODE
 70
     0
  9
$CHAMFERA
 40
0.0
  9
$CHAMFERB
 40
0.0
  9
$SKPOLY
 70
     0
  9
$TDCREATE
 40
2456967.7992592589
  9
$TDUPDATE
 40
2456969.4270720249
  9
$TDINDWG
 40
0.0005665625
  9
$TDUSRTIMER
 40
0.0005665162
  9
$USRTIMER
 70
     1
  9
$ANGBASE
 50
0.0
  9
$ANGDIR
 70
     0
  9
$PDMODE
 70
     1
  9
$PDSIZE
 40
-2.0
  9
$PLINEWID
 40
0.0
  9
$COORDS
 70
     2
  9
$SPLFRAME
 70
     0
  9
$SPLINETYPE
 70
     6
  9
$SPLINESEGS
 70
     8
  9
$ATTDIA
 70
     0
  9
$ATTREQ
 70
     1
  9
$HANDLING
 70
     1
  9
$HANDSEED
  5
4A2
  9
$SURFTAB1
 70
     6
  9
$SURFTAB2
 70
     6
  9
$SURFTYPE
 70
     6
  9
$SURFU
 70
     6
  9
$SURFV
 70
     6
  9
$UCSNAME
  2

  9
$UCSORG
 10
0.0
 20
0.0
 30
0.0
  9
$UCSXDIR
 10
1.0
 20
0.0
 30
0.0
  9
$UCSYDIR
 10
0.0
 20
1.0
 30
0.0
  9
$PUCSNAME
  2

  9
$PUCSORG
 10
0.0
 20
0.0
 30
0.0
  9
$PUCSXDIR
 10
1.0
 20
0.0
 30
0.0
  9
$PUCSYDIR
 10
0.0
 20
1.0
 30
0.0
  9
$USERI1
 70
     0
  9
$USERI2
 70
     0
  9
$USERI3
 70
     0
  9
$USERI4
 70
     0
  9
$USERI5
 70
     0
  9
$USERR1
 40
0.0
  9
$USERR2
 40
0.0
  9
$USERR3
 40
0.0
  9
$USERR4
 40
0.0
  9
$USERR5
 40
0.0
  9
$WORLDVIEW
 70
     1
  9
$SHADEDGE
 70
     3
  9
$SHADEDIF
 70
    70
  9
$TILEMODE
 70
     1
  9
$MAXACTVP
 70
    64
  9
$PLIMCHECK
 70
     0
  9
$PEXTMIN
 10
1.0000000000000000E+020
 20
1.0000000000000000E+020
 30
1.0000000000000000E+020
  9
$PEXTMAX
 10
-1.0000000000000000E+020
 20
-1.0000000000000000E+020
 30
-1.0000000000000000E+020
  9
$PLIMMIN
 10
0.0
 20
0.0
  9
$PLIMMAX
 10
12.0
 20
9.0
  9
$UNITMODE
 70
     0
  9
$VISRETAIN
 70
     0
  9
$PLINEGEN
 70
     1
  9
$PSLTSCALE
 70
     0
  0
ENDSEC
  0
SECTION
  2
TABLES
  0
TABLE
  2
VPORT
 70
     1
  0
VPORT
  2
*ACTIVE
 70
     0
 10
0.0
 20
0.0
 11
1.0
 21
1.0
 12
0.0
 22
-4.0768775265623836
 13
0.0
 23
0.0
 14
1.0
 24
1.0
 15
0.0
 25
0.0
 16
0.0
 26
0.0
 36
1.0
 17
0.0
 27
0.0
 37
0.0
 40
539.21651868988545
 41
2.3715710723192021
 42
50.0
 43
0.0
 44
0.0
 50
0.0
 51
0.0
 71
     0
 72
  2000
 73
     1
 74
     1
 75
     0
 76
     0
 77
     0
 78
     0
  0
ENDTAB
  0
TABLE
  2
LTYPE
 70
     2
  0
LTYPE
  2
CONTINUOUS
 70
     0
  3
Solid line
 72
    65
 73
     0
 40
0.0
  0
ENDTAB
  0
TABLE
  2
LAYER
 70
     6
  0
LAYER
  2
0
 70
     0
 62
     7
  6
CONTINUOUS
  0
LAYER
  2
DATA
 70
     0
 62
     7
  6
CONTINUOUS
  0
LAYER
  2
HIBINO-BASE
 70
     0
 62
     7
  6
CONTINUOUS
  0
LAYER
  2
PATTERN_FILL
 70
     0
 62
     7
  6
CONTINUOUS
  0
LAYER
  2
SPEC
 70
     0
 62
     7
  6
CONTINUOUS
  0
LAYER
  2
DIMNSIONS
 70
     0
 62
     7
  6
CONTINUOUS
  0
ENDTAB
  0
TABLE
  2
STYLE
 70
     2
  0
STYLE
  2
STANDARD
 70
     0
 40
0.0
 41
1.0
 50
0.0
 71
     0
 42
0.0
  3
txt
  4
BIGFONT.SHX
  0
STYLE
  2
ANNOTATIVE
 70
     0
 40
0.0
 41
1.0
 50
0.0
 71
     0
 42
0.2
  3
txt
  4

  0
ENDTAB
  0
TABLE
  2
VIEW
 70
     0
  0
ENDTAB
  0
TABLE
  2
UCS
 70
     0
  0
ENDTAB
  0
TABLE
  2
APPID
 70
     5
  0
APPID
  2
ACAD
 70
     0
  0
APPID
  2
ACADANNOTATIVE
 70
     0
  0
APPID
  2
ACAD_NAV_VCDISPLAY
 70
     0
  0
APPID
  2
ACAD_MLEADERVER
 70
     0
  0
APPID
  2
ACAD_EXEMPT_FROM_CAD_STANDARDS
 70
     0
  0
ENDTAB
  0
TABLE
  2
DIMSTYLE
 70
     2
  0
DIMSTYLE
  2
STANDARD
 70
     0
  3

  4

  5

  6

  7

 40
1.0
 41
0.18
 42
0.0625
 43
0.38
 44
0.18
 45
0.0
 46
0.0
 47
0.0
 48
0.0
140
0.18
141
0.09
142
0.0
143
25.399999999999999
144
1.0
145
0.0
146
1.0
147
0.09
 71
     0
 72
     0
 73
     1
 74
     1
 75
     0
 76
     0
 77
     0
 78
     0
170
     0
171
     2
172
     0
173
     0
174
     0
175
     0
176
     0
177
     0
178
     0
  0
DIMSTYLE
  2
ANNOTATIVE
 70
     0
  3

  4

  5

  6

  7

 40
1.0
 41
0.18
 42
0.0625
 43
0.38
 44
0.18
 45
0.0
 46
0.0
 47
0.0
 48
0.0
140
0.18
141
0.09
142
0.0
143
25.399999999999999
144
1.0
145
0.0
146
1.0
147
0.09
 71
     0
 72
     0
 73
     1
 74
     1
 75
     0
 76
     0
 77
     0
 78
     0
170
     0
171
     2
172
     0
173
     0
174
     0
175
     0
176
     0
177
     0
178
     0
  0
ENDTAB
  0
ENDSEC
  0
SECTION
  2
BLOCKS
  0
BLOCK
  8
0
  2
$MODEL_SPACE
 70
     0
 10
0.0
 20
0.0
 30
0.0
  3
$MODEL_SPACE
  1

  0
ENDBLK
  5
434
  8
0
  0
BLOCK
 67
     1
  8
0
  2
$PAPER_SPACE
 70
     0
 10
0.0
 20
0.0
 30
0.0
  3
$PAPER_SPACE
  1

  0
ENDBLK
  5
430
 67
     1
  8
0
  0
ENDSEC
  0
SECTION
  2
ENTITIES
  0
LINE
  5
2D
  8
HIBINO-BASE
  6
CONTINUOUS
 62
     7
 10
-180.0
 20
263.53181500000011
 30
0.0
 11
180.0
 21
263.53181500000011
 31
0.0
  0
LINE
  5
2E
  8
HIBINO-BASE
  6
CONTINUOUS
 62
     7
 10
180.0
 20
-256.46818500000001
 30
0.0
 11
-180.0
 21
-256.46818500000001
 31
0.0
  0
LINE
  5
2F
  8
HIBINO-BASE
  6
CONTINUOUS
 62
     7
 10
-180.0
 20
-256.46818500000012
 30
0.0
 11
-180.0
 21
263.53181500000011
 31
0.0
  0
LINE
  5
30
  8
HIBINO-BASE
  6
CONTINUOUS
 62
     7
 10
180.0
 20
263.53181500000011
 30
0.0
 11
180.0
 21
-256.46818500000001
 31
0.0
  0
LINE
  5
31
  8
HIBINO-BASE
  6
CONTINUOUS
 62
     7
 10
0.0000000000000142
 20
-211.46818500000001
 30
0.0
 11
180.0
 21
-211.46818500000001
 31
0.0
  0
LINE
  5
32
  8
HIBINO-BASE
  6
CONTINUOUS
 62
     7
 10
0.0000000000000142
 20
-256.46818500000001
 30
0.0
 11
0.0000000000000142
 21
-211.46818500000001
 31
0.0
  0
TEXT
  5
33
  8
HIBINO-BASE
 62
     7
 10
1.800000000000024
 20
-216.48557166666669
 30
0.0
 40
3.257682291666665
  1
NOTE
 41
0.7
 11
1.800000000000024
 21
-213.22788937499999
 31
0.0
 73
     3
  0
LINE
  5
34
  8
HIBINO-BASE
  6
CONTINUOUS
 62
     7
 10
70.000000000000043
 20
-256.46818500000001
 30
0.0
 11
70.000000000000043
 21
-211.46818500000001
 31
0.0
  0
TEXT
  5
35
  8
HIBINO-BASE
 62
     7
 10
71.799999999999983
 20
-216.48557166666669
 30
0.0
 40
3.257682291666665
  1
TITLE
 41
0.7
 11
71.799999999999983
 21
-213.22788937499999
 31
0.0
 73
     3
  0
LINE
  5
36
  8
HIBINO-BASE
  6
CONTINUOUS
 62
     7
 10
0.0000000000000142
 20
-236.46818500000001
 30
0.0
 11
180.0
 21
-236.46818500000001
 31
0.0
  0
TEXT
  5
37
  8
HIBINO-BASE
 62
     7
 10
96.799999999999983
 20
-241.37293166666669
 30
0.0
 40
3.257682291666665
  1
DRAWN
 41
0.7
 11
96.799999999999983
 21
-238.11524937499999
 31
0.0
 73
     3
  0
TEXT
  5
38
  8
HIBINO-BASE
 62
     7
 10
46.799999999999983
 20
-241.37293166666669
 30
0.0
 40
3.257682291666665
  1
DATE
 41
0.7
 11
46.799999999999983
 21
-238.11524937499999
 31
0.0
 73
     3
  0
TEXT
  5
39
  8
HIBINO-BASE
 62
     7
 10
26.800000000000001
 20
-241.37293166666669
 30
0.0
 40
3.257682291666665
  1
SCALE
 41
0.7
 11
26.800000000000001
 21
-238.11524937499999
 31
0.0
 73
     3
  0
TEXT
  5
3A
  8
HIBINO-BASE
 62
     7
 10
71.799999999999983
 20
-241.37293166666669
 30
0.0
 40
3.257682291666665
  1
DESIGN
 41
0.7
 11
71.799999999999983
 21
-238.11524937499999
 31
0.0
 73
     3
  0
TEXT
  5
3B
  8
HIBINO-BASE
 62
     7
 10
146.7999999999999
 20
-241.37293166666669
 30
0.0
 40
3.257682291666665
  1
DRAWING NO.
 41
0.7
 11
146.7999999999999
 21
-238.11524937499999
 31
0.0
 73
     3
  0
TEXT
  5
3C
  8
HIBINO-BASE
 62
     7
 10
121.7999999999999
 20
-241.37293166666669
 30
0.0
 40
3.257682291666665
  1
CHECK
 41
0.7
 11
121.7999999999999
 21
-238.11524937499999
 31
0.0
 73
     3
  0
LINE
  5
3D
  8
HIBINO-BASE
  6
CONTINUOUS
 62
     7
 10
28.750000000000011
 20
-253.96818500000001
 30
0.0
 11
36.250000000000021
 21
-246.46818500000001
 31
0.0
  0
TEXT
  5
3E
  8
HIBINO-BASE
 62
     7
 10
27.500000000000011
 20
-248.68607166666661
 30
0.0
 40
3.257682291666665
  1
1
 41
0.7
 11
27.500000000000011
 21
-245.42838937499999
 31
0.0
 73
     3
  0
LINE
  5
3F
  8
HIBINO-BASE
  6
CONTINUOUS
 62
     7
 10
25.000000000000011
 20
-256.46818500000001
 30
0.0
 11
25.000000000000011
 21
-236.46818500000001
 31
0.0
  0
LINE
  5
40
  8
HIBINO-BASE
  6
CONTINUOUS
 62
     7
 10
44.999999999999993
 20
-256.46818500000001
 30
0.0
 11
44.999999999999993
 21
-236.46818500000001
 31
0.0
  0
LINE
  5
41
  8
HIBINO-BASE
  6
CONTINUOUS
 62
     7
 10
94.999999999999957
 20
-236.46818500000001
 30
0.0
 11
94.999999999999957
 21
-256.46818500000001
 31
0.0
  0
LINE
  5
42
  8
HIBINO-BASE
  6
CONTINUOUS
 62
     7
 10
145.0
 20
-236.46818500000001
 30
0.0
 11
145.0
 21
-256.46818500000001
 31
0.0
  0
LINE
  5
43
  8
HIBINO-BASE
  6
CONTINUOUS
 62
     7
 10
119.9999999999999
 20
-256.46818500000001
 30
0.0
 11
119.9999999999999
 21
-236.46818500000001
 31
0.0
  0
TEXT
  5
44
  8
HIBINO-BASE
 62
     7
 10
46.713080000000019
 20
-250.7408916666667
 30
0.0
 40
3.257682291666665
  1
'14.11.
 41
0.7
 11
46.713080000000019
 21
-247.483209375
 31
0.0
 73
     3
  0
TEXT
  5
45
  8
HIBINO-BASE
 62
     7
 10
35.000000000000007
 20
-252.43607166666669
 30
0.0
 40
3.257682291666665
  1
2
 41
0.7
 11
35.000000000000007
 21
-249.17838937499999
 31
0.0
 73
     3
  0
TEXT
  5
46
  8
HIBINO-BASE
 62
     7
 10
7.766666666666719
 20
-252.51618499999989
 30
0.0
 40
6.5153645833333309
  1
A4
 41
0.7
 11
7.766666666666719
 21
-246.00082041666661
 31
0.0
 73
     3
  0
TEXT
  5
47
  8
HIBINO-BASE
 62
     7
 10
1.9166666666666701
 20
-241.7070949999999
 30
0.0
 40
3.257682291666665
  1
PAPER SIZE
 41
0.7
 11
1.916666666666671
 21
-238.44941270833331
 31
0.0
 73
     3
  0
TEXT
  5
48
  8
HIBINO-BASE
 62
     7
 10
-165.63199999999981
 20
-269.28554059999988
 30
0.0
 40
7.2000883593749991
  1
Hibino Corporation
 41
0.7
 11
-165.63199999999981
 21
-262.08545224062487
 31
0.0
 73
     3
  0
TEXT
  5
49
  8
HIBINO-BASE
 62
     7
 10
100.13678
 20
-269.28554059999988
 30
0.0
 40
7.2000883593749991
  1
ヒビノ株式会社
 41
0.7
 11
100.13678
 21
-262.08545224062487
 31
0.0
 73
     3
  0
TEXT
  5
4A
  8
HIBINO-BASE
 62
     7
 10
98.011620022069224
 20
-250.7408916666667
 30
0.0
 40
3.257682291666665
  1
T.Ootake
 41
0.7
 11
98.011620022069224
 21
-247.483209375
 31
0.0
 73
     3
  0
LINE
  5
4B
  8
PATTERN_FILL
  6
CONTINUOUS
 62
     7
 10
-34.013452528629628
 20
51.681387830444542
 30
0.0
 11
-15.98654747137037
 21
51.681387830444542
 31
0.0
  0
LINE
  5
4C
  8
PATTERN_FILL
  6
CONTINUOUS
 62
     7
 10
-37.204432104548189
 20
53.181387830444528
 30
0.0
 11
-12.795567895451841
 21
53.181387830444528
 31
0.0
  0
LINE
  5
4D
  8
PATTERN_FILL
  6
CONTINUOUS
 62
     7
 10
-39.565507183177417
 20
54.681387830444521
 30
0.0
 11
-10.434492816822621
 21
54.681387830444521
 31
0.0
  0
LINE
  5
4E
  8
PATTERN_FILL
  6
CONTINUOUS
 62
     7
 10
-41.457819904588213
 20
56.181387830444542
 30
0.0
 11
-8.5421800954118297
 21
56.181387830444542
 31
0.0
  0
LINE
  5
4F
  8
PATTERN_FILL
  6
CONTINUOUS
 62
     7
 10
-43.029577713316677
 20
57.681387830444521
 30
0.0
 11
-6.9704222866833359
 21
57.681387830444521
 31
0.0
  0
LINE
  5
50
  8
PATTERN_FILL
  6
CONTINUOUS
 62
     7
 10
-44.359016220593247
 20
59.181387830444542
 30
0.0
 11
-5.6409837794067883
 21
59.181387830444542
 31
0.0
  0
LINE
  5
51
  8
PATTERN_FILL
  6
CONTINUOUS
 62
     7
 10
-45.493348812184372
 20
60.681387830444528
 30
0.0
 11
-4.5066511878156561
 21
60.681387830444528
 31
0.0
  0
LINE
  5
52
  8
PATTERN_FILL
  6
CONTINUOUS
 62
     7
 10
-46.463531443975498
 20
62.181387830444521
 30
0.0
 11
-3.5364685560245221
 21
62.181387830444521
 31
0.0
  0
LINE
  5
53
  8
PATTERN_FILL
  6
CONTINUOUS
 62
     7
 10
-47.291007571556548
 20
63.681387830444542
 30
0.0
 11
-2.7089924284434721
 21
63.681387830444542
 31
0.0
  0
LINE
  5
54
  8
PATTERN_FILL
  6
CONTINUOUS
 62
     7
 10
-47.991190814393619
 20
65.181387830444535
 30
0.0
 11
-2.0088091856064021
 21
65.181387830444535
 31
0.0
  0
LINE
  5
55
  8
PATTERN_FILL
  6
CONTINUOUS
 62
     7
 10
-48.575425586243917
 20
66.681387830444535
 30
0.0
 11
-1.42457441375611
 21
66.681387830444535
 31
0.0
  0
LINE
  5
56
  8
PATTERN_FILL
  6
CONTINUOUS
 62
     7
 10
-49.052162648734758
 20
68.181387830444535
 30
0.0
 11
-0.9478373512652707
 21
68.181387830444535
 31
0.0
  0
LINE
  5
57
  8
PATTERN_FILL
  6
CONTINUOUS
 62
     7
 10
-49.427696669761083
 20
69.681387830444535
 30
0.0
 11
-0.5723033302389311
 21
69.681387830444535
 31
0.0
  0
LINE
  5
58
  8
PATTERN_FILL
  6
CONTINUOUS
 62
     7
 10
-49.706642853664363
 20
71.18138783044455
 30
0.0
 11
-0.293357146335687
 21
71.18138783044455
 31
0.0
  0
LINE
  5
59
  8
PATTERN_FILL
  6
CONTINUOUS
 62
     7
 10
-49.892248544621083
 20
72.681387830444521
 30
0.0
 11
-0.1077514553789527
 21
72.681387830444521
 31
0.0
  0
LINE
  5
5A
  8
PATTERN_FILL
  6
CONTINUOUS
 62
     7
 10
-49.98659388784025
 20
74.181387830444521
 30
0.0
 11
-0.013406112159764
 21
74.181387830444521
 31
0.0
  0
LINE
  5
5B
  8
PATTERN_FILL
  6
CONTINUOUS
 62
     7
 10
-49.990712487332608
 20
75.681387830444521
 30
0.0
 11
-0.0092875126673917
 21
75.681387830444521
 31
0.0
  0
LINE
  5
5C
  8
PATTERN_FILL
  6
CONTINUOUS
 62
     7
 10
-49.904649106807142
 20
77.181387830444521
 30
0.0
 11
-0.0953508931928937
 21
77.181387830444521
 31
0.0
  0
LINE
  5
5D
  8
PATTERN_FILL
  6
CONTINUOUS
 62
     7
 10
-49.727462135080813
 20
78.681387830444521
 30
0.0
 11
-0.2725378649192081
 21
78.681387830444521
 31
0.0
  0
LINE
  5
5E
  8
PATTERN_FILL
  6
CONTINUOUS
 62
     7
 10
-49.457171139576253
 20
80.181387830444521
 30
0.0
 11
-0.5428288604237608
 21
80.181387830444521
 31
0.0
  0
LINE
  5
5F
  8
PATTERN_FILL
  6
CONTINUOUS
 62
     7
 10
-49.090642512377883
 20
81.681387830444535
 30
0.0
 11
-0.909357487622138
 21
81.681387830444535
 31
0.0
  0
LINE
  5
60
  8
PATTERN_FILL
  6
CONTINUOUS
 62
     7
 10
-48.623397155528977
 20
83.181387830444493
 30
0.0
 11
-1.3766028444710441
 21
83.181387830444493
 31
0.0
  0
LINE
  5
61
  8
PATTERN_FILL
  6
CONTINUOUS
 62
     7
 10
-48.049310828667309
 20
84.681387830444521
 30
0.0
 11
-1.950689171332705
 21
84.681387830444521
 31
0.0
  0
LINE
  5
62
  8
PATTERN_FILL
  6
CONTINUOUS
 62
     7
 10
-47.360155772829209
 20
86.181387830444507
 30
0.0
 11
-2.6398442271708191
 21
86.181387830444507
 31
0.0
  0
LINE
  5
63
  8
PATTERN_FILL
  6
CONTINUOUS
 62
     7
 10
-46.544892728761809
 20
87.681387830444507
 30
0.0
 11
-3.4551072712381981
 21
87.681387830444507
 31
0.0
  0
LINE
  5
64
  8
PATTERN_FILL
  6
CONTINUOUS
 62
     7
 10
-45.588546311056547
 20
89.181387830444535
 30
0.0
 11
-4.4114536889434728
 21
89.181387830444535
 31
0.0
  0
LINE
  5
65
  8
PATTERN_FILL
  6
CONTINUOUS
 62
     7
 10
-44.47033835636109
 20
90.681387830444507
 30
0.0
 11
-5.5296616436389101
 21
90.681387830444507
 31
0.0
  0
LINE
  5
66
  8
PATTERN_FILL
  6
CONTINUOUS
 62
     7
 10
-43.160394054641351
 20
92.181387830444507
 30
0.0
 11
-6.8396059453586764
 21
92.181387830444507
 31
0.0
  0
LINE
  5
67
  8
PATTERN_FILL
  6
CONTINUOUS
 62
     7
 10
-41.613420741331971
 20
93.681387830444507
 30
0.0
 11
-8.3865792586680392
 21
93.681387830444507
 31
0.0
  0
LINE
  5
68
  8
PATTERN_FILL
  6
CONTINUOUS
 62
     7
 10
-39.755052871378872
 20
95.181387830444507
 30
0.0
 11
-10.24494712862117
 21
95.181387830444507
 31
0.0
  0
LINE
  5
69
  8
PATTERN_FILL
  6
CONTINUOUS
 62
     7
 10
-37.44658273366035
 20
96.681387830444507
 30
0.0
 11
-12.55341726633967
 21
96.681387830444507
 31
0.0
  0
LINE
  5
6A
  8
PATTERN_FILL
  6
CONTINUOUS
 62
     7
 10
-34.3607295791791
 20
98.181387830444507
 30
0.0
 11
-15.639270420820941
 21
98.181387830444507
 31
0.0
  0
LINE
  5
6B
  8
PATTERN_FILL
  6
CONTINUOUS
 62
     7
 10
-28.978579490620291
 20
99.681387830444521
 30
0.0
 11
-21.02142050937973
 21
99.681387830444521
 31
0.0
  0
LINE
  5
6C
  8
PATTERN_FILL
  6
CONTINUOUS
 62
     7
 10
-48.138802409220318
 20
65.534492984152408
 30
0.0
 11
-48.138802409220318
 21
84.465507015847606
 31
0.0
  0
LINE
  5
6D
  8
PATTERN_FILL
  6
CONTINUOUS
 62
     7
 10
-46.638802409220318
 20
62.479527553054503
 30
0.0
 11
-46.638802409220318
 21
87.520472446945462
 31
0.0
  0
LINE
  5
6E
  8
PATTERN_FILL
  6
CONTINUOUS
 62
     7
 10
-45.138802409220318
 20
60.186876172718257
 30
0.0
 11
-45.138802409220318
 21
89.813123827281757
 31
0.0
  0
LINE
  5
6F
  8
PATTERN_FILL
  6
CONTINUOUS
 62
     7
 10
-43.638802409220318
 20
58.33881622602874
 30
0.0
 11
-43.638802409220318
 21
91.661183773971288
 31
0.0
  0
LINE
  5
70
  8
PATTERN_FILL
  6
CONTINUOUS
 62
     7
 10
-42.138802409220332
 20
56.799410669494669
 30
0.0
 11
-42.138802409220332
 21
93.200589330505281
 31
0.0
  0
LINE
  5
71
  8
PATTERN_FILL
  6
CONTINUOUS
 62
     7
 10
-40.638802409220311
 20
55.495440040714463
 30
0.0
 11
-40.638802409220311
 21
94.504559959285501
 31
0.0
  0
LINE
  5
72
  8
PATTERN_FILL
  6
CONTINUOUS
 62
     7
 10
-39.138802409220332
 20
54.382185701849338
 30
0.0
 11
-39.138802409220332
 21
95.617814298150677
 31
0.0
  0
LINE
  5
73
  8
PATTERN_FILL
  6
CONTINUOUS
 62
     7
 10
-37.638802409220332
 20
53.430097968217709
 30
0.0
 11
-37.638802409220332
 21
96.569902031782306
 31
0.0
  0
LINE
  5
74
  8
PATTERN_FILL
  6
CONTINUOUS
 62
     7
 10
-36.138802409220318
 20
52.618599666501026
 30
0.0
 11
-36.138802409220318
 21
97.381400333499002
 31
0.0
  0
LINE
  5
75
  8
PATTERN_FILL
  6
CONTINUOUS
 62
     7
 10
-34.638802409220332
 20
51.932848287748882
 30
0.0
 11
-34.638802409220332
 21
98.067151712251075
 31
0.0
  0
LINE
  5
76
  8
PATTERN_FILL
  6
CONTINUOUS
 62
     7
 10
-33.138802409220332
 20
51.36189738274939
 30
0.0
 11
-33.138802409220332
 21
98.638102617250595
 31
0.0
  0
LINE
  5
77
  8
PATTERN_FILL
  6
CONTINUOUS
 62
     7
 10
-31.638802409220329
 20
50.897587204362083
 30
0.0
 11
-31.638802409220329
 21
99.102412795637903
 31
0.0
  0
LINE
  5
78
  8
PATTERN_FILL
  6
CONTINUOUS
 62
     7
 10
-30.138802409220329
 20
50.533845627091473
 30
0.0
 11
-30.138802409220329
 21
99.466154372908505
 31
0.0
  0
LINE
  5
79
  8
PATTERN_FILL
  6
CONTINUOUS
 62
     7
 10
-28.638802409220322
 20
50.266235283995819
 30
0.0
 11
-28.638802409220322
 21
99.733764716004174
 31
0.0
  0
LINE
  5
7A
  8
PATTERN_FILL
  6
CONTINUOUS
 62
     7
 10
-27.138802409220329
 20
50.091657536995498
 30
0.0
 11
-27.138802409220329
 21
99.908342463004516
 31
0.0
  0
LINE
  5
7B
  8
PATTERN_FILL
  6
CONTINUOUS
 62
     7
 10
-25.638802409220329
 20
50.008162702954913
 30
0.0
 11
-25.638802409220329
 21
99.99183729704508
 31
0.0
  0
LINE
  5
7C
  8
PATTERN_FILL
  6
CONTINUOUS
 62
     7
 10
-24.138802409220329
 20
50.014837628911941
 30
0.0
 11
-24.138802409220329
 21
99.985162371088094
 31
0.0
  0
LINE
  5
7D
  8
PATTERN_FILL
  6
CONTINUOUS
 62
     7
 10
-22.638802409220322
 20
50.111754864247722
 30
0.0
 11
-22.638802409220322
 21
99.888245135752271
 31
0.0
  0
LINE
  5
7E
  8
PATTERN_FILL
  6
CONTINUOUS
 62
     7
 10
-21.138802409220322
 20
50.29997665659085
 30
0.0
 11
-21.138802409220322
 21
99.700023343409157
 31
0.0
  0
LINE
  5
7F
  8
PATTERN_FILL
  6
CONTINUOUS
 62
     7
 10
-19.638802409220322
 20
50.58161429593229
 30
0.0
 11
-19.638802409220322
 21
99.418385704067731
 31
0.0
  0
LINE
  5
80
  8
PATTERN_FILL
  6
CONTINUOUS
 62
     7
 10
-18.138802409220322
 20
50.959950756700209
 30
0.0
 11
-18.138802409220322
 21
99.040049243299805
 31
0.0
  0
LINE
  5
81
  8
PATTERN_FILL
  6
CONTINUOUS
 62
     7
 10
-16.638802409220322
 20
51.43964399997445
 30
0.0
 11
-16.638802409220322
 21
98.560356000025564
 31
0.0
  0
LINE
  5
82
  8
PATTERN_FILL
  6
CONTINUOUS
 62
     7
 10
-15.13880240922032
 20
52.027042374226141
 30
0.0
 11
-15.13880240922032
 21
97.972957625773873
 31
0.0
  0
LINE
  5
83
  8
PATTERN_FILL
  6
CONTINUOUS
 62
     7
 10
-13.63880240922032
 20
52.730667066495641
 30
0.0
 11
-13.63880240922032
 21
97.269332933504359
 31
0.0
  0
LINE
  5
84
  8
PATTERN_FILL
  6
CONTINUOUS
 62
     7
 10
-12.13880240922032
 20
53.561959125635489
 30
0.0
 11
-12.13880240922032
 21
96.438040874364503
 31
0.0
  0
LINE
  5
85
  8
PATTERN_FILL
  6
CONTINUOUS
 62
     7
 10
-10.63880240922032
 20
54.536471375674623
 30
0.0
 11
-10.63880240922032
 21
95.463528624325335
 31
0.0
  0
LINE
  5
86
  8
PATTERN_FILL
  6
CONTINUOUS
 62
     7
 10
-9.1388024092203235
 20
55.675859372633283
 30
0.0
 11
-9.1388024092203235
 21
94.324140627366717
 31
0.0
  0
LINE
  5
87
  8
PATTERN_FILL
  6
CONTINUOUS
 62
     7
 10
-7.6388024092203226
 20
57.011425342348403
 30
0.0
 11
-7.6388024092203226
 21
92.988574657651597
 31
0.0
  0
LINE
  5
88
  8
PATTERN_FILL
  6
CONTINUOUS
 62
     7
 10
-6.1388024092203244
 20
58.591001692925722
 30
0.0
 11
-6.1388024092203244
 21
91.408998307074285
 31
0.0
  0
LINE
  5
89
  8
PATTERN_FILL
  6
CONTINUOUS
 62
     7
 10
-4.6388024092203244
 20
60.494082839433133
 30
0.0
 11
-4.6388024092203244
 21
89.50591716056681
 31
0.0
  0
LINE
  5
8A
  8
PATTERN_FILL
  6
CONTINUOUS
 62
     7
 10
-3.1388024092203239
 20
62.872014186317301
 30
0.0
 11
-3.1388024092203239
 21
87.127985813682713
 31
0.0
  0
LINE
  5
8B
  8
PATTERN_FILL
  6
CONTINUOUS
 62
     7
 10
-1.6388024092203251
 20
66.097503320722339
 30
0.0
 11
-1.6388024092203251
 21
83.902496679277675
 31
0.0
  0
LINE
  5
8C
  8
PATTERN_FILL
  6
CONTINUOUS
 62
     7
 10
-0.1388024092203253
 20
72.369248329429297
 30
0.0
 11
-0.1388024092203253
 21
77.630751670570703
 31
0.0
  0
LINE
  5
8D
  8
PATTERN_FILL
  6
CONTINUOUS
 62
     7
 10
-48.500000000000021
 20
-42.211899002234709
 30
0.0
 11
-1.5000000000000211
 21
-42.211899002234709
 31
0.0
  0
LINE
  5
8E
  8
PATTERN_FILL
  6
CONTINUOUS
 62
     7
 10
-48.500000000000021
 20
-40.711899002234723
 30
0.0
 11
-1.5000000000000211
 21
-40.711899002234723
 31
0.0
  0
LINE
  5
8F
  8
PATTERN_FILL
  6
CONTINUOUS
 62
     7
 10
-48.500000000000021
 20
-39.21189900223473
 30
0.0
 11
-1.5000000000000211
 21
-39.21189900223473
 31
0.0
  0
LINE
  5
90
  8
PATTERN_FILL
  6
CONTINUOUS
 62
     7
 10
-48.500000000000021
 20
-37.711899002234723
 30
0.0
 11
-1.5000000000000211
 21
-37.711899002234723
 31
0.0
  0
LINE
  5
91
  8
PATTERN_FILL
  6
CONTINUOUS
 62
     7
 10
-48.500000000000021
 20
-36.211899002234723
 30
0.0
 11
-1.5000000000000211
 21
-36.211899002234723
 31
0.0
  0
LINE
  5
92
  8
PATTERN_FILL
  6
CONTINUOUS
 62
     7
 10
-48.500000000000021
 20
-34.71189900223473
 30
0.0
 11
-1.5000000000000211
 21
-34.71189900223473
 31
0.0
  0
LINE
  5
93
  8
PATTERN_FILL
  6
CONTINUOUS
 62
     7
 10
-48.500000000000021
 20
-33.21189900223473
 30
0.0
 11
-1.5000000000000211
 21
-33.21189900223473
 31
0.0
  0
LINE
  5
94
  8
PATTERN_FILL
  6
CONTINUOUS
 62
     7
 10
-48.500000000000021
 20
-31.71189900223473
 30
0.0
 11
-1.5000000000000211
 21
-31.71189900223473
 31
0.0
  0
LINE
  5
95
  8
PATTERN_FILL
  6
CONTINUOUS
 62
     7
 10
-48.500000000000021
 20
-30.21189900223473
 30
0.0
 11
-1.5000000000000211
 21
-30.21189900223473
 31
0.0
  0
LINE
  5
96
  8
PATTERN_FILL
  6
CONTINUOUS
 62
     7
 10
-48.500000000000021
 20
-28.71189900223473
 30
0.0
 11
-1.5000000000000211
 21
-28.71189900223473
 31
0.0
  0
LINE
  5
97
  8
PATTERN_FILL
  6
CONTINUOUS
 62
     7
 10
-48.500000000000021
 20
-27.21189900223473
 30
0.0
 11
-1.5000000000000211
 21
-27.21189900223473
 31
0.0
  0
LINE
  5
98
  8
PATTERN_FILL
  6
CONTINUOUS
 62
     7
 10
-48.500000000000021
 20
-25.71189900223473
 30
0.0
 11
-1.5000000000000211
 21
-25.71189900223473
 31
0.0
  0
LINE
  5
99
  8
PATTERN_FILL
  6
CONTINUOUS
 62
     7
 10
-48.500000000000021
 20
-24.21189900223473
 30
0.0
 11
-1.5000000000000211
 21
-24.21189900223473
 31
0.0
  0
LINE
  5
9A
  8
PATTERN_FILL
  6
CONTINUOUS
 62
     7
 10
-48.500000000000021
 20
-22.71189900223473
 30
0.0
 11
-1.5000000000000211
 21
-22.71189900223473
 31
0.0
  0
LINE
  5
9B
  8
PATTERN_FILL
  6
CONTINUOUS
 62
     7
 10
-48.500000000000021
 20
-21.21189900223473
 30
0.0
 11
-1.5000000000000211
 21
-21.21189900223473
 31
0.0
  0
LINE
  5
9C
  8
PATTERN_FILL
  6
CONTINUOUS
 62
     7
 10
-48.500000000000021
 20
-19.71189900223473
 30
0.0
 11
-1.5000000000000211
 21
-19.71189900223473
 31
0.0
  0
LINE
  5
9D
  8
PATTERN_FILL
  6
CONTINUOUS
 62
     7
 10
-48.500000000000021
 20
-18.21189900223473
 30
0.0
 11
-1.5000000000000211
 21
-18.21189900223473
 31
0.0
  0
LINE
  5
9E
  8
PATTERN_FILL
  6
CONTINUOUS
 62
     7
 10
-48.500000000000021
 20
-16.71189900223473
 30
0.0
 11
-1.5000000000000211
 21
-16.71189900223473
 31
0.0
  0
LINE
  5
9F
  8
PATTERN_FILL
  6
CONTINUOUS
 62
     7
 10
-48.500000000000021
 20
-15.21189900223473
 30
0.0
 11
-1.5000000000000211
 21
-15.21189900223473
 31
0.0
  0
LINE
  5
A0
  8
PATTERN_FILL
  6
CONTINUOUS
 62
     7
 10
-48.500000000000021
 20
-13.71189900223473
 30
0.0
 11
-1.5000000000000211
 21
-13.71189900223473
 31
0.0
  0
LINE
  5
A1
  8
PATTERN_FILL
  6
CONTINUOUS
 62
     7
 10
-48.500000000000021
 20
-12.21189900223473
 30
0.0
 11
-1.5000000000000211
 21
-12.21189900223473
 31
0.0
  0
LINE
  5
A2
  8
PATTERN_FILL
  6
CONTINUOUS
 62
     7
 10
-48.500000000000021
 20
-10.71189900223473
 30
0.0
 11
-1.5000000000000211
 21
-10.71189900223473
 31
0.0
  0
LINE
  5
A3
  8
PATTERN_FILL
  6
CONTINUOUS
 62
     7
 10
-48.500000000000021
 20
-9.2118990022347305
 30
0.0
 11
-1.5000000000000211
 21
-9.2118990022347305
 31
0.0
  0
LINE
  5
A4
  8
PATTERN_FILL
  6
CONTINUOUS
 62
     7
 10
-48.500000000000021
 20
-7.7118990022347269
 30
0.0
 11
-1.5000000000000211
 21
-7.7118990022347269
 31
0.0
  0
LINE
  5
A5
  8
PATTERN_FILL
  6
CONTINUOUS
 62
     7
 10
-48.500000000000021
 20
-6.2118990022347287
 30
0.0
 11
-1.5000000000000211
 21
-6.2118990022347287
 31
0.0
  0
LINE
  5
A6
  8
PATTERN_FILL
  6
CONTINUOUS
 62
     7
 10
-48.500000000000021
 20
-4.7118990022347287
 30
0.0
 11
-1.5000000000000211
 21
-4.7118990022347287
 31
0.0
  0
LINE
  5
A7
  8
PATTERN_FILL
  6
CONTINUOUS
 62
     7
 10
-48.500000000000021
 20
-3.21189900223473
 30
0.0
 11
-1.5000000000000211
 21
-3.21189900223473
 31
0.0
  0
LINE
  5
A8
  8
PATTERN_FILL
  6
CONTINUOUS
 62
     7
 10
-48.500000000000021
 20
-1.71189900223473
 30
0.0
 11
-1.5000000000000211
 21
-1.71189900223473
 31
0.0
  0
LINE
  5
A9
  8
PATTERN_FILL
  6
CONTINUOUS
 62
     7
 10
-48.500000000000021
 20
-0.2118990022347305
 30
0.0
 11
-1.5000000000000211
 21
-0.2118990022347305
 31
0.0
  0
LINE
  5
AA
  8
PATTERN_FILL
  6
CONTINUOUS
 62
     7
 10
-48.500000000000021
 20
1.2881009977652691
 30
0.0
 11
-1.5000000000000211
 21
1.2881009977652691
 31
0.0
  0
LINE
  5
AB
  8
PATTERN_FILL
  6
CONTINUOUS
 62
     7
 10
-48.500000000000021
 20
2.7881009977652682
 30
0.0
 11
-1.5000000000000211
 21
2.7881009977652682
 31
0.0
  0
LINE
  5
AC
  8
PATTERN_FILL
  6
CONTINUOUS
 62
     7
 10
-48.500000000000021
 20
4.2881009977652678
 30
0.0
 11
-1.5000000000000211
 21
4.2881009977652678
 31
0.0
  0
LINE
  5
AD
  8
PATTERN_FILL
  6
CONTINUOUS
 62
     7
 10
-48.500000000000021
 20
5.7881009977652678
 30
0.0
 11
-1.5000000000000211
 21
5.7881009977652678
 31
0.0
  0
LINE
  5
AE
  8
PATTERN_FILL
  6
CONTINUOUS
 62
     7
 10
-48.500000000000021
 20
7.288100997765266
 30
0.0
 11
-1.5000000000000211
 21
7.288100997765266
 31
0.0
  0
LINE
  5
AF
  8
PATTERN_FILL
  6
CONTINUOUS
 62
     7
 10
-48.500000000000021
 20
8.7881009977652695
 30
0.0
 11
-1.5000000000000211
 21
8.7881009977652695
 31
0.0
  0
LINE
  5
B0
  8
PATTERN_FILL
  6
CONTINUOUS
 62
     7
 10
-48.500000000000021
 20
10.28810099776527
 30
0.0
 11
-1.5000000000000211
 21
10.28810099776527
 31
0.0
  0
LINE
  5
B1
  8
PATTERN_FILL
  6
CONTINUOUS
 62
     7
 10
-48.500000000000021
 20
11.78810099776527
 30
0.0
 11
-1.5000000000000211
 21
11.78810099776527
 31
0.0
  0
LINE
  5
B2
  8
PATTERN_FILL
  6
CONTINUOUS
 62
     7
 10
-48.500000000000021
 20
13.28810099776527
 30
0.0
 11
-1.5000000000000211
 21
13.28810099776527
 31
0.0
  0
LINE
  5
B3
  8
PATTERN_FILL
  6
CONTINUOUS
 62
     7
 10
-47.500000000000021
 20
-43.5
 30
0.0
 11
-47.500000000000021
 21
14.5
 31
0.0
  0
LINE
  5
B4
  8
PATTERN_FILL
  6
CONTINUOUS
 62
     7
 10
-46.000000000000021
 20
-43.5
 30
0.0
 11
-46.000000000000021
 21
14.5
 31
0.0
  0
LINE
  5
B5
  8
PATTERN_FILL
  6
CONTINUOUS
 62
     7
 10
-44.500000000000007
 20
-43.5
 30
0.0
 11
-44.500000000000007
 21
14.5
 31
0.0
  0
LINE
  5
B6
  8
PATTERN_FILL
  6
CONTINUOUS
 62
     7
 10
-43.000000000000021
 20
-43.5
 30
0.0
 11
-43.000000000000021
 21
14.5
 31
0.0
  0
LINE
  5
B7
  8
PATTERN_FILL
  6
CONTINUOUS
 62
     7
 10
-41.500000000000007
 20
-43.5
 30
0.0
 11
-41.500000000000007
 21
14.5
 31
0.0
  0
LINE
  5
B8
  8
PATTERN_FILL
  6
CONTINUOUS
 62
     7
 10
-40.0
 20
-43.5
 30
0.0
 11
-40.0
 21
14.5
 31
0.0
  0
LINE
  5
B9
  8
PATTERN_FILL
  6
CONTINUOUS
 62
     7
 10
-38.500000000000007
 20
-43.5
 30
0.0
 11
-38.500000000000007
 21
14.5
 31
0.0
  0
LINE
  5
BA
  8
PATTERN_FILL
  6
CONTINUOUS
 62
     7
 10
-37.000000000000007
 20
-43.5
 30
0.0
 11
-37.000000000000007
 21
14.5
 31
0.0
  0
LINE
  5
BB
  8
PATTERN_FILL
  6
CONTINUOUS
 62
     7
 10
-35.500000000000021
 20
-43.5
 30
0.0
 11
-35.500000000000021
 21
14.5
 31
0.0
  0
LINE
  5
BC
  8
PATTERN_FILL
  6
CONTINUOUS
 62
     7
 10
-34.000000000000021
 20
-43.5
 30
0.0
 11
-34.000000000000021
 21
14.5
 31
0.0
  0
LINE
  5
BD
  8
PATTERN_FILL
  6
CONTINUOUS
 62
     7
 10
-32.500000000000021
 20
-43.5
 30
0.0
 11
-32.500000000000021
 21
14.5
 31
0.0
  0
LINE
  5
BE
  8
PATTERN_FILL
  6
CONTINUOUS
 62
     7
 10
-31.000000000000021
 20
-43.5
 30
0.0
 11
-31.000000000000021
 21
14.5
 31
0.0
  0
LINE
  5
BF
  8
PATTERN_FILL
  6
CONTINUOUS
 62
     7
 10
-29.500000000000021
 20
-43.5
 30
0.0
 11
-29.500000000000021
 21
14.5
 31
0.0
  0
LINE
  5
C0
  8
PATTERN_FILL
  6
CONTINUOUS
 62
     7
 10
-28.000000000000021
 20
-43.5
 30
0.0
 11
-28.000000000000021
 21
14.5
 31
0.0
  0
LINE
  5
C1
  8
PATTERN_FILL
  6
CONTINUOUS
 62
     7
 10
-26.500000000000021
 20
-43.5
 30
0.0
 11
-26.500000000000021
 21
14.5
 31
0.0
  0
LINE
  5
C2
  8
PATTERN_FILL
  6
CONTINUOUS
 62
     7
 10
-25.000000000000021
 20
-43.5
 30
0.0
 11
-25.000000000000021
 21
14.5
 31
0.0
  0
LINE
  5
C3
  8
PATTERN_FILL
  6
CONTINUOUS
 62
     7
 10
-23.500000000000021
 20
-43.5
 30
0.0
 11
-23.500000000000021
 21
14.5
 31
0.0
  0
LINE
  5
C4
  8
PATTERN_FILL
  6
CONTINUOUS
 62
     7
 10
-22.000000000000021
 20
-43.5
 30
0.0
 11
-22.000000000000021
 21
14.5
 31
0.0
  0
LINE
  5
C5
  8
PATTERN_FILL
  6
CONTINUOUS
 62
     7
 10
-20.500000000000021
 20
-43.5
 30
0.0
 11
-20.500000000000021
 21
14.5
 31
0.0
  0
LINE
  5
C6
  8
PATTERN_FILL
  6
CONTINUOUS
 62
     7
 10
-19.000000000000021
 20
-43.5
 30
0.0
 11
-19.000000000000021
 21
14.5
 31
0.0
  0
LINE
  5
C7
  8
PATTERN_FILL
  6
CONTINUOUS
 62
     7
 10
-17.500000000000011
 20
-43.5
 30
0.0
 11
-17.500000000000011
 21
14.5
 31
0.0
  0
LINE
  5
C8
  8
PATTERN_FILL
  6
CONTINUOUS
 62
     7
 10
-16.000000000000021
 20
-43.5
 30
0.0
 11
-16.000000000000021
 21
14.5
 31
0.0
  0
LINE
  5
C9
  8
PATTERN_FILL
  6
CONTINUOUS
 62
     7
 10
-14.50000000000002
 20
-43.5
 30
0.0
 11
-14.50000000000002
 21
14.5
 31
0.0
  0
LINE
  5
CA
  8
PATTERN_FILL
  6
CONTINUOUS
 62
     7
 10
-13.00000000000002
 20
-43.5
 30
0.0
 11
-13.00000000000002
 21
14.5
 31
0.0
  0
LINE
  5
CB
  8
PATTERN_FILL
  6
CONTINUOUS
 62
     7
 10
-11.50000000000002
 20
-43.5
 30
0.0
 11
-11.50000000000002
 21
14.5
 31
0.0
  0
LINE
  5
CC
  8
PATTERN_FILL
  6
CONTINUOUS
 62
     7
 10
-10.00000000000002
 20
-43.5
 30
0.0
 11
-10.00000000000002
 21
14.5
 31
0.0
  0
LINE
  5
CD
  8
PATTERN_FILL
  6
CONTINUOUS
 62
     7
 10
-8.5000000000000213
 20
-43.5
 30
0.0
 11
-8.5000000000000213
 21
14.5
 31
0.0
  0
LINE
  5
CE
  8
PATTERN_FILL
  6
CONTINUOUS
 62
     7
 10
-7.0000000000000204
 20
-43.5
 30
0.0
 11
-7.0000000000000204
 21
14.5
 31
0.0
  0
LINE
  5
CF
  8
PATTERN_FILL
  6
CONTINUOUS
 62
     7
 10
-5.5000000000000204
 20
-43.5
 30
0.0
 11
-5.5000000000000204
 21
14.5
 31
0.0
  0
LINE
  5
D0
  8
PATTERN_FILL
  6
CONTINUOUS
 62
     7
 10
-4.0000000000000204
 20
-43.5
 30
0.0
 11
-4.0000000000000204
 21
14.5
 31
0.0
  0
LINE
  5
D1
  8
PATTERN_FILL
  6
CONTINUOUS
 62
     7
 10
-2.50000000000002
 20
-43.5
 30
0.0
 11
-2.50000000000002
 21
14.5
 31
0.0
  0
LINE
  5
D2
  8
PATTERN_FILL
  6
CONTINUOUS
 62
     7
 10
38.5
 20
-42.211899002234709
 30
0.0
 11
58.499999999999972
 21
-42.211899002234709
 31
0.0
  0
LINE
  5
D3
  8
PATTERN_FILL
  6
CONTINUOUS
 62
     7
 10
66.499999999999972
 20
-42.211899002234709
 30
0.0
 11
86.499999999999957
 21
-42.211899002234709
 31
0.0
  0
LINE
  5
D4
  8
PATTERN_FILL
  6
CONTINUOUS
 62
     7
 10
38.5
 20
-40.711899002234723
 30
0.0
 11
58.499999999999972
 21
-40.711899002234723
 31
0.0
  0
LINE
  5
D5
  8
PATTERN_FILL
  6
CONTINUOUS
 62
     7
 10
66.499999999999972
 20
-40.711899002234723
 30
0.0
 11
86.499999999999957
 21
-40.711899002234723
 31
0.0
  0
LINE
  5
D6
  8
PATTERN_FILL
  6
CONTINUOUS
 62
     7
 10
38.5
 20
-39.21189900223473
 30
0.0
 11
58.499999999999972
 21
-39.21189900223473
 31
0.0
  0
LINE
  5
D7
  8
PATTERN_FILL
  6
CONTINUOUS
 62
     7
 10
66.499999999999972
 20
-39.21189900223473
 30
0.0
 11
86.499999999999957
 21
-39.21189900223473
 31
0.0
  0
LINE
  5
D8
  8
PATTERN_FILL
  6
CONTINUOUS
 62
     7
 10
38.5
 20
-37.711899002234723
 30
0.0
 11
58.499999999999972
 21
-37.711899002234723
 31
0.0
  0
LINE
  5
D9
  8
PATTERN_FILL
  6
CONTINUOUS
 62
     7
 10
66.499999999999972
 20
-37.711899002234723
 30
0.0
 11
86.499999999999957
 21
-37.711899002234723
 31
0.0
  0
LINE
  5
DA
  8
PATTERN_FILL
  6
CONTINUOUS
 62
     7
 10
38.5
 20
-36.211899002234723
 30
0.0
 11
58.499999999999972
 21
-36.211899002234723
 31
0.0
  0
LINE
  5
DB
  8
PATTERN_FILL
  6
CONTINUOUS
 62
     7
 10
66.499999999999972
 20
-36.211899002234723
 30
0.0
 11
86.499999999999957
 21
-36.211899002234723
 31
0.0
  0
LINE
  5
DC
  8
PATTERN_FILL
  6
CONTINUOUS
 62
     7
 10
38.5
 20
-34.71189900223473
 30
0.0
 11
58.499999999999972
 21
-34.71189900223473
 31
0.0
  0
LINE
  5
DD
  8
PATTERN_FILL
  6
CONTINUOUS
 62
     7
 10
66.499999999999972
 20
-34.71189900223473
 30
0.0
 11
86.499999999999957
 21
-34.71189900223473
 31
0.0
  0
LINE
  5
DE
  8
PATTERN_FILL
  6
CONTINUOUS
 62
     7
 10
38.5
 20
-33.21189900223473
 30
0.0
 11
58.499999999999972
 21
-33.21189900223473
 31
0.0
  0
LINE
  5
DF
  8
PATTERN_FILL
  6
CONTINUOUS
 62
     7
 10
66.499999999999972
 20
-33.21189900223473
 30
0.0
 11
86.499999999999957
 21
-33.21189900223473
 31
0.0
  0
LINE
  5
E0
  8
PATTERN_FILL
  6
CONTINUOUS
 62
     7
 10
38.5
 20
-31.71189900223473
 30
0.0
 11
58.499999999999972
 21
-31.71189900223473
 31
0.0
  0
LINE
  5
E1
  8
PATTERN_FILL
  6
CONTINUOUS
 62
     7
 10
66.499999999999972
 20
-31.71189900223473
 30
0.0
 11
86.499999999999957
 21
-31.71189900223473
 31
0.0
  0
LINE
  5
E2
  8
PATTERN_FILL
  6
CONTINUOUS
 62
     7
 10
38.5
 20
-30.21189900223473
 30
0.0
 11
58.499999999999972
 21
-30.21189900223473
 31
0.0
  0
LINE
  5
E3
  8
PATTERN_FILL
  6
CONTINUOUS
 62
     7
 10
66.499999999999972
 20
-30.21189900223473
 30
0.0
 11
86.499999999999957
 21
-30.21189900223473
 31
0.0
  0
LINE
  5
E4
  8
PATTERN_FILL
  6
CONTINUOUS
 62
     7
 10
38.5
 20
-28.71189900223473
 30
0.0
 11
58.499999999999972
 21
-28.71189900223473
 31
0.0
  0
LINE
  5
E5
  8
PATTERN_FILL
  6
CONTINUOUS
 62
     7
 10
66.499999999999972
 20
-28.71189900223473
 30
0.0
 11
86.499999999999957
 21
-28.71189900223473
 31
0.0
  0
LINE
  5
E6
  8
PATTERN_FILL
  6
CONTINUOUS
 62
     7
 10
38.5
 20
-27.21189900223473
 30
0.0
 11
58.499999999999972
 21
-27.21189900223473
 31
0.0
  0
LINE
  5
E7
  8
PATTERN_FILL
  6
CONTINUOUS
 62
     7
 10
66.499999999999972
 20
-27.21189900223473
 30
0.0
 11
86.499999999999957
 21
-27.21189900223473
 31
0.0
  0
LINE
  5
E8
  8
PATTERN_FILL
  6
CONTINUOUS
 62
     7
 10
38.5
 20
-25.71189900223473
 30
0.0
 11
58.499999999999972
 21
-25.71189900223473
 31
0.0
  0
LINE
  5
E9
  8
PATTERN_FILL
  6
CONTINUOUS
 62
     7
 10
66.499999999999972
 20
-25.71189900223473
 30
0.0
 11
86.499999999999957
 21
-25.71189900223473
 31
0.0
  0
LINE
  5
EA
  8
PATTERN_FILL
  6
CONTINUOUS
 62
     7
 10
38.5
 20
-24.21189900223473
 30
0.0
 11
58.499999999999972
 21
-24.21189900223473
 31
0.0
  0
LINE
  5
EB
  8
PATTERN_FILL
  6
CONTINUOUS
 62
     7
 10
66.499999999999972
 20
-24.21189900223473
 30
0.0
 11
86.499999999999957
 21
-24.21189900223473
 31
0.0
  0
LINE
  5
EC
  8
PATTERN_FILL
  6
CONTINUOUS
 62
     7
 10
38.5
 20
-22.71189900223473
 30
0.0
 11
58.499999999999972
 21
-22.71189900223473
 31
0.0
  0
LINE
  5
ED
  8
PATTERN_FILL
  6
CONTINUOUS
 62
     7
 10
66.499999999999972
 20
-22.71189900223473
 30
0.0
 11
86.499999999999957
 21
-22.71189900223473
 31
0.0
  0
LINE
  5
EE
  8
PATTERN_FILL
  6
CONTINUOUS
 62
     7
 10
38.5
 20
-21.21189900223473
 30
0.0
 11
58.499999999999972
 21
-21.21189900223473
 31
0.0
  0
LINE
  5
EF
  8
PATTERN_FILL
  6
CONTINUOUS
 62
     7
 10
66.499999999999972
 20
-21.21189900223473
 30
0.0
 11
86.499999999999957
 21
-21.21189900223473
 31
0.0
  0
LINE
  5
F0
  8
PATTERN_FILL
  6
CONTINUOUS
 62
     7
 10
38.5
 20
-19.71189900223473
 30
0.0
 11
58.499999999999972
 21
-19.71189900223473
 31
0.0
  0
LINE
  5
F1
  8
PATTERN_FILL
  6
CONTINUOUS
 62
     7
 10
66.499999999999972
 20
-19.71189900223473
 30
0.0
 11
86.499999999999957
 21
-19.71189900223473
 31
0.0
  0
LINE
  5
F2
  8
PATTERN_FILL
  6
CONTINUOUS
 62
     7
 10
38.5
 20
-18.21189900223473
 30
0.0
 11
58.499999999999972
 21
-18.21189900223473
 31
0.0
  0
LINE
  5
F3
  8
PATTERN_FILL
  6
CONTINUOUS
 62
     7
 10
66.499999999999972
 20
-18.21189900223473
 30
0.0
 11
86.499999999999957
 21
-18.21189900223473
 31
0.0
  0
LINE
  5
F4
  8
PATTERN_FILL
  6
CONTINUOUS
 62
     7
 10
38.5
 20
-16.71189900223473
 30
0.0
 11
58.499999999999972
 21
-16.71189900223473
 31
0.0
  0
LINE
  5
F5
  8
PATTERN_FILL
  6
CONTINUOUS
 62
     7
 10
66.499999999999972
 20
-16.71189900223473
 30
0.0
 11
86.499999999999957
 21
-16.71189900223473
 31
0.0
  0
LINE
  5
F6
  8
PATTERN_FILL
  6
CONTINUOUS
 62
     7
 10
38.5
 20
-15.21189900223473
 30
0.0
 11
58.499999999999972
 21
-15.21189900223473
 31
0.0
  0
LINE
  5
F7
  8
PATTERN_FILL
  6
CONTINUOUS
 62
     7
 10
66.499999999999972
 20
-15.21189900223473
 30
0.0
 11
86.499999999999957
 21
-15.21189900223473
 31
0.0
  0
LINE
  5
F8
  8
PATTERN_FILL
  6
CONTINUOUS
 62
     7
 10
38.5
 20
-13.71189900223473
 30
0.0
 11
58.499999999999972
 21
-13.71189900223473
 31
0.0
  0
LINE
  5
F9
  8
PATTERN_FILL
  6
CONTINUOUS
 62
     7
 10
66.499999999999972
 20
-13.71189900223473
 30
0.0
 11
86.499999999999957
 21
-13.71189900223473
 31
0.0
  0
LINE
  5
FA
  8
PATTERN_FILL
  6
CONTINUOUS
 62
     7
 10
38.5
 20
-12.21189900223473
 30
0.0
 11
58.499999999999972
 21
-12.21189900223473
 31
0.0
  0
LINE
  5
FB
  8
PATTERN_FILL
  6
CONTINUOUS
 62
     7
 10
66.499999999999972
 20
-12.21189900223473
 30
0.0
 11
86.499999999999957
 21
-12.21189900223473
 31
0.0
  0
LINE
  5
FC
  8
PATTERN_FILL
  6
CONTINUOUS
 62
     7
 10
38.5
 20
-10.71189900223473
 30
0.0
 11
58.499999999999972
 21
-10.71189900223473
 31
0.0
  0
LINE
  5
FD
  8
PATTERN_FILL
  6
CONTINUOUS
 62
     7
 10
66.499999999999972
 20
-10.71189900223473
 30
0.0
 11
86.499999999999957
 21
-10.71189900223473
 31
0.0
  0
LINE
  5
FE
  8
PATTERN_FILL
  6
CONTINUOUS
 62
     7
 10
38.5
 20
-9.2118990022347305
 30
0.0
 11
58.499999999999972
 21
-9.2118990022347305
 31
0.0
  0
LINE
  5
FF
  8
PATTERN_FILL
  6
CONTINUOUS
 62
     7
 10
66.499999999999972
 20
-9.2118990022347305
 30
0.0
 11
86.499999999999957
 21
-9.2118990022347305
 31
0.0
  0
LINE
  5
100
  8
PATTERN_FILL
  6
CONTINUOUS
 62
     7
 10
38.5
 20
-7.7118990022347269
 30
0.0
 11
58.499999999999972
 21
-7.7118990022347269
 31
0.0
  0
LINE
  5
101
  8
PATTERN_FILL
  6
CONTINUOUS
 62
     7
 10
66.499999999999972
 20
-7.7118990022347269
 30
0.0
 11
86.499999999999957
 21
-7.7118990022347269
 31
0.0
  0
LINE
  5
102
  8
PATTERN_FILL
  6
CONTINUOUS
 62
     7
 10
38.5
 20
-6.2118990022347287
 30
0.0
 11
58.499999999999972
 21
-6.2118990022347287
 31
0.0
  0
LINE
  5
103
  8
PATTERN_FILL
  6
CONTINUOUS
 62
     7
 10
66.499999999999972
 20
-6.2118990022347287
 30
0.0
 11
86.499999999999957
 21
-6.2118990022347287
 31
0.0
  0
LINE
  5
104
  8
PATTERN_FILL
  6
CONTINUOUS
 62
     7
 10
38.5
 20
-4.7118990022347287
 30
0.0
 11
58.499999999999972
 21
-4.7118990022347287
 31
0.0
  0
LINE
  5
105
  8
PATTERN_FILL
  6
CONTINUOUS
 62
     7
 10
66.499999999999972
 20
-4.7118990022347287
 30
0.0
 11
86.499999999999957
 21
-4.7118990022347287
 31
0.0
  0
LINE
  5
106
  8
PATTERN_FILL
  6
CONTINUOUS
 62
     7
 10
38.5
 20
-3.21189900223473
 30
0.0
 11
58.499999999999972
 21
-3.21189900223473
 31
0.0
  0
LINE
  5
107
  8
PATTERN_FILL
  6
CONTINUOUS
 62
     7
 10
66.499999999999972
 20
-3.21189900223473
 30
0.0
 11
86.499999999999957
 21
-3.21189900223473
 31
0.0
  0
LINE
  5
108
  8
PATTERN_FILL
  6
CONTINUOUS
 62
     7
 10
38.5
 20
-1.71189900223473
 30
0.0
 11
58.499999999999972
 21
-1.71189900223473
 31
0.0
  0
LINE
  5
109
  8
PATTERN_FILL
  6
CONTINUOUS
 62
     7
 10
66.499999999999972
 20
-1.71189900223473
 30
0.0
 11
86.499999999999957
 21
-1.71189900223473
 31
0.0
  0
LINE
  5
10A
  8
PATTERN_FILL
  6
CONTINUOUS
 62
     7
 10
38.5
 20
-0.2118990022347305
 30
0.0
 11
58.499999999999972
 21
-0.2118990022347305
 31
0.0
  0
LINE
  5
10B
  8
PATTERN_FILL
  6
CONTINUOUS
 62
     7
 10
66.499999999999972
 20
-0.2118990022347305
 30
0.0
 11
86.499999999999957
 21
-0.2118990022347305
 31
0.0
  0
LINE
  5
10C
  8
PATTERN_FILL
  6
CONTINUOUS
 62
     7
 10
38.5
 20
1.2881009977652691
 30
0.0
 11
58.499999999999972
 21
1.2881009977652691
 31
0.0
  0
LINE
  5
10D
  8
PATTERN_FILL
  6
CONTINUOUS
 62
     7
 10
66.499999999999972
 20
1.2881009977652691
 30
0.0
 11
86.499999999999957
 21
1.2881009977652691
 31
0.0
  0
LINE
  5
10E
  8
PATTERN_FILL
  6
CONTINUOUS
 62
     7
 10
38.5
 20
2.7881009977652682
 30
0.0
 11
58.499999999999972
 21
2.7881009977652682
 31
0.0
  0
LINE
  5
10F
  8
PATTERN_FILL
  6
CONTINUOUS
 62
     7
 10
66.499999999999972
 20
2.7881009977652682
 30
0.0
 11
86.499999999999957
 21
2.7881009977652682
 31
0.0
  0
LINE
  5
110
  8
PATTERN_FILL
  6
CONTINUOUS
 62
     7
 10
38.5
 20
4.2881009977652678
 30
0.0
 11
58.499999999999972
 21
4.2881009977652678
 31
0.0
  0
LINE
  5
111
  8
PATTERN_FILL
  6
CONTINUOUS
 62
     7
 10
66.499999999999972
 20
4.2881009977652678
 30
0.0
 11
86.499999999999957
 21
4.2881009977652678
 31
0.0
  0
LINE
  5
112
  8
PATTERN_FILL
  6
CONTINUOUS
 62
     7
 10
38.5
 20
5.7881009977652678
 30
0.0
 11
58.499999999999972
 21
5.7881009977652678
 31
0.0
  0
LINE
  5
113
  8
PATTERN_FILL
  6
CONTINUOUS
 62
     7
 10
66.499999999999972
 20
5.7881009977652678
 30
0.0
 11
86.499999999999957
 21
5.7881009977652678
 31
0.0
  0
LINE
  5
114
  8
PATTERN_FILL
  6
CONTINUOUS
 62
     7
 10
38.5
 20
7.288100997765266
 30
0.0
 11
58.499999999999972
 21
7.288100997765266
 31
0.0
  0
LINE
  5
115
  8
PATTERN_FILL
  6
CONTINUOUS
 62
     7
 10
66.499999999999972
 20
7.288100997765266
 30
0.0
 11
86.499999999999957
 21
7.288100997765266
 31
0.0
  0
LINE
  5
116
  8
PATTERN_FILL
  6
CONTINUOUS
 62
     7
 10
38.5
 20
8.7881009977652695
 30
0.0
 11
58.499999999999972
 21
8.7881009977652695
 31
0.0
  0
LINE
  5
117
  8
PATTERN_FILL
  6
CONTINUOUS
 62
     7
 10
66.499999999999972
 20
8.7881009977652695
 30
0.0
 11
86.499999999999957
 21
8.7881009977652695
 31
0.0
  0
LINE
  5
118
  8
PATTERN_FILL
  6
CONTINUOUS
 62
     7
 10
38.5
 20
10.28810099776527
 30
0.0
 11
58.499999999999972
 21
10.28810099776527
 31
0.0
  0
LINE
  5
119
  8
PATTERN_FILL
  6
CONTINUOUS
 62
     7
 10
66.499999999999972
 20
10.28810099776527
 30
0.0
 11
86.499999999999957
 21
10.28810099776527
 31
0.0
  0
LINE
  5
11A
  8
PATTERN_FILL
  6
CONTINUOUS
 62
     7
 10
38.5
 20
11.78810099776527
 30
0.0
 11
58.499999999999972
 21
11.78810099776527
 31
0.0
  0
LINE
  5
11B
  8
PATTERN_FILL
  6
CONTINUOUS
 62
     7
 10
66.499999999999972
 20
11.78810099776527
 30
0.0
 11
86.499999999999957
 21
11.78810099776527
 31
0.0
  0
LINE
  5
11C
  8
PATTERN_FILL
  6
CONTINUOUS
 62
     7
 10
38.5
 20
13.28810099776527
 30
0.0
 11
58.499999999999972
 21
13.28810099776527
 31
0.0
  0
LINE
  5
11D
  8
PATTERN_FILL
  6
CONTINUOUS
 62
     7
 10
66.499999999999972
 20
13.28810099776527
 30
0.0
 11
86.499999999999957
 21
13.28810099776527
 31
0.0
  0
LINE
  5
11E
  8
PATTERN_FILL
  6
CONTINUOUS
 62
     7
 10
39.999999999999957
 20
-43.5
 30
0.0
 11
39.999999999999957
 21
14.5
 31
0.0
  0
LINE
  5
11F
  8
PATTERN_FILL
  6
CONTINUOUS
 62
     7
 10
41.499999999999957
 20
-43.5
 30
0.0
 11
41.499999999999957
 21
14.5
 31
0.0
  0
LINE
  5
120
  8
PATTERN_FILL
  6
CONTINUOUS
 62
     7
 10
42.999999999999972
 20
-43.5
 30
0.0
 11
42.999999999999972
 21
14.5
 31
0.0
  0
LINE
  5
121
  8
PATTERN_FILL
  6
CONTINUOUS
 62
     7
 10
44.499999999999972
 20
-43.5
 30
0.0
 11
44.499999999999972
 21
14.5
 31
0.0
  0
LINE
  5
122
  8
PATTERN_FILL
  6
CONTINUOUS
 62
     7
 10
45.999999999999957
 20
-43.5
 30
0.0
 11
45.999999999999957
 21
14.5
 31
0.0
  0
LINE
  5
123
  8
PATTERN_FILL
  6
CONTINUOUS
 62
     7
 10
47.499999999999972
 20
-43.5
 30
0.0
 11
47.499999999999972
 21
14.5
 31
0.0
  0
LINE
  5
124
  8
PATTERN_FILL
  6
CONTINUOUS
 62
     7
 10
48.999999999999972
 20
-43.5
 30
0.0
 11
48.999999999999972
 21
14.5
 31
0.0
  0
LINE
  5
125
  8
PATTERN_FILL
  6
CONTINUOUS
 62
     7
 10
50.499999999999972
 20
-43.5
 30
0.0
 11
50.499999999999972
 21
14.5
 31
0.0
  0
LINE
  5
126
  8
PATTERN_FILL
  6
CONTINUOUS
 62
     7
 10
51.999999999999972
 20
-43.5
 30
0.0
 11
51.999999999999972
 21
14.5
 31
0.0
  0
LINE
  5
127
  8
PATTERN_FILL
  6
CONTINUOUS
 62
     7
 10
53.499999999999972
 20
-43.5
 30
0.0
 11
53.499999999999972
 21
14.5
 31
0.0
  0
LINE
  5
128
  8
PATTERN_FILL
  6
CONTINUOUS
 62
     7
 10
54.999999999999972
 20
-43.5
 30
0.0
 11
54.999999999999972
 21
14.5
 31
0.0
  0
LINE
  5
129
  8
PATTERN_FILL
  6
CONTINUOUS
 62
     7
 10
56.499999999999972
 20
-43.5
 30
0.0
 11
56.499999999999972
 21
14.5
 31
0.0
  0
LINE
  5
12A
  8
PATTERN_FILL
  6
CONTINUOUS
 62
     7
 10
57.999999999999972
 20
-43.5
 30
0.0
 11
57.999999999999972
 21
14.366025403784439
 31
0.0
  0
LINE
  5
12B
  8
PATTERN_FILL
  6
CONTINUOUS
 62
     7
 10
66.999999999999972
 20
-43.5
 30
0.0
 11
66.999999999999972
 21
14.366025403784439
 31
0.0
  0
LINE
  5
12C
  8
PATTERN_FILL
  6
CONTINUOUS
 62
     7
 10
68.499999999999972
 20
-43.5
 30
0.0
 11
68.499999999999972
 21
14.5
 31
0.0
  0
LINE
  5
12D
  8
PATTERN_FILL
  6
CONTINUOUS
 62
     7
 10
69.999999999999972
 20
-43.5
 30
0.0
 11
69.999999999999972
 21
14.5
 31
0.0
  0
LINE
  5
12E
  8
PATTERN_FILL
  6
CONTINUOUS
 62
     7
 10
71.499999999999972
 20
-43.5
 30
0.0
 11
71.499999999999972
 21
14.5
 31
0.0
  0
LINE
  5
12F
  8
PATTERN_FILL
  6
CONTINUOUS
 62
     7
 10
72.999999999999972
 20
-43.5
 30
0.0
 11
72.999999999999972
 21
14.5
 31
0.0
  0
LINE
  5
130
  8
PATTERN_FILL
  6
CONTINUOUS
 62
     7
 10
74.499999999999972
 20
-43.5
 30
0.0
 11
74.499999999999972
 21
14.5
 31
0.0
  0
LINE
  5
131
  8
PATTERN_FILL
  6
CONTINUOUS
 62
     7
 10
75.999999999999972
 20
-43.5
 30
0.0
 11
75.999999999999972
 21
14.5
 31
0.0
  0
LINE
  5
132
  8
PATTERN_FILL
  6
CONTINUOUS
 62
     7
 10
77.499999999999972
 20
-43.5
 30
0.0
 11
77.499999999999972
 21
14.5
 31
0.0
  0
LINE
  5
133
  8
PATTERN_FILL
  6
CONTINUOUS
 62
     7
 10
78.999999999999972
 20
-43.5
 30
0.0
 11
78.999999999999972
 21
14.5
 31
0.0
  0
LINE
  5
134
  8
PATTERN_FILL
  6
CONTINUOUS
 62
     7
 10
80.499999999999972
 20
-43.5
 30
0.0
 11
80.499999999999972
 21
14.5
 31
0.0
  0
LINE
  5
135
  8
PATTERN_FILL
  6
CONTINUOUS
 62
     7
 10
81.999999999999972
 20
-43.5
 30
0.0
 11
81.999999999999972
 21
14.5
 31
0.0
  0
LINE
  5
136
  8
PATTERN_FILL
  6
CONTINUOUS
 62
     7
 10
83.499999999999972
 20
-43.5
 30
0.0
 11
83.499999999999972
 21
14.5
 31
0.0
  0
LINE
  5
137
  8
PATTERN_FILL
  6
CONTINUOUS
 62
     7
 10
84.999999999999986
 20
-43.5
 30
0.0
 11
84.999999999999986
 21
14.5
 31
0.0
  0
LINE
  5
138
  8
PATTERN_FILL
  6
CONTINUOUS
 62
     7
 10
-49.208964374846069
 20
20.5
 30
0.0
 11
-49.208964374846069
 21
21.292026779356188
 31
0.0
  0
LINE
  5
139
  8
PATTERN_FILL
  6
CONTINUOUS
 62
     7
 10
-47.708964374846083
 20
20.5
 30
0.0
 11
-47.708964374846083
 21
22.615645951679522
 31
0.0
  0
LINE
  5
13A
  8
PATTERN_FILL
  6
CONTINUOUS
 62
     7
 10
-46.208964374846062
 20
20.5
 30
0.0
 11
-46.208964374846062
 21
23.743465015046372
 31
0.0
  0
LINE
  5
13B
  8
PATTERN_FILL
  6
CONTINUOUS
 62
     7
 10
-44.708964374846069
 20
20.5
 30
0.0
 11
-44.708964374846069
 21
24.70660284870339
 31
0.0
  0
LINE
  5
13C
  8
PATTERN_FILL
  6
CONTINUOUS
 62
     7
 10
-43.208964374846069
 20
20.5
 30
0.0
 11
-43.208964374846069
 21
25.526577175038099
 31
0.0
  0
LINE
  5
13D
  8
PATTERN_FILL
  6
CONTINUOUS
 62
     7
 10
-41.708964374846062
 20
20.5
 30
0.0
 11
-41.708964374846062
 21
26.218828146500449
 31
0.0
  0
LINE
  5
13E
  8
PATTERN_FILL
  6
CONTINUOUS
 62
     7
 10
-40.208964374846083
 20
20.5
 30
0.0
 11
-40.208964374846083
 21
26.794697668812361
 31
0.0
  0
LINE
  5
13F
  8
PATTERN_FILL
  6
CONTINUOUS
 62
     7
 10
-38.708964374846083
 20
20.5
 30
0.0
 11
-38.708964374846083
 21
27.26261384795087
 31
0.0
  0
LINE
  5
140
  8
PATTERN_FILL
  6
CONTINUOUS
 62
     7
 10
-37.208964374846083
 20
20.5
 30
0.0
 11
-37.208964374846083
 21
27.628832594685321
 31
0.0
  0
LINE
  5
141
  8
PATTERN_FILL
  6
CONTINUOUS
 62
     7
 10
-35.708964374846083
 20
20.5
 30
0.0
 11
-35.708964374846083
 21
27.89791558264481
 31
0.0
  0
LINE
  5
142
  8
PATTERN_FILL
  6
CONTINUOUS
 62
     7
 10
-34.208964374846083
 20
20.5
 30
0.0
 11
-34.208964374846083
 21
28.04146235477943
 31
0.0
  0
LINE
  5
143
  8
PATTERN_FILL
  6
CONTINUOUS
 62
     7
 10
-32.70896437484609
 20
20.5
 30
0.0
 11
-32.70896437484609
 21
28.116151151459931
 31
0.0
  0
LINE
  5
144
  8
PATTERN_FILL
  6
CONTINUOUS
 62
     7
 10
-31.20896437484609
 20
20.5
 30
0.0
 11
-31.20896437484609
 21
28.190839948140429
 31
0.0
  0
LINE
  5
145
  8
PATTERN_FILL
  6
CONTINUOUS
 62
     7
 10
-29.70896437484609
 20
20.5
 30
0.0
 11
-29.70896437484609
 21
28.26552874482093
 31
0.0
  0
LINE
  5
146
  8
PATTERN_FILL
  6
CONTINUOUS
 62
     7
 10
-28.20896437484609
 20
20.5
 30
0.0
 11
-28.20896437484609
 21
28.340217541501431
 31
0.0
  0
LINE
  5
147
  8
PATTERN_FILL
  6
CONTINUOUS
 62
     7
 10
-26.70896437484609
 20
20.5
 30
0.0
 11
-26.70896437484609
 21
28.41490633818194
 31
0.0
  0
LINE
  5
148
  8
PATTERN_FILL
  6
CONTINUOUS
 62
     7
 10
-25.20896437484609
 20
20.5
 30
0.0
 11
-25.20896437484609
 21
28.489595134862441
 31
0.0
  0
LINE
  5
149
  8
PATTERN_FILL
  6
CONTINUOUS
 62
     7
 10
-23.70896437484609
 20
20.5
 30
0.0
 11
-23.70896437484609
 21
28.435716068457069
 31
0.0
  0
LINE
  5
14A
  8
PATTERN_FILL
  6
CONTINUOUS
 62
     7
 10
-22.20896437484609
 20
20.5
 30
0.0
 11
-22.20896437484609
 21
28.36102727177656
 31
0.0
  0
LINE
  5
14B
  8
PATTERN_FILL
  6
CONTINUOUS
 62
     7
 10
-20.70896437484609
 20
20.5
 30
0.0
 11
-20.70896437484609
 21
28.28633847509607
 31
0.0
  0
LINE
  5
14C
  8
PATTERN_FILL
  6
CONTINUOUS
 62
     7
 10
-19.20896437484609
 20
20.5
 30
0.0
 11
-19.20896437484609
 21
28.211649678415561
 31
0.0
  0
LINE
  5
14D
  8
PATTERN_FILL
  6
CONTINUOUS
 62
     7
 10
-17.70896437484609
 20
20.5
 30
0.0
 11
-17.70896437484609
 21
28.13696088173506
 31
0.0
  0
LINE
  5
14E
  8
PATTERN_FILL
  6
CONTINUOUS
 62
     7
 10
-16.208964374846079
 20
20.5
 30
0.0
 11
-16.208964374846079
 21
28.062272085054559
 31
0.0
  0
LINE
  5
14F
  8
PATTERN_FILL
  6
CONTINUOUS
 62
     7
 10
-14.70896437484609
 20
20.5
 30
0.0
 11
-14.70896437484609
 21
27.956045250158471
 31
0.0
  0
LINE
  5
150
  8
PATTERN_FILL
  6
CONTINUOUS
 62
     7
 10
-13.20896437484609
 20
20.5
 30
0.0
 11
-13.20896437484609
 21
27.71340634628605
 31
0.0
  0
LINE
  5
151
  8
PATTERN_FILL
  6
CONTINUOUS
 62
     7
 10
-11.708964374846079
 20
20.5
 30
0.0
 11
-11.708964374846079
 21
27.374646033705108
 31
0.0
  0
LINE
  5
152
  8
PATTERN_FILL
  6
CONTINUOUS
 62
     7
 10
-10.208964374846079
 20
20.5
 30
0.0
 11
-10.208964374846079
 21
26.935613693592611
 31
0.0
  0
LINE
  5
153
  8
PATTERN_FILL
  6
CONTINUOUS
 62
     7
 10
-8.7089643748460812
 20
20.5
 30
0.0
 11
-8.7089643748460812
 21
26.39056502156614
 31
0.0
  0
LINE
  5
154
  8
PATTERN_FILL
  6
CONTINUOUS
 62
     7
 10
-7.2089643748460812
 20
20.5
 30
0.0
 11
-7.2089643748460812
 21
25.731737968475802
 31
0.0
  0
LINE
  5
155
  8
PATTERN_FILL
  6
CONTINUOUS
 62
     7
 10
-5.7089643748460812
 20
20.5
 30
0.0
 11
-5.7089643748460812
 21
24.948698002719901
 31
0.0
  0
LINE
  5
156
  8
PATTERN_FILL
  6
CONTINUOUS
 62
     7
 10
-4.2089643748460812
 20
20.5
 30
0.0
 11
-4.2089643748460812
 21
24.027302519116748
 31
0.0
  0
LINE
  5
157
  8
PATTERN_FILL
  6
CONTINUOUS
 62
     7
 10
-2.7089643748460821
 20
20.5
 30
0.0
 11
-2.7089643748460821
 21
22.94799480381457
 31
0.0
  0
LINE
  5
158
  8
PATTERN_FILL
  6
CONTINUOUS
 62
     7
 10
-1.2089643748460821
 20
20.5
 30
0.0
 11
-1.2089643748460821
 21
21.6828261208851
 31
0.0
  0
LINE
  5
159
  8
PATTERN_FILL
  6
CONTINUOUS
 62
     7
 10
-48.582378518805463
 20
21.87130529026896
 30
0.0
 11
-1.4176214811945791
 21
21.87130529026896
 31
0.0
  0
LINE
  5
15A
  8
PATTERN_FILL
  6
CONTINUOUS
 62
     7
 10
-46.730552653376598
 20
23.37130529026896
 30
0.0
 11
-3.2694473466234211
 21
23.37130529026896
 31
0.0
  0
LINE
  5
15B
  8
PATTERN_FILL
  6
CONTINUOUS
 62
     7
 10
-44.426694815335757
 20
24.87130529026896
 30
0.0
 11
-5.5733051846642852
 21
24.87130529026896
 31
0.0
  0
LINE
  5
15C
  8
PATTERN_FILL
  6
CONTINUOUS
 62
     7
 10
-41.33900383231785
 20
26.37130529026896
 30
0.0
 11
-8.6609961676821499
 21
26.37130529026896
 31
0.0
  0
LINE
  5
15D
  8
PATTERN_FILL
  6
CONTINUOUS
 62
     7
 10
-35.88466296259854
 20
27.87130529026896
 30
0.0
 11
-14.115337037401501
 21
27.87130529026896
 31
0.0
  0
LINE
  5
15E
  8
PATTERN_FILL
  6
CONTINUOUS
 62
     7
 10
38.291035625153917
 20
20.5
 30
0.0
 11
38.291035625153917
 21
21.292026779356188
 31
0.0
  0
LINE
  5
15F
  8
PATTERN_FILL
  6
CONTINUOUS
 62
     7
 10
39.791035625153903
 20
20.5
 30
0.0
 11
39.791035625153903
 21
22.615645951679522
 31
0.0
  0
LINE
  5
160
  8
PATTERN_FILL
  6
CONTINUOUS
 62
     7
 10
41.291035625153903
 20
20.5
 30
0.0
 11
41.291035625153903
 21
23.743465015046372
 31
0.0
  0
LINE
  5
161
  8
PATTERN_FILL
  6
CONTINUOUS
 62
     7
 10
42.791035625153903
 20
20.5
 30
0.0
 11
42.791035625153903
 21
24.70660284870339
 31
0.0
  0
LINE
  5
162
  8
PATTERN_FILL
  6
CONTINUOUS
 62
     7
 10
44.291035625153903
 20
20.5
 30
0.0
 11
44.291035625153903
 21
25.526577175038099
 31
0.0
  0
LINE
  5
163
  8
PATTERN_FILL
  6
CONTINUOUS
 62
     7
 10
45.791035625153889
 20
20.5
 30
0.0
 11
45.791035625153889
 21
26.218828146500449
 31
0.0
  0
LINE
  5
164
  8
PATTERN_FILL
  6
CONTINUOUS
 62
     7
 10
47.291035625153903
 20
20.5
 30
0.0
 11
47.291035625153903
 21
26.794697668812361
 31
0.0
  0
LINE
  5
165
  8
PATTERN_FILL
  6
CONTINUOUS
 62
     7
 10
48.791035625153889
 20
20.5
 30
0.0
 11
48.791035625153889
 21
27.26261384795087
 31
0.0
  0
LINE
  5
166
  8
PATTERN_FILL
  6
CONTINUOUS
 62
     7
 10
50.291035625153889
 20
20.5
 30
0.0
 11
50.291035625153889
 21
27.628832594685321
 31
0.0
  0
LINE
  5
167
  8
PATTERN_FILL
  6
CONTINUOUS
 62
     7
 10
51.791035625153903
 20
20.5
 30
0.0
 11
51.791035625153903
 21
27.89791558264481
 31
0.0
  0
LINE
  5
168
  8
PATTERN_FILL
  6
CONTINUOUS
 62
     7
 10
53.291035625153889
 20
20.5
 30
0.0
 11
53.291035625153889
 21
28.04146235477943
 31
0.0
  0
LINE
  5
169
  8
PATTERN_FILL
  6
CONTINUOUS
 62
     7
 10
54.791035625153903
 20
20.5
 30
0.0
 11
54.791035625153903
 21
28.116151151459931
 31
0.0
  0
LINE
  5
16A
  8
PATTERN_FILL
  6
CONTINUOUS
 62
     7
 10
56.291035625153889
 20
20.5
 30
0.0
 11
56.291035625153889
 21
28.190839948140429
 31
0.0
  0
LINE
  5
16B
  8
PATTERN_FILL
  6
CONTINUOUS
 62
     7
 10
57.791035625153889
 20
20.5
 30
0.0
 11
57.791035625153889
 21
28.26552874482093
 31
0.0
  0
LINE
  5
16C
  8
PATTERN_FILL
  6
CONTINUOUS
 62
     7
 10
59.291035625153903
 20
20.5
 30
0.0
 11
59.291035625153903
 21
28.340217541501431
 31
0.0
  0
LINE
  5
16D
  8
PATTERN_FILL
  6
CONTINUOUS
 62
     7
 10
60.791035625153889
 20
20.5
 30
0.0
 11
60.791035625153889
 21
28.41490633818194
 31
0.0
  0
LINE
  5
16E
  8
PATTERN_FILL
  6
CONTINUOUS
 62
     7
 10
62.291035625153903
 20
20.5
 30
0.0
 11
62.291035625153903
 21
28.489595134862441
 31
0.0
  0
LINE
  5
16F
  8
PATTERN_FILL
  6
CONTINUOUS
 62
     7
 10
63.791035625153889
 20
20.5
 30
0.0
 11
63.791035625153889
 21
28.435716068457069
 31
0.0
  0
LINE
  5
170
  8
PATTERN_FILL
  6
CONTINUOUS
 62
     7
 10
65.29103562515391
 20
20.5
 30
0.0
 11
65.29103562515391
 21
28.36102727177656
 31
0.0
  0
LINE
  5
171
  8
PATTERN_FILL
  6
CONTINUOUS
 62
     7
 10
66.79103562515391
 20
20.5
 30
0.0
 11
66.79103562515391
 21
28.28633847509607
 31
0.0
  0
LINE
  5
172
  8
PATTERN_FILL
  6
CONTINUOUS
 62
     7
 10
68.29103562515391
 20
20.5
 30
0.0
 11
68.29103562515391
 21
28.211649678415561
 31
0.0
  0
LINE
  5
173
  8
PATTERN_FILL
  6
CONTINUOUS
 62
     7
 10
69.791035625153896
 20
20.5
 30
0.0
 11
69.791035625153896
 21
28.13696088173506
 31
0.0
  0
LINE
  5
174
  8
PATTERN_FILL
  6
CONTINUOUS
 62
     7
 10
71.29103562515391
 20
20.5
 30
0.0
 11
71.29103562515391
 21
28.062272085054559
 31
0.0
  0
LINE
  5
175
  8
PATTERN_FILL
  6
CONTINUOUS
 62
     7
 10
72.79103562515391
 20
20.5
 30
0.0
 11
72.79103562515391
 21
27.956045250158471
 31
0.0
  0
LINE
  5
176
  8
PATTERN_FILL
  6
CONTINUOUS
 62
     7
 10
74.29103562515391
 20
20.5
 30
0.0
 11
74.29103562515391
 21
27.71340634628605
 31
0.0
  0
LINE
  5
177
  8
PATTERN_FILL
  6
CONTINUOUS
 62
     7
 10
75.79103562515391
 20
20.5
 30
0.0
 11
75.79103562515391
 21
27.374646033705108
 31
0.0
  0
LINE
  5
178
  8
PATTERN_FILL
  6
CONTINUOUS
 62
     7
 10
77.291035625153896
 20
20.5
 30
0.0
 11
77.291035625153896
 21
26.935613693592611
 31
0.0
  0
LINE
  5
179
  8
PATTERN_FILL
  6
CONTINUOUS
 62
     7
 10
78.79103562515391
 20
20.5
 30
0.0
 11
78.79103562515391
 21
26.39056502156614
 31
0.0
  0
LINE
  5
17A
  8
PATTERN_FILL
  6
CONTINUOUS
 62
     7
 10
80.29103562515391
 20
20.5
 30
0.0
 11
80.29103562515391
 21
25.731737968475802
 31
0.0
  0
LINE
  5
17B
  8
PATTERN_FILL
  6
CONTINUOUS
 62
     7
 10
81.791035625153924
 20
20.5
 30
0.0
 11
81.791035625153924
 21
24.948698002719901
 31
0.0
  0
LINE
  5
17C
  8
PATTERN_FILL
  6
CONTINUOUS
 62
     7
 10
83.291035625153896
 20
20.5
 30
0.0
 11
83.291035625153896
 21
24.027302519116748
 31
0.0
  0
LINE
  5
17D
  8
PATTERN_FILL
  6
CONTINUOUS
 62
     7
 10
84.791035625153896
 20
20.5
 30
0.0
 11
84.791035625153896
 21
22.94799480381457
 31
0.0
  0
LINE
  5
17E
  8
PATTERN_FILL
  6
CONTINUOUS
 62
     7
 10
86.29103562515391
 20
20.5
 30
0.0
 11
86.29103562515391
 21
21.6828261208851
 31
0.0
  0
LINE
  5
17F
  8
PATTERN_FILL
  6
CONTINUOUS
 62
     7
 10
38.91762148119453
 20
21.87130529026896
 30
0.0
 11
86.082378518805427
 21
21.87130529026896
 31
0.0
  0
LINE
  5
180
  8
PATTERN_FILL
  6
CONTINUOUS
 62
     7
 10
40.76944734662338
 20
23.37130529026896
 30
0.0
 11
84.230552653376563
 21
23.37130529026896
 31
0.0
  0
LINE
  5
181
  8
PATTERN_FILL
  6
CONTINUOUS
 62
     7
 10
43.073305184664243
 20
24.87130529026896
 30
0.0
 11
81.926694815335694
 21
24.87130529026896
 31
0.0
  0
LINE
  5
182
  8
PATTERN_FILL
  6
CONTINUOUS
 62
     7
 10
46.160996167682129
 20
26.37130529026896
 30
0.0
 11
78.839003832317843
 21
26.37130529026896
 31
0.0
  0
LINE
  5
183
  8
PATTERN_FILL
  6
CONTINUOUS
 62
     7
 10
51.61533703740146
 20
27.87130529026896
 30
0.0
 11
73.384662962598483
 21
27.87130529026896
 31
0.0
  0
LINE
  5
184
  8
PATTERN_FILL
  6
CONTINUOUS
 62
     7
 10
-136.5
 20
-42.211899002234709
 30
0.0
 11
-116.5
 21
-42.211899002234709
 31
0.0
  0
LINE
  5
185
  8
PATTERN_FILL
  6
CONTINUOUS
 62
     7
 10
-108.5
 20
-42.211899002234709
 30
0.0
 11
-88.500000000000043
 21
-42.211899002234709
 31
0.0
  0
LINE
  5
186
  8
PATTERN_FILL
  6
CONTINUOUS
 62
     7
 10
-136.5
 20
-40.711899002234723
 30
0.0
 11
-116.5
 21
-40.711899002234723
 31
0.0
  0
LINE
  5
187
  8
PATTERN_FILL
  6
CONTINUOUS
 62
     7
 10
-108.5
 20
-40.711899002234723
 30
0.0
 11
-88.500000000000043
 21
-40.711899002234723
 31
0.0
  0
LINE
  5
188
  8
PATTERN_FILL
  6
CONTINUOUS
 62
     7
 10
-136.5
 20
-39.21189900223473
 30
0.0
 11
-116.5
 21
-39.21189900223473
 31
0.0
  0
LINE
  5
189
  8
PATTERN_FILL
  6
CONTINUOUS
 62
     7
 10
-108.5
 20
-39.21189900223473
 30
0.0
 11
-88.500000000000043
 21
-39.21189900223473
 31
0.0
  0
LINE
  5
18A
  8
PATTERN_FILL
  6
CONTINUOUS
 62
     7
 10
-136.5
 20
-37.711899002234723
 30
0.0
 11
-116.5
 21
-37.711899002234723
 31
0.0
  0
LINE
  5
18B
  8
PATTERN_FILL
  6
CONTINUOUS
 62
     7
 10
-108.5
 20
-37.711899002234723
 30
0.0
 11
-88.500000000000043
 21
-37.711899002234723
 31
0.0
  0
LINE
  5
18C
  8
PATTERN_FILL
  6
CONTINUOUS
 62
     7
 10
-136.5
 20
-36.211899002234723
 30
0.0
 11
-116.5
 21
-36.211899002234723
 31
0.0
  0
LINE
  5
18D
  8
PATTERN_FILL
  6
CONTINUOUS
 62
     7
 10
-108.5
 20
-36.211899002234723
 30
0.0
 11
-88.500000000000043
 21
-36.211899002234723
 31
0.0
  0
LINE
  5
18E
  8
PATTERN_FILL
  6
CONTINUOUS
 62
     7
 10
-136.5
 20
-34.71189900223473
 30
0.0
 11
-116.5
 21
-34.71189900223473
 31
0.0
  0
LINE
  5
18F
  8
PATTERN_FILL
  6
CONTINUOUS
 62
     7
 10
-108.5
 20
-34.71189900223473
 30
0.0
 11
-88.500000000000043
 21
-34.71189900223473
 31
0.0
  0
LINE
  5
190
  8
PATTERN_FILL
  6
CONTINUOUS
 62
     7
 10
-136.5
 20
-33.21189900223473
 30
0.0
 11
-116.5
 21
-33.21189900223473
 31
0.0
  0
LINE
  5
191
  8
PATTERN_FILL
  6
CONTINUOUS
 62
     7
 10
-108.5
 20
-33.21189900223473
 30
0.0
 11
-88.500000000000043
 21
-33.21189900223473
 31
0.0
  0
LINE
  5
192
  8
PATTERN_FILL
  6
CONTINUOUS
 62
     7
 10
-136.5
 20
-31.71189900223473
 30
0.0
 11
-116.5
 21
-31.71189900223473
 31
0.0
  0
LINE
  5
193
  8
PATTERN_FILL
  6
CONTINUOUS
 62
     7
 10
-108.5
 20
-31.71189900223473
 30
0.0
 11
-88.500000000000043
 21
-31.71189900223473
 31
0.0
  0
LINE
  5
194
  8
PATTERN_FILL
  6
CONTINUOUS
 62
     7
 10
-136.5
 20
-30.21189900223473
 30
0.0
 11
-116.5
 21
-30.21189900223473
 31
0.0
  0
LINE
  5
195
  8
PATTERN_FILL
  6
CONTINUOUS
 62
     7
 10
-108.5
 20
-30.21189900223473
 30
0.0
 11
-88.500000000000043
 21
-30.21189900223473
 31
0.0
  0
LINE
  5
196
  8
PATTERN_FILL
  6
CONTINUOUS
 62
     7
 10
-136.5
 20
-28.71189900223473
 30
0.0
 11
-116.5
 21
-28.71189900223473
 31
0.0
  0
LINE
  5
197
  8
PATTERN_FILL
  6
CONTINUOUS
 62
     7
 10
-108.5
 20
-28.71189900223473
 30
0.0
 11
-88.500000000000043
 21
-28.71189900223473
 31
0.0
  0
LINE
  5
198
  8
PATTERN_FILL
  6
CONTINUOUS
 62
     7
 10
-136.5
 20
-27.21189900223473
 30
0.0
 11
-116.5
 21
-27.21189900223473
 31
0.0
  0
LINE
  5
199
  8
PATTERN_FILL
  6
CONTINUOUS
 62
     7
 10
-108.5
 20
-27.21189900223473
 30
0.0
 11
-88.500000000000043
 21
-27.21189900223473
 31
0.0
  0
LINE
  5
19A
  8
PATTERN_FILL
  6
CONTINUOUS
 62
     7
 10
-136.5
 20
-25.71189900223473
 30
0.0
 11
-116.5
 21
-25.71189900223473
 31
0.0
  0
LINE
  5
19B
  8
PATTERN_FILL
  6
CONTINUOUS
 62
     7
 10
-108.5
 20
-25.71189900223473
 30
0.0
 11
-88.500000000000043
 21
-25.71189900223473
 31
0.0
  0
LINE
  5
19C
  8
PATTERN_FILL
  6
CONTINUOUS
 62
     7
 10
-136.5
 20
-24.21189900223473
 30
0.0
 11
-116.5
 21
-24.21189900223473
 31
0.0
  0
LINE
  5
19D
  8
PATTERN_FILL
  6
CONTINUOUS
 62
     7
 10
-108.5
 20
-24.21189900223473
 30
0.0
 11
-88.500000000000043
 21
-24.21189900223473
 31
0.0
  0
LINE
  5
19E
  8
PATTERN_FILL
  6
CONTINUOUS
 62
     7
 10
-136.5
 20
-22.71189900223473
 30
0.0
 11
-116.5
 21
-22.71189900223473
 31
0.0
  0
LINE
  5
19F
  8
PATTERN_FILL
  6
CONTINUOUS
 62
     7
 10
-108.5
 20
-22.71189900223473
 30
0.0
 11
-88.500000000000043
 21
-22.71189900223473
 31
0.0
  0
LINE
  5
1A0
  8
PATTERN_FILL
  6
CONTINUOUS
 62
     7
 10
-136.5
 20
-21.21189900223473
 30
0.0
 11
-116.5
 21
-21.21189900223473
 31
0.0
  0
LINE
  5
1A1
  8
PATTERN_FILL
  6
CONTINUOUS
 62
     7
 10
-108.5
 20
-21.21189900223473
 30
0.0
 11
-88.500000000000043
 21
-21.21189900223473
 31
0.0
  0
LINE
  5
1A2
  8
PATTERN_FILL
  6
CONTINUOUS
 62
     7
 10
-136.5
 20
-19.71189900223473
 30
0.0
 11
-116.5
 21
-19.71189900223473
 31
0.0
  0
LINE
  5
1A3
  8
PATTERN_FILL
  6
CONTINUOUS
 62
     7
 10
-108.5
 20
-19.71189900223473
 30
0.0
 11
-88.500000000000043
 21
-19.71189900223473
 31
0.0
  0
LINE
  5
1A4
  8
PATTERN_FILL
  6
CONTINUOUS
 62
     7
 10
-136.5
 20
-18.21189900223473
 30
0.0
 11
-116.5
 21
-18.21189900223473
 31
0.0
  0
LINE
  5
1A5
  8
PATTERN_FILL
  6
CONTINUOUS
 62
     7
 10
-108.5
 20
-18.21189900223473
 30
0.0
 11
-88.500000000000043
 21
-18.21189900223473
 31
0.0
  0
LINE
  5
1A6
  8
PATTERN_FILL
  6
CONTINUOUS
 62
     7
 10
-136.5
 20
-16.71189900223473
 30
0.0
 11
-116.5
 21
-16.71189900223473
 31
0.0
  0
LINE
  5
1A7
  8
PATTERN_FILL
  6
CONTINUOUS
 62
     7
 10
-108.5
 20
-16.71189900223473
 30
0.0
 11
-88.500000000000043
 21
-16.71189900223473
 31
0.0
  0
LINE
  5
1A8
  8
PATTERN_FILL
  6
CONTINUOUS
 62
     7
 10
-136.5
 20
-15.21189900223473
 30
0.0
 11
-116.5
 21
-15.21189900223473
 31
0.0
  0
LINE
  5
1A9
  8
PATTERN_FILL
  6
CONTINUOUS
 62
     7
 10
-108.5
 20
-15.21189900223473
 30
0.0
 11
-88.500000000000043
 21
-15.21189900223473
 31
0.0
  0
LINE
  5
1AA
  8
PATTERN_FILL
  6
CONTINUOUS
 62
     7
 10
-136.5
 20
-13.71189900223473
 30
0.0
 11
-116.5
 21
-13.71189900223473
 31
0.0
  0
LINE
  5
1AB
  8
PATTERN_FILL
  6
CONTINUOUS
 62
     7
 10
-108.5
 20
-13.71189900223473
 30
0.0
 11
-88.500000000000043
 21
-13.71189900223473
 31
0.0
  0
LINE
  5
1AC
  8
PATTERN_FILL
  6
CONTINUOUS
 62
     7
 10
-136.5
 20
-12.21189900223473
 30
0.0
 11
-116.5
 21
-12.21189900223473
 31
0.0
  0
LINE
  5
1AD
  8
PATTERN_FILL
  6
CONTINUOUS
 62
     7
 10
-108.5
 20
-12.21189900223473
 30
0.0
 11
-88.500000000000043
 21
-12.21189900223473
 31
0.0
  0
LINE
  5
1AE
  8
PATTERN_FILL
  6
CONTINUOUS
 62
     7
 10
-136.5
 20
-10.71189900223473
 30
0.0
 11
-116.5
 21
-10.71189900223473
 31
0.0
  0
LINE
  5
1AF
  8
PATTERN_FILL
  6
CONTINUOUS
 62
     7
 10
-108.5
 20
-10.71189900223473
 30
0.0
 11
-88.500000000000043
 21
-10.71189900223473
 31
0.0
  0
LINE
  5
1B0
  8
PATTERN_FILL
  6
CONTINUOUS
 62
     7
 10
-136.5
 20
-9.2118990022347305
 30
0.0
 11
-116.5
 21
-9.2118990022347305
 31
0.0
  0
LINE
  5
1B1
  8
PATTERN_FILL
  6
CONTINUOUS
 62
     7
 10
-108.5
 20
-9.2118990022347305
 30
0.0
 11
-88.500000000000043
 21
-9.2118990022347305
 31
0.0
  0
LINE
  5
1B2
  8
PATTERN_FILL
  6
CONTINUOUS
 62
     7
 10
-136.5
 20
-7.7118990022347269
 30
0.0
 11
-116.5
 21
-7.7118990022347269
 31
0.0
  0
LINE
  5
1B3
  8
PATTERN_FILL
  6
CONTINUOUS
 62
     7
 10
-108.5
 20
-7.7118990022347269
 30
0.0
 11
-88.500000000000043
 21
-7.7118990022347269
 31
0.0
  0
LINE
  5
1B4
  8
PATTERN_FILL
  6
CONTINUOUS
 62
     7
 10
-136.5
 20
-6.2118990022347287
 30
0.0
 11
-116.5
 21
-6.2118990022347287
 31
0.0
  0
LINE
  5
1B5
  8
PATTERN_FILL
  6
CONTINUOUS
 62
     7
 10
-108.5
 20
-6.2118990022347287
 30
0.0
 11
-88.500000000000043
 21
-6.2118990022347287
 31
0.0
  0
LINE
  5
1B6
  8
PATTERN_FILL
  6
CONTINUOUS
 62
     7
 10
-136.5
 20
-4.7118990022347287
 30
0.0
 11
-116.5
 21
-4.7118990022347287
 31
0.0
  0
LINE
  5
1B7
  8
PATTERN_FILL
  6
CONTINUOUS
 62
     7
 10
-108.5
 20
-4.7118990022347287
 30
0.0
 11
-88.500000000000043
 21
-4.7118990022347287
 31
0.0
  0
LINE
  5
1B8
  8
PATTERN_FILL
  6
CONTINUOUS
 62
     7
 10
-136.5
 20
-3.21189900223473
 30
0.0
 11
-116.5
 21
-3.21189900223473
 31
0.0
  0
LINE
  5
1B9
  8
PATTERN_FILL
  6
CONTINUOUS
 62
     7
 10
-108.5
 20
-3.21189900223473
 30
0.0
 11
-88.500000000000043
 21
-3.21189900223473
 31
0.0
  0
LINE
  5
1BA
  8
PATTERN_FILL
  6
CONTINUOUS
 62
     7
 10
-136.5
 20
-1.71189900223473
 30
0.0
 11
-116.5
 21
-1.71189900223473
 31
0.0
  0
LINE
  5
1BB
  8
PATTERN_FILL
  6
CONTINUOUS
 62
     7
 10
-108.5
 20
-1.71189900223473
 30
0.0
 11
-88.500000000000043
 21
-1.71189900223473
 31
0.0
  0
LINE
  5
1BC
  8
PATTERN_FILL
  6
CONTINUOUS
 62
     7
 10
-136.5
 20
-0.2118990022347305
 30
0.0
 11
-116.5
 21
-0.2118990022347305
 31
0.0
  0
LINE
  5
1BD
  8
PATTERN_FILL
  6
CONTINUOUS
 62
     7
 10
-108.5
 20
-0.2118990022347305
 30
0.0
 11
-88.500000000000043
 21
-0.2118990022347305
 31
0.0
  0
LINE
  5
1BE
  8
PATTERN_FILL
  6
CONTINUOUS
 62
     7
 10
-136.5
 20
1.2881009977652691
 30
0.0
 11
-116.5
 21
1.2881009977652691
 31
0.0
  0
LINE
  5
1BF
  8
PATTERN_FILL
  6
CONTINUOUS
 62
     7
 10
-108.5
 20
1.2881009977652691
 30
0.0
 11
-88.500000000000043
 21
1.2881009977652691
 31
0.0
  0
LINE
  5
1C0
  8
PATTERN_FILL
  6
CONTINUOUS
 62
     7
 10
-136.5
 20
2.7881009977652682
 30
0.0
 11
-116.5
 21
2.7881009977652682
 31
0.0
  0
LINE
  5
1C1
  8
PATTERN_FILL
  6
CONTINUOUS
 62
     7
 10
-108.5
 20
2.7881009977652682
 30
0.0
 11
-88.500000000000043
 21
2.7881009977652682
 31
0.0
  0
LINE
  5
1C2
  8
PATTERN_FILL
  6
CONTINUOUS
 62
     7
 10
-136.5
 20
4.2881009977652678
 30
0.0
 11
-116.5
 21
4.2881009977652678
 31
0.0
  0
LINE
  5
1C3
  8
PATTERN_FILL
  6
CONTINUOUS
 62
     7
 10
-108.5
 20
4.2881009977652678
 30
0.0
 11
-88.500000000000043
 21
4.2881009977652678
 31
0.0
  0
LINE
  5
1C4
  8
PATTERN_FILL
  6
CONTINUOUS
 62
     7
 10
-136.5
 20
5.7881009977652678
 30
0.0
 11
-116.5
 21
5.7881009977652678
 31
0.0
  0
LINE
  5
1C5
  8
PATTERN_FILL
  6
CONTINUOUS
 62
     7
 10
-108.5
 20
5.7881009977652678
 30
0.0
 11
-88.500000000000043
 21
5.7881009977652678
 31
0.0
  0
LINE
  5
1C6
  8
PATTERN_FILL
  6
CONTINUOUS
 62
     7
 10
-136.5
 20
7.288100997765266
 30
0.0
 11
-116.5
 21
7.288100997765266
 31
0.0
  0
LINE
  5
1C7
  8
PATTERN_FILL
  6
CONTINUOUS
 62
     7
 10
-108.5
 20
7.288100997765266
 30
0.0
 11
-88.500000000000043
 21
7.288100997765266
 31
0.0
  0
LINE
  5
1C8
  8
PATTERN_FILL
  6
CONTINUOUS
 62
     7
 10
-136.5
 20
8.7881009977652695
 30
0.0
 11
-116.5
 21
8.7881009977652695
 31
0.0
  0
LINE
  5
1C9
  8
PATTERN_FILL
  6
CONTINUOUS
 62
     7
 10
-108.5
 20
8.7881009977652695
 30
0.0
 11
-88.500000000000043
 21
8.7881009977652695
 31
0.0
  0
LINE
  5
1CA
  8
PATTERN_FILL
  6
CONTINUOUS
 62
     7
 10
-136.5
 20
10.28810099776527
 30
0.0
 11
-116.5
 21
10.28810099776527
 31
0.0
  0
LINE
  5
1CB
  8
PATTERN_FILL
  6
CONTINUOUS
 62
     7
 10
-108.5
 20
10.28810099776527
 30
0.0
 11
-88.500000000000043
 21
10.28810099776527
 31
0.0
  0
LINE
  5
1CC
  8
PATTERN_FILL
  6
CONTINUOUS
 62
     7
 10
-136.5
 20
11.78810099776527
 30
0.0
 11
-116.5
 21
11.78810099776527
 31
0.0
  0
LINE
  5
1CD
  8
PATTERN_FILL
  6
CONTINUOUS
 62
     7
 10
-108.5
 20
11.78810099776527
 30
0.0
 11
-88.500000000000043
 21
11.78810099776527
 31
0.0
  0
LINE
  5
1CE
  8
PATTERN_FILL
  6
CONTINUOUS
 62
     7
 10
-136.5
 20
13.28810099776527
 30
0.0
 11
-116.5
 21
13.28810099776527
 31
0.0
  0
LINE
  5
1CF
  8
PATTERN_FILL
  6
CONTINUOUS
 62
     7
 10
-108.5
 20
13.28810099776527
 30
0.0
 11
-88.500000000000043
 21
13.28810099776527
 31
0.0
  0
LINE
  5
1D0
  8
PATTERN_FILL
  6
CONTINUOUS
 62
     7
 10
-135.0
 20
-43.5
 30
0.0
 11
-135.0
 21
14.5
 31
0.0
  0
LINE
  5
1D1
  8
PATTERN_FILL
  6
CONTINUOUS
 62
     7
 10
-133.5
 20
-43.5
 30
0.0
 11
-133.5
 21
14.5
 31
0.0
  0
LINE
  5
1D2
  8
PATTERN_FILL
  6
CONTINUOUS
 62
     7
 10
-132.0
 20
-43.5
 30
0.0
 11
-132.0
 21
14.5
 31
0.0
  0
LINE
  5
1D3
  8
PATTERN_FILL
  6
CONTINUOUS
 62
     7
 10
-130.5
 20
-43.5
 30
0.0
 11
-130.5
 21
14.5
 31
0.0
  0
LINE
  5
1D4
  8
PATTERN_FILL
  6
CONTINUOUS
 62
     7
 10
-129.0
 20
-43.5
 30
0.0
 11
-129.0
 21
14.5
 31
0.0
  0
LINE
  5
1D5
  8
PATTERN_FILL
  6
CONTINUOUS
 62
     7
 10
-127.5
 20
-43.5
 30
0.0
 11
-127.5
 21
14.5
 31
0.0
  0
LINE
  5
1D6
  8
PATTERN_FILL
  6
CONTINUOUS
 62
     7
 10
-126.0
 20
-43.5
 30
0.0
 11
-126.0
 21
14.5
 31
0.0
  0
LINE
  5
1D7
  8
PATTERN_FILL
  6
CONTINUOUS
 62
     7
 10
-124.5
 20
-43.5
 30
0.0
 11
-124.5
 21
14.5
 31
0.0
  0
LINE
  5
1D8
  8
PATTERN_FILL
  6
CONTINUOUS
 62
     7
 10
-123.0
 20
-43.5
 30
0.0
 11
-123.0
 21
14.5
 31
0.0
  0
LINE
  5
1D9
  8
PATTERN_FILL
  6
CONTINUOUS
 62
     7
 10
-121.5
 20
-43.5
 30
0.0
 11
-121.5
 21
14.5
 31
0.0
  0
LINE
  5
1DA
  8
PATTERN_FILL
  6
CONTINUOUS
 62
     7
 10
-120.0
 20
-43.5
 30
0.0
 11
-120.0
 21
14.5
 31
0.0
  0
LINE
  5
1DB
  8
PATTERN_FILL
  6
CONTINUOUS
 62
     7
 10
-118.5
 20
-43.5
 30
0.0
 11
-118.5
 21
14.5
 31
0.0
  0
LINE
  5
1DC
  8
PATTERN_FILL
  6
CONTINUOUS
 62
     7
 10
-117.0
 20
-43.5
 30
0.0
 11
-117.0
 21
14.366025403784439
 31
0.0
  0
LINE
  5
1DD
  8
PATTERN_FILL
  6
CONTINUOUS
 62
     7
 10
-108.0
 20
-43.5
 30
0.0
 11
-108.0
 21
14.366025403784439
 31
0.0
  0
LINE
  5
1DE
  8
PATTERN_FILL
  6
CONTINUOUS
 62
     7
 10
-106.5
 20
-43.5
 30
0.0
 11
-106.5
 21
14.5
 31
0.0
  0
LINE
  5
1DF
  8
PATTERN_FILL
  6
CONTINUOUS
 62
     7
 10
-105.0
 20
-43.5
 30
0.0
 11
-105.0
 21
14.5
 31
0.0
  0
LINE
  5
1E0
  8
PATTERN_FILL
  6
CONTINUOUS
 62
     7
 10
-103.5
 20
-43.5
 30
0.0
 11
-103.5
 21
14.5
 31
0.0
  0
LINE
  5
1E1
  8
PATTERN_FILL
  6
CONTINUOUS
 62
     7
 10
-102.0
 20
-43.5
 30
0.0
 11
-102.0
 21
14.5
 31
0.0
  0
LINE
  5
1E2
  8
PATTERN_FILL
  6
CONTINUOUS
 62
     7
 10
-100.5
 20
-43.5
 30
0.0
 11
-100.5
 21
14.5
 31
0.0
  0
LINE
  5
1E3
  8
PATTERN_FILL
  6
CONTINUOUS
 62
     7
 10
-99.000000000000057
 20
-43.5
 30
0.0
 11
-99.000000000000057
 21
14.5
 31
0.0
  0
LINE
  5
1E4
  8
PATTERN_FILL
  6
CONTINUOUS
 62
     7
 10
-97.500000000000057
 20
-43.5
 30
0.0
 11
-97.500000000000057
 21
14.5
 31
0.0
  0
LINE
  5
1E5
  8
PATTERN_FILL
  6
CONTINUOUS
 62
     7
 10
-96.000000000000043
 20
-43.5
 30
0.0
 11
-96.000000000000043
 21
14.5
 31
0.0
  0
LINE
  5
1E6
  8
PATTERN_FILL
  6
CONTINUOUS
 62
     7
 10
-94.500000000000043
 20
-43.5
 30
0.0
 11
-94.500000000000043
 21
14.5
 31
0.0
  0
LINE
  5
1E7
  8
PATTERN_FILL
  6
CONTINUOUS
 62
     7
 10
-93.000000000000043
 20
-43.5
 30
0.0
 11
-93.000000000000043
 21
14.5
 31
0.0
  0
LINE
  5
1E8
  8
PATTERN_FILL
  6
CONTINUOUS
 62
     7
 10
-91.500000000000028
 20
-43.5
 30
0.0
 11
-91.500000000000028
 21
14.5
 31
0.0
  0
LINE
  5
1E9
  8
PATTERN_FILL
  6
CONTINUOUS
 62
     7
 10
-90.000000000000057
 20
-43.5
 30
0.0
 11
-90.000000000000057
 21
14.5
 31
0.0
  0
LINE
  5
1EA
  8
PATTERN_FILL
  6
CONTINUOUS
 62
     7
 10
-136.70896437484609
 20
20.5
 30
0.0
 11
-136.70896437484609
 21
21.292026779356188
 31
0.0
  0
LINE
  5
1EB
  8
PATTERN_FILL
  6
CONTINUOUS
 62
     7
 10
-135.20896437484609
 20
20.5
 30
0.0
 11
-135.20896437484609
 21
22.615645951679522
 31
0.0
  0
LINE
  5
1EC
  8
PATTERN_FILL
  6
CONTINUOUS
 62
     7
 10
-133.70896437484609
 20
20.5
 30
0.0
 11
-133.70896437484609
 21
23.743465015046372
 31
0.0
  0
LINE
  5
1ED
  8
PATTERN_FILL
  6
CONTINUOUS
 62
     7
 10
-132.20896437484609
 20
20.5
 30
0.0
 11
-132.20896437484609
 21
24.70660284870339
 31
0.0
  0
LINE
  5
1EE
  8
PATTERN_FILL
  6
CONTINUOUS
 62
     7
 10
-130.70896437484609
 20
20.5
 30
0.0
 11
-130.70896437484609
 21
25.526577175038099
 31
0.0
  0
LINE
  5
1EF
  8
PATTERN_FILL
  6
CONTINUOUS
 62
     7
 10
-129.20896437484609
 20
20.5
 30
0.0
 11
-129.20896437484609
 21
26.218828146500449
 31
0.0
  0
LINE
  5
1F0
  8
PATTERN_FILL
  6
CONTINUOUS
 62
     7
 10
-127.708964374846
 20
20.5
 30
0.0
 11
-127.708964374846
 21
26.794697668812361
 31
0.0
  0
LINE
  5
1F1
  8
PATTERN_FILL
  6
CONTINUOUS
 62
     7
 10
-126.208964374846
 20
20.5
 30
0.0
 11
-126.208964374846
 21
27.26261384795087
 31
0.0
  0
LINE
  5
1F2
  8
PATTERN_FILL
  6
CONTINUOUS
 62
     7
 10
-124.7089643748461
 20
20.5
 30
0.0
 11
-124.7089643748461
 21
27.628832594685321
 31
0.0
  0
LINE
  5
1F3
  8
PATTERN_FILL
  6
CONTINUOUS
 62
     7
 10
-123.208964374846
 20
20.5
 30
0.0
 11
-123.208964374846
 21
27.89791558264481
 31
0.0
  0
LINE
  5
1F4
  8
PATTERN_FILL
  6
CONTINUOUS
 62
     7
 10
-121.7089643748461
 20
20.5
 30
0.0
 11
-121.7089643748461
 21
28.04146235477943
 31
0.0
  0
LINE
  5
1F5
  8
PATTERN_FILL
  6
CONTINUOUS
 62
     7
 10
-120.208964374846
 20
20.5
 30
0.0
 11
-120.208964374846
 21
28.116151151459931
 31
0.0
  0
LINE
  5
1F6
  8
PATTERN_FILL
  6
CONTINUOUS
 62
     7
 10
-118.7089643748461
 20
20.5
 30
0.0
 11
-118.7089643748461
 21
28.190839948140429
 31
0.0
  0
LINE
  5
1F7
  8
PATTERN_FILL
  6
CONTINUOUS
 62
     7
 10
-117.208964374846
 20
20.5
 30
0.0
 11
-117.208964374846
 21
28.26552874482093
 31
0.0
  0
LINE
  5
1F8
  8
PATTERN_FILL
  6
CONTINUOUS
 62
     7
 10
-115.7089643748461
 20
20.5
 30
0.0
 11
-115.7089643748461
 21
28.340217541501431
 31
0.0
  0
LINE
  5
1F9
  8
PATTERN_FILL
  6
CONTINUOUS
 62
     7
 10
-114.2089643748461
 20
20.5
 30
0.0
 11
-114.2089643748461
 21
28.41490633818194
 31
0.0
  0
LINE
  5
1FA
  8
PATTERN_FILL
  6
CONTINUOUS
 62
     7
 10
-112.708964374846
 20
20.5
 30
0.0
 11
-112.708964374846
 21
28.489595134862441
 31
0.0
  0
LINE
  5
1FB
  8
PATTERN_FILL
  6
CONTINUOUS
 62
     7
 10
-111.2089643748461
 20
20.5
 30
0.0
 11
-111.2089643748461
 21
28.435716068457069
 31
0.0
  0
LINE
  5
1FC
  8
PATTERN_FILL
  6
CONTINUOUS
 62
     7
 10
-109.708964374846
 20
20.5
 30
0.0
 11
-109.708964374846
 21
28.36102727177656
 31
0.0
  0
LINE
  5
1FD
  8
PATTERN_FILL
  6
CONTINUOUS
 62
     7
 10
-108.2089643748461
 20
20.5
 30
0.0
 11
-108.2089643748461
 21
28.28633847509607
 31
0.0
  0
LINE
  5
1FE
  8
PATTERN_FILL
  6
CONTINUOUS
 62
     7
 10
-106.708964374846
 20
20.5
 30
0.0
 11
-106.708964374846
 21
28.211649678415561
 31
0.0
  0
LINE
  5
1FF
  8
PATTERN_FILL
  6
CONTINUOUS
 62
     7
 10
-105.2089643748461
 20
20.5
 30
0.0
 11
-105.2089643748461
 21
28.13696088173506
 31
0.0
  0
LINE
  5
200
  8
PATTERN_FILL
  6
CONTINUOUS
 62
     7
 10
-103.708964374846
 20
20.5
 30
0.0
 11
-103.708964374846
 21
28.062272085054559
 31
0.0
  0
LINE
  5
201
  8
PATTERN_FILL
  6
CONTINUOUS
 62
     7
 10
-102.2089643748461
 20
20.5
 30
0.0
 11
-102.2089643748461
 21
27.956045250158471
 31
0.0
  0
LINE
  5
202
  8
PATTERN_FILL
  6
CONTINUOUS
 62
     7
 10
-100.7089643748461
 20
20.5
 30
0.0
 11
-100.7089643748461
 21
27.71340634628605
 31
0.0
  0
LINE
  5
203
  8
PATTERN_FILL
  6
CONTINUOUS
 62
     7
 10
-99.208964374846076
 20
20.5
 30
0.0
 11
-99.208964374846076
 21
27.374646033705108
 31
0.0
  0
LINE
  5
204
  8
PATTERN_FILL
  6
CONTINUOUS
 62
     7
 10
-97.70896437484609
 20
20.5
 30
0.0
 11
-97.70896437484609
 21
26.935613693592611
 31
0.0
  0
LINE
  5
205
  8
PATTERN_FILL
  6
CONTINUOUS
 62
     7
 10
-96.208964374846076
 20
20.5
 30
0.0
 11
-96.208964374846076
 21
26.39056502156614
 31
0.0
  0
LINE
  5
206
  8
PATTERN_FILL
  6
CONTINUOUS
 62
     7
 10
-94.708964374846076
 20
20.5
 30
0.0
 11
-94.708964374846076
 21
25.731737968475802
 31
0.0
  0
LINE
  5
207
  8
PATTERN_FILL
  6
CONTINUOUS
 62
     7
 10
-93.208964374846076
 20
20.5
 30
0.0
 11
-93.208964374846076
 21
24.948698002719901
 31
0.0
  0
LINE
  5
208
  8
PATTERN_FILL
  6
CONTINUOUS
 62
     7
 10
-91.708964374846076
 20
20.5
 30
0.0
 11
-91.708964374846076
 21
24.027302519116748
 31
0.0
  0
LINE
  5
209
  8
PATTERN_FILL
  6
CONTINUOUS
 62
     7
 10
-90.208964374846076
 20
20.5
 30
0.0
 11
-90.208964374846076
 21
22.94799480381457
 31
0.0
  0
LINE
  5
20A
  8
PATTERN_FILL
  6
CONTINUOUS
 62
     7
 10
-88.708964374846062
 20
20.5
 30
0.0
 11
-88.708964374846062
 21
21.6828261208851
 31
0.0
  0
LINE
  5
20B
  8
PATTERN_FILL
  6
CONTINUOUS
 62
     7
 10
-136.08237851880551
 20
21.87130529026896
 30
0.0
 11
-88.917621481194573
 21
21.87130529026896
 31
0.0
  0
LINE
  5
20C
  8
PATTERN_FILL
  6
CONTINUOUS
 62
     7
 10
-134.23055265337661
 20
23.37130529026896
 30
0.0
 11
-90.769447346623423
 21
23.37130529026896
 31
0.0
  0
LINE
  5
20D
  8
PATTERN_FILL
  6
CONTINUOUS
 62
     7
 10
-131.92669481533571
 20
24.87130529026896
 30
0.0
 11
-93.073305184664292
 21
24.87130529026896
 31
0.0
  0
LINE
  5
20E
  8
PATTERN_FILL
  6
CONTINUOUS
 62
     7
 10
-128.83900383231779
 20
26.37130529026896
 30
0.0
 11
-96.160996167682171
 21
26.37130529026896
 31
0.0
  0
LINE
  5
20F
  8
PATTERN_FILL
  6
CONTINUOUS
 62
     7
 10
-123.3846629625986
 20
27.87130529026896
 30
0.0
 11
-101.6153370374015
 21
27.87130529026896
 31
0.0
  0
LINE
  5
210
  8
SPEC
  6
CONTINUOUS
 62
     7
 10
-164.9999999999998
 20
243.53181499999999
 30
0.0
 11
130.0
 21
243.53181499999999
 31
0.0
  0
LINE
  5
211
  8
SPEC
  6
CONTINUOUS
 62
     7
 10
-164.9999999999998
 20
236.03181499999999
 30
0.0
 11
130.0
 21
236.03181499999999
 31
0.0
  0
LINE
  5
212
  8
SPEC
  6
CONTINUOUS
 62
     7
 10
-164.9999999999998
 20
243.53181499999999
 30
0.0
 11
-164.9999999999998
 21
138.53181499999999
 31
0.0
  0
TEXT
  5
213
  8
SPEC
 62
     7
 10
-162.4999999999998
 20
246.318355
 30
0.0
 40
4.8865234375000002
  1
仕様
 41
0.7
 11
-162.4999999999998
 21
251.20487843750001
 31
0.0
 73
     3
  0
LINE
  5
214
  8
SPEC
  6
CONTINUOUS
 62
     7
 10
-99.999999999999957
 20
243.53181499999999
 30
0.0
 11
-99.999999999999957
 21
138.53181499999999
 31
0.0
  0
LINE
  5
215
  8
SPEC
  6
CONTINUOUS
 62
     7
 10
130.0
 20
243.53181499999999
 30
0.0
 11
130.0
 21
138.53181499999999
 31
0.0
  0
LINE
  5
216
  8
SPEC
  6
CONTINUOUS
 62
     7
 10
-164.9999999999998
 20
228.53181499999999
 30
0.0
 11
130.0
 21
228.53181499999999
 31
0.0
  0
LINE
  5
217
  8
SPEC
  6
CONTINUOUS
 62
     7
 10
-164.9999999999998
 20
221.03181499999999
 30
0.0
 11
130.0
 21
221.03181499999999
 31
0.0
  0
LINE
  5
218
  8
SPEC
  6
CONTINUOUS
 62
     7
 10
-164.9999999999998
 20
213.53181499999999
 30
0.0
 11
130.0
 21
213.53181499999999
 31
0.0
  0
LINE
  5
219
  8
SPEC
  6
CONTINUOUS
 62
     7
 10
-164.9999999999998
 20
206.03181499999999
 30
0.0
 11
130.0
 21
206.03181499999999
 31
0.0
  0
LINE
  5
21A
  8
SPEC
  6
CONTINUOUS
 62
     7
 10
-164.9999999999998
 20
198.53181499999999
 30
0.0
 11
130.0
 21
198.53181499999999
 31
0.0
  0
LINE
  5
21B
  8
SPEC
  6
CONTINUOUS
 62
     7
 10
-164.9999999999998
 20
191.03181499999999
 30
0.0
 11
130.0
 21
191.03181499999999
 31
0.0
  0
LINE
  5
21C
  8
SPEC
  6
CONTINUOUS
 62
     7
 10
-164.9999999999998
 20
183.53181499999999
 30
0.0
 11
130.0
 21
183.53181499999999
 31
0.0
  0
LINE
  5
21D
  8
SPEC
  6
CONTINUOUS
 62
     7
 10
-164.9999999999998
 20
176.03181499999999
 30
0.0
 11
130.0
 21
176.03181499999999
 31
0.0
  0
LINE
  5
21E
  8
SPEC
  6
CONTINUOUS
 62
     7
 10
-164.9999999999998
 20
168.53181499999999
 30
0.0
 11
130.0
 21
168.53181499999999
 31
0.0
  0
LINE
  5
21F
  8
SPEC
  6
CONTINUOUS
 62
     7
 10
-164.9999999999998
 20
161.03181499999999
 30
0.0
 11
130.0
 21
161.03181499999999
 31
0.0
  0
LINE
  5
220
  8
SPEC
  6
CONTINUOUS
 62
     7
 10
-164.9999999999998
 20
153.53181499999999
 30
0.0
 11
130.0
 21
153.53181499999999
 31
0.0
  0
LINE
  5
221
  8
SPEC
  6
CONTINUOUS
 62
     7
 10
-164.9999999999998
 20
146.03181499999999
 30
0.0
 11
130.0
 21
146.03181499999999
 31
0.0
  0
LINE
  5
222
  8
SPEC
  6
CONTINUOUS
 62
     7
 10
-164.9999999999998
 20
138.53181499999999
 30
0.0
 11
130.0
 21
138.53181499999999
 31
0.0
  0
TEXT
  5
223
  8
SPEC
 62
     7
 10
-163.19999999999999
 20
200.10765055555549
 30
0.0
 40
3.800629340277776
  1
等価雑音レベル
 41
0.7
 11
-163.19999999999999
 21
203.90827989583329
 31
0.0
 73
     3
  0
TEXT
  5
224
  8
SPEC
 62
     7
 10
-163.19999999999999
 20
237.60765055555549
 30
0.0
 40
3.800629340277776
  1
形式
 41
0.7
 11
-163.19999999999999
 21
241.40827989583329
 31
0.0
 73
     3
  0
TEXT
  5
225
  8
SPEC
 62
     7
 10
-163.19999999999999
 20
230.10765055555549
 30
0.0
 40
3.800629340277776
  1
指向特性
 41
0.7
 11
-163.19999999999999
 21
233.90827989583329
 31
0.0
 73
     3
  0
TEXT
  5
226
  8
SPEC
 62
     7
 10
-163.19999999999999
 20
222.60765055555549
 30
0.0
 40
3.800629340277776
  1
周波数特性
 41
0.7
 11
-163.19999999999999
 21
226.40827989583329
 31
0.0
 73
     3
  0
TEXT
  5
227
  8
SPEC
 62
     7
 10
-163.19999999999999
 20
140.10765055555549
 30
0.0
 40
3.800629340277776
  1
付属品
 41
0.7
 11
-163.19999999999999
 21
143.90827989583329
 31
0.0
 73
     3
  0
TEXT
  5
228
  8
SPEC
 62
     7
 10
-163.19999999999999
 20
215.10765055555549
 30
0.0
 40
3.800629340277776
  1
開回路感度
 41
0.7
 11
-163.19999999999999
 21
218.90827989583329
 31
0.0
 73
     3
  0
TEXT
  5
229
  8
SPEC
 62
     7
 10
-163.19999999999999
 20
207.60765055555549
 30
0.0
 40
3.800629340277776
  1
最大音圧レベル
 41
0.7
 11
-163.19999999999999
 21
211.40827989583329
 31
0.0
 73
     3
  0
TEXT
  5
22A
  8
SPEC
 62
     7
 10
-163.19999999999999
 20
155.10765055555549
 30
0.0
 40
3.800629340277776
  1
寸法(\U+03C6\U+00D7全長)
 41
0.7
 11
-163.19999999999999
 21
158.90827989583329
 31
0.0
 73
     3
  0
TEXT
  5
22B
  8
SPEC
 62
     7
 10
-163.19999999999999
 20
192.60765055555549
 30
0.0
 40
3.800629340277776
  1
パッド
 41
0.7
 11
-163.19999999999999
 21
196.40827989583329
 31
0.0
 73
     3
  0
TEXT
  5
22C
  8
SPEC
 62
     7
 10
-163.19999999999999
 20
185.10765055555549
 30
0.0
 40
3.800629340277776
  1
ローカットフィルター
 41
0.7
 11
-163.19999999999999
 21
188.90827989583329
 31
0.0
 73
     3
  0
TEXT
  5
22D
  8
SPEC
 62
     7
 10
-163.19999999999999
 20
177.60765055555549
 30
0.0
 40
3.800629340277776
  1
インピーダンス
 41
0.7
 11
-163.19999999999999
 21
181.40827989583329
 31
0.0
 73
     3
  0
TEXT
  5
22E
  8
SPEC
 62
     7
 10
-163.19999999999999
 20
170.10765055555549
 30
0.0
 40
3.800629340277776
  1
電源
 41
0.7
 11
-163.19999999999999
 21
173.90827989583329
 31
0.0
 73
     3
  0
TEXT
  5
22F
  8
SPEC
 62
     7
 10
-163.19999999999999
 20
162.60765055555549
 30
0.0
 40
3.800629340277776
  1
コネクター^I
 41
0.7
 11
-163.19999999999999
 21
166.40827989583329
 31
0.0
 73
     3
  0
TEXT
  5
230
  8
SPEC
 62
     7
 10
-163.19999999999999
 20
147.60765055555549
 30
0.0
 40
3.800629340277776
  1
質量
 41
0.7
 11
-163.19999999999999
 21
151.40827989583329
 31
0.0
 73
     3
  0
TEXT
  5
231
  8
SPEC
 62
     7
 10
-98.200000000000003
 20
140.10765055555549
 30
0.0
 40
3.800629340277776
  1
サスペンション付ホルダー、交換用サスペンションゴム、キャリングハードケース
 41
0.7
 11
-98.200000000000003
 21
143.90827989583329
 31
0.0
 73
     3
  0
TEXT
  5
232
  8
SPEC
 62
     7
 10
-98.200000000000003
 20
200.10765055555549
 30
0.0
 40
3.800629340277776
  1
16dB SPL(Aウェイト)
 41
0.7
 11
-98.200000000000003
 21
203.90827989583329
 31
0.0
 73
     3
  0
TEXT
  5
233
  8
SPEC
 62
     7
 10
-98.200000000000003
 20
237.60765055555549
 30
0.0
 40
3.800629340277776
  1
コンデンサー型 
 41
0.7
 11
-98.200000000000003
 21
241.40827989583329
 31
0.0
 73
     3
  0
TEXT
  5
234
  8
SPEC
 62
     7
 10
-98.200000000000003
 20
230.10765055555549
 30
0.0
 40
3.800629340277776
  1
カーディオイド
 41
0.7
 11
-98.200000000000003
 21
233.90827989583329
 31
0.0
 73
     3
  0
TEXT
  5
235
  8
SPEC
 62
     7
 10
-98.200000000000003
 20
222.60765055555549
 30
0.0
 40
3.800629340277776
  1
20Hz～20kHz
 41
0.7
 11
-98.200000000000003
 21
226.40827989583329
 31
0.0
 73
     3
  0
TEXT
  5
236
  8
SPEC
 62
     7
 10
-98.200000000000003
 20
215.10765055555549
 30
0.0
 40
3.800629340277776
  1
-34dB re 1V/Pa
 41
0.7
 11
-98.200000000000003
 21
218.90827989583329
 31
0.0
 73
     3
  0
TEXT
  5
237
  8
SPEC
 62
     7
 10
-98.200000000000003
 20
207.60765055555549
 30
0.0
 40
3.800629340277776
  1
135dB SPL(パッドOFF、THD 0.5%%%)
 41
0.7
 11
-98.200000000000003
 21
211.40827989583329
 31
0.0
 73
     3
  0
TEXT
  5
238
  8
SPEC
 62
     7
 10
-98.200000000000003
 20
155.10765055555549
 30
0.0
 40
3.800629340277776
  1
54\U+00D7166mm(除突起部)
 41
0.7
 11
-98.200000000000003
 21
158.90827989583329
 31
0.0
 73
     3
  0
TEXT
  5
239
  8
SPEC
 62
     7
 10
-98.200000000000003
 20
192.60765055555549
 30
0.0
 40
3.800629340277776
  1
0/20dB
 41
0.7
 11
-98.200000000000003
 21
196.40827989583329
 31
0.0
 73
     3
  0
TEXT
  5
23A
  8
SPEC
 62
     7
 10
-98.200000000000003
 20
185.10765055555549
 30
0.0
 40
3.800629340277776
  1
Flat/300Hz(12dB/oct)
 41
0.7
 11
-98.200000000000003
 21
188.90827989583329
 31
0.0
 73
     3
  0
TEXT
  5
23B
  8
SPEC
 62
     7
 10
-98.200000000000003
 20
177.60765055555549
 30
0.0
 40
3.800629340277776
  1
200\U+03A9以下
 41
0.7
 11
-98.200000000000003
 21
181.40827989583329
 31
0.0
 73
     3
  0
TEXT
  5
23C
  8
SPEC
 62
     7
 10
-98.200000000000003
 20
170.10765055555549
 30
0.0
 40
3.800629340277776
  1
ファンタムDC48V/3mA以下
 41
0.7
 11
-98.200000000000003
 21
173.90827989583329
 31
0.0
 73
     3
  0
TEXT
  5
23D
  8
SPEC
 62
     7
 10
-98.200000000000003
 20
162.60765055555549
 30
0.0
 40
3.800629340277776
  1
XLR3ピン
 41
0.7
 11
-98.200000000000003
 21
166.40827989583329
 31
0.0
 73
     3
  0
TEXT
  5
23E
  8
SPEC
 62
     7
 10
-98.200000000000003
 20
147.60765055555549
 30
0.0
 40
3.800629340277776
  1
516g
 41
0.7
 11
-98.200000000000003
 21
151.40827989583329
 31
0.0
 73
     3
  0
TEXT
  5
23F
  8
DIMNSIONS
 62
     7
 10
-40.0
 20
-231.929205
 30
0.0
 40
4.8865234375000002
  1
(単位：mm)
 41
0.7
 11
-40.0
 21
-227.04268156250001
 31
0.0
 73
     3
  0
LINE
  5
240
  8
DIMNSIONS
  6
CONTINUOUS
 62
     7
 10
-38.75
 20
-137.5
 30
0.0
 11
-66.5
 21
-137.5
 31
0.0
  0
LINE
  5
241
  8
DIMNSIONS
  6
CONTINUOUS
 62
     7
 10
-29.000000000000021
 20
28.5
 30
0.0
 11
-66.5
 21
28.5
 31
0.0
  0
LINE
  5
242
  8
DIMNSIONS
  6
CONTINUOUS
 62
     7
 10
-62.5
 20
-137.5
 30
0.0
 11
-62.5
 21
28.5
 31
0.0
  0
LINE
  5
243
  8
DIMNSIONS
  6
CONTINUOUS
 62
     7
 10
-62.5
 20
-137.5
 30
0.0
 11
-63.840079590300462
 21
-132.49875488281251
 31
0.0
  0
LINE
  5
244
  8
DIMNSIONS
  6
CONTINUOUS
 62
     7
 10
-62.5
 20
-137.5
 30
0.0
 11
-61.159920409699531
 21
-132.49875488281251
 31
0.0
  0
LINE
  5
245
  8
DIMNSIONS
  6
CONTINUOUS
 62
     7
 10
-62.5
 20
28.5
 30
0.0
 11
-61.159920409699531
 21
23.498754882812499
 31
0.0
  0
LINE
  5
246
  8
DIMNSIONS
  6
CONTINUOUS
 62
     7
 10
-62.5
 20
28.5
 30
0.0
 11
-63.840079590300462
 21
23.498754882812499
 31
0.0
  0
TEXT
  5
247
  8
DIMNSIONS
 62
     7
 10
-64.487777807215835
 20
-59.791666666666671
 30
0.0
 40
5.4294706479219572
  1
166
 50
90.0
 41
0.7
 11
-69.917248455137809
 21
-59.791666666666671
 31
0.0
 73
     3
  0
LINE
  5
248
  8
DIMNSIONS
  6
CONTINUOUS
 62
     7
 10
-47.548562976555559
 20
59.967624682296282
 30
0.0
 11
-62.5
 21
50.0
 31
0.0
  0
LINE
  5
249
  8
DIMNSIONS
  6
CONTINUOUS
 62
     7
 10
-47.548562976555559
 20
59.967624682296282
 30
0.0
 11
-50.945420091279452
 21
56.059987573674043
 31
0.0
  0
LINE
  5
24A
  8
DIMNSIONS
  6
CONTINUOUS
 62
     7
 10
-47.548562976555559
 20
59.967624682296282
 30
0.0
 11
-52.444146085243482
 21
58.281940234820567
 31
0.0
  0
LINE
  5
24B
  8
DIMNSIONS
  6
CONTINUOUS
 62
     7
 10
-62.5
 20
50.0
 30
0.0
 11
-66.5
 21
50.0
 31
0.0
  0
TEXT
  5
24C
  8
DIMNSIONS
 62
     7
 10
-87.666666666666629
 20
47.459999924302068
 30
0.0
 40
5.4294706479219572
  1
\U+03C654.2
 41
0.7
 11
-87.666666666666629
 21
52.889470572224027
 31
0.0
 73
     3
  0
TEXT
  5
24D
  8
DATA
 62
     7
 10
99.999999999999957
 20
-234.20640499999999
 30
0.0
 40
4.8865234375000002
  1
P220
 41
0.7
 11
99.999999999999957
 21
-229.3198815625
 31
0.0
 73
     3
  0
TEXT
  5
24E
  8
DATA
 62
     7
 10
99.999999999999957
 20
-219.70640499999999
 30
0.0
 40
4.8865234375000002
  1
AKG
 41
0.7
 11
99.999999999999957
 21
-214.8198815625
 31
0.0
 73
     3
  0
TEXT
  5
24F
  8
DATA
 62
     7
 10
-175.0
 20
-240.7156294444444
 30
0.0
 40
3.800629340277776
  1
※仕様及び外観は予告なく変更されることがあります。
 41
0.7
 11
-175.0
 21
-236.91500010416669
 31
0.0
 73
     3
  0
TEXT
  5
250
  8
DATA
 62
     7
 10
-175.0
 20
-245.65451833333341
 30
0.0
 40
3.800629340277776
  1
　また、同一商品でも若干の個体差があることがあります。ご了承ください。
 41
0.7
 11
-175.0
 21
-241.85388899305559
 31
0.0
 73
     3
  0
LINE
  5
251
  8
DATA
  6
CONTINUOUS
 62
     7
 10
-52.100000000000001
 20
-77.500000000000298
 30
0.0
 11
-52.100000000000001
 21
-57.299999999999997
 31
0.0
  0
LINE
  5
252
  8
DATA
  6
CONTINUOUS
 62
     7
 10
-52.100000000000001
 20
-53.5
 30
0.0
 11
-52.100000000000001
 21
19.5
 31
0.0
  0
LINE
  5
253
  8
DATA
  6
CONTINUOUS
 62
     7
 10
2.0999999999999872
 20
19.5
 30
0.0
 11
2.0999999999999872
 21
-53.5
 31
0.0
  0
LINE
  5
254
  8
DATA
  6
CONTINUOUS
 62
     7
 10
2.0999999999999872
 20
-57.299999999999983
 30
0.0
 11
2.0999999999999872
 21
-77.500000000000938
 31
0.0
  0
LINE
  5
255
  8
DATA
  6
CONTINUOUS
 62
     7
 10
-15.250000000000011
 20
-137.5
 30
0.0
 11
-34.75
 21
-137.5
 31
0.0
  0
CIRCLE
  5
256
  8
DATA
  6
CONTINUOUS
 62
     7
 10
-25.000000000000011
 20
75.0
 30
0.0
 40
27.100000000000009
  0
CIRCLE
  5
257
  8
DATA
  6
CONTINUOUS
 62
     7
 10
-25.000000000000011
 20
75.0
 30
0.0
 40
25.0
  0
LINE
  5
258
  8
DATA
  6
CONTINUOUS
 62
     7
 10
-41.500000000000021
 20
-133.0
 30
0.0
 11
-8.4999999999999361
 21
-133.0
 31
0.0
  0
LINE
  5
259
  8
DATA
  6
CONTINUOUS
 62
     7
 10
-34.750000000000007
 20
-137.5
 30
0.0
 11
-34.750000000000007
 21
-133.0
 31
0.0
  0
LINE
  5
25A
  8
DATA
  6
CONTINUOUS
 62
     7
 10
-15.250000000000011
 20
-137.5
 30
0.0
 11
-15.250000000000011
 21
-133.0
 31
0.0
  0
LINE
  5
25B
  8
DATA
  6
CONTINUOUS
 62
     7
 10
-51.100000000000023
 20
20.5
 30
0.0
 11
1.0999999999999861
 21
20.5
 31
0.0
  0
LINE
  5
25C
  8
DATA
  6
CONTINUOUS
 62
     7
 10
-25.000000000000021
 20
28.5
 30
0.0
 11
-34.84999999999993
 21
28.009543568464711
 31
0.0
  0
ARC
  5
25D
  8
DATA
  6
CONTINUOUS
 62
     7
 10
-32.088867135773242
 20
3.402317641663176
 30
0.0
 40
24.761652257201391
 50
96.402277013708627
 51
136.33106177991939
  0
LINE
  5
25E
  8
DATA
  6
CONTINUOUS
 62
     7
 10
-25.000000000000021
 20
28.5
 30
0.0
 11
-15.1500000000001
 21
28.009543568464711
 31
0.0
  0
ARC
  5
25F
  8
DATA
  6
CONTINUOUS
 62
     7
 10
-17.911132864226811
 20
3.402317641663176
 30
0.0
 40
24.761652257201391
 50
43.668938220080577
 51
83.597722986291359
  0
LINE
  5
260
  8
DATA
  6
CONTINUOUS
 62
     7
 10
-52.100000000000001
 20
14.5
 30
0.0
 11
2.0999999999999872
 21
14.5
 31
0.0
  0
ARC
  5
261
  8
DATA
  6
CONTINUOUS
 62
     7
 10
-51.100000000000023
 20
19.5
 30
0.0
 40
1.0
 50
90.0
 51
180.0
  0
ARC
  5
262
  8
DATA
  6
CONTINUOUS
 62
     7
 10
1.0999999999999861
 20
19.5
 30
0.0
 40
1.0
 50
0.0
 51
90.0
  0
LINE
  5
263
  8
DATA
  6
CONTINUOUS
 62
     7
 10
-52.100000000000001
 20
-43.5
 30
0.0
 11
2.0999999999999872
 21
-43.5
 31
0.0
  0
LINE
  5
264
  8
DATA
  6
CONTINUOUS
 62
     7
 10
-48.500000000000021
 20
-43.5
 30
0.0
 11
-48.500000000000021
 21
14.5
 31
0.0
  0
LINE
  5
265
  8
DATA
  6
CONTINUOUS
 62
     7
 10
-1.5000000000000211
 20
14.5
 30
0.0
 11
-1.5000000000000211
 21
-43.5
 31
0.0
  0
ARC
  5
266
  8
DATA
  6
CONTINUOUS
 62
     7
 10
150.79403299560559
 20
-67.511319824262713
 30
0.0
 40
203.139760649842
 50
182.8184541083383
 51
198.80706267137731
  0
ARC
  5
267
  8
DATA
  6
CONTINUOUS
 62
     7
 10
-200.7940329956057
 20
-67.511319824262713
 30
0.0
 40
203.139760649842
 50
341.19293732862258
 51
357.18154589166159
  0
LINE
  5
268
  8
DATA
  6
CONTINUOUS
 62
     7
 10
-52.100000000000001
 20
-53.5
 30
0.0
 11
2.0999999999999872
 21
-53.5
 31
0.0
  0
LINE
  5
269
  8
DATA
  6
CONTINUOUS
 62
     7
 10
-52.100000000000001
 20
-57.299999999999997
 30
0.0
 11
2.0999999999999872
 21
-57.299999999999997
 31
0.0
  0
LINE
  5
26A
  8
DATA
  6
CONTINUOUS
 62
     7
 10
-51.000000000000021
 20
-53.5
 30
0.0
 11
-51.000000000000021
 21
-57.299999999999997
 31
0.0
  0
LINE
  5
26B
  8
DATA
  6
CONTINUOUS
 62
     7
 10
0.9999999999999788
 20
-53.5
 30
0.0
 11
0.9999999999999788
 21
-57.299999999999997
 31
0.0
  0
TEXT
  5
26C
  8
DATA
 62
     7
 10
-30.656938309927551
 20
-101.2619503972828
 30
0.0
 40
5.9724175347222221
  1
AKG
 41
0.7
 11
-30.656938309927551
 21
-95.289532862560634
 31
0.0
 73
     3
  0
TEXT
  5
26D
  8
DATA
 62
     7
 10
-29.24014277396974
 20
-106.0994597198315
 30
0.0
 40
3.257682291666665
  1
P220
 41
0.7
 11
-29.24014277396974
 21
-102.8417774281648
 31
0.0
 73
     3
  0
CIRCLE
  5
26E
  8
DATA
  6
CONTINUOUS
 62
     7
 10
-25.000000000000011
 20
-175.0
 30
0.0
 40
27.100000000000009
  0
CIRCLE
  5
26F
  8
DATA
  6
CONTINUOUS
 62
     7
 10
-25.000000000000011
 20
-175.0
 30
0.0
 40
9.749999999999984
  0
CIRCLE
  5
270
  8
DATA
  6
CONTINUOUS
 62
     7
 10
-25.000000000000011
 20
-175.0
 30
0.0
 40
16.500000000000021
  0
ARC
  5
271
  8
DATA
  6
CONTINUOUS
 62
     7
 10
-25.000000000002078
 20
-174.99999999999869
 30
0.0
 40
12.999999999997559
 50
159.7024302851795
 51
326.4729815664956
  0
ARC
  5
272
  8
DATA
  6
CONTINUOUS
 62
     7
 10
-25.000000000002078
 20
-174.99999999999869
 30
0.0
 40
12.99999999999757
 50
339.70243028517939
 51
146.4729815664933
  0
ARC
  5
273
  8
DATA
  6
CONTINUOUS
 62
     7
 10
-25.000000000000309
 20
-175.00000000000031
 30
0.0
 40
8.0000000000004423
 50
56.738771955344731
 51
37.378428362345268
  0
LINE
  5
274
  8
DATA
  6
CONTINUOUS
 62
     7
 10
-35.500000000000021
 20
-57.299999999999997
 30
0.0
 11
-35.500000000000021
 21
-53.5
 31
0.0
  0
LINE
  5
275
  8
DATA
  6
CONTINUOUS
 62
     7
 10
-14.50000000000002
 20
-57.299999999999997
 30
0.0
 11
-14.50000000000002
 21
-53.5
 31
0.0
  0
LINE
  5
276
  8
DATA
  6
CONTINUOUS
 62
     7
 10
-41.500000000000007
 20
-57.299999999999997
 30
0.0
 11
-41.500000000000007
 21
-53.5
 31
0.0
  0
LINE
  5
277
  8
DATA
  6
CONTINUOUS
 62
     7
 10
-8.5000000000000213
 20
-57.299999999999997
 30
0.0
 11
-8.5000000000000213
 21
-53.5
 31
0.0
  0
LINE
  5
278
  8
DATA
  6
CONTINUOUS
 62
     7
 10
-35.111162865628238
 20
-55.400000000000013
 30
0.0
 11
-32.311162865628241
 21
-55.400000000000013
 31
0.0
  0
LINE
  5
279
  8
DATA
  6
CONTINUOUS
 62
     7
 10
-41.918747658210101
 20
-55.400000000000013
 30
0.0
 11
-44.418747658210108
 21
-55.400000000000013
 31
0.0
  0
LINE
  5
27A
  8
DATA
  6
CONTINUOUS
 62
     7
 10
-44.418747658210108
 20
-55.400000000000013
 30
0.0
 11
-45.318747658210143
 21
-56.300000000000018
 31
0.0
  0
CIRCLE
  5
27B
  8
DATA
  6
CONTINUOUS
 62
     7
 10
-39.665486613764656
 20
-55.400000000000013
 30
0.0
 40
1.299999999999996
  0
CIRCLE
  5
27C
  8
DATA
  6
CONTINUOUS
 62
     7
 10
-10.405772497950601
 20
-55.400000000000013
 30
0.0
 40
1.299999999999996
  0
TEXT
  5
27D
  8
DATA
 62
     7
 10
-16.581226499741678
 20
-56.459352133540001
 30
0.0
 40
2.171788194444443
  1
0
 41
0.7
 11
-16.581226499741678
 21
-54.287563939095563
 31
0.0
 73
     3
  0
TEXT
  5
27E
  8
DATA
 62
     7
 10
-7.0912614445712521
 20
-56.459352133540001
 30
0.0
 40
2.171788194444443
  1
20
 41
0.7
 11
-7.0912614445712521
 21
-54.287563939095563
 31
0.0
 73
     3
  0
TEXT
  5
27F
  8
DATA
 62
     7
 10
-4.2448203429457791
 20
-56.459352133540001
 30
0.0
 40
2.171788194444443
  1
dB
 41
0.7
 11
-4.2448203429457791
 21
-54.287563939095563
 31
0.0
 73
     3
  0
LINE
  5
280
  8
DATA
  6
CONTINUOUS
 62
     7
 10
-8.2127187215750226
 20
-55.400000000000013
 30
0.0
 11
-6.9627187215750226
 21
-55.400000000000013
 31
0.0
  0
ARC
  5
281
  8
DATA
  6
CONTINUOUS
 62
     7
 10
-36.592105579898231
 20
-169.1158613013888
 30
0.0
 40
1.500000000000004
 50
59.780343746162501
 51
246.39506810550711
  0
ARC
  5
282
  8
DATA
  6
CONTINUOUS
 62
     7
 10
-13.40789442010152
 20
-180.8841386986106
 30
0.0
 40
1.5000000000000551
 50
239.7803437461655
 51
66.395068105509395
  0
CIRCLE
  5
283
  8
DATA
  6
CONTINUOUS
 62
     7
 10
-28.899999999999999
 20
-175.0
 30
0.0
 40
1.2000000000000011
  0
CIRCLE
  5
284
  8
DATA
  6
CONTINUOUS
 62
     7
 10
-21.100000000000001
 20
-175.0
 30
0.0
 40
1.2000000000000011
  0
CIRCLE
  5
285
  8
DATA
  6
CONTINUOUS
 62
     7
 10
-25.0
 20
-178.90000000000001
 30
0.0
 40
1.2000000000000011
  0
ARC
  5
286
  8
DATA
  6
CONTINUOUS
 62
     7
 10
-19.550000000000018
 20
-169.14359325183091
 30
0.0
 40
1.3499999999999941
 50
312.21851426059447
 51
141.89868605709671
  0
LINE
  5
287
  8
DATA
  6
CONTINUOUS
 62
     7
 10
35.399999999999991
 20
-77.500000000000298
 30
0.0
 11
35.399999999999991
 21
-57.299999999999997
 31
0.0
  0
LINE
  5
288
  8
DATA
  6
CONTINUOUS
 62
     7
 10
35.399999999999991
 20
-53.5
 30
0.0
 11
35.399999999999991
 21
-43.5
 31
0.0
  0
LINE
  5
289
  8
DATA
  6
CONTINUOUS
 62
     7
 10
35.399999999999991
 20
14.5
 30
0.0
 11
35.399999999999991
 21
19.5
 31
0.0
  0
LINE
  5
28A
  8
DATA
  6
CONTINUOUS
 62
     7
 10
89.599999999999994
 20
19.5
 30
0.0
 11
89.599999999999994
 21
14.5
 31
0.0
  0
LINE
  5
28B
  8
DATA
  6
CONTINUOUS
 62
     7
 10
89.599999999999994
 20
-43.5
 30
0.0
 11
89.599999999999994
 21
-53.5
 31
0.0
  0
LINE
  5
28C
  8
DATA
  6
CONTINUOUS
 62
     7
 10
89.599999999999994
 20
-57.299999999999983
 30
0.0
 11
89.599999999999994
 21
-77.500000000000938
 31
0.0
  0
LINE
  5
28D
  8
DATA
  6
CONTINUOUS
 62
     7
 10
72.25
 20
-137.5
 30
0.0
 11
52.75
 21
-137.5
 31
0.0
  0
LINE
  5
28E
  8
DATA
  6
CONTINUOUS
 62
     7
 10
45.999999999999957
 20
-133.0
 30
0.0
 11
79.000000000000028
 21
-133.0
 31
0.0
  0
LINE
  5
28F
  8
DATA
  6
CONTINUOUS
 62
     7
 10
52.75
 20
-137.5
 30
0.0
 11
52.75
 21
-133.0
 31
0.0
  0
LINE
  5
290
  8
DATA
  6
CONTINUOUS
 62
     7
 10
72.25
 20
-137.5
 30
0.0
 11
72.25
 21
-133.0
 31
0.0
  0
LINE
  5
291
  8
DATA
  6
CONTINUOUS
 62
     7
 10
36.399999999999991
 20
20.5
 30
0.0
 11
88.599999999999966
 21
20.5
 31
0.0
  0
LINE
  5
292
  8
DATA
  6
CONTINUOUS
 62
     7
 10
62.499999999999972
 20
28.5
 30
0.0
 11
52.65000000000007
 21
28.009543568464711
 31
0.0
  0
ARC
  5
293
  8
DATA
  6
CONTINUOUS
 62
     7
 10
55.411132864226772
 20
3.402317641663176
 30
0.0
 40
24.761652257201391
 50
96.402277013708627
 51
136.33106177991939
  0
LINE
  5
294
  8
DATA
  6
CONTINUOUS
 62
     7
 10
62.499999999999972
 20
28.5
 30
0.0
 11
72.349999999999923
 21
28.009543568464711
 31
0.0
  0
ARC
  5
295
  8
DATA
  6
CONTINUOUS
 62
     7
 10
69.588867135773199
 20
3.402317641663176
 30
0.0
 40
24.761652257201391
 50
43.668938220080577
 51
83.597722986291359
  0
LINE
  5
296
  8
DATA
  6
CONTINUOUS
 62
     7
 10
35.399999999999991
 20
14.5
 30
0.0
 11
57.499999999999972
 21
14.5
 31
0.0
  0
ARC
  5
297
  8
DATA
  6
CONTINUOUS
 62
     7
 10
36.399999999999991
 20
19.5
 30
0.0
 40
1.0
 50
90.0
 51
180.0
  0
ARC
  5
298
  8
DATA
  6
CONTINUOUS
 62
     7
 10
88.599999999999966
 20
19.5
 30
0.0
 40
1.0
 50
0.0
 51
90.0
  0
ARC
  5
299
  8
DATA
  6
CONTINUOUS
 62
     7
 10
238.2940329956057
 20
-67.511319824262713
 30
0.0
 40
203.139760649842
 50
182.8184541083383
 51
198.80706267137731
  0
ARC
  5
29A
  8
DATA
  6
CONTINUOUS
 62
     7
 10
-113.2940329956057
 20
-67.511319824262713
 30
0.0
 40
203.139760649842
 50
341.19293732862258
 51
357.18154589166159
  0
LINE
  5
29B
  8
DATA
  6
CONTINUOUS
 62
     7
 10
35.399999999999991
 20
-53.5
 30
0.0
 11
89.599999999999994
 21
-53.5
 31
0.0
  0
LINE
  5
29C
  8
DATA
  6
CONTINUOUS
 62
     7
 10
35.399999999999991
 20
-57.299999999999997
 30
0.0
 11
89.599999999999994
 21
-57.299999999999997
 31
0.0
  0
LINE
  5
29D
  8
DATA
  6
CONTINUOUS
 62
     7
 10
36.499999999999979
 20
-53.5
 30
0.0
 11
36.499999999999979
 21
-57.299999999999997
 31
0.0
  0
LINE
  5
29E
  8
DATA
  6
CONTINUOUS
 62
     7
 10
88.499999999999957
 20
-53.5
 30
0.0
 11
88.499999999999957
 21
-57.299999999999997
 31
0.0
  0
LINE
  5
29F
  8
DATA
  6
CONTINUOUS
 62
     7
 10
40.07445072430221
 20
-57.299999999999997
 30
0.0
 11
40.07445072430221
 21
-53.5
 31
0.0
  0
ARC
  5
2A0
  8
DATA
  6
CONTINUOUS
 62
     7
 10
36.152086813128413
 20
-55.400000000000013
 30
0.0
 40
1.299999999999996
 50
89.999999999996191
 51
270.0
  0
TEXT
  5
2A1
  8
DATA
 62
     7
 10
40.904353380632003
 20
-56.459352133540001
 30
0.0
 40
2.171788194444443
  1
20
 41
0.7
 11
40.904353380632003
 21
-54.287563939095563
 31
0.0
 73
     3
  0
TEXT
  5
2A2
  8
DATA
 62
     7
 10
43.750794482257319
 20
-56.459352133540001
 30
0.0
 40
2.171788194444443
  1
dB
 41
0.7
 11
43.750794482257319
 21
-54.287563939095563
 31
0.0
 73
     3
  0
LINE
  5
2A3
  8
DATA
  6
CONTINUOUS
 62
     7
 10
40.249699248062889
 20
-55.400000000000013
 30
0.0
 11
41.249699248062889
 21
-55.400000000000013
 31
0.0
  0
CIRCLE
  5
2A4
  8
DATA
  6
CONTINUOUS
 62
     7
 10
-25.000000000000021
 20
-78.5
 30
0.0
 40
9.0
  0
LINE
  5
2A5
  8
DATA
  6
CONTINUOUS
 62
     7
 10
-139.59999999999999
 20
-77.500000000000298
 30
0.0
 11
-139.59999999999999
 21
-57.299999999999997
 31
0.0
  0
LINE
  5
2A6
  8
DATA
  6
CONTINUOUS
 62
     7
 10
-139.59999999999999
 20
-53.5
 30
0.0
 11
-139.59999999999999
 21
-43.5
 31
0.0
  0
LINE
  5
2A7
  8
DATA
  6
CONTINUOUS
 62
     7
 10
-139.59999999999999
 20
14.5
 30
0.0
 11
-139.59999999999999
 21
19.5
 31
0.0
  0
LINE
  5
2A8
  8
DATA
  6
CONTINUOUS
 62
     7
 10
-85.400000000000006
 20
19.5
 30
0.0
 11
-85.400000000000006
 21
14.5
 31
0.0
  0
LINE
  5
2A9
  8
DATA
  6
CONTINUOUS
 62
     7
 10
-85.400000000000006
 20
-43.5
 30
0.0
 11
-85.400000000000006
 21
-53.5
 31
0.0
  0
LINE
  5
2AA
  8
DATA
  6
CONTINUOUS
 62
     7
 10
-85.400000000000006
 20
-57.299999999999983
 30
0.0
 11
-85.400000000000006
 21
-77.500000000000938
 31
0.0
  0
LINE
  5
2AB
  8
DATA
  6
CONTINUOUS
 62
     7
 10
-102.75
 20
-137.5
 30
0.0
 11
-122.25
 21
-137.5
 31
0.0
  0
LINE
  5
2AC
  8
DATA
  6
CONTINUOUS
 62
     7
 10
-129.0
 20
-133.0
 30
0.0
 11
-95.999999999999943
 21
-133.0
 31
0.0
  0
LINE
  5
2AD
  8
DATA
  6
CONTINUOUS
 62
     7
 10
-122.25
 20
-137.5
 30
0.0
 11
-122.25
 21
-133.0
 31
0.0
  0
LINE
  5
2AE
  8
DATA
  6
CONTINUOUS
 62
     7
 10
-102.75
 20
-137.5
 30
0.0
 11
-102.75
 21
-133.0
 31
0.0
  0
LINE
  5
2AF
  8
DATA
  6
CONTINUOUS
 62
     7
 10
-138.59999999999999
 20
20.5
 30
0.0
 11
-86.400000000000006
 21
20.5
 31
0.0
  0
LINE
  5
2B0
  8
DATA
  6
CONTINUOUS
 62
     7
 10
-112.5
 20
28.5
 30
0.0
 11
-122.3499999999998
 21
28.009543568464711
 31
0.0
  0
ARC
  5
2B1
  8
DATA
  6
CONTINUOUS
 62
     7
 10
-119.5888671357732
 20
3.402317641663176
 30
0.0
 40
24.761652257201391
 50
96.402277013708627
 51
136.33106177991939
  0
LINE
  5
2B2
  8
DATA
  6
CONTINUOUS
 62
     7
 10
-112.5
 20
28.5
 30
0.0
 11
-102.65000000000011
 21
28.009543568464711
 31
0.0
  0
ARC
  5
2B3
  8
DATA
  6
CONTINUOUS
 62
     7
 10
-105.4111328642268
 20
3.402317641663176
 30
0.0
 40
24.761652257201391
 50
43.668938220080577
 51
83.597722986291359
  0
LINE
  5
2B4
  8
DATA
  6
CONTINUOUS
 62
     7
 10
-139.59999999999999
 20
14.5
 30
0.0
 11
-117.5
 21
14.5
 31
0.0
  0
ARC
  5
2B5
  8
DATA
  6
CONTINUOUS
 62
     7
 10
-138.59999999999999
 20
19.5
 30
0.0
 40
1.0
 50
90.0
 51
180.0
  0
ARC
  5
2B6
  8
DATA
  6
CONTINUOUS
 62
     7
 10
-86.400000000000006
 20
19.5
 30
0.0
 40
1.0
 50
0.0
 51
90.0
  0
ARC
  5
2B7
  8
DATA
  6
CONTINUOUS
 62
     7
 10
63.29403299560564
 20
-67.511319824262713
 30
0.0
 40
203.139760649842
 50
182.8184541083383
 51
198.80706267137731
  0
ARC
  5
2B8
  8
DATA
  6
CONTINUOUS
 62
     7
 10
-288.29403299560568
 20
-67.511319824262713
 30
0.0
 40
203.139760649842
 50
341.19293732862258
 51
357.18154589166159
  0
LINE
  5
2B9
  8
DATA
  6
CONTINUOUS
 62
     7
 10
-139.59999999999999
 20
-53.5
 30
0.0
 11
-85.400000000000006
 21
-53.5
 31
0.0
  0
LINE
  5
2BA
  8
DATA
  6
CONTINUOUS
 62
     7
 10
-139.59999999999999
 20
-57.299999999999997
 30
0.0
 11
-85.400000000000006
 21
-57.299999999999997
 31
0.0
  0
LINE
  5
2BB
  8
DATA
  6
CONTINUOUS
 62
     7
 10
-138.5
 20
-53.5
 30
0.0
 11
-138.5
 21
-57.299999999999997
 31
0.0
  0
LINE
  5
2BC
  8
DATA
  6
CONTINUOUS
 62
     7
 10
-86.500000000000028
 20
-53.5
 30
0.0
 11
-86.500000000000028
 21
-57.299999999999997
 31
0.0
  0
LINE
  5
2BD
  8
DATA
  6
CONTINUOUS
 62
     7
 10
-92.718105439533204
 20
-57.299999999999997
 30
0.0
 11
-92.718105439533204
 21
-53.5
 31
0.0
  0
LINE
  5
2BE
  8
DATA
  6
CONTINUOUS
 62
     7
 10
-93.136853097743284
 20
-55.400000000000013
 30
0.0
 11
-95.636853097743284
 21
-55.400000000000013
 31
0.0
  0
LINE
  5
2BF
  8
DATA
  6
CONTINUOUS
 62
     7
 10
-95.636853097743284
 20
-55.400000000000013
 30
0.0
 11
-96.536853097743275
 21
-56.300000000000018
 31
0.0
  0
ARC
  5
2C0
  8
DATA
  6
CONTINUOUS
 62
     7
 10
-86.314066435811583
 20
-55.400000000000013
 30
0.0
 40
1.30000000000001
 50
269.99999999999881
 51
90.000000000000057
  0
ARC
  5
2C1
  8
DATA
  6
CONTINUOUS
 62
     7
 10
-39.665486613764656
 20
-152.7782771708454
 30
0.0
 40
1.299999999999998
 50
53.566342547679611
 51
193.28022489884481
  0
ARC
  5
2C2
  8
DATA
  6
CONTINUOUS
 62
     7
 10
-10.40577249795059
 20
-152.73257655311889
 30
0.0
 40
1.2999999999999921
 50
346.9484196892372
 51
126.5693437331085
  0
ARC
  5
2C3
  8
DATA
  6
CONTINUOUS
 62
     7
 10
-39.665486613764656
 20
52.652239595024021
 30
0.0
 40
1.3
 50
161.92501991570171
 51
311.52603259203772
  0
ARC
  5
2C4
  8
DATA
  6
CONTINUOUS
 62
     7
 10
-10.40577249795059
 20
52.606538977297532
 30
0.0
 40
1.2999999999999949
 50
228.32740390642849
 51
17.858639658238211
  0
LINE
  5
2C5
  8
DATA
  6
CONTINUOUS
 62
     7
 10
36.152086813128413
 20
-54.100000000000009
 30
0.0
 11
36.499999999999979
 21
-54.147420096600278
 31
0.0
  0
LINE
  5
2C6
  8
DATA
  6
CONTINUOUS
 62
     7
 10
36.152086813128413
 20
-56.700000000000003
 30
0.0
 11
36.499999999999979
 21
-56.652579903399733
 31
0.0
  0
LINE
  5
2C7
  8
DATA
  6
CONTINUOUS
 62
     7
 10
-86.314066435811583
 20
-54.100000000000001
 30
0.0
 11
-86.500000000000028
 21
-54.135957721460059
 31
0.0
  0
LINE
  5
2C8
  8
DATA
  6
CONTINUOUS
 62
     7
 10
-86.314066435811583
 20
-56.70000000000001
 30
0.0
 11
-86.500000000000028
 21
-56.664042278539931
 31
0.0
  0
LINE
  5
2C9
  8
DATA
  6
CONTINUOUS
 62
     7
 10
-116.5
 20
13.5
 30
0.0
 11
-116.5
 21
-42.5
 31
0.0
  0
LINE
  5
2CA
  8
DATA
  6
CONTINUOUS
 62
     7
 10
-108.5
 20
-42.5
 30
0.0
 11
-108.5
 21
13.5
 31
0.0
  0
ARC
  5
2CB
  8
DATA
  6
CONTINUOUS
 62
     7
 10
-117.5
 20
13.5
 30
0.0
 40
1.0
 50
0.0
 51
90.0
  0
LINE
  5
2CC
  8
DATA
  6
CONTINUOUS
 62
     7
 10
-107.5
 20
14.5
 30
0.0
 11
-85.400000000000006
 21
14.5
 31
0.0
  0
ARC
  5
2CD
  8
DATA
  6
CONTINUOUS
 62
     7
 10
-107.5
 20
13.5
 30
0.0
 40
1.0
 50
90.0
 51
180.0
  0
LINE
  5
2CE
  8
DATA
  6
CONTINUOUS
 62
     7
 10
-139.59999999999999
 20
-43.5
 30
0.0
 11
-85.400000000000006
 21
-43.5
 31
0.0
  0
ARC
  5
2CF
  8
DATA
  6
CONTINUOUS
 62
     7
 10
-115.5
 20
-42.5
 30
0.0
 40
1.0
 50
180.0
 51
270.0
  0
ARC
  5
2D0
  8
DATA
  6
CONTINUOUS
 62
     7
 10
-109.5
 20
-42.5
 30
0.0
 40
1.0
 50
270.0
 51
0.0
  0
LINE
  5
2D1
  8
DATA
  6
CONTINUOUS
 62
     7
 10
58.499999999999972
 20
13.5
 30
0.0
 11
58.499999999999972
 21
-42.5
 31
0.0
  0
LINE
  5
2D2
  8
DATA
  6
CONTINUOUS
 62
     7
 10
66.499999999999972
 20
-42.5
 30
0.0
 11
66.499999999999972
 21
13.5
 31
0.0
  0
ARC
  5
2D3
  8
DATA
  6
CONTINUOUS
 62
     7
 10
57.499999999999972
 20
13.5
 30
0.0
 40
1.0
 50
0.0
 51
90.0
  0
LINE
  5
2D4
  8
DATA
  6
CONTINUOUS
 62
     7
 10
67.499999999999972
 20
14.5
 30
0.0
 11
89.599999999999994
 21
14.5
 31
0.0
  0
ARC
  5
2D5
  8
DATA
  6
CONTINUOUS
 62
     7
 10
67.499999999999972
 20
13.5
 30
0.0
 40
1.0
 50
90.0
 51
180.0
  0
ARC
  5
2D6
  8
DATA
  6
CONTINUOUS
 62
     7
 10
59.499999999999972
 20
-42.5
 30
0.0
 40
1.0
 50
180.0
 51
270.0
  0
ARC
  5
2D7
  8
DATA
  6
CONTINUOUS
 62
     7
 10
65.499999999999972
 20
-42.5
 30
0.0
 40
1.0
 50
270.0
 51
0.0
  0
LINE
  5
2D8
  8
DATA
  6
CONTINUOUS
 62
     7
 10
35.399999999999991
 20
-43.5
 30
0.0
 11
89.599999999999994
 21
-43.5
 31
0.0
  0
LINE
  5
2D9
  8
DATA
  6
CONTINUOUS
 62
     7
 10
38.5
 20
-43.5
 30
0.0
 11
38.5
 21
14.500000000000011
 31
0.0
  0
LINE
  5
2DA
  8
DATA
  6
CONTINUOUS
 62
     7
 10
86.499999999999957
 20
14.5
 30
0.0
 11
86.499999999999957
 21
-43.5
 31
0.0
  0
LINE
  5
2DB
  8
DATA
  6
CONTINUOUS
 62
     7
 10
-136.5
 20
-43.5
 30
0.0
 11
-136.5
 21
14.500000000000011
 31
0.0
  0
LINE
  5
2DC
  8
DATA
  6
CONTINUOUS
 62
     7
 10
-88.500000000000043
 20
14.5
 30
0.0
 11
-88.500000000000043
 21
-43.5
 31
0.0
  0
TEXT
  5
2DD
  8
DATA
 62
     7
 10
96.049737019656277
 20
-226.16139615819009
 30
0.0
 40
3.257687421875
  1
サイドアドレス型マイクロホン
 41
0.7
 11
96.049737019656277
 21
-222.90370873631511
 31
0.0
 73
     3
  0
ENDSEC
  0
EOF
