  0
SECTION
  2
HEADER
  9
$ACADVER
  1
AC1009
  9
$INSBASE
 10
0.0
 20
0.0
 30
0.0
  9
$EXTMIN
 10
-360.02197097989489
 20
-539.8393251062497
 30
-0.0015258207003583
  9
$EXTMAX
 10
360.02197433265633
 20
530.62804802803294
 30
0.0000000349246037
  9
$LIMMIN
 10
0.0
 20
0.0
  9
$LIMMAX
 10
0.0
 20
0.0
  9
$ORTHOMODE
 70
     0
  9
$REGENMODE
 70
     1
  9
$FILLMODE
 70
     1
  9
$QTEXTMODE
 70
     0
  9
$MIRRTEXT
 70
     1
  9
$DRAGMODE
 70
     2
  9
$LTSCALE
 40
20.32
  9
$OSMODE
 70
   231
  9
$ATTMODE
 70
     1
  9
$TEXTSIZE
 40
0.0
  9
$TRACEWID
 40
1.0
  9
$TEXTSTYLE
  7
STANDARD
  9
$CLAYER
  8
DATA
  9
$CELTYPE
  6
BYLAYER
  9
$CECOLOR
 62
   256
  9
$DIMSCALE
 40
1.0
  9
$DIMASZ
 40
0.18
  9
$DIMEXO
 40
0.0625
  9
$DIMDLI
 40
0.38
  9
$DIMRND
 40
0.0
  9
$DIMDLE
 40
0.0
  9
$DIMEXE
 40
0.18
  9
$DIMTP
 40
0.0
  9
$DIMTM
 40
0.0
  9
$DIMTXT
 40
0.18
  9
$DIMCEN
 40
0.09
  9
$DIMTSZ
 40
0.0
  9
$DIMTOL
 70
     0
  9
$DIMLIM
 70
     0
  9
$DIMTIH
 70
     1
  9
$DIMTOH
 70
     1
  9
$DIMSE1
 70
     0
  9
$DIMSE2
 70
     0
  9
$DIMTAD
 70
     0
  9
$DIMZIN
 70
     0
  9
$DIMBLK
  1

  9
$DIMASO
 70
     1
  9
$DIMSHO
 70
     1
  9
$DIMPOST
  1

  9
$DIMAPOST
  1

  9
$DIMALT
 70
     0
  9
$DIMALTD
 70
     2
  9
$DIMALTF
 40
25.399999999999999
  9
$DIMLFAC
 40
1.0
  9
$DIMTOFL
 70
     0
  9
$DIMTVP
 40
0.0
  9
$DIMTIX
 70
     0
  9
$DIMSOXD
 70
     0
  9
$DIMSAH
 70
     0
  9
$DIMBLK1
  1

  9
$DIMBLK2
  1

  9
$DIMSTYLE
  2
STANDARD
  9
$DIMCLRD
 70
     0
  9
$DIMCLRE
 70
     0
  9
$DIMCLRT
 70
     0
  9
$DIMTFAC
 40
1.0
  9
$DIMGAP
 40
0.09
  9
$LUNITS
 70
     2
  9
$LUPREC
 70
     4
  9
$SKETCHINC
 40
0.1
  9
$FILLETRAD
 40
0.0
  9
$AUNITS
 70
     0
  9
$AUPREC
 70
     0
  9
$MENU
  1
acad
  9
$ELEVATION
 40
0.0
  9
$PELEVATION
 40
0.0
  9
$THICKNESS
 40
0.0
  9
$LIMCHECK
 70
     0
  9
$BLIPMODE
 70
     0
  9
$CHAMFERA
 40
0.0
  9
$CHAMFERB
 40
0.0
  9
$SKPOLY
 70
     0
  9
$TDCREATE
 40
2456360.6337037031
  9
$TDUPDATE
 40
2456360.6369849769
  9
$TDINDWG
 40
0.0004547454
  9
$TDUSRTIMER
 40
0.0004547454
  9
$USRTIMER
 70
     1
  9
$ANGBASE
 50
0.0
  9
$ANGDIR
 70
     0
  9
$PDMODE
 70
     1
  9
$PDSIZE
 40
-2.0
  9
$PLINEWID
 40
0.0
  9
$COORDS
 70
     2
  9
$SPLFRAME
 70
     0
  9
$SPLINETYPE
 70
     6
  9
$SPLINESEGS
 70
     8
  9
$ATTDIA
 70
     0
  9
$ATTREQ
 70
     1
  9
$HANDLING
 70
     1
  9
$HANDSEED
  5
46A
  9
$SURFTAB1
 70
     6
  9
$SURFTAB2
 70
     6
  9
$SURFTYPE
 70
     6
  9
$SURFU
 70
     6
  9
$SURFV
 70
     6
  9
$UCSNAME
  2

  9
$UCSORG
 10
0.0
 20
0.0
 30
0.0
  9
$UCSXDIR
 10
1.0
 20
0.0
 30
0.0
  9
$UCSYDIR
 10
0.0
 20
1.0
 30
0.0
  9
$PUCSNAME
  2

  9
$PUCSORG
 10
0.0
 20
0.0
 30
0.0
  9
$PUCSXDIR
 10
1.0
 20
0.0
 30
0.0
  9
$PUCSYDIR
 10
0.0
 20
1.0
 30
0.0
  9
$USERI1
 70
     0
  9
$USERI2
 70
     0
  9
$USERI3
 70
     0
  9
$USERI4
 70
     0
  9
$USERI5
 70
     0
  9
$USERR1
 40
0.0
  9
$USERR2
 40
0.0
  9
$USERR3
 40
0.0
  9
$USERR4
 40
0.0
  9
$USERR5
 40
0.0
  9
$WORLDVIEW
 70
     1
  9
$SHADEDGE
 70
     3
  9
$SHADEDIF
 70
    70
  9
$TILEMODE
 70
     1
  9
$MAXACTVP
 70
    64
  9
$PLIMCHECK
 70
     0
  9
$PEXTMIN
 10
1.0000000000000000E+020
 20
1.0000000000000000E+020
 30
1.0000000000000000E+020
  9
$PEXTMAX
 10
-1.0000000000000000E+020
 20
-1.0000000000000000E+020
 30
-1.0000000000000000E+020
  9
$PLIMMIN
 10
0.0
 20
0.0
  9
$PLIMMAX
 10
12.0
 20
9.0
  9
$UNITMODE
 70
     0
  9
$VISRETAIN
 70
     0
  9
$PLINEGEN
 70
     1
  9
$PSLTSCALE
 70
     0
  0
ENDSEC
  0
SECTION
  2
TABLES
  0
TABLE
  2
VPORT
 70
     1
  0
VPORT
  2
*ACTIVE
 70
     0
 10
0.0
 20
0.0
 11
1.0
 21
1.0
 12
0.000001676380748
 22
-3.5318125127764679
 13
0.0
 23
0.0
 14
1.0
 24
1.0
 15
0.0
 25
0.0
 16
0.0
 26
0.0
 36
1.0
 17
0.0
 27
0.0
 37
0.0
 40
1076.687760672336
 41
2.1503267973856199
 42
50.0
 43
0.0
 44
0.0
 50
0.0
 51
0.0
 71
     0
 72
  2000
 73
     1
 74
     1
 75
     0
 76
     0
 77
     0
 78
     0
  0
ENDTAB
  0
TABLE
  2
LTYPE
 70
    12
  0
LTYPE
  2
CONTINUOUS
 70
     0
  3
Solid line
 72
    65
 73
     0
 40
0.0
  0
LTYPE
  2
PHANTOM2
 70
     0
  3
___ _ _ ___ _ _ ___ _ _ ___ _ _
 72
    65
 73
     6
 40
1.25
 49
0.625
 49
-0.125
 49
0.125
 49
-0.125
 49
0.125
 49
-0.125
  0
ENDTAB
  0
TABLE
  2
LAYER
 70
     5
  0
LAYER
  2
0
 70
     0
 62
     7
  6
CONTINUOUS
  0
LAYER
  2
DATA
 70
     0
 62
     7
  6
CONTINUOUS
  0
LAYER
  2
HIBINO-BASE
 70
     0
 62
     7
  6
CONTINUOUS
  0
LAYER
  2
SPEC
 70
     0
 62
     7
  6
CONTINUOUS
  0
LAYER
  2
DIMNSIONS
 70
     0
 62
     7
  6
CONTINUOUS
  0
ENDTAB
  0
TABLE
  2
STYLE
 70
     3
  0
STYLE
  2
STANDARD
 70
     0
 40
0.0
 41
1.0
 50
0.0
 71
     0
 42
0.0
  3
txt
  4
BIGFONT.SHX
  0
ENDTAB
  0
TABLE
  2
VIEW
 70
     0
  0
ENDTAB
  0
TABLE
  2
UCS
 70
     0
  0
ENDTAB
  0
TABLE
  2
APPID
 70
     4
  0
APPID
  2
ACAD
 70
     0
  0
APPID
  2
ACADANNOTATIVE
 70
     0
  0
APPID
  2
ACAD_NAV_VCDISPLAY
 70
     0
  0
APPID
  2
ACAD_MLEADERVER
 70
     0
  0
ENDTAB
  0
TABLE
  2
DIMSTYLE
 70
     2
  0
DIMSTYLE
  2
STANDARD
 70
     0
  3

  4

  5

  6

  7

 40
1.0
 41
0.18
 42
0.0625
 43
0.38
 44
0.18
 45
0.0
 46
0.0
 47
0.0
 48
0.0
140
0.18
141
0.09
142
0.0
143
25.399999999999999
144
1.0
145
0.0
146
1.0
147
0.09
 71
     0
 72
     0
 73
     1
 74
     1
 75
     0
 76
     0
 77
     0
 78
     0
170
     0
171
     2
172
     0
173
     0
174
     0
175
     0
176
     0
177
     0
178
     0
  0
ENDTAB
  0
ENDSEC
  0
SECTION
  2
BLOCKS
  0
BLOCK
  8
0
  2
$MODEL_SPACE
 70
     0
 10
0.0
 20
0.0
 30
0.0
  3
$MODEL_SPACE
  1

  0
ENDBLK
  5
3CB
  8
0
  0
BLOCK
 67
     1
  8
0
  2
$PAPER_SPACE
 70
     0
 10
0.0
 20
0.0
 30
0.0
  3
$PAPER_SPACE
  1

  0
ENDBLK
  5
3C7
 67
     1
  8
0
  0
ENDSEC
  0
SECTION
  2
ENTITIES
  0
LINE
  5
2C
  8
HIBINO-BASE
  6
CONTINUOUS
 62
     7
 10
-360.0
 20
530.59544499999993
 30
0.0
 11
360.0
 21
530.59544499999993
 31
0.0
  0
LINE
  5
2D
  8
HIBINO-BASE
  6
CONTINUOUS
 62
     7
 10
360.0
 20
-509.40455500000002
 30
0.0
 11
-360.0
 21
-509.40455500000002
 31
0.0
  0
LINE
  5
2E
  8
HIBINO-BASE
  6
CONTINUOUS
 62
     7
 10
-360.0
 20
-509.40455500000002
 30
0.0
 11
-360.0
 21
530.59544499999993
 31
0.0
  0
TEXT
  5
2F
  8
HIBINO-BASE
 62
     7
 10
-331.2639999999999
 20
-535.03926619999982
 30
0.0
 40
14.40017671875
  1
Hibino Corporation
 41
0.7
 11
-331.2639999999999
 21
-520.63908948124981
 31
0.0
 73
     3
  0
LINE
  5
30
  8
HIBINO-BASE
  6
CONTINUOUS
 62
     7
 10
360.0
 20
530.59544499999993
 30
0.0
 11
360.0
 21
-509.40455500000002
 31
0.0
  0
LINE
  5
31
  8
HIBINO-BASE
  6
CONTINUOUS
 62
     7
 10
0.0
 20
-419.40455500000002
 30
0.0
 11
360.0
 21
-419.40455500000002
 31
0.0
  0
LINE
  5
32
  8
HIBINO-BASE
  6
CONTINUOUS
 62
     7
 10
0.0
 20
-509.40455500000002
 30
0.0
 11
0.0
 21
-419.40455500000002
 31
0.0
  0
TEXT
  5
33
  8
HIBINO-BASE
 62
     7
 10
3.5999999999999992
 20
-429.43932833333332
 30
0.0
 40
6.5153645833333318
  1
NOTE
 41
0.7
 11
3.6000000000000001
 21
-422.92396374999998
 31
0.0
 73
     3
  0
LINE
  5
34
  8
HIBINO-BASE
  6
CONTINUOUS
 62
     7
 10
140.0
 20
-509.40455500000002
 30
0.0
 11
140.0
 21
-419.40455500000002
 31
0.0
  0
TEXT
  5
35
  8
HIBINO-BASE
 62
     7
 10
143.59999999999999
 20
-429.43932833333332
 30
0.0
 40
6.5153645833333318
  1
TITLE
 41
0.7
 11
143.59999999999999
 21
-422.92396374999998
 31
0.0
 73
     3
  0
TEXT
  5
36
  8
HIBINO-BASE
 62
     7
 10
200.27356
 20
-535.03926619999982
 30
0.0
 40
14.40017671875
  1
ヒビノ株式会社
 41
0.7
 11
200.27356
 21
-520.63908948124981
 31
0.0
 73
     3
  0
LINE
  5
37
  8
HIBINO-BASE
  6
CONTINUOUS
 62
     7
 10
0.0
 20
-469.40455500000002
 30
0.0
 11
360.0
 21
-469.40455500000002
 31
0.0
  0
TEXT
  5
38
  8
HIBINO-BASE
 62
     7
 10
193.59999999999999
 20
-479.21404833333332
 30
0.0
 40
6.5153645833333318
  1
DRAWN
 41
0.7
 11
193.59999999999999
 21
-472.69868374999999
 31
0.0
 73
     3
  0
TEXT
  5
39
  8
HIBINO-BASE
 62
     7
 10
93.599999999999994
 20
-479.21404833333332
 30
0.0
 40
6.5153645833333318
  1
DATE
 41
0.7
 11
93.599999999999994
 21
-472.69868374999999
 31
0.0
 73
     3
  0
TEXT
  5
3A
  8
HIBINO-BASE
 62
     7
 10
53.600000000000001
 20
-479.21404833333332
 30
0.0
 40
6.5153645833333318
  1
SCALE
 41
0.7
 11
53.600000000000001
 21
-472.69868374999999
 31
0.0
 73
     3
  0
TEXT
  5
3B
  8
HIBINO-BASE
 62
     7
 10
143.59999999999999
 20
-479.21404833333332
 30
0.0
 40
6.5153645833333318
  1
DESIGN
 41
0.7
 11
143.59999999999999
 21
-472.69868374999999
 31
0.0
 73
     3
  0
TEXT
  5
3C
  8
HIBINO-BASE
 62
     7
 10
293.60000000000002
 20
-479.21404833333332
 30
0.0
 40
6.5153645833333318
  1
DRAWING NO.
 41
0.7
 11
293.60000000000002
 21
-472.69868374999999
 31
0.0
 73
     3
  0
TEXT
  5
3D
  8
HIBINO-BASE
 62
     7
 10
243.59999999999999
 20
-479.21404833333332
 30
0.0
 40
6.5153645833333318
  1
CHECK
 41
0.7
 11
243.59999999999999
 21
-472.69868374999999
 31
0.0
 73
     3
  0
LINE
  5
3E
  8
HIBINO-BASE
  6
CONTINUOUS
 62
     7
 10
57.5
 20
-504.4045549999999
 30
0.0
 11
72.5
 21
-489.40455500000002
 31
0.0
  0
TEXT
  5
3F
  8
HIBINO-BASE
 62
     7
 10
55.0
 20
-493.84032833333328
 30
0.0
 40
6.5153645833333318
  1
1
 41
0.7
 11
55.0
 21
-487.32496374999988
 31
0.0
 73
     3
  0
LINE
  5
40
  8
HIBINO-BASE
  6
CONTINUOUS
 62
     7
 10
50.0
 20
-509.40455500000002
 30
0.0
 11
50.0
 21
-469.40455500000002
 31
0.0
  0
LINE
  5
41
  8
HIBINO-BASE
  6
CONTINUOUS
 62
     7
 10
89.999999999999986
 20
-509.40455500000002
 30
0.0
 11
89.999999999999986
 21
-469.40455500000002
 31
0.0
  0
LINE
  5
42
  8
HIBINO-BASE
  6
CONTINUOUS
 62
     7
 10
190.0
 20
-469.40455500000002
 30
0.0
 11
190.0
 21
-509.40455500000002
 31
0.0
  0
LINE
  5
43
  8
HIBINO-BASE
  6
CONTINUOUS
 62
     7
 10
290.0
 20
-469.40455500000002
 30
0.0
 11
290.0
 21
-509.40455500000002
 31
0.0
  0
LINE
  5
44
  8
HIBINO-BASE
  6
CONTINUOUS
 62
     7
 10
240.0
 20
-509.40455500000002
 30
0.0
 11
240.0
 21
-469.40455500000002
 31
0.0
  0
TEXT
  5
45
  8
HIBINO-BASE
 62
     7
 10
93.426159999999996
 20
-497.94996833333329
 30
0.0
 40
6.5153645833333318
  1
'13.02.
 41
0.7
 11
93.426159999999996
 21
-491.43460375000001
 31
0.0
 73
     3
  0
TEXT
  5
46
  8
HIBINO-BASE
 62
     7
 10
70.0
 20
-501.34032833333328
 30
0.0
 40
6.5153645833333318
  1
4
 41
0.7
 11
70.0
 21
-494.82496374999999
 31
0.0
 73
     3
  0
TEXT
  5
47
  8
HIBINO-BASE
 62
     7
 10
196.02324004413839
 20
-497.94996833333329
 30
0.0
 40
6.5153645833333318
  1
N.Sasaki
 41
0.7
 11
196.02324004413839
 21
-491.43460375000001
 31
0.0
 73
     3
  0
TEXT
  5
48
  8
HIBINO-BASE
 62
     7
 10
15.53333333333339
 20
-501.50055499999991
 30
0.0
 40
13.03072916666666
  1
A4
 41
0.7
 11
15.53333333333339
 21
-488.46982583333318
 31
0.0
 73
     3
  0
TEXT
  5
49
  8
HIBINO-BASE
 62
     7
 10
3.8333333333333282
 20
-479.88237499999991
 30
0.0
 40
6.5153645833333318
  1
PAPER SIZE
 41
0.7
 11
3.8333333333333282
 21
-473.36701041666652
 31
0.0
 73
     3
  0
LINE
  5
4A
  8
SPEC
  6
CONTINUOUS
 62
     7
 10
-329.99999999999989
 20
490.59544499999993
 30
0.0
 11
260.0
 21
490.59544499999993
 31
0.0
  0
LINE
  5
4B
  8
SPEC
  6
CONTINUOUS
 62
     7
 10
-329.99999999999989
 20
475.59544499999993
 30
0.0
 11
260.0
 21
475.59544499999993
 31
0.0
  0
LINE
  5
4C
  8
SPEC
  6
CONTINUOUS
 62
     7
 10
-329.99999999999989
 20
415.59544499999993
 30
0.0
 11
260.0
 21
415.59544499999993
 31
0.0
  0
LINE
  5
4D
  8
SPEC
  6
CONTINUOUS
 62
     7
 10
-329.99999999999989
 20
445.59544499999993
 30
0.0
 11
260.0
 21
445.59544499999993
 31
0.0
  0
LINE
  5
4E
  8
SPEC
  6
CONTINUOUS
 62
     7
 10
-200.0
 20
400.59544499999993
 30
0.0
 11
260.0
 21
400.59544499999993
 31
0.0
  0
LINE
  5
4F
  8
SPEC
  6
CONTINUOUS
 62
     7
 10
-200.0
 20
370.59544499999993
 30
0.0
 11
260.0
 21
370.59544499999993
 31
0.0
  0
LINE
  5
50
  8
SPEC
  6
CONTINUOUS
 62
     7
 10
-200.0
 20
385.59544499999993
 30
0.0
 11
260.0
 21
385.59544499999993
 31
0.0
  0
LINE
  5
51
  8
SPEC
  6
CONTINUOUS
 62
     7
 10
-327.02679525911969
 20
355.59544499999993
 30
0.0
 11
260.0
 21
355.59544499999993
 31
0.0
  0
LINE
  5
52
  8
SPEC
  6
CONTINUOUS
 62
     7
 10
-200.0
 20
340.59544499999993
 30
0.0
 11
260.0
 21
340.59544499999993
 31
0.0
  0
LINE
  5
53
  8
SPEC
  6
CONTINUOUS
 62
     7
 10
-329.99999999999989
 20
460.59544499999993
 30
0.0
 11
260.0
 21
460.59544499999993
 31
0.0
  0
LINE
  5
54
  8
SPEC
  6
CONTINUOUS
 62
     7
 10
-329.99999999999989
 20
490.59544499999993
 30
0.0
 11
-329.99999999999989
 21
235.59544500000001
 31
0.0
  0
TEXT
  5
55
  8
SPEC
 62
     7
 10
-325.0
 20
496.16852499999999
 30
0.0
 40
9.7730468750000004
  1
仕様
 41
0.7
 11
-325.0
 21
505.94157187500002
 31
0.0
 73
     3
  0
LINE
  5
56
  8
SPEC
  6
CONTINUOUS
 62
     7
 10
-200.0
 20
490.59544499999993
 30
0.0
 11
-200.0
 21
235.59544500000001
 31
0.0
  0
LINE
  5
57
  8
SPEC
  6
CONTINUOUS
 62
     7
 10
260.0
 20
490.59544499999993
 30
0.0
 11
260.0
 21
235.59544500000001
 31
0.0
  0
TEXT
  5
58
  8
SPEC
 62
     7
 10
-196.4372840479416
 20
239.45731187483409
 30
0.0
 40
7.6012586805555546
  1
750g
 41
0.7
 11
-196.4372840479416
 21
247.05857055538959
 31
0.0
 73
     3
  0
TEXT
  5
59
  8
SPEC
 62
     7
 10
-326.71014410306259
 20
254.551011978628
 30
0.0
 40
7.6012586805555546
  1
寸法(W\U+00D7H\U+00D7D)
 41
0.7
 11
-326.71014410306259
 21
262.15227065918361
 31
0.0
 73
     3
  0
TEXT
  5
5A
  8
SPEC
 62
     7
 10
-326.69507652516171
 20
239.79495450715001
 30
0.0
 40
7.6012586805555546
  1
質量
 41
0.7
 11
-326.69507652516171
 21
247.3962131877056
 31
0.0
 73
     3
  0
TEXT
  5
5B
  8
SPEC
 62
     7
 10
-196.34412952956399
 20
254.47973824053429
 30
0.0
 40
7.6012586805555546
  1
200\U+00D743\U+00D7134mm(除突起部)
 41
0.7
 11
-196.34412952956399
 21
262.08099692108988
 31
0.0
 73
     3
  0
LINE
  5
5C
  8
SPEC
  6
CONTINUOUS
 62
     7
 10
-330.0
 20
325.59544499999993
 30
0.0
 11
260.0
 21
325.59544499999993
 31
0.0
  0
LINE
  5
5D
  8
SPEC
  6
CONTINUOUS
 62
     7
 10
-200.0
 20
310.59544499999993
 30
0.0
 11
260.0
 21
310.59544499999993
 31
0.0
  0
LINE
  5
5E
  8
SPEC
  6
CONTINUOUS
 62
     7
 10
-329.99999999999989
 20
295.59544499999993
 30
0.0
 11
260.0
 21
295.59544499999993
 31
0.0
  0
LINE
  5
5F
  8
SPEC
  6
CONTINUOUS
 62
     7
 10
-329.99999999999989
 20
280.59544499999998
 30
0.0
 11
260.0
 21
280.59544499999998
 31
0.0
  0
LINE
  5
60
  8
SPEC
  6
CONTINUOUS
 62
     7
 10
-329.99999999999989
 20
265.59544499999998
 30
0.0
 11
260.0
 21
265.59544499999998
 31
0.0
  0
TEXT
  5
61
  8
SPEC
 62
     7
 10
-196.50476968323639
 20
479.0141425095469
 30
0.0
 40
7.6012586805555546
  1
F3E
 41
0.7
 11
-196.50476968323639
 21
486.61540119010238
 31
0.0
 73
     3
  0
TEXT
  5
62
  8
SPEC
 62
     7
 10
-326.74372124482983
 20
479.4548647220347
 30
0.0
 40
7.6012586805555546
  1
電波形式
 41
0.7
 11
-326.74372124482983
 21
487.05612340259017
 31
0.0
 73
     3
  0
TEXT
  5
63
  8
SPEC
 62
     7
 10
-196.3178859403931
 20
464.12148582805838
 30
0.0
 40
7.6012586805555546
  1
806.125～809.750MHz
 41
0.7
 11
-196.3178859403931
 21
471.72274450861403
 31
0.0
 73
     3
  0
TEXT
  5
64
  8
SPEC
 62
     7
 10
-326.4227964753573
 20
464.60194011000613
 30
0.0
 40
7.6012586805555546
  1
搬送波周波数
 41
0.7
 11
-326.4227964753573
 21
472.2031987905616
 31
0.0
 73
     3
  0
TEXT
  5
65
  8
SPEC
 62
     7
 10
-196.34817575184999
 20
419.17167169549168
 30
0.0
 40
7.6012586805555546
  1
35Hz～20kHz(\U+00B13dB)　※システム全体の帯域幅はマイクロホンにより変動　   
 41
0.7
 11
-196.34817575184999
 21
426.77293037604721
 31
0.0
 73
     3
  0
TEXT
  5
66
  8
SPEC
 62
     7
 10
-326.41933265782268
 20
419.27712329038559
 30
0.0
 40
7.6012586805555546
  1
周波数特性
 41
0.7
 11
-326.41933265782268
 21
426.87838197094112
 31
0.0
 73
     3
  0
TEXT
  5
67
  8
SPEC
 62
     7
 10
-196.28231310031171
 20
434.33030326743852
 30
0.0
 40
7.6012586805555546
  1
0.3%%%以下
 41
0.7
 11
-196.28231310031171
 21
441.931561947994
 31
0.0
 73
     3
  0
TEXT
  5
68
  8
SPEC
 62
     7
 10
-326.4925211161588
 20
434.09639095594082
 30
0.0
 40
7.6012586805555546
  1
THD
 41
0.7
 11
-326.4925211161588
 21
441.69764963649629
 31
0.0
 73
     3
  0
TEXT
  5
69
  8
SPEC
 62
     7
 10
-196.4879173468432
 20
404.40727375085021
 30
0.0
 40
7.6012586805555546
  1
端子：XLR
 41
0.7
 11
-196.4879173468432
 21
412.00853243140568
 31
0.0
 73
     3
  0
TEXT
  5
6A
  8
SPEC
 62
     7
 10
-326.49049690148888
 20
404.40375787481162
 30
0.0
 40
7.6012586805555546
  1
バランス出力
 41
0.7
 11
-326.49049690148888
 21
412.00501655536721
 31
0.0
 73
     3
  0
TEXT
  5
6B
  8
SPEC
 62
     7
 10
-196.97125098613009
 20
329.5689757651603
 30
0.0
 40
7.6012586805555546
  1
インピーダンス:670\U+03A9
 41
0.7
 11
-196.97125098613009
 21
337.17023444571578
 31
0.0
 73
     3
  0
LINE
  5
6C
  8
SPEC
  6
CONTINUOUS
 62
     7
 10
-329.99999999999989
 20
250.5954449999999
 30
0.0
 11
260.0
 21
250.5954449999999
 31
0.0
  0
TEXT
  5
6D
  8
SPEC
 62
     7
 10
-326.22227427660852
 20
284.3208718580438
 30
0.0
 40
7.6012586805555546
  1
SN比
 41
0.7
 11
-326.22227427660852
 21
291.92213053859928
 31
0.0
 73
     3
  0
TEXT
  5
6E
  8
SPEC
 62
     7
 10
-196.8493566561377
 20
284.00641034002012
 30
0.0
 40
7.6012586805555546
  1
120dB(Aウェイト)
 41
0.7
 11
-196.8493566561377
 21
291.6076690205756
 31
0.0
 73
     3
  0
LINE
  5
6F
  8
SPEC
  6
CONTINUOUS
 62
     7
 10
-330.0
 20
430.59544499999993
 30
0.0
 11
260.0
 21
430.59544499999993
 31
0.0
  0
TEXT
  5
70
  8
SPEC
 62
     7
 10
-326.6343900876322
 20
449.72628782748188
 30
0.0
 40
7.6012586805555546
  1
到達距離
 41
0.7
 11
-326.6343900876322
 21
457.32754650803741
 31
0.0
 73
     3
  0
TEXT
  5
71
  8
SPEC
 62
     7
 10
-196.5018035085032
 20
449.34844636386839
 30
0.0
 40
7.6012586805555546
  1
約70m　※見通しのよい屋外で使用した場合　※使用環境により異なる
 41
0.7
 11
-196.5018035085032
 21
456.94970504442392
 31
0.0
 73
     3
  0
TEXT
  5
72
  8
SPEC
 62
     7
 10
-196.95192592895509
 20
389.25753334173078
 30
0.0
 40
7.6012586805555546
  1
インピーダンス:670\U+03A9
 41
0.7
 11
-196.95192592895509
 21
396.85879202228642
 31
0.0
 73
     3
  0
TEXT
  5
73
  8
SPEC
 62
     7
 10
-196.3352155837693
 20
374.64795197919278
 30
0.0
 40
7.6012586805555546
  1
最大出力レベル:9dBu
 41
0.7
 11
-196.3352155837693
 21
382.24921065974843
 31
0.0
 73
     3
  0
TEXT
  5
74
  8
SPEC
 62
     7
 10
-196.64283350681831
 20
359.22866114076862
 30
0.0
 40
7.6012586805555546
  1
ゲイン調整:0dB(出力レベル「0」設定時)、-30dB(出力レベル「-30」設定時)
 41
0.7
 11
-196.64283350681831
 21
366.82991982132421
 31
0.0
 73
     3
  0
TEXT
  5
75
  8
SPEC
 62
     7
 10
-327.02679525911969
 20
344.32438154793613
 30
0.0
 40
7.6012586805555546
  1
アンバランス出力
 41
0.7
 11
-327.02679525911969
 21
351.92564022849172
 31
0.0
 73
     3
  0
TEXT
  5
76
  8
SPEC
 62
     7
 10
-196.3233522754301
 20
343.97599892914963
 30
0.0
 40
7.6012586805555546
  1
端子:標準フォーン(2P)
 41
0.7
 11
-196.3233522754301
 21
351.5772576097051
 31
0.0
 73
     3
  0
TEXT
  5
77
  8
SPEC
 62
     7
 10
-326.70399285342222
 20
269.40317746524892
 30
0.0
 40
7.6012586805555546
  1
電源
 41
0.7
 11
-326.70399285342222
 21
277.00443614580439
 31
0.0
 73
     3
  0
TEXT
  5
78
  8
SPEC
 62
     7
 10
-196.50740093371169
 20
269.23438082163761
 30
0.0
 40
7.6012586805555546
  1
DC12V(0.5A)、電源アダプタ ー(AC100V、50/60Hz)
 41
0.7
 11
-196.50740093371169
 21
276.83563950219309
 31
0.0
 73
     3
  0
LINE
  5
79
  8
SPEC
  6
CONTINUOUS
 62
     7
 10
-329.99999999999989
 20
235.59544500000001
 30
0.0
 11
260.0
 21
235.59544500000001
 31
0.0
  0
TEXT
  5
7A
  8
SPEC
 62
     7
 10
-196.97125098613009
 20
299.56897576516019
 30
0.0
 40
7.6012586805555546
  1
インピーダンス:50\U+03A9
 41
0.7
 11
-196.97125098613009
 21
307.17023444571578
 31
0.0
 73
     3
  0
TEXT
  5
7B
  8
SPEC
 62
     7
 10
-327.02679525911969
 20
314.32438154793613
 30
0.0
 40
7.6012586805555546
  1
アンテナ入力
 41
0.7
 11
-327.02679525911969
 21
321.92564022849172
 31
0.0
 73
     3
  0
TEXT
  5
7C
  8
SPEC
 62
     7
 10
-196.3233522754301
 20
313.97599892914963
 30
0.0
 40
7.6012586805555546
  1
端子:BNC
 41
0.7
 11
-196.3233522754301
 21
321.5772576097051
 31
0.0
 73
     3
  0
TEXT
  5
7D
  8
DIMNSIONS
 62
     7
 10
-80.0
 20
-460.32659499999988
 30
0.0
 40
9.7730468750000004
  1
(単位：mm)
 41
0.7
 11
-80.0
 21
-450.55354812499991
 31
0.0
 73
     3
  0
LINE
  5
7E
  8
DIMNSIONS
  6
CONTINUOUS
 62
     7
 10
-157.9999999999992
 20
-190.0
 30
0.0
 11
-287.76603900045637
 21
-190.0
 31
0.0
  0
LINE
  5
7F
  8
DIMNSIONS
  6
CONTINUOUS
 62
     7
 10
-258.0
 20
-56.0
 30
0.0
 11
-287.76603900045637
 21
-56.0
 31
0.0
  0
LINE
  5
80
  8
DIMNSIONS
  6
CONTINUOUS
 62
     7
 10
-279.76603900045637
 20
-190.0
 30
0.0
 11
-279.76603900045637
 21
-56.0
 31
0.0
  0
LINE
  5
81
  8
DIMNSIONS
  6
CONTINUOUS
 62
     7
 10
-279.76603900045637
 20
-190.0
 30
0.0
 11
-282.4461981810573
 21
-179.99750976562501
 31
0.0
  0
LINE
  5
82
  8
DIMNSIONS
  6
CONTINUOUS
 62
     7
 10
-279.76603900045637
 20
-190.0
 30
0.0
 11
-277.08587981985539
 21
-179.99750976562501
 31
0.0
  0
LINE
  5
83
  8
DIMNSIONS
  6
CONTINUOUS
 62
     7
 10
-279.76603900045637
 20
-56.0
 30
0.0
 11
-277.08587981985539
 21
-66.002490234375003
 31
0.0
  0
LINE
  5
84
  8
DIMNSIONS
  6
CONTINUOUS
 62
     7
 10
-279.76603900045637
 20
-56.0
 30
0.0
 11
-282.4461981810573
 21
-66.002490234375003
 31
0.0
  0
TEXT
  5
85
  8
DIMNSIONS
 62
     7
 10
-283.74159455601199
 20
-133.58333333333329
 30
0.0
 40
10.85894097222222
  1
134
 50
90.0
 41
0.7
 11
-294.60053552823422
 21
-133.58333333333329
 31
0.0
 73
     3
  0
LINE
  5
86
  8
DIMNSIONS
  6
CONTINUOUS
 62
     7
 10
129.5
 20
-59.400000000000013
 30
0.0
 11
92.0
 21
-59.400000000000013
 31
0.0
  0
LINE
  5
87
  8
DIMNSIONS
  6
CONTINUOUS
 62
     7
 10
129.5
 20
60.600000000000001
 30
0.0
 11
92.0
 21
60.600000000000001
 31
0.0
  0
LINE
  5
88
  8
DIMNSIONS
  6
CONTINUOUS
 62
     7
 10
100.0
 20
-59.400000000000013
 30
0.0
 11
100.0
 21
60.600000000000001
 31
0.0
  0
LINE
  5
89
  8
DIMNSIONS
  6
CONTINUOUS
 62
     7
 10
100.0
 20
-59.400000000000013
 30
0.0
 11
97.319840819399062
 21
-49.397509765625003
 31
0.0
  0
LINE
  5
8A
  8
DIMNSIONS
  6
CONTINUOUS
 62
     7
 10
100.0
 20
-59.400000000000013
 30
0.0
 11
102.6801591806009
 21
-49.397509765625003
 31
0.0
  0
LINE
  5
8B
  8
DIMNSIONS
  6
CONTINUOUS
 62
     7
 10
100.0
 20
60.600000000000001
 30
0.0
 11
102.6801591806009
 21
50.597509765624991
 31
0.0
  0
LINE
  5
8C
  8
DIMNSIONS
  6
CONTINUOUS
 62
     7
 10
100.0
 20
60.600000000000001
 30
0.0
 11
97.319840819399062
 21
50.597509765624991
 31
0.0
  0
TEXT
  5
8D
  8
DIMNSIONS
 62
     7
 10
96.024444444444441
 20
-9.9833333333333396
 30
0.0
 40
10.85894097222222
  1
120
 50
90.0
 41
0.7
 11
85.165503472222184
 21
-9.9833333333333378
 31
0.0
 73
     3
  0
LINE
  5
8E
  8
DIMNSIONS
  6
CONTINUOUS
 62
     7
 10
130.59999999999999
 20
-60.5
 30
0.0
 11
130.59999999999999
 21
-98.0
 31
0.0
  0
LINE
  5
8F
  8
DIMNSIONS
  6
CONTINUOUS
 62
     7
 10
144.40000000000001
 20
-60.5
 30
0.0
 11
144.40000000000001
 21
-98.0
 31
0.0
  0
LINE
  5
90
  8
DIMNSIONS
  6
CONTINUOUS
 62
     7
 10
144.40000000000001
 20
-90.0
 30
0.0
 11
130.59999999999999
 21
-90.0
 31
0.0
  0
LINE
  5
91
  8
DIMNSIONS
  6
CONTINUOUS
 62
     7
 10
130.59999999999999
 20
-90.0
 30
0.0
 11
84.2777777777778
 21
-90.0
 31
0.0
  0
LINE
  5
92
  8
DIMNSIONS
  6
CONTINUOUS
 62
     7
 10
130.59999999999999
 20
-90.0
 30
0.0
 11
120.59750976562501
 21
-92.680159180600995
 31
0.0
  0
LINE
  5
93
  8
DIMNSIONS
  6
CONTINUOUS
 62
     7
 10
130.59999999999999
 20
-90.0
 30
0.0
 11
120.59750976562501
 21
-87.319840819399019
 31
0.0
  0
LINE
  5
94
  8
DIMNSIONS
  6
CONTINUOUS
 62
     7
 10
144.40000000000001
 20
-90.0
 30
0.0
 11
164.40000000000001
 21
-90.0
 31
0.0
  0
LINE
  5
95
  8
DIMNSIONS
  6
CONTINUOUS
 62
     7
 10
144.40000000000001
 20
-90.0
 30
0.0
 11
154.40249023437499
 21
-87.319840819399019
 31
0.0
  0
LINE
  5
96
  8
DIMNSIONS
  6
CONTINUOUS
 62
     7
 10
144.40000000000001
 20
-90.0
 30
0.0
 11
154.40249023437499
 21
-92.680159180600953
 31
0.0
  0
TEXT
  5
97
  8
DIMNSIONS
 62
     7
 10
84.2777777777778
 20
-86.024444444444427
 30
0.0
 40
10.85894097222222
  1
13.8
 41
0.7
 11
84.2777777777778
 21
-75.165503472222198
 31
0.0
 73
     3
  0
LINE
  5
98
  8
DIMNSIONS
  6
CONTINUOUS
 62
     7
 10
122.60000000036609
 20
97.500000000174865
 30
0.0
 11
92.0
 21
97.500000000174865
 31
0.0
  0
LINE
  5
99
  8
DIMNSIONS
  6
CONTINUOUS
 62
     7
 10
124.0000000002661
 20
125.75000000017479
 30
0.0
 11
92.0
 21
125.75000000017479
 31
0.0
  0
LINE
  5
9A
  8
DIMNSIONS
  6
CONTINUOUS
 62
     7
 10
100.0
 20
97.500000000174865
 30
0.0
 11
100.0
 21
125.75000000017479
 31
0.0
  0
LINE
  5
9B
  8
DIMNSIONS
  6
CONTINUOUS
 62
     7
 10
100.0
 20
97.500000000174865
 30
0.0
 11
97.319840819399062
 21
107.5024902345498
 31
0.0
  0
LINE
  5
9C
  8
DIMNSIONS
  6
CONTINUOUS
 62
     7
 10
100.0
 20
97.500000000174865
 30
0.0
 11
102.6801591806009
 21
107.5024902345498
 31
0.0
  0
LINE
  5
9D
  8
DIMNSIONS
  6
CONTINUOUS
 62
     7
 10
100.0
 20
125.75000000017479
 30
0.0
 11
102.6801591806009
 21
115.7475097657998
 31
0.0
  0
LINE
  5
9E
  8
DIMNSIONS
  6
CONTINUOUS
 62
     7
 10
100.0
 20
125.75000000017479
 30
0.0
 11
97.319840819399062
 21
115.7475097657998
 31
0.0
  0
TEXT
  5
9F
  8
DIMNSIONS
 62
     7
 10
96.024444444444441
 20
97.513888889063722
 30
0.0
 40
10.85894097222222
  1
28.3
 50
90.0
 41
0.7
 11
85.165503472222184
 21
97.513888889063722
 31
0.0
 73
     3
  0
LINE
  5
A0
  8
DIMNSIONS
  6
CONTINUOUS
 62
     7
 10
-258.0
 20
-56.0
 30
0.0
 11
-287.76603900045637
 21
-56.0
 31
0.0
  0
LINE
  5
A1
  8
DIMNSIONS
  6
CONTINUOUS
 62
     7
 10
-222.34485922360179
 20
-19.0
 30
0.0
 11
-287.76603900045637
 21
-19.0
 31
0.0
  0
LINE
  5
A2
  8
DIMNSIONS
  6
CONTINUOUS
 62
     7
 10
-279.76603900045637
 20
-56.0
 30
0.0
 11
-279.76603900045637
 21
-19.0
 31
0.0
  0
LINE
  5
A3
  8
DIMNSIONS
  6
CONTINUOUS
 62
     7
 10
-279.76603900045637
 20
-56.0
 30
0.0
 11
-282.4461981810573
 21
-45.99750976562499
 31
0.0
  0
LINE
  5
A4
  8
DIMNSIONS
  6
CONTINUOUS
 62
     7
 10
-279.76603900045637
 20
-56.0
 30
0.0
 11
-277.08587981985539
 21
-45.99750976562499
 31
0.0
  0
LINE
  5
A5
  8
DIMNSIONS
  6
CONTINUOUS
 62
     7
 10
-279.76603900045637
 20
-19.0
 30
0.0
 11
-277.08587981985539
 21
-29.002490234374999
 31
0.0
  0
LINE
  5
A6
  8
DIMNSIONS
  6
CONTINUOUS
 62
     7
 10
-279.76603900045637
 20
-19.0
 30
0.0
 11
-282.4461981810573
 21
-29.002490234374999
 31
0.0
  0
TEXT
  5
A7
  8
DIMNSIONS
 62
     7
 10
-283.74159455601199
 20
-51.611111111111107
 30
0.0
 40
10.85894097222222
  1
37.0
 50
90.0
 41
0.7
 11
-294.60053552823427
 21
-51.611111111111107
 31
0.0
 73
     3
  0
TEXT
  5
A8
  8
DIMNSIONS
 62
     7
 10
158.74651806772431
 20
-11.59432992534864
 30
0.0
 40
10.85894097222222
  1
\U+03A611.0
 41
0.7
 11
158.74651806772431
 21
-0.7353889531264168
 31
0.0
 73
     3
  0
LINE
  5
A9
  8
DIMNSIONS
  6
CONTINUOUS
 62
     7
 10
143.0
 20
-15.0
 30
0.0
 11
202.35849908582989
 21
-15.0
 31
0.0
  0
LINE
  5
AA
  8
DIMNSIONS
  6
CONTINUOUS
 62
     7
 10
143.0
 20
-15.0
 30
0.0
 11
155.69999999999999
 21
-11.597045256124741
 31
0.0
  0
LINE
  5
AB
  8
DIMNSIONS
  6
CONTINUOUS
 62
     7
 10
143.0
 20
-15.0
 30
0.0
 11
155.69999999999999
 21
-18.402954743875249
 31
0.0
  0
TEXT
  5
AC
  8
DIMNSIONS
 62
     7
 10
160.0
 20
37.675247367756633
 30
0.0
 40
10.85894097222222
  1
\U+03A66.0
 41
0.7
 11
160.0
 21
48.534188339978847
 31
0.0
 73
     3
  0
LINE
  5
AD
  8
DIMNSIONS
  6
CONTINUOUS
 62
     7
 10
200.0
 20
34.800000000000011
 30
0.0
 11
140.5029506891839
 21
34.800000000000011
 31
0.0
  0
LINE
  5
AE
  8
DIMNSIONS
  6
CONTINUOUS
 62
     7
 10
140.5029506891839
 20
34.800000000000011
 30
0.0
 11
153.20295068918389
 21
38.202954743875281
 31
0.0
  0
LINE
  5
AF
  8
DIMNSIONS
  6
CONTINUOUS
 62
     7
 10
140.5029506891839
 20
34.800000000000011
 30
0.0
 11
153.20295068918389
 21
31.397045256124759
 31
0.0
  0
LINE
  5
B0
  8
DIMNSIONS
  6
CONTINUOUS
 62
     7
 10
-255.06415600182581
 20
-349.99931392278802
 30
0.0
 11
-288.0
 21
-349.99931392278802
 31
0.0
  0
LINE
  5
B1
  8
DIMNSIONS
  6
CONTINUOUS
 62
     7
 10
-255.06415600182581
 20
-307.00068607721209
 30
0.0
 11
-288.0
 21
-307.00068607721209
 31
0.0
  0
LINE
  5
B2
  8
DIMNSIONS
  6
CONTINUOUS
 62
     7
 10
-280.0
 20
-349.99931392278802
 30
0.0
 11
-280.0
 21
-307.00068607721209
 31
0.0
  0
LINE
  5
B3
  8
DIMNSIONS
  6
CONTINUOUS
 62
     7
 10
-280.0
 20
-349.99931392278802
 30
0.0
 11
-282.68015918060092
 21
-339.99682368841292
 31
0.0
  0
LINE
  5
B4
  8
DIMNSIONS
  6
CONTINUOUS
 62
     7
 10
-280.0
 20
-349.99931392278802
 30
0.0
 11
-277.31984081939902
 21
-339.99682368841292
 31
0.0
  0
LINE
  5
B5
  8
DIMNSIONS
  6
CONTINUOUS
 62
     7
 10
-280.0
 20
-307.00068607721209
 30
0.0
 11
-277.31984081939902
 21
-317.00317631158708
 31
0.0
  0
LINE
  5
B6
  8
DIMNSIONS
  6
CONTINUOUS
 62
     7
 10
-280.0
 20
-307.00068607721209
 30
0.0
 11
-282.68015918060092
 21
-317.00317631158708
 31
0.0
  0
TEXT
  5
B7
  8
DIMNSIONS
 62
     7
 10
-283.9755569980216
 20
-342.61112187703452
 30
0.0
 40
10.85894890095585
  1
43.0
 50
90.0
 41
0.7
 11
-294.8345058989774
 21
-342.61112187703452
 31
0.0
 73
     3
  0
LINE
  5
B8
  8
DIMNSIONS
  6
CONTINUOUS
 62
     7
 10
-250.0
 20
-355.0
 30
0.0
 11
-250.0
 21
-387.99931392278802
 31
0.0
  0
LINE
  5
B9
  8
DIMNSIONS
  6
CONTINUOUS
 62
     7
 10
-50.0
 20
-355.0
 30
0.0
 11
-50.0
 21
-387.99931392278802
 31
0.0
  0
LINE
  5
BA
  8
DIMNSIONS
  6
CONTINUOUS
 62
     7
 10
-250.0
 20
-379.99931392278802
 30
0.0
 11
-50.0
 21
-379.99931392278802
 31
0.0
  0
LINE
  5
BB
  8
DIMNSIONS
  6
CONTINUOUS
 62
     7
 10
-250.0
 20
-379.99931392278802
 30
0.0
 11
-239.99750976562501
 21
-377.31915474218698
 31
0.0
  0
LINE
  5
BC
  8
DIMNSIONS
  6
CONTINUOUS
 62
     7
 10
-250.0
 20
-379.99931392278802
 30
0.0
 11
-239.99750976562501
 21
-382.67947310338889
 31
0.0
  0
LINE
  5
BD
  8
DIMNSIONS
  6
CONTINUOUS
 62
     7
 10
-50.0
 20
-379.99931392278802
 30
0.0
 11
-60.002490234375003
 21
-382.67947310338889
 31
0.0
  0
LINE
  5
BE
  8
DIMNSIONS
  6
CONTINUOUS
 62
     7
 10
-50.0
 20
-379.99931392278802
 30
0.0
 11
-60.002490234375003
 21
-377.31915474218698
 31
0.0
  0
TEXT
  5
BF
  8
DIMNSIONS
 62
     7
 10
-160.58334140777589
 20
-376.02375692476642
 30
0.0
 40
10.85894890095585
  1
200
 41
0.7
 11
-160.58334140777589
 21
-365.16480802381051
 31
0.0
 73
     3
  0
LINE
  5
C0
  8
DIMNSIONS
  6
CONTINUOUS
 62
     7
 10
-255.06415600182581
 20
-307.00068607721209
 30
0.0
 11
-288.0
 21
-307.00068607721209
 31
0.0
  0
LINE
  5
C1
  8
DIMNSIONS
  6
CONTINUOUS
 62
     7
 10
-216.74839498258419
 20
-221.99999999997871
 30
0.0
 11
-288.0
 21
-221.99999999997871
 31
0.0
  0
LINE
  5
C2
  8
DIMNSIONS
  6
CONTINUOUS
 62
     7
 10
-280.0
 20
-307.00068607721209
 30
0.0
 11
-280.0
 21
-221.99999999997871
 31
0.0
  0
LINE
  5
C3
  8
DIMNSIONS
  6
CONTINUOUS
 62
     7
 10
-280.0
 20
-307.00068607721209
 30
0.0
 11
-282.68015918060092
 21
-296.99819584283711
 31
0.0
  0
LINE
  5
C4
  8
DIMNSIONS
  6
CONTINUOUS
 62
     7
 10
-280.0
 20
-307.00068607721209
 30
0.0
 11
-277.31984081939902
 21
-296.99819584283711
 31
0.0
  0
LINE
  5
C5
  8
DIMNSIONS
  6
CONTINUOUS
 62
     7
 10
-280.0
 20
-221.99999999997871
 30
0.0
 11
-277.31984081939902
 21
-232.0024902343537
 31
0.0
  0
LINE
  5
C6
  8
DIMNSIONS
  6
CONTINUOUS
 62
     7
 10
-280.0
 20
-221.99999999997871
 30
0.0
 11
-282.68015918060092
 21
-232.0024902343537
 31
0.0
  0
TEXT
  5
C7
  8
DIMNSIONS
 62
     7
 10
-283.9755569980216
 20
-278.61146491562982
 30
0.0
 40
10.85894890095585
  1
85.0
 50
90.0
 41
0.7
 11
-294.8345058989774
 21
-278.61146491562982
 31
0.0
 73
     3
  0
LINE
  5
C8
  8
DIMNSIONS
  6
CONTINUOUS
 62
     7
 10
-248.69999999999999
 20
-351.0
 30
0.0
 11
-288.0
 21
-351.0
 31
0.0
  0
LINE
  5
C9
  8
DIMNSIONS
  6
CONTINUOUS
 62
     7
 10
-255.0
 20
-350.0
 30
0.0
 11
-288.0
 21
-350.0
 31
0.0
  0
LINE
  5
CA
  8
DIMNSIONS
  6
CONTINUOUS
 62
     7
 10
-280.0
 20
-350.0
 30
0.0
 11
-280.0
 21
-351.0
 31
0.0
  0
LINE
  5
CB
  8
DIMNSIONS
  6
CONTINUOUS
 62
     7
 10
-280.0
 20
-351.0
 30
0.0
 11
-280.0
 21
-384.11112187703452
 31
0.0
  0
LINE
  5
CC
  8
DIMNSIONS
  6
CONTINUOUS
 62
     7
 10
-280.0
 20
-351.0
 30
0.0
 11
-277.31984081939902
 21
-361.00249023437487
 31
0.0
  0
LINE
  5
CD
  8
DIMNSIONS
  6
CONTINUOUS
 62
     7
 10
-280.0
 20
-351.0
 30
0.0
 11
-282.68015918060092
 21
-361.00249023437487
 31
0.0
  0
LINE
  5
CE
  8
DIMNSIONS
  6
CONTINUOUS
 62
     7
 10
-280.0
 20
-350.0
 30
0.0
 11
-280.0
 21
-330.0
 31
0.0
  0
LINE
  5
CF
  8
DIMNSIONS
  6
CONTINUOUS
 62
     7
 10
-280.0
 20
-350.0
 30
0.0
 11
-282.68015918060092
 21
-339.99750976562501
 31
0.0
  0
LINE
  5
D0
  8
DIMNSIONS
  6
CONTINUOUS
 62
     7
 10
-280.0
 20
-350.0
 30
0.0
 11
-277.31984081939902
 21
-339.99750976562501
 31
0.0
  0
TEXT
  5
D1
  8
DIMNSIONS
 62
     7
 10
-283.97555699802149
 20
-384.11112187703452
 30
0.0
 40
10.85894890095585
  1
1.0
 50
90.0
 41
0.7
 11
-294.83450589897728
 21
-384.11112187703452
 31
0.0
 73
     3
  0
TEXT
  5
D2
  8
DATA
 62
     7
 10
200.0
 20
-464.88099499999993
 30
0.0
 40
9.7730468750000004
  1
SR470
 41
0.7
 11
200.0
 21
-455.10794812500001
 31
0.0
 73
     3
  0
TEXT
  5
D3
  8
DATA
 62
     7
 10
200.0
 20
-435.88099499999998
 30
0.0
 40
9.7730468750000004
  1
AKG
 41
0.7
 11
200.0
 21
-426.10794812500001
 31
0.0
 73
     3
  0
TEXT
  5
D4
  8
DATA
 62
     7
 10
200.0
 20
-449.7888198
 30
0.0
 40
6.5153748437499992
  1
受信機
 41
0.7
 11
200.0
 21
-443.27344495624999
 31
0.0
 73
     3
  0
LINE
  5
D5
  8
DATA
  6
CONTINUOUS
 62
     7
 10
-250.0
 20
-347.0
 30
0.0
 11
-250.0
 21
-310.0
 31
0.0
  0
LINE
  5
D6
  8
DATA
  6
CONTINUOUS
 62
     7
 10
-50.0
 20
-310.0
 30
0.0
 11
-50.0
 21
-347.0
 31
0.0
  0
LINE
  5
D7
  8
DATA
  6
CONTINUOUS
 62
     7
 10
-247.0
 20
-307.0
 30
0.0
 11
-53.0
 21
-307.0
 31
0.0
  0
LINE
  5
D8
  8
DATA
  6
CONTINUOUS
 62
     7
 10
-250.0
 20
-179.83639014397011
 30
0.0
 11
-250.0
 21
-56.0
 31
0.0
  0
LINE
  5
D9
  8
DATA
  6
CONTINUOUS
 62
     7
 10
-50.0
 20
-56.0
 30
0.0
 11
-50.0
 21
-179.83639014397011
 31
0.0
  0
LINE
  5
DA
  8
DATA
  6
CONTINUOUS
 62
     7
 10
-250.0
 20
-56.0
 30
0.0
 11
-50.0
 21
-56.0
 31
0.0
  0
LINE
  5
DB
  8
DATA
  6
CONTINUOUS
 62
     7
 10
50.000000000000021
 20
-345.69758039938171
 30
0.0
 11
50.000000000000021
 21
-311.12796031191658
 31
0.0
  0
LINE
  5
DC
  8
DATA
  6
CONTINUOUS
 62
     7
 10
184.0
 20
-350.0
 30
0.0
 11
71.999999999999829
 21
-350.0
 31
0.0
  0
LINE
  5
DD
  8
DATA
  6
CONTINUOUS
 62
     7
 10
184.0
 20
-307.0
 30
0.0
 11
184.0
 21
-350.0
 31
0.0
  0
LINE
  5
DE
  8
DATA
  6
CONTINUOUS
 62
     7
 10
-240.69999999999999
 20
-351.0
 30
0.0
 11
-229.30000000000001
 21
-351.0
 31
0.0
  0
LINE
  5
DF
  8
DATA
  6
CONTINUOUS
 62
     7
 10
-241.0
 20
-350.0
 30
0.0
 11
-240.69999999999999
 21
-351.0
 31
0.0
  0
LINE
  5
E0
  8
DATA
  6
CONTINUOUS
 62
     7
 10
-229.0
 20
-350.0
 30
0.0
 11
-229.30000000000001
 21
-351.0
 31
0.0
  0
LINE
  5
E1
  8
DATA
  6
CONTINUOUS
 62
     7
 10
-70.699999999999974
 20
-351.0
 30
0.0
 11
-59.300000000000011
 21
-351.0
 31
0.0
  0
LINE
  5
E2
  8
DATA
  6
CONTINUOUS
 62
     7
 10
-71.0
 20
-350.0
 30
0.0
 11
-70.699999999999974
 21
-351.0
 31
0.0
  0
LINE
  5
E3
  8
DATA
  6
CONTINUOUS
 62
     7
 10
-59.0
 20
-350.0
 30
0.0
 11
-59.300000000000011
 21
-351.0
 31
0.0
  0
ARC
  5
E4
  8
DATA
  6
CONTINUOUS
 62
     7
 10
-247.0
 20
-310.0
 30
0.0
 40
3.0
 50
90.0
 51
180.0
  0
ARC
  5
E5
  8
DATA
  6
CONTINUOUS
 62
     7
 10
-247.0
 20
-347.0
 30
0.0
 40
3.0
 50
180.0
 51
270.0
  0
ARC
  5
E6
  8
DATA
  6
CONTINUOUS
 62
     7
 10
-53.0
 20
-310.0
 30
0.0
 40
3.0
 50
0.0
 51
90.0
  0
ARC
  5
E7
  8
DATA
  6
CONTINUOUS
 62
     7
 10
-53.0
 20
-347.0
 30
0.0
 40
3.0
 50
270.0
 51
0.0
  0
CIRCLE
  5
E8
  8
DATA
  6
CONTINUOUS
 62
     7
 10
-238.0
 20
-334.0
 30
0.0
 40
3.75
  0
CIRCLE
  5
E9
  8
DATA
  6
CONTINUOUS
 62
     7
 10
-238.0
 20
-334.0
 30
0.0
 40
7.0
  0
CIRCLE
  5
EA
  8
DATA
  6
CONTINUOUS
 62
     7
 10
-214.5
 20
-334.0
 30
0.0
 40
3.75
  0
CIRCLE
  5
EB
  8
DATA
  6
CONTINUOUS
 62
     7
 10
-214.5
 20
-334.0
 30
0.0
 40
7.0
  0
TEXT
  5
EC
  8
DATA
 62
     7
 10
-242.90415496058571
 20
-346.01726904654578
 30
0.0
 40
2.7147352430555549
  1
ON/OFF
 41
0.7
 11
-242.90415496058571
 21
-343.30253380349018
 31
0.0
 73
     3
  0
TEXT
  5
ED
  8
DATA
 62
     7
 10
-219.71661984234291
 20
-346.01726904654578
 30
0.0
 40
2.7147352430555549
  1
VOLUME
 41
0.7
 11
-219.71661984234291
 21
-343.30253380349018
 31
0.0
 73
     3
  0
CIRCLE
  5
EE
  8
DATA
  6
CONTINUOUS
 62
     7
 10
-85.0
 20
-333.0
 30
0.0
 40
4.0
  0
CIRCLE
  5
EF
  8
DATA
  6
CONTINUOUS
 62
     7
 10
-73.0
 20
-333.0
 30
0.0
 40
4.0
  0
CIRCLE
  5
F0
  8
DATA
  6
CONTINUOUS
 62
     7
 10
-61.0
 20
-333.0
 30
0.0
 40
4.0
  0
CIRCLE
  5
F1
  8
DATA
  6
CONTINUOUS
 62
     7
 10
-73.0
 20
-333.0
 30
0.0
 40
1.0999999999999941
  0
ARC
  5
F2
  8
DATA
  6
CONTINUOUS
 62
     7
 10
-85.0
 20
-333.0
 30
0.0
 40
7.0000000000000018
 50
31.002719133874042
 51
328.99728086612612
  0
ARC
  5
F3
  8
DATA
  6
CONTINUOUS
 62
     7
 10
-73.0
 20
-333.0
 30
0.0
 40
7.0000000000000018
 50
211.002719133874
 51
328.99728086612612
  0
ARC
  5
F4
  8
DATA
  6
CONTINUOUS
 62
     7
 10
-73.0
 20
-333.0
 30
0.0
 40
7.0000000000000018
 50
31.002719133874042
 51
148.997280866126
  0
ARC
  5
F5
  8
DATA
  6
CONTINUOUS
 62
     7
 10
-61.0
 20
-333.0
 30
0.0
 40
7.0000000000000018
 50
211.002719133874
 51
148.997280866126
  0
LINE
  5
F6
  8
DATA
  6
CONTINUOUS
 62
     7
 10
-62.0
 20
-332.0
 30
0.0
 11
-60.0
 21
-333.0
 31
0.0
  0
LINE
  5
F7
  8
DATA
  6
CONTINUOUS
 62
     7
 10
-62.0
 20
-334.0
 30
0.0
 11
-60.0
 21
-333.0
 31
0.0
  0
LINE
  5
F8
  8
DATA
  6
CONTINUOUS
 62
     7
 10
-86.0
 20
-333.0
 30
0.0
 11
-84.0
 21
-332.0
 31
0.0
  0
LINE
  5
F9
  8
DATA
  6
CONTINUOUS
 62
     7
 10
-84.0
 20
-334.0
 30
0.0
 11
-86.0
 21
-333.0
 31
0.0
  0
LINE
  5
FA
  8
DATA
  6
CONTINUOUS
 62
     7
 10
-84.0
 20
-334.0
 30
0.0
 11
-84.0
 21
-332.0
 31
0.0
  0
LINE
  5
FB
  8
DATA
  6
CONTINUOUS
 62
     7
 10
-62.0
 20
-334.0
 30
0.0
 11
-62.0
 21
-332.0
 31
0.0
  0
ARC
  5
FC
  8
DATA
  6
CONTINUOUS
 62
     7
 10
-150.0
 20
-383.60000000000002
 30
0.0
 40
38.599999999999973
 50
60.512874327058512
 51
119.4871256729415
  0
ARC
  5
FD
  8
DATA
  6
CONTINUOUS
 62
     7
 10
-255.51142091791851
 20
-445.40343763853127
 30
0.0
 40
130.93726059470839
 50
72.2990056534437
 51
84.824500301619921
  0
ARC
  5
FE
  8
DATA
  6
CONTINUOUS
 62
     7
 10
-44.488579082081529
 20
-445.40343763853127
 30
0.0
 40
130.93726059470839
 50
95.175499698380094
 51
107.7009943465563
  0
ARC
  5
FF
  8
DATA
  6
CONTINUOUS
 62
     7
 10
-150.0
 20
-283.4993334861756
 30
0.0
 40
59.999999999999979
 50
250.83454348280921
 51
289.16545651719088
  0
LINE
  5
100
  8
DATA
  6
CONTINUOUS
 62
     7
 10
-169.6978334905036
 20
-340.17380177464207
 30
0.0
 11
-215.69999999999999
 21
-320.6652439024391
 31
0.0
  0
LINE
  5
101
  8
DATA
  6
CONTINUOUS
 62
     7
 10
-130.30216650949629
 20
-340.17380177464207
 30
0.0
 11
-84.300000000000026
 21
-320.6652439024391
 31
0.0
  0
LINE
  5
102
  8
DATA
  6
CONTINUOUS
 62
     7
 10
-243.69999999999999
 20
-315.0
 30
0.0
 11
-250.0
 21
-315.0
 31
0.0
  0
LINE
  5
103
  8
DATA
  6
CONTINUOUS
 62
     7
 10
-56.300000000000011
 20
-315.0
 30
0.0
 11
-50.0
 21
-315.0
 31
0.0
  0
TEXT
  5
104
  8
DATA
 62
     7
 10
-158.86238256886921
 20
-315.52896980274528
 30
0.0
 40
2.7147352430555549
  1
A
 41
0.7
 11
-158.86238256886921
 21
-312.81423455968968
 31
0.0
 73
     3
  0
TEXT
  5
105
  8
DATA
 62
     7
 10
-142.86238256886921
 20
-315.52896980274528
 30
0.0
 40
2.7147352430555549
  1
B
 41
0.7
 11
-142.86238256886921
 21
-312.81423455968968
 31
0.0
 73
     3
  0
TEXT
  5
106
  8
DATA
 62
     7
 10
-171.91344142689121
 20
-315.49733031578012
 30
0.0
 40
2.7147352430555549
  1
RF
 41
0.7
 11
-171.91344142689121
 21
-312.78259507272452
 31
0.0
 73
     3
  0
TEXT
  5
107
  8
DATA
 62
     7
 10
-130.91344142689121
 20
-315.49733031578012
 30
0.0
 40
2.7147352430555549
  1
AF
 41
0.7
 11
-130.91344142689121
 21
-312.78259507272452
 31
0.0
 73
     3
  0
TEXT
  5
108
  8
DATA
 62
     7
 10
-183.94877148249091
 20
-315.55654412637801
 30
0.0
 40
2.7147352430555549
  1
OK
 41
0.7
 11
-183.94877148249091
 21
-312.84180888332253
 31
0.0
 73
     3
  0
TEXT
  5
109
  8
DATA
 62
     7
 10
-119.2883016044222
 20
-315.5335131304962
 30
0.0
 40
2.7147352430555549
  1
OK
 41
0.7
 11
-119.2883016044222
 21
-312.81877788744072
 31
0.0
 73
     3
  0
TEXT
  5
10A
  8
DATA
 62
     7
 10
-193.55810891611691
 20
-315.53138172335491
 30
0.0
 40
2.7147352430555549
  1
MUTE
 41
0.7
 11
-193.55810891611691
 21
-312.81664648029943
 31
0.0
 73
     3
  0
TEXT
  5
10B
  8
DATA
 62
     7
 10
-113.55810891611679
 20
-315.53138172335491
 30
0.0
 40
2.7147352430555549
  1
CLIP
 41
0.7
 11
-113.55810891611679
 21
-312.81664648029943
 31
0.0
 73
     3
  0
TEXT
  5
10C
  8
DATA
 62
     7
 10
-244.15018685340439
 20
-310.93009174705747
 30
0.0
 40
3.2576822916666659
  1
SR470
 41
0.7
 11
-244.15018685340439
 21
-307.67240945539078
 31
0.0
 73
     3
  0
TEXT
  5
10D
  8
DATA
 62
     7
 10
-236.22268188877561
 20
-314.69896411670629
 30
0.0
 40
2.1717881944444439
  1
STATIONARY RECEIVER
 41
0.7
 11
-236.22268188877561
 21
-312.52717592226179
 31
0.0
 73
     3
  0
TEXT
  5
10E
  8
DATA
 62
     7
 10
-72.916742486908731
 20
-310.89407085746927
 30
0.0
 40
2.7147352430555549
  1
DATA UPLINK
 41
0.7
 11
-72.916742486908731
 21
-308.17933561441379
 31
0.0
 73
     3
  0
TEXT
  5
10F
  8
DATA
 62
     7
 10
-80.321093174870697
 20
-311.83845455380998
 30
0.0
 40
3.2576822916666659
  1
iR
 41
0.7
 11
-80.321093174870697
 21
-308.58077226214328
 31
0.0
 73
     3
  0
POLYLINE
  5
110
  8
DATA
  6
CONTINUOUS
 62
     7
 66
     1
 10
0.0
 20
0.0
 30
0.0
 70
     1
  0
VERTEX
  5
3FD
  8
DATA
  6
CONTINUOUS
 62
     7
 10
-90.499999999999986
 20
-308.0777525043639
 30
0.0
  0
VERTEX
  5
3FE
  8
DATA
  6
CONTINUOUS
 62
     7
 10
-80.999999999999986
 20
-308.0777525043639
 30
0.0
  0
VERTEX
  5
3FF
  8
DATA
  6
CONTINUOUS
 62
     7
 10
-80.999999999999986
 20
-312.0777525043639
 30
0.0
  0
VERTEX
  5
400
  8
DATA
  6
CONTINUOUS
 62
     7
 10
-90.499999999999986
 20
-312.0777525043639
 30
0.0
  0
SEQEND
  5
401
  8
DATA
  6
CONTINUOUS
 62
     7
  0
LINE
  5
117
  8
DATA
  6
CONTINUOUS
 62
     7
 10
-250.0
 20
-168.0
 30
0.0
 11
-50.0
 21
-168.0
 31
0.0
  0
ARC
  5
118
  8
DATA
  6
CONTINUOUS
 62
     7
 10
-142.59999999999999
 20
31.700000000000049
 30
0.0
 40
221.82346584615439
 50
259.16464996031362
 51
268.08826605585369
  0
ARC
  5
119
  8
DATA
  6
CONTINUOUS
 62
     7
 10
-241.5
 20
-383.11499999999978
 30
0.0
 40
203.29277710976331
 50
84.523995598686355
 51
90.676428681728027
  0
ARC
  5
11A
  8
DATA
  6
CONTINUOUS
 62
     7
 10
-237.07057975001629
 20
-419.7362264683901
 30
0.0
 40
239.45466105225901
 50
77.268754360175663
 51
86.415560266646978
  0
ARC
  5
11B
  8
DATA
  6
CONTINUOUS
 62
     7
 10
-157.39999999999989
 20
31.700000000000049
 30
0.0
 40
221.82346584615439
 50
271.91173394414642
 51
280.83535003968638
  0
ARC
  5
11C
  8
DATA
  6
CONTINUOUS
 62
     7
 10
-58.499999999999943
 20
-383.11499999999978
 30
0.0
 40
203.29277710976331
 50
89.323571318272656
 51
95.476004401313645
  0
ARC
  5
11D
  8
DATA
  6
CONTINUOUS
 62
     7
 10
-62.929420249983743
 20
-419.7362264683901
 30
0.0
 40
239.45466105225901
 50
93.584439733353008
 51
102.73124563982429
  0
LINE
  5
11E
  8
DATA
  6
CONTINUOUS
 62
     7
 10
-241.75
 20
-181.03049274090159
 30
0.0
 11
-241.75
 21
-179.82237660947951
 31
0.0
  0
LINE
  5
11F
  8
DATA
  6
CONTINUOUS
 62
     7
 10
-234.25
 20
-181.03049274090159
 30
0.0
 11
-234.25
 21
-179.951541856071
 31
0.0
  0
LINE
  5
120
  8
DATA
  6
CONTINUOUS
 62
     7
 10
-89.0
 20
-183.53236253502129
 30
0.0
 11
-89.0
 21
-181.70501092901949
 31
0.0
  0
LINE
  5
121
  8
DATA
  6
CONTINUOUS
 62
     7
 10
-81.0
 20
-183.53236253502129
 30
0.0
 11
-81.0
 21
-180.96439218479921
 31
0.0
  0
LINE
  5
122
  8
DATA
  6
CONTINUOUS
 62
     7
 10
-69.0
 20
-183.53236253502129
 30
0.0
 11
-69.0
 21
-180.09356461693511
 31
0.0
  0
LINE
  5
123
  8
DATA
  6
CONTINUOUS
 62
     7
 10
-77.0
 20
-183.53236253502129
 30
0.0
 11
-77.0
 21
-180.66573913446851
 31
0.0
  0
LINE
  5
124
  8
DATA
  6
CONTINUOUS
 62
     7
 10
-65.0
 20
-183.53236253502129
 30
0.0
 11
-65.0
 21
-179.9261636309711
 31
0.0
  0
LINE
  5
125
  8
DATA
  6
CONTINUOUS
 62
     7
 10
-57.0
 20
-183.53236253502129
 30
0.0
 11
-57.0
 21
-179.82775685621581
 31
0.0
  0
LINE
  5
126
  8
DATA
  6
CONTINUOUS
 62
     7
 10
-243.90000000000029
 20
-179.83639014397011
 30
0.0
 11
-250.0
 21
-179.83639014397011
 31
0.0
  0
LINE
  5
127
  8
DATA
  6
CONTINUOUS
 62
     7
 10
-56.100000000002012
 20
-179.83639014397011
 30
0.0
 11
-50.0
 21
-179.83639014397011
 31
0.0
  0
LINE
  5
128
  8
DATA
  6
CONTINUOUS
 62
     7
 10
-57.0
 20
-183.53236253502129
 30
0.0
 11
-65.0
 21
-183.53236253502129
 31
0.0
  0
LINE
  5
129
  8
DATA
  6
CONTINUOUS
 62
     7
 10
-69.0
 20
-183.53236253502129
 30
0.0
 11
-77.0
 21
-183.53236253502129
 31
0.0
  0
LINE
  5
12A
  8
DATA
  6
CONTINUOUS
 62
     7
 10
-81.0
 20
-183.53236253502129
 30
0.0
 11
-89.0
 21
-183.53236253502129
 31
0.0
  0
LINE
  5
12B
  8
DATA
  6
CONTINUOUS
 62
     7
 10
-218.25
 20
-183.53236253502129
 30
0.0
 11
-218.25
 21
-181.02233814698241
 31
0.0
  0
LINE
  5
12C
  8
DATA
  6
CONTINUOUS
 62
     7
 10
-210.75
 20
-183.53236253502129
 30
0.0
 11
-210.75
 21
-181.7325252760026
 31
0.0
  0
LINE
  5
12D
  8
DATA
  6
CONTINUOUS
 62
     7
 10
-210.75
 20
-183.53236253502129
 30
0.0
 11
-218.25
 21
-183.53236253502129
 31
0.0
  0
LINE
  5
12E
  8
DATA
  6
CONTINUOUS
 62
     7
 10
-234.25
 20
-181.03049274090159
 30
0.0
 11
-241.75
 21
-181.03049274090159
 31
0.0
  0
LINE
  5
12F
  8
DATA
  6
CONTINUOUS
 62
     7
 10
-50.0
 20
149.9999999998808
 30
0.0
 11
-50.0
 21
112.9999999998808
 31
0.0
  0
LINE
  5
130
  8
DATA
  6
CONTINUOUS
 62
     7
 10
-247.0
 20
152.9999999998808
 30
0.0
 11
-243.46000000000001
 21
152.9999999998808
 31
0.0
  0
LINE
  5
131
  8
DATA
  6
CONTINUOUS
 62
     7
 10
-56.539999999999992
 20
152.9999999998808
 30
0.0
 11
-53.0
 21
152.9999999998808
 31
0.0
  0
LINE
  5
132
  8
DATA
  6
CONTINUOUS
 62
     7
 10
-250.0
 20
112.9999999998808
 30
0.0
 11
-250.0
 21
149.9999999998808
 31
0.0
  0
LINE
  5
133
  8
DATA
  6
CONTINUOUS
 62
     7
 10
-53.0
 20
109.9999999998809
 30
0.0
 11
-62.420611826362737
 21
109.9999999998809
 31
0.0
  0
LINE
  5
134
  8
DATA
  6
CONTINUOUS
 62
     7
 10
-73.420611826362702
 20
109.9999999998809
 30
0.0
 11
-203.45629943224
 21
109.9999999998809
 31
0.0
  0
LINE
  5
135
  8
DATA
  6
CONTINUOUS
 62
     7
 10
-214.45629943224
 20
109.9999999998809
 30
0.0
 11
-247.0
 21
109.9999999998809
 31
0.0
  0
LINE
  5
136
  8
DATA
  6
CONTINUOUS
 62
     7
 10
-59.300000000000011
 20
153.9999999998808
 30
0.0
 11
-70.699999999999974
 21
153.9999999998808
 31
0.0
  0
ARC
  5
137
  8
DATA
  6
CONTINUOUS
 62
     7
 10
-53.0
 20
112.9999999998808
 30
0.0
 40
3.0
 50
270.0
 51
0.0
  0
ARC
  5
138
  8
DATA
  6
CONTINUOUS
 62
     7
 10
-53.0
 20
149.9999999998808
 30
0.0
 40
3.0
 50
0.0
 51
90.0
  0
ARC
  5
139
  8
DATA
  6
CONTINUOUS
 62
     7
 10
-247.0
 20
112.9999999998808
 30
0.0
 40
3.0
 50
180.0
 51
270.0
  0
ARC
  5
13A
  8
DATA
  6
CONTINUOUS
 62
     7
 10
-247.0
 20
149.9999999998808
 30
0.0
 40
3.0
 50
90.0
 51
180.0
  0
LINE
  5
13B
  8
DATA
  6
CONTINUOUS
 62
     7
 10
-94.999999999999986
 20
-56.0
 30
0.0
 11
-94.999999999999986
 21
-168.0
 31
0.0
  0
LINE
  5
13C
  8
DATA
  6
CONTINUOUS
 62
     7
 10
-205.0
 20
-168.0
 30
0.0
 11
-205.0
 21
-56.0
 31
0.0
  0
POLYLINE
  5
13D
  8
DATA
  6
CONTINUOUS
 62
     7
 66
     1
 10
0.0
 20
0.0
 30
0.0
  0
VERTEX
  5
402
  8
DATA
  6
CONTINUOUS
 62
     7
 10
-214.95629943223989
 20
141.64238392827269
 30
0.0
  0
VERTEX
  5
403
  8
DATA
  6
CONTINUOUS
 62
     7
 10
-215.99714426445581
 20
141.04145188420819
 30
0.0
  0
VERTEX
  5
404
  8
DATA
  6
CONTINUOUS
 62
     7
 10
-215.99714426445581
 20
132.9585481155535
 30
0.0
  0
VERTEX
  5
405
  8
DATA
  6
CONTINUOUS
 62
     7
 10
-214.95629943223989
 20
132.35761607148899
 30
0.0
  0
SEQEND
  5
406
  8
DATA
  6
CONTINUOUS
 62
     7
  0
POLYLINE
  5
144
  8
DATA
  6
CONTINUOUS
 62
     7
 66
     1
 10
0.0
 20
0.0
 30
0.0
  0
VERTEX
  5
407
  8
DATA
  6
CONTINUOUS
 62
     7
 10
-212.77603430021401
 20
131.09883941060909
 30
0.0
  0
VERTEX
  5
408
  8
DATA
  6
CONTINUOUS
 62
     7
 10
-208.9971442644557
 20
128.91709623122611
 30
0.0
  0
VERTEX
  5
409
  8
DATA
  6
CONTINUOUS
 62
     7
 10
-205.2182542286975
 20
131.098839410609
 30
0.0
  0
SEQEND
  5
40A
  8
DATA
  6
CONTINUOUS
 62
     7
  0
POLYLINE
  5
14A
  8
DATA
  6
CONTINUOUS
 62
     7
 66
     1
 10
0.0
 20
0.0
 30
0.0
  0
VERTEX
  5
40B
  8
DATA
  6
CONTINUOUS
 62
     7
 10
-202.95629943224
 20
132.40477962123859
 30
0.0
  0
VERTEX
  5
40C
  8
DATA
  6
CONTINUOUS
 62
     7
 10
-201.99714426445561
 20
132.9585481155535
 30
0.0
  0
VERTEX
  5
40D
  8
DATA
  6
CONTINUOUS
 62
     7
 10
-201.99714426445561
 20
141.04145188420819
 30
0.0
  0
VERTEX
  5
40E
  8
DATA
  6
CONTINUOUS
 62
     7
 10
-202.95629943224
 20
141.59522037852309
 30
0.0
  0
SEQEND
  5
40F
  8
DATA
  6
CONTINUOUS
 62
     7
  0
POLYLINE
  5
151
  8
DATA
  6
CONTINUOUS
 62
     7
 66
     1
 10
0.0
 20
0.0
 30
0.0
  0
VERTEX
  5
410
  8
DATA
  6
CONTINUOUS
 62
     7
 10
-203.82859318347161
 20
142.09883941060909
 30
0.0
  0
VERTEX
  5
411
  8
DATA
  6
CONTINUOUS
 62
     7
 10
-208.9971442644557
 20
145.0829037685356
 30
0.0
  0
VERTEX
  5
412
  8
DATA
  6
CONTINUOUS
 62
     7
 10
-214.1656953454399
 20
142.09883941060909
 30
0.0
  0
SEQEND
  5
413
  8
DATA
  6
CONTINUOUS
 62
     7
  0
POLYLINE
  5
157
  8
DATA
  6
CONTINUOUS
 62
     7
 66
     1
 10
0.0
 20
0.0
 30
0.0
  0
VERTEX
  5
414
  8
DATA
  6
CONTINUOUS
 62
     7
 10
-73.920611826362702
 20
141.6669761137484
 30
0.0
  0
VERTEX
  5
415
  8
DATA
  6
CONTINUOUS
 62
     7
 10
-75.004051573291591
 20
141.04145188420819
 30
0.0
  0
VERTEX
  5
416
  8
DATA
  6
CONTINUOUS
 62
     7
 10
-75.004051573291591
 20
132.9585481155535
 30
0.0
  0
VERTEX
  5
417
  8
DATA
  6
CONTINUOUS
 62
     7
 10
-73.920611826362702
 20
132.33302388601331
 30
0.0
  0
SEQEND
  5
418
  8
DATA
  6
CONTINUOUS
 62
     7
  0
POLYLINE
  5
15E
  8
DATA
  6
CONTINUOUS
 62
     7
 66
     1
 10
0.0
 20
0.0
 30
0.0
  0
VERTEX
  5
419
  8
DATA
  6
CONTINUOUS
 62
     7
 10
-71.782941609049857
 20
131.09883941060909
 30
0.0
  0
VERTEX
  5
41A
  8
DATA
  6
CONTINUOUS
 62
     7
 10
-68.004051573291605
 20
128.91709623122611
 30
0.0
  0
VERTEX
  5
41B
  8
DATA
  6
CONTINUOUS
 62
     7
 10
-64.225161537533339
 20
131.09883941060909
 30
0.0
  0
SEQEND
  5
41C
  8
DATA
  6
CONTINUOUS
 62
     7
  0
POLYLINE
  5
164
  8
DATA
  6
CONTINUOUS
 62
     7
 66
     1
 10
0.0
 20
0.0
 30
0.0
  0
VERTEX
  5
41D
  8
DATA
  6
CONTINUOUS
 62
     7
 10
-61.920611826362737
 20
132.4293718067143
 30
0.0
  0
VERTEX
  5
41E
  8
DATA
  6
CONTINUOUS
 62
     7
 10
-61.004051573291598
 20
132.9585481155535
 30
0.0
  0
VERTEX
  5
41F
  8
DATA
  6
CONTINUOUS
 62
     7
 10
-61.004051573291598
 20
141.04145188420819
 30
0.0
  0
VERTEX
  5
420
  8
DATA
  6
CONTINUOUS
 62
     7
 10
-61.920611826362737
 20
141.5706281930473
 30
0.0
  0
SEQEND
  5
421
  8
DATA
  6
CONTINUOUS
 62
     7
  0
POLYLINE
  5
16B
  8
DATA
  6
CONTINUOUS
 62
     7
 66
     1
 10
0.0
 20
0.0
 30
0.0
  0
VERTEX
  5
422
  8
DATA
  6
CONTINUOUS
 62
     7
 10
-62.83550049230751
 20
142.09883941060909
 30
0.0
  0
VERTEX
  5
423
  8
DATA
  6
CONTINUOUS
 62
     7
 10
-68.004051573291605
 20
145.0829037685356
 30
0.0
  0
VERTEX
  5
424
  8
DATA
  6
CONTINUOUS
 62
     7
 10
-73.172602654275707
 20
142.09883941060909
 30
0.0
  0
SEQEND
  5
425
  8
DATA
  6
CONTINUOUS
 62
     7
  0
TEXT
  5
171
  8
DATA
 62
     7
 10
-201.297344381481
 20
149.12791735022469
 30
0.0
 40
2.7147352430555549
  1
ANTENNA A
 50
180.0
 41
0.7
 11
-201.297344381481
 21
146.41318210716909
 31
0.0
 73
     3
  0
TEXT
  5
172
  8
DATA
 62
     7
 10
-60.30425169031696
 20
149.12791735022469
 30
0.0
 40
2.7147352430555549
  1
ANTENNA B
 50
180.0
 41
0.7
 11
-60.30425169031696
 21
146.41318210716909
 31
0.0
 73
     3
  0
POLYLINE
  5
173
  8
DATA
  6
CONTINUOUS
 62
     7
 66
     1
 10
0.0
 20
0.0
 30
0.0
 70
     1
  0
VERTEX
  5
426
  8
DATA
  6
CONTINUOUS
 62
     7
 10
-232.04065993373209
 20
135.9986283012127
 30
0.0
  0
VERTEX
  5
427
  8
DATA
  6
CONTINUOUS
 62
     7
 10
-236.08131986746429
 20
128.9999999998808
 30
0.0
  0
VERTEX
  5
428
  8
DATA
  6
CONTINUOUS
 62
     7
 10
-232.04065993373209
 20
122.00137169854889
 30
0.0
  0
VERTEX
  5
429
  8
DATA
  6
CONTINUOUS
 62
     7
 10
-223.95934006626791
 20
122.00137169854889
 30
0.0
  0
VERTEX
  5
42A
  8
DATA
  6
CONTINUOUS
 62
     7
 10
-219.91868013253571
 20
128.9999999998808
 30
0.0
  0
VERTEX
  5
42B
  8
DATA
  6
CONTINUOUS
 62
     7
 10
-223.95934006626791
 20
135.9986283012127
 30
0.0
  0
SEQEND
  5
42C
  8
DATA
  6
CONTINUOUS
 62
     7
  0
CIRCLE
  5
17C
  8
DATA
  6
CONTINUOUS
 62
     7
 10
-228.0
 20
128.9999999998808
 30
0.0
 40
3.75
  0
CIRCLE
  5
17D
  8
DATA
  6
CONTINUOUS
 62
     7
 10
-228.0
 20
128.9999999998808
 30
0.0
 40
0.5
  0
TEXT
  5
17E
  8
DATA
 62
     7
 10
-223.51369467104209
 20
139.81264518668769
 30
0.0
 40
2.7147352430555549
  1
DC IN
 50
180.0
 41
0.7
 11
-223.51369467104209
 21
137.0979099436322
 31
0.0
 73
     3
  0
TEXT
  5
17F
  8
DATA
 62
     7
 10
-220.3627248815574
 20
143.43774657311411
 30
0.0
 40
2.7147352430555549
  1
12v 500mA
 50
180.0
 41
0.7
 11
-220.3627248815574
 21
140.7230113300586
 31
0.0
 73
     3
  0
LINE
  5
180
  8
DATA
  6
CONTINUOUS
 62
     7
 10
-222.0
 20
144.84010624131969
 30
0.0
 11
-234.0
 21
144.84010624131969
 31
0.0
  0
LINE
  5
181
  8
DATA
  6
CONTINUOUS
 62
     7
 10
-222.0
 20
146.22245103464689
 30
0.0
 11
-234.0
 21
146.22245103464689
 31
0.0
  0
ARC
  5
182
  8
DATA
  6
CONTINUOUS
 62
     7
 10
-228.0022822643447
 20
148.6224510346469
 30
0.0
 40
1.425729287066815
 50
270.0
 51
90.0
  0
CIRCLE
  5
183
  8
DATA
  6
CONTINUOUS
 62
     7
 10
-228.0022822643447
 20
148.6224510346469
 30
0.0
 40
0.8481886582595022
  0
TEXT
  5
184
  8
DATA
 62
     7
 10
-231.0264021023699
 20
149.63117351327941
 30
0.0
 40
2.1717881944444439
  1
+
 50
180.0
 41
0.7
 11
-231.0264021023699
 21
147.45938531883499
 31
0.0
 73
     3
  0
LINE
  5
185
  8
DATA
  6
CONTINUOUS
 62
     7
 10
-228.8504709226041
 20
148.6224510346469
 30
0.0
 11
-230.1541538786108
 21
148.6224510346469
 31
0.0
  0
LINE
  5
186
  8
DATA
  6
CONTINUOUS
 62
     7
 10
-226.5765529772778
 20
148.6224510346469
 30
0.0
 11
-225.2956926647183
 21
148.6224510346469
 31
0.0
  0
TEXT
  5
187
  8
DATA
 62
     7
 10
-222.75685676048721
 20
149.63956214575811
 30
0.0
 40
2.1717881944444439
  1
-
 50
180.0
 41
0.7
 11
-222.75685676048721
 21
147.4677739513136
 31
0.0
 73
     3
  0
LINE
  5
188
  8
DATA
  6
CONTINUOUS
 62
     7
 10
-56.539999999999992
 20
115.1999999998808
 30
0.0
 11
-62.420611826362737
 21
115.1999999998808
 31
0.0
  0
LINE
  5
189
  8
DATA
  6
CONTINUOUS
 62
     7
 10
-73.420611826362702
 20
115.1999999998808
 30
0.0
 11
-203.45629943224
 21
115.1999999998808
 31
0.0
  0
LINE
  5
18A
  8
DATA
  6
CONTINUOUS
 62
     7
 10
-214.45629943224
 20
115.1999999998808
 30
0.0
 11
-243.46000000000001
 21
115.1999999998808
 31
0.0
  0
LINE
  5
18B
  8
DATA
  6
CONTINUOUS
 62
     7
 10
-56.539999999999992
 20
115.1999999998808
 30
0.0
 11
-56.539999999999992
 21
152.9999999998808
 31
0.0
  0
LINE
  5
18C
  8
DATA
  6
CONTINUOUS
 62
     7
 10
-243.46000000000001
 20
115.1999999998808
 30
0.0
 11
-243.46000000000001
 21
152.9999999998808
 31
0.0
  0
LINE
  5
18D
  8
DATA
  6
CONTINUOUS
 62
     7
 10
-56.539999999999992
 20
150.9999999998808
 30
0.0
 11
-243.46000000000001
 21
150.9999999998808
 31
0.0
  0
LINE
  5
18E
  8
DATA
  6
CONTINUOUS
 62
     7
 10
-56.539999999999992
 20
115.1999999998808
 30
0.0
 11
-51.073863971573381
 21
110.6999999998808
 31
0.0
  0
LINE
  5
18F
  8
DATA
  6
CONTINUOUS
 62
     7
 10
-243.46000000000001
 20
115.1999999998808
 30
0.0
 11
-248.9261360284267
 21
110.6999999998808
 31
0.0
  0
LINE
  5
190
  8
DATA
  6
CONTINUOUS
 62
     7
 10
-59.300000000000011
 20
153.9999999998808
 30
0.0
 11
-58.399999999999977
 21
150.9999999998808
 31
0.0
  0
LINE
  5
191
  8
DATA
  6
CONTINUOUS
 62
     7
 10
-70.699999999999974
 20
153.9999999998808
 30
0.0
 11
-71.450000000000017
 21
150.9999999998808
 31
0.0
  0
LINE
  5
192
  8
DATA
  6
CONTINUOUS
 62
     7
 10
-240.69999999999999
 20
153.9999999998808
 30
0.0
 11
-229.3000000000001
 21
153.9999999998808
 31
0.0
  0
LINE
  5
193
  8
DATA
  6
CONTINUOUS
 62
     7
 10
-240.69999999999999
 20
153.9999999998808
 30
0.0
 11
-241.60000000000011
 21
150.9999999998808
 31
0.0
  0
LINE
  5
194
  8
DATA
  6
CONTINUOUS
 62
     7
 10
-229.3000000000001
 20
153.9999999998808
 30
0.0
 11
-228.55000000000001
 21
150.9999999998808
 31
0.0
  0
CIRCLE
  5
195
  8
DATA
  6
CONTINUOUS
 62
     7
 10
-163.0
 20
128.2666731976106
 30
0.0
 40
11.0
  0
CIRCLE
  5
196
  8
DATA
  6
CONTINUOUS
 62
     7
 10
-163.0
 20
128.2666731976106
 30
0.0
 40
8.25
  0
CIRCLE
  5
197
  8
DATA
  6
CONTINUOUS
 62
     7
 10
-153.10050506338831
 20
118.3671782609989
 30
0.0
 40
2.4249999999999821
  0
CIRCLE
  5
198
  8
DATA
  6
CONTINUOUS
 62
     7
 10
-172.7333268022702
 20
137.9999999998808
 30
0.0
 40
2.4249999999999821
  0
LINE
  5
199
  8
DATA
  6
CONTINUOUS
 62
     7
 10
-153.10050506338831
 20
116.8671782609989
 30
0.0
 11
-153.10050506338831
 21
119.8671782609989
 31
0.0
  0
LINE
  5
19A
  8
DATA
  6
CONTINUOUS
 62
     7
 10
-151.60050506338831
 20
118.3671782609989
 30
0.0
 11
-154.60050506338919
 21
118.3671782609989
 31
0.0
  0
LINE
  5
19B
  8
DATA
  6
CONTINUOUS
 62
     7
 10
-171.2333268022702
 20
137.9999999998808
 30
0.0
 11
-174.2333268022702
 21
137.9999999998808
 31
0.0
  0
LINE
  5
19C
  8
DATA
  6
CONTINUOUS
 62
     7
 10
-172.7333268022702
 20
139.4999999998808
 30
0.0
 11
-172.7333268022702
 21
136.4999999998808
 31
0.0
  0
CIRCLE
  5
19D
  8
DATA
  6
CONTINUOUS
 62
     7
 10
-163.0
 20
132.56667319761061
 30
0.0
 40
1.25
  0
CIRCLE
  5
19E
  8
DATA
  6
CONTINUOUS
 62
     7
 10
-158.69999999999999
 20
128.2666731976106
 30
0.0
 40
1.25
  0
CIRCLE
  5
19F
  8
DATA
  6
CONTINUOUS
 62
     7
 10
-167.30000000000001
 20
128.2666731976106
 30
0.0
 40
1.25
  0
TEXT
  5
1A0
  8
DATA
 62
     7
 10
-156.19525462954479
 20
149.12791735022469
 30
0.0
 40
2.7147352430555549
  1
BALANCED
 50
180.0
 41
0.7
 11
-156.19525462954479
 21
146.41318210716909
 31
0.0
 73
     3
  0
CIRCLE
  5
1A1
  8
DATA
  6
CONTINUOUS
 62
     7
 10
-135.0
 20
133.9999999998808
 30
0.0
 40
5.5
  0
CIRCLE
  5
1A2
  8
DATA
  6
CONTINUOUS
 62
     7
 10
-135.0
 20
133.9999999998808
 30
0.0
 40
3.1500000000000048
  0
TEXT
  5
1A3
  8
DATA
 62
     7
 10
-126.3939399965621
 20
149.12791735022469
 30
0.0
 40
2.7147352430555549
  1
UNBALANCED
 50
180.0
 41
0.7
 11
-126.3939399965621
 21
146.41318210716909
 31
0.0
 73
     3
  0
LINE
  5
1A4
  8
DATA
  6
CONTINUOUS
 62
     7
 10
-123.0
 20
148.6102129085296
 30
0.0
 11
-123.0
 21
121.6102129085295
 31
0.0
  0
LINE
  5
1A5
  8
DATA
  6
CONTINUOUS
 62
     7
 10
-147.0
 20
121.6102129085295
 30
0.0
 11
-147.0
 21
148.6102129085296
 31
0.0
  0
LINE
  5
1A6
  8
DATA
  6
CONTINUOUS
 62
     7
 10
-183.0
 20
131.09318447515321
 30
0.0
 11
-183.0
 21
134.99318447515321
 31
0.0
  0
LINE
  5
1A7
  8
DATA
  6
CONTINUOUS
 62
     7
 10
-192.80000000000001
 20
131.09318447515321
 30
0.0
 11
-192.80000000000001
 21
134.99318447515321
 31
0.0
  0
LINE
  5
1A8
  8
DATA
  6
CONTINUOUS
 62
     7
 10
-183.0
 20
131.09318447515321
 30
0.0
 11
-192.80000000000001
 21
131.09318447515321
 31
0.0
  0
LINE
  5
1A9
  8
DATA
  6
CONTINUOUS
 62
     7
 10
-183.0
 20
134.99318447515321
 30
0.0
 11
-192.80000000000001
 21
134.99318447515321
 31
0.0
  0
LINE
  5
1AA
  8
DATA
  6
CONTINUOUS
 62
     7
 10
-187.0
 20
131.09318447515321
 30
0.0
 11
-187.0
 21
134.99318447515321
 31
0.0
  0
TEXT
  5
1AB
  8
DATA
 62
     7
 10
-185.87604421358279
 20
138.54586678197819
 30
0.0
 40
2.7147352430555549
  1
dB
 50
180.0
 41
0.7
 11
-185.87604421358279
 21
135.8311315389227
 31
0.0
 73
     3
  0
TEXT
  5
1AC
  8
DATA
 62
     7
 10
-184.02131468946641
 20
130.38388888876969
 30
0.0
 40
2.7147352430555549
  1
0
 50
180.0
 41
0.7
 11
-184.02131468946641
 21
127.6691536457142
 31
0.0
 73
     3
  0
TEXT
  5
1AD
  8
DATA
 62
     7
 10
-187.85087548314269
 20
130.38388888876969
 30
0.0
 40
2.7147352430555549
  1
-30
 50
180.0
 41
0.7
 11
-187.85087548314269
 21
127.6691536457142
 31
0.0
 73
     3
  0
LINE
  5
1AE
  8
DATA
  6
CONTINUOUS
 62
     7
 10
-199.4971442644557
 20
148.62777343155361
 30
0.0
 11
-199.4971442644557
 21
121.62777343155361
 31
0.0
  0
LINE
  5
1AF
  8
DATA
  6
CONTINUOUS
 62
     7
 10
-218.4971442644557
 20
121.62777343155361
 30
0.0
 11
-218.4971442644557
 21
148.62777343155361
 31
0.0
  0
LINE
  5
1B0
  8
DATA
  6
CONTINUOUS
 62
     7
 10
-50.0
 20
128.9999999998808
 30
0.0
 11
-56.539999999999992
 21
128.9999999998808
 31
0.0
  0
LINE
  5
1B1
  8
DATA
  6
CONTINUOUS
 62
     7
 10
-243.46000000000001
 20
128.9999999998808
 30
0.0
 11
-250.0
 21
128.9999999998808
 31
0.0
  0
LINE
  5
1B2
  8
DATA
  6
CONTINUOUS
 62
     7
 10
-231.75
 20
-52.0
 30
0.0
 11
-231.75
 21
-55.0
 31
0.0
  0
LINE
  5
1B3
  8
DATA
  6
CONTINUOUS
 62
     7
 10
-224.25
 20
-52.0
 30
0.0
 11
-224.25
 21
-55.0
 31
0.0
  0
LINE
  5
1B4
  8
DATA
  6
CONTINUOUS
 62
     7
 10
-236.08131986746429
 20
-55.0
 30
0.0
 11
-236.08131986746429
 21
-56.0
 31
0.0
  0
LINE
  5
1B5
  8
DATA
  6
CONTINUOUS
 62
     7
 10
-219.91868013253571
 20
-55.0
 30
0.0
 11
-219.91868013253571
 21
-56.0
 31
0.0
  0
LINE
  5
1B6
  8
DATA
  6
CONTINUOUS
 62
     7
 10
-236.08131986746429
 20
-55.0
 30
0.0
 11
-219.91868013253571
 21
-55.0
 31
0.0
  0
LINE
  5
1B7
  8
DATA
  6
CONTINUOUS
 62
     7
 10
-231.75
 20
-52.0
 30
0.0
 11
-224.25
 21
-52.0
 31
0.0
  0
LINE
  5
1B8
  8
DATA
  6
CONTINUOUS
 62
     7
 10
-215.99714426445581
 20
-55.5
 30
0.0
 11
-215.99714426445581
 21
-56.0
 31
0.0
  0
LINE
  5
1B9
  8
DATA
  6
CONTINUOUS
 62
     7
 10
-201.99714426445561
 20
-55.5
 30
0.0
 11
-201.99714426445561
 21
-56.0
 31
0.0
  0
LINE
  5
1BA
  8
DATA
  6
CONTINUOUS
 62
     7
 10
-215.99714426445581
 20
-55.5
 30
0.0
 11
-201.99714426445561
 21
-55.5
 31
0.0
  0
LINE
  5
1BB
  8
DATA
  6
CONTINUOUS
 62
     7
 10
-215.1971442644558
 20
-49.5
 30
0.0
 11
-202.7971442644556
 21
-49.5
 31
0.0
  0
LINE
  5
1BC
  8
DATA
  6
CONTINUOUS
 62
     7
 10
-215.1971442644558
 20
-49.5
 30
0.0
 11
-215.1971442644558
 21
-55.5
 31
0.0
  0
LINE
  5
1BD
  8
DATA
  6
CONTINUOUS
 62
     7
 10
-202.7971442644556
 20
-49.5
 30
0.0
 11
-202.7971442644556
 21
-55.5
 31
0.0
  0
LINE
  5
1BE
  8
DATA
  6
CONTINUOUS
 62
     7
 10
-208.99714426445581
 20
-55.5
 30
0.0
 11
-208.99714426445581
 21
-56.0
 31
0.0
  0
LINE
  5
1BF
  8
DATA
  6
CONTINUOUS
 62
     7
 10
-73.847144264455864
 20
-47.25
 30
0.0
 11
-73.847144264455864
 21
-49.5
 31
0.0
  0
LINE
  5
1C0
  8
DATA
  6
CONTINUOUS
 62
     7
 10
-64.147144264455576
 20
-47.25
 30
0.0
 11
-64.147144264455576
 21
-49.5
 31
0.0
  0
LINE
  5
1C1
  8
DATA
  6
CONTINUOUS
 62
     7
 10
-75.997144264455841
 20
-55.5
 30
0.0
 11
-75.997144264455841
 21
-56.0
 31
0.0
  0
LINE
  5
1C2
  8
DATA
  6
CONTINUOUS
 62
     7
 10
-61.997144264455699
 20
-55.5
 30
0.0
 11
-61.997144264455699
 21
-56.0
 31
0.0
  0
LINE
  5
1C3
  8
DATA
  6
CONTINUOUS
 62
     7
 10
-75.997144264455841
 20
-55.5
 30
0.0
 11
-61.997144264455699
 21
-55.5
 31
0.0
  0
LINE
  5
1C4
  8
DATA
  6
CONTINUOUS
 62
     7
 10
-75.197144264455872
 20
-49.5
 30
0.0
 11
-62.79714426445554
 21
-49.5
 31
0.0
  0
LINE
  5
1C5
  8
DATA
  6
CONTINUOUS
 62
     7
 10
-75.197144264455872
 20
-49.5
 30
0.0
 11
-75.197144264455872
 21
-55.5
 31
0.0
  0
LINE
  5
1C6
  8
DATA
  6
CONTINUOUS
 62
     7
 10
-62.79714426445554
 20
-49.5
 30
0.0
 11
-62.79714426445554
 21
-55.5
 31
0.0
  0
LINE
  5
1C7
  8
DATA
  6
CONTINUOUS
 62
     7
 10
-68.997144264455756
 20
-55.5
 30
0.0
 11
-68.997144264455756
 21
-56.0
 31
0.0
  0
LINE
  5
1C8
  8
DATA
  6
CONTINUOUS
 62
     7
 10
-183.0
 20
-55.650679547309771
 30
0.0
 11
-183.0
 21
-56.0
 31
0.0
  0
LINE
  5
1C9
  8
DATA
  6
CONTINUOUS
 62
     7
 10
-187.0
 20
-55.650679547309771
 30
0.0
 11
-187.0
 21
-56.0
 31
0.0
  0
LINE
  5
1CA
  8
DATA
  6
CONTINUOUS
 62
     7
 10
-187.0
 20
-55.650679547309771
 30
0.0
 11
-183.0
 21
-55.650679547309771
 31
0.0
  0
LINE
  5
1CB
  8
DATA
  6
CONTINUOUS
 62
     7
 10
192.74999999990339
 20
-329.10606030943882
 30
0.0
 11
190.50000000024909
 21
-329.10606030943882
 31
0.0
  0
LINE
  5
1CC
  8
DATA
  6
CONTINUOUS
 62
     7
 10
192.74999999990339
 20
-338.80606030943898
 30
0.0
 11
190.50000000024909
 21
-338.80606030943898
 31
0.0
  0
LINE
  5
1CD
  8
DATA
  6
CONTINUOUS
 62
     7
 10
184.50000000024909
 20
-326.95606030943878
 30
0.0
 11
184.00000000024909
 21
-326.95606030943878
 31
0.0
  0
LINE
  5
1CE
  8
DATA
  6
CONTINUOUS
 62
     7
 10
184.50000000024909
 20
-340.9560603094389
 30
0.0
 11
184.00000000024909
 21
-340.9560603094389
 31
0.0
  0
LINE
  5
1CF
  8
DATA
  6
CONTINUOUS
 62
     7
 10
184.50000000024909
 20
-326.95606030943878
 30
0.0
 11
184.50000000024909
 21
-340.9560603094389
 31
0.0
  0
LINE
  5
1D0
  8
DATA
  6
CONTINUOUS
 62
     7
 10
190.50000000024909
 20
-327.75606030943879
 30
0.0
 11
190.50000000024909
 21
-340.15606030943911
 31
0.0
  0
LINE
  5
1D1
  8
DATA
  6
CONTINUOUS
 62
     7
 10
190.50000000024909
 20
-327.75606030943879
 30
0.0
 11
184.50000000024909
 21
-327.75606030943879
 31
0.0
  0
LINE
  5
1D2
  8
DATA
  6
CONTINUOUS
 62
     7
 10
190.50000000024909
 20
-340.15606030943911
 30
0.0
 11
184.50000000024909
 21
-340.15606030943911
 31
0.0
  0
LINE
  5
1D3
  8
DATA
  6
CONTINUOUS
 62
     7
 10
184.50000000024909
 20
-333.95606030943878
 30
0.0
 11
184.00000000024909
 21
-333.95606030943878
 31
0.0
  0
LINE
  5
1D4
  8
DATA
  6
CONTINUOUS
 62
     7
 10
71.999999999999972
 20
-307.0
 30
0.0
 11
184.0
 21
-307.0
 31
0.0
  0
LINE
  5
1D5
  8
DATA
  6
CONTINUOUS
 62
     7
 10
72.0
 20
-327.0
 30
0.0
 11
184.0
 21
-327.0
 31
0.0
  0
LINE
  5
1D6
  8
DATA
  6
CONTINUOUS
 62
     7
 10
72.0
 20
-330.80000000000001
 30
0.0
 11
184.0
 21
-330.80000000000001
 31
0.0
  0
LINE
  5
1D7
  8
DATA
  6
CONTINUOUS
 62
     7
 10
72.0
 20
-307.0
 30
0.0
 11
72.0
 21
-350.0
 31
0.0
  0
CIRCLE
  5
1D8
  8
DATA
  6
CONTINUOUS
 62
     7
 10
157.0
 20
-319.39999999999998
 30
0.0
 40
6.0
  0
CIRCLE
  5
1D9
  8
DATA
  6
CONTINUOUS
 62
     7
 10
92.0
 20
-319.39999999999998
 30
0.0
 40
6.0
  0
CIRCLE
  5
1DA
  8
DATA
  6
CONTINUOUS
 62
     7
 10
92.0
 20
-319.39999999999998
 30
0.0
 40
2.6999999999999882
  0
LINE
  5
1DB
  8
DATA
  6
CONTINUOUS
 62
     7
 10
90.175573149360787
 20
-319.39999999999998
 30
0.0
 11
93.824426850639213
 21
-319.39999999999998
 31
0.0
  0
LINE
  5
1DC
  8
DATA
  6
CONTINUOUS
 62
     7
 10
92.0
 20
-321.22442685063919
 30
0.0
 11
92.0
 21
-317.57557314936082
 31
0.0
  0
CIRCLE
  5
1DD
  8
DATA
  6
CONTINUOUS
 62
     7
 10
157.0
 20
-319.39999999999998
 30
0.0
 40
2.6999999999999882
  0
LINE
  5
1DE
  8
DATA
  6
CONTINUOUS
 62
     7
 10
155.17557314936079
 20
-319.39999999999998
 30
0.0
 11
158.8244268506391
 21
-319.39999999999998
 31
0.0
  0
LINE
  5
1DF
  8
DATA
  6
CONTINUOUS
 62
     7
 10
157.0
 20
-321.22442685063919
 30
0.0
 11
157.0
 21
-317.57557314936082
 31
0.0
  0
LINE
  5
1E0
  8
DATA
  6
CONTINUOUS
 62
     7
 10
148.30000000000001
 20
-351.0
 30
0.0
 11
166.6999999999999
 21
-351.0
 31
0.0
  0
LINE
  5
1E1
  8
DATA
  6
CONTINUOUS
 62
     7
 10
148.30000000000001
 20
-351.0
 30
0.0
 11
148.0
 21
-350.0
 31
0.0
  0
LINE
  5
1E2
  8
DATA
  6
CONTINUOUS
 62
     7
 10
167.0
 20
-350.0
 30
0.0
 11
166.6999999999999
 21
-351.0
 31
0.0
  0
LINE
  5
1E3
  8
DATA
  6
CONTINUOUS
 62
     7
 10
84.300000000000026
 20
-351.0
 30
0.0
 11
102.7
 21
-351.0
 31
0.0
  0
LINE
  5
1E4
  8
DATA
  6
CONTINUOUS
 62
     7
 10
84.300000000000026
 20
-351.0
 30
0.0
 11
84.0
 21
-350.0
 31
0.0
  0
LINE
  5
1E5
  8
DATA
  6
CONTINUOUS
 62
     7
 10
103.0
 20
-350.0
 30
0.0
 11
102.7
 21
-351.0
 31
0.0
  0
LINE
  5
1E6
  8
DATA
  6
CONTINUOUS
 62
     7
 10
167.40000000000001
 20
-345.19999999999999
 30
0.0
 11
167.40000000000001
 21
-348.05000000000001
 31
0.0
  0
LINE
  5
1E7
  8
DATA
  6
CONTINUOUS
 62
     7
 10
147.40000000000001
 20
-345.19999999999999
 30
0.0
 11
147.40000000000001
 21
-348.05000000000001
 31
0.0
  0
LINE
  5
1E8
  8
DATA
  6
CONTINUOUS
 62
     7
 10
147.40000000000001
 20
-345.19999999999999
 30
0.0
 11
167.40000000000001
 21
-345.19999999999999
 31
0.0
  0
LINE
  5
1E9
  8
DATA
  6
CONTINUOUS
 62
     7
 10
147.40000000000001
 20
-348.05000000000001
 30
0.0
 11
167.40000000000001
 21
-348.05000000000001
 31
0.0
  0
LINE
  5
1EA
  8
DATA
  6
CONTINUOUS
 62
     7
 10
102.40000000000001
 20
-345.19999999999999
 30
0.0
 11
102.40000000000001
 21
-348.05000000000001
 31
0.0
  0
LINE
  5
1EB
  8
DATA
  6
CONTINUOUS
 62
     7
 10
82.400000000000006
 20
-345.19999999999999
 30
0.0
 11
82.400000000000006
 21
-348.05000000000001
 31
0.0
  0
LINE
  5
1EC
  8
DATA
  6
CONTINUOUS
 62
     7
 10
82.400000000000006
 20
-345.19999999999999
 30
0.0
 11
102.40000000000001
 21
-345.19999999999999
 31
0.0
  0
LINE
  5
1ED
  8
DATA
  6
CONTINUOUS
 62
     7
 10
82.400000000000006
 20
-348.05000000000001
 30
0.0
 11
102.40000000000001
 21
-348.05000000000001
 31
0.0
  0
LINE
  5
1EE
  8
DATA
  6
CONTINUOUS
 62
     7
 10
72.0
 20
-350.0
 30
0.0
 11
52.795928335587867
 21
-348.69063147742639
 31
0.0
  0
LINE
  5
1EF
  8
DATA
  6
CONTINUOUS
 62
     7
 10
72.0
 20
-307.0
 30
0.0
 11
62.957395243781932
 21
-307.53433573559482
 31
0.0
  0
LINE
  5
1F0
  8
DATA
  6
CONTINUOUS
 62
     7
 10
72.0
 20
-315.0
 30
0.0
 11
58.088079281549653
 21
-315.91692204735239
 31
0.0
  0
ARC
  5
1F1
  8
DATA
  6
CONTINUOUS
 62
     7
 10
269.04937166369649
 20
-385.57911476868208
 30
0.0
 40
222.165451810783
 50
159.97468028537341
 51
169.98433585214971
  0
LINE
  5
1F2
  8
DATA
  6
CONTINUOUS
 62
     7
 10
52.260170856597838
 20
-337.0
 30
0.0
 11
50.40000000000002
 21
-336.8337030149234
 31
0.0
  0
LINE
  5
1F3
  8
DATA
  6
CONTINUOUS
 62
     7
 10
54.210658642727061
 20
-328.99452883061201
 30
0.0
 11
51.125469784677442
 21
-328.71871674396101
 31
0.0
  0
LINE
  5
1F4
  8
DATA
  6
CONTINUOUS
 62
     7
 10
50.40000000000002
 20
-336.8337030149234
 30
0.0
 11
51.125469784677421
 21
-328.71871674396101
 31
0.0
  0
ARC
  5
1F5
  8
DATA
  6
CONTINUOUS
 62
     7
 10
53.000000000000021
 20
-311.12796031191658
 30
0.0
 40
3.000000000000008
 50
93.381727324276312
 51
180.0
  0
ARC
  5
1F6
  8
DATA
  6
CONTINUOUS
 62
     7
 10
53.000000000000021
 20
-345.69758039938171
 30
0.0
 40
3.0
 50
180.0
 51
266.09950625761797
  0
ARC
  5
1F7
  8
DATA
  6
CONTINUOUS
 62
     7
 10
63.134359284468012
 20
-310.52911180874349
 30
0.0
 40
3.0000000000000662
 50
93.381727324276511
 51
159.97468028537199
  0
LINE
  5
1F8
  8
DATA
  6
CONTINUOUS
 62
     7
 10
52.823035959313962
 20
-308.1331842387678
 30
0.0
 11
62.957395243781932
 21
-307.53433573559482
 31
0.0
  0
CIRCLE
  5
1F9
  8
DATA
  6
CONTINUOUS
 62
     7
 10
137.5
 20
-52.5
 30
0.0
 40
6.9000000000000332
  0
CIRCLE
  5
1FA
  8
DATA
  6
CONTINUOUS
 62
     7
 10
137.5
 20
-52.5
 30
0.0
 40
3.8250000000000162
  0
CIRCLE
  5
1FB
  8
DATA
  6
CONTINUOUS
 62
     7
 10
137.5
 20
-52.5
 30
0.0
 40
0.5
  0
LINE
  5
1FC
  8
DATA
  6
CONTINUOUS
 62
     7
 10
134.5
 20
57.600000000000001
 30
0.0
 11
134.5
 21
34.256805548791711
 31
0.0
  0
LINE
  5
1FD
  8
DATA
  6
CONTINUOUS
 62
     7
 10
140.5
 20
57.600000000000001
 30
0.0
 11
140.5
 21
34.256805548791682
 31
0.0
  0
ARC
  5
1FE
  8
DATA
  6
CONTINUOUS
 62
     7
 10
137.5
 20
57.600000000000001
 30
0.0
 40
3.0
 50
0.0
 51
180.0
  0
LINE
  5
1FF
  8
DATA
  6
CONTINUOUS
 62
     7
 10
133.9679567682426
 20
26.98210602405009
 30
0.0
 11
132.53204323175731
 21
17.217893975950059
 31
0.0
  0
ARC
  5
200
  8
DATA
  6
CONTINUOUS
 62
     7
 10
182.0
 20
9.9431944512084556
 30
0.0
 40
49.999999999999972
 50
171.63411387596739
 51
180.0
  0
ARC
  5
201
  8
DATA
  6
CONTINUOUS
 62
     7
 10
182.0
 20
9.9431944512084787
 30
0.0
 40
49.999999999999972
 50
171.63411387596739
 51
180.0
  0
ARC
  5
202
  8
DATA
  6
CONTINUOUS
 62
     7
 10
84.500000000000014
 20
34.256805548791668
 30
0.0
 40
50.0
 50
351.63411387596739
 51
0.0000000000000568
  0
LINE
  5
203
  8
DATA
  6
CONTINUOUS
 62
     7
 10
141.0320432317574
 20
26.98210602405009
 30
0.0
 11
142.46795676824269
 21
17.217893975950059
 31
0.0
  0
ARC
  5
204
  8
DATA
  6
CONTINUOUS
 62
     7
 10
93.000000000000043
 20
9.9431944512084556
 30
0.0
 40
49.999999999999972
 50
0.0
 51
8.3658861240325564
  0
ARC
  5
205
  8
DATA
  6
CONTINUOUS
 62
     7
 10
93.0
 20
9.9431944512084787
 30
0.0
 40
50.0
 50
0.0
 51
8.3658861240325564
  0
ARC
  5
206
  8
DATA
  6
CONTINUOUS
 62
     7
 10
190.5
 20
34.256805548791668
 30
0.0
 40
50.0
 50
179.99999999999989
 51
188.36588612403261
  0
ARC
  5
207
  8
DATA
  6
CONTINUOUS
 62
     7
 10
137.5
 20
-52.500000000000021
 30
0.0
 40
4.900000000000011
 50
192.97287815075029
 51
347.02712184924951
  0
ARC
  5
208
  8
DATA
  6
CONTINUOUS
 62
     7
 10
137.5
 20
-52.500000000000021
 30
0.0
 40
4.9000000000000199
 50
12.97287815075086
 51
167.02712184924911
  0
ARC
  5
209
  8
DATA
  6
CONTINUOUS
 62
     7
 10
132.49815914655471
 20
-52.5
 30
0.0
 40
1.123159146554729
 50
78.34459567426677
 51
281.65540432573317
  0
ARC
  5
20A
  8
DATA
  6
CONTINUOUS
 62
     7
 10
142.50184085344529
 20
-52.5
 30
0.0
 40
1.123159146554729
 50
258.34459567426683
 51
101.6554043257332
  0
LINE
  5
20B
  8
DATA
  6
CONTINUOUS
 62
     7
 10
222.0
 20
57.600000000000001
 30
0.0
 11
222.0
 21
34.256805548791711
 31
0.0
  0
LINE
  5
20C
  8
DATA
  6
CONTINUOUS
 62
     7
 10
228.0
 20
57.600000000000001
 30
0.0
 11
228.0
 21
34.256805548791682
 31
0.0
  0
ARC
  5
20D
  8
DATA
  6
CONTINUOUS
 62
     7
 10
225.0
 20
57.600000000000001
 30
0.0
 40
3.0
 50
0.0
 51
180.0
  0
LINE
  5
20E
  8
DATA
  6
CONTINUOUS
 62
     7
 10
221.4679567682426
 20
26.98210602405009
 30
0.0
 11
220.0320432317574
 21
17.217893975950059
 31
0.0
  0
ARC
  5
20F
  8
DATA
  6
CONTINUOUS
 62
     7
 10
269.5
 20
9.9431944512084556
 30
0.0
 40
49.999999999999972
 50
171.63411387596739
 51
180.0
  0
ARC
  5
210
  8
DATA
  6
CONTINUOUS
 62
     7
 10
269.5
 20
9.9431944512084787
 30
0.0
 40
49.999999999999972
 50
171.63411387596739
 51
180.0
  0
ARC
  5
211
  8
DATA
  6
CONTINUOUS
 62
     7
 10
172.0
 20
34.256805548791668
 30
0.0
 40
50.0
 50
351.63411387596739
 51
0.0000000000000568
  0
LINE
  5
212
  8
DATA
  6
CONTINUOUS
 62
     7
 10
228.5320432317574
 20
26.98210602405009
 30
0.0
 11
229.96795676824269
 21
17.217893975950059
 31
0.0
  0
ARC
  5
213
  8
DATA
  6
CONTINUOUS
 62
     7
 10
180.5
 20
9.9431944512084556
 30
0.0
 40
49.999999999999972
 50
0.0
 51
8.3658861240325564
  0
ARC
  5
214
  8
DATA
  6
CONTINUOUS
 62
     7
 10
180.5
 20
9.9431944512084787
 30
0.0
 40
50.0
 50
0.0
 51
8.3658861240325564
  0
ARC
  5
215
  8
DATA
  6
CONTINUOUS
 62
     7
 10
278.0
 20
34.256805548791668
 30
0.0
 40
50.0
 50
179.99999999999989
 51
188.36588612403261
  0
LINE
  5
216
  8
DATA
  6
CONTINUOUS
 62
     7
 10
132.0
 20
9.9431944512084556
 30
0.0
 11
132.0
 21
-48.333466668800057
 31
0.0
  0
LINE
  5
217
  8
DATA
  6
CONTINUOUS
 62
     7
 10
143.0
 20
9.9431944512084787
 30
0.0
 11
143.0
 21
-48.333466668800057
 31
0.0
  0
LINE
  5
218
  8
DATA
  6
CONTINUOUS
 62
     7
 10
219.5
 20
9.9431944512084556
 30
0.0
 11
219.5
 21
-47.000000000100009
 31
0.0
  0
LINE
  5
219
  8
DATA
  6
CONTINUOUS
 62
     7
 10
230.5
 20
9.9431944512084556
 30
0.0
 11
230.5
 21
-47.000000000100009
 31
0.0
  0
LINE
  5
21A
  8
DATA
  6
CONTINUOUS
 62
     7
 10
244.84999999999999
 20
-45.600000000000001
 30
0.0
 11
247.25
 21
-45.600000000000001
 31
0.0
  0
LINE
  5
21B
  8
DATA
  6
CONTINUOUS
 62
     7
 10
244.84999999999999
 20
-59.400000000000013
 30
0.0
 11
247.25
 21
-59.400000000000013
 31
0.0
  0
LINE
  5
21C
  8
DATA
  6
CONTINUOUS
 62
     7
 10
132.0
 20
-29.400000000000009
 30
0.0
 11
143.0
 21
-29.400000000000009
 31
0.0
  0
LINE
  5
21D
  8
DATA
  6
CONTINUOUS
 62
     7
 10
219.5
 20
-29.400000000000009
 30
0.0
 11
230.5
 21
-29.400000000000009
 31
0.0
  0
LINE
  5
21E
  8
DATA
  6
CONTINUOUS
 62
     7
 10
219.0
 20
-58.000000000100009
 30
0.0
 11
219.0
 21
-47.000000000100009
 31
0.0
  0
LINE
  5
21F
  8
DATA
  6
CONTINUOUS
 62
     7
 10
219.0
 20
-58.000000000100009
 30
0.0
 11
231.0
 21
-58.000000000100009
 31
0.0
  0
LINE
  5
220
  8
DATA
  6
CONTINUOUS
 62
     7
 10
219.0
 20
-47.000000000100009
 30
0.0
 11
231.0
 21
-47.000000000100009
 31
0.0
  0
LINE
  5
221
  8
DATA
  6
CONTINUOUS
 62
     7
 10
247.25
 20
-59.400000000000013
 30
0.0
 11
247.25
 21
-45.600000000000001
 31
0.0
  0
LINE
  5
222
  8
DATA
  6
CONTINUOUS
 62
     7
 10
231.0
 20
-58.000000000100009
 30
0.0
 11
231.0
 21
-47.000000000100009
 31
0.0
  0
ARC
  5
223
  8
DATA
  6
CONTINUOUS
 62
     7
 10
229.83333333333329
 20
-52.500000000100023
 30
0.0
 40
10.83333333333327
 50
149.48976259388419
 51
210.51023740611569
  0
ARC
  5
224
  8
DATA
  6
CONTINUOUS
 62
     7
 10
220.1666666666668
 20
-52.500000000100023
 30
0.0
 40
10.83333333333324
 50
329.48976259388422
 51
30.510237406115891
  0
LINE
  5
225
  8
DATA
  6
CONTINUOUS
 62
     7
 10
244.84999999999999
 20
-59.400000000000013
 30
0.0
 11
244.84999999999999
 21
-45.600000000000001
 31
0.0
  0
LINE
  5
226
  8
DATA
  6
CONTINUOUS
 62
     7
 10
244.84999999999999
 20
-58.200000000000003
 30
0.0
 11
239.15000000000001
 21
-58.200000000000003
 31
0.0
  0
LINE
  5
227
  8
DATA
  6
CONTINUOUS
 62
     7
 10
239.15000000000001
 20
-46.79999999999999
 30
0.0
 11
244.84999999999999
 21
-46.79999999999999
 31
0.0
  0
LINE
  5
228
  8
DATA
  6
CONTINUOUS
 62
     7
 10
239.15000000000001
 20
-59.400000000000013
 30
0.0
 11
239.15000000000001
 21
-45.600000000000001
 31
0.0
  0
LINE
  5
229
  8
DATA
  6
CONTINUOUS
 62
     7
 10
234.41999999999999
 20
-59.400000000000013
 30
0.0
 11
234.41999999999999
 21
-45.600000000000001
 31
0.0
  0
LINE
  5
22A
  8
DATA
  6
CONTINUOUS
 62
     7
 10
234.41999999999999
 20
-45.600000000000001
 30
0.0
 11
239.15000000000001
 21
-45.600000000000001
 31
0.0
  0
LINE
  5
22B
  8
DATA
  6
CONTINUOUS
 62
     7
 10
234.41999999999999
 20
-59.400000000000013
 30
0.0
 11
239.15000000000001
 21
-59.400000000000013
 31
0.0
  0
LINE
  5
22C
  8
DATA
  6
CONTINUOUS
 62
     7
 10
231.0
 20
-47.220000000100001
 30
0.0
 11
234.41999999999999
 21
-47.220000000100001
 31
0.0
  0
LINE
  5
22D
  8
DATA
  6
CONTINUOUS
 62
     7
 10
231.0
 20
-57.780000000100031
 30
0.0
 11
234.41999999999999
 21
-57.780000000100031
 31
0.0
  0
LINE
  5
22E
  8
DATA
  6
CONTINUOUS
 62
     7
 10
234.41999999999999
 20
-46.29999999999999
 30
0.0
 11
239.15000000000001
 21
-46.29999999999999
 31
0.0
  0
LINE
  5
22F
  8
DATA
  6
CONTINUOUS
 62
     7
 10
234.41999999999999
 20
-46.999999999999993
 30
0.0
 11
239.15000000000001
 21
-46.999999999999993
 31
0.0
  0
LINE
  5
230
  8
DATA
  6
CONTINUOUS
 62
     7
 10
234.41999999999999
 20
-47.700000000000003
 30
0.0
 11
239.15000000000001
 21
-47.700000000000003
 31
0.0
  0
LINE
  5
231
  8
DATA
  6
CONTINUOUS
 62
     7
 10
234.41999999999999
 20
-48.399999999999991
 30
0.0
 11
239.15000000000001
 21
-48.399999999999991
 31
0.0
  0
LINE
  5
232
  8
DATA
  6
CONTINUOUS
 62
     7
 10
234.41999999999999
 20
-49.100000000000001
 30
0.0
 11
239.15000000000001
 21
-49.100000000000001
 31
0.0
  0
LINE
  5
233
  8
DATA
  6
CONTINUOUS
 62
     7
 10
234.41999999999999
 20
-49.799999999999997
 30
0.0
 11
239.15000000000001
 21
-49.799999999999997
 31
0.0
  0
LINE
  5
234
  8
DATA
  6
CONTINUOUS
 62
     7
 10
234.41999999999999
 20
-50.499999999999993
 30
0.0
 11
239.15000000000001
 21
-50.499999999999993
 31
0.0
  0
LINE
  5
235
  8
DATA
  6
CONTINUOUS
 62
     7
 10
234.41999999999999
 20
-51.200000000000003
 30
0.0
 11
239.15000000000001
 21
-51.200000000000003
 31
0.0
  0
LINE
  5
236
  8
DATA
  6
CONTINUOUS
 62
     7
 10
234.41999999999999
 20
-51.899999999999991
 30
0.0
 11
239.15000000000001
 21
-51.899999999999991
 31
0.0
  0
LINE
  5
237
  8
DATA
  6
CONTINUOUS
 62
     7
 10
234.41999999999999
 20
-52.600000000000001
 30
0.0
 11
239.15000000000001
 21
-52.600000000000001
 31
0.0
  0
LINE
  5
238
  8
DATA
  6
CONTINUOUS
 62
     7
 10
234.41999999999999
 20
-53.299999999999997
 30
0.0
 11
239.15000000000001
 21
-53.299999999999997
 31
0.0
  0
LINE
  5
239
  8
DATA
  6
CONTINUOUS
 62
     7
 10
234.41999999999999
 20
-53.999999999999993
 30
0.0
 11
239.15000000000001
 21
-53.999999999999993
 31
0.0
  0
LINE
  5
23A
  8
DATA
  6
CONTINUOUS
 62
     7
 10
234.41999999999999
 20
-54.700000000000003
 30
0.0
 11
239.15000000000001
 21
-54.700000000000003
 31
0.0
  0
LINE
  5
23B
  8
DATA
  6
CONTINUOUS
 62
     7
 10
234.41999999999999
 20
-55.399999999999991
 30
0.0
 11
239.15000000000001
 21
-55.399999999999991
 31
0.0
  0
LINE
  5
23C
  8
DATA
  6
CONTINUOUS
 62
     7
 10
234.41999999999999
 20
-56.100000000000001
 30
0.0
 11
239.15000000000001
 21
-56.100000000000001
 31
0.0
  0
LINE
  5
23D
  8
DATA
  6
CONTINUOUS
 62
     7
 10
234.41999999999999
 20
-56.79999999999999
 30
0.0
 11
239.15000000000001
 21
-56.79999999999999
 31
0.0
  0
LINE
  5
23E
  8
DATA
  6
CONTINUOUS
 62
     7
 10
234.41999999999999
 20
-57.5
 30
0.0
 11
239.15000000000001
 21
-57.5
 31
0.0
  0
LINE
  5
23F
  8
DATA
  6
CONTINUOUS
 62
     7
 10
234.41999999999999
 20
-58.199999999999989
 30
0.0
 11
239.15000000000001
 21
-58.199999999999989
 31
0.0
  0
LINE
  5
240
  8
DATA
  6
CONTINUOUS
 62
     7
 10
234.41999999999999
 20
-58.899999999999991
 30
0.0
 11
239.15000000000001
 21
-58.899999999999991
 31
0.0
  0
LINE
  5
241
  8
DATA
  6
CONTINUOUS
 62
     7
 10
144.40000000036611
 20
99.900000000174842
 30
0.0
 11
144.40000000036611
 21
97.500000000174865
 31
0.0
  0
LINE
  5
242
  8
DATA
  6
CONTINUOUS
 62
     7
 10
130.60000000036609
 20
99.900000000174842
 30
0.0
 11
130.60000000036609
 21
97.500000000174865
 31
0.0
  0
LINE
  5
243
  8
DATA
  6
CONTINUOUS
 62
     7
 10
132.00000000026611
 20
125.75000000017479
 30
0.0
 11
143.00000000026611
 21
125.75000000017479
 31
0.0
  0
LINE
  5
244
  8
DATA
  6
CONTINUOUS
 62
     7
 10
132.00000000026611
 20
125.75000000017479
 30
0.0
 11
132.00000000026611
 21
113.75000000017479
 31
0.0
  0
LINE
  5
245
  8
DATA
  6
CONTINUOUS
 62
     7
 10
143.00000000026611
 20
125.75000000017479
 30
0.0
 11
143.00000000026611
 21
113.75000000017479
 31
0.0
  0
LINE
  5
246
  8
DATA
  6
CONTINUOUS
 62
     7
 10
130.60000000036609
 20
97.500000000174865
 30
0.0
 11
144.40000000036611
 21
97.500000000174865
 31
0.0
  0
LINE
  5
247
  8
DATA
  6
CONTINUOUS
 62
     7
 10
132.00000000026611
 20
113.75000000017479
 30
0.0
 11
143.00000000026611
 21
113.75000000017479
 31
0.0
  0
ARC
  5
248
  8
DATA
  6
CONTINUOUS
 62
     7
 10
137.50000000026611
 20
114.91666666684161
 30
0.0
 40
10.83333333333327
 50
59.489762593884237
 51
120.51023740611571
  0
ARC
  5
249
  8
DATA
  6
CONTINUOUS
 62
     7
 10
137.50000000026611
 20
124.58333333350799
 30
0.0
 40
10.83333333333324
 50
239.48976259388411
 51
300.51023740611578
  0
LINE
  5
24A
  8
DATA
  6
CONTINUOUS
 62
     7
 10
130.60000000036609
 20
99.900000000174842
 30
0.0
 11
144.40000000036611
 21
99.900000000174842
 31
0.0
  0
LINE
  5
24B
  8
DATA
  6
CONTINUOUS
 62
     7
 10
131.8000000003662
 20
99.900000000174842
 30
0.0
 11
131.8000000003662
 21
105.6000000001748
 31
0.0
  0
LINE
  5
24C
  8
DATA
  6
CONTINUOUS
 62
     7
 10
143.20000000036609
 20
105.6000000001748
 30
0.0
 11
143.20000000036609
 21
99.900000000174842
 31
0.0
  0
LINE
  5
24D
  8
DATA
  6
CONTINUOUS
 62
     7
 10
130.60000000036609
 20
105.6000000001748
 30
0.0
 11
144.40000000036611
 21
105.6000000001748
 31
0.0
  0
LINE
  5
24E
  8
DATA
  6
CONTINUOUS
 62
     7
 10
130.60000000036609
 20
110.33000000017481
 30
0.0
 11
144.40000000036611
 21
110.33000000017481
 31
0.0
  0
LINE
  5
24F
  8
DATA
  6
CONTINUOUS
 62
     7
 10
144.40000000036611
 20
110.33000000017481
 30
0.0
 11
144.40000000036611
 21
105.6000000001748
 31
0.0
  0
LINE
  5
250
  8
DATA
  6
CONTINUOUS
 62
     7
 10
130.60000000036609
 20
110.33000000017481
 30
0.0
 11
130.60000000036609
 21
105.6000000001748
 31
0.0
  0
LINE
  5
251
  8
DATA
  6
CONTINUOUS
 62
     7
 10
142.78000000026611
 20
113.75000000017479
 30
0.0
 11
142.78000000026611
 21
110.33000000017481
 31
0.0
  0
LINE
  5
252
  8
DATA
  6
CONTINUOUS
 62
     7
 10
132.22000000026611
 20
113.75000000017479
 30
0.0
 11
132.22000000026611
 21
110.33000000017481
 31
0.0
  0
LINE
  5
253
  8
DATA
  6
CONTINUOUS
 62
     7
 10
143.70000000036609
 20
110.33000000017481
 30
0.0
 11
143.70000000036609
 21
105.6000000001748
 31
0.0
  0
LINE
  5
254
  8
DATA
  6
CONTINUOUS
 62
     7
 10
143.00000000036621
 20
110.33000000017481
 30
0.0
 11
143.00000000036621
 21
105.6000000001748
 31
0.0
  0
LINE
  5
255
  8
DATA
  6
CONTINUOUS
 62
     7
 10
142.3000000003662
 20
110.33000000017481
 30
0.0
 11
142.3000000003662
 21
105.6000000001748
 31
0.0
  0
LINE
  5
256
  8
DATA
  6
CONTINUOUS
 62
     7
 10
141.60000000036621
 20
110.33000000017481
 30
0.0
 11
141.60000000036621
 21
105.6000000001748
 31
0.0
  0
LINE
  5
257
  8
DATA
  6
CONTINUOUS
 62
     7
 10
140.90000000036611
 20
110.33000000017481
 30
0.0
 11
140.90000000036611
 21
105.6000000001748
 31
0.0
  0
LINE
  5
258
  8
DATA
  6
CONTINUOUS
 62
     7
 10
140.20000000036609
 20
110.33000000017481
 30
0.0
 11
140.20000000036609
 21
105.6000000001748
 31
0.0
  0
LINE
  5
259
  8
DATA
  6
CONTINUOUS
 62
     7
 10
139.50000000036621
 20
110.33000000017481
 30
0.0
 11
139.50000000036621
 21
105.6000000001748
 31
0.0
  0
LINE
  5
25A
  8
DATA
  6
CONTINUOUS
 62
     7
 10
138.8000000003662
 20
110.33000000017481
 30
0.0
 11
138.8000000003662
 21
105.6000000001748
 31
0.0
  0
LINE
  5
25B
  8
DATA
  6
CONTINUOUS
 62
     7
 10
138.10000000036621
 20
110.33000000017481
 30
0.0
 11
138.10000000036621
 21
105.6000000001748
 31
0.0
  0
LINE
  5
25C
  8
DATA
  6
CONTINUOUS
 62
     7
 10
137.40000000036611
 20
110.33000000017481
 30
0.0
 11
137.40000000036611
 21
105.6000000001748
 31
0.0
  0
LINE
  5
25D
  8
DATA
  6
CONTINUOUS
 62
     7
 10
136.70000000036609
 20
110.33000000017481
 30
0.0
 11
136.70000000036609
 21
105.6000000001748
 31
0.0
  0
LINE
  5
25E
  8
DATA
  6
CONTINUOUS
 62
     7
 10
136.00000000036621
 20
110.33000000017481
 30
0.0
 11
136.00000000036621
 21
105.6000000001748
 31
0.0
  0
LINE
  5
25F
  8
DATA
  6
CONTINUOUS
 62
     7
 10
135.3000000003662
 20
110.33000000017481
 30
0.0
 11
135.3000000003662
 21
105.6000000001748
 31
0.0
  0
LINE
  5
260
  8
DATA
  6
CONTINUOUS
 62
     7
 10
134.60000000036621
 20
110.33000000017481
 30
0.0
 11
134.60000000036621
 21
105.6000000001748
 31
0.0
  0
LINE
  5
261
  8
DATA
  6
CONTINUOUS
 62
     7
 10
133.90000000036611
 20
110.33000000017481
 30
0.0
 11
133.90000000036611
 21
105.6000000001748
 31
0.0
  0
LINE
  5
262
  8
DATA
  6
CONTINUOUS
 62
     7
 10
133.20000000036609
 20
110.33000000017481
 30
0.0
 11
133.20000000036609
 21
105.6000000001748
 31
0.0
  0
LINE
  5
263
  8
DATA
  6
CONTINUOUS
 62
     7
 10
132.50000000036621
 20
110.33000000017481
 30
0.0
 11
132.50000000036621
 21
105.6000000001748
 31
0.0
  0
LINE
  5
264
  8
DATA
  6
CONTINUOUS
 62
     7
 10
131.8000000003662
 20
110.33000000017481
 30
0.0
 11
131.8000000003662
 21
105.6000000001748
 31
0.0
  0
LINE
  5
265
  8
DATA
  6
CONTINUOUS
 62
     7
 10
131.10000000036621
 20
110.33000000017481
 30
0.0
 11
131.10000000036621
 21
105.6000000001748
 31
0.0
  0
CIRCLE
  5
266
  8
DATA
  6
CONTINUOUS
 62
     7
 10
137.5
 20
119.72355564218149
 30
0.0
 40
5.5
  0
CIRCLE
  5
267
  8
DATA
  6
CONTINUOUS
 62
     7
 10
137.5
 20
119.72355564218149
 30
0.0
 40
3.0
  0
LINE
  5
268
  8
DATA
  6
CONTINUOUS
 62
     7
 10
272.0
 20
57.600000000000001
 30
0.0
 11
272.0
 21
34.256805548791711
 31
0.0
  0
LINE
  5
269
  8
DATA
  6
CONTINUOUS
 62
     7
 10
278.0
 20
57.600000000000001
 30
0.0
 11
278.0
 21
34.256805548791682
 31
0.0
  0
ARC
  5
26A
  8
DATA
  6
CONTINUOUS
 62
     7
 10
275.0
 20
57.600000000000001
 30
0.0
 40
3.0
 50
0.0
 51
180.0
  0
LINE
  5
26B
  8
DATA
  6
CONTINUOUS
 62
     7
 10
271.46795676824257
 20
26.98210602405009
 30
0.0
 11
270.03204323175743
 21
17.217893975950059
 31
0.0
  0
ARC
  5
26C
  8
DATA
  6
CONTINUOUS
 62
     7
 10
319.5
 20
9.9431944512084556
 30
0.0
 40
49.999999999999972
 50
171.63411387596739
 51
180.0
  0
ARC
  5
26D
  8
DATA
  6
CONTINUOUS
 62
     7
 10
319.5
 20
9.9431944512084787
 30
0.0
 40
49.999999999999972
 50
171.63411387596739
 51
180.0
  0
ARC
  5
26E
  8
DATA
  6
CONTINUOUS
 62
     7
 10
222.0
 20
34.256805548791668
 30
0.0
 40
49.999999999999972
 50
351.63411387596739
 51
0.0000000000000568
  0
LINE
  5
26F
  8
DATA
  6
CONTINUOUS
 62
     7
 10
278.53204323175743
 20
26.98210602405009
 30
0.0
 11
279.96795676824269
 21
17.217893975950059
 31
0.0
  0
ARC
  5
270
  8
DATA
  6
CONTINUOUS
 62
     7
 10
230.5
 20
9.9431944512084556
 30
0.0
 40
49.999999999999972
 50
0.0
 51
8.3658861240325564
  0
ARC
  5
271
  8
DATA
  6
CONTINUOUS
 62
     7
 10
230.5
 20
9.9431944512084787
 30
0.0
 40
50.0
 50
0.0
 51
8.3658861240325564
  0
ARC
  5
272
  8
DATA
  6
CONTINUOUS
 62
     7
 10
328.0
 20
34.256805548791668
 30
0.0
 40
50.0
 50
179.99999999999989
 51
188.36588612403261
  0
LINE
  5
273
  8
DATA
  6
CONTINUOUS
 62
     7
 10
269.5
 20
9.9431944512084556
 30
0.0
 11
269.5
 21
-47.000000000100009
 31
0.0
  0
LINE
  5
274
  8
DATA
  6
CONTINUOUS
 62
     7
 10
280.5
 20
9.9431944512084556
 30
0.0
 11
280.5
 21
-47.000000000100009
 31
0.0
  0
LINE
  5
275
  8
DATA
  6
CONTINUOUS
 62
     7
 10
269.5
 20
-29.400000000000009
 30
0.0
 11
280.5
 21
-29.400000000000009
 31
0.0
  0
LINE
  5
276
  8
DATA
  6
CONTINUOUS
 62
     7
 10
269.0
 20
-58.000000000100009
 30
0.0
 11
269.0
 21
-47.000000000100009
 31
0.0
  0
LINE
  5
277
  8
DATA
  6
CONTINUOUS
 62
     7
 10
269.0
 20
-58.000000000100009
 30
0.0
 11
281.0
 21
-58.000000000100009
 31
0.0
  0
LINE
  5
278
  8
DATA
  6
CONTINUOUS
 62
     7
 10
269.0
 20
-47.000000000100009
 30
0.0
 11
281.0
 21
-47.000000000100009
 31
0.0
  0
LINE
  5
279
  8
DATA
  6
CONTINUOUS
 62
     7
 10
281.0
 20
-58.000000000100009
 30
0.0
 11
281.0
 21
-47.000000000100009
 31
0.0
  0
ARC
  5
27A
  8
DATA
  6
CONTINUOUS
 62
     7
 10
279.8333333333332
 20
-52.500000000100023
 30
0.0
 40
10.83333333333327
 50
149.48976259388419
 51
210.51023740611569
  0
ARC
  5
27B
  8
DATA
  6
CONTINUOUS
 62
     7
 10
270.16666666666669
 20
-52.500000000100023
 30
0.0
 40
10.833333333333259
 50
329.48976259388422
 51
30.510237406115831
  0
TEXT
  5
27C
  8
DATA
 62
     7
 10
267.27677456072013
 20
-86.120341184434338
 30
0.0
 40
10.85894097222222
  1
BNCコネクタ  
 41
0.7
 11
267.27677456072013
 21
-75.261400212212109
 31
0.0
 73
     3
  0
LINE
  5
27D
  8
DATA
  6
CONTINUOUS
 62
     7
 10
247.25
 20
-59.400000000000013
 30
0.0
 11
262.5
 21
-90.0
 31
0.0
  0
LINE
  5
27E
  8
DATA
  6
CONTINUOUS
 62
     7
 10
247.25
 20
-59.400000000000013
 30
0.0
 11
256.04773422500278
 21
-69.170873732429285
 31
0.0
  0
LINE
  5
27F
  8
DATA
  6
CONTINUOUS
 62
     7
 10
247.25
 20
-59.400000000000013
 30
0.0
 11
249.98362446838161
 21
-72.260691981955262
 31
0.0
  0
LINE
  5
280
  8
DATA
  6
CONTINUOUS
 62
     7
 10
262.5
 20
-90.0
 30
0.0
 11
350.10000000000002
 21
-90.0
 31
0.0
  0
TEXT
  5
281
  8
DATA
 62
     7
 10
150.0579943554975
 20
-123.37078515663001
 30
0.0
 40
10.85894097222222
  1
1/4波長アンテナ 2本
 41
0.7
 11
150.0579943554975
 21
-112.51184418440781
 31
0.0
 73
     3
  0
LINE
  5
282
  8
DATA
  6
CONTINUOUS
 62
     7
 10
147.2722455770234
 20
-127.5
 30
0.0
 11
287.5
 21
-127.5
 31
0.0
  0
LINE
  5
283
  8
DATA
  6
CONTINUOUS
 62
     7
 10
217.99999999990351
 20
-224.86310316772031
 30
0.0
 11
217.99999999990351
 21
-248.2062976189286
 31
0.0
  0
LINE
  5
284
  8
DATA
  6
CONTINUOUS
 62
     7
 10
211.99999999990351
 20
-224.86310316772031
 30
0.0
 11
211.99999999990351
 21
-248.2062976189286
 31
0.0
  0
ARC
  5
285
  8
DATA
  6
CONTINUOUS
 62
     7
 10
214.99999999990339
 20
-224.86310316772031
 30
0.0
 40
3.0
 50
0.0
 51
180.0
  0
LINE
  5
286
  8
DATA
  6
CONTINUOUS
 62
     7
 10
218.53204323166091
 20
-255.48099714367029
 30
0.0
 11
219.96795676814611
 21
-265.2452091917703
 31
0.0
  0
ARC
  5
287
  8
DATA
  6
CONTINUOUS
 62
     7
 10
170.49999999990339
 20
-272.51990871651191
 30
0.0
 40
50.000000000000021
 50
0.0
 51
8.3658861240325564
  0
ARC
  5
288
  8
DATA
  6
CONTINUOUS
 62
     7
 10
170.49999999990339
 20
-272.51990871651191
 30
0.0
 40
50.000000000000021
 50
0.0
 51
8.3658861240325564
  0
ARC
  5
289
  8
DATA
  6
CONTINUOUS
 62
     7
 10
267.99999999990342
 20
-248.20629761892869
 30
0.0
 40
50.0
 50
179.99999999999989
 51
188.36588612403261
  0
LINE
  5
28A
  8
DATA
  6
CONTINUOUS
 62
     7
 10
211.46795676814611
 20
-255.48099714367029
 30
0.0
 11
210.03204323166079
 21
-265.2452091917703
 31
0.0
  0
ARC
  5
28B
  8
DATA
  6
CONTINUOUS
 62
     7
 10
259.49999999990342
 20
-272.51990871651191
 30
0.0
 40
50.000000000000021
 50
171.63411387596739
 51
180.0
  0
ARC
  5
28C
  8
DATA
  6
CONTINUOUS
 62
     7
 10
259.49999999990342
 20
-272.51990871651191
 30
0.0
 40
50.000000000000021
 50
171.63411387596739
 51
180.0
  0
ARC
  5
28D
  8
DATA
  6
CONTINUOUS
 62
     7
 10
161.99999999990339
 20
-248.20629761892869
 30
0.0
 40
50.0
 50
351.63411387596739
 51
0.0000000000000568
  0
LINE
  5
28E
  8
DATA
  6
CONTINUOUS
 62
     7
 10
220.49999999990351
 20
-271.51990871651179
 30
0.0
 11
220.49999999990351
 21
-328.46310316782183
 31
0.0
  0
LINE
  5
28F
  8
DATA
  6
CONTINUOUS
 62
     7
 10
209.49999999990351
 20
-271.51990871651179
 30
0.0
 11
209.49999999990351
 21
-328.46310316782183
 31
0.0
  0
LINE
  5
290
  8
DATA
  6
CONTINUOUS
 62
     7
 10
195.1499999999034
 20
-327.06310316772181
 30
0.0
 11
192.74999999990339
 21
-327.06310316772181
 31
0.0
  0
LINE
  5
291
  8
DATA
  6
CONTINUOUS
 62
     7
 10
195.1499999999034
 20
-340.86310316772182
 30
0.0
 11
192.74999999990339
 21
-340.86310316772182
 31
0.0
  0
LINE
  5
292
  8
DATA
  6
CONTINUOUS
 62
     7
 10
220.49999999990351
 20
-310.86310316772131
 30
0.0
 11
209.49999999990351
 21
-310.86310316772131
 31
0.0
  0
LINE
  5
293
  8
DATA
  6
CONTINUOUS
 62
     7
 10
220.99999999990339
 20
-339.46310316782183
 30
0.0
 11
220.99999999990339
 21
-328.46310316782183
 31
0.0
  0
LINE
  5
294
  8
DATA
  6
CONTINUOUS
 62
     7
 10
220.99999999990339
 20
-339.46310316782183
 30
0.0
 11
208.99999999990339
 21
-339.46310316782183
 31
0.0
  0
LINE
  5
295
  8
DATA
  6
CONTINUOUS
 62
     7
 10
220.99999999990339
 20
-328.46310316782183
 30
0.0
 11
208.99999999990339
 21
-328.46310316782183
 31
0.0
  0
LINE
  5
296
  8
DATA
  6
CONTINUOUS
 62
     7
 10
192.74999999990339
 20
-340.86310316772182
 30
0.0
 11
192.74999999990339
 21
-327.06310316772181
 31
0.0
  0
LINE
  5
297
  8
DATA
  6
CONTINUOUS
 62
     7
 10
208.99999999990339
 20
-339.46310316782183
 30
0.0
 11
208.99999999990339
 21
-328.46310316782183
 31
0.0
  0
ARC
  5
298
  8
DATA
  6
CONTINUOUS
 62
     7
 10
210.16666666657019
 20
-333.96310316782188
 30
0.0
 40
10.83333333333324
 50
329.48976259388451
 51
30.510237406116008
  0
ARC
  5
299
  8
DATA
  6
CONTINUOUS
 62
     7
 10
219.83333333323671
 20
-333.96310316782188
 30
0.0
 40
10.83333333333329
 50
149.489762593884
 51
210.51023740611549
  0
LINE
  5
29A
  8
DATA
  6
CONTINUOUS
 62
     7
 10
195.1499999999034
 20
-340.86310316772182
 30
0.0
 11
195.1499999999034
 21
-327.06310316772181
 31
0.0
  0
LINE
  5
29B
  8
DATA
  6
CONTINUOUS
 62
     7
 10
195.1499999999034
 20
-339.66310316772177
 30
0.0
 11
200.84999999990339
 21
-339.66310316772177
 31
0.0
  0
LINE
  5
29C
  8
DATA
  6
CONTINUOUS
 62
     7
 10
200.84999999990339
 20
-328.26310316772179
 30
0.0
 11
195.1499999999034
 21
-328.26310316772179
 31
0.0
  0
LINE
  5
29D
  8
DATA
  6
CONTINUOUS
 62
     7
 10
200.84999999990339
 20
-340.86310316772182
 30
0.0
 11
200.84999999990339
 21
-327.06310316772181
 31
0.0
  0
LINE
  5
29E
  8
DATA
  6
CONTINUOUS
 62
     7
 10
205.57999999990349
 20
-340.86310316772182
 30
0.0
 11
205.57999999990349
 21
-327.06310316772181
 31
0.0
  0
LINE
  5
29F
  8
DATA
  6
CONTINUOUS
 62
     7
 10
205.57999999990349
 20
-327.06310316772181
 30
0.0
 11
200.84999999990339
 21
-327.06310316772181
 31
0.0
  0
LINE
  5
2A0
  8
DATA
  6
CONTINUOUS
 62
     7
 10
205.57999999990349
 20
-340.86310316772182
 30
0.0
 11
200.84999999990339
 21
-340.86310316772182
 31
0.0
  0
LINE
  5
2A1
  8
DATA
  6
CONTINUOUS
 62
     7
 10
208.99999999990339
 20
-328.6831031678218
 30
0.0
 11
205.57999999990349
 21
-328.6831031678218
 31
0.0
  0
LINE
  5
2A2
  8
DATA
  6
CONTINUOUS
 62
     7
 10
208.99999999990339
 20
-339.2431031678218
 30
0.0
 11
205.57999999990349
 21
-339.2431031678218
 31
0.0
  0
LINE
  5
2A3
  8
DATA
  6
CONTINUOUS
 62
     7
 10
205.57999999990349
 20
-327.76310316772191
 30
0.0
 11
200.84999999990339
 21
-327.76310316772191
 31
0.0
  0
LINE
  5
2A4
  8
DATA
  6
CONTINUOUS
 62
     7
 10
205.57999999990349
 20
-328.46310316772178
 30
0.0
 11
200.84999999990339
 21
-328.46310316772178
 31
0.0
  0
LINE
  5
2A5
  8
DATA
  6
CONTINUOUS
 62
     7
 10
205.57999999990349
 20
-329.16310316772177
 30
0.0
 11
200.84999999990339
 21
-329.16310316772177
 31
0.0
  0
LINE
  5
2A6
  8
DATA
  6
CONTINUOUS
 62
     7
 10
205.57999999990349
 20
-329.86310316772182
 30
0.0
 11
200.84999999990339
 21
-329.86310316772182
 31
0.0
  0
LINE
  5
2A7
  8
DATA
  6
CONTINUOUS
 62
     7
 10
205.57999999990349
 20
-330.56310316772181
 30
0.0
 11
200.84999999990339
 21
-330.56310316772181
 31
0.0
  0
LINE
  5
2A8
  8
DATA
  6
CONTINUOUS
 62
     7
 10
205.57999999990349
 20
-331.26310316772191
 30
0.0
 11
200.84999999990339
 21
-331.26310316772191
 31
0.0
  0
LINE
  5
2A9
  8
DATA
  6
CONTINUOUS
 62
     7
 10
205.57999999990349
 20
-331.96310316772178
 30
0.0
 11
200.84999999990339
 21
-331.96310316772178
 31
0.0
  0
LINE
  5
2AA
  8
DATA
  6
CONTINUOUS
 62
     7
 10
205.57999999990349
 20
-332.66310316772177
 30
0.0
 11
200.84999999990339
 21
-332.66310316772177
 31
0.0
  0
LINE
  5
2AB
  8
DATA
  6
CONTINUOUS
 62
     7
 10
205.57999999990349
 20
-333.36310316772182
 30
0.0
 11
200.84999999990339
 21
-333.36310316772182
 31
0.0
  0
LINE
  5
2AC
  8
DATA
  6
CONTINUOUS
 62
     7
 10
205.57999999990349
 20
-334.06310316772181
 30
0.0
 11
200.84999999990339
 21
-334.06310316772181
 31
0.0
  0
LINE
  5
2AD
  8
DATA
  6
CONTINUOUS
 62
     7
 10
205.57999999990349
 20
-334.76310316772179
 30
0.0
 11
200.84999999990339
 21
-334.76310316772179
 31
0.0
  0
LINE
  5
2AE
  8
DATA
  6
CONTINUOUS
 62
     7
 10
205.57999999990349
 20
-335.46310316772178
 30
0.0
 11
200.84999999990339
 21
-335.46310316772178
 31
0.0
  0
LINE
  5
2AF
  8
DATA
  6
CONTINUOUS
 62
     7
 10
205.57999999990349
 20
-336.16310316772177
 30
0.0
 11
200.84999999990339
 21
-336.16310316772177
 31
0.0
  0
LINE
  5
2B0
  8
DATA
  6
CONTINUOUS
 62
     7
 10
205.57999999990349
 20
-336.86310316772182
 30
0.0
 11
200.84999999990339
 21
-336.86310316772182
 31
0.0
  0
LINE
  5
2B1
  8
DATA
  6
CONTINUOUS
 62
     7
 10
205.57999999990349
 20
-337.56310316772181
 30
0.0
 11
200.84999999990339
 21
-337.56310316772181
 31
0.0
  0
LINE
  5
2B2
  8
DATA
  6
CONTINUOUS
 62
     7
 10
205.57999999990349
 20
-338.26310316772191
 30
0.0
 11
200.84999999990339
 21
-338.26310316772191
 31
0.0
  0
LINE
  5
2B3
  8
DATA
  6
CONTINUOUS
 62
     7
 10
205.57999999990349
 20
-338.9631031677219
 30
0.0
 11
200.84999999990339
 21
-338.9631031677219
 31
0.0
  0
LINE
  5
2B4
  8
DATA
  6
CONTINUOUS
 62
     7
 10
205.57999999990349
 20
-339.66310316772177
 30
0.0
 11
200.84999999990339
 21
-339.66310316772177
 31
0.0
  0
LINE
  5
2B5
  8
DATA
  6
CONTINUOUS
 62
     7
 10
205.57999999990349
 20
-340.36310316772182
 30
0.0
 11
200.84999999990339
 21
-340.36310316772182
 31
0.0
  0
LINE
  5
2B6
  8
DATA
  6
CONTINUOUS
 62
     7
 10
-64.920611826362745
 20
26.49883941050895
 30
0.0
 11
-64.920611826362745
 21
49.842033861717397
 31
0.0
  0
LINE
  5
2B7
  8
DATA
  6
CONTINUOUS
 62
     7
 10
-70.920611826362716
 20
26.49883941050895
 30
0.0
 11
-70.920611826362716
 21
49.842033861717432
 31
0.0
  0
ARC
  5
2B8
  8
DATA
  6
CONTINUOUS
 62
     7
 10
-67.920611826362716
 20
26.49883941050895
 30
0.0
 40
3.0
 50
180.0
 51
0.0
  0
LINE
  5
2B9
  8
DATA
  6
CONTINUOUS
 62
     7
 10
-64.388568594605374
 20
57.116733386459053
 30
0.0
 11
-62.952655058120108
 21
66.880945434559052
 31
0.0
  0
ARC
  5
2BA
  8
DATA
  6
CONTINUOUS
 62
     7
 10
-112.4206118263627
 20
74.155644959300673
 30
0.0
 40
49.999999999999972
 50
351.63411387596739
 51
0.0
  0
ARC
  5
2BB
  8
DATA
  6
CONTINUOUS
 62
     7
 10
-112.4206118263627
 20
74.155644959300616
 30
0.0
 40
49.999999999999972
 50
351.63411387596739
 51
0.0000000000000568
  0
ARC
  5
2BC
  8
DATA
  6
CONTINUOUS
 62
     7
 10
-14.920611826362739
 20
49.842033861717432
 30
0.0
 40
49.999999999999979
 50
171.6341138759673
 51
180.0
  0
LINE
  5
2BD
  8
DATA
  6
CONTINUOUS
 62
     7
 10
-71.452655058120101
 20
57.116733386459053
 30
0.0
 11
-72.888568594605402
 21
66.880945434559052
 31
0.0
  0
ARC
  5
2BE
  8
DATA
  6
CONTINUOUS
 62
     7
 10
-23.420611826362759
 20
74.155644959300673
 30
0.0
 40
49.999999999999929
 50
180.0
 51
188.36588612403261
  0
ARC
  5
2BF
  8
DATA
  6
CONTINUOUS
 62
     7
 10
-23.420611826362759
 20
74.155644959300616
 30
0.0
 40
49.999999999999929
 50
180.0
 51
188.36588612403261
  0
ARC
  5
2C0
  8
DATA
  6
CONTINUOUS
 62
     7
 10
-120.9206118263627
 20
49.842033861717432
 30
0.0
 40
50.000000000000021
 50
360.0
 51
8.365886124032615
  0
LINE
  5
2C1
  8
DATA
  6
CONTINUOUS
 62
     7
 10
-62.420611826362737
 20
74.155644959300673
 30
0.0
 11
-62.420611826362737
 21
131.09883941060909
 31
0.0
  0
LINE
  5
2C2
  8
DATA
  6
CONTINUOUS
 62
     7
 10
-73.420611826362702
 20
74.155644959300673
 30
0.0
 11
-73.420611826362702
 21
131.09883941060909
 31
0.0
  0
LINE
  5
2C3
  8
DATA
  6
CONTINUOUS
 62
     7
 10
-62.420611826362737
 20
113.49883941050911
 30
0.0
 11
-73.420611826362702
 21
113.49883941050911
 31
0.0
  0
LINE
  5
2C4
  8
DATA
  6
CONTINUOUS
 62
     7
 10
-61.920611826362737
 20
142.09883941060909
 30
0.0
 11
-61.920611826362737
 21
131.09883941060909
 31
0.0
  0
LINE
  5
2C5
  8
DATA
  6
CONTINUOUS
 62
     7
 10
-61.920611826362737
 20
142.09883941060909
 30
0.0
 11
-73.920611826362702
 21
142.09883941060909
 31
0.0
  0
LINE
  5
2C6
  8
DATA
  6
CONTINUOUS
 62
     7
 10
-61.920611826362737
 20
131.09883941060909
 30
0.0
 11
-73.920611826362702
 21
131.09883941060909
 31
0.0
  0
LINE
  5
2C7
  8
DATA
  6
CONTINUOUS
 62
     7
 10
-73.920611826362702
 20
142.09883941060909
 30
0.0
 11
-73.920611826362702
 21
131.09883941060909
 31
0.0
  0
ARC
  5
2C8
  8
DATA
  6
CONTINUOUS
 62
     7
 10
-72.753945159695974
 20
136.59883941060909
 30
0.0
 40
10.83333333333325
 50
329.48976259388422
 51
30.510237406115831
  0
ARC
  5
2C9
  8
DATA
  6
CONTINUOUS
 62
     7
 10
-63.087278493029487
 20
136.59883941060909
 30
0.0
 40
10.83333333333324
 50
149.48976259388419
 51
210.51023740611581
  0
LINE
  5
2CA
  8
DATA
  6
CONTINUOUS
 62
     7
 10
-205.95629943224
 20
26.49883941050895
 30
0.0
 11
-205.95629943224
 21
49.842033861717397
 31
0.0
  0
LINE
  5
2CB
  8
DATA
  6
CONTINUOUS
 62
     7
 10
-211.95629943224
 20
26.49883941050895
 30
0.0
 11
-211.95629943224
 21
49.842033861717432
 31
0.0
  0
ARC
  5
2CC
  8
DATA
  6
CONTINUOUS
 62
     7
 10
-208.95629943223989
 20
26.49883941050895
 30
0.0
 40
3.0
 50
180.0
 51
0.0
  0
LINE
  5
2CD
  8
DATA
  6
CONTINUOUS
 62
     7
 10
-205.4242562004826
 20
57.116733386459053
 30
0.0
 11
-203.98834266399729
 21
66.880945434559052
 31
0.0
  0
ARC
  5
2CE
  8
DATA
  6
CONTINUOUS
 62
     7
 10
-253.45629943224
 20
74.155644959300673
 30
0.0
 40
49.999999999999972
 50
351.63411387596739
 51
0.0
  0
ARC
  5
2CF
  8
DATA
  6
CONTINUOUS
 62
     7
 10
-253.45629943224
 20
74.155644959300616
 30
0.0
 40
49.999999999999972
 50
351.63411387596739
 51
0.0000000000000568
  0
ARC
  5
2D0
  8
DATA
  6
CONTINUOUS
 62
     7
 10
-155.95629943224
 20
49.842033861717432
 30
0.0
 40
49.999999999999979
 50
171.6341138759673
 51
180.0
  0
LINE
  5
2D1
  8
DATA
  6
CONTINUOUS
 62
     7
 10
-212.48834266399729
 20
57.116733386459053
 30
0.0
 11
-213.9242562004826
 21
66.880945434559052
 31
0.0
  0
ARC
  5
2D2
  8
DATA
  6
CONTINUOUS
 62
     7
 10
-164.45629943224
 20
74.155644959300673
 30
0.0
 40
49.999999999999929
 50
180.0
 51
188.36588612403261
  0
ARC
  5
2D3
  8
DATA
  6
CONTINUOUS
 62
     7
 10
-164.45629943224
 20
74.155644959300616
 30
0.0
 40
49.999999999999929
 50
180.0
 51
188.36588612403261
  0
ARC
  5
2D4
  8
DATA
  6
CONTINUOUS
 62
     7
 10
-261.95629943223997
 20
49.842033861717432
 30
0.0
 40
50.000000000000021
 50
360.0
 51
8.365886124032615
  0
LINE
  5
2D5
  8
DATA
  6
CONTINUOUS
 62
     7
 10
-203.45629943224
 20
74.155644959300673
 30
0.0
 11
-203.45629943224
 21
131.09883941060909
 31
0.0
  0
LINE
  5
2D6
  8
DATA
  6
CONTINUOUS
 62
     7
 10
-214.45629943224
 20
74.155644959300673
 30
0.0
 11
-214.45629943224
 21
131.09883941060909
 31
0.0
  0
LINE
  5
2D7
  8
DATA
  6
CONTINUOUS
 62
     7
 10
-203.45629943224
 20
113.49883941050911
 30
0.0
 11
-214.45629943224
 21
113.49883941050911
 31
0.0
  0
LINE
  5
2D8
  8
DATA
  6
CONTINUOUS
 62
     7
 10
-202.95629943224
 20
142.09883941060909
 30
0.0
 11
-202.95629943224
 21
131.09883941060909
 31
0.0
  0
LINE
  5
2D9
  8
DATA
  6
CONTINUOUS
 62
     7
 10
-202.95629943224
 20
142.09883941060909
 30
0.0
 11
-214.95629943223989
 21
142.09883941060909
 31
0.0
  0
LINE
  5
2DA
  8
DATA
  6
CONTINUOUS
 62
     7
 10
-202.95629943224
 20
131.09883941060909
 30
0.0
 11
-214.95629943223989
 21
131.09883941060909
 31
0.0
  0
LINE
  5
2DB
  8
DATA
  6
CONTINUOUS
 62
     7
 10
-214.95629943223989
 20
142.09883941060909
 30
0.0
 11
-214.95629943223989
 21
131.09883941060909
 31
0.0
  0
ARC
  5
2DC
  8
DATA
  6
CONTINUOUS
 62
     7
 10
-213.7896327655732
 20
136.59883941060909
 30
0.0
 40
10.83333333333324
 50
329.489762593884
 51
30.510237406115891
  0
ARC
  5
2DD
  8
DATA
  6
CONTINUOUS
 62
     7
 10
-204.12296609890669
 20
136.59883941060909
 30
0.0
 40
10.83333333333324
 50
149.48976259388419
 51
210.51023740611581
  0
LINE
  5
2DE
  8
DATA
  6
CONTINUOUS
 62
     7
 10
-250.0
 20
-179.83639014397011
 30
0.0
 11
-250.0
 21
-184.0
 31
0.0
  0
LINE
  5
2DF
  8
DATA
  6
CONTINUOUS
 62
     7
 10
-50.0
 20
-179.83639014397011
 30
0.0
 11
-50.0
 21
-184.0
 31
0.0
  0
LINE
  5
2E0
  8
DATA
  6
CONTINUOUS
 62
     7
 10
-250.0
 20
-184.0
 30
0.0
 11
-161.99999999999989
 21
-189.27350519915279
 31
0.0
  0
LINE
  5
2E1
  8
DATA
  6
CONTINUOUS
 62
     7
 10
-50.0
 20
-184.0
 30
0.0
 11
-138.0
 21
-189.27350519915279
 31
0.0
  0
LINE
  5
2E2
  8
DATA
  6
CONTINUOUS
 62
     7
 10
-62.087136731093608
 20
-44.850000000000001
 30
0.0
 11
-62.087136731093608
 21
-47.25
 31
0.0
  0
LINE
  5
2E3
  8
DATA
  6
CONTINUOUS
 62
     7
 10
-75.887136731093292
 20
-44.850000000000001
 30
0.0
 11
-75.887136731093292
 21
-47.25
 31
0.0
  0
LINE
  5
2E4
  8
DATA
  6
CONTINUOUS
 62
     7
 10
-74.487136731193274
 20
-19.0
 30
0.0
 11
-63.487136731193637
 21
-19.0
 31
0.0
  0
LINE
  5
2E5
  8
DATA
  6
CONTINUOUS
 62
     7
 10
-74.487136731193274
 20
-19.0
 30
0.0
 11
-74.487136731193274
 21
-31.000000000000028
 31
0.0
  0
LINE
  5
2E6
  8
DATA
  6
CONTINUOUS
 62
     7
 10
-63.487136731193637
 20
-19.0
 30
0.0
 11
-63.487136731193637
 21
-31.000000000000028
 31
0.0
  0
LINE
  5
2E7
  8
DATA
  6
CONTINUOUS
 62
     7
 10
-75.887136731093292
 20
-47.25
 30
0.0
 11
-62.087136731093608
 21
-47.25
 31
0.0
  0
LINE
  5
2E8
  8
DATA
  6
CONTINUOUS
 62
     7
 10
-74.487136731193274
 20
-31.000000000000028
 30
0.0
 11
-63.487136731193637
 21
-31.000000000000028
 31
0.0
  0
ARC
  5
2E9
  8
DATA
  6
CONTINUOUS
 62
     7
 10
-68.98713673119336
 20
-29.83333333333325
 30
0.0
 40
10.833333333333121
 50
59.489762593885537
 51
120.51023740611549
  0
ARC
  5
2EA
  8
DATA
  6
CONTINUOUS
 62
     7
 10
-68.98713673119336
 20
-20.16666666666676
 30
0.0
 40
10.83333333333321
 50
239.48976259388439
 51
300.51023740611453
  0
LINE
  5
2EB
  8
DATA
  6
CONTINUOUS
 62
     7
 10
-75.887136731093292
 20
-44.850000000000001
 30
0.0
 11
-62.087136731093608
 21
-44.850000000000001
 31
0.0
  0
LINE
  5
2EC
  8
DATA
  6
CONTINUOUS
 62
     7
 10
-74.687136731093247
 20
-44.850000000000001
 30
0.0
 11
-74.687136731093247
 21
-39.149999999999977
 31
0.0
  0
LINE
  5
2ED
  8
DATA
  6
CONTINUOUS
 62
     7
 10
-63.287136731093597
 20
-39.149999999999977
 30
0.0
 11
-63.287136731093597
 21
-44.850000000000001
 31
0.0
  0
LINE
  5
2EE
  8
DATA
  6
CONTINUOUS
 62
     7
 10
-75.887136731093292
 20
-39.149999999999977
 30
0.0
 11
-62.087136731093608
 21
-39.149999999999977
 31
0.0
  0
LINE
  5
2EF
  8
DATA
  6
CONTINUOUS
 62
     7
 10
-75.887136731093292
 20
-34.419999999999987
 30
0.0
 11
-62.087136731093608
 21
-34.419999999999987
 31
0.0
  0
LINE
  5
2F0
  8
DATA
  6
CONTINUOUS
 62
     7
 10
-62.087136731093608
 20
-34.419999999999987
 30
0.0
 11
-62.087136731093608
 21
-39.149999999999977
 31
0.0
  0
LINE
  5
2F1
  8
DATA
  6
CONTINUOUS
 62
     7
 10
-75.887136731093292
 20
-34.419999999999987
 30
0.0
 11
-75.887136731093292
 21
-39.149999999999977
 31
0.0
  0
LINE
  5
2F2
  8
DATA
  6
CONTINUOUS
 62
     7
 10
-63.707136731193621
 20
-31.000000000000028
 30
0.0
 11
-63.707136731193621
 21
-34.419999999999987
 31
0.0
  0
LINE
  5
2F3
  8
DATA
  6
CONTINUOUS
 62
     7
 10
-74.267136731193261
 20
-31.000000000000028
 30
0.0
 11
-74.267136731193261
 21
-34.419999999999987
 31
0.0
  0
LINE
  5
2F4
  8
DATA
  6
CONTINUOUS
 62
     7
 10
-62.787136731093597
 20
-34.419999999999987
 30
0.0
 11
-62.787136731093597
 21
-39.149999999999977
 31
0.0
  0
LINE
  5
2F5
  8
DATA
  6
CONTINUOUS
 62
     7
 10
-63.487136731093599
 20
-34.419999999999987
 30
0.0
 11
-63.487136731093599
 21
-39.149999999999977
 31
0.0
  0
LINE
  5
2F6
  8
DATA
  6
CONTINUOUS
 62
     7
 10
-64.187136731093602
 20
-34.419999999999987
 30
0.0
 11
-64.187136731093602
 21
-39.149999999999977
 31
0.0
  0
LINE
  5
2F7
  8
DATA
  6
CONTINUOUS
 62
     7
 10
-64.887136731093506
 20
-34.419999999999987
 30
0.0
 11
-64.887136731093506
 21
-39.149999999999977
 31
0.0
  0
LINE
  5
2F8
  8
DATA
  6
CONTINUOUS
 62
     7
 10
-65.587136731093537
 20
-34.419999999999987
 30
0.0
 11
-65.587136731093537
 21
-39.149999999999977
 31
0.0
  0
LINE
  5
2F9
  8
DATA
  6
CONTINUOUS
 62
     7
 10
-66.287136731093483
 20
-34.419999999999987
 30
0.0
 11
-66.287136731093483
 21
-39.149999999999977
 31
0.0
  0
LINE
  5
2FA
  8
DATA
  6
CONTINUOUS
 62
     7
 10
-66.987136731093429
 20
-34.419999999999987
 30
0.0
 11
-66.987136731093429
 21
-39.149999999999977
 31
0.0
  0
LINE
  5
2FB
  8
DATA
  6
CONTINUOUS
 62
     7
 10
-67.687136731093361
 20
-34.419999999999987
 30
0.0
 11
-67.687136731093361
 21
-39.149999999999977
 31
0.0
  0
LINE
  5
2FC
  8
DATA
  6
CONTINUOUS
 62
     7
 10
-68.387136731093321
 20
-34.419999999999987
 30
0.0
 11
-68.387136731093321
 21
-39.149999999999977
 31
0.0
  0
LINE
  5
2FD
  8
DATA
  6
CONTINUOUS
 62
     7
 10
-69.087136731093338
 20
-34.419999999999987
 30
0.0
 11
-69.087136731093338
 21
-39.149999999999977
 31
0.0
  0
LINE
  5
2FE
  8
DATA
  6
CONTINUOUS
 62
     7
 10
-69.78713673109327
 20
-34.419999999999987
 30
0.0
 11
-69.78713673109327
 21
-39.149999999999977
 31
0.0
  0
LINE
  5
2FF
  8
DATA
  6
CONTINUOUS
 62
     7
 10
-70.487136731093244
 20
-34.419999999999987
 30
0.0
 11
-70.487136731093244
 21
-39.149999999999977
 31
0.0
  0
LINE
  5
300
  8
DATA
  6
CONTINUOUS
 62
     7
 10
-71.187136731093247
 20
-34.419999999999987
 30
0.0
 11
-71.187136731093247
 21
-39.149999999999977
 31
0.0
  0
LINE
  5
301
  8
DATA
  6
CONTINUOUS
 62
     7
 10
-71.887136731093236
 20
-34.419999999999987
 30
0.0
 11
-71.887136731093236
 21
-39.149999999999977
 31
0.0
  0
LINE
  5
302
  8
DATA
  6
CONTINUOUS
 62
     7
 10
-72.587136731093281
 20
-34.419999999999987
 30
0.0
 11
-72.587136731093281
 21
-39.149999999999977
 31
0.0
  0
LINE
  5
303
  8
DATA
  6
CONTINUOUS
 62
     7
 10
-73.287136731093256
 20
-34.419999999999987
 30
0.0
 11
-73.287136731093256
 21
-39.149999999999977
 31
0.0
  0
LINE
  5
304
  8
DATA
  6
CONTINUOUS
 62
     7
 10
-73.987136731093258
 20
-34.419999999999987
 30
0.0
 11
-73.987136731093258
 21
-39.149999999999977
 31
0.0
  0
LINE
  5
305
  8
DATA
  6
CONTINUOUS
 62
     7
 10
-74.687136731093247
 20
-34.419999999999987
 30
0.0
 11
-74.687136731093247
 21
-39.149999999999977
 31
0.0
  0
LINE
  5
306
  8
DATA
  6
CONTINUOUS
 62
     7
 10
-75.387136731093236
 20
-34.419999999999987
 30
0.0
 11
-75.387136731093236
 21
-39.149999999999977
 31
0.0
  0
CIRCLE
  5
307
  8
DATA
  6
CONTINUOUS
 62
     7
 10
-68.987136731459501
 20
-25.02644435799337
 30
0.0
 40
5.4999999999997149
  0
CIRCLE
  5
308
  8
DATA
  6
CONTINUOUS
 62
     7
 10
-68.987136731459501
 20
-25.02644435799337
 30
0.0
 40
2.999999999999829
  0
LINE
  5
309
  8
DATA
  6
CONTINUOUS
 62
     7
 10
-213.70486675686439
 20
-47.25
 30
0.0
 11
-213.70486675686439
 21
-49.5
 31
0.0
  0
LINE
  5
30A
  8
DATA
  6
CONTINUOUS
 62
     7
 10
-204.00486675686409
 20
-47.25
 30
0.0
 11
-204.00486675686409
 21
-49.5
 31
0.0
  0
LINE
  5
30B
  8
DATA
  6
CONTINUOUS
 62
     7
 10
-201.94485922350219
 20
-44.850000000000001
 30
0.0
 11
-201.94485922350219
 21
-47.25
 31
0.0
  0
LINE
  5
30C
  8
DATA
  6
CONTINUOUS
 62
     7
 10
-215.74485922350181
 20
-44.850000000000001
 30
0.0
 11
-215.74485922350181
 21
-47.25
 31
0.0
  0
LINE
  5
30D
  8
DATA
  6
CONTINUOUS
 62
     7
 10
-214.3448592236019
 20
-19.0
 30
0.0
 11
-203.3448592236021
 21
-19.0
 31
0.0
  0
LINE
  5
30E
  8
DATA
  6
CONTINUOUS
 62
     7
 10
-214.3448592236019
 20
-19.0
 30
0.0
 11
-214.3448592236019
 21
-31.000000000000028
 31
0.0
  0
LINE
  5
30F
  8
DATA
  6
CONTINUOUS
 62
     7
 10
-203.3448592236021
 20
-19.0
 30
0.0
 11
-203.3448592236021
 21
-31.000000000000028
 31
0.0
  0
LINE
  5
310
  8
DATA
  6
CONTINUOUS
 62
     7
 10
-215.74485922350181
 20
-47.25
 30
0.0
 11
-201.94485922350219
 21
-47.25
 31
0.0
  0
LINE
  5
311
  8
DATA
  6
CONTINUOUS
 62
     7
 10
-214.3448592236019
 20
-31.000000000000028
 30
0.0
 11
-203.3448592236021
 21
-31.000000000000028
 31
0.0
  0
ARC
  5
312
  8
DATA
  6
CONTINUOUS
 62
     7
 10
-208.8448592236019
 20
-29.83333333333325
 30
0.0
 40
10.833333333333121
 50
59.489762593885537
 51
120.51023740611549
  0
ARC
  5
313
  8
DATA
  6
CONTINUOUS
 62
     7
 10
-208.8448592236019
 20
-20.16666666666676
 30
0.0
 40
10.83333333333321
 50
239.48976259388439
 51
300.51023740611453
  0
LINE
  5
314
  8
DATA
  6
CONTINUOUS
 62
     7
 10
-215.74485922350181
 20
-44.850000000000001
 30
0.0
 11
-201.94485922350219
 21
-44.850000000000001
 31
0.0
  0
LINE
  5
315
  8
DATA
  6
CONTINUOUS
 62
     7
 10
-214.5448592235017
 20
-44.850000000000001
 30
0.0
 11
-214.5448592235017
 21
-39.149999999999977
 31
0.0
  0
LINE
  5
316
  8
DATA
  6
CONTINUOUS
 62
     7
 10
-203.1448592235021
 20
-39.149999999999977
 30
0.0
 11
-203.1448592235021
 21
-44.850000000000001
 31
0.0
  0
LINE
  5
317
  8
DATA
  6
CONTINUOUS
 62
     7
 10
-215.74485922350181
 20
-39.149999999999977
 30
0.0
 11
-201.94485922350219
 21
-39.149999999999977
 31
0.0
  0
LINE
  5
318
  8
DATA
  6
CONTINUOUS
 62
     7
 10
-215.74485922350181
 20
-34.419999999999987
 30
0.0
 11
-201.94485922350219
 21
-34.419999999999987
 31
0.0
  0
LINE
  5
319
  8
DATA
  6
CONTINUOUS
 62
     7
 10
-201.94485922350219
 20
-34.419999999999987
 30
0.0
 11
-201.94485922350219
 21
-39.149999999999977
 31
0.0
  0
LINE
  5
31A
  8
DATA
  6
CONTINUOUS
 62
     7
 10
-215.74485922350181
 20
-34.419999999999987
 30
0.0
 11
-215.74485922350181
 21
-39.149999999999977
 31
0.0
  0
LINE
  5
31B
  8
DATA
  6
CONTINUOUS
 62
     7
 10
-203.56485922360221
 20
-31.000000000000028
 30
0.0
 11
-203.56485922360221
 21
-34.419999999999987
 31
0.0
  0
LINE
  5
31C
  8
DATA
  6
CONTINUOUS
 62
     7
 10
-214.12485922360179
 20
-31.000000000000028
 30
0.0
 11
-214.12485922360179
 21
-34.419999999999987
 31
0.0
  0
LINE
  5
31D
  8
DATA
  6
CONTINUOUS
 62
     7
 10
-202.6448592235021
 20
-34.419999999999987
 30
0.0
 11
-202.6448592235021
 21
-39.149999999999977
 31
0.0
  0
LINE
  5
31E
  8
DATA
  6
CONTINUOUS
 62
     7
 10
-203.34485922350211
 20
-34.419999999999987
 30
0.0
 11
-203.34485922350211
 21
-39.149999999999977
 31
0.0
  0
LINE
  5
31F
  8
DATA
  6
CONTINUOUS
 62
     7
 10
-204.0448592235021
 20
-34.419999999999987
 30
0.0
 11
-204.0448592235021
 21
-39.149999999999977
 31
0.0
  0
LINE
  5
320
  8
DATA
  6
CONTINUOUS
 62
     7
 10
-204.744859223502
 20
-34.419999999999987
 30
0.0
 11
-204.744859223502
 21
-39.149999999999977
 31
0.0
  0
LINE
  5
321
  8
DATA
  6
CONTINUOUS
 62
     7
 10
-205.44485922350211
 20
-34.419999999999987
 30
0.0
 11
-205.44485922350211
 21
-39.149999999999977
 31
0.0
  0
LINE
  5
322
  8
DATA
  6
CONTINUOUS
 62
     7
 10
-206.14485922350201
 20
-34.419999999999987
 30
0.0
 11
-206.14485922350201
 21
-39.149999999999977
 31
0.0
  0
LINE
  5
323
  8
DATA
  6
CONTINUOUS
 62
     7
 10
-206.844859223502
 20
-34.419999999999987
 30
0.0
 11
-206.844859223502
 21
-39.149999999999977
 31
0.0
  0
LINE
  5
324
  8
DATA
  6
CONTINUOUS
 62
     7
 10
-207.5448592235019
 20
-34.419999999999987
 30
0.0
 11
-207.5448592235019
 21
-39.149999999999977
 31
0.0
  0
LINE
  5
325
  8
DATA
  6
CONTINUOUS
 62
     7
 10
-208.24485922350189
 20
-34.419999999999987
 30
0.0
 11
-208.24485922350189
 21
-39.149999999999977
 31
0.0
  0
LINE
  5
326
  8
DATA
  6
CONTINUOUS
 62
     7
 10
-208.94485922350179
 20
-34.419999999999987
 30
0.0
 11
-208.94485922350179
 21
-39.149999999999977
 31
0.0
  0
LINE
  5
327
  8
DATA
  6
CONTINUOUS
 62
     7
 10
-209.6448592235017
 20
-34.419999999999987
 30
0.0
 11
-209.6448592235017
 21
-39.149999999999977
 31
0.0
  0
LINE
  5
328
  8
DATA
  6
CONTINUOUS
 62
     7
 10
-210.3448592235018
 20
-34.419999999999987
 30
0.0
 11
-210.3448592235018
 21
-39.149999999999977
 31
0.0
  0
LINE
  5
329
  8
DATA
  6
CONTINUOUS
 62
     7
 10
-211.0448592235017
 20
-34.419999999999987
 30
0.0
 11
-211.0448592235017
 21
-39.149999999999977
 31
0.0
  0
LINE
  5
32A
  8
DATA
  6
CONTINUOUS
 62
     7
 10
-211.74485922350169
 20
-34.419999999999987
 30
0.0
 11
-211.74485922350169
 21
-39.149999999999977
 31
0.0
  0
LINE
  5
32B
  8
DATA
  6
CONTINUOUS
 62
     7
 10
-212.44485922350179
 20
-34.419999999999987
 30
0.0
 11
-212.44485922350179
 21
-39.149999999999977
 31
0.0
  0
LINE
  5
32C
  8
DATA
  6
CONTINUOUS
 62
     7
 10
-213.1448592235017
 20
-34.419999999999987
 30
0.0
 11
-213.1448592235017
 21
-39.149999999999977
 31
0.0
  0
LINE
  5
32D
  8
DATA
  6
CONTINUOUS
 62
     7
 10
-213.84485922350169
 20
-34.419999999999987
 30
0.0
 11
-213.84485922350169
 21
-39.149999999999977
 31
0.0
  0
LINE
  5
32E
  8
DATA
  6
CONTINUOUS
 62
     7
 10
-214.5448592235017
 20
-34.419999999999987
 30
0.0
 11
-214.5448592235017
 21
-39.149999999999977
 31
0.0
  0
LINE
  5
32F
  8
DATA
  6
CONTINUOUS
 62
     7
 10
-215.24485922350169
 20
-34.419999999999987
 30
0.0
 11
-215.24485922350169
 21
-39.149999999999977
 31
0.0
  0
CIRCLE
  5
330
  8
DATA
  6
CONTINUOUS
 62
     7
 10
-208.84485922386801
 20
-25.02644435799337
 30
0.0
 40
5.4999999999997149
  0
CIRCLE
  5
331
  8
DATA
  6
CONTINUOUS
 62
     7
 10
-208.84485922386801
 20
-25.02644435799337
 30
0.0
 40
2.999999999999829
  0
LINE
  5
332
  8
DATA
  6
CONTINUOUS
 62
     7
 10
-71.98282439379966
 20
-224.99999999997871
 30
0.0
 11
-71.98282439379966
 21
-248.343194451187
 31
0.0
  0
LINE
  5
333
  8
DATA
  6
CONTINUOUS
 62
     7
 10
-65.98282439379966
 20
-224.99999999997871
 30
0.0
 11
-65.98282439379966
 21
-248.343194451187
 31
0.0
  0
ARC
  5
334
  8
DATA
  6
CONTINUOUS
 62
     7
 10
-68.98282439379966
 20
-224.99999999997871
 30
0.0
 40
3.0
 50
0.0
 51
180.0
  0
LINE
  5
335
  8
DATA
  6
CONTINUOUS
 62
     7
 10
-72.514867625557017
 20
-255.61789397592861
 30
0.0
 11
-73.95078116204229
 21
-265.38210602402859
 31
0.0
  0
ARC
  5
336
  8
DATA
  6
CONTINUOUS
 62
     7
 10
-24.482824393799639
 20
-272.65680554877031
 30
0.0
 40
50.0
 50
171.63411387596739
 51
180.0
  0
ARC
  5
337
  8
DATA
  6
CONTINUOUS
 62
     7
 10
-24.482824393799639
 20
-272.65680554877031
 30
0.0
 40
50.0
 50
171.6341138759673
 51
180.0
  0
ARC
  5
338
  8
DATA
  6
CONTINUOUS
 62
     7
 10
-121.9828243937996
 20
-248.343194451187
 30
0.0
 40
49.999999999999972
 50
351.63411387596739
 51
0.0
  0
LINE
  5
339
  8
DATA
  6
CONTINUOUS
 62
     7
 10
-65.45078116204229
 20
-255.61789397592861
 30
0.0
 11
-64.014867625556974
 21
-265.38210602402859
 31
0.0
  0
ARC
  5
33A
  8
DATA
  6
CONTINUOUS
 62
     7
 10
-113.4828243937996
 20
-272.65680554877031
 30
0.0
 40
49.999999999999972
 50
0.0
 51
8.3658861240325564
  0
ARC
  5
33B
  8
DATA
  6
CONTINUOUS
 62
     7
 10
-113.4828243937996
 20
-272.65680554877031
 30
0.0
 40
50.0
 50
0.0
 51
8.365886124032615
  0
ARC
  5
33C
  8
DATA
  6
CONTINUOUS
 62
     7
 10
-15.982824393799641
 20
-248.343194451187
 30
0.0
 40
50.000000000000021
 50
180.0
 51
188.36588612403261
  0
LINE
  5
33D
  8
DATA
  6
CONTINUOUS
 62
     7
 10
-74.48282439379966
 20
-272.65680554877031
 30
0.0
 11
-74.48282439379966
 21
-307.0
 31
0.0
  0
LINE
  5
33E
  8
DATA
  6
CONTINUOUS
 62
     7
 10
-63.48282439379966
 20
-272.65680554877031
 30
0.0
 11
-63.48282439379966
 21
-307.0
 31
0.0
  0
LINE
  5
33F
  8
DATA
  6
CONTINUOUS
 62
     7
 10
-63.48282439379966
 20
-307.86018196858049
 30
0.0
 11
-63.48282439379966
 21
-308.0000563964
 31
0.0
  0
LINE
  5
340
  8
DATA
  6
CONTINUOUS
 62
     7
 10
-211.7483949825841
 20
-224.99999999997871
 30
0.0
 11
-211.7483949825841
 21
-248.343194451187
 31
0.0
  0
LINE
  5
341
  8
DATA
  6
CONTINUOUS
 62
     7
 10
-205.7483949825841
 20
-224.99999999997871
 30
0.0
 11
-205.7483949825841
 21
-248.343194451187
 31
0.0
  0
ARC
  5
342
  8
DATA
  6
CONTINUOUS
 62
     7
 10
-208.74839498258419
 20
-224.99999999997871
 30
0.0
 40
3.0
 50
0.0
 51
180.0
  0
LINE
  5
343
  8
DATA
  6
CONTINUOUS
 62
     7
 10
-212.28043821434159
 20
-255.61789397592861
 30
0.0
 11
-213.71635175082679
 21
-265.38210602402859
 31
0.0
  0
ARC
  5
344
  8
DATA
  6
CONTINUOUS
 62
     7
 10
-164.2483949825841
 20
-272.65680554877031
 30
0.0
 40
50.0
 50
171.63411387596739
 51
180.0
  0
ARC
  5
345
  8
DATA
  6
CONTINUOUS
 62
     7
 10
-164.2483949825841
 20
-272.65680554877031
 30
0.0
 40
50.0
 50
171.6341138759673
 51
180.0
  0
ARC
  5
346
  8
DATA
  6
CONTINUOUS
 62
     7
 10
-261.7483949825845
 20
-248.343194451187
 30
0.0
 40
50.000000000000227
 50
351.63411387596739
 51
0.0
  0
LINE
  5
347
  8
DATA
  6
CONTINUOUS
 62
     7
 10
-205.21635175082679
 20
-255.61789397592861
 30
0.0
 11
-203.7804382143415
 21
-265.38210602402859
 31
0.0
  0
ARC
  5
348
  8
DATA
  6
CONTINUOUS
 62
     7
 10
-253.24839498258419
 20
-272.65680554877031
 30
0.0
 40
49.999999999999972
 50
0.0
 51
8.3658861240325564
  0
ARC
  5
349
  8
DATA
  6
CONTINUOUS
 62
     7
 10
-253.24839498258419
 20
-272.65680554877031
 30
0.0
 40
50.0
 50
0.0
 51
8.365886124032615
  0
ARC
  5
34A
  8
DATA
  6
CONTINUOUS
 62
     7
 10
-155.7483949825841
 20
-248.343194451187
 30
0.0
 40
50.000000000000021
 50
180.0
 51
188.36588612403261
  0
LINE
  5
34B
  8
DATA
  6
CONTINUOUS
 62
     7
 10
-214.2483949825841
 20
-272.65680554877031
 30
0.0
 11
-214.2483949825841
 21
-307.0
 31
0.0
  0
LINE
  5
34C
  8
DATA
  6
CONTINUOUS
 62
     7
 10
-203.24839498258419
 20
-272.65680554877031
 30
0.0
 11
-203.24839498258419
 21
-307.0
 31
0.0
  0
LINE
  5
34D
  8
DATA
  6
CONTINUOUS
 62
     7
 10
-247.0
 20
-350.0
 30
0.0
 11
-53.0
 21
-350.0
 31
0.0
  0
LINE
  5
34E
  8
DATA
  6
CONTINUOUS
 62
     7
 10
-170.59912099833261
 20
-333.0
 30
0.0
 11
-129.40087900166731
 21
-333.0
 31
0.0
  0
LINE
  5
34F
  8
DATA
  6
CONTINUOUS
 62
     7
 10
-175.67233631543459
 20
-320.0
 30
0.0
 11
-124.32766368456529
 21
-320.0
 31
0.0
  0
ARC
  5
350
  8
DATA
  6
CONTINUOUS
 62
     7
 10
-149.89865923454781
 20
-317.43179565246493
 30
0.0
 40
25.90131471258799
 50
185.69042364731311
 51
216.94574197043571
  0
ARC
  5
351
  8
DATA
  6
CONTINUOUS
 62
     7
 10
-150.10134076545219
 20
-317.43179565246493
 30
0.0
 40
25.901314712588
 50
323.05425802956438
 51
354.3095763526868
  0
LINE
  5
352
  8
DATA
  6
CONTINUOUS
 62
     7
 10
-186.19999999999999
 20
131.09318447515321
 30
0.0
 11
-186.19999999999999
 21
134.99318447515321
 31
0.0
  0
LINE
  5
353
  8
DATA
  6
CONTINUOUS
 62
     7
 10
-185.40000000000001
 20
131.09318447515321
 30
0.0
 11
-185.40000000000001
 21
134.99318447515321
 31
0.0
  0
LINE
  5
354
  8
DATA
  6
CONTINUOUS
 62
     7
 10
-184.59999999999999
 20
131.09318447515321
 30
0.0
 11
-184.59999999999999
 21
134.99318447515321
 31
0.0
  0
LINE
  5
355
  8
DATA
  6
CONTINUOUS
 62
     7
 10
-183.80000000000001
 20
131.09318447515321
 30
0.0
 11
-183.80000000000001
 21
134.99318447515321
 31
0.0
  0
TEXT
  5
356
  8
DATA
 62
     7
 10
-353.17297904492028
 20
-489.02371872970878
 30
0.0
 40
7.6012586805555546
  1
※仕様及び外観は予告なく変更されることがあります。
 41
0.7
 11
-353.17297904492028
 21
-481.42246004915341
 31
0.0
 73
     3
  0
TEXT
  5
357
  8
DATA
 62
     7
 10
-353.17297904492028
 20
-498.90149650748668
 30
0.0
 40
7.6012586805555546
  1
　また、同一製品でも若干の個体差があることがあります。ご了承ください。
 41
0.7
 11
-353.17297904492028
 21
-491.3002378269311
 31
0.0
 73
     3
  0
ENDSEC
  0
EOF
