  0
SECTION
  2
HEADER
  9
$ACADVER
  1
AC1009
  9
$INSBASE
 10
0.0
 20
0.0
 30
0.0
  9
$EXTMIN
 10
-60.013731862434383
 20
-138.44352395871209
 30
-0.0015258207003583
  9
$EXTMAX
 10
390.01373395791012
 20
530.02037689252074
 30
0.0000000349246037
  9
$LIMMIN
 10
0.0
 20
0.0
  9
$LIMMAX
 10
0.0
 20
0.0
  9
$ORTHOMODE
 70
     0
  9
$REGENMODE
 70
     1
  9
$FILLMODE
 70
     1
  9
$QTEXTMODE
 70
     0
  9
$MIRRTEXT
 70
     1
  9
$DRAGMODE
 70
     2
  9
$LTSCALE
 40
12.699999999999999
  9
$OSMODE
 70
   167
  9
$ATTMODE
 70
     1
  9
$TEXTSIZE
 40
0.0
  9
$TRACEWID
 40
1.0
  9
$TEXTSTYLE
  7
STANDARD
  9
$CLAYER
  8
DATA
  9
$CELTYPE
  6
CONTINUOUS
  9
$CECOLOR
 62
   256
  9
$DIMSCALE
 40
1.0
  9
$DIMASZ
 40
0.18
  9
$DIMEXO
 40
0.0625
  9
$DIMDLI
 40
0.38
  9
$DIMRND
 40
0.0
  9
$DIMDLE
 40
0.0
  9
$DIMEXE
 40
0.18
  9
$DIMTP
 40
0.0
  9
$DIMTM
 40
0.0
  9
$DIMTXT
 40
0.18
  9
$DIMCEN
 40
0.09
  9
$DIMTSZ
 40
0.0
  9
$DIMTOL
 70
     0
  9
$DIMLIM
 70
     0
  9
$DIMTIH
 70
     1
  9
$DIMTOH
 70
     1
  9
$DIMSE1
 70
     0
  9
$DIMSE2
 70
     0
  9
$DIMTAD
 70
     0
  9
$DIMZIN
 70
     0
  9
$DIMBLK
  1

  9
$DIMASO
 70
     1
  9
$DIMSHO
 70
     1
  9
$DIMPOST
  1

  9
$DIMAPOST
  1

  9
$DIMALT
 70
     0
  9
$DIMALTD
 70
     2
  9
$DIMALTF
 40
25.399999999999999
  9
$DIMLFAC
 40
1.0
  9
$DIMTOFL
 70
     0
  9
$DIMTVP
 40
0.0
  9
$DIMTIX
 70
     0
  9
$DIMSOXD
 70
     0
  9
$DIMSAH
 70
     0
  9
$DIMBLK1
  1

  9
$DIMBLK2
  1

  9
$DIMSTYLE
  2
STANDARD
  9
$DIMCLRD
 70
     0
  9
$DIMCLRE
 70
     0
  9
$DIMCLRT
 70
     0
  9
$DIMTFAC
 40
1.0
  9
$DIMGAP
 40
0.09
  9
$LUNITS
 70
     2
  9
$LUPREC
 70
     4
  9
$SKETCHINC
 40
0.1
  9
$FILLETRAD
 40
0.0
  9
$AUNITS
 70
     0
  9
$AUPREC
 70
     0
  9
$MENU
  1
acad
  9
$ELEVATION
 40
0.0
  9
$PELEVATION
 40
0.0
  9
$THICKNESS
 40
0.0
  9
$LIMCHECK
 70
     0
  9
$BLIPMODE
 70
     0
  9
$CHAMFERA
 40
0.0
  9
$CHAMFERB
 40
0.0
  9
$SKPOLY
 70
     0
  9
$TDCREATE
 40
2452979.7513310192
  9
$TDUPDATE
 40
2452979.8012310071
  9
$TDINDWG
 40
0.0002378125
  9
$TDUSRTIMER
 40
0.0002376389
  9
$USRTIMER
 70
     1
  9
$ANGBASE
 50
0.0
  9
$ANGDIR
 70
     0
  9
$PDMODE
 70
     1
  9
$PDSIZE
 40
-2.0
  9
$PLINEWID
 40
0.0
  9
$COORDS
 70
     2
  9
$SPLFRAME
 70
     0
  9
$SPLINETYPE
 70
     6
  9
$SPLINESEGS
 70
     8
  9
$ATTDIA
 70
     0
  9
$ATTREQ
 70
     1
  9
$HANDLING
 70
     1
  9
$HANDSEED
  5
48C
  9
$SURFTAB1
 70
     6
  9
$SURFTAB2
 70
     6
  9
$SURFTYPE
 70
     6
  9
$SURFU
 70
     6
  9
$SURFV
 70
     6
  9
$UCSNAME
  2

  9
$UCSORG
 10
0.0
 20
0.0
 30
0.0
  9
$UCSXDIR
 10
1.0
 20
0.0
 30
0.0
  9
$UCSYDIR
 10
0.0
 20
1.0
 30
0.0
  9
$PUCSNAME
  2

  9
$PUCSORG
 10
0.0
 20
0.0
 30
0.0
  9
$PUCSXDIR
 10
1.0
 20
0.0
 30
0.0
  9
$PUCSYDIR
 10
0.0
 20
1.0
 30
0.0
  9
$USERI1
 70
     0
  9
$USERI2
 70
     0
  9
$USERI3
 70
     0
  9
$USERI4
 70
     0
  9
$USERI5
 70
     0
  9
$USERR1
 40
0.0
  9
$USERR2
 40
0.0
  9
$USERR3
 40
0.0
  9
$USERR4
 40
0.0
  9
$USERR5
 40
0.0
  9
$WORLDVIEW
 70
     1
  9
$SHADEDGE
 70
     3
  9
$SHADEDIF
 70
    70
  9
$TILEMODE
 70
     1
  9
$MAXACTVP
 70
    16
  9
$PLIMCHECK
 70
     0
  9
$PEXTMIN
 10
1.0000000000000000E+020
 20
1.0000000000000000E+020
 30
1.0000000000000000E+020
  9
$PEXTMAX
 10
-1.0000000000000000E+020
 20
-1.0000000000000000E+020
 30
-1.0000000000000000E+020
  9
$PLIMMIN
 10
0.0
 20
0.0
  9
$PLIMMAX
 10
12.0
 20
9.0
  9
$UNITMODE
 70
     0
  9
$VISRETAIN
 70
     0
  9
$PLINEGEN
 70
     1
  9
$PSLTSCALE
 70
     0
  0
ENDSEC
  0
SECTION
  2
TABLES
  0
TABLE
  2
VPORT
 70
     2
  0
VPORT
  2
*ACTIVE
 70
     0
 10
0.0
 20
0.0
 11
1.0
 21
1.0
 12
165.0000010477379
 22
195.7884264669043
 13
0.0
 23
0.0
 14
1.0
 24
1.0
 15
0.0
 25
0.0
 16
0.0
 26
0.0
 36
1.0
 17
0.0
 27
0.0
 37
0.0
 40
673.79030643570479
 41
1.603723404255319
 42
50.0
 43
0.0
 44
0.0
 50
0.0
 51
0.0
 71
     0
 72
   100
 73
     1
 74
     1
 75
     0
 76
     0
 77
     0
 78
     0
  0
ENDTAB
  0
TABLE
  2
LTYPE
 70
    11
  0
LTYPE
  2
CONTINUOUS
 70
     0
  3
Solid line
 72
    65
 73
     0
 40
0.0
  0
LTYPE
  2
STYLE_01
 70
     0
  3

 72
    65
 73
     2
 40
0.4166412353515625
 49
0.208282470703125
 49
-0.2083587646484375
  0
LTYPE
  2
STYLE_02
 70
     0
  3

 72
    65
 73
     2
 40
0.694427490234375
 49
0.4860687255859375
 49
-0.2083587646484375
  0
LTYPE
  2
STYLE_03
 70
     0
  3

 72
    65
 73
     2
 40
1.25
 49
1.0416412353515621
 49
-0.2083587646484375
  0
LTYPE
  2
STYLE_04
 70
     0
  3

 72
    65
 73
     2
 40
1.5277099609375
 49
1.319427490234375
 49
-0.208282470703125
  0
LTYPE
  2
STYLE_05
 70
     0
  3

 72
    65
 73
     2
 40
0.208282470703125
 49
0.069427490234375
 49
-0.13885498046875
  0
LTYPE
  2
STYLE_06
 70
     0
  3

 72
    65
 73
     4
 40
1.0416412353515621
 49
0.625
 49
-0.208282470703125
 49
0.069427490234375
 49
-0.1389312744140625
  0
LTYPE
  2
STYLE_07
 70
     0
  3

 72
    65
 73
     6
 40
1.875
 49
0.625
 49
-0.208282470703125
 49
0.625
 49
-0.2083587646484375
 49
0.069427490234375
 49
-0.1389312744140625
  0
LTYPE
  2
STYLE_08
 70
     0
  3

 72
    65
 73
     6
 40
1.25
 49
0.625
 49
-0.208282470703125
 49
0.069427490234375
 49
-0.1389312744140625
 49
0.069427490234375
 49
-0.1389312744140625
  0
LTYPE
  2
STYLE_09
 70
     0
  3

 72
    65
 73
     4
 40
5.0
 49
3.75
 49
-0.2777862548828125
 49
0.694427490234375
 49
-0.2777862548828125
  0
LTYPE
  2
STYLE_10
 70
     0
  3

 72
    65
 73
     6
 40
5.9375
 49
3.75
 49
-0.2777862548828125
 49
0.694427490234375
 49
-0.2777862548828125
 49
0.625
 49
-0.3125
  0
ENDTAB
  0
TABLE
  2
LAYER
 70
     6
  0
LAYER
  2
0
 70
     0
 62
     7
  6
CONTINUOUS
  0
LAYER
  2
DATA
 70
     0
 62
     7
  6
CONTINUOUS
  0
LAYER
  2
DEFPOINTS
 70
     0
 62
     7
  6
CONTINUOUS
  0
LAYER
  2
HIBINO-BASE
 70
     0
 62
     7
  6
CONTINUOUS
  0
LAYER
  2
SPEC
 70
     0
 62
     7
  6
CONTINUOUS
  0
LAYER
  2
DIMNSIONS
 70
     0
 62
     7
  6
CONTINUOUS
  0
ENDTAB
  0
TABLE
  2
STYLE
 70
     2
  0
STYLE
  2
STANDARD
 70
     0
 40
0.0
 41
1.0
 50
0.0
 71
     0
 42
0.0
  3
txt
  4
BIGFONT.SHX
  0
ENDTAB
  0
TABLE
  2
VIEW
 70
     0
  0
ENDTAB
  0
TABLE
  2
UCS
 70
     0
  0
ENDTAB
  0
TABLE
  2
APPID
 70
     1
  0
APPID
  2
ACAD
 70
     0
  0
ENDTAB
  0
TABLE
  2
DIMSTYLE
 70
     1
  0
DIMSTYLE
  2
STANDARD
 70
     0
  3

  4

  5

  6

  7

 40
1.0
 41
0.18
 42
0.0625
 43
0.38
 44
0.18
 45
0.0
 46
0.0
 47
0.0
 48
0.0
140
0.18
141
0.09
142
0.0
143
25.399999999999999
144
1.0
145
0.0
146
1.0
147
0.09
 71
     0
 72
     0
 73
     1
 74
     1
 75
     0
 76
     0
 77
     0
 78
     0
170
     0
171
     2
172
     0
173
     0
174
     0
175
     0
176
     0
177
     0
178
     0
  0
ENDTAB
  0
ENDSEC
  0
SECTION
  2
BLOCKS
  0
BLOCK
  8
0
  2
$MODEL_SPACE
 70
     0
 10
0.0
 20
0.0
 30
0.0
  3
$MODEL_SPACE
  1

  0
ENDBLK
  5
373
  8
0
  0
BLOCK
 67
     1
  8
0
  2
$PAPER_SPACE
 70
     0
 10
0.0
 20
0.0
 30
0.0
  3
$PAPER_SPACE
  1

  0
ENDBLK
  5
36F
 67
     1
  8
0
  0
ENDSEC
  0
SECTION
  2
ENTITIES
  0
LINE
  5
2D
  8
HIBINO-BASE
 62
     7
 10
-60.0
 20
530.0
 30
0.0
 11
390.0
 21
530.0
 31
0.0
  0
LINE
  5
2E
  8
HIBINO-BASE
 62
     7
 10
390.0
 20
-120.0
 30
0.0
 11
-60.0
 21
-120.0
 31
0.0
  0
LINE
  5
2F
  8
HIBINO-BASE
 62
     7
 10
-60.0
 20
-120.0
 30
0.0
 11
-60.0
 21
530.0
 31
0.0
  0
TEXT
  5
30
  8
HIBINO-BASE
 62
     7
 10
-42.039999999999992
 20
-135.3199599999999
 30
0.0
 40
9.3564599999999984
  1
Hibino Corporation
 41
0.8
 11
-42.039999999999992
 21
-125.9634999999999
 31
0.0
 73
     3
  0
LINE
  5
31
  8
HIBINO-BASE
 62
     7
 10
390.0
 20
530.0
 30
0.0
 11
390.0
 21
-120.0
 31
0.0
  0
LINE
  5
32
  8
HIBINO-BASE
 62
     7
 10
164.99999999999989
 20
-63.749999999999929
 30
0.0
 11
390.0
 21
-63.749999999999929
 31
0.0
  0
LINE
  5
33
  8
HIBINO-BASE
 62
     7
 10
164.99999999999989
 20
-120.0
 30
0.0
 11
164.99999999999989
 21
-63.749999999999929
 31
0.0
  0
TEXT
  5
34
  8
HIBINO-BASE
 62
     7
 10
167.24999999999989
 20
-69.704233333333306
 30
0.0
 40
4.2333333333333316
  1
NOTE
 41
0.8
 11
167.24999999999989
 21
-65.470899999999972
 31
0.0
 73
     3
  0
LINE
  5
35
  8
HIBINO-BASE
 62
     7
 10
252.5
 20
-120.0
 30
0.0
 11
252.5
 21
-63.749999999999929
 31
0.0
  0
TEXT
  5
36
  8
HIBINO-BASE
 62
     7
 10
254.75
 20
-69.704233333333306
 30
0.0
 40
4.2333333333333316
  1
TITLE
 41
0.8
 11
254.75
 21
-65.470899999999972
 31
0.0
 73
     3
  0
TEXT
  5
37
  8
HIBINO-BASE
 62
     7
 10
290.17097499999988
 20
-135.3199599999999
 30
0.0
 40
9.3564599999999984
  1
ヒビノ株式会社
 41
0.8
 11
290.17097499999988
 21
-125.9634999999999
 31
0.0
 73
     3
  0
LINE
  5
38
  8
HIBINO-BASE
 62
     7
 10
164.99999999999989
 20
-94.999999999999943
 30
0.0
 11
390.0
 21
-94.999999999999943
 31
0.0
  0
TEXT
  5
39
  8
HIBINO-BASE
 62
     7
 10
286.0
 20
-100.81343333333329
 30
0.0
 40
4.2333333333333316
  1
DRAWN
 41
0.8
 11
286.0
 21
-96.580099999999987
 31
0.0
 73
     3
  0
TEXT
  5
3A
  8
HIBINO-BASE
 62
     7
 10
223.5
 20
-100.81343333333329
 30
0.0
 40
4.2333333333333316
  1
DATE
 41
0.8
 11
223.5
 21
-96.580099999999987
 31
0.0
 73
     3
  0
TEXT
  5
3B
  8
HIBINO-BASE
 62
     7
 10
167.75
 20
-101.2311399999999
 30
0.0
 40
4.2333399999999992
  1
図面サイズ
 41
0.8
 11
167.75
 21
-96.997799999999984
 31
0.0
 73
     3
  0
TEXT
  5
3C
  8
HIBINO-BASE
 62
     7
 10
198.5
 20
-100.81343333333329
 30
0.0
 40
4.2333333333333316
  1
SCALE
 41
0.8
 11
198.5
 21
-96.580099999999987
 31
0.0
 73
     3
  0
TEXT
  5
3D
  8
HIBINO-BASE
 62
     7
 10
254.75
 20
-100.81343333333329
 30
0.0
 40
4.2333333333333316
  1
DESIGN
 41
0.8
 11
254.75
 21
-96.580099999999987
 31
0.0
 73
     3
  0
TEXT
  5
3E
  8
HIBINO-BASE
 62
     7
 10
348.49999999999989
 20
-100.81343333333329
 30
0.0
 40
4.2333333333333316
  1
DRAWING NO.
 41
0.8
 11
348.49999999999989
 21
-96.580099999999987
 31
0.0
 73
     3
  0
TEXT
  5
3F
  8
HIBINO-BASE
 62
     7
 10
317.24999999999989
 20
-100.81343333333329
 30
0.0
 40
4.2333333333333316
  1
CHECK
 41
0.8
 11
317.24999999999989
 21
-96.580099999999987
 31
0.0
 73
     3
  0
LINE
  5
40
  8
HIBINO-BASE
 62
     7
 10
200.9375
 20
-116.875
 30
0.0
 11
210.3125
 21
-107.4999999999999
 31
0.0
  0
TEXT
  5
41
  8
HIBINO-BASE
 62
     7
 10
199.375
 20
-109.95485833333331
 30
0.0
 40
4.2333333333333316
  1
1
 41
0.8
 11
199.375
 21
-105.721525
 31
0.0
 73
     3
  0
LINE
  5
42
  8
HIBINO-BASE
 62
     7
 10
196.25
 20
-120.0
 30
0.0
 11
196.25
 21
-94.999999999999943
 31
0.0
  0
LINE
  5
43
  8
HIBINO-BASE
 62
     7
 10
221.25
 20
-120.0
 30
0.0
 11
221.25
 21
-94.999999999999943
 31
0.0
  0
LINE
  5
44
  8
HIBINO-BASE
 62
     7
 10
283.75
 20
-94.999999999999943
 30
0.0
 11
283.75
 21
-120.0
 31
0.0
  0
LINE
  5
45
  8
HIBINO-BASE
 62
     7
 10
346.25
 20
-94.999999999999943
 30
0.0
 11
346.25
 21
-120.0
 31
0.0
  0
LINE
  5
46
  8
HIBINO-BASE
 62
     7
 10
314.99999999999989
 20
-120.0
 30
0.0
 11
314.99999999999989
 21
-94.999999999999943
 31
0.0
  0
TEXT
  5
47
  8
HIBINO-BASE
 62
     7
 10
223.39134999999999
 20
-112.5233833333333
 30
0.0
 40
4.2333333333333316
  1
'03.12.
 41
0.8
 11
223.39134999999999
 21
-108.29004999999999
 31
0.0
 73
     3
  0
TEXT
  5
48
  8
HIBINO-BASE
 62
     7
 10
208.75
 20
-114.64235833333331
 30
0.0
 40
4.2333333333333316
  1
2.5
 41
0.8
 11
208.75
 21
-110.409025
 31
0.0
 73
     3
  0
TEXT
  5
49
  8
HIBINO-BASE
 62
     7
 10
174.7083333333334
 20
-114.4249999999999
 30
0.0
 40
8.466666666666665
  1
A4
 41
0.8
 11
174.7083333333334
 21
-105.9583333333333
 31
0.0
 73
     3
  0
TEXT
  5
4A
  8
HIBINO-BASE
 62
     7
 10
287.5145250275865
 20
-112.5233833333333
 30
0.0
 40
4.2333333333333316
  1
N.Sasaki
 41
0.8
 11
287.5145250275865
 21
-108.29004999999989
 31
0.0
 73
     3
  0
TEXT
  5
4B
  8
SPEC
 62
     7
 10
-38.125
 20
508.9594249999999
 30
0.0
 40
6.3499999999999996
  1
仕様
 41
0.8
 11
-38.125
 21
515.30942499999992
 31
0.0
 73
     3
  0
LINE
  5
4C
  8
SPEC
 62
     7
 10
-41.25
 20
505.0
 30
0.0
 11
208.75
 21
505.0
 31
0.0
  0
LINE
  5
4D
  8
SPEC
 62
     7
 10
-13.125
 20
495.62499999999989
 30
0.0
 11
208.75
 21
495.62499999999989
 31
0.0
  0
LINE
  5
4E
  8
SPEC
 62
     7
 10
-41.25
 20
467.49999999999989
 30
0.0
 11
208.75
 21
467.49999999999989
 31
0.0
  0
LINE
  5
4F
  8
SPEC
 62
     7
 10
-13.125
 20
476.87499999999989
 30
0.0
 11
208.75
 21
476.87499999999989
 31
0.0
  0
LINE
  5
50
  8
SPEC
 62
     7
 10
-13.125
 20
458.12499999999989
 30
0.0
 11
208.75
 21
458.12499999999989
 31
0.0
  0
LINE
  5
51
  8
SPEC
 62
     7
 10
-13.125
 20
439.37499999999989
 30
0.0
 11
208.75
 21
439.37499999999989
 31
0.0
  0
LINE
  5
52
  8
SPEC
 62
     7
 10
-13.125
 20
486.24999999999989
 30
0.0
 11
208.75
 21
486.24999999999989
 31
0.0
  0
TEXT
  5
53
  8
SPEC
 62
     7
 10
47.249999999999993
 20
498.460411111111
 30
0.0
 40
4.9388888888888891
  1
4
 41
0.8
 11
47.249999999999993
 21
503.39929999999993
 31
0.0
 73
     3
  0
LINE
  5
54
  8
SPEC
 62
     7
 10
-41.25
 20
505.0
 30
0.0
 11
-41.25
 21
411.24999999999989
 31
0.0
  0
LINE
  5
55
  8
SPEC
 62
     7
 10
43.125
 20
505.0
 30
0.0
 11
43.125
 21
411.24999999999989
 31
0.0
  0
LINE
  5
56
  8
SPEC
 62
     7
 10
208.75
 20
505.0
 30
0.0
 11
208.75
 21
411.24999999999989
 31
0.0
  0
TEXT
  5
57
  8
SPEC
 62
     7
 10
47.249999999999993
 20
432.835411111111
 30
0.0
 40
4.9388888888888891
  1
+26dBm(600Ω)
 41
0.8
 11
47.249999999999993
 21
437.77429999999993
 31
0.0
 73
     3
  0
TEXT
  5
58
  8
SPEC
 62
     7
 10
-8.2500000000000284
 20
470.335411111111
 30
0.0
 40
4.9388888888888891
  1
最大レベル
 41
0.8
 11
-8.2500000000000284
 21
475.27429999999993
 31
0.0
 73
     3
  0
TEXT
  5
59
  8
SPEC
 62
     7
 10
-39.000000000000021
 20
498.460411111111
 30
0.0
 40
4.9388888888888891
  1
入力
 41
0.8
 11
-39.000000000000021
 21
503.39929999999993
 31
0.0
 73
     3
  0
TEXT
  5
5A
  8
SPEC
 62
     7
 10
-8.2500000000000284
 20
451.585411111111
 30
0.0
 40
4.9388888888888891
  1
形式
 41
0.8
 11
-8.2500000000000284
 21
456.52429999999993
 31
0.0
 73
     3
  0
TEXT
  5
5B
  8
SPEC
 62
     7
 10
-8.2500000000000284
 20
442.210411111111
 30
0.0
 40
4.9388888888888891
  1
端子
 41
0.8
 11
-8.2500000000000284
 21
447.14929999999993
 31
0.0
 73
     3
  0
TEXT
  5
5C
  8
SPEC
 62
     7
 10
-39.000000000000021
 20
460.960411111111
 30
0.0
 40
4.9388888888888891
  1
出力
 41
0.8
 11
-39.000000000000021
 21
465.89929999999993
 31
0.0
 73
     3
  0
TEXT
  5
5D
  8
SPEC
 62
     7
 10
-8.2500000000000284
 20
489.08541111111111
 30
0.0
 40
4.9388888888888891
  1
形式
 41
0.8
 11
-8.2500000000000284
 21
494.02429999999993
 31
0.0
 73
     3
  0
TEXT
  5
5E
  8
SPEC
 62
     7
 10
-8.2500000000000284
 20
479.71041111111111
 30
0.0
 40
4.9388888888888891
  1
端子
 41
0.8
 11
-8.2500000000000284
 21
484.64929999999993
 31
0.0
 73
     3
  0
TEXT
  5
5F
  8
SPEC
 62
     7
 10
-8.2500000000000284
 20
432.835411111111
 30
0.0
 40
4.9388888888888891
  1
最大レベル
 41
0.8
 11
-8.2500000000000284
 21
437.77429999999993
 31
0.0
 73
     3
  0
TEXT
  5
60
  8
SPEC
 62
     7
 10
47.249999999999993
 20
470.335411111111
 30
0.0
 40
4.9388888888888891
  1
+26dbm
 41
0.8
 11
47.249999999999993
 21
475.27429999999993
 31
0.0
 73
     3
  0
TEXT
  5
61
  8
SPEC
 62
     7
 10
47.249999999999993
 20
442.210411111111
 30
0.0
 40
4.9388888888888891
  1
XLR3ピンオス(2-HOT)
 41
0.8
 11
47.249999999999993
 21
447.14929999999993
 31
0.0
 73
     3
  0
TEXT
  5
62
  8
SPEC
 62
     7
 10
47.249999999999993
 20
460.960411111111
 30
0.0
 40
4.9388888888888891
  1
4
 41
0.8
 11
47.249999999999993
 21
465.89929999999993
 31
0.0
 73
     3
  0
TEXT
  5
63
  8
SPEC
 62
     7
 10
47.249999999999993
 20
479.71041111111111
 30
0.0
 40
4.9388888888888891
  1
XLR3ピンメス(2-HOT)
 41
0.8
 11
47.249999999999993
 21
484.64929999999993
 31
0.0
 73
     3
  0
TEXT
  5
64
  8
SPEC
 62
     7
 10
47.249999999999993
 20
489.08541111111111
 30
0.0
 40
4.9388888888888891
  1
アンバランス
 41
0.8
 11
47.249999999999993
 21
494.02429999999993
 31
0.0
 73
     3
  0
TEXT
  5
65
  8
SPEC
 62
     7
 10
-8.2500000000000284
 20
498.460411111111
 30
0.0
 40
4.9388888888888891
  1
チャンネル数
 41
0.8
 11
-8.2500000000000284
 21
503.39929999999993
 31
0.0
 73
     3
  0
TEXT
  5
66
  8
SPEC
 62
     7
 10
-8.2500000000000284
 20
460.960411111111
 30
0.0
 40
4.9388888888888891
  1
チャンネル数
 41
0.8
 11
-8.2500000000000284
 21
465.89929999999993
 31
0.0
 73
     3
  0
LINE
  5
67
  8
SPEC
 62
     7
 10
-13.125
 20
505.0
 30
0.0
 11
-13.125
 21
430.0
 31
0.0
  0
TEXT
  5
68
  8
SPEC
 62
     7
 10
-39.000000000000021
 20
414.085411111111
 30
0.0
 40
4.9388888888888891
  1
寸法(W×H×D)/重量
 41
0.8
 11
-39.000000000000021
 21
419.02429999999993
 31
0.0
 73
     3
  0
TEXT
  5
69
  8
SPEC
 62
     7
 10
47.249999999999993
 20
414.085411111111
 30
0.0
 40
4.9388888888888891
  1
217×38×87mm(突起部含まず)/1.2kg
 41
0.8
 11
47.249999999999993
 21
419.02429999999993
 31
0.0
 73
     3
  0
TEXT
  5
6A
  8
SPEC
 62
     7
 10
47.249999999999993
 20
451.585411111111
 30
0.0
 40
4.9388888888888891
  1
バランス
 41
0.8
 11
47.249999999999993
 21
456.52429999999993
 31
0.0
 73
     3
  0
LINE
  5
6B
  8
SPEC
 62
     7
 10
-13.125
 20
448.74999999999989
 30
0.0
 11
208.75
 21
448.74999999999989
 31
0.0
  0
TEXT
  5
6C
  8
SPEC
 62
     7
 10
-39.000000000000021
 20
423.460411111111
 30
0.0
 40
4.9388888888888891
  1
周波数特性
 41
0.8
 11
-39.000000000000021
 21
428.39929999999993
 31
0.0
 73
     3
  0
TEXT
  5
6D
  8
SPEC
 62
     7
 10
47.249999999999993
 20
423.460411111111
 30
0.0
 40
4.9388888888888891
  1
15Hz～25kHz,+0/-1dB(600Ω)
 41
0.8
 11
47.249999999999993
 21
428.39929999999993
 31
0.0
 73
     3
  0
LINE
  5
6E
  8
SPEC
 62
     7
 10
-41.25
 20
430.0
 30
0.0
 11
208.75
 21
430.0
 31
0.0
  0
LINE
  5
6F
  8
SPEC
 62
     7
 10
-41.25
 20
420.62499999999989
 30
0.0
 11
208.75
 21
420.62499999999989
 31
0.0
  0
LINE
  5
70
  8
SPEC
 62
     7
 10
-41.25
 20
411.24999999999989
 30
0.0
 11
208.75
 21
411.24999999999989
 31
0.0
  0
TEXT
  5
71
  8
DIMNSIONS
 62
     7
 10
114.9999999999999
 20
-89.555580555555537
 30
0.0
 40
7.0555555555555562
  1
(単位：mm)
 41
0.8
 11
114.9999999999999
 21
-82.500024999999994
 31
0.0
 73
     3
  0
LINE
  5
72
  8
DIMNSIONS
 62
     7
 10
-5.0
 20
0.0
 30
0.0
 11
-25.0
 21
0.0
 31
0.0
  0
LINE
  5
73
  8
DIMNSIONS
 62
     7
 10
-5.0
 20
38.0
 30
0.0
 11
-25.0
 21
38.0
 31
0.0
  0
LINE
  5
74
  8
DIMNSIONS
 62
     7
 10
-20.0
 20
0.0
 30
0.0
 11
-20.0
 21
38.0
 31
0.0
  0
LINE
  5
75
  8
DIMNSIONS
 62
     7
 10
-20.0
 20
0.0
 30
0.0
 11
-21.675099487875599
 21
6.251556396484375
 31
0.0
  0
LINE
  5
76
  8
DIMNSIONS
 62
     7
 10
-20.0
 20
0.0
 30
0.0
 11
-18.324900512124401
 21
6.251556396484375
 31
0.0
  0
LINE
  5
77
  8
DIMNSIONS
 62
     7
 10
-20.0
 20
38.0
 30
0.0
 11
-18.324900512124401
 21
31.748443603515629
 31
0.0
  0
LINE
  5
78
  8
DIMNSIONS
 62
     7
 10
-20.0
 20
38.0
 30
0.0
 11
-21.675099487875599
 21
31.748443603515629
 31
0.0
  0
TEXT
  5
79
  8
DIMNSIONS
 62
     7
 10
-23.013888888888889
 20
14.59027777777777
 30
0.0
 40
7.0555555555555562
  1
38
 50
90.0
 41
0.8
 11
-30.06944444444445
 21
14.59027777777777
 31
0.0
 73
     3
  0
LINE
  5
7A
  8
DIMNSIONS
 62
     7
 10
-5.0
 20
80.0
 30
0.0
 11
-25.0
 21
80.0
 31
0.0
  0
LINE
  5
7B
  8
DIMNSIONS
 62
     7
 10
-5.0
 20
167.0
 30
0.0
 11
-25.0
 21
167.0
 31
0.0
  0
LINE
  5
7C
  8
DIMNSIONS
 62
     7
 10
-20.0
 20
80.0
 30
0.0
 11
-20.0
 21
167.0
 31
0.0
  0
LINE
  5
7D
  8
DIMNSIONS
 62
     7
 10
-20.0
 20
80.0
 30
0.0
 11
-21.675099487875599
 21
86.251556396484375
 31
0.0
  0
LINE
  5
7E
  8
DIMNSIONS
 62
     7
 10
-20.0
 20
80.0
 30
0.0
 11
-18.324900512124401
 21
86.251556396484375
 31
0.0
  0
LINE
  5
7F
  8
DIMNSIONS
 62
     7
 10
-20.0
 20
167.0
 30
0.0
 11
-18.324900512124401
 21
160.7484436035156
 31
0.0
  0
LINE
  5
80
  8
DIMNSIONS
 62
     7
 10
-20.0
 20
167.0
 30
0.0
 11
-21.675099487875599
 21
160.7484436035156
 31
0.0
  0
TEXT
  5
81
  8
DIMNSIONS
 62
     7
 10
-23.013888888888889
 20
119.0902777777777
 30
0.0
 40
7.0555555555555562
  1
87
 50
90.0
 41
0.8
 11
-30.06944444444445
 21
119.0902777777777
 31
0.0
 73
     3
  0
LINE
  5
82
  8
DIMNSIONS
 62
     7
 10
0.0
 20
-5.0
 30
0.0
 11
0.0
 21
-30.0
 31
0.0
  0
LINE
  5
83
  8
DIMNSIONS
 62
     7
 10
217.0
 20
-5.0
 30
0.0
 11
217.0
 21
-30.0
 31
0.0
  0
LINE
  5
84
  8
DIMNSIONS
 62
     7
 10
0.0
 20
-25.0
 30
0.0
 11
217.0
 21
-25.0
 31
0.0
  0
LINE
  5
85
  8
DIMNSIONS
 62
     7
 10
0.0
 20
-25.0
 30
0.0
 11
6.251556396484375
 21
-23.324900512124401
 31
0.0
  0
LINE
  5
86
  8
DIMNSIONS
 62
     7
 10
0.0
 20
-25.0
 30
0.0
 11
6.251556396484375
 21
-26.675099487875599
 31
0.0
  0
LINE
  5
87
  8
DIMNSIONS
 62
     7
 10
217.0
 20
-25.0
 30
0.0
 11
210.7484436035156
 21
-26.675099487875599
 31
0.0
  0
LINE
  5
88
  8
DIMNSIONS
 62
     7
 10
217.0
 20
-25.0
 30
0.0
 11
210.7484436035156
 21
-23.324900512124401
 31
0.0
  0
TEXT
  5
89
  8
DIMNSIONS
 62
     7
 10
101.8854166666666
 20
-21.9861111111111
 30
0.0
 40
7.0555555555555562
  1
217
 41
0.8
 11
101.8854166666666
 21
-14.930555555555539
 31
0.0
 73
     3
  0
LINE
  5
8A
  8
DIMNSIONS
 62
     7
 10
31.5
 20
77.0
 30
0.0
 11
-25.0
 21
77.0
 31
0.0
  0
LINE
  5
8B
  8
DIMNSIONS
 62
     7
 10
-5.0
 20
80.0
 30
0.0
 11
-25.0
 21
80.0
 31
0.0
  0
LINE
  5
8C
  8
DIMNSIONS
 62
     7
 10
-20.0
 20
80.0
 30
0.0
 11
-20.0
 21
77.0
 31
0.0
  0
LINE
  5
8D
  8
DIMNSIONS
 62
     7
 10
-20.0
 20
77.0
 30
0.0
 11
-20.0
 21
66.340277777777771
 31
0.0
  0
LINE
  5
8E
  8
DIMNSIONS
 62
     7
 10
-20.0
 20
77.0
 30
0.0
 11
-18.324900512124401
 21
70.748443603515625
 31
0.0
  0
LINE
  5
8F
  8
DIMNSIONS
 62
     7
 10
-20.0
 20
77.0
 30
0.0
 11
-21.675099487875599
 21
70.748443603515625
 31
0.0
  0
LINE
  5
90
  8
DIMNSIONS
 62
     7
 10
-20.0
 20
80.0
 30
0.0
 11
-20.0
 21
92.5
 31
0.0
  0
LINE
  5
91
  8
DIMNSIONS
 62
     7
 10
-20.0
 20
80.0
 30
0.0
 11
-21.675099487875599
 21
86.251556396484375
 31
0.0
  0
LINE
  5
92
  8
DIMNSIONS
 62
     7
 10
-20.0
 20
80.0
 30
0.0
 11
-18.324900512124401
 21
86.251556396484375
 31
0.0
  0
TEXT
  5
93
  8
DIMNSIONS
 62
     7
 10
-23.013888888888889
 20
66.340277777777771
 30
0.0
 40
7.0555555555555562
  1
3
 50
90.0
 41
0.8
 11
-30.06944444444445
 21
66.340277777777771
 31
0.0
 73
     3
  0
TEXT
  5
94
  8
DATA
 62
     7
 10
290.0
 20
-89.69652499999998
 30
0.0
 40
6.3499999999999996
  1
AR-204
 41
0.8
 11
290.0
 21
-83.346524999999986
 31
0.0
 73
     3
  0
TEXT
  5
95
  8
DATA
 62
     7
 10
290.0
 20
-76.57152499999998
 30
0.0
 40
6.3499999999999996
  1
BSS
 41
0.8
 11
290.0
 21
-70.221524999999986
 31
0.0
 73
     3
  0
TEXT
  5
96
  8
DATA
 62
     7
 10
-35.0
 20
-109.08750000000001
 30
0.0
 40
4.2333333333333316
  1
仕様および外観は予告なく変更されることがありますので、ご了承ください。
 41
0.8
 11
-35.0
 21
-104.8541666666666
 31
0.0
 73
     3
  0
POLYLINE
  5
97
  8
DATA
 62
     7
 66
     1
 10
0.0
 20
0.0
 30
0.0
 70
   129
  0
VERTEX
  5
390
  8
DATA
 62
     7
 10
0.0
 20
37.0
 30
0.0
 42
-0.4142135623730868
  0
VERTEX
  5
391
  8
DATA
 62
     7
 10
1.0
 20
38.0
 30
0.0
  0
VERTEX
  5
392
  8
DATA
 62
     7
 10
216.0
 20
38.0
 30
0.0
 42
-0.4142135623730951
  0
VERTEX
  5
393
  8
DATA
 62
     7
 10
217.0
 20
37.0
 30
0.0
  0
VERTEX
  5
394
  8
DATA
 62
     7
 10
217.0
 20
0.0
 30
0.0
  0
VERTEX
  5
395
  8
DATA
 62
     7
 10
0.0
 20
0.0
 30
0.0
  0
SEQEND
  5
396
  8
DATA
 62
     7
  0
CIRCLE
  5
9F
  8
DATA
 62
     7
 10
15.0
 20
18.0
 30
0.0
 40
11.75
  0
ARC
  5
A0
  8
DATA
 62
     7
 10
15.0
 20
18.0
 30
0.0
 40
9.7499999999999591
 50
163.34236379708739
 51
256.6576362029117
  0
ARC
  5
A1
  8
DATA
 62
     7
 10
15.0
 20
18.0
 30
0.0
 40
9.7499999999999485
 50
283.3423637970883
 51
16.65763620290948
  0
ARC
  5
A2
  8
DATA
 62
     7
 10
15.0
 20
18.0
 30
0.0
 40
9.7499999999999201
 50
43.34236379709133
 51
73.617330145899061
  0
ARC
  5
A3
  8
DATA
 62
     7
 10
15.0
 20
18.0
 30
0.0
 40
9.7499999999999201
 50
106.3826698541009
 51
136.6576362029123
  0
CIRCLE
  5
A4
  8
DATA
 62
     7
 10
15.0
 20
18.0
 30
0.0
 40
8.25
  0
CIRCLE
  5
A5
  8
DATA
 62
     7
 10
19.0
 20
18.0
 30
0.0
 40
1.249999999999948
  0
CIRCLE
  5
A6
  8
DATA
 62
     7
 10
11.0
 20
18.0
 30
0.0
 40
1.2499999999999409
  0
CIRCLE
  5
A7
  8
DATA
 62
     7
 10
15.0
 20
14.0
 30
0.0
 40
1.2499999999999829
  0
LINE
  5
A8
  8
DATA
 62
     7
 10
12.75
 20
7.0
 30
0.0
 11
12.75
 21
8.5131670194948583
 31
0.0
  0
LINE
  5
A9
  8
DATA
 62
     7
 10
17.25
 20
7.0
 30
0.0
 11
17.25
 21
8.5131670194948583
 31
0.0
  0
ARC
  5
AA
  8
DATA
 62
     7
 10
15.0
 20
18.0
 30
0.0
 40
11.22775578644281
 50
258.4398692057822
 51
281.56013079421768
  0
LINE
  5
AB
  8
DATA
 62
     7
 10
25.651279441628741
 20
21.551442841485031
 30
0.0
 11
24.340838362577411
 21
20.794859331737602
 31
0.0
  0
LINE
  5
AC
  8
DATA
 62
     7
 10
23.401279441628731
 20
25.448557158514969
 30
0.0
 11
22.090838362577411
 21
24.691973648767551
 31
0.0
  0
ARC
  5
AD
  8
DATA
 62
     7
 10
14.999999999999879
 20
18.0
 30
0.0
 40
11.227755786442829
 50
18.439869205782269
 51
41.560130794217557
  0
LINE
  5
AE
  8
DATA
 62
     7
 10
6.5987205583709851
 20
25.448557158514969
 30
0.0
 11
7.9091616374222999
 21
24.691973648767551
 31
0.0
  0
LINE
  5
AF
  8
DATA
 62
     7
 10
4.3487205583709851
 20
21.551442841485031
 30
0.0
 11
5.6591616374222999
 21
20.794859331737602
 31
0.0
  0
ARC
  5
B0
  8
DATA
 62
     7
 10
14.999999999999771
 20
18.0
 30
0.0
 40
11.227755786442771
 50
138.43986920578209
 51
161.5601307942176
  0
LINE
  5
B1
  8
DATA
 62
     7
 10
19.0
 20
29.048189896992199
 30
0.0
 11
19.0
 21
27.97810102173754
 31
0.0
  0
LINE
  5
B2
  8
DATA
 62
     7
 10
11.0
 20
29.048189896992199
 30
0.0
 11
11.0
 21
27.97810102173754
 31
0.0
  0
ARC
  5
B3
  8
DATA
 62
     7
 10
15.0
 20
18.0
 30
0.0
 40
10.74999999999998
 50
68.15524251423669
 51
75.178178937949852
  0
ARC
  5
B4
  8
DATA
 62
     7
 10
15.0
 20
18.0
 30
0.0
 40
10.75
 50
104.82182106205011
 51
111.84475748576349
  0
LINE
  5
B5
  8
DATA
 62
     7
 10
17.75
 20
28.392304845413271
 30
0.0
 11
17.75
 21
27.354143466934829
 31
0.0
  0
LINE
  5
B6
  8
DATA
 62
     7
 10
12.25
 20
28.392304845413271
 30
0.0
 11
12.25
 21
27.354143466934829
 31
0.0
  0
LINE
  5
B7
  8
DATA
 62
     7
 10
11.5
 20
26.01950746617274
 30
0.0
 11
11.712200880190659
 21
25.56656308688116
 31
0.0
  0
LINE
  5
B8
  8
DATA
 62
     7
 10
18.5
 20
26.01950746617274
 30
0.0
 11
18.287799119809328
 21
25.56656308688116
 31
0.0
  0
CIRCLE
  5
B9
  8
DATA
 62
     7
 10
15.0
 20
18.0
 30
0.0
 40
8.75
  0
LINE
  5
BA
  8
DATA
 62
     7
 10
13.75
 20
28.75
 30
0.0
 11
16.25
 21
28.75
 31
0.0
  0
LINE
  5
BB
  8
DATA
 62
     7
 10
13.5
 20
26.75
 30
0.0
 11
16.5
 21
26.75
 31
0.0
  0
LINE
  5
BC
  8
DATA
 62
     7
 10
13.75
 20
28.75
 30
0.0
 11
13.5
 21
26.75
 31
0.0
  0
LINE
  5
BD
  8
DATA
 62
     7
 10
16.25
 20
28.75
 30
0.0
 11
16.5
 21
26.75
 31
0.0
  0
POLYLINE
  5
BE
  8
DATA
 62
     7
 66
     1
 10
0.0
 20
0.0
 30
0.0
 70
     1
  0
VERTEX
  5
397
  8
DATA
 62
     7
 10
13.0
 20
9.0
 30
0.0
  0
VERTEX
  5
398
  8
DATA
 62
     7
 10
17.0
 20
9.0
 30
0.0
  0
VERTEX
  5
399
  8
DATA
 62
     7
 10
17.0
 20
8.0
 30
0.0
  0
VERTEX
  5
39A
  8
DATA
 62
     7
 10
13.0
 20
8.0
 30
0.0
  0
SEQEND
  5
39B
  8
DATA
 62
     7
  0
POLYLINE
  5
C4
  8
DATA
 62
     7
 66
     1
 10
0.0
 20
0.0
 30
0.0
 70
     1
  0
VERTEX
  5
39C
  8
DATA
 62
     7
 10
23.794228634059891
 20
20.76794919243105
 30
0.0
  0
VERTEX
  5
39D
  8
DATA
 62
     7
 10
21.794228634059891
 20
24.232050807568839
 30
0.0
  0
VERTEX
  5
39E
  8
DATA
 62
     7
 10
22.660254037844371
 20
24.732050807568839
 30
0.0
  0
VERTEX
  5
39F
  8
DATA
 62
     7
 10
24.660254037844371
 20
21.26794919243105
 30
0.0
  0
SEQEND
  5
3A0
  8
DATA
 62
     7
  0
POLYLINE
  5
CA
  8
DATA
 62
     7
 66
     1
 10
0.0
 20
0.0
 30
0.0
 70
     1
  0
VERTEX
  5
3A1
  8
DATA
 62
     7
 10
8.2057713659401657
 20
24.232050807568889
 30
0.0
  0
VERTEX
  5
3A2
  8
DATA
 62
     7
 10
6.2057713659400511
 20
20.767949192431111
 30
0.0
  0
VERTEX
  5
3A3
  8
DATA
 62
     7
 10
5.3397459621556322
 20
21.267949192431111
 30
0.0
  0
VERTEX
  5
3A4
  8
DATA
 62
     7
 10
7.3397459621556891
 20
24.732050807568889
 30
0.0
  0
SEQEND
  5
3A5
  8
DATA
 62
     7
  0
CIRCLE
  5
D0
  8
DATA
 62
     7
 10
24.5
 20
6.0
 30
0.0
 40
3.25
  0
CIRCLE
  5
D1
  8
DATA
 62
     7
 10
24.5
 20
6.0
 30
0.0
 40
1.0
  0
CIRCLE
  5
D2
  8
DATA
 62
     7
 10
5.5
 20
30.0
 30
0.0
 40
3.25
  0
CIRCLE
  5
D3
  8
DATA
 62
     7
 10
5.5
 20
30.0
 30
0.0
 40
1.0
  0
LINE
  5
D4
  8
DATA
 62
     7
 10
1.0
 20
0.0
 30
0.0
 11
1.0
 21
33.0
 31
0.0
  0
LINE
  5
D5
  8
DATA
 62
     7
 10
5.0
 20
37.0
 30
0.0
 11
212.0
 21
37.0
 31
0.0
  0
LINE
  5
D6
  8
DATA
 62
     7
 10
216.0
 20
33.0
 30
0.0
 11
216.0
 21
0.0
 31
0.0
  0
LINE
  5
D7
  8
DATA
 62
     7
 10
1.0
 20
33.0
 30
0.0
 11
5.0
 21
37.0
 31
0.0
  0
LINE
  5
D8
  8
DATA
 62
     7
 10
212.0
 20
37.0
 30
0.0
 11
216.0
 21
33.0
 31
0.0
  0
ARC
  5
D9
  8
DATA
 62
     7
 10
41.5
 20
18.0
 30
0.0
 40
11.75000000000002
 50
103.5351912917607
 51
76.464808708239303
  0
ARC
  5
DA
  8
DATA
 62
     7
 10
41.5
 20
18.0
 30
0.0
 40
9.7499999999999591
 50
163.34236379708739
 51
256.6576362029117
  0
ARC
  5
DB
  8
DATA
 62
     7
 10
41.5
 20
18.0
 30
0.0
 40
9.7499999999999485
 50
283.3423637970883
 51
16.65763620290948
  0
ARC
  5
DC
  8
DATA
 62
     7
 10
41.5
 20
18.0
 30
0.0
 40
9.7499999999999201
 50
43.34236379709133
 51
73.617330145899061
  0
ARC
  5
DD
  8
DATA
 62
     7
 10
41.5
 20
18.0
 30
0.0
 40
9.7499999999999201
 50
106.3826698541009
 51
136.6576362029123
  0
ARC
  5
DE
  8
DATA
 62
     7
 10
41.5
 20
18.0
 30
0.0
 40
7.4999999999999831
 50
119.926434866614
 51
60.073565133385777
  0
CIRCLE
  5
DF
  8
DATA
 62
     7
 10
45.499999999999993
 20
18.0
 30
0.0
 40
1.999999999999986
  0
CIRCLE
  5
E0
  8
DATA
 62
     7
 10
37.5
 20
18.0
 30
0.0
 40
1.999999999999992
  0
CIRCLE
  5
E1
  8
DATA
 62
     7
 10
41.5
 20
14.0
 30
0.0
 40
1.999999999999982
  0
LINE
  5
E2
  8
DATA
 62
     7
 10
39.25
 20
7.0
 30
0.0
 11
39.25
 21
8.5131670194948583
 31
0.0
  0
LINE
  5
E3
  8
DATA
 62
     7
 10
43.75
 20
7.0
 30
0.0
 11
43.75
 21
8.5131670194948583
 31
0.0
  0
ARC
  5
E4
  8
DATA
 62
     7
 10
41.5
 20
18.0
 30
0.0
 40
11.22775578644281
 50
258.4398692057822
 51
281.56013079421768
  0
LINE
  5
E5
  8
DATA
 62
     7
 10
52.151279441628731
 20
21.551442841485031
 30
0.0
 11
50.840838362577422
 21
20.794859331737602
 31
0.0
  0
LINE
  5
E6
  8
DATA
 62
     7
 10
49.901279441628724
 20
25.448557158514969
 30
0.0
 11
48.590838362577422
 21
24.691973648767551
 31
0.0
  0
ARC
  5
E7
  8
DATA
 62
     7
 10
41.499999999999893
 20
18.0
 30
0.0
 40
11.227755786442829
 50
18.439869205782269
 51
41.560130794217557
  0
LINE
  5
E8
  8
DATA
 62
     7
 10
33.098720558370992
 20
25.448557158514969
 30
0.0
 11
34.409161637422301
 21
24.691973648767551
 31
0.0
  0
LINE
  5
E9
  8
DATA
 62
     7
 10
30.848720558370989
 20
21.551442841485031
 30
0.0
 11
32.159161637422301
 21
20.794859331737602
 31
0.0
  0
ARC
  5
EA
  8
DATA
 62
     7
 10
41.499999999999773
 20
18.0
 30
0.0
 40
11.227755786442771
 50
138.43986920578209
 51
161.5601307942176
  0
LINE
  5
EB
  8
DATA
 62
     7
 10
45.499999999999993
 20
29.048189896992199
 30
0.0
 11
45.499999999999993
 21
27.97810102173754
 31
0.0
  0
LINE
  5
EC
  8
DATA
 62
     7
 10
37.5
 20
29.048189896992199
 30
0.0
 11
37.5
 21
27.97810102173754
 31
0.0
  0
ARC
  5
ED
  8
DATA
 62
     7
 10
41.5
 20
18.0
 30
0.0
 40
10.74999999999998
 50
68.15524251423669
 51
75.178178937949852
  0
ARC
  5
EE
  8
DATA
 62
     7
 10
41.5
 20
18.0
 30
0.0
 40
10.75
 50
104.82182106205011
 51
111.84475748576349
  0
LINE
  5
EF
  8
DATA
 62
     7
 10
44.249999999999993
 20
28.392304845413271
 30
0.0
 11
44.249999999999993
 21
27.354143466934829
 31
0.0
  0
LINE
  5
F0
  8
DATA
 62
     7
 10
38.75
 20
28.392304845413271
 30
0.0
 11
38.75
 21
27.354143466934829
 31
0.0
  0
CIRCLE
  5
F1
  8
DATA
 62
     7
 10
41.5
 20
18.0
 30
0.0
 40
8.75
  0
POLYLINE
  5
F2
  8
DATA
 62
     7
 66
     1
 10
0.0
 20
0.0
 30
0.0
 70
     1
  0
VERTEX
  5
3A6
  8
DATA
 62
     7
 10
39.5
 20
9.0
 30
0.0
  0
VERTEX
  5
3A7
  8
DATA
 62
     7
 10
43.5
 20
9.0
 30
0.0
  0
VERTEX
  5
3A8
  8
DATA
 62
     7
 10
43.5
 20
8.0
 30
0.0
  0
VERTEX
  5
3A9
  8
DATA
 62
     7
 10
39.5
 20
8.0
 30
0.0
  0
SEQEND
  5
3AA
  8
DATA
 62
     7
  0
POLYLINE
  5
F8
  8
DATA
 62
     7
 66
     1
 10
0.0
 20
0.0
 30
0.0
 70
     1
  0
VERTEX
  5
3AB
  8
DATA
 62
     7
 10
50.294228634059877
 20
20.76794919243105
 30
0.0
  0
VERTEX
  5
3AC
  8
DATA
 62
     7
 10
48.294228634059877
 20
24.232050807568839
 30
0.0
  0
VERTEX
  5
3AD
  8
DATA
 62
     7
 10
49.160254037844382
 20
24.732050807568839
 30
0.0
  0
VERTEX
  5
3AE
  8
DATA
 62
     7
 10
51.160254037844368
 20
21.26794919243105
 30
0.0
  0
SEQEND
  5
3AF
  8
DATA
 62
     7
  0
POLYLINE
  5
FE
  8
DATA
 62
     7
 66
     1
 10
0.0
 20
0.0
 30
0.0
 70
     1
  0
VERTEX
  5
3B0
  8
DATA
 62
     7
 10
34.705771365940173
 20
24.232050807568889
 30
0.0
  0
VERTEX
  5
3B1
  8
DATA
 62
     7
 10
32.705771365940052
 20
20.767949192431111
 30
0.0
  0
VERTEX
  5
3B2
  8
DATA
 62
     7
 10
31.839745962155629
 20
21.267949192431111
 30
0.0
  0
VERTEX
  5
3B3
  8
DATA
 62
     7
 10
33.839745962155689
 20
24.732050807568889
 30
0.0
  0
SEQEND
  5
3B4
  8
DATA
 62
     7
  0
CIRCLE
  5
104
  8
DATA
 62
     7
 10
51.0
 20
6.0
 30
0.0
 40
3.25
  0
CIRCLE
  5
105
  8
DATA
 62
     7
 10
51.0
 20
6.0
 30
0.0
 40
1.0
  0
CIRCLE
  5
106
  8
DATA
 62
     7
 10
32.0
 20
30.0
 30
0.0
 40
3.25
  0
CIRCLE
  5
107
  8
DATA
 62
     7
 10
32.0
 20
30.0
 30
0.0
 40
1.0
  0
LINE
  5
108
  8
DATA
 62
     7
 10
37.758342613226091
 20
24.5
 30
0.0
 11
45.24165738677393
 21
24.5
 31
0.0
  0
LINE
  5
109
  8
DATA
 62
     7
 10
40.0
 20
26.0
 30
0.0
 11
43.0
 21
26.0
 31
0.0
  0
LINE
  5
10A
  8
DATA
 62
     7
 10
40.0
 20
26.0
 30
0.0
 11
40.0
 21
24.5
 31
0.0
  0
LINE
  5
10B
  8
DATA
 62
     7
 10
43.0
 20
26.0
 30
0.0
 11
43.0
 21
24.5
 31
0.0
  0
LINE
  5
10C
  8
DATA
 62
     7
 10
38.75
 20
28.5
 30
0.0
 11
44.249999999999993
 21
28.5
 31
0.0
  0
LINE
  5
10D
  8
DATA
 62
     7
 10
38.75
 20
28.5
 30
0.0
 11
38.75
 21
29.5
 31
0.0
  0
LINE
  5
10E
  8
DATA
 62
     7
 10
44.249999999999993
 20
28.5
 30
0.0
 11
44.249999999999993
 21
29.5
 31
0.0
  0
LINE
  5
10F
  8
DATA
 62
     7
 10
38.75
 20
29.5
 30
0.0
 11
38.750002131277682
 21
29.5
 31
0.0
  0
ARC
  5
110
  8
DATA
 62
     7
 10
38.75
 20
31.75
 30
0.0
 40
2.249999999999992
 50
128.9424412689512
 51
270.0
  0
ARC
  5
111
  8
DATA
 62
     7
 10
44.249999999999993
 20
31.75
 30
0.0
 40
2.25
 50
270.0
 51
51.057558731033332
  0
ARC
  5
112
  8
DATA
 62
     7
 10
41.499999999999567
 20
25.329662703468902
 30
0.0
 40
9.1703372965311072
 50
62.993215105289813
 51
117.0067848947098
  0
TEXT
  5
113
  8
DATA
 62
     7
 10
39.0
 20
29.866025403784452
 30
0.0
 40
2.0
  1
PUSH
 41
0.8
 11
39.0
 21
31.866025403784452
 31
0.0
 73
     3
  0
CIRCLE
  5
114
  8
DATA
 62
     7
 10
68.25
 20
18.0
 30
0.0
 40
11.75
  0
ARC
  5
115
  8
DATA
 62
     7
 10
68.25
 20
18.0
 30
0.0
 40
9.7499999999999591
 50
163.34236379708739
 51
256.6576362029117
  0
ARC
  5
116
  8
DATA
 62
     7
 10
68.25
 20
18.0
 30
0.0
 40
9.7499999999999485
 50
283.3423637970883
 51
16.65763620290948
  0
ARC
  5
117
  8
DATA
 62
     7
 10
68.25
 20
18.0
 30
0.0
 40
9.7499999999999201
 50
43.34236379709133
 51
73.617330145899061
  0
ARC
  5
118
  8
DATA
 62
     7
 10
68.25
 20
18.0
 30
0.0
 40
9.7499999999999201
 50
106.3826698541009
 51
136.6576362029123
  0
CIRCLE
  5
119
  8
DATA
 62
     7
 10
68.25
 20
18.0
 30
0.0
 40
8.25
  0
CIRCLE
  5
11A
  8
DATA
 62
     7
 10
72.25
 20
18.0
 30
0.0
 40
1.249999999999948
  0
CIRCLE
  5
11B
  8
DATA
 62
     7
 10
64.25
 20
18.0
 30
0.0
 40
1.2499999999999409
  0
CIRCLE
  5
11C
  8
DATA
 62
     7
 10
68.25
 20
14.0
 30
0.0
 40
1.2499999999999829
  0
LINE
  5
11D
  8
DATA
 62
     7
 10
66.0
 20
7.0
 30
0.0
 11
66.0
 21
8.5131670194948583
 31
0.0
  0
LINE
  5
11E
  8
DATA
 62
     7
 10
70.5
 20
7.0
 30
0.0
 11
70.5
 21
8.5131670194948583
 31
0.0
  0
ARC
  5
11F
  8
DATA
 62
     7
 10
68.25
 20
18.0
 30
0.0
 40
11.22775578644281
 50
258.4398692057822
 51
281.56013079421768
  0
LINE
  5
120
  8
DATA
 62
     7
 10
78.901279441628731
 20
21.551442841485031
 30
0.0
 11
77.590838362577415
 21
20.794859331737602
 31
0.0
  0
LINE
  5
121
  8
DATA
 62
     7
 10
76.651279441628731
 20
25.448557158514969
 30
0.0
 11
75.340838362577415
 21
24.691973648767551
 31
0.0
  0
ARC
  5
122
  8
DATA
 62
     7
 10
68.249999999999901
 20
18.0
 30
0.0
 40
11.227755786442829
 50
18.439869205782269
 51
41.560130794217557
  0
LINE
  5
123
  8
DATA
 62
     7
 10
59.848720558370971
 20
25.448557158514969
 30
0.0
 11
61.159161637422287
 21
24.691973648767551
 31
0.0
  0
LINE
  5
124
  8
DATA
 62
     7
 10
57.598720558370978
 20
21.551442841485031
 30
0.0
 11
58.909161637422287
 21
20.794859331737602
 31
0.0
  0
ARC
  5
125
  8
DATA
 62
     7
 10
68.249999999999773
 20
18.0
 30
0.0
 40
11.227755786442771
 50
138.43986920578209
 51
161.5601307942176
  0
LINE
  5
126
  8
DATA
 62
     7
 10
72.25
 20
29.048189896992199
 30
0.0
 11
72.25
 21
27.97810102173754
 31
0.0
  0
LINE
  5
127
  8
DATA
 62
     7
 10
64.25
 20
29.048189896992199
 30
0.0
 11
64.25
 21
27.97810102173754
 31
0.0
  0
ARC
  5
128
  8
DATA
 62
     7
 10
68.25
 20
18.0
 30
0.0
 40
10.74999999999998
 50
68.15524251423669
 51
75.178178937949852
  0
ARC
  5
129
  8
DATA
 62
     7
 10
68.25
 20
18.0
 30
0.0
 40
10.75
 50
104.82182106205011
 51
111.84475748576349
  0
LINE
  5
12A
  8
DATA
 62
     7
 10
71.0
 20
28.392304845413271
 30
0.0
 11
71.0
 21
27.354143466934829
 31
0.0
  0
LINE
  5
12B
  8
DATA
 62
     7
 10
65.5
 20
28.392304845413271
 30
0.0
 11
65.5
 21
27.354143466934829
 31
0.0
  0
LINE
  5
12C
  8
DATA
 62
     7
 10
64.75
 20
26.01950746617274
 30
0.0
 11
64.962200880190665
 21
25.56656308688116
 31
0.0
  0
LINE
  5
12D
  8
DATA
 62
     7
 10
71.75
 20
26.01950746617274
 30
0.0
 11
71.537799119809335
 21
25.56656308688116
 31
0.0
  0
CIRCLE
  5
12E
  8
DATA
 62
     7
 10
68.25
 20
18.0
 30
0.0
 40
8.75
  0
LINE
  5
12F
  8
DATA
 62
     7
 10
67.0
 20
28.75
 30
0.0
 11
69.5
 21
28.75
 31
0.0
  0
LINE
  5
130
  8
DATA
 62
     7
 10
66.75
 20
26.75
 30
0.0
 11
69.75
 21
26.75
 31
0.0
  0
LINE
  5
131
  8
DATA
 62
     7
 10
67.0
 20
28.75
 30
0.0
 11
66.75
 21
26.75
 31
0.0
  0
LINE
  5
132
  8
DATA
 62
     7
 10
69.5
 20
28.75
 30
0.0
 11
69.75
 21
26.75
 31
0.0
  0
POLYLINE
  5
133
  8
DATA
 62
     7
 66
     1
 10
0.0
 20
0.0
 30
0.0
 70
     1
  0
VERTEX
  5
3B5
  8
DATA
 62
     7
 10
66.25
 20
9.0
 30
0.0
  0
VERTEX
  5
3B6
  8
DATA
 62
     7
 10
70.25
 20
9.0
 30
0.0
  0
VERTEX
  5
3B7
  8
DATA
 62
     7
 10
70.25
 20
8.0
 30
0.0
  0
VERTEX
  5
3B8
  8
DATA
 62
     7
 10
66.25
 20
8.0
 30
0.0
  0
SEQEND
  5
3B9
  8
DATA
 62
     7
  0
POLYLINE
  5
139
  8
DATA
 62
     7
 66
     1
 10
0.0
 20
0.0
 30
0.0
 70
     1
  0
VERTEX
  5
3BA
  8
DATA
 62
     7
 10
77.044228634059891
 20
20.76794919243105
 30
0.0
  0
VERTEX
  5
3BB
  8
DATA
 62
     7
 10
75.044228634059891
 20
24.232050807568839
 30
0.0
  0
VERTEX
  5
3BC
  8
DATA
 62
     7
 10
75.910254037844339
 20
24.732050807568839
 30
0.0
  0
VERTEX
  5
3BD
  8
DATA
 62
     7
 10
77.910254037844339
 20
21.26794919243105
 30
0.0
  0
SEQEND
  5
3BE
  8
DATA
 62
     7
  0
POLYLINE
  5
13F
  8
DATA
 62
     7
 66
     1
 10
0.0
 20
0.0
 30
0.0
 70
     1
  0
VERTEX
  5
3BF
  8
DATA
 62
     7
 10
61.455771365940173
 20
24.232050807568889
 30
0.0
  0
VERTEX
  5
3C0
  8
DATA
 62
     7
 10
59.455771365940038
 20
20.767949192431111
 30
0.0
  0
VERTEX
  5
3C1
  8
DATA
 62
     7
 10
58.589745962155632
 20
21.267949192431111
 30
0.0
  0
VERTEX
  5
3C2
  8
DATA
 62
     7
 10
60.589745962155682
 20
24.732050807568889
 30
0.0
  0
SEQEND
  5
3C3
  8
DATA
 62
     7
  0
CIRCLE
  5
145
  8
DATA
 62
     7
 10
77.75
 20
6.0
 30
0.0
 40
3.25
  0
CIRCLE
  5
146
  8
DATA
 62
     7
 10
77.75
 20
6.0
 30
0.0
 40
1.0
  0
CIRCLE
  5
147
  8
DATA
 62
     7
 10
58.75
 20
30.0
 30
0.0
 40
3.25
  0
CIRCLE
  5
148
  8
DATA
 62
     7
 10
58.75
 20
30.0
 30
0.0
 40
1.0
  0
ARC
  5
149
  8
DATA
 62
     7
 10
94.749999999999986
 20
18.0
 30
0.0
 40
11.75000000000002
 50
103.5351912917607
 51
76.464808708239303
  0
ARC
  5
14A
  8
DATA
 62
     7
 10
94.749999999999986
 20
18.0
 30
0.0
 40
9.7499999999999591
 50
163.34236379708739
 51
256.6576362029117
  0
ARC
  5
14B
  8
DATA
 62
     7
 10
94.749999999999986
 20
18.0
 30
0.0
 40
9.7499999999999485
 50
283.3423637970883
 51
16.65763620290948
  0
ARC
  5
14C
  8
DATA
 62
     7
 10
94.749999999999986
 20
18.0
 30
0.0
 40
9.7499999999999201
 50
43.34236379709133
 51
73.617330145899061
  0
ARC
  5
14D
  8
DATA
 62
     7
 10
94.749999999999986
 20
18.0
 30
0.0
 40
9.7499999999999201
 50
106.3826698541009
 51
136.6576362029123
  0
ARC
  5
14E
  8
DATA
 62
     7
 10
94.749999999999986
 20
18.0
 30
0.0
 40
7.4999999999999831
 50
119.926434866614
 51
60.073565133385777
  0
CIRCLE
  5
14F
  8
DATA
 62
     7
 10
98.75
 20
18.0
 30
0.0
 40
1.999999999999986
  0
CIRCLE
  5
150
  8
DATA
 62
     7
 10
90.750000000000014
 20
18.0
 30
0.0
 40
1.999999999999992
  0
CIRCLE
  5
151
  8
DATA
 62
     7
 10
94.749999999999986
 20
14.0
 30
0.0
 40
1.999999999999982
  0
LINE
  5
152
  8
DATA
 62
     7
 10
92.5
 20
7.0
 30
0.0
 11
92.5
 21
8.5131670194948583
 31
0.0
  0
LINE
  5
153
  8
DATA
 62
     7
 10
97.0
 20
7.0
 30
0.0
 11
97.0
 21
8.5131670194948583
 31
0.0
  0
ARC
  5
154
  8
DATA
 62
     7
 10
94.749999999999986
 20
18.0
 30
0.0
 40
11.22775578644281
 50
258.4398692057822
 51
281.56013079421768
  0
LINE
  5
155
  8
DATA
 62
     7
 10
105.4012794416287
 20
21.551442841485031
 30
0.0
 11
104.0908383625774
 21
20.794859331737602
 31
0.0
  0
LINE
  5
156
  8
DATA
 62
     7
 10
103.1512794416287
 20
25.448557158514969
 30
0.0
 11
101.8408383625774
 21
24.691973648767551
 31
0.0
  0
ARC
  5
157
  8
DATA
 62
     7
 10
94.749999999999872
 20
18.0
 30
0.0
 40
11.227755786442829
 50
18.439869205782269
 51
41.560130794217557
  0
LINE
  5
158
  8
DATA
 62
     7
 10
86.348720558370985
 20
25.448557158514969
 30
0.0
 11
87.659161637422315
 21
24.691973648767551
 31
0.0
  0
LINE
  5
159
  8
DATA
 62
     7
 10
84.098720558370985
 20
21.551442841485031
 30
0.0
 11
85.409161637422287
 21
20.794859331737602
 31
0.0
  0
ARC
  5
15A
  8
DATA
 62
     7
 10
94.749999999999787
 20
18.0
 30
0.0
 40
11.227755786442771
 50
138.43986920578209
 51
161.5601307942176
  0
LINE
  5
15B
  8
DATA
 62
     7
 10
98.75
 20
29.048189896992199
 30
0.0
 11
98.75
 21
27.97810102173754
 31
0.0
  0
LINE
  5
15C
  8
DATA
 62
     7
 10
90.750000000000014
 20
29.048189896992199
 30
0.0
 11
90.750000000000014
 21
27.97810102173754
 31
0.0
  0
ARC
  5
15D
  8
DATA
 62
     7
 10
94.749999999999986
 20
18.0
 30
0.0
 40
10.74999999999998
 50
68.15524251423669
 51
75.178178937949852
  0
ARC
  5
15E
  8
DATA
 62
     7
 10
94.749999999999986
 20
18.0
 30
0.0
 40
10.75
 50
104.82182106205011
 51
111.84475748576349
  0
LINE
  5
15F
  8
DATA
 62
     7
 10
97.5
 20
28.392304845413271
 30
0.0
 11
97.5
 21
27.354143466934829
 31
0.0
  0
LINE
  5
160
  8
DATA
 62
     7
 10
92.0
 20
28.392304845413271
 30
0.0
 11
92.0
 21
27.354143466934829
 31
0.0
  0
CIRCLE
  5
161
  8
DATA
 62
     7
 10
94.749999999999986
 20
18.0
 30
0.0
 40
8.75
  0
POLYLINE
  5
162
  8
DATA
 62
     7
 66
     1
 10
0.0
 20
0.0
 30
0.0
 70
     1
  0
VERTEX
  5
3C4
  8
DATA
 62
     7
 10
92.75
 20
9.0
 30
0.0
  0
VERTEX
  5
3C5
  8
DATA
 62
     7
 10
96.75
 20
9.0
 30
0.0
  0
VERTEX
  5
3C6
  8
DATA
 62
     7
 10
96.75
 20
8.0
 30
0.0
  0
VERTEX
  5
3C7
  8
DATA
 62
     7
 10
92.75
 20
8.0
 30
0.0
  0
SEQEND
  5
3C8
  8
DATA
 62
     7
  0
POLYLINE
  5
168
  8
DATA
 62
     7
 66
     1
 10
0.0
 20
0.0
 30
0.0
 70
     1
  0
VERTEX
  5
3C9
  8
DATA
 62
     7
 10
103.54422863405981
 20
20.76794919243105
 30
0.0
  0
VERTEX
  5
3CA
  8
DATA
 62
     7
 10
101.54422863405981
 20
24.232050807568839
 30
0.0
  0
VERTEX
  5
3CB
  8
DATA
 62
     7
 10
102.4102540378443
 20
24.732050807568839
 30
0.0
  0
VERTEX
  5
3CC
  8
DATA
 62
     7
 10
104.4102540378443
 20
21.26794919243105
 30
0.0
  0
SEQEND
  5
3CD
  8
DATA
 62
     7
  0
POLYLINE
  5
16E
  8
DATA
 62
     7
 66
     1
 10
0.0
 20
0.0
 30
0.0
 70
     1
  0
VERTEX
  5
3CE
  8
DATA
 62
     7
 10
87.955771365940151
 20
24.232050807568889
 30
0.0
  0
VERTEX
  5
3CF
  8
DATA
 62
     7
 10
85.955771365940052
 20
20.767949192431111
 30
0.0
  0
VERTEX
  5
3D0
  8
DATA
 62
     7
 10
85.089745962155646
 20
21.267949192431111
 30
0.0
  0
VERTEX
  5
3D1
  8
DATA
 62
     7
 10
87.089745962155703
 20
24.732050807568889
 30
0.0
  0
SEQEND
  5
3D2
  8
DATA
 62
     7
  0
CIRCLE
  5
174
  8
DATA
 62
     7
 10
104.25
 20
6.0
 30
0.0
 40
3.25
  0
CIRCLE
  5
175
  8
DATA
 62
     7
 10
104.25
 20
6.0
 30
0.0
 40
1.0
  0
CIRCLE
  5
176
  8
DATA
 62
     7
 10
85.25
 20
30.0
 30
0.0
 40
3.25
  0
CIRCLE
  5
177
  8
DATA
 62
     7
 10
85.25
 20
30.0
 30
0.0
 40
1.0
  0
LINE
  5
178
  8
DATA
 62
     7
 10
91.008342613226077
 20
24.5
 30
0.0
 11
98.491657386773923
 21
24.5
 31
0.0
  0
LINE
  5
179
  8
DATA
 62
     7
 10
93.250000000000014
 20
26.0
 30
0.0
 11
96.25
 21
26.0
 31
0.0
  0
LINE
  5
17A
  8
DATA
 62
     7
 10
93.250000000000014
 20
26.0
 30
0.0
 11
93.250000000000014
 21
24.5
 31
0.0
  0
LINE
  5
17B
  8
DATA
 62
     7
 10
96.25
 20
26.0
 30
0.0
 11
96.25
 21
24.5
 31
0.0
  0
LINE
  5
17C
  8
DATA
 62
     7
 10
92.0
 20
28.5
 30
0.0
 11
97.5
 21
28.5
 31
0.0
  0
LINE
  5
17D
  8
DATA
 62
     7
 10
92.0
 20
28.5
 30
0.0
 11
92.0
 21
29.5
 31
0.0
  0
LINE
  5
17E
  8
DATA
 62
     7
 10
97.5
 20
28.5
 30
0.0
 11
97.5
 21
29.5
 31
0.0
  0
LINE
  5
17F
  8
DATA
 62
     7
 10
92.0
 20
29.5
 30
0.0
 11
92.000002131277697
 21
29.5
 31
0.0
  0
ARC
  5
180
  8
DATA
 62
     7
 10
92.0
 20
31.75
 30
0.0
 40
2.249999999999992
 50
128.9424412689512
 51
270.0
  0
ARC
  5
181
  8
DATA
 62
     7
 10
97.5
 20
31.75
 30
0.0
 40
2.25
 50
270.0
 51
51.057558731033332
  0
ARC
  5
182
  8
DATA
 62
     7
 10
94.749999999999574
 20
25.329662703468902
 30
0.0
 40
9.1703372965311072
 50
62.993215105289813
 51
117.0067848947098
  0
TEXT
  5
183
  8
DATA
 62
     7
 10
92.249999999999986
 20
29.866025403784452
 30
0.0
 40
2.0
  1
PUSH
 41
0.8
 11
92.249999999999986
 21
31.866025403784452
 31
0.0
 73
     3
  0
CIRCLE
  5
184
  8
DATA
 62
     7
 10
121.5
 20
18.0
 30
0.0
 40
11.75
  0
ARC
  5
185
  8
DATA
 62
     7
 10
121.5
 20
18.0
 30
0.0
 40
9.7499999999999591
 50
163.34236379708739
 51
256.6576362029117
  0
ARC
  5
186
  8
DATA
 62
     7
 10
121.5
 20
18.0
 30
0.0
 40
9.7499999999999485
 50
283.3423637970883
 51
16.65763620290948
  0
ARC
  5
187
  8
DATA
 62
     7
 10
121.5
 20
18.0
 30
0.0
 40
9.7499999999999201
 50
43.34236379709133
 51
73.617330145899061
  0
ARC
  5
188
  8
DATA
 62
     7
 10
121.5
 20
18.0
 30
0.0
 40
9.7499999999999201
 50
106.3826698541009
 51
136.6576362029123
  0
CIRCLE
  5
189
  8
DATA
 62
     7
 10
121.5
 20
18.0
 30
0.0
 40
8.25
  0
CIRCLE
  5
18A
  8
DATA
 62
     7
 10
125.5
 20
18.0
 30
0.0
 40
1.249999999999948
  0
CIRCLE
  5
18B
  8
DATA
 62
     7
 10
117.5
 20
18.0
 30
0.0
 40
1.2499999999999409
  0
CIRCLE
  5
18C
  8
DATA
 62
     7
 10
121.5
 20
14.0
 30
0.0
 40
1.2499999999999829
  0
LINE
  5
18D
  8
DATA
 62
     7
 10
119.25
 20
7.0
 30
0.0
 11
119.25
 21
8.5131670194948583
 31
0.0
  0
LINE
  5
18E
  8
DATA
 62
     7
 10
123.75
 20
7.0
 30
0.0
 11
123.75
 21
8.5131670194948583
 31
0.0
  0
ARC
  5
18F
  8
DATA
 62
     7
 10
121.5
 20
18.0
 30
0.0
 40
11.22775578644281
 50
258.4398692057822
 51
281.56013079421768
  0
LINE
  5
190
  8
DATA
 62
     7
 10
132.1512794416287
 20
21.551442841485031
 30
0.0
 11
130.84083836257739
 21
20.794859331737602
 31
0.0
  0
LINE
  5
191
  8
DATA
 62
     7
 10
129.9012794416287
 20
25.448557158514969
 30
0.0
 11
128.59083836257739
 21
24.691973648767551
 31
0.0
  0
ARC
  5
192
  8
DATA
 62
     7
 10
121.4999999999998
 20
18.0
 30
0.0
 40
11.227755786442829
 50
18.439869205782269
 51
41.560130794217557
  0
LINE
  5
193
  8
DATA
 62
     7
 10
113.098720558371
 20
25.448557158514969
 30
0.0
 11
114.4091616374223
 21
24.691973648767551
 31
0.0
  0
LINE
  5
194
  8
DATA
 62
     7
 10
110.848720558371
 20
21.551442841485031
 30
0.0
 11
112.1591616374223
 21
20.794859331737602
 31
0.0
  0
ARC
  5
195
  8
DATA
 62
     7
 10
121.4999999999998
 20
18.0
 30
0.0
 40
11.227755786442771
 50
138.43986920578209
 51
161.5601307942176
  0
LINE
  5
196
  8
DATA
 62
     7
 10
125.5
 20
29.048189896992199
 30
0.0
 11
125.5
 21
27.97810102173754
 31
0.0
  0
LINE
  5
197
  8
DATA
 62
     7
 10
117.5
 20
29.048189896992199
 30
0.0
 11
117.5
 21
27.97810102173754
 31
0.0
  0
ARC
  5
198
  8
DATA
 62
     7
 10
121.5
 20
18.0
 30
0.0
 40
10.74999999999998
 50
68.15524251423669
 51
75.178178937949852
  0
ARC
  5
199
  8
DATA
 62
     7
 10
121.5
 20
18.0
 30
0.0
 40
10.75
 50
104.82182106205011
 51
111.84475748576349
  0
LINE
  5
19A
  8
DATA
 62
     7
 10
124.25
 20
28.392304845413271
 30
0.0
 11
124.25
 21
27.354143466934829
 31
0.0
  0
LINE
  5
19B
  8
DATA
 62
     7
 10
118.75
 20
28.392304845413271
 30
0.0
 11
118.75
 21
27.354143466934829
 31
0.0
  0
LINE
  5
19C
  8
DATA
 62
     7
 10
118.0
 20
26.01950746617274
 30
0.0
 11
118.21220088019059
 21
25.56656308688116
 31
0.0
  0
LINE
  5
19D
  8
DATA
 62
     7
 10
125.0
 20
26.01950746617274
 30
0.0
 11
124.78779911980931
 21
25.56656308688116
 31
0.0
  0
CIRCLE
  5
19E
  8
DATA
 62
     7
 10
121.5
 20
18.0
 30
0.0
 40
8.75
  0
LINE
  5
19F
  8
DATA
 62
     7
 10
120.25
 20
28.75
 30
0.0
 11
122.75
 21
28.75
 31
0.0
  0
LINE
  5
1A0
  8
DATA
 62
     7
 10
120.0
 20
26.75
 30
0.0
 11
123.0
 21
26.75
 31
0.0
  0
LINE
  5
1A1
  8
DATA
 62
     7
 10
120.25
 20
28.75
 30
0.0
 11
120.0
 21
26.75
 31
0.0
  0
LINE
  5
1A2
  8
DATA
 62
     7
 10
122.75
 20
28.75
 30
0.0
 11
123.0
 21
26.75
 31
0.0
  0
POLYLINE
  5
1A3
  8
DATA
 62
     7
 66
     1
 10
0.0
 20
0.0
 30
0.0
 70
     1
  0
VERTEX
  5
3D3
  8
DATA
 62
     7
 10
119.5
 20
9.0
 30
0.0
  0
VERTEX
  5
3D4
  8
DATA
 62
     7
 10
123.5
 20
9.0
 30
0.0
  0
VERTEX
  5
3D5
  8
DATA
 62
     7
 10
123.5
 20
8.0
 30
0.0
  0
VERTEX
  5
3D6
  8
DATA
 62
     7
 10
119.5
 20
8.0
 30
0.0
  0
SEQEND
  5
3D7
  8
DATA
 62
     7
  0
POLYLINE
  5
1A9
  8
DATA
 62
     7
 66
     1
 10
0.0
 20
0.0
 30
0.0
 70
     1
  0
VERTEX
  5
3D8
  8
DATA
 62
     7
 10
130.29422863405981
 20
20.76794919243105
 30
0.0
  0
VERTEX
  5
3D9
  8
DATA
 62
     7
 10
128.29422863405981
 20
24.232050807568839
 30
0.0
  0
VERTEX
  5
3DA
  8
DATA
 62
     7
 10
129.16025403784431
 20
24.732050807568839
 30
0.0
  0
VERTEX
  5
3DB
  8
DATA
 62
     7
 10
131.16025403784431
 20
21.26794919243105
 30
0.0
  0
SEQEND
  5
3DC
  8
DATA
 62
     7
  0
POLYLINE
  5
1AF
  8
DATA
 62
     7
 66
     1
 10
0.0
 20
0.0
 30
0.0
 70
     1
  0
VERTEX
  5
3DD
  8
DATA
 62
     7
 10
114.70577136594009
 20
24.232050807568889
 30
0.0
  0
VERTEX
  5
3DE
  8
DATA
 62
     7
 10
112.70577136594
 20
20.767949192431111
 30
0.0
  0
VERTEX
  5
3DF
  8
DATA
 62
     7
 10
111.8397459621556
 20
21.267949192431111
 30
0.0
  0
VERTEX
  5
3E0
  8
DATA
 62
     7
 10
113.8397459621557
 20
24.732050807568889
 30
0.0
  0
SEQEND
  5
3E1
  8
DATA
 62
     7
  0
CIRCLE
  5
1B5
  8
DATA
 62
     7
 10
131.0
 20
6.0
 30
0.0
 40
3.25
  0
CIRCLE
  5
1B6
  8
DATA
 62
     7
 10
131.0
 20
6.0
 30
0.0
 40
1.0
  0
CIRCLE
  5
1B7
  8
DATA
 62
     7
 10
112.0
 20
30.0
 30
0.0
 40
3.25
  0
CIRCLE
  5
1B8
  8
DATA
 62
     7
 10
112.0
 20
30.0
 30
0.0
 40
1.0
  0
ARC
  5
1B9
  8
DATA
 62
     7
 10
148.0
 20
18.0
 30
0.0
 40
11.75000000000002
 50
103.5351912917607
 51
76.464808708239303
  0
ARC
  5
1BA
  8
DATA
 62
     7
 10
148.0
 20
18.0
 30
0.0
 40
9.7499999999999591
 50
163.34236379708739
 51
256.65763620291159
  0
ARC
  5
1BB
  8
DATA
 62
     7
 10
148.0
 20
18.0
 30
0.0
 40
9.7499999999999485
 50
283.3423637970883
 51
16.65763620290948
  0
ARC
  5
1BC
  8
DATA
 62
     7
 10
148.0
 20
18.0
 30
0.0
 40
9.7499999999999201
 50
43.34236379709133
 51
73.617330145899061
  0
ARC
  5
1BD
  8
DATA
 62
     7
 10
148.0
 20
18.0
 30
0.0
 40
9.7499999999999201
 50
106.3826698541009
 51
136.6576362029123
  0
ARC
  5
1BE
  8
DATA
 62
     7
 10
148.0
 20
18.0
 30
0.0
 40
7.4999999999999831
 50
119.926434866614
 51
60.073565133385891
  0
CIRCLE
  5
1BF
  8
DATA
 62
     7
 10
152.0
 20
18.0
 30
0.0
 40
1.999999999999986
  0
CIRCLE
  5
1C0
  8
DATA
 62
     7
 10
144.0
 20
18.0
 30
0.0
 40
1.999999999999992
  0
CIRCLE
  5
1C1
  8
DATA
 62
     7
 10
148.0
 20
14.0
 30
0.0
 40
1.999999999999982
  0
LINE
  5
1C2
  8
DATA
 62
     7
 10
145.75
 20
7.0
 30
0.0
 11
145.75
 21
8.5131670194948583
 31
0.0
  0
LINE
  5
1C3
  8
DATA
 62
     7
 10
150.25
 20
7.0
 30
0.0
 11
150.25
 21
8.5131670194948583
 31
0.0
  0
ARC
  5
1C4
  8
DATA
 62
     7
 10
148.0
 20
18.0
 30
0.0
 40
11.22775578644281
 50
258.4398692057822
 51
281.56013079421768
  0
LINE
  5
1C5
  8
DATA
 62
     7
 10
158.6512794416287
 20
21.551442841485031
 30
0.0
 11
157.34083836257739
 21
20.794859331737602
 31
0.0
  0
LINE
  5
1C6
  8
DATA
 62
     7
 10
156.4012794416287
 20
25.448557158514969
 30
0.0
 11
155.09083836257739
 21
24.691973648767551
 31
0.0
  0
ARC
  5
1C7
  8
DATA
 62
     7
 10
147.9999999999998
 20
18.0
 30
0.0
 40
11.227755786442829
 50
18.439869205782269
 51
41.560130794217557
  0
LINE
  5
1C8
  8
DATA
 62
     7
 10
139.59872055837101
 20
25.448557158514969
 30
0.0
 11
140.9091616374223
 21
24.691973648767551
 31
0.0
  0
LINE
  5
1C9
  8
DATA
 62
     7
 10
137.34872055837101
 20
21.551442841485031
 30
0.0
 11
138.6591616374223
 21
20.794859331737602
 31
0.0
  0
ARC
  5
1CA
  8
DATA
 62
     7
 10
147.99999999999969
 20
18.0
 30
0.0
 40
11.227755786442771
 50
138.43986920578209
 51
161.5601307942176
  0
LINE
  5
1CB
  8
DATA
 62
     7
 10
152.0
 20
29.048189896992199
 30
0.0
 11
152.0
 21
27.97810102173754
 31
0.0
  0
LINE
  5
1CC
  8
DATA
 62
     7
 10
144.0
 20
29.048189896992199
 30
0.0
 11
144.0
 21
27.97810102173754
 31
0.0
  0
ARC
  5
1CD
  8
DATA
 62
     7
 10
148.0
 20
18.0
 30
0.0
 40
10.74999999999998
 50
68.15524251423669
 51
75.178178937949852
  0
ARC
  5
1CE
  8
DATA
 62
     7
 10
148.0
 20
18.0
 30
0.0
 40
10.75
 50
104.82182106205011
 51
111.84475748576349
  0
LINE
  5
1CF
  8
DATA
 62
     7
 10
150.75
 20
28.392304845413271
 30
0.0
 11
150.75
 21
27.354143466934829
 31
0.0
  0
LINE
  5
1D0
  8
DATA
 62
     7
 10
145.25
 20
28.392304845413271
 30
0.0
 11
145.25
 21
27.354143466934829
 31
0.0
  0
CIRCLE
  5
1D1
  8
DATA
 62
     7
 10
148.0
 20
18.0
 30
0.0
 40
8.75
  0
POLYLINE
  5
1D2
  8
DATA
 62
     7
 66
     1
 10
0.0
 20
0.0
 30
0.0
 70
     1
  0
VERTEX
  5
3E2
  8
DATA
 62
     7
 10
146.0
 20
9.0
 30
0.0
  0
VERTEX
  5
3E3
  8
DATA
 62
     7
 10
150.0
 20
9.0
 30
0.0
  0
VERTEX
  5
3E4
  8
DATA
 62
     7
 10
150.0
 20
8.0
 30
0.0
  0
VERTEX
  5
3E5
  8
DATA
 62
     7
 10
146.0
 20
8.0
 30
0.0
  0
SEQEND
  5
3E6
  8
DATA
 62
     7
  0
POLYLINE
  5
1D8
  8
DATA
 62
     7
 66
     1
 10
0.0
 20
0.0
 30
0.0
 70
     1
  0
VERTEX
  5
3E7
  8
DATA
 62
     7
 10
156.79422863405981
 20
20.76794919243105
 30
0.0
  0
VERTEX
  5
3E8
  8
DATA
 62
     7
 10
154.79422863405981
 20
24.232050807568839
 30
0.0
  0
VERTEX
  5
3E9
  8
DATA
 62
     7
 10
155.6602540378444
 20
24.732050807568839
 30
0.0
  0
VERTEX
  5
3EA
  8
DATA
 62
     7
 10
157.66025403784431
 20
21.26794919243105
 30
0.0
  0
SEQEND
  5
3EB
  8
DATA
 62
     7
  0
POLYLINE
  5
1DE
  8
DATA
 62
     7
 66
     1
 10
0.0
 20
0.0
 30
0.0
 70
     1
  0
VERTEX
  5
3EC
  8
DATA
 62
     7
 10
141.20577136594011
 20
24.232050807568889
 30
0.0
  0
VERTEX
  5
3ED
  8
DATA
 62
     7
 10
139.20577136594
 20
20.767949192431111
 30
0.0
  0
VERTEX
  5
3EE
  8
DATA
 62
     7
 10
138.3397459621556
 20
21.267949192431111
 30
0.0
  0
VERTEX
  5
3EF
  8
DATA
 62
     7
 10
140.3397459621556
 20
24.732050807568889
 30
0.0
  0
SEQEND
  5
3F0
  8
DATA
 62
     7
  0
CIRCLE
  5
1E4
  8
DATA
 62
     7
 10
157.5
 20
6.0
 30
0.0
 40
3.25
  0
CIRCLE
  5
1E5
  8
DATA
 62
     7
 10
157.5
 20
6.0
 30
0.0
 40
1.0
  0
CIRCLE
  5
1E6
  8
DATA
 62
     7
 10
138.5
 20
30.0
 30
0.0
 40
3.25
  0
CIRCLE
  5
1E7
  8
DATA
 62
     7
 10
138.5
 20
30.0
 30
0.0
 40
1.0
  0
LINE
  5
1E8
  8
DATA
 62
     7
 10
144.25834261322609
 20
24.5
 30
0.0
 11
151.74165738677391
 21
24.5
 31
0.0
  0
LINE
  5
1E9
  8
DATA
 62
     7
 10
146.5
 20
26.0
 30
0.0
 11
149.5
 21
26.0
 31
0.0
  0
LINE
  5
1EA
  8
DATA
 62
     7
 10
146.5
 20
26.0
 30
0.0
 11
146.5
 21
24.5
 31
0.0
  0
LINE
  5
1EB
  8
DATA
 62
     7
 10
149.5
 20
26.0
 30
0.0
 11
149.5
 21
24.5
 31
0.0
  0
LINE
  5
1EC
  8
DATA
 62
     7
 10
145.25
 20
28.5
 30
0.0
 11
150.75
 21
28.5
 31
0.0
  0
LINE
  5
1ED
  8
DATA
 62
     7
 10
145.25
 20
28.5
 30
0.0
 11
145.25
 21
29.5
 31
0.0
  0
LINE
  5
1EE
  8
DATA
 62
     7
 10
150.75
 20
28.5
 30
0.0
 11
150.75
 21
29.5
 31
0.0
  0
LINE
  5
1EF
  8
DATA
 62
     7
 10
145.25
 20
29.5
 30
0.0
 11
145.25000213127771
 21
29.5
 31
0.0
  0
ARC
  5
1F0
  8
DATA
 62
     7
 10
145.25
 20
31.75
 30
0.0
 40
2.249999999999992
 50
128.9424412689512
 51
270.0
  0
ARC
  5
1F1
  8
DATA
 62
     7
 10
150.75
 20
31.75
 30
0.0
 40
2.25
 50
270.0
 51
51.057558731033538
  0
ARC
  5
1F2
  8
DATA
 62
     7
 10
147.99999999999949
 20
25.329662703468902
 30
0.0
 40
9.1703372965311072
 50
62.993215105289813
 51
117.0067848947098
  0
TEXT
  5
1F3
  8
DATA
 62
     7
 10
145.5
 20
29.866025403784452
 30
0.0
 40
2.0
  1
PUSH
 41
0.8
 11
145.5
 21
31.866025403784452
 31
0.0
 73
     3
  0
CIRCLE
  5
1F4
  8
DATA
 62
     7
 10
174.75
 20
18.0
 30
0.0
 40
11.75
  0
ARC
  5
1F5
  8
DATA
 62
     7
 10
174.75
 20
18.0
 30
0.0
 40
9.7499999999999591
 50
163.34236379708739
 51
256.65763620291159
  0
ARC
  5
1F6
  8
DATA
 62
     7
 10
174.75
 20
18.0
 30
0.0
 40
9.7499999999999485
 50
283.3423637970883
 51
16.65763620290948
  0
ARC
  5
1F7
  8
DATA
 62
     7
 10
174.75
 20
18.0
 30
0.0
 40
9.7499999999999201
 50
43.34236379709133
 51
73.617330145899061
  0
ARC
  5
1F8
  8
DATA
 62
     7
 10
174.75
 20
18.0
 30
0.0
 40
9.7499999999999201
 50
106.3826698541009
 51
136.6576362029123
  0
CIRCLE
  5
1F9
  8
DATA
 62
     7
 10
174.75
 20
18.0
 30
0.0
 40
8.25
  0
CIRCLE
  5
1FA
  8
DATA
 62
     7
 10
178.75
 20
18.0
 30
0.0
 40
1.249999999999948
  0
CIRCLE
  5
1FB
  8
DATA
 62
     7
 10
170.75
 20
18.0
 30
0.0
 40
1.2499999999999409
  0
CIRCLE
  5
1FC
  8
DATA
 62
     7
 10
174.75
 20
14.0
 30
0.0
 40
1.2499999999999829
  0
LINE
  5
1FD
  8
DATA
 62
     7
 10
172.5
 20
7.0
 30
0.0
 11
172.5
 21
8.5131670194948583
 31
0.0
  0
LINE
  5
1FE
  8
DATA
 62
     7
 10
177.0
 20
7.0
 30
0.0
 11
177.0
 21
8.5131670194948583
 31
0.0
  0
ARC
  5
1FF
  8
DATA
 62
     7
 10
174.75
 20
18.0
 30
0.0
 40
11.22775578644281
 50
258.4398692057822
 51
281.56013079421768
  0
LINE
  5
200
  8
DATA
 62
     7
 10
185.4012794416287
 20
21.551442841485031
 30
0.0
 11
184.0908383625773
 21
20.794859331737602
 31
0.0
  0
LINE
  5
201
  8
DATA
 62
     7
 10
183.1512794416287
 20
25.448557158514969
 30
0.0
 11
181.84083836257739
 21
24.691973648767551
 31
0.0
  0
ARC
  5
202
  8
DATA
 62
     7
 10
174.74999999999989
 20
18.0
 30
0.0
 40
11.227755786442829
 50
18.439869205782269
 51
41.560130794217557
  0
LINE
  5
203
  8
DATA
 62
     7
 10
166.34872055837101
 20
25.448557158514969
 30
0.0
 11
167.6591616374223
 21
24.691973648767551
 31
0.0
  0
LINE
  5
204
  8
DATA
 62
     7
 10
164.09872055837101
 20
21.551442841485031
 30
0.0
 11
165.4091616374223
 21
20.794859331737602
 31
0.0
  0
ARC
  5
205
  8
DATA
 62
     7
 10
174.74999999999969
 20
18.0
 30
0.0
 40
11.227755786442771
 50
138.43986920578209
 51
161.5601307942176
  0
LINE
  5
206
  8
DATA
 62
     7
 10
178.75
 20
29.048189896992199
 30
0.0
 11
178.75
 21
27.97810102173754
 31
0.0
  0
LINE
  5
207
  8
DATA
 62
     7
 10
170.75
 20
29.048189896992199
 30
0.0
 11
170.75
 21
27.97810102173754
 31
0.0
  0
ARC
  5
208
  8
DATA
 62
     7
 10
174.75
 20
18.0
 30
0.0
 40
10.74999999999998
 50
68.15524251423669
 51
75.178178937949809
  0
ARC
  5
209
  8
DATA
 62
     7
 10
174.75
 20
18.0
 30
0.0
 40
10.75
 50
104.82182106205011
 51
111.8447574857634
  0
LINE
  5
20A
  8
DATA
 62
     7
 10
177.5
 20
28.392304845413271
 30
0.0
 11
177.5
 21
27.354143466934829
 31
0.0
  0
LINE
  5
20B
  8
DATA
 62
     7
 10
172.0
 20
28.392304845413271
 30
0.0
 11
172.0
 21
27.354143466934829
 31
0.0
  0
LINE
  5
20C
  8
DATA
 62
     7
 10
171.25
 20
26.01950746617274
 30
0.0
 11
171.46220088019061
 21
25.56656308688116
 31
0.0
  0
LINE
  5
20D
  8
DATA
 62
     7
 10
178.25
 20
26.01950746617274
 30
0.0
 11
178.03779911980931
 21
25.56656308688116
 31
0.0
  0
CIRCLE
  5
20E
  8
DATA
 62
     7
 10
174.75
 20
18.0
 30
0.0
 40
8.75
  0
LINE
  5
20F
  8
DATA
 62
     7
 10
173.5
 20
28.75
 30
0.0
 11
176.0
 21
28.75
 31
0.0
  0
LINE
  5
210
  8
DATA
 62
     7
 10
173.25
 20
26.75
 30
0.0
 11
176.25
 21
26.75
 31
0.0
  0
LINE
  5
211
  8
DATA
 62
     7
 10
173.5
 20
28.75
 30
0.0
 11
173.25
 21
26.75
 31
0.0
  0
LINE
  5
212
  8
DATA
 62
     7
 10
176.0
 20
28.75
 30
0.0
 11
176.25
 21
26.75
 31
0.0
  0
POLYLINE
  5
213
  8
DATA
 62
     7
 66
     1
 10
0.0
 20
0.0
 30
0.0
 70
     1
  0
VERTEX
  5
3F1
  8
DATA
 62
     7
 10
172.75
 20
9.0
 30
0.0
  0
VERTEX
  5
3F2
  8
DATA
 62
     7
 10
176.75
 20
9.0
 30
0.0
  0
VERTEX
  5
3F3
  8
DATA
 62
     7
 10
176.75
 20
8.0
 30
0.0
  0
VERTEX
  5
3F4
  8
DATA
 62
     7
 10
172.75
 20
8.0
 30
0.0
  0
SEQEND
  5
3F5
  8
DATA
 62
     7
  0
POLYLINE
  5
219
  8
DATA
 62
     7
 66
     1
 10
0.0
 20
0.0
 30
0.0
 70
     1
  0
VERTEX
  5
3F6
  8
DATA
 62
     7
 10
183.54422863405981
 20
20.76794919243105
 30
0.0
  0
VERTEX
  5
3F7
  8
DATA
 62
     7
 10
181.54422863405981
 20
24.232050807568839
 30
0.0
  0
VERTEX
  5
3F8
  8
DATA
 62
     7
 10
182.4102540378444
 20
24.732050807568839
 30
0.0
  0
VERTEX
  5
3F9
  8
DATA
 62
     7
 10
184.4102540378444
 20
21.26794919243105
 30
0.0
  0
SEQEND
  5
3FA
  8
DATA
 62
     7
  0
POLYLINE
  5
21F
  8
DATA
 62
     7
 66
     1
 10
0.0
 20
0.0
 30
0.0
 70
     1
  0
VERTEX
  5
3FB
  8
DATA
 62
     7
 10
167.95577136594011
 20
24.232050807568889
 30
0.0
  0
VERTEX
  5
3FC
  8
DATA
 62
     7
 10
165.95577136594
 20
20.767949192431111
 30
0.0
  0
VERTEX
  5
3FD
  8
DATA
 62
     7
 10
165.0897459621556
 20
21.267949192431111
 30
0.0
  0
VERTEX
  5
3FE
  8
DATA
 62
     7
 10
167.08974596215569
 20
24.732050807568889
 30
0.0
  0
SEQEND
  5
3FF
  8
DATA
 62
     7
  0
CIRCLE
  5
225
  8
DATA
 62
     7
 10
184.25
 20
6.0
 30
0.0
 40
3.25
  0
CIRCLE
  5
226
  8
DATA
 62
     7
 10
184.25
 20
6.0
 30
0.0
 40
1.0
  0
CIRCLE
  5
227
  8
DATA
 62
     7
 10
165.25
 20
30.0
 30
0.0
 40
3.25
  0
CIRCLE
  5
228
  8
DATA
 62
     7
 10
165.25
 20
30.0
 30
0.0
 40
1.0
  0
ARC
  5
229
  8
DATA
 62
     7
 10
201.25
 20
18.0
 30
0.0
 40
11.75000000000002
 50
103.5351912917607
 51
76.464808708239303
  0
ARC
  5
22A
  8
DATA
 62
     7
 10
201.25
 20
18.0
 30
0.0
 40
9.7499999999999591
 50
163.34236379708739
 51
256.65763620291159
  0
ARC
  5
22B
  8
DATA
 62
     7
 10
201.25
 20
18.0
 30
0.0
 40
9.7499999999999485
 50
283.3423637970883
 51
16.65763620290948
  0
ARC
  5
22C
  8
DATA
 62
     7
 10
201.25
 20
18.0
 30
0.0
 40
9.7499999999999201
 50
43.34236379709133
 51
73.617330145899061
  0
ARC
  5
22D
  8
DATA
 62
     7
 10
201.25
 20
18.0
 30
0.0
 40
9.7499999999999201
 50
106.3826698541009
 51
136.6576362029123
  0
ARC
  5
22E
  8
DATA
 62
     7
 10
201.25
 20
18.0
 30
0.0
 40
7.4999999999999831
 50
119.926434866614
 51
60.073565133385891
  0
CIRCLE
  5
22F
  8
DATA
 62
     7
 10
205.25
 20
18.0
 30
0.0
 40
1.999999999999986
  0
CIRCLE
  5
230
  8
DATA
 62
     7
 10
197.25
 20
18.0
 30
0.0
 40
1.999999999999992
  0
CIRCLE
  5
231
  8
DATA
 62
     7
 10
201.25
 20
14.0
 30
0.0
 40
1.999999999999982
  0
LINE
  5
232
  8
DATA
 62
     7
 10
199.0
 20
7.0
 30
0.0
 11
199.0
 21
8.5131670194948583
 31
0.0
  0
LINE
  5
233
  8
DATA
 62
     7
 10
203.5
 20
7.0
 30
0.0
 11
203.5
 21
8.5131670194948583
 31
0.0
  0
ARC
  5
234
  8
DATA
 62
     7
 10
201.25
 20
18.0
 30
0.0
 40
11.22775578644281
 50
258.4398692057822
 51
281.56013079421768
  0
LINE
  5
235
  8
DATA
 62
     7
 10
211.9012794416287
 20
21.551442841485031
 30
0.0
 11
210.59083836257739
 21
20.794859331737602
 31
0.0
  0
LINE
  5
236
  8
DATA
 62
     7
 10
209.65127944162879
 20
25.448557158514969
 30
0.0
 11
208.34083836257739
 21
24.691973648767551
 31
0.0
  0
ARC
  5
237
  8
DATA
 62
     7
 10
201.24999999999989
 20
18.0
 30
0.0
 40
11.227755786442829
 50
18.439869205782269
 51
41.560130794217557
  0
LINE
  5
238
  8
DATA
 62
     7
 10
192.84872055837101
 20
25.448557158514969
 30
0.0
 11
194.1591616374223
 21
24.691973648767551
 31
0.0
  0
LINE
  5
239
  8
DATA
 62
     7
 10
190.59872055837101
 20
21.551442841485031
 30
0.0
 11
191.9091616374223
 21
20.794859331737602
 31
0.0
  0
ARC
  5
23A
  8
DATA
 62
     7
 10
201.24999999999969
 20
18.0
 30
0.0
 40
11.227755786442771
 50
138.43986920578209
 51
161.5601307942176
  0
LINE
  5
23B
  8
DATA
 62
     7
 10
205.25
 20
29.048189896992199
 30
0.0
 11
205.25
 21
27.97810102173754
 31
0.0
  0
LINE
  5
23C
  8
DATA
 62
     7
 10
197.25
 20
29.048189896992199
 30
0.0
 11
197.25
 21
27.97810102173754
 31
0.0
  0
ARC
  5
23D
  8
DATA
 62
     7
 10
201.25
 20
18.0
 30
0.0
 40
10.74999999999998
 50
68.15524251423669
 51
75.178178937949852
  0
ARC
  5
23E
  8
DATA
 62
     7
 10
201.25
 20
18.0
 30
0.0
 40
10.75
 50
104.82182106205011
 51
111.84475748576349
  0
LINE
  5
23F
  8
DATA
 62
     7
 10
204.0
 20
28.392304845413271
 30
0.0
 11
204.0
 21
27.354143466934829
 31
0.0
  0
LINE
  5
240
  8
DATA
 62
     7
 10
198.5
 20
28.392304845413271
 30
0.0
 11
198.5
 21
27.354143466934829
 31
0.0
  0
CIRCLE
  5
241
  8
DATA
 62
     7
 10
201.25
 20
18.0
 30
0.0
 40
8.75
  0
POLYLINE
  5
242
  8
DATA
 62
     7
 66
     1
 10
0.0
 20
0.0
 30
0.0
 70
     1
  0
VERTEX
  5
400
  8
DATA
 62
     7
 10
199.25
 20
9.0
 30
0.0
  0
VERTEX
  5
401
  8
DATA
 62
     7
 10
203.25
 20
9.0
 30
0.0
  0
VERTEX
  5
402
  8
DATA
 62
     7
 10
203.25
 20
8.0
 30
0.0
  0
VERTEX
  5
403
  8
DATA
 62
     7
 10
199.25
 20
8.0
 30
0.0
  0
SEQEND
  5
404
  8
DATA
 62
     7
  0
POLYLINE
  5
248
  8
DATA
 62
     7
 66
     1
 10
0.0
 20
0.0
 30
0.0
 70
     1
  0
VERTEX
  5
405
  8
DATA
 62
     7
 10
210.04422863405981
 20
20.76794919243105
 30
0.0
  0
VERTEX
  5
406
  8
DATA
 62
     7
 10
208.04422863405981
 20
24.232050807568839
 30
0.0
  0
VERTEX
  5
407
  8
DATA
 62
     7
 10
208.9102540378444
 20
24.732050807568839
 30
0.0
  0
VERTEX
  5
408
  8
DATA
 62
     7
 10
210.9102540378444
 20
21.26794919243105
 30
0.0
  0
SEQEND
  5
409
  8
DATA
 62
     7
  0
POLYLINE
  5
24E
  8
DATA
 62
     7
 66
     1
 10
0.0
 20
0.0
 30
0.0
 70
     1
  0
VERTEX
  5
40A
  8
DATA
 62
     7
 10
194.45577136594011
 20
24.232050807568889
 30
0.0
  0
VERTEX
  5
40B
  8
DATA
 62
     7
 10
192.45577136594
 20
20.767949192431111
 30
0.0
  0
VERTEX
  5
40C
  8
DATA
 62
     7
 10
191.5897459621556
 20
21.267949192431111
 30
0.0
  0
VERTEX
  5
40D
  8
DATA
 62
     7
 10
193.58974596215569
 20
24.732050807568889
 30
0.0
  0
SEQEND
  5
40E
  8
DATA
 62
     7
  0
CIRCLE
  5
254
  8
DATA
 62
     7
 10
210.75
 20
6.0
 30
0.0
 40
3.25
  0
CIRCLE
  5
255
  8
DATA
 62
     7
 10
210.75
 20
6.0
 30
0.0
 40
1.0
  0
CIRCLE
  5
256
  8
DATA
 62
     7
 10
191.75
 20
30.0
 30
0.0
 40
3.25
  0
CIRCLE
  5
257
  8
DATA
 62
     7
 10
191.75
 20
30.0
 30
0.0
 40
1.0
  0
LINE
  5
258
  8
DATA
 62
     7
 10
197.50834261322609
 20
24.5
 30
0.0
 11
204.99165738677399
 21
24.5
 31
0.0
  0
LINE
  5
259
  8
DATA
 62
     7
 10
199.75
 20
26.0
 30
0.0
 11
202.75
 21
26.0
 31
0.0
  0
LINE
  5
25A
  8
DATA
 62
     7
 10
199.75
 20
26.0
 30
0.0
 11
199.75
 21
24.5
 31
0.0
  0
LINE
  5
25B
  8
DATA
 62
     7
 10
202.75
 20
26.0
 30
0.0
 11
202.75
 21
24.5
 31
0.0
  0
LINE
  5
25C
  8
DATA
 62
     7
 10
198.5
 20
28.5
 30
0.0
 11
204.0
 21
28.5
 31
0.0
  0
LINE
  5
25D
  8
DATA
 62
     7
 10
198.5
 20
28.5
 30
0.0
 11
198.5
 21
29.5
 31
0.0
  0
LINE
  5
25E
  8
DATA
 62
     7
 10
204.0
 20
28.5
 30
0.0
 11
204.0
 21
29.5
 31
0.0
  0
LINE
  5
25F
  8
DATA
 62
     7
 10
198.5
 20
29.5
 30
0.0
 11
198.50000213127771
 21
29.5
 31
0.0
  0
ARC
  5
260
  8
DATA
 62
     7
 10
198.5
 20
31.75
 30
0.0
 40
2.249999999999992
 50
128.9424412689512
 51
270.0
  0
ARC
  5
261
  8
DATA
 62
     7
 10
204.0
 20
31.75
 30
0.0
 40
2.25
 50
270.0
 51
51.057558731033602
  0
ARC
  5
262
  8
DATA
 62
     7
 10
201.2499999999996
 20
25.329662703468902
 30
0.0
 40
9.1703372965311072
 50
62.993215105289813
 51
117.0067848947098
  0
TEXT
  5
263
  8
DATA
 62
     7
 10
198.75
 20
29.866025403784452
 30
0.0
 40
2.0
  1
PUSH
 41
0.8
 11
198.75
 21
31.866025403784452
 31
0.0
 73
     3
  0
POLYLINE
  5
264
  8
DATA
 62
     7
 66
     1
 10
0.0
 20
0.0
 30
0.0
 70
     1
  0
VERTEX
  5
40F
  8
DATA
 62
     7
 10
0.0
 20
167.0
 30
0.0
  0
VERTEX
  5
410
  8
DATA
 62
     7
 10
217.0
 20
167.0
 30
0.0
  0
VERTEX
  5
411
  8
DATA
 62
     7
 10
217.0
 20
80.0
 30
0.0
  0
VERTEX
  5
412
  8
DATA
 62
     7
 10
0.0
 20
80.0
 30
0.0
  0
SEQEND
  5
413
  8
DATA
 62
     7
  0
CIRCLE
  5
26A
  8
DATA
 62
     7
 10
55.0
 20
86.5
 30
0.0
 40
2.749999999999996
  0
POLYLINE
  5
26B
  8
DATA
 62
     7
 66
     1
 10
0.0
 20
0.0
 30
0.0
  0
VERTEX
  5
414
  8
DATA
 62
     7
 10
55.5
 20
86.0
 30
0.0
  0
VERTEX
  5
415
  8
DATA
 62
     7
 10
57.0
 20
86.0
 30
0.0
  0
VERTEX
  5
416
  8
DATA
 62
     7
 10
57.0
 20
87.0
 30
0.0
  0
VERTEX
  5
417
  8
DATA
 62
     7
 10
55.5
 20
87.0
 30
0.0
  0
SEQEND
  5
418
  8
DATA
 62
     7
  0
POLYLINE
  5
271
  8
DATA
 62
     7
 66
     1
 10
0.0
 20
0.0
 30
0.0
  0
VERTEX
  5
419
  8
DATA
 62
     7
 10
54.5
 20
86.0
 30
0.0
  0
VERTEX
  5
41A
  8
DATA
 62
     7
 10
53.0
 20
86.0
 30
0.0
  0
VERTEX
  5
41B
  8
DATA
 62
     7
 10
53.0
 20
87.0
 30
0.0
  0
VERTEX
  5
41C
  8
DATA
 62
     7
 10
54.5
 20
87.0
 30
0.0
  0
SEQEND
  5
41D
  8
DATA
 62
     7
  0
POLYLINE
  5
277
  8
DATA
 62
     7
 66
     1
 10
0.0
 20
0.0
 30
0.0
  0
VERTEX
  5
41E
  8
DATA
 62
     7
 10
55.5
 20
87.0
 30
0.0
  0
VERTEX
  5
41F
  8
DATA
 62
     7
 10
55.5
 20
88.499999999999986
 30
0.0
  0
VERTEX
  5
420
  8
DATA
 62
     7
 10
54.5
 20
88.499999999999986
 30
0.0
  0
VERTEX
  5
421
  8
DATA
 62
     7
 10
54.5
 20
87.0
 30
0.0
  0
SEQEND
  5
422
  8
DATA
 62
     7
  0
POLYLINE
  5
27D
  8
DATA
 62
     7
 66
     1
 10
0.0
 20
0.0
 30
0.0
  0
VERTEX
  5
423
  8
DATA
 62
     7
 10
55.5
 20
86.0
 30
0.0
  0
VERTEX
  5
424
  8
DATA
 62
     7
 10
55.5
 20
84.500000000000014
 30
0.0
  0
VERTEX
  5
425
  8
DATA
 62
     7
 10
54.5
 20
84.500000000000014
 30
0.0
  0
VERTEX
  5
426
  8
DATA
 62
     7
 10
54.5
 20
86.0
 30
0.0
  0
SEQEND
  5
427
  8
DATA
 62
     7
  0
CIRCLE
  5
283
  8
DATA
 62
     7
 10
162.0
 20
86.5
 30
0.0
 40
2.749999999999996
  0
POLYLINE
  5
284
  8
DATA
 62
     7
 66
     1
 10
0.0
 20
0.0
 30
0.0
  0
VERTEX
  5
428
  8
DATA
 62
     7
 10
162.5
 20
86.0
 30
0.0
  0
VERTEX
  5
429
  8
DATA
 62
     7
 10
164.0
 20
86.0
 30
0.0
  0
VERTEX
  5
42A
  8
DATA
 62
     7
 10
164.0
 20
87.0
 30
0.0
  0
VERTEX
  5
42B
  8
DATA
 62
     7
 10
162.5
 20
87.0
 30
0.0
  0
SEQEND
  5
42C
  8
DATA
 62
     7
  0
POLYLINE
  5
28A
  8
DATA
 62
     7
 66
     1
 10
0.0
 20
0.0
 30
0.0
  0
VERTEX
  5
42D
  8
DATA
 62
     7
 10
161.5
 20
86.0
 30
0.0
  0
VERTEX
  5
42E
  8
DATA
 62
     7
 10
160.0
 20
86.0
 30
0.0
  0
VERTEX
  5
42F
  8
DATA
 62
     7
 10
160.0
 20
87.0
 30
0.0
  0
VERTEX
  5
430
  8
DATA
 62
     7
 10
161.5
 20
87.0
 30
0.0
  0
SEQEND
  5
431
  8
DATA
 62
     7
  0
POLYLINE
  5
290
  8
DATA
 62
     7
 66
     1
 10
0.0
 20
0.0
 30
0.0
  0
VERTEX
  5
432
  8
DATA
 62
     7
 10
162.5
 20
87.0
 30
0.0
  0
VERTEX
  5
433
  8
DATA
 62
     7
 10
162.5
 20
88.499999999999986
 30
0.0
  0
VERTEX
  5
434
  8
DATA
 62
     7
 10
161.5
 20
88.499999999999986
 30
0.0
  0
VERTEX
  5
435
  8
DATA
 62
     7
 10
161.5
 20
87.0
 30
0.0
  0
SEQEND
  5
436
  8
DATA
 62
     7
  0
POLYLINE
  5
296
  8
DATA
 62
     7
 66
     1
 10
0.0
 20
0.0
 30
0.0
  0
VERTEX
  5
437
  8
DATA
 62
     7
 10
162.5
 20
86.0
 30
0.0
  0
VERTEX
  5
438
  8
DATA
 62
     7
 10
162.5
 20
84.500000000000014
 30
0.0
  0
VERTEX
  5
439
  8
DATA
 62
     7
 10
161.5
 20
84.500000000000014
 30
0.0
  0
VERTEX
  5
43A
  8
DATA
 62
     7
 10
161.5
 20
86.0
 30
0.0
  0
SEQEND
  5
43B
  8
DATA
 62
     7
  0
CIRCLE
  5
29C
  8
DATA
 62
     7
 10
55.0
 20
160.5
 30
0.0
 40
2.749999999999996
  0
POLYLINE
  5
29D
  8
DATA
 62
     7
 66
     1
 10
0.0
 20
0.0
 30
0.0
  0
VERTEX
  5
43C
  8
DATA
 62
     7
 10
55.5
 20
160.0
 30
0.0
  0
VERTEX
  5
43D
  8
DATA
 62
     7
 10
57.0
 20
160.0
 30
0.0
  0
VERTEX
  5
43E
  8
DATA
 62
     7
 10
57.0
 20
161.0
 30
0.0
  0
VERTEX
  5
43F
  8
DATA
 62
     7
 10
55.5
 20
161.0
 30
0.0
  0
SEQEND
  5
440
  8
DATA
 62
     7
  0
POLYLINE
  5
2A3
  8
DATA
 62
     7
 66
     1
 10
0.0
 20
0.0
 30
0.0
  0
VERTEX
  5
441
  8
DATA
 62
     7
 10
54.5
 20
160.0
 30
0.0
  0
VERTEX
  5
442
  8
DATA
 62
     7
 10
53.0
 20
160.0
 30
0.0
  0
VERTEX
  5
443
  8
DATA
 62
     7
 10
53.0
 20
161.0
 30
0.0
  0
VERTEX
  5
444
  8
DATA
 62
     7
 10
54.5
 20
161.0
 30
0.0
  0
SEQEND
  5
445
  8
DATA
 62
     7
  0
POLYLINE
  5
2A9
  8
DATA
 62
     7
 66
     1
 10
0.0
 20
0.0
 30
0.0
  0
VERTEX
  5
446
  8
DATA
 62
     7
 10
55.5
 20
161.0
 30
0.0
  0
VERTEX
  5
447
  8
DATA
 62
     7
 10
55.5
 20
162.5
 30
0.0
  0
VERTEX
  5
448
  8
DATA
 62
     7
 10
54.5
 20
162.5
 30
0.0
  0
VERTEX
  5
449
  8
DATA
 62
     7
 10
54.5
 20
161.0
 30
0.0
  0
SEQEND
  5
44A
  8
DATA
 62
     7
  0
POLYLINE
  5
2AF
  8
DATA
 62
     7
 66
     1
 10
0.0
 20
0.0
 30
0.0
  0
VERTEX
  5
44B
  8
DATA
 62
     7
 10
55.5
 20
160.0
 30
0.0
  0
VERTEX
  5
44C
  8
DATA
 62
     7
 10
55.5
 20
158.5
 30
0.0
  0
VERTEX
  5
44D
  8
DATA
 62
     7
 10
54.5
 20
158.5
 30
0.0
  0
VERTEX
  5
44E
  8
DATA
 62
     7
 10
54.5
 20
160.0
 30
0.0
  0
SEQEND
  5
44F
  8
DATA
 62
     7
  0
CIRCLE
  5
2B5
  8
DATA
 62
     7
 10
162.0
 20
160.5
 30
0.0
 40
2.749999999999996
  0
POLYLINE
  5
2B6
  8
DATA
 62
     7
 66
     1
 10
0.0
 20
0.0
 30
0.0
  0
VERTEX
  5
450
  8
DATA
 62
     7
 10
162.5
 20
160.0
 30
0.0
  0
VERTEX
  5
451
  8
DATA
 62
     7
 10
164.0
 20
160.0
 30
0.0
  0
VERTEX
  5
452
  8
DATA
 62
     7
 10
164.0
 20
161.0
 30
0.0
  0
VERTEX
  5
453
  8
DATA
 62
     7
 10
162.5
 20
161.0
 30
0.0
  0
SEQEND
  5
454
  8
DATA
 62
     7
  0
POLYLINE
  5
2BC
  8
DATA
 62
     7
 66
     1
 10
0.0
 20
0.0
 30
0.0
  0
VERTEX
  5
455
  8
DATA
 62
     7
 10
161.5
 20
160.0
 30
0.0
  0
VERTEX
  5
456
  8
DATA
 62
     7
 10
160.0
 20
160.0
 30
0.0
  0
VERTEX
  5
457
  8
DATA
 62
     7
 10
160.0
 20
161.0
 30
0.0
  0
VERTEX
  5
458
  8
DATA
 62
     7
 10
161.5
 20
161.0
 30
0.0
  0
SEQEND
  5
459
  8
DATA
 62
     7
  0
POLYLINE
  5
2C2
  8
DATA
 62
     7
 66
     1
 10
0.0
 20
0.0
 30
0.0
  0
VERTEX
  5
45A
  8
DATA
 62
     7
 10
162.5
 20
161.0
 30
0.0
  0
VERTEX
  5
45B
  8
DATA
 62
     7
 10
162.5
 20
162.5
 30
0.0
  0
VERTEX
  5
45C
  8
DATA
 62
     7
 10
161.5
 20
162.5
 30
0.0
  0
VERTEX
  5
45D
  8
DATA
 62
     7
 10
161.5
 20
161.0
 30
0.0
  0
SEQEND
  5
45E
  8
DATA
 62
     7
  0
POLYLINE
  5
2C8
  8
DATA
 62
     7
 66
     1
 10
0.0
 20
0.0
 30
0.0
  0
VERTEX
  5
45F
  8
DATA
 62
     7
 10
162.5
 20
160.0
 30
0.0
  0
VERTEX
  5
460
  8
DATA
 62
     7
 10
162.5
 20
158.5
 30
0.0
  0
VERTEX
  5
461
  8
DATA
 62
     7
 10
161.5
 20
158.5
 30
0.0
  0
VERTEX
  5
462
  8
DATA
 62
     7
 10
161.5
 20
160.0
 30
0.0
  0
SEQEND
  5
463
  8
DATA
 62
     7
  0
LINE
  5
2CE
  8
DATA
 62
     7
 10
3.25
 20
79.5
 30
0.0
 11
3.25
 21
80.0
 31
0.0
  0
LINE
  5
2CF
  8
DATA
 62
     7
 10
26.75
 20
79.5
 30
0.0
 11
26.75
 21
80.0
 31
0.0
  0
LINE
  5
2D0
  8
DATA
 62
     7
 10
3.25
 20
79.5
 30
0.0
 11
26.75
 21
79.5
 31
0.0
  0
LINE
  5
2D1
  8
DATA
 62
     7
 10
29.75000000000005
 20
79.5
 30
0.0
 11
29.75000000000005
 21
80.0
 31
0.0
  0
LINE
  5
2D2
  8
DATA
 62
     7
 10
53.249999999999929
 20
79.5
 30
0.0
 11
53.249999999999929
 21
80.0
 31
0.0
  0
LINE
  5
2D3
  8
DATA
 62
     7
 10
29.75000000000005
 20
79.5
 30
0.0
 11
38.75
 21
79.5
 31
0.0
  0
LINE
  5
2D4
  8
DATA
 62
     7
 10
44.249999999999993
 20
79.5
 30
0.0
 11
53.249999999999929
 21
79.5
 31
0.0
  0
LINE
  5
2D5
  8
DATA
 62
     7
 10
36.5
 20
77.0
 30
0.0
 11
36.5
 21
77.5
 31
0.0
  0
LINE
  5
2D6
  8
DATA
 62
     7
 10
36.5
 20
31.866025403784452
 30
0.0
 11
46.49700647655429
 21
31.866025403784452
 31
0.0
  0
LINE
  5
2D7
  8
DATA
 62
     7
 10
46.49700647655429
 20
77.0
 30
0.0
 11
46.49700647655429
 21
77.5
 31
0.0
  0
LINE
  5
2D8
  8
DATA
 62
     7
 10
36.5
 20
77.0
 30
0.0
 11
46.49700647655429
 21
77.0
 31
0.0
  0
LINE
  5
2D9
  8
DATA
 62
     7
 10
36.5
 20
77.5
 30
0.0
 11
46.49700647655429
 21
77.5
 31
0.0
  0
LINE
  5
2DA
  8
DATA
 62
     7
 10
38.75
 20
77.5
 30
0.0
 11
38.75
 21
80.0
 31
0.0
  0
LINE
  5
2DB
  8
DATA
 62
     7
 10
44.249999999999993
 20
77.5
 30
0.0
 11
44.249999999999993
 21
80.0
 31
0.0
  0
LINE
  5
2DC
  8
DATA
 62
     7
 10
56.5
 20
79.5
 30
0.0
 11
56.5
 21
80.0
 31
0.0
  0
LINE
  5
2DD
  8
DATA
 62
     7
 10
80.0
 20
79.5
 30
0.0
 11
80.0
 21
80.0
 31
0.0
  0
LINE
  5
2DE
  8
DATA
 62
     7
 10
56.5
 20
79.5
 30
0.0
 11
80.0
 21
79.5
 31
0.0
  0
LINE
  5
2DF
  8
DATA
 62
     7
 10
83.000000000000043
 20
79.5
 30
0.0
 11
83.000000000000043
 21
80.0
 31
0.0
  0
LINE
  5
2E0
  8
DATA
 62
     7
 10
106.4999999999999
 20
79.5
 30
0.0
 11
106.4999999999999
 21
80.0
 31
0.0
  0
LINE
  5
2E1
  8
DATA
 62
     7
 10
83.000000000000043
 20
79.5
 30
0.0
 11
92.0
 21
79.5
 31
0.0
  0
LINE
  5
2E2
  8
DATA
 62
     7
 10
97.5
 20
79.5
 30
0.0
 11
106.4999999999999
 21
79.5
 31
0.0
  0
LINE
  5
2E3
  8
DATA
 62
     7
 10
89.749999999999986
 20
77.0
 30
0.0
 11
89.749999999999986
 21
77.5
 31
0.0
  0
LINE
  5
2E4
  8
DATA
 62
     7
 10
99.747006476554304
 20
77.0
 30
0.0
 11
99.747006476554304
 21
77.5
 31
0.0
  0
LINE
  5
2E5
  8
DATA
 62
     7
 10
89.749999999999986
 20
77.0
 30
0.0
 11
99.747006476554304
 21
77.0
 31
0.0
  0
LINE
  5
2E6
  8
DATA
 62
     7
 10
89.749999999999986
 20
77.5
 30
0.0
 11
99.747006476554304
 21
77.5
 31
0.0
  0
LINE
  5
2E7
  8
DATA
 62
     7
 10
92.0
 20
77.5
 30
0.0
 11
92.0
 21
80.0
 31
0.0
  0
LINE
  5
2E8
  8
DATA
 62
     7
 10
97.5
 20
77.5
 30
0.0
 11
97.5
 21
80.0
 31
0.0
  0
LINE
  5
2E9
  8
DATA
 62
     7
 10
109.75
 20
79.5
 30
0.0
 11
109.75
 21
80.0
 31
0.0
  0
LINE
  5
2EA
  8
DATA
 62
     7
 10
133.25
 20
79.5
 30
0.0
 11
133.25
 21
80.0
 31
0.0
  0
LINE
  5
2EB
  8
DATA
 62
     7
 10
109.75
 20
79.5
 30
0.0
 11
133.25
 21
79.5
 31
0.0
  0
LINE
  5
2EC
  8
DATA
 62
     7
 10
136.25
 20
79.5
 30
0.0
 11
136.25
 21
80.0
 31
0.0
  0
LINE
  5
2ED
  8
DATA
 62
     7
 10
159.74999999999989
 20
79.5
 30
0.0
 11
159.74999999999989
 21
80.0
 31
0.0
  0
LINE
  5
2EE
  8
DATA
 62
     7
 10
136.25
 20
79.5
 30
0.0
 11
145.25
 21
79.5
 31
0.0
  0
LINE
  5
2EF
  8
DATA
 62
     7
 10
150.75
 20
79.5
 30
0.0
 11
159.74999999999989
 21
79.5
 31
0.0
  0
LINE
  5
2F0
  8
DATA
 62
     7
 10
143.0
 20
77.0
 30
0.0
 11
143.0
 21
77.5
 31
0.0
  0
LINE
  5
2F1
  8
DATA
 62
     7
 10
152.9970064765543
 20
77.0
 30
0.0
 11
152.9970064765543
 21
77.5
 31
0.0
  0
LINE
  5
2F2
  8
DATA
 62
     7
 10
143.0
 20
77.0
 30
0.0
 11
152.9970064765543
 21
77.0
 31
0.0
  0
LINE
  5
2F3
  8
DATA
 62
     7
 10
143.0
 20
77.5
 30
0.0
 11
152.9970064765543
 21
77.5
 31
0.0
  0
LINE
  5
2F4
  8
DATA
 62
     7
 10
145.25
 20
77.5
 30
0.0
 11
145.25
 21
80.0
 31
0.0
  0
LINE
  5
2F5
  8
DATA
 62
     7
 10
150.75
 20
77.5
 30
0.0
 11
150.75
 21
80.0
 31
0.0
  0
LINE
  5
2F6
  8
DATA
 62
     7
 10
163.0
 20
79.5
 30
0.0
 11
163.0
 21
80.0
 31
0.0
  0
LINE
  5
2F7
  8
DATA
 62
     7
 10
186.5
 20
79.5
 30
0.0
 11
186.5
 21
80.0
 31
0.0
  0
LINE
  5
2F8
  8
DATA
 62
     7
 10
163.0
 20
79.5
 30
0.0
 11
186.5
 21
79.5
 31
0.0
  0
LINE
  5
2F9
  8
DATA
 62
     7
 10
189.50000000000011
 20
79.5
 30
0.0
 11
189.50000000000011
 21
80.0
 31
0.0
  0
LINE
  5
2FA
  8
DATA
 62
     7
 10
213.0
 20
79.5
 30
0.0
 11
213.0
 21
80.0
 31
0.0
  0
LINE
  5
2FB
  8
DATA
 62
     7
 10
189.50000000000011
 20
79.5
 30
0.0
 11
198.5
 21
79.5
 31
0.0
  0
LINE
  5
2FC
  8
DATA
 62
     7
 10
204.0
 20
79.5
 30
0.0
 11
213.0
 21
79.5
 31
0.0
  0
LINE
  5
2FD
  8
DATA
 62
     7
 10
196.25
 20
77.0
 30
0.0
 11
196.25
 21
77.5
 31
0.0
  0
LINE
  5
2FE
  8
DATA
 62
     7
 10
206.2470064765543
 20
77.0
 30
0.0
 11
206.2470064765543
 21
77.5
 31
0.0
  0
LINE
  5
2FF
  8
DATA
 62
     7
 10
196.25
 20
77.0
 30
0.0
 11
206.2470064765543
 21
77.0
 31
0.0
  0
LINE
  5
300
  8
DATA
 62
     7
 10
196.25
 20
77.5
 30
0.0
 11
206.2470064765543
 21
77.5
 31
0.0
  0
LINE
  5
301
  8
DATA
 62
     7
 10
198.5
 20
77.5
 30
0.0
 11
198.5
 21
80.0
 31
0.0
  0
LINE
  5
302
  8
DATA
 62
     7
 10
204.0
 20
77.5
 30
0.0
 11
204.0
 21
80.0
 31
0.0
  0
POLYLINE
  5
303
  8
DATA
 62
     7
 66
     1
 10
0.0
 20
0.0
 30
0.0
 70
   129
  0
VERTEX
  5
464
  8
DATA
 62
     7
 10
217.0
 20
211.0
 30
0.0
 42
-0.4142135623730951
  0
VERTEX
  5
465
  8
DATA
 62
     7
 10
216.0
 20
210.0
 30
0.0
  0
VERTEX
  5
466
  8
DATA
 62
     7
 10
1.0
 20
210.0
 30
0.0
 42
-0.4142135623730951
  0
VERTEX
  5
467
  8
DATA
 62
     7
 10
0.0
 20
211.0
 30
0.0
  0
VERTEX
  5
468
  8
DATA
 62
     7
 10
0.0
 20
248.0
 30
0.0
  0
VERTEX
  5
469
  8
DATA
 62
     7
 10
217.0
 20
248.0
 30
0.0
  0
SEQEND
  5
46A
  8
DATA
 62
     7
  0
LINE
  5
30B
  8
DATA
 62
     7
 10
216.0
 20
248.0
 30
0.0
 11
216.0
 21
215.0
 31
0.0
  0
LINE
  5
30C
  8
DATA
 62
     7
 10
212.0
 20
211.0
 30
0.0
 11
5.0
 21
211.0
 31
0.0
  0
LINE
  5
30D
  8
DATA
 62
     7
 10
1.0
 20
215.0
 30
0.0
 11
1.0
 21
248.0
 31
0.0
  0
LINE
  5
30E
  8
DATA
 62
     7
 10
216.0
 20
215.0
 30
0.0
 11
212.0
 21
211.0
 31
0.0
  0
LINE
  5
30F
  8
DATA
 62
     7
 10
5.0
 20
211.0
 30
0.0
 11
1.0
 21
215.0
 31
0.0
  0
POLYLINE
  5
310
  8
DATA
 62
     7
 66
     1
 10
0.0
 20
0.0
 30
0.0
 70
     1
  0
VERTEX
  5
46B
  8
DATA
 62
     7
 10
260.0
 20
38.0
 30
0.0
  0
VERTEX
  5
46C
  8
DATA
 62
     7
 10
347.0
 20
38.0
 30
0.0
  0
VERTEX
  5
46D
  8
DATA
 62
     7
 10
347.0
 20
0.0
 30
0.0
  0
VERTEX
  5
46E
  8
DATA
 62
     7
 10
260.0
 20
0.0
 30
0.0
  0
SEQEND
  5
46F
  8
DATA
 62
     7
  0
CIRCLE
  5
316
  8
DATA
 62
     7
 10
303.5
 20
5.0
 30
0.0
 40
2.750000000000008
  0
POLYLINE
  5
317
  8
DATA
 62
     7
 66
     1
 10
0.0
 20
0.0
 30
0.0
  0
VERTEX
  5
470
  8
DATA
 62
     7
 10
304.0
 20
4.5
 30
0.0
  0
VERTEX
  5
471
  8
DATA
 62
     7
 10
305.5
 20
4.5
 30
0.0
  0
VERTEX
  5
472
  8
DATA
 62
     7
 10
305.5
 20
5.5
 30
0.0
  0
VERTEX
  5
473
  8
DATA
 62
     7
 10
304.0
 20
5.5
 30
0.0
  0
SEQEND
  5
474
  8
DATA
 62
     7
  0
POLYLINE
  5
31D
  8
DATA
 62
     7
 66
     1
 10
0.0
 20
0.0
 30
0.0
  0
VERTEX
  5
475
  8
DATA
 62
     7
 10
303.0
 20
4.5
 30
0.0
  0
VERTEX
  5
476
  8
DATA
 62
     7
 10
301.5
 20
4.5
 30
0.0
  0
VERTEX
  5
477
  8
DATA
 62
     7
 10
301.5
 20
5.5
 30
0.0
  0
VERTEX
  5
478
  8
DATA
 62
     7
 10
303.0
 20
5.5
 30
0.0
  0
SEQEND
  5
479
  8
DATA
 62
     7
  0
POLYLINE
  5
323
  8
DATA
 62
     7
 66
     1
 10
0.0
 20
0.0
 30
0.0
  0
VERTEX
  5
47A
  8
DATA
 62
     7
 10
304.0
 20
5.5
 30
0.0
  0
VERTEX
  5
47B
  8
DATA
 62
     7
 10
304.0
 20
7.0
 30
0.0
  0
VERTEX
  5
47C
  8
DATA
 62
     7
 10
303.0
 20
7.0
 30
0.0
  0
VERTEX
  5
47D
  8
DATA
 62
     7
 10
303.0
 20
5.5
 30
0.0
  0
SEQEND
  5
47E
  8
DATA
 62
     7
  0
POLYLINE
  5
329
  8
DATA
 62
     7
 66
     1
 10
0.0
 20
0.0
 30
0.0
  0
VERTEX
  5
47F
  8
DATA
 62
     7
 10
304.0
 20
4.5
 30
0.0
  0
VERTEX
  5
480
  8
DATA
 62
     7
 10
304.0
 20
3.0
 30
0.0
  0
VERTEX
  5
481
  8
DATA
 62
     7
 10
303.0
 20
3.0
 30
0.0
  0
VERTEX
  5
482
  8
DATA
 62
     7
 10
303.0
 20
4.5
 30
0.0
  0
SEQEND
  5
483
  8
DATA
 62
     7
  0
LINE
  5
32F
  8
DATA
 62
     7
 10
259.5
 20
6.25
 30
0.0
 11
260.0
 21
6.25
 31
0.0
  0
LINE
  5
330
  8
DATA
 62
     7
 10
259.5
 20
29.75
 30
0.0
 11
260.0
 21
29.75
 31
0.0
  0
LINE
  5
331
  8
DATA
 62
     7
 10
259.5
 20
6.25
 30
0.0
 11
259.5
 21
28.5
 31
0.0
  0
LINE
  5
332
  8
DATA
 62
     7
 10
259.5
 20
29.0
 30
0.0
 11
259.5
 21
29.75
 31
0.0
  0
LINE
  5
333
  8
DATA
 62
     7
 10
257.0
 20
28.5
 30
0.0
 11
260.0
 21
28.5
 31
0.0
  0
LINE
  5
334
  8
DATA
 62
     7
 10
257.00000000000011
 20
34.500000000000092
 30
0.0
 11
257.50000000000011
 21
34.499999999997357
 31
0.0
  0
LINE
  5
335
  8
DATA
 62
     7
 10
257.00000000000011
 20
34.500000000000092
 30
0.0
 11
257.00000000000011
 21
28.5
 31
0.0
  0
LINE
  5
336
  8
DATA
 62
     7
 10
257.50000000000011
 20
34.499999999997357
 30
0.0
 11
257.50000000000011
 21
29.0
 31
0.0
  0
LINE
  5
337
  8
DATA
 62
     7
 10
257.50000000000011
 20
29.0
 30
0.0
 11
260.0
 21
29.0
 31
0.0
  0
TEXT
  5
338
  8
DATA
 62
     7
 10
7.5
 20
84.597395833333366
 30
0.0
 40
4.2333333333333316
  1
OUTPUT
 41
0.8
 11
7.5
 21
88.830729166666686
 31
0.0
 73
     3
  0
TEXT
  5
339
  8
DATA
 62
     7
 10
35.0
 20
84.597395833333366
 30
0.0
 40
4.2333333333333316
  1
INPUT
 41
0.8
 11
35.0
 21
88.830729166666686
 31
0.0
 73
     3
  0
LINE
  5
33A
  8
DATA
 62
     7
 10
19.0
 20
94.0
 30
0.0
 11
37.498503238277152
 21
94.0
 31
0.0
  0
ARC
  5
33B
  8
DATA
 62
     7
 10
19.0
 20
90.0
 30
0.0
 40
4.0
 50
90.0
 51
180.0
  0
ARC
  5
33C
  8
DATA
 62
     7
 10
37.498503238277152
 20
90.0
 30
0.0
 40
4.0
 50
0.0
 51
90.0
  0
TEXT
  5
33D
  8
DATA
 62
     7
 10
27.177083333333339
 20
95.412500000000009
 30
0.0
 40
4.2333333333333316
  1
4
 41
0.8
 11
27.177083333333339
 21
99.645833333333357
 31
0.0
 73
     3
  0
TEXT
  5
33E
  8
DATA
 62
     7
 10
60.75
 20
84.597395833333366
 30
0.0
 40
4.2333333333333316
  1
OUTPUT
 41
0.8
 11
60.75
 21
88.830729166666686
 31
0.0
 73
     3
  0
TEXT
  5
33F
  8
DATA
 62
     7
 10
88.250000000000014
 20
84.597395833333366
 30
0.0
 40
4.2333333333333316
  1
INPUT
 41
0.8
 11
88.250000000000014
 21
88.830729166666686
 31
0.0
 73
     3
  0
LINE
  5
340
  8
DATA
 62
     7
 10
72.25
 20
94.0
 30
0.0
 11
90.748503238277166
 21
94.0
 31
0.0
  0
ARC
  5
341
  8
DATA
 62
     7
 10
72.25
 20
90.0
 30
0.0
 40
4.0
 50
90.0
 51
180.0
  0
ARC
  5
342
  8
DATA
 62
     7
 10
90.748503238277166
 20
90.0
 30
0.0
 40
4.0
 50
0.0
 51
90.0
  0
TEXT
  5
343
  8
DATA
 62
     7
 10
80.427083333333357
 20
95.412500000000009
 30
0.0
 40
4.2333333333333316
  1
3
 41
0.8
 11
80.427083333333357
 21
99.645833333333357
 31
0.0
 73
     3
  0
TEXT
  5
344
  8
DATA
 62
     7
 10
114.0
 20
84.597395833333366
 30
0.0
 40
4.2333333333333316
  1
OUTPUT
 41
0.8
 11
114.0
 21
88.830729166666686
 31
0.0
 73
     3
  0
TEXT
  5
345
  8
DATA
 62
     7
 10
141.5
 20
84.597395833333366
 30
0.0
 40
4.2333333333333316
  1
INPUT
 41
0.8
 11
141.5
 21
88.830729166666686
 31
0.0
 73
     3
  0
LINE
  5
346
  8
DATA
 62
     7
 10
125.5
 20
94.0
 30
0.0
 11
143.9985032382771
 21
94.0
 31
0.0
  0
ARC
  5
347
  8
DATA
 62
     7
 10
125.5
 20
90.0
 30
0.0
 40
4.0
 50
90.0
 51
180.0
  0
ARC
  5
348
  8
DATA
 62
     7
 10
143.9985032382771
 20
90.0
 30
0.0
 40
4.0
 50
0.0
 51
90.0
  0
TEXT
  5
349
  8
DATA
 62
     7
 10
133.67708333333329
 20
95.412500000000009
 30
0.0
 40
4.2333333333333316
  1
2
 41
0.8
 11
133.67708333333329
 21
99.645833333333357
 31
0.0
 73
     3
  0
TEXT
  5
34A
  8
DATA
 62
     7
 10
167.25
 20
84.597395833333366
 30
0.0
 40
4.2333333333333316
  1
OUTPUT
 41
0.8
 11
167.25
 21
88.830729166666686
 31
0.0
 73
     3
  0
TEXT
  5
34B
  8
DATA
 62
     7
 10
194.75
 20
84.597395833333366
 30
0.0
 40
4.2333333333333316
  1
INPUT
 41
0.8
 11
194.75
 21
88.830729166666686
 31
0.0
 73
     3
  0
LINE
  5
34C
  8
DATA
 62
     7
 10
178.75
 20
94.0
 30
0.0
 11
197.24850323827721
 21
94.0
 31
0.0
  0
ARC
  5
34D
  8
DATA
 62
     7
 10
178.75
 20
90.0
 30
0.0
 40
4.0
 50
90.0
 51
180.0
  0
ARC
  5
34E
  8
DATA
 62
     7
 10
197.24850323827721
 20
90.0
 30
0.0
 40
4.0
 50
0.0
 51
90.0
  0
TEXT
  5
34F
  8
DATA
 62
     7
 10
186.92708333333329
 20
95.412500000000009
 30
0.0
 40
4.2333333333333316
  1
1
 41
0.8
 11
186.92708333333329
 21
99.645833333333357
 31
0.0
 73
     3
  0
ENDSEC
  0
EOF
