  0
SECTION
  2
HEADER
  9
$ACADVER
  1
AC1009
  9
$INSBASE
 10
0.0
 20
0.0
 30
0.0
  9
$EXTMIN
 10
-80.027463724868767
 20
-276.8870479174243
 30
-0.0015258207003583
  9
$EXTMAX
 10
820.02746791582013
 20
1060.040753785041
 30
0.0000000349246037
  9
$LIMMIN
 10
0.0
 20
0.0
  9
$LIMMAX
 10
0.0
 20
0.0
  9
$ORTHOMODE
 70
     0
  9
$REGENMODE
 70
     1
  9
$FILLMODE
 70
     1
  9
$QTEXTMODE
 70
     0
  9
$MIRRTEXT
 70
     1
  9
$DRAGMODE
 70
     2
  9
$LTSCALE
 40
25.399999999999999
  9
$OSMODE
 70
   167
  9
$ATTMODE
 70
     1
  9
$TEXTSIZE
 40
0.0
  9
$TRACEWID
 40
1.0
  9
$TEXTSTYLE
  7
STANDARD
  9
$CLAYER
  8
DATA
  9
$CELTYPE
  6
CONTINUOUS
  9
$CECOLOR
 62
   256
  9
$DIMSCALE
 40
1.0
  9
$DIMASZ
 40
0.18
  9
$DIMEXO
 40
0.0625
  9
$DIMDLI
 40
0.38
  9
$DIMRND
 40
0.0
  9
$DIMDLE
 40
0.0
  9
$DIMEXE
 40
0.18
  9
$DIMTP
 40
0.0
  9
$DIMTM
 40
0.0
  9
$DIMTXT
 40
0.18
  9
$DIMCEN
 40
0.09
  9
$DIMTSZ
 40
0.0
  9
$DIMTOL
 70
     0
  9
$DIMLIM
 70
     0
  9
$DIMTIH
 70
     1
  9
$DIMTOH
 70
     1
  9
$DIMSE1
 70
     0
  9
$DIMSE2
 70
     0
  9
$DIMTAD
 70
     0
  9
$DIMZIN
 70
     0
  9
$DIMBLK
  1

  9
$DIMASO
 70
     1
  9
$DIMSHO
 70
     1
  9
$DIMPOST
  1

  9
$DIMAPOST
  1

  9
$DIMALT
 70
     0
  9
$DIMALTD
 70
     2
  9
$DIMALTF
 40
25.399999999999999
  9
$DIMLFAC
 40
1.0
  9
$DIMTOFL
 70
     0
  9
$DIMTVP
 40
0.0
  9
$DIMTIX
 70
     0
  9
$DIMSOXD
 70
     0
  9
$DIMSAH
 70
     0
  9
$DIMBLK1
  1

  9
$DIMBLK2
  1

  9
$DIMSTYLE
  2
STANDARD
  9
$DIMCLRD
 70
     0
  9
$DIMCLRE
 70
     0
  9
$DIMCLRT
 70
     0
  9
$DIMTFAC
 40
1.0
  9
$DIMGAP
 40
0.09
  9
$LUNITS
 70
     2
  9
$LUPREC
 70
     4
  9
$SKETCHINC
 40
0.1
  9
$FILLETRAD
 40
0.0
  9
$AUNITS
 70
     0
  9
$AUPREC
 70
     0
  9
$MENU
  1
acad
  9
$ELEVATION
 40
0.0
  9
$PELEVATION
 40
0.0
  9
$THICKNESS
 40
0.0
  9
$LIMCHECK
 70
     0
  9
$BLIPMODE
 70
     0
  9
$CHAMFERA
 40
0.0
  9
$CHAMFERB
 40
0.0
  9
$SKPOLY
 70
     0
  9
$TDCREATE
 40
2452979.776921297
  9
$TDUPDATE
 40
2452979.8099529739
  9
$TDINDWG
 40
0.0002649306
  9
$TDUSRTIMER
 40
0.0002647569
  9
$USRTIMER
 70
     1
  9
$ANGBASE
 50
0.0
  9
$ANGDIR
 70
     0
  9
$PDMODE
 70
     1
  9
$PDSIZE
 40
-2.0
  9
$PLINEWID
 40
0.0
  9
$COORDS
 70
     2
  9
$SPLFRAME
 70
     0
  9
$SPLINETYPE
 70
     6
  9
$SPLINESEGS
 70
     8
  9
$ATTDIA
 70
     0
  9
$ATTREQ
 70
     1
  9
$HANDLING
 70
     1
  9
$HANDSEED
  5
FF2
  9
$SURFTAB1
 70
     6
  9
$SURFTAB2
 70
     6
  9
$SURFTYPE
 70
     6
  9
$SURFU
 70
     6
  9
$SURFV
 70
     6
  9
$UCSNAME
  2

  9
$UCSORG
 10
0.0
 20
0.0
 30
0.0
  9
$UCSXDIR
 10
1.0
 20
0.0
 30
0.0
  9
$UCSYDIR
 10
0.0
 20
1.0
 30
0.0
  9
$PUCSNAME
  2

  9
$PUCSORG
 10
0.0
 20
0.0
 30
0.0
  9
$PUCSXDIR
 10
1.0
 20
0.0
 30
0.0
  9
$PUCSYDIR
 10
0.0
 20
1.0
 30
0.0
  9
$USERI1
 70
     0
  9
$USERI2
 70
     0
  9
$USERI3
 70
     0
  9
$USERI4
 70
     0
  9
$USERI5
 70
     0
  9
$USERR1
 40
0.0
  9
$USERR2
 40
0.0
  9
$USERR3
 40
0.0
  9
$USERR4
 40
0.0
  9
$USERR5
 40
0.0
  9
$WORLDVIEW
 70
     1
  9
$SHADEDGE
 70
     3
  9
$SHADEDIF
 70
    70
  9
$TILEMODE
 70
     1
  9
$MAXACTVP
 70
    16
  9
$PLIMCHECK
 70
     0
  9
$PEXTMIN
 10
1.0000000000000000E+020
 20
1.0000000000000000E+020
 30
1.0000000000000000E+020
  9
$PEXTMAX
 10
-1.0000000000000000E+020
 20
-1.0000000000000000E+020
 30
-1.0000000000000000E+020
  9
$PLIMMIN
 10
0.0
 20
0.0
  9
$PLIMMAX
 10
12.0
 20
9.0
  9
$UNITMODE
 70
     0
  9
$VISRETAIN
 70
     0
  9
$PLINEGEN
 70
     1
  9
$PSLTSCALE
 70
     0
  0
ENDSEC
  0
SECTION
  2
TABLES
  0
TABLE
  2
VPORT
 70
     2
  0
VPORT
  2
*ACTIVE
 70
     0
 10
0.0
 20
0.0
 11
1.0
 21
1.0
 12
370.00000209547579
 22
391.57685293380871
 13
0.0
 23
0.0
 14
1.0
 24
1.0
 15
0.0
 25
0.0
 16
0.0
 26
0.0
 36
1.0
 17
0.0
 27
0.0
 37
0.0
 40
1347.58061287141
 41
1.603723404255319
 42
50.0
 43
0.0
 44
0.0
 50
0.0
 51
0.0
 71
     0
 72
   100
 73
     1
 74
     1
 75
     0
 76
     0
 77
     0
 78
     0
  0
ENDTAB
  0
TABLE
  2
LTYPE
 70
    11
  0
LTYPE
  2
CONTINUOUS
 70
     0
  3
Solid line
 72
    65
 73
     0
 40
0.0
  0
LTYPE
  2
STYLE_01
 70
     0
  3

 72
    65
 73
     2
 40
0.4166412353515625
 49
0.208282470703125
 49
-0.2083587646484375
  0
LTYPE
  2
STYLE_02
 70
     0
  3

 72
    65
 73
     2
 40
0.694427490234375
 49
0.4860687255859375
 49
-0.2083587646484375
  0
LTYPE
  2
STYLE_03
 70
     0
  3

 72
    65
 73
     2
 40
1.25
 49
1.0416412353515621
 49
-0.2083587646484375
  0
LTYPE
  2
STYLE_04
 70
     0
  3

 72
    65
 73
     2
 40
1.5277099609375
 49
1.319427490234375
 49
-0.208282470703125
  0
LTYPE
  2
STYLE_05
 70
     0
  3

 72
    65
 73
     2
 40
0.208282470703125
 49
0.069427490234375
 49
-0.13885498046875
  0
LTYPE
  2
STYLE_06
 70
     0
  3

 72
    65
 73
     4
 40
1.0416412353515621
 49
0.625
 49
-0.208282470703125
 49
0.069427490234375
 49
-0.1389312744140625
  0
LTYPE
  2
STYLE_07
 70
     0
  3

 72
    65
 73
     6
 40
1.875
 49
0.625
 49
-0.208282470703125
 49
0.625
 49
-0.2083587646484375
 49
0.069427490234375
 49
-0.1389312744140625
  0
LTYPE
  2
STYLE_08
 70
     0
  3

 72
    65
 73
     6
 40
1.25
 49
0.625
 49
-0.208282470703125
 49
0.069427490234375
 49
-0.1389312744140625
 49
0.069427490234375
 49
-0.1389312744140625
  0
LTYPE
  2
STYLE_09
 70
     0
  3

 72
    65
 73
     4
 40
5.0
 49
3.75
 49
-0.2777862548828125
 49
0.694427490234375
 49
-0.2777862548828125
  0
LTYPE
  2
STYLE_10
 70
     0
  3

 72
    65
 73
     6
 40
5.9375
 49
3.75
 49
-0.2777862548828125
 49
0.694427490234375
 49
-0.2777862548828125
 49
0.625
 49
-0.3125
  0
ENDTAB
  0
TABLE
  2
LAYER
 70
     6
  0
LAYER
  2
0
 70
     0
 62
     7
  6
CONTINUOUS
  0
LAYER
  2
DATA
 70
     0
 62
     7
  6
CONTINUOUS
  0
LAYER
  2
DEFPOINTS
 70
     0
 62
     7
  6
CONTINUOUS
  0
LAYER
  2
HIBINO-BASE
 70
     0
 62
     7
  6
CONTINUOUS
  0
LAYER
  2
SPEC
 70
     0
 62
     7
  6
CONTINUOUS
  0
LAYER
  2
DIMNSIONS
 70
     0
 62
     7
  6
CONTINUOUS
  0
ENDTAB
  0
TABLE
  2
STYLE
 70
     2
  0
STYLE
  2
STANDARD
 70
     0
 40
0.0
 41
1.0
 50
0.0
 71
     0
 42
0.0
  3
txt
  4
BIGFONT.SHX
  0
ENDTAB
  0
TABLE
  2
VIEW
 70
     0
  0
ENDTAB
  0
TABLE
  2
UCS
 70
     0
  0
ENDTAB
  0
TABLE
  2
APPID
 70
     1
  0
APPID
  2
ACAD
 70
     0
  0
ENDTAB
  0
TABLE
  2
DIMSTYLE
 70
     1
  0
DIMSTYLE
  2
STANDARD
 70
     0
  3

  4

  5

  6

  7

 40
1.0
 41
0.18
 42
0.0625
 43
0.38
 44
0.18
 45
0.0
 46
0.0
 47
0.0
 48
0.0
140
0.18
141
0.09
142
0.0
143
25.399999999999999
144
1.0
145
0.0
146
1.0
147
0.09
 71
     0
 72
     0
 73
     1
 74
     1
 75
     0
 76
     0
 77
     0
 78
     0
170
     0
171
     2
172
     0
173
     0
174
     0
175
     0
176
     0
177
     0
178
     0
  0
ENDTAB
  0
ENDSEC
  0
SECTION
  2
BLOCKS
  0
BLOCK
  8
0
  2
$MODEL_SPACE
 70
     0
 10
0.0
 20
0.0
 30
0.0
  3
$MODEL_SPACE
  1

  0
ENDBLK
  5
B51
  8
0
  0
BLOCK
 67
     1
  8
0
  2
$PAPER_SPACE
 70
     0
 10
0.0
 20
0.0
 30
0.0
  3
$PAPER_SPACE
  1

  0
ENDBLK
  5
B4D
 67
     1
  8
0
  0
BLOCK
  8
DATA
  2
*U0
 70
     1
 10
0.0
 20
0.0
 30
0.0
  3
*U0
  1

  0
LINE
  5
32
  8
DATA
  6
CONTINUOUS
 62
     7
 10
53.181452119131592
 20
183.0
 30
0.0
 11
62.918547880868537
 21
183.0
 31
0.0
  0
LINE
  5
33
  8
DATA
  6
CONTINUOUS
 62
     7
 10
52.038594976274453
 20
176.0
 30
0.0
 11
64.061405023725669
 21
176.0
 31
0.0
  0
LINE
  5
34
  8
DATA
  6
CONTINUOUS
 62
     7
 10
50.596309054813233
 20
177.912081691846
 30
0.0
 11
51.739166197670357
 21
181.912081691846
 31
0.0
  0
LINE
  5
35
  8
DATA
  6
CONTINUOUS
 62
     7
 10
64.360833802329765
 20
181.912081691846
 30
0.0
 11
65.503690945186904
 21
177.912081691846
 31
0.0
  0
ARC
  5
36
  8
DATA
  6
CONTINUOUS
 62
     7
 10
53.18145211913162
 20
181.5
 30
0.0
 40
1.4999999999999709
 50
90.000000000000554
 51
164.0546040990784
  0
ARC
  5
37
  8
DATA
  6
CONTINUOUS
 62
     7
 10
52.038594976274453
 20
177.5
 30
0.0
 40
1.4999999999999889
 50
164.05460409907749
 51
270.00000000000028
  0
ARC
  5
38
  8
DATA
  6
CONTINUOUS
 62
     7
 10
64.061405023725655
 20
177.5
 30
0.0
 40
1.500000000000028
 50
270.00000000000051
 51
15.945395900920939
  0
ARC
  5
39
  8
DATA
  6
CONTINUOUS
 62
     7
 10
62.918547880868552
 20
181.5
 30
0.0
 40
1.499999999999982
 50
15.945395900922559
 51
90.000000000000256
  0
ENDBLK
  5
3A
  8
DATA
  0
BLOCK
  8
DATA
  2
*U1
 70
     1
 10
0.0
 20
0.0
 30
0.0
  3
*U1
  1

  0
POLYLINE
  5
3C
  8
DATA
  6
CONTINUOUS
 62
     7
 66
     1
 10
0.0
 20
0.0
 30
0.0
 70
     1
  0
VERTEX
  5
B72
  8
DATA
  6
CONTINUOUS
 62
     7
 10
72.879624050696407
 20
178.15499092721981
 30
0.0
  0
VERTEX
  5
B73
  8
DATA
  6
CONTINUOUS
 62
     7
 10
72.879624050696407
 20
180.8450090727801
 30
0.0
  0
VERTEX
  5
B74
  8
DATA
  6
CONTINUOUS
 62
     7
 10
70.550000000000054
 20
182.19001814556029
 30
0.0
  0
VERTEX
  5
B75
  8
DATA
  6
CONTINUOUS
 62
     7
 10
68.220375949303715
 20
180.8450090727801
 30
0.0
  0
VERTEX
  5
B76
  8
DATA
  6
CONTINUOUS
 62
     7
 10
68.220375949303715
 20
178.15499092721981
 30
0.0
  0
VERTEX
  5
B77
  8
DATA
  6
CONTINUOUS
 62
     7
 10
70.550000000000054
 20
176.80998185443971
 30
0.0
  0
SEQEND
  5
B78
  8
DATA
  6
CONTINUOUS
 62
     7
  0
CIRCLE
  5
44
  8
DATA
  6
CONTINUOUS
 62
     7
 10
70.550000000000054
 20
179.5
 30
0.0
 40
1.25
  0
ENDBLK
  5
45
  8
DATA
  0
BLOCK
  8
DATA
  2
*U2
 70
     1
 10
0.0
 20
0.0
 30
0.0
  3
*U2
  1

  0
POLYLINE
  5
47
  8
DATA
  6
CONTINUOUS
 62
     7
 66
     1
 10
0.0
 20
0.0
 30
0.0
 70
     1
  0
VERTEX
  5
B79
  8
DATA
  6
CONTINUOUS
 62
     7
 10
47.8796240506964
 20
178.15499092721981
 30
0.0
  0
VERTEX
  5
B7A
  8
DATA
  6
CONTINUOUS
 62
     7
 10
47.8796240506964
 20
180.8450090727801
 30
0.0
  0
VERTEX
  5
B7B
  8
DATA
  6
CONTINUOUS
 62
     7
 10
45.550000000000047
 20
182.19001814556029
 30
0.0
  0
VERTEX
  5
B7C
  8
DATA
  6
CONTINUOUS
 62
     7
 10
43.220375949303723
 20
180.8450090727801
 30
0.0
  0
VERTEX
  5
B7D
  8
DATA
  6
CONTINUOUS
 62
     7
 10
43.220375949303723
 20
178.15499092721981
 30
0.0
  0
VERTEX
  5
B7E
  8
DATA
  6
CONTINUOUS
 62
     7
 10
45.550000000000047
 20
176.80998185443971
 30
0.0
  0
SEQEND
  5
B7F
  8
DATA
  6
CONTINUOUS
 62
     7
  0
CIRCLE
  5
4F
  8
DATA
  6
CONTINUOUS
 62
     7
 10
45.550000000000047
 20
179.5
 30
0.0
 40
1.25
  0
ENDBLK
  5
50
  8
DATA
  0
BLOCK
  8
DATA
  2
*U3
 70
     1
 10
0.0
 20
0.0
 30
0.0
  3
*U3
  1

  0
LINE
  5
52
  8
DATA
  6
CONTINUOUS
 62
     7
 10
87.300000000000054
 20
168.0
 30
0.0
 11
87.300000000000054
 21
162.0
 31
0.0
  0
LINE
  5
53
  8
DATA
  6
CONTINUOUS
 62
     7
 10
87.300000000000054
 20
168.0
 30
0.0
 11
88.800000000000054
 21
168.0
 31
0.0
  0
LINE
  5
54
  8
DATA
  6
CONTINUOUS
 62
     7
 10
90.300000000000054
 20
166.5
 30
0.0
 11
90.300000000000054
 21
163.5
 31
0.0
  0
LINE
  5
55
  8
DATA
  6
CONTINUOUS
 62
     7
 10
88.800000000000054
 20
162.0
 30
0.0
 11
87.300000000000054
 21
162.0
 31
0.0
  0
ARC
  5
56
  8
DATA
  6
CONTINUOUS
 62
     7
 10
88.800000000000054
 20
166.5
 30
0.0
 40
1.5
 50
0.0
 51
90.0
  0
ARC
  5
57
  8
DATA
  6
CONTINUOUS
 62
     7
 10
88.800000000000054
 20
163.5
 30
0.0
 40
1.5
 50
270.0
 51
0.0
  0
LINE
  5
58
  8
DATA
  6
CONTINUOUS
 62
     7
 10
87.850000000000051
 20
168.0
 30
0.0
 11
87.850000000000051
 21
162.0
 31
0.0
  0
ENDBLK
  5
59
  8
DATA
  0
ENDSEC
  0
SECTION
  2
ENTITIES
  0
LINE
  5
5A
  8
HIBINO-BASE
 62
     7
 10
-80.0
 20
1060.0
 30
0.0
 11
820.0
 21
1060.0
 31
0.0
  0
LINE
  5
5B
  8
HIBINO-BASE
 62
     7
 10
820.0
 20
-240.0
 30
0.0
 11
-80.0
 21
-240.0
 31
0.0
  0
LINE
  5
5C
  8
HIBINO-BASE
 62
     7
 10
-80.0
 20
-240.0
 30
0.0
 11
-80.0
 21
1060.0
 31
0.0
  0
TEXT
  5
5D
  8
HIBINO-BASE
 62
     7
 10
-44.079999999999977
 20
-270.6399199999999
 30
0.0
 40
18.71292
  1
Hibino Corporation
 41
0.8
 11
-44.079999999999977
 21
-251.92699999999991
 31
0.0
 73
     3
  0
LINE
  5
5E
  8
HIBINO-BASE
 62
     7
 10
820.0
 20
1060.0
 30
0.0
 11
820.0
 21
-240.0
 31
0.0
  0
LINE
  5
5F
  8
HIBINO-BASE
 62
     7
 10
370.0
 20
-127.4999999999999
 30
0.0
 11
820.0
 21
-127.4999999999999
 31
0.0
  0
LINE
  5
60
  8
HIBINO-BASE
 62
     7
 10
370.0
 20
-240.0
 30
0.0
 11
370.0
 21
-127.4999999999999
 31
0.0
  0
TEXT
  5
61
  8
HIBINO-BASE
 62
     7
 10
374.5
 20
-139.40846666666661
 30
0.0
 40
8.466666666666665
  1
NOTE
 41
0.8
 11
374.5
 21
-130.94179999999989
 31
0.0
 73
     3
  0
LINE
  5
62
  8
HIBINO-BASE
 62
     7
 10
545.0
 20
-240.0
 30
0.0
 11
545.0
 21
-127.4999999999999
 31
0.0
  0
TEXT
  5
63
  8
HIBINO-BASE
 62
     7
 10
549.5
 20
-139.40846666666661
 30
0.0
 40
8.466666666666665
  1
TITLE
 41
0.8
 11
549.5
 21
-130.94179999999989
 31
0.0
 73
     3
  0
TEXT
  5
64
  8
HIBINO-BASE
 62
     7
 10
620.34194999999977
 20
-270.6399199999999
 30
0.0
 40
18.71292
  1
ヒビノ株式会社
 41
0.8
 11
620.34194999999977
 21
-251.92699999999991
 31
0.0
 73
     3
  0
LINE
  5
65
  8
HIBINO-BASE
 62
     7
 10
370.0
 20
-189.9999999999998
 30
0.0
 11
820.0
 21
-189.9999999999998
 31
0.0
  0
TEXT
  5
66
  8
HIBINO-BASE
 62
     7
 10
612.0
 20
-201.62686666666659
 30
0.0
 40
8.466666666666665
  1
DRAWN
 41
0.8
 11
612.0
 21
-193.16019999999989
 31
0.0
 73
     3
  0
TEXT
  5
67
  8
HIBINO-BASE
 62
     7
 10
487.0
 20
-201.62686666666659
 30
0.0
 40
8.466666666666665
  1
DATE
 41
0.8
 11
487.0
 21
-193.16019999999989
 31
0.0
 73
     3
  0
TEXT
  5
68
  8
HIBINO-BASE
 62
     7
 10
375.5
 20
-202.46227999999999
 30
0.0
 40
8.4666799999999984
  1
図面サイズ
 41
0.8
 11
375.5
 21
-193.9956
 31
0.0
 73
     3
  0
TEXT
  5
69
  8
HIBINO-BASE
 62
     7
 10
437.0
 20
-201.62686666666659
 30
0.0
 40
8.466666666666665
  1
SCALE
 41
0.8
 11
437.0
 21
-193.16019999999989
 31
0.0
 73
     3
  0
TEXT
  5
6A
  8
HIBINO-BASE
 62
     7
 10
549.5
 20
-201.62686666666659
 30
0.0
 40
8.466666666666665
  1
DESIGN
 41
0.8
 11
549.5
 21
-193.16019999999989
 31
0.0
 73
     3
  0
TEXT
  5
6B
  8
HIBINO-BASE
 62
     7
 10
737.0
 20
-201.62686666666659
 30
0.0
 40
8.466666666666665
  1
DRAWING NO.
 41
0.8
 11
737.0
 21
-193.16019999999989
 31
0.0
 73
     3
  0
TEXT
  5
6C
  8
HIBINO-BASE
 62
     7
 10
674.49999999999989
 20
-201.62686666666659
 30
0.0
 40
8.466666666666665
  1
CHECK
 41
0.8
 11
674.49999999999989
 21
-193.16019999999989
 31
0.0
 73
     3
  0
LINE
  5
6D
  8
HIBINO-BASE
 62
     7
 10
441.875
 20
-233.75
 30
0.0
 11
460.625
 21
-214.99999999999989
 31
0.0
  0
TEXT
  5
6E
  8
HIBINO-BASE
 62
     7
 10
438.75
 20
-219.9097166666667
 30
0.0
 40
8.466666666666665
  1
1
 41
0.8
 11
438.75
 21
-211.44305
 31
0.0
 73
     3
  0
LINE
  5
6F
  8
HIBINO-BASE
 62
     7
 10
432.5
 20
-240.0
 30
0.0
 11
432.5
 21
-189.9999999999998
 31
0.0
  0
LINE
  5
70
  8
HIBINO-BASE
 62
     7
 10
482.5
 20
-240.0
 30
0.0
 11
482.5
 21
-189.9999999999998
 31
0.0
  0
LINE
  5
71
  8
HIBINO-BASE
 62
     7
 10
607.49999999999989
 20
-189.9999999999998
 30
0.0
 11
607.49999999999989
 21
-240.0
 31
0.0
  0
LINE
  5
72
  8
HIBINO-BASE
 62
     7
 10
732.5
 20
-189.9999999999998
 30
0.0
 11
732.5
 21
-240.0
 31
0.0
  0
LINE
  5
73
  8
HIBINO-BASE
 62
     7
 10
669.99999999999989
 20
-240.0
 30
0.0
 11
669.99999999999989
 21
-189.9999999999998
 31
0.0
  0
TEXT
  5
74
  8
HIBINO-BASE
 62
     7
 10
486.78269999999992
 20
-225.04676666666671
 30
0.0
 40
8.466666666666665
  1
'03.12.
 41
0.8
 11
486.78269999999992
 21
-216.58009999999999
 31
0.0
 73
     3
  0
TEXT
  5
75
  8
HIBINO-BASE
 62
     7
 10
457.5
 20
-229.2847166666667
 30
0.0
 40
8.466666666666665
  1
5
 41
0.8
 11
457.5
 21
-220.81805
 31
0.0
 73
     3
  0
TEXT
  5
76
  8
HIBINO-BASE
 62
     7
 10
389.41666666666657
 20
-228.84999999999991
 30
0.0
 40
16.93333333333333
  1
A4
 41
0.8
 11
389.41666666666657
 21
-211.9166666666666
 31
0.0
 73
     3
  0
TEXT
  5
77
  8
HIBINO-BASE
 62
     7
 10
615.02905005517312
 20
-225.0467666666664
 30
0.0
 40
8.466666666666665
  1
N.Sasaki
 41
0.8
 11
615.02905005517312
 21
-216.5800999999997
 31
0.0
 73
     3
  0
TEXT
  5
78
  8
SPEC
 62
     7
 10
-36.25
 20
1017.918849999999
 30
0.0
 40
12.699999999999999
  1
仕様
 41
0.8
 11
-36.25
 21
1030.6188499999989
 31
0.0
 73
     3
  0
LINE
  5
79
  8
SPEC
 62
     7
 10
-42.5
 20
1010.0
 30
0.0
 11
550.0
 21
1010.0
 31
0.0
  0
LINE
  5
7A
  8
SPEC
 62
     7
 10
13.75
 20
991.24999999999989
 30
0.0
 11
550.0
 21
991.24999999999989
 31
0.0
  0
LINE
  5
7B
  8
SPEC
 62
     7
 10
-42.5
 20
916.24999999999989
 30
0.0
 11
550.0
 21
916.24999999999989
 31
0.0
  0
LINE
  5
7C
  8
SPEC
 62
     7
 10
13.75
 20
935.0
 30
0.0
 11
550.0
 21
935.0
 31
0.0
  0
LINE
  5
7D
  8
SPEC
 62
     7
 10
13.75
 20
953.74999999999989
 30
0.0
 11
550.0
 21
953.74999999999989
 31
0.0
  0
LINE
  5
7E
  8
SPEC
 62
     7
 10
13.75
 20
897.49999999999989
 30
0.0
 11
550.0
 21
897.49999999999989
 31
0.0
  0
LINE
  5
7F
  8
SPEC
 62
     7
 10
13.75
 20
860.0
 30
0.0
 11
550.0
 21
860.0
 31
0.0
  0
LINE
  5
80
  8
SPEC
 62
     7
 10
13.75
 20
822.49999999999989
 30
0.0
 11
550.0
 21
822.49999999999989
 31
0.0
  0
LINE
  5
81
  8
SPEC
 62
     7
 10
13.75
 20
972.49999999999989
 30
0.0
 11
550.0
 21
972.49999999999989
 31
0.0
  0
TEXT
  5
82
  8
SPEC
 62
     7
 10
134.49999999999989
 20
996.92082222222223
 30
0.0
 40
9.8777777777777782
  1
1×4ch
 41
0.8
 11
134.49999999999989
 21
1006.7986
 31
0.0
 73
     3
  0
LINE
  5
83
  8
SPEC
 62
     7
 10
13.75
 20
785.0
 30
0.0
 11
550.0
 21
785.0
 31
0.0
  0
LINE
  5
84
  8
SPEC
 62
     7
 10
-42.5
 20
710.0
 30
0.0
 11
550.0
 21
710.0
 31
0.0
  0
LINE
  5
85
  8
SPEC
 62
     7
 10
-42.5
 20
1010.0
 30
0.0
 11
-42.5
 21
672.5
 31
0.0
  0
LINE
  5
86
  8
SPEC
 62
     7
 10
126.25
 20
1010.0
 30
0.0
 11
126.25
 21
672.5
 31
0.0
  0
LINE
  5
87
  8
SPEC
 62
     7
 10
550.0
 20
1010.0
 30
0.0
 11
550.0
 21
672.5
 31
0.0
  0
TEXT
  5
88
  8
SPEC
 62
     7
 10
134.49999999999989
 20
809.42082222222211
 30
0.0
 40
9.8777777777777782
  1
電子バランス:+3dBm,+13dBm,+23dBu,内部プリセットにより変更
 41
0.8
 11
134.49999999999989
 21
819.29859999999985
 31
0.0
 73
     3
  0
TEXT
  5
89
  8
SPEC
 62
     7
 10
23.49999999999995
 20
921.92082222222211
 30
0.0
 40
9.8777777777777782
  1
最大レベル
 41
0.8
 11
23.49999999999995
 21
931.79859999999985
 31
0.0
 73
     3
  0
TEXT
  5
8A
  8
SPEC
 62
     7
 10
-38.00000000000005
 20
996.92082222222223
 30
0.0
 40
9.8777777777777782
  1
入力
 41
0.8
 11
-38.00000000000005
 21
1006.7986
 31
0.0
 73
     3
  0
TEXT
  5
8B
  8
SPEC
 62
     7
 10
23.49999999999995
 20
884.42082222222211
 30
0.0
 40
9.8777777777777782
  1
形式
 41
0.8
 11
23.49999999999995
 21
894.29859999999985
 31
0.0
 73
     3
  0
TEXT
  5
8C
  8
SPEC
 62
     7
 10
23.49999999999995
 20
865.67082222222211
 30
0.0
 40
9.8777777777777782
  1
端子
 41
0.8
 11
23.49999999999995
 21
875.54859999999985
 31
0.0
 73
     3
  0
TEXT
  5
8D
  8
SPEC
 62
     7
 10
23.49999999999995
 20
940.67082222222223
 30
0.0
 40
9.8777777777777782
  1
インピーダンス
 41
0.8
 11
23.49999999999995
 21
950.54859999999985
 31
0.0
 73
     3
  0
TEXT
  5
8E
  8
SPEC
 62
     7
 10
-38.00000000000005
 20
903.17082222222211
 30
0.0
 40
9.8777777777777782
  1
出力
 41
0.8
 11
-38.00000000000005
 21
913.04859999999985
 31
0.0
 73
     3
  0
TEXT
  5
8F
  8
SPEC
 62
     7
 10
23.49999999999995
 20
978.17082222222223
 30
0.0
 40
9.8777777777777782
  1
形式
 41
0.8
 11
23.49999999999995
 21
988.04859999999985
 31
0.0
 73
     3
  0
TEXT
  5
90
  8
SPEC
 62
     7
 10
23.49999999999995
 20
959.42082222222223
 30
0.0
 40
9.8777777777777782
  1
端子
 41
0.8
 11
23.49999999999995
 21
969.29859999999985
 31
0.0
 73
     3
  0
TEXT
  5
91
  8
SPEC
 62
     7
 10
23.49999999999995
 20
846.92082222222211
 30
0.0
 40
9.8777777777777782
  1
インピーダンス
 41
0.8
 11
23.49999999999995
 21
856.79859999999985
 31
0.0
 73
     3
  0
TEXT
  5
92
  8
SPEC
 62
     7
 10
23.49999999999995
 20
809.42082222222211
 30
0.0
 40
9.8777777777777782
  1
最大レベル
 41
0.8
 11
23.49999999999995
 21
819.29859999999985
 31
0.0
 73
     3
  0
TEXT
  5
93
  8
SPEC
 62
     7
 10
134.49999999999989
 20
921.92082222222211
 30
0.0
 40
9.8777777777777782
  1
+13dBu(マイク),+33dBu(ライン)
 41
0.8
 11
134.49999999999989
 21
931.79859999999985
 31
0.0
 73
     3
  0
TEXT
  5
94
  8
SPEC
 62
     7
 10
134.49999999999989
 20
846.92082222222211
 30
0.0
 40
9.8777777777777782
  1
アクティブバランス:<23Ω/+3dBm,<71Ω/+13dBm,<100Ω/+23dBu
 41
0.8
 11
134.49999999999989
 21
856.79859999999985
 31
0.0
 73
     3
  0
TEXT
  5
95
  8
SPEC
 62
     7
 10
134.49999999999989
 20
865.67082222222211
 30
0.0
 40
9.8777777777777782
  1
XLR3ピンオス(2-HOT)
 41
0.8
 11
134.49999999999989
 21
875.54859999999985
 31
0.0
 73
     3
  0
TEXT
  5
96
  8
SPEC
 62
     7
 10
134.49999999999989
 20
771.92082222222211
 30
0.0
 40
9.8777777777777782
  1
-40dB～+50dB
 41
0.8
 11
134.49999999999989
 21
781.79859999999985
 31
0.0
 73
     3
  0
TEXT
  5
97
  8
SPEC
 62
     7
 10
134.49999999999989
 20
940.67082222222223
 30
0.0
 40
9.8777777777777782
  1
2kΩ(マイク),10kΩ(ライン)
 41
0.8
 11
134.49999999999989
 21
950.54859999999985
 31
0.0
 73
     3
  0
TEXT
  5
98
  8
SPEC
 62
     7
 10
134.49999999999989
 20
903.17082222222211
 30
0.0
 40
9.8777777777777782
  1
4×4ch
 41
0.8
 11
134.49999999999989
 21
913.04859999999985
 31
0.0
 73
     3
  0
TEXT
  5
99
  8
SPEC
 62
     7
 10
134.49999999999989
 20
959.42082222222223
 30
0.0
 40
9.8777777777777782
  1
XLR3ピンメス(2-HOT)
 41
0.8
 11
134.49999999999989
 21
969.29859999999985
 31
0.0
 73
     3
  0
TEXT
  5
9A
  8
SPEC
 62
     7
 10
134.49999999999989
 20
978.17082222222223
 30
0.0
 40
9.8777777777777782
  1
バランス
 41
0.8
 11
134.49999999999989
 21
988.04859999999985
 31
0.0
 73
     3
  0
TEXT
  5
9B
  8
SPEC
 62
     7
 10
23.49999999999995
 20
996.92082222222223
 30
0.0
 40
9.8777777777777782
  1
チャンネル数
 41
0.8
 11
23.49999999999995
 21
1006.7986
 31
0.0
 73
     3
  0
TEXT
  5
9C
  8
SPEC
 62
     7
 10
23.49999999999995
 20
903.17082222222211
 30
0.0
 40
9.8777777777777782
  1
チャンネル数
 41
0.8
 11
23.49999999999995
 21
913.04859999999985
 31
0.0
 73
     3
  0
LINE
  5
9D
  8
SPEC
 62
     7
 10
13.75
 20
1010.0
 30
0.0
 11
13.75
 21
766.25
 31
0.0
  0
TEXT
  5
9E
  8
SPEC
 62
     7
 10
-38.00000000000005
 20
734.42082222222211
 30
0.0
 40
9.8777777777777782
  1
THD
 41
0.8
 11
-38.00000000000005
 21
744.29859999999985
 31
0.0
 73
     3
  0
TEXT
  5
9F
  8
SPEC
 62
     7
 10
134.49999999999989
 20
734.42082222222211
 30
0.0
 40
9.8777777777777782
  1
0.01%%%以下(20Hz～20kHz,クリッピングポイントにより-10dB)
 41
0.8
 11
134.49999999999989
 21
744.29859999999985
 31
0.0
 73
     3
  0
LINE
  5
A0
  8
SPEC
 62
     7
 10
-42.5
 20
747.5
 30
0.0
 11
550.0
 21
747.5
 31
0.0
  0
TEXT
  5
A1
  8
SPEC
 62
     7
 10
-38.00000000000005
 20
696.92082222222211
 30
0.0
 40
9.8777777777777782
  1
電源
 41
0.8
 11
-38.00000000000005
 21
706.79859999999985
 31
0.0
 73
     3
  0
TEXT
  5
A2
  8
SPEC
 62
     7
 10
-38.00000000000005
 20
678.17082222222211
 30
0.0
 40
9.8777777777777782
  1
寸法(W×H×D)/重量
 41
0.8
 11
-38.00000000000005
 21
688.04859999999985
 31
0.0
 73
     3
  0
TEXT
  5
A3
  8
SPEC
 62
     7
 10
134.49999999999989
 20
678.17082222222211
 30
0.0
 40
9.8777777777777782
  1
483×44×290mm(突起部含まず)/3.8kg
 41
0.8
 11
134.49999999999989
 21
688.04859999999985
 31
0.0
 73
     3
  0
TEXT
  5
A4
  8
SPEC
 62
     7
 10
134.49999999999989
 20
884.42082222222211
 30
0.0
 40
9.8777777777777782
  1
アクティブバランス,トランスバランス
 41
0.8
 11
134.49999999999989
 21
894.29859999999985
 31
0.0
 73
     3
  0
LINE
  5
A5
  8
SPEC
 62
     7
 10
13.75
 20
878.74999999999989
 30
0.0
 11
550.0
 21
878.74999999999989
 31
0.0
  0
TEXT
  5
A6
  8
SPEC
 62
     7
 10
-38.00000000000005
 20
753.17082222222211
 30
0.0
 40
9.8777777777777782
  1
周波数特性
 41
0.8
 11
-38.00000000000005
 21
763.04859999999985
 31
0.0
 73
     3
  0
TEXT
  5
A7
  8
SPEC
 62
     7
 10
134.49999999999989
 20
753.17082222222211
 30
0.0
 40
9.8777777777777782
  1
20Hz～20kHz(±0.5dB)
 41
0.8
 11
134.49999999999989
 21
763.04859999999985
 31
0.0
 73
     3
  0
TEXT
  5
A8
  8
SPEC
 62
     7
 10
23.49999999999995
 20
771.92082222222211
 30
0.0
 40
9.8777777777777782
  1
ゲイン
 41
0.8
 11
23.49999999999995
 21
781.79859999999985
 31
0.0
 73
     3
  0
LINE
  5
A9
  8
SPEC
 62
     7
 10
-42.5
 20
766.25
 30
0.0
 11
550.0
 21
766.25
 31
0.0
  0
LINE
  5
AA
  8
SPEC
 62
     7
 10
-42.5
 20
691.25
 30
0.0
 11
550.0
 21
691.25
 31
0.0
  0
LINE
  5
AB
  8
SPEC
 62
     7
 10
-42.5
 20
672.5
 30
0.0
 11
550.0
 21
672.5
 31
0.0
  0
LINE
  5
AC
  8
SPEC
 62
     7
 10
-42.5
 20
728.75
 30
0.0
 11
550.0
 21
728.75
 31
0.0
  0
TEXT
  5
AD
  8
SPEC
 62
     7
 10
-38.00000000000005
 20
715.67082222222211
 30
0.0
 40
9.8777777777777782
  1
ファンタム電源
 41
0.8
 11
-38.00000000000005
 21
725.54859999999985
 31
0.0
 73
     3
  0
TEXT
  5
AE
  8
SPEC
 62
     7
 10
134.49999999999989
 20
715.67082222222211
 30
0.0
 40
9.8777777777777782
  1
DC48V
 41
0.8
 11
134.49999999999989
 21
725.54859999999985
 31
0.0
 73
     3
  0
TEXT
  5
AF
  8
SPEC
 62
     7
 10
134.49999999999989
 20
696.92082222222211
 30
0.0
 40
9.8777777777777782
  1
50/60Hz,MSR-602II電源(AC90～130V)
 41
0.8
 11
134.49999999999989
 21
706.79859999999985
 31
0.0
 73
     3
  0
LINE
  5
B0
  8
SPEC
 62
     7
 10
13.75
 20
878.74999999999989
 30
0.0
 11
13.75
 21
860.0
 31
0.0
  0
TEXT
  5
B1
  8
SPEC
 62
     7
 10
134.49999999999989
 20
831.920822222222
 30
0.0
 40
9.8777777777777782
  1
トランスバランス:<50Ω/+3dBm
 41
0.8
 11
134.49999999999989
 21
841.79859999999985
 31
0.0
 73
     3
  0
TEXT
  5
B2
  8
SPEC
 62
     7
 10
134.49999999999989
 20
794.42082222222211
 30
0.0
 40
9.8777777777777782
  1
トランスバランス:+3dBm
 41
0.8
 11
134.49999999999989
 21
804.29859999999985
 31
0.0
 73
     3
  0
TEXT
  5
B3
  8
DIMNSIONS
 62
     7
 10
269.99999999999989
 20
-179.1111611111111
 30
0.0
 40
14.111111111111111
  1
(単位：mm)
 41
0.8
 11
269.99999999999989
 21
-165.00004999999999
 31
0.0
 73
     3
  0
LINE
  5
B4
  8
DIMNSIONS
 62
     7
 10
0.0
 20
-10.0
 30
0.0
 11
0.0
 21
-60.0
 31
0.0
  0
LINE
  5
B5
  8
DIMNSIONS
 62
     7
 10
482.60000000000002
 20
-10.0
 30
0.0
 11
482.60000000000002
 21
-60.0
 31
0.0
  0
LINE
  5
B6
  8
DIMNSIONS
 62
     7
 10
0.0
 20
-50.0
 30
0.0
 11
482.60000000000002
 21
-50.0
 31
0.0
  0
LINE
  5
B7
  8
DIMNSIONS
 62
     7
 10
0.0
 20
-50.0
 30
0.0
 11
12.50311279296875
 21
-46.649801024248802
 31
0.0
  0
LINE
  5
B8
  8
DIMNSIONS
 62
     7
 10
0.0
 20
-50.0
 30
0.0
 11
12.50311279296875
 21
-53.350198975751191
 31
0.0
  0
LINE
  5
B9
  8
DIMNSIONS
 62
     7
 10
482.60000000000002
 20
-50.0
 30
0.0
 11
470.09688720703122
 21
-53.350198975751191
 31
0.0
  0
LINE
  5
BA
  8
DIMNSIONS
 62
     7
 10
482.60000000000002
 20
-50.0
 30
0.0
 11
470.09688720703122
 21
-46.649801024248802
 31
0.0
  0
TEXT
  5
BB
  8
DIMNSIONS
 62
     7
 10
228.0708333333333
 20
-43.9722222222222
 30
0.0
 40
14.111111111111111
  1
483
 41
0.8
 11
228.0708333333333
 21
-29.861111111111089
 31
0.0
 73
     3
  0
LINE
  5
BC
  8
DIMNSIONS
 62
     7
 10
-10.0
 20
44.0
 30
0.0
 11
-40.0
 21
44.0
 31
0.0
  0
LINE
  5
BD
  8
DIMNSIONS
 62
     7
 10
-10.0
 20
0.0
 30
0.0
 11
-40.0
 21
0.0
 31
0.0
  0
LINE
  5
BE
  8
DIMNSIONS
 62
     7
 10
-30.0
 20
44.0
 30
0.0
 11
-30.0
 21
0.0
 31
0.0
  0
LINE
  5
BF
  8
DIMNSIONS
 62
     7
 10
-30.0
 20
44.0
 30
0.0
 11
-26.649801024248799
 21
31.49688720703125
 31
0.0
  0
LINE
  5
C0
  8
DIMNSIONS
 62
     7
 10
-30.0
 20
44.0
 30
0.0
 11
-33.350198975751198
 21
31.49688720703125
 31
0.0
  0
LINE
  5
C1
  8
DIMNSIONS
 62
     7
 10
-30.0
 20
0.0
 30
0.0
 11
-33.350198975751198
 21
12.50311279296875
 31
0.0
  0
LINE
  5
C2
  8
DIMNSIONS
 62
     7
 10
-30.0
 20
0.0
 30
0.0
 11
-26.649801024248799
 21
12.50311279296875
 31
0.0
  0
TEXT
  5
C3
  8
DIMNSIONS
 62
     7
 10
-36.027777777777793
 20
13.180555555555539
 30
0.0
 40
14.111111111111111
  1
44
 50
90.0
 41
0.8
 11
-50.1388888888889
 21
13.180555555555539
 31
0.0
 73
     3
  0
LINE
  5
C4
  8
DIMNSIONS
 62
     7
 10
-10.0
 20
155.0
 30
0.0
 11
-25.0
 21
155.0
 31
0.0
  0
LINE
  5
C5
  8
DIMNSIONS
 62
     7
 10
-10.0
 20
150.0
 30
0.0
 11
-25.0
 21
150.0
 31
0.0
  0
LINE
  5
C6
  8
DIMNSIONS
 62
     7
 10
-15.0
 20
150.0
 30
0.0
 11
-15.0
 21
155.0
 31
0.0
  0
LINE
  5
C7
  8
DIMNSIONS
 62
     7
 10
-15.0
 20
155.0
 30
0.0
 11
-15.0
 21
178.8194444444444
 31
0.0
  0
LINE
  5
C8
  8
DIMNSIONS
 62
     7
 10
-15.0
 20
155.0
 30
0.0
 11
-18.350198975751201
 21
167.50311279296869
 31
0.0
  0
LINE
  5
C9
  8
DIMNSIONS
 62
     7
 10
-15.0
 20
155.0
 30
0.0
 11
-11.6498010242488
 21
167.50311279296869
 31
0.0
  0
LINE
  5
CA
  8
DIMNSIONS
 62
     7
 10
-15.0
 20
150.0
 30
0.0
 11
-15.0
 21
125.0
 31
0.0
  0
LINE
  5
CB
  8
DIMNSIONS
 62
     7
 10
-15.0
 20
150.0
 30
0.0
 11
-11.6498010242488
 21
137.49688720703119
 31
0.0
  0
LINE
  5
CC
  8
DIMNSIONS
 62
     7
 10
-15.0
 20
150.0
 30
0.0
 11
-18.350198975751201
 21
137.49688720703119
 31
0.0
  0
TEXT
  5
CD
  8
DIMNSIONS
 62
     7
 10
-21.0277777777778
 20
169.99999999999989
 30
0.0
 40
14.111111111111111
  1
5
 50
90.0
 41
0.8
 11
-35.138888888888907
 21
169.99999999999989
 31
0.0
 73
     3
  0
LINE
  5
CE
  8
DIMNSIONS
 62
     7
 10
-10.0
 20
150.0
 30
0.0
 11
-50.0
 21
150.0
 31
0.0
  0
LINE
  5
CF
  8
DIMNSIONS
 62
     7
 10
15.30000000000001
 20
440.0
 30
0.0
 11
-50.0
 21
440.0
 31
0.0
  0
LINE
  5
D0
  8
DIMNSIONS
 62
     7
 10
-40.0
 20
150.0
 30
0.0
 11
-40.0
 21
440.0
 31
0.0
  0
LINE
  5
D1
  8
DIMNSIONS
 62
     7
 10
-40.0
 20
150.0
 30
0.0
 11
-43.350198975751191
 21
162.50311279296869
 31
0.0
  0
LINE
  5
D2
  8
DIMNSIONS
 62
     7
 10
-40.0
 20
150.0
 30
0.0
 11
-36.649801024248802
 21
162.50311279296869
 31
0.0
  0
LINE
  5
D3
  8
DIMNSIONS
 62
     7
 10
-40.0
 20
440.0
 30
0.0
 11
-36.649801024248802
 21
427.49688720703119
 31
0.0
  0
LINE
  5
D4
  8
DIMNSIONS
 62
     7
 10
-40.0
 20
440.0
 30
0.0
 11
-43.350198975751191
 21
427.49688720703119
 31
0.0
  0
TEXT
  5
D5
  8
DIMNSIONS
 62
     7
 10
-46.027777777777779
 20
281.77083333333343
 30
0.0
 40
14.111111111111111
  1
290
 50
90.0
 41
0.8
 11
-60.1388888888889
 21
281.77083333333343
 31
0.0
 73
     3
  0
LINE
  5
D6
  8
DIMNSIONS
 62
     7
 10
-10.0
 20
150.0
 30
0.0
 11
-50.0
 21
150.0
 31
0.0
  0
LINE
  5
D7
  8
DIMNSIONS
 62
     7
 10
82.0
 20
146.0
 30
0.0
 11
-50.0
 21
146.0
 31
0.0
  0
LINE
  5
D8
  8
DIMNSIONS
 62
     7
 10
-40.0
 20
146.0
 30
0.0
 11
-40.0
 21
150.0
 31
0.0
  0
LINE
  5
D9
  8
DIMNSIONS
 62
     7
 10
-40.0
 20
150.0
 30
0.0
 11
-40.0
 21
175.0
 31
0.0
  0
LINE
  5
DA
  8
DIMNSIONS
 62
     7
 10
-40.0
 20
150.0
 30
0.0
 11
-43.350198975751191
 21
162.50311279296869
 31
0.0
  0
LINE
  5
DB
  8
DIMNSIONS
 62
     7
 10
-40.0
 20
150.0
 30
0.0
 11
-36.649801024248802
 21
162.50311279296869
 31
0.0
  0
LINE
  5
DC
  8
DIMNSIONS
 62
     7
 10
-40.0
 20
146.0
 30
0.0
 11
-40.0
 21
124.6805555555555
 31
0.0
  0
LINE
  5
DD
  8
DIMNSIONS
 62
     7
 10
-40.0
 20
146.0
 30
0.0
 11
-36.649801024248802
 21
133.49688720703119
 31
0.0
  0
LINE
  5
DE
  8
DIMNSIONS
 62
     7
 10
-40.0
 20
146.0
 30
0.0
 11
-43.350198975751191
 21
133.49688720703119
 31
0.0
  0
TEXT
  5
DF
  8
DIMNSIONS
 62
     7
 10
-46.027777777777779
 20
124.6805555555555
 30
0.0
 40
14.111111111111111
  1
4
 50
90.0
 41
0.8
 11
-60.1388888888889
 21
124.6805555555555
 31
0.0
 73
     3
  0
LINE
  5
E0
  8
DIMNSIONS
 62
     7
 10
93.299999999999997
 20
444.0
 30
0.0
 11
-50.0
 21
444.0
 31
0.0
  0
LINE
  5
E1
  8
DIMNSIONS
 62
     7
 10
15.30000000000001
 20
440.0
 30
0.0
 11
-50.0
 21
440.0
 31
0.0
  0
LINE
  5
E2
  8
DIMNSIONS
 62
     7
 10
-40.0
 20
440.0
 30
0.0
 11
-40.0
 21
444.0
 31
0.0
  0
LINE
  5
E3
  8
DIMNSIONS
 62
     7
 10
-40.0
 20
444.0
 30
0.0
 11
-40.0
 21
467.31944444444451
 31
0.0
  0
LINE
  5
E4
  8
DIMNSIONS
 62
     7
 10
-40.0
 20
444.0
 30
0.0
 11
-43.350198975751191
 21
456.50311279296881
 31
0.0
  0
LINE
  5
E5
  8
DIMNSIONS
 62
     7
 10
-40.0
 20
444.0
 30
0.0
 11
-36.649801024248802
 21
456.50311279296881
 31
0.0
  0
LINE
  5
E6
  8
DIMNSIONS
 62
     7
 10
-40.0
 20
440.0
 30
0.0
 11
-40.0
 21
415.0
 31
0.0
  0
LINE
  5
E7
  8
DIMNSIONS
 62
     7
 10
-40.0
 20
440.0
 30
0.0
 11
-36.649801024248802
 21
427.49688720703119
 31
0.0
  0
LINE
  5
E8
  8
DIMNSIONS
 62
     7
 10
-40.0
 20
440.0
 30
0.0
 11
-43.350198975751191
 21
427.49688720703119
 31
0.0
  0
TEXT
  5
E9
  8
DIMNSIONS
 62
     7
 10
-46.027777777777779
 20
458.49999999999989
 30
0.0
 40
14.111111111111111
  1
4
 50
90.0
 41
0.8
 11
-60.1388888888889
 21
458.49999999999989
 31
0.0
 73
     3
  0
LINE
  5
EA
  8
DIMNSIONS
 62
     7
 10
25.300000000000011
 20
450.0
 30
0.0
 11
25.300000000000011
 21
505.0
 31
0.0
  0
LINE
  5
EB
  8
DIMNSIONS
 62
     7
 10
457.30000000000001
 20
450.0
 30
0.0
 11
457.30000000000001
 21
505.0
 31
0.0
  0
LINE
  5
EC
  8
DIMNSIONS
 62
     7
 10
25.300000000000011
 20
495.0
 30
0.0
 11
457.30000000000001
 21
495.0
 31
0.0
  0
LINE
  5
ED
  8
DIMNSIONS
 62
     7
 10
25.300000000000011
 20
495.0
 30
0.0
 11
37.803112792968761
 21
498.35019897575108
 31
0.0
  0
LINE
  5
EE
  8
DIMNSIONS
 62
     7
 10
25.300000000000011
 20
495.0
 30
0.0
 11
37.803112792968761
 21
491.6498010242488
 31
0.0
  0
LINE
  5
EF
  8
DIMNSIONS
 62
     7
 10
457.30000000000001
 20
495.0
 30
0.0
 11
444.7968872070312
 21
491.6498010242488
 31
0.0
  0
LINE
  5
F0
  8
DIMNSIONS
 62
     7
 10
457.30000000000001
 20
495.0
 30
0.0
 11
444.7968872070312
 21
498.3501989757512
 31
0.0
  0
TEXT
  5
F1
  8
DIMNSIONS
 62
     7
 10
228.0708333333333
 20
501.02777777777771
 30
0.0
 40
14.111111111111111
  1
432
 41
0.8
 11
228.0708333333333
 21
515.13888888888869
 31
0.0
 73
     3
  0
LINE
  5
F2
  8
DIMNSIONS
 62
     7
 10
22.800000000000011
 20
179.0
 30
0.0
 11
22.800000000000011
 21
530.0
 31
0.0
  0
LINE
  5
F3
  8
DIMNSIONS
 62
     7
 10
459.7999999999999
 20
179.0
 30
0.0
 11
459.7999999999999
 21
530.0
 31
0.0
  0
LINE
  5
F4
  8
DIMNSIONS
 62
     7
 10
22.800000000000011
 20
520.0
 30
0.0
 11
459.7999999999999
 21
520.0
 31
0.0
  0
LINE
  5
F5
  8
DIMNSIONS
 62
     7
 10
22.800000000000011
 20
520.0
 30
0.0
 11
35.303112792968761
 21
523.35019897575125
 31
0.0
  0
LINE
  5
F6
  8
DIMNSIONS
 62
     7
 10
22.800000000000011
 20
520.0
 30
0.0
 11
35.303112792968761
 21
516.64980102424875
 31
0.0
  0
LINE
  5
F7
  8
DIMNSIONS
 62
     7
 10
459.7999999999999
 20
520.0
 30
0.0
 11
447.2968872070312
 21
516.64980102424875
 31
0.0
  0
LINE
  5
F8
  8
DIMNSIONS
 62
     7
 10
459.7999999999999
 20
520.0
 30
0.0
 11
447.2968872070312
 21
523.35019897575125
 31
0.0
  0
TEXT
  5
F9
  8
DIMNSIONS
 62
     7
 10
228.0708333333333
 20
526.02777777777771
 30
0.0
 40
14.111111111111111
  1
437
 41
0.8
 11
228.0708333333333
 21
540.13888888888869
 31
0.0
 73
     3
  0
TEXT
  5
FA
  8
DATA
 62
     7
 10
619.99999999999989
 20
-179.3930499999999
 30
0.0
 40
12.699999999999999
  1
MSR-604 II
 41
0.8
 11
619.99999999999989
 21
-166.69304999999989
 31
0.0
 73
     3
  0
TEXT
  5
FB
  8
DATA
 62
     7
 10
619.99999999999989
 20
-153.1430499999999
 30
0.0
 40
12.699999999999999
  1
BSS
 41
0.8
 11
619.99999999999989
 21
-140.44304999999989
 31
0.0
 73
     3
  0
TEXT
  5
FC
  8
DATA
 62
     7
 10
-30.0
 20
-218.17500000000001
 30
0.0
 40
8.466666666666665
  1
仕様および外観は予告なく変更されることがありますので、ご了承ください。
 41
0.8
 11
-30.0
 21
-209.70833333333329
 31
0.0
 73
     3
  0
POLYLINE
  5
FD
  8
DATA
 62
     7
 66
     1
 10
0.0
 20
0.0
 30
0.0
 70
     1
  0
VERTEX
  5
B80
  8
DATA
 62
     7
 10
0.0
 20
44.0
 30
0.0
  0
VERTEX
  5
B81
  8
DATA
 62
     7
 10
482.60000000000002
 20
44.0
 30
0.0
  0
VERTEX
  5
B82
  8
DATA
 62
     7
 10
482.60000000000002
 20
0.0
 30
0.0
  0
VERTEX
  5
B83
  8
DATA
 62
     7
 10
0.0
 20
0.0
 30
0.0
  0
SEQEND
  5
B84
  8
DATA
 62
     7
  0
LINE
  5
103
  8
DATA
 62
     7
 10
26.300000000000011
 20
154.0
 30
0.0
 11
0.0
 21
154.0
 31
0.0
  0
LINE
  5
104
  8
DATA
 62
     7
 10
0.0
 20
150.0
 30
0.0
 11
482.60000000000002
 21
150.0
 31
0.0
  0
LINE
  5
105
  8
DATA
 62
     7
 10
0.0
 20
152.0
 30
0.0
 11
482.60000000000002
 21
152.0
 31
0.0
  0
LINE
  5
106
  8
DATA
 62
     7
 10
28.300000000000011
 20
153.0
 30
0.0
 11
28.300000000000011
 21
152.0
 31
0.0
  0
LINE
  5
107
  8
DATA
 62
     7
 10
0.0
 20
150.0
 30
0.0
 11
0.0
 21
155.0
 31
0.0
  0
LINE
  5
108
  8
DATA
 62
     7
 10
511.0
 20
44.0
 30
0.0
 11
511.0
 21
0.0
 31
0.0
  0
LINE
  5
109
  8
DATA
 62
     7
 10
514.0
 20
44.0
 30
0.0
 11
514.0
 21
0.0
 31
0.0
  0
LINE
  5
10A
  8
DATA
 62
     7
 10
799.0
 20
42.0
 30
0.0
 11
514.5
 21
42.0
 31
0.0
  0
LINE
  5
10B
  8
DATA
 62
     7
 10
509.0
 20
44.0
 30
0.0
 11
509.0
 21
0.0
 31
0.0
  0
LINE
  5
10C
  8
DATA
 62
     7
 10
509.0
 20
44.0
 30
0.0
 11
514.0
 21
44.0
 31
0.0
  0
LINE
  5
10D
  8
DATA
 62
     7
 10
509.0
 20
0.0
 30
0.0
 11
514.0
 21
0.0
 31
0.0
  0
LINE
  5
10E
  8
DATA
 62
     7
 10
514.0
 20
2.0
 30
0.0
 11
799.0
 21
2.0
 31
0.0
  0
LINE
  5
10F
  8
DATA
 62
     7
 10
6.849999999999965
 20
10.05000000000001
 30
0.0
 11
10.14999999999997
 21
10.05000000000001
 31
0.0
  0
LINE
  5
110
  8
DATA
 62
     7
 10
6.849999999999965
 20
2.9499999999999882
 30
0.0
 11
10.14999999999997
 21
2.9499999999999882
 31
0.0
  0
ARC
  5
111
  8
DATA
 62
     7
 10
6.8499999999999091
 20
6.5
 30
0.0
 40
3.5500000000000109
 50
90.0
 51
270.0
  0
ARC
  5
112
  8
DATA
 62
     7
 10
10.14999999999997
 20
6.5
 30
0.0
 40
3.5500000000000109
 50
270.0
 51
90.0
  0
LINE
  5
113
  8
DATA
 62
     7
 10
6.849999999999965
 20
41.050000000000011
 30
0.0
 11
10.14999999999997
 21
41.050000000000011
 31
0.0
  0
LINE
  5
114
  8
DATA
 62
     7
 10
6.849999999999965
 20
33.949999999999989
 30
0.0
 11
10.14999999999997
 21
33.949999999999989
 31
0.0
  0
ARC
  5
115
  8
DATA
 62
     7
 10
6.8499999999999091
 20
37.5
 30
0.0
 40
3.5500000000000109
 50
90.0
 51
270.0
  0
ARC
  5
116
  8
DATA
 62
     7
 10
10.14999999999997
 20
37.5
 30
0.0
 40
3.5500000000000109
 50
270.0
 51
90.0
  0
LINE
  5
117
  8
DATA
 62
     7
 10
475.75
 20
10.05000000000001
 30
0.0
 11
472.44999999999999
 21
10.05000000000001
 31
0.0
  0
LINE
  5
118
  8
DATA
 62
     7
 10
475.75
 20
2.9499999999999882
 30
0.0
 11
472.44999999999999
 21
2.9499999999999882
 31
0.0
  0
ARC
  5
119
  8
DATA
 62
     7
 10
475.75
 20
6.5
 30
0.0
 40
3.5500000000000109
 50
270.0
 51
90.0
  0
ARC
  5
11A
  8
DATA
 62
     7
 10
472.44999999999999
 20
6.5
 30
0.0
 40
3.5500000000000109
 50
90.0
 51
270.0
  0
LINE
  5
11B
  8
DATA
 62
     7
 10
475.75
 20
41.050000000000011
 30
0.0
 11
472.44999999999999
 21
41.050000000000011
 31
0.0
  0
LINE
  5
11C
  8
DATA
 62
     7
 10
475.75
 20
33.949999999999989
 30
0.0
 11
472.44999999999999
 21
33.949999999999989
 31
0.0
  0
ARC
  5
11D
  8
DATA
 62
     7
 10
475.75
 20
37.5
 30
0.0
 40
3.5500000000000109
 50
270.0
 51
90.0
  0
ARC
  5
11E
  8
DATA
 62
     7
 10
472.44999999999999
 20
37.5
 30
0.0
 40
3.5500000000000109
 50
90.0
 51
270.0
  0
LINE
  5
11F
  8
DATA
 62
     7
 10
0.0
 20
155.0
 30
0.0
 11
25.300000000000011
 21
155.0
 31
0.0
  0
LINE
  5
120
  8
DATA
 62
     7
 10
26.300000000000011
 20
154.0
 30
0.0
 11
26.300000000000011
 21
155.0
 31
0.0
  0
LINE
  5
121
  8
DATA
 62
     7
 10
513.0
 20
44.0
 30
0.0
 11
513.0
 21
0.0
 31
0.0
  0
LINE
  5
122
  8
DATA
 62
     7
 10
25.300000000000011
 20
155.0
 30
0.0
 11
25.300000000000011
 21
440.0
 31
0.0
  0
LINE
  5
123
  8
DATA
 62
     7
 10
456.30000000000001
 20
154.0
 30
0.0
 11
482.60000000000002
 21
154.0
 31
0.0
  0
LINE
  5
124
  8
DATA
 62
     7
 10
454.30000000000001
 20
153.0
 30
0.0
 11
454.30000000000001
 21
152.0
 31
0.0
  0
LINE
  5
125
  8
DATA
 62
     7
 10
482.60000000000002
 20
150.0
 30
0.0
 11
482.60000000000002
 21
155.0
 31
0.0
  0
LINE
  5
126
  8
DATA
 62
     7
 10
482.60000000000002
 20
155.0
 30
0.0
 11
457.30000000000001
 21
155.0
 31
0.0
  0
LINE
  5
127
  8
DATA
 62
     7
 10
456.30000000000001
 20
154.0
 30
0.0
 11
456.30000000000001
 21
155.0
 31
0.0
  0
LINE
  5
128
  8
DATA
 62
     7
 10
25.300000000000011
 20
156.0
 30
0.0
 11
29.300000000000011
 21
152.0
 31
0.0
  0
LINE
  5
129
  8
DATA
 62
     7
 10
457.30000000000001
 20
156.0
 30
0.0
 11
453.30000000000001
 21
152.0
 31
0.0
  0
LINE
  5
12A
  8
DATA
 62
     7
 10
457.30000000000001
 20
155.0
 30
0.0
 11
457.30000000000001
 21
440.0
 31
0.0
  0
LINE
  5
12B
  8
DATA
 62
     7
 10
457.30000000000001
 20
440.0
 30
0.0
 11
25.300000000000011
 21
440.0
 31
0.0
  0
LINE
  5
12C
  8
DATA
 62
     7
 10
514.0
 20
41.0
 30
0.0
 11
799.0
 21
41.0
 31
0.0
  0
LINE
  5
12D
  8
DATA
 62
     7
 10
514.0
 20
3.0
 30
0.0
 11
799.0
 21
3.0
 31
0.0
  0
LINE
  5
12E
  8
DATA
 62
     7
 10
799.0
 20
42.0
 30
0.0
 11
799.0
 21
2.0
 31
0.0
  0
LINE
  5
12F
  8
DATA
 62
     7
 10
42.550000000000011
 20
441.5
 30
0.0
 11
42.550000000000011
 21
440.0
 31
0.0
  0
LINE
  5
130
  8
DATA
 62
     7
 10
42.550000000000011
 20
441.5
 30
0.0
 11
61.550000000000011
 21
441.5
 31
0.0
  0
LINE
  5
131
  8
DATA
 62
     7
 10
61.550000000000011
 20
441.5
 30
0.0
 11
61.550000000000011
 21
440.0
 31
0.0
  0
LINE
  5
132
  8
DATA
 62
     7
 10
67.050000000000011
 20
441.5
 30
0.0
 11
67.050000000000011
 21
440.0
 31
0.0
  0
LINE
  5
133
  8
DATA
 62
     7
 10
62.050000000000011
 20
442.0
 30
0.0
 11
66.550000000000011
 21
442.0
 31
0.0
  0
LINE
  5
134
  8
DATA
 62
     7
 10
41.550000000000011
 20
441.5
 30
0.0
 11
41.550000000000011
 21
440.0
 31
0.0
  0
LINE
  5
135
  8
DATA
 62
     7
 10
42.049999999999997
 20
442.0
 30
0.0
 11
46.550000000000011
 21
442.0
 31
0.0
  0
ARC
  5
136
  8
DATA
 62
     7
 10
66.550000000000011
 20
441.5
 30
0.0
 40
0.5
 50
0.0
 51
90.0
  0
ARC
  5
137
  8
DATA
 62
     7
 10
62.050000000000011
 20
441.5
 30
0.0
 40
0.5
 50
90.0
 51
180.0
  0
ARC
  5
138
  8
DATA
 62
     7
 10
46.550000000000011
 20
441.5
 30
0.0
 40
0.5
 50
0.0
 51
90.0
  0
ARC
  5
139
  8
DATA
 62
     7
 10
42.049999999999997
 20
441.5
 30
0.0
 40
0.5
 50
90.0
 51
180.0
  0
LINE
  5
13A
  8
DATA
 62
     7
 10
51.300000000000011
 20
441.5
 30
0.0
 11
51.300000000000011
 21
440.0
 31
0.0
  0
LINE
  5
13B
  8
DATA
 62
     7
 10
57.300000000000011
 20
441.5
 30
0.0
 11
57.300000000000011
 21
440.0
 31
0.0
  0
LINE
  5
13C
  8
DATA
 62
     7
 10
103.3
 20
444.0
 30
0.0
 11
103.3
 21
443.5
 31
0.0
  0
LINE
  5
13D
  8
DATA
 62
     7
 10
113.3
 20
444.0
 30
0.0
 11
113.3
 21
443.5
 31
0.0
  0
LINE
  5
13E
  8
DATA
 62
     7
 10
103.3
 20
444.0
 30
0.0
 11
113.3
 21
444.0
 31
0.0
  0
LINE
  5
13F
  8
DATA
 62
     7
 10
103.3
 20
443.5
 30
0.0
 11
113.3
 21
443.5
 31
0.0
  0
LINE
  5
140
  8
DATA
 62
     7
 10
105.8
 20
443.5
 30
0.0
 11
105.8
 21
440.0
 31
0.0
  0
LINE
  5
141
  8
DATA
 62
     7
 10
110.8
 20
443.5
 30
0.0
 11
110.8
 21
440.0
 31
0.0
  0
LINE
  5
142
  8
DATA
 62
     7
 10
96.550000000000011
 20
441.5
 30
0.0
 11
96.550000000000011
 21
440.0
 31
0.0
  0
LINE
  5
143
  8
DATA
 62
     7
 10
96.550000000000011
 20
441.5
 30
0.0
 11
105.8
 21
441.5
 31
0.0
  0
LINE
  5
144
  8
DATA
 62
     7
 10
110.8
 20
441.5
 30
0.0
 11
115.55
 21
441.5
 31
0.0
  0
LINE
  5
145
  8
DATA
 62
     7
 10
115.55
 20
441.5
 30
0.0
 11
115.55
 21
440.0
 31
0.0
  0
LINE
  5
146
  8
DATA
 62
     7
 10
121.05
 20
441.5
 30
0.0
 11
121.05
 21
440.0
 31
0.0
  0
LINE
  5
147
  8
DATA
 62
     7
 10
95.549999999999983
 20
441.5
 30
0.0
 11
95.549999999999983
 21
440.0
 31
0.0
  0
LINE
  5
148
  8
DATA
 62
     7
 10
116.05
 20
442.0
 30
0.0
 11
120.55
 21
442.0
 31
0.0
  0
ARC
  5
149
  8
DATA
 62
     7
 10
120.55
 20
441.5
 30
0.0
 40
0.5
 50
0.0
 51
90.0
  0
ARC
  5
14A
  8
DATA
 62
     7
 10
116.05
 20
441.5
 30
0.0
 40
0.5
 50
90.0
 51
180.0
  0
LINE
  5
14B
  8
DATA
 62
     7
 10
96.049999999999997
 20
442.0
 30
0.0
 11
100.55
 21
442.0
 31
0.0
  0
ARC
  5
14C
  8
DATA
 62
     7
 10
96.049999999999997
 20
441.5
 30
0.0
 40
0.5
 50
90.0
 51
180.0
  0
ARC
  5
14D
  8
DATA
 62
     7
 10
100.55
 20
441.5
 30
0.0
 40
0.5
 50
0.0
 51
90.0
  0
ARC
  5
14E
  8
DATA
 62
     7
 10
516.0
 20
39.229166666666629
 30
0.0
 40
4.270833333333357
 50
40.449718862336539
 51
117.9235278487856
  0
LINE
  5
14F
  8
DATA
 62
     7
 10
514.0
 20
42.0
 30
0.0
 11
518.75
 21
42.0
 31
0.0
  0
LINE
  5
150
  8
DATA
 62
     7
 10
783.75
 20
42.0
 30
0.0
 11
790.24999999999989
 21
42.0
 31
0.0
  0
ARC
  5
151
  8
DATA
 62
     7
 10
786.5
 20
39.229166666666629
 30
0.0
 40
4.270833333333357
 50
40.449718862336539
 51
139.5502811376634
  0
LINE
  5
152
  8
DATA
 62
     7
 10
783.75
 20
2.0
 30
0.0
 11
790.24999999999989
 21
2.0
 31
0.0
  0
ARC
  5
153
  8
DATA
 62
     7
 10
516.0
 20
4.7708333333333712
 30
0.0
 40
4.2708333333333632
 50
242.0764721512144
 51
319.55028113766349
  0
LINE
  5
154
  8
DATA
 62
     7
 10
514.0
 20
42.0
 30
0.0
 11
518.75
 21
42.0
 31
0.0
  0
ARC
  5
155
  8
DATA
 62
     7
 10
794.5
 20
39.229166666666629
 30
0.0
 40
4.270833333333357
 50
40.449718862336539
 51
139.5502811376634
  0
LINE
  5
156
  8
DATA
 62
     7
 10
800.0
 20
35.75000000000005
 30
0.0
 11
799.0
 21
35.75000000000005
 31
0.0
  0
LINE
  5
157
  8
DATA
 62
     7
 10
801.0
 20
34.75000000000005
 30
0.0
 11
801.0
 21
31.24999999999995
 31
0.0
  0
ARC
  5
158
  8
DATA
 62
     7
 10
800.0
 20
34.75000000000005
 30
0.0
 40
1.0
 50
0.0
 51
90.0
  0
LINE
  5
159
  8
DATA
 62
     7
 10
804.0
 20
38.00000000000005
 30
0.0
 11
803.5
 21
38.00000000000005
 31
0.0
  0
LINE
  5
15A
  8
DATA
 62
     7
 10
804.0
 20
33.00000000000005
 30
0.0
 11
803.5
 21
33.00000000000005
 31
0.0
  0
LINE
  5
15B
  8
DATA
 62
     7
 10
804.0
 20
38.00000000000005
 30
0.0
 11
804.0
 21
31.419700845188121
 31
0.0
  0
LINE
  5
15C
  8
DATA
 62
     7
 10
803.5
 20
38.00000000000005
 30
0.0
 11
803.5
 21
31.919700845188121
 31
0.0
  0
LINE
  5
15D
  8
DATA
 62
     7
 10
804.0
 20
31.419700845188121
 30
0.0
 11
801.0
 21
31.419700845188121
 31
0.0
  0
LINE
  5
15E
  8
DATA
 62
     7
 10
803.5
 20
31.919700845188121
 30
0.0
 11
801.0
 21
31.919700845188121
 31
0.0
  0
LINE
  5
15F
  8
DATA
 62
     7
 10
457.30000000000001
 20
170.0
 30
0.0
 11
457.30000000000001
 21
164.0
 31
0.0
  0
LINE
  5
160
  8
DATA
 62
     7
 10
457.30000000000001
 20
170.0
 30
0.0
 11
458.80000000000001
 21
170.0
 31
0.0
  0
LINE
  5
161
  8
DATA
 62
     7
 10
458.80000000000001
 20
164.0
 30
0.0
 11
457.30000000000001
 21
164.0
 31
0.0
  0
LINE
  5
162
  8
DATA
 62
     7
 10
457.85000000000002
 20
170.0
 30
0.0
 11
457.85000000000002
 21
164.0
 31
0.0
  0
LINE
  5
163
  8
DATA
 62
     7
 10
459.7999999999999
 20
169.0
 30
0.0
 11
459.7999999999999
 21
165.0
 31
0.0
  0
ARC
  5
164
  8
DATA
 62
     7
 10
458.80000000000001
 20
169.0
 30
0.0
 40
1.0
 50
0.0
 51
90.0
  0
ARC
  5
165
  8
DATA
 62
     7
 10
458.80000000000001
 20
165.0
 30
0.0
 40
1.0
 50
270.0
 51
0.0
  0
LINE
  5
166
  8
DATA
 62
     7
 10
457.30000000000001
 20
234.0
 30
0.0
 11
457.30000000000001
 21
228.0
 31
0.0
  0
LINE
  5
167
  8
DATA
 62
     7
 10
457.30000000000001
 20
234.0
 30
0.0
 11
458.80000000000001
 21
234.0
 31
0.0
  0
LINE
  5
168
  8
DATA
 62
     7
 10
458.80000000000001
 20
228.0
 30
0.0
 11
457.30000000000001
 21
228.0
 31
0.0
  0
LINE
  5
169
  8
DATA
 62
     7
 10
457.85000000000002
 20
234.0
 30
0.0
 11
457.85000000000002
 21
228.0
 31
0.0
  0
LINE
  5
16A
  8
DATA
 62
     7
 10
459.7999999999999
 20
233.0
 30
0.0
 11
459.7999999999999
 21
229.0
 31
0.0
  0
ARC
  5
16B
  8
DATA
 62
     7
 10
458.80000000000001
 20
233.0
 30
0.0
 40
1.0
 50
0.0
 51
90.0
  0
ARC
  5
16C
  8
DATA
 62
     7
 10
458.80000000000001
 20
229.0
 30
0.0
 40
1.0
 50
270.0
 51
0.0
  0
LINE
  5
16D
  8
DATA
 62
     7
 10
457.30000000000001
 20
260.5
 30
0.0
 11
457.30000000000001
 21
254.5
 31
0.0
  0
LINE
  5
16E
  8
DATA
 62
     7
 10
457.30000000000001
 20
260.5
 30
0.0
 11
458.80000000000001
 21
260.5
 31
0.0
  0
LINE
  5
16F
  8
DATA
 62
     7
 10
458.80000000000001
 20
254.5
 30
0.0
 11
457.30000000000001
 21
254.5
 31
0.0
  0
LINE
  5
170
  8
DATA
 62
     7
 10
457.85000000000002
 20
260.5
 30
0.0
 11
457.85000000000002
 21
254.5
 31
0.0
  0
LINE
  5
171
  8
DATA
 62
     7
 10
459.7999999999999
 20
259.5
 30
0.0
 11
459.7999999999999
 21
255.5
 31
0.0
  0
ARC
  5
172
  8
DATA
 62
     7
 10
458.80000000000001
 20
259.5
 30
0.0
 40
1.0
 50
0.0
 51
90.0
  0
ARC
  5
173
  8
DATA
 62
     7
 10
458.80000000000001
 20
255.5
 30
0.0
 40
1.0
 50
270.0
 51
0.0
  0
LINE
  5
174
  8
DATA
 62
     7
 10
25.300000000000011
 20
170.0
 30
0.0
 11
25.300000000000011
 21
164.0
 31
0.0
  0
LINE
  5
175
  8
DATA
 62
     7
 10
25.300000000000011
 20
170.0
 30
0.0
 11
23.800000000000011
 21
170.0
 31
0.0
  0
LINE
  5
176
  8
DATA
 62
     7
 10
23.800000000000011
 20
164.0
 30
0.0
 11
25.300000000000011
 21
164.0
 31
0.0
  0
LINE
  5
177
  8
DATA
 62
     7
 10
24.75
 20
170.0
 30
0.0
 11
24.75
 21
164.0
 31
0.0
  0
LINE
  5
178
  8
DATA
 62
     7
 10
22.800000000000011
 20
169.0
 30
0.0
 11
22.800000000000011
 21
165.0
 31
0.0
  0
ARC
  5
179
  8
DATA
 62
     7
 10
23.800000000000011
 20
169.0
 30
0.0
 40
1.0
 50
90.0
 51
180.0
  0
ARC
  5
17A
  8
DATA
 62
     7
 10
23.800000000000011
 20
165.0
 30
0.0
 40
1.0
 50
180.0
 51
270.0
  0
CIRCLE
  5
17B
  8
DATA
 62
     7
 10
774.0
 20
9.0
 30
0.0
 40
1.2499999999999789
  0
CIRCLE
  5
17C
  8
DATA
 62
     7
 10
774.0
 20
35.0
 30
0.0
 40
1.2500000000000511
  0
CIRCLE
  5
17D
  8
DATA
 62
     7
 10
47.0
 20
20.0
 30
0.0
 40
11.75
  0
ARC
  5
17E
  8
DATA
 62
     7
 10
47.0
 20
20.0
 30
0.0
 40
9.7499999999999591
 50
163.34236379708739
 51
256.6576362029117
  0
ARC
  5
17F
  8
DATA
 62
     7
 10
47.0
 20
20.0
 30
0.0
 40
9.7499999999999485
 50
283.3423637970883
 51
16.65763620290954
  0
ARC
  5
180
  8
DATA
 62
     7
 10
47.0
 20
20.0
 30
0.0
 40
9.7499999999999201
 50
43.34236379709133
 51
73.617330145899061
  0
ARC
  5
181
  8
DATA
 62
     7
 10
47.0
 20
20.0
 30
0.0
 40
9.7499999999999201
 50
106.3826698541009
 51
136.65763620291241
  0
CIRCLE
  5
182
  8
DATA
 62
     7
 10
47.0
 20
20.0
 30
0.0
 40
8.25
  0
CIRCLE
  5
183
  8
DATA
 62
     7
 10
51.0
 20
20.0
 30
0.0
 40
1.249999999999948
  0
CIRCLE
  5
184
  8
DATA
 62
     7
 10
43.0
 20
20.0
 30
0.0
 40
1.2499999999999409
  0
CIRCLE
  5
185
  8
DATA
 62
     7
 10
47.0
 20
16.0
 30
0.0
 40
1.2499999999999829
  0
LINE
  5
186
  8
DATA
 62
     7
 10
44.75
 20
9.0
 30
0.0
 11
44.75
 21
10.51316701949486
 31
0.0
  0
LINE
  5
187
  8
DATA
 62
     7
 10
49.25
 20
9.0
 30
0.0
 11
49.25
 21
10.51316701949486
 31
0.0
  0
ARC
  5
188
  8
DATA
 62
     7
 10
47.0
 20
20.0
 30
0.0
 40
11.22775578644281
 50
258.4398692057822
 51
281.56013079421768
  0
LINE
  5
189
  8
DATA
 62
     7
 10
57.651279441628724
 20
23.551442841485031
 30
0.0
 11
56.340838362577422
 21
22.794859331737602
 31
0.0
  0
LINE
  5
18A
  8
DATA
 62
     7
 10
55.401279441628724
 20
27.448557158514969
 30
0.0
 11
54.090838362577422
 21
26.691973648767551
 31
0.0
  0
ARC
  5
18B
  8
DATA
 62
     7
 10
46.999999999999893
 20
20.0
 30
0.0
 40
11.227755786442829
 50
18.439869205782269
 51
41.560130794217642
  0
LINE
  5
18C
  8
DATA
 62
     7
 10
38.598720558370992
 20
27.448557158514969
 30
0.0
 11
39.909161637422301
 21
26.691973648767551
 31
0.0
  0
LINE
  5
18D
  8
DATA
 62
     7
 10
36.348720558370992
 20
23.551442841485031
 30
0.0
 11
37.659161637422301
 21
22.794859331737602
 31
0.0
  0
ARC
  5
18E
  8
DATA
 62
     7
 10
46.999999999999773
 20
20.0
 30
0.0
 40
11.227755786442771
 50
138.43986920578209
 51
161.5601307942176
  0
LINE
  5
18F
  8
DATA
 62
     7
 10
51.0
 20
31.048189896992199
 30
0.0
 11
51.0
 21
29.97810102173753
 31
0.0
  0
LINE
  5
190
  8
DATA
 62
     7
 10
43.0
 20
31.048189896992199
 30
0.0
 11
43.0
 21
29.97810102173753
 31
0.0
  0
ARC
  5
191
  8
DATA
 62
     7
 10
47.0
 20
20.0
 30
0.0
 40
10.74999999999998
 50
68.15524251423669
 51
75.17817893794988
  0
ARC
  5
192
  8
DATA
 62
     7
 10
47.0
 20
20.0
 30
0.0
 40
10.75
 50
104.82182106205011
 51
111.8447574857633
  0
LINE
  5
193
  8
DATA
 62
     7
 10
49.75
 20
30.39230484541326
 30
0.0
 11
49.75
 21
29.354143466934829
 31
0.0
  0
LINE
  5
194
  8
DATA
 62
     7
 10
44.249999999999993
 20
30.39230484541326
 30
0.0
 11
44.249999999999993
 21
29.354143466934829
 31
0.0
  0
LINE
  5
195
  8
DATA
 62
     7
 10
43.5
 20
28.01950746617274
 30
0.0
 11
43.712200880190672
 21
27.56656308688116
 31
0.0
  0
LINE
  5
196
  8
DATA
 62
     7
 10
50.5
 20
28.01950746617274
 30
0.0
 11
50.287799119809343
 21
27.56656308688116
 31
0.0
  0
CIRCLE
  5
197
  8
DATA
 62
     7
 10
47.0
 20
20.0
 30
0.0
 40
8.75
  0
LINE
  5
198
  8
DATA
 62
     7
 10
45.75
 20
30.75
 30
0.0
 11
48.25
 21
30.75
 31
0.0
  0
LINE
  5
199
  8
DATA
 62
     7
 10
45.499999999999993
 20
28.75
 30
0.0
 11
48.5
 21
28.75
 31
0.0
  0
LINE
  5
19A
  8
DATA
 62
     7
 10
45.75
 20
30.75
 30
0.0
 11
45.499999999999993
 21
28.75
 31
0.0
  0
LINE
  5
19B
  8
DATA
 62
     7
 10
48.25
 20
30.75
 30
0.0
 11
48.5
 21
28.75
 31
0.0
  0
POLYLINE
  5
19C
  8
DATA
 62
     7
 66
     1
 10
0.0
 20
0.0
 30
0.0
 70
     1
  0
VERTEX
  5
B85
  8
DATA
 62
     7
 10
45.0
 20
11.0
 30
0.0
  0
VERTEX
  5
B86
  8
DATA
 62
     7
 10
49.0
 20
11.0
 30
0.0
  0
VERTEX
  5
B87
  8
DATA
 62
     7
 10
49.0
 20
10.0
 30
0.0
  0
VERTEX
  5
B88
  8
DATA
 62
     7
 10
45.0
 20
10.0
 30
0.0
  0
SEQEND
  5
B89
  8
DATA
 62
     7
  0
POLYLINE
  5
1A2
  8
DATA
 62
     7
 66
     1
 10
0.0
 20
0.0
 30
0.0
 70
     1
  0
VERTEX
  5
B8A
  8
DATA
 62
     7
 10
55.794228634059877
 20
22.76794919243105
 30
0.0
  0
VERTEX
  5
B8B
  8
DATA
 62
     7
 10
53.794228634059877
 20
26.232050807568839
 30
0.0
  0
VERTEX
  5
B8C
  8
DATA
 62
     7
 10
54.660254037844382
 20
26.732050807568839
 30
0.0
  0
VERTEX
  5
B8D
  8
DATA
 62
     7
 10
56.660254037844382
 20
23.26794919243105
 30
0.0
  0
SEQEND
  5
B8E
  8
DATA
 62
     7
  0
POLYLINE
  5
1A8
  8
DATA
 62
     7
 66
     1
 10
0.0
 20
0.0
 30
0.0
 70
     1
  0
VERTEX
  5
B8F
  8
DATA
 62
     7
 10
40.205771365940173
 20
26.2320508075689
 30
0.0
  0
VERTEX
  5
B90
  8
DATA
 62
     7
 10
38.205771365940052
 20
22.767949192431111
 30
0.0
  0
VERTEX
  5
B91
  8
DATA
 62
     7
 10
37.339745962155632
 20
23.267949192431111
 30
0.0
  0
VERTEX
  5
B92
  8
DATA
 62
     7
 10
39.339745962155682
 20
26.732050807568889
 30
0.0
  0
SEQEND
  5
B93
  8
DATA
 62
     7
  0
CIRCLE
  5
1AE
  8
DATA
 62
     7
 10
74.0
 20
20.0
 30
0.0
 40
11.75
  0
ARC
  5
1AF
  8
DATA
 62
     7
 10
74.0
 20
20.0
 30
0.0
 40
9.7499999999999591
 50
163.34236379708739
 51
256.6576362029117
  0
ARC
  5
1B0
  8
DATA
 62
     7
 10
74.0
 20
20.0
 30
0.0
 40
9.7499999999999485
 50
283.3423637970883
 51
16.65763620290954
  0
ARC
  5
1B1
  8
DATA
 62
     7
 10
74.0
 20
20.0
 30
0.0
 40
9.7499999999999201
 50
43.34236379709133
 51
73.617330145899061
  0
ARC
  5
1B2
  8
DATA
 62
     7
 10
74.0
 20
20.0
 30
0.0
 40
9.7499999999999201
 50
106.3826698541009
 51
136.65763620291241
  0
CIRCLE
  5
1B3
  8
DATA
 62
     7
 10
74.0
 20
20.0
 30
0.0
 40
8.25
  0
CIRCLE
  5
1B4
  8
DATA
 62
     7
 10
78.0
 20
20.0
 30
0.0
 40
1.249999999999948
  0
CIRCLE
  5
1B5
  8
DATA
 62
     7
 10
70.0
 20
20.0
 30
0.0
 40
1.2499999999999409
  0
CIRCLE
  5
1B6
  8
DATA
 62
     7
 10
74.0
 20
16.0
 30
0.0
 40
1.2499999999999829
  0
LINE
  5
1B7
  8
DATA
 62
     7
 10
71.75
 20
9.0
 30
0.0
 11
71.75
 21
10.51316701949486
 31
0.0
  0
LINE
  5
1B8
  8
DATA
 62
     7
 10
76.25
 20
9.0
 30
0.0
 11
76.25
 21
10.51316701949486
 31
0.0
  0
ARC
  5
1B9
  8
DATA
 62
     7
 10
74.0
 20
20.0
 30
0.0
 40
11.22775578644281
 50
258.4398692057822
 51
281.56013079421768
  0
LINE
  5
1BA
  8
DATA
 62
     7
 10
84.651279441628731
 20
23.551442841485031
 30
0.0
 11
83.340838362577415
 21
22.794859331737602
 31
0.0
  0
LINE
  5
1BB
  8
DATA
 62
     7
 10
82.401279441628731
 20
27.448557158514969
 30
0.0
 11
81.090838362577415
 21
26.691973648767551
 31
0.0
  0
ARC
  5
1BC
  8
DATA
 62
     7
 10
73.999999999999872
 20
20.0
 30
0.0
 40
11.227755786442829
 50
18.439869205782269
 51
41.560130794217642
  0
LINE
  5
1BD
  8
DATA
 62
     7
 10
65.598720558370985
 20
27.448557158514969
 30
0.0
 11
66.909161637422301
 21
26.691973648767551
 31
0.0
  0
LINE
  5
1BE
  8
DATA
 62
     7
 10
63.348720558370978
 20
23.551442841485031
 30
0.0
 11
64.659161637422301
 21
22.794859331737602
 31
0.0
  0
ARC
  5
1BF
  8
DATA
 62
     7
 10
73.999999999999787
 20
20.0
 30
0.0
 40
11.227755786442771
 50
138.43986920578209
 51
161.5601307942176
  0
LINE
  5
1C0
  8
DATA
 62
     7
 10
78.0
 20
31.048189896992199
 30
0.0
 11
78.0
 21
29.97810102173753
 31
0.0
  0
LINE
  5
1C1
  8
DATA
 62
     7
 10
70.0
 20
31.048189896992199
 30
0.0
 11
70.0
 21
29.97810102173753
 31
0.0
  0
ARC
  5
1C2
  8
DATA
 62
     7
 10
74.0
 20
20.0
 30
0.0
 40
10.74999999999998
 50
68.15524251423669
 51
75.17817893794988
  0
ARC
  5
1C3
  8
DATA
 62
     7
 10
74.0
 20
20.0
 30
0.0
 40
10.75
 50
104.82182106205011
 51
111.8447574857633
  0
LINE
  5
1C4
  8
DATA
 62
     7
 10
76.75
 20
30.39230484541326
 30
0.0
 11
76.75
 21
29.354143466934829
 31
0.0
  0
LINE
  5
1C5
  8
DATA
 62
     7
 10
71.25
 20
30.39230484541326
 30
0.0
 11
71.25
 21
29.354143466934829
 31
0.0
  0
LINE
  5
1C6
  8
DATA
 62
     7
 10
70.5
 20
28.01950746617274
 30
0.0
 11
70.712200880190665
 21
27.56656308688116
 31
0.0
  0
LINE
  5
1C7
  8
DATA
 62
     7
 10
77.5
 20
28.01950746617274
 30
0.0
 11
77.287799119809335
 21
27.56656308688116
 31
0.0
  0
CIRCLE
  5
1C8
  8
DATA
 62
     7
 10
74.0
 20
20.0
 30
0.0
 40
8.75
  0
LINE
  5
1C9
  8
DATA
 62
     7
 10
72.75
 20
30.75
 30
0.0
 11
75.25
 21
30.75
 31
0.0
  0
LINE
  5
1CA
  8
DATA
 62
     7
 10
72.5
 20
28.75
 30
0.0
 11
75.5
 21
28.75
 31
0.0
  0
LINE
  5
1CB
  8
DATA
 62
     7
 10
72.75
 20
30.75
 30
0.0
 11
72.5
 21
28.75
 31
0.0
  0
LINE
  5
1CC
  8
DATA
 62
     7
 10
75.25
 20
30.75
 30
0.0
 11
75.5
 21
28.75
 31
0.0
  0
POLYLINE
  5
1CD
  8
DATA
 62
     7
 66
     1
 10
0.0
 20
0.0
 30
0.0
 70
     1
  0
VERTEX
  5
B94
  8
DATA
 62
     7
 10
72.0
 20
11.0
 30
0.0
  0
VERTEX
  5
B95
  8
DATA
 62
     7
 10
76.0
 20
11.0
 30
0.0
  0
VERTEX
  5
B96
  8
DATA
 62
     7
 10
76.0
 20
10.0
 30
0.0
  0
VERTEX
  5
B97
  8
DATA
 62
     7
 10
72.0
 20
10.0
 30
0.0
  0
SEQEND
  5
B98
  8
DATA
 62
     7
  0
POLYLINE
  5
1D3
  8
DATA
 62
     7
 66
     1
 10
0.0
 20
0.0
 30
0.0
 70
     1
  0
VERTEX
  5
B99
  8
DATA
 62
     7
 10
82.794228634059877
 20
22.76794919243105
 30
0.0
  0
VERTEX
  5
B9A
  8
DATA
 62
     7
 10
80.794228634059891
 20
26.232050807568839
 30
0.0
  0
VERTEX
  5
B9B
  8
DATA
 62
     7
 10
81.660254037844339
 20
26.732050807568839
 30
0.0
  0
VERTEX
  5
B9C
  8
DATA
 62
     7
 10
83.660254037844325
 20
23.26794919243105
 30
0.0
  0
SEQEND
  5
B9D
  8
DATA
 62
     7
  0
POLYLINE
  5
1D9
  8
DATA
 62
     7
 66
     1
 10
0.0
 20
0.0
 30
0.0
 70
     1
  0
VERTEX
  5
B9E
  8
DATA
 62
     7
 10
67.205771365940166
 20
26.2320508075689
 30
0.0
  0
VERTEX
  5
B9F
  8
DATA
 62
     7
 10
65.205771365940052
 20
22.767949192431111
 30
0.0
  0
VERTEX
  5
BA0
  8
DATA
 62
     7
 10
64.339745962155632
 20
23.267949192431111
 30
0.0
  0
VERTEX
  5
BA1
  8
DATA
 62
     7
 10
66.339745962155689
 20
26.732050807568889
 30
0.0
  0
SEQEND
  5
BA2
  8
DATA
 62
     7
  0
POLYLINE
  5
1DF
  8
DATA
 62
     7
 66
     1
 10
0.0
 20
0.0
 30
0.0
 70
     1
  0
VERTEX
  5
BA3
  8
DATA
 62
     7
 10
92.0
 20
34.5
 30
0.0
  0
VERTEX
  5
BA4
  8
DATA
 62
     7
 10
97.0
 20
34.5
 30
0.0
  0
VERTEX
  5
BA5
  8
DATA
 62
     7
 10
97.0
 20
29.5
 30
0.0
  0
VERTEX
  5
BA6
  8
DATA
 62
     7
 10
92.0
 20
29.5
 30
0.0
  0
SEQEND
  5
BA7
  8
DATA
 62
     7
  0
POLYLINE
  5
1E5
  8
DATA
 62
     7
 66
     1
 10
0.0
 20
0.0
 30
0.0
 70
     1
  0
VERTEX
  5
BA8
  8
DATA
 62
     7
 10
92.0
 20
15.5
 30
0.0
  0
VERTEX
  5
BA9
  8
DATA
 62
     7
 10
97.0
 20
15.5
 30
0.0
  0
VERTEX
  5
BAA
  8
DATA
 62
     7
 10
97.0
 20
10.5
 30
0.0
  0
VERTEX
  5
BAB
  8
DATA
 62
     7
 10
92.0
 20
10.5
 30
0.0
  0
SEQEND
  5
BAC
  8
DATA
 62
     7
  0
POLYLINE
  5
1EB
  8
DATA
 62
     7
 66
     1
 10
0.0
 20
0.0
 30
0.0
 70
     1
  0
VERTEX
  5
BAD
  8
DATA
 62
     7
 10
93.0
 20
9.0
 30
0.0
  0
VERTEX
  5
BAE
  8
DATA
 62
     7
 10
95.999999999999943
 20
9.0
 30
0.0
  0
VERTEX
  5
BAF
  8
DATA
 62
     7
 10
95.999999999999943
 20
6.0
 30
0.0
  0
VERTEX
  5
BB0
  8
DATA
 62
     7
 10
93.0
 20
6.0
 30
0.0
  0
SEQEND
  5
BB1
  8
DATA
 62
     7
  0
POLYLINE
  5
1F1
  8
DATA
 62
     7
 66
     1
 10
0.0
 20
0.0
 30
0.0
 70
     1
  0
VERTEX
  5
BB2
  8
DATA
 62
     7
 10
105.5
 20
15.5
 30
0.0
  0
VERTEX
  5
BB3
  8
DATA
 62
     7
 10
110.5
 20
15.5
 30
0.0
  0
VERTEX
  5
BB4
  8
DATA
 62
     7
 10
110.5
 20
10.5
 30
0.0
  0
VERTEX
  5
BB5
  8
DATA
 62
     7
 10
105.5
 20
10.5
 30
0.0
  0
SEQEND
  5
BB6
  8
DATA
 62
     7
  0
POLYLINE
  5
1F7
  8
DATA
 62
     7
 66
     1
 10
0.0
 20
0.0
 30
0.0
 70
     1
  0
VERTEX
  5
BB7
  8
DATA
 62
     7
 10
121.0
 20
9.0
 30
0.0
  0
VERTEX
  5
BB8
  8
DATA
 62
     7
 10
124.0
 20
9.0
 30
0.0
  0
VERTEX
  5
BB9
  8
DATA
 62
     7
 10
124.0
 20
6.0
 30
0.0
  0
VERTEX
  5
BBA
  8
DATA
 62
     7
 10
121.0
 20
6.0
 30
0.0
  0
SEQEND
  5
BBB
  8
DATA
 62
     7
  0
CIRCLE
  5
1FD
  8
DATA
 62
     7
 10
122.5
 20
14.0
 30
0.0
 40
3.0000000000000009
  0
LINE
  5
1FE
  8
DATA
 62
     7
 10
123.6401967132178
 20
11.22512136208371
 30
0.0
 11
120.66698296375461
 21
16.37487863791619
 31
0.0
  0
LINE
  5
1FF
  8
DATA
 62
     7
 10
124.33301703624529
 20
11.625121362083741
 30
0.0
 11
121.3598032867822
 21
16.774878637916231
 31
0.0
  0
POLYLINE
  5
200
  8
DATA
 62
     7
 66
     1
 10
0.0
 20
0.0
 30
0.0
 70
     1
  0
VERTEX
  5
BBC
  8
DATA
 62
     7
 10
122.25
 20
18.0
 30
0.0
  0
VERTEX
  5
BBD
  8
DATA
 62
     7
 10
122.75
 20
18.0
 30
0.0
  0
VERTEX
  5
BBE
  8
DATA
 62
     7
 10
122.75
 20
17.0
 30
0.0
  0
VERTEX
  5
BBF
  8
DATA
 62
     7
 10
122.25
 20
17.0
 30
0.0
  0
SEQEND
  5
BC0
  8
DATA
 62
     7
  0
POLYLINE
  5
206
  8
DATA
 62
     7
 66
     1
 10
0.0
 20
0.0
 30
0.0
 70
     1
  0
VERTEX
  5
BC1
  8
DATA
 62
     7
 10
120.2834936490539
 20
17.339101615137729
 30
0.0
  0
VERTEX
  5
BC2
  8
DATA
 62
     7
 10
120.7165063509461
 20
17.589101615137729
 30
0.0
  0
VERTEX
  5
BC3
  8
DATA
 62
     7
 10
121.2165063509461
 20
16.723076211353309
 30
0.0
  0
VERTEX
  5
BC4
  8
DATA
 62
     7
 10
120.7834936490539
 20
16.473076211353309
 30
0.0
  0
SEQEND
  5
BC5
  8
DATA
 62
     7
  0
POLYLINE
  5
20C
  8
DATA
 62
     7
 66
     1
 10
0.0
 20
0.0
 30
0.0
 70
     1
  0
VERTEX
  5
BC6
  8
DATA
 62
     7
 10
118.91089838486219
 20
15.78349364905387
 30
0.0
  0
VERTEX
  5
BC7
  8
DATA
 62
     7
 10
119.16089838486219
 20
16.216506350946069
 30
0.0
  0
VERTEX
  5
BC8
  8
DATA
 62
     7
 10
120.0269237886466
 20
15.716506350946069
 30
0.0
  0
VERTEX
  5
BC9
  8
DATA
 62
     7
 10
119.7769237886467
 20
15.28349364905387
 30
0.0
  0
SEQEND
  5
BCA
  8
DATA
 62
     7
  0
POLYLINE
  5
212
  8
DATA
 62
     7
 66
     1
 10
0.0
 20
0.0
 30
0.0
 70
     1
  0
VERTEX
  5
BCB
  8
DATA
 62
     7
 10
124.2834936490539
 20
17.589101615137729
 30
0.0
  0
VERTEX
  5
BCC
  8
DATA
 62
     7
 10
124.7165063509461
 20
17.339101615137729
 30
0.0
  0
VERTEX
  5
BCD
  8
DATA
 62
     7
 10
124.2165063509461
 20
16.473076211353309
 30
0.0
  0
VERTEX
  5
BCE
  8
DATA
 62
     7
 10
123.7834936490539
 20
16.723076211353309
 30
0.0
  0
SEQEND
  5
BCF
  8
DATA
 62
     7
  0
POLYLINE
  5
218
  8
DATA
 62
     7
 66
     1
 10
0.0
 20
0.0
 30
0.0
 70
     1
  0
VERTEX
  5
BD0
  8
DATA
 62
     7
 10
125.83910161513769
 20
16.21650635094613
 30
0.0
  0
VERTEX
  5
BD1
  8
DATA
 62
     7
 10
126.08910161513769
 20
15.783493649053931
 30
0.0
  0
VERTEX
  5
BD2
  8
DATA
 62
     7
 10
125.2230762113533
 20
15.28349364905392
 30
0.0
  0
VERTEX
  5
BD3
  8
DATA
 62
     7
 10
124.9730762113533
 20
15.71650635094613
 30
0.0
  0
SEQEND
  5
BD4
  8
DATA
 62
     7
  0
POLYLINE
  5
21E
  8
DATA
 62
     7
 66
     1
 10
0.0
 20
0.0
 30
0.0
 70
     1
  0
VERTEX
  5
BD5
  8
DATA
 62
     7
 10
121.0
 20
38.0
 30
0.0
  0
VERTEX
  5
BD6
  8
DATA
 62
     7
 10
124.0
 20
38.0
 30
0.0
  0
VERTEX
  5
BD7
  8
DATA
 62
     7
 10
124.0
 20
35.0
 30
0.0
  0
VERTEX
  5
BD8
  8
DATA
 62
     7
 10
121.0
 20
35.0
 30
0.0
  0
SEQEND
  5
BD9
  8
DATA
 62
     7
  0
TEXT
  5
224
  8
DATA
 62
     7
 10
41.500000337759673
 20
33.299999999999997
 30
0.0
 40
3.2000000000000002
  1
FEED 1
 41
0.8
 11
41.500000337759673
 21
36.5
 31
0.0
 73
     3
  0
TEXT
  5
225
  8
DATA
 62
     7
 10
68.5
 20
33.299999999999997
 30
0.0
 40
3.2000000000000002
  1
FEED 2
 41
0.8
 11
68.5
 21
36.5
 31
0.0
 73
     3
  0
TEXT
  5
226
  8
DATA
 62
     7
 10
89.507812539736577
 20
25.420486111111089
 30
0.0
 40
2.7999999999999998
  1
LISTEN
 41
0.8
 11
89.507812539736577
 21
28.220486111111089
 31
0.0
 73
     3
  0
TEXT
  5
227
  8
DATA
 62
     7
 10
88.4409722222222
 20
17.148784722222281
 30
0.0
 40
2.7999999999999998
  1
PHANTOM
 41
0.8
 11
88.4409722222222
 21
19.948784722222278
 31
0.0
 73
     3
  0
TEXT
  5
228
  8
DATA
 62
     7
 10
102.5
 20
21.199999999999999
 30
0.0
 40
2.7999999999999998
  1
LINE
 41
0.8
 11
102.5
 21
24.0
 31
0.0
 73
     3
  0
TEXT
  5
229
  8
DATA
 62
     7
 10
102.5
 20
17.300000000000001
 30
0.0
 40
2.2000000000000002
  1
20dB PAD
 41
0.8
 11
102.5
 21
19.5
 31
0.0
 73
     3
  0
LINE
  5
22A
  8
DATA
 62
     7
 10
110.75
 20
21.25
 30
0.0
 11
113.25
 21
21.25
 31
0.0
  0
POLYLINE
  5
22B
  8
DATA
 62
     7
 66
     1
 10
0.0
 20
0.0
 30
0.0
 70
     1
  0
VERTEX
  5
BDA
  8
DATA
 62
     7
 10
111.25
 20
22.75
 30
0.0
  0
VERTEX
  5
BDB
  8
DATA
 62
     7
 10
112.75
 20
22.75
 30
0.0
  0
VERTEX
  5
BDC
  8
DATA
 62
     7
 10
112.75
 20
21.25
 30
0.0
  0
VERTEX
  5
BDD
  8
DATA
 62
     7
 10
111.25
 20
21.25
 30
0.0
  0
SEQEND
  5
BDE
  8
DATA
 62
     7
  0
TEXT
  5
231
  8
DATA
 62
     7
 10
102.5
 20
6.1999999999999993
 30
0.0
 40
2.7999999999999998
  1
MIC
 41
0.8
 11
102.5
 21
9.0
 31
0.0
 73
     3
  0
LINE
  5
232
  8
DATA
 62
     7
 10
110.75
 20
6.25
 30
0.0
 11
113.25
 21
6.25
 31
0.0
  0
POLYLINE
  5
233
  8
DATA
 62
     7
 66
     1
 10
0.0
 20
0.0
 30
0.0
 70
     1
  0
VERTEX
  5
BDF
  8
DATA
 62
     7
 10
111.25
 20
6.75
 30
0.0
  0
VERTEX
  5
BE0
  8
DATA
 62
     7
 10
112.75
 20
6.75
 30
0.0
  0
VERTEX
  5
BE1
  8
DATA
 62
     7
 10
112.75
 20
6.25
 30
0.0
  0
VERTEX
  5
BE2
  8
DATA
 62
     7
 10
111.25
 20
6.25
 30
0.0
  0
SEQEND
  5
BE3
  8
DATA
 62
     7
  0
TEXT
  5
239
  8
DATA
 62
     7
 10
121.1929253472222
 20
18.696831597221941
 30
0.0
 40
2.0
  1
10
 41
0.8
 11
121.1929253472222
 21
20.696831597221941
 31
0.0
 73
     3
  0
TEXT
  5
23A
  8
DATA
 62
     7
 10
124.6929253472222
 20
18.196831597221941
 30
0.0
 40
2.0
  1
20
 41
0.8
 11
124.6929253472222
 21
20.196831597221951
 31
0.0
 73
     3
  0
TEXT
  5
23B
  8
DATA
 62
     7
 10
126.3858506944444
 20
15.476345486110629
 30
0.0
 40
2.0
  1
30
 41
0.8
 11
126.3858506944444
 21
17.476345486110631
 31
0.0
 73
     3
  0
TEXT
  5
23C
  8
DATA
 62
     7
 10
126.3858506944444
 20
12.976345486110629
 30
0.0
 40
2.0
  1
dB
 41
0.8
 11
126.3858506944444
 21
14.976345486110629
 31
0.0
 73
     3
  0
TEXT
  5
23D
  8
DATA
 62
     7
 10
118.919270798564
 20
18.196831597221941
 30
0.0
 40
2.0
  1
0
 41
0.8
 11
118.919270798564
 21
20.196831597221951
 31
0.0
 73
     3
  0
TEXT
  5
23E
  8
DATA
 62
     7
 10
114.8858506944444
 20
15.692851837056709
 30
0.0
 40
2.0
  1
-10
 41
0.8
 11
114.8858506944444
 21
17.692851837056711
 31
0.0
 73
     3
  0
TEXT
  5
23F
  8
DATA
 62
     7
 10
119.8858506944444
 20
3.4763454861106311
 30
0.0
 40
2.0
  1
CLIP
 41
0.8
 11
119.8858506944444
 21
5.4763454861106311
 31
0.0
 73
     3
  0
TEXT
  5
240
  8
DATA
 62
     7
 10
117.51333333333331
 20
31.800000000000001
 30
0.0
 40
2.2000000000000002
  1
REMOTE
 41
0.8
 72
     1
 11
122.5
 21
34.0
 31
0.0
 73
     3
  0
TEXT
  5
241
  8
DATA
 62
     7
 10
118.3933333333333
 20
29.050000000000001
 30
0.0
 40
2.2000000000000002
  1
ATTEN
 41
0.8
 72
     1
 11
122.5
 21
31.25
 31
0.0
 73
     3
  0
TEXT
  5
242
  8
DATA
 62
     7
 10
58.369999999999969
 20
9.1537760416671912
 30
0.0
 40
1.8
  1
PIN1
 41
0.8
 72
     1
 11
60.529999999999973
 21
10.95377604166719
 31
0.0
 73
     3
  0
TEXT
  5
243
  8
DATA
 62
     7
 10
56.449999999999967
 20
6.9037760416671974
 30
0.0
 40
1.8
  1
GROUND
 41
0.8
 72
     1
 11
60.529999999999973
 21
8.7037760416671972
 31
0.0
 73
     3
  0
TEXT
  5
244
  8
DATA
 62
     7
 10
56.689999999999962
 20
4.6537760416671974
 30
0.0
 40
1.8
  1
LIFTED
 41
0.8
 72
     1
 11
60.529999999999973
 21
6.4537760416671972
 31
0.0
 73
     3
  0
LINE
  5
245
  8
DATA
 62
     7
 10
55.002439236111059
 20
4.0
 30
0.0
 11
66.002439236111059
 21
4.0
 31
0.0
  0
LINE
  5
246
  8
DATA
 62
     7
 10
55.002439236111059
 20
4.0
 30
0.0
 11
56.445814909085179
 21
6.5
 31
0.0
  0
LINE
  5
247
  8
DATA
 62
     7
 10
59.332566255033377
 20
11.5
 30
0.0
 11
60.502439236111051
 21
13.52627944162861
 31
0.0
  0
LINE
  5
248
  8
DATA
 62
     7
 10
66.002439236111059
 20
4.0
 30
0.0
 11
64.559063563136931
 21
6.5
 31
0.0
  0
LINE
  5
249
  8
DATA
 62
     7
 10
61.672312217188782
 20
11.5
 30
0.0
 11
60.502439236111051
 21
13.52627944162861
 31
0.0
  0
LINE
  5
24A
  8
DATA
 62
     7
 10
32.0
 20
38.0
 30
0.0
 11
32.0
 21
4.5
 31
0.0
  0
LINE
  5
24B
  8
DATA
 62
     7
 10
130.5
 20
38.0
 30
0.0
 11
130.5
 21
4.5
 31
0.0
  0
LINE
  5
24C
  8
DATA
 62
     7
 10
34.0
 20
40.0
 30
0.0
 11
82.5
 21
40.0
 31
0.0
  0
LINE
  5
24D
  8
DATA
 62
     7
 10
114.5
 20
40.0
 30
0.0
 11
128.5
 21
40.0
 31
0.0
  0
LINE
  5
24E
  8
DATA
 62
     7
 10
34.0
 20
2.5
 30
0.0
 11
128.5
 21
2.5
 31
0.0
  0
LINE
  5
24F
  8
DATA
 62
     7
 10
82.5
 20
41.5
 30
0.0
 11
82.5
 21
38.5
 31
0.0
  0
LINE
  5
250
  8
DATA
 62
     7
 10
104.5
 20
41.5
 30
0.0
 11
104.5
 21
38.5
 31
0.0
  0
LINE
  5
251
  8
DATA
 62
     7
 10
104.5
 20
38.5
 30
0.0
 11
104.5
 21
33.5
 31
0.0
  0
LINE
  5
252
  8
DATA
 62
     7
 10
114.5
 20
41.5
 30
0.0
 11
114.5
 21
33.5
 31
0.0
  0
LINE
  5
253
  8
DATA
 62
     7
 10
105.5
 20
32.5
 30
0.0
 11
113.5
 21
32.5
 31
0.0
  0
LINE
  5
254
  8
DATA
 62
     7
 10
105.5
 20
42.5
 30
0.0
 11
113.5
 21
42.5
 31
0.0
  0
LINE
  5
255
  8
DATA
 62
     7
 10
83.499999999999986
 20
42.5
 30
0.0
 11
103.5
 21
42.5
 31
0.0
  0
LINE
  5
256
  8
DATA
 62
     7
 10
83.499999999999986
 20
37.5
 30
0.0
 11
103.5
 21
37.5
 31
0.0
  0
ARC
  5
257
  8
DATA
 62
     7
 10
34.0
 20
38.0
 30
0.0
 40
2.0
 50
90.0
 51
180.0
  0
ARC
  5
258
  8
DATA
 62
     7
 10
34.0
 20
4.5
 30
0.0
 40
2.0
 50
180.0
 51
270.0
  0
ARC
  5
259
  8
DATA
 62
     7
 10
128.5
 20
4.5
 30
0.0
 40
2.0
 50
270.0
 51
0.0
  0
ARC
  5
25A
  8
DATA
 62
     7
 10
128.5
 20
38.0
 30
0.0
 40
2.0
 50
0.0
 51
90.0
  0
ARC
  5
25B
  8
DATA
 62
     7
 10
83.499999999999986
 20
41.5
 30
0.0
 40
1.0
 50
90.0
 51
180.0
  0
ARC
  5
25C
  8
DATA
 62
     7
 10
83.499999999999986
 20
38.5
 30
0.0
 40
1.0
 50
180.0
 51
270.0
  0
ARC
  5
25D
  8
DATA
 62
     7
 10
113.5
 20
41.5
 30
0.0
 40
1.0
 50
0.0
 51
90.0
  0
ARC
  5
25E
  8
DATA
 62
     7
 10
113.5
 20
33.5
 30
0.0
 40
1.0
 50
270.0
 51
0.0
  0
ARC
  5
25F
  8
DATA
 62
     7
 10
105.5
 20
33.5
 30
0.0
 40
1.0
 50
180.0
 51
270.0
  0
ARC
  5
260
  8
DATA
 62
     7
 10
103.5
 20
41.5
 30
0.0
 40
1.0
 50
0.0
 51
90.0
  0
ARC
  5
261
  8
DATA
 62
     7
 10
103.5
 20
38.5
 30
0.0
 40
1.0
 50
270.0
 51
0.0
  0
ARC
  5
262
  8
DATA
 62
     7
 10
105.5
 20
41.5
 30
0.0
 40
1.0
 50
90.0
 51
180.0
  0
TEXT
  5
263
  8
DATA
 62
     7
 10
84.720486111111043
 20
38.634635416666683
 30
0.0
 40
3.2000000000000002
  1
CHANNEL 1
 41
0.8
 11
84.720486111111043
 21
41.834635416666679
 31
0.0
 73
     3
  0
TEXT
  5
264
  8
DATA
 62
     7
 10
118.9999999867545
 20
22.449999999999999
 30
0.0
 40
2.7999999999999998
  1
GAIN
 41
0.8
 11
118.9999999867545
 21
25.25
 31
0.0
 73
     3
  0
CIRCLE
  5
265
  8
DATA
 62
     7
 10
148.0
 20
20.0
 30
0.0
 40
11.75
  0
ARC
  5
266
  8
DATA
 62
     7
 10
148.0
 20
20.0
 30
0.0
 40
9.7499999999999591
 50
163.34236379708739
 51
256.6576362029117
  0
ARC
  5
267
  8
DATA
 62
     7
 10
148.0
 20
20.0
 30
0.0
 40
9.7499999999999485
 50
283.3423637970883
 51
16.65763620290948
  0
ARC
  5
268
  8
DATA
 62
     7
 10
148.0
 20
20.0
 30
0.0
 40
9.7499999999999201
 50
43.34236379709133
 51
73.617330145899061
  0
ARC
  5
269
  8
DATA
 62
     7
 10
148.0
 20
20.0
 30
0.0
 40
9.7499999999999201
 50
106.3826698541009
 51
136.65763620291241
  0
CIRCLE
  5
26A
  8
DATA
 62
     7
 10
148.0
 20
20.0
 30
0.0
 40
8.25
  0
CIRCLE
  5
26B
  8
DATA
 62
     7
 10
152.0
 20
20.0
 30
0.0
 40
1.249999999999948
  0
CIRCLE
  5
26C
  8
DATA
 62
     7
 10
144.0
 20
20.0
 30
0.0
 40
1.2499999999999409
  0
CIRCLE
  5
26D
  8
DATA
 62
     7
 10
148.0
 20
16.0
 30
0.0
 40
1.2499999999999829
  0
LINE
  5
26E
  8
DATA
 62
     7
 10
145.75
 20
9.0
 30
0.0
 11
145.75
 21
10.51316701949486
 31
0.0
  0
LINE
  5
26F
  8
DATA
 62
     7
 10
150.25
 20
9.0
 30
0.0
 11
150.25
 21
10.51316701949486
 31
0.0
  0
ARC
  5
270
  8
DATA
 62
     7
 10
148.0
 20
20.0
 30
0.0
 40
11.22775578644281
 50
258.4398692057822
 51
281.56013079421768
  0
LINE
  5
271
  8
DATA
 62
     7
 10
158.6512794416287
 20
23.551442841485031
 30
0.0
 11
157.34083836257739
 21
22.794859331737602
 31
0.0
  0
LINE
  5
272
  8
DATA
 62
     7
 10
156.4012794416287
 20
27.448557158514969
 30
0.0
 11
155.09083836257739
 21
26.691973648767551
 31
0.0
  0
ARC
  5
273
  8
DATA
 62
     7
 10
147.9999999999998
 20
20.0
 30
0.0
 40
11.227755786442829
 50
18.439869205782269
 51
41.560130794217642
  0
LINE
  5
274
  8
DATA
 62
     7
 10
139.59872055837101
 20
27.448557158514969
 30
0.0
 11
140.9091616374223
 21
26.691973648767551
 31
0.0
  0
LINE
  5
275
  8
DATA
 62
     7
 10
137.34872055837101
 20
23.551442841485031
 30
0.0
 11
138.6591616374223
 21
22.794859331737602
 31
0.0
  0
ARC
  5
276
  8
DATA
 62
     7
 10
147.99999999999969
 20
20.0
 30
0.0
 40
11.227755786442771
 50
138.43986920578209
 51
161.5601307942176
  0
LINE
  5
277
  8
DATA
 62
     7
 10
152.0
 20
31.048189896992199
 30
0.0
 11
152.0
 21
29.97810102173753
 31
0.0
  0
LINE
  5
278
  8
DATA
 62
     7
 10
144.0
 20
31.048189896992199
 30
0.0
 11
144.0
 21
29.97810102173753
 31
0.0
  0
ARC
  5
279
  8
DATA
 62
     7
 10
148.0
 20
20.0
 30
0.0
 40
10.74999999999998
 50
68.15524251423669
 51
75.17817893794988
  0
ARC
  5
27A
  8
DATA
 62
     7
 10
148.0
 20
20.0
 30
0.0
 40
10.75
 50
104.82182106205011
 51
111.8447574857633
  0
LINE
  5
27B
  8
DATA
 62
     7
 10
150.75
 20
30.39230484541326
 30
0.0
 11
150.75
 21
29.354143466934829
 31
0.0
  0
LINE
  5
27C
  8
DATA
 62
     7
 10
145.25
 20
30.39230484541326
 30
0.0
 11
145.25
 21
29.354143466934829
 31
0.0
  0
LINE
  5
27D
  8
DATA
 62
     7
 10
144.5
 20
28.01950746617274
 30
0.0
 11
144.71220088019069
 21
27.56656308688116
 31
0.0
  0
LINE
  5
27E
  8
DATA
 62
     7
 10
151.5
 20
28.01950746617274
 30
0.0
 11
151.28779911980931
 21
27.56656308688116
 31
0.0
  0
CIRCLE
  5
27F
  8
DATA
 62
     7
 10
148.0
 20
20.0
 30
0.0
 40
8.75
  0
LINE
  5
280
  8
DATA
 62
     7
 10
146.75
 20
30.75
 30
0.0
 11
149.25
 21
30.75
 31
0.0
  0
LINE
  5
281
  8
DATA
 62
     7
 10
146.5
 20
28.75
 30
0.0
 11
149.5
 21
28.75
 31
0.0
  0
LINE
  5
282
  8
DATA
 62
     7
 10
146.75
 20
30.75
 30
0.0
 11
146.5
 21
28.75
 31
0.0
  0
LINE
  5
283
  8
DATA
 62
     7
 10
149.25
 20
30.75
 30
0.0
 11
149.5
 21
28.75
 31
0.0
  0
POLYLINE
  5
284
  8
DATA
 62
     7
 66
     1
 10
0.0
 20
0.0
 30
0.0
 70
     1
  0
VERTEX
  5
BE4
  8
DATA
 62
     7
 10
146.0
 20
11.0
 30
0.0
  0
VERTEX
  5
BE5
  8
DATA
 62
     7
 10
150.0
 20
11.0
 30
0.0
  0
VERTEX
  5
BE6
  8
DATA
 62
     7
 10
150.0
 20
10.0
 30
0.0
  0
VERTEX
  5
BE7
  8
DATA
 62
     7
 10
146.0
 20
10.0
 30
0.0
  0
SEQEND
  5
BE8
  8
DATA
 62
     7
  0
POLYLINE
  5
28A
  8
DATA
 62
     7
 66
     1
 10
0.0
 20
0.0
 30
0.0
 70
     1
  0
VERTEX
  5
BE9
  8
DATA
 62
     7
 10
156.79422863405981
 20
22.76794919243105
 30
0.0
  0
VERTEX
  5
BEA
  8
DATA
 62
     7
 10
154.79422863405981
 20
26.232050807568839
 30
0.0
  0
VERTEX
  5
BEB
  8
DATA
 62
     7
 10
155.6602540378444
 20
26.732050807568839
 30
0.0
  0
VERTEX
  5
BEC
  8
DATA
 62
     7
 10
157.66025403784431
 20
23.26794919243105
 30
0.0
  0
SEQEND
  5
BED
  8
DATA
 62
     7
  0
POLYLINE
  5
290
  8
DATA
 62
     7
 66
     1
 10
0.0
 20
0.0
 30
0.0
 70
     1
  0
VERTEX
  5
BEE
  8
DATA
 62
     7
 10
141.20577136594011
 20
26.2320508075689
 30
0.0
  0
VERTEX
  5
BEF
  8
DATA
 62
     7
 10
139.20577136594
 20
22.767949192431111
 30
0.0
  0
VERTEX
  5
BF0
  8
DATA
 62
     7
 10
138.3397459621556
 20
23.267949192431111
 30
0.0
  0
VERTEX
  5
BF1
  8
DATA
 62
     7
 10
140.3397459621556
 20
26.732050807568889
 30
0.0
  0
SEQEND
  5
BF2
  8
DATA
 62
     7
  0
CIRCLE
  5
296
  8
DATA
 62
     7
 10
175.0
 20
20.0
 30
0.0
 40
11.75
  0
ARC
  5
297
  8
DATA
 62
     7
 10
175.0
 20
20.0
 30
0.0
 40
9.7499999999999591
 50
163.34236379708739
 51
256.6576362029117
  0
ARC
  5
298
  8
DATA
 62
     7
 10
175.0
 20
20.0
 30
0.0
 40
9.7499999999999485
 50
283.3423637970883
 51
16.65763620290948
  0
ARC
  5
299
  8
DATA
 62
     7
 10
175.0
 20
20.0
 30
0.0
 40
9.7499999999999201
 50
43.34236379709133
 51
73.617330145899061
  0
ARC
  5
29A
  8
DATA
 62
     7
 10
175.0
 20
20.0
 30
0.0
 40
9.7499999999999201
 50
106.3826698541009
 51
136.65763620291241
  0
CIRCLE
  5
29B
  8
DATA
 62
     7
 10
175.0
 20
20.0
 30
0.0
 40
8.25
  0
CIRCLE
  5
29C
  8
DATA
 62
     7
 10
179.0
 20
20.0
 30
0.0
 40
1.249999999999948
  0
CIRCLE
  5
29D
  8
DATA
 62
     7
 10
171.0
 20
20.0
 30
0.0
 40
1.2499999999999409
  0
CIRCLE
  5
29E
  8
DATA
 62
     7
 10
175.0
 20
16.0
 30
0.0
 40
1.2499999999999829
  0
LINE
  5
29F
  8
DATA
 62
     7
 10
172.75
 20
9.0
 30
0.0
 11
172.75
 21
10.51316701949486
 31
0.0
  0
LINE
  5
2A0
  8
DATA
 62
     7
 10
177.25
 20
9.0
 30
0.0
 11
177.25
 21
10.51316701949486
 31
0.0
  0
ARC
  5
2A1
  8
DATA
 62
     7
 10
175.0
 20
20.0
 30
0.0
 40
11.22775578644281
 50
258.4398692057822
 51
281.56013079421768
  0
LINE
  5
2A2
  8
DATA
 62
     7
 10
185.6512794416287
 20
23.551442841485031
 30
0.0
 11
184.34083836257739
 21
22.794859331737602
 31
0.0
  0
LINE
  5
2A3
  8
DATA
 62
     7
 10
183.4012794416287
 20
27.448557158514969
 30
0.0
 11
182.09083836257739
 21
26.691973648767551
 31
0.0
  0
ARC
  5
2A4
  8
DATA
 62
     7
 10
174.99999999999989
 20
20.0
 30
0.0
 40
11.227755786442829
 50
18.439869205782269
 51
41.560130794217642
  0
LINE
  5
2A5
  8
DATA
 62
     7
 10
166.59872055837101
 20
27.448557158514969
 30
0.0
 11
167.9091616374223
 21
26.691973648767551
 31
0.0
  0
LINE
  5
2A6
  8
DATA
 62
     7
 10
164.34872055837101
 20
23.551442841485031
 30
0.0
 11
165.6591616374223
 21
22.794859331737602
 31
0.0
  0
ARC
  5
2A7
  8
DATA
 62
     7
 10
174.99999999999969
 20
20.0
 30
0.0
 40
11.227755786442771
 50
138.43986920578209
 51
161.5601307942176
  0
LINE
  5
2A8
  8
DATA
 62
     7
 10
179.0
 20
31.048189896992199
 30
0.0
 11
179.0
 21
29.97810102173753
 31
0.0
  0
LINE
  5
2A9
  8
DATA
 62
     7
 10
171.0
 20
31.048189896992199
 30
0.0
 11
171.0
 21
29.97810102173753
 31
0.0
  0
ARC
  5
2AA
  8
DATA
 62
     7
 10
175.0
 20
20.0
 30
0.0
 40
10.74999999999998
 50
68.15524251423669
 51
75.17817893794988
  0
ARC
  5
2AB
  8
DATA
 62
     7
 10
175.0
 20
20.0
 30
0.0
 40
10.75
 50
104.82182106205011
 51
111.8447574857633
  0
LINE
  5
2AC
  8
DATA
 62
     7
 10
177.75
 20
30.39230484541326
 30
0.0
 11
177.75
 21
29.354143466934829
 31
0.0
  0
LINE
  5
2AD
  8
DATA
 62
     7
 10
172.25
 20
30.39230484541326
 30
0.0
 11
172.25
 21
29.354143466934829
 31
0.0
  0
LINE
  5
2AE
  8
DATA
 62
     7
 10
171.5
 20
28.01950746617274
 30
0.0
 11
171.71220088019061
 21
27.56656308688116
 31
0.0
  0
LINE
  5
2AF
  8
DATA
 62
     7
 10
178.5
 20
28.01950746617274
 30
0.0
 11
178.28779911980931
 21
27.56656308688116
 31
0.0
  0
CIRCLE
  5
2B0
  8
DATA
 62
     7
 10
175.0
 20
20.0
 30
0.0
 40
8.75
  0
LINE
  5
2B1
  8
DATA
 62
     7
 10
173.75
 20
30.75
 30
0.0
 11
176.25
 21
30.75
 31
0.0
  0
LINE
  5
2B2
  8
DATA
 62
     7
 10
173.5
 20
28.75
 30
0.0
 11
176.5
 21
28.75
 31
0.0
  0
LINE
  5
2B3
  8
DATA
 62
     7
 10
173.75
 20
30.75
 30
0.0
 11
173.5
 21
28.75
 31
0.0
  0
LINE
  5
2B4
  8
DATA
 62
     7
 10
176.25
 20
30.75
 30
0.0
 11
176.5
 21
28.75
 31
0.0
  0
POLYLINE
  5
2B5
  8
DATA
 62
     7
 66
     1
 10
0.0
 20
0.0
 30
0.0
 70
     1
  0
VERTEX
  5
BF3
  8
DATA
 62
     7
 10
173.0
 20
11.0
 30
0.0
  0
VERTEX
  5
BF4
  8
DATA
 62
     7
 10
177.0
 20
11.0
 30
0.0
  0
VERTEX
  5
BF5
  8
DATA
 62
     7
 10
177.0
 20
10.0
 30
0.0
  0
VERTEX
  5
BF6
  8
DATA
 62
     7
 10
173.0
 20
10.0
 30
0.0
  0
SEQEND
  5
BF7
  8
DATA
 62
     7
  0
POLYLINE
  5
2BB
  8
DATA
 62
     7
 66
     1
 10
0.0
 20
0.0
 30
0.0
 70
     1
  0
VERTEX
  5
BF8
  8
DATA
 62
     7
 10
183.79422863405989
 20
22.76794919243105
 30
0.0
  0
VERTEX
  5
BF9
  8
DATA
 62
     7
 10
181.79422863405981
 20
26.232050807568839
 30
0.0
  0
VERTEX
  5
BFA
  8
DATA
 62
     7
 10
182.6602540378444
 20
26.732050807568839
 30
0.0
  0
VERTEX
  5
BFB
  8
DATA
 62
     7
 10
184.6602540378444
 20
23.26794919243105
 30
0.0
  0
SEQEND
  5
BFC
  8
DATA
 62
     7
  0
POLYLINE
  5
2C1
  8
DATA
 62
     7
 66
     1
 10
0.0
 20
0.0
 30
0.0
 70
     1
  0
VERTEX
  5
BFD
  8
DATA
 62
     7
 10
168.20577136594011
 20
26.2320508075689
 30
0.0
  0
VERTEX
  5
BFE
  8
DATA
 62
     7
 10
166.20577136594
 20
22.767949192431111
 30
0.0
  0
VERTEX
  5
BFF
  8
DATA
 62
     7
 10
165.3397459621556
 20
23.267949192431111
 30
0.0
  0
VERTEX
  5
C00
  8
DATA
 62
     7
 10
167.33974596215569
 20
26.732050807568889
 30
0.0
  0
SEQEND
  5
C01
  8
DATA
 62
     7
  0
POLYLINE
  5
2C7
  8
DATA
 62
     7
 66
     1
 10
0.0
 20
0.0
 30
0.0
 70
     1
  0
VERTEX
  5
C02
  8
DATA
 62
     7
 10
193.0
 20
34.5
 30
0.0
  0
VERTEX
  5
C03
  8
DATA
 62
     7
 10
198.0
 20
34.5
 30
0.0
  0
VERTEX
  5
C04
  8
DATA
 62
     7
 10
198.0
 20
29.5
 30
0.0
  0
VERTEX
  5
C05
  8
DATA
 62
     7
 10
193.0
 20
29.5
 30
0.0
  0
SEQEND
  5
C06
  8
DATA
 62
     7
  0
POLYLINE
  5
2CD
  8
DATA
 62
     7
 66
     1
 10
0.0
 20
0.0
 30
0.0
 70
     1
  0
VERTEX
  5
C07
  8
DATA
 62
     7
 10
193.0
 20
15.5
 30
0.0
  0
VERTEX
  5
C08
  8
DATA
 62
     7
 10
198.0
 20
15.5
 30
0.0
  0
VERTEX
  5
C09
  8
DATA
 62
     7
 10
198.0
 20
10.5
 30
0.0
  0
VERTEX
  5
C0A
  8
DATA
 62
     7
 10
193.0
 20
10.5
 30
0.0
  0
SEQEND
  5
C0B
  8
DATA
 62
     7
  0
POLYLINE
  5
2D3
  8
DATA
 62
     7
 66
     1
 10
0.0
 20
0.0
 30
0.0
 70
     1
  0
VERTEX
  5
C0C
  8
DATA
 62
     7
 10
194.0
 20
9.0
 30
0.0
  0
VERTEX
  5
C0D
  8
DATA
 62
     7
 10
196.99999999999989
 20
9.0
 30
0.0
  0
VERTEX
  5
C0E
  8
DATA
 62
     7
 10
196.99999999999989
 20
6.0
 30
0.0
  0
VERTEX
  5
C0F
  8
DATA
 62
     7
 10
194.0
 20
6.0
 30
0.0
  0
SEQEND
  5
C10
  8
DATA
 62
     7
  0
POLYLINE
  5
2D9
  8
DATA
 62
     7
 66
     1
 10
0.0
 20
0.0
 30
0.0
 70
     1
  0
VERTEX
  5
C11
  8
DATA
 62
     7
 10
206.5
 20
15.5
 30
0.0
  0
VERTEX
  5
C12
  8
DATA
 62
     7
 10
211.5
 20
15.5
 30
0.0
  0
VERTEX
  5
C13
  8
DATA
 62
     7
 10
211.5
 20
10.5
 30
0.0
  0
VERTEX
  5
C14
  8
DATA
 62
     7
 10
206.5
 20
10.5
 30
0.0
  0
SEQEND
  5
C15
  8
DATA
 62
     7
  0
POLYLINE
  5
2DF
  8
DATA
 62
     7
 66
     1
 10
0.0
 20
0.0
 30
0.0
 70
     1
  0
VERTEX
  5
C16
  8
DATA
 62
     7
 10
222.00000000000011
 20
9.0
 30
0.0
  0
VERTEX
  5
C17
  8
DATA
 62
     7
 10
225.0
 20
9.0
 30
0.0
  0
VERTEX
  5
C18
  8
DATA
 62
     7
 10
225.0
 20
6.0
 30
0.0
  0
VERTEX
  5
C19
  8
DATA
 62
     7
 10
222.00000000000011
 20
6.0
 30
0.0
  0
SEQEND
  5
C1A
  8
DATA
 62
     7
  0
CIRCLE
  5
2E5
  8
DATA
 62
     7
 10
223.5
 20
14.0
 30
0.0
 40
3.0000000000000009
  0
LINE
  5
2E6
  8
DATA
 62
     7
 10
224.6401967132177
 20
11.22512136208371
 30
0.0
 11
221.66698296375461
 21
16.37487863791619
 31
0.0
  0
LINE
  5
2E7
  8
DATA
 62
     7
 10
225.33301703624531
 20
11.625121362083741
 30
0.0
 11
222.35980328678221
 21
16.774878637916231
 31
0.0
  0
POLYLINE
  5
2E8
  8
DATA
 62
     7
 66
     1
 10
0.0
 20
0.0
 30
0.0
 70
     1
  0
VERTEX
  5
C1B
  8
DATA
 62
     7
 10
223.25
 20
18.0
 30
0.0
  0
VERTEX
  5
C1C
  8
DATA
 62
     7
 10
223.75
 20
18.0
 30
0.0
  0
VERTEX
  5
C1D
  8
DATA
 62
     7
 10
223.75
 20
17.0
 30
0.0
  0
VERTEX
  5
C1E
  8
DATA
 62
     7
 10
223.25
 20
17.0
 30
0.0
  0
SEQEND
  5
C1F
  8
DATA
 62
     7
  0
POLYLINE
  5
2EE
  8
DATA
 62
     7
 66
     1
 10
0.0
 20
0.0
 30
0.0
 70
     1
  0
VERTEX
  5
C20
  8
DATA
 62
     7
 10
221.2834936490539
 20
17.339101615137729
 30
0.0
  0
VERTEX
  5
C21
  8
DATA
 62
     7
 10
221.7165063509461
 20
17.589101615137729
 30
0.0
  0
VERTEX
  5
C22
  8
DATA
 62
     7
 10
222.2165063509461
 20
16.723076211353309
 30
0.0
  0
VERTEX
  5
C23
  8
DATA
 62
     7
 10
221.7834936490539
 20
16.473076211353309
 30
0.0
  0
SEQEND
  5
C24
  8
DATA
 62
     7
  0
POLYLINE
  5
2F4
  8
DATA
 62
     7
 66
     1
 10
0.0
 20
0.0
 30
0.0
 70
     1
  0
VERTEX
  5
C25
  8
DATA
 62
     7
 10
219.91089838486229
 20
15.78349364905387
 30
0.0
  0
VERTEX
  5
C26
  8
DATA
 62
     7
 10
220.16089838486229
 20
16.216506350946069
 30
0.0
  0
VERTEX
  5
C27
  8
DATA
 62
     7
 10
221.02692378864671
 20
15.716506350946069
 30
0.0
  0
VERTEX
  5
C28
  8
DATA
 62
     7
 10
220.77692378864671
 20
15.28349364905387
 30
0.0
  0
SEQEND
  5
C29
  8
DATA
 62
     7
  0
POLYLINE
  5
2FA
  8
DATA
 62
     7
 66
     1
 10
0.0
 20
0.0
 30
0.0
 70
     1
  0
VERTEX
  5
C2A
  8
DATA
 62
     7
 10
225.2834936490539
 20
17.589101615137729
 30
0.0
  0
VERTEX
  5
C2B
  8
DATA
 62
     7
 10
225.7165063509461
 20
17.339101615137729
 30
0.0
  0
VERTEX
  5
C2C
  8
DATA
 62
     7
 10
225.2165063509461
 20
16.473076211353309
 30
0.0
  0
VERTEX
  5
C2D
  8
DATA
 62
     7
 10
224.7834936490539
 20
16.723076211353309
 30
0.0
  0
SEQEND
  5
C2E
  8
DATA
 62
     7
  0
POLYLINE
  5
300
  8
DATA
 62
     7
 66
     1
 10
0.0
 20
0.0
 30
0.0
 70
     1
  0
VERTEX
  5
C2F
  8
DATA
 62
     7
 10
226.83910161513771
 20
16.21650635094613
 30
0.0
  0
VERTEX
  5
C30
  8
DATA
 62
     7
 10
227.08910161513771
 20
15.783493649053931
 30
0.0
  0
VERTEX
  5
C31
  8
DATA
 62
     7
 10
226.2230762113532
 20
15.28349364905392
 30
0.0
  0
VERTEX
  5
C32
  8
DATA
 62
     7
 10
225.9730762113532
 20
15.71650635094613
 30
0.0
  0
SEQEND
  5
C33
  8
DATA
 62
     7
  0
POLYLINE
  5
306
  8
DATA
 62
     7
 66
     1
 10
0.0
 20
0.0
 30
0.0
 70
     1
  0
VERTEX
  5
C34
  8
DATA
 62
     7
 10
222.00000000000011
 20
38.0
 30
0.0
  0
VERTEX
  5
C35
  8
DATA
 62
     7
 10
225.0
 20
38.0
 30
0.0
  0
VERTEX
  5
C36
  8
DATA
 62
     7
 10
225.0
 20
35.0
 30
0.0
  0
VERTEX
  5
C37
  8
DATA
 62
     7
 10
222.00000000000011
 20
35.0
 30
0.0
  0
SEQEND
  5
C38
  8
DATA
 62
     7
  0
TEXT
  5
30C
  8
DATA
 62
     7
 10
142.50000033775959
 20
33.299999999999997
 30
0.0
 40
3.2000000000000002
  1
FEED 1
 41
0.8
 11
142.50000033775959
 21
36.5
 31
0.0
 73
     3
  0
TEXT
  5
30D
  8
DATA
 62
     7
 10
169.5
 20
33.299999999999997
 30
0.0
 40
3.2000000000000002
  1
FEED 2
 41
0.8
 11
169.5
 21
36.5
 31
0.0
 73
     3
  0
TEXT
  5
30E
  8
DATA
 62
     7
 10
190.50781253973651
 20
25.420486111111089
 30
0.0
 40
2.7999999999999998
  1
LISTEN
 41
0.8
 11
190.50781253973651
 21
28.220486111111089
 31
0.0
 73
     3
  0
TEXT
  5
30F
  8
DATA
 62
     7
 10
189.44097222222209
 20
17.148784722222281
 30
0.0
 40
2.7999999999999998
  1
PHANTOM
 41
0.8
 11
189.44097222222209
 21
19.948784722222278
 31
0.0
 73
     3
  0
TEXT
  5
310
  8
DATA
 62
     7
 10
203.5
 20
21.199999999999999
 30
0.0
 40
2.7999999999999998
  1
LINE
 41
0.8
 11
203.5
 21
24.0
 31
0.0
 73
     3
  0
TEXT
  5
311
  8
DATA
 62
     7
 10
203.5
 20
17.300000000000001
 30
0.0
 40
2.2000000000000002
  1
20dB PAD
 41
0.8
 11
203.5
 21
19.5
 31
0.0
 73
     3
  0
LINE
  5
312
  8
DATA
 62
     7
 10
211.75
 20
21.25
 30
0.0
 11
214.25
 21
21.25
 31
0.0
  0
POLYLINE
  5
313
  8
DATA
 62
     7
 66
     1
 10
0.0
 20
0.0
 30
0.0
 70
     1
  0
VERTEX
  5
C39
  8
DATA
 62
     7
 10
212.25
 20
22.75
 30
0.0
  0
VERTEX
  5
C3A
  8
DATA
 62
     7
 10
213.75
 20
22.75
 30
0.0
  0
VERTEX
  5
C3B
  8
DATA
 62
     7
 10
213.75
 20
21.25
 30
0.0
  0
VERTEX
  5
C3C
  8
DATA
 62
     7
 10
212.25
 20
21.25
 30
0.0
  0
SEQEND
  5
C3D
  8
DATA
 62
     7
  0
TEXT
  5
319
  8
DATA
 62
     7
 10
203.5
 20
6.1999999999999993
 30
0.0
 40
2.7999999999999998
  1
MIC
 41
0.8
 11
203.5
 21
9.0
 31
0.0
 73
     3
  0
LINE
  5
31A
  8
DATA
 62
     7
 10
211.75
 20
6.25
 30
0.0
 11
214.25
 21
6.25
 31
0.0
  0
POLYLINE
  5
31B
  8
DATA
 62
     7
 66
     1
 10
0.0
 20
0.0
 30
0.0
 70
     1
  0
VERTEX
  5
C3E
  8
DATA
 62
     7
 10
212.25
 20
6.75
 30
0.0
  0
VERTEX
  5
C3F
  8
DATA
 62
     7
 10
213.75
 20
6.75
 30
0.0
  0
VERTEX
  5
C40
  8
DATA
 62
     7
 10
213.75
 20
6.25
 30
0.0
  0
VERTEX
  5
C41
  8
DATA
 62
     7
 10
212.25
 20
6.25
 30
0.0
  0
SEQEND
  5
C42
  8
DATA
 62
     7
  0
TEXT
  5
321
  8
DATA
 62
     7
 10
222.1929253472222
 20
18.696831597221941
 30
0.0
 40
2.0
  1
10
 41
0.8
 11
222.1929253472222
 21
20.696831597221941
 31
0.0
 73
     3
  0
TEXT
  5
322
  8
DATA
 62
     7
 10
225.6929253472222
 20
18.196831597221941
 30
0.0
 40
2.0
  1
20
 41
0.8
 11
225.6929253472222
 21
20.196831597221951
 31
0.0
 73
     3
  0
TEXT
  5
323
  8
DATA
 62
     7
 10
227.3858506944444
 20
15.476345486110629
 30
0.0
 40
2.0
  1
30
 41
0.8
 11
227.3858506944444
 21
17.476345486110631
 31
0.0
 73
     3
  0
TEXT
  5
324
  8
DATA
 62
     7
 10
227.3858506944444
 20
12.976345486110629
 30
0.0
 40
2.0
  1
dB
 41
0.8
 11
227.3858506944444
 21
14.976345486110629
 31
0.0
 73
     3
  0
TEXT
  5
325
  8
DATA
 62
     7
 10
219.91927079856401
 20
18.196831597221941
 30
0.0
 40
2.0
  1
0
 41
0.8
 11
219.91927079856401
 21
20.196831597221951
 31
0.0
 73
     3
  0
TEXT
  5
326
  8
DATA
 62
     7
 10
215.8858506944444
 20
15.692851837056709
 30
0.0
 40
2.0
  1
-10
 41
0.8
 11
215.8858506944444
 21
17.692851837056711
 31
0.0
 73
     3
  0
TEXT
  5
327
  8
DATA
 62
     7
 10
220.8858506944444
 20
3.4763454861106311
 30
0.0
 40
2.0
  1
CLIP
 41
0.8
 11
220.8858506944444
 21
5.4763454861106311
 31
0.0
 73
     3
  0
TEXT
  5
328
  8
DATA
 62
     7
 10
218.51333333333329
 20
31.800000000000001
 30
0.0
 40
2.2000000000000002
  1
REMOTE
 41
0.8
 72
     1
 11
223.5
 21
34.0
 31
0.0
 73
     3
  0
TEXT
  5
329
  8
DATA
 62
     7
 10
219.39333333333329
 20
29.050000000000001
 30
0.0
 40
2.2000000000000002
  1
ATTEN
 41
0.8
 72
     1
 11
223.5
 21
31.25
 31
0.0
 73
     3
  0
TEXT
  5
32A
  8
DATA
 62
     7
 10
159.37
 20
9.1537760416671912
 30
0.0
 40
1.8
  1
PIN1
 41
0.8
 72
     1
 11
161.52999999999989
 21
10.95377604166719
 31
0.0
 73
     3
  0
TEXT
  5
32B
  8
DATA
 62
     7
 10
157.4499999999999
 20
6.9037760416671974
 30
0.0
 40
1.8
  1
GROUND
 41
0.8
 72
     1
 11
161.52999999999989
 21
8.7037760416671972
 31
0.0
 73
     3
  0
TEXT
  5
32C
  8
DATA
 62
     7
 10
157.69
 20
4.6537760416671974
 30
0.0
 40
1.8
  1
LIFTED
 41
0.8
 72
     1
 11
161.52999999999989
 21
6.4537760416671972
 31
0.0
 73
     3
  0
LINE
  5
32D
  8
DATA
 62
     7
 10
156.002439236111
 20
4.0
 30
0.0
 11
167.002439236111
 21
4.0
 31
0.0
  0
LINE
  5
32E
  8
DATA
 62
     7
 10
156.002439236111
 20
4.0
 30
0.0
 11
157.44581490908519
 21
6.5
 31
0.0
  0
LINE
  5
32F
  8
DATA
 62
     7
 10
160.33256625503341
 20
11.5
 30
0.0
 11
161.502439236111
 21
13.52627944162861
 31
0.0
  0
LINE
  5
330
  8
DATA
 62
     7
 10
167.002439236111
 20
4.0
 30
0.0
 11
165.5590635631369
 21
6.5
 31
0.0
  0
LINE
  5
331
  8
DATA
 62
     7
 10
162.67231221718879
 20
11.5
 30
0.0
 11
161.502439236111
 21
13.52627944162861
 31
0.0
  0
LINE
  5
332
  8
DATA
 62
     7
 10
133.0
 20
38.0
 30
0.0
 11
133.0
 21
4.5
 31
0.0
  0
LINE
  5
333
  8
DATA
 62
     7
 10
231.5
 20
38.0
 30
0.0
 11
231.5
 21
4.5
 31
0.0
  0
LINE
  5
334
  8
DATA
 62
     7
 10
135.0
 20
40.0
 30
0.0
 11
183.5
 21
40.0
 31
0.0
  0
LINE
  5
335
  8
DATA
 62
     7
 10
215.5
 20
40.0
 30
0.0
 11
229.5
 21
40.0
 31
0.0
  0
LINE
  5
336
  8
DATA
 62
     7
 10
135.0
 20
2.5
 30
0.0
 11
229.5
 21
2.5
 31
0.0
  0
LINE
  5
337
  8
DATA
 62
     7
 10
183.5
 20
41.5
 30
0.0
 11
183.5
 21
38.5
 31
0.0
  0
LINE
  5
338
  8
DATA
 62
     7
 10
205.5
 20
41.5
 30
0.0
 11
205.5
 21
38.5
 31
0.0
  0
LINE
  5
339
  8
DATA
 62
     7
 10
205.5
 20
38.5
 30
0.0
 11
205.5
 21
33.5
 31
0.0
  0
LINE
  5
33A
  8
DATA
 62
     7
 10
215.5
 20
41.5
 30
0.0
 11
215.5
 21
33.5
 31
0.0
  0
LINE
  5
33B
  8
DATA
 62
     7
 10
206.5
 20
32.5
 30
0.0
 11
214.5
 21
32.5
 31
0.0
  0
LINE
  5
33C
  8
DATA
 62
     7
 10
206.5
 20
42.5
 30
0.0
 11
214.5
 21
42.5
 31
0.0
  0
LINE
  5
33D
  8
DATA
 62
     7
 10
184.5
 20
42.5
 30
0.0
 11
204.5
 21
42.5
 31
0.0
  0
LINE
  5
33E
  8
DATA
 62
     7
 10
184.5
 20
37.5
 30
0.0
 11
204.5
 21
37.5
 31
0.0
  0
ARC
  5
33F
  8
DATA
 62
     7
 10
135.0
 20
38.0
 30
0.0
 40
2.0
 50
90.0
 51
180.0
  0
ARC
  5
340
  8
DATA
 62
     7
 10
135.0
 20
4.5
 30
0.0
 40
2.0
 50
180.0
 51
270.0
  0
ARC
  5
341
  8
DATA
 62
     7
 10
229.5
 20
4.5
 30
0.0
 40
2.0
 50
270.0
 51
0.0
  0
ARC
  5
342
  8
DATA
 62
     7
 10
229.5
 20
38.0
 30
0.0
 40
2.0
 50
0.0
 51
90.0
  0
ARC
  5
343
  8
DATA
 62
     7
 10
184.5
 20
41.5
 30
0.0
 40
1.0
 50
90.0
 51
180.0
  0
ARC
  5
344
  8
DATA
 62
     7
 10
184.5
 20
38.5
 30
0.0
 40
1.0
 50
180.0
 51
270.0
  0
ARC
  5
345
  8
DATA
 62
     7
 10
214.5
 20
41.5
 30
0.0
 40
1.0
 50
0.0
 51
90.0
  0
ARC
  5
346
  8
DATA
 62
     7
 10
214.5
 20
33.5
 30
0.0
 40
1.0
 50
270.0
 51
0.0
  0
ARC
  5
347
  8
DATA
 62
     7
 10
206.5
 20
33.5
 30
0.0
 40
1.0
 50
180.0
 51
270.0
  0
ARC
  5
348
  8
DATA
 62
     7
 10
204.5
 20
41.5
 30
0.0
 40
1.0
 50
0.0
 51
90.0
  0
ARC
  5
349
  8
DATA
 62
     7
 10
204.5
 20
38.5
 30
0.0
 40
1.0
 50
270.0
 51
0.0
  0
ARC
  5
34A
  8
DATA
 62
     7
 10
206.5
 20
41.5
 30
0.0
 40
1.0
 50
90.0
 51
180.0
  0
TEXT
  5
34B
  8
DATA
 62
     7
 10
185.72048611111109
 20
38.634635416666683
 30
0.0
 40
3.2000000000000002
  1
CHANNEL 2
 41
0.8
 11
185.72048611111109
 21
41.834635416666679
 31
0.0
 73
     3
  0
TEXT
  5
34C
  8
DATA
 62
     7
 10
219.99999998675449
 20
22.449999999999999
 30
0.0
 40
2.7999999999999998
  1
GAIN
 41
0.8
 11
219.99999998675449
 21
25.25
 31
0.0
 73
     3
  0
CIRCLE
  5
34D
  8
DATA
 62
     7
 10
249.0
 20
20.0
 30
0.0
 40
11.75
  0
ARC
  5
34E
  8
DATA
 62
     7
 10
249.0
 20
20.0
 30
0.0
 40
9.7499999999999591
 50
163.34236379708739
 51
256.6576362029117
  0
ARC
  5
34F
  8
DATA
 62
     7
 10
249.0
 20
20.0
 30
0.0
 40
9.7499999999999485
 50
283.3423637970883
 51
16.65763620290948
  0
ARC
  5
350
  8
DATA
 62
     7
 10
249.0
 20
20.0
 30
0.0
 40
9.7499999999999201
 50
43.34236379709133
 51
73.617330145899061
  0
ARC
  5
351
  8
DATA
 62
     7
 10
249.0
 20
20.0
 30
0.0
 40
9.7499999999999201
 50
106.3826698541009
 51
136.65763620291241
  0
CIRCLE
  5
352
  8
DATA
 62
     7
 10
249.0
 20
20.0
 30
0.0
 40
8.25
  0
CIRCLE
  5
353
  8
DATA
 62
     7
 10
253.0
 20
20.0
 30
0.0
 40
1.249999999999948
  0
CIRCLE
  5
354
  8
DATA
 62
     7
 10
245.0
 20
20.0
 30
0.0
 40
1.2499999999999409
  0
CIRCLE
  5
355
  8
DATA
 62
     7
 10
249.0
 20
16.0
 30
0.0
 40
1.2499999999999829
  0
LINE
  5
356
  8
DATA
 62
     7
 10
246.75
 20
9.0
 30
0.0
 11
246.75
 21
10.51316701949486
 31
0.0
  0
LINE
  5
357
  8
DATA
 62
     7
 10
251.25
 20
9.0
 30
0.0
 11
251.25
 21
10.51316701949486
 31
0.0
  0
ARC
  5
358
  8
DATA
 62
     7
 10
249.0
 20
20.0
 30
0.0
 40
11.22775578644281
 50
258.4398692057822
 51
281.56013079421768
  0
LINE
  5
359
  8
DATA
 62
     7
 10
259.65127944162879
 20
23.551442841485031
 30
0.0
 11
258.34083836257741
 21
22.794859331737602
 31
0.0
  0
LINE
  5
35A
  8
DATA
 62
     7
 10
257.40127944162879
 20
27.448557158514969
 30
0.0
 11
256.09083836257741
 21
26.691973648767551
 31
0.0
  0
ARC
  5
35B
  8
DATA
 62
     7
 10
248.99999999999989
 20
20.0
 30
0.0
 40
11.227755786442829
 50
18.439869205782269
 51
41.560130794217613
  0
LINE
  5
35C
  8
DATA
 62
     7
 10
240.59872055837101
 20
27.448557158514969
 30
0.0
 11
241.9091616374223
 21
26.691973648767551
 31
0.0
  0
LINE
  5
35D
  8
DATA
 62
     7
 10
238.34872055837101
 20
23.551442841485031
 30
0.0
 11
239.6591616374223
 21
22.794859331737602
 31
0.0
  0
ARC
  5
35E
  8
DATA
 62
     7
 10
248.99999999999969
 20
20.0
 30
0.0
 40
11.227755786442771
 50
138.43986920578209
 51
161.5601307942176
  0
LINE
  5
35F
  8
DATA
 62
     7
 10
253.0
 20
31.048189896992199
 30
0.0
 11
253.0
 21
29.97810102173753
 31
0.0
  0
LINE
  5
360
  8
DATA
 62
     7
 10
245.0
 20
31.048189896992199
 30
0.0
 11
245.0
 21
29.97810102173753
 31
0.0
  0
ARC
  5
361
  8
DATA
 62
     7
 10
249.0
 20
20.0
 30
0.0
 40
10.74999999999998
 50
68.15524251423669
 51
75.17817893794988
  0
ARC
  5
362
  8
DATA
 62
     7
 10
249.0
 20
20.0
 30
0.0
 40
10.75
 50
104.82182106205011
 51
111.8447574857634
  0
LINE
  5
363
  8
DATA
 62
     7
 10
251.75
 20
30.39230484541326
 30
0.0
 11
251.75
 21
29.354143466934829
 31
0.0
  0
LINE
  5
364
  8
DATA
 62
     7
 10
246.25
 20
30.39230484541326
 30
0.0
 11
246.25
 21
29.354143466934829
 31
0.0
  0
LINE
  5
365
  8
DATA
 62
     7
 10
245.5
 20
28.01950746617274
 30
0.0
 11
245.71220088019061
 21
27.56656308688116
 31
0.0
  0
LINE
  5
366
  8
DATA
 62
     7
 10
252.5
 20
28.01950746617274
 30
0.0
 11
252.28779911980931
 21
27.56656308688116
 31
0.0
  0
CIRCLE
  5
367
  8
DATA
 62
     7
 10
249.0
 20
20.0
 30
0.0
 40
8.75
  0
LINE
  5
368
  8
DATA
 62
     7
 10
247.75
 20
30.75
 30
0.0
 11
250.25
 21
30.75
 31
0.0
  0
LINE
  5
369
  8
DATA
 62
     7
 10
247.5
 20
28.75
 30
0.0
 11
250.5
 21
28.75
 31
0.0
  0
LINE
  5
36A
  8
DATA
 62
     7
 10
247.75
 20
30.75
 30
0.0
 11
247.5
 21
28.75
 31
0.0
  0
LINE
  5
36B
  8
DATA
 62
     7
 10
250.25
 20
30.75
 30
0.0
 11
250.5
 21
28.75
 31
0.0
  0
POLYLINE
  5
36C
  8
DATA
 62
     7
 66
     1
 10
0.0
 20
0.0
 30
0.0
 70
     1
  0
VERTEX
  5
C43
  8
DATA
 62
     7
 10
247.0
 20
11.0
 30
0.0
  0
VERTEX
  5
C44
  8
DATA
 62
     7
 10
251.0
 20
11.0
 30
0.0
  0
VERTEX
  5
C45
  8
DATA
 62
     7
 10
251.0
 20
10.0
 30
0.0
  0
VERTEX
  5
C46
  8
DATA
 62
     7
 10
247.0
 20
10.0
 30
0.0
  0
SEQEND
  5
C47
  8
DATA
 62
     7
  0
POLYLINE
  5
372
  8
DATA
 62
     7
 66
     1
 10
0.0
 20
0.0
 30
0.0
 70
     1
  0
VERTEX
  5
C48
  8
DATA
 62
     7
 10
257.79422863405989
 20
22.76794919243105
 30
0.0
  0
VERTEX
  5
C49
  8
DATA
 62
     7
 10
255.79422863405981
 20
26.232050807568839
 30
0.0
  0
VERTEX
  5
C4A
  8
DATA
 62
     7
 10
256.66025403784442
 20
26.732050807568839
 30
0.0
  0
VERTEX
  5
C4B
  8
DATA
 62
     7
 10
258.66025403784442
 20
23.26794919243105
 30
0.0
  0
SEQEND
  5
C4C
  8
DATA
 62
     7
  0
POLYLINE
  5
378
  8
DATA
 62
     7
 66
     1
 10
0.0
 20
0.0
 30
0.0
 70
     1
  0
VERTEX
  5
C4D
  8
DATA
 62
     7
 10
242.20577136594019
 20
26.2320508075689
 30
0.0
  0
VERTEX
  5
C4E
  8
DATA
 62
     7
 10
240.20577136594
 20
22.767949192431111
 30
0.0
  0
VERTEX
  5
C4F
  8
DATA
 62
     7
 10
239.3397459621556
 20
23.267949192431111
 30
0.0
  0
VERTEX
  5
C50
  8
DATA
 62
     7
 10
241.33974596215569
 20
26.732050807568889
 30
0.0
  0
SEQEND
  5
C51
  8
DATA
 62
     7
  0
CIRCLE
  5
37E
  8
DATA
 62
     7
 10
276.0
 20
20.0
 30
0.0
 40
11.75
  0
ARC
  5
37F
  8
DATA
 62
     7
 10
276.0
 20
20.0
 30
0.0
 40
9.7499999999999591
 50
163.34236379708739
 51
256.6576362029117
  0
ARC
  5
380
  8
DATA
 62
     7
 10
276.0
 20
20.0
 30
0.0
 40
9.7499999999999485
 50
283.3423637970883
 51
16.65763620290948
  0
ARC
  5
381
  8
DATA
 62
     7
 10
276.0
 20
20.0
 30
0.0
 40
9.7499999999999201
 50
43.34236379709133
 51
73.617330145899061
  0
ARC
  5
382
  8
DATA
 62
     7
 10
276.0
 20
20.0
 30
0.0
 40
9.7499999999999201
 50
106.3826698541009
 51
136.65763620291241
  0
CIRCLE
  5
383
  8
DATA
 62
     7
 10
276.0
 20
20.0
 30
0.0
 40
8.25
  0
CIRCLE
  5
384
  8
DATA
 62
     7
 10
280.0
 20
20.0
 30
0.0
 40
1.249999999999948
  0
CIRCLE
  5
385
  8
DATA
 62
     7
 10
272.0
 20
20.0
 30
0.0
 40
1.2499999999999409
  0
CIRCLE
  5
386
  8
DATA
 62
     7
 10
276.0
 20
16.0
 30
0.0
 40
1.2499999999999829
  0
LINE
  5
387
  8
DATA
 62
     7
 10
273.75
 20
9.0
 30
0.0
 11
273.75
 21
10.51316701949486
 31
0.0
  0
LINE
  5
388
  8
DATA
 62
     7
 10
278.25
 20
9.0
 30
0.0
 11
278.25
 21
10.51316701949486
 31
0.0
  0
ARC
  5
389
  8
DATA
 62
     7
 10
276.0
 20
20.0
 30
0.0
 40
11.22775578644281
 50
258.4398692057822
 51
281.56013079421768
  0
LINE
  5
38A
  8
DATA
 62
     7
 10
286.65127944162879
 20
23.551442841485031
 30
0.0
 11
285.34083836257741
 21
22.794859331737602
 31
0.0
  0
LINE
  5
38B
  8
DATA
 62
     7
 10
284.40127944162879
 20
27.448557158514969
 30
0.0
 11
283.09083836257741
 21
26.691973648767551
 31
0.0
  0
ARC
  5
38C
  8
DATA
 62
     7
 10
275.99999999999989
 20
20.0
 30
0.0
 40
11.227755786442829
 50
18.439869205782269
 51
41.560130794217613
  0
LINE
  5
38D
  8
DATA
 62
     7
 10
267.59872055837099
 20
27.448557158514969
 30
0.0
 11
268.9091616374223
 21
26.691973648767551
 31
0.0
  0
LINE
  5
38E
  8
DATA
 62
     7
 10
265.34872055837099
 20
23.551442841485031
 30
0.0
 11
266.6591616374223
 21
22.794859331737602
 31
0.0
  0
ARC
  5
38F
  8
DATA
 62
     7
 10
275.99999999999972
 20
20.0
 30
0.0
 40
11.227755786442771
 50
138.43986920578209
 51
161.5601307942176
  0
LINE
  5
390
  8
DATA
 62
     7
 10
280.0
 20
31.048189896992199
 30
0.0
 11
280.0
 21
29.97810102173753
 31
0.0
  0
LINE
  5
391
  8
DATA
 62
     7
 10
272.0
 20
31.048189896992199
 30
0.0
 11
272.0
 21
29.97810102173753
 31
0.0
  0
ARC
  5
392
  8
DATA
 62
     7
 10
276.0
 20
20.0
 30
0.0
 40
10.74999999999998
 50
68.15524251423669
 51
75.17817893794988
  0
ARC
  5
393
  8
DATA
 62
     7
 10
276.0
 20
20.0
 30
0.0
 40
10.75
 50
104.82182106205011
 51
111.8447574857634
  0
LINE
  5
394
  8
DATA
 62
     7
 10
278.75
 20
30.39230484541326
 30
0.0
 11
278.75
 21
29.354143466934829
 31
0.0
  0
LINE
  5
395
  8
DATA
 62
     7
 10
273.25
 20
30.39230484541326
 30
0.0
 11
273.25
 21
29.354143466934829
 31
0.0
  0
LINE
  5
396
  8
DATA
 62
     7
 10
272.5
 20
28.01950746617274
 30
0.0
 11
272.71220088019061
 21
27.56656308688116
 31
0.0
  0
LINE
  5
397
  8
DATA
 62
     7
 10
279.5
 20
28.01950746617274
 30
0.0
 11
279.28779911980928
 21
27.56656308688116
 31
0.0
  0
CIRCLE
  5
398
  8
DATA
 62
     7
 10
276.0
 20
20.0
 30
0.0
 40
8.75
  0
LINE
  5
399
  8
DATA
 62
     7
 10
274.75
 20
30.75
 30
0.0
 11
277.25
 21
30.75
 31
0.0
  0
LINE
  5
39A
  8
DATA
 62
     7
 10
274.5
 20
28.75
 30
0.0
 11
277.5
 21
28.75
 31
0.0
  0
LINE
  5
39B
  8
DATA
 62
     7
 10
274.75
 20
30.75
 30
0.0
 11
274.5
 21
28.75
 31
0.0
  0
LINE
  5
39C
  8
DATA
 62
     7
 10
277.25
 20
30.75
 30
0.0
 11
277.5
 21
28.75
 31
0.0
  0
POLYLINE
  5
39D
  8
DATA
 62
     7
 66
     1
 10
0.0
 20
0.0
 30
0.0
 70
     1
  0
VERTEX
  5
C52
  8
DATA
 62
     7
 10
274.0
 20
11.0
 30
0.0
  0
VERTEX
  5
C53
  8
DATA
 62
     7
 10
278.0
 20
11.0
 30
0.0
  0
VERTEX
  5
C54
  8
DATA
 62
     7
 10
278.0
 20
10.0
 30
0.0
  0
VERTEX
  5
C55
  8
DATA
 62
     7
 10
274.0
 20
10.0
 30
0.0
  0
SEQEND
  5
C56
  8
DATA
 62
     7
  0
POLYLINE
  5
3A3
  8
DATA
 62
     7
 66
     1
 10
0.0
 20
0.0
 30
0.0
 70
     1
  0
VERTEX
  5
C57
  8
DATA
 62
     7
 10
284.79422863405989
 20
22.76794919243105
 30
0.0
  0
VERTEX
  5
C58
  8
DATA
 62
     7
 10
282.79422863405989
 20
26.232050807568839
 30
0.0
  0
VERTEX
  5
C59
  8
DATA
 62
     7
 10
283.66025403784442
 20
26.732050807568839
 30
0.0
  0
VERTEX
  5
C5A
  8
DATA
 62
     7
 10
285.66025403784442
 20
23.26794919243105
 30
0.0
  0
SEQEND
  5
C5B
  8
DATA
 62
     7
  0
POLYLINE
  5
3A9
  8
DATA
 62
     7
 66
     1
 10
0.0
 20
0.0
 30
0.0
 70
     1
  0
VERTEX
  5
C5C
  8
DATA
 62
     7
 10
269.20577136594011
 20
26.2320508075689
 30
0.0
  0
VERTEX
  5
C5D
  8
DATA
 62
     7
 10
267.20577136594
 20
22.767949192431111
 30
0.0
  0
VERTEX
  5
C5E
  8
DATA
 62
     7
 10
266.33974596215558
 20
23.267949192431111
 30
0.0
  0
VERTEX
  5
C5F
  8
DATA
 62
     7
 10
268.33974596215569
 20
26.732050807568889
 30
0.0
  0
SEQEND
  5
C60
  8
DATA
 62
     7
  0
POLYLINE
  5
3AF
  8
DATA
 62
     7
 66
     1
 10
0.0
 20
0.0
 30
0.0
 70
     1
  0
VERTEX
  5
C61
  8
DATA
 62
     7
 10
294.0
 20
34.5
 30
0.0
  0
VERTEX
  5
C62
  8
DATA
 62
     7
 10
299.0
 20
34.5
 30
0.0
  0
VERTEX
  5
C63
  8
DATA
 62
     7
 10
299.0
 20
29.5
 30
0.0
  0
VERTEX
  5
C64
  8
DATA
 62
     7
 10
294.0
 20
29.5
 30
0.0
  0
SEQEND
  5
C65
  8
DATA
 62
     7
  0
POLYLINE
  5
3B5
  8
DATA
 62
     7
 66
     1
 10
0.0
 20
0.0
 30
0.0
 70
     1
  0
VERTEX
  5
C66
  8
DATA
 62
     7
 10
294.0
 20
15.5
 30
0.0
  0
VERTEX
  5
C67
  8
DATA
 62
     7
 10
299.0
 20
15.5
 30
0.0
  0
VERTEX
  5
C68
  8
DATA
 62
     7
 10
299.0
 20
10.5
 30
0.0
  0
VERTEX
  5
C69
  8
DATA
 62
     7
 10
294.0
 20
10.5
 30
0.0
  0
SEQEND
  5
C6A
  8
DATA
 62
     7
  0
POLYLINE
  5
3BB
  8
DATA
 62
     7
 66
     1
 10
0.0
 20
0.0
 30
0.0
 70
     1
  0
VERTEX
  5
C6B
  8
DATA
 62
     7
 10
295.0
 20
9.0
 30
0.0
  0
VERTEX
  5
C6C
  8
DATA
 62
     7
 10
298.0
 20
9.0
 30
0.0
  0
VERTEX
  5
C6D
  8
DATA
 62
     7
 10
298.0
 20
6.0
 30
0.0
  0
VERTEX
  5
C6E
  8
DATA
 62
     7
 10
295.0
 20
6.0
 30
0.0
  0
SEQEND
  5
C6F
  8
DATA
 62
     7
  0
POLYLINE
  5
3C1
  8
DATA
 62
     7
 66
     1
 10
0.0
 20
0.0
 30
0.0
 70
     1
  0
VERTEX
  5
C70
  8
DATA
 62
     7
 10
307.5
 20
15.5
 30
0.0
  0
VERTEX
  5
C71
  8
DATA
 62
     7
 10
312.5
 20
15.5
 30
0.0
  0
VERTEX
  5
C72
  8
DATA
 62
     7
 10
312.5
 20
10.5
 30
0.0
  0
VERTEX
  5
C73
  8
DATA
 62
     7
 10
307.5
 20
10.5
 30
0.0
  0
SEQEND
  5
C74
  8
DATA
 62
     7
  0
POLYLINE
  5
3C7
  8
DATA
 62
     7
 66
     1
 10
0.0
 20
0.0
 30
0.0
 70
     1
  0
VERTEX
  5
C75
  8
DATA
 62
     7
 10
323.0
 20
9.0
 30
0.0
  0
VERTEX
  5
C76
  8
DATA
 62
     7
 10
326.0
 20
9.0
 30
0.0
  0
VERTEX
  5
C77
  8
DATA
 62
     7
 10
326.0
 20
6.0
 30
0.0
  0
VERTEX
  5
C78
  8
DATA
 62
     7
 10
323.0
 20
6.0
 30
0.0
  0
SEQEND
  5
C79
  8
DATA
 62
     7
  0
CIRCLE
  5
3CD
  8
DATA
 62
     7
 10
324.5
 20
14.0
 30
0.0
 40
3.0000000000000009
  0
LINE
  5
3CE
  8
DATA
 62
     7
 10
325.64019671321768
 20
11.22512136208371
 30
0.0
 11
322.66698296375461
 21
16.37487863791619
 31
0.0
  0
LINE
  5
3CF
  8
DATA
 62
     7
 10
326.33301703624528
 20
11.625121362083741
 30
0.0
 11
323.35980328678221
 21
16.774878637916231
 31
0.0
  0
POLYLINE
  5
3D0
  8
DATA
 62
     7
 66
     1
 10
0.0
 20
0.0
 30
0.0
 70
     1
  0
VERTEX
  5
C7A
  8
DATA
 62
     7
 10
324.25
 20
18.0
 30
0.0
  0
VERTEX
  5
C7B
  8
DATA
 62
     7
 10
324.75
 20
18.0
 30
0.0
  0
VERTEX
  5
C7C
  8
DATA
 62
     7
 10
324.75
 20
17.0
 30
0.0
  0
VERTEX
  5
C7D
  8
DATA
 62
     7
 10
324.25
 20
17.0
 30
0.0
  0
SEQEND
  5
C7E
  8
DATA
 62
     7
  0
POLYLINE
  5
3D6
  8
DATA
 62
     7
 66
     1
 10
0.0
 20
0.0
 30
0.0
 70
     1
  0
VERTEX
  5
C7F
  8
DATA
 62
     7
 10
322.28349364905392
 20
17.339101615137729
 30
0.0
  0
VERTEX
  5
C80
  8
DATA
 62
     7
 10
322.71650635094608
 20
17.589101615137729
 30
0.0
  0
VERTEX
  5
C81
  8
DATA
 62
     7
 10
323.21650635094608
 20
16.723076211353309
 30
0.0
  0
VERTEX
  5
C82
  8
DATA
 62
     7
 10
322.78349364905381
 20
16.473076211353309
 30
0.0
  0
SEQEND
  5
C83
  8
DATA
 62
     7
  0
POLYLINE
  5
3DC
  8
DATA
 62
     7
 66
     1
 10
0.0
 20
0.0
 30
0.0
 70
     1
  0
VERTEX
  5
C84
  8
DATA
 62
     7
 10
320.91089838486232
 20
15.78349364905387
 30
0.0
  0
VERTEX
  5
C85
  8
DATA
 62
     7
 10
321.16089838486232
 20
16.216506350946069
 30
0.0
  0
VERTEX
  5
C86
  8
DATA
 62
     7
 10
322.02692378864668
 20
15.716506350946069
 30
0.0
  0
VERTEX
  5
C87
  8
DATA
 62
     7
 10
321.77692378864668
 20
15.28349364905387
 30
0.0
  0
SEQEND
  5
C88
  8
DATA
 62
     7
  0
POLYLINE
  5
3E2
  8
DATA
 62
     7
 66
     1
 10
0.0
 20
0.0
 30
0.0
 70
     1
  0
VERTEX
  5
C89
  8
DATA
 62
     7
 10
326.28349364905398
 20
17.589101615137729
 30
0.0
  0
VERTEX
  5
C8A
  8
DATA
 62
     7
 10
326.71650635094619
 20
17.339101615137729
 30
0.0
  0
VERTEX
  5
C8B
  8
DATA
 62
     7
 10
326.21650635094608
 20
16.473076211353309
 30
0.0
  0
VERTEX
  5
C8C
  8
DATA
 62
     7
 10
325.78349364905398
 20
16.723076211353309
 30
0.0
  0
SEQEND
  5
C8D
  8
DATA
 62
     7
  0
POLYLINE
  5
3E8
  8
DATA
 62
     7
 66
     1
 10
0.0
 20
0.0
 30
0.0
 70
     1
  0
VERTEX
  5
C8E
  8
DATA
 62
     7
 10
327.83910161513779
 20
16.21650635094613
 30
0.0
  0
VERTEX
  5
C8F
  8
DATA
 62
     7
 10
328.08910161513779
 20
15.783493649053931
 30
0.0
  0
VERTEX
  5
C90
  8
DATA
 62
     7
 10
327.22307621135332
 20
15.28349364905392
 30
0.0
  0
VERTEX
  5
C91
  8
DATA
 62
     7
 10
326.97307621135332
 20
15.71650635094613
 30
0.0
  0
SEQEND
  5
C92
  8
DATA
 62
     7
  0
POLYLINE
  5
3EE
  8
DATA
 62
     7
 66
     1
 10
0.0
 20
0.0
 30
0.0
 70
     1
  0
VERTEX
  5
C93
  8
DATA
 62
     7
 10
323.0
 20
38.0
 30
0.0
  0
VERTEX
  5
C94
  8
DATA
 62
     7
 10
326.0
 20
38.0
 30
0.0
  0
VERTEX
  5
C95
  8
DATA
 62
     7
 10
326.0
 20
35.0
 30
0.0
  0
VERTEX
  5
C96
  8
DATA
 62
     7
 10
323.0
 20
35.0
 30
0.0
  0
SEQEND
  5
C97
  8
DATA
 62
     7
  0
TEXT
  5
3F4
  8
DATA
 62
     7
 10
243.5000003377597
 20
33.299999999999997
 30
0.0
 40
3.2000000000000002
  1
FEED 1
 41
0.8
 11
243.5000003377597
 21
36.5
 31
0.0
 73
     3
  0
TEXT
  5
3F5
  8
DATA
 62
     7
 10
270.5
 20
33.299999999999997
 30
0.0
 40
3.2000000000000002
  1
FEED 2
 41
0.8
 11
270.5
 21
36.5
 31
0.0
 73
     3
  0
TEXT
  5
3F6
  8
DATA
 62
     7
 10
291.50781253973662
 20
25.420486111111089
 30
0.0
 40
2.7999999999999998
  1
LISTEN
 41
0.8
 11
291.50781253973662
 21
28.220486111111089
 31
0.0
 73
     3
  0
TEXT
  5
3F7
  8
DATA
 62
     7
 10
290.44097222222217
 20
17.148784722222281
 30
0.0
 40
2.7999999999999998
  1
PHANTOM
 41
0.8
 11
290.44097222222217
 21
19.948784722222278
 31
0.0
 73
     3
  0
TEXT
  5
3F8
  8
DATA
 62
     7
 10
304.5
 20
21.199999999999999
 30
0.0
 40
2.7999999999999998
  1
LINE
 41
0.8
 11
304.5
 21
24.0
 31
0.0
 73
     3
  0
TEXT
  5
3F9
  8
DATA
 62
     7
 10
304.5
 20
17.300000000000001
 30
0.0
 40
2.2000000000000002
  1
20dB PAD
 41
0.8
 11
304.5
 21
19.5
 31
0.0
 73
     3
  0
LINE
  5
3FA
  8
DATA
 62
     7
 10
312.75
 20
21.25
 30
0.0
 11
315.25
 21
21.25
 31
0.0
  0
POLYLINE
  5
3FB
  8
DATA
 62
     7
 66
     1
 10
0.0
 20
0.0
 30
0.0
 70
     1
  0
VERTEX
  5
C98
  8
DATA
 62
     7
 10
313.25
 20
22.75
 30
0.0
  0
VERTEX
  5
C99
  8
DATA
 62
     7
 10
314.75
 20
22.75
 30
0.0
  0
VERTEX
  5
C9A
  8
DATA
 62
     7
 10
314.75
 20
21.25
 30
0.0
  0
VERTEX
  5
C9B
  8
DATA
 62
     7
 10
313.25
 20
21.25
 30
0.0
  0
SEQEND
  5
C9C
  8
DATA
 62
     7
  0
TEXT
  5
401
  8
DATA
 62
     7
 10
304.5
 20
6.1999999999999993
 30
0.0
 40
2.7999999999999998
  1
MIC
 41
0.8
 11
304.5
 21
9.0
 31
0.0
 73
     3
  0
LINE
  5
402
  8
DATA
 62
     7
 10
312.75
 20
6.25
 30
0.0
 11
315.25
 21
6.25
 31
0.0
  0
POLYLINE
  5
403
  8
DATA
 62
     7
 66
     1
 10
0.0
 20
0.0
 30
0.0
 70
     1
  0
VERTEX
  5
C9D
  8
DATA
 62
     7
 10
313.25
 20
6.75
 30
0.0
  0
VERTEX
  5
C9E
  8
DATA
 62
     7
 10
314.75
 20
6.75
 30
0.0
  0
VERTEX
  5
C9F
  8
DATA
 62
     7
 10
314.75
 20
6.25
 30
0.0
  0
VERTEX
  5
CA0
  8
DATA
 62
     7
 10
313.25
 20
6.25
 30
0.0
  0
SEQEND
  5
CA1
  8
DATA
 62
     7
  0
TEXT
  5
409
  8
DATA
 62
     7
 10
323.19292534722217
 20
18.696831597221941
 30
0.0
 40
2.0
  1
10
 41
0.8
 11
323.19292534722217
 21
20.696831597221941
 31
0.0
 73
     3
  0
TEXT
  5
40A
  8
DATA
 62
     7
 10
326.69292534722217
 20
18.196831597221941
 30
0.0
 40
2.0
  1
20
 41
0.8
 11
326.69292534722217
 21
20.196831597221951
 31
0.0
 73
     3
  0
TEXT
  5
40B
  8
DATA
 62
     7
 10
328.3858506944444
 20
15.476345486110629
 30
0.0
 40
2.0
  1
30
 41
0.8
 11
328.3858506944444
 21
17.476345486110631
 31
0.0
 73
     3
  0
TEXT
  5
40C
  8
DATA
 62
     7
 10
328.3858506944444
 20
12.976345486110629
 30
0.0
 40
2.0
  1
dB
 41
0.8
 11
328.3858506944444
 21
14.976345486110629
 31
0.0
 73
     3
  0
TEXT
  5
40D
  8
DATA
 62
     7
 10
320.91927079856401
 20
18.196831597221941
 30
0.0
 40
2.0
  1
0
 41
0.8
 11
320.91927079856401
 21
20.196831597221951
 31
0.0
 73
     3
  0
TEXT
  5
40E
  8
DATA
 62
     7
 10
316.8858506944444
 20
15.692851837056709
 30
0.0
 40
2.0
  1
-10
 41
0.8
 11
316.8858506944444
 21
17.692851837056711
 31
0.0
 73
     3
  0
TEXT
  5
40F
  8
DATA
 62
     7
 10
321.8858506944444
 20
3.4763454861106311
 30
0.0
 40
2.0
  1
CLIP
 41
0.8
 11
321.8858506944444
 21
5.4763454861106311
 31
0.0
 73
     3
  0
TEXT
  5
410
  8
DATA
 62
     7
 10
319.51333333333332
 20
31.800000000000001
 30
0.0
 40
2.2000000000000002
  1
REMOTE
 41
0.8
 72
     1
 11
324.5
 21
34.0
 31
0.0
 73
     3
  0
TEXT
  5
411
  8
DATA
 62
     7
 10
320.39333333333332
 20
29.050000000000001
 30
0.0
 40
2.2000000000000002
  1
ATTEN
 41
0.8
 72
     1
 11
324.5
 21
31.25
 31
0.0
 73
     3
  0
TEXT
  5
412
  8
DATA
 62
     7
 10
260.36999999999989
 20
9.1537760416671912
 30
0.0
 40
1.8
  1
PIN1
 41
0.8
 72
     1
 11
262.52999999999997
 21
10.95377604166719
 31
0.0
 73
     3
  0
TEXT
  5
413
  8
DATA
 62
     7
 10
258.44999999999999
 20
6.9037760416671974
 30
0.0
 40
1.8
  1
GROUND
 41
0.8
 72
     1
 11
262.52999999999997
 21
8.7037760416671972
 31
0.0
 73
     3
  0
TEXT
  5
414
  8
DATA
 62
     7
 10
258.69
 20
4.6537760416671974
 30
0.0
 40
1.8
  1
LIFTED
 41
0.8
 72
     1
 11
262.52999999999997
 21
6.4537760416671972
 31
0.0
 73
     3
  0
LINE
  5
415
  8
DATA
 62
     7
 10
257.00243923611112
 20
4.0
 30
0.0
 11
268.00243923611112
 21
4.0
 31
0.0
  0
LINE
  5
416
  8
DATA
 62
     7
 10
257.00243923611112
 20
4.0
 30
0.0
 11
258.44581490908519
 21
6.5
 31
0.0
  0
LINE
  5
417
  8
DATA
 62
     7
 10
261.33256625503338
 20
11.5
 30
0.0
 11
262.502439236111
 21
13.52627944162861
 31
0.0
  0
LINE
  5
418
  8
DATA
 62
     7
 10
268.00243923611112
 20
4.0
 30
0.0
 11
266.55906356313687
 21
6.5
 31
0.0
  0
LINE
  5
419
  8
DATA
 62
     7
 10
263.67231221718879
 20
11.5
 30
0.0
 11
262.502439236111
 21
13.52627944162861
 31
0.0
  0
LINE
  5
41A
  8
DATA
 62
     7
 10
234.0
 20
38.0
 30
0.0
 11
234.0
 21
4.5
 31
0.0
  0
LINE
  5
41B
  8
DATA
 62
     7
 10
332.5
 20
38.0
 30
0.0
 11
332.5
 21
4.5
 31
0.0
  0
LINE
  5
41C
  8
DATA
 62
     7
 10
236.0
 20
40.0
 30
0.0
 11
284.5
 21
40.0
 31
0.0
  0
LINE
  5
41D
  8
DATA
 62
     7
 10
316.5
 20
40.0
 30
0.0
 11
330.5
 21
40.0
 31
0.0
  0
LINE
  5
41E
  8
DATA
 62
     7
 10
236.0
 20
2.5
 30
0.0
 11
330.5
 21
2.5
 31
0.0
  0
LINE
  5
41F
  8
DATA
 62
     7
 10
284.5
 20
41.5
 30
0.0
 11
284.5
 21
38.5
 31
0.0
  0
LINE
  5
420
  8
DATA
 62
     7
 10
306.5
 20
41.5
 30
0.0
 11
306.5
 21
38.5
 31
0.0
  0
LINE
  5
421
  8
DATA
 62
     7
 10
306.5
 20
38.5
 30
0.0
 11
306.5
 21
33.5
 31
0.0
  0
LINE
  5
422
  8
DATA
 62
     7
 10
316.5
 20
41.5
 30
0.0
 11
316.5
 21
33.5
 31
0.0
  0
LINE
  5
423
  8
DATA
 62
     7
 10
307.5
 20
32.5
 30
0.0
 11
315.5
 21
32.5
 31
0.0
  0
LINE
  5
424
  8
DATA
 62
     7
 10
307.5
 20
42.5
 30
0.0
 11
315.5
 21
42.5
 31
0.0
  0
LINE
  5
425
  8
DATA
 62
     7
 10
285.5
 20
42.5
 30
0.0
 11
305.5
 21
42.5
 31
0.0
  0
LINE
  5
426
  8
DATA
 62
     7
 10
285.5
 20
37.5
 30
0.0
 11
305.5
 21
37.5
 31
0.0
  0
ARC
  5
427
  8
DATA
 62
     7
 10
236.0
 20
38.0
 30
0.0
 40
2.0
 50
90.0
 51
180.0
  0
ARC
  5
428
  8
DATA
 62
     7
 10
236.0
 20
4.5
 30
0.0
 40
2.0
 50
180.0
 51
270.0
  0
ARC
  5
429
  8
DATA
 62
     7
 10
330.5
 20
4.5
 30
0.0
 40
2.0
 50
270.0
 51
0.0
  0
ARC
  5
42A
  8
DATA
 62
     7
 10
330.5
 20
38.0
 30
0.0
 40
2.0
 50
0.0
 51
90.0
  0
ARC
  5
42B
  8
DATA
 62
     7
 10
285.5
 20
41.5
 30
0.0
 40
1.0
 50
90.0
 51
180.0
  0
ARC
  5
42C
  8
DATA
 62
     7
 10
285.5
 20
38.5
 30
0.0
 40
1.0
 50
180.0
 51
270.0
  0
ARC
  5
42D
  8
DATA
 62
     7
 10
315.5
 20
41.5
 30
0.0
 40
1.0
 50
0.0
 51
90.0
  0
ARC
  5
42E
  8
DATA
 62
     7
 10
315.5
 20
33.5
 30
0.0
 40
1.0
 50
270.0
 51
0.0
  0
ARC
  5
42F
  8
DATA
 62
     7
 10
307.5
 20
33.5
 30
0.0
 40
1.0
 50
180.0
 51
270.0
  0
ARC
  5
430
  8
DATA
 62
     7
 10
305.5
 20
41.5
 30
0.0
 40
1.0
 50
0.0
 51
90.0
  0
ARC
  5
431
  8
DATA
 62
     7
 10
305.5
 20
38.5
 30
0.0
 40
1.0
 50
270.0
 51
0.0
  0
ARC
  5
432
  8
DATA
 62
     7
 10
307.5
 20
41.5
 30
0.0
 40
1.0
 50
90.0
 51
180.0
  0
TEXT
  5
433
  8
DATA
 62
     7
 10
286.72048611111109
 20
38.634635416666683
 30
0.0
 40
3.2000000000000002
  1
CHANNEL 3
 41
0.8
 11
286.72048611111109
 21
41.834635416666679
 31
0.0
 73
     3
  0
TEXT
  5
434
  8
DATA
 62
     7
 10
320.99999998675452
 20
22.449999999999999
 30
0.0
 40
2.7999999999999998
  1
GAIN
 41
0.8
 11
320.99999998675452
 21
25.25
 31
0.0
 73
     3
  0
CIRCLE
  5
435
  8
DATA
 62
     7
 10
350.0
 20
20.0
 30
0.0
 40
11.75
  0
ARC
  5
436
  8
DATA
 62
     7
 10
350.0
 20
20.0
 30
0.0
 40
9.7499999999999591
 50
163.34236379708739
 51
256.65763620291159
  0
ARC
  5
437
  8
DATA
 62
     7
 10
350.0
 20
20.0
 30
0.0
 40
9.7499999999999485
 50
283.3423637970883
 51
16.65763620290948
  0
ARC
  5
438
  8
DATA
 62
     7
 10
350.0
 20
20.0
 30
0.0
 40
9.7499999999999201
 50
43.34236379709133
 51
73.617330145899061
  0
ARC
  5
439
  8
DATA
 62
     7
 10
350.0
 20
20.0
 30
0.0
 40
9.7499999999999201
 50
106.3826698541009
 51
136.65763620291241
  0
CIRCLE
  5
43A
  8
DATA
 62
     7
 10
350.0
 20
20.0
 30
0.0
 40
8.25
  0
CIRCLE
  5
43B
  8
DATA
 62
     7
 10
354.0
 20
20.0
 30
0.0
 40
1.249999999999948
  0
CIRCLE
  5
43C
  8
DATA
 62
     7
 10
346.0
 20
20.0
 30
0.0
 40
1.2499999999999409
  0
CIRCLE
  5
43D
  8
DATA
 62
     7
 10
350.0
 20
16.0
 30
0.0
 40
1.2499999999999829
  0
LINE
  5
43E
  8
DATA
 62
     7
 10
347.75
 20
9.0
 30
0.0
 11
347.75
 21
10.51316701949486
 31
0.0
  0
LINE
  5
43F
  8
DATA
 62
     7
 10
352.25
 20
9.0
 30
0.0
 11
352.25
 21
10.51316701949486
 31
0.0
  0
ARC
  5
440
  8
DATA
 62
     7
 10
350.0
 20
20.0
 30
0.0
 40
11.22775578644281
 50
258.4398692057822
 51
281.56013079421768
  0
LINE
  5
441
  8
DATA
 62
     7
 10
360.65127944162867
 20
23.551442841485031
 30
0.0
 11
359.3408383625773
 21
22.794859331737602
 31
0.0
  0
LINE
  5
442
  8
DATA
 62
     7
 10
358.40127944162867
 20
27.448557158514969
 30
0.0
 11
357.09083836257741
 21
26.691973648767551
 31
0.0
  0
ARC
  5
443
  8
DATA
 62
     7
 10
349.99999999999977
 20
20.0
 30
0.0
 40
11.227755786442829
 50
18.439869205782269
 51
41.560130794217599
  0
LINE
  5
444
  8
DATA
 62
     7
 10
341.59872055837093
 20
27.448557158514969
 30
0.0
 11
342.9091616374223
 21
26.691973648767551
 31
0.0
  0
LINE
  5
445
  8
DATA
 62
     7
 10
339.34872055837093
 20
23.551442841485031
 30
0.0
 11
340.6591616374223
 21
22.794859331737602
 31
0.0
  0
ARC
  5
446
  8
DATA
 62
     7
 10
349.99999999999977
 20
20.0
 30
0.0
 40
11.227755786442771
 50
138.43986920578209
 51
161.5601307942176
  0
LINE
  5
447
  8
DATA
 62
     7
 10
354.0
 20
31.048189896992199
 30
0.0
 11
354.0
 21
29.97810102173753
 31
0.0
  0
LINE
  5
448
  8
DATA
 62
     7
 10
346.0
 20
31.048189896992199
 30
0.0
 11
346.0
 21
29.97810102173753
 31
0.0
  0
ARC
  5
449
  8
DATA
 62
     7
 10
350.0
 20
20.0
 30
0.0
 40
10.74999999999998
 50
68.15524251423669
 51
75.178178937949951
  0
ARC
  5
44A
  8
DATA
 62
     7
 10
350.0
 20
20.0
 30
0.0
 40
10.75
 50
104.82182106205011
 51
111.8447574857634
  0
LINE
  5
44B
  8
DATA
 62
     7
 10
352.75
 20
30.39230484541326
 30
0.0
 11
352.75
 21
29.354143466934829
 31
0.0
  0
LINE
  5
44C
  8
DATA
 62
     7
 10
347.25
 20
30.39230484541326
 30
0.0
 11
347.25
 21
29.354143466934829
 31
0.0
  0
LINE
  5
44D
  8
DATA
 62
     7
 10
346.5
 20
28.01950746617274
 30
0.0
 11
346.71220088019072
 21
27.56656308688116
 31
0.0
  0
LINE
  5
44E
  8
DATA
 62
     7
 10
353.5
 20
28.01950746617274
 30
0.0
 11
353.28779911980928
 21
27.56656308688116
 31
0.0
  0
CIRCLE
  5
44F
  8
DATA
 62
     7
 10
350.0
 20
20.0
 30
0.0
 40
8.75
  0
LINE
  5
450
  8
DATA
 62
     7
 10
348.75
 20
30.75
 30
0.0
 11
351.25
 21
30.75
 31
0.0
  0
LINE
  5
451
  8
DATA
 62
     7
 10
348.5
 20
28.75
 30
0.0
 11
351.5
 21
28.75
 31
0.0
  0
LINE
  5
452
  8
DATA
 62
     7
 10
348.75
 20
30.75
 30
0.0
 11
348.5
 21
28.75
 31
0.0
  0
LINE
  5
453
  8
DATA
 62
     7
 10
351.25
 20
30.75
 30
0.0
 11
351.5
 21
28.75
 31
0.0
  0
POLYLINE
  5
454
  8
DATA
 62
     7
 66
     1
 10
0.0
 20
0.0
 30
0.0
 70
     1
  0
VERTEX
  5
CA2
  8
DATA
 62
     7
 10
348.0
 20
11.0
 30
0.0
  0
VERTEX
  5
CA3
  8
DATA
 62
     7
 10
352.0
 20
11.0
 30
0.0
  0
VERTEX
  5
CA4
  8
DATA
 62
     7
 10
352.0
 20
10.0
 30
0.0
  0
VERTEX
  5
CA5
  8
DATA
 62
     7
 10
348.0
 20
10.0
 30
0.0
  0
SEQEND
  5
CA6
  8
DATA
 62
     7
  0
POLYLINE
  5
45A
  8
DATA
 62
     7
 66
     1
 10
0.0
 20
0.0
 30
0.0
 70
     1
  0
VERTEX
  5
CA7
  8
DATA
 62
     7
 10
358.79422863405989
 20
22.76794919243105
 30
0.0
  0
VERTEX
  5
CA8
  8
DATA
 62
     7
 10
356.79422863405989
 20
26.232050807568839
 30
0.0
  0
VERTEX
  5
CA9
  8
DATA
 62
     7
 10
357.66025403784442
 20
26.732050807568839
 30
0.0
  0
VERTEX
  5
CAA
  8
DATA
 62
     7
 10
359.66025403784442
 20
23.26794919243105
 30
0.0
  0
SEQEND
  5
CAB
  8
DATA
 62
     7
  0
POLYLINE
  5
460
  8
DATA
 62
     7
 66
     1
 10
0.0
 20
0.0
 30
0.0
 70
     1
  0
VERTEX
  5
CAC
  8
DATA
 62
     7
 10
343.20577136594022
 20
26.2320508075689
 30
0.0
  0
VERTEX
  5
CAD
  8
DATA
 62
     7
 10
341.20577136594011
 20
22.767949192431111
 30
0.0
  0
VERTEX
  5
CAE
  8
DATA
 62
     7
 10
340.33974596215558
 20
23.267949192431111
 30
0.0
  0
VERTEX
  5
CAF
  8
DATA
 62
     7
 10
342.33974596215569
 20
26.732050807568889
 30
0.0
  0
SEQEND
  5
CB0
  8
DATA
 62
     7
  0
CIRCLE
  5
466
  8
DATA
 62
     7
 10
377.0
 20
20.0
 30
0.0
 40
11.75
  0
ARC
  5
467
  8
DATA
 62
     7
 10
377.0
 20
20.0
 30
0.0
 40
9.7499999999999591
 50
163.34236379708739
 51
256.65763620291159
  0
ARC
  5
468
  8
DATA
 62
     7
 10
377.0
 20
20.0
 30
0.0
 40
9.7499999999999485
 50
283.3423637970883
 51
16.65763620290948
  0
ARC
  5
469
  8
DATA
 62
     7
 10
377.0
 20
20.0
 30
0.0
 40
9.7499999999999201
 50
43.34236379709133
 51
73.617330145899061
  0
ARC
  5
46A
  8
DATA
 62
     7
 10
377.0
 20
20.0
 30
0.0
 40
9.7499999999999201
 50
106.3826698541009
 51
136.65763620291241
  0
CIRCLE
  5
46B
  8
DATA
 62
     7
 10
377.0
 20
20.0
 30
0.0
 40
8.25
  0
CIRCLE
  5
46C
  8
DATA
 62
     7
 10
381.0
 20
20.0
 30
0.0
 40
1.249999999999948
  0
CIRCLE
  5
46D
  8
DATA
 62
     7
 10
373.0
 20
20.0
 30
0.0
 40
1.2499999999999409
  0
CIRCLE
  5
46E
  8
DATA
 62
     7
 10
377.0
 20
16.0
 30
0.0
 40
1.2499999999999829
  0
LINE
  5
46F
  8
DATA
 62
     7
 10
374.75
 20
9.0
 30
0.0
 11
374.75
 21
10.51316701949486
 31
0.0
  0
LINE
  5
470
  8
DATA
 62
     7
 10
379.25
 20
9.0
 30
0.0
 11
379.25
 21
10.51316701949486
 31
0.0
  0
ARC
  5
471
  8
DATA
 62
     7
 10
377.0
 20
20.0
 30
0.0
 40
11.22775578644281
 50
258.4398692057822
 51
281.56013079421768
  0
LINE
  5
472
  8
DATA
 62
     7
 10
387.65127944162867
 20
23.551442841485031
 30
0.0
 11
386.34083836257741
 21
22.794859331737602
 31
0.0
  0
LINE
  5
473
  8
DATA
 62
     7
 10
385.40127944162867
 20
27.448557158514969
 30
0.0
 11
384.09083836257741
 21
26.691973648767551
 31
0.0
  0
ARC
  5
474
  8
DATA
 62
     7
 10
377.0
 20
20.0
 30
0.0
 40
11.227755786442829
 50
18.439869205782269
 51
41.560130794217599
  0
LINE
  5
475
  8
DATA
 62
     7
 10
368.59872055837099
 20
27.448557158514969
 30
0.0
 11
369.90916163742241
 21
26.691973648767551
 31
0.0
  0
LINE
  5
476
  8
DATA
 62
     7
 10
366.34872055837099
 20
23.551442841485031
 30
0.0
 11
367.65916163742241
 21
22.794859331737602
 31
0.0
  0
ARC
  5
477
  8
DATA
 62
     7
 10
376.99999999999977
 20
20.0
 30
0.0
 40
11.227755786442771
 50
138.43986920578209
 51
161.5601307942176
  0
LINE
  5
478
  8
DATA
 62
     7
 10
381.0
 20
31.048189896992199
 30
0.0
 11
381.0
 21
29.97810102173753
 31
0.0
  0
LINE
  5
479
  8
DATA
 62
     7
 10
373.0
 20
31.048189896992199
 30
0.0
 11
373.0
 21
29.97810102173753
 31
0.0
  0
ARC
  5
47A
  8
DATA
 62
     7
 10
377.0
 20
20.0
 30
0.0
 40
10.74999999999998
 50
68.15524251423669
 51
75.178178937949951
  0
ARC
  5
47B
  8
DATA
 62
     7
 10
377.0
 20
20.0
 30
0.0
 40
10.75
 50
104.82182106205011
 51
111.8447574857634
  0
LINE
  5
47C
  8
DATA
 62
     7
 10
379.75
 20
30.39230484541326
 30
0.0
 11
379.75
 21
29.354143466934829
 31
0.0
  0
LINE
  5
47D
  8
DATA
 62
     7
 10
374.25
 20
30.39230484541326
 30
0.0
 11
374.25
 21
29.354143466934829
 31
0.0
  0
LINE
  5
47E
  8
DATA
 62
     7
 10
373.5
 20
28.01950746617274
 30
0.0
 11
373.71220088019072
 21
27.56656308688116
 31
0.0
  0
LINE
  5
47F
  8
DATA
 62
     7
 10
380.5
 20
28.01950746617274
 30
0.0
 11
380.28779911980928
 21
27.56656308688116
 31
0.0
  0
CIRCLE
  5
480
  8
DATA
 62
     7
 10
377.0
 20
20.0
 30
0.0
 40
8.75
  0
LINE
  5
481
  8
DATA
 62
     7
 10
375.75
 20
30.75
 30
0.0
 11
378.25
 21
30.75
 31
0.0
  0
LINE
  5
482
  8
DATA
 62
     7
 10
375.5
 20
28.75
 30
0.0
 11
378.5
 21
28.75
 31
0.0
  0
LINE
  5
483
  8
DATA
 62
     7
 10
375.75
 20
30.75
 30
0.0
 11
375.5
 21
28.75
 31
0.0
  0
LINE
  5
484
  8
DATA
 62
     7
 10
378.25
 20
30.75
 30
0.0
 11
378.5
 21
28.75
 31
0.0
  0
POLYLINE
  5
485
  8
DATA
 62
     7
 66
     1
 10
0.0
 20
0.0
 30
0.0
 70
     1
  0
VERTEX
  5
CB1
  8
DATA
 62
     7
 10
375.0
 20
11.0
 30
0.0
  0
VERTEX
  5
CB2
  8
DATA
 62
     7
 10
379.0
 20
11.0
 30
0.0
  0
VERTEX
  5
CB3
  8
DATA
 62
     7
 10
379.0
 20
10.0
 30
0.0
  0
VERTEX
  5
CB4
  8
DATA
 62
     7
 10
375.0
 20
10.0
 30
0.0
  0
SEQEND
  5
CB5
  8
DATA
 62
     7
  0
POLYLINE
  5
48B
  8
DATA
 62
     7
 66
     1
 10
0.0
 20
0.0
 30
0.0
 70
     1
  0
VERTEX
  5
CB6
  8
DATA
 62
     7
 10
385.79422863405989
 20
22.76794919243105
 30
0.0
  0
VERTEX
  5
CB7
  8
DATA
 62
     7
 10
383.79422863405989
 20
26.232050807568839
 30
0.0
  0
VERTEX
  5
CB8
  8
DATA
 62
     7
 10
384.66025403784442
 20
26.732050807568839
 30
0.0
  0
VERTEX
  5
CB9
  8
DATA
 62
     7
 10
386.66025403784442
 20
23.26794919243105
 30
0.0
  0
SEQEND
  5
CBA
  8
DATA
 62
     7
  0
POLYLINE
  5
491
  8
DATA
 62
     7
 66
     1
 10
0.0
 20
0.0
 30
0.0
 70
     1
  0
VERTEX
  5
CBB
  8
DATA
 62
     7
 10
370.20577136594022
 20
26.2320508075689
 30
0.0
  0
VERTEX
  5
CBC
  8
DATA
 62
     7
 10
368.20577136594011
 20
22.767949192431111
 30
0.0
  0
VERTEX
  5
CBD
  8
DATA
 62
     7
 10
367.33974596215558
 20
23.267949192431111
 30
0.0
  0
VERTEX
  5
CBE
  8
DATA
 62
     7
 10
369.33974596215569
 20
26.732050807568889
 30
0.0
  0
SEQEND
  5
CBF
  8
DATA
 62
     7
  0
POLYLINE
  5
497
  8
DATA
 62
     7
 66
     1
 10
0.0
 20
0.0
 30
0.0
 70
     1
  0
VERTEX
  5
CC0
  8
DATA
 62
     7
 10
395.0
 20
34.5
 30
0.0
  0
VERTEX
  5
CC1
  8
DATA
 62
     7
 10
400.0
 20
34.5
 30
0.0
  0
VERTEX
  5
CC2
  8
DATA
 62
     7
 10
400.0
 20
29.5
 30
0.0
  0
VERTEX
  5
CC3
  8
DATA
 62
     7
 10
395.0
 20
29.5
 30
0.0
  0
SEQEND
  5
CC4
  8
DATA
 62
     7
  0
POLYLINE
  5
49D
  8
DATA
 62
     7
 66
     1
 10
0.0
 20
0.0
 30
0.0
 70
     1
  0
VERTEX
  5
CC5
  8
DATA
 62
     7
 10
395.0
 20
15.5
 30
0.0
  0
VERTEX
  5
CC6
  8
DATA
 62
     7
 10
400.0
 20
15.5
 30
0.0
  0
VERTEX
  5
CC7
  8
DATA
 62
     7
 10
400.0
 20
10.5
 30
0.0
  0
VERTEX
  5
CC8
  8
DATA
 62
     7
 10
395.0
 20
10.5
 30
0.0
  0
SEQEND
  5
CC9
  8
DATA
 62
     7
  0
POLYLINE
  5
4A3
  8
DATA
 62
     7
 66
     1
 10
0.0
 20
0.0
 30
0.0
 70
     1
  0
VERTEX
  5
CCA
  8
DATA
 62
     7
 10
396.0
 20
9.0
 30
0.0
  0
VERTEX
  5
CCB
  8
DATA
 62
     7
 10
399.0
 20
9.0
 30
0.0
  0
VERTEX
  5
CCC
  8
DATA
 62
     7
 10
399.0
 20
6.0
 30
0.0
  0
VERTEX
  5
CCD
  8
DATA
 62
     7
 10
396.0
 20
6.0
 30
0.0
  0
SEQEND
  5
CCE
  8
DATA
 62
     7
  0
POLYLINE
  5
4A9
  8
DATA
 62
     7
 66
     1
 10
0.0
 20
0.0
 30
0.0
 70
     1
  0
VERTEX
  5
CCF
  8
DATA
 62
     7
 10
408.49999999999989
 20
15.5
 30
0.0
  0
VERTEX
  5
CD0
  8
DATA
 62
     7
 10
413.49999999999989
 20
15.5
 30
0.0
  0
VERTEX
  5
CD1
  8
DATA
 62
     7
 10
413.49999999999989
 20
10.5
 30
0.0
  0
VERTEX
  5
CD2
  8
DATA
 62
     7
 10
408.49999999999989
 20
10.5
 30
0.0
  0
SEQEND
  5
CD3
  8
DATA
 62
     7
  0
POLYLINE
  5
4AF
  8
DATA
 62
     7
 66
     1
 10
0.0
 20
0.0
 30
0.0
 70
     1
  0
VERTEX
  5
CD4
  8
DATA
 62
     7
 10
424.0
 20
9.0
 30
0.0
  0
VERTEX
  5
CD5
  8
DATA
 62
     7
 10
427.0
 20
9.0
 30
0.0
  0
VERTEX
  5
CD6
  8
DATA
 62
     7
 10
427.0
 20
6.0
 30
0.0
  0
VERTEX
  5
CD7
  8
DATA
 62
     7
 10
424.0
 20
6.0
 30
0.0
  0
SEQEND
  5
CD8
  8
DATA
 62
     7
  0
CIRCLE
  5
4B5
  8
DATA
 62
     7
 10
425.49999999999989
 20
14.0
 30
0.0
 40
3.0000000000000009
  0
LINE
  5
4B6
  8
DATA
 62
     7
 10
426.64019671321779
 20
11.22512136208371
 30
0.0
 11
423.66698296375472
 21
16.37487863791619
 31
0.0
  0
LINE
  5
4B7
  8
DATA
 62
     7
 10
427.33301703624522
 20
11.625121362083741
 30
0.0
 11
424.3598032867821
 21
16.774878637916231
 31
0.0
  0
POLYLINE
  5
4B8
  8
DATA
 62
     7
 66
     1
 10
0.0
 20
0.0
 30
0.0
 70
     1
  0
VERTEX
  5
CD9
  8
DATA
 62
     7
 10
425.25
 20
18.0
 30
0.0
  0
VERTEX
  5
CDA
  8
DATA
 62
     7
 10
425.75
 20
18.0
 30
0.0
  0
VERTEX
  5
CDB
  8
DATA
 62
     7
 10
425.75
 20
17.0
 30
0.0
  0
VERTEX
  5
CDC
  8
DATA
 62
     7
 10
425.25
 20
17.0
 30
0.0
  0
SEQEND
  5
CDD
  8
DATA
 62
     7
  0
POLYLINE
  5
4BE
  8
DATA
 62
     7
 66
     1
 10
0.0
 20
0.0
 30
0.0
 70
     1
  0
VERTEX
  5
CDE
  8
DATA
 62
     7
 10
423.2834936490537
 20
17.339101615137729
 30
0.0
  0
VERTEX
  5
CDF
  8
DATA
 62
     7
 10
423.71650635094591
 20
17.589101615137729
 30
0.0
  0
VERTEX
  5
CE0
  8
DATA
 62
     7
 10
424.21650635094591
 20
16.723076211353309
 30
0.0
  0
VERTEX
  5
CE1
  8
DATA
 62
     7
 10
423.7834936490537
 20
16.473076211353309
 30
0.0
  0
SEQEND
  5
CE2
  8
DATA
 62
     7
  0
POLYLINE
  5
4C4
  8
DATA
 62
     7
 66
     1
 10
0.0
 20
0.0
 30
0.0
 70
     1
  0
VERTEX
  5
CE3
  8
DATA
 62
     7
 10
421.91089838486221
 20
15.78349364905387
 30
0.0
  0
VERTEX
  5
CE4
  8
DATA
 62
     7
 10
422.16089838486221
 20
16.216506350946069
 30
0.0
  0
VERTEX
  5
CE5
  8
DATA
 62
     7
 10
423.02692378864651
 20
15.716506350946069
 30
0.0
  0
VERTEX
  5
CE6
  8
DATA
 62
     7
 10
422.77692378864663
 20
15.28349364905387
 30
0.0
  0
SEQEND
  5
CE7
  8
DATA
 62
     7
  0
POLYLINE
  5
4CA
  8
DATA
 62
     7
 66
     1
 10
0.0
 20
0.0
 30
0.0
 70
     1
  0
VERTEX
  5
CE8
  8
DATA
 62
     7
 10
427.28349364905392
 20
17.589101615137729
 30
0.0
  0
VERTEX
  5
CE9
  8
DATA
 62
     7
 10
427.71650635094602
 20
17.339101615137729
 30
0.0
  0
VERTEX
  5
CEA
  8
DATA
 62
     7
 10
427.21650635094602
 20
16.473076211353309
 30
0.0
  0
VERTEX
  5
CEB
  8
DATA
 62
     7
 10
426.78349364905392
 20
16.723076211353309
 30
0.0
  0
SEQEND
  5
CEC
  8
DATA
 62
     7
  0
POLYLINE
  5
4D0
  8
DATA
 62
     7
 66
     1
 10
0.0
 20
0.0
 30
0.0
 70
     1
  0
VERTEX
  5
CED
  8
DATA
 62
     7
 10
428.83910161513768
 20
16.21650635094613
 30
0.0
  0
VERTEX
  5
CEE
  8
DATA
 62
     7
 10
429.08910161513779
 20
15.783493649053931
 30
0.0
  0
VERTEX
  5
CEF
  8
DATA
 62
     7
 10
428.2230762113532
 20
15.28349364905392
 30
0.0
  0
VERTEX
  5
CF0
  8
DATA
 62
     7
 10
427.9730762113532
 20
15.71650635094613
 30
0.0
  0
SEQEND
  5
CF1
  8
DATA
 62
     7
  0
POLYLINE
  5
4D6
  8
DATA
 62
     7
 66
     1
 10
0.0
 20
0.0
 30
0.0
 70
     1
  0
VERTEX
  5
CF2
  8
DATA
 62
     7
 10
424.0
 20
38.0
 30
0.0
  0
VERTEX
  5
CF3
  8
DATA
 62
     7
 10
427.0
 20
38.0
 30
0.0
  0
VERTEX
  5
CF4
  8
DATA
 62
     7
 10
427.0
 20
35.0
 30
0.0
  0
VERTEX
  5
CF5
  8
DATA
 62
     7
 10
424.0
 20
35.0
 30
0.0
  0
SEQEND
  5
CF6
  8
DATA
 62
     7
  0
TEXT
  5
4DC
  8
DATA
 62
     7
 10
344.50000033775967
 20
33.299999999999997
 30
0.0
 40
3.2000000000000002
  1
FEED 1
 41
0.8
 11
344.50000033775967
 21
36.5
 31
0.0
 73
     3
  0
TEXT
  5
4DD
  8
DATA
 62
     7
 10
371.5
 20
33.299999999999997
 30
0.0
 40
3.2000000000000002
  1
FEED 2
 41
0.8
 11
371.5
 21
36.5
 31
0.0
 73
     3
  0
TEXT
  5
4DE
  8
DATA
 62
     7
 10
392.50781253973662
 20
25.420486111111089
 30
0.0
 40
2.7999999999999998
  1
LISTEN
 41
0.8
 11
392.50781253973662
 21
28.220486111111089
 31
0.0
 73
     3
  0
TEXT
  5
4DF
  8
DATA
 62
     7
 10
391.44097222222217
 20
17.148784722222281
 30
0.0
 40
2.7999999999999998
  1
PHANTOM
 41
0.8
 11
391.44097222222217
 21
19.948784722222278
 31
0.0
 73
     3
  0
TEXT
  5
4E0
  8
DATA
 62
     7
 10
405.49999999999989
 20
21.199999999999999
 30
0.0
 40
2.7999999999999998
  1
LINE
 41
0.8
 11
405.49999999999989
 21
24.0
 31
0.0
 73
     3
  0
TEXT
  5
4E1
  8
DATA
 62
     7
 10
405.49999999999989
 20
17.300000000000001
 30
0.0
 40
2.2000000000000002
  1
20dB PAD
 41
0.8
 11
405.49999999999989
 21
19.5
 31
0.0
 73
     3
  0
LINE
  5
4E2
  8
DATA
 62
     7
 10
413.75
 20
21.25
 30
0.0
 11
416.24999999999989
 21
21.25
 31
0.0
  0
POLYLINE
  5
4E3
  8
DATA
 62
     7
 66
     1
 10
0.0
 20
0.0
 30
0.0
 70
     1
  0
VERTEX
  5
CF7
  8
DATA
 62
     7
 10
414.25
 20
22.75
 30
0.0
  0
VERTEX
  5
CF8
  8
DATA
 62
     7
 10
415.74999999999989
 20
22.75
 30
0.0
  0
VERTEX
  5
CF9
  8
DATA
 62
     7
 10
415.74999999999989
 20
21.25
 30
0.0
  0
VERTEX
  5
CFA
  8
DATA
 62
     7
 10
414.25
 20
21.25
 30
0.0
  0
SEQEND
  5
CFB
  8
DATA
 62
     7
  0
TEXT
  5
4E9
  8
DATA
 62
     7
 10
405.49999999999989
 20
6.1999999999999993
 30
0.0
 40
2.7999999999999998
  1
MIC
 41
0.8
 11
405.49999999999989
 21
9.0
 31
0.0
 73
     3
  0
LINE
  5
4EA
  8
DATA
 62
     7
 10
413.75
 20
6.25
 30
0.0
 11
416.24999999999989
 21
6.25
 31
0.0
  0
POLYLINE
  5
4EB
  8
DATA
 62
     7
 66
     1
 10
0.0
 20
0.0
 30
0.0
 70
     1
  0
VERTEX
  5
CFC
  8
DATA
 62
     7
 10
414.25
 20
6.75
 30
0.0
  0
VERTEX
  5
CFD
  8
DATA
 62
     7
 10
415.74999999999989
 20
6.75
 30
0.0
  0
VERTEX
  5
CFE
  8
DATA
 62
     7
 10
415.74999999999989
 20
6.25
 30
0.0
  0
VERTEX
  5
CFF
  8
DATA
 62
     7
 10
414.25
 20
6.25
 30
0.0
  0
SEQEND
  5
D00
  8
DATA
 62
     7
  0
TEXT
  5
4F1
  8
DATA
 62
     7
 10
424.19292534722217
 20
18.696831597221941
 30
0.0
 40
2.0
  1
10
 41
0.8
 11
424.19292534722217
 21
20.696831597221941
 31
0.0
 73
     3
  0
TEXT
  5
4F2
  8
DATA
 62
     7
 10
427.69292534722217
 20
18.196831597221941
 30
0.0
 40
2.0
  1
20
 41
0.8
 11
427.69292534722217
 21
20.196831597221951
 31
0.0
 73
     3
  0
TEXT
  5
4F3
  8
DATA
 62
     7
 10
429.38585069444429
 20
15.476345486110629
 30
0.0
 40
2.0
  1
30
 41
0.8
 11
429.38585069444429
 21
17.476345486110631
 31
0.0
 73
     3
  0
TEXT
  5
4F4
  8
DATA
 62
     7
 10
429.38585069444429
 20
12.976345486110629
 30
0.0
 40
2.0
  1
dB
 41
0.8
 11
429.38585069444429
 21
14.976345486110629
 31
0.0
 73
     3
  0
TEXT
  5
4F5
  8
DATA
 62
     7
 10
421.91927079856401
 20
18.196831597221941
 30
0.0
 40
2.0
  1
0
 41
0.8
 11
421.91927079856401
 21
20.196831597221951
 31
0.0
 73
     3
  0
TEXT
  5
4F6
  8
DATA
 62
     7
 10
417.88585069444429
 20
15.692851837056709
 30
0.0
 40
2.0
  1
-10
 41
0.8
 11
417.88585069444429
 21
17.692851837056711
 31
0.0
 73
     3
  0
TEXT
  5
4F7
  8
DATA
 62
     7
 10
422.88585069444429
 20
3.4763454861106311
 30
0.0
 40
2.0
  1
CLIP
 41
0.8
 11
422.88585069444429
 21
5.4763454861106311
 31
0.0
 73
     3
  0
TEXT
  5
4F8
  8
DATA
 62
     7
 10
420.51333333333332
 20
31.800000000000001
 30
0.0
 40
2.2000000000000002
  1
REMOTE
 41
0.8
 72
     1
 11
425.49999999999989
 21
34.0
 31
0.0
 73
     3
  0
TEXT
  5
4F9
  8
DATA
 62
     7
 10
421.39333333333332
 20
29.050000000000001
 30
0.0
 40
2.2000000000000002
  1
ATTEN
 41
0.8
 72
     1
 11
425.49999999999989
 21
31.25
 31
0.0
 73
     3
  0
TEXT
  5
4FA
  8
DATA
 62
     7
 10
361.37
 20
9.1537760416671912
 30
0.0
 40
1.8
  1
PIN1
 41
0.8
 72
     1
 11
363.52999999999997
 21
10.95377604166719
 31
0.0
 73
     3
  0
TEXT
  5
4FB
  8
DATA
 62
     7
 10
359.44999999999999
 20
6.9037760416671974
 30
0.0
 40
1.8
  1
GROUND
 41
0.8
 72
     1
 11
363.52999999999997
 21
8.7037760416671972
 31
0.0
 73
     3
  0
TEXT
  5
4FC
  8
DATA
 62
     7
 10
359.69
 20
4.6537760416671974
 30
0.0
 40
1.8
  1
LIFTED
 41
0.8
 72
     1
 11
363.52999999999997
 21
6.4537760416671972
 31
0.0
 73
     3
  0
LINE
  5
4FD
  8
DATA
 62
     7
 10
358.00243923611112
 20
4.0
 30
0.0
 11
369.00243923611117
 21
4.0
 31
0.0
  0
LINE
  5
4FE
  8
DATA
 62
     7
 10
358.00243923611112
 20
4.0
 30
0.0
 11
359.44581490908519
 21
6.5
 31
0.0
  0
LINE
  5
4FF
  8
DATA
 62
     7
 10
362.33256625503333
 20
11.5
 30
0.0
 11
363.50243923611117
 21
13.52627944162861
 31
0.0
  0
LINE
  5
500
  8
DATA
 62
     7
 10
369.00243923611117
 20
4.0
 30
0.0
 11
367.55906356313687
 21
6.5
 31
0.0
  0
LINE
  5
501
  8
DATA
 62
     7
 10
364.67231221718879
 20
11.5
 30
0.0
 11
363.50243923611117
 21
13.52627944162861
 31
0.0
  0
LINE
  5
502
  8
DATA
 62
     7
 10
335.0
 20
38.0
 30
0.0
 11
335.0
 21
4.5
 31
0.0
  0
LINE
  5
503
  8
DATA
 62
     7
 10
433.49999999999989
 20
38.0
 30
0.0
 11
433.49999999999989
 21
4.5
 31
0.0
  0
LINE
  5
504
  8
DATA
 62
     7
 10
337.0
 20
40.0
 30
0.0
 11
385.5
 21
40.0
 31
0.0
  0
LINE
  5
505
  8
DATA
 62
     7
 10
417.49999999999989
 20
40.0
 30
0.0
 11
431.5
 21
40.0
 31
0.0
  0
LINE
  5
506
  8
DATA
 62
     7
 10
337.0
 20
2.5
 30
0.0
 11
431.5
 21
2.5
 31
0.0
  0
LINE
  5
507
  8
DATA
 62
     7
 10
385.5
 20
41.5
 30
0.0
 11
385.5
 21
38.5
 31
0.0
  0
LINE
  5
508
  8
DATA
 62
     7
 10
407.5
 20
41.5
 30
0.0
 11
407.5
 21
38.5
 31
0.0
  0
LINE
  5
509
  8
DATA
 62
     7
 10
407.5
 20
38.5
 30
0.0
 11
407.5
 21
33.5
 31
0.0
  0
LINE
  5
50A
  8
DATA
 62
     7
 10
417.49999999999989
 20
41.5
 30
0.0
 11
417.49999999999989
 21
33.5
 31
0.0
  0
LINE
  5
50B
  8
DATA
 62
     7
 10
408.49999999999989
 20
32.5
 30
0.0
 11
416.5
 21
32.5
 31
0.0
  0
LINE
  5
50C
  8
DATA
 62
     7
 10
408.49999999999989
 20
42.5
 30
0.0
 11
416.5
 21
42.5
 31
0.0
  0
LINE
  5
50D
  8
DATA
 62
     7
 10
386.5
 20
42.5
 30
0.0
 11
406.5
 21
42.5
 31
0.0
  0
LINE
  5
50E
  8
DATA
 62
     7
 10
386.5
 20
37.5
 30
0.0
 11
406.5
 21
37.5
 31
0.0
  0
ARC
  5
50F
  8
DATA
 62
     7
 10
337.0
 20
38.0
 30
0.0
 40
2.0
 50
90.0
 51
180.0
  0
ARC
  5
510
  8
DATA
 62
     7
 10
337.0
 20
4.5
 30
0.0
 40
2.0
 50
180.0
 51
270.0
  0
ARC
  5
511
  8
DATA
 62
     7
 10
431.5
 20
4.5
 30
0.0
 40
2.0
 50
270.0
 51
0.0
  0
ARC
  5
512
  8
DATA
 62
     7
 10
431.5
 20
38.0
 30
0.0
 40
2.0
 50
0.0
 51
90.0
  0
ARC
  5
513
  8
DATA
 62
     7
 10
386.5
 20
41.5
 30
0.0
 40
1.0
 50
90.0
 51
180.0
  0
ARC
  5
514
  8
DATA
 62
     7
 10
386.5
 20
38.5
 30
0.0
 40
1.0
 50
180.0
 51
270.0
  0
ARC
  5
515
  8
DATA
 62
     7
 10
416.5
 20
41.5
 30
0.0
 40
1.0
 50
0.0
 51
90.0
  0
ARC
  5
516
  8
DATA
 62
     7
 10
416.5
 20
33.5
 30
0.0
 40
1.0
 50
270.0
 51
0.0
  0
ARC
  5
517
  8
DATA
 62
     7
 10
408.49999999999989
 20
33.5
 30
0.0
 40
1.0
 50
180.0
 51
270.0
  0
ARC
  5
518
  8
DATA
 62
     7
 10
406.5
 20
41.5
 30
0.0
 40
1.0
 50
0.0
 51
90.0
  0
ARC
  5
519
  8
DATA
 62
     7
 10
406.5
 20
38.5
 30
0.0
 40
1.0
 50
270.0
 51
0.0
  0
ARC
  5
51A
  8
DATA
 62
     7
 10
408.49999999999989
 20
41.5
 30
0.0
 40
1.0
 50
90.0
 51
180.0
  0
TEXT
  5
51B
  8
DATA
 62
     7
 10
387.7204861111112
 20
38.634635416666683
 30
0.0
 40
3.2000000000000002
  1
CHANNEL 4
 41
0.8
 11
387.7204861111112
 21
41.834635416666679
 31
0.0
 73
     3
  0
TEXT
  5
51C
  8
DATA
 62
     7
 10
421.9999999867544
 20
22.449999999999999
 30
0.0
 40
2.7999999999999998
  1
GAIN
 41
0.8
 11
421.9999999867544
 21
25.25
 31
0.0
 73
     3
  0
LINE
  5
51D
  8
DATA
 62
     7
 10
436.0
 20
38.0
 30
0.0
 11
436.0
 21
4.5
 31
0.0
  0
ARC
  5
51E
  8
DATA
 62
     7
 10
438.0
 20
38.0
 30
0.0
 40
2.0
 50
90.0
 51
180.0
  0
ARC
  5
51F
  8
DATA
 62
     7
 10
438.0
 20
4.5
 30
0.0
 40
2.0
 50
180.0
 51
270.0
  0
LINE
  5
520
  8
DATA
 62
     7
 10
450.0
 20
38.0
 30
0.0
 11
450.0
 21
4.5
 31
0.0
  0
ARC
  5
521
  8
DATA
 62
     7
 10
448.0
 20
38.0
 30
0.0
 40
2.0
 50
0.0
 51
90.0
  0
ARC
  5
522
  8
DATA
 62
     7
 10
448.0
 20
4.5
 30
0.0
 40
2.0
 50
270.0
 51
0.0
  0
LINE
  5
523
  8
DATA
 62
     7
 10
438.0
 20
40.0
 30
0.0
 11
448.0
 21
40.0
 31
0.0
  0
LINE
  5
524
  8
DATA
 62
     7
 10
438.0
 20
2.5
 30
0.0
 11
448.0
 21
2.5
 31
0.0
  0
POLYLINE
  5
525
  8
DATA
 62
     7
 66
     1
 10
0.0
 20
0.0
 30
0.0
 70
     1
  0
VERTEX
  5
D01
  8
DATA
 62
     7
 10
441.5
 20
9.0
 30
0.0
  0
VERTEX
  5
D02
  8
DATA
 62
     7
 10
444.5
 20
9.0
 30
0.0
  0
VERTEX
  5
D03
  8
DATA
 62
     7
 10
444.5
 20
6.0
 30
0.0
  0
VERTEX
  5
D04
  8
DATA
 62
     7
 10
441.5
 20
6.0
 30
0.0
  0
SEQEND
  5
D05
  8
DATA
 62
     7
  0
TEXT
  5
52B
  8
DATA
 62
     7
 10
438.7204860978656
 20
11.449999999999999
 30
0.0
 40
2.7999999999999998
  1
POWER
 41
0.8
 11
438.7204860978656
 21
14.25
 31
0.0
 73
     3
  0
CIRCLE
  5
52C
  8
DATA
 62
     7
 10
148.0
 20
157.0
 30
0.0
 40
2.9999999999999938
  0
POLYLINE
  5
52D
  8
DATA
 62
     7
 66
     1
 10
0.0
 20
0.0
 30
0.0
  0
VERTEX
  5
D06
  8
DATA
 62
     7
 10
148.5
 20
157.5
 30
0.0
  0
VERTEX
  5
D07
  8
DATA
 62
     7
 10
148.5
 20
159.0
 30
0.0
  0
VERTEX
  5
D08
  8
DATA
 62
     7
 10
147.5
 20
159.0
 30
0.0
  0
VERTEX
  5
D09
  8
DATA
 62
     7
 10
147.5
 20
157.5
 30
0.0
  0
SEQEND
  5
D0A
  8
DATA
 62
     7
  0
POLYLINE
  5
533
  8
DATA
 62
     7
 66
     1
 10
0.0
 20
0.0
 30
0.0
  0
VERTEX
  5
D0B
  8
DATA
 62
     7
 10
148.5
 20
156.5
 30
0.0
  0
VERTEX
  5
D0C
  8
DATA
 62
     7
 10
148.5
 20
155.0
 30
0.0
  0
VERTEX
  5
D0D
  8
DATA
 62
     7
 10
147.5
 20
155.0
 30
0.0
  0
VERTEX
  5
D0E
  8
DATA
 62
     7
 10
147.5
 20
156.5
 30
0.0
  0
SEQEND
  5
D0F
  8
DATA
 62
     7
  0
POLYLINE
  5
539
  8
DATA
 62
     7
 66
     1
 10
0.0
 20
0.0
 30
0.0
  0
VERTEX
  5
D10
  8
DATA
 62
     7
 10
148.5
 20
156.5
 30
0.0
  0
VERTEX
  5
D11
  8
DATA
 62
     7
 10
150.0
 20
156.5
 30
0.0
  0
VERTEX
  5
D12
  8
DATA
 62
     7
 10
150.0
 20
157.5
 30
0.0
  0
VERTEX
  5
D13
  8
DATA
 62
     7
 10
148.5
 20
157.5
 30
0.0
  0
SEQEND
  5
D14
  8
DATA
 62
     7
  0
POLYLINE
  5
53F
  8
DATA
 62
     7
 66
     1
 10
0.0
 20
0.0
 30
0.0
  0
VERTEX
  5
D15
  8
DATA
 62
     7
 10
147.5
 20
156.5
 30
0.0
  0
VERTEX
  5
D16
  8
DATA
 62
     7
 10
146.0
 20
156.5
 30
0.0
  0
VERTEX
  5
D17
  8
DATA
 62
     7
 10
146.0
 20
157.5
 30
0.0
  0
VERTEX
  5
D18
  8
DATA
 62
     7
 10
147.5
 20
157.5
 30
0.0
  0
SEQEND
  5
D19
  8
DATA
 62
     7
  0
CIRCLE
  5
545
  8
DATA
 62
     7
 10
148.0
 20
157.0
 30
0.0
 40
3.25000000000002
  0
CIRCLE
  5
546
  8
DATA
 62
     7
 10
334.0
 20
157.0
 30
0.0
 40
2.9999999999999938
  0
POLYLINE
  5
547
  8
DATA
 62
     7
 66
     1
 10
0.0
 20
0.0
 30
0.0
  0
VERTEX
  5
D1A
  8
DATA
 62
     7
 10
334.5
 20
157.5
 30
0.0
  0
VERTEX
  5
D1B
  8
DATA
 62
     7
 10
334.5
 20
159.0
 30
0.0
  0
VERTEX
  5
D1C
  8
DATA
 62
     7
 10
333.5
 20
159.0
 30
0.0
  0
VERTEX
  5
D1D
  8
DATA
 62
     7
 10
333.5
 20
157.5
 30
0.0
  0
SEQEND
  5
D1E
  8
DATA
 62
     7
  0
POLYLINE
  5
54D
  8
DATA
 62
     7
 66
     1
 10
0.0
 20
0.0
 30
0.0
  0
VERTEX
  5
D1F
  8
DATA
 62
     7
 10
334.5
 20
156.5
 30
0.0
  0
VERTEX
  5
D20
  8
DATA
 62
     7
 10
334.5
 20
155.0
 30
0.0
  0
VERTEX
  5
D21
  8
DATA
 62
     7
 10
333.5
 20
155.0
 30
0.0
  0
VERTEX
  5
D22
  8
DATA
 62
     7
 10
333.5
 20
156.5
 30
0.0
  0
SEQEND
  5
D23
  8
DATA
 62
     7
  0
POLYLINE
  5
553
  8
DATA
 62
     7
 66
     1
 10
0.0
 20
0.0
 30
0.0
  0
VERTEX
  5
D24
  8
DATA
 62
     7
 10
334.5
 20
156.5
 30
0.0
  0
VERTEX
  5
D25
  8
DATA
 62
     7
 10
336.0
 20
156.5
 30
0.0
  0
VERTEX
  5
D26
  8
DATA
 62
     7
 10
336.0
 20
157.5
 30
0.0
  0
VERTEX
  5
D27
  8
DATA
 62
     7
 10
334.5
 20
157.5
 30
0.0
  0
SEQEND
  5
D28
  8
DATA
 62
     7
  0
POLYLINE
  5
559
  8
DATA
 62
     7
 66
     1
 10
0.0
 20
0.0
 30
0.0
  0
VERTEX
  5
D29
  8
DATA
 62
     7
 10
333.5
 20
156.5
 30
0.0
  0
VERTEX
  5
D2A
  8
DATA
 62
     7
 10
332.0
 20
156.5
 30
0.0
  0
VERTEX
  5
D2B
  8
DATA
 62
     7
 10
332.0
 20
157.5
 30
0.0
  0
VERTEX
  5
D2C
  8
DATA
 62
     7
 10
333.5
 20
157.5
 30
0.0
  0
SEQEND
  5
D2D
  8
DATA
 62
     7
  0
CIRCLE
  5
55F
  8
DATA
 62
     7
 10
334.0
 20
157.0
 30
0.0
 40
3.25000000000002
  0
CIRCLE
  5
560
  8
DATA
 62
     7
 10
29.300000000000011
 20
177.0
 30
0.0
 40
2.9999999999999938
  0
POLYLINE
  5
561
  8
DATA
 62
     7
 66
     1
 10
0.0
 20
0.0
 30
0.0
  0
VERTEX
  5
D2E
  8
DATA
 62
     7
 10
29.800000000000011
 20
177.5
 30
0.0
  0
VERTEX
  5
D2F
  8
DATA
 62
     7
 10
29.800000000000011
 20
179.0
 30
0.0
  0
VERTEX
  5
D30
  8
DATA
 62
     7
 10
28.800000000000011
 20
179.0
 30
0.0
  0
VERTEX
  5
D31
  8
DATA
 62
     7
 10
28.800000000000011
 20
177.5
 30
0.0
  0
SEQEND
  5
D32
  8
DATA
 62
     7
  0
POLYLINE
  5
567
  8
DATA
 62
     7
 66
     1
 10
0.0
 20
0.0
 30
0.0
  0
VERTEX
  5
D33
  8
DATA
 62
     7
 10
29.800000000000011
 20
176.5
 30
0.0
  0
VERTEX
  5
D34
  8
DATA
 62
     7
 10
29.800000000000011
 20
175.0
 30
0.0
  0
VERTEX
  5
D35
  8
DATA
 62
     7
 10
28.800000000000011
 20
175.0
 30
0.0
  0
VERTEX
  5
D36
  8
DATA
 62
     7
 10
28.800000000000011
 20
176.5
 30
0.0
  0
SEQEND
  5
D37
  8
DATA
 62
     7
  0
POLYLINE
  5
56D
  8
DATA
 62
     7
 66
     1
 10
0.0
 20
0.0
 30
0.0
  0
VERTEX
  5
D38
  8
DATA
 62
     7
 10
29.800000000000011
 20
176.5
 30
0.0
  0
VERTEX
  5
D39
  8
DATA
 62
     7
 10
31.300000000000011
 20
176.5
 30
0.0
  0
VERTEX
  5
D3A
  8
DATA
 62
     7
 10
31.300000000000011
 20
177.5
 30
0.0
  0
VERTEX
  5
D3B
  8
DATA
 62
     7
 10
29.800000000000011
 20
177.5
 30
0.0
  0
SEQEND
  5
D3C
  8
DATA
 62
     7
  0
POLYLINE
  5
573
  8
DATA
 62
     7
 66
     1
 10
0.0
 20
0.0
 30
0.0
  0
VERTEX
  5
D3D
  8
DATA
 62
     7
 10
28.800000000000011
 20
176.5
 30
0.0
  0
VERTEX
  5
D3E
  8
DATA
 62
     7
 10
27.300000000000011
 20
176.5
 30
0.0
  0
VERTEX
  5
D3F
  8
DATA
 62
     7
 10
27.300000000000011
 20
177.5
 30
0.0
  0
VERTEX
  5
D40
  8
DATA
 62
     7
 10
28.800000000000011
 20
177.5
 30
0.0
  0
SEQEND
  5
D41
  8
DATA
 62
     7
  0
CIRCLE
  5
579
  8
DATA
 62
     7
 10
29.300000000000011
 20
177.0
 30
0.0
 40
3.25000000000002
  0
CIRCLE
  5
57A
  8
DATA
 62
     7
 10
29.300000000000011
 20
305.0
 30
0.0
 40
2.9999999999999938
  0
POLYLINE
  5
57B
  8
DATA
 62
     7
 66
     1
 10
0.0
 20
0.0
 30
0.0
  0
VERTEX
  5
D42
  8
DATA
 62
     7
 10
29.800000000000011
 20
305.5
 30
0.0
  0
VERTEX
  5
D43
  8
DATA
 62
     7
 10
29.800000000000011
 20
307.0
 30
0.0
  0
VERTEX
  5
D44
  8
DATA
 62
     7
 10
28.800000000000011
 20
307.0
 30
0.0
  0
VERTEX
  5
D45
  8
DATA
 62
     7
 10
28.800000000000011
 20
305.5
 30
0.0
  0
SEQEND
  5
D46
  8
DATA
 62
     7
  0
POLYLINE
  5
581
  8
DATA
 62
     7
 66
     1
 10
0.0
 20
0.0
 30
0.0
  0
VERTEX
  5
D47
  8
DATA
 62
     7
 10
29.800000000000011
 20
304.5
 30
0.0
  0
VERTEX
  5
D48
  8
DATA
 62
     7
 10
29.800000000000011
 20
303.0
 30
0.0
  0
VERTEX
  5
D49
  8
DATA
 62
     7
 10
28.800000000000011
 20
303.0
 30
0.0
  0
VERTEX
  5
D4A
  8
DATA
 62
     7
 10
28.800000000000011
 20
304.5
 30
0.0
  0
SEQEND
  5
D4B
  8
DATA
 62
     7
  0
POLYLINE
  5
587
  8
DATA
 62
     7
 66
     1
 10
0.0
 20
0.0
 30
0.0
  0
VERTEX
  5
D4C
  8
DATA
 62
     7
 10
29.800000000000011
 20
304.5
 30
0.0
  0
VERTEX
  5
D4D
  8
DATA
 62
     7
 10
31.300000000000011
 20
304.5
 30
0.0
  0
VERTEX
  5
D4E
  8
DATA
 62
     7
 10
31.300000000000011
 20
305.5
 30
0.0
  0
VERTEX
  5
D4F
  8
DATA
 62
     7
 10
29.800000000000011
 20
305.5
 30
0.0
  0
SEQEND
  5
D50
  8
DATA
 62
     7
  0
POLYLINE
  5
58D
  8
DATA
 62
     7
 66
     1
 10
0.0
 20
0.0
 30
0.0
  0
VERTEX
  5
D51
  8
DATA
 62
     7
 10
28.800000000000011
 20
304.5
 30
0.0
  0
VERTEX
  5
D52
  8
DATA
 62
     7
 10
27.300000000000011
 20
304.5
 30
0.0
  0
VERTEX
  5
D53
  8
DATA
 62
     7
 10
27.300000000000011
 20
305.5
 30
0.0
  0
VERTEX
  5
D54
  8
DATA
 62
     7
 10
28.800000000000011
 20
305.5
 30
0.0
  0
SEQEND
  5
D55
  8
DATA
 62
     7
  0
CIRCLE
  5
593
  8
DATA
 62
     7
 10
29.300000000000011
 20
305.0
 30
0.0
 40
3.25000000000002
  0
CIRCLE
  5
594
  8
DATA
 62
     7
 10
29.300000000000011
 20
427.5
 30
0.0
 40
2.9999999999999938
  0
POLYLINE
  5
595
  8
DATA
 62
     7
 66
     1
 10
0.0
 20
0.0
 30
0.0
  0
VERTEX
  5
D56
  8
DATA
 62
     7
 10
29.800000000000011
 20
428.0
 30
0.0
  0
VERTEX
  5
D57
  8
DATA
 62
     7
 10
29.800000000000011
 20
429.49999999999989
 30
0.0
  0
VERTEX
  5
D58
  8
DATA
 62
     7
 10
28.800000000000011
 20
429.49999999999989
 30
0.0
  0
VERTEX
  5
D59
  8
DATA
 62
     7
 10
28.800000000000011
 20
428.0
 30
0.0
  0
SEQEND
  5
D5A
  8
DATA
 62
     7
  0
POLYLINE
  5
59B
  8
DATA
 62
     7
 66
     1
 10
0.0
 20
0.0
 30
0.0
  0
VERTEX
  5
D5B
  8
DATA
 62
     7
 10
29.800000000000011
 20
427.0
 30
0.0
  0
VERTEX
  5
D5C
  8
DATA
 62
     7
 10
29.800000000000011
 20
425.49999999999989
 30
0.0
  0
VERTEX
  5
D5D
  8
DATA
 62
     7
 10
28.800000000000011
 20
425.49999999999989
 30
0.0
  0
VERTEX
  5
D5E
  8
DATA
 62
     7
 10
28.800000000000011
 20
427.0
 30
0.0
  0
SEQEND
  5
D5F
  8
DATA
 62
     7
  0
POLYLINE
  5
5A1
  8
DATA
 62
     7
 66
     1
 10
0.0
 20
0.0
 30
0.0
  0
VERTEX
  5
D60
  8
DATA
 62
     7
 10
29.800000000000011
 20
427.0
 30
0.0
  0
VERTEX
  5
D61
  8
DATA
 62
     7
 10
31.300000000000011
 20
427.0
 30
0.0
  0
VERTEX
  5
D62
  8
DATA
 62
     7
 10
31.300000000000011
 20
428.0
 30
0.0
  0
VERTEX
  5
D63
  8
DATA
 62
     7
 10
29.800000000000011
 20
428.0
 30
0.0
  0
SEQEND
  5
D64
  8
DATA
 62
     7
  0
POLYLINE
  5
5A7
  8
DATA
 62
     7
 66
     1
 10
0.0
 20
0.0
 30
0.0
  0
VERTEX
  5
D65
  8
DATA
 62
     7
 10
28.800000000000011
 20
427.0
 30
0.0
  0
VERTEX
  5
D66
  8
DATA
 62
     7
 10
27.300000000000011
 20
427.0
 30
0.0
  0
VERTEX
  5
D67
  8
DATA
 62
     7
 10
27.300000000000011
 20
428.0
 30
0.0
  0
VERTEX
  5
D68
  8
DATA
 62
     7
 10
28.800000000000011
 20
428.0
 30
0.0
  0
SEQEND
  5
D69
  8
DATA
 62
     7
  0
CIRCLE
  5
5AD
  8
DATA
 62
     7
 10
29.300000000000011
 20
427.5
 30
0.0
 40
3.25000000000002
  0
CIRCLE
  5
5AE
  8
DATA
 62
     7
 10
221.30000000000001
 20
435.5
 30
0.0
 40
2.9999999999999938
  0
POLYLINE
  5
5AF
  8
DATA
 62
     7
 66
     1
 10
0.0
 20
0.0
 30
0.0
  0
VERTEX
  5
D6A
  8
DATA
 62
     7
 10
221.80000000000001
 20
436.0
 30
0.0
  0
VERTEX
  5
D6B
  8
DATA
 62
     7
 10
221.80000000000001
 20
437.5
 30
0.0
  0
VERTEX
  5
D6C
  8
DATA
 62
     7
 10
220.80000000000001
 20
437.5
 30
0.0
  0
VERTEX
  5
D6D
  8
DATA
 62
     7
 10
220.80000000000001
 20
436.0
 30
0.0
  0
SEQEND
  5
D6E
  8
DATA
 62
     7
  0
POLYLINE
  5
5B5
  8
DATA
 62
     7
 66
     1
 10
0.0
 20
0.0
 30
0.0
  0
VERTEX
  5
D6F
  8
DATA
 62
     7
 10
221.80000000000001
 20
435.0
 30
0.0
  0
VERTEX
  5
D70
  8
DATA
 62
     7
 10
221.80000000000001
 20
433.49999999999989
 30
0.0
  0
VERTEX
  5
D71
  8
DATA
 62
     7
 10
220.80000000000001
 20
433.49999999999989
 30
0.0
  0
VERTEX
  5
D72
  8
DATA
 62
     7
 10
220.80000000000001
 20
435.0
 30
0.0
  0
SEQEND
  5
D73
  8
DATA
 62
     7
  0
POLYLINE
  5
5BB
  8
DATA
 62
     7
 66
     1
 10
0.0
 20
0.0
 30
0.0
  0
VERTEX
  5
D74
  8
DATA
 62
     7
 10
221.80000000000001
 20
435.0
 30
0.0
  0
VERTEX
  5
D75
  8
DATA
 62
     7
 10
223.30000000000001
 20
435.0
 30
0.0
  0
VERTEX
  5
D76
  8
DATA
 62
     7
 10
223.30000000000001
 20
436.0
 30
0.0
  0
VERTEX
  5
D77
  8
DATA
 62
     7
 10
221.80000000000001
 20
436.0
 30
0.0
  0
SEQEND
  5
D78
  8
DATA
 62
     7
  0
POLYLINE
  5
5C1
  8
DATA
 62
     7
 66
     1
 10
0.0
 20
0.0
 30
0.0
  0
VERTEX
  5
D79
  8
DATA
 62
     7
 10
220.80000000000001
 20
435.0
 30
0.0
  0
VERTEX
  5
D7A
  8
DATA
 62
     7
 10
219.30000000000001
 20
435.0
 30
0.0
  0
VERTEX
  5
D7B
  8
DATA
 62
     7
 10
219.30000000000001
 20
436.0
 30
0.0
  0
VERTEX
  5
D7C
  8
DATA
 62
     7
 10
220.80000000000001
 20
436.0
 30
0.0
  0
SEQEND
  5
D7D
  8
DATA
 62
     7
  0
CIRCLE
  5
5C7
  8
DATA
 62
     7
 10
221.30000000000001
 20
435.5
 30
0.0
 40
3.25000000000002
  0
CIRCLE
  5
5C8
  8
DATA
 62
     7
 10
453.30000000000001
 20
177.0
 30
0.0
 40
2.9999999999999938
  0
POLYLINE
  5
5C9
  8
DATA
 62
     7
 66
     1
 10
0.0
 20
0.0
 30
0.0
  0
VERTEX
  5
D7E
  8
DATA
 62
     7
 10
452.80000000000001
 20
177.5
 30
0.0
  0
VERTEX
  5
D7F
  8
DATA
 62
     7
 10
452.80000000000001
 20
179.0
 30
0.0
  0
VERTEX
  5
D80
  8
DATA
 62
     7
 10
453.80000000000001
 20
179.0
 30
0.0
  0
VERTEX
  5
D81
  8
DATA
 62
     7
 10
453.80000000000001
 20
177.5
 30
0.0
  0
SEQEND
  5
D82
  8
DATA
 62
     7
  0
POLYLINE
  5
5CF
  8
DATA
 62
     7
 66
     1
 10
0.0
 20
0.0
 30
0.0
  0
VERTEX
  5
D83
  8
DATA
 62
     7
 10
452.80000000000001
 20
176.5
 30
0.0
  0
VERTEX
  5
D84
  8
DATA
 62
     7
 10
452.80000000000001
 20
175.0
 30
0.0
  0
VERTEX
  5
D85
  8
DATA
 62
     7
 10
453.80000000000001
 20
175.0
 30
0.0
  0
VERTEX
  5
D86
  8
DATA
 62
     7
 10
453.80000000000001
 20
176.5
 30
0.0
  0
SEQEND
  5
D87
  8
DATA
 62
     7
  0
POLYLINE
  5
5D5
  8
DATA
 62
     7
 66
     1
 10
0.0
 20
0.0
 30
0.0
  0
VERTEX
  5
D88
  8
DATA
 62
     7
 10
452.80000000000001
 20
176.5
 30
0.0
  0
VERTEX
  5
D89
  8
DATA
 62
     7
 10
451.2999999999999
 20
176.5
 30
0.0
  0
VERTEX
  5
D8A
  8
DATA
 62
     7
 10
451.2999999999999
 20
177.5
 30
0.0
  0
VERTEX
  5
D8B
  8
DATA
 62
     7
 10
452.80000000000001
 20
177.5
 30
0.0
  0
SEQEND
  5
D8C
  8
DATA
 62
     7
  0
POLYLINE
  5
5DB
  8
DATA
 62
     7
 66
     1
 10
0.0
 20
0.0
 30
0.0
  0
VERTEX
  5
D8D
  8
DATA
 62
     7
 10
453.80000000000001
 20
176.5
 30
0.0
  0
VERTEX
  5
D8E
  8
DATA
 62
     7
 10
455.2999999999999
 20
176.5
 30
0.0
  0
VERTEX
  5
D8F
  8
DATA
 62
     7
 10
455.2999999999999
 20
177.5
 30
0.0
  0
VERTEX
  5
D90
  8
DATA
 62
     7
 10
453.80000000000001
 20
177.5
 30
0.0
  0
SEQEND
  5
D91
  8
DATA
 62
     7
  0
CIRCLE
  5
5E1
  8
DATA
 62
     7
 10
453.30000000000001
 20
177.0
 30
0.0
 40
3.25000000000002
  0
CIRCLE
  5
5E2
  8
DATA
 62
     7
 10
453.30000000000001
 20
305.0
 30
0.0
 40
2.9999999999999938
  0
POLYLINE
  5
5E3
  8
DATA
 62
     7
 66
     1
 10
0.0
 20
0.0
 30
0.0
  0
VERTEX
  5
D92
  8
DATA
 62
     7
 10
452.80000000000001
 20
305.5
 30
0.0
  0
VERTEX
  5
D93
  8
DATA
 62
     7
 10
452.80000000000001
 20
307.0
 30
0.0
  0
VERTEX
  5
D94
  8
DATA
 62
     7
 10
453.80000000000001
 20
307.0
 30
0.0
  0
VERTEX
  5
D95
  8
DATA
 62
     7
 10
453.80000000000001
 20
305.5
 30
0.0
  0
SEQEND
  5
D96
  8
DATA
 62
     7
  0
POLYLINE
  5
5E9
  8
DATA
 62
     7
 66
     1
 10
0.0
 20
0.0
 30
0.0
  0
VERTEX
  5
D97
  8
DATA
 62
     7
 10
452.80000000000001
 20
304.5
 30
0.0
  0
VERTEX
  5
D98
  8
DATA
 62
     7
 10
452.80000000000001
 20
303.0
 30
0.0
  0
VERTEX
  5
D99
  8
DATA
 62
     7
 10
453.80000000000001
 20
303.0
 30
0.0
  0
VERTEX
  5
D9A
  8
DATA
 62
     7
 10
453.80000000000001
 20
304.5
 30
0.0
  0
SEQEND
  5
D9B
  8
DATA
 62
     7
  0
POLYLINE
  5
5EF
  8
DATA
 62
     7
 66
     1
 10
0.0
 20
0.0
 30
0.0
  0
VERTEX
  5
D9C
  8
DATA
 62
     7
 10
452.80000000000001
 20
304.5
 30
0.0
  0
VERTEX
  5
D9D
  8
DATA
 62
     7
 10
451.2999999999999
 20
304.5
 30
0.0
  0
VERTEX
  5
D9E
  8
DATA
 62
     7
 10
451.2999999999999
 20
305.5
 30
0.0
  0
VERTEX
  5
D9F
  8
DATA
 62
     7
 10
452.80000000000001
 20
305.5
 30
0.0
  0
SEQEND
  5
DA0
  8
DATA
 62
     7
  0
POLYLINE
  5
5F5
  8
DATA
 62
     7
 66
     1
 10
0.0
 20
0.0
 30
0.0
  0
VERTEX
  5
DA1
  8
DATA
 62
     7
 10
453.80000000000001
 20
304.5
 30
0.0
  0
VERTEX
  5
DA2
  8
DATA
 62
     7
 10
455.2999999999999
 20
304.5
 30
0.0
  0
VERTEX
  5
DA3
  8
DATA
 62
     7
 10
455.2999999999999
 20
305.5
 30
0.0
  0
VERTEX
  5
DA4
  8
DATA
 62
     7
 10
453.80000000000001
 20
305.5
 30
0.0
  0
SEQEND
  5
DA5
  8
DATA
 62
     7
  0
CIRCLE
  5
5FB
  8
DATA
 62
     7
 10
453.30000000000001
 20
305.0
 30
0.0
 40
3.25000000000002
  0
CIRCLE
  5
5FC
  8
DATA
 62
     7
 10
453.30000000000001
 20
427.5
 30
0.0
 40
2.9999999999999938
  0
POLYLINE
  5
5FD
  8
DATA
 62
     7
 66
     1
 10
0.0
 20
0.0
 30
0.0
  0
VERTEX
  5
DA6
  8
DATA
 62
     7
 10
452.80000000000001
 20
428.0
 30
0.0
  0
VERTEX
  5
DA7
  8
DATA
 62
     7
 10
452.80000000000001
 20
429.49999999999989
 30
0.0
  0
VERTEX
  5
DA8
  8
DATA
 62
     7
 10
453.80000000000001
 20
429.49999999999989
 30
0.0
  0
VERTEX
  5
DA9
  8
DATA
 62
     7
 10
453.80000000000001
 20
428.0
 30
0.0
  0
SEQEND
  5
DAA
  8
DATA
 62
     7
  0
POLYLINE
  5
603
  8
DATA
 62
     7
 66
     1
 10
0.0
 20
0.0
 30
0.0
  0
VERTEX
  5
DAB
  8
DATA
 62
     7
 10
452.80000000000001
 20
427.0
 30
0.0
  0
VERTEX
  5
DAC
  8
DATA
 62
     7
 10
452.80000000000001
 20
425.49999999999989
 30
0.0
  0
VERTEX
  5
DAD
  8
DATA
 62
     7
 10
453.80000000000001
 20
425.49999999999989
 30
0.0
  0
VERTEX
  5
DAE
  8
DATA
 62
     7
 10
453.80000000000001
 20
427.0
 30
0.0
  0
SEQEND
  5
DAF
  8
DATA
 62
     7
  0
POLYLINE
  5
609
  8
DATA
 62
     7
 66
     1
 10
0.0
 20
0.0
 30
0.0
  0
VERTEX
  5
DB0
  8
DATA
 62
     7
 10
452.80000000000001
 20
427.0
 30
0.0
  0
VERTEX
  5
DB1
  8
DATA
 62
     7
 10
451.2999999999999
 20
427.0
 30
0.0
  0
VERTEX
  5
DB2
  8
DATA
 62
     7
 10
451.2999999999999
 20
428.0
 30
0.0
  0
VERTEX
  5
DB3
  8
DATA
 62
     7
 10
452.80000000000001
 20
428.0
 30
0.0
  0
SEQEND
  5
DB4
  8
DATA
 62
     7
  0
POLYLINE
  5
60F
  8
DATA
 62
     7
 66
     1
 10
0.0
 20
0.0
 30
0.0
  0
VERTEX
  5
DB5
  8
DATA
 62
     7
 10
453.80000000000001
 20
427.0
 30
0.0
  0
VERTEX
  5
DB6
  8
DATA
 62
     7
 10
455.2999999999999
 20
427.0
 30
0.0
  0
VERTEX
  5
DB7
  8
DATA
 62
     7
 10
455.2999999999999
 20
428.0
 30
0.0
  0
VERTEX
  5
DB8
  8
DATA
 62
     7
 10
453.80000000000001
 20
428.0
 30
0.0
  0
SEQEND
  5
DB9
  8
DATA
 62
     7
  0
CIRCLE
  5
615
  8
DATA
 62
     7
 10
453.30000000000001
 20
427.5
 30
0.0
 40
3.25000000000002
  0
LINE
  5
616
  8
DATA
 62
     7
 10
92.0
 20
146.0
 30
0.0
 11
92.0
 21
150.0
 31
0.0
  0
LINE
  5
617
  8
DATA
 62
     7
 10
97.0
 20
146.0
 30
0.0
 11
97.0
 21
150.0
 31
0.0
  0
LINE
  5
618
  8
DATA
 62
     7
 10
92.0
 20
146.0
 30
0.0
 11
97.0
 21
146.0
 31
0.0
  0
LINE
  5
619
  8
DATA
 62
     7
 10
110.5
 20
146.0
 30
0.0
 11
110.5
 21
150.0
 31
0.0
  0
LINE
  5
61A
  8
DATA
 62
     7
 10
105.5
 20
146.0
 30
0.0
 11
105.5
 21
150.0
 31
0.0
  0
LINE
  5
61B
  8
DATA
 62
     7
 10
105.5
 20
146.0
 30
0.0
 11
110.5
 21
146.0
 31
0.0
  0
LINE
  5
61C
  8
DATA
 62
     7
 10
119.5
 20
148.5
 30
0.0
 11
119.5
 21
150.0
 31
0.0
  0
LINE
  5
61D
  8
DATA
 62
     7
 10
125.5
 20
148.5
 30
0.0
 11
125.5
 21
150.0
 31
0.0
  0
LINE
  5
61E
  8
DATA
 62
     7
 10
119.5
 20
148.5
 30
0.0
 11
125.5
 21
148.5
 31
0.0
  0
LINE
  5
61F
  8
DATA
 62
     7
 10
121.3598032867822
 20
148.5
 30
0.0
 11
121.3598032867822
 21
150.0
 31
0.0
  0
LINE
  5
620
  8
DATA
 62
     7
 10
120.66698296375461
 20
148.5
 30
0.0
 11
120.66698296375461
 21
150.0
 31
0.0
  0
LINE
  5
621
  8
DATA
 62
     7
 10
193.0
 20
146.0
 30
0.0
 11
193.0
 21
150.0
 31
0.0
  0
LINE
  5
622
  8
DATA
 62
     7
 10
198.0
 20
146.0
 30
0.0
 11
198.0
 21
150.0
 31
0.0
  0
LINE
  5
623
  8
DATA
 62
     7
 10
193.0
 20
146.0
 30
0.0
 11
198.0
 21
146.0
 31
0.0
  0
LINE
  5
624
  8
DATA
 62
     7
 10
211.5
 20
146.0
 30
0.0
 11
211.5
 21
150.0
 31
0.0
  0
LINE
  5
625
  8
DATA
 62
     7
 10
206.5
 20
146.0
 30
0.0
 11
206.5
 21
150.0
 31
0.0
  0
LINE
  5
626
  8
DATA
 62
     7
 10
206.5
 20
146.0
 30
0.0
 11
211.5
 21
146.0
 31
0.0
  0
LINE
  5
627
  8
DATA
 62
     7
 10
220.5
 20
148.5
 30
0.0
 11
220.5
 21
150.0
 31
0.0
  0
LINE
  5
628
  8
DATA
 62
     7
 10
226.5
 20
148.5
 30
0.0
 11
226.5
 21
150.0
 31
0.0
  0
LINE
  5
629
  8
DATA
 62
     7
 10
220.5
 20
148.5
 30
0.0
 11
226.5
 21
148.5
 31
0.0
  0
LINE
  5
62A
  8
DATA
 62
     7
 10
222.35980328678221
 20
148.5
 30
0.0
 11
222.35980328678221
 21
150.0
 31
0.0
  0
LINE
  5
62B
  8
DATA
 62
     7
 10
221.66698296375461
 20
148.5
 30
0.0
 11
221.66698296375461
 21
150.0
 31
0.0
  0
LINE
  5
62C
  8
DATA
 62
     7
 10
294.0
 20
146.0
 30
0.0
 11
294.0
 21
150.0
 31
0.0
  0
LINE
  5
62D
  8
DATA
 62
     7
 10
299.0
 20
146.0
 30
0.0
 11
299.0
 21
150.0
 31
0.0
  0
LINE
  5
62E
  8
DATA
 62
     7
 10
294.0
 20
146.0
 30
0.0
 11
299.0
 21
146.0
 31
0.0
  0
LINE
  5
62F
  8
DATA
 62
     7
 10
312.5
 20
146.0
 30
0.0
 11
312.5
 21
150.0
 31
0.0
  0
LINE
  5
630
  8
DATA
 62
     7
 10
307.5
 20
146.0
 30
0.0
 11
307.5
 21
150.0
 31
0.0
  0
LINE
  5
631
  8
DATA
 62
     7
 10
307.5
 20
146.0
 30
0.0
 11
312.5
 21
146.0
 31
0.0
  0
LINE
  5
632
  8
DATA
 62
     7
 10
321.5
 20
148.5
 30
0.0
 11
321.5
 21
150.0
 31
0.0
  0
LINE
  5
633
  8
DATA
 62
     7
 10
327.5
 20
148.5
 30
0.0
 11
327.5
 21
150.0
 31
0.0
  0
LINE
  5
634
  8
DATA
 62
     7
 10
321.5
 20
148.5
 30
0.0
 11
327.5
 21
148.5
 31
0.0
  0
LINE
  5
635
  8
DATA
 62
     7
 10
323.35980328678221
 20
148.5
 30
0.0
 11
323.35980328678221
 21
150.0
 31
0.0
  0
LINE
  5
636
  8
DATA
 62
     7
 10
322.66698296375461
 20
148.5
 30
0.0
 11
322.66698296375461
 21
150.0
 31
0.0
  0
LINE
  5
637
  8
DATA
 62
     7
 10
395.0
 20
146.0
 30
0.0
 11
395.0
 21
150.0
 31
0.0
  0
LINE
  5
638
  8
DATA
 62
     7
 10
400.0
 20
146.0
 30
0.0
 11
400.0
 21
150.0
 31
0.0
  0
LINE
  5
639
  8
DATA
 62
     7
 10
395.0
 20
146.0
 30
0.0
 11
400.0
 21
146.0
 31
0.0
  0
LINE
  5
63A
  8
DATA
 62
     7
 10
413.49999999999989
 20
146.0
 30
0.0
 11
413.49999999999989
 21
150.0
 31
0.0
  0
LINE
  5
63B
  8
DATA
 62
     7
 10
408.49999999999989
 20
146.0
 30
0.0
 11
408.49999999999989
 21
150.0
 31
0.0
  0
LINE
  5
63C
  8
DATA
 62
     7
 10
408.49999999999989
 20
146.0
 30
0.0
 11
413.49999999999989
 21
146.0
 31
0.0
  0
LINE
  5
63D
  8
DATA
 62
     7
 10
422.49999999999989
 20
148.5
 30
0.0
 11
422.49999999999989
 21
150.0
 31
0.0
  0
LINE
  5
63E
  8
DATA
 62
     7
 10
428.5
 20
148.5
 30
0.0
 11
428.5
 21
150.0
 31
0.0
  0
LINE
  5
63F
  8
DATA
 62
     7
 10
422.49999999999989
 20
148.5
 30
0.0
 11
428.5
 21
148.5
 31
0.0
  0
LINE
  5
640
  8
DATA
 62
     7
 10
424.3598032867821
 20
148.5
 30
0.0
 11
424.3598032867821
 21
150.0
 31
0.0
  0
LINE
  5
641
  8
DATA
 62
     7
 10
423.66698296375472
 20
148.5
 30
0.0
 11
423.66698296375472
 21
150.0
 31
0.0
  0
CIRCLE
  5
642
  8
DATA
 62
     7
 10
522.5
 20
8.0
 30
0.0
 40
3.0
  0
POLYLINE
  5
643
  8
DATA
 62
     7
 66
     1
 10
0.0
 20
0.0
 30
0.0
  0
VERTEX
  5
DBA
  8
DATA
 62
     7
 10
522.0
 20
7.5
 30
0.0
  0
VERTEX
  5
DBB
  8
DATA
 62
     7
 10
522.0
 20
6.0
 30
0.0
  0
VERTEX
  5
DBC
  8
DATA
 62
     7
 10
523.0
 20
6.0
 30
0.0
  0
VERTEX
  5
DBD
  8
DATA
 62
     7
 10
523.0
 20
7.5
 30
0.0
  0
SEQEND
  5
DBE
  8
DATA
 62
     7
  0
POLYLINE
  5
649
  8
DATA
 62
     7
 66
     1
 10
0.0
 20
0.0
 30
0.0
  0
VERTEX
  5
DBF
  8
DATA
 62
     7
 10
522.0
 20
8.5
 30
0.0
  0
VERTEX
  5
DC0
  8
DATA
 62
     7
 10
522.0
 20
10.0
 30
0.0
  0
VERTEX
  5
DC1
  8
DATA
 62
     7
 10
523.0
 20
10.0
 30
0.0
  0
VERTEX
  5
DC2
  8
DATA
 62
     7
 10
523.0
 20
8.5
 30
0.0
  0
SEQEND
  5
DC3
  8
DATA
 62
     7
  0
POLYLINE
  5
64F
  8
DATA
 62
     7
 66
     1
 10
0.0
 20
0.0
 30
0.0
  0
VERTEX
  5
DC4
  8
DATA
 62
     7
 10
523.0
 20
7.5
 30
0.0
  0
VERTEX
  5
DC5
  8
DATA
 62
     7
 10
524.5
 20
7.5
 30
0.0
  0
VERTEX
  5
DC6
  8
DATA
 62
     7
 10
524.5
 20
8.5
 30
0.0
  0
VERTEX
  5
DC7
  8
DATA
 62
     7
 10
523.0
 20
8.5
 30
0.0
  0
SEQEND
  5
DC8
  8
DATA
 62
     7
  0
POLYLINE
  5
655
  8
DATA
 62
     7
 66
     1
 10
0.0
 20
0.0
 30
0.0
  0
VERTEX
  5
DC9
  8
DATA
 62
     7
 10
522.0
 20
7.5
 30
0.0
  0
VERTEX
  5
DCA
  8
DATA
 62
     7
 10
520.5
 20
7.5
 30
0.0
  0
VERTEX
  5
DCB
  8
DATA
 62
     7
 10
520.5
 20
8.5
 30
0.0
  0
VERTEX
  5
DCC
  8
DATA
 62
     7
 10
522.0
 20
8.5
 30
0.0
  0
SEQEND
  5
DCD
  8
DATA
 62
     7
  0
CIRCLE
  5
65B
  8
DATA
 62
     7
 10
522.5
 20
36.0
 30
0.0
 40
3.0
  0
POLYLINE
  5
65C
  8
DATA
 62
     7
 66
     1
 10
0.0
 20
0.0
 30
0.0
  0
VERTEX
  5
DCE
  8
DATA
 62
     7
 10
522.0
 20
35.5
 30
0.0
  0
VERTEX
  5
DCF
  8
DATA
 62
     7
 10
522.0
 20
34.0
 30
0.0
  0
VERTEX
  5
DD0
  8
DATA
 62
     7
 10
523.0
 20
34.0
 30
0.0
  0
VERTEX
  5
DD1
  8
DATA
 62
     7
 10
523.0
 20
35.5
 30
0.0
  0
SEQEND
  5
DD2
  8
DATA
 62
     7
  0
POLYLINE
  5
662
  8
DATA
 62
     7
 66
     1
 10
0.0
 20
0.0
 30
0.0
  0
VERTEX
  5
DD3
  8
DATA
 62
     7
 10
522.0
 20
36.5
 30
0.0
  0
VERTEX
  5
DD4
  8
DATA
 62
     7
 10
522.0
 20
38.0
 30
0.0
  0
VERTEX
  5
DD5
  8
DATA
 62
     7
 10
523.0
 20
38.0
 30
0.0
  0
VERTEX
  5
DD6
  8
DATA
 62
     7
 10
523.0
 20
36.5
 30
0.0
  0
SEQEND
  5
DD7
  8
DATA
 62
     7
  0
POLYLINE
  5
668
  8
DATA
 62
     7
 66
     1
 10
0.0
 20
0.0
 30
0.0
  0
VERTEX
  5
DD8
  8
DATA
 62
     7
 10
523.0
 20
35.5
 30
0.0
  0
VERTEX
  5
DD9
  8
DATA
 62
     7
 10
524.5
 20
35.5
 30
0.0
  0
VERTEX
  5
DDA
  8
DATA
 62
     7
 10
524.5
 20
36.5
 30
0.0
  0
VERTEX
  5
DDB
  8
DATA
 62
     7
 10
523.0
 20
36.5
 30
0.0
  0
SEQEND
  5
DDC
  8
DATA
 62
     7
  0
POLYLINE
  5
66E
  8
DATA
 62
     7
 66
     1
 10
0.0
 20
0.0
 30
0.0
  0
VERTEX
  5
DDD
  8
DATA
 62
     7
 10
522.0
 20
35.5
 30
0.0
  0
VERTEX
  5
DDE
  8
DATA
 62
     7
 10
520.5
 20
35.5
 30
0.0
  0
VERTEX
  5
DDF
  8
DATA
 62
     7
 10
520.5
 20
36.5
 30
0.0
  0
VERTEX
  5
DE0
  8
DATA
 62
     7
 10
522.0
 20
36.5
 30
0.0
  0
SEQEND
  5
DE1
  8
DATA
 62
     7
  0
CIRCLE
  5
674
  8
DATA
 62
     7
 10
686.0
 20
29.0
 30
0.0
 40
2.9999999999999751
  0
POLYLINE
  5
675
  8
DATA
 62
     7
 66
     1
 10
0.0
 20
0.0
 30
0.0
  0
VERTEX
  5
DE2
  8
DATA
 62
     7
 10
685.5
 20
28.5
 30
0.0
  0
VERTEX
  5
DE3
  8
DATA
 62
     7
 10
685.5
 20
27.0
 30
0.0
  0
VERTEX
  5
DE4
  8
DATA
 62
     7
 10
686.5
 20
27.0
 30
0.0
  0
VERTEX
  5
DE5
  8
DATA
 62
     7
 10
686.5
 20
28.5
 30
0.0
  0
SEQEND
  5
DE6
  8
DATA
 62
     7
  0
POLYLINE
  5
67B
  8
DATA
 62
     7
 66
     1
 10
0.0
 20
0.0
 30
0.0
  0
VERTEX
  5
DE7
  8
DATA
 62
     7
 10
685.5
 20
29.5
 30
0.0
  0
VERTEX
  5
DE8
  8
DATA
 62
     7
 10
685.5
 20
31.0
 30
0.0
  0
VERTEX
  5
DE9
  8
DATA
 62
     7
 10
686.5
 20
31.0
 30
0.0
  0
VERTEX
  5
DEA
  8
DATA
 62
     7
 10
686.5
 20
29.5
 30
0.0
  0
SEQEND
  5
DEB
  8
DATA
 62
     7
  0
POLYLINE
  5
681
  8
DATA
 62
     7
 66
     1
 10
0.0
 20
0.0
 30
0.0
  0
VERTEX
  5
DEC
  8
DATA
 62
     7
 10
686.5
 20
28.5
 30
0.0
  0
VERTEX
  5
DED
  8
DATA
 62
     7
 10
688.0
 20
28.5
 30
0.0
  0
VERTEX
  5
DEE
  8
DATA
 62
     7
 10
688.0
 20
29.5
 30
0.0
  0
VERTEX
  5
DEF
  8
DATA
 62
     7
 10
686.5
 20
29.5
 30
0.0
  0
SEQEND
  5
DF0
  8
DATA
 62
     7
  0
POLYLINE
  5
687
  8
DATA
 62
     7
 66
     1
 10
0.0
 20
0.0
 30
0.0
  0
VERTEX
  5
DF1
  8
DATA
 62
     7
 10
685.5
 20
28.5
 30
0.0
  0
VERTEX
  5
DF2
  8
DATA
 62
     7
 10
684.0
 20
28.5
 30
0.0
  0
VERTEX
  5
DF3
  8
DATA
 62
     7
 10
684.0
 20
29.5
 30
0.0
  0
VERTEX
  5
DF4
  8
DATA
 62
     7
 10
685.5
 20
29.5
 30
0.0
  0
SEQEND
  5
DF5
  8
DATA
 62
     7
  0
CIRCLE
  5
68D
  8
DATA
 62
     7
 10
713.0
 20
29.0
 30
0.0
 40
2.9999999999999751
  0
POLYLINE
  5
68E
  8
DATA
 62
     7
 66
     1
 10
0.0
 20
0.0
 30
0.0
  0
VERTEX
  5
DF6
  8
DATA
 62
     7
 10
712.5
 20
28.5
 30
0.0
  0
VERTEX
  5
DF7
  8
DATA
 62
     7
 10
712.5
 20
27.0
 30
0.0
  0
VERTEX
  5
DF8
  8
DATA
 62
     7
 10
713.49999999999989
 20
27.0
 30
0.0
  0
VERTEX
  5
DF9
  8
DATA
 62
     7
 10
713.49999999999989
 20
28.5
 30
0.0
  0
SEQEND
  5
DFA
  8
DATA
 62
     7
  0
POLYLINE
  5
694
  8
DATA
 62
     7
 66
     1
 10
0.0
 20
0.0
 30
0.0
  0
VERTEX
  5
DFB
  8
DATA
 62
     7
 10
712.5
 20
29.5
 30
0.0
  0
VERTEX
  5
DFC
  8
DATA
 62
     7
 10
712.5
 20
31.0
 30
0.0
  0
VERTEX
  5
DFD
  8
DATA
 62
     7
 10
713.49999999999989
 20
31.0
 30
0.0
  0
VERTEX
  5
DFE
  8
DATA
 62
     7
 10
713.49999999999989
 20
29.5
 30
0.0
  0
SEQEND
  5
DFF
  8
DATA
 62
     7
  0
POLYLINE
  5
69A
  8
DATA
 62
     7
 66
     1
 10
0.0
 20
0.0
 30
0.0
  0
VERTEX
  5
E00
  8
DATA
 62
     7
 10
713.49999999999989
 20
28.5
 30
0.0
  0
VERTEX
  5
E01
  8
DATA
 62
     7
 10
715.0
 20
28.5
 30
0.0
  0
VERTEX
  5
E02
  8
DATA
 62
     7
 10
715.0
 20
29.5
 30
0.0
  0
VERTEX
  5
E03
  8
DATA
 62
     7
 10
713.49999999999989
 20
29.5
 30
0.0
  0
SEQEND
  5
E04
  8
DATA
 62
     7
  0
POLYLINE
  5
6A0
  8
DATA
 62
     7
 66
     1
 10
0.0
 20
0.0
 30
0.0
  0
VERTEX
  5
E05
  8
DATA
 62
     7
 10
712.5
 20
28.5
 30
0.0
  0
VERTEX
  5
E06
  8
DATA
 62
     7
 10
711.0
 20
28.5
 30
0.0
  0
VERTEX
  5
E07
  8
DATA
 62
     7
 10
711.0
 20
29.5
 30
0.0
  0
VERTEX
  5
E08
  8
DATA
 62
     7
 10
712.5
 20
29.5
 30
0.0
  0
SEQEND
  5
E09
  8
DATA
 62
     7
  0
ARC
  5
6A6
  8
DATA
 62
     7
 10
664.0
 20
39.229166666666629
 30
0.0
 40
4.270833333333357
 50
40.449718862336539
 51
139.5502811376634
  0
ARC
  5
6A7
  8
DATA
 62
     7
 10
536.0
 20
39.229166666666629
 30
0.0
 40
4.270833333333357
 50
40.449718862336539
 51
139.5502811376634
  0
ARC
  5
6A8
  8
DATA
 62
     7
 10
786.5
 20
4.7708333333333712
 30
0.0
 40
4.270833333333357
 50
220.44971886233651
 51
319.55028113766349
  0
ARC
  5
6A9
  8
DATA
 62
     7
 10
794.5
 20
4.7708333333333712
 30
0.0
 40
4.270833333333357
 50
220.44971886233651
 51
319.55028113766349
  0
ARC
  5
6AA
  8
DATA
 62
     7
 10
664.0
 20
4.7708333333333712
 30
0.0
 40
4.270833333333357
 50
220.44971886233651
 51
319.55028113766349
  0
ARC
  5
6AB
  8
DATA
 62
     7
 10
536.0
 20
4.7708333333333712
 30
0.0
 40
4.270833333333357
 50
220.44971886233651
 51
319.55028113766349
  0
LINE
  5
6AC
  8
DATA
 62
     7
 10
507.5
 20
11.0
 30
0.0
 11
509.0
 21
11.0
 31
0.0
  0
LINE
  5
6AD
  8
DATA
 62
     7
 10
507.5
 20
17.0
 30
0.0
 11
509.0
 21
17.0
 31
0.0
  0
LINE
  5
6AE
  8
DATA
 62
     7
 10
507.5
 20
17.0
 30
0.0
 11
507.5
 21
11.0
 31
0.0
  0
LINE
  5
6AF
  8
DATA
 62
     7
 10
505.0
 20
15.5
 30
0.0
 11
507.5
 21
15.5
 31
0.0
  0
LINE
  5
6B0
  8
DATA
 62
     7
 10
505.0
 20
10.5
 30
0.0
 11
509.0
 21
10.5
 31
0.0
  0
LINE
  5
6B1
  8
DATA
 62
     7
 10
505.0
 20
15.5
 30
0.0
 11
505.0
 21
10.5
 31
0.0
  0
LINE
  5
6B2
  8
DATA
 62
     7
 10
505.0
 20
29.5
 30
0.0
 11
509.0
 21
29.5
 31
0.0
  0
LINE
  5
6B3
  8
DATA
 62
     7
 10
505.0
 20
34.5
 30
0.0
 11
509.0
 21
34.5
 31
0.0
  0
LINE
  5
6B4
  8
DATA
 62
     7
 10
505.0
 20
34.5
 30
0.0
 11
505.0
 21
29.5
 31
0.0
  0
LINE
  5
6B5
  8
DATA
 62
     7
 10
69.550000000000011
 20
441.5
 30
0.0
 11
69.550000000000011
 21
440.0
 31
0.0
  0
LINE
  5
6B6
  8
DATA
 62
     7
 10
69.550000000000011
 20
441.5
 30
0.0
 11
88.550000000000026
 21
441.5
 31
0.0
  0
LINE
  5
6B7
  8
DATA
 62
     7
 10
88.550000000000026
 20
441.5
 30
0.0
 11
88.550000000000026
 21
440.0
 31
0.0
  0
LINE
  5
6B8
  8
DATA
 62
     7
 10
94.049999999999983
 20
441.5
 30
0.0
 11
94.049999999999983
 21
440.0
 31
0.0
  0
LINE
  5
6B9
  8
DATA
 62
     7
 10
89.050000000000026
 20
442.0
 30
0.0
 11
93.549999999999997
 21
442.0
 31
0.0
  0
LINE
  5
6BA
  8
DATA
 62
     7
 10
68.550000000000011
 20
441.5
 30
0.0
 11
68.550000000000011
 21
440.0
 31
0.0
  0
LINE
  5
6BB
  8
DATA
 62
     7
 10
69.050000000000011
 20
442.0
 30
0.0
 11
73.550000000000026
 21
442.0
 31
0.0
  0
ARC
  5
6BC
  8
DATA
 62
     7
 10
93.549999999999997
 20
441.5
 30
0.0
 40
0.5
 50
0.0
 51
90.0
  0
ARC
  5
6BD
  8
DATA
 62
     7
 10
89.050000000000026
 20
441.5
 30
0.0
 40
0.5
 50
90.0
 51
180.0
  0
ARC
  5
6BE
  8
DATA
 62
     7
 10
73.550000000000026
 20
441.5
 30
0.0
 40
0.5
 50
0.0
 51
90.0
  0
ARC
  5
6BF
  8
DATA
 62
     7
 10
69.050000000000011
 20
441.5
 30
0.0
 40
0.5
 50
90.0
 51
180.0
  0
LINE
  5
6C0
  8
DATA
 62
     7
 10
78.300000000000026
 20
441.5
 30
0.0
 11
78.300000000000026
 21
440.0
 31
0.0
  0
LINE
  5
6C1
  8
DATA
 62
     7
 10
84.300000000000026
 20
441.5
 30
0.0
 11
84.300000000000026
 21
440.0
 31
0.0
  0
LINE
  5
6C2
  8
DATA
 62
     7
 10
135.05000000000001
 20
441.5
 30
0.0
 11
135.05000000000001
 21
440.0
 31
0.0
  0
LINE
  5
6C3
  8
DATA
 62
     7
 10
135.05000000000001
 20
441.5
 30
0.0
 11
154.05000000000001
 21
441.5
 31
0.0
  0
LINE
  5
6C4
  8
DATA
 62
     7
 10
154.05000000000001
 20
441.5
 30
0.0
 11
154.05000000000001
 21
440.0
 31
0.0
  0
LINE
  5
6C5
  8
DATA
 62
     7
 10
159.55000000000001
 20
441.5
 30
0.0
 11
159.55000000000001
 21
440.0
 31
0.0
  0
LINE
  5
6C6
  8
DATA
 62
     7
 10
154.55000000000001
 20
442.0
 30
0.0
 11
159.05000000000001
 21
442.0
 31
0.0
  0
LINE
  5
6C7
  8
DATA
 62
     7
 10
134.05000000000001
 20
441.5
 30
0.0
 11
134.05000000000001
 21
440.0
 31
0.0
  0
LINE
  5
6C8
  8
DATA
 62
     7
 10
134.55000000000001
 20
442.0
 30
0.0
 11
139.05000000000001
 21
442.0
 31
0.0
  0
ARC
  5
6C9
  8
DATA
 62
     7
 10
159.05000000000001
 20
441.5
 30
0.0
 40
0.5
 50
0.0
 51
90.0
  0
ARC
  5
6CA
  8
DATA
 62
     7
 10
154.55000000000001
 20
441.5
 30
0.0
 40
0.5
 50
90.0
 51
180.0
  0
ARC
  5
6CB
  8
DATA
 62
     7
 10
139.05000000000001
 20
441.5
 30
0.0
 40
0.5
 50
0.0
 51
90.0
  0
ARC
  5
6CC
  8
DATA
 62
     7
 10
134.55000000000001
 20
441.5
 30
0.0
 40
0.5
 50
90.0
 51
180.0
  0
LINE
  5
6CD
  8
DATA
 62
     7
 10
143.80000000000001
 20
441.5
 30
0.0
 11
143.80000000000001
 21
440.0
 31
0.0
  0
LINE
  5
6CE
  8
DATA
 62
     7
 10
149.80000000000001
 20
441.5
 30
0.0
 11
149.80000000000001
 21
440.0
 31
0.0
  0
LINE
  5
6CF
  8
DATA
 62
     7
 10
195.80000000000001
 20
444.0
 30
0.0
 11
195.80000000000001
 21
443.5
 31
0.0
  0
LINE
  5
6D0
  8
DATA
 62
     7
 10
205.80000000000001
 20
444.0
 30
0.0
 11
205.80000000000001
 21
443.5
 31
0.0
  0
LINE
  5
6D1
  8
DATA
 62
     7
 10
195.80000000000001
 20
444.0
 30
0.0
 11
205.80000000000001
 21
444.0
 31
0.0
  0
LINE
  5
6D2
  8
DATA
 62
     7
 10
195.80000000000001
 20
443.5
 30
0.0
 11
205.80000000000001
 21
443.5
 31
0.0
  0
LINE
  5
6D3
  8
DATA
 62
     7
 10
198.30000000000001
 20
443.5
 30
0.0
 11
198.30000000000001
 21
440.0
 31
0.0
  0
LINE
  5
6D4
  8
DATA
 62
     7
 10
203.30000000000001
 20
443.5
 30
0.0
 11
203.30000000000001
 21
440.0
 31
0.0
  0
LINE
  5
6D5
  8
DATA
 62
     7
 10
189.05000000000001
 20
441.5
 30
0.0
 11
189.05000000000001
 21
440.0
 31
0.0
  0
LINE
  5
6D6
  8
DATA
 62
     7
 10
189.05000000000001
 20
441.5
 30
0.0
 11
198.30000000000001
 21
441.5
 31
0.0
  0
LINE
  5
6D7
  8
DATA
 62
     7
 10
203.30000000000001
 20
441.5
 30
0.0
 11
208.05000000000001
 21
441.5
 31
0.0
  0
LINE
  5
6D8
  8
DATA
 62
     7
 10
208.05000000000001
 20
441.5
 30
0.0
 11
208.05000000000001
 21
440.0
 31
0.0
  0
LINE
  5
6D9
  8
DATA
 62
     7
 10
213.55000000000001
 20
441.5
 30
0.0
 11
213.55000000000001
 21
440.0
 31
0.0
  0
LINE
  5
6DA
  8
DATA
 62
     7
 10
188.05000000000001
 20
441.5
 30
0.0
 11
188.05000000000001
 21
440.0
 31
0.0
  0
LINE
  5
6DB
  8
DATA
 62
     7
 10
208.55000000000001
 20
442.0
 30
0.0
 11
213.05000000000001
 21
442.0
 31
0.0
  0
ARC
  5
6DC
  8
DATA
 62
     7
 10
213.05000000000001
 20
441.5
 30
0.0
 40
0.5
 50
0.0
 51
90.0
  0
ARC
  5
6DD
  8
DATA
 62
     7
 10
208.55000000000001
 20
441.5
 30
0.0
 40
0.5
 50
90.0
 51
180.0
  0
LINE
  5
6DE
  8
DATA
 62
     7
 10
188.55000000000001
 20
442.0
 30
0.0
 11
193.05000000000001
 21
442.0
 31
0.0
  0
ARC
  5
6DF
  8
DATA
 62
     7
 10
188.55000000000001
 20
441.5
 30
0.0
 40
0.5
 50
90.0
 51
180.0
  0
ARC
  5
6E0
  8
DATA
 62
     7
 10
193.05000000000001
 20
441.5
 30
0.0
 40
0.5
 50
0.0
 51
90.0
  0
LINE
  5
6E1
  8
DATA
 62
     7
 10
162.05000000000001
 20
441.5
 30
0.0
 11
162.05000000000001
 21
440.0
 31
0.0
  0
LINE
  5
6E2
  8
DATA
 62
     7
 10
162.05000000000001
 20
441.5
 30
0.0
 11
181.05000000000001
 21
441.5
 31
0.0
  0
LINE
  5
6E3
  8
DATA
 62
     7
 10
181.05000000000001
 20
441.5
 30
0.0
 11
181.05000000000001
 21
440.0
 31
0.0
  0
LINE
  5
6E4
  8
DATA
 62
     7
 10
186.55000000000001
 20
441.5
 30
0.0
 11
186.55000000000001
 21
440.0
 31
0.0
  0
LINE
  5
6E5
  8
DATA
 62
     7
 10
181.55000000000001
 20
442.0
 30
0.0
 11
186.05000000000001
 21
442.0
 31
0.0
  0
LINE
  5
6E6
  8
DATA
 62
     7
 10
161.05000000000001
 20
441.5
 30
0.0
 11
161.05000000000001
 21
440.0
 31
0.0
  0
LINE
  5
6E7
  8
DATA
 62
     7
 10
161.55000000000001
 20
442.0
 30
0.0
 11
166.05000000000001
 21
442.0
 31
0.0
  0
ARC
  5
6E8
  8
DATA
 62
     7
 10
186.05000000000001
 20
441.5
 30
0.0
 40
0.5
 50
0.0
 51
90.0
  0
ARC
  5
6E9
  8
DATA
 62
     7
 10
181.55000000000001
 20
441.5
 30
0.0
 40
0.5
 50
90.0
 51
180.0
  0
ARC
  5
6EA
  8
DATA
 62
     7
 10
166.05000000000001
 20
441.5
 30
0.0
 40
0.5
 50
0.0
 51
90.0
  0
ARC
  5
6EB
  8
DATA
 62
     7
 10
161.55000000000001
 20
441.5
 30
0.0
 40
0.5
 50
90.0
 51
180.0
  0
LINE
  5
6EC
  8
DATA
 62
     7
 10
170.80000000000001
 20
441.5
 30
0.0
 11
170.80000000000001
 21
440.0
 31
0.0
  0
LINE
  5
6ED
  8
DATA
 62
     7
 10
176.80000000000001
 20
441.5
 30
0.0
 11
176.80000000000001
 21
440.0
 31
0.0
  0
LINE
  5
6EE
  8
DATA
 62
     7
 10
227.55000000000001
 20
441.5
 30
0.0
 11
227.55000000000001
 21
440.0
 31
0.0
  0
LINE
  5
6EF
  8
DATA
 62
     7
 10
227.55000000000001
 20
441.5
 30
0.0
 11
246.55000000000001
 21
441.5
 31
0.0
  0
LINE
  5
6F0
  8
DATA
 62
     7
 10
246.55000000000001
 20
441.5
 30
0.0
 11
246.55000000000001
 21
440.0
 31
0.0
  0
LINE
  5
6F1
  8
DATA
 62
     7
 10
252.05000000000001
 20
441.5
 30
0.0
 11
252.05000000000001
 21
440.0
 31
0.0
  0
LINE
  5
6F2
  8
DATA
 62
     7
 10
247.05000000000001
 20
442.0
 30
0.0
 11
251.55000000000001
 21
442.0
 31
0.0
  0
LINE
  5
6F3
  8
DATA
 62
     7
 10
226.55000000000001
 20
441.5
 30
0.0
 11
226.55000000000001
 21
440.0
 31
0.0
  0
LINE
  5
6F4
  8
DATA
 62
     7
 10
227.05000000000001
 20
442.0
 30
0.0
 11
231.55000000000001
 21
442.0
 31
0.0
  0
ARC
  5
6F5
  8
DATA
 62
     7
 10
251.55000000000001
 20
441.5
 30
0.0
 40
0.5
 50
0.0
 51
90.0
  0
ARC
  5
6F6
  8
DATA
 62
     7
 10
247.05000000000001
 20
441.5
 30
0.0
 40
0.5
 50
90.0
 51
180.0
  0
ARC
  5
6F7
  8
DATA
 62
     7
 10
231.55000000000001
 20
441.5
 30
0.0
 40
0.5
 50
0.0
 51
90.0
  0
ARC
  5
6F8
  8
DATA
 62
     7
 10
227.05000000000001
 20
441.5
 30
0.0
 40
0.5
 50
90.0
 51
180.0
  0
LINE
  5
6F9
  8
DATA
 62
     7
 10
236.30000000000001
 20
441.5
 30
0.0
 11
236.30000000000001
 21
440.0
 31
0.0
  0
LINE
  5
6FA
  8
DATA
 62
     7
 10
242.30000000000001
 20
441.5
 30
0.0
 11
242.30000000000001
 21
440.0
 31
0.0
  0
LINE
  5
6FB
  8
DATA
 62
     7
 10
288.30000000000001
 20
444.0
 30
0.0
 11
288.30000000000001
 21
443.5
 31
0.0
  0
LINE
  5
6FC
  8
DATA
 62
     7
 10
298.30000000000001
 20
444.0
 30
0.0
 11
298.30000000000001
 21
443.5
 31
0.0
  0
LINE
  5
6FD
  8
DATA
 62
     7
 10
288.30000000000001
 20
444.0
 30
0.0
 11
298.30000000000001
 21
444.0
 31
0.0
  0
LINE
  5
6FE
  8
DATA
 62
     7
 10
288.30000000000001
 20
443.5
 30
0.0
 11
298.30000000000001
 21
443.5
 31
0.0
  0
LINE
  5
6FF
  8
DATA
 62
     7
 10
290.80000000000001
 20
443.5
 30
0.0
 11
290.80000000000001
 21
440.0
 31
0.0
  0
LINE
  5
700
  8
DATA
 62
     7
 10
295.80000000000001
 20
443.5
 30
0.0
 11
295.80000000000001
 21
440.0
 31
0.0
  0
LINE
  5
701
  8
DATA
 62
     7
 10
281.55000000000001
 20
441.5
 30
0.0
 11
281.55000000000001
 21
440.0
 31
0.0
  0
LINE
  5
702
  8
DATA
 62
     7
 10
281.55000000000001
 20
441.5
 30
0.0
 11
290.80000000000001
 21
441.5
 31
0.0
  0
LINE
  5
703
  8
DATA
 62
     7
 10
295.80000000000001
 20
441.5
 30
0.0
 11
300.55000000000001
 21
441.5
 31
0.0
  0
LINE
  5
704
  8
DATA
 62
     7
 10
300.55000000000001
 20
441.5
 30
0.0
 11
300.55000000000001
 21
440.0
 31
0.0
  0
LINE
  5
705
  8
DATA
 62
     7
 10
306.05000000000001
 20
441.5
 30
0.0
 11
306.05000000000001
 21
440.0
 31
0.0
  0
LINE
  5
706
  8
DATA
 62
     7
 10
280.55000000000001
 20
441.5
 30
0.0
 11
280.55000000000001
 21
440.0
 31
0.0
  0
LINE
  5
707
  8
DATA
 62
     7
 10
301.05000000000001
 20
442.0
 30
0.0
 11
305.55000000000001
 21
442.0
 31
0.0
  0
ARC
  5
708
  8
DATA
 62
     7
 10
305.55000000000001
 20
441.5
 30
0.0
 40
0.5
 50
0.0
 51
90.0
  0
ARC
  5
709
  8
DATA
 62
     7
 10
301.05000000000001
 20
441.5
 30
0.0
 40
0.5
 50
90.0
 51
180.0
  0
LINE
  5
70A
  8
DATA
 62
     7
 10
281.05000000000001
 20
442.0
 30
0.0
 11
285.55000000000001
 21
442.0
 31
0.0
  0
ARC
  5
70B
  8
DATA
 62
     7
 10
281.05000000000001
 20
441.5
 30
0.0
 40
0.5
 50
90.0
 51
180.0
  0
ARC
  5
70C
  8
DATA
 62
     7
 10
285.55000000000001
 20
441.5
 30
0.0
 40
0.5
 50
0.0
 51
90.0
  0
LINE
  5
70D
  8
DATA
 62
     7
 10
254.55000000000001
 20
441.5
 30
0.0
 11
254.55000000000001
 21
440.0
 31
0.0
  0
LINE
  5
70E
  8
DATA
 62
     7
 10
254.55000000000001
 20
441.5
 30
0.0
 11
273.55000000000001
 21
441.5
 31
0.0
  0
LINE
  5
70F
  8
DATA
 62
     7
 10
273.55000000000001
 20
441.5
 30
0.0
 11
273.55000000000001
 21
440.0
 31
0.0
  0
LINE
  5
710
  8
DATA
 62
     7
 10
279.05000000000001
 20
441.5
 30
0.0
 11
279.05000000000001
 21
440.0
 31
0.0
  0
LINE
  5
711
  8
DATA
 62
     7
 10
274.05000000000001
 20
442.0
 30
0.0
 11
278.55000000000001
 21
442.0
 31
0.0
  0
LINE
  5
712
  8
DATA
 62
     7
 10
253.55000000000001
 20
441.5
 30
0.0
 11
253.55000000000001
 21
440.0
 31
0.0
  0
LINE
  5
713
  8
DATA
 62
     7
 10
254.05000000000001
 20
442.0
 30
0.0
 11
258.55000000000001
 21
442.0
 31
0.0
  0
ARC
  5
714
  8
DATA
 62
     7
 10
278.55000000000001
 20
441.5
 30
0.0
 40
0.5
 50
0.0
 51
90.0
  0
ARC
  5
715
  8
DATA
 62
     7
 10
274.05000000000001
 20
441.5
 30
0.0
 40
0.5
 50
90.0
 51
180.0
  0
ARC
  5
716
  8
DATA
 62
     7
 10
258.55000000000001
 20
441.5
 30
0.0
 40
0.5
 50
0.0
 51
90.0
  0
ARC
  5
717
  8
DATA
 62
     7
 10
254.05000000000001
 20
441.5
 30
0.0
 40
0.5
 50
90.0
 51
180.0
  0
LINE
  5
718
  8
DATA
 62
     7
 10
263.30000000000001
 20
441.5
 30
0.0
 11
263.30000000000001
 21
440.0
 31
0.0
  0
LINE
  5
719
  8
DATA
 62
     7
 10
269.30000000000001
 20
441.5
 30
0.0
 11
269.30000000000001
 21
440.0
 31
0.0
  0
LINE
  5
71A
  8
DATA
 62
     7
 10
320.05000000000001
 20
441.5
 30
0.0
 11
320.05000000000001
 21
440.0
 31
0.0
  0
LINE
  5
71B
  8
DATA
 62
     7
 10
320.05000000000001
 20
441.5
 30
0.0
 11
339.05000000000001
 21
441.5
 31
0.0
  0
LINE
  5
71C
  8
DATA
 62
     7
 10
339.05000000000001
 20
441.5
 30
0.0
 11
339.05000000000001
 21
440.0
 31
0.0
  0
LINE
  5
71D
  8
DATA
 62
     7
 10
344.55000000000001
 20
441.5
 30
0.0
 11
344.55000000000001
 21
440.0
 31
0.0
  0
LINE
  5
71E
  8
DATA
 62
     7
 10
339.55000000000001
 20
442.0
 30
0.0
 11
344.05000000000001
 21
442.0
 31
0.0
  0
LINE
  5
71F
  8
DATA
 62
     7
 10
319.05000000000001
 20
441.5
 30
0.0
 11
319.05000000000001
 21
440.0
 31
0.0
  0
LINE
  5
720
  8
DATA
 62
     7
 10
319.55000000000001
 20
442.0
 30
0.0
 11
324.05000000000001
 21
442.0
 31
0.0
  0
ARC
  5
721
  8
DATA
 62
     7
 10
344.05000000000001
 20
441.5
 30
0.0
 40
0.5
 50
0.0
 51
90.0
  0
ARC
  5
722
  8
DATA
 62
     7
 10
339.55000000000001
 20
441.5
 30
0.0
 40
0.5
 50
90.0
 51
180.0
  0
ARC
  5
723
  8
DATA
 62
     7
 10
324.05000000000001
 20
441.5
 30
0.0
 40
0.5
 50
0.0
 51
90.0
  0
ARC
  5
724
  8
DATA
 62
     7
 10
319.55000000000001
 20
441.5
 30
0.0
 40
0.5
 50
90.0
 51
180.0
  0
LINE
  5
725
  8
DATA
 62
     7
 10
328.80000000000001
 20
441.5
 30
0.0
 11
328.80000000000001
 21
440.0
 31
0.0
  0
LINE
  5
726
  8
DATA
 62
     7
 10
334.80000000000001
 20
441.5
 30
0.0
 11
334.80000000000001
 21
440.0
 31
0.0
  0
LINE
  5
727
  8
DATA
 62
     7
 10
380.80000000000001
 20
444.0
 30
0.0
 11
380.80000000000001
 21
443.5
 31
0.0
  0
LINE
  5
728
  8
DATA
 62
     7
 10
390.80000000000001
 20
444.0
 30
0.0
 11
390.80000000000001
 21
443.5
 31
0.0
  0
LINE
  5
729
  8
DATA
 62
     7
 10
380.80000000000001
 20
444.0
 30
0.0
 11
390.80000000000001
 21
444.0
 31
0.0
  0
LINE
  5
72A
  8
DATA
 62
     7
 10
380.80000000000001
 20
443.5
 30
0.0
 11
390.80000000000001
 21
443.5
 31
0.0
  0
LINE
  5
72B
  8
DATA
 62
     7
 10
383.30000000000001
 20
443.5
 30
0.0
 11
383.30000000000001
 21
440.0
 31
0.0
  0
LINE
  5
72C
  8
DATA
 62
     7
 10
388.30000000000001
 20
443.5
 30
0.0
 11
388.30000000000001
 21
440.0
 31
0.0
  0
LINE
  5
72D
  8
DATA
 62
     7
 10
374.05000000000001
 20
441.5
 30
0.0
 11
374.05000000000001
 21
440.0
 31
0.0
  0
LINE
  5
72E
  8
DATA
 62
     7
 10
374.05000000000001
 20
441.5
 30
0.0
 11
383.30000000000001
 21
441.5
 31
0.0
  0
LINE
  5
72F
  8
DATA
 62
     7
 10
388.30000000000001
 20
441.5
 30
0.0
 11
393.05000000000001
 21
441.5
 31
0.0
  0
LINE
  5
730
  8
DATA
 62
     7
 10
393.05000000000001
 20
441.5
 30
0.0
 11
393.05000000000001
 21
440.0
 31
0.0
  0
LINE
  5
731
  8
DATA
 62
     7
 10
398.55000000000001
 20
441.5
 30
0.0
 11
398.55000000000001
 21
440.0
 31
0.0
  0
LINE
  5
732
  8
DATA
 62
     7
 10
373.05000000000001
 20
441.5
 30
0.0
 11
373.05000000000001
 21
440.0
 31
0.0
  0
LINE
  5
733
  8
DATA
 62
     7
 10
393.55000000000001
 20
442.0
 30
0.0
 11
398.05000000000001
 21
442.0
 31
0.0
  0
ARC
  5
734
  8
DATA
 62
     7
 10
398.05000000000001
 20
441.5
 30
0.0
 40
0.5
 50
0.0
 51
90.0
  0
ARC
  5
735
  8
DATA
 62
     7
 10
393.55000000000001
 20
441.5
 30
0.0
 40
0.5
 50
90.0
 51
180.0
  0
LINE
  5
736
  8
DATA
 62
     7
 10
373.55000000000001
 20
442.0
 30
0.0
 11
378.05000000000001
 21
442.0
 31
0.0
  0
ARC
  5
737
  8
DATA
 62
     7
 10
373.55000000000001
 20
441.5
 30
0.0
 40
0.5
 50
90.0
 51
180.0
  0
ARC
  5
738
  8
DATA
 62
     7
 10
378.05000000000001
 20
441.5
 30
0.0
 40
0.5
 50
0.0
 51
90.0
  0
LINE
  5
739
  8
DATA
 62
     7
 10
347.05000000000001
 20
441.5
 30
0.0
 11
347.05000000000001
 21
440.0
 31
0.0
  0
LINE
  5
73A
  8
DATA
 62
     7
 10
347.05000000000001
 20
441.5
 30
0.0
 11
366.05000000000001
 21
441.5
 31
0.0
  0
LINE
  5
73B
  8
DATA
 62
     7
 10
366.05000000000001
 20
441.5
 30
0.0
 11
366.05000000000001
 21
440.0
 31
0.0
  0
LINE
  5
73C
  8
DATA
 62
     7
 10
371.55000000000001
 20
441.5
 30
0.0
 11
371.55000000000001
 21
440.0
 31
0.0
  0
LINE
  5
73D
  8
DATA
 62
     7
 10
366.55000000000001
 20
442.0
 30
0.0
 11
371.05000000000001
 21
442.0
 31
0.0
  0
LINE
  5
73E
  8
DATA
 62
     7
 10
346.05000000000001
 20
441.5
 30
0.0
 11
346.05000000000001
 21
440.0
 31
0.0
  0
LINE
  5
73F
  8
DATA
 62
     7
 10
346.55000000000001
 20
442.0
 30
0.0
 11
351.05000000000001
 21
442.0
 31
0.0
  0
ARC
  5
740
  8
DATA
 62
     7
 10
371.05000000000001
 20
441.5
 30
0.0
 40
0.5
 50
0.0
 51
90.0
  0
ARC
  5
741
  8
DATA
 62
     7
 10
366.55000000000001
 20
441.5
 30
0.0
 40
0.5
 50
90.0
 51
180.0
  0
ARC
  5
742
  8
DATA
 62
     7
 10
351.05000000000001
 20
441.5
 30
0.0
 40
0.5
 50
0.0
 51
90.0
  0
ARC
  5
743
  8
DATA
 62
     7
 10
346.55000000000001
 20
441.5
 30
0.0
 40
0.5
 50
90.0
 51
180.0
  0
LINE
  5
744
  8
DATA
 62
     7
 10
355.80000000000001
 20
441.5
 30
0.0
 11
355.80000000000001
 21
440.0
 31
0.0
  0
LINE
  5
745
  8
DATA
 62
     7
 10
361.80000000000001
 20
441.5
 30
0.0
 11
361.80000000000001
 21
440.0
 31
0.0
  0
LINE
  5
746
  8
DATA
 62
     7
 10
423.05000000000001
 20
442.0
 30
0.0
 11
433.0499999999999
 21
442.0
 31
0.0
  0
LINE
  5
747
  8
DATA
 62
     7
 10
423.55000000000001
 20
442.0
 30
0.0
 11
424.0499999999999
 21
457.0
 31
0.0
  0
LINE
  5
748
  8
DATA
 62
     7
 10
432.5499999999999
 20
442.0
 30
0.0
 11
432.05000000000001
 21
457.0
 31
0.0
  0
LINE
  5
749
  8
DATA
 62
     7
 10
424.0499999999999
 20
457.0
 30
0.0
 11
432.05000000000001
 21
457.0
 31
0.0
  0
ARC
  5
74A
  8
DATA
 62
     7
 10
423.05000000000001
 20
440.0
 30
0.0
 40
2.0
 50
90.0
 51
180.0
  0
ARC
  5
74B
  8
DATA
 62
     7
 10
433.0499999999999
 20
440.0
 30
0.0
 40
2.0
 50
0.0
 51
90.0
  0
LINE
  5
74C
  8
DATA
 62
     7
 10
424.80000000000001
 20
459.0
 30
0.0
 11
424.80000000000001
 21
457.0
 31
0.0
  0
LINE
  5
74D
  8
DATA
 62
     7
 10
431.30000000000001
 20
459.49999999999989
 30
0.0
 11
431.30000000000001
 21
457.0
 31
0.0
  0
LINE
  5
74E
  8
DATA
 62
     7
 10
416.80000000000001
 20
467.0
 30
0.0
 11
225.30000000000001
 21
467.0
 31
0.0
  0
LINE
  5
74F
  8
DATA
 62
     7
 10
417.30000000000001
 20
473.5
 30
0.0
 11
225.30000000000001
 21
473.5
 31
0.0
  0
LINE
  5
750
  8
DATA
 62
     7
 10
225.30000000000001
 20
473.5
 30
0.0
 11
225.30000000000001
 21
467.0
 31
0.0
  0
LINE
  5
751
  8
DATA
 62
     7
 10
225.30000000000001
 20
462.75
 30
0.0
 11
225.30000000000001
 21
477.74999999999989
 31
0.0
  0
LINE
  5
752
  8
DATA
 62
     7
 10
217.30000000000001
 20
454.25
 30
0.0
 11
225.30000000000001
 21
462.75
 31
0.0
  0
LINE
  5
753
  8
DATA
 62
     7
 10
217.30000000000001
 20
486.24999999999989
 30
0.0
 11
225.30000000000001
 21
477.74999999999989
 31
0.0
  0
LINE
  5
754
  8
DATA
 62
     7
 10
217.30000000000001
 20
454.25
 30
0.0
 11
196.30000000000001
 21
454.25
 31
0.0
  0
LINE
  5
755
  8
DATA
 62
     7
 10
196.30000000000001
 20
454.25
 30
0.0
 11
196.30000000000001
 21
486.24999999999989
 31
0.0
  0
LINE
  5
756
  8
DATA
 62
     7
 10
196.30000000000001
 20
486.24999999999989
 30
0.0
 11
217.30000000000001
 21
486.24999999999989
 31
0.0
  0
LINE
  5
757
  8
DATA
 62
     7
 10
193.30000000000001
 20
461.24999999999989
 30
0.0
 11
196.30000000000001
 21
461.24999999999989
 31
0.0
  0
LINE
  5
758
  8
DATA
 62
     7
 10
193.30000000000001
 20
461.24999999999989
 30
0.0
 11
193.30000000000001
 21
479.25
 31
0.0
  0
LINE
  5
759
  8
DATA
 62
     7
 10
193.30000000000001
 20
479.25
 30
0.0
 11
196.30000000000001
 21
479.25
 31
0.0
  0
LINE
  5
75A
  8
DATA
 62
     7
 10
190.30000000000001
 20
476.75
 30
0.0
 11
190.30000000000001
 21
463.75
 31
0.0
  0
LINE
  5
75B
  8
DATA
 62
     7
 10
190.30000000000001
 20
476.75
 30
0.0
 11
193.30000000000001
 21
476.75
 31
0.0
  0
LINE
  5
75C
  8
DATA
 62
     7
 10
190.30000000000001
 20
463.75
 30
0.0
 11
193.30000000000001
 21
463.75
 31
0.0
  0
LINE
  5
75D
  8
DATA
 62
     7
 10
226.59411764705879
 20
485.25
 30
0.0
 11
235.59411764705879
 21
485.25
 31
0.0
  0
LINE
  5
75E
  8
DATA
 62
     7
 10
235.59411764705879
 20
485.25
 30
0.0
 11
235.59411764705879
 21
480.25
 31
0.0
  0
LINE
  5
75F
  8
DATA
 62
     7
 10
226.59411764705879
 20
485.25
 30
0.0
 11
226.59411764705879
 21
480.25
 31
0.0
  0
LINE
  5
760
  8
DATA
 62
     7
 10
226.59411764705879
 20
480.25
 30
0.0
 11
235.59411764705879
 21
480.25
 31
0.0
  0
LINE
  5
761
  8
DATA
 62
     7
 10
192.30000000000001
 20
484.0
 30
0.0
 11
196.30000000000001
 21
484.0
 31
0.0
  0
LINE
  5
762
  8
DATA
 62
     7
 10
219.4176470588236
 20
484.0
 30
0.0
 11
226.59411764705879
 21
484.0
 31
0.0
  0
LINE
  5
763
  8
DATA
 62
     7
 10
221.7705882352941
 20
481.5
 30
0.0
 11
226.59411764705879
 21
481.5
 31
0.0
  0
LINE
  5
764
  8
DATA
 62
     7
 10
192.30000000000001
 20
481.5
 30
0.0
 11
196.30000000000001
 21
481.5
 31
0.0
  0
LINE
  5
765
  8
DATA
 62
     7
 10
192.30000000000001
 20
484.0
 30
0.0
 11
192.30000000000001
 21
481.5
 31
0.0
  0
LINE
  5
766
  8
DATA
 62
     7
 10
196.30000000000001
 20
454.25
 30
0.0
 11
217.30000000000001
 21
454.25
 31
0.0
  0
LINE
  5
767
  8
DATA
 62
     7
 10
226.59411764705879
 20
455.25
 30
0.0
 11
235.59411764705879
 21
455.25
 31
0.0
  0
LINE
  5
768
  8
DATA
 62
     7
 10
235.59411764705879
 20
455.25
 30
0.0
 11
235.59411764705879
 21
460.25
 31
0.0
  0
LINE
  5
769
  8
DATA
 62
     7
 10
226.59411764705879
 20
455.25
 30
0.0
 11
226.59411764705879
 21
460.25
 31
0.0
  0
LINE
  5
76A
  8
DATA
 62
     7
 10
226.59411764705879
 20
460.25
 30
0.0
 11
235.59411764705879
 21
460.25
 31
0.0
  0
LINE
  5
76B
  8
DATA
 62
     7
 10
192.30000000000001
 20
456.5
 30
0.0
 11
196.30000000000001
 21
456.5
 31
0.0
  0
LINE
  5
76C
  8
DATA
 62
     7
 10
219.4176470588236
 20
456.5
 30
0.0
 11
226.59411764705879
 21
456.5
 31
0.0
  0
LINE
  5
76D
  8
DATA
 62
     7
 10
221.7705882352941
 20
459.0
 30
0.0
 11
226.59411764705879
 21
459.0
 31
0.0
  0
LINE
  5
76E
  8
DATA
 62
     7
 10
192.30000000000001
 20
459.0
 30
0.0
 11
196.30000000000001
 21
459.0
 31
0.0
  0
LINE
  5
76F
  8
DATA
 62
     7
 10
192.30000000000001
 20
456.5
 30
0.0
 11
192.30000000000001
 21
459.0
 31
0.0
  0
ARC
  5
770
  8
DATA
 62
     7
 10
416.80000000000001
 20
459.0
 30
0.0
 40
8.0
 50
0.0
 51
90.0
  0
ARC
  5
771
  8
DATA
 62
     7
 10
417.30000000000001
 20
459.49999999999989
 30
0.0
 40
14.0
 50
0.0
 51
90.0
  0
LINE
  5
772
  8
DATA
 62
     7
 10
476.14999999999992
 20
570.04999999999995
 30
0.0
 11
472.85000000000002
 21
570.04999999999995
 31
0.0
  0
LINE
  5
773
  8
DATA
 62
     7
 10
476.14999999999992
 20
562.95000000000005
 30
0.0
 11
472.85000000000002
 21
562.95000000000005
 31
0.0
  0
ARC
  5
774
  8
DATA
 62
     7
 10
476.14999999999992
 20
566.5
 30
0.0
 40
3.5500000000000109
 50
270.0
 51
90.0
  0
ARC
  5
775
  8
DATA
 62
     7
 10
472.85000000000002
 20
566.5
 30
0.0
 40
3.5500000000000109
 50
90.0
 51
270.0
  0
LINE
  5
776
  8
DATA
 62
     7
 10
476.14999999999992
 20
601.04999999999995
 30
0.0
 11
472.85000000000002
 21
601.04999999999995
 31
0.0
  0
LINE
  5
777
  8
DATA
 62
     7
 10
476.14999999999992
 20
593.95000000000005
 30
0.0
 11
472.85000000000002
 21
593.95000000000005
 31
0.0
  0
ARC
  5
778
  8
DATA
 62
     7
 10
476.14999999999992
 20
597.5
 30
0.0
 40
3.5500000000000109
 50
270.0
 51
90.0
  0
ARC
  5
779
  8
DATA
 62
     7
 10
472.85000000000002
 20
597.5
 30
0.0
 40
3.5500000000000109
 50
90.0
 51
270.0
  0
LINE
  5
77A
  8
DATA
 62
     7
 10
6.8500000000000227
 20
570.04999999999995
 30
0.0
 11
10.150000000000031
 21
570.04999999999995
 31
0.0
  0
LINE
  5
77B
  8
DATA
 62
     7
 10
6.8500000000000227
 20
562.95000000000005
 30
0.0
 11
10.150000000000031
 21
562.95000000000005
 31
0.0
  0
ARC
  5
77C
  8
DATA
 62
     7
 10
6.849999999999965
 20
566.5
 30
0.0
 40
3.5500000000000109
 50
90.0
 51
270.0
  0
ARC
  5
77D
  8
DATA
 62
     7
 10
10.150000000000031
 20
566.5
 30
0.0
 40
3.5500000000000109
 50
270.0
 51
90.0
  0
LINE
  5
77E
  8
DATA
 62
     7
 10
6.8500000000000227
 20
601.04999999999995
 30
0.0
 11
10.150000000000031
 21
601.04999999999995
 31
0.0
  0
LINE
  5
77F
  8
DATA
 62
     7
 10
6.8500000000000227
 20
593.95000000000005
 30
0.0
 11
10.150000000000031
 21
593.95000000000005
 31
0.0
  0
ARC
  5
780
  8
DATA
 62
     7
 10
6.849999999999965
 20
597.5
 30
0.0
 40
3.5500000000000109
 50
90.0
 51
270.0
  0
ARC
  5
781
  8
DATA
 62
     7
 10
10.150000000000031
 20
597.5
 30
0.0
 40
3.5500000000000109
 50
270.0
 51
90.0
  0
LINE
  5
782
  8
DATA
 62
     7
 10
25.300000000000011
 20
602.0
 30
0.0
 11
457.30000000000001
 21
602.0
 31
0.0
  0
LINE
  5
783
  8
DATA
 62
     7
 10
25.300000000000011
 20
562.0
 30
0.0
 11
424.80000000000001
 21
562.0
 31
0.0
  0
LINE
  5
784
  8
DATA
 62
     7
 10
428.04999937719231
 20
562.0
 30
0.0
 11
428.05000062280772
 21
562.0
 31
0.0
  0
LINE
  5
785
  8
DATA
 62
     7
 10
431.30000000000001
 20
562.0
 30
0.0
 11
457.30000000000001
 21
562.0
 31
0.0
  0
LINE
  5
786
  8
DATA
 62
     7
 10
25.300000000000011
 20
601.0
 30
0.0
 11
457.30000000000001
 21
601.0
 31
0.0
  0
LINE
  5
787
  8
DATA
 62
     7
 10
25.300000000000011
 20
563.0
 30
0.0
 11
154.30000000000001
 21
563.0
 31
0.0
  0
LINE
  5
788
  8
DATA
 62
     7
 10
154.30000000000001
 20
563.0
 30
0.0
 11
424.4444487245359
 21
563.0
 31
0.0
  0
LINE
  5
789
  8
DATA
 62
     7
 10
431.65555127546412
 20
563.0
 30
0.0
 11
457.30000000000001
 21
563.0
 31
0.0
  0
LINE
  5
78A
  8
DATA
 62
     7
 10
457.30000000000001
 20
602.0
 30
0.0
 11
457.30000000000001
 21
562.0
 31
0.0
  0
LINE
  5
78B
  8
DATA
 62
     7
 10
457.30000000000001
 20
599.0
 30
0.0
 11
457.30000000000001
 21
593.0
 31
0.0
  0
LINE
  5
78C
  8
DATA
 62
     7
 10
457.30000000000001
 20
599.0
 30
0.0
 11
458.80000000000001
 21
599.0
 31
0.0
  0
LINE
  5
78D
  8
DATA
 62
     7
 10
460.30000000000001
 20
597.5
 30
0.0
 11
460.30000000000001
 21
594.5
 31
0.0
  0
LINE
  5
78E
  8
DATA
 62
     7
 10
458.80000000000001
 20
593.0
 30
0.0
 11
457.30000000000001
 21
593.0
 31
0.0
  0
ARC
  5
78F
  8
DATA
 62
     7
 10
458.80000000000001
 20
597.5
 30
0.0
 40
1.5
 50
0.0
 51
90.0
  0
ARC
  5
790
  8
DATA
 62
     7
 10
458.80000000000001
 20
594.5
 30
0.0
 40
1.5
 50
270.0
 51
0.0
  0
LINE
  5
791
  8
DATA
 62
     7
 10
457.85000000000002
 20
599.0
 30
0.0
 11
457.85000000000002
 21
593.0
 31
0.0
  0
LINE
  5
792
  8
DATA
 62
     7
 10
25.300000000000011
 20
602.0
 30
0.0
 11
25.300000000000011
 21
562.0
 31
0.0
  0
ARC
  5
793
  8
DATA
 62
     7
 10
29.300000000000011
 20
564.77307694697231
 30
0.0
 40
4.2708333333332842
 50
220.44971886233529
 51
319.55028113766463
  0
ARC
  5
794
  8
DATA
 62
     7
 10
29.300000000000011
 20
599.22692305302758
 30
0.0
 40
4.2708333333332842
 50
40.449718862335381
 51
139.5502811376646
  0
LINE
  5
795
  8
DATA
 62
     7
 10
25.75
 20
601.99775638636083
 30
0.0
 11
32.25
 21
601.99775638636083
 31
0.0
  0
ARC
  5
796
  8
DATA
 62
     7
 10
148.0
 20
599.22692305302758
 30
0.0
 40
4.2708333333332842
 50
40.449718862335381
 51
139.5502811376646
  0
ARC
  5
797
  8
DATA
 62
     7
 10
148.0
 20
564.77307694697231
 30
0.0
 40
4.2708333333332842
 50
220.44971886233529
 51
319.55028113766463
  0
ARC
  5
798
  8
DATA
 62
     7
 10
221.30000000000001
 20
564.77307694697231
 30
0.0
 40
4.2708333333332842
 50
220.44971886233529
 51
319.55028113766463
  0
ARC
  5
799
  8
DATA
 62
     7
 10
453.30000000000001
 20
564.77307694697231
 30
0.0
 40
4.2708333333332842
 50
220.44971886233529
 51
319.55028113766463
  0
LINE
  5
79A
  8
DATA
 62
     7
 10
456.85000000000002
 20
562.00224361363905
 30
0.0
 11
450.35000000000002
 21
562.00224361363905
 31
0.0
  0
ARC
  5
79B
  8
DATA
 62
     7
 10
453.30000000000001
 20
599.22692305302758
 30
0.0
 40
4.2708333333332842
 50
40.449718862335381
 51
139.5502811376646
  0
LINE
  5
79C
  8
DATA
 62
     7
 10
456.85000000000002
 20
601.99775638636083
 30
0.0
 11
450.35000000000002
 21
601.99775638636083
 31
0.0
  0
ARC
  5
79D
  8
DATA
 62
     7
 10
334.0
 20
564.77307694697231
 30
0.0
 40
4.2708333333332842
 50
220.44971886233529
 51
319.55028113766463
  0
ARC
  5
79E
  8
DATA
 62
     7
 10
221.30000000000001
 20
599.22692305302758
 30
0.0
 40
4.2708333333332842
 50
40.449718862335381
 51
139.5502811376646
  0
LINE
  5
79F
  8
DATA
 62
     7
 10
0.0
 20
560.0
 30
0.0
 11
0.0
 21
604.0
 31
0.0
  0
LINE
  5
7A0
  8
DATA
 62
     7
 10
483.0
 20
560.0
 30
0.0
 11
483.0
 21
604.0
 31
0.0
  0
LINE
  5
7A1
  8
DATA
 62
     7
 10
483.0
 20
560.0
 30
0.0
 11
431.30000000000001
 21
560.0
 31
0.0
  0
LINE
  5
7A2
  8
DATA
 62
     7
 10
424.80000000000001
 20
560.0
 30
0.0
 11
0.0
 21
560.0
 31
0.0
  0
LINE
  5
7A3
  8
DATA
 62
     7
 10
0.0
 20
604.0
 30
0.0
 11
483.0
 21
604.0
 31
0.0
  0
CIRCLE
  5
7A4
  8
DATA
 62
     7
 10
54.300000000000011
 20
583.0
 30
0.0
 40
8.2500000000000302
  0
CIRCLE
  5
7A5
  8
DATA
 62
     7
 10
58.300000000000011
 20
583.0
 30
0.0
 40
1.2499999999999789
  0
CIRCLE
  5
7A6
  8
DATA
 62
     7
 10
50.300000000000011
 20
583.0
 30
0.0
 40
1.2499999999999789
  0
CIRCLE
  5
7A7
  8
DATA
 62
     7
 10
54.300000000000011
 20
587.0
 30
0.0
 40
1.2499999999999789
  0
ARC
  5
7A8
  8
DATA
 62
     7
 10
54.300000000000011
 20
583.0
 30
0.0
 40
9.7500000000000142
 50
287.92021313939222
 51
252.0797868606077
  0
CIRCLE
  5
7A9
  8
DATA
 62
     7
 10
54.300000000000011
 20
583.0
 30
0.0
 40
11.75000000000003
  0
LINE
  5
7AA
  8
DATA
 62
     7
 10
57.300000000000011
 20
571.63943223249805
 30
0.0
 11
57.300000000000011
 21
573.72301234236033
 31
0.0
  0
LINE
  5
7AB
  8
DATA
 62
     7
 10
51.300000000000011
 20
571.63943223249805
 30
0.0
 11
51.300000000000011
 21
573.72301234236033
 31
0.0
  0
POLYLINE
  5
7AC
  8
DATA
 62
     7
 66
     1
 10
0.0
 20
0.0
 30
0.0
  0
VERTEX
  5
E0A
  8
DATA
 62
     7
 10
44.850000000000023
 20
594.45000000000005
 30
0.0
  0
VERTEX
  5
E0B
  8
DATA
 62
     7
 10
45.949999999999982
 20
594.45000000000005
 30
0.0
  0
VERTEX
  5
E0C
  8
DATA
 62
     7
 10
45.949999999999982
 20
595.54999999999995
 30
0.0
  0
VERTEX
  5
E0D
  8
DATA
 62
     7
 10
44.850000000000023
 20
595.54999999999995
 30
0.0
  0
SEQEND
  5
E0E
  8
DATA
 62
     7
  0
POLYLINE
  5
7B2
  8
DATA
 62
     7
 66
     1
 10
0.0
 20
0.0
 30
0.0
  0
VERTEX
  5
E0F
  8
DATA
 62
     7
 10
43.75
 20
594.45000000000005
 30
0.0
  0
VERTEX
  5
E10
  8
DATA
 62
     7
 10
42.650000000000027
 20
594.45000000000005
 30
0.0
  0
VERTEX
  5
E11
  8
DATA
 62
     7
 10
42.650000000000027
 20
595.54999999999995
 30
0.0
  0
VERTEX
  5
E12
  8
DATA
 62
     7
 10
43.75
 20
595.54999999999995
 30
0.0
  0
SEQEND
  5
E13
  8
DATA
 62
     7
  0
POLYLINE
  5
7B8
  8
DATA
 62
     7
 66
     1
 10
0.0
 20
0.0
 30
0.0
  0
VERTEX
  5
E14
  8
DATA
 62
     7
 10
44.850000000000023
 20
595.54999999999995
 30
0.0
  0
VERTEX
  5
E15
  8
DATA
 62
     7
 10
44.850000000000023
 20
596.6500000000002
 30
0.0
  0
VERTEX
  5
E16
  8
DATA
 62
     7
 10
43.75
 20
596.6500000000002
 30
0.0
  0
VERTEX
  5
E17
  8
DATA
 62
     7
 10
43.75
 20
595.54999999999995
 30
0.0
  0
SEQEND
  5
E18
  8
DATA
 62
     7
  0
POLYLINE
  5
7BE
  8
DATA
 62
     7
 66
     1
 10
0.0
 20
0.0
 30
0.0
  0
VERTEX
  5
E19
  8
DATA
 62
     7
 10
44.850000000000023
 20
594.45000000000005
 30
0.0
  0
VERTEX
  5
E1A
  8
DATA
 62
     7
 10
44.850000000000023
 20
593.35000000000002
 30
0.0
  0
VERTEX
  5
E1B
  8
DATA
 62
     7
 10
43.75
 20
593.35000000000002
 30
0.0
  0
VERTEX
  5
E1C
  8
DATA
 62
     7
 10
43.75
 20
594.45000000000005
 30
0.0
  0
SEQEND
  5
E1D
  8
DATA
 62
     7
  0
CIRCLE
  5
7C4
  8
DATA
 62
     7
 10
44.300000000000011
 20
595.0
 30
0.0
 40
2.749999999999996
  0
CIRCLE
  5
7C5
  8
DATA
 62
     7
 10
64.300000000000011
 20
571.0
 30
0.0
 40
2.7500000000000209
  0
POLYLINE
  5
7C6
  8
DATA
 62
     7
 66
     1
 10
0.0
 20
0.0
 30
0.0
  0
VERTEX
  5
E1E
  8
DATA
 62
     7
 10
63.75
 20
571.54999999999995
 30
0.0
  0
VERTEX
  5
E1F
  8
DATA
 62
     7
 10
62.650000000000027
 20
571.54999999999995
 30
0.0
  0
VERTEX
  5
E20
  8
DATA
 62
     7
 10
62.650000000000027
 20
570.45000000000016
 30
0.0
  0
VERTEX
  5
E21
  8
DATA
 62
     7
 10
63.75
 20
570.45000000000016
 30
0.0
  0
SEQEND
  5
E22
  8
DATA
 62
     7
  0
POLYLINE
  5
7CC
  8
DATA
 62
     7
 66
     1
 10
0.0
 20
0.0
 30
0.0
  0
VERTEX
  5
E23
  8
DATA
 62
     7
 10
64.850000000000023
 20
571.54999999999995
 30
0.0
  0
VERTEX
  5
E24
  8
DATA
 62
     7
 10
65.949999999999974
 20
571.54999999999995
 30
0.0
  0
VERTEX
  5
E25
  8
DATA
 62
     7
 10
65.949999999999974
 20
570.45000000000016
 30
0.0
  0
VERTEX
  5
E26
  8
DATA
 62
     7
 10
64.850000000000023
 20
570.45000000000016
 30
0.0
  0
SEQEND
  5
E27
  8
DATA
 62
     7
  0
POLYLINE
  5
7D2
  8
DATA
 62
     7
 66
     1
 10
0.0
 20
0.0
 30
0.0
  0
VERTEX
  5
E28
  8
DATA
 62
     7
 10
63.75
 20
570.45000000000016
 30
0.0
  0
VERTEX
  5
E29
  8
DATA
 62
     7
 10
63.75
 20
569.35000000000002
 30
0.0
  0
VERTEX
  5
E2A
  8
DATA
 62
     7
 10
64.850000000000023
 20
569.35000000000002
 30
0.0
  0
VERTEX
  5
E2B
  8
DATA
 62
     7
 10
64.850000000000023
 20
570.45000000000016
 30
0.0
  0
SEQEND
  5
E2C
  8
DATA
 62
     7
  0
POLYLINE
  5
7D8
  8
DATA
 62
     7
 66
     1
 10
0.0
 20
0.0
 30
0.0
  0
VERTEX
  5
E2D
  8
DATA
 62
     7
 10
63.75
 20
571.54999999999995
 30
0.0
  0
VERTEX
  5
E2E
  8
DATA
 62
     7
 10
63.75
 20
572.64999999999986
 30
0.0
  0
VERTEX
  5
E2F
  8
DATA
 62
     7
 10
64.850000000000023
 20
572.64999999999986
 30
0.0
  0
VERTEX
  5
E30
  8
DATA
 62
     7
 10
64.850000000000023
 20
571.54999999999995
 30
0.0
  0
SEQEND
  5
E31
  8
DATA
 62
     7
  0
LINE
  5
7DE
  8
DATA
 62
     7
 10
43.75
 20
596.49999999999989
 30
0.0
 11
44.850000000000023
 21
596.49999999999989
 31
0.0
  0
TEXT
  5
7DF
  8
DATA
 62
     7
 10
59.453879046110792
 20
570.51434170170671
 30
0.0
 40
2.3999999999999999
  1
MON OUT
 50
180.0
 41
0.8
 11
59.453879046110792
 21
568.11434170170673
 31
0.0
 73
     3
  0
ARC
  5
7E0
  8
DATA
 62
     7
 10
108.3
 20
583.0
 30
0.0
 40
12.00000000000003
 50
286.10560965070721
 51
253.8943903492935
  0
CIRCLE
  5
7E1
  8
DATA
 62
     7
 10
108.3
 20
583.0
 30
0.0
 40
7.5000000000000027
  0
CIRCLE
  5
7E2
  8
DATA
 62
     7
 10
112.3
 20
583.0
 30
0.0
 40
1.250000000000004
  0
CIRCLE
  5
7E3
  8
DATA
 62
     7
 10
104.3
 20
583.0
 30
0.0
 40
1.250000000000004
  0
CIRCLE
  5
7E4
  8
DATA
 62
     7
 10
108.3
 20
587.0
 30
0.0
 40
1.250000000000004
  0
LINE
  5
7E5
  8
DATA
 62
     7
 10
110.8
 20
573.31754163448136
 30
0.0
 11
110.8
 21
571.71132486540535
 31
0.0
  0
LINE
  5
7E6
  8
DATA
 62
     7
 10
105.8
 20
573.31754163448136
 30
0.0
 11
105.8
 21
571.71132486540523
 31
0.0
  0
ARC
  5
7E7
  8
DATA
 62
     7
 10
106.17872867597291
 20
568.85566243270273
 30
0.0
 40
2.880667169173269
 50
97.554693985849994
 51
262.44530601414999
  0
ARC
  5
7E8
  8
DATA
 62
     7
 10
110.4212713240271
 20
568.85566243270273
 30
0.0
 40
2.8806671691734098
 50
277.55469398584961
 51
82.445306014150376
  0
LINE
  5
7E9
  8
DATA
 62
     7
 10
105.8
 20
566.0
 30
0.0
 11
110.8
 21
566.0
 31
0.0
  0
ARC
  5
7EA
  8
DATA
 62
     7
 10
108.3
 20
583.0
 30
0.0
 40
10.000000000000011
 50
284.47751218592992
 51
255.5224878140701
  0
LINE
  5
7EB
  8
DATA
 62
     7
 10
105.8
 20
572.21000000000004
 30
0.0
 11
110.8
 21
572.21000000000004
 31
0.0
  0
POLYLINE
  5
7EC
  8
DATA
 62
     7
 66
     1
 10
0.0
 20
0.0
 30
0.0
  0
VERTEX
  5
E32
  8
DATA
 62
     7
 10
98.850000000000037
 20
594.45000000000005
 30
0.0
  0
VERTEX
  5
E33
  8
DATA
 62
     7
 10
99.950000000000003
 20
594.45000000000005
 30
0.0
  0
VERTEX
  5
E34
  8
DATA
 62
     7
 10
99.950000000000003
 20
595.54999999999995
 30
0.0
  0
VERTEX
  5
E35
  8
DATA
 62
     7
 10
98.850000000000037
 20
595.54999999999995
 30
0.0
  0
SEQEND
  5
E36
  8
DATA
 62
     7
  0
POLYLINE
  5
7F2
  8
DATA
 62
     7
 66
     1
 10
0.0
 20
0.0
 30
0.0
  0
VERTEX
  5
E37
  8
DATA
 62
     7
 10
97.75
 20
594.45000000000005
 30
0.0
  0
VERTEX
  5
E38
  8
DATA
 62
     7
 10
96.650000000000034
 20
594.45000000000005
 30
0.0
  0
VERTEX
  5
E39
  8
DATA
 62
     7
 10
96.650000000000034
 20
595.54999999999995
 30
0.0
  0
VERTEX
  5
E3A
  8
DATA
 62
     7
 10
97.75
 20
595.54999999999995
 30
0.0
  0
SEQEND
  5
E3B
  8
DATA
 62
     7
  0
POLYLINE
  5
7F8
  8
DATA
 62
     7
 66
     1
 10
0.0
 20
0.0
 30
0.0
  0
VERTEX
  5
E3C
  8
DATA
 62
     7
 10
98.850000000000037
 20
595.54999999999995
 30
0.0
  0
VERTEX
  5
E3D
  8
DATA
 62
     7
 10
98.850000000000037
 20
596.64999999999986
 30
0.0
  0
VERTEX
  5
E3E
  8
DATA
 62
     7
 10
97.75
 20
596.64999999999986
 30
0.0
  0
VERTEX
  5
E3F
  8
DATA
 62
     7
 10
97.75
 20
595.54999999999995
 30
0.0
  0
SEQEND
  5
E40
  8
DATA
 62
     7
  0
POLYLINE
  5
7FE
  8
DATA
 62
     7
 66
     1
 10
0.0
 20
0.0
 30
0.0
  0
VERTEX
  5
E41
  8
DATA
 62
     7
 10
98.850000000000037
 20
594.45000000000005
 30
0.0
  0
VERTEX
  5
E42
  8
DATA
 62
     7
 10
98.850000000000037
 20
593.35000000000002
 30
0.0
  0
VERTEX
  5
E43
  8
DATA
 62
     7
 10
97.75
 20
593.35000000000002
 30
0.0
  0
VERTEX
  5
E44
  8
DATA
 62
     7
 10
97.75
 20
594.45000000000005
 30
0.0
  0
SEQEND
  5
E45
  8
DATA
 62
     7
  0
CIRCLE
  5
804
  8
DATA
 62
     7
 10
98.299999999999997
 20
595.0
 30
0.0
 40
2.749999999999996
  0
CIRCLE
  5
805
  8
DATA
 62
     7
 10
118.3
 20
571.0
 30
0.0
 40
2.75000000000002
  0
POLYLINE
  5
806
  8
DATA
 62
     7
 66
     1
 10
0.0
 20
0.0
 30
0.0
  0
VERTEX
  5
E46
  8
DATA
 62
     7
 10
117.75
 20
571.54999999999995
 30
0.0
  0
VERTEX
  5
E47
  8
DATA
 62
     7
 10
116.65000000000001
 20
571.54999999999995
 30
0.0
  0
VERTEX
  5
E48
  8
DATA
 62
     7
 10
116.65000000000001
 20
570.45000000000016
 30
0.0
  0
VERTEX
  5
E49
  8
DATA
 62
     7
 10
117.75
 20
570.45000000000016
 30
0.0
  0
SEQEND
  5
E4A
  8
DATA
 62
     7
  0
POLYLINE
  5
80C
  8
DATA
 62
     7
 66
     1
 10
0.0
 20
0.0
 30
0.0
  0
VERTEX
  5
E4B
  8
DATA
 62
     7
 10
118.84999999999999
 20
571.54999999999995
 30
0.0
  0
VERTEX
  5
E4C
  8
DATA
 62
     7
 10
119.95
 20
571.54999999999995
 30
0.0
  0
VERTEX
  5
E4D
  8
DATA
 62
     7
 10
119.95
 20
570.45000000000016
 30
0.0
  0
VERTEX
  5
E4E
  8
DATA
 62
     7
 10
118.84999999999999
 20
570.45000000000016
 30
0.0
  0
SEQEND
  5
E4F
  8
DATA
 62
     7
  0
POLYLINE
  5
812
  8
DATA
 62
     7
 66
     1
 10
0.0
 20
0.0
 30
0.0
  0
VERTEX
  5
E50
  8
DATA
 62
     7
 10
117.75
 20
570.45000000000016
 30
0.0
  0
VERTEX
  5
E51
  8
DATA
 62
     7
 10
117.75
 20
569.35000000000002
 30
0.0
  0
VERTEX
  5
E52
  8
DATA
 62
     7
 10
118.84999999999999
 20
569.35000000000002
 30
0.0
  0
VERTEX
  5
E53
  8
DATA
 62
     7
 10
118.84999999999999
 20
570.45000000000016
 30
0.0
  0
SEQEND
  5
E54
  8
DATA
 62
     7
  0
POLYLINE
  5
818
  8
DATA
 62
     7
 66
     1
 10
0.0
 20
0.0
 30
0.0
  0
VERTEX
  5
E55
  8
DATA
 62
     7
 10
117.75
 20
571.54999999999995
 30
0.0
  0
VERTEX
  5
E56
  8
DATA
 62
     7
 10
117.75
 20
572.64999999999986
 30
0.0
  0
VERTEX
  5
E57
  8
DATA
 62
     7
 10
118.84999999999999
 20
572.64999999999986
 30
0.0
  0
VERTEX
  5
E58
  8
DATA
 62
     7
 10
118.84999999999999
 20
571.54999999999995
 30
0.0
  0
SEQEND
  5
E59
  8
DATA
 62
     7
  0
LINE
  5
81E
  8
DATA
 62
     7
 10
97.75
 20
596.49999999999989
 30
0.0
 11
98.850000000000037
 21
596.49999999999989
 31
0.0
  0
ARC
  5
81F
  8
DATA
 62
     7
 10
334.0
 20
599.22692305302758
 30
0.0
 40
4.2708333333332842
 50
40.449718862335381
 51
139.5502811376646
  0
LINE
  5
820
  8
DATA
 62
     7
 10
25.300000000000011
 20
599.0
 30
0.0
 11
25.300000000000011
 21
593.0
 31
0.0
  0
LINE
  5
821
  8
DATA
 62
     7
 10
25.300000000000011
 20
599.0
 30
0.0
 11
23.800000000000011
 21
599.0
 31
0.0
  0
LINE
  5
822
  8
DATA
 62
     7
 10
22.300000000000011
 20
597.5
 30
0.0
 11
22.300000000000011
 21
594.5
 31
0.0
  0
LINE
  5
823
  8
DATA
 62
     7
 10
23.800000000000011
 20
593.0
 30
0.0
 11
25.300000000000011
 21
593.0
 31
0.0
  0
ARC
  5
824
  8
DATA
 62
     7
 10
23.800000000000011
 20
597.5
 30
0.0
 40
1.5
 50
90.0
 51
180.0
  0
ARC
  5
825
  8
DATA
 62
     7
 10
23.800000000000011
 20
594.5
 30
0.0
 40
1.5
 50
180.0
 51
270.0
  0
LINE
  5
826
  8
DATA
 62
     7
 10
24.75
 20
599.0
 30
0.0
 11
24.75
 21
593.0
 31
0.0
  0
LINE
  5
827
  8
DATA
 62
     7
 10
457.30000000000001
 20
571.0
 30
0.0
 11
457.30000000000001
 21
565.0
 31
0.0
  0
LINE
  5
828
  8
DATA
 62
     7
 10
457.30000000000001
 20
571.0
 30
0.0
 11
458.80000000000001
 21
571.0
 31
0.0
  0
LINE
  5
829
  8
DATA
 62
     7
 10
460.30000000000001
 20
569.5
 30
0.0
 11
460.30000000000001
 21
566.5
 31
0.0
  0
LINE
  5
82A
  8
DATA
 62
     7
 10
458.80000000000001
 20
565.0
 30
0.0
 11
457.30000000000001
 21
565.0
 31
0.0
  0
ARC
  5
82B
  8
DATA
 62
     7
 10
458.80000000000001
 20
569.5
 30
0.0
 40
1.5
 50
0.0
 51
90.0
  0
ARC
  5
82C
  8
DATA
 62
     7
 10
458.80000000000001
 20
566.5
 30
0.0
 40
1.5
 50
270.0
 51
0.0
  0
LINE
  5
82D
  8
DATA
 62
     7
 10
457.85000000000002
 20
571.0
 30
0.0
 11
457.85000000000002
 21
565.0
 31
0.0
  0
LINE
  5
82E
  8
DATA
 62
     7
 10
25.300000000000011
 20
571.0
 30
0.0
 11
25.300000000000011
 21
565.0
 31
0.0
  0
LINE
  5
82F
  8
DATA
 62
     7
 10
25.300000000000011
 20
571.0
 30
0.0
 11
23.800000000000011
 21
571.0
 31
0.0
  0
LINE
  5
830
  8
DATA
 62
     7
 10
22.300000000000011
 20
569.5
 30
0.0
 11
22.300000000000011
 21
566.5
 31
0.0
  0
LINE
  5
831
  8
DATA
 62
     7
 10
23.800000000000011
 20
565.0
 30
0.0
 11
25.300000000000011
 21
565.0
 31
0.0
  0
ARC
  5
832
  8
DATA
 62
     7
 10
23.800000000000011
 20
569.5
 30
0.0
 40
1.5
 50
90.0
 51
180.0
  0
ARC
  5
833
  8
DATA
 62
     7
 10
23.800000000000011
 20
566.5
 30
0.0
 40
1.5
 50
180.0
 51
270.0
  0
LINE
  5
834
  8
DATA
 62
     7
 10
24.75
 20
571.0
 30
0.0
 11
24.75
 21
565.0
 31
0.0
  0
LINE
  5
835
  8
DATA
 62
     7
 10
39.800000000000011
 20
567.0
 30
0.0
 11
70.300000000000011
 21
567.0
 31
0.0
  0
LINE
  5
836
  8
DATA
 62
     7
 10
92.299999999999997
 20
567.0
 30
0.0
 11
122.8
 21
567.0
 31
0.0
  0
LINE
  5
837
  8
DATA
 62
     7
 10
37.800000000000011
 20
569.0
 30
0.0
 11
37.800000000000011
 21
597.0
 31
0.0
  0
LINE
  5
838
  8
DATA
 62
     7
 10
39.800000000000011
 20
599.0
 30
0.0
 11
122.8
 21
599.0
 31
0.0
  0
CIRCLE
  5
839
  8
DATA
 62
     7
 10
81.300000000000026
 20
583.0
 30
0.0
 40
8.2500000000000302
  0
CIRCLE
  5
83A
  8
DATA
 62
     7
 10
85.300000000000026
 20
583.0
 30
0.0
 40
1.2499999999999789
  0
CIRCLE
  5
83B
  8
DATA
 62
     7
 10
77.300000000000026
 20
583.0
 30
0.0
 40
1.2499999999999789
  0
CIRCLE
  5
83C
  8
DATA
 62
     7
 10
81.300000000000026
 20
587.0
 30
0.0
 40
1.2499999999999789
  0
ARC
  5
83D
  8
DATA
 62
     7
 10
81.300000000000026
 20
583.0
 30
0.0
 40
9.7500000000000142
 50
287.92021313939222
 51
252.0797868606077
  0
CIRCLE
  5
83E
  8
DATA
 62
     7
 10
81.300000000000026
 20
583.0
 30
0.0
 40
11.75000000000003
  0
LINE
  5
83F
  8
DATA
 62
     7
 10
84.300000000000026
 20
571.63943223249805
 30
0.0
 11
84.300000000000026
 21
573.72301234236033
 31
0.0
  0
LINE
  5
840
  8
DATA
 62
     7
 10
78.300000000000026
 20
571.63943223249805
 30
0.0
 11
78.300000000000026
 21
573.72301234236033
 31
0.0
  0
POLYLINE
  5
841
  8
DATA
 62
     7
 66
     1
 10
0.0
 20
0.0
 30
0.0
  0
VERTEX
  5
E5A
  8
DATA
 62
     7
 10
71.850000000000023
 20
594.45000000000005
 30
0.0
  0
VERTEX
  5
E5B
  8
DATA
 62
     7
 10
72.950000000000003
 20
594.45000000000005
 30
0.0
  0
VERTEX
  5
E5C
  8
DATA
 62
     7
 10
72.950000000000003
 20
595.54999999999995
 30
0.0
  0
VERTEX
  5
E5D
  8
DATA
 62
     7
 10
71.850000000000023
 20
595.54999999999995
 30
0.0
  0
SEQEND
  5
E5E
  8
DATA
 62
     7
  0
POLYLINE
  5
847
  8
DATA
 62
     7
 66
     1
 10
0.0
 20
0.0
 30
0.0
  0
VERTEX
  5
E5F
  8
DATA
 62
     7
 10
70.75
 20
594.45000000000005
 30
0.0
  0
VERTEX
  5
E60
  8
DATA
 62
     7
 10
69.650000000000034
 20
594.45000000000005
 30
0.0
  0
VERTEX
  5
E61
  8
DATA
 62
     7
 10
69.650000000000034
 20
595.54999999999995
 30
0.0
  0
VERTEX
  5
E62
  8
DATA
 62
     7
 10
70.75
 20
595.54999999999995
 30
0.0
  0
SEQEND
  5
E63
  8
DATA
 62
     7
  0
POLYLINE
  5
84D
  8
DATA
 62
     7
 66
     1
 10
0.0
 20
0.0
 30
0.0
  0
VERTEX
  5
E64
  8
DATA
 62
     7
 10
71.850000000000023
 20
595.54999999999995
 30
0.0
  0
VERTEX
  5
E65
  8
DATA
 62
     7
 10
71.850000000000023
 20
596.6500000000002
 30
0.0
  0
VERTEX
  5
E66
  8
DATA
 62
     7
 10
70.75
 20
596.6500000000002
 30
0.0
  0
VERTEX
  5
E67
  8
DATA
 62
     7
 10
70.75
 20
595.54999999999995
 30
0.0
  0
SEQEND
  5
E68
  8
DATA
 62
     7
  0
POLYLINE
  5
853
  8
DATA
 62
     7
 66
     1
 10
0.0
 20
0.0
 30
0.0
  0
VERTEX
  5
E69
  8
DATA
 62
     7
 10
71.850000000000023
 20
594.45000000000005
 30
0.0
  0
VERTEX
  5
E6A
  8
DATA
 62
     7
 10
71.850000000000023
 20
593.35000000000002
 30
0.0
  0
VERTEX
  5
E6B
  8
DATA
 62
     7
 10
70.75
 20
593.35000000000002
 30
0.0
  0
VERTEX
  5
E6C
  8
DATA
 62
     7
 10
70.75
 20
594.45000000000005
 30
0.0
  0
SEQEND
  5
E6D
  8
DATA
 62
     7
  0
CIRCLE
  5
859
  8
DATA
 62
     7
 10
71.300000000000026
 20
595.0
 30
0.0
 40
2.749999999999996
  0
CIRCLE
  5
85A
  8
DATA
 62
     7
 10
91.299999999999997
 20
571.0
 30
0.0
 40
2.7500000000000209
  0
POLYLINE
  5
85B
  8
DATA
 62
     7
 66
     1
 10
0.0
 20
0.0
 30
0.0
  0
VERTEX
  5
E6E
  8
DATA
 62
     7
 10
90.750000000000014
 20
571.54999999999995
 30
0.0
  0
VERTEX
  5
E6F
  8
DATA
 62
     7
 10
89.650000000000034
 20
571.54999999999995
 30
0.0
  0
VERTEX
  5
E70
  8
DATA
 62
     7
 10
89.650000000000034
 20
570.45000000000016
 30
0.0
  0
VERTEX
  5
E71
  8
DATA
 62
     7
 10
90.750000000000014
 20
570.45000000000016
 30
0.0
  0
SEQEND
  5
E72
  8
DATA
 62
     7
  0
POLYLINE
  5
861
  8
DATA
 62
     7
 66
     1
 10
0.0
 20
0.0
 30
0.0
  0
VERTEX
  5
E73
  8
DATA
 62
     7
 10
91.850000000000023
 20
571.54999999999995
 30
0.0
  0
VERTEX
  5
E74
  8
DATA
 62
     7
 10
92.949999999999989
 20
571.54999999999995
 30
0.0
  0
VERTEX
  5
E75
  8
DATA
 62
     7
 10
92.949999999999989
 20
570.45000000000016
 30
0.0
  0
VERTEX
  5
E76
  8
DATA
 62
     7
 10
91.850000000000023
 20
570.45000000000016
 30
0.0
  0
SEQEND
  5
E77
  8
DATA
 62
     7
  0
POLYLINE
  5
867
  8
DATA
 62
     7
 66
     1
 10
0.0
 20
0.0
 30
0.0
  0
VERTEX
  5
E78
  8
DATA
 62
     7
 10
90.750000000000014
 20
570.45000000000016
 30
0.0
  0
VERTEX
  5
E79
  8
DATA
 62
     7
 10
90.750000000000014
 20
569.35000000000002
 30
0.0
  0
VERTEX
  5
E7A
  8
DATA
 62
     7
 10
91.850000000000023
 20
569.35000000000002
 30
0.0
  0
VERTEX
  5
E7B
  8
DATA
 62
     7
 10
91.850000000000023
 20
570.45000000000016
 30
0.0
  0
SEQEND
  5
E7C
  8
DATA
 62
     7
  0
POLYLINE
  5
86D
  8
DATA
 62
     7
 66
     1
 10
0.0
 20
0.0
 30
0.0
  0
VERTEX
  5
E7D
  8
DATA
 62
     7
 10
90.750000000000014
 20
571.54999999999995
 30
0.0
  0
VERTEX
  5
E7E
  8
DATA
 62
     7
 10
90.750000000000014
 20
572.64999999999986
 30
0.0
  0
VERTEX
  5
E7F
  8
DATA
 62
     7
 10
91.850000000000023
 20
572.64999999999986
 30
0.0
  0
VERTEX
  5
E80
  8
DATA
 62
     7
 10
91.850000000000023
 20
571.54999999999995
 30
0.0
  0
SEQEND
  5
E81
  8
DATA
 62
     7
  0
LINE
  5
873
  8
DATA
 62
     7
 10
70.75
 20
596.49999999999989
 30
0.0
 11
71.850000000000023
 21
596.49999999999989
 31
0.0
  0
TEXT
  5
874
  8
DATA
 62
     7
 10
86.953879046110785
 20
570.51434170170671
 30
0.0
 40
2.3999999999999999
  1
MAIN OUT
 50
180.0
 41
0.8
 11
86.953879046110785
 21
568.11434170170673
 31
0.0
 73
     3
  0
LINE
  5
875
  8
DATA
 62
     7
 10
124.8
 20
569.0
 30
0.0
 11
124.8
 21
597.0
 31
0.0
  0
LINE
  5
876
  8
DATA
 62
     7
 10
71.300000000000026
 20
564.0
 30
0.0
 11
91.299999999999997
 21
564.0
 31
0.0
  0
LINE
  5
877
  8
DATA
 62
     7
 10
70.300000000000011
 20
565.0
 30
0.0
 11
70.300000000000011
 21
567.0
 31
0.0
  0
LINE
  5
878
  8
DATA
 62
     7
 10
71.300000000000026
 20
568.0
 30
0.0
 11
91.299999999999997
 21
568.0
 31
0.0
  0
LINE
  5
879
  8
DATA
 62
     7
 10
92.299999999999997
 20
567.0
 30
0.0
 11
92.299999999999997
 21
565.0
 31
0.0
  0
TEXT
  5
87A
  8
DATA
 62
     7
 10
89.343635990555214
 20
567.13482781281766
 30
0.0
 40
2.7999999999999998
  1
CHANNEL 1
 50
180.0
 41
0.8
 11
89.343635990555214
 21
564.33482781281782
 31
0.0
 73
     3
  0
ARC
  5
87B
  8
DATA
 62
     7
 10
71.300000000000026
 20
565.0
 30
0.0
 40
1.0
 50
180.0
 51
270.0
  0
ARC
  5
87C
  8
DATA
 62
     7
 10
91.299999999999997
 20
565.0
 30
0.0
 40
1.0
 50
270.0
 51
0.0
  0
ARC
  5
87D
  8
DATA
 62
     7
 10
91.299999999999997
 20
567.0
 30
0.0
 40
1.0
 50
0.0
 51
90.0
  0
ARC
  5
87E
  8
DATA
 62
     7
 10
71.300000000000026
 20
567.0
 30
0.0
 40
1.0
 50
90.0
 51
180.0
  0
ARC
  5
87F
  8
DATA
 62
     7
 10
39.800000000000011
 20
597.0
 30
0.0
 40
2.0
 50
90.0
 51
180.0
  0
ARC
  5
880
  8
DATA
 62
     7
 10
39.800000000000011
 20
569.0
 30
0.0
 40
2.0
 50
180.0
 51
270.0
  0
ARC
  5
881
  8
DATA
 62
     7
 10
122.8
 20
597.0
 30
0.0
 40
2.0
 50
0.0
 51
90.0
  0
ARC
  5
882
  8
DATA
 62
     7
 10
122.8
 20
569.0
 30
0.0
 40
2.0
 50
270.0
 51
0.0
  0
TEXT
  5
883
  8
DATA
 62
     7
 10
112.16024294959171
 20
570.51434170170671
 30
0.0
 40
2.3999999999999999
  1
INPUT
 50
180.0
 41
0.8
 11
112.16024294959171
 21
568.11434170170673
 31
0.0
 73
     3
  0
CIRCLE
  5
884
  8
DATA
 62
     7
 10
146.80000000000001
 20
583.0
 30
0.0
 40
8.2500000000000302
  0
CIRCLE
  5
885
  8
DATA
 62
     7
 10
150.80000000000001
 20
583.0
 30
0.0
 40
1.2499999999999789
  0
CIRCLE
  5
886
  8
DATA
 62
     7
 10
142.80000000000001
 20
583.0
 30
0.0
 40
1.2499999999999789
  0
CIRCLE
  5
887
  8
DATA
 62
     7
 10
146.80000000000001
 20
587.0
 30
0.0
 40
1.2499999999999789
  0
ARC
  5
888
  8
DATA
 62
     7
 10
146.80000000000001
 20
583.0
 30
0.0
 40
9.7500000000000142
 50
287.92021313939222
 51
252.0797868606077
  0
CIRCLE
  5
889
  8
DATA
 62
     7
 10
146.80000000000001
 20
583.0
 30
0.0
 40
11.75000000000003
  0
LINE
  5
88A
  8
DATA
 62
     7
 10
149.80000000000001
 20
571.63943223249805
 30
0.0
 11
149.80000000000001
 21
573.72301234236033
 31
0.0
  0
LINE
  5
88B
  8
DATA
 62
     7
 10
143.80000000000001
 20
571.63943223249805
 30
0.0
 11
143.80000000000001
 21
573.72301234236033
 31
0.0
  0
POLYLINE
  5
88C
  8
DATA
 62
     7
 66
     1
 10
0.0
 20
0.0
 30
0.0
  0
VERTEX
  5
E82
  8
DATA
 62
     7
 10
137.34999999999999
 20
594.45000000000005
 30
0.0
  0
VERTEX
  5
E83
  8
DATA
 62
     7
 10
138.44999999999999
 20
594.45000000000005
 30
0.0
  0
VERTEX
  5
E84
  8
DATA
 62
     7
 10
138.44999999999999
 20
595.54999999999995
 30
0.0
  0
VERTEX
  5
E85
  8
DATA
 62
     7
 10
137.34999999999999
 20
595.54999999999995
 30
0.0
  0
SEQEND
  5
E86
  8
DATA
 62
     7
  0
POLYLINE
  5
892
  8
DATA
 62
     7
 66
     1
 10
0.0
 20
0.0
 30
0.0
  0
VERTEX
  5
E87
  8
DATA
 62
     7
 10
136.25
 20
594.45000000000005
 30
0.0
  0
VERTEX
  5
E88
  8
DATA
 62
     7
 10
135.15000000000001
 20
594.45000000000005
 30
0.0
  0
VERTEX
  5
E89
  8
DATA
 62
     7
 10
135.15000000000001
 20
595.54999999999995
 30
0.0
  0
VERTEX
  5
E8A
  8
DATA
 62
     7
 10
136.25
 20
595.54999999999995
 30
0.0
  0
SEQEND
  5
E8B
  8
DATA
 62
     7
  0
POLYLINE
  5
898
  8
DATA
 62
     7
 66
     1
 10
0.0
 20
0.0
 30
0.0
  0
VERTEX
  5
E8C
  8
DATA
 62
     7
 10
137.34999999999999
 20
595.54999999999995
 30
0.0
  0
VERTEX
  5
E8D
  8
DATA
 62
     7
 10
137.34999999999999
 20
596.6500000000002
 30
0.0
  0
VERTEX
  5
E8E
  8
DATA
 62
     7
 10
136.25
 20
596.6500000000002
 30
0.0
  0
VERTEX
  5
E8F
  8
DATA
 62
     7
 10
136.25
 20
595.54999999999995
 30
0.0
  0
SEQEND
  5
E90
  8
DATA
 62
     7
  0
POLYLINE
  5
89E
  8
DATA
 62
     7
 66
     1
 10
0.0
 20
0.0
 30
0.0
  0
VERTEX
  5
E91
  8
DATA
 62
     7
 10
137.34999999999999
 20
594.45000000000005
 30
0.0
  0
VERTEX
  5
E92
  8
DATA
 62
     7
 10
137.34999999999999
 20
593.35000000000002
 30
0.0
  0
VERTEX
  5
E93
  8
DATA
 62
     7
 10
136.25
 20
593.35000000000002
 30
0.0
  0
VERTEX
  5
E94
  8
DATA
 62
     7
 10
136.25
 20
594.45000000000005
 30
0.0
  0
SEQEND
  5
E95
  8
DATA
 62
     7
  0
CIRCLE
  5
8A4
  8
DATA
 62
     7
 10
136.80000000000001
 20
595.0
 30
0.0
 40
2.749999999999996
  0
CIRCLE
  5
8A5
  8
DATA
 62
     7
 10
156.80000000000001
 20
571.0
 30
0.0
 40
2.7500000000000209
  0
POLYLINE
  5
8A6
  8
DATA
 62
     7
 66
     1
 10
0.0
 20
0.0
 30
0.0
  0
VERTEX
  5
E96
  8
DATA
 62
     7
 10
156.25
 20
571.54999999999995
 30
0.0
  0
VERTEX
  5
E97
  8
DATA
 62
     7
 10
155.15000000000001
 20
571.54999999999995
 30
0.0
  0
VERTEX
  5
E98
  8
DATA
 62
     7
 10
155.15000000000001
 20
570.45000000000016
 30
0.0
  0
VERTEX
  5
E99
  8
DATA
 62
     7
 10
156.25
 20
570.45000000000016
 30
0.0
  0
SEQEND
  5
E9A
  8
DATA
 62
     7
  0
POLYLINE
  5
8AC
  8
DATA
 62
     7
 66
     1
 10
0.0
 20
0.0
 30
0.0
  0
VERTEX
  5
E9B
  8
DATA
 62
     7
 10
157.34999999999999
 20
571.54999999999995
 30
0.0
  0
VERTEX
  5
E9C
  8
DATA
 62
     7
 10
158.44999999999999
 20
571.54999999999995
 30
0.0
  0
VERTEX
  5
E9D
  8
DATA
 62
     7
 10
158.44999999999999
 20
570.45000000000016
 30
0.0
  0
VERTEX
  5
E9E
  8
DATA
 62
     7
 10
157.34999999999999
 20
570.45000000000016
 30
0.0
  0
SEQEND
  5
E9F
  8
DATA
 62
     7
  0
POLYLINE
  5
8B2
  8
DATA
 62
     7
 66
     1
 10
0.0
 20
0.0
 30
0.0
  0
VERTEX
  5
EA0
  8
DATA
 62
     7
 10
156.25
 20
570.45000000000016
 30
0.0
  0
VERTEX
  5
EA1
  8
DATA
 62
     7
 10
156.25
 20
569.35000000000002
 30
0.0
  0
VERTEX
  5
EA2
  8
DATA
 62
     7
 10
157.34999999999999
 20
569.35000000000002
 30
0.0
  0
VERTEX
  5
EA3
  8
DATA
 62
     7
 10
157.34999999999999
 20
570.45000000000016
 30
0.0
  0
SEQEND
  5
EA4
  8
DATA
 62
     7
  0
POLYLINE
  5
8B8
  8
DATA
 62
     7
 66
     1
 10
0.0
 20
0.0
 30
0.0
  0
VERTEX
  5
EA5
  8
DATA
 62
     7
 10
156.25
 20
571.54999999999995
 30
0.0
  0
VERTEX
  5
EA6
  8
DATA
 62
     7
 10
156.25
 20
572.64999999999986
 30
0.0
  0
VERTEX
  5
EA7
  8
DATA
 62
     7
 10
157.34999999999999
 20
572.64999999999986
 30
0.0
  0
VERTEX
  5
EA8
  8
DATA
 62
     7
 10
157.34999999999999
 20
571.54999999999995
 30
0.0
  0
SEQEND
  5
EA9
  8
DATA
 62
     7
  0
LINE
  5
8BE
  8
DATA
 62
     7
 10
136.25
 20
596.49999999999989
 30
0.0
 11
137.34999999999999
 21
596.49999999999989
 31
0.0
  0
TEXT
  5
8BF
  8
DATA
 62
     7
 10
151.95387904611081
 20
570.51434170170671
 30
0.0
 40
2.3999999999999999
  1
MON OUT
 50
180.0
 41
0.8
 11
151.95387904611081
 21
568.11434170170673
 31
0.0
 73
     3
  0
ARC
  5
8C0
  8
DATA
 62
     7
 10
200.80000000000001
 20
583.0
 30
0.0
 40
12.00000000000003
 50
286.10560965070721
 51
253.8943903492935
  0
CIRCLE
  5
8C1
  8
DATA
 62
     7
 10
200.80000000000001
 20
583.0
 30
0.0
 40
7.5000000000000027
  0
CIRCLE
  5
8C2
  8
DATA
 62
     7
 10
204.80000000000001
 20
583.0
 30
0.0
 40
1.250000000000004
  0
CIRCLE
  5
8C3
  8
DATA
 62
     7
 10
196.80000000000001
 20
583.0
 30
0.0
 40
1.250000000000004
  0
CIRCLE
  5
8C4
  8
DATA
 62
     7
 10
200.80000000000001
 20
587.0
 30
0.0
 40
1.250000000000004
  0
LINE
  5
8C5
  8
DATA
 62
     7
 10
203.30000000000001
 20
573.31754163448136
 30
0.0
 11
203.30000000000001
 21
571.71132486540535
 31
0.0
  0
LINE
  5
8C6
  8
DATA
 62
     7
 10
198.30000000000001
 20
573.31754163448136
 30
0.0
 11
198.30000000000001
 21
571.71132486540523
 31
0.0
  0
ARC
  5
8C7
  8
DATA
 62
     7
 10
198.67872867597291
 20
568.85566243270273
 30
0.0
 40
2.880667169173269
 50
97.554693985849994
 51
262.44530601414999
  0
ARC
  5
8C8
  8
DATA
 62
     7
 10
202.92127132402709
 20
568.85566243270273
 30
0.0
 40
2.8806671691734098
 50
277.55469398584961
 51
82.445306014150376
  0
LINE
  5
8C9
  8
DATA
 62
     7
 10
198.30000000000001
 20
566.0
 30
0.0
 11
203.30000000000001
 21
566.0
 31
0.0
  0
ARC
  5
8CA
  8
DATA
 62
     7
 10
200.80000000000001
 20
583.0
 30
0.0
 40
10.000000000000011
 50
284.47751218592992
 51
255.5224878140701
  0
LINE
  5
8CB
  8
DATA
 62
     7
 10
198.30000000000001
 20
572.21000000000004
 30
0.0
 11
203.30000000000001
 21
572.21000000000004
 31
0.0
  0
POLYLINE
  5
8CC
  8
DATA
 62
     7
 66
     1
 10
0.0
 20
0.0
 30
0.0
  0
VERTEX
  5
EAA
  8
DATA
 62
     7
 10
191.34999999999999
 20
594.45000000000005
 30
0.0
  0
VERTEX
  5
EAB
  8
DATA
 62
     7
 10
192.44999999999999
 20
594.45000000000005
 30
0.0
  0
VERTEX
  5
EAC
  8
DATA
 62
     7
 10
192.44999999999999
 20
595.54999999999995
 30
0.0
  0
VERTEX
  5
EAD
  8
DATA
 62
     7
 10
191.34999999999999
 20
595.54999999999995
 30
0.0
  0
SEQEND
  5
EAE
  8
DATA
 62
     7
  0
POLYLINE
  5
8D2
  8
DATA
 62
     7
 66
     1
 10
0.0
 20
0.0
 30
0.0
  0
VERTEX
  5
EAF
  8
DATA
 62
     7
 10
190.25
 20
594.45000000000005
 30
0.0
  0
VERTEX
  5
EB0
  8
DATA
 62
     7
 10
189.15000000000001
 20
594.45000000000005
 30
0.0
  0
VERTEX
  5
EB1
  8
DATA
 62
     7
 10
189.15000000000001
 20
595.54999999999995
 30
0.0
  0
VERTEX
  5
EB2
  8
DATA
 62
     7
 10
190.25
 20
595.54999999999995
 30
0.0
  0
SEQEND
  5
EB3
  8
DATA
 62
     7
  0
POLYLINE
  5
8D8
  8
DATA
 62
     7
 66
     1
 10
0.0
 20
0.0
 30
0.0
  0
VERTEX
  5
EB4
  8
DATA
 62
     7
 10
191.34999999999999
 20
595.54999999999995
 30
0.0
  0
VERTEX
  5
EB5
  8
DATA
 62
     7
 10
191.34999999999999
 20
596.64999999999986
 30
0.0
  0
VERTEX
  5
EB6
  8
DATA
 62
     7
 10
190.25
 20
596.64999999999986
 30
0.0
  0
VERTEX
  5
EB7
  8
DATA
 62
     7
 10
190.25
 20
595.54999999999995
 30
0.0
  0
SEQEND
  5
EB8
  8
DATA
 62
     7
  0
POLYLINE
  5
8DE
  8
DATA
 62
     7
 66
     1
 10
0.0
 20
0.0
 30
0.0
  0
VERTEX
  5
EB9
  8
DATA
 62
     7
 10
191.34999999999999
 20
594.45000000000005
 30
0.0
  0
VERTEX
  5
EBA
  8
DATA
 62
     7
 10
191.34999999999999
 20
593.35000000000002
 30
0.0
  0
VERTEX
  5
EBB
  8
DATA
 62
     7
 10
190.25
 20
593.35000000000002
 30
0.0
  0
VERTEX
  5
EBC
  8
DATA
 62
     7
 10
190.25
 20
594.45000000000005
 30
0.0
  0
SEQEND
  5
EBD
  8
DATA
 62
     7
  0
CIRCLE
  5
8E4
  8
DATA
 62
     7
 10
190.80000000000001
 20
595.0
 30
0.0
 40
2.749999999999996
  0
CIRCLE
  5
8E5
  8
DATA
 62
     7
 10
210.80000000000001
 20
571.0
 30
0.0
 40
2.75000000000002
  0
POLYLINE
  5
8E6
  8
DATA
 62
     7
 66
     1
 10
0.0
 20
0.0
 30
0.0
  0
VERTEX
  5
EBE
  8
DATA
 62
     7
 10
210.25
 20
571.54999999999995
 30
0.0
  0
VERTEX
  5
EBF
  8
DATA
 62
     7
 10
209.15000000000001
 20
571.54999999999995
 30
0.0
  0
VERTEX
  5
EC0
  8
DATA
 62
     7
 10
209.15000000000001
 20
570.45000000000016
 30
0.0
  0
VERTEX
  5
EC1
  8
DATA
 62
     7
 10
210.25
 20
570.45000000000016
 30
0.0
  0
SEQEND
  5
EC2
  8
DATA
 62
     7
  0
POLYLINE
  5
8EC
  8
DATA
 62
     7
 66
     1
 10
0.0
 20
0.0
 30
0.0
  0
VERTEX
  5
EC3
  8
DATA
 62
     7
 10
211.34999999999999
 20
571.54999999999995
 30
0.0
  0
VERTEX
  5
EC4
  8
DATA
 62
     7
 10
212.44999999999999
 20
571.54999999999995
 30
0.0
  0
VERTEX
  5
EC5
  8
DATA
 62
     7
 10
212.44999999999999
 20
570.45000000000016
 30
0.0
  0
VERTEX
  5
EC6
  8
DATA
 62
     7
 10
211.34999999999999
 20
570.45000000000016
 30
0.0
  0
SEQEND
  5
EC7
  8
DATA
 62
     7
  0
POLYLINE
  5
8F2
  8
DATA
 62
     7
 66
     1
 10
0.0
 20
0.0
 30
0.0
  0
VERTEX
  5
EC8
  8
DATA
 62
     7
 10
210.25
 20
570.45000000000016
 30
0.0
  0
VERTEX
  5
EC9
  8
DATA
 62
     7
 10
210.25
 20
569.35000000000002
 30
0.0
  0
VERTEX
  5
ECA
  8
DATA
 62
     7
 10
211.34999999999999
 20
569.35000000000002
 30
0.0
  0
VERTEX
  5
ECB
  8
DATA
 62
     7
 10
211.34999999999999
 20
570.45000000000016
 30
0.0
  0
SEQEND
  5
ECC
  8
DATA
 62
     7
  0
POLYLINE
  5
8F8
  8
DATA
 62
     7
 66
     1
 10
0.0
 20
0.0
 30
0.0
  0
VERTEX
  5
ECD
  8
DATA
 62
     7
 10
210.25
 20
571.54999999999995
 30
0.0
  0
VERTEX
  5
ECE
  8
DATA
 62
     7
 10
210.25
 20
572.64999999999986
 30
0.0
  0
VERTEX
  5
ECF
  8
DATA
 62
     7
 10
211.34999999999999
 20
572.64999999999986
 30
0.0
  0
VERTEX
  5
ED0
  8
DATA
 62
     7
 10
211.34999999999999
 20
571.54999999999995
 30
0.0
  0
SEQEND
  5
ED1
  8
DATA
 62
     7
  0
LINE
  5
8FE
  8
DATA
 62
     7
 10
190.25
 20
596.49999999999989
 30
0.0
 11
191.34999999999999
 21
596.49999999999989
 31
0.0
  0
LINE
  5
8FF
  8
DATA
 62
     7
 10
132.30000000000001
 20
567.0
 30
0.0
 11
162.80000000000001
 21
567.0
 31
0.0
  0
LINE
  5
900
  8
DATA
 62
     7
 10
184.80000000000001
 20
567.0
 30
0.0
 11
215.30000000000001
 21
567.0
 31
0.0
  0
LINE
  5
901
  8
DATA
 62
     7
 10
130.30000000000001
 20
569.0
 30
0.0
 11
130.30000000000001
 21
597.0
 31
0.0
  0
LINE
  5
902
  8
DATA
 62
     7
 10
132.30000000000001
 20
599.0
 30
0.0
 11
215.30000000000001
 21
599.0
 31
0.0
  0
CIRCLE
  5
903
  8
DATA
 62
     7
 10
173.80000000000001
 20
583.0
 30
0.0
 40
8.2500000000000302
  0
CIRCLE
  5
904
  8
DATA
 62
     7
 10
177.80000000000001
 20
583.0
 30
0.0
 40
1.2499999999999789
  0
CIRCLE
  5
905
  8
DATA
 62
     7
 10
169.80000000000001
 20
583.0
 30
0.0
 40
1.2499999999999789
  0
CIRCLE
  5
906
  8
DATA
 62
     7
 10
173.80000000000001
 20
587.0
 30
0.0
 40
1.2499999999999789
  0
ARC
  5
907
  8
DATA
 62
     7
 10
173.80000000000001
 20
583.0
 30
0.0
 40
9.7500000000000142
 50
287.92021313939222
 51
252.0797868606077
  0
CIRCLE
  5
908
  8
DATA
 62
     7
 10
173.80000000000001
 20
583.0
 30
0.0
 40
11.75000000000003
  0
LINE
  5
909
  8
DATA
 62
     7
 10
176.80000000000001
 20
571.63943223249805
 30
0.0
 11
176.80000000000001
 21
573.72301234236033
 31
0.0
  0
LINE
  5
90A
  8
DATA
 62
     7
 10
170.80000000000001
 20
571.63943223249805
 30
0.0
 11
170.80000000000001
 21
573.72301234236033
 31
0.0
  0
POLYLINE
  5
90B
  8
DATA
 62
     7
 66
     1
 10
0.0
 20
0.0
 30
0.0
  0
VERTEX
  5
ED2
  8
DATA
 62
     7
 10
164.34999999999999
 20
594.45000000000005
 30
0.0
  0
VERTEX
  5
ED3
  8
DATA
 62
     7
 10
165.44999999999999
 20
594.45000000000005
 30
0.0
  0
VERTEX
  5
ED4
  8
DATA
 62
     7
 10
165.44999999999999
 20
595.54999999999995
 30
0.0
  0
VERTEX
  5
ED5
  8
DATA
 62
     7
 10
164.34999999999999
 20
595.54999999999995
 30
0.0
  0
SEQEND
  5
ED6
  8
DATA
 62
     7
  0
POLYLINE
  5
911
  8
DATA
 62
     7
 66
     1
 10
0.0
 20
0.0
 30
0.0
  0
VERTEX
  5
ED7
  8
DATA
 62
     7
 10
163.25
 20
594.45000000000005
 30
0.0
  0
VERTEX
  5
ED8
  8
DATA
 62
     7
 10
162.15000000000001
 20
594.45000000000005
 30
0.0
  0
VERTEX
  5
ED9
  8
DATA
 62
     7
 10
162.15000000000001
 20
595.54999999999995
 30
0.0
  0
VERTEX
  5
EDA
  8
DATA
 62
     7
 10
163.25
 20
595.54999999999995
 30
0.0
  0
SEQEND
  5
EDB
  8
DATA
 62
     7
  0
POLYLINE
  5
917
  8
DATA
 62
     7
 66
     1
 10
0.0
 20
0.0
 30
0.0
  0
VERTEX
  5
EDC
  8
DATA
 62
     7
 10
164.34999999999999
 20
595.54999999999995
 30
0.0
  0
VERTEX
  5
EDD
  8
DATA
 62
     7
 10
164.34999999999999
 20
596.6500000000002
 30
0.0
  0
VERTEX
  5
EDE
  8
DATA
 62
     7
 10
163.25
 20
596.6500000000002
 30
0.0
  0
VERTEX
  5
EDF
  8
DATA
 62
     7
 10
163.25
 20
595.54999999999995
 30
0.0
  0
SEQEND
  5
EE0
  8
DATA
 62
     7
  0
POLYLINE
  5
91D
  8
DATA
 62
     7
 66
     1
 10
0.0
 20
0.0
 30
0.0
  0
VERTEX
  5
EE1
  8
DATA
 62
     7
 10
164.34999999999999
 20
594.45000000000005
 30
0.0
  0
VERTEX
  5
EE2
  8
DATA
 62
     7
 10
164.34999999999999
 20
593.35000000000002
 30
0.0
  0
VERTEX
  5
EE3
  8
DATA
 62
     7
 10
163.25
 20
593.35000000000002
 30
0.0
  0
VERTEX
  5
EE4
  8
DATA
 62
     7
 10
163.25
 20
594.45000000000005
 30
0.0
  0
SEQEND
  5
EE5
  8
DATA
 62
     7
  0
CIRCLE
  5
923
  8
DATA
 62
     7
 10
163.80000000000001
 20
595.0
 30
0.0
 40
2.749999999999996
  0
CIRCLE
  5
924
  8
DATA
 62
     7
 10
183.80000000000001
 20
571.0
 30
0.0
 40
2.7500000000000209
  0
POLYLINE
  5
925
  8
DATA
 62
     7
 66
     1
 10
0.0
 20
0.0
 30
0.0
  0
VERTEX
  5
EE6
  8
DATA
 62
     7
 10
183.25
 20
571.54999999999995
 30
0.0
  0
VERTEX
  5
EE7
  8
DATA
 62
     7
 10
182.15000000000001
 20
571.54999999999995
 30
0.0
  0
VERTEX
  5
EE8
  8
DATA
 62
     7
 10
182.15000000000001
 20
570.45000000000016
 30
0.0
  0
VERTEX
  5
EE9
  8
DATA
 62
     7
 10
183.25
 20
570.45000000000016
 30
0.0
  0
SEQEND
  5
EEA
  8
DATA
 62
     7
  0
POLYLINE
  5
92B
  8
DATA
 62
     7
 66
     1
 10
0.0
 20
0.0
 30
0.0
  0
VERTEX
  5
EEB
  8
DATA
 62
     7
 10
184.34999999999999
 20
571.54999999999995
 30
0.0
  0
VERTEX
  5
EEC
  8
DATA
 62
     7
 10
185.4499999999999
 20
571.54999999999995
 30
0.0
  0
VERTEX
  5
EED
  8
DATA
 62
     7
 10
185.4499999999999
 20
570.45000000000016
 30
0.0
  0
VERTEX
  5
EEE
  8
DATA
 62
     7
 10
184.34999999999999
 20
570.45000000000016
 30
0.0
  0
SEQEND
  5
EEF
  8
DATA
 62
     7
  0
POLYLINE
  5
931
  8
DATA
 62
     7
 66
     1
 10
0.0
 20
0.0
 30
0.0
  0
VERTEX
  5
EF0
  8
DATA
 62
     7
 10
183.25
 20
570.45000000000016
 30
0.0
  0
VERTEX
  5
EF1
  8
DATA
 62
     7
 10
183.25
 20
569.35000000000002
 30
0.0
  0
VERTEX
  5
EF2
  8
DATA
 62
     7
 10
184.34999999999999
 20
569.35000000000002
 30
0.0
  0
VERTEX
  5
EF3
  8
DATA
 62
     7
 10
184.34999999999999
 20
570.45000000000016
 30
0.0
  0
SEQEND
  5
EF4
  8
DATA
 62
     7
  0
POLYLINE
  5
937
  8
DATA
 62
     7
 66
     1
 10
0.0
 20
0.0
 30
0.0
  0
VERTEX
  5
EF5
  8
DATA
 62
     7
 10
183.25
 20
571.54999999999995
 30
0.0
  0
VERTEX
  5
EF6
  8
DATA
 62
     7
 10
183.25
 20
572.64999999999986
 30
0.0
  0
VERTEX
  5
EF7
  8
DATA
 62
     7
 10
184.34999999999999
 20
572.64999999999986
 30
0.0
  0
VERTEX
  5
EF8
  8
DATA
 62
     7
 10
184.34999999999999
 20
571.54999999999995
 30
0.0
  0
SEQEND
  5
EF9
  8
DATA
 62
     7
  0
LINE
  5
93D
  8
DATA
 62
     7
 10
163.25
 20
596.49999999999989
 30
0.0
 11
164.34999999999999
 21
596.49999999999989
 31
0.0
  0
TEXT
  5
93E
  8
DATA
 62
     7
 10
179.45387904611081
 20
570.51434170170671
 30
0.0
 40
2.3999999999999999
  1
MAIN OUT
 50
180.0
 41
0.8
 11
179.45387904611081
 21
568.11434170170673
 31
0.0
 73
     3
  0
LINE
  5
93F
  8
DATA
 62
     7
 10
217.30000000000001
 20
569.0
 30
0.0
 11
217.30000000000001
 21
597.0
 31
0.0
  0
LINE
  5
940
  8
DATA
 62
     7
 10
163.80000000000001
 20
564.0
 30
0.0
 11
183.80000000000001
 21
564.0
 31
0.0
  0
LINE
  5
941
  8
DATA
 62
     7
 10
162.80000000000001
 20
565.0
 30
0.0
 11
162.80000000000001
 21
567.0
 31
0.0
  0
LINE
  5
942
  8
DATA
 62
     7
 10
163.80000000000001
 20
568.0
 30
0.0
 11
183.80000000000001
 21
568.0
 31
0.0
  0
LINE
  5
943
  8
DATA
 62
     7
 10
184.80000000000001
 20
567.0
 30
0.0
 11
184.80000000000001
 21
565.0
 31
0.0
  0
TEXT
  5
944
  8
DATA
 62
     7
 10
181.84363599055521
 20
567.13482781281766
 30
0.0
 40
2.7999999999999998
  1
CHANNEL 2
 50
180.0
 41
0.8
 11
181.84363599055521
 21
564.33482781281782
 31
0.0
 73
     3
  0
ARC
  5
945
  8
DATA
 62
     7
 10
163.80000000000001
 20
565.0
 30
0.0
 40
1.0
 50
180.0
 51
270.0
  0
ARC
  5
946
  8
DATA
 62
     7
 10
183.80000000000001
 20
565.0
 30
0.0
 40
1.0
 50
270.0
 51
0.0
  0
ARC
  5
947
  8
DATA
 62
     7
 10
183.80000000000001
 20
567.0
 30
0.0
 40
1.0
 50
0.0
 51
90.0
  0
ARC
  5
948
  8
DATA
 62
     7
 10
163.80000000000001
 20
567.0
 30
0.0
 40
1.0
 50
90.0
 51
180.0
  0
ARC
  5
949
  8
DATA
 62
     7
 10
132.30000000000001
 20
597.0
 30
0.0
 40
2.0
 50
90.0
 51
180.0
  0
ARC
  5
94A
  8
DATA
 62
     7
 10
132.30000000000001
 20
569.0
 30
0.0
 40
2.0
 50
180.0
 51
270.0
  0
ARC
  5
94B
  8
DATA
 62
     7
 10
215.30000000000001
 20
597.0
 30
0.0
 40
2.0
 50
0.0
 51
90.0
  0
ARC
  5
94C
  8
DATA
 62
     7
 10
215.30000000000001
 20
569.0
 30
0.0
 40
2.0
 50
270.0
 51
0.0
  0
TEXT
  5
94D
  8
DATA
 62
     7
 10
204.66024294959169
 20
570.51434170170671
 30
0.0
 40
2.3999999999999999
  1
INPUT
 50
180.0
 41
0.8
 11
204.66024294959169
 21
568.11434170170673
 31
0.0
 73
     3
  0
CIRCLE
  5
94E
  8
DATA
 62
     7
 10
239.30000000000001
 20
583.0
 30
0.0
 40
8.2500000000000302
  0
CIRCLE
  5
94F
  8
DATA
 62
     7
 10
243.30000000000001
 20
583.0
 30
0.0
 40
1.2499999999999789
  0
CIRCLE
  5
950
  8
DATA
 62
     7
 10
235.30000000000001
 20
583.0
 30
0.0
 40
1.2499999999999789
  0
CIRCLE
  5
951
  8
DATA
 62
     7
 10
239.30000000000001
 20
587.0
 30
0.0
 40
1.2499999999999789
  0
ARC
  5
952
  8
DATA
 62
     7
 10
239.30000000000001
 20
583.0
 30
0.0
 40
9.7500000000000142
 50
287.92021313939222
 51
252.0797868606077
  0
CIRCLE
  5
953
  8
DATA
 62
     7
 10
239.30000000000001
 20
583.0
 30
0.0
 40
11.75000000000003
  0
LINE
  5
954
  8
DATA
 62
     7
 10
242.30000000000001
 20
571.63943223249805
 30
0.0
 11
242.30000000000001
 21
573.72301234236033
 31
0.0
  0
LINE
  5
955
  8
DATA
 62
     7
 10
236.30000000000001
 20
571.63943223249805
 30
0.0
 11
236.30000000000001
 21
573.72301234236033
 31
0.0
  0
POLYLINE
  5
956
  8
DATA
 62
     7
 66
     1
 10
0.0
 20
0.0
 30
0.0
  0
VERTEX
  5
EFA
  8
DATA
 62
     7
 10
229.84999999999999
 20
594.45000000000005
 30
0.0
  0
VERTEX
  5
EFB
  8
DATA
 62
     7
 10
230.94999999999999
 20
594.45000000000005
 30
0.0
  0
VERTEX
  5
EFC
  8
DATA
 62
     7
 10
230.94999999999999
 20
595.54999999999995
 30
0.0
  0
VERTEX
  5
EFD
  8
DATA
 62
     7
 10
229.84999999999999
 20
595.54999999999995
 30
0.0
  0
SEQEND
  5
EFE
  8
DATA
 62
     7
  0
POLYLINE
  5
95C
  8
DATA
 62
     7
 66
     1
 10
0.0
 20
0.0
 30
0.0
  0
VERTEX
  5
EFF
  8
DATA
 62
     7
 10
228.75
 20
594.45000000000005
 30
0.0
  0
VERTEX
  5
F00
  8
DATA
 62
     7
 10
227.65000000000001
 20
594.45000000000005
 30
0.0
  0
VERTEX
  5
F01
  8
DATA
 62
     7
 10
227.65000000000001
 20
595.54999999999995
 30
0.0
  0
VERTEX
  5
F02
  8
DATA
 62
     7
 10
228.75
 20
595.54999999999995
 30
0.0
  0
SEQEND
  5
F03
  8
DATA
 62
     7
  0
POLYLINE
  5
962
  8
DATA
 62
     7
 66
     1
 10
0.0
 20
0.0
 30
0.0
  0
VERTEX
  5
F04
  8
DATA
 62
     7
 10
229.84999999999999
 20
595.54999999999995
 30
0.0
  0
VERTEX
  5
F05
  8
DATA
 62
     7
 10
229.84999999999999
 20
596.6500000000002
 30
0.0
  0
VERTEX
  5
F06
  8
DATA
 62
     7
 10
228.75
 20
596.6500000000002
 30
0.0
  0
VERTEX
  5
F07
  8
DATA
 62
     7
 10
228.75
 20
595.54999999999995
 30
0.0
  0
SEQEND
  5
F08
  8
DATA
 62
     7
  0
POLYLINE
  5
968
  8
DATA
 62
     7
 66
     1
 10
0.0
 20
0.0
 30
0.0
  0
VERTEX
  5
F09
  8
DATA
 62
     7
 10
229.84999999999999
 20
594.45000000000005
 30
0.0
  0
VERTEX
  5
F0A
  8
DATA
 62
     7
 10
229.84999999999999
 20
593.35000000000002
 30
0.0
  0
VERTEX
  5
F0B
  8
DATA
 62
     7
 10
228.75
 20
593.35000000000002
 30
0.0
  0
VERTEX
  5
F0C
  8
DATA
 62
     7
 10
228.75
 20
594.45000000000005
 30
0.0
  0
SEQEND
  5
F0D
  8
DATA
 62
     7
  0
CIRCLE
  5
96E
  8
DATA
 62
     7
 10
229.30000000000001
 20
595.0
 30
0.0
 40
2.749999999999996
  0
CIRCLE
  5
96F
  8
DATA
 62
     7
 10
249.30000000000001
 20
571.0
 30
0.0
 40
2.7500000000000209
  0
POLYLINE
  5
970
  8
DATA
 62
     7
 66
     1
 10
0.0
 20
0.0
 30
0.0
  0
VERTEX
  5
F0E
  8
DATA
 62
     7
 10
248.75
 20
571.54999999999995
 30
0.0
  0
VERTEX
  5
F0F
  8
DATA
 62
     7
 10
247.65000000000009
 20
571.54999999999995
 30
0.0
  0
VERTEX
  5
F10
  8
DATA
 62
     7
 10
247.65000000000009
 20
570.45000000000016
 30
0.0
  0
VERTEX
  5
F11
  8
DATA
 62
     7
 10
248.75
 20
570.45000000000016
 30
0.0
  0
SEQEND
  5
F12
  8
DATA
 62
     7
  0
POLYLINE
  5
976
  8
DATA
 62
     7
 66
     1
 10
0.0
 20
0.0
 30
0.0
  0
VERTEX
  5
F13
  8
DATA
 62
     7
 10
249.84999999999999
 20
571.54999999999995
 30
0.0
  0
VERTEX
  5
F14
  8
DATA
 62
     7
 10
250.94999999999999
 20
571.54999999999995
 30
0.0
  0
VERTEX
  5
F15
  8
DATA
 62
     7
 10
250.94999999999999
 20
570.45000000000016
 30
0.0
  0
VERTEX
  5
F16
  8
DATA
 62
     7
 10
249.84999999999999
 20
570.45000000000016
 30
0.0
  0
SEQEND
  5
F17
  8
DATA
 62
     7
  0
POLYLINE
  5
97C
  8
DATA
 62
     7
 66
     1
 10
0.0
 20
0.0
 30
0.0
  0
VERTEX
  5
F18
  8
DATA
 62
     7
 10
248.75
 20
570.45000000000016
 30
0.0
  0
VERTEX
  5
F19
  8
DATA
 62
     7
 10
248.75
 20
569.35000000000002
 30
0.0
  0
VERTEX
  5
F1A
  8
DATA
 62
     7
 10
249.84999999999999
 20
569.35000000000002
 30
0.0
  0
VERTEX
  5
F1B
  8
DATA
 62
     7
 10
249.84999999999999
 20
570.45000000000016
 30
0.0
  0
SEQEND
  5
F1C
  8
DATA
 62
     7
  0
POLYLINE
  5
982
  8
DATA
 62
     7
 66
     1
 10
0.0
 20
0.0
 30
0.0
  0
VERTEX
  5
F1D
  8
DATA
 62
     7
 10
248.75
 20
571.54999999999995
 30
0.0
  0
VERTEX
  5
F1E
  8
DATA
 62
     7
 10
248.75
 20
572.64999999999986
 30
0.0
  0
VERTEX
  5
F1F
  8
DATA
 62
     7
 10
249.84999999999999
 20
572.64999999999986
 30
0.0
  0
VERTEX
  5
F20
  8
DATA
 62
     7
 10
249.84999999999999
 20
571.54999999999995
 30
0.0
  0
SEQEND
  5
F21
  8
DATA
 62
     7
  0
LINE
  5
988
  8
DATA
 62
     7
 10
228.75
 20
596.49999999999989
 30
0.0
 11
229.84999999999999
 21
596.49999999999989
 31
0.0
  0
TEXT
  5
989
  8
DATA
 62
     7
 10
244.45387904611081
 20
570.51434170170671
 30
0.0
 40
2.3999999999999999
  1
MON OUT
 50
180.0
 41
0.8
 11
244.45387904611081
 21
568.11434170170673
 31
0.0
 73
     3
  0
ARC
  5
98A
  8
DATA
 62
     7
 10
293.30000000000001
 20
583.0
 30
0.0
 40
12.00000000000003
 50
286.10560965070721
 51
253.8943903492935
  0
CIRCLE
  5
98B
  8
DATA
 62
     7
 10
293.30000000000001
 20
583.0
 30
0.0
 40
7.5000000000000027
  0
CIRCLE
  5
98C
  8
DATA
 62
     7
 10
297.30000000000001
 20
583.0
 30
0.0
 40
1.250000000000004
  0
CIRCLE
  5
98D
  8
DATA
 62
     7
 10
289.30000000000001
 20
583.0
 30
0.0
 40
1.250000000000004
  0
CIRCLE
  5
98E
  8
DATA
 62
     7
 10
293.30000000000001
 20
587.0
 30
0.0
 40
1.250000000000004
  0
LINE
  5
98F
  8
DATA
 62
     7
 10
295.80000000000001
 20
573.31754163448136
 30
0.0
 11
295.80000000000001
 21
571.71132486540535
 31
0.0
  0
LINE
  5
990
  8
DATA
 62
     7
 10
290.80000000000001
 20
573.31754163448136
 30
0.0
 11
290.80000000000001
 21
571.71132486540523
 31
0.0
  0
ARC
  5
991
  8
DATA
 62
     7
 10
291.17872867597288
 20
568.85566243270273
 30
0.0
 40
2.880667169173269
 50
97.554693985849994
 51
262.44530601414999
  0
ARC
  5
992
  8
DATA
 62
     7
 10
295.42127132402709
 20
568.85566243270273
 30
0.0
 40
2.8806671691734098
 50
277.55469398584961
 51
82.445306014150376
  0
LINE
  5
993
  8
DATA
 62
     7
 10
290.80000000000001
 20
566.0
 30
0.0
 11
295.80000000000001
 21
566.0
 31
0.0
  0
ARC
  5
994
  8
DATA
 62
     7
 10
293.30000000000001
 20
583.0
 30
0.0
 40
10.000000000000011
 50
284.47751218592992
 51
255.5224878140701
  0
LINE
  5
995
  8
DATA
 62
     7
 10
290.80000000000001
 20
572.21000000000004
 30
0.0
 11
295.80000000000001
 21
572.21000000000004
 31
0.0
  0
POLYLINE
  5
996
  8
DATA
 62
     7
 66
     1
 10
0.0
 20
0.0
 30
0.0
  0
VERTEX
  5
F22
  8
DATA
 62
     7
 10
283.85000000000002
 20
594.45000000000005
 30
0.0
  0
VERTEX
  5
F23
  8
DATA
 62
     7
 10
284.94999999999999
 20
594.45000000000005
 30
0.0
  0
VERTEX
  5
F24
  8
DATA
 62
     7
 10
284.94999999999999
 20
595.54999999999995
 30
0.0
  0
VERTEX
  5
F25
  8
DATA
 62
     7
 10
283.85000000000002
 20
595.54999999999995
 30
0.0
  0
SEQEND
  5
F26
  8
DATA
 62
     7
  0
POLYLINE
  5
99C
  8
DATA
 62
     7
 66
     1
 10
0.0
 20
0.0
 30
0.0
  0
VERTEX
  5
F27
  8
DATA
 62
     7
 10
282.75
 20
594.45000000000005
 30
0.0
  0
VERTEX
  5
F28
  8
DATA
 62
     7
 10
281.65000000000009
 20
594.45000000000005
 30
0.0
  0
VERTEX
  5
F29
  8
DATA
 62
     7
 10
281.65000000000009
 20
595.54999999999995
 30
0.0
  0
VERTEX
  5
F2A
  8
DATA
 62
     7
 10
282.75
 20
595.54999999999995
 30
0.0
  0
SEQEND
  5
F2B
  8
DATA
 62
     7
  0
POLYLINE
  5
9A2
  8
DATA
 62
     7
 66
     1
 10
0.0
 20
0.0
 30
0.0
  0
VERTEX
  5
F2C
  8
DATA
 62
     7
 10
283.85000000000002
 20
595.54999999999995
 30
0.0
  0
VERTEX
  5
F2D
  8
DATA
 62
     7
 10
283.85000000000002
 20
596.64999999999986
 30
0.0
  0
VERTEX
  5
F2E
  8
DATA
 62
     7
 10
282.75
 20
596.64999999999986
 30
0.0
  0
VERTEX
  5
F2F
  8
DATA
 62
     7
 10
282.75
 20
595.54999999999995
 30
0.0
  0
SEQEND
  5
F30
  8
DATA
 62
     7
  0
POLYLINE
  5
9A8
  8
DATA
 62
     7
 66
     1
 10
0.0
 20
0.0
 30
0.0
  0
VERTEX
  5
F31
  8
DATA
 62
     7
 10
283.85000000000002
 20
594.45000000000005
 30
0.0
  0
VERTEX
  5
F32
  8
DATA
 62
     7
 10
283.85000000000002
 20
593.35000000000002
 30
0.0
  0
VERTEX
  5
F33
  8
DATA
 62
     7
 10
282.75
 20
593.35000000000002
 30
0.0
  0
VERTEX
  5
F34
  8
DATA
 62
     7
 10
282.75
 20
594.45000000000005
 30
0.0
  0
SEQEND
  5
F35
  8
DATA
 62
     7
  0
CIRCLE
  5
9AE
  8
DATA
 62
     7
 10
283.30000000000001
 20
595.0
 30
0.0
 40
2.749999999999996
  0
CIRCLE
  5
9AF
  8
DATA
 62
     7
 10
303.30000000000001
 20
571.0
 30
0.0
 40
2.75000000000002
  0
POLYLINE
  5
9B0
  8
DATA
 62
     7
 66
     1
 10
0.0
 20
0.0
 30
0.0
  0
VERTEX
  5
F36
  8
DATA
 62
     7
 10
302.75
 20
571.54999999999995
 30
0.0
  0
VERTEX
  5
F37
  8
DATA
 62
     7
 10
301.65000000000009
 20
571.54999999999995
 30
0.0
  0
VERTEX
  5
F38
  8
DATA
 62
     7
 10
301.65000000000009
 20
570.45000000000016
 30
0.0
  0
VERTEX
  5
F39
  8
DATA
 62
     7
 10
302.75
 20
570.45000000000016
 30
0.0
  0
SEQEND
  5
F3A
  8
DATA
 62
     7
  0
POLYLINE
  5
9B6
  8
DATA
 62
     7
 66
     1
 10
0.0
 20
0.0
 30
0.0
  0
VERTEX
  5
F3B
  8
DATA
 62
     7
 10
303.85000000000002
 20
571.54999999999995
 30
0.0
  0
VERTEX
  5
F3C
  8
DATA
 62
     7
 10
304.94999999999999
 20
571.54999999999995
 30
0.0
  0
VERTEX
  5
F3D
  8
DATA
 62
     7
 10
304.94999999999999
 20
570.45000000000016
 30
0.0
  0
VERTEX
  5
F3E
  8
DATA
 62
     7
 10
303.85000000000002
 20
570.45000000000016
 30
0.0
  0
SEQEND
  5
F3F
  8
DATA
 62
     7
  0
POLYLINE
  5
9BC
  8
DATA
 62
     7
 66
     1
 10
0.0
 20
0.0
 30
0.0
  0
VERTEX
  5
F40
  8
DATA
 62
     7
 10
302.75
 20
570.45000000000016
 30
0.0
  0
VERTEX
  5
F41
  8
DATA
 62
     7
 10
302.75
 20
569.35000000000002
 30
0.0
  0
VERTEX
  5
F42
  8
DATA
 62
     7
 10
303.85000000000002
 20
569.35000000000002
 30
0.0
  0
VERTEX
  5
F43
  8
DATA
 62
     7
 10
303.85000000000002
 20
570.45000000000016
 30
0.0
  0
SEQEND
  5
F44
  8
DATA
 62
     7
  0
POLYLINE
  5
9C2
  8
DATA
 62
     7
 66
     1
 10
0.0
 20
0.0
 30
0.0
  0
VERTEX
  5
F45
  8
DATA
 62
     7
 10
302.75
 20
571.54999999999995
 30
0.0
  0
VERTEX
  5
F46
  8
DATA
 62
     7
 10
302.75
 20
572.64999999999986
 30
0.0
  0
VERTEX
  5
F47
  8
DATA
 62
     7
 10
303.85000000000002
 20
572.64999999999986
 30
0.0
  0
VERTEX
  5
F48
  8
DATA
 62
     7
 10
303.85000000000002
 20
571.54999999999995
 30
0.0
  0
SEQEND
  5
F49
  8
DATA
 62
     7
  0
LINE
  5
9C8
  8
DATA
 62
     7
 10
282.75
 20
596.49999999999989
 30
0.0
 11
283.85000000000002
 21
596.49999999999989
 31
0.0
  0
LINE
  5
9C9
  8
DATA
 62
     7
 10
224.80000000000001
 20
567.0
 30
0.0
 11
255.30000000000001
 21
567.0
 31
0.0
  0
LINE
  5
9CA
  8
DATA
 62
     7
 10
277.30000000000001
 20
567.0
 30
0.0
 11
307.80000000000001
 21
567.0
 31
0.0
  0
LINE
  5
9CB
  8
DATA
 62
     7
 10
222.80000000000001
 20
569.0
 30
0.0
 11
222.80000000000001
 21
597.0
 31
0.0
  0
LINE
  5
9CC
  8
DATA
 62
     7
 10
224.80000000000001
 20
599.0
 30
0.0
 11
307.80000000000001
 21
599.0
 31
0.0
  0
CIRCLE
  5
9CD
  8
DATA
 62
     7
 10
266.30000000000001
 20
583.0
 30
0.0
 40
8.2500000000000302
  0
CIRCLE
  5
9CE
  8
DATA
 62
     7
 10
270.30000000000001
 20
583.0
 30
0.0
 40
1.2499999999999789
  0
CIRCLE
  5
9CF
  8
DATA
 62
     7
 10
262.30000000000001
 20
583.0
 30
0.0
 40
1.2499999999999789
  0
CIRCLE
  5
9D0
  8
DATA
 62
     7
 10
266.30000000000001
 20
587.0
 30
0.0
 40
1.2499999999999789
  0
ARC
  5
9D1
  8
DATA
 62
     7
 10
266.30000000000001
 20
583.0
 30
0.0
 40
9.7500000000000142
 50
287.92021313939222
 51
252.0797868606077
  0
CIRCLE
  5
9D2
  8
DATA
 62
     7
 10
266.30000000000001
 20
583.0
 30
0.0
 40
11.75000000000003
  0
LINE
  5
9D3
  8
DATA
 62
     7
 10
269.30000000000001
 20
571.63943223249805
 30
0.0
 11
269.30000000000001
 21
573.72301234236033
 31
0.0
  0
LINE
  5
9D4
  8
DATA
 62
     7
 10
263.30000000000001
 20
571.63943223249805
 30
0.0
 11
263.30000000000001
 21
573.72301234236033
 31
0.0
  0
POLYLINE
  5
9D5
  8
DATA
 62
     7
 66
     1
 10
0.0
 20
0.0
 30
0.0
  0
VERTEX
  5
F4A
  8
DATA
 62
     7
 10
256.85000000000002
 20
594.45000000000005
 30
0.0
  0
VERTEX
  5
F4B
  8
DATA
 62
     7
 10
257.94999999999999
 20
594.45000000000005
 30
0.0
  0
VERTEX
  5
F4C
  8
DATA
 62
     7
 10
257.94999999999999
 20
595.54999999999995
 30
0.0
  0
VERTEX
  5
F4D
  8
DATA
 62
     7
 10
256.85000000000002
 20
595.54999999999995
 30
0.0
  0
SEQEND
  5
F4E
  8
DATA
 62
     7
  0
POLYLINE
  5
9DB
  8
DATA
 62
     7
 66
     1
 10
0.0
 20
0.0
 30
0.0
  0
VERTEX
  5
F4F
  8
DATA
 62
     7
 10
255.75
 20
594.45000000000005
 30
0.0
  0
VERTEX
  5
F50
  8
DATA
 62
     7
 10
254.65000000000001
 20
594.45000000000005
 30
0.0
  0
VERTEX
  5
F51
  8
DATA
 62
     7
 10
254.65000000000001
 20
595.54999999999995
 30
0.0
  0
VERTEX
  5
F52
  8
DATA
 62
     7
 10
255.75
 20
595.54999999999995
 30
0.0
  0
SEQEND
  5
F53
  8
DATA
 62
     7
  0
POLYLINE
  5
9E1
  8
DATA
 62
     7
 66
     1
 10
0.0
 20
0.0
 30
0.0
  0
VERTEX
  5
F54
  8
DATA
 62
     7
 10
256.85000000000002
 20
595.54999999999995
 30
0.0
  0
VERTEX
  5
F55
  8
DATA
 62
     7
 10
256.85000000000002
 20
596.6500000000002
 30
0.0
  0
VERTEX
  5
F56
  8
DATA
 62
     7
 10
255.75
 20
596.6500000000002
 30
0.0
  0
VERTEX
  5
F57
  8
DATA
 62
     7
 10
255.75
 20
595.54999999999995
 30
0.0
  0
SEQEND
  5
F58
  8
DATA
 62
     7
  0
POLYLINE
  5
9E7
  8
DATA
 62
     7
 66
     1
 10
0.0
 20
0.0
 30
0.0
  0
VERTEX
  5
F59
  8
DATA
 62
     7
 10
256.85000000000002
 20
594.45000000000005
 30
0.0
  0
VERTEX
  5
F5A
  8
DATA
 62
     7
 10
256.85000000000002
 20
593.35000000000002
 30
0.0
  0
VERTEX
  5
F5B
  8
DATA
 62
     7
 10
255.75
 20
593.35000000000002
 30
0.0
  0
VERTEX
  5
F5C
  8
DATA
 62
     7
 10
255.75
 20
594.45000000000005
 30
0.0
  0
SEQEND
  5
F5D
  8
DATA
 62
     7
  0
CIRCLE
  5
9ED
  8
DATA
 62
     7
 10
256.30000000000001
 20
595.0
 30
0.0
 40
2.749999999999996
  0
CIRCLE
  5
9EE
  8
DATA
 62
     7
 10
276.30000000000001
 20
571.0
 30
0.0
 40
2.7500000000000209
  0
POLYLINE
  5
9EF
  8
DATA
 62
     7
 66
     1
 10
0.0
 20
0.0
 30
0.0
  0
VERTEX
  5
F5E
  8
DATA
 62
     7
 10
275.75
 20
571.54999999999995
 30
0.0
  0
VERTEX
  5
F5F
  8
DATA
 62
     7
 10
274.65000000000009
 20
571.54999999999995
 30
0.0
  0
VERTEX
  5
F60
  8
DATA
 62
     7
 10
274.65000000000009
 20
570.45000000000016
 30
0.0
  0
VERTEX
  5
F61
  8
DATA
 62
     7
 10
275.75
 20
570.45000000000016
 30
0.0
  0
SEQEND
  5
F62
  8
DATA
 62
     7
  0
POLYLINE
  5
9F5
  8
DATA
 62
     7
 66
     1
 10
0.0
 20
0.0
 30
0.0
  0
VERTEX
  5
F63
  8
DATA
 62
     7
 10
276.85000000000002
 20
571.54999999999995
 30
0.0
  0
VERTEX
  5
F64
  8
DATA
 62
     7
 10
277.94999999999999
 20
571.54999999999995
 30
0.0
  0
VERTEX
  5
F65
  8
DATA
 62
     7
 10
277.94999999999999
 20
570.45000000000016
 30
0.0
  0
VERTEX
  5
F66
  8
DATA
 62
     7
 10
276.85000000000002
 20
570.45000000000016
 30
0.0
  0
SEQEND
  5
F67
  8
DATA
 62
     7
  0
POLYLINE
  5
9FB
  8
DATA
 62
     7
 66
     1
 10
0.0
 20
0.0
 30
0.0
  0
VERTEX
  5
F68
  8
DATA
 62
     7
 10
275.75
 20
570.45000000000016
 30
0.0
  0
VERTEX
  5
F69
  8
DATA
 62
     7
 10
275.75
 20
569.35000000000002
 30
0.0
  0
VERTEX
  5
F6A
  8
DATA
 62
     7
 10
276.85000000000002
 20
569.35000000000002
 30
0.0
  0
VERTEX
  5
F6B
  8
DATA
 62
     7
 10
276.85000000000002
 20
570.45000000000016
 30
0.0
  0
SEQEND
  5
F6C
  8
DATA
 62
     7
  0
POLYLINE
  5
A01
  8
DATA
 62
     7
 66
     1
 10
0.0
 20
0.0
 30
0.0
  0
VERTEX
  5
F6D
  8
DATA
 62
     7
 10
275.75
 20
571.54999999999995
 30
0.0
  0
VERTEX
  5
F6E
  8
DATA
 62
     7
 10
275.75
 20
572.64999999999986
 30
0.0
  0
VERTEX
  5
F6F
  8
DATA
 62
     7
 10
276.85000000000002
 20
572.64999999999986
 30
0.0
  0
VERTEX
  5
F70
  8
DATA
 62
     7
 10
276.85000000000002
 20
571.54999999999995
 30
0.0
  0
SEQEND
  5
F71
  8
DATA
 62
     7
  0
LINE
  5
A07
  8
DATA
 62
     7
 10
255.75
 20
596.49999999999989
 30
0.0
 11
256.85000000000002
 21
596.49999999999989
 31
0.0
  0
TEXT
  5
A08
  8
DATA
 62
     7
 10
271.95387904611079
 20
570.51434170170671
 30
0.0
 40
2.3999999999999999
  1
MAIN OUT
 50
180.0
 41
0.8
 11
271.95387904611079
 21
568.11434170170673
 31
0.0
 73
     3
  0
LINE
  5
A09
  8
DATA
 62
     7
 10
309.80000000000001
 20
569.0
 30
0.0
 11
309.80000000000001
 21
597.0
 31
0.0
  0
LINE
  5
A0A
  8
DATA
 62
     7
 10
256.30000000000001
 20
564.0
 30
0.0
 11
276.30000000000001
 21
564.0
 31
0.0
  0
LINE
  5
A0B
  8
DATA
 62
     7
 10
255.30000000000001
 20
565.0
 30
0.0
 11
255.30000000000001
 21
567.0
 31
0.0
  0
LINE
  5
A0C
  8
DATA
 62
     7
 10
256.30000000000001
 20
568.0
 30
0.0
 11
276.30000000000001
 21
568.0
 31
0.0
  0
LINE
  5
A0D
  8
DATA
 62
     7
 10
277.30000000000001
 20
567.0
 30
0.0
 11
277.30000000000001
 21
565.0
 31
0.0
  0
TEXT
  5
A0E
  8
DATA
 62
     7
 10
274.34363599055519
 20
567.13482781281766
 30
0.0
 40
2.7999999999999998
  1
CHANNEL 3
 50
180.0
 41
0.8
 11
274.34363599055519
 21
564.33482781281782
 31
0.0
 73
     3
  0
ARC
  5
A0F
  8
DATA
 62
     7
 10
256.30000000000001
 20
565.0
 30
0.0
 40
1.0
 50
180.0
 51
270.0
  0
ARC
  5
A10
  8
DATA
 62
     7
 10
276.30000000000001
 20
565.0
 30
0.0
 40
1.0
 50
270.0
 51
0.0
  0
ARC
  5
A11
  8
DATA
 62
     7
 10
276.30000000000001
 20
567.0
 30
0.0
 40
1.0
 50
0.0
 51
90.0
  0
ARC
  5
A12
  8
DATA
 62
     7
 10
256.30000000000001
 20
567.0
 30
0.0
 40
1.0
 50
90.0
 51
180.0
  0
ARC
  5
A13
  8
DATA
 62
     7
 10
224.80000000000001
 20
597.0
 30
0.0
 40
2.0
 50
90.0
 51
180.0
  0
ARC
  5
A14
  8
DATA
 62
     7
 10
224.80000000000001
 20
569.0
 30
0.0
 40
2.0
 50
180.0
 51
270.0
  0
ARC
  5
A15
  8
DATA
 62
     7
 10
307.80000000000001
 20
597.0
 30
0.0
 40
2.0
 50
0.0
 51
90.0
  0
ARC
  5
A16
  8
DATA
 62
     7
 10
307.80000000000001
 20
569.0
 30
0.0
 40
2.0
 50
270.0
 51
0.0
  0
TEXT
  5
A17
  8
DATA
 62
     7
 10
297.16024294959169
 20
570.51434170170671
 30
0.0
 40
2.3999999999999999
  1
INPUT
 50
180.0
 41
0.8
 11
297.16024294959169
 21
568.11434170170673
 31
0.0
 73
     3
  0
CIRCLE
  5
A18
  8
DATA
 62
     7
 10
331.80000000000001
 20
583.0
 30
0.0
 40
8.2500000000000302
  0
CIRCLE
  5
A19
  8
DATA
 62
     7
 10
335.80000000000001
 20
583.0
 30
0.0
 40
1.2499999999999789
  0
CIRCLE
  5
A1A
  8
DATA
 62
     7
 10
327.80000000000001
 20
583.0
 30
0.0
 40
1.2499999999999789
  0
CIRCLE
  5
A1B
  8
DATA
 62
     7
 10
331.80000000000001
 20
587.0
 30
0.0
 40
1.2499999999999789
  0
ARC
  5
A1C
  8
DATA
 62
     7
 10
331.80000000000001
 20
583.0
 30
0.0
 40
9.7500000000000142
 50
287.92021313939222
 51
252.0797868606077
  0
CIRCLE
  5
A1D
  8
DATA
 62
     7
 10
331.80000000000001
 20
583.0
 30
0.0
 40
11.75000000000003
  0
LINE
  5
A1E
  8
DATA
 62
     7
 10
334.80000000000001
 20
571.63943223249805
 30
0.0
 11
334.80000000000001
 21
573.72301234236033
 31
0.0
  0
LINE
  5
A1F
  8
DATA
 62
     7
 10
328.80000000000001
 20
571.63943223249805
 30
0.0
 11
328.80000000000001
 21
573.72301234236033
 31
0.0
  0
POLYLINE
  5
A20
  8
DATA
 62
     7
 66
     1
 10
0.0
 20
0.0
 30
0.0
  0
VERTEX
  5
F72
  8
DATA
 62
     7
 10
322.35000000000002
 20
594.45000000000005
 30
0.0
  0
VERTEX
  5
F73
  8
DATA
 62
     7
 10
323.44999999999999
 20
594.45000000000005
 30
0.0
  0
VERTEX
  5
F74
  8
DATA
 62
     7
 10
323.44999999999999
 20
595.54999999999995
 30
0.0
  0
VERTEX
  5
F75
  8
DATA
 62
     7
 10
322.35000000000002
 20
595.54999999999995
 30
0.0
  0
SEQEND
  5
F76
  8
DATA
 62
     7
  0
POLYLINE
  5
A26
  8
DATA
 62
     7
 66
     1
 10
0.0
 20
0.0
 30
0.0
  0
VERTEX
  5
F77
  8
DATA
 62
     7
 10
321.25
 20
594.45000000000005
 30
0.0
  0
VERTEX
  5
F78
  8
DATA
 62
     7
 10
320.15000000000009
 20
594.45000000000005
 30
0.0
  0
VERTEX
  5
F79
  8
DATA
 62
     7
 10
320.15000000000009
 20
595.54999999999995
 30
0.0
  0
VERTEX
  5
F7A
  8
DATA
 62
     7
 10
321.25
 20
595.54999999999995
 30
0.0
  0
SEQEND
  5
F7B
  8
DATA
 62
     7
  0
POLYLINE
  5
A2C
  8
DATA
 62
     7
 66
     1
 10
0.0
 20
0.0
 30
0.0
  0
VERTEX
  5
F7C
  8
DATA
 62
     7
 10
322.35000000000002
 20
595.54999999999995
 30
0.0
  0
VERTEX
  5
F7D
  8
DATA
 62
     7
 10
322.35000000000002
 20
596.6500000000002
 30
0.0
  0
VERTEX
  5
F7E
  8
DATA
 62
     7
 10
321.25
 20
596.6500000000002
 30
0.0
  0
VERTEX
  5
F7F
  8
DATA
 62
     7
 10
321.25
 20
595.54999999999995
 30
0.0
  0
SEQEND
  5
F80
  8
DATA
 62
     7
  0
POLYLINE
  5
A32
  8
DATA
 62
     7
 66
     1
 10
0.0
 20
0.0
 30
0.0
  0
VERTEX
  5
F81
  8
DATA
 62
     7
 10
322.35000000000002
 20
594.45000000000005
 30
0.0
  0
VERTEX
  5
F82
  8
DATA
 62
     7
 10
322.35000000000002
 20
593.35000000000002
 30
0.0
  0
VERTEX
  5
F83
  8
DATA
 62
     7
 10
321.25
 20
593.35000000000002
 30
0.0
  0
VERTEX
  5
F84
  8
DATA
 62
     7
 10
321.25
 20
594.45000000000005
 30
0.0
  0
SEQEND
  5
F85
  8
DATA
 62
     7
  0
CIRCLE
  5
A38
  8
DATA
 62
     7
 10
321.80000000000001
 20
595.0
 30
0.0
 40
2.749999999999996
  0
CIRCLE
  5
A39
  8
DATA
 62
     7
 10
341.80000000000001
 20
571.0
 30
0.0
 40
2.7500000000000209
  0
POLYLINE
  5
A3A
  8
DATA
 62
     7
 66
     1
 10
0.0
 20
0.0
 30
0.0
  0
VERTEX
  5
F86
  8
DATA
 62
     7
 10
341.25
 20
571.54999999999995
 30
0.0
  0
VERTEX
  5
F87
  8
DATA
 62
     7
 10
340.15000000000009
 20
571.54999999999995
 30
0.0
  0
VERTEX
  5
F88
  8
DATA
 62
     7
 10
340.15000000000009
 20
570.45000000000016
 30
0.0
  0
VERTEX
  5
F89
  8
DATA
 62
     7
 10
341.25
 20
570.45000000000016
 30
0.0
  0
SEQEND
  5
F8A
  8
DATA
 62
     7
  0
POLYLINE
  5
A40
  8
DATA
 62
     7
 66
     1
 10
0.0
 20
0.0
 30
0.0
  0
VERTEX
  5
F8B
  8
DATA
 62
     7
 10
342.35000000000002
 20
571.54999999999995
 30
0.0
  0
VERTEX
  5
F8C
  8
DATA
 62
     7
 10
343.44999999999999
 20
571.54999999999995
 30
0.0
  0
VERTEX
  5
F8D
  8
DATA
 62
     7
 10
343.44999999999999
 20
570.45000000000016
 30
0.0
  0
VERTEX
  5
F8E
  8
DATA
 62
     7
 10
342.35000000000002
 20
570.45000000000016
 30
0.0
  0
SEQEND
  5
F8F
  8
DATA
 62
     7
  0
POLYLINE
  5
A46
  8
DATA
 62
     7
 66
     1
 10
0.0
 20
0.0
 30
0.0
  0
VERTEX
  5
F90
  8
DATA
 62
     7
 10
341.25
 20
570.45000000000016
 30
0.0
  0
VERTEX
  5
F91
  8
DATA
 62
     7
 10
341.25
 20
569.35000000000002
 30
0.0
  0
VERTEX
  5
F92
  8
DATA
 62
     7
 10
342.35000000000002
 20
569.35000000000002
 30
0.0
  0
VERTEX
  5
F93
  8
DATA
 62
     7
 10
342.35000000000002
 20
570.45000000000016
 30
0.0
  0
SEQEND
  5
F94
  8
DATA
 62
     7
  0
POLYLINE
  5
A4C
  8
DATA
 62
     7
 66
     1
 10
0.0
 20
0.0
 30
0.0
  0
VERTEX
  5
F95
  8
DATA
 62
     7
 10
341.25
 20
571.54999999999995
 30
0.0
  0
VERTEX
  5
F96
  8
DATA
 62
     7
 10
341.25
 20
572.64999999999986
 30
0.0
  0
VERTEX
  5
F97
  8
DATA
 62
     7
 10
342.35000000000002
 20
572.64999999999986
 30
0.0
  0
VERTEX
  5
F98
  8
DATA
 62
     7
 10
342.35000000000002
 20
571.54999999999995
 30
0.0
  0
SEQEND
  5
F99
  8
DATA
 62
     7
  0
LINE
  5
A52
  8
DATA
 62
     7
 10
321.25
 20
596.49999999999989
 30
0.0
 11
322.35000000000002
 21
596.49999999999989
 31
0.0
  0
TEXT
  5
A53
  8
DATA
 62
     7
 10
336.95387904611079
 20
570.51434170170671
 30
0.0
 40
2.3999999999999999
  1
MON OUT
 50
180.0
 41
0.8
 11
336.95387904611079
 21
568.11434170170673
 31
0.0
 73
     3
  0
ARC
  5
A54
  8
DATA
 62
     7
 10
385.80000000000001
 20
583.0
 30
0.0
 40
12.00000000000003
 50
286.10560965070721
 51
253.8943903492935
  0
CIRCLE
  5
A55
  8
DATA
 62
     7
 10
385.80000000000001
 20
583.0
 30
0.0
 40
7.5000000000000027
  0
CIRCLE
  5
A56
  8
DATA
 62
     7
 10
389.80000000000001
 20
583.0
 30
0.0
 40
1.250000000000004
  0
CIRCLE
  5
A57
  8
DATA
 62
     7
 10
381.80000000000001
 20
583.0
 30
0.0
 40
1.250000000000004
  0
CIRCLE
  5
A58
  8
DATA
 62
     7
 10
385.80000000000001
 20
587.0
 30
0.0
 40
1.250000000000004
  0
LINE
  5
A59
  8
DATA
 62
     7
 10
388.30000000000001
 20
573.31754163448136
 30
0.0
 11
388.30000000000001
 21
571.71132486540535
 31
0.0
  0
LINE
  5
A5A
  8
DATA
 62
     7
 10
383.30000000000001
 20
573.31754163448136
 30
0.0
 11
383.30000000000001
 21
571.71132486540523
 31
0.0
  0
ARC
  5
A5B
  8
DATA
 62
     7
 10
383.67872867597288
 20
568.85566243270273
 30
0.0
 40
2.880667169173269
 50
97.554693985849994
 51
262.44530601415011
  0
ARC
  5
A5C
  8
DATA
 62
     7
 10
387.92127132402709
 20
568.85566243270273
 30
0.0
 40
2.8806671691734098
 50
277.55469398584961
 51
82.445306014150276
  0
LINE
  5
A5D
  8
DATA
 62
     7
 10
383.30000000000001
 20
566.0
 30
0.0
 11
388.30000000000001
 21
566.0
 31
0.0
  0
ARC
  5
A5E
  8
DATA
 62
     7
 10
385.80000000000001
 20
583.0
 30
0.0
 40
10.000000000000011
 50
284.47751218592992
 51
255.5224878140701
  0
LINE
  5
A5F
  8
DATA
 62
     7
 10
383.30000000000001
 20
572.21000000000004
 30
0.0
 11
388.30000000000001
 21
572.21000000000004
 31
0.0
  0
POLYLINE
  5
A60
  8
DATA
 62
     7
 66
     1
 10
0.0
 20
0.0
 30
0.0
  0
VERTEX
  5
F9A
  8
DATA
 62
     7
 10
376.35000000000002
 20
594.45000000000005
 30
0.0
  0
VERTEX
  5
F9B
  8
DATA
 62
     7
 10
377.44999999999999
 20
594.45000000000005
 30
0.0
  0
VERTEX
  5
F9C
  8
DATA
 62
     7
 10
377.44999999999999
 20
595.54999999999995
 30
0.0
  0
VERTEX
  5
F9D
  8
DATA
 62
     7
 10
376.35000000000002
 20
595.54999999999995
 30
0.0
  0
SEQEND
  5
F9E
  8
DATA
 62
     7
  0
POLYLINE
  5
A66
  8
DATA
 62
     7
 66
     1
 10
0.0
 20
0.0
 30
0.0
  0
VERTEX
  5
F9F
  8
DATA
 62
     7
 10
375.25
 20
594.45000000000005
 30
0.0
  0
VERTEX
  5
FA0
  8
DATA
 62
     7
 10
374.14999999999998
 20
594.45000000000005
 30
0.0
  0
VERTEX
  5
FA1
  8
DATA
 62
     7
 10
374.14999999999998
 20
595.54999999999995
 30
0.0
  0
VERTEX
  5
FA2
  8
DATA
 62
     7
 10
375.25
 20
595.54999999999995
 30
0.0
  0
SEQEND
  5
FA3
  8
DATA
 62
     7
  0
POLYLINE
  5
A6C
  8
DATA
 62
     7
 66
     1
 10
0.0
 20
0.0
 30
0.0
  0
VERTEX
  5
FA4
  8
DATA
 62
     7
 10
376.35000000000002
 20
595.54999999999995
 30
0.0
  0
VERTEX
  5
FA5
  8
DATA
 62
     7
 10
376.35000000000002
 20
596.64999999999986
 30
0.0
  0
VERTEX
  5
FA6
  8
DATA
 62
     7
 10
375.25
 20
596.64999999999986
 30
0.0
  0
VERTEX
  5
FA7
  8
DATA
 62
     7
 10
375.25
 20
595.54999999999995
 30
0.0
  0
SEQEND
  5
FA8
  8
DATA
 62
     7
  0
POLYLINE
  5
A72
  8
DATA
 62
     7
 66
     1
 10
0.0
 20
0.0
 30
0.0
  0
VERTEX
  5
FA9
  8
DATA
 62
     7
 10
376.35000000000002
 20
594.45000000000005
 30
0.0
  0
VERTEX
  5
FAA
  8
DATA
 62
     7
 10
376.35000000000002
 20
593.35000000000002
 30
0.0
  0
VERTEX
  5
FAB
  8
DATA
 62
     7
 10
375.25
 20
593.35000000000002
 30
0.0
  0
VERTEX
  5
FAC
  8
DATA
 62
     7
 10
375.25
 20
594.45000000000005
 30
0.0
  0
SEQEND
  5
FAD
  8
DATA
 62
     7
  0
CIRCLE
  5
A78
  8
DATA
 62
     7
 10
375.80000000000001
 20
595.0
 30
0.0
 40
2.749999999999996
  0
CIRCLE
  5
A79
  8
DATA
 62
     7
 10
395.80000000000001
 20
571.0
 30
0.0
 40
2.75000000000002
  0
POLYLINE
  5
A7A
  8
DATA
 62
     7
 66
     1
 10
0.0
 20
0.0
 30
0.0
  0
VERTEX
  5
FAE
  8
DATA
 62
     7
 10
395.25
 20
571.54999999999995
 30
0.0
  0
VERTEX
  5
FAF
  8
DATA
 62
     7
 10
394.14999999999998
 20
571.54999999999995
 30
0.0
  0
VERTEX
  5
FB0
  8
DATA
 62
     7
 10
394.14999999999998
 20
570.45000000000016
 30
0.0
  0
VERTEX
  5
FB1
  8
DATA
 62
     7
 10
395.25
 20
570.45000000000016
 30
0.0
  0
SEQEND
  5
FB2
  8
DATA
 62
     7
  0
POLYLINE
  5
A80
  8
DATA
 62
     7
 66
     1
 10
0.0
 20
0.0
 30
0.0
  0
VERTEX
  5
FB3
  8
DATA
 62
     7
 10
396.35000000000002
 20
571.54999999999995
 30
0.0
  0
VERTEX
  5
FB4
  8
DATA
 62
     7
 10
397.44999999999999
 20
571.54999999999995
 30
0.0
  0
VERTEX
  5
FB5
  8
DATA
 62
     7
 10
397.44999999999999
 20
570.45000000000016
 30
0.0
  0
VERTEX
  5
FB6
  8
DATA
 62
     7
 10
396.35000000000002
 20
570.45000000000016
 30
0.0
  0
SEQEND
  5
FB7
  8
DATA
 62
     7
  0
POLYLINE
  5
A86
  8
DATA
 62
     7
 66
     1
 10
0.0
 20
0.0
 30
0.0
  0
VERTEX
  5
FB8
  8
DATA
 62
     7
 10
395.25
 20
570.45000000000016
 30
0.0
  0
VERTEX
  5
FB9
  8
DATA
 62
     7
 10
395.25
 20
569.35000000000002
 30
0.0
  0
VERTEX
  5
FBA
  8
DATA
 62
     7
 10
396.35000000000002
 20
569.35000000000002
 30
0.0
  0
VERTEX
  5
FBB
  8
DATA
 62
     7
 10
396.35000000000002
 20
570.45000000000016
 30
0.0
  0
SEQEND
  5
FBC
  8
DATA
 62
     7
  0
POLYLINE
  5
A8C
  8
DATA
 62
     7
 66
     1
 10
0.0
 20
0.0
 30
0.0
  0
VERTEX
  5
FBD
  8
DATA
 62
     7
 10
395.25
 20
571.54999999999995
 30
0.0
  0
VERTEX
  5
FBE
  8
DATA
 62
     7
 10
395.25
 20
572.64999999999986
 30
0.0
  0
VERTEX
  5
FBF
  8
DATA
 62
     7
 10
396.35000000000002
 20
572.64999999999986
 30
0.0
  0
VERTEX
  5
FC0
  8
DATA
 62
     7
 10
396.35000000000002
 20
571.54999999999995
 30
0.0
  0
SEQEND
  5
FC1
  8
DATA
 62
     7
  0
LINE
  5
A92
  8
DATA
 62
     7
 10
375.25
 20
596.49999999999989
 30
0.0
 11
376.35000000000002
 21
596.49999999999989
 31
0.0
  0
LINE
  5
A93
  8
DATA
 62
     7
 10
317.30000000000001
 20
567.0
 30
0.0
 11
347.80000000000001
 21
567.0
 31
0.0
  0
LINE
  5
A94
  8
DATA
 62
     7
 10
369.80000000000001
 20
567.0
 30
0.0
 11
400.30000000000001
 21
567.0
 31
0.0
  0
LINE
  5
A95
  8
DATA
 62
     7
 10
315.30000000000001
 20
569.0
 30
0.0
 11
315.30000000000001
 21
597.0
 31
0.0
  0
LINE
  5
A96
  8
DATA
 62
     7
 10
317.30000000000001
 20
599.0
 30
0.0
 11
400.30000000000001
 21
599.0
 31
0.0
  0
CIRCLE
  5
A97
  8
DATA
 62
     7
 10
358.80000000000001
 20
583.0
 30
0.0
 40
8.2500000000000302
  0
CIRCLE
  5
A98
  8
DATA
 62
     7
 10
362.80000000000001
 20
583.0
 30
0.0
 40
1.2499999999999789
  0
CIRCLE
  5
A99
  8
DATA
 62
     7
 10
354.80000000000001
 20
583.0
 30
0.0
 40
1.2499999999999789
  0
CIRCLE
  5
A9A
  8
DATA
 62
     7
 10
358.80000000000001
 20
587.0
 30
0.0
 40
1.2499999999999789
  0
ARC
  5
A9B
  8
DATA
 62
     7
 10
358.80000000000001
 20
583.0
 30
0.0
 40
9.7500000000000142
 50
287.92021313939222
 51
252.0797868606077
  0
CIRCLE
  5
A9C
  8
DATA
 62
     7
 10
358.80000000000001
 20
583.0
 30
0.0
 40
11.75000000000003
  0
LINE
  5
A9D
  8
DATA
 62
     7
 10
361.80000000000001
 20
571.63943223249805
 30
0.0
 11
361.80000000000001
 21
573.72301234236033
 31
0.0
  0
LINE
  5
A9E
  8
DATA
 62
     7
 10
355.80000000000001
 20
571.63943223249805
 30
0.0
 11
355.80000000000001
 21
573.72301234236033
 31
0.0
  0
POLYLINE
  5
A9F
  8
DATA
 62
     7
 66
     1
 10
0.0
 20
0.0
 30
0.0
  0
VERTEX
  5
FC2
  8
DATA
 62
     7
 10
349.35000000000002
 20
594.45000000000005
 30
0.0
  0
VERTEX
  5
FC3
  8
DATA
 62
     7
 10
350.44999999999999
 20
594.45000000000005
 30
0.0
  0
VERTEX
  5
FC4
  8
DATA
 62
     7
 10
350.44999999999999
 20
595.54999999999995
 30
0.0
  0
VERTEX
  5
FC5
  8
DATA
 62
     7
 10
349.35000000000002
 20
595.54999999999995
 30
0.0
  0
SEQEND
  5
FC6
  8
DATA
 62
     7
  0
POLYLINE
  5
AA5
  8
DATA
 62
     7
 66
     1
 10
0.0
 20
0.0
 30
0.0
  0
VERTEX
  5
FC7
  8
DATA
 62
     7
 10
348.25
 20
594.45000000000005
 30
0.0
  0
VERTEX
  5
FC8
  8
DATA
 62
     7
 10
347.15000000000009
 20
594.45000000000005
 30
0.0
  0
VERTEX
  5
FC9
  8
DATA
 62
     7
 10
347.15000000000009
 20
595.54999999999995
 30
0.0
  0
VERTEX
  5
FCA
  8
DATA
 62
     7
 10
348.25
 20
595.54999999999995
 30
0.0
  0
SEQEND
  5
FCB
  8
DATA
 62
     7
  0
POLYLINE
  5
AAB
  8
DATA
 62
     7
 66
     1
 10
0.0
 20
0.0
 30
0.0
  0
VERTEX
  5
FCC
  8
DATA
 62
     7
 10
349.35000000000002
 20
595.54999999999995
 30
0.0
  0
VERTEX
  5
FCD
  8
DATA
 62
     7
 10
349.35000000000002
 20
596.6500000000002
 30
0.0
  0
VERTEX
  5
FCE
  8
DATA
 62
     7
 10
348.25
 20
596.6500000000002
 30
0.0
  0
VERTEX
  5
FCF
  8
DATA
 62
     7
 10
348.25
 20
595.54999999999995
 30
0.0
  0
SEQEND
  5
FD0
  8
DATA
 62
     7
  0
POLYLINE
  5
AB1
  8
DATA
 62
     7
 66
     1
 10
0.0
 20
0.0
 30
0.0
  0
VERTEX
  5
FD1
  8
DATA
 62
     7
 10
349.35000000000002
 20
594.45000000000005
 30
0.0
  0
VERTEX
  5
FD2
  8
DATA
 62
     7
 10
349.35000000000002
 20
593.35000000000002
 30
0.0
  0
VERTEX
  5
FD3
  8
DATA
 62
     7
 10
348.25
 20
593.35000000000002
 30
0.0
  0
VERTEX
  5
FD4
  8
DATA
 62
     7
 10
348.25
 20
594.45000000000005
 30
0.0
  0
SEQEND
  5
FD5
  8
DATA
 62
     7
  0
CIRCLE
  5
AB7
  8
DATA
 62
     7
 10
348.80000000000001
 20
595.0
 30
0.0
 40
2.749999999999996
  0
CIRCLE
  5
AB8
  8
DATA
 62
     7
 10
368.80000000000001
 20
571.0
 30
0.0
 40
2.7500000000000209
  0
POLYLINE
  5
AB9
  8
DATA
 62
     7
 66
     1
 10
0.0
 20
0.0
 30
0.0
  0
VERTEX
  5
FD6
  8
DATA
 62
     7
 10
368.25
 20
571.54999999999995
 30
0.0
  0
VERTEX
  5
FD7
  8
DATA
 62
     7
 10
367.14999999999998
 20
571.54999999999995
 30
0.0
  0
VERTEX
  5
FD8
  8
DATA
 62
     7
 10
367.14999999999998
 20
570.45000000000016
 30
0.0
  0
VERTEX
  5
FD9
  8
DATA
 62
     7
 10
368.25
 20
570.45000000000016
 30
0.0
  0
SEQEND
  5
FDA
  8
DATA
 62
     7
  0
POLYLINE
  5
ABF
  8
DATA
 62
     7
 66
     1
 10
0.0
 20
0.0
 30
0.0
  0
VERTEX
  5
FDB
  8
DATA
 62
     7
 10
369.35000000000002
 20
571.54999999999995
 30
0.0
  0
VERTEX
  5
FDC
  8
DATA
 62
     7
 10
370.44999999999999
 20
571.54999999999995
 30
0.0
  0
VERTEX
  5
FDD
  8
DATA
 62
     7
 10
370.44999999999999
 20
570.45000000000016
 30
0.0
  0
VERTEX
  5
FDE
  8
DATA
 62
     7
 10
369.35000000000002
 20
570.45000000000016
 30
0.0
  0
SEQEND
  5
FDF
  8
DATA
 62
     7
  0
POLYLINE
  5
AC5
  8
DATA
 62
     7
 66
     1
 10
0.0
 20
0.0
 30
0.0
  0
VERTEX
  5
FE0
  8
DATA
 62
     7
 10
368.25
 20
570.45000000000016
 30
0.0
  0
VERTEX
  5
FE1
  8
DATA
 62
     7
 10
368.25
 20
569.35000000000002
 30
0.0
  0
VERTEX
  5
FE2
  8
DATA
 62
     7
 10
369.35000000000002
 20
569.35000000000002
 30
0.0
  0
VERTEX
  5
FE3
  8
DATA
 62
     7
 10
369.35000000000002
 20
570.45000000000016
 30
0.0
  0
SEQEND
  5
FE4
  8
DATA
 62
     7
  0
POLYLINE
  5
ACB
  8
DATA
 62
     7
 66
     1
 10
0.0
 20
0.0
 30
0.0
  0
VERTEX
  5
FE5
  8
DATA
 62
     7
 10
368.25
 20
571.54999999999995
 30
0.0
  0
VERTEX
  5
FE6
  8
DATA
 62
     7
 10
368.25
 20
572.64999999999986
 30
0.0
  0
VERTEX
  5
FE7
  8
DATA
 62
     7
 10
369.35000000000002
 20
572.64999999999986
 30
0.0
  0
VERTEX
  5
FE8
  8
DATA
 62
     7
 10
369.35000000000002
 20
571.54999999999995
 30
0.0
  0
SEQEND
  5
FE9
  8
DATA
 62
     7
  0
LINE
  5
AD1
  8
DATA
 62
     7
 10
348.25
 20
596.49999999999989
 30
0.0
 11
349.35000000000002
 21
596.49999999999989
 31
0.0
  0
TEXT
  5
AD2
  8
DATA
 62
     7
 10
364.45387904611079
 20
570.51434170170671
 30
0.0
 40
2.3999999999999999
  1
MAIN OUT
 50
180.0
 41
0.8
 11
364.45387904611079
 21
568.11434170170673
 31
0.0
 73
     3
  0
LINE
  5
AD3
  8
DATA
 62
     7
 10
402.30000000000001
 20
569.0
 30
0.0
 11
402.30000000000001
 21
597.0
 31
0.0
  0
LINE
  5
AD4
  8
DATA
 62
     7
 10
348.80000000000001
 20
564.0
 30
0.0
 11
368.80000000000001
 21
564.0
 31
0.0
  0
LINE
  5
AD5
  8
DATA
 62
     7
 10
347.80000000000001
 20
565.0
 30
0.0
 11
347.80000000000001
 21
567.0
 31
0.0
  0
LINE
  5
AD6
  8
DATA
 62
     7
 10
348.80000000000001
 20
568.0
 30
0.0
 11
368.80000000000001
 21
568.0
 31
0.0
  0
LINE
  5
AD7
  8
DATA
 62
     7
 10
369.80000000000001
 20
567.0
 30
0.0
 11
369.80000000000001
 21
565.0
 31
0.0
  0
TEXT
  5
AD8
  8
DATA
 62
     7
 10
366.84363599055519
 20
567.13482781281766
 30
0.0
 40
2.7999999999999998
  1
CHANNEL 4
 50
180.0
 41
0.8
 11
366.84363599055519
 21
564.33482781281782
 31
0.0
 73
     3
  0
ARC
  5
AD9
  8
DATA
 62
     7
 10
348.80000000000001
 20
565.0
 30
0.0
 40
1.0
 50
180.0
 51
270.0
  0
ARC
  5
ADA
  8
DATA
 62
     7
 10
368.80000000000001
 20
565.0
 30
0.0
 40
1.0
 50
270.0
 51
0.0
  0
ARC
  5
ADB
  8
DATA
 62
     7
 10
368.80000000000001
 20
567.0
 30
0.0
 40
1.0
 50
0.0
 51
90.0
  0
ARC
  5
ADC
  8
DATA
 62
     7
 10
348.80000000000001
 20
567.0
 30
0.0
 40
1.0
 50
90.0
 51
180.0
  0
ARC
  5
ADD
  8
DATA
 62
     7
 10
317.30000000000001
 20
597.0
 30
0.0
 40
2.0
 50
90.0
 51
180.0
  0
ARC
  5
ADE
  8
DATA
 62
     7
 10
317.30000000000001
 20
569.0
 30
0.0
 40
2.0
 50
180.0
 51
270.0
  0
ARC
  5
ADF
  8
DATA
 62
     7
 10
400.30000000000001
 20
597.0
 30
0.0
 40
2.0
 50
0.0
 51
90.0
  0
ARC
  5
AE0
  8
DATA
 62
     7
 10
400.30000000000001
 20
569.0
 30
0.0
 40
2.0
 50
270.0
 51
0.0
  0
TEXT
  5
AE1
  8
DATA
 62
     7
 10
389.66024294959169
 20
570.51434170170671
 30
0.0
 40
2.3999999999999999
  1
INPUT
 50
180.0
 41
0.8
 11
389.66024294959169
 21
568.11434170170673
 31
0.0
 73
     3
  0
LINE
  5
AE2
  8
DATA
 62
     7
 10
405.7999999999999
 20
597.0
 30
0.0
 11
405.7999999999999
 21
569.0
 31
0.0
  0
LINE
  5
AE3
  8
DATA
 62
     7
 10
407.80000000000001
 20
599.0
 30
0.0
 11
448.30000000000001
 21
599.0
 31
0.0
  0
LINE
  5
AE4
  8
DATA
 62
     7
 10
407.80000000000001
 20
567.0
 30
0.0
 11
408.80000000000001
 21
567.0
 31
0.0
  0
LINE
  5
AE5
  8
DATA
 62
     7
 10
447.2999999999999
 20
567.0
 30
0.0
 11
448.30000000000001
 21
567.0
 31
0.0
  0
LINE
  5
AE6
  8
DATA
 62
     7
 10
450.30000000000001
 20
569.0
 30
0.0
 11
450.30000000000001
 21
597.0
 31
0.0
  0
ARC
  5
AE7
  8
DATA
 62
     7
 10
407.80000000000001
 20
597.0
 30
0.0
 40
2.0
 50
90.0
 51
180.0
  0
ARC
  5
AE8
  8
DATA
 62
     7
 10
407.80000000000001
 20
569.0
 30
0.0
 40
2.0
 50
180.0
 51
270.0
  0
ARC
  5
AE9
  8
DATA
 62
     7
 10
448.30000000000001
 20
569.0
 30
0.0
 40
2.0
 50
270.0
 51
0.0
  0
ARC
  5
AEA
  8
DATA
 62
     7
 10
448.30000000000001
 20
597.0
 30
0.0
 40
2.0
 50
0.0
 51
90.0
  0
ARC
  5
AEB
  8
DATA
 62
     7
 10
428.0499999999999
 20
569.0
 30
0.0
 40
6.9999999999999991
 50
269.9999949022494
 51
270.00000504024968
  0
ARC
  5
AEC
  8
DATA
 62
     7
 10
428.0499999999999
 20
569.0
 30
0.0
 40
7.0000000000000009
 50
297.66400449618919
 51
242.33599550381049
  0
ARC
  5
AED
  8
DATA
 62
     7
 10
428.0499999999999
 20
569.0
 30
0.0
 40
3.249999999999992
 50
0.0
 51
180.0
  0
INSERT
  5
AEE
  8
DATA
 62
     7
  2
*U0
 10
370.0
 20
410.0
 30
0.0
  0
INSERT
  5
AEF
  8
DATA
 62
     7
  2
*U1
 10
370.0
 20
410.0
 30
0.0
  0
INSERT
  5
AF0
  8
DATA
 62
     7
  2
*U2
 10
370.0
 20
410.0
 30
0.0
  0
CIRCLE
  5
AF1
  8
DATA
 62
     7
 10
428.0499999999999
 20
588.2299999999999
 30
0.0
 40
0.7499999999999935
  0
CIRCLE
  5
AF2
  8
DATA
 62
     7
 10
430.58999999999997
 20
588.2299999999999
 30
0.0
 40
0.7499999999999935
  0
CIRCLE
  5
AF3
  8
DATA
 62
     7
 10
433.12999999999988
 20
588.2299999999999
 30
0.0
 40
0.7499999999999935
  0
CIRCLE
  5
AF4
  8
DATA
 62
     7
 10
425.50999999999988
 20
588.2299999999999
 30
0.0
 40
0.7499999999999935
  0
CIRCLE
  5
AF5
  8
DATA
 62
     7
 10
422.97000000000003
 20
588.2299999999999
 30
0.0
 40
0.7499999999999935
  0
CIRCLE
  5
AF6
  8
DATA
 62
     7
 10
429.31999999999988
 20
590.76999999999998
 30
0.0
 40
0.7499999999999935
  0
CIRCLE
  5
AF7
  8
DATA
 62
     7
 10
431.8599999999999
 20
590.76999999999998
 30
0.0
 40
0.7499999999999935
  0
CIRCLE
  5
AF8
  8
DATA
 62
     7
 10
426.77999999999997
 20
590.76999999999998
 30
0.0
 40
0.7499999999999935
  0
CIRCLE
  5
AF9
  8
DATA
 62
     7
 10
424.2399999999999
 20
590.76999999999998
 30
0.0
 40
0.7499999999999935
  0
ARC
  5
AFA
  8
DATA
 62
     7
 10
428.0499999999999
 20
569.0
 30
0.0
 40
4.5000000000000018
 50
316.23825730732023
 51
223.7617426926798
  0
LINE
  5
AFB
  8
DATA
 62
     7
 10
409.7999999999999
 20
564.0
 30
0.0
 11
423.15102051443358
 21
564.0
 31
0.0
  0
LINE
  5
AFC
  8
DATA
 62
     7
 10
432.94897948556633
 20
564.0
 30
0.0
 11
446.30000000000001
 21
564.0
 31
0.0
  0
LINE
  5
AFD
  8
DATA
 62
     7
 10
408.80000000000001
 20
565.0
 30
0.0
 11
408.80000000000001
 21
567.0
 31
0.0
  0
LINE
  5
AFE
  8
DATA
 62
     7
 10
447.2999999999999
 20
565.0
 30
0.0
 11
447.2999999999999
 21
567.0
 31
0.0
  0
LINE
  5
AFF
  8
DATA
 62
     7
 10
409.7999999999999
 20
568.0
 30
0.0
 11
421.12179676972443
 21
568.0
 31
0.0
  0
LINE
  5
B00
  8
DATA
 62
     7
 10
434.97820323027543
 20
568.0
 30
0.0
 11
446.30000000000001
 21
568.0
 31
0.0
  0
ARC
  5
B01
  8
DATA
 62
     7
 10
409.7999999999999
 20
565.0
 30
0.0
 40
1.0
 50
180.0
 51
270.0
  0
ARC
  5
B02
  8
DATA
 62
     7
 10
446.30000000000001
 20
565.0
 30
0.0
 40
1.0
 50
270.0
 51
0.0
  0
ARC
  5
B03
  8
DATA
 62
     7
 10
409.7999999999999
 20
567.0
 30
0.0
 40
1.0
 50
90.0
 51
180.0
  0
ARC
  5
B04
  8
DATA
 62
     7
 10
446.30000000000001
 20
567.0
 30
0.0
 40
1.0
 50
0.0
 51
90.0
  0
TEXT
  5
B05
  8
DATA
 62
     7
 10
444.84363599055507
 20
567.13482781281766
 30
0.0
 40
2.7999999999999998
  1
POWER
 50
180.0
 41
0.8
 11
444.84363599055507
 21
564.33482781281782
 31
0.0
 73
     3
  0
TEXT
  5
B06
  8
DATA
 62
     7
 10
420.42500001655679
 20
567.13482781281766
 30
0.0
 40
2.7999999999999998
  1
SUPPLY
 50
180.0
 41
0.8
 11
420.42500001655679
 21
564.33482781281782
 31
0.0
 73
     3
  0
TEXT
  5
B07
  8
DATA
 62
     7
 10
447.27902084938518
 20
571.35000000000002
 30
0.0
 40
2.6000000000000001
  1
LOOP IN
 50
180.0
 41
0.8
 11
447.27902084938518
 21
568.75
 31
0.0
 73
     3
  0
TEXT
  5
B08
  8
DATA
 62
     7
 10
434.27902084938512
 20
584.85000000000002
 30
0.0
 40
2.6000000000000001
  1
LOOP OUT
 50
180.0
 41
0.8
 11
434.27902084938512
 21
582.24999999999989
 31
0.0
 73
     3
  0
TEXT
  5
B09
  8
DATA
 62
     7
 10
445.07304157956088
 20
580.45000000000005
 30
0.0
 40
2.2000000000000002
  1
USE MSR POWER SUPPLY ONLY
 50
180.0
 41
0.8
 11
445.07304157956088
 21
578.24999999999989
 31
0.0
 73
     3
  0
TEXT
  5
B0A
  8
DATA
 62
     7
 10
421.5473748996489
 20
571.06024305555559
 30
0.0
 40
2.2000000000000002
  1
DC FUSES
 50
180.0
 41
0.8
 72
     2
 11
408.75804156631563
 21
568.86024305555554
 31
0.0
 73
     3
  0
TEXT
  5
B0B
  8
DATA
 62
     7
 10
417.55804156631558
 20
573.81024305555559
 30
0.0
 40
2.2000000000000002
  1
INSIDE
 50
180.0
 41
0.8
 72
     2
 11
408.75804156631563
 21
571.61024305555554
 31
0.0
 73
     3
  0
TEXT
  5
B0C
  8
DATA
 62
     7
 10
344.57304157956088
 20
565.74999999999989
 30
0.0
 40
2.0
  1
REAR INPUTS AND OUTPUTS BALANCED AND PIN1 GROUNDED
 50
180.0
 41
0.8
 11
344.57304157956088
 21
563.75
 31
0.0
 73
     3
  0
TEXT
  5
B0D
  8
DATA
 62
     7
 10
159.57304157956099
 20
565.74999999999989
 30
0.0
 40
2.0
  1
REAR INPUTS AND OUTPUTS BALANCED AND PIN1 GROUNDED
 50
180.0
 41
0.8
 11
159.57304157956099
 21
563.75
 31
0.0
 73
     3
  0
LINE
  5
B0E
  8
DATA
 62
     7
 10
32.300000000000011
 20
567.0
 30
0.0
 11
30.300000000000011
 21
567.0
 31
0.0
  0
LINE
  5
B0F
  8
DATA
 62
     7
 10
34.300000000000011
 20
569.0
 30
0.0
 11
34.300000000000011
 21
597.0
 31
0.0
  0
LINE
  5
B10
  8
DATA
 62
     7
 10
32.300000000000011
 20
599.0
 30
0.0
 11
30.300000000000011
 21
599.0
 31
0.0
  0
LINE
  5
B11
  8
DATA
 62
     7
 10
28.300000000000011
 20
597.0
 30
0.0
 11
28.300000000000011
 21
569.0
 31
0.0
  0
ARC
  5
B12
  8
DATA
 62
     7
 10
30.300000000000011
 20
597.0
 30
0.0
 40
2.0
 50
90.0
 51
180.0
  0
ARC
  5
B13
  8
DATA
 62
     7
 10
30.300000000000011
 20
569.0
 30
0.0
 40
2.0
 50
180.0
 51
270.0
  0
ARC
  5
B14
  8
DATA
 62
     7
 10
32.300000000000011
 20
569.0
 30
0.0
 40
2.0
 50
270.0
 51
0.0
  0
ARC
  5
B15
  8
DATA
 62
     7
 10
32.300000000000011
 20
597.0
 30
0.0
 40
2.0
 50
0.0
 51
90.0
  0
INSERT
  5
B16
  8
DATA
 62
     7
  2
*U3
 10
370.0
 20
410.0
 30
0.0
  0
LINE
  5
B17
  8
DATA
 62
     7
 10
800.0
 20
30.24999999999995
 30
0.0
 11
799.0
 21
30.24999999999995
 31
0.0
  0
ARC
  5
B18
  8
DATA
 62
     7
 10
800.0
 20
31.24999999999995
 30
0.0
 40
1.0
 50
270.0
 51
0.0
  0
LINE
  5
B19
  8
DATA
 62
     7
 10
801.0
 20
10.75000000000005
 30
0.0
 11
801.0
 21
7.2499999999999423
 31
0.0
  0
ARC
  5
B1A
  8
DATA
 62
     7
 10
800.0
 20
10.75000000000005
 30
0.0
 40
1.0
 50
0.0
 51
14.47751218592634
  0
LINE
  5
B1B
  8
DATA
 62
     7
 10
800.0
 20
6.2499999999999432
 30
0.0
 11
799.0
 21
6.2499999999999432
 31
0.0
  0
ARC
  5
B1C
  8
DATA
 62
     7
 10
800.0
 20
7.2499999999999423
 30
0.0
 40
1.0
 50
270.0
 51
0.0
  0
LINE
  5
B1D
  8
DATA
 62
     7
 10
800.5
 20
9.0
 30
0.0
 11
799.0
 21
9.0
 31
0.0
  0
LINE
  5
B1E
  8
DATA
 62
     7
 10
800.5
 20
30.383974596215531
 30
0.0
 11
800.5
 21
18.0
 31
0.0
  0
LINE
  5
B1F
  8
DATA
 62
     7
 10
800.5
 20
11.0
 30
0.0
 11
800.5
 21
9.0
 31
0.0
  0
LINE
  5
B20
  8
DATA
 62
     7
 10
804.0
 20
17.190018145560309
 30
0.0
 11
799.0
 21
17.190018145560309
 31
0.0
  0
LINE
  5
B21
  8
DATA
 62
     7
 10
804.0
 20
11.80998185443968
 30
0.0
 11
799.0
 21
11.80998185443968
 31
0.0
  0
LINE
  5
B22
  8
DATA
 62
     7
 10
804.0
 20
15.84500907278016
 30
0.0
 11
799.0
 21
15.84500907278016
 31
0.0
  0
LINE
  5
B23
  8
DATA
 62
     7
 10
804.0
 20
13.15499092721984
 30
0.0
 11
799.0
 21
13.15499092721984
 31
0.0
  0
LINE
  5
B24
  8
DATA
 62
     7
 10
804.0
 20
18.0
 30
0.0
 11
804.0
 21
11.0
 31
0.0
  0
LINE
  5
B25
  8
DATA
 62
     7
 10
804.0
 20
18.0
 30
0.0
 11
799.0
 21
18.0
 31
0.0
  0
LINE
  5
B26
  8
DATA
 62
     7
 10
804.0
 20
11.0
 30
0.0
 11
799.0
 21
11.0
 31
0.0
  0
TEXT
  5
B27
  8
DATA
 62
     7
 10
491.5
 20
486.12222222222221
 30
0.0
 40
9.8777777777777782
  1
電源供給ケーブル
 41
0.8
 11
491.5
 21
496.0
 31
0.0
 73
     3
  0
TEXT
  5
B28
  8
DATA
 62
     7
 10
491.5
 20
467.60138888888878
 30
0.0
 40
9.8777777777777782
  1
MSR-602IIとの接続用
 41
0.8
 11
491.5
 21
477.47916666666657
 31
0.0
 73
     3
  0
LINE
  5
B29
  8
DATA
 62
     7
 10
418.0
 20
469.5
 30
0.0
 11
489.0
 21
490.0
 31
0.0
  0
LINE
  5
B2A
  8
DATA
 62
     7
 10
424.80000000000001
 20
569.0
 30
0.0
 11
424.80000000000001
 21
549.99999999999989
 31
0.0
  0
LINE
  5
B2B
  8
DATA
 62
     7
 10
431.30000000000001
 20
569.0
 30
0.0
 11
431.30000000000001
 21
549.99999999999989
 31
0.0
  0
ARC
  5
B2C
  8
DATA
 62
     7
 10
426.42500000000001
 20
549.99999999999989
 30
0.0
 40
1.625
 50
0.0
 51
180.0
  0
ARC
  5
B2D
  8
DATA
 62
     7
 10
429.67500000000001
 20
549.99999999999989
 30
0.0
 40
1.625
 50
180.0
 51
0.0
  0
ENDSEC
  0
EOF
