  0
SECTION
  2
HEADER
  9
$ACADVER
  1
AC1009
  9
$INSBASE
 10
0.0
 20
0.0
 30
0.0
  9
$EXTMIN
 10
-80.010985489947416
 20
-131.71201227911089
 30
-0.0015258207003583
  9
$EXTMAX
 10
280.01098716632811
 20
403.5481165140169
 30
0.0000000349246037
  9
$LIMMIN
 10
0.0
 20
0.0
  9
$LIMMAX
 10
0.0
 20
0.0
  9
$ORTHOMODE
 70
     0
  9
$REGENMODE
 70
     1
  9
$FILLMODE
 70
     1
  9
$QTEXTMODE
 70
     0
  9
$MIRRTEXT
 70
     1
  9
$DRAGMODE
 70
     2
  9
$LTSCALE
 40
10.16
  9
$OSMODE
 70
   231
  9
$ATTMODE
 70
     1
  9
$TEXTSIZE
 40
0.0
  9
$TRACEWID
 40
1.0
  9
$TEXTSTYLE
  7
STANDARD
  9
$CLAYER
  8
DATA
  9
$CELTYPE
  6
BYLAYER
  9
$CECOLOR
 62
   256
  9
$DIMSCALE
 40
1.0
  9
$DIMASZ
 40
0.18
  9
$DIMEXO
 40
0.0625
  9
$DIMDLI
 40
0.38
  9
$DIMRND
 40
0.0
  9
$DIMDLE
 40
0.0
  9
$DIMEXE
 40
0.18
  9
$DIMTP
 40
0.0
  9
$DIMTM
 40
0.0
  9
$DIMTXT
 40
0.18
  9
$DIMCEN
 40
0.09
  9
$DIMTSZ
 40
0.0
  9
$DIMTOL
 70
     0
  9
$DIMLIM
 70
     0
  9
$DIMTIH
 70
     1
  9
$DIMTOH
 70
     1
  9
$DIMSE1
 70
     0
  9
$DIMSE2
 70
     0
  9
$DIMTAD
 70
     0
  9
$DIMZIN
 70
     0
  9
$DIMBLK
  1

  9
$DIMASO
 70
     1
  9
$DIMSHO
 70
     1
  9
$DIMPOST
  1

  9
$DIMAPOST
  1

  9
$DIMALT
 70
     0
  9
$DIMALTD
 70
     2
  9
$DIMALTF
 40
25.399999999999999
  9
$DIMLFAC
 40
1.0
  9
$DIMTOFL
 70
     0
  9
$DIMTVP
 40
0.0
  9
$DIMTIX
 70
     0
  9
$DIMSOXD
 70
     0
  9
$DIMSAH
 70
     0
  9
$DIMBLK1
  1

  9
$DIMBLK2
  1

  9
$DIMSTYLE
  2
STANDARD
  9
$DIMCLRD
 70
     0
  9
$DIMCLRE
 70
     0
  9
$DIMCLRT
 70
     0
  9
$DIMTFAC
 40
1.0
  9
$DIMGAP
 40
0.09
  9
$LUNITS
 70
     2
  9
$LUPREC
 70
     4
  9
$SKETCHINC
 40
0.1
  9
$FILLETRAD
 40
0.0
  9
$AUNITS
 70
     0
  9
$AUPREC
 70
     0
  9
$MENU
  1
acad
  9
$ELEVATION
 40
0.0
  9
$PELEVATION
 40
0.0
  9
$THICKNESS
 40
0.0
  9
$LIMCHECK
 70
     0
  9
$BLIPMODE
 70
     0
  9
$CHAMFERA
 40
0.0
  9
$CHAMFERB
 40
0.0
  9
$SKPOLY
 70
     0
  9
$TDCREATE
 40
2454272.7564930562
  9
$TDUPDATE
 40
2454272.7582507292
  9
$TDINDWG
 40
0.0002408449
  9
$TDUSRTIMER
 40
0.0002404977
  9
$USRTIMER
 70
     1
  9
$ANGBASE
 50
0.0
  9
$ANGDIR
 70
     0
  9
$PDMODE
 70
     1
  9
$PDSIZE
 40
-2.0
  9
$PLINEWID
 40
0.0
  9
$COORDS
 70
     1
  9
$SPLFRAME
 70
     0
  9
$SPLINETYPE
 70
     6
  9
$SPLINESEGS
 70
     8
  9
$ATTDIA
 70
     0
  9
$ATTREQ
 70
     1
  9
$HANDLING
 70
     1
  9
$HANDSEED
  5
260
  9
$SURFTAB1
 70
     6
  9
$SURFTAB2
 70
     6
  9
$SURFTYPE
 70
     6
  9
$SURFU
 70
     6
  9
$SURFV
 70
     6
  9
$UCSNAME
  2

  9
$UCSORG
 10
0.0
 20
0.0
 30
0.0
  9
$UCSXDIR
 10
1.0
 20
0.0
 30
0.0
  9
$UCSYDIR
 10
0.0
 20
1.0
 30
0.0
  9
$PUCSNAME
  2

  9
$PUCSORG
 10
0.0
 20
0.0
 30
0.0
  9
$PUCSXDIR
 10
1.0
 20
0.0
 30
0.0
  9
$PUCSYDIR
 10
0.0
 20
1.0
 30
0.0
  9
$USERI1
 70
     0
  9
$USERI2
 70
     0
  9
$USERI3
 70
     0
  9
$USERI4
 70
     0
  9
$USERI5
 70
     0
  9
$USERR1
 40
0.0
  9
$USERR2
 40
0.0
  9
$USERR3
 40
0.0
  9
$USERR4
 40
0.0
  9
$USERR5
 40
0.0
  9
$WORLDVIEW
 70
     1
  9
$SHADEDGE
 70
     3
  9
$SHADEDIF
 70
    70
  9
$TILEMODE
 70
     1
  9
$MAXACTVP
 70
    64
  9
$PLIMCHECK
 70
     0
  9
$PEXTMIN
 10
1.0000000000000000E+020
 20
1.0000000000000000E+020
 30
1.0000000000000000E+020
  9
$PEXTMAX
 10
-1.0000000000000000E+020
 20
-1.0000000000000000E+020
 30
-1.0000000000000000E+020
  9
$PLIMMIN
 10
0.0
 20
0.0
  9
$PLIMMAX
 10
12.0
 20
9.0
  9
$UNITMODE
 70
     0
  9
$VISRETAIN
 70
     0
  9
$PLINEGEN
 70
     1
  9
$PSLTSCALE
 70
     0
  0
ENDSEC
  0
SECTION
  2
TABLES
  0
TABLE
  2
VPORT
 70
     1
  0
VPORT
  2
*ACTIVE
 70
     0
 10
0.0
 20
0.0
 11
1.0
 21
1.0
 12
100.0000008381904
 22
135.91805211745299
 13
0.0
 23
0.0
 14
1.0
 24
1.0
 15
0.0
 25
0.0
 16
0.0
 26
0.0
 36
1.0
 17
0.0
 27
0.0
 37
0.0
 40
539.70212156319542
 41
1.6703601108033239
 42
50.0
 43
0.0
 44
0.0
 50
0.0
 51
0.0
 71
     0
 72
  2000
 73
     1
 74
     1
 75
     0
 76
     0
 77
     0
 78
     0
  0
ENDTAB
  0
TABLE
  2
LTYPE
 70
    11
  0
LTYPE
  2
CONTINUOUS
 70
     0
  3
Solid line
 72
    65
 73
     0
 40
0.0
  0
ENDTAB
  0
TABLE
  2
LAYER
 70
     5
  0
LAYER
  2
0
 70
     0
 62
     7
  6
CONTINUOUS
  0
LAYER
  2
DATA
 70
     0
 62
     7
  6
CONTINUOUS
  0
LAYER
  2
HIBINO-BASE
 70
     0
 62
     7
  6
CONTINUOUS
  0
LAYER
  2
SPEC
 70
     0
 62
     7
  6
CONTINUOUS
  0
LAYER
  2
DIMNSIONS
 70
     0
 62
     7
  6
CONTINUOUS
  0
ENDTAB
  0
TABLE
  2
STYLE
 70
     2
  0
STYLE
  2
STANDARD
 70
     0
 40
0.0
 41
1.0
 50
0.0
 71
     0
 42
0.0
  3
txt
  4
BIGFONT.SHX
  0
ENDTAB
  0
TABLE
  2
VIEW
 70
     0
  0
ENDTAB
  0
TABLE
  2
UCS
 70
     0
  0
ENDTAB
  0
TABLE
  2
APPID
 70
     1
  0
APPID
  2
ACAD
 70
     0
  0
ENDTAB
  0
TABLE
  2
DIMSTYLE
 70
     1
  0
DIMSTYLE
  2
STANDARD
 70
     0
  3

  4

  5

  6

  7

 40
1.0
 41
0.18
 42
0.0625
 43
0.38
 44
0.18
 45
0.0
 46
0.0
 47
0.0
 48
0.0
140
0.18
141
0.09
142
0.0
143
25.399999999999999
144
1.0
145
0.0
146
1.0
147
0.09
 71
     0
 72
     0
 73
     1
 74
     1
 75
     0
 76
     0
 77
     0
 78
     0
170
     0
171
     2
172
     0
173
     0
174
     0
175
     0
176
     0
177
     0
178
     0
  0
ENDTAB
  0
ENDSEC
  0
SECTION
  2
BLOCKS
  0
BLOCK
  8
0
  2
$MODEL_SPACE
 70
     0
 10
0.0
 20
0.0
 30
0.0
  3
$MODEL_SPACE
  1

  0
ENDBLK
  5
224
  8
0
  0
BLOCK
 67
     1
  8
0
  2
$PAPER_SPACE
 70
     0
 10
0.0
 20
0.0
 30
0.0
  3
$PAPER_SPACE
  1

  0
ENDBLK
  5
220
 67
     1
  8
0
  0
ENDSEC
  0
SECTION
  2
ENTITIES
  0
LINE
  5
2C
  8
HIBINO-BASE
  6
CONTINUOUS
 62
     7
 10
-79.999999999999986
 20
403.53181499999999
 30
0.0
 11
279.99999999999989
 21
403.53181499999999
 31
0.0
  0
LINE
  5
2D
  8
HIBINO-BASE
  6
CONTINUOUS
 62
     7
 10
279.99999999999989
 20
-116.46818500000001
 30
0.0
 11
-79.999999999999986
 21
-116.46818500000001
 31
0.0
  0
LINE
  5
2E
  8
HIBINO-BASE
  6
CONTINUOUS
 62
     7
 10
-79.999999999999986
 20
-116.46818500000001
 30
0.0
 11
-79.999999999999986
 21
403.53181499999999
 31
0.0
  0
TEXT
  5
2F
  8
HIBINO-BASE
 62
     7
 10
-65.631999999999991
 20
-129.2855405999999
 30
0.0
 40
7.2000883593749991
  1
Hibino Corporation
 41
0.7
 11
-65.631999999999991
 21
-122.0854522406249
 31
0.0
 73
     3
  0
LINE
  5
30
  8
HIBINO-BASE
  6
CONTINUOUS
 62
     7
 10
279.99999999999989
 20
403.53181499999999
 30
0.0
 11
279.99999999999989
 21
-116.46818500000001
 31
0.0
  0
LINE
  5
31
  8
HIBINO-BASE
  6
CONTINUOUS
 62
     7
 10
100.0
 20
-71.468184999999977
 30
0.0
 11
279.99999999999989
 21
-71.468184999999977
 31
0.0
  0
LINE
  5
32
  8
HIBINO-BASE
  6
CONTINUOUS
 62
     7
 10
100.0
 20
-116.46818500000001
 30
0.0
 11
100.0
 21
-71.468184999999977
 31
0.0
  0
TEXT
  5
33
  8
HIBINO-BASE
 62
     7
 10
101.8
 20
-76.485571666666644
 30
0.0
 40
3.2576822916666659
  1
NOTE
 41
0.7
 11
101.8
 21
-73.227889374999975
 31
0.0
 73
     3
  0
LINE
  5
34
  8
HIBINO-BASE
  6
CONTINUOUS
 62
     7
 10
170.0
 20
-116.46818500000001
 30
0.0
 11
170.0
 21
-71.468184999999977
 31
0.0
  0
TEXT
  5
35
  8
HIBINO-BASE
 62
     7
 10
171.7999999999999
 20
-76.485571666666644
 30
0.0
 40
3.2576822916666659
  1
TITLE
 41
0.7
 11
171.7999999999999
 21
-73.227889374999975
 31
0.0
 73
     3
  0
TEXT
  5
36
  8
HIBINO-BASE
 62
     7
 10
200.13677999999999
 20
-129.2855405999999
 30
0.0
 40
7.2000883593749991
  1
ヒビノ株式会社
 41
0.7
 11
200.13677999999999
 21
-122.0854522406249
 31
0.0
 73
     3
  0
LINE
  5
37
  8
HIBINO-BASE
  6
CONTINUOUS
 62
     7
 10
100.0
 20
-96.468184999999963
 30
0.0
 11
279.99999999999989
 21
-96.468184999999963
 31
0.0
  0
TEXT
  5
38
  8
HIBINO-BASE
 62
     7
 10
196.80000000000001
 20
-101.3729316666666
 30
0.0
 40
3.2576822916666659
  1
DRAWN
 41
0.7
 11
196.80000000000001
 21
-98.115249375000005
 31
0.0
 73
     3
  0
TEXT
  5
39
  8
HIBINO-BASE
 62
     7
 10
146.7999999999999
 20
-101.3729316666666
 30
0.0
 40
3.2576822916666659
  1
DATE
 41
0.7
 11
146.7999999999999
 21
-98.115249375000005
 31
0.0
 73
     3
  0
TEXT
  5
3A
  8
HIBINO-BASE
 62
     7
 10
126.8
 20
-101.3729316666666
 30
0.0
 40
3.2576822916666659
  1
SCALE
 41
0.7
 11
126.8
 21
-98.115249375000005
 31
0.0
 73
     3
  0
TEXT
  5
3B
  8
HIBINO-BASE
 62
     7
 10
171.7999999999999
 20
-101.3729316666666
 30
0.0
 40
3.2576822916666659
  1
DESIGN
 41
0.7
 11
171.7999999999999
 21
-98.115249375000005
 31
0.0
 73
     3
  0
TEXT
  5
3C
  8
HIBINO-BASE
 62
     7
 10
246.7999999999999
 20
-101.3729316666666
 30
0.0
 40
3.2576822916666659
  1
DRAWING NO.
 41
0.7
 11
246.7999999999999
 21
-98.115249375000005
 31
0.0
 73
     3
  0
TEXT
  5
3D
  8
HIBINO-BASE
 62
     7
 10
221.7999999999999
 20
-101.3729316666666
 30
0.0
 40
3.2576822916666659
  1
CHECK
 41
0.7
 11
221.7999999999999
 21
-98.115249375000005
 31
0.0
 73
     3
  0
LINE
  5
3E
  8
HIBINO-BASE
  6
CONTINUOUS
 62
     7
 10
128.74999999999989
 20
-113.96818500000001
 30
0.0
 11
136.25
 21
-106.46818499999991
 31
0.0
  0
TEXT
  5
3F
  8
HIBINO-BASE
 62
     7
 10
127.5
 20
-108.68607166666661
 30
0.0
 40
3.2576822916666659
  1
1
 41
0.7
 11
127.5
 21
-105.42838937499999
 31
0.0
 73
     3
  0
LINE
  5
40
  8
HIBINO-BASE
  6
CONTINUOUS
 62
     7
 10
125.0
 20
-116.46818500000001
 30
0.0
 11
125.0
 21
-96.468184999999963
 31
0.0
  0
LINE
  5
41
  8
HIBINO-BASE
  6
CONTINUOUS
 62
     7
 10
145.0
 20
-116.46818500000001
 30
0.0
 11
145.0
 21
-96.468184999999963
 31
0.0
  0
LINE
  5
42
  8
HIBINO-BASE
  6
CONTINUOUS
 62
     7
 10
195.0
 20
-96.468184999999963
 30
0.0
 11
195.0
 21
-116.46818500000001
 31
0.0
  0
LINE
  5
43
  8
HIBINO-BASE
  6
CONTINUOUS
 62
     7
 10
245.0
 20
-96.468184999999963
 30
0.0
 11
245.0
 21
-116.46818500000001
 31
0.0
  0
LINE
  5
44
  8
HIBINO-BASE
  6
CONTINUOUS
 62
     7
 10
220.0
 20
-116.46818500000001
 30
0.0
 11
220.0
 21
-96.468184999999963
 31
0.0
  0
TEXT
  5
45
  8
HIBINO-BASE
 62
     7
 10
146.71307999999999
 20
-110.7408916666666
 30
0.0
 40
3.2576822916666659
  1
'07.06.
 41
0.7
 11
146.71307999999999
 21
-107.483209375
 31
0.0
 73
     3
  0
TEXT
  5
46
  8
HIBINO-BASE
 62
     7
 10
135.0
 20
-112.43607166666661
 30
0.0
 40
3.2576822916666659
  1
2
 41
0.7
 11
135.0
 21
-109.17838937499999
 31
0.0
 73
     3
  0
TEXT
  5
47
  8
HIBINO-BASE
 62
     7
 10
198.0116200220692
 20
-110.7408916666666
 30
0.0
 40
3.2576822916666659
  1
N.Sasaki
 41
0.7
 11
198.0116200220692
 21
-107.483209375
 31
0.0
 73
     3
  0
TEXT
  5
48
  8
HIBINO-BASE
 62
     7
 10
107.76666666666659
 20
-112.51618499999999
 30
0.0
 40
6.5153645833333318
  1
A4
 41
0.7
 11
107.76666666666659
 21
-106.0008204166666
 31
0.0
 73
     3
  0
TEXT
  5
49
  8
HIBINO-BASE
 62
     7
 10
101.9166666666666
 20
-101.707095
 30
0.0
 40
3.2576822916666659
  1
PAPER SIZE
 41
0.7
 11
101.9166666666666
 21
-98.449412708333327
 31
0.0
 73
     3
  0
LINE
  5
4A
  8
SPEC
  6
CONTINUOUS
 62
     7
 10
-65.000000000000014
 20
383.53181499999999
 30
0.0
 11
166.0
 21
383.53181499999999
 31
0.0
  0
LINE
  5
4B
  8
SPEC
  6
CONTINUOUS
 62
     7
 10
-65.000000000000014
 20
383.53181499999999
 30
0.0
 11
-65.000000000000014
 21
323.532535
 31
0.0
  0
TEXT
  5
4C
  8
SPEC
 62
     7
 10
-62.500000000000021
 20
386.318355
 30
0.0
 40
4.8865234375000011
  1
仕様
 41
0.7
 11
-62.500000000000021
 21
391.20487843749999
 31
0.0
 73
     3
  0
LINE
  5
4D
  8
SPEC
  6
CONTINUOUS
 62
     7
 10
15.99999999999998
 20
383.53181499999999
 30
0.0
 11
15.99999999999998
 21
323.532535
 31
0.0
  0
LINE
  5
4E
  8
SPEC
  6
CONTINUOUS
 62
     7
 10
166.0
 20
383.53181499999999
 30
0.0
 11
166.0
 21
323.532535
 31
0.0
  0
LINE
  5
4F
  8
SPEC
  6
CONTINUOUS
 62
     7
 10
-65.000000000000014
 20
338.532535
 30
0.0
 11
166.0
 21
338.532535
 31
0.0
  0
TEXT
  5
50
  8
SPEC
 62
     7
 10
-63.200000000000067
 20
340.1083705555555
 30
0.0
 40
3.8006293402777791
  1
消費電力
 41
0.7
 11
-63.200000000000067
 21
343.90899989583329
 31
0.0
 73
     3
  0
LINE
  5
51
  8
SPEC
  6
CONTINUOUS
 62
     7
 10
-65.000000000000014
 20
361.032535
 30
0.0
 11
166.0
 21
361.032535
 31
0.0
  0
LINE
  5
52
  8
SPEC
  6
CONTINUOUS
 62
     7
 10
-65.000000000000014
 20
346.03253499999988
 30
0.0
 11
166.0
 21
346.03253499999988
 31
0.0
  0
LINE
  5
53
  8
SPEC
  6
CONTINUOUS
 62
     7
 10
-65.000000000000014
 20
331.03253499999988
 30
0.0
 11
166.0
 21
331.03253499999988
 31
0.0
  0
LINE
  5
54
  8
SPEC
  6
CONTINUOUS
 62
     7
 10
-65.000000000000014
 20
323.532535
 30
0.0
 11
166.0
 21
323.532535
 31
0.0
  0
TEXT
  5
55
  8
SPEC
 62
     7
 10
17.999999999999979
 20
340.1083705555555
 30
0.0
 40
3.8006293402777791
  1
最大300mA(12V)
 41
0.7
 11
17.999999999999979
 21
343.90899989583329
 31
0.0
 73
     3
  0
TEXT
  5
56
  8
SPEC
 62
     7
 10
-63.200000000000067
 20
325.10837055555538
 30
0.0
 40
3.8006293402777791
  1
質量
 41
0.7
 11
-63.200000000000067
 21
328.90899989583318
 31
0.0
 73
     3
  0
TEXT
  5
57
  8
SPEC
 62
     7
 10
17.999999999999979
 20
325.10837055555538
 30
0.0
 40
3.8006293402777791
  1
約408g
 41
0.7
 11
17.999999999999979
 21
328.90899989583318
 31
0.0
 73
     3
  0
TEXT
  5
58
  8
SPEC
 62
     7
 10
-63.200000000000067
 20
377.6083705555555
 30
0.0
 40
3.8006293402777791
  1
ネットワーク・コネクタ 
 41
0.7
 11
-63.200000000000067
 21
381.40899989583329
 31
0.0
 73
     3
  0
TEXT
  5
59
  8
SPEC
 62
     7
 10
17.999999999999979
 20
377.6083705555555
 30
0.0
 40
3.8006293402777791
  1
Ethernet×1(RJ45)、最大ケーブル長100m
 41
0.7
 11
17.999999999999979
 21
381.40899989583329
 31
0.0
 73
     3
  0
TEXT
  5
5A
  8
SPEC
 62
     7
 10
-63.200000000000067
 20
332.60837055555538
 30
0.0
 40
3.8006293402777791
  1
寸法(W×H×D)
 41
0.7
 11
-63.200000000000067
 21
336.40899989583318
 31
0.0
 73
     3
  0
TEXT
  5
5B
  8
SPEC
 62
     7
 10
17.999999999999979
 20
332.60837055555538
 30
0.0
 40
3.8006293402777791
  1
170×123×44mm(突起部含まず)
 41
0.7
 11
17.999999999999979
 21
336.40899989583318
 31
0.0
 73
     3
  0
LINE
  5
5C
  8
SPEC
  6
CONTINUOUS
 62
     7
 10
-65.000000000000014
 20
368.532535
 30
0.0
 11
166.0
 21
368.532535
 31
0.0
  0
TEXT
  5
5D
  8
SPEC
 62
     7
 10
-63.200000000000067
 20
370.1083705555555
 30
0.0
 40
3.8006293402777791
  1
その他接続インターフェース
 41
0.7
 11
-63.200000000000067
 21
373.90899989583329
 31
0.0
 73
     3
  0
TEXT
  5
5E
  8
SPEC
 62
     7
 10
17.999999999999979
 20
370.1083705555555
 30
0.0
 40
3.8006293402777791
  1
USB1.1×1
 41
0.7
 11
17.999999999999979
 21
373.90899989583329
 31
0.0
 73
     3
  0
LINE
  5
5F
  8
SPEC
  6
CONTINUOUS
 62
     7
 10
-65.000000000000014
 20
376.032535
 30
0.0
 11
166.0
 21
376.032535
 31
0.0
  0
TEXT
  5
60
  8
SPEC
 62
     7
 10
-63.200000000000067
 20
362.6083705555555
 30
0.0
 40
3.8006293402777791
  1
電源コネクタ 
 41
0.7
 11
-63.200000000000067
 21
366.40899989583329
 31
0.0
 73
     3
  0
TEXT
  5
61
  8
SPEC
 62
     7
 10
17.999999999999979
 20
362.6083705555555
 30
0.0
 40
3.8006293402777791
  1
ユーロブロック
 41
0.7
 11
17.999999999999979
 21
366.40899989583329
 31
0.0
 73
     3
  0
TEXT
  5
62
  8
SPEC
 62
     7
 10
-63.200000000000067
 20
355.1083705555555
 30
0.0
 40
3.8006293402777791
  1
電源
 41
0.7
 11
-63.200000000000067
 21
358.90899989583329
 31
0.0
 73
     3
  0
TEXT
  5
63
  8
SPEC
 62
     7
 10
17.999999999999979
 20
355.1083705555555
 30
0.0
 40
3.8006293402777791
  1
DC12V～48V(ユーロブロック電源コネクタ )、
 41
0.7
 11
17.999999999999979
 21
358.90899989583329
 31
0.0
 73
     3
  0
TEXT
  5
64
  8
SPEC
 62
     7
 10
17.999999999999979
 20
347.6083705555555
 30
0.0
 40
3.8006293402777769
  1
またはPoE(IEEE802.3af準拠)によりEthernetケーブルより供給
 41
0.7
 11
17.999999999999979
 21
351.40899989583329
 31
0.0
 73
     3
  0
TEXT
  5
65
  8
DIMNSIONS
 62
     7
 10
60.0
 20
-91.929204999999968
 30
0.0
 40
4.8865234375000002
  1
(単位：mm)
 41
0.7
 11
60.0
 21
-87.042681562499979
 31
0.0
 73
     3
  0
LINE
  5
66
  8
DIMNSIONS
  6
CONTINUOUS
 62
     7
 10
104.0
 20
99.750000000000014
 30
0.0
 11
104.0
 21
129.0
 31
0.0
  0
LINE
  5
67
  8
DIMNSIONS
  6
CONTINUOUS
 62
     7
 10
196.0
 20
99.750000000000014
 30
0.0
 11
196.0
 21
129.0
 31
0.0
  0
LINE
  5
68
  8
DIMNSIONS
  6
CONTINUOUS
 62
     7
 10
104.0
 20
125.0
 30
0.0
 11
196.0
 21
125.0
 31
0.0
  0
LINE
  5
69
  8
DIMNSIONS
  6
CONTINUOUS
 62
     7
 10
104.0
 20
125.0
 30
0.0
 11
109.00124511718739
 21
126.3400795903005
 31
0.0
  0
LINE
  5
6A
  8
DIMNSIONS
  6
CONTINUOUS
 62
     7
 10
104.0
 20
125.0
 30
0.0
 11
109.00124511718739
 21
123.6599204096995
 31
0.0
  0
LINE
  5
6B
  8
DIMNSIONS
  6
CONTINUOUS
 62
     7
 10
196.0
 20
125.0
 30
0.0
 11
190.99875488281239
 21
123.6599204096995
 31
0.0
  0
LINE
  5
6C
  8
DIMNSIONS
  6
CONTINUOUS
 62
     7
 10
196.0
 20
125.0
 30
0.0
 11
190.99875488281239
 21
126.3400795903005
 31
0.0
  0
TEXT
  5
6D
  8
DIMNSIONS
 62
     7
 10
146.4722222222222
 20
126.98777777777769
 30
0.0
 40
5.4294704861111107
  1
92
 41
0.7
 11
146.4722222222222
 21
132.41724826388881
 31
0.0
 73
     3
  0
LINE
  5
6E
  8
DIMNSIONS
  6
CONTINUOUS
 62
     7
 10
196.9530930952732
 20
93.217689869058987
 30
0.0
 11
221.650635094611
 21
131.25
 31
0.0
  0
LINE
  5
6F
  8
DIMNSIONS
  6
CONTINUOUS
 62
     7
 10
196.9530930952732
 20
93.217689869058987
 30
0.0
 11
198.55308109868241
 21
98.141946606829507
 31
0.0
  0
LINE
  5
70
  8
DIMNSIONS
  6
CONTINUOUS
 62
     7
 10
196.9530930952732
 20
93.217689869058987
 30
0.0
 11
200.8008517208612
 21
96.682227297020319
 31
0.0
  0
LINE
  5
71
  8
DIMNSIONS
  6
CONTINUOUS
 62
     7
 10
221.650635094611
 20
131.25
 30
0.0
 11
250.3450795390554
 21
131.25
 31
0.0
  0
TEXT
  5
72
  8
DIMNSIONS
 62
     7
 10
225.650635094611
 20
133.23777777777769
 30
0.0
 40
5.4294704861111107
  1
4-φ3.5
 41
0.7
 11
225.650635094611
 21
138.66724826388881
 31
0.0
 73
     3
  0
LINE
  5
73
  8
DIMNSIONS
  6
CONTINUOUS
 62
     7
 10
204.0
 20
91.75
 30
0.0
 11
254.0
 21
91.75
 31
0.0
  0
LINE
  5
74
  8
DIMNSIONS
  6
CONTINUOUS
 62
     7
 10
204.0
 20
8.25
 30
0.0
 11
254.0
 21
8.25
 31
0.0
  0
LINE
  5
75
  8
DIMNSIONS
  6
CONTINUOUS
 62
     7
 10
250.0
 20
91.75
 30
0.0
 11
250.0
 21
8.25
 31
0.0
  0
LINE
  5
76
  8
DIMNSIONS
  6
CONTINUOUS
 62
     7
 10
250.0
 20
91.75
 30
0.0
 11
251.34007959030049
 21
86.748754882812506
 31
0.0
  0
LINE
  5
77
  8
DIMNSIONS
  6
CONTINUOUS
 62
     7
 10
250.0
 20
91.75
 30
0.0
 11
248.65992040969951
 21
86.748754882812506
 31
0.0
  0
LINE
  5
78
  8
DIMNSIONS
  6
CONTINUOUS
 62
     7
 10
250.0
 20
8.25
 30
0.0
 11
248.65992040969951
 21
13.2512451171875
 31
0.0
  0
LINE
  5
79
  8
DIMNSIONS
  6
CONTINUOUS
 62
     7
 10
250.0
 20
8.25
 30
0.0
 11
251.34007959030049
 21
13.2512451171875
 31
0.0
  0
TEXT
  5
7A
  8
DIMNSIONS
 62
     7
 10
248.01222222222219
 20
42.94444444444445
 30
0.0
 40
5.4294704861111107
  1
83.5
 50
90.0
 41
0.7
 11
242.58275173611111
 21
42.94444444444445
 31
0.0
 73
     3
  0
LINE
  5
7B
  8
DIMNSIONS
  6
CONTINUOUS
 62
     7
 10
64.999999999999986
 20
-5.5
 30
0.0
 11
64.999999999999986
 21
-54.0
 31
0.0
  0
LINE
  5
7C
  8
DIMNSIONS
  6
CONTINUOUS
 62
     7
 10
235.0
 20
-5.5
 30
0.0
 11
235.0
 21
-54.0
 31
0.0
  0
LINE
  5
7D
  8
DIMNSIONS
  6
CONTINUOUS
 62
     7
 10
64.999999999999986
 20
-50.0
 30
0.0
 11
235.0
 21
-50.0
 31
0.0
  0
LINE
  5
7E
  8
DIMNSIONS
  6
CONTINUOUS
 62
     7
 10
64.999999999999986
 20
-50.0
 30
0.0
 11
70.001245117187494
 21
-48.659920409699509
 31
0.0
  0
LINE
  5
7F
  8
DIMNSIONS
  6
CONTINUOUS
 62
     7
 10
64.999999999999986
 20
-50.0
 30
0.0
 11
70.001245117187494
 21
-51.340079590300491
 31
0.0
  0
LINE
  5
80
  8
DIMNSIONS
  6
CONTINUOUS
 62
     7
 10
235.0
 20
-50.0
 30
0.0
 11
229.99875488281239
 21
-51.340079590300491
 31
0.0
  0
LINE
  5
81
  8
DIMNSIONS
  6
CONTINUOUS
 62
     7
 10
235.0
 20
-50.0
 30
0.0
 11
229.99875488281239
 21
-48.659920409699509
 31
0.0
  0
TEXT
  5
82
  8
DIMNSIONS
 62
     7
 10
144.70833333333329
 20
-48.012222222222242
 30
0.0
 40
5.4294704861111107
  1
170
 41
0.7
 11
144.70833333333329
 21
-42.582751736111128
 31
0.0
 73
     3
  0
LINE
  5
83
  8
DIMNSIONS
  6
CONTINUOUS
 62
     7
 10
0.0
 20
-15.5
 30
0.0
 11
0.0
 21
-54.0
 31
0.0
  0
LINE
  5
84
  8
DIMNSIONS
  6
CONTINUOUS
 62
     7
 10
-31.000000000000011
 20
9.75
 30
0.0
 11
-31.000000000000011
 21
-54.0
 31
0.0
  0
LINE
  5
85
  8
DIMNSIONS
  6
CONTINUOUS
 62
     7
 10
0.0
 20
-50.0
 30
0.0
 11
-31.000000000000011
 21
-50.0
 31
0.0
  0
LINE
  5
86
  8
DIMNSIONS
  6
CONTINUOUS
 62
     7
 10
0.0
 20
-50.0
 30
0.0
 11
-5.0012451171874943
 21
-51.340079590300491
 31
0.0
  0
LINE
  5
87
  8
DIMNSIONS
  6
CONTINUOUS
 62
     7
 10
0.0
 20
-50.0
 30
0.0
 11
-5.0012451171874943
 21
-48.659920409699509
 31
0.0
  0
LINE
  5
88
  8
DIMNSIONS
  6
CONTINUOUS
 62
     7
 10
-31.000000000000011
 20
-50.0
 30
0.0
 11
-25.99875488281252
 21
-48.659920409699509
 31
0.0
  0
LINE
  5
89
  8
DIMNSIONS
  6
CONTINUOUS
 62
     7
 10
-31.000000000000011
 20
-50.0
 30
0.0
 11
-25.99875488281252
 21
-51.340079590300491
 31
0.0
  0
TEXT
  5
8A
  8
DIMNSIONS
 62
     7
 10
-19.027777777777779
 20
-48.012222222222242
 30
0.0
 40
5.4294704861111107
  1
31
 41
0.7
 11
-19.027777777777779
 21
-42.582751736111128
 31
0.0
 73
     3
  0
LINE
  5
8B
  8
DIMNSIONS
  6
CONTINUOUS
 62
     7
 10
0.0
 20
-15.5
 30
0.0
 11
0.0
 21
-54.0
 31
0.0
  0
LINE
  5
8C
  8
DIMNSIONS
  6
CONTINUOUS
 62
     7
 10
26.0
 20
37.0
 30
0.0
 11
26.0
 21
-54.0
 31
0.0
  0
LINE
  5
8D
  8
DIMNSIONS
  6
CONTINUOUS
 62
     7
 10
0.0
 20
-50.0
 30
0.0
 11
26.0
 21
-50.0
 31
0.0
  0
LINE
  5
8E
  8
DIMNSIONS
  6
CONTINUOUS
 62
     7
 10
0.0
 20
-50.0
 30
0.0
 11
5.0012451171874943
 21
-48.659920409699509
 31
0.0
  0
LINE
  5
8F
  8
DIMNSIONS
  6
CONTINUOUS
 62
     7
 10
0.0
 20
-50.0
 30
0.0
 11
5.0012451171874943
 21
-51.340079590300491
 31
0.0
  0
LINE
  5
90
  8
DIMNSIONS
  6
CONTINUOUS
 62
     7
 10
26.0
 20
-50.0
 30
0.0
 11
20.998754882812499
 21
-51.340079590300491
 31
0.0
  0
LINE
  5
91
  8
DIMNSIONS
  6
CONTINUOUS
 62
     7
 10
26.0
 20
-50.0
 30
0.0
 11
20.998754882812499
 21
-48.659920409699509
 31
0.0
  0
TEXT
  5
92
  8
DIMNSIONS
 62
     7
 10
9.4722222222222268
 20
-48.012222222222242
 30
0.0
 40
5.4294704861111107
  1
26
 41
0.7
 11
9.4722222222222268
 21
-42.582751736111128
 31
0.0
 73
     3
  0
LINE
  5
93
  8
DIMNSIONS
  6
CONTINUOUS
 62
     7
 10
-4.0
 20
111.5
 30
0.0
 11
-54.000000000000021
 21
111.5
 31
0.0
  0
LINE
  5
94
  8
DIMNSIONS
  6
CONTINUOUS
 62
     7
 10
-4.0
 20
-11.5
 30
0.0
 11
-54.000000000000021
 21
-11.5
 31
0.0
  0
LINE
  5
95
  8
DIMNSIONS
  6
CONTINUOUS
 62
     7
 10
-50.000000000000021
 20
111.5
 30
0.0
 11
-50.000000000000021
 21
-11.5
 31
0.0
  0
LINE
  5
96
  8
DIMNSIONS
  6
CONTINUOUS
 62
     7
 10
-50.000000000000021
 20
111.5
 30
0.0
 11
-48.659920409699531
 21
106.49875488281251
 31
0.0
  0
LINE
  5
97
  8
DIMNSIONS
  6
CONTINUOUS
 62
     7
 10
-50.000000000000021
 20
111.5
 30
0.0
 11
-51.340079590300498
 21
106.49875488281251
 31
0.0
  0
LINE
  5
98
  8
DIMNSIONS
  6
CONTINUOUS
 62
     7
 10
-50.000000000000021
 20
-11.5
 30
0.0
 11
-51.340079590300498
 21
-6.4987548828125048
 31
0.0
  0
LINE
  5
99
  8
DIMNSIONS
  6
CONTINUOUS
 62
     7
 10
-50.000000000000021
 20
-11.5
 30
0.0
 11
-48.659920409699531
 21
-6.4987548828125048
 31
0.0
  0
TEXT
  5
9A
  8
DIMNSIONS
 62
     7
 10
-51.987777777777772
 20
44.708333333333343
 30
0.0
 40
5.4294704861111107
  1
123
 50
90.0
 41
0.7
 11
-57.417248263888887
 21
44.708333333333343
 31
0.0
 73
     3
  0
LINE
  5
9B
  8
DIMNSIONS
  6
CONTINUOUS
 62
     7
 10
102.0
 20
206.0
 30
0.0
 11
46.0
 21
206.0
 31
0.0
  0
LINE
  5
9C
  8
DIMNSIONS
  6
CONTINUOUS
 62
     7
 10
103.5458189826287
 20
161.67536830801311
 30
0.0
 11
46.0
 21
161.67536830801311
 31
0.0
  0
LINE
  5
9D
  8
DIMNSIONS
  6
CONTINUOUS
 62
     7
 10
50.0
 20
206.0
 30
0.0
 11
50.0
 21
161.67536830801311
 31
0.0
  0
LINE
  5
9E
  8
DIMNSIONS
  6
CONTINUOUS
 62
     7
 10
50.0
 20
206.0
 30
0.0
 11
51.340079590300469
 21
200.99875488281239
 31
0.0
  0
LINE
  5
9F
  8
DIMNSIONS
  6
CONTINUOUS
 62
     7
 10
50.0
 20
206.0
 30
0.0
 11
48.659920409699531
 21
200.99875488281239
 31
0.0
  0
LINE
  5
A0
  8
DIMNSIONS
  6
CONTINUOUS
 62
     7
 10
50.0
 20
161.67536830801311
 30
0.0
 11
48.659920409699531
 21
166.6766134252006
 31
0.0
  0
LINE
  5
A1
  8
DIMNSIONS
  6
CONTINUOUS
 62
     7
 10
50.0
 20
161.67536830801311
 30
0.0
 11
51.340079590300469
 21
166.6766134252006
 31
0.0
  0
TEXT
  5
A2
  8
DIMNSIONS
 62
     7
 10
48.012222222222221
 20
180.30990637622881
 30
0.0
 40
5.4294704861111107
  1
44
 50
90.0
 41
0.7
 11
42.582751736111113
 21
180.30990637622881
 31
0.0
 73
     3
  0
LINE
  5
A3
  8
DIMNSIONS
  6
CONTINUOUS
 62
     7
 10
80.999999999999986
 20
194.0
 30
0.0
 11
80.999999999999986
 21
229.0
 31
0.0
  0
LINE
  5
A4
  8
DIMNSIONS
  6
CONTINUOUS
 62
     7
 10
219.0
 20
210.0
 30
0.0
 11
219.0
 21
229.0
 31
0.0
  0
LINE
  5
A5
  8
DIMNSIONS
  6
CONTINUOUS
 62
     7
 10
80.999999999999986
 20
225.0
 30
0.0
 11
219.0
 21
225.0
 31
0.0
  0
LINE
  5
A6
  8
DIMNSIONS
  6
CONTINUOUS
 62
     7
 10
80.999999999999986
 20
225.0
 30
0.0
 11
86.00124511718748
 21
226.34007959030049
 31
0.0
  0
LINE
  5
A7
  8
DIMNSIONS
  6
CONTINUOUS
 62
     7
 10
80.999999999999986
 20
225.0
 30
0.0
 11
86.00124511718748
 21
223.65992040969951
 31
0.0
  0
LINE
  5
A8
  8
DIMNSIONS
  6
CONTINUOUS
 62
     7
 10
219.0
 20
225.0
 30
0.0
 11
213.99875488281239
 21
223.65992040969951
 31
0.0
  0
LINE
  5
A9
  8
DIMNSIONS
  6
CONTINUOUS
 62
     7
 10
219.0
 20
225.0
 30
0.0
 11
213.99875488281239
 21
226.34007959030049
 31
0.0
  0
TEXT
  5
AA
  8
DIMNSIONS
 62
     7
 10
144.70833333333329
 20
226.98777777777781
 30
0.0
 40
5.4294704861111107
  1
138
 41
0.7
 11
144.70833333333329
 21
232.41724826388889
 31
0.0
 73
     3
  0
TEXT
  5
AB
  8
DATA
 62
     7
 10
-60.0
 20
-107.99218500000001
 30
0.0
 40
3.2576822916666659
  1
仕様および外観は予告なく変更されることがありますので、ご了承ください。
 41
0.7
 11
-60.0
 21
-104.7345027083333
 31
0.0
 73
     3
  0
TEXT
  5
AC
  8
DATA
 62
     7
 10
200.0
 20
-94.206404999999947
 30
0.0
 40
4.8865234375000011
  1
BLU-10
 41
0.7
 11
200.0
 21
-89.319881562499944
 31
0.0
 73
     3
  0
TEXT
  5
AD
  8
DATA
 62
     7
 10
200.0
 20
-79.706404999999933
 30
0.0
 40
4.8865234375000011
  1
BSS
 41
0.7
 11
200.0
 21
-74.81988156249993
 31
0.0
 73
     3
  0
TEXT
  5
AE
  8
DATA
 62
     7
 10
194.29444444444439
 20
-86.778000000000006
 30
0.0
 40
3.8006293402777769
  1
Soundweb London
 41
0.7
 11
194.29444444444439
 21
-82.977370659722226
 31
0.0
 73
     3
  0
LINE
  5
AF
  8
DATA
  6
CONTINUOUS
 62
     7
 10
74.999999999999986
 20
-11.5
 30
0.0
 11
225.0
 21
-11.5
 31
0.0
  0
LINE
  5
B0
  8
DATA
  6
CONTINUOUS
 62
     7
 10
64.999999999999986
 20
-1.5
 30
0.0
 11
64.999999999999986
 21
101.5
 31
0.0
  0
LINE
  5
B1
  8
DATA
  6
CONTINUOUS
 62
     7
 10
74.999999999999986
 20
111.5
 30
0.0
 11
225.0
 21
111.5
 31
0.0
  0
LINE
  5
B2
  8
DATA
  6
CONTINUOUS
 62
     7
 10
235.0
 20
101.5
 30
0.0
 11
235.0
 21
-1.5
 31
0.0
  0
LINE
  5
B3
  8
DATA
  6
CONTINUOUS
 62
     7
 10
74.499999999999986
 20
-4.0
 30
0.0
 11
225.5
 21
-4.0
 31
0.0
  0
LINE
  5
B4
  8
DATA
  6
CONTINUOUS
 62
     7
 10
72.499999999999986
 20
-2.0
 30
0.0
 11
72.499999999999986
 21
102.0
 31
0.0
  0
LINE
  5
B5
  8
DATA
  6
CONTINUOUS
 62
     7
 10
74.499999999999986
 20
104.0
 30
0.0
 11
225.5
 21
104.0
 31
0.0
  0
LINE
  5
B6
  8
DATA
  6
CONTINUOUS
 62
     7
 10
227.5
 20
102.0
 30
0.0
 11
227.5
 21
-2.0
 31
0.0
  0
ARC
  5
B7
  8
DATA
  6
CONTINUOUS
 62
     7
 10
74.499999999999986
 20
-2.0
 30
0.0
 40
2.0
 50
180.0
 51
270.0
  0
ARC
  5
B8
  8
DATA
  6
CONTINUOUS
 62
     7
 10
74.499999999999986
 20
102.0
 30
0.0
 40
2.0
 50
90.0
 51
180.0
  0
ARC
  5
B9
  8
DATA
  6
CONTINUOUS
 62
     7
 10
225.5
 20
102.0
 30
0.0
 40
2.0
 50
0.0
 51
90.0
  0
ARC
  5
BA
  8
DATA
  6
CONTINUOUS
 62
     7
 10
225.5
 20
-2.0
 30
0.0
 40
2.0
 50
270.0
 51
0.0
  0
ARC
  5
BB
  8
DATA
  6
CONTINUOUS
 62
     7
 10
74.999999999999986
 20
-1.5
 30
0.0
 40
10.0
 50
180.0
 51
270.0
  0
ARC
  5
BC
  8
DATA
  6
CONTINUOUS
 62
     7
 10
74.999999999999986
 20
101.5
 30
0.0
 40
10.0
 50
90.0
 51
180.0
  0
ARC
  5
BD
  8
DATA
  6
CONTINUOUS
 62
     7
 10
225.0
 20
101.5
 30
0.0
 40
10.0
 50
0.0
 51
90.0
  0
ARC
  5
BE
  8
DATA
  6
CONTINUOUS
 62
     7
 10
225.0
 20
-1.5
 30
0.0
 40
10.0
 50
270.0
 51
0.0
  0
LINE
  5
BF
  8
DATA
  6
CONTINUOUS
 62
     7
 10
70.999999999999986
 20
-2.0
 30
0.0
 11
70.999999999999986
 21
102.0
 31
0.0
  0
ARC
  5
C0
  8
DATA
  6
CONTINUOUS
 62
     7
 10
74.499999999999986
 20
-2.0
 30
0.0
 40
3.5
 50
180.0
 51
270.0
  0
LINE
  5
C1
  8
DATA
  6
CONTINUOUS
 62
     7
 10
74.499999999999986
 20
-5.5
 30
0.0
 11
225.5
 21
-5.5
 31
0.0
  0
LINE
  5
C2
  8
DATA
  6
CONTINUOUS
 62
     7
 10
229.0
 20
102.0
 30
0.0
 11
229.0
 21
-2.0
 31
0.0
  0
ARC
  5
C3
  8
DATA
  6
CONTINUOUS
 62
     7
 10
225.5
 20
-2.0
 30
0.0
 40
3.5
 50
270.0
 51
0.0
  0
ARC
  5
C4
  8
DATA
  6
CONTINUOUS
 62
     7
 10
225.5
 20
102.0
 30
0.0
 40
3.5
 50
0.0
 51
90.0
  0
LINE
  5
C5
  8
DATA
  6
CONTINUOUS
 62
     7
 10
74.499999999999986
 20
105.5
 30
0.0
 11
225.5
 21
105.5
 31
0.0
  0
ARC
  5
C6
  8
DATA
  6
CONTINUOUS
 62
     7
 10
74.499999999999986
 20
102.0
 30
0.0
 40
3.5
 50
90.0
 51
180.0
  0
LINE
  5
C7
  8
DATA
  6
CONTINUOUS
 62
     7
 10
195.8938993767145
 20
14.5
 30
0.0
 11
227.5
 21
14.5
 31
0.0
  0
LINE
  5
C8
  8
DATA
  6
CONTINUOUS
 62
     7
 10
104.1061006232855
 20
14.5
 30
0.0
 11
72.499999999999986
 21
14.5
 31
0.0
  0
ARC
  5
C9
  8
DATA
  6
CONTINUOUS
 62
     7
 10
150.0
 20
111.4464285714285
 30
0.0
 40
103.9464285714285
 50
252.65551690650861
 51
287.34448309349142
  0
ARC
  5
CA
  8
DATA
  6
CONTINUOUS
 62
     7
 10
104.1061006232855
 20
-35.500000000000462
 30
0.0
 40
50.000000000000462
 50
72.655516906508794
 51
90.0
  0
ARC
  5
CB
  8
DATA
  6
CONTINUOUS
 62
     7
 10
195.8938993767145
 20
-35.500000000000419
 30
0.0
 40
50.000000000000419
 50
90.0
 51
107.34448309349121
  0
CIRCLE
  5
CC
  8
DATA
  6
CONTINUOUS
 62
     7
 10
104.0
 20
8.25
 30
0.0
 40
4.0
  0
CIRCLE
  5
CD
  8
DATA
  6
CONTINUOUS
 62
     7
 10
104.0
 20
8.25
 30
0.0
 40
1.75
  0
CIRCLE
  5
CE
  8
DATA
  6
CONTINUOUS
 62
     7
 10
196.0
 20
8.25
 30
0.0
 40
4.0
  0
CIRCLE
  5
CF
  8
DATA
  6
CONTINUOUS
 62
     7
 10
196.0
 20
8.25
 30
0.0
 40
1.75
  0
CIRCLE
  5
D0
  8
DATA
  6
CONTINUOUS
 62
     7
 10
104.0
 20
91.75
 30
0.0
 40
4.0
  0
CIRCLE
  5
D1
  8
DATA
  6
CONTINUOUS
 62
     7
 10
104.0
 20
91.75
 30
0.0
 40
1.75
  0
CIRCLE
  5
D2
  8
DATA
  6
CONTINUOUS
 62
     7
 10
196.0
 20
91.75
 30
0.0
 40
4.0
  0
CIRCLE
  5
D3
  8
DATA
  6
CONTINUOUS
 62
     7
 10
196.0
 20
91.75
 30
0.0
 40
1.75
  0
LINE
  5
D4
  8
DATA
  6
CONTINUOUS
 62
     7
 10
195.8938993767145
 20
85.5
 30
0.0
 11
227.5
 21
85.5
 31
0.0
  0
LINE
  5
D5
  8
DATA
  6
CONTINUOUS
 62
     7
 10
104.1061006232855
 20
85.5
 30
0.0
 11
72.499999999999986
 21
85.5
 31
0.0
  0
ARC
  5
D6
  8
DATA
  6
CONTINUOUS
 62
     7
 10
150.0
 20
-11.44642857142853
 30
0.0
 40
103.9464285714285
 50
72.655516906508623
 51
107.34448309349141
  0
ARC
  5
D7
  8
DATA
  6
CONTINUOUS
 62
     7
 10
104.1061006232855
 20
135.5000000000004
 30
0.0
 40
50.000000000000462
 50
270.0
 51
287.34448309349119
  0
ARC
  5
D8
  8
DATA
  6
CONTINUOUS
 62
     7
 10
195.8938993767145
 20
135.5000000000004
 30
0.0
 40
50.000000000000419
 50
252.65551690650869
 51
270.0
  0
LINE
  5
D9
  8
DATA
  6
CONTINUOUS
 62
     7
 10
112.0
 20
31.0
 30
0.0
 11
178.5
 21
31.0
 31
0.0
  0
LINE
  5
DA
  8
DATA
  6
CONTINUOUS
 62
     7
 10
112.0
 20
69.0
 30
0.0
 11
178.5
 21
69.0
 31
0.0
  0
ARC
  5
DB
  8
DATA
  6
CONTINUOUS
 62
     7
 10
201.25
 20
50.0
 30
0.0
 40
91.25
 50
167.9819880850109
 51
192.01801191498899
  0
ARC
  5
DC
  8
DATA
  6
CONTINUOUS
 62
     7
 10
89.249999999999943
 20
50.0
 30
0.0
 40
91.250000000000057
 50
347.98198808501093
 51
12.01801191498901
  0
ARC
  5
DD
  8
DATA
  6
CONTINUOUS
 62
     7
 10
182.4998804209184
 20
49.973214285714249
 30
0.0
 40
74.999885204089153
 50
163.73976971317589
 51
196.26023028682411
  0
ARC
  5
DE
  8
DATA
  6
CONTINUOUS
 62
     7
 10
145.25
 20
-532.30803571427737
 30
0.0
 40
604.28124999999147
 50
86.703310990207683
 51
93.296689009792274
  0
ARC
  5
DF
  8
DATA
  6
CONTINUOUS
 62
     7
 10
145.665925291202
 20
632.28092284058766
 30
0.0
 40
604.28124999999181
 50
266.6623853699013
 51
273.25576338948599
  0
ARC
  5
E0
  8
DATA
  6
CONTINUOUS
 62
     7
 10
108.0001195790816
 20
49.973214285714249
 30
0.0
 40
74.999885204089097
 50
343.73976971317597
 51
16.26023028682414
  0
CIRCLE
  5
E1
  8
DATA
  6
CONTINUOUS
 62
     7
 10
202.0
 20
50.0
 30
0.0
 40
13.0
  0
CIRCLE
  5
E2
  8
DATA
  6
CONTINUOUS
 62
     7
 10
202.0
 20
50.0
 30
0.0
 40
10.5
  0
CIRCLE
  5
E3
  8
DATA
  6
CONTINUOUS
 62
     7
 10
202.0
 20
50.0
 30
0.0
 40
9.0
  0
CIRCLE
  5
E4
  8
DATA
  6
CONTINUOUS
 62
     7
 10
202.0
 20
50.0
 30
0.0
 40
10.0
  0
ARC
  5
E5
  8
DATA
  6
CONTINUOUS
 62
     7
 10
202.0
 20
62.049475093105862
 30
0.0
 40
2.0494750931058539
 50
232.41684043866789
 51
307.5831595613322
  0
ARC
  5
E6
  8
DATA
  6
CONTINUOUS
 62
     7
 10
195.97526245344719
 20
60.435151532897542
 30
0.0
 40
2.0494750931058618
 50
262.41684043866559
 51
337.5831595613314
  0
ARC
  5
E7
  8
DATA
  6
CONTINUOUS
 62
     7
 10
191.56484846710251
 20
56.02473754655292
 30
0.0
 40
2.0494750931058512
 50
292.41684043866769
 51
7.5831595613320806
  0
ARC
  5
E8
  8
DATA
  6
CONTINUOUS
 62
     7
 10
189.9505249068942
 20
50.0
 30
0.0
 40
2.0494750931058201
 50
322.41684043866712
 51
37.583159561332891
  0
ARC
  5
E9
  8
DATA
  6
CONTINUOUS
 62
     7
 10
191.56484846710251
 20
43.975262453447073
 30
0.0
 40
2.0494750931058499
 50
352.4168404386678
 51
67.583159561332209
  0
ARC
  5
EA
  8
DATA
  6
CONTINUOUS
 62
     7
 10
195.97526245344719
 20
39.564848467102451
 30
0.0
 40
2.049475093105785
 50
22.41684043866853
 51
97.583159561334483
  0
ARC
  5
EB
  8
DATA
  6
CONTINUOUS
 62
     7
 10
202.0
 20
37.950524906894152
 30
0.0
 40
2.0494750931058539
 50
52.416840438667833
 51
127.5831595613322
  0
ARC
  5
EC
  8
DATA
  6
CONTINUOUS
 62
     7
 10
208.02473754655301
 20
39.564848467102472
 30
0.0
 40
2.0494750931058472
 50
82.416840438668657
 51
157.58315956133271
  0
ARC
  5
ED
  8
DATA
  6
CONTINUOUS
 62
     7
 10
212.43515153289749
 20
43.975262453447073
 30
0.0
 40
2.0494750931058512
 50
112.4168404386678
 51
187.58315956133211
  0
ARC
  5
EE
  8
DATA
  6
CONTINUOUS
 62
     7
 10
214.04947509310591
 20
50.0
 30
0.0
 40
2.0494750931059098
 50
142.41684043866911
 51
217.583159561331
  0
ARC
  5
EF
  8
DATA
  6
CONTINUOUS
 62
     7
 10
212.43515153289761
 20
56.02473754655292
 30
0.0
 40
2.0494750931058499
 50
172.4168404386678
 51
247.5831595613322
  0
ARC
  5
F0
  8
DATA
  6
CONTINUOUS
 62
     7
 10
208.02473754655301
 20
60.435151532897521
 30
0.0
 40
2.0494750931058898
 50
202.41684043866729
 51
277.58315956133129
  0
CIRCLE
  5
F1
  8
DATA
  6
CONTINUOUS
 62
     7
 10
201.0
 20
50.0
 30
0.0
 40
15.0
  0
ARC
  5
F2
  8
DATA
  6
CONTINUOUS
 62
     7
 10
203.19999999999999
 20
23.5
 30
0.0
 40
1.302679000096838
 50
317.80215550128662
 51
42.197844498713494
  0
ARC
  5
F3
  8
DATA
  6
CONTINUOUS
 62
     7
 10
202.0
 20
24.800000000000001
 30
0.0
 40
3.068896381437475
 50
225.13117733762999
 51
314.86882266237012
  0
ARC
  5
F4
  8
DATA
  6
CONTINUOUS
 62
     7
 10
202.0
 20
22.199999999999989
 30
0.0
 40
3.0688963814374839
 50
45.131177337630199
 51
134.86882266236981
  0
ARC
  5
F5
  8
DATA
  6
CONTINUOUS
 62
     7
 10
200.8000000000001
 20
23.5
 30
0.0
 40
1.3026790000969219
 50
137.80215550128989
 51
222.19784449871
  0
ARC
  5
F6
  8
DATA
  6
CONTINUOUS
 62
     7
 10
203.19999999999999
 20
76.5
 30
0.0
 40
1.302679000096838
 50
317.80215550128662
 51
42.197844498713494
  0
ARC
  5
F7
  8
DATA
  6
CONTINUOUS
 62
     7
 10
202.0
 20
75.200000000000003
 30
0.0
 40
3.0688963814374839
 50
45.131177337630199
 51
134.86882266236981
  0
ARC
  5
F8
  8
DATA
  6
CONTINUOUS
 62
     7
 10
202.0
 20
77.800000000000026
 30
0.0
 40
3.0688963814374839
 50
225.13117733763011
 51
314.86882266236978
  0
ARC
  5
F9
  8
DATA
  6
CONTINUOUS
 62
     7
 10
200.8000000000001
 20
76.5
 30
0.0
 40
1.3026790000969219
 50
137.80215550128989
 51
222.19784449871
  0
ARC
  5
FA
  8
DATA
  6
CONTINUOUS
 62
     7
 10
182.4998804209184
 20
49.973214285714249
 30
0.0
 40
84.999885204089153
 50
187.66666749905471
 51
193.42939749153939
  0
LINE
  5
FB
  8
DATA
  6
CONTINUOUS
 62
     7
 10
89.147687020880753
 20
39.5
 30
0.0
 11
97.268749904712124
 21
39.5
 31
0.0
  0
LINE
  5
FC
  8
DATA
  6
CONTINUOUS
 62
     7
 10
89.147688586717422
 20
29.0
 30
0.0
 11
98.851503471849924
 21
29.0
 31
0.0
  0
ARC
  5
FD
  8
DATA
  6
CONTINUOUS
 62
     7
 10
89.147688586717422
 20
34.25
 30
0.0
 40
5.25
 50
90.0
 51
270.00001709680402
  0
ARC
  5
FE
  8
DATA
  6
CONTINUOUS
 62
     7
 10
98.851503471849924
 20
30.000000000000011
 30
0.0
 40
1.000000000000014
 50
270.0
 51
13.429397491538561
  0
ARC
  5
FF
  8
DATA
  6
CONTINUOUS
 62
     7
 10
97.268749904712124
 20
38.500000000000007
 30
0.0
 40
0.9999999999999841
 50
7.6666674990539381
 51
90.0
  0
ARC
  5
100
  8
DATA
  6
CONTINUOUS
 62
     7
 10
182.4998804209184
 20
50.026785714285751
 30
0.0
 40
84.999885204089153
 50
166.57060250846061
 51
172.33333250094529
  0
LINE
  5
101
  8
DATA
  6
CONTINUOUS
 62
     7
 10
89.147687020880753
 20
60.5
 30
0.0
 11
97.268749904712124
 21
60.5
 31
0.0
  0
LINE
  5
102
  8
DATA
  6
CONTINUOUS
 62
     7
 10
89.147688586717422
 20
71.0
 30
0.0
 11
98.851503471849924
 21
71.0
 31
0.0
  0
ARC
  5
103
  8
DATA
  6
CONTINUOUS
 62
     7
 10
89.147688586717422
 20
65.75
 30
0.0
 40
5.2500000000000062
 50
89.999982903195999
 51
270.0
  0
ARC
  5
104
  8
DATA
  6
CONTINUOUS
 62
     7
 10
98.851503471849924
 20
69.999999999999986
 30
0.0
 40
1.000000000000016
 50
346.5706025084616
 51
90.0
  0
ARC
  5
105
  8
DATA
  6
CONTINUOUS
 62
     7
 10
97.268749904712124
 20
61.499999999999993
 30
0.0
 40
0.9999999999999857
 50
270.0
 51
352.33333250094603
  0
LINE
  5
106
  8
DATA
  6
CONTINUOUS
 62
     7
 10
88.999999999999986
 20
31.0
 30
0.0
 11
88.999999999999986
 21
35.0
 31
0.0
  0
LINE
  5
107
  8
DATA
  6
CONTINUOUS
 62
     7
 10
88.999999999999986
 20
31.0
 30
0.0
 11
93.999999999999986
 21
31.0
 31
0.0
  0
LINE
  5
108
  8
DATA
  6
CONTINUOUS
 62
     7
 10
88.999999999999986
 20
35.0
 30
0.0
 11
93.999999999999986
 21
35.0
 31
0.0
  0
LINE
  5
109
  8
DATA
  6
CONTINUOUS
 62
     7
 10
93.999999999999986
 20
35.0
 30
0.0
 11
93.999999999999986
 21
31.0
 31
0.0
  0
LINE
  5
10A
  8
DATA
  6
CONTINUOUS
 62
     7
 10
94.999999999999986
 20
33.5
 30
0.0
 11
94.999999999999986
 21
36.0
 31
0.0
  0
LINE
  5
10B
  8
DATA
  6
CONTINUOUS
 62
     7
 10
94.999999999999986
 20
33.5
 30
0.0
 11
95.999999999999986
 21
33.5
 31
0.0
  0
LINE
  5
10C
  8
DATA
  6
CONTINUOUS
 62
     7
 10
95.999999999999986
 20
33.5
 30
0.0
 11
95.999999999999986
 21
37.5
 31
0.0
  0
LINE
  5
10D
  8
DATA
  6
CONTINUOUS
 62
     7
 10
94.999999999999986
 20
36.0
 30
0.0
 11
90.999999999999986
 21
36.0
 31
0.0
  0
LINE
  5
10E
  8
DATA
  6
CONTINUOUS
 62
     7
 10
90.999999999999986
 20
36.0
 30
0.0
 11
90.999999999999986
 21
37.5
 31
0.0
  0
LINE
  5
10F
  8
DATA
  6
CONTINUOUS
 62
     7
 10
90.999999999999986
 20
37.5
 30
0.0
 11
95.999999999999986
 21
37.5
 31
0.0
  0
LINE
  5
110
  8
DATA
  6
CONTINUOUS
 62
     7
 10
92.999999999999986
 20
68.5
 30
0.0
 11
92.999999999999986
 21
63.0
 31
0.0
  0
LINE
  5
111
  8
DATA
  6
CONTINUOUS
 62
     7
 10
92.999999999999986
 20
63.0
 30
0.0
 11
89.999999999999986
 21
65.75
 31
0.0
  0
LINE
  5
112
  8
DATA
  6
CONTINUOUS
 62
     7
 10
89.999999999999986
 20
65.75
 30
0.0
 11
92.999999999999986
 21
68.5
 31
0.0
  0
TEXT
  5
113
  8
DATA
 62
     7
 10
89.999999999999986
 20
2.572888888888901
 30
0.0
 40
2.4694444444444441
  1
BLU-10
 41
0.7
 11
89.999999999999986
 21
5.042333333333346
 31
0.0
 73
     3
  0
LINE
  5
114
  8
DATA
  6
CONTINUOUS
 62
     7
 10
0.0
 20
111.5
 30
0.0
 11
0.0
 21
-11.5
 31
0.0
  0
LINE
  5
115
  8
DATA
  6
CONTINUOUS
 62
     7
 10
6.0
 20
105.5
 30
0.0
 11
6.0
 21
-5.5
 31
0.0
  0
LINE
  5
116
  8
DATA
  6
CONTINUOUS
 62
     7
 10
1.0
 20
111.5
 30
0.0
 11
1.0
 21
-11.5
 31
0.0
  0
LINE
  5
117
  8
DATA
  6
CONTINUOUS
 62
     7
 10
6.0
 20
105.5
 30
0.0
 11
1.0
 21
111.5
 31
0.0
  0
LINE
  5
118
  8
DATA
  6
CONTINUOUS
 62
     7
 10
1.0
 20
-11.5
 30
0.0
 11
6.0
 21
-5.5
 31
0.0
  0
LINE
  5
119
  8
DATA
  6
CONTINUOUS
 62
     7
 10
6.9222997604196044
 20
14.5
 30
0.0
 11
6.0
 21
14.5
 31
0.0
  0
ARC
  5
11A
  8
DATA
  6
CONTINUOUS
 62
     7
 10
-1252.9999999999991
 20
50.0
 30
0.0
 40
1260.4999999999991
 50
358.38614108979522
 51
1.613858910204726
  0
LINE
  5
11B
  8
DATA
  6
CONTINUOUS
 62
     7
 10
8.0
 20
7.5
 30
0.0
 11
8.9222997604195484
 21
7.5
 31
0.0
  0
LINE
  5
11C
  8
DATA
  6
CONTINUOUS
 62
     7
 10
6.9222997604196044
 20
85.5
 30
0.0
 11
6.0
 21
85.5
 31
0.0
  0
LINE
  5
11D
  8
DATA
  6
CONTINUOUS
 62
     7
 10
8.0
 20
92.5
 30
0.0
 11
8.9222997604195484
 21
92.5
 31
0.0
  0
LINE
  5
11E
  8
DATA
  6
CONTINUOUS
 62
     7
 10
7.9222997604196044
 20
92.500000000000057
 30
0.0
 11
7.9222997604196044
 21
87.5
 31
0.0
  0
LINE
  5
11F
  8
DATA
  6
CONTINUOUS
 62
     7
 10
10.540346087981099
 20
39.5
 30
0.0
 11
9.0436669729292571
 21
39.5
 31
0.0
  0
LINE
  5
120
  8
DATA
  6
CONTINUOUS
 62
     7
 10
11.03908530321956
 20
38.964514859683057
 30
0.0
 11
10.363163252755269
 21
29.464514859683071
 31
0.0
  0
ARC
  5
121
  8
DATA
  6
CONTINUOUS
 62
     7
 10
37.155678080875418
 20
32.296796656600861
 30
0.0
 40
28.020187920474321
 50
165.1036094448115
 51
186.75695291610671
  0
ARC
  5
122
  8
DATA
  6
CONTINUOUS
 62
     7
 10
37.155678080875418
 20
32.296796656600861
 30
0.0
 40
29.020187920474299
 50
165.62817663882339
 51
186.5230870776962
  0
LINE
  5
123
  8
DATA
  6
CONTINUOUS
 62
     7
 10
9.8644240375168675
 20
29.0
 30
0.0
 11
8.3233622053743943
 21
29.0
 31
0.0
  0
ARC
  5
124
  8
DATA
  6
CONTINUOUS
 62
     7
 10
10.540346087981099
 20
39.0
 30
0.0
 40
0.4999999999999862
 50
355.93028118045919
 51
90.0
  0
ARC
  5
125
  8
DATA
  6
CONTINUOUS
 62
     7
 10
9.8644240375168675
 20
29.499999999999989
 30
0.0
 40
0.4999999999999858
 50
270.0
 51
355.9302811804605
  0
LINE
  5
126
  8
DATA
  6
CONTINUOUS
 62
     7
 10
10.540346087981099
 20
60.5
 30
0.0
 11
9.0436669729292571
 21
60.5
 31
0.0
  0
LINE
  5
127
  8
DATA
  6
CONTINUOUS
 62
     7
 10
11.03908530321956
 20
61.035485140316929
 30
0.0
 11
10.363163252755269
 21
70.535485140316936
 31
0.0
  0
ARC
  5
128
  8
DATA
  6
CONTINUOUS
 62
     7
 10
37.155678080875418
 20
67.703203343399153
 30
0.0
 40
28.020187920474321
 50
173.2430470838932
 51
194.8963905551885
  0
ARC
  5
129
  8
DATA
  6
CONTINUOUS
 62
     7
 10
37.155678080875418
 20
67.703203343399124
 30
0.0
 40
29.02018792047437
 50
173.47691292230371
 51
194.3718233611765
  0
LINE
  5
12A
  8
DATA
  6
CONTINUOUS
 62
     7
 10
9.8644240375168675
 20
71.0
 30
0.0
 11
8.3233622053743943
 21
71.0
 31
0.0
  0
ARC
  5
12B
  8
DATA
  6
CONTINUOUS
 62
     7
 10
10.540346087981099
 20
61.0
 30
0.0
 40
0.5
 50
270.0
 51
4.0697188195408094
  0
ARC
  5
12C
  8
DATA
  6
CONTINUOUS
 62
     7
 10
9.8644240375168675
 20
70.500000000000014
 30
0.0
 40
0.4999999999999286
 50
4.0697188195396548
 51
90.000000000000028
  0
LINE
  5
12D
  8
DATA
  6
CONTINUOUS
 62
     7
 10
26.0
 20
59.0
 30
0.0
 11
13.64535885331361
 21
59.650244270878233
 31
0.0
  0
LINE
  5
12E
  8
DATA
  6
CONTINUOUS
 62
     7
 10
26.0
 20
41.0
 30
0.0
 11
13.64535885331361
 21
40.349755729121767
 31
0.0
  0
LINE
  5
12F
  8
DATA
  6
CONTINUOUS
 62
     7
 10
26.0
 20
59.0
 30
0.0
 11
26.0
 21
41.0
 31
0.0
  0
LINE
  5
130
  8
DATA
  6
CONTINUOUS
 62
     7
 10
-31.000000000000011
 20
86.25
 30
0.0
 11
-31.000000000000011
 21
13.75
 31
0.0
  0
LINE
  5
131
  8
DATA
  6
CONTINUOUS
 62
     7
 10
-31.000000000000011
 20
86.25
 30
0.0
 11
0.0
 21
86.25
 31
0.0
  0
LINE
  5
132
  8
DATA
  6
CONTINUOUS
 62
     7
 10
-31.000000000000011
 20
13.75
 30
0.0
 11
0.0
 21
13.75
 31
0.0
  0
LINE
  5
133
  8
DATA
  6
CONTINUOUS
 62
     7
 10
0.0
 20
-11.5
 30
0.0
 11
1.0
 21
-11.5
 31
0.0
  0
LINE
  5
134
  8
DATA
  6
CONTINUOUS
 62
     7
 10
0.0
 20
111.5
 30
0.0
 11
1.0
 21
111.5
 31
0.0
  0
LINE
  5
135
  8
DATA
  6
CONTINUOUS
 62
     7
 10
-15.0
 20
86.25
 30
0.0
 11
-15.0
 21
13.75
 31
0.0
  0
LINE
  5
136
  8
DATA
  6
CONTINUOUS
 62
     7
 10
-15.5
 20
85.0
 30
0.0
 11
-15.5
 21
15.0
 31
0.0
  0
LINE
  5
137
  8
DATA
  6
CONTINUOUS
 62
     7
 10
-15.5
 20
85.0
 30
0.0
 11
-15.0
 21
85.0
 31
0.0
  0
LINE
  5
138
  8
DATA
  6
CONTINUOUS
 62
     7
 10
-15.5
 20
15.0
 30
0.0
 11
-15.0
 21
15.0
 31
0.0
  0
LINE
  5
139
  8
DATA
  6
CONTINUOUS
 62
     7
 10
-24.0
 20
70.25
 30
0.0
 11
-24.0
 21
60.25
 31
0.0
  0
LINE
  5
13A
  8
DATA
  6
CONTINUOUS
 62
     7
 10
-23.0
 20
70.25
 30
0.0
 11
-23.0
 21
68.75
 31
0.0
  0
LINE
  5
13B
  8
DATA
  6
CONTINUOUS
 62
     7
 10
-23.0
 20
68.75
 30
0.0
 11
-24.0
 21
69.25
 31
0.0
  0
LINE
  5
13C
  8
DATA
  6
CONTINUOUS
 62
     7
 10
-24.0
 20
66.25
 30
0.0
 11
-23.0
 21
66.75
 31
0.0
  0
LINE
  5
13D
  8
DATA
  6
CONTINUOUS
 62
     7
 10
-23.0
 20
66.75
 30
0.0
 11
-23.0
 21
63.75
 31
0.0
  0
LINE
  5
13E
  8
DATA
  6
CONTINUOUS
 62
     7
 10
-23.0
 20
63.75
 30
0.0
 11
-24.0
 21
64.25
 31
0.0
  0
LINE
  5
13F
  8
DATA
  6
CONTINUOUS
 62
     7
 10
-24.0
 20
61.25
 30
0.0
 11
-23.0
 21
61.75
 31
0.0
  0
LINE
  5
140
  8
DATA
  6
CONTINUOUS
 62
     7
 10
-23.0
 20
61.75
 30
0.0
 11
-23.0
 21
60.25
 31
0.0
  0
POLYLINE
  5
141
  8
DATA
  6
CONTINUOUS
 62
     7
 66
     1
 10
0.0
 20
0.0
 30
0.0
 70
     1
  0
VERTEX
  5
241
  8
DATA
  6
CONTINUOUS
 62
     7
 10
-20.5
 20
68.250000000000071
 30
0.0
  0
VERTEX
  5
242
  8
DATA
  6
CONTINUOUS
 62
     7
 10
-19.5
 20
68.250000000000071
 30
0.0
  0
VERTEX
  5
243
  8
DATA
  6
CONTINUOUS
 62
     7
 10
-19.5
 20
67.25
 30
0.0
  0
VERTEX
  5
244
  8
DATA
  6
CONTINUOUS
 62
     7
 10
-20.5
 20
67.25
 30
0.0
  0
SEQEND
  5
245
  8
DATA
  6
CONTINUOUS
 62
     7
  0
POLYLINE
  5
148
  8
DATA
  6
CONTINUOUS
 62
     7
 66
     1
 10
0.0
 20
0.0
 30
0.0
 70
     1
  0
VERTEX
  5
246
  8
DATA
  6
CONTINUOUS
 62
     7
 10
-20.5
 20
63.250000000000057
 30
0.0
  0
VERTEX
  5
247
  8
DATA
  6
CONTINUOUS
 62
     7
 10
-19.5
 20
63.250000000000057
 30
0.0
  0
VERTEX
  5
248
  8
DATA
  6
CONTINUOUS
 62
     7
 10
-19.5
 20
62.25
 30
0.0
  0
VERTEX
  5
249
  8
DATA
  6
CONTINUOUS
 62
     7
 10
-20.5
 20
62.25
 30
0.0
  0
SEQEND
  5
24A
  8
DATA
  6
CONTINUOUS
 62
     7
  0
LINE
  5
14F
  8
DATA
  6
CONTINUOUS
 62
     7
 10
-24.5
 20
70.25
 30
0.0
 11
-17.5
 21
70.25
 31
0.0
  0
ARC
  5
150
  8
DATA
  6
CONTINUOUS
 62
     7
 10
-20.625
 20
67.75
 30
0.0
 40
3.625
 50
316.39718102729643
 51
43.602818972703638
  0
ARC
  5
151
  8
DATA
  6
CONTINUOUS
 62
     7
 10
-20.625
 20
62.75
 30
0.0
 40
3.625
 50
316.39718102729643
 51
43.602818972703638
  0
ARC
  5
152
  8
DATA
  6
CONTINUOUS
 62
     7
 10
-20.125
 20
67.75
 30
0.0
 40
3.625
 50
316.39718102729643
 51
43.602818972703638
  0
ARC
  5
153
  8
DATA
  6
CONTINUOUS
 62
     7
 10
-20.125
 20
62.75
 30
0.0
 40
3.625
 50
316.39718102729643
 51
43.602818972703638
  0
LINE
  5
154
  8
DATA
  6
CONTINUOUS
 62
     7
 10
-24.5
 20
70.25
 30
0.0
 11
-24.5
 21
60.25
 31
0.0
  0
LINE
  5
155
  8
DATA
  6
CONTINUOUS
 62
     7
 10
-17.5
 20
60.25
 30
0.0
 11
-24.5
 21
60.25
 31
0.0
  0
LINE
  5
156
  8
DATA
  6
CONTINUOUS
 62
     7
 10
-26.5
 20
55.25
 30
0.0
 11
-16.5
 21
55.25
 31
0.0
  0
LINE
  5
157
  8
DATA
  6
CONTINUOUS
 62
     7
 10
-16.5
 20
55.25
 30
0.0
 11
-16.5
 21
43.25
 31
0.0
  0
LINE
  5
158
  8
DATA
  6
CONTINUOUS
 62
     7
 10
-16.5
 20
43.25
 30
0.0
 11
-26.5
 21
43.25
 31
0.0
  0
LINE
  5
159
  8
DATA
  6
CONTINUOUS
 62
     7
 10
-26.5
 20
43.25
 30
0.0
 11
-26.5
 21
55.25
 31
0.0
  0
LINE
  5
15A
  8
DATA
  6
CONTINUOUS
 62
     7
 10
-17.5
 20
44.75
 30
0.0
 11
-17.5
 21
53.75
 31
0.0
  0
LINE
  5
15B
  8
DATA
  6
CONTINUOUS
 62
     7
 10
-17.5
 20
53.75
 30
0.0
 11
-23.5
 21
53.75
 31
0.0
  0
LINE
  5
15C
  8
DATA
  6
CONTINUOUS
 62
     7
 10
-17.5
 20
44.75
 30
0.0
 11
-23.5
 21
44.75
 31
0.0
  0
LINE
  5
15D
  8
DATA
  6
CONTINUOUS
 62
     7
 10
-25.5
 20
46.749999999999993
 30
0.0
 11
-25.5
 21
51.75
 31
0.0
  0
LINE
  5
15E
  8
DATA
  6
CONTINUOUS
 62
     7
 10
-25.5
 20
46.749999999999993
 30
0.0
 11
-23.5
 21
44.75
 31
0.0
  0
LINE
  5
15F
  8
DATA
  6
CONTINUOUS
 62
     7
 10
-25.5
 20
51.75
 30
0.0
 11
-23.5
 21
53.75
 31
0.0
  0
LINE
  5
160
  8
DATA
  6
CONTINUOUS
 62
     7
 10
-20.0
 20
46.749999999999993
 30
0.0
 11
-20.0
 21
51.75
 31
0.0
  0
LINE
  5
161
  8
DATA
  6
CONTINUOUS
 62
     7
 10
-20.0
 20
46.749999999999993
 30
0.0
 11
-23.0
 21
46.749999999999993
 31
0.0
  0
LINE
  5
162
  8
DATA
  6
CONTINUOUS
 62
     7
 10
-23.0
 20
46.749999999999993
 30
0.0
 11
-23.0
 21
51.75
 31
0.0
  0
LINE
  5
163
  8
DATA
  6
CONTINUOUS
 62
     7
 10
-23.0
 20
51.75
 30
0.0
 11
-20.0
 21
51.75
 31
0.0
  0
POLYLINE
  5
164
  8
DATA
  6
CONTINUOUS
 62
     7
 66
     1
 10
0.0
 20
0.0
 30
0.0
 70
     1
  0
VERTEX
  5
24B
  8
DATA
  6
CONTINUOUS
 62
     7
 10
-29.500000000000011
 20
40.25
 30
0.0
  0
VERTEX
  5
24C
  8
DATA
  6
CONTINUOUS
 62
     7
 10
-15.5
 20
40.25
 30
0.0
  0
VERTEX
  5
24D
  8
DATA
  6
CONTINUOUS
 62
     7
 10
-15.5
 20
24.75
 30
0.0
  0
VERTEX
  5
24E
  8
DATA
  6
CONTINUOUS
 62
     7
 10
-29.500000000000011
 20
24.75
 30
0.0
  0
SEQEND
  5
24F
  8
DATA
  6
CONTINUOUS
 62
     7
  0
LINE
  5
16B
  8
DATA
  6
CONTINUOUS
 62
     7
 10
-27.5
 20
29.25
 30
0.0
 11
-26.5
 21
29.25
 31
0.0
  0
LINE
  5
16C
  8
DATA
  6
CONTINUOUS
 62
     7
 10
-26.5
 20
29.25
 30
0.0
 11
-26.5
 21
26.25
 31
0.0
  0
LINE
  5
16D
  8
DATA
  6
CONTINUOUS
 62
     7
 10
-26.5
 20
26.25
 30
0.0
 11
-19.0
 21
26.25
 31
0.0
  0
LINE
  5
16E
  8
DATA
  6
CONTINUOUS
 62
     7
 10
-27.5
 20
35.75
 30
0.0
 11
-26.5
 21
35.75
 31
0.0
  0
LINE
  5
16F
  8
DATA
  6
CONTINUOUS
 62
     7
 10
-26.5
 20
35.75
 30
0.0
 11
-26.5
 21
38.75
 31
0.0
  0
LINE
  5
170
  8
DATA
  6
CONTINUOUS
 62
     7
 10
-26.5
 20
38.75
 30
0.0
 11
-19.0
 21
38.75
 31
0.0
  0
LINE
  5
171
  8
DATA
  6
CONTINUOUS
 62
     7
 10
-19.0
 20
26.25
 30
0.0
 11
-19.0
 21
38.75
 31
0.0
  0
LINE
  5
172
  8
DATA
  6
CONTINUOUS
 62
     7
 10
-27.5
 20
35.75
 30
0.0
 11
-27.5
 21
34.75
 31
0.0
  0
LINE
  5
173
  8
DATA
  6
CONTINUOUS
 62
     7
 10
-27.5
 20
29.25
 30
0.0
 11
-27.5
 21
30.25
 31
0.0
  0
LINE
  5
174
  8
DATA
  6
CONTINUOUS
 62
     7
 10
-27.5
 20
30.25
 30
0.0
 11
-29.500000000000011
 21
30.25
 31
0.0
  0
LINE
  5
175
  8
DATA
  6
CONTINUOUS
 62
     7
 10
-27.5
 20
34.75
 30
0.0
 11
-29.500000000000011
 21
34.75
 31
0.0
  0
LINE
  5
176
  8
DATA
  6
CONTINUOUS
 62
     7
 10
-17.5
 20
40.25
 30
0.0
 11
-17.5
 21
24.75
 31
0.0
  0
LINE
  5
177
  8
DATA
  6
CONTINUOUS
 62
     7
 10
-15.5
 20
84.0
 30
0.0
 11
-17.5
 21
84.0
 31
0.0
  0
LINE
  5
178
  8
DATA
  6
CONTINUOUS
 62
     7
 10
-17.5
 20
78.0
 30
0.0
 11
-15.5
 21
78.0
 31
0.0
  0
ARC
  5
179
  8
DATA
  6
CONTINUOUS
 62
     7
 10
-8.75
 20
81.0
 30
0.0
 40
9.25
 50
161.07535558394881
 51
198.92464441605119
  0
LINE
  5
17A
  8
DATA
  6
CONTINUOUS
 62
     7
 10
-15.5
 20
16.0
 30
0.0
 11
-17.5
 21
16.0
 31
0.0
  0
LINE
  5
17B
  8
DATA
  6
CONTINUOUS
 62
     7
 10
-17.5
 20
22.0
 30
0.0
 11
-15.5
 21
22.0
 31
0.0
  0
ARC
  5
17C
  8
DATA
  6
CONTINUOUS
 62
     7
 10
-8.75
 20
19.0
 30
0.0
 40
9.25
 50
161.07535558394881
 51
198.92464441605119
  0
LINE
  5
17D
  8
DATA
  6
CONTINUOUS
 62
     7
 10
-0.7999999999999546
 20
86.25
 30
0.0
 11
-0.7999999999999546
 21
94.25
 31
0.0
  0
LINE
  5
17E
  8
DATA
  6
CONTINUOUS
 62
     7
 10
-0.7999999999999546
 20
94.25
 30
0.0
 11
0.0
 21
94.25
 31
0.0
  0
LINE
  5
17F
  8
DATA
  6
CONTINUOUS
 62
     7
 10
-0.7999999999999546
 20
94.25
 30
0.0
 11
-2.7999999999999541
 21
94.25
 31
0.0
  0
LINE
  5
180
  8
DATA
  6
CONTINUOUS
 62
     7
 10
-2.7999999999999541
 20
88.250000000000014
 30
0.0
 11
-0.7999999999999546
 21
88.250000000000014
 31
0.0
  0
ARC
  5
181
  8
DATA
  6
CONTINUOUS
 62
     7
 10
5.9500000000000446
 20
91.25
 30
0.0
 40
9.25
 50
161.07535558394881
 51
198.92464441605119
  0
LINE
  5
182
  8
DATA
  6
CONTINUOUS
 62
     7
 10
-0.7999999999999546
 20
13.75
 30
0.0
 11
-0.7999999999999546
 21
5.75
 31
0.0
  0
LINE
  5
183
  8
DATA
  6
CONTINUOUS
 62
     7
 10
-0.7999999999999546
 20
5.75
 30
0.0
 11
0.0
 21
5.75
 31
0.0
  0
LINE
  5
184
  8
DATA
  6
CONTINUOUS
 62
     7
 10
-0.7999999999999546
 20
5.75
 30
0.0
 11
-2.7999999999999541
 21
5.75
 31
0.0
  0
LINE
  5
185
  8
DATA
  6
CONTINUOUS
 62
     7
 10
-2.7999999999999541
 20
11.75
 30
0.0
 11
-0.7999999999999546
 21
11.75
 31
0.0
  0
ARC
  5
186
  8
DATA
  6
CONTINUOUS
 62
     7
 10
5.9500000000000446
 20
8.75
 30
0.0
 40
9.25
 50
161.07535558394881
 51
198.92464441605119
  0
LINE
  5
187
  8
DATA
  6
CONTINUOUS
 62
     7
 10
7.5
 20
60.0
 30
0.0
 11
7.5
 21
40.0
 31
0.0
  0
LINE
  5
188
  8
DATA
  6
CONTINUOUS
 62
     7
 10
25.0
 20
59.0
 30
0.0
 11
25.0
 21
41.0
 31
0.0
  0
LINE
  5
189
  8
DATA
  6
CONTINUOUS
 62
     7
 10
25.0
 20
51.25
 30
0.0
 11
13.9949950489281
 21
51.25
 31
0.0
  0
LINE
  5
18A
  8
DATA
  6
CONTINUOUS
 62
     7
 10
25.0
 20
48.75
 30
0.0
 11
13.9949950489281
 21
48.75
 31
0.0
  0
LINE
  5
18B
  8
DATA
  6
CONTINUOUS
 62
     7
 10
25.0
 20
54.130133110767709
 30
0.0
 11
13.92313034000421
 21
54.516945922854561
 31
0.0
  0
LINE
  5
18C
  8
DATA
  6
CONTINUOUS
 62
     7
 10
25.0
 20
56.295196620228822
 30
0.0
 11
13.830421067385091
 21
56.685246911454527
 31
0.0
  0
LINE
  5
18D
  8
DATA
  6
CONTINUOUS
 62
     7
 10
25.0
 20
58.403600389872182
 30
0.0
 11
13.691979237936611
 21
58.996228646098452
 31
0.0
  0
LINE
  5
18E
  8
DATA
  6
CONTINUOUS
 62
     7
 10
25.0
 20
45.869866889232291
 30
0.0
 11
13.92313034000421
 21
45.483054077145432
 31
0.0
  0
LINE
  5
18F
  8
DATA
  6
CONTINUOUS
 62
     7
 10
25.0
 20
43.704803379771178
 30
0.0
 11
13.83042106738514
 21
43.314753088545459
 31
0.0
  0
LINE
  5
190
  8
DATA
  6
CONTINUOUS
 62
     7
 10
25.0
 20
41.596399610127811
 30
0.0
 11
13.691979237936611
 21
41.003771353901527
 31
0.0
  0
LINE
  5
191
  8
DATA
  6
CONTINUOUS
 62
     7
 10
235.0
 20
175.0
 30
0.0
 11
64.999999999999986
 21
175.0
 31
0.0
  0
LINE
  5
192
  8
DATA
  6
CONTINUOUS
 62
     7
 10
229.0
 20
169.0
 30
0.0
 11
70.999999999999986
 21
169.0
 31
0.0
  0
LINE
  5
193
  8
DATA
  6
CONTINUOUS
 62
     7
 10
235.0
 20
174.0
 30
0.0
 11
64.999999999999986
 21
174.0
 31
0.0
  0
LINE
  5
194
  8
DATA
  6
CONTINUOUS
 62
     7
 10
229.0
 20
169.0
 30
0.0
 11
235.0
 21
174.0
 31
0.0
  0
LINE
  5
195
  8
DATA
  6
CONTINUOUS
 62
     7
 10
64.999999999999986
 20
174.0
 30
0.0
 11
70.999999999999986
 21
169.0
 31
0.0
  0
LINE
  5
196
  8
DATA
  6
CONTINUOUS
 62
     7
 10
219.0
 20
206.0
 30
0.0
 11
106.0
 21
206.0
 31
0.0
  0
LINE
  5
197
  8
DATA
  6
CONTINUOUS
 62
     7
 10
106.0
 20
206.0
 30
0.0
 11
106.0
 21
190.0
 31
0.0
  0
LINE
  5
198
  8
DATA
  6
CONTINUOUS
 62
     7
 10
64.999999999999986
 20
175.0
 30
0.0
 11
64.999999999999986
 21
174.0
 31
0.0
  0
LINE
  5
199
  8
DATA
  6
CONTINUOUS
 62
     7
 10
235.0
 20
175.0
 30
0.0
 11
235.0
 21
174.0
 31
0.0
  0
LINE
  5
19A
  8
DATA
  6
CONTINUOUS
 62
     7
 10
106.0
 20
190.0
 30
0.0
 11
80.999999999999986
 21
190.0
 31
0.0
  0
LINE
  5
19B
  8
DATA
  6
CONTINUOUS
 62
     7
 10
106.0
 20
190.5
 30
0.0
 11
81.999999999999986
 21
190.5
 31
0.0
  0
LINE
  5
19C
  8
DATA
  6
CONTINUOUS
 62
     7
 10
88.499999999999986
 20
190.5
 30
0.0
 11
88.499999999999986
 21
192.5
 31
0.0
  0
LINE
  5
19D
  8
DATA
  6
CONTINUOUS
 62
     7
 10
94.499999999999986
 20
192.5
 30
0.0
 11
94.499999999999986
 21
190.5
 31
0.0
  0
ARC
  5
19E
  8
DATA
  6
CONTINUOUS
 62
     7
 10
91.499999999999986
 20
183.75
 30
0.0
 40
9.2499999999999876
 50
71.075355583948763
 51
108.92464441605119
  0
LINE
  5
19F
  8
DATA
  6
CONTINUOUS
 62
     7
 10
200.0
 20
175.80000000000001
 30
0.0
 11
100.0
 21
175.80000000000001
 31
0.0
  0
LINE
  5
1A0
  8
DATA
  6
CONTINUOUS
 62
     7
 10
112.0
 20
175.80000000000001
 30
0.0
 11
112.0
 21
177.80000000000001
 31
0.0
  0
LINE
  5
1A1
  8
DATA
  6
CONTINUOUS
 62
     7
 10
118.0
 20
177.80000000000001
 30
0.0
 11
118.0
 21
175.80000000000001
 31
0.0
  0
ARC
  5
1A2
  8
DATA
  6
CONTINUOUS
 62
     7
 10
115.0
 20
169.05000000000001
 30
0.0
 40
9.2499999999999876
 50
71.075355583948763
 51
108.92464441605119
  0
LINE
  5
1A3
  8
DATA
  6
CONTINUOUS
 62
     7
 10
211.0
 20
148.5
 30
0.0
 11
211.86162637452369
 21
164.8709011159487
 31
0.0
  0
LINE
  5
1A4
  8
DATA
  6
CONTINUOUS
 62
     7
 10
193.0
 20
148.5
 30
0.0
 11
192.29563179905901
 21
161.88299581787999
 31
0.0
  0
LINE
  5
1A5
  8
DATA
  6
CONTINUOUS
 62
     7
 10
211.0
 20
148.5
 30
0.0
 11
193.0
 21
148.5
 31
0.0
  0
LINE
  5
1A6
  8
DATA
  6
CONTINUOUS
 62
     7
 10
211.0
 20
149.5
 30
0.0
 11
193.0
 21
149.5
 31
0.0
  0
LINE
  5
1A7
  8
DATA
  6
CONTINUOUS
 62
     7
 10
203.25
 20
149.5
 30
0.0
 11
203.25
 21
163.55582745740369
 31
0.0
  0
LINE
  5
1A8
  8
DATA
  6
CONTINUOUS
 62
     7
 10
200.75
 20
149.5
 30
0.0
 11
200.75
 21
163.1740547232674
 31
0.0
  0
LINE
  5
1A9
  8
DATA
  6
CONTINUOUS
 62
     7
 10
206.1301331107677
 20
149.5
 30
0.0
 11
206.63904625296789
 21
164.07336563904769
 31
0.0
  0
LINE
  5
1AA
  8
DATA
  6
CONTINUOUS
 62
     7
 10
208.29519662022881
 20
149.5
 30
0.0
 11
208.81571733780791
 21
164.40576310759769
 31
0.0
  0
LINE
  5
1AB
  8
DATA
  6
CONTINUOUS
 62
     7
 10
210.4036003898722
 20
149.5
 30
0.0
 11
211.20389123357921
 21
164.77045897871039
 31
0.0
  0
LINE
  5
1AC
  8
DATA
  6
CONTINUOUS
 62
     7
 10
197.8698668892323
 20
149.5
 30
0.0
 11
197.41016875794131
 21
162.66403212133349
 31
0.0
  0
LINE
  5
1AD
  8
DATA
  6
CONTINUOUS
 62
     7
 10
195.70480337977111
 20
149.5
 30
0.0
 11
195.2565896806702
 21
162.3351610123301
 31
0.0
  0
LINE
  5
1AE
  8
DATA
  6
CONTINUOUS
 62
     7
 10
193.5963996101278
 20
149.5
 30
0.0
 11
192.94225924556579
 21
161.98174170916809
 31
0.0
  0
LINE
  5
1AF
  8
DATA
  6
CONTINUOUS
 62
     7
 10
72.499999999999986
 20
168.0
 30
0.0
 11
72.499999999999986
 21
169.0
 31
0.0
  0
LINE
  5
1B0
  8
DATA
  6
CONTINUOUS
 62
     7
 10
227.5
 20
168.0
 30
0.0
 11
227.5
 21
169.0
 31
0.0
  0
LINE
  5
1B1
  8
DATA
  6
CONTINUOUS
 62
     7
 10
107.4549258628756
 20
165.5
 30
0.0
 11
192.54507413712469
 21
165.5
 31
0.0
  0
ARC
  5
1B2
  8
DATA
  6
CONTINUOUS
 62
     7
 10
150.0
 20
667.02083333333326
 30
0.0
 40
503.52083333333343
 50
261.52369907830052
 51
264.61713190979663
  0
ARC
  5
1B3
  8
DATA
  6
CONTINUOUS
 62
     7
 10
150.0
 20
667.02083333333326
 30
0.0
 40
503.52083333333348
 50
275.38286809020337
 51
278.47630092170061
  0
ARC
  5
1B4
  8
DATA
  6
CONTINUOUS
 62
     7
 10
107.4549258628756
 20
215.49999999999761
 30
0.0
 40
49.999999999997627
 50
264.61713190979629
 51
270.0
  0
ARC
  5
1B5
  8
DATA
  6
CONTINUOUS
 62
     7
 10
192.54507413712469
 20
215.49999999999841
 30
0.0
 40
49.999999999998408
 50
270.0
 51
275.3828680902036
  0
ARC
  5
1B6
  8
DATA
  6
CONTINUOUS
 62
     7
 10
150.0
 20
664.52083333333326
 30
0.0
 40
503.52083333333343
 50
265.5006607986669
 51
273.41573148719237
  0
LINE
  5
1B7
  8
DATA
  6
CONTINUOUS
 62
     7
 10
80.999999999999986
 20
190.0
 30
0.0
 11
80.999999999999986
 21
175.0
 31
0.0
  0
LINE
  5
1B8
  8
DATA
  6
CONTINUOUS
 62
     7
 10
219.0
 20
206.0
 30
0.0
 11
219.0
 21
175.0
 31
0.0
  0
LINE
  5
1B9
  8
DATA
  6
CONTINUOUS
 62
     7
 10
81.999999999999986
 20
190.5
 30
0.0
 11
81.999999999999986
 21
190.0
 31
0.0
  0
LINE
  5
1BA
  8
DATA
  6
CONTINUOUS
 62
     7
 10
100.0
 20
175.80000000000001
 30
0.0
 11
100.0
 21
175.0
 31
0.0
  0
LINE
  5
1BB
  8
DATA
  6
CONTINUOUS
 62
     7
 10
200.0
 20
175.80000000000001
 30
0.0
 11
200.0
 21
175.0
 31
0.0
  0
LINE
  5
1BC
  8
DATA
  6
CONTINUOUS
 62
     7
 10
105.0
 20
199.5
 30
0.0
 11
106.0
 21
199.5
 31
0.0
  0
LINE
  5
1BD
  8
DATA
  6
CONTINUOUS
 62
     7
 10
98.999999999999986
 20
191.5
 30
0.0
 11
106.0
 21
191.5
 31
0.0
  0
LINE
  5
1BE
  8
DATA
  6
CONTINUOUS
 62
     7
 10
100.5
 20
194.5
 30
0.0
 11
106.0
 21
194.5
 31
0.0
  0
LINE
  5
1BF
  8
DATA
  6
CONTINUOUS
 62
     7
 10
100.5
 20
195.5
 30
0.0
 11
106.0
 21
195.5
 31
0.0
  0
LINE
  5
1C0
  8
DATA
  6
CONTINUOUS
 62
     7
 10
100.0
 20
195.0
 30
0.0
 11
100.5
 21
195.5
 31
0.0
  0
LINE
  5
1C1
  8
DATA
  6
CONTINUOUS
 62
     7
 10
100.0
 20
195.0
 30
0.0
 11
100.5
 21
194.5
 31
0.0
  0
LINE
  5
1C2
  8
DATA
  6
CONTINUOUS
 62
     7
 10
102.0
 20
199.0
 30
0.0
 11
105.0
 21
199.0
 31
0.0
  0
LINE
  5
1C3
  8
DATA
  6
CONTINUOUS
 62
     7
 10
98.999999999999986
 20
198.0
 30
0.0
 11
106.0
 21
198.0
 31
0.0
  0
LINE
  5
1C4
  8
DATA
  6
CONTINUOUS
 62
     7
 10
98.999999999999986
 20
199.0
 30
0.0
 11
102.0
 21
199.5
 31
0.0
  0
LINE
  5
1C5
  8
DATA
  6
CONTINUOUS
 62
     7
 10
102.0
 20
199.5
 30
0.0
 11
102.0
 21
199.0
 31
0.0
  0
LINE
  5
1C6
  8
DATA
  6
CONTINUOUS
 62
     7
 10
105.0
 20
199.5
 30
0.0
 11
105.0
 21
199.0
 31
0.0
  0
LINE
  5
1C7
  8
DATA
  6
CONTINUOUS
 62
     7
 10
98.999999999999986
 20
199.0
 30
0.0
 11
98.999999999999986
 21
198.0
 31
0.0
  0
LINE
  5
1C8
  8
DATA
  6
CONTINUOUS
 62
     7
 10
98.999999999999986
 20
193.0
 30
0.0
 11
106.0
 21
193.0
 31
0.0
  0
LINE
  5
1C9
  8
DATA
  6
CONTINUOUS
 62
     7
 10
98.999999999999986
 20
193.0
 30
0.0
 11
98.999999999999986
 21
191.5
 31
0.0
  0
LINE
  5
1CA
  8
DATA
  6
CONTINUOUS
 62
     7
 10
104.0
 20
201.5
 30
0.0
 11
106.0
 21
201.5
 31
0.0
  0
LINE
  5
1CB
  8
DATA
  6
CONTINUOUS
 62
     7
 10
104.0
 20
201.5
 30
0.0
 11
104.0
 21
199.0
 31
0.0
  0
LINE
  5
1CC
  8
DATA
  6
CONTINUOUS
 62
     7
 10
104.0
 20
198.0
 30
0.0
 11
104.0
 21
195.5
 31
0.0
  0
LINE
  5
1CD
  8
DATA
  6
CONTINUOUS
 62
     7
 10
104.0
 20
194.5
 30
0.0
 11
104.0
 21
193.0
 31
0.0
  0
LINE
  5
1CE
  8
DATA
  6
CONTINUOUS
 62
     7
 10
104.0
 20
204.5
 30
0.0
 11
106.0
 21
204.5
 31
0.0
  0
LINE
  5
1CF
  8
DATA
  6
CONTINUOUS
 62
     7
 10
104.0
 20
204.5
 30
0.0
 11
104.0
 21
201.5
 31
0.0
  0
ARC
  5
1D0
  8
DATA
  6
CONTINUOUS
 62
     7
 10
149.9999999999998
 20
497.18055555555429
 30
0.0
 40
338.18055555555441
 50
256.75193473096499
 51
262.78823062710723
  0
ARC
  5
1D1
  8
DATA
  6
CONTINUOUS
 62
     7
 10
149.9999999999998
 20
497.18055555555429
 30
0.0
 40
338.18055555555441
 50
275.59989117602288
 51
276.11082953853861
  0
ARC
  5
1D2
  8
DATA
  6
CONTINUOUS
 62
     7
 10
149.9999999999998
 20
497.18055555555429
 30
0.0
 40
338.18055555555441
 50
281.2541884427178
 51
283.24806526903501
  0
LINE
  5
1D3
  8
DATA
  6
CONTINUOUS
 62
     7
 10
99.824160316106884
 20
161.74300792090301
 30
0.0
 11
99.824160316106884
 21
162.74300792090301
 31
0.0
  0
LINE
  5
1D4
  8
DATA
  6
CONTINUOUS
 62
     7
 10
83.897688586717408
 20
164.52324358778719
 30
0.0
 11
83.897688586717408
 21
165.52324358778719
 31
0.0
  0
LINE
  5
1D5
  8
DATA
  6
CONTINUOUS
 62
     7
 10
99.824160316106884
 20
161.74300792090301
 30
0.0
 11
83.876712818458444
 21
164.39721342053809
 31
0.0
  0
LINE
  5
1D6
  8
DATA
  6
CONTINUOUS
 62
     7
 10
107.5458189826287
 20
161.67536830801311
 30
0.0
 11
110.5
 21
162.551731096259
 31
0.0
  0
LINE
  5
1D7
  8
DATA
  6
CONTINUOUS
 62
     7
 10
182.99999999999989
 20
160.61393784687041
 30
0.0
 11
180.0
 21
161.8945013523134
 31
0.0
  0
LINE
  5
1D8
  8
DATA
  6
CONTINUOUS
 62
     7
 10
186.0
 20
160.921595591863
 30
0.0
 11
216.0
 21
165.50286840149909
 31
0.0
  0
ARC
  5
1D9
  8
DATA
  6
CONTINUOUS
 62
     7
 10
-115.1226654034861
 20
50.0
 30
0.0
 40
131.12361870584019
 50
341.08763276676399
 51
350.34111473148408
  0
ARC
  5
1DA
  8
DATA
  6
CONTINUOUS
 62
     7
 10
-115.1226654034861
 20
50.0
 30
0.0
 40
131.12361870584019
 50
9.6469313246125452
 51
18.91236723323598
  0
ARC
  5
1DB
  8
DATA
  6
CONTINUOUS
 62
     7
 10
-117.1226654034861
 20
50.0
 30
0.0
 40
131.12361870584019
 50
350.77229503682571
 51
9.2039902813306185
  0
LINE
  5
1DC
  8
DATA
  6
CONTINUOUS
 62
     7
 10
14.14216076989873
 20
27.999815980788188
 30
0.0
 11
12.304061608519021
 21
28.973214285714249
 31
0.0
  0
LINE
  5
1DD
  8
DATA
  6
CONTINUOUS
 62
     7
 10
14.14674797983775
 20
71.973214285714221
 30
0.0
 11
12.31275349350704
 21
70.973214285714249
 31
0.0
  0
ARC
  5
1DE
  8
DATA
  6
CONTINUOUS
 62
     7
 10
-116.1226654034861
 20
50.0
 30
0.0
 40
131.1236187058403
 50
338.61617701196582
 51
341.08763276676427
  0
ARC
  5
1DF
  8
DATA
  6
CONTINUOUS
 62
     7
 10
-116.1226654034861
 20
50.0
 30
0.0
 40
131.1236187058403
 50
18.912367233236129
 51
20.923678795667051
  0
LINE
  5
1E0
  8
DATA
  6
CONTINUOUS
 62
     7
 10
8.9222997604196053
 20
92.5
 30
0.0
 11
8.9222997604196053
 21
87.5
 31
0.0
  0
LINE
  5
1E1
  8
DATA
  6
CONTINUOUS
 62
     7
 10
6.9222997604196044
 20
85.5
 30
0.0
 11
6.9999999999999432
 21
85.5
 31
0.0
  0
ARC
  5
1E2
  8
DATA
  6
CONTINUOUS
 62
     7
 10
6.9222997604196044
 20
87.5
 30
0.0
 40
2.0
 50
270.0
 51
0.0
  0
ARC
  5
1E3
  8
DATA
  6
CONTINUOUS
 62
     7
 10
5.9222997604196044
 20
87.5
 30
0.0
 40
2.0
 50
270.0
 51
0.0
  0
LINE
  5
1E4
  8
DATA
  6
CONTINUOUS
 62
     7
 10
6.9222997604196044
 20
14.5
 30
0.0
 11
6.0
 21
14.5
 31
0.0
  0
LINE
  5
1E5
  8
DATA
  6
CONTINUOUS
 62
     7
 10
8.0
 20
7.5
 30
0.0
 11
8.9222997604195484
 21
7.5
 31
0.0
  0
LINE
  5
1E6
  8
DATA
  6
CONTINUOUS
 62
     7
 10
7.9222997604196044
 20
7.4999999999999423
 30
0.0
 11
7.9222997604196044
 21
12.5
 31
0.0
  0
LINE
  5
1E7
  8
DATA
  6
CONTINUOUS
 62
     7
 10
8.9222997604196053
 20
7.5
 30
0.0
 11
8.9222997604196053
 21
12.5
 31
0.0
  0
LINE
  5
1E8
  8
DATA
  6
CONTINUOUS
 62
     7
 10
6.9222997604196044
 20
14.5
 30
0.0
 11
6.9999999999999432
 21
14.5
 31
0.0
  0
ARC
  5
1E9
  8
DATA
  6
CONTINUOUS
 62
     7
 10
6.9222997604196044
 20
12.5
 30
0.0
 40
2.0
 50
0.0
 51
90.0
  0
ARC
  5
1EA
  8
DATA
  6
CONTINUOUS
 62
     7
 10
5.9222997604196044
 20
12.5
 30
0.0
 40
2.0
 50
0.0
 51
90.0
  0
ENDSEC
  0
EOF
