  0
SECTION
  2
HEADER
  9
$ACADVER
  1
AC1009
  9
$INSBASE
 10
0.0
 20
0.0
 30
0.0
  9
$EXTMIN
 10
-170.0191273858149
 20
-265.08444836580992
 30
-0.0015258207003583
  9
$EXTMAX
 10
374.09591619656811
 20
537.12498979279303
 30
0.0000000349246037
  9
$LIMMIN
 10
0.0
 20
0.0
  9
$LIMMAX
 10
0.0
 20
0.0
  9
$ORTHOMODE
 70
     0
  9
$REGENMODE
 70
     1
  9
$FILLMODE
 70
     1
  9
$QTEXTMODE
 70
     0
  9
$MIRRTEXT
 70
     1
  9
$DRAGMODE
 70
     2
  9
$LTSCALE
 40
3.0
  9
$OSMODE
 70
    37
  9
$ATTMODE
 70
     1
  9
$TEXTSIZE
 40
0.0
  9
$TRACEWID
 40
0.05
  9
$TEXTSTYLE
  7
STANDARD
  9
$CLAYER
  8
0
  9
$CELTYPE
  6
CONTINUOUS
  9
$CECOLOR
 62
   256
  9
$DIMSCALE
 40
1.0
  9
$DIMASZ
 40
0.18
  9
$DIMEXO
 40
0.0625
  9
$DIMDLI
 40
0.38
  9
$DIMRND
 40
0.0
  9
$DIMDLE
 40
0.0
  9
$DIMEXE
 40
0.18
  9
$DIMTP
 40
0.0
  9
$DIMTM
 40
0.0
  9
$DIMTXT
 40
0.18
  9
$DIMCEN
 40
0.09
  9
$DIMTSZ
 40
0.0
  9
$DIMTOL
 70
     0
  9
$DIMLIM
 70
     0
  9
$DIMTIH
 70
     1
  9
$DIMTOH
 70
     1
  9
$DIMSE1
 70
     0
  9
$DIMSE2
 70
     0
  9
$DIMTAD
 70
     0
  9
$DIMZIN
 70
     0
  9
$DIMBLK
  1

  9
$DIMASO
 70
     1
  9
$DIMSHO
 70
     1
  9
$DIMPOST
  1

  9
$DIMAPOST
  1

  9
$DIMALT
 70
     0
  9
$DIMALTD
 70
     2
  9
$DIMALTF
 40
25.399999999999999
  9
$DIMLFAC
 40
1.0
  9
$DIMTOFL
 70
     0
  9
$DIMTVP
 40
0.0
  9
$DIMTIX
 70
     0
  9
$DIMSOXD
 70
     0
  9
$DIMSAH
 70
     0
  9
$DIMBLK1
  1

  9
$DIMBLK2
  1

  9
$DIMSTYLE
  2
STANDARD
  9
$DIMCLRD
 70
     0
  9
$DIMCLRE
 70
     0
  9
$DIMCLRT
 70
     0
  9
$DIMTFAC
 40
1.0
  9
$DIMGAP
 40
0.09
  9
$LUNITS
 70
     2
  9
$LUPREC
 70
     4
  9
$SKETCHINC
 40
0.1
  9
$FILLETRAD
 40
0.0
  9
$AUNITS
 70
     0
  9
$AUPREC
 70
     0
  9
$MENU
  1
acad
  9
$ELEVATION
 40
0.0
  9
$PELEVATION
 40
0.0
  9
$THICKNESS
 40
0.0
  9
$LIMCHECK
 70
     0
  9
$BLIPMODE
 70
     0
  9
$CHAMFERA
 40
0.0
  9
$CHAMFERB
 40
0.0
  9
$SKPOLY
 70
     0
  9
$TDCREATE
 40
2451859.8275462962
  9
$TDUPDATE
 40
2451859.8352508098
  9
$TDINDWG
 40
0.0001233796
  9
$TDUSRTIMER
 40
0.0001233796
  9
$USRTIMER
 70
     1
  9
$ANGBASE
 50
0.0
  9
$ANGDIR
 70
     0
  9
$PDMODE
 70
     0
  9
$PDSIZE
 40
0.0
  9
$PLINEWID
 40
0.0
  9
$COORDS
 70
     1
  9
$SPLFRAME
 70
     0
  9
$SPLINETYPE
 70
     6
  9
$SPLINESEGS
 70
     8
  9
$ATTDIA
 70
     0
  9
$ATTREQ
 70
     1
  9
$HANDLING
 70
-16383
  9
$HANDSEED
  5
21F
  9
$SURFTAB1
 70
     6
  9
$SURFTAB2
 70
     6
  9
$SURFTYPE
 70
     6
  9
$SURFU
 70
     6
  9
$SURFV
 70
     6
  9
$UCSNAME
  2

  9
$UCSORG
 10
0.0
 20
0.0
 30
0.0
  9
$UCSXDIR
 10
1.0
 20
0.0
 30
0.0
  9
$UCSYDIR
 10
0.0
 20
1.0
 30
0.0
  9
$PUCSNAME
  2

  9
$PUCSORG
 10
0.0
 20
0.0
 30
0.0
  9
$PUCSXDIR
 10
1.0
 20
0.0
 30
0.0
  9
$PUCSYDIR
 10
0.0
 20
1.0
 30
0.0
  9
$USERI1
 70
     0
  9
$USERI2
 70
     0
  9
$USERI3
 70
     0
  9
$USERI4
 70
     0
  9
$USERI5
 70
     0
  9
$USERR1
 40
0.0
  9
$USERR2
 40
0.0
  9
$USERR3
 40
0.0
  9
$USERR4
 40
0.0
  9
$USERR5
 40
0.0
  9
$WORLDVIEW
 70
     1
  9
$SHADEDGE
 70
     3
  9
$SHADEDIF
 70
    70
  9
$TILEMODE
 70
     1
  9
$MAXACTVP
 70
    16
  9
$PLIMCHECK
 70
     0
  9
$PEXTMIN
 10
1.0000000000000000E+020
 20
1.0000000000000000E+020
 30
1.0000000000000000E+020
  9
$PEXTMAX
 10
-1.0000000000000000E+020
 20
-1.0000000000000000E+020
 30
-1.0000000000000000E+020
  9
$PLIMMIN
 10
0.0
 20
0.0
  9
$PLIMMAX
 10
12.0
 20
9.0
  9
$UNITMODE
 70
     0
  9
$VISRETAIN
 70
     0
  9
$PLINEGEN
 70
     1
  9
$PSLTSCALE
 70
     0
  0
ENDSEC
  0
SECTION
  2
TABLES
  0
TABLE
  2
VPORT
 70
     2
  0
VPORT
  2
*ACTIVE
 70
     0
 10
0.0
 20
0.0
 11
1.0
 21
1.0
 12
102.03839440537659
 22
136.0202707134915
 13
0.0
 23
0.0
 14
1.0
 24
1.0
 15
0.0
 25
0.0
 16
0.0
 26
0.0
 36
1.0
 17
0.0
 27
0.0
 37
0.0
 40
811.18939455590089
 41
1.743925233644859
 42
50.0
 43
0.0
 44
0.0
 50
0.0
 51
0.0
 71
     0
 72
   100
 73
     1
 74
     1
 75
     0
 76
     0
 77
     0
 78
     0
  0
ENDTAB
  0
TABLE
  2
LTYPE
 70
    11
  0
LTYPE
  2
CONTINUOUS
 70
     0
  3
Solid line
 72
    65
 73
     0
 40
0.0
  0
LTYPE
  2
VECTORWORKS_DASH_01
 70
     0
  3
(unavailable)
 72
    65
 73
     2
 40
2.116537475585937
 49
1.058074951171875
 49
-1.058462524414062
  0
LTYPE
  2
VECTORWORKS_DASH_02
 70
     0
  3
(unavailable)
 72
    65
 73
     2
 40
3.5276916503906239
 49
2.469229125976562
 49
-1.058462524414062
  0
LTYPE
  2
VECTORWORKS_DASH_03
 70
     0
  3
(unavailable)
 72
    65
 73
     2
 40
6.3499999999999988
 49
5.2915374755859359
 49
-1.058462524414062
  0
LTYPE
  2
VECTORWORKS_DASH_04
 70
     0
  3
(unavailable)
 72
    65
 73
     2
 40
7.7607666015624988
 49
6.7026916503906238
 49
-1.058074951171875
  0
LTYPE
  2
VECTORWORKS_DASH_05
 70
     0
  3
(unavailable)
 72
    65
 73
     2
 40
1.058074951171875
 49
0.352691650390625
 49
-0.70538330078125
  0
LTYPE
  2
VECTORWORKS_DASH_06
 70
     0
  3
(unavailable)
 72
    65
 73
     4
 40
5.2915374755859359
 49
3.1749999999999989
 49
-1.058074951171875
 49
0.352691650390625
 49
-0.7057708740234375
  0
LTYPE
  2
VECTORWORKS_DASH_07
 70
     0
  3
(unavailable)
 72
    65
 73
     6
 40
9.5249999999999986
 49
3.1749999999999989
 49
-1.058074951171875
 49
3.1749999999999989
 49
-1.058462524414062
 49
0.352691650390625
 49
-0.7057708740234375
  0
LTYPE
  2
VECTORWORKS_DASH_08
 70
     0
  3
(unavailable)
 72
    65
 73
     6
 40
6.3499999999999988
 49
3.1749999999999989
 49
-1.058074951171875
 49
0.352691650390625
 49
-0.7057708740234375
 49
0.352691650390625
 49
-0.7057708740234375
  0
LTYPE
  2
VECTORWORKS_DASH_09
 70
     0
  3
(unavailable)
 72
    65
 73
     4
 40
25.399999999999999
 49
19.04999999999999
 49
-1.411154174804687
 49
3.5276916503906239
 49
-1.411154174804687
  0
LTYPE
  2
VECTORWORKS_DASH_10
 70
     0
  3
(unavailable)
 72
    65
 73
     6
 40
30.162499999999991
 49
19.04999999999999
 49
-1.411154174804687
 49
3.5276916503906239
 49
-1.411154174804687
 49
3.1749999999999989
 49
-1.587499999999999
  0
ENDTAB
  0
TABLE
  2
LAYER
 70
     5
  0
LAYER
  2
0
 70
     0
 62
     7
  6
CONTINUOUS
  0
LAYER
  2
HIBINO-BASE
 70
     0
 62
     7
  6
CONTINUOUS
  0
LAYER
  2
SPEC
 70
     0
 62
     7
  6
CONTINUOUS
  0
LAYER
  2
DIMNSIONS
 70
     0
 62
     7
  6
CONTINUOUS
  0
LAYER
  2
DATA
 70
     0
 62
     7
  6
CONTINUOUS
  0
ENDTAB
  0
TABLE
  2
STYLE
 70
     1
  0
STYLE
  2
STANDARD
 70
     0
 40
0.0
 41
1.0
 50
0.0
 71
     0
 42
0.0
  3
txt
  4
BIGFONT.SHX
  0
ENDTAB
  0
TABLE
  2
VIEW
 70
     0
  0
ENDTAB
  0
TABLE
  2
UCS
 70
     0
  0
ENDTAB
  0
TABLE
  2
APPID
 70
     1
  0
APPID
  2
ACAD
 70
     0
  0
ENDTAB
  0
TABLE
  2
DIMSTYLE
 70
     1
  0
DIMSTYLE
  2
STANDARD
 70
     0
  3

  4

  5

  6

  7

 40
1.0
 41
0.18
 42
0.0625
 43
0.38
 44
0.18
 45
0.0
 46
0.0
 47
0.0
 48
0.0
140
0.18
141
0.09
142
0.0
143
25.399999999999999
144
1.0
145
0.0
146
1.0
147
0.09
 71
     0
 72
     0
 73
     1
 74
     1
 75
     0
 76
     0
 77
     0
 78
     0
170
     0
171
     2
172
     0
173
     0
174
     0
175
     0
176
     0
177
     0
178
     0
  0
ENDTAB
  0
ENDSEC
  0
SECTION
  2
BLOCKS
  0
BLOCK
  8
0
  2
$MODEL_SPACE
 70
     0
 10
0.0
 20
0.0
 30
0.0
  3
$MODEL_SPACE
  1

  0
ENDBLK
  5
216
  8
0
  0
BLOCK
 67
     1
  8
0
  2
$PAPER_SPACE
 70
     0
 10
0.0
 20
0.0
 30
0.0
  3
$PAPER_SPACE
  1

  0
ENDBLK
  5
214
 67
     1
  8
0
  0
BLOCK
  8
DIMNSIONS
  2
*G0
 70
     1
 10
0.0
 20
0.0
 30
0.0
  3
*G0
  1

  0
TEXT
  5
36
  8
DIMNSIONS
 62
     7
 10
-127.0730436707328
 20
-110.5546296085177
 30
0.0
 40
7.6200000000000001
  1
13
 50
25.000457755477601
 11
-130.29345000000001
 21
-103.6485899999999
 31
0.0
 73
     3
  0
ENDBLK
  5
37
  8
DIMNSIONS
  0
BLOCK
  8
DIMNSIONS
  2
*G1
 70
     1
 10
0.0
 20
0.0
 30
0.0
  3
*G1
  1

  0
TEXT
  5
39
  8
DIMNSIONS
 62
     7
 10
-183.8342958845395
 20
-89.601395759655816
 30
0.0
 40
7.6200000000000001
  1
37
 50
295.00070192418087
 11
-176.92826999999991
 21
-86.380960000000002
 31
0.0
 73
     3
  0
ENDBLK
  5
3A
  8
DIMNSIONS
  0
BLOCK
  8
DIMNSIONS
  2
*G2
 70
     1
 10
0.0
 20
0.0
 30
0.0
  3
*G2
  1

  0
TEXT
  5
3C
  8
DIMNSIONS
 62
     7
 10
-14.4664
 20
-160.095
 30
0.0
 40
7.6200000000000001
  1
53
 11
-14.4664
 21
-152.47499999999999
 31
0.0
 73
     3
  0
ENDBLK
  5
3D
  8
DIMNSIONS
  0
BLOCK
  8
DIMNSIONS
  2
*G3
 70
     1
 10
0.0
 20
0.0
 30
0.0
  3
*G3
  1

  0
TEXT
  5
3F
  8
DIMNSIONS
 62
     7
 10
-4.7625000000000011
 20
-185.095
 30
0.0
 40
7.6200000000000001
  1
5
 11
-4.7625000000000002
 21
-177.47499999999999
 31
0.0
 73
     3
  0
ENDBLK
  5
40
  8
DIMNSIONS
  0
BLOCK
  8
DIMNSIONS
  2
*G4
 70
     1
 10
0.0
 20
0.0
 30
0.0
  3
*G4
  1

  0
TEXT
  5
42
  8
DIMNSIONS
 62
     7
 10
50.0
 20
-185.095
 30
0.0
 40
7.6200000000000001
  1
23
 11
50.0
 21
-177.47499999999999
 31
0.0
 73
     3
  0
ENDBLK
  5
43
  8
DIMNSIONS
  0
BLOCK
  8
DIMNSIONS
  2
*G5
 70
     1
 10
0.0
 20
0.0
 30
0.0
  3
*G5
  1

  0
TEXT
  5
45
  8
DIMNSIONS
 62
     7
 10
70.094999999999999
 20
-92.274989999999988
 30
0.0
 40
7.6200000000000001
  1
68.5
 50
90.0
 11
62.475000000000001
 21
-92.274989999999988
 31
0.0
 73
     3
  0
ENDBLK
  5
46
  8
DIMNSIONS
  0
BLOCK
  8
DIMNSIONS
  2
*G6
 70
     1
 10
0.0
 20
0.0
 30
0.0
  3
*G6
  1

  0
TEXT
  5
48
  8
DIMNSIONS
 62
     7
 10
129.7375099999999
 20
-185.095
 30
0.0
 40
7.6200000000000001
  1
70
 11
129.7375099999999
 21
-177.47499999999999
 31
0.0
 73
     3
  0
ENDBLK
  5
49
  8
DIMNSIONS
  0
BLOCK
  8
DIMNSIONS
  2
*G7
 70
     1
 10
0.0
 20
0.0
 30
0.0
  3
*G7
  1

  0
TEXT
  5
4B
  8
DIMNSIONS
 62
     7
 10
219.59499999999991
 20
-94.656260000000003
 30
0.0
 40
7.6200000000000001
  1
114.5
 50
90.0
 11
211.97499999999991
 21
-94.656260000000003
 31
0.0
 73
     3
  0
ENDBLK
  5
4C
  8
DIMNSIONS
  0
BLOCK
  8
DIMNSIONS
  2
*G8
 70
     1
 10
0.0
 20
0.0
 30
0.0
  3
*G8
  1

  0
TEXT
  5
4E
  8
DIMNSIONS
 62
     7
 10
195.09499999999991
 20
-92.275009999999995
 30
0.0
 40
7.6200000000000001
  1
83.1
 50
90.0
 11
187.47499999999991
 21
-92.275009999999995
 31
0.0
 73
     3
  0
ENDBLK
  5
4F
  8
DIMNSIONS
  0
BLOCK
  8
DIMNSIONS
  2
*G9
 70
     1
 10
0.0
 20
0.0
 30
0.0
  3
*G9
  1

  0
TEXT
  5
51
  8
DIMNSIONS
 62
     7
 10
192.99999
 20
7.1424999999999992
 30
0.0
 40
7.6200000000000001
  1
φ5.2
 11
192.99999
 21
14.762499999999999
 31
0.0
 73
     3
  0
ENDBLK
  5
52
  8
DIMNSIONS
  0
ENDSEC
  0
SECTION
  2
ENTITIES
  0
LINE
  5
53
  8
HIBINO-BASE
  6
CONTINUOUS
 62
     7
 10
-170.0
 20
537.06364000000008
 30
0.0
 11
370.0
 21
537.06364000000008
 31
0.0
  0
LINE
  5
54
  8
HIBINO-BASE
  6
CONTINUOUS
 62
     7
 10
370.0
 20
-242.93635999999989
 30
0.0
 11
-170.0
 21
-242.93635999999989
 31
0.0
  0
LINE
  5
55
  8
HIBINO-BASE
  6
CONTINUOUS
 62
     7
 10
-170.0
 20
-242.93635999999989
 30
0.0
 11
-170.0
 21
537.06364000000008
 31
0.0
  0
TEXT
  5
56
  8
HIBINO-BASE
 62
     7
 10
-148.44800000000001
 20
-261.32031000000001
 30
0.0
 40
11.22775
  1
Hibino Corporation
 11
-148.44800000000001
 21
-250.09255999999991
 31
0.0
 73
     3
  0
LINE
  5
57
  8
HIBINO-BASE
  6
CONTINUOUS
 62
     7
 10
370.0
 20
537.06364000000008
 30
0.0
 11
370.0
 21
-242.93635999999989
 31
0.0
  0
LINE
  5
58
  8
HIBINO-BASE
  6
CONTINUOUS
 62
     7
 10
100.0
 20
-175.43635999999989
 30
0.0
 11
370.0
 21
-175.43635999999989
 31
0.0
  0
LINE
  5
59
  8
HIBINO-BASE
  6
CONTINUOUS
 62
     7
 10
100.0
 20
-242.93635999999989
 30
0.0
 11
100.0
 21
-175.43635999999989
 31
0.0
  0
TEXT
  5
5A
  8
HIBINO-BASE
 62
     7
 10
102.7
 20
-183.11533
 30
0.0
 40
5.6138899999999987
  1
NOTE
 11
102.7
 21
-177.50144
 31
0.0
 73
     3
  0
LINE
  5
5B
  8
HIBINO-BASE
  6
CONTINUOUS
 62
     7
 10
205.0
 20
-242.93635999999989
 30
0.0
 11
205.0
 21
-175.43635999999989
 31
0.0
  0
TEXT
  5
5C
  8
HIBINO-BASE
 62
     7
 10
207.6999999999999
 20
-183.11533
 30
0.0
 40
5.6138899999999987
  1
TITLE
 11
207.6999999999999
 21
-177.50144
 31
0.0
 73
     3
  0
TEXT
  5
5D
  8
HIBINO-BASE
 62
     7
 10
250.2051699999999
 20
-261.32031000000001
 30
0.0
 40
11.22775
  1
ヒビノ株式会社
 11
250.2051699999999
 21
-250.09255999999991
 31
0.0
 73
     3
  0
LINE
  5
5E
  8
HIBINO-BASE
  6
CONTINUOUS
 62
     7
 10
100.0
 20
-212.93636000000001
 30
0.0
 11
370.0
 21
-212.93636000000001
 31
0.0
  0
TEXT
  5
5F
  8
HIBINO-BASE
 62
     7
 10
245.1999999999999
 20
-220.44636999999989
 30
0.0
 40
5.6138899999999987
  1
DRAWN
 11
245.1999999999999
 21
-214.83247999999989
 31
0.0
 73
     3
  0
TEXT
  5
60
  8
HIBINO-BASE
 62
     7
 10
170.1999999999999
 20
-220.44636999999989
 30
0.0
 40
5.6138899999999987
  1
DATE
 11
170.1999999999999
 21
-214.83247999999989
 31
0.0
 73
     3
  0
TEXT
  5
61
  8
HIBINO-BASE
 62
     7
 10
103.2999999999999
 20
-220.41372999999999
 30
0.0
 40
5.0800099999999988
  1
図面サイズ
 11
103.2999999999999
 21
-215.33372
 31
0.0
 73
     3
  0
TEXT
  5
62
  8
HIBINO-BASE
 62
     7
 10
140.1999999999999
 20
-220.44636999999989
 30
0.0
 40
5.6138899999999987
  1
SCALE
 11
140.1999999999999
 21
-214.83247999999989
 31
0.0
 73
     3
  0
TEXT
  5
63
  8
HIBINO-BASE
 62
     7
 10
207.6999999999999
 20
-220.44636999999989
 30
0.0
 40
5.6138899999999987
  1
DESIGN
 11
207.6999999999999
 21
-214.83247999999989
 31
0.0
 73
     3
  0
TEXT
  5
64
  8
HIBINO-BASE
 62
     7
 10
320.19999999999987
 20
-220.44636999999989
 30
0.0
 40
5.6138899999999987
  1
DRAWING NO.
 11
320.19999999999987
 21
-214.83247999999989
 31
0.0
 73
     3
  0
TEXT
  5
65
  8
HIBINO-BASE
 62
     7
 10
282.69999999999987
 20
-220.44636999999989
 30
0.0
 40
5.6138899999999987
  1
CHECK
 11
282.69999999999987
 21
-214.83247999999989
 31
0.0
 73
     3
  0
LINE
  5
66
  8
HIBINO-BASE
  6
CONTINUOUS
 62
     7
 10
143.125
 20
-239.18635999999989
 30
0.0
 11
154.375
 21
-227.93635999999989
 31
0.0
  0
TEXT
  5
67
  8
HIBINO-BASE
 62
     7
 10
141.25
 20
-232.5755199999999
 30
0.0
 40
6.7733299999999987
  1
1
 11
141.25
 21
-225.80219
 31
0.0
 73
     3
  0
LINE
  5
68
  8
HIBINO-BASE
  6
CONTINUOUS
 62
     7
 10
137.5
 20
-242.93635999999989
 30
0.0
 11
137.5
 21
-212.93636000000001
 31
0.0
  0
LINE
  5
69
  8
HIBINO-BASE
  6
CONTINUOUS
 62
     7
 10
167.5
 20
-242.93635999999989
 30
0.0
 11
167.5
 21
-212.93636000000001
 31
0.0
  0
LINE
  5
6A
  8
HIBINO-BASE
  6
CONTINUOUS
 62
     7
 10
242.5
 20
-212.93636000000001
 30
0.0
 11
242.5
 21
-242.93635999999989
 31
0.0
  0
LINE
  5
6B
  8
HIBINO-BASE
  6
CONTINUOUS
 62
     7
 10
317.5
 20
-212.93636000000001
 30
0.0
 11
317.5
 21
-242.93635999999989
 31
0.0
  0
LINE
  5
6C
  8
HIBINO-BASE
  6
CONTINUOUS
 62
     7
 10
280.0
 20
-242.93635999999989
 30
0.0
 11
280.0
 21
-212.93636000000001
 31
0.0
  0
TEXT
  5
6D
  8
HIBINO-BASE
 62
     7
 10
111.73267
 20
-234.67899
 30
0.0
 40
10.159990000000001
  1
A4
 11
111.73267
 21
-224.51900000000001
 31
0.0
 73
     3
  0
TEXT
  5
6E
  8
HIBINO-BASE
 62
     7
 10
170.0696199999999
 20
-234.49830999999989
 30
0.0
 40
5.6138899999999987
  1
'94.09.
 11
170.0696199999999
 21
-228.88441999999989
 31
0.0
 73
     3
  0
TEXT
  5
6F
  8
HIBINO-BASE
 62
     7
 10
152.5
 20
-238.20052000000001
 30
0.0
 40
6.7733299999999987
  1
3
 11
152.5
 21
-231.42719
 31
0.0
 73
     3
  0
LINE
  5
70
  8
SPEC
  6
CONTINUOUS
 62
     7
 10
-147.5
 20
507.06364000000002
 30
0.0
 11
100.0
 21
507.06364000000002
 31
0.0
  0
LINE
  5
71
  8
SPEC
  6
CONTINUOUS
 62
     7
 10
-147.5
 20
495.81363999999991
 30
0.0
 11
100.0
 21
495.81363999999991
 31
0.0
  0
LINE
  5
72
  8
SPEC
  6
CONTINUOUS
 62
     7
 10
-147.5
 20
450.81364000000002
 30
0.0
 11
100.0
 21
450.81364000000002
 31
0.0
  0
LINE
  5
73
  8
SPEC
  6
CONTINUOUS
 62
     7
 10
-147.5
 20
462.06364000000002
 30
0.0
 11
100.0
 21
462.06364000000002
 31
0.0
  0
LINE
  5
74
  8
SPEC
  6
CONTINUOUS
 62
     7
 10
-147.5
 20
473.31364000000002
 30
0.0
 11
100.0
 21
473.31364000000002
 31
0.0
  0
LINE
  5
75
  8
SPEC
  6
CONTINUOUS
 62
     7
 10
-147.5
 20
439.56363999999991
 30
0.0
 11
100.0
 21
439.56363999999991
 31
0.0
  0
LINE
  5
76
  8
SPEC
  6
CONTINUOUS
 62
     7
 10
-147.5
 20
417.06364000000002
 30
0.0
 11
100.0
 21
417.06364000000002
 31
0.0
  0
LINE
  5
77
  8
SPEC
  6
CONTINUOUS
 62
     7
 10
-147.5
 20
428.31364000000002
 30
0.0
 11
100.0
 21
428.31364000000002
 31
0.0
  0
LINE
  5
78
  8
SPEC
  6
CONTINUOUS
 62
     7
 10
-147.5
 20
394.56363999999991
 30
0.0
 11
100.0
 21
394.56363999999991
 31
0.0
  0
LINE
  5
79
  8
SPEC
  6
CONTINUOUS
 62
     7
 10
-147.5
 20
484.56364000000002
 30
0.0
 11
100.0
 21
484.56364000000002
 31
0.0
  0
LINE
  5
7A
  8
SPEC
  6
CONTINUOUS
 62
     7
 10
-147.5
 20
372.06363999999991
 30
0.0
 11
100.0
 21
372.06363999999991
 31
0.0
  0
LINE
  5
7B
  8
SPEC
  6
CONTINUOUS
 62
     7
 10
-147.5
 20
507.06364000000002
 30
0.0
 11
-147.5
 21
372.06363999999991
 31
0.0
  0
TEXT
  5
7C
  8
SPEC
 62
     7
 10
-143.75
 20
511.81495000000001
 30
0.0
 40
7.6200000000000001
  1
仕様
 11
-143.75
 21
519.43494999999996
 31
0.0
 73
     3
  0
LINE
  5
7D
  8
SPEC
  6
CONTINUOUS
 62
     7
 10
-50.0
 20
507.06364000000002
 30
0.0
 11
-50.0
 21
372.06363999999991
 31
0.0
  0
LINE
  5
7E
  8
SPEC
  6
CONTINUOUS
 62
     7
 10
100.0
 20
507.06364000000002
 30
0.0
 11
100.0
 21
372.06363999999991
 31
0.0
  0
LINE
  5
7F
  8
SPEC
  6
CONTINUOUS
 62
     7
 10
-147.5
 20
383.31363999999991
 30
0.0
 11
100.0
 21
383.31363999999991
 31
0.0
  0
TEXT
  5
80
  8
SPEC
 62
     7
 10
-47.300000000000011
 20
499.03539999999992
 30
0.0
 40
5.5131699999999988
  1
エレクトレット・コンデンサー
 11
-47.300000000000011
 21
504.54856999999993
 31
0.0
 73
     3
  0
TEXT
  5
81
  8
SPEC
 62
     7
 10
-47.300000000000011
 20
409.03539999999992
 30
0.0
 40
5.5131699999999988
  1
黒(CM-30)
 11
-47.300000000000011
 21
414.54856999999998
 31
0.0
 73
     3
  0
TEXT
  5
82
  8
SPEC
 62
     7
 10
-144.80000000000001
 20
454.03539999999992
 30
0.0
 40
5.5131699999999988
  1
インピーダンス
 11
-144.80000000000001
 21
459.54856999999998
 31
0.0
 73
     3
  0
TEXT
  5
83
  8
SPEC
 62
     7
 10
-144.80000000000001
 20
499.03539999999992
 30
0.0
 40
5.5131699999999988
  1
形式
 11
-144.80000000000001
 21
504.54856999999993
 31
0.0
 73
     3
  0
TEXT
  5
84
  8
SPEC
 62
     7
 10
-144.80000000000001
 20
431.53539999999998
 30
0.0
 40
5.5131699999999988
  1
最大音圧レベル
 11
-144.80000000000001
 21
437.04856999999993
 31
0.0
 73
     3
  0
TEXT
  5
85
  8
SPEC
 62
     7
 10
-144.80000000000001
 20
420.28539999999998
 30
0.0
 40
5.5131699999999988
  1
電源
 11
-144.80000000000001
 21
425.79856999999993
 31
0.0
 73
     3
  0
TEXT
  5
86
  8
SPEC
 62
     7
 10
-144.80000000000001
 20
465.28539999999992
 30
0.0
 40
5.5131699999999988
  1
開回路感度
 11
-144.80000000000001
 21
470.79856999999998
 31
0.0
 73
     3
  0
TEXT
  5
87
  8
SPEC
 62
     7
 10
-144.80000000000001
 20
442.78539999999992
 30
0.0
 40
5.5131699999999988
  1
等価雑音レベル
 11
-144.80000000000001
 21
448.29856999999993
 31
0.0
 73
     3
  0
TEXT
  5
88
  8
SPEC
 62
     7
 10
-144.80000000000001
 20
487.78539999999998
 30
0.0
 40
5.5131699999999988
  1
指向特性
 11
-144.80000000000001
 21
493.29856999999993
 31
0.0
 73
     3
  0
TEXT
  5
89
  8
SPEC
 62
     7
 10
-144.80000000000001
 20
476.53539999999998
 30
0.0
 40
5.5131699999999988
  1
周波数特性
 11
-144.80000000000001
 21
482.04856999999993
 31
0.0
 73
     3
  0
TEXT
  5
8A
  8
SPEC
 62
     7
 10
-144.80000000000001
 20
409.03539999999992
 30
0.0
 40
5.5131699999999988
  1
色
 11
-144.80000000000001
 21
414.54856999999998
 31
0.0
 73
     3
  0
TEXT
  5
8B
  8
SPEC
 62
     7
 10
-47.300000000000011
 20
454.03539999999992
 30
0.0
 40
5.5131699999999988
  1
150Ω
 11
-47.300000000000011
 21
459.54856999999998
 31
0.0
 73
     3
  0
TEXT
  5
8C
  8
SPEC
 62
     7
 10
-47.300000000000011
 20
431.53539999999998
 30
0.0
 40
5.5131699999999988
  1
120dB SPL(3%%%THD)
 11
-47.300000000000011
 21
437.04856999999993
 31
0.0
 73
     3
  0
TEXT
  5
8D
  8
SPEC
 62
     7
 10
-47.300000000000011
 20
420.28539999999998
 30
0.0
 40
5.5131699999999988
  1
ファンタム12V～48V/1.1mA
 11
-47.300000000000011
 21
425.79856999999993
 31
0.0
 73
     3
  0
TEXT
  5
8E
  8
SPEC
 62
     7
 10
-47.300000000000011
 20
465.28539999999992
 30
0.0
 40
5.5131699999999988
  1
-37.5dB re 1V/Pa
 11
-47.300000000000011
 21
470.79856999999998
 31
0.0
 73
     3
  0
TEXT
  5
8F
  8
SPEC
 62
     7
 10
-47.300000000000011
 20
442.78539999999992
 30
0.0
 40
5.5131699999999988
  1
28dB SPL(Aウエイト)
 11
-47.300000000000011
 21
448.29856999999993
 31
0.0
 73
     3
  0
TEXT
  5
90
  8
SPEC
 62
     7
 10
-47.300000000000011
 20
476.53539999999998
 30
0.0
 40
5.5131699999999988
  1
40Hz～20kHz
 11
-47.300000000000011
 21
482.04856999999993
 31
0.0
 73
     3
  0
TEXT
  5
91
  8
SPEC
 62
     7
 10
-47.300000000000011
 20
487.78539999999998
 30
0.0
 40
5.5131699999999988
  1
スーパーカーディオイド
 11
-47.300000000000011
 21
493.29856999999993
 31
0.0
 73
     3
  0
TEXT
  5
92
  8
SPEC
 62
     7
 10
-144.80000000000001
 20
386.53539999999998
 30
0.0
 40
5.5131699999999988
  1
寸法
 11
-144.80000000000001
 21
392.04856999999998
 31
0.0
 73
     3
  0
TEXT
  5
93
  8
SPEC
 62
     7
 10
-144.80000000000001
 20
375.28539999999998
 30
0.0
 40
5.5131699999999988
  1
重量
 11
-144.80000000000001
 21
380.79856999999998
 31
0.0
 73
     3
  0
TEXT
  5
94
  8
SPEC
 62
     7
 10
-47.300000000000011
 20
386.53539999999998
 30
0.0
 40
5.5131699999999988
  1
直径13mm×長37mm(マイク部のみ)
 11
-47.300000000000011
 21
392.04856999999998
 31
0.0
 73
     3
  0
TEXT
  5
95
  8
SPEC
 62
     7
 10
-47.300000000000011
 20
375.28539999999998
 30
0.0
 40
5.5131699999999988
  1
約113g(回路モジュールを除く)
 11
-47.300000000000011
 21
380.79856999999998
 31
0.0
 73
     3
  0
TEXT
  5
96
  8
SPEC
 62
     7
 10
-47.300000000000011
 20
400.03539999999992
 30
0.0
 40
5.5131699999999988
  1
白(CM-30W)
 11
-47.300000000000011
 21
405.54856999999998
 31
0.0
 73
     3
  0
TEXT
  5
97
  8
DIMNSIONS
 62
     7
 10
40.0
 20
-205.55638999999999
 30
0.0
 40
7.6200000000000001
  1
(単位：mm)
 11
40.0
 21
-197.93638999999999
 31
0.0
 73
     3
  0
LINE
  5
98
  8
DIMNSIONS
  6
CONTINUOUS
 62
     7
 10
-51.712430000000012
 20
36.3294
 30
0.0
 11
-40.065949999999987
 21
11.354139999999999
 31
0.0
  0
LINE
  5
99
  8
DIMNSIONS
  6
CONTINUOUS
 62
     7
 10
-39.511659999999999
 20
42.018870000000007
 30
0.0
 11
-27.865189999999998
 21
17.043599999999991
 31
0.0
  0
LINE
  5
9A
  8
DIMNSIONS
  6
CONTINUOUS
 62
     7
 10
-30.400949999999991
 20
22.48142
 30
0.0
 11
-42.601719999999993
 21
16.79196
 31
0.0
  0
LINE
  5
9C
  8
DIMNSIONS
 62
     7
 10
-42.601719999999993
 20
16.79196
 30
0.0
 11
-50.155689999999993
 21
10.45342999999999
 31
0.0
  0
LINE
  5
9D
  8
DIMNSIONS
 62
     7
 10
-42.601719999999993
 20
16.79196
 30
0.0
 11
-52.312909999999981
 21
15.079610000000001
 31
0.0
  0
LINE
  5
9B
  8
DIMNSIONS
  6
CONTINUOUS
 62
     7
 10
-42.601719999999993
 20
16.79196
 30
0.0
 11
-56.196269999999998
 21
10.45253999999999
 31
0.0
  0
LINE
  5
9F
  8
DIMNSIONS
 62
     7
 10
-30.400949999999991
 20
22.48142
 30
0.0
 11
-22.846990000000002
 21
28.819939999999999
 31
0.0
  0
LINE
  5
A0
  8
DIMNSIONS
 62
     7
 10
-30.400949999999991
 20
22.48142
 30
0.0
 11
-20.689769999999989
 21
24.19375999999999
 31
0.0
  0
LINE
  5
9E
  8
DIMNSIONS
  6
CONTINUOUS
 62
     7
 10
-30.400949999999991
 20
22.48142
 30
0.0
 11
-16.3675
 21
29.02550999999999
 31
0.0
  0
INSERT
  5
A1
  8
DIMNSIONS
  2
*G0
 10
100.0
 20
140.0
 30
0.0
  0
LINE
  5
A2
  8
DIMNSIONS
  6
CONTINUOUS
 62
     7
 10
-56.48066
 20
37.63671999999999
 30
0.0
 11
-83.943549999999988
 21
24.83020999999999
 31
0.0
  0
LINE
  5
A3
  8
DIMNSIONS
  6
CONTINUOUS
 62
     7
 10
-72.002999999999986
 20
70.923559999999995
 30
0.0
 11
-99.465920000000025
 21
58.11703
 31
0.0
  0
LINE
  5
A5
  8
DIMNSIONS
 62
     7
 10
-78.505740000000003
 20
27.365970000000001
 30
0.0
 11
-84.844269999999995
 21
34.919929999999987
 31
0.0
  0
LINE
  5
A6
  8
DIMNSIONS
 62
     7
 10
-78.505740000000003
 20
27.365970000000001
 30
0.0
 11
-80.218089999999989
 21
37.077150000000003
 31
0.0
  0
LINE
  5
A7
  8
DIMNSIONS
 62
     7
 10
-94.028099999999995
 20
60.652799999999999
 30
0.0
 11
-87.689580000000007
 21
53.098830000000007
 31
0.0
  0
LINE
  5
A8
  8
DIMNSIONS
 62
     7
 10
-94.028099999999995
 20
60.652799999999999
 30
0.0
 11
-92.315760000000026
 21
50.94160999999999
 31
0.0
  0
LINE
  5
A4
  8
DIMNSIONS
  6
CONTINUOUS
 62
     7
 10
-78.505740000000003
 20
27.365970000000001
 30
0.0
 11
-94.028099999999995
 21
60.652799999999999
 31
0.0
  0
INSERT
  5
A9
  8
DIMNSIONS
  2
*G1
 10
100.0
 20
140.0
 30
0.0
  0
LINE
  5
AA
  8
DIMNSIONS
  6
CONTINUOUS
 62
     7
 10
63.796100000000003
 20
48.000030000000002
 30
0.0
 11
63.796100000000003
 21
-31.0
 31
0.0
  0
LINE
  5
AB
  8
DIMNSIONS
  6
CONTINUOUS
 62
     7
 10
116.79611
 20
-0.7574199999999962
 30
0.0
 11
116.79611
 21
-31.0
 31
0.0
  0
LINE
  5
AD
  8
DIMNSIONS
 62
     7
 10
63.796100000000003
 20
-25.0
 30
0.0
 11
73.321089999999984
 21
-22.447789999999991
 31
0.0
  0
LINE
  5
AE
  8
DIMNSIONS
 62
     7
 10
63.796100000000003
 20
-25.0
 30
0.0
 11
73.321089999999984
 21
-27.552219999999998
 31
0.0
  0
LINE
  5
AF
  8
DIMNSIONS
 62
     7
 10
116.79611
 20
-25.0
 30
0.0
 11
107.27110999999999
 21
-27.552219999999998
 31
0.0
  0
LINE
  5
B0
  8
DIMNSIONS
 62
     7
 10
116.79611
 20
-25.0
 30
0.0
 11
107.27110999999999
 21
-22.447789999999991
 31
0.0
  0
LINE
  5
AC
  8
DIMNSIONS
  6
CONTINUOUS
 62
     7
 10
63.796100000000003
 20
-25.0
 30
0.0
 11
116.79611
 21
-25.0
 31
0.0
  0
INSERT
  5
B1
  8
DIMNSIONS
  2
*G2
 10
100.0
 20
140.0
 30
0.0
  0
LINE
  5
B2
  8
DIMNSIONS
  6
CONTINUOUS
 62
     7
 10
116.79611
 20
-0.7574199999999962
 30
0.0
 11
116.79611
 21
-56.0
 31
0.0
  0
LINE
  5
B3
  8
DIMNSIONS
  6
CONTINUOUS
 62
     7
 10
121.7961099999999
 20
-6.0000300000000086
 30
0.0
 11
121.7961099999999
 21
-56.0
 31
0.0
  0
LINE
  5
B4
  8
DIMNSIONS
  6
CONTINUOUS
 62
     7
 10
121.7961099999999
 20
-50.0
 30
0.0
 11
116.79611
 21
-50.0
 31
0.0
  0
LINE
  5
B6
  8
DIMNSIONS
 62
     7
 10
116.79611
 20
-50.0
 30
0.0
 11
107.27110999999999
 21
-52.552219999999998
 31
0.0
  0
LINE
  5
B7
  8
DIMNSIONS
 62
     7
 10
116.79611
 20
-50.0
 30
0.0
 11
107.27110999999999
 21
-47.447789999999998
 31
0.0
  0
LINE
  5
B5
  8
DIMNSIONS
  6
CONTINUOUS
 62
     7
 10
116.79611
 20
-50.0
 30
0.0
 11
95.237499999999983
 21
-50.0
 31
0.0
  0
LINE
  5
B9
  8
DIMNSIONS
 62
     7
 10
121.7961099999999
 20
-50.0
 30
0.0
 11
131.3211
 21
-47.447789999999998
 31
0.0
  0
LINE
  5
BA
  8
DIMNSIONS
 62
     7
 10
121.7961099999999
 20
-50.0
 30
0.0
 11
131.3211
 21
-52.552219999999998
 31
0.0
  0
LINE
  5
B8
  8
DIMNSIONS
  6
CONTINUOUS
 62
     7
 10
121.7961099999999
 20
-50.0
 30
0.0
 11
136.79611
 21
-50.0
 31
0.0
  0
INSERT
  5
BB
  8
DIMNSIONS
  2
*G3
 10
100.0
 20
140.0
 30
0.0
  0
LINE
  5
BC
  8
DIMNSIONS
  6
CONTINUOUS
 62
     7
 10
121.7961099999999
 20
-6.0000300000000086
 30
0.0
 11
121.7961099999999
 21
-56.0
 31
0.0
  0
LINE
  5
BD
  8
DIMNSIONS
  6
CONTINUOUS
 62
     7
 10
144.79611
 20
17.00001
 30
0.0
 11
144.79611
 21
-56.0
 31
0.0
  0
LINE
  5
BE
  8
DIMNSIONS
  6
CONTINUOUS
 62
     7
 10
144.79611
 20
-50.0
 30
0.0
 11
159.52500000000001
 21
-50.0
 31
0.0
  0
LINE
  5
C0
  8
DIMNSIONS
 62
     7
 10
121.7961099999999
 20
-50.0
 30
0.0
 11
131.3211
 21
-47.447789999999998
 31
0.0
  0
LINE
  5
C1
  8
DIMNSIONS
 62
     7
 10
121.7961099999999
 20
-50.0
 30
0.0
 11
131.3211
 21
-52.552219999999998
 31
0.0
  0
LINE
  5
C2
  8
DIMNSIONS
 62
     7
 10
144.79611
 20
-50.0
 30
0.0
 11
135.27110999999999
 21
-52.552219999999998
 31
0.0
  0
LINE
  5
C3
  8
DIMNSIONS
 62
     7
 10
144.79611
 20
-50.0
 30
0.0
 11
135.27110999999999
 21
-47.447789999999998
 31
0.0
  0
LINE
  5
BF
  8
DIMNSIONS
  6
CONTINUOUS
 62
     7
 10
121.7961099999999
 20
-50.0
 30
0.0
 11
144.79611
 21
-50.0
 31
0.0
  0
INSERT
  5
C4
  8
DIMNSIONS
  2
*G4
 10
100.0
 20
140.0
 30
0.0
  0
LINE
  5
C5
  8
DIMNSIONS
  6
CONTINUOUS
 62
     7
 10
150.79610999999991
 20
23.00001
 30
0.0
 11
181.0
 21
23.00001
 31
0.0
  0
LINE
  5
C6
  8
DIMNSIONS
  6
CONTINUOUS
 62
     7
 10
150.79610999999991
 20
91.500010000000003
 30
0.0
 11
181.0
 21
91.500010000000003
 31
0.0
  0
LINE
  5
C8
  8
DIMNSIONS
 62
     7
 10
175.0
 20
23.00001
 30
0.0
 11
172.44777999999999
 21
32.524999999999999
 31
0.0
  0
LINE
  5
C9
  8
DIMNSIONS
 62
     7
 10
175.0
 20
23.00001
 30
0.0
 11
177.55221
 21
32.524999999999999
 31
0.0
  0
LINE
  5
CA
  8
DIMNSIONS
 62
     7
 10
175.0
 20
91.500010000000003
 30
0.0
 11
177.55221
 21
81.975009999999997
 31
0.0
  0
LINE
  5
CB
  8
DIMNSIONS
 62
     7
 10
175.0
 20
91.500010000000003
 30
0.0
 11
172.44777999999999
 21
81.975009999999997
 31
0.0
  0
LINE
  5
C7
  8
DIMNSIONS
  6
CONTINUOUS
 62
     7
 10
175.0
 20
23.00001
 30
0.0
 11
175.0
 21
91.500010000000003
 31
0.0
  0
INSERT
  5
CC
  8
DIMNSIONS
  2
*G5
 10
100.0
 20
140.0
 30
0.0
  0
LINE
  5
CD
  8
DIMNSIONS
  6
CONTINUOUS
 62
     7
 10
199.5
 20
-0.0000300000000095
 30
0.0
 11
199.5
 21
-56.0
 31
0.0
  0
LINE
  5
CE
  8
DIMNSIONS
  6
CONTINUOUS
 62
     7
 10
269.50001999999989
 20
-0.0000300000000095
 30
0.0
 11
269.50001999999989
 21
-56.0
 31
0.0
  0
LINE
  5
D0
  8
DIMNSIONS
 62
     7
 10
199.5
 20
-50.0
 30
0.0
 11
209.02498999999989
 21
-47.447789999999998
 31
0.0
  0
LINE
  5
D1
  8
DIMNSIONS
 62
     7
 10
199.5
 20
-50.0
 30
0.0
 11
209.02498999999989
 21
-52.552219999999998
 31
0.0
  0
LINE
  5
D2
  8
DIMNSIONS
 62
     7
 10
269.50001999999989
 20
-50.0
 30
0.0
 11
259.97501999999992
 21
-52.552219999999998
 31
0.0
  0
LINE
  5
D3
  8
DIMNSIONS
 62
     7
 10
269.50001999999989
 20
-50.0
 30
0.0
 11
259.97501999999992
 21
-47.447789999999998
 31
0.0
  0
LINE
  5
CF
  8
DIMNSIONS
  6
CONTINUOUS
 62
     7
 10
199.5
 20
-50.0
 30
0.0
 11
269.50001999999989
 21
-50.0
 31
0.0
  0
INSERT
  5
D4
  8
DIMNSIONS
  2
*G6
 10
100.0
 20
140.0
 30
0.0
  0
LINE
  5
D5
  8
DIMNSIONS
  6
CONTINUOUS
 62
     7
 10
269.50002999999998
 20
-0.0000200000000063
 30
0.0
 11
330.5
 21
-0.0000200000000063
 31
0.0
  0
LINE
  5
D6
  8
DIMNSIONS
  6
CONTINUOUS
 62
     7
 10
269.50002999999998
 20
114.50001
 30
0.0
 11
330.5
 21
114.50001
 31
0.0
  0
LINE
  5
D8
  8
DIMNSIONS
 62
     7
 10
324.5
 20
-0.0000200000000063
 30
0.0
 11
321.94777999999991
 21
9.5249699999999962
 31
0.0
  0
LINE
  5
D9
  8
DIMNSIONS
 62
     7
 10
324.5
 20
-0.0000200000000063
 30
0.0
 11
327.05220999999989
 21
9.5249699999999962
 31
0.0
  0
LINE
  5
DA
  8
DIMNSIONS
 62
     7
 10
324.5
 20
114.50001
 30
0.0
 11
327.05220999999989
 21
104.97501
 31
0.0
  0
LINE
  5
DB
  8
DIMNSIONS
 62
     7
 10
324.5
 20
114.50001
 30
0.0
 11
321.94777999999991
 21
104.97501
 31
0.0
  0
LINE
  5
D7
  8
DIMNSIONS
  6
CONTINUOUS
 62
     7
 10
324.5
 20
-0.0000200000000063
 30
0.0
 11
324.5
 21
114.50001
 31
0.0
  0
INSERT
  5
DC
  8
DIMNSIONS
  2
*G7
 10
100.0
 20
140.0
 30
0.0
  0
LINE
  5
DD
  8
DIMNSIONS
  6
CONTINUOUS
 62
     7
 10
244.24999999999989
 20
15.69999
 30
0.0
 11
306.0
 21
15.69999
 31
0.0
  0
LINE
  5
DE
  8
DIMNSIONS
  6
CONTINUOUS
 62
     7
 10
244.24999999999989
 20
98.799999999999997
 30
0.0
 11
306.0
 21
98.799999999999997
 31
0.0
  0
LINE
  5
E0
  8
DIMNSIONS
 62
     7
 10
300.0
 20
15.69999
 30
0.0
 11
297.44777999999991
 21
25.224979999999999
 31
0.0
  0
LINE
  5
E1
  8
DIMNSIONS
 62
     7
 10
300.0
 20
15.69999
 30
0.0
 11
302.55220999999989
 21
25.224979999999999
 31
0.0
  0
LINE
  5
E2
  8
DIMNSIONS
 62
     7
 10
300.0
 20
98.799999999999997
 30
0.0
 11
302.55220999999989
 21
89.275000000000006
 31
0.0
  0
LINE
  5
E3
  8
DIMNSIONS
 62
     7
 10
300.0
 20
98.799999999999997
 30
0.0
 11
297.44777999999991
 21
89.275000000000006
 31
0.0
  0
LINE
  5
DF
  8
DIMNSIONS
  6
CONTINUOUS
 62
     7
 10
300.0
 20
15.69999
 30
0.0
 11
300.0
 21
98.799999999999997
 31
0.0
  0
INSERT
  5
E4
  8
DIMNSIONS
  2
*G8
 10
100.0
 20
140.0
 30
0.0
  0
LINE
  5
E6
  8
DIMNSIONS
 62
     7
 10
236.11301
 20
100.83917
 30
0.0
 11
240.12383999999989
 21
109.84764
 31
0.0
  0
LINE
  5
E7
  8
DIMNSIONS
 62
     7
 10
236.11301
 20
100.83917
 30
0.0
 11
244.09072
 21
106.63531999999999
 31
0.0
  0
LINE
  5
E5
  8
DIMNSIONS
  6
CONTINUOUS
 62
     7
 10
236.11301
 20
100.83917
 30
0.0
 11
274.99999000000003
 21
150.0
 31
0.0
  0
LINE
  5
E8
  8
DIMNSIONS
  6
CONTINUOUS
 62
     7
 10
274.99999000000003
 20
150.0
 30
0.0
 11
292.99999000000003
 21
150.0
 31
0.0
  0
INSERT
  5
E9
  8
DIMNSIONS
  2
*G9
 10
100.0
 20
140.0
 30
0.0
  0
TEXT
  5
EA
  8
DATA
 62
     7
 10
250.0
 20
-208.97219000000001
 30
0.0
 40
7.6200000000000001
  1
CM-30,CM-30W
 11
250.0
 21
-201.35219000000001
 31
0.0
 73
     3
  0
TEXT
  5
EB
  8
DATA
 62
     7
 10
250.0
 20
-187.22219000000001
 30
0.0
 40
7.6200000000000001
  1
Amcron
 11
250.0
 21
-179.60219000000001
 31
0.0
 73
     3
  0
TEXT
  5
EC
  8
DATA
 62
     7
 10
242.5
 20
-197.84356
 30
0.0
 40
5.0800099999999988
  1
オーバーヘッド・マイキング用
 11
242.5
 21
-192.76355000000001
 31
0.0
 73
     3
  0
LINE
  5
ED
  8
DATA
  6
CONTINUOUS
 62
     7
 10
264.24265999999989
 20
5.5073399999999992
 30
0.0
 11
267.86579999999998
 21
1.884240000000005
 31
0.0
  0
ARC
  5
EE
  8
DATA
  6
CONTINUOUS
 62
     7
 10
260.00002999999998
 20
9.7499799999999937
 30
0.0
 40
5.9999700000000002
 50
270.0
 51
0.0
  0
ARC
  5
EF
  8
DATA
  6
CONTINUOUS
 62
     7
 10
263.50002999999998
 20
5.9999699999999896
 30
0.0
 40
5.9999900000000004
 50
270.0
 51
0.0
  0
LINE
  5
F0
  8
DATA
  6
CONTINUOUS
 62
     7
 10
264.24265999999989
 20
108.99266
 30
0.0
 11
267.86579999999998
 21
112.61579999999989
 31
0.0
  0
ARC
  5
F1
  8
DATA
  6
CONTINUOUS
 62
     7
 10
263.50002999999998
 20
108.5000399999999
 30
0.0
 40
5.9999500000000001
 50
0.0
 51
90.0
  0
ARC
  5
F2
  8
DATA
  6
CONTINUOUS
 62
     7
 10
260.00002999999998
 20
104.75004
 30
0.0
 40
5.9999500000000001
 50
0.0
 51
90.0
  0
LINE
  5
F3
  8
DATA
  6
CONTINUOUS
 62
     7
 10
41.592229999999986
 20
175.85003
 30
0.0
 11
41.592229999999986
 21
61.500029999999988
 31
0.0
  0
LINE
  5
F4
  8
DATA
  6
CONTINUOUS
 62
     7
 10
39.092230000000001
 20
175.35001999999989
 30
0.0
 11
39.092230000000001
 21
61.000039999999998
 31
0.0
  0
LINE
  5
F5
  8
DATA
  6
CONTINUOUS
 62
     7
 10
-78.227830000000012
 20
126.68988
 30
0.0
 11
-60.627829999999989
 21
164.4340599999999
 31
0.0
  0
LINE
  5
F6
  8
DATA
  6
CONTINUOUS
 62
     7
 10
-81.911100000000005
 20
124.70654999999989
 30
0.0
 11
-62.893619999999999
 21
165.49056999999999
 31
0.0
  0
LINE
  5
F7
  8
DATA
  6
CONTINUOUS
 62
     7
 10
-84.739500000000007
 20
124.92334
 30
0.0
 11
-73.224719999999991
 21
143.33495999999991
 31
0.0
  0
LINE
  5
F8
  8
DATA
  6
CONTINUOUS
 62
     7
 10
-63.846170000000001
 20
74.727260000000001
 30
0.0
 11
-85.031810000000007
 21
120.15902
 31
0.0
  0
LINE
  5
F9
  8
DATA
  6
CONTINUOUS
 62
     7
 10
-58.408350000000013
 20
77.263010000000008
 30
0.0
 11
-78.227789999999999
 21
119.765
 31
0.0
  0
LINE
  5
FA
  8
DATA
  6
CONTINUOUS
 62
     7
 10
-60.67410000000001
 20
76.20644999999999
 30
0.0
 11
-81.911059999999992
 21
121.74827000000001
 31
0.0
  0
LINE
  5
FB
  8
DATA
  6
CONTINUOUS
 62
     7
 10
-61.12727000000001
 20
75.995130000000003
 30
0.0
 11
-82.456690000000009
 21
121.73524999999999
 31
0.0
  0
ARC
  5
FC
  8
DATA
  6
CONTINUOUS
 62
     7
 10
-80.50027
 20
122.2720999999999
 30
0.0
 40
5.0
 50
147.97792725428019
 51
205.00049352962441
  0
CIRCLE
  5
FD
  8
DATA
  6
CONTINUOUS
 62
     7
 10
-78.739000000000004
 20
123.22745
 30
0.0
 40
1.0
  0
CIRCLE
  5
FE
  8
DATA
  6
CONTINUOUS
 62
     7
 10
-78.739000000000004
 20
123.2274199999999
 30
0.0
 40
3.499979999999999
  0
LINE
  5
FF
  8
DATA
  6
CONTINUOUS
 62
     7
 10
-82.310559999999995
 20
124.11738
 30
0.0
 11
-81.820300000000003
 21
124.90128
 31
0.0
  0
ARC
  5
100
  8
DATA
  6
CONTINUOUS
 62
     7
 10
-80.190930000000009
 20
122.7917799999999
 30
0.0
 40
2.5
 50
147.97853455753801
 51
205.00008510682781
  0
LINE
  5
101
  8
DATA
  6
CONTINUOUS
 62
     7
 10
-53.639249999999997
 20
72.314949999999996
 30
0.0
 11
-42.144010000000009
 21
47.663829999999997
 31
0.0
  0
LINE
  5
102
  8
DATA
  6
CONTINUOUS
 62
     7
 10
-54.344799999999992
 20
41.97439
 30
0.0
 11
-65.840039999999988
 21
66.625489999999999
 31
0.0
  0
LINE
  5
103
  8
DATA
  6
CONTINUOUS
 62
     7
 10
-42.047410000000013
 20
47.456689999999988
 30
0.0
 11
-54.213429999999988
 21
41.783429999999989
 31
0.0
  0
LINE
  5
104
  8
DATA
  6
CONTINUOUS
 62
     7
 10
-42.60942
 20
46.091229999999989
 30
0.0
 11
-52.840939999999989
 21
41.320070000000001
 31
0.0
  0
LINE
  5
105
  8
DATA
  6
CONTINUOUS
 62
     7
 10
-42.886090000000003
 20
43.976119999999987
 30
0.0
 11
-51.042830000000009
 21
40.172479999999993
 31
0.0
  0
LINE
  5
106
  8
DATA
  6
CONTINUOUS
 62
     7
 10
-52.709849999999989
 20
41.381209999999989
 30
0.0
 11
-42.740489999999987
 21
46.030090000000001
 31
0.0
  0
LINE
  5
107
  8
DATA
  6
CONTINUOUS
 62
     7
 10
-54.047949999999993
 20
41.657020000000003
 30
0.0
 11
-53.474299999999999
 21
41.341239999999992
 31
0.0
  0
ARC
  5
108
  8
DATA
  6
CONTINUOUS
 62
     7
 10
-53.136760000000002
 20
41.954500000000003
 30
0.0
 40
0.6999800000000001
 50
241.1706303131694
 51
294.99958617490722
  0
LINE
  5
109
  8
DATA
  6
CONTINUOUS
 62
     7
 10
-52.04319000000001
 20
48.233040000000003
 30
0.0
 11
-51.137009999999997
 21
48.655699999999989
 31
0.0
  0
LINE
  5
10A
  8
DATA
  6
CONTINUOUS
 62
     7
 10
-53.733710000000002
 20
51.858320000000013
 30
0.0
 11
-52.82750999999999
 21
52.280900000000003
 31
0.0
  0
ARC
  5
10B
  8
DATA
  6
CONTINUOUS
 62
     7
 10
-52.888440000000003
 20
50.045679999999997
 30
0.0
 40
2.000049999999999
 50
115.00045236869001
 51
295.00045236869011
  0
ARC
  5
10C
  8
DATA
  6
CONTINUOUS
 62
     7
 10
-51.98222999999998
 20
50.468299999999992
 30
0.0
 40
1.9999899999999999
 50
114.99989811118149
 51
295.00027882261162
  0
ARC
  5
10D
  8
DATA
  6
CONTINUOUS
 62
     7
 10
-49.263200000000012
 20
51.736229999999999
 30
0.0
 40
1.9999800000000001
 50
295.000399896403
 51
115.0000191829548
  0
LINE
  5
10E
  8
DATA
  6
CONTINUOUS
 62
     7
 10
-52.827480000000008
 20
52.280909999999999
 30
0.0
 11
-50.108460000000001
 21
53.548830000000002
 31
0.0
  0
LINE
  5
10F
  8
DATA
  6
CONTINUOUS
 62
     7
 10
-48.41794999999999
 20
49.923649999999988
 30
0.0
 11
-51.136969999999991
 21
48.655709999999999
 31
0.0
  0
LINE
  5
110
  8
DATA
  6
CONTINUOUS
 62
     7
 10
-51.042830000000009
 20
40.172479999999993
 30
0.0
 11
-52.709849999999989
 21
41.381219999999999
 31
0.0
  0
ARC
  5
111
  8
DATA
  6
CONTINUOUS
 62
     7
 10
-53.71038999999999
 20
42.270229999999991
 30
0.0
 40
0.7
 50
205.00072391661331
 51
241.16815675477091
  0
ARC
  5
112
  8
DATA
  6
CONTINUOUS
 62
     7
 10
-42.778429999999979
 20
47.368019999999987
 30
0.0
 40
0.6999900000000001
 50
348.83100955549821
 51
25.001069849152429
  0
ARC
  5
113
  8
DATA
  6
CONTINUOUS
 62
     7
 10
-42.905249999999988
 20
46.725639999999999
 30
0.0
 40
0.6999800000000001
 50
295.00032801650872
 51
348.83004797070282
  0
LINE
  5
114
  8
DATA
  6
CONTINUOUS
 62
     7
 10
-42.740489999999987
 20
46.030090000000001
 30
0.0
 11
-42.886090000000003
 21
43.976129999999991
 31
0.0
  0
LINE
  5
115
  8
DATA
  6
CONTINUOUS
 62
     7
 10
-42.091669999999993
 20
47.232429999999987
 30
0.0
 11
-42.218510000000002
 21
46.590029999999999
 31
0.0
  0
ARC
  5
116
  8
DATA
  6
CONTINUOUS
 62
     7
 10
-43.65842
 20
54.365029999999997
 30
0.0
 40
2.459849999999999
 50
151.20240079558249
 51
258.80349144098562
  0
ARC
  5
117
  8
DATA
  6
CONTINUOUS
 62
     7
 10
-58.506239999999991
 20
47.442959999999999
 30
0.0
 40
2.460319999999999
 50
331.2079382793487
 51
78.745375533436743
  0
LINE
  5
118
  8
DATA
  6
CONTINUOUS
 62
     7
 10
-64.149559999999994
 20
63.000280000000011
 30
0.0
 11
-51.948759999999993
 21
68.68974
 31
0.0
  0
LINE
  5
119
  8
DATA
  6
CONTINUOUS
 62
     7
 10
-61.825109999999988
 20
58.015579999999993
 30
0.0
 11
-49.624310000000008
 21
63.705039999999997
 31
0.0
  0
LINE
  5
11A
  8
DATA
  6
CONTINUOUS
 62
     7
 10
-66.321709999999996
 20
73.572869999999995
 30
0.0
 11
-58.651729999999979
 21
77.149529999999999
 31
0.0
  0
LINE
  5
11B
  8
DATA
  6
CONTINUOUS
 62
     7
 10
-57.462079999999993
 20
76.884839999999997
 30
0.0
 11
-53.639260000000007
 21
72.314920000000001
 31
0.0
  0
LINE
  5
11C
  8
DATA
  6
CONTINUOUS
 62
     7
 10
-66.883620000000008
 20
72.491420000000005
 30
0.0
 11
-65.840039999999988
 21
66.625479999999996
 31
0.0
  0
ARC
  5
11D
  8
DATA
  6
CONTINUOUS
 62
     7
 10
-65.899090000000001
 20
72.666560000000004
 30
0.0
 40
1.0
 50
115.0000366783207
 51
190.0874049600356
  0
LINE
  5
11E
  8
DATA
  6
CONTINUOUS
 62
     7
 10
-65.840049999999991
 20
66.625479999999996
 30
0.0
 11
-53.639249999999997
 21
72.314940000000007
 31
0.0
  0
ARC
  5
11F
  8
DATA
  6
CONTINUOUS
 62
     7
 10
-58.229109999999991
 20
76.243210000000005
 30
0.0
 40
1.0000299999999991
 50
39.912966991818479
 51
115.000313807075
  0
LINE
  5
120
  8
DATA
  6
CONTINUOUS
 62
     7
 10
144.79611
 20
23.00001
 30
0.0
 11
121.7961099999999
 21
23.00001
 31
0.0
  0
LINE
  5
121
  8
DATA
  6
CONTINUOUS
 62
     7
 10
144.79611
 20
91.500010000000003
 30
0.0
 11
121.7961099999999
 21
91.500010000000003
 31
0.0
  0
LINE
  5
122
  8
DATA
  6
CONTINUOUS
 62
     7
 10
120.79611
 20
114.4999499999999
 30
0.0
 11
120.79611
 21
-0.0000300000000095
 31
0.0
  0
LINE
  5
123
  8
DATA
  6
CONTINUOUS
 62
     7
 10
121.7961099999999
 20
114.4999499999999
 30
0.0
 11
121.7961099999999
 21
-0.0000300000000095
 31
0.0
  0
LINE
  5
124
  8
DATA
  6
CONTINUOUS
 62
     7
 10
116.79611
 20
5.2425800000000029
 30
0.0
 11
116.79611
 21
109.25738
 31
0.0
  0
LINE
  5
125
  8
DATA
  6
CONTINUOUS
 62
     7
 10
111.79611
 20
49.000050000000002
 30
0.0
 11
111.79611
 21
65.500010000000003
 31
0.0
  0
LINE
  5
126
  8
DATA
  6
CONTINUOUS
 62
     7
 10
110.2961099999999
 20
65.500029999999995
 30
0.0
 11
110.2961099999999
 21
49.000029999999988
 31
0.0
  0
LINE
  5
127
  8
DATA
  6
CONTINUOUS
 62
     7
 10
97.296120000000016
 20
63.495480000000001
 30
0.0
 11
97.296120000000016
 21
51.004579999999997
 31
0.0
  0
LINE
  5
128
  8
DATA
  6
CONTINUOUS
 62
     7
 10
103.8362699999999
 20
63.750029999999988
 30
0.0
 11
103.8362699999999
 21
50.750029999999988
 31
0.0
  0
LINE
  5
129
  8
DATA
  6
CONTINUOUS
 62
     7
 10
92.182339999999996
 20
51.203609999999991
 30
0.0
 11
89.881600000000006
 21
63.206910000000001
 31
0.0
  0
LINE
  5
12A
  8
DATA
  6
CONTINUOUS
 62
     7
 10
88.668779999999984
 20
63.159710000000011
 30
0.0
 11
90.951300000000003
 21
51.251489999999997
 31
0.0
  0
LINE
  5
12B
  8
DATA
  6
CONTINUOUS
 62
     7
 10
73.852930000000001
 20
51.916989999999991
 30
0.0
 11
71.550889999999995
 21
62.493470000000002
 31
0.0
  0
LINE
  5
12C
  8
DATA
  6
CONTINUOUS
 62
     7
 10
74.906509999999983
 20
62.624040000000001
 30
0.0
 11
72.625110000000006
 21
51.964779999999998
 31
0.0
  0
ARC
  5
12D
  8
DATA
  6
CONTINUOUS
 62
     7
 10
44.092229999999986
 20
61.000030000000002
 30
0.0
 40
5.0
 50
180.0
 51
270.0
  0
LINE
  5
12E
  8
DATA
  6
CONTINUOUS
 62
     7
 10
65.296120000000002
 20
61.576779999999999
 30
0.0
 11
65.296120000000002
 21
52.923319999999997
 31
0.0
  0
LINE
  5
12F
  8
DATA
  6
CONTINUOUS
 62
     7
 10
63.796100000000003
 20
60.500030000000002
 30
0.0
 11
63.796100000000003
 21
54.000029999999988
 31
0.0
  0
LINE
  5
130
  8
DATA
  6
CONTINUOUS
 62
     7
 10
69.796099999999996
 20
62.425169999999987
 30
0.0
 11
69.796099999999996
 21
52.074889999999989
 31
0.0
  0
LINE
  5
131
  8
DATA
  6
CONTINUOUS
 62
     7
 10
70.333100000000002
 20
62.446039999999989
 30
0.0
 11
72.6143
 21
51.965199999999989
 31
0.0
  0
LINE
  5
132
  8
DATA
  6
CONTINUOUS
 62
     7
 10
69.796099999999996
 20
55.750029999999988
 30
0.0
 11
69.796099999999996
 21
58.750029999999988
 31
0.0
  0
LINE
  5
133
  8
DATA
  6
CONTINUOUS
 62
     7
 10
78.435149999999993
 20
51.738639999999997
 30
0.0
 11
76.133470000000003
 21
62.671840000000003
 31
0.0
  0
LINE
  5
134
  8
DATA
  6
CONTINUOUS
 62
     7
 10
74.917159999999996
 20
62.624479999999998
 30
0.0
 11
77.198700000000002
 21
51.786760000000001
 31
0.0
  0
LINE
  5
135
  8
DATA
  6
CONTINUOUS
 62
     7
 10
83.017480000000006
 20
51.560299999999998
 30
0.0
 11
80.716080000000005
 21
62.850200000000001
 31
0.0
  0
LINE
  5
136
  8
DATA
  6
CONTINUOUS
 62
     7
 10
79.50103
 20
62.802899999999987
 30
0.0
 11
81.783010000000004
 21
51.608339999999998
 31
0.0
  0
LINE
  5
137
  8
DATA
  6
CONTINUOUS
 62
     7
 10
73.842140000000001
 20
51.917400000000001
 30
0.0
 11
76.144019999999998
 21
62.672220000000003
 31
0.0
  0
LINE
  5
138
  8
DATA
  6
CONTINUOUS
 62
     7
 10
83.007459999999995
 20
51.560680000000012
 30
0.0
 11
85.308639999999997
 21
63.028940000000013
 31
0.0
  0
LINE
  5
139
  8
DATA
  6
CONTINUOUS
 62
     7
 10
84.075079999999986
 20
62.980909999999987
 30
0.0
 11
81.793019999999984
 21
51.607950000000002
 31
0.0
  0
LINE
  5
13A
  8
DATA
  6
CONTINUOUS
 62
     7
 10
87.590180000000004
 20
51.382350000000002
 30
0.0
 11
89.891120000000001
 21
63.20729
 31
0.0
  0
LINE
  5
13B
  8
DATA
  6
CONTINUOUS
 62
     7
 10
88.659279999999995
 20
63.159329999999997
 30
0.0
 11
86.376840000000001
 21
51.42953
 31
0.0
  0
LINE
  5
13C
  8
DATA
  6
CONTINUOUS
 62
     7
 10
87.599829999999997
 20
51.381959999999999
 30
0.0
 11
85.298829999999995
 21
63.02852
 31
0.0
  0
LINE
  5
13D
  8
DATA
  6
CONTINUOUS
 62
     7
 10
84.084979999999987
 20
62.981270000000002
 30
0.0
 11
86.367180000000005
 21
51.429910000000007
 31
0.0
  0
LINE
  5
13E
  8
DATA
  6
CONTINUOUS
 62
     7
 10
77.209100000000007
 20
51.786370000000012
 30
0.0
 11
79.490839999999992
 21
62.802490000000013
 31
0.0
  0
LINE
  5
13F
  8
DATA
  6
CONTINUOUS
 62
     7
 10
80.726279999999988
 20
62.850570000000012
 30
0.0
 11
78.424759999999992
 21
51.739050000000013
 31
0.0
  0
LINE
  5
140
  8
DATA
  6
CONTINUOUS
 62
     7
 10
96.186409999999995
 20
51.04777
 30
0.0
 11
94.461050000000014
 21
63.385109999999997
 31
0.0
  0
LINE
  5
141
  8
DATA
  6
CONTINUOUS
 62
     7
 10
93.255939999999995
 20
63.338209999999997
 30
0.0
 11
94.968119999999999
 21
51.095170000000003
 31
0.0
  0
LINE
  5
142
  8
DATA
  6
CONTINUOUS
 62
     7
 10
97.296120000000016
 20
58.750029999999988
 30
0.0
 11
97.296120000000016
 21
55.750029999999988
 31
0.0
  0
LINE
  5
143
  8
DATA
  6
CONTINUOUS
 62
     7
 10
92.172979999999995
 20
51.203959999999988
 30
0.0
 11
94.473600000000005
 21
63.385620000000003
 31
0.0
  0
LINE
  5
144
  8
DATA
  6
CONTINUOUS
 62
     7
 10
93.243359999999996
 20
63.33775
 30
0.0
 11
90.960689999999985
 21
51.251150000000003
 31
0.0
  0
LINE
  5
145
  8
DATA
  6
CONTINUOUS
 62
     7
 10
97.296120000000016
 20
55.011309999999987
 30
0.0
 11
97.296120000000016
 21
59.488709999999998
 31
0.0
  0
LINE
  5
146
  8
DATA
  6
CONTINUOUS
 62
     7
 10
97.296109999999999
 20
59.488709999999998
 30
0.0
 11
94.961169999999996
 21
51.095469999999999
 31
0.0
  0
LINE
  5
147
  8
DATA
  6
CONTINUOUS
 62
     7
 10
104.7961099999999
 20
56.500010000000003
 30
0.0
 11
104.7961099999999
 21
58.000030000000002
 31
0.0
  0
ARC
  5
148
  8
DATA
  6
CONTINUOUS
 62
     7
 10
118.6435799999999
 20
57.124980000000001
 30
0.0
 40
3.8476400000000002
 50
118.6986539569013
 51
241.30134604309859
  0
LINE
  5
149
  8
DATA
  6
CONTINUOUS
 62
     7
 10
65.968879999999984
 20
52.223849999999999
 30
0.0
 11
103.83628
 21
50.750050000000002
 31
0.0
  0
LINE
  5
14A
  8
DATA
  6
CONTINUOUS
 62
     7
 10
97.296120000000016
 20
55.750029999999988
 30
0.0
 11
69.796099999999996
 21
55.750029999999988
 31
0.0
  0
LINE
  5
14B
  8
DATA
  6
CONTINUOUS
 62
     7
 10
72.614310000000003
 20
51.965190000000007
 30
0.0
 11
73.852930000000001
 21
51.916989999999991
 31
0.0
  0
LINE
  5
14C
  8
DATA
  6
CONTINUOUS
 62
     7
 10
72.625110000000006
 20
51.964779999999998
 30
0.0
 11
73.842150000000004
 21
51.917400000000001
 31
0.0
  0
LINE
  5
14D
  8
DATA
  6
CONTINUOUS
 62
     7
 10
44.092229999999986
 20
56.000039999999998
 30
0.0
 11
63.79609
 21
56.000039999999998
 31
0.0
  0
ARC
  5
14E
  8
DATA
  6
CONTINUOUS
 62
     7
 10
65.996129999999994
 20
52.923319999999997
 30
0.0
 40
0.7
 50
180.0
 51
267.77144901720447
  0
LINE
  5
14F
  8
DATA
  6
CONTINUOUS
 62
     7
 10
64.796099999999996
 20
53.000010000000003
 30
0.0
 11
65.296120000000002
 21
53.000010000000003
 31
0.0
  0
ARC
  5
150
  8
DATA
  6
CONTINUOUS
 62
     7
 10
64.796099999999996
 20
54.000029999999988
 30
0.0
 40
1.0
 50
180.0
 51
270.0
  0
LINE
  5
151
  8
DATA
  6
CONTINUOUS
 62
     7
 10
77.198700000000002
 20
51.786760000000001
 30
0.0
 11
78.435140000000004
 21
51.738639999999997
 31
0.0
  0
LINE
  5
152
  8
DATA
  6
CONTINUOUS
 62
     7
 10
81.783010000000004
 20
51.608339999999998
 30
0.0
 11
83.017489999999995
 21
51.560319999999997
 31
0.0
  0
LINE
  5
153
  8
DATA
  6
CONTINUOUS
 62
     7
 10
81.793019999999984
 20
51.607960000000013
 30
0.0
 11
83.007439999999988
 21
51.56069999999999
 31
0.0
  0
LINE
  5
154
  8
DATA
  6
CONTINUOUS
 62
     7
 10
86.376840000000001
 20
51.429540000000003
 30
0.0
 11
87.590180000000004
 21
51.382339999999999
 31
0.0
  0
LINE
  5
155
  8
DATA
  6
CONTINUOUS
 62
     7
 10
86.367180000000005
 20
51.429919999999989
 30
0.0
 11
87.599840000000015
 21
51.381959999999999
 31
0.0
  0
LINE
  5
156
  8
DATA
  6
CONTINUOUS
 62
     7
 10
78.424759999999992
 20
51.739040000000003
 30
0.0
 11
77.209100000000007
 21
51.786360000000002
 31
0.0
  0
LINE
  5
157
  8
DATA
  6
CONTINUOUS
 62
     7
 10
117.6748
 20
3.1212700000000089
 30
0.0
 11
120.79613999999999
 21
-0.0000300000000095
 31
0.0
  0
ARC
  5
158
  8
DATA
  6
CONTINUOUS
 62
     7
 10
119.79611
 20
5.2425800000000029
 30
0.0
 40
3.0
 50
180.0
 51
225.0
  0
LINE
  5
159
  8
DATA
  6
CONTINUOUS
 62
     7
 10
120.79611
 20
-0.0000300000000095
 30
0.0
 11
121.7961099999999
 21
-0.0000300000000095
 31
0.0
  0
LINE
  5
15A
  8
DATA
  6
CONTINUOUS
 62
     7
 10
116.79611
 20
49.000039999999998
 30
0.0
 11
111.79611
 21
49.000039999999998
 31
0.0
  0
LINE
  5
15B
  8
DATA
  6
CONTINUOUS
 62
     7
 10
110.29607
 20
51.25001000000001
 30
0.0
 11
111.79611
 21
51.25001000000001
 31
0.0
  0
LINE
  5
15C
  8
DATA
  6
CONTINUOUS
 62
     7
 10
103.8362699999999
 20
50.750039999999991
 30
0.0
 11
104.7961099999999
 21
49.214079999999989
 31
0.0
  0
LINE
  5
15D
  8
DATA
  6
CONTINUOUS
 62
     7
 10
110.2961099999999
 20
56.500029999999988
 30
0.0
 11
104.7960699999999
 21
56.500029999999988
 31
0.0
  0
LINE
  5
15E
  8
DATA
  6
CONTINUOUS
 62
     7
 10
110.2961099999999
 20
50.480239999999988
 30
0.0
 11
104.7960699999999
 21
50.480239999999988
 31
0.0
  0
LINE
  5
15F
  8
DATA
  6
CONTINUOUS
 62
     7
 10
90.951300000000003
 20
51.251489999999997
 30
0.0
 11
92.182349999999985
 21
51.203609999999991
 31
0.0
  0
LINE
  5
160
  8
DATA
  6
CONTINUOUS
 62
     7
 10
94.968130000000016
 20
51.095179999999999
 30
0.0
 11
96.186409999999995
 21
51.047759999999997
 31
0.0
  0
LINE
  5
161
  8
DATA
  6
CONTINUOUS
 62
     7
 10
104.7961099999999
 20
50.480239999999988
 30
0.0
 11
104.7961099999999
 21
49.214079999999989
 31
0.0
  0
LINE
  5
162
  8
DATA
  6
CONTINUOUS
 62
     7
 10
104.7960699999999
 20
49.214089999999999
 30
0.0
 11
110.2961099999999
 21
49.000029999999988
 31
0.0
  0
LINE
  5
163
  8
DATA
  6
CONTINUOUS
 62
     7
 10
90.960679999999996
 20
51.251139999999999
 30
0.0
 11
92.172979999999995
 21
51.203959999999988
 31
0.0
  0
LINE
  5
164
  8
DATA
  6
CONTINUOUS
 62
     7
 10
96.193389999999994
 20
51.047479999999993
 30
0.0
 11
97.296130000000005
 21
55.011299999999999
 31
0.0
  0
LINE
  5
165
  8
DATA
  6
CONTINUOUS
 62
     7
 10
94.961169999999996
 20
51.095460000000003
 30
0.0
 11
96.193389999999994
 21
51.047479999999993
 31
0.0
  0
ARC
  5
166
  8
DATA
  6
CONTINUOUS
 62
     7
 10
109.03381
 20
53.489980000000003
 30
0.0
 40
5.1980500000000003
 50
144.61531505909721
 51
215.3846849409027
  0
ARC
  5
167
  8
DATA
  6
CONTINUOUS
 62
     7
 10
118.6435799999999
 20
33.374979999999987
 30
0.0
 40
3.8476400000000002
 50
118.6986539569013
 51
241.30134604309859
  0
LINE
  5
168
  8
DATA
  6
CONTINUOUS
 62
     7
 10
65.968879999999984
 20
62.276240000000001
 30
0.0
 11
103.83628
 21
63.750039999999998
 31
0.0
  0
LINE
  5
169
  8
DATA
  6
CONTINUOUS
 62
     7
 10
69.796099999999996
 20
58.750029999999988
 30
0.0
 11
97.296120000000016
 21
58.750029999999988
 31
0.0
  0
LINE
  5
16A
  8
DATA
  6
CONTINUOUS
 62
     7
 10
44.59223999999999
 20
58.500010000000003
 30
0.0
 11
63.796100000000003
 21
58.500010000000003
 31
0.0
  0
ARC
  5
16B
  8
DATA
  6
CONTINUOUS
 62
     7
 10
44.592230000000001
 20
61.500010000000003
 30
0.0
 40
2.9999899999999999
 50
180.0
 51
270.0
  0
ARC
  5
16C
  8
DATA
  6
CONTINUOUS
 62
     7
 10
65.996129999999994
 20
61.576759999999993
 30
0.0
 40
0.70001
 50
92.228519154808325
 51
180.0
  0
LINE
  5
16D
  8
DATA
  6
CONTINUOUS
 62
     7
 10
64.796099999999996
 20
61.500010000000003
 30
0.0
 11
65.296120000000002
 21
61.500010000000003
 31
0.0
  0
ARC
  5
16E
  8
DATA
  6
CONTINUOUS
 62
     7
 10
64.796099999999996
 20
60.500030000000002
 30
0.0
 40
1.0
 50
90.0
 51
180.0
  0
LINE
  5
16F
  8
DATA
  6
CONTINUOUS
 62
     7
 10
71.550880000000006
 20
62.493480000000012
 30
0.0
 11
70.333100000000002
 21
62.446039999999989
 31
0.0
  0
LINE
  5
170
  8
DATA
  6
CONTINUOUS
 62
     7
 10
70.322389999999999
 20
62.445650000000001
 30
0.0
 11
69.796089999999992
 21
60.048289999999987
 31
0.0
  0
LINE
  5
171
  8
DATA
  6
CONTINUOUS
 62
     7
 10
71.561530000000005
 20
62.493870000000001
 30
0.0
 11
70.322389999999999
 21
62.44567
 31
0.0
  0
LINE
  5
172
  8
DATA
  6
CONTINUOUS
 62
     7
 10
70.410380000000004
 20
57.250010000000003
 30
0.0
 11
71.561539999999994
 21
62.493870000000001
 31
0.0
  0
LINE
  5
173
  8
DATA
  6
CONTINUOUS
 62
     7
 10
69.796099999999996
 20
57.250010000000003
 30
0.0
 11
70.410380000000004
 21
57.250010000000003
 31
0.0
  0
LINE
  5
174
  8
DATA
  6
CONTINUOUS
 62
     7
 10
69.796099999999996
 20
60.048289999999987
 30
0.0
 11
69.796099999999996
 21
57.250010000000003
 31
0.0
  0
LINE
  5
175
  8
DATA
  6
CONTINUOUS
 62
     7
 10
76.133470000000003
 20
62.67183
 30
0.0
 11
74.917149999999992
 21
62.624490000000002
 31
0.0
  0
LINE
  5
176
  8
DATA
  6
CONTINUOUS
 62
     7
 10
80.716080000000005
 20
62.850209999999997
 30
0.0
 11
79.501040000000003
 21
62.802909999999997
 31
0.0
  0
LINE
  5
177
  8
DATA
  6
CONTINUOUS
 62
     7
 10
89.881600000000006
 20
63.206910000000001
 30
0.0
 11
88.668779999999984
 21
63.159710000000011
 31
0.0
  0
LINE
  5
178
  8
DATA
  6
CONTINUOUS
 62
     7
 10
76.144009999999994
 20
62.672220000000003
 30
0.0
 11
74.906499999999994
 21
62.624040000000001
 31
0.0
  0
LINE
  5
179
  8
DATA
  6
CONTINUOUS
 62
     7
 10
85.308639999999997
 20
63.028930000000003
 30
0.0
 11
84.075100000000006
 21
62.980909999999987
 31
0.0
  0
LINE
  5
17A
  8
DATA
  6
CONTINUOUS
 62
     7
 10
89.891120000000001
 20
63.20729
 30
0.0
 11
88.659279999999995
 21
63.159329999999997
 31
0.0
  0
LINE
  5
17B
  8
DATA
  6
CONTINUOUS
 62
     7
 10
85.298820000000006
 20
63.02854
 30
0.0
 11
84.084979999999987
 21
62.981279999999998
 31
0.0
  0
LINE
  5
17C
  8
DATA
  6
CONTINUOUS
 62
     7
 10
79.490839999999992
 20
62.802490000000013
 30
0.0
 11
80.726279999999988
 21
62.850549999999991
 31
0.0
  0
LINE
  5
17D
  8
DATA
  6
CONTINUOUS
 62
     7
 10
110.29607
 20
63.250010000000003
 30
0.0
 11
111.79611
 21
63.250010000000003
 31
0.0
  0
LINE
  5
17E
  8
DATA
  6
CONTINUOUS
 62
     7
 10
104.7960699999999
 20
58.000030000000002
 30
0.0
 11
110.2961099999999
 21
58.000030000000002
 31
0.0
  0
LINE
  5
17F
  8
DATA
  6
CONTINUOUS
 62
     7
 10
94.461039999999997
 20
63.385109999999997
 30
0.0
 11
93.255939999999995
 21
63.338209999999997
 31
0.0
  0
LINE
  5
180
  8
DATA
  6
CONTINUOUS
 62
     7
 10
94.473609999999994
 20
63.385629999999999
 30
0.0
 11
93.243350000000007
 21
63.337770000000013
 31
0.0
  0
LINE
  5
181
  8
DATA
  6
CONTINUOUS
 62
     7
 10
103.8362699999999
 20
63.750029999999988
 30
0.0
 11
104.7961099999999
 21
65.285970000000006
 31
0.0
  0
LINE
  5
182
  8
DATA
  6
CONTINUOUS
 62
     7
 10
104.7961099999999
 20
65.285970000000006
 30
0.0
 11
104.7961099999999
 21
64.019689999999997
 31
0.0
  0
LINE
  5
183
  8
DATA
  6
CONTINUOUS
 62
     7
 10
110.2961099999999
 20
64.019670000000005
 30
0.0
 11
104.7960699999999
 21
64.019670000000005
 31
0.0
  0
LINE
  5
184
  8
DATA
  6
CONTINUOUS
 62
     7
 10
116.79611
 20
65.500010000000003
 30
0.0
 11
111.79611
 21
65.500010000000003
 31
0.0
  0
LINE
  5
185
  8
DATA
  6
CONTINUOUS
 62
     7
 10
104.7960699999999
 20
65.285970000000006
 30
0.0
 11
110.2961099999999
 21
65.500029999999995
 31
0.0
  0
ARC
  5
186
  8
DATA
  6
CONTINUOUS
 62
     7
 10
119.79611
 20
109.25736999999999
 30
0.0
 40
2.9999600000000002
 50
135.00013504906079
 51
180.0
  0
LINE
  5
187
  8
DATA
  6
CONTINUOUS
 62
     7
 10
117.6748
 20
111.37867
 30
0.0
 11
120.7961
 21
114.4999499999999
 31
0.0
  0
LINE
  5
188
  8
DATA
  6
CONTINUOUS
 62
     7
 10
120.79611
 20
114.4999499999999
 30
0.0
 11
121.7961099999999
 21
114.4999499999999
 31
0.0
  0
ARC
  5
189
  8
DATA
  6
CONTINUOUS
 62
     7
 10
109.0306299999999
 20
61.008979999999987
 30
0.0
 40
5.1948800000000004
 50
144.6039974877483
 51
215.3960025122517
  0
ARC
  5
18A
  8
DATA
  6
CONTINUOUS
 62
     7
 10
118.6435799999999
 20
80.874979999999994
 30
0.0
 40
3.8476400000000002
 50
118.6986539569013
 51
241.30134604309859
  0
LINE
  5
18B
  8
DATA
  6
CONTINUOUS
 62
     7
 10
144.79611
 20
91.500010000000003
 30
0.0
 11
144.79611
 21
23.00001
 31
0.0
  0
LINE
  5
18C
  8
DATA
  6
CONTINUOUS
 62
     7
 10
203.0
 20
9.7499799999999937
 30
0.0
 11
203.0
 21
104.75004
 31
0.0
  0
LINE
  5
18D
  8
DATA
  6
CONTINUOUS
 62
     7
 10
199.5
 20
5.9999699999999896
 30
0.0
 11
199.5
 21
108.50005
 31
0.0
  0
LINE
  5
18E
  8
DATA
  6
CONTINUOUS
 62
     7
 10
242.01974000000001
 20
53.774540000000002
 30
0.0
 11
242.0198
 21
60.725259999999999
 31
0.0
  0
LINE
  5
18F
  8
DATA
  6
CONTINUOUS
 62
     7
 10
226.98036999999999
 20
60.725639999999991
 30
0.0
 11
226.98026999999999
 21
53.774500000000003
 31
0.0
  0
LINE
  5
190
  8
DATA
  6
CONTINUOUS
 62
     7
 10
248.49999999999989
 20
55.250019999999999
 30
0.0
 11
248.49999999999989
 21
59.25
 31
0.0
  0
CIRCLE
  5
191
  8
DATA
  6
CONTINUOUS
 62
     7
 10
248.49999999999989
 20
57.250010000000003
 30
0.0
 40
3.5
  0
LINE
  5
192
  8
DATA
  6
CONTINUOUS
 62
     7
 10
263.50002999999998
 20
0.0
 30
0.0
 11
205.49995000000001
 21
0.0
 31
0.0
  0
LINE
  5
193
  8
DATA
  6
CONTINUOUS
 62
     7
 10
260.00002000000001
 20
3.75
 30
0.0
 11
208.99995999999999
 21
3.75
 31
0.0
  0
CIRCLE
  5
194
  8
DATA
  6
CONTINUOUS
 62
     7
 10
219.49999999999989
 20
33.5
 30
0.0
 40
3.5
  0
LINE
  5
195
  8
DATA
  6
CONTINUOUS
 62
     7
 10
217.5
 20
33.500019999999999
 30
0.0
 11
221.49999999999989
 21
33.500010000000003
 31
0.0
  0
LINE
  5
196
  8
DATA
  6
CONTINUOUS
 62
     7
 10
204.75731999999991
 20
5.5073399999999992
 30
0.0
 11
201.13414
 21
1.884240000000005
 31
0.0
  0
ARC
  5
197
  8
DATA
  6
CONTINUOUS
 62
     7
 10
208.99995999999999
 20
9.7499799999999937
 30
0.0
 40
5.9999500000000001
 50
180.0
 51
270.0
  0
ARC
  5
198
  8
DATA
  6
CONTINUOUS
 62
     7
 10
205.4999599999999
 20
5.9999699999999896
 30
0.0
 40
5.9999500000000001
 50
180.0
 51
270.0
  0
LINE
  5
199
  8
DATA
  6
CONTINUOUS
 62
     7
 10
219.49999999999989
 20
31.500019999999999
 30
0.0
 11
219.49999999999989
 21
35.500010000000003
 31
0.0
  0
CIRCLE
  5
19A
  8
DATA
  6
CONTINUOUS
 62
     7
 10
234.5
 20
15.69999
 30
0.0
 40
3.75
  0
CIRCLE
  5
19B
  8
DATA
  6
CONTINUOUS
 62
     7
 10
234.5
 20
15.69999
 30
0.0
 40
2.6000000000000001
  0
LINE
  5
19C
  8
DATA
  6
CONTINUOUS
 62
     7
 10
235.2499499999999
 20
49.0
 30
0.0
 11
241.26970999999989
 21
52.475520000000003
 31
0.0
  0
LINE
  5
19D
  8
DATA
  6
CONTINUOUS
 62
     7
 10
227.73027999999999
 20
52.475459999999991
 30
0.0
 11
233.74999999999989
 21
49.0
 31
0.0
  0
LINE
  5
19E
  8
DATA
  6
CONTINUOUS
 62
     7
 10
233.74999999999989
 20
49.000019999999999
 30
0.0
 11
235.25
 21
49.0
 31
0.0
  0
LINE
  5
19F
  8
DATA
  6
CONTINUOUS
 62
     7
 10
227.73027999999999
 20
52.475470000000001
 30
0.0
 11
226.98027999999991
 21
53.774509999999999
 31
0.0
  0
LINE
  5
1A0
  8
DATA
  6
CONTINUOUS
 62
     7
 10
241.26972000000001
 20
52.47551
 30
0.0
 11
242.01974999999999
 21
53.774550000000012
 31
0.0
  0
LINE
  5
1A1
  8
DATA
  6
CONTINUOUS
 62
     7
 10
241.26982000000001
 20
62.02429999999999
 30
0.0
 11
235.25
 21
65.5
 31
0.0
  0
LINE
  5
1A2
  8
DATA
  6
CONTINUOUS
 62
     7
 10
233.74999999999989
 20
65.500010000000003
 30
0.0
 11
227.73034000000001
 21
62.024639999999998
 31
0.0
  0
LINE
  5
1A3
  8
DATA
  6
CONTINUOUS
 62
     7
 10
226.9803299999999
 20
60.725610000000003
 30
0.0
 11
227.73036999999999
 21
62.02467
 31
0.0
  0
LINE
  5
1A4
  8
DATA
  6
CONTINUOUS
 62
     7
 10
242.01979
 20
60.725259999999999
 30
0.0
 11
241.26982000000001
 21
62.024320000000003
 31
0.0
  0
LINE
  5
1A5
  8
DATA
  6
CONTINUOUS
 62
     7
 10
246.49995999999999
 20
57.250019999999999
 30
0.0
 11
250.49999999999989
 21
57.25
 31
0.0
  0
LINE
  5
1A6
  8
DATA
  6
CONTINUOUS
 62
     7
 10
208.99995999999999
 20
110.7500099999999
 30
0.0
 11
260.00002000000001
 21
110.7500099999999
 31
0.0
  0
LINE
  5
1A7
  8
DATA
  6
CONTINUOUS
 62
     7
 10
205.49995000000001
 20
114.50001
 30
0.0
 11
263.50002999999998
 21
114.50001
 31
0.0
  0
LINE
  5
1A8
  8
DATA
  6
CONTINUOUS
 62
     7
 10
217.5
 20
81.000020000000006
 30
0.0
 11
221.49999999999989
 21
81.0
 31
0.0
  0
CIRCLE
  5
1A9
  8
DATA
  6
CONTINUOUS
 62
     7
 10
219.49999999999989
 20
81.000010000000003
 30
0.0
 40
3.5
  0
LINE
  5
1AA
  8
DATA
  6
CONTINUOUS
 62
     7
 10
219.49999999999989
 20
79.000020000000006
 30
0.0
 11
219.49999999999989
 21
83.0
 31
0.0
  0
LINE
  5
1AB
  8
DATA
  6
CONTINUOUS
 62
     7
 10
204.75731999999991
 20
108.99266
 30
0.0
 11
201.13414
 21
112.61579999999989
 31
0.0
  0
ARC
  5
1AC
  8
DATA
  6
CONTINUOUS
 62
     7
 10
205.4999599999999
 20
108.5000399999999
 30
0.0
 40
5.9999500000000001
 50
90.0
 51
180.0
  0
ARC
  5
1AD
  8
DATA
  6
CONTINUOUS
 62
     7
 10
208.99995999999999
 20
104.75004
 30
0.0
 40
5.9999500000000001
 50
90.0
 51
180.0
  0
CIRCLE
  5
1AE
  8
DATA
  6
CONTINUOUS
 62
     7
 10
234.5
 20
98.799999999999997
 30
0.0
 40
3.75
  0
CIRCLE
  5
1AF
  8
DATA
  6
CONTINUOUS
 62
     7
 10
234.5
 20
98.799999999999997
 30
0.0
 40
2.6000000000000001
  0
LINE
  5
1B0
  8
DATA
  6
CONTINUOUS
 62
     7
 10
233.74999999999989
 20
65.500010000000003
 30
0.0
 11
235.25
 21
65.499989999999997
 31
0.0
  0
LINE
  5
1B1
  8
DATA
  6
CONTINUOUS
 62
     7
 10
-19.86785999999999
 20
180.85001
 30
0.0
 11
36.591979999999992
 21
180.85001
 31
0.0
  0
LINE
  5
1B2
  8
DATA
  6
CONTINUOUS
 62
     7
 10
-18.197759999999999
 20
178.35000999999991
 30
0.0
 11
36.09198
 21
178.35000999999991
 31
0.0
  0
LINE
  5
1B3
  8
DATA
  6
CONTINUOUS
 62
     7
 10
-70.976850000000013
 20
142.24001999999999
 30
0.0
 11
-57.884469999999993
 21
163.17482000000001
 31
0.0
  0
LINE
  5
1B4
  8
DATA
  6
CONTINUOUS
 62
     7
 10
-51.932029999999997
 20
168.1277299999999
 30
0.0
 11
-40.586109999999991
 21
177.64813000000001
 31
0.0
  0
ARC
  5
1B5
  8
DATA
  6
CONTINUOUS
 62
     7
 10
-38.657749999999993
 20
175.35001
 30
0.0
 40
2.9999600000000002
 50
90.0
 51
130.00049054140911
  0
LINE
  5
1B6
  8
DATA
  6
CONTINUOUS
 62
     7
 10
-52.584869999999988
 20
170.56399999999999
 30
0.0
 11
-41.720649999999999
 21
179.68021999999991
 31
0.0
  0
ARC
  5
1B7
  8
DATA
  6
CONTINUOUS
 62
     7
 10
-38.506709999999998
 20
175.84997999999999
 30
0.0
 40
5.0
 50
90.0
 51
130.0000334509318
  0
LINE
  5
1B8
  8
DATA
  6
CONTINUOUS
 62
     7
 10
-58.608110000000011
 20
162.01769999999991
 30
0.0
 11
-56.895870000000002
 21
161.17508000000001
 31
0.0
  0
LINE
  5
1B9
  8
DATA
  6
CONTINUOUS
 62
     7
 10
-61.167309999999979
 20
163.27712999999989
 30
0.0
 11
-60.850270000000002
 21
163.1211099999999
 31
0.0
  0
LINE
  5
1BA
  8
DATA
  6
CONTINUOUS
 62
     7
 10
-55.159559999999999
 20
165.41947999999991
 30
0.0
 11
-53.065660000000008
 21
164.38903999999999
 31
0.0
  0
LINE
  5
1BB
  8
DATA
  6
CONTINUOUS
 62
     7
 10
-57.380230000000012
 20
169.29858999999999
 30
0.0
 11
-55.305250000000001
 21
168.28130999999991
 31
0.0
  0
LINE
  5
1BC
  8
DATA
  6
CONTINUOUS
 62
     7
 10
-61.210430000000002
 20
166.08466999999999
 30
0.0
 11
-59.135449999999992
 21
165.06740999999991
 31
0.0
  0
LINE
  5
1BD
  8
DATA
  6
CONTINUOUS
 62
     7
 10
-62.382370000000009
 20
160.67133000000001
 30
0.0
 11
-60.350349999999992
 21
163.92051000000001
 31
0.0
  0
ARC
  5
1BE
  8
DATA
  6
CONTINUOUS
 62
     7
 10
-58.654649999999997
 20
162.85999000000001
 30
0.0
 40
2.0000200000000001
 50
130.0005233108827
 51
147.97767234106351
  0
ARC
  5
1BF
  8
DATA
  6
CONTINUOUS
 62
     7
 10
-61.760729999999988
 20
164.96231
 30
0.0
 40
1.2500100000000001
 50
334.9993886246146
 51
155.00082858976171
  0
LINE
  5
1C0
  8
DATA
  6
CONTINUOUS
 62
     7
 10
-56.29061999999999
 20
174.73501999999991
 30
0.0
 11
-53.73704
 21
165.20490000000001
 31
0.0
  0
LINE
  5
1C1
  8
DATA
  6
CONTINUOUS
 62
     7
 10
-53.88082
 20
175.40041999999991
 30
0.0
 11
-51.32221999999998
 21
165.85195999999991
 31
0.0
  0
ARC
  5
1C2
  8
DATA
  6
CONTINUOUS
 62
     7
 10
-55.08438000000001
 20
175.06287
 30
0.0
 40
1.2499800000000001
 50
14.795683575405659
 51
195.20563004496989
  0
LINE
  5
1C3
  8
DATA
  6
CONTINUOUS
 62
     7
 10
-59.136799999999987
 20
167.84841999999989
 30
0.0
 11
-57.567259999999997
 21
161.99093999999999
 31
0.0
  0
LINE
  5
1C4
  8
DATA
  6
CONTINUOUS
 62
     7
 10
-56.721989999999998
 20
168.49549999999991
 30
0.0
 11
-55.152449999999988
 21
162.63802000000001
 31
0.0
  0
ARC
  5
1C5
  8
DATA
  6
CONTINUOUS
 62
     7
 10
-56.359849999999987
 20
162.31451999999999
 30
0.0
 40
1.2500100000000001
 50
194.999680607947
 51
14.99923786258557
  0
ARC
  5
1C6
  8
DATA
  6
CONTINUOUS
 62
     7
 10
-57.930529999999997
 20
168.1762699999999
 30
0.0
 40
1.25
 50
14.795892635141129
 51
195.20538960075089
  0
ARC
  5
1C7
  8
DATA
  6
CONTINUOUS
 62
     7
 10
-52.529640000000001
 20
165.52848
 30
0.0
 40
1.2500100000000001
 50
194.999680607947
 51
14.99923786258557
  0
LINE
  5
1C8
  8
DATA
  6
CONTINUOUS
 62
     7
 10
-59.940249999999992
 20
164.39203000000001
 30
0.0
 11
-58.528130000000012
 21
165.57696999999999
 31
0.0
  0
LINE
  5
1C9
  8
DATA
  6
CONTINUOUS
 62
     7
 10
-55.762259999999998
 20
164.91376999999989
 30
0.0
 11
-54.045080000000013
 21
166.35464999999991
 31
0.0
  0
LINE
  5
1CA
  8
DATA
  6
CONTINUOUS
 62
     7
 10
-56.415060000000011
 20
167.3500699999999
 30
0.0
 11
-54.697920000000011
 21
168.79093
 31
0.0
  0
LINE
  5
1CB
  8
DATA
  6
CONTINUOUS
 62
     7
 10
-38.657759999999989
 20
178.35000999999991
 30
0.0
 11
-26.947659999999988
 21
178.35000999999991
 31
0.0
  0
LINE
  5
1CC
  8
DATA
  6
CONTINUOUS
 62
     7
 10
-38.506709999999998
 20
180.85001
 30
0.0
 11
-28.617850000000001
 21
180.85001
 31
0.0
  0
ARC
  5
1CD
  8
DATA
  6
CONTINUOUS
 62
     7
 10
-20.338629999999991
 20
185.21001000000001
 30
0.0
 40
9.3213200000000001
 50
142.99777511679989
 51
217.0022248832
  0
ARC
  5
1CE
  8
DATA
  6
CONTINUOUS
 62
     7
 10
-11.588679999999989
 20
185.21001000000001
 30
0.0
 40
9.3213200000000001
 50
142.99777511679989
 51
217.0022248832
  0
ARC
  5
1CF
  8
DATA
  6
CONTINUOUS
 62
     7
 10
-26.476929999999989
 20
173.9900099999999
 30
0.0
 40
9.3213200000000001
 50
322.99777511679991
 51
37.002224883200029
  0
ARC
  5
1D0
  8
DATA
  6
CONTINUOUS
 62
     7
 10
-35.226879999999987
 20
173.9900099999999
 30
0.0
 40
9.3213200000000001
 50
322.99777511679991
 51
37.002224883200029
  0
ARC
  5
1D1
  8
DATA
  6
CONTINUOUS
 62
     7
 10
36.092210000000001
 20
175.35001
 30
0.0
 40
3.0000200000000001
 50
0.0
 51
90.0
  0
ARC
  5
1D2
  8
DATA
  6
CONTINUOUS
 62
     7
 10
36.592210000000001
 20
175.84997999999999
 30
0.0
 40
5.0000200000000001
 50
0.0
 51
90.0
  0
LINE
  5
1D3
  8
DATA
  6
CONTINUOUS
 62
     7
 10
269.49999000000003
 20
108.50005
 30
0.0
 11
269.49999000000003
 21
5.9999699999999896
 31
0.0
  0
LINE
  5
1D4
  8
DATA
  6
CONTINUOUS
 62
     7
 10
265.99999000000003
 20
104.75004
 30
0.0
 11
265.99999000000003
 21
9.7499799999999937
 31
0.0
  0
TEXT
  5
1D5
  8
DATA
 62
     7
 10
248.02005999999989
 20
-234.34010000000001
 30
0.0
 40
5.19198
  1
N.SASAKI
 11
248.02005999999989
 21
-229.14812000000001
 31
0.0
 73
     3
  0
ENDSEC
  0
EOF
