  0
SECTION
  2
HEADER
  9
$ACADVER
  1
AC1009
  9
$INSBASE
 10
0.0
 20
0.0
 30
0.0
  9
$EXTMIN
 10
-260.02195033601117
 20
-396.65727040673067
 30
-0.0015258207003583
  9
$EXTMAX
 10
460.02195416690301
 20
670.67755901634337
 30
0.0000000349246037
  9
$LIMMIN
 10
0.0
 20
0.0
  9
$LIMMAX
 10
0.0
 20
0.0
  9
$ORTHOMODE
 70
     0
  9
$REGENMODE
 70
     1
  9
$FILLMODE
 70
     1
  9
$QTEXTMODE
 70
     0
  9
$MIRRTEXT
 70
     1
  9
$DRAGMODE
 70
     2
  9
$LTSCALE
 40
20.32
  9
$OSMODE
 70
   167
  9
$ATTMODE
 70
     1
  9
$TEXTSIZE
 40
0.0
  9
$TRACEWID
 40
1.0
  9
$TEXTSTYLE
  7
STANDARD
  9
$CLAYER
  8
0
  9
$CELTYPE
  6
CONTINUOUS
  9
$CECOLOR
 62
   256
  9
$DIMSCALE
 40
1.0
  9
$DIMASZ
 40
0.18
  9
$DIMEXO
 40
0.0625
  9
$DIMDLI
 40
0.38
  9
$DIMRND
 40
0.0
  9
$DIMDLE
 40
0.0
  9
$DIMEXE
 40
0.18
  9
$DIMTP
 40
0.0
  9
$DIMTM
 40
0.0
  9
$DIMTXT
 40
0.18
  9
$DIMCEN
 40
0.09
  9
$DIMTSZ
 40
0.0
  9
$DIMTOL
 70
     0
  9
$DIMLIM
 70
     0
  9
$DIMTIH
 70
     1
  9
$DIMTOH
 70
     1
  9
$DIMSE1
 70
     0
  9
$DIMSE2
 70
     0
  9
$DIMTAD
 70
     0
  9
$DIMZIN
 70
     0
  9
$DIMBLK
  1

  9
$DIMASO
 70
     1
  9
$DIMSHO
 70
     1
  9
$DIMPOST
  1

  9
$DIMAPOST
  1

  9
$DIMALT
 70
     0
  9
$DIMALTD
 70
     2
  9
$DIMALTF
 40
25.399999999999999
  9
$DIMLFAC
 40
1.0
  9
$DIMTOFL
 70
     0
  9
$DIMTVP
 40
0.0
  9
$DIMTIX
 70
     0
  9
$DIMSOXD
 70
     0
  9
$DIMSAH
 70
     0
  9
$DIMBLK1
  1

  9
$DIMBLK2
  1

  9
$DIMSTYLE
  2
STANDARD
  9
$DIMCLRD
 70
     0
  9
$DIMCLRE
 70
     0
  9
$DIMCLRT
 70
     0
  9
$DIMTFAC
 40
1.0
  9
$DIMGAP
 40
0.09
  9
$LUNITS
 70
     2
  9
$LUPREC
 70
     4
  9
$SKETCHINC
 40
0.1
  9
$FILLETRAD
 40
0.0
  9
$AUNITS
 70
     0
  9
$AUPREC
 70
     0
  9
$MENU
  1
acad
  9
$ELEVATION
 40
0.0
  9
$PELEVATION
 40
0.0
  9
$THICKNESS
 40
0.0
  9
$LIMCHECK
 70
     0
  9
$BLIPMODE
 70
     0
  9
$CHAMFERA
 40
0.0
  9
$CHAMFERB
 40
0.0
  9
$SKPOLY
 70
     0
  9
$TDCREATE
 40
2452107.6042592591
  9
$TDUPDATE
 40
2452107.607249537
  9
$TDINDWG
 40
0.0024480324
  9
$TDUSRTIMER
 40
0.0024480324
  9
$USRTIMER
 70
     1
  9
$ANGBASE
 50
0.0
  9
$ANGDIR
 70
     0
  9
$PDMODE
 70
     1
  9
$PDSIZE
 40
-2.0
  9
$PLINEWID
 40
0.0
  9
$COORDS
 70
     0
  9
$SPLFRAME
 70
     0
  9
$SPLINETYPE
 70
     6
  9
$SPLINESEGS
 70
     8
  9
$ATTDIA
 70
     0
  9
$ATTREQ
 70
     1
  9
$HANDLING
 70
-16383
  9
$HANDSEED
  5
190
  9
$SURFTAB1
 70
     6
  9
$SURFTAB2
 70
     6
  9
$SURFTYPE
 70
     6
  9
$SURFU
 70
     6
  9
$SURFV
 70
     6
  9
$UCSNAME
  2

  9
$UCSORG
 10
0.0
 20
0.0
 30
0.0
  9
$UCSXDIR
 10
1.0
 20
0.0
 30
0.0
  9
$UCSYDIR
 10
0.0
 20
1.0
 30
0.0
  9
$PUCSNAME
  2

  9
$PUCSORG
 10
0.0
 20
0.0
 30
0.0
  9
$PUCSXDIR
 10
1.0
 20
0.0
 30
0.0
  9
$PUCSYDIR
 10
0.0
 20
1.0
 30
0.0
  9
$USERI1
 70
     0
  9
$USERI2
 70
     0
  9
$USERI3
 70
     0
  9
$USERI4
 70
     0
  9
$USERI5
 70
     0
  9
$USERR1
 40
0.0
  9
$USERR2
 40
0.0
  9
$USERR3
 40
0.0
  9
$USERR4
 40
0.0
  9
$USERR5
 40
0.0
  9
$WORLDVIEW
 70
     1
  9
$SHADEDGE
 70
     3
  9
$SHADEDIF
 70
    70
  9
$TILEMODE
 70
     1
  9
$MAXACTVP
 70
    16
  9
$PLIMCHECK
 70
     0
  9
$PEXTMIN
 10
1.0000000000000000E+020
 20
1.0000000000000000E+020
 30
1.0000000000000000E+020
  9
$PEXTMAX
 10
-1.0000000000000000E+020
 20
-1.0000000000000000E+020
 30
-1.0000000000000000E+020
  9
$PLIMMIN
 10
0.0
 20
0.0
  9
$PLIMMAX
 10
12.0
 20
9.0
  9
$UNITMODE
 70
     0
  9
$VISRETAIN
 70
     0
  9
$PLINEGEN
 70
     1
  9
$PSLTSCALE
 70
     0
  0
ENDSEC
  0
SECTION
  2
TABLES
  0
TABLE
  2
VPORT
 70
     2
  0
VPORT
  2
*ACTIVE
 70
     0
 10
0.0
 20
0.0
 11
1.0
 21
1.0
 12
100.00000191544579
 22
137.01014430480629
 13
0.0
 23
0.0
 14
1.0
 24
1.0
 15
0.0
 25
0.0
 16
0.0
 26
0.0
 36
1.0
 17
0.0
 27
0.0
 37
0.0
 40
1079.5791509662899
 41
1.414048059149722
 42
50.0
 43
0.0
 44
0.0
 50
0.0
 51
0.0
 71
     0
 72
   100
 73
     1
 74
     1
 75
     0
 76
     0
 77
     0
 78
     0
  0
ENDTAB
  0
TABLE
  2
LTYPE
 70
    11
  0
LTYPE
  2
CONTINUOUS
 70
     0
  3
Solid line
 72
    65
 73
     0
 40
0.0
  0
LTYPE
  2
STYLE_01
 70
     0
  3

 72
    65
 73
     2
 40
0.4166412353515625
 49
0.208282470703125
 49
-0.2083587646484375
  0
LTYPE
  2
STYLE_02
 70
     0
  3

 72
    65
 73
     2
 40
0.694427490234375
 49
0.4860687255859375
 49
-0.2083587646484375
  0
LTYPE
  2
STYLE_03
 70
     0
  3

 72
    65
 73
     2
 40
1.25
 49
1.0416412353515621
 49
-0.2083587646484375
  0
LTYPE
  2
STYLE_04
 70
     0
  3

 72
    65
 73
     2
 40
1.5277099609375
 49
1.319427490234375
 49
-0.208282470703125
  0
LTYPE
  2
STYLE_05
 70
     0
  3

 72
    65
 73
     2
 40
0.208282470703125
 49
0.069427490234375
 49
-0.13885498046875
  0
LTYPE
  2
STYLE_06
 70
     0
  3

 72
    65
 73
     4
 40
1.0416412353515621
 49
0.625
 49
-0.208282470703125
 49
0.069427490234375
 49
-0.1389312744140625
  0
LTYPE
  2
STYLE_07
 70
     0
  3

 72
    65
 73
     6
 40
1.875
 49
0.625
 49
-0.208282470703125
 49
0.625
 49
-0.2083587646484375
 49
0.069427490234375
 49
-0.1389312744140625
  0
LTYPE
  2
STYLE_08
 70
     0
  3

 72
    65
 73
     6
 40
1.25
 49
0.625
 49
-0.208282470703125
 49
0.069427490234375
 49
-0.1389312744140625
 49
0.069427490234375
 49
-0.1389312744140625
  0
LTYPE
  2
STYLE_09
 70
     0
  3

 72
    65
 73
     4
 40
5.0
 49
3.75
 49
-0.2777862548828125
 49
0.694427490234375
 49
-0.2777862548828125
  0
LTYPE
  2
STYLE_10
 70
     0
  3

 72
    65
 73
     6
 40
5.9375
 49
3.75
 49
-0.2777862548828125
 49
0.694427490234375
 49
-0.2777862548828125
 49
0.625
 49
-0.3125
  0
ENDTAB
  0
TABLE
  2
LAYER
 70
     5
  0
LAYER
  2
0
 70
     0
 62
     7
  6
CONTINUOUS
  0
LAYER
  2
HIBINO-BASE
 70
     0
 62
     7
  6
CONTINUOUS
  0
LAYER
  2
SPEC
 70
     0
 62
     7
  6
CONTINUOUS
  0
LAYER
  2
DIMNSIONS
 70
     0
 62
     7
  6
CONTINUOUS
  0
LAYER
  2
DATA
 70
     0
 62
     7
  6
CONTINUOUS
  0
ENDTAB
  0
TABLE
  2
STYLE
 70
     2
  0
STYLE
  2
STANDARD
 70
     0
 40
0.0
 41
1.0
 50
0.0
 71
     0
 42
0.0
  3
txt
  4
BIGFONT.SHX
  0
STYLE
  2
_______
 70
     0
 40
18.712899999999991
 41
1.0
 50
0.0
 71
     0
 42
18.712899999999991
  3
ＭＳ ゴシック
  4

  0
ENDTAB
  0
TABLE
  2
VIEW
 70
     0
  0
ENDTAB
  0
TABLE
  2
UCS
 70
     0
  0
ENDTAB
  0
TABLE
  2
APPID
 70
     1
  0
APPID
  2
ACAD
 70
     0
  0
ENDTAB
  0
TABLE
  2
DIMSTYLE
 70
     1
  0
DIMSTYLE
  2
STANDARD
 70
     0
  3

  4

  5

  6

  7

 40
1.0
 41
0.18
 42
0.0625
 43
0.38
 44
0.18
 45
0.0
 46
0.0
 47
0.0
 48
0.0
140
0.18
141
0.09
142
0.0
143
25.399999999999999
144
1.0
145
0.0
146
1.0
147
0.09
 71
     0
 72
     0
 73
     1
 74
     1
 75
     0
 76
     0
 77
     0
 78
     0
170
     0
171
     2
172
     0
173
     0
174
     0
175
     0
176
     0
177
     0
178
     0
  0
ENDTAB
  0
ENDSEC
  0
SECTION
  2
BLOCKS
  0
BLOCK
  8
0
  2
$MODEL_SPACE
 70
     0
 10
0.0
 20
0.0
 30
0.0
  3
$MODEL_SPACE
  1

  0
ENDBLK
  5
186
  8
0
  0
BLOCK
 67
     1
  8
0
  2
$PAPER_SPACE
 70
     0
 10
0.0
 20
0.0
 30
0.0
  3
$PAPER_SPACE
  1

  0
ENDBLK
  5
184
 67
     1
  8
0
  0
BLOCK
  8
DIMNSIONS
  2
*U0
 70
     1
 10
0.0
 20
0.0
 30
0.0
  3
*U0
  1

  0
TEXT
  5
32
  8
DIMNSIONS
 62
     0
 10
68.177779999999984
 20
-143.22219000000001
 30
0.0
 40
11.28887999999999
  1
19.2
 50
90.0
  7
_______
 11
56.888899999999992
 21
-143.22219000000001
 31
0.0
 73
     3
  0
ENDBLK
  5
33
  8
DIMNSIONS
  0
BLOCK
  8
DIMNSIONS
  2
*U1
 70
     1
 10
0.0
 20
0.0
 30
0.0
  3
*U1
  1

  0
TEXT
  5
35
  8
DIMNSIONS
 62
     0
 10
-254.3494749618996
 20
-216.33602118034639
 30
0.0
 40
11.28887999999999
  1
37
 50
295.0005046176388
  7
_______
 11
-244.11831712971599
 21
-211.56504422930709
 31
0.0
 73
     3
  0
ENDBLK
  5
36
  8
DIMNSIONS
  0
BLOCK
  8
DIMNSIONS
  2
*U2
 70
     1
 10
0.0
 20
0.0
 30
0.0
  3
*U2
  1

  0
TEXT
  5
38
  8
DIMNSIONS
 62
     0
 10
-188.6927365352918
 20
-237.44220832493849
 30
0.0
 40
11.28887999999999
  1
13.8
 50
25.00047878654431
  7
_______
 11
-193.46370887373951
 21
-227.21104834181989
 31
0.0
 73
     3
  0
ENDBLK
  5
39
  8
DIMNSIONS
  0
BLOCK
  8
DIMNSIONS
  2
*U3
 70
     1
 10
0.0
 20
0.0
 30
0.0
  3
*U3
  1

  0
TEXT
  5
3B
  8
DIMNSIONS
 62
     0
 10
-37.388874999999999
 20
-33.177799999999991
 30
0.0
 40
11.28887999999999
  1
130.5
  7
_______
 11
-37.388874999999999
 21
-21.888919999999999
 31
0.0
 73
     3
  0
ENDBLK
  5
3C
  8
DIMNSIONS
  0
BLOCK
  8
DIMNSIONS
  2
*U4
 70
     1
 10
0.0
 20
0.0
 30
0.0
  3
*U4
  1

  0
TEXT
  5
3E
  8
DIMNSIONS
 62
     0
 10
-112.05553499999991
 20
-33.177799999999991
 30
0.0
 40
11.28887999999999
  1
40
  7
_______
 11
-112.05553499999991
 21
-21.888919999999999
 31
0.0
 73
     3
  0
ENDBLK
  5
3F
  8
DIMNSIONS
  0
ENDSEC
  0
SECTION
  2
ENTITIES
  0
LINE
  5
40
  8
HIBINO-BASE
  6
CONTINUOUS
 62
     0
 10
-259.99998999999991
 20
670.59542999999996
 30
0.0
 11
459.99998999999991
 21
670.59542999999996
 31
0.0
  0
LINE
  5
41
  8
HIBINO-BASE
  6
CONTINUOUS
 62
     0
 10
459.99998999999991
 20
-369.40454999999992
 30
0.0
 11
-259.99998999999991
 21
-369.40454999999992
 31
0.0
  0
LINE
  5
42
  8
HIBINO-BASE
  6
CONTINUOUS
 62
     0
 10
-259.99998999999991
 20
-369.40454999999992
 30
0.0
 11
-259.99998999999991
 21
670.59542999999996
 31
0.0
  0
TEXT
  5
43
  8
HIBINO-BASE
 62
     7
 10
-231.26397999999989
 20
-393.91647
 30
0.0
 40
14.97031999999999
  1
Hibino Corporation
  7
_______
 11
-231.26397999999989
 21
-378.94614999999988
 31
0.0
 73
     3
  0
LINE
  5
44
  8
HIBINO-BASE
  6
CONTINUOUS
 62
     0
 10
459.99998999999991
 20
670.59542999999996
 30
0.0
 11
459.99998999999991
 21
-369.40454999999992
 31
0.0
  0
LINE
  5
45
  8
HIBINO-BASE
  6
CONTINUOUS
 62
     0
 10
100.0
 20
-279.40454999999992
 30
0.0
 11
459.99998999999991
 21
-279.40454999999992
 31
0.0
  0
LINE
  5
46
  8
HIBINO-BASE
  6
CONTINUOUS
 62
     0
 10
100.0
 20
-369.40454999999992
 30
0.0
 11
100.0
 21
-279.40454999999992
 31
0.0
  0
TEXT
  5
47
  8
HIBINO-BASE
 62
     7
 10
103.5999799999999
 20
-289.64317399999999
 30
0.0
 40
7.4851840000000003
  1
NOTE
  7
_______
 11
103.5999799999999
 21
-282.15798999999993
 31
0.0
 73
     3
  0
LINE
  5
48
  8
HIBINO-BASE
  6
CONTINUOUS
 62
     0
 10
240.0
 20
-369.40454999999992
 30
0.0
 11
240.0
 21
-279.40454999999992
 31
0.0
  0
TEXT
  5
49
  8
HIBINO-BASE
 62
     7
 10
243.59999999999991
 20
-289.64317399999999
 30
0.0
 40
7.4851840000000003
  1
TITLE
  7
_______
 11
243.59999999999991
 21
-282.15798999999993
 31
0.0
 73
     3
  0
TEXT
  5
4A
  8
HIBINO-BASE
 62
     0
 10
300.27353999999991
 20
-393.91647
 30
0.0
 40
14.97031999999999
  1
ヒビノ株式会社
  7
_______
 11
300.27353999999991
 21
-378.94614999999988
 31
0.0
 73
     3
  0
LINE
  5
4B
  8
HIBINO-BASE
  6
CONTINUOUS
 62
     0
 10
100.0
 20
-329.40454999999992
 30
0.0
 11
459.99998999999991
 21
-329.40454999999992
 31
0.0
  0
TEXT
  5
4C
  8
HIBINO-BASE
 62
     0
 10
293.59999999999991
 20
-339.41789399999988
 30
0.0
 40
7.4851840000000003
  1
DRAWN
  7
_______
 11
293.59999999999991
 21
-331.93270999999987
 31
0.0
 73
     3
  0
TEXT
  5
4D
  8
HIBINO-BASE
 62
     0
 10
193.59999999999991
 20
-339.41789399999988
 30
0.0
 40
7.4851840000000003
  1
DATE
  7
_______
 11
193.59999999999991
 21
-331.93270999999987
 31
0.0
 73
     3
  0
TEXT
  5
4E
  8
HIBINO-BASE
 62
     0
 10
104.3999899999999
 20
-339.37435799999992
 30
0.0
 40
6.7733279999999993
  1
図面サイズ
  7
_______
 11
104.3999899999999
 21
-332.60102999999998
 31
0.0
 73
     3
  0
TEXT
  5
4F
  8
HIBINO-BASE
 62
     0
 10
153.59998999999999
 20
-339.41789399999988
 30
0.0
 40
7.4851840000000003
  1
SCALE
  7
_______
 11
153.59998999999999
 21
-331.93270999999987
 31
0.0
 73
     3
  0
TEXT
  5
50
  8
HIBINO-BASE
 62
     0
 10
243.59999999999991
 20
-339.41789399999988
 30
0.0
 40
7.4851840000000003
  1
DESIGN
  7
_______
 11
243.59999999999991
 21
-331.93270999999987
 31
0.0
 73
     3
  0
TEXT
  5
51
  8
HIBINO-BASE
 62
     0
 10
393.59998999999999
 20
-339.41789399999988
 30
0.0
 40
7.4851840000000003
  1
DRAWING NO.
  7
_______
 11
393.59998999999999
 21
-331.93270999999987
 31
0.0
 73
     3
  0
TEXT
  5
52
  8
HIBINO-BASE
 62
     0
 10
343.59998999999999
 20
-339.41789399999988
 30
0.0
 40
7.4851840000000003
  1
CHECK
  7
_______
 11
343.59998999999999
 21
-331.93270999999987
 31
0.0
 73
     3
  0
LINE
  5
53
  8
HIBINO-BASE
  6
CONTINUOUS
 62
     0
 10
157.49998999999991
 20
-364.40454999999992
 30
0.0
 11
172.5
 21
-349.40454999999992
 31
0.0
  0
TEXT
  5
54
  8
HIBINO-BASE
 62
     0
 10
154.99998999999991
 20
-355.59008399999988
 30
0.0
 40
9.0311039999999991
  1
1
  7
_______
 11
154.99998999999991
 21
-346.55897999999991
 31
0.0
 73
     3
  0
LINE
  5
55
  8
HIBINO-BASE
  6
CONTINUOUS
 62
     0
 10
149.99998999999991
 20
-369.40454999999992
 30
0.0
 11
149.99998999999991
 21
-329.40454999999992
 31
0.0
  0
LINE
  5
56
  8
HIBINO-BASE
  6
CONTINUOUS
 62
     0
 10
189.99998999999991
 20
-369.40454999999992
 30
0.0
 11
189.99998999999991
 21
-329.40454999999992
 31
0.0
  0
LINE
  5
57
  8
HIBINO-BASE
  6
CONTINUOUS
 62
     0
 10
289.99998999999991
 20
-329.40454999999992
 30
0.0
 11
289.99998999999991
 21
-369.40454999999992
 31
0.0
  0
LINE
  5
58
  8
HIBINO-BASE
  6
CONTINUOUS
 62
     0
 10
390.0
 20
-329.40454999999992
 30
0.0
 11
390.0
 21
-369.40454999999992
 31
0.0
  0
LINE
  5
59
  8
HIBINO-BASE
  6
CONTINUOUS
 62
     0
 10
339.99997999999988
 20
-369.40454999999992
 30
0.0
 11
339.99997999999988
 21
-329.40454999999992
 31
0.0
  0
TEXT
  5
5A
  8
HIBINO-BASE
 62
     0
 10
115.64355999999989
 20
-358.3947
 30
0.0
 40
13.54664
  1
A4
  7
_______
 11
115.64355999999989
 21
-344.84805999999992
 31
0.0
 73
     3
  0
TEXT
  5
5B
  8
HIBINO-BASE
 62
     0
 10
193.4261599999999
 20
-358.15380399999992
 30
0.0
 40
7.4851840000000003
  1
'01.07.
  7
_______
 11
193.4261599999999
 21
-350.66861999999992
 31
0.0
 73
     3
  0
TEXT
  5
5C
  8
HIBINO-BASE
 62
     0
 10
170.0
 20
-363.09008399999988
 30
0.0
 40
9.0311039999999991
  1
4
  7
_______
 11
170.0
 21
-354.05897999999991
 31
0.0
 73
     3
  0
LINE
  5
5D
  8
SPEC
  6
CONTINUOUS
 62
     0
 10
-229.99997999999999
 20
630.59542999999985
 30
0.0
 11
199.99998999999991
 21
630.59542999999985
 31
0.0
  0
LINE
  5
5E
  8
SPEC
  6
CONTINUOUS
 62
     0
 10
-229.99997999999999
 20
615.59542999999985
 30
0.0
 11
199.99998999999991
 21
615.59542999999985
 31
0.0
  0
LINE
  5
5F
  8
SPEC
  6
CONTINUOUS
 62
     0
 10
-229.99998999999991
 20
630.59542999999985
 30
0.0
 11
-229.99998999999991
 21
405.59544
 31
0.0
  0
TEXT
  5
60
  8
SPEC
 62
     0
 10
-224.99997999999991
 20
636.93052
 30
0.0
 40
10.16
  1
仕様
  7
_______
 11
-224.99997999999991
 21
647.09051999999986
 31
0.0
 73
     3
  0
LINE
  5
61
  8
SPEC
  6
CONTINUOUS
 62
     0
 10
-99.999989999999983
 20
630.59542999999985
 30
0.0
 11
-99.999989999999983
 21
405.59544
 31
0.0
  0
LINE
  5
62
  8
SPEC
  6
CONTINUOUS
 62
     0
 10
199.99998999999991
 20
630.59542999999985
 30
0.0
 11
199.99998999999991
 21
405.59544
 31
0.0
  0
TEXT
  5
63
  8
SPEC
 62
     0
 10
-226.39997999999991
 20
619.33980399999984
 30
0.0
 40
7.9022160000000001
  1
形式
  7
_______
 11
-226.39997999999991
 21
627.24201999999991
 31
0.0
 73
     3
  0
TEXT
  5
64
  8
SPEC
 62
     0
 10
-226.39997999999991
 20
604.33980399999984
 30
0.0
 40
7.9022160000000001
  1
指向特性
  7
_______
 11
-226.39997999999991
 21
612.24201999999991
 31
0.0
 73
     3
  0
TEXT
  5
65
  8
SPEC
 62
     0
 10
-226.39997999999991
 20
589.33980399999996
 30
0.0
 40
7.9022160000000001
  1
周波数特性
  7
_______
 11
-226.39997999999991
 21
597.24201999999991
 31
0.0
 73
     3
  0
TEXT
  5
66
  8
SPEC
 62
     0
 10
-226.39997999999991
 20
574.33980399999984
 30
0.0
 40
7.9022160000000001
  1
インピーダンス
  7
_______
 11
-226.39997999999991
 21
582.2420199999998
 31
0.0
 73
     3
  0
TEXT
  5
67
  8
SPEC
 62
     0
 10
-226.39997999999991
 20
559.33980399999984
 30
0.0
 40
7.9022160000000001
  1
開回路感度
  7
_______
 11
-226.39997999999991
 21
567.24201999999991
 31
0.0
 73
     3
  0
TEXT
  5
68
  8
SPEC
 62
     0
 10
-226.39997999999991
 20
544.33980399999984
 30
0.0
 40
7.9022160000000001
  1
等価雑音レベル
  7
_______
 11
-226.39997999999991
 21
552.24201999999991
 31
0.0
 73
     3
  0
TEXT
  5
69
  8
SPEC
 62
     0
 10
-226.39997999999991
 20
529.33980399999984
 30
0.0
 40
7.9022160000000001
  1
最大音圧レベル
  7
_______
 11
-226.39997999999991
 21
537.24201999999991
 31
0.0
 73
     3
  0
TEXT
  5
6A
  8
SPEC
 62
     0
 10
-226.39997999999991
 20
514.33980399999996
 30
0.0
 40
7.9022160000000001
  1
電源
  7
_______
 11
-226.39997999999991
 21
522.24201999999991
 31
0.0
 73
     3
  0
TEXT
  5
6B
  8
SPEC
 62
     0
 10
-226.39997999999991
 20
499.3398039999999
 30
0.0
 40
7.9022160000000001
  1
コネクタ
  7
_______
 11
-226.39997999999991
 21
507.24201999999991
 31
0.0
 73
     3
  0
TEXT
  5
6C
  8
SPEC
 62
     0
 10
-226.39997999999991
 20
484.3398039999999
 30
0.0
 40
7.9022160000000001
  1
色
  7
_______
 11
-226.39997999999991
 21
492.24201999999991
 31
0.0
 73
     3
  0
TEXT
  5
6D
  8
SPEC
 62
     0
 10
-226.39997999999991
 20
439.33979399999993
 30
0.0
 40
7.9022160000000001
  1
重量
  7
_______
 11
-226.39997999999991
 21
447.24200999999988
 31
0.0
 73
     3
  0
TEXT
  5
6E
  8
SPEC
 62
     0
 10
-226.39997999999991
 20
454.33979399999998
 30
0.0
 40
7.9022160000000001
  1
寸法
  7
_______
 11
-226.39997999999991
 21
462.24200999999999
 31
0.0
 73
     3
  0
TEXT
  5
6F
  8
SPEC
 62
     0
 10
-96.399979999999985
 20
619.33980399999984
 30
0.0
 40
7.9022160000000001
  1
エレクトレットコンデンサ
  7
_______
 11
-96.399979999999985
 21
627.24201999999991
 31
0.0
 73
     3
  0
TEXT
  5
70
  8
SPEC
 62
     0
 10
-96.399979999999985
 20
604.33980399999984
 30
0.0
 40
7.9022160000000001
  1
スーパーカーディオイド
  7
_______
 11
-96.399979999999985
 21
612.24201999999991
 31
0.0
 73
     3
  0
TEXT
  5
71
  8
SPEC
 62
     0
 10
-96.399979999999985
 20
544.33980399999984
 30
0.0
 40
7.9022160000000001
  1
28dB SPL(Aウエイト)
  7
_______
 11
-96.399979999999985
 21
552.24201999999991
 31
0.0
 73
     3
  0
TEXT
  5
72
  8
SPEC
 62
     0
 10
-96.399979999999985
 20
529.33980399999984
 30
0.0
 40
7.9022160000000001
  1
120dB SPL(3%%%THD)
  7
_______
 11
-96.399979999999985
 21
537.24201999999991
 31
0.0
 73
     3
  0
TEXT
  5
73
  8
SPEC
 62
     0
 10
-96.399979999999985
 20
514.33980399999996
 30
0.0
 40
7.9022160000000001
  1
ファンタム 12V～48V
  7
_______
 11
-96.399979999999985
 21
522.24201999999991
 31
0.0
 73
     3
  0
TEXT
  5
74
  8
SPEC
 62
     0
 10
-96.399979999999985
 20
439.33979399999993
 30
0.0
 40
7.9022160000000001
  1
約113g(回路モジュールを除く)
  7
_______
 11
-96.399979999999985
 21
447.24200999999988
 31
0.0
 73
     3
  0
TEXT
  5
75
  8
SPEC
 62
     0
 10
-96.399979999999985
 20
454.33979399999998
 30
0.0
 40
7.9022160000000001
  1
φ13.8(直径)×長37mm(マイク部のみ)
  7
_______
 11
-96.399979999999985
 21
462.24200999999999
 31
0.0
 73
     3
  0
TEXT
  5
76
  8
SPEC
 62
     0
 10
-96.399979999999985
 20
574.33980399999984
 30
0.0
 40
7.9022160000000001
  1
150Ω
  7
_______
 11
-96.399979999999985
 21
582.2420199999998
 31
0.0
 73
     3
  0
TEXT
  5
77
  8
SPEC
 62
     0
 10
-96.399979999999985
 20
559.33980399999984
 30
0.0
 40
7.9022160000000001
  1
-40dB re 1V/Pa
  7
_______
 11
-96.399979999999985
 21
567.24201999999991
 31
0.0
 73
     3
  0
TEXT
  5
78
  8
SPEC
 62
     0
 10
-96.399979999999985
 20
499.3398039999999
 30
0.0
 40
7.9022160000000001
  1
XLRオス(回路モジュール)
  7
_______
 11
-96.399979999999985
 21
507.24201999999991
 31
0.0
 73
     3
  0
TEXT
  5
79
  8
SPEC
 62
     0
 10
-96.399979999999985
 20
484.3398039999999
 30
0.0
 40
7.9022160000000001
  1
CM-31:黒
  7
_______
 11
-96.399979999999985
 21
492.24201999999991
 31
0.0
 73
     3
  0
TEXT
  5
7A
  8
SPEC
 62
     0
 10
-96.399979999999985
 20
472.33554399999991
 30
0.0
 40
7.9022160000000001
  1
CM-31W:白
  7
_______
 11
-96.399979999999985
 21
480.23775999999992
 31
0.0
 73
     3
  0
TEXT
  5
7B
  8
SPEC
 62
     0
 10
-96.399979999999985
 20
589.33980399999996
 30
0.0
 40
7.9022160000000001
  1
40Hz～20kHz
  7
_______
 11
-96.399979999999985
 21
597.24201999999991
 31
0.0
 73
     3
  0
TEXT
  5
7C
  8
SPEC
 62
     0
 10
-226.39997999999991
 20
424.33979399999993
 30
0.0
 40
7.9022160000000001
  1
ケーブル長
  7
_______
 11
-226.39997999999991
 21
432.24200999999999
 31
0.0
 73
     3
  0
TEXT
  5
7D
  8
SPEC
 62
     0
 10
-96.399979999999985
 20
424.33979399999993
 30
0.0
 40
7.9022160000000001
  1
約9.1m
  7
_______
 11
-96.399979999999985
 21
432.24200999999999
 31
0.0
 73
     3
  0
TEXT
  5
7E
  8
SPEC
 62
     0
 10
-226.39997999999991
 20
409.33979399999998
 30
0.0
 40
7.9022160000000001
  1
付属品
  7
_______
 11
-226.39997999999991
 21
417.24200999999999
 31
0.0
 73
     3
  0
TEXT
  5
7F
  8
SPEC
 62
     0
 10
-96.399979999999985
 20
409.33979399999998
 30
0.0
 40
7.9022160000000001
  1
回路モジュール、ウィンドスクリーン
  7
_______
 11
-96.399979999999985
 21
417.24200999999999
 31
0.0
 73
     3
  0
LINE
  5
80
  8
SPEC
  6
CONTINUOUS
 62
     0
 10
-229.99997999999999
 20
585.59542999999985
 30
0.0
 11
199.99998999999991
 21
585.59542999999985
 31
0.0
  0
LINE
  5
81
  8
SPEC
  6
CONTINUOUS
 62
     0
 10
-229.99997999999999
 20
600.59542999999985
 30
0.0
 11
199.99998999999991
 21
600.59542999999985
 31
0.0
  0
LINE
  5
82
  8
SPEC
  6
CONTINUOUS
 62
     0
 10
-229.99997999999999
 20
570.59542999999996
 30
0.0
 11
199.99998999999991
 21
570.59542999999996
 31
0.0
  0
LINE
  5
83
  8
SPEC
  6
CONTINUOUS
 62
     0
 10
-229.99997999999999
 20
555.59542999999985
 30
0.0
 11
199.99998999999991
 21
555.59542999999985
 31
0.0
  0
LINE
  5
84
  8
SPEC
  6
CONTINUOUS
 62
     0
 10
-229.99997999999999
 20
540.59542999999985
 30
0.0
 11
199.99998999999991
 21
540.59542999999985
 31
0.0
  0
LINE
  5
85
  8
SPEC
  6
CONTINUOUS
 62
     0
 10
-229.99997999999999
 20
525.59542999999985
 30
0.0
 11
199.99998999999991
 21
525.59542999999985
 31
0.0
  0
LINE
  5
86
  8
SPEC
  6
CONTINUOUS
 62
     0
 10
-229.99997999999999
 20
510.59542999999991
 30
0.0
 11
199.99998999999991
 21
510.59542999999991
 31
0.0
  0
LINE
  5
87
  8
SPEC
  6
CONTINUOUS
 62
     0
 10
-229.99997999999999
 20
495.59544
 30
0.0
 11
199.99998999999991
 21
495.59544
 31
0.0
  0
LINE
  5
88
  8
SPEC
  6
CONTINUOUS
 62
     0
 10
-229.99997999999999
 20
450.59544
 30
0.0
 11
199.99998999999991
 21
450.59544
 31
0.0
  0
LINE
  5
89
  8
SPEC
  6
CONTINUOUS
 62
     0
 10
-229.99997999999999
 20
465.59543999999988
 30
0.0
 11
199.99998999999991
 21
465.59543999999988
 31
0.0
  0
LINE
  5
8A
  8
SPEC
  6
CONTINUOUS
 62
     0
 10
-229.99997999999999
 20
435.59543999999988
 30
0.0
 11
199.99998999999991
 21
435.59543999999988
 31
0.0
  0
LINE
  5
8B
  8
SPEC
  6
CONTINUOUS
 62
     0
 10
-229.99997999999999
 20
405.59544
 30
0.0
 11
199.99998999999991
 21
405.59544
 31
0.0
  0
LINE
  5
8C
  8
SPEC
  6
CONTINUOUS
 62
     0
 10
-229.99997999999999
 20
420.59544
 30
0.0
 11
199.99998999999991
 21
420.59544
 31
0.0
  0
TEXT
  5
8D
  8
DIMNSIONS
 62
     0
 10
19.999999999999979
 20
-319.56459000000001
 30
0.0
 40
10.16
  1
(単位：mm)
  7
_______
 11
19.999999999999979
 21
-309.40458999999993
 31
0.0
 73
     3
  0
LINE
  5
8E
  8
DIMNSIONS
  6
CONTINUOUS
 62
     0
 10
153.49998997019759
 20
40.399999999999999
 30
0.0
 11
182.99997997019759
 21
40.399999999999999
 31
0.0
  0
LINE
  5
8F
  8
DIMNSIONS
  6
CONTINUOUS
 62
     0
 10
153.49998997019759
 20
59.600020000000001
 30
0.0
 11
182.99997997019759
 21
59.600020000000001
 31
0.0
  0
LINE
  5
90
  8
DIMNSIONS
  6
CONTINUOUS
 62
     0
 10
174.99997999999991
 20
59.600020000000001
 30
0.0
 11
174.99997999999991
 21
40.399999999999999
 31
0.0
  0
LINE
  5
92
  8
DIMNSIONS
 62
     0
 10
174.99997999999991
 20
40.399999999999999
 30
0.0
 11
178.40293474387519
 21
27.699999999999999
 31
0.0
  0
LINE
  5
93
  8
DIMNSIONS
 62
     0
 10
174.99997999999991
 20
40.399999999999999
 30
0.0
 11
171.59702525612471
 21
27.699999999999999
 31
0.0
  0
LINE
  5
91
  8
DIMNSIONS
  6
CONTINUOUS
 62
     0
 10
174.99997999999991
 20
40.399999999999999
 30
0.0
 11
174.99997999999991
 21
-3.222189999999983
 31
0.0
  0
LINE
  5
95
  8
DIMNSIONS
 62
     0
 10
174.99997999999991
 20
59.600020000000001
 30
0.0
 11
171.59702525612471
 21
72.300020000000004
 31
0.0
  0
LINE
  5
96
  8
DIMNSIONS
 62
     0
 10
174.99997999999991
 20
59.600020000000001
 30
0.0
 11
178.40293474387519
 21
72.300020000000004
 31
0.0
  0
LINE
  5
94
  8
DIMNSIONS
  6
CONTINUOUS
 62
     0
 10
174.99997999999991
 20
59.600020000000001
 30
0.0
 11
174.99997999999991
 21
79.600020020116574
 31
0.0
  0
INSERT
  5
97
  8
DIMNSIONS
 62
     7
  2
*U0
 10
100.0
 20
140.0
 30
0.0
  0
LINE
  5
98
  8
DIMNSIONS
  6
CONTINUOUS
 62
     0
 10
-129.6572824940948
 20
-92.856609938638599
 30
0.0
 11
-157.04470377768999
 21
-105.62786787793181
 31
0.0
  0
LINE
  5
99
  8
DIMNSIONS
  6
CONTINUOUS
 62
     0
 10
-145.16993249409481
 20
-59.590359938638578
 30
0.0
 11
-172.5573651338745
 21
-72.361623173529381
 31
0.0
  0
LINE
  5
9B
  8
DIMNSIONS
 62
     0
 10
-149.79427128359521
 20
-102.24685793929321
 30
0.0
 11
-158.2456475910096
 21
-92.174899862566605
 31
0.0
  0
LINE
  5
9C
  8
DIMNSIONS
 62
     0
 10
-149.79427128359521
 20
-102.24685793929321
 30
0.0
 11
-152.07739882439469
 21
-89.298598225288956
 31
0.0
  0
LINE
  5
9D
  8
DIMNSIONS
 62
     0
 10
-165.3069326397796
 20
-68.980613234890768
 30
0.0
 11
-156.8555563323653
 21
-79.052571311617385
 31
0.0
  0
LINE
  5
9E
  8
DIMNSIONS
 62
     0
 10
-165.3069326397796
 20
-68.980613234890768
 30
0.0
 11
-163.0238050989802
 21
-81.928872948895048
 31
0.0
  0
LINE
  5
9A
  8
DIMNSIONS
  6
CONTINUOUS
 62
     0
 10
-149.79427128359521
 20
-102.24685793929321
 30
0.0
 11
-165.3069326397796
 21
-68.980613234890768
 31
0.0
  0
INSERT
  5
9F
  8
DIMNSIONS
 62
     7
  2
*U1
 10
100.0
 20
140.0
 30
0.0
  0
LINE
  5
A0
  8
DIMNSIONS
  6
CONTINUOUS
 62
     0
 10
-122.37891333216621
 20
-94.947934014013271
 30
0.0
 11
-109.1425173012711
 21
-123.3328576281513
 31
0.0
  0
LINE
  5
A1
  8
DIMNSIONS
  6
CONTINUOUS
 62
     0
 10
-109.8698933321662
 20
-89.114754014013272
 30
0.0
 11
-96.633496949762815
 21
-117.49967838194679
 31
0.0
  0
LINE
  5
A2
  8
DIMNSIONS
  6
CONTINUOUS
 62
     0
 10
-100.0145036175965
 20
-110.2492443679335
 30
0.0
 11
-112.5235239691048
 21
-116.08242361413799
 31
0.0
  0
LINE
  5
A4
  8
DIMNSIONS
 62
     0
 10
-112.5235239691048
 20
-116.08242361413799
 30
0.0
 11
-122.5954820458315
 21
-124.5337999215524
 31
0.0
  0
LINE
  5
A5
  8
DIMNSIONS
 62
     0
 10
-112.5235239691048
 20
-116.08242361413799
 30
0.0
 11
-125.47178368310909
 21
-118.36555115493751
 31
0.0
  0
LINE
  5
A3
  8
DIMNSIONS
  6
CONTINUOUS
 62
     0
 10
-112.5235239691048
 20
-116.08242361413799
 30
0.0
 11
-130.64960908989471
 21
-124.53494032371231
 31
0.0
  0
LINE
  5
A7
  8
DIMNSIONS
 62
     0
 10
-100.0145036175965
 20
-110.2492443679335
 30
0.0
 11
-89.942545540869986
 21
-101.79786806051921
 31
0.0
  0
LINE
  5
A8
  8
DIMNSIONS
 62
     0
 10
-100.0145036175965
 20
-110.2492443679335
 30
0.0
 11
-87.066243903592294
 21
-107.9661168271341
 31
0.0
  0
LINE
  5
A6
  8
DIMNSIONS
  6
CONTINUOUS
 62
     0
 10
-100.0145036175965
 20
-110.2492443679335
 30
0.0
 11
-60.231598610565761
 21
-91.69776636887849
 31
0.0
  0
INSERT
  5
A9
  8
DIMNSIONS
 62
     7
  2
*U2
 10
100.0
 20
140.0
 30
0.0
  0
LINE
  5
AA
  8
DIMNSIONS
  6
CONTINUOUS
 62
     0
 10
145.49998999999991
 20
67.600019970197678
 30
0.0
 11
145.49998999999991
 21
107.99999997019761
 31
0.0
  0
LINE
  5
AB
  8
DIMNSIONS
  6
CONTINUOUS
 62
     0
 10
15.000009999999991
 20
63.000009970197681
 30
0.0
 11
15.000009999999991
 21
107.99999997019761
 31
0.0
  0
LINE
  5
AD
  8
DIMNSIONS
 62
     0
 10
145.49998999999991
 20
100.0
 30
0.0
 11
132.79998999999989
 21
96.597045256124744
 31
0.0
  0
LINE
  5
AE
  8
DIMNSIONS
 62
     0
 10
145.49998999999991
 20
100.0
 30
0.0
 11
132.79998999999989
 21
103.4029547438752
 31
0.0
  0
LINE
  5
AF
  8
DIMNSIONS
 62
     0
 10
15.000009999999991
 20
100.0
 30
0.0
 11
27.700009999999988
 21
103.4029547438752
 31
0.0
  0
LINE
  5
B0
  8
DIMNSIONS
 62
     0
 10
15.000009999999991
 20
100.0
 30
0.0
 11
27.700009999999988
 21
96.597045256124744
 31
0.0
  0
LINE
  5
AC
  8
DIMNSIONS
  6
CONTINUOUS
 62
     0
 10
145.49998999999991
 20
100.0
 30
0.0
 11
15.000009999999991
 21
100.0
 31
0.0
  0
INSERT
  5
B1
  8
DIMNSIONS
 62
     7
  2
*U3
 10
100.0
 20
140.0
 30
0.0
  0
LINE
  5
B2
  8
DIMNSIONS
  6
CONTINUOUS
 62
     0
 10
15.000009999999991
 20
63.000009970197681
 30
0.0
 11
15.000009999999991
 21
107.99999997019761
 31
0.0
  0
LINE
  5
B3
  8
DIMNSIONS
  6
CONTINUOUS
 62
     0
 10
-24.999980000000011
 20
60.500009970197681
 30
0.0
 11
-24.999980000000011
 21
107.99999997019761
 31
0.0
  0
LINE
  5
B5
  8
DIMNSIONS
 62
     0
 10
15.000009999999991
 20
100.0
 30
0.0
 11
2.3000099999999861
 21
96.597045256124744
 31
0.0
  0
LINE
  5
B6
  8
DIMNSIONS
 62
     0
 10
15.000009999999991
 20
100.0
 30
0.0
 11
2.3000099999999861
 21
103.4029547438752
 31
0.0
  0
LINE
  5
B7
  8
DIMNSIONS
 62
     0
 10
-24.999980000000011
 20
100.0
 30
0.0
 11
-12.29998
 21
103.4029547438752
 31
0.0
  0
LINE
  5
B8
  8
DIMNSIONS
 62
     0
 10
-24.999980000000011
 20
100.0
 30
0.0
 11
-12.29998
 21
96.597045256124744
 31
0.0
  0
LINE
  5
B4
  8
DIMNSIONS
  6
CONTINUOUS
 62
     0
 10
15.000009999999991
 20
100.0
 30
0.0
 11
-24.999980000000011
 21
100.0
 31
0.0
  0
INSERT
  5
B9
  8
DIMNSIONS
 62
     7
  2
*U4
 10
100.0
 20
140.0
 30
0.0
  0
LINE
  5
BB
  8
DIMNSIONS
 62
     0
 10
-165.30693999999991
 20
-68.980619999999988
 30
0.0
 11
-173.58124921589319
 21
-58.762699077001663
 31
0.0
  0
LINE
  5
BC
  8
DIMNSIONS
 62
     0
 10
-165.30693999999991
 20
-68.980619999999988
 30
0.0
 11
-167.36374151823199
 21
-55.994486298876268
 31
0.0
  0
LINE
  5
BA
  8
DIMNSIONS
  6
CONTINUOUS
 62
     0
 10
-165.30693999999991
 20
-68.980619999999988
 30
0.0
 11
-191.03366999999989
 21
-13.809449999999989
 31
0.0
  0
LINE
  5
BE
  8
DIMNSIONS
 62
     0
 10
-24.999980000000011
 20
100.0
 30
0.0
 11
-37.699979999999989
 21
96.597045256124744
 31
0.0
  0
LINE
  5
BF
  8
DIMNSIONS
 62
     0
 10
-24.999980000000011
 20
100.0
 30
0.0
 11
-37.699979999999989
 21
103.4029547438752
 31
0.0
  0
LINE
  5
BD
  8
DIMNSIONS
  6
CONTINUOUS
 62
     0
 10
-24.999980000000011
 20
100.0
 30
0.0
 11
-118.52905
 21
100.0
 31
0.0
  0
ARC
  5
C0
  8
DIMNSIONS
  6
CONTINUOUS
 62
     0
 10
-118.52905
 20
20.00001000000001
 30
0.0
 40
79.999989999999983
 50
90.0
 51
205.000000287148
  0
LINE
  5
C1
  8
DATA
  6
CONTINUOUS
 62
     0
 10
-113.18908999999999
 20
-82.08771999999999
 30
0.0
 11
-125.6286199999999
 21
-87.888359999999977
 31
0.0
  0
LINE
  5
C2
  8
DATA
  6
CONTINUOUS
 62
     0
 10
-113.87040999999989
 20
-83.508809999999997
 30
0.0
 11
-124.10194
 21
-88.279969999999992
 31
0.0
  0
LINE
  5
C3
  8
DATA
  6
CONTINUOUS
 62
     0
 10
-114.0440599999999
 20
-85.575879999999984
 30
0.0
 11
-122.40685000000001
 21
-89.475599999999986
 31
0.0
  0
LINE
  5
C4
  8
DATA
  6
CONTINUOUS
 62
     0
 10
-124.25606000000001
 20
-88.351819999999975
 30
0.0
 11
-113.7163199999999
 21
-83.436969999999974
 31
0.0
  0
LINE
  5
C5
  8
DATA
  6
CONTINUOUS
 62
     0
 10
-123.3041799999999
 20
-81.36699999999999
 30
0.0
 11
-122.39798999999999
 21
-80.944339999999968
 31
0.0
  0
LINE
  5
C6
  8
DATA
  6
CONTINUOUS
 62
     0
 10
-124.9946999999999
 20
-77.741719999999987
 30
0.0
 11
-124.0885
 21
-77.319129999999973
 31
0.0
  0
ARC
  5
C7
  8
DATA
  6
CONTINUOUS
 62
     0
 10
-124.1494299999999
 20
-79.554349999999971
 30
0.0
 40
2.000036285295832
 50
115.0005734397573
 51
295.00045236868988
  0
ARC
  5
C8
  8
DATA
  6
CONTINUOUS
 62
     0
 10
-123.2432299999999
 20
-79.131729999999976
 30
0.0
 40
1.9999837389839039
 50
114.9993788304176
 51
295.00041738755618
  0
ARC
  5
C9
  8
DATA
  6
CONTINUOUS
 62
     0
 10
-120.5241899999999
 20
-77.863799999999969
 30
0.0
 40
1.99998735436002
 50
295.00027882261128
 51
115.00053846117081
  0
LINE
  5
CA
  8
DATA
  6
CONTINUOUS
 62
     0
 10
-124.0884699999999
 20
-77.31911999999997
 30
0.0
 11
-121.3694499999999
 21
-76.051199999999994
 31
0.0
  0
LINE
  5
CB
  8
DATA
  6
CONTINUOUS
 62
     0
 10
-119.6789499999999
 20
-79.676399999999973
 30
0.0
 11
-122.39797
 21
-80.944339999999968
 31
0.0
  0
LINE
  5
CC
  8
DATA
  6
CONTINUOUS
 62
     0
 10
-135.56463999999991
 20
-66.671629999999993
 30
0.0
 11
-123.05567000000001
 21
-60.838450000000002
 31
0.0
  0
LINE
  5
CD
  8
DATA
  6
CONTINUOUS
 62
     0
 10
-133.24019999999999
 20
-71.656319999999994
 30
0.0
 11
-120.7312099999999
 21
-65.823139999999995
 31
0.0
  0
LINE
  5
CE
  8
DATA
  6
CONTINUOUS
 62
     0
 10
-137.73680999999991
 20
-56.099029999999971
 30
0.0
 11
-129.75860999999989
 21
-52.378660000000004
 31
0.0
  0
LINE
  5
CF
  8
DATA
  6
CONTINUOUS
 62
     0
 10
-137.25514999999999
 20
-63.04642999999998
 30
0.0
 11
-124.7461499999999
 21
-57.213249999999988
 31
0.0
  0
LINE
  5
D0
  8
DATA
  6
CONTINUOUS
 62
     0
 10
-124.7461499999999
 20
-57.213229999999982
 30
0.0
 11
-113.2508999999999
 21
-81.864319999999992
 31
0.0
  0
LINE
  5
D1
  8
DATA
  6
CONTINUOUS
 62
     0
 10
-113.84739999999999
 20
-83.498079999999987
 30
0.0
 11
-113.99299999999999
 21
-85.552039999999977
 31
0.0
  0
LINE
  5
D2
  8
DATA
  6
CONTINUOUS
 62
     0
 10
-113.19858000000001
 20
-82.295749999999956
 30
0.0
 11
-113.32541000000001
 21
-82.938159999999968
 31
0.0
  0
ARC
  5
D3
  8
DATA
  6
CONTINUOUS
 62
     0
 10
-114.7653099999999
 20
-75.16313999999997
 30
0.0
 40
2.4598732768376541
 50
151.20273740253779
 51
258.80335340725651
  0
LINE
  5
D4
  8
DATA
  6
CONTINUOUS
 62
     0
 10
-128.56898000000001
 20
-52.643339999999988
 30
0.0
 11
-124.7461499999999
 21
-57.213249999999988
 31
0.0
  0
LINE
  5
D5
  8
DATA
  6
CONTINUOUS
 62
     0
 10
-125.75991999999999
 20
-87.697500000000005
 30
0.0
 11
-137.25514999999999
 21
-63.046399999999977
 31
0.0
  0
LINE
  5
D6
  8
DATA
  6
CONTINUOUS
 62
     0
 10
-125.46306
 20
-88.014899999999983
 30
0.0
 11
-124.88945
 21
-88.330649999999991
 31
0.0
  0
LINE
  5
D7
  8
DATA
  6
CONTINUOUS
 62
     0
 10
-122.45793
 20
-89.499419999999986
 30
0.0
 11
-124.1249599999999
 21
-88.290689999999984
 31
0.0
  0
ARC
  5
D8
  8
DATA
  6
CONTINUOUS
 62
     0
 10
-129.9213399999999
 20
-82.228939999999994
 30
0.0
 40
2.4603346661176002
 50
331.2078463528203
 51
78.745649384157076
  0
LINE
  5
D9
  8
DATA
  6
CONTINUOUS
 62
     0
 10
-138.29872
 20
-57.180499999999988
 30
0.0
 11
-137.25514999999999
 21
-63.04642999999998
 31
0.0
  0
ARC
  5
DA
  8
DATA
  6
CONTINUOUS
 62
     0
 10
-129.33600000000001
 20
-53.28496999999998
 30
0.0
 40
1.0000043686404541
 50
39.913262766530849
 51
114.99979453841971
  0
ARC
  5
DB
  8
DATA
  6
CONTINUOUS
 62
     0
 10
-137.31417999999999
 20
-57.00533999999999
 30
0.0
 40
1.00000696647575
 50
115.00055595065901
 51
190.08740496003671
  0
ARC
  5
DC
  8
DATA
  6
CONTINUOUS
 62
     0
 10
-114.01215999999999
 20
-82.802549999999954
 30
0.0
 40
0.7000071728204098
 50
295.00037799303351
 51
348.82972065556783
  0
ARC
  5
DD
  8
DATA
  6
CONTINUOUS
 62
     0
 10
-124.5518899999999
 20
-87.717399999999969
 30
0.0
 40
0.7000159398899604
 50
241.16966320662439
 51
295.00003207840751
  0
ARC
  5
DE
  8
DATA
  6
CONTINUOUS
 62
     0
 10
-125.1255
 20
-87.401660000000007
 30
0.0
 40
0.7000071728203979
 50
205.00037799303129
 51
241.1692685102027
  0
ARC
  5
DF
  8
DATA
  6
CONTINUOUS
 62
     0
 10
-113.88533
 20
-82.160169999999994
 30
0.0
 40
0.7000053563366347
 50
348.83212965237323
 51
25.000773879546038
  0
TEXT
  5
E0
  8
DATA
 62
     0
 10
299.99997999999988
 20
-324.46659
 30
0.0
 40
10.5076
  1
CM-31 & CM-31W
  7
_______
 11
299.99997999999988
 21
-313.95898999999991
 31
0.0
 73
     3
  0
TEXT
  5
E1
  8
DATA
 62
     0
 10
299.99997999999988
 20
-295.46659
 30
0.0
 40
10.5076
  1
Amcron
  7
_______
 11
299.99997999999988
 21
-284.95898999999991
 31
0.0
 73
     3
  0
TEXT
  5
E2
  8
DATA
 62
     0
 10
289.99998999999991
 20
-309.28078799999992
 30
0.0
 40
6.7733279999999993
  1
オーバーヘッド・マイクロホン
  7
_______
 11
289.99998999999991
 21
-302.50745999999992
 31
0.0
 73
     3
  0
LINE
  5
E3
  8
DATA
  6
CONTINUOUS
 62
     0
 10
-123.19302999999999
 20
38.52769
 30
0.0
 11
-111.84711
 21
48.048090000000002
 31
0.0
  0
LINE
  5
E4
  8
DATA
  6
CONTINUOUS
 62
     0
 10
-123.84587000000001
 20
40.963970000000003
 30
0.0
 11
-112.9816399999999
 21
50.080190000000002
 31
0.0
  0
LINE
  5
E5
  8
DATA
  6
CONTINUOUS
 62
     0
 10
-127.55163
 20
45.134990000000002
 30
0.0
 11
-124.9980299999999
 21
35.604869999999998
 31
0.0
  0
LINE
  5
E6
  8
DATA
  6
CONTINUOUS
 62
     0
 10
-125.14181000000001
 20
45.800390000000007
 30
0.0
 11
-122.5832199999999
 21
36.251939999999998
 31
0.0
  0
LINE
  5
E7
  8
DATA
  6
CONTINUOUS
 62
     0
 10
-127.9829799999999
 20
38.895460000000007
 30
0.0
 11
-126.4134599999999
 21
33.037970000000008
 31
0.0
  0
ARC
  5
E8
  8
DATA
  6
CONTINUOUS
 62
     0
 10
-129.19151999999991
 20
38.576250000000009
 30
0.0
 40
1.250004919070298
 50
14.795332413814251
 51
195.20559147629641
  0
LINE
  5
E9
  8
DATA
  6
CONTINUOUS
 62
     0
 10
-127.67607
 20
37.750050000000009
 30
0.0
 11
-125.95891999999991
 21
39.190910000000002
 31
0.0
  0
LINE
  5
EA
  8
DATA
  6
CONTINUOUS
 62
     0
 10
-149.48881999999989
 20
-2.9101499999999869
 30
0.0
 11
-131.8888299999999
 21
34.834030000000013
 31
0.0
  0
LINE
  5
EB
  8
DATA
  6
CONTINUOUS
 62
     0
 10
-153.17208999999991
 20
-4.8934799999999816
 30
0.0
 11
-134.15460999999991
 21
35.890549999999998
 31
0.0
  0
LINE
  5
EC
  8
DATA
  6
CONTINUOUS
 62
     0
 10
-156.0004999999999
 20
-4.6766799999999762
 30
0.0
 11
-144.48571999999999
 21
13.73493
 31
0.0
  0
LINE
  5
ED
  8
DATA
  6
CONTINUOUS
 62
     0
 10
-135.10715999999999
 20
-54.872779999999977
 30
0.0
 11
-156.2928
 21
-9.4410299999999836
 31
0.0
  0
LINE
  5
EE
  8
DATA
  6
CONTINUOUS
 62
     0
 10
-129.66730000000001
 20
-52.341429999999967
 30
0.0
 11
-149.48877999999999
 21
-9.8350499999999954
 31
0.0
  0
LINE
  5
EF
  8
DATA
  6
CONTINUOUS
 62
     0
 10
-131.93509
 20
-53.393599999999992
 30
0.0
 11
-153.17206999999999
 21
-7.8517599999999836
 31
0.0
  0
LINE
  5
F0
  8
DATA
  6
CONTINUOUS
 62
     0
 10
-132.38826
 20
-53.604919999999993
 30
0.0
 11
-153.71767999999989
 21
-7.8647899999999993
 31
0.0
  0
ARC
  5
F1
  8
DATA
  6
CONTINUOUS
 62
     0
 10
-151.76124999999999
 20
-7.3279299999999798
 30
0.0
 40
5.0000197555009667
 50
147.97779370500999
 51
205.000452096543
  0
CIRCLE
  5
F2
  8
DATA
  6
CONTINUOUS
 62
     0
 10
-149.99998999999991
 20
-6.3725799999999992
 30
0.0
 40
1.0
  0
CIRCLE
  5
F3
  8
DATA
  6
CONTINUOUS
 62
     0
 10
-149.99998999999991
 20
-6.3725999999999772
 30
0.0
 40
3.5
  0
LINE
  5
F4
  8
DATA
  6
CONTINUOUS
 62
     0
 10
-153.57155
 20
-5.4826499999999783
 30
0.0
 11
-153.08127999999991
 21
-4.6987599999999921
 31
0.0
  0
ARC
  5
F5
  8
DATA
  6
CONTINUOUS
 62
     0
 10
-151.45191999999989
 20
-6.8082499999999859
 30
0.0
 40
2.5000008608798541
 50
147.97834024481119
 51
205.0000851068275
  0
LINE
  5
F6
  8
DATA
  6
CONTINUOUS
 62
     0
 10
-142.23782999999989
 20
12.640000000000009
 30
0.0
 11
-129.1454699999999
 21
33.574779999999997
 31
0.0
  0
LINE
  5
F7
  8
DATA
  6
CONTINUOUS
 62
     0
 10
-129.86908999999989
 20
32.417679999999997
 30
0.0
 11
-128.15686999999991
 21
31.575050000000001
 31
0.0
  0
LINE
  5
F8
  8
DATA
  6
CONTINUOUS
 62
     0
 10
-132.4283199999999
 20
33.677110000000013
 30
0.0
 11
-132.11126999999999
 21
33.521070000000009
 31
0.0
  0
LINE
  5
F9
  8
DATA
  6
CONTINUOUS
 62
     0
 10
-126.4205599999999
 20
35.819450000000003
 30
0.0
 11
-124.3266399999999
 21
34.789009999999998
 31
0.0
  0
LINE
  5
FA
  8
DATA
  6
CONTINUOUS
 62
     0
 10
-132.47140999999999
 20
36.48462
 30
0.0
 11
-130.39644999999999
 21
35.467370000000003
 31
0.0
  0
LINE
  5
FB
  8
DATA
  6
CONTINUOUS
 62
     0
 10
-133.64335999999989
 20
31.071290000000001
 30
0.0
 11
-131.61134999999999
 21
34.320480000000003
 31
0.0
  0
ARC
  5
FC
  8
DATA
  6
CONTINUOUS
 62
     0
 10
-129.91563999999991
 20
33.259950000000003
 30
0.0
 40
2.0000385306788608
 50
130.00037447345579
 51
147.97733847552351
  0
ARC
  5
FD
  8
DATA
  6
CONTINUOUS
 62
     0
 10
-133.02172999999991
 20
35.362290000000009
 30
0.0
 40
1.25002531974357
 50
334.99916692865798
 51
155.0006068778552
  0
LINE
  5
FE
  8
DATA
  6
CONTINUOUS
 62
     0
 10
-130.39779999999999
 20
38.248390000000008
 30
0.0
 11
-128.82824999999991
 21
32.390909999999998
 31
0.0
  0
ARC
  5
FF
  8
DATA
  6
CONTINUOUS
 62
     0
 10
-127.62085999999999
 20
32.714480000000009
 30
0.0
 40
1.2499919801342521
 50
194.99991787235641
 51
14.999237862585289
  0
ARC
  5
100
  8
DATA
  6
CONTINUOUS
 62
     0
 10
-123.79062999999999
 20
35.928460000000008
 30
0.0
 40
1.250035793567521
 50
195.00032882339221
 51
14.998676492286901
  0
LINE
  5
101
  8
DATA
  6
CONTINUOUS
 62
     0
 10
-131.20125999999991
 20
34.792000000000009
 30
0.0
 11
-129.78911999999991
 21
35.976950000000002
 31
0.0
  0
LINE
  5
102
  8
DATA
  6
CONTINUOUS
 62
     0
 10
-127.02325
 20
35.313720000000004
 30
0.0
 11
-125.30607000000001
 21
36.754620000000003
 31
0.0
  0
LINE
  5
103
  8
DATA
  6
CONTINUOUS
 62
     0
 10
-128.64121999999989
 20
39.698569999999997
 30
0.0
 11
-126.56623999999999
 21
38.681289999999997
 31
0.0
  0
ARC
  5
104
  8
DATA
  6
CONTINUOUS
 62
     0
 10
-126.3453699999999
 20
45.462840000000007
 30
0.0
 40
1.2500074727776651
 50
14.79577557989875
 51
195.20526938142629
  0
LINE
  5
105
  8
DATA
  6
CONTINUOUS
 62
     0
 10
-70.794699999999992
 20
51.25001000000001
 30
0.0
 11
-24.999980000000011
 21
51.25001000000001
 31
0.0
  0
LINE
  5
106
  8
DATA
  6
CONTINUOUS
 62
     0
 10
-69.205400000000012
 20
48.75001000000001
 30
0.0
 11
-24.999980000000011
 21
48.75001000000001
 31
0.0
  0
ARC
  5
107
  8
DATA
  6
CONTINUOUS
 62
     0
 10
-109.9187499999999
 20
45.749980000000001
 30
0.0
 40
2.9999799999999932
 50
90.0
 51
130.00049054140919
  0
ARC
  5
108
  8
DATA
  6
CONTINUOUS
 62
     0
 10
-109.76770999999999
 20
46.249960000000002
 30
0.0
 40
5.0
 50
90.0
 51
130.00010710913651
  0
LINE
  5
109
  8
DATA
  6
CONTINUOUS
 62
     0
 10
-109.76770999999999
 20
51.249980000000008
 30
0.0
 11
-76.133220000000009
 21
51.249980000000008
 31
0.0
  0
LINE
  5
10A
  8
DATA
  6
CONTINUOUS
 62
     0
 10
-109.9187499999999
 20
48.749980000000008
 30
0.0
 11
-74.205329999999975
 21
48.749980000000008
 31
0.0
  0
ARC
  5
10B
  8
DATA
  6
CONTINUOUS
 62
     0
 10
-62.55590999999999
 20
55.609969999999997
 30
0.0
 40
9.3213288460873436
 50
142.9978121107074
 51
217.00213880062961
  0
ARC
  5
10C
  8
DATA
  6
CONTINUOUS
 62
     0
 10
-77.44417
 20
44.389969999999998
 30
0.0
 40
9.3213228276355693
 50
322.99786119937028
 51
37.002236977891982
  0
ARC
  5
10D
  8
DATA
  6
CONTINUOUS
 62
     0
 10
-67.555859999999996
 20
55.609969999999997
 30
0.0
 40
9.3213288460873436
 50
142.9978121107074
 51
217.00210180680369
  0
ARC
  5
10E
  8
DATA
  6
CONTINUOUS
 62
     0
 10
-82.444110000000009
 20
44.389969999999998
 30
0.0
 40
9.3213148415070677
 50
322.99782420548092
 51
37.00231096580665
  0
LINE
  5
10F
  8
DATA
  6
CONTINUOUS
 62
     0
 10
-11.999990000000009
 20
54.500010000000003
 30
0.0
 11
1.0000099999999881
 21
55.250010000000003
 31
0.0
  0
LINE
  5
110
  8
DATA
  6
CONTINUOUS
 62
     0
 10
-11.999990000000009
 20
45.500010000000003
 30
0.0
 11
1.0000099999999881
 21
44.750010000000003
 31
0.0
  0
LINE
  5
111
  8
DATA
  6
CONTINUOUS
 62
     0
 10
-11.999990000000009
 20
54.500010000000003
 30
0.0
 11
-11.999990000000009
 21
45.500010000000003
 31
0.0
  0
LINE
  5
112
  8
DATA
  6
CONTINUOUS
 62
     0
 10
1.0000099999999881
 20
55.250010000000003
 30
0.0
 11
7.5000099999999881
 21
55.250010000000003
 31
0.0
  0
LINE
  5
113
  8
DATA
  6
CONTINUOUS
 62
     0
 10
1.0000099999999881
 20
44.750010000000003
 30
0.0
 11
7.5000099999999881
 21
44.750010000000003
 31
0.0
  0
LINE
  5
114
  8
DATA
  6
CONTINUOUS
 62
     0
 10
7.5000099999999881
 20
55.250010000000003
 30
0.0
 11
7.5000099999999881
 21
44.750010000000003
 31
0.0
  0
LINE
  5
115
  8
DATA
  6
CONTINUOUS
 62
     0
 10
7.5000099999999881
 20
55.250010000000003
 30
0.0
 11
15.000009999999991
 21
55.250010000000003
 31
0.0
  0
LINE
  5
116
  8
DATA
  6
CONTINUOUS
 62
     0
 10
15.000009999999991
 20
44.750010000000003
 30
0.0
 11
7.5000099999999881
 21
44.750010000000003
 31
0.0
  0
LINE
  5
117
  8
DATA
  6
CONTINUOUS
 62
     0
 10
15.000009999999991
 20
55.250010000000003
 30
0.0
 11
15.000009999999991
 21
44.750010000000003
 31
0.0
  0
LINE
  5
118
  8
DATA
  6
CONTINUOUS
 62
     0
 10
7.6000199999999998
 20
55.250010000000003
 30
0.0
 11
7.6000199999999998
 21
44.750010000000003
 31
0.0
  0
LINE
  5
119
  8
DATA
  6
CONTINUOUS
 62
     0
 10
-24.999980000000011
 20
52.50001000000001
 30
0.0
 11
-11.999990000000009
 21
53.500010000000003
 31
0.0
  0
LINE
  5
11A
  8
DATA
  6
CONTINUOUS
 62
     0
 10
-11.999990000000009
 20
46.500010000000003
 30
0.0
 11
-24.999980000000011
 21
47.500010000000003
 31
0.0
  0
LINE
  5
11B
  8
DATA
  6
CONTINUOUS
 62
     0
 10
-24.999980000000011
 20
52.50001000000001
 30
0.0
 11
-24.999980000000011
 21
47.500010000000003
 31
0.0
  0
LINE
  5
11C
  8
DATA
  6
CONTINUOUS
 62
     0
 10
1.0000099999999881
 20
50.450000000000003
 30
0.0
 11
-4.999990000000011
 21
50.00001000000001
 31
0.0
  0
LINE
  5
11D
  8
DATA
  6
CONTINUOUS
 62
     0
 10
1.0000099999999881
 20
49.550020000000004
 30
0.0
 11
-4.999990000000011
 21
50.00001000000001
 31
0.0
  0
LINE
  5
11E
  8
DATA
  6
CONTINUOUS
 62
     0
 10
1.0000099999999881
 20
49.550020000000004
 30
0.0
 11
1.0000099999999881
 21
50.450000000000003
 31
0.0
  0
LINE
  5
11F
  8
DATA
  6
CONTINUOUS
 62
     0
 10
1.0000099999999881
 20
54.450000000000003
 30
0.0
 11
-4.999990000000011
 21
54.000010000000003
 31
0.0
  0
LINE
  5
120
  8
DATA
  6
CONTINUOUS
 62
     0
 10
1.0000099999999881
 20
53.550020000000004
 30
0.0
 11
-4.999990000000011
 21
54.000010000000003
 31
0.0
  0
LINE
  5
121
  8
DATA
  6
CONTINUOUS
 62
     0
 10
1.0000099999999881
 20
54.450000000000003
 30
0.0
 11
1.0000099999999881
 21
53.550020000000004
 31
0.0
  0
LINE
  5
122
  8
DATA
  6
CONTINUOUS
 62
     0
 10
1.0000099999999881
 20
52.450000000000003
 30
0.0
 11
-4.999990000000011
 21
52.000010000000003
 31
0.0
  0
LINE
  5
123
  8
DATA
  6
CONTINUOUS
 62
     0
 10
1.0000099999999881
 20
51.550020000000004
 30
0.0
 11
-4.999990000000011
 21
52.000010000000003
 31
0.0
  0
LINE
  5
124
  8
DATA
  6
CONTINUOUS
 62
     0
 10
1.0000099999999881
 20
52.450000000000003
 30
0.0
 11
1.0000099999999881
 21
51.550020000000004
 31
0.0
  0
LINE
  5
125
  8
DATA
  6
CONTINUOUS
 62
     0
 10
1.0000099999999881
 20
48.450000000000003
 30
0.0
 11
-4.999990000000011
 21
48.000010000000003
 31
0.0
  0
LINE
  5
126
  8
DATA
  6
CONTINUOUS
 62
     0
 10
1.0000099999999881
 20
47.550020000000004
 30
0.0
 11
-4.999990000000011
 21
48.000010000000003
 31
0.0
  0
LINE
  5
127
  8
DATA
  6
CONTINUOUS
 62
     0
 10
1.0000099999999881
 20
48.450000000000003
 30
0.0
 11
1.0000099999999881
 21
47.550020000000004
 31
0.0
  0
LINE
  5
128
  8
DATA
  6
CONTINUOUS
 62
     0
 10
1.0000099999999881
 20
46.450000000000003
 30
0.0
 11
-4.999990000000011
 21
46.000010000000003
 31
0.0
  0
LINE
  5
129
  8
DATA
  6
CONTINUOUS
 62
     0
 10
1.0000099999999881
 20
45.550020000000004
 30
0.0
 11
-4.999990000000011
 21
46.000010000000003
 31
0.0
  0
LINE
  5
12A
  8
DATA
  6
CONTINUOUS
 62
     0
 10
1.0000099999999881
 20
46.450000000000003
 30
0.0
 11
1.0000099999999881
 21
45.550020000000004
 31
0.0
  0
ARC
  5
12B
  8
DATA
  6
CONTINUOUS
 62
     0
 10
11.500999999999991
 20
55.074010000000001
 30
0.0
 40
1.6757114906808981
 50
26.473304610957189
 51
153.52669538904269
  0
LINE
  5
12C
  8
DATA
  6
CONTINUOUS
 62
     0
 10
10.000999999999991
 20
55.250010000000003
 30
0.0
 11
10.000999999999991
 21
55.821010000000001
 31
0.0
  0
LINE
  5
12D
  8
DATA
  6
CONTINUOUS
 62
     0
 10
13.000999999999991
 20
55.821010000000001
 30
0.0
 11
13.000999999999991
 21
55.250010000000003
 31
0.0
  0
LINE
  5
12E
  8
DATA
  6
CONTINUOUS
 62
     0
 10
145.49998999999991
 20
59.600020000000001
 30
0.0
 11
145.49998999999991
 21
40.399999999999999
 31
0.0
  0
LINE
  5
12F
  8
DATA
  6
CONTINUOUS
 62
     0
 10
50.500009999999989
 20
59.600020000000001
 30
0.0
 11
50.500009999999989
 21
40.399999999999999
 31
0.0
  0
LINE
  5
130
  8
DATA
  6
CONTINUOUS
 62
     0
 10
44.000009999999982
 20
59.600020000000001
 30
0.0
 11
44.000009999999982
 21
40.399999999999999
 31
0.0
  0
LINE
  5
131
  8
DATA
  6
CONTINUOUS
 62
     0
 10
35.499999999999979
 20
59.600020000000001
 30
0.0
 11
35.499999999999979
 21
40.399999999999999
 31
0.0
  0
LINE
  5
132
  8
DATA
  6
CONTINUOUS
 62
     0
 10
16.000009999999978
 20
57.250010000000003
 30
0.0
 11
16.000009999999978
 21
42.750010000000003
 31
0.0
  0
LINE
  5
133
  8
DATA
  6
CONTINUOUS
 62
     0
 10
15.000009999999991
 20
55.00001000000001
 30
0.0
 11
16.000009999999978
 21
56.000010000000003
 31
0.0
  0
LINE
  5
134
  8
DATA
  6
CONTINUOUS
 62
     0
 10
15.000009999999991
 20
45.000010000000003
 30
0.0
 11
16.000009999999978
 21
44.000010000000003
 31
0.0
  0
LINE
  5
135
  8
DATA
  6
CONTINUOUS
 62
     0
 10
16.000009999999978
 20
57.250010000000003
 30
0.0
 11
35.499999999999979
 21
59.600020000000001
 31
0.0
  0
LINE
  5
136
  8
DATA
  6
CONTINUOUS
 62
     0
 10
16.000009999999978
 20
42.750010000000003
 30
0.0
 11
35.499999999999979
 21
40.399999999999999
 31
0.0
  0
LINE
  5
137
  8
DATA
  6
CONTINUOUS
 62
     0
 10
35.499999999999979
 20
40.399999999999999
 30
0.0
 11
44.000009999999982
 21
40.399999999999999
 31
0.0
  0
LINE
  5
138
  8
DATA
  6
CONTINUOUS
 62
     0
 10
44.000009999999982
 20
59.600020000000001
 30
0.0
 11
35.499999999999979
 21
59.600020000000001
 31
0.0
  0
LINE
  5
139
  8
DATA
  6
CONTINUOUS
 62
     0
 10
50.500009999999989
 20
59.600020000000001
 30
0.0
 11
145.49998999999991
 21
59.600020000000001
 31
0.0
  0
LINE
  5
13A
  8
DATA
  6
CONTINUOUS
 62
     0
 10
145.49998999999991
 20
40.399999999999999
 30
0.0
 11
50.500009999999989
 21
40.399999999999999
 31
0.0
  0
LINE
  5
13B
  8
DATA
  6
CONTINUOUS
 62
     0
 10
44.000009999999982
 20
59.400010000000009
 30
0.0
 11
50.500009999999989
 21
59.400010000000009
 31
0.0
  0
LINE
  5
13C
  8
DATA
  6
CONTINUOUS
 62
     0
 10
44.000009999999982
 20
40.600000000000009
 30
0.0
 11
50.500009999999989
 21
40.600000000000009
 31
0.0
  0
TEXT
  5
13D
  8
DATA
 62
     0
 10
45.980023999999979
 20
55.291680000000021
 30
0.0
 40
3.3866559999999999
  1
crown
 50
270.0
  7
_______
 11
49.366679999999988
 21
55.291680000000021
 31
0.0
 73
     3
  0
CIRCLE
  5
13E
  8
DATA
  6
CONTINUOUS
 62
     0
 10
128.99998999999991
 20
50.00001000000001
 30
0.0
 40
2.5
  0
LINE
  5
13F
  8
DATA
  6
CONTINUOUS
 62
     0
 10
127.4999899999999
 20
50.00001000000001
 30
0.0
 11
130.49998999999991
 21
50.00001000000001
 31
0.0
  0
LINE
  5
140
  8
DATA
  6
CONTINUOUS
 62
     0
 10
128.99998999999991
 20
51.500010000000003
 30
0.0
 11
128.99998999999991
 21
48.500010000000003
 31
0.0
  0
LINE
  5
141
  8
DATA
  6
CONTINUOUS
 62
     0
 10
79.000009999999989
 20
51.25001000000001
 30
0.0
 11
79.000009999999989
 21
48.75001000000001
 31
0.0
  0
LINE
  5
142
  8
DATA
  6
CONTINUOUS
 62
     0
 10
71.500009999999989
 20
51.25001000000001
 30
0.0
 11
71.500009999999989
 21
48.75001000000001
 31
0.0
  0
LINE
  5
143
  8
DATA
  6
CONTINUOUS
 62
     0
 10
71.500009999999989
 20
51.25001000000001
 30
0.0
 11
79.000009999999989
 21
51.25001000000001
 31
0.0
  0
LINE
  5
144
  8
DATA
  6
CONTINUOUS
 62
     0
 10
79.000009999999989
 20
48.75001000000001
 30
0.0
 11
71.500009999999989
 21
48.75001000000001
 31
0.0
  0
LINE
  5
145
  8
DATA
  6
CONTINUOUS
 62
     0
 10
77.500009999999989
 20
51.000010000000003
 30
0.0
 11
77.500009999999989
 21
49.000010000000003
 31
0.0
  0
LINE
  5
146
  8
DATA
  6
CONTINUOUS
 62
     0
 10
75.500009999999989
 20
51.000010000000003
 30
0.0
 11
75.500009999999989
 21
49.000010000000003
 31
0.0
  0
LINE
  5
147
  8
DATA
  6
CONTINUOUS
 62
     0
 10
75.500009999999989
 20
51.000010000000003
 30
0.0
 11
77.500009999999989
 21
51.000010000000003
 31
0.0
  0
LINE
  5
148
  8
DATA
  6
CONTINUOUS
 62
     0
 10
77.500009999999989
 20
49.000010000000003
 30
0.0
 11
75.500009999999989
 21
49.000010000000003
 31
0.0
  0
TEXT
  5
149
  8
DATA
 62
     0
 10
-107.0555499999999
 20
106.82225
 30
0.0
 40
11.28887999999999
  1
約9100
  7
_______
 11
-107.0555499999999
 21
118.1111299999999
 31
0.0
 73
     3
  0
ENDSEC
  0
EOF
