  0
SECTION
  2
HEADER
  9
$ACADVER
  1
AC1009
  9
$INSBASE
 10
0.0
 20
0.0
 30
0.0
  9
$EXTMIN
 10
-260.02550621300787
 20
-398.98174206618341
 30
-0.0015258207003583
  9
$EXTMAX
 10
465.4612246731221
 20
670.63083589121868
 30
0.0000000349246037
  9
$LIMMIN
 10
0.0
 20
0.0
  9
$LIMMAX
 10
0.0
 20
0.0
  9
$ORTHOMODE
 70
     0
  9
$REGENMODE
 70
     1
  9
$FILLMODE
 70
     1
  9
$QTEXTMODE
 70
     0
  9
$MIRRTEXT
 70
     1
  9
$DRAGMODE
 70
     2
  9
$LTSCALE
 40
4.0
  9
$OSMODE
 70
    37
  9
$ATTMODE
 70
     1
  9
$TEXTSIZE
 40
0.0
  9
$TRACEWID
 40
0.05
  9
$TEXTSTYLE
  7
STANDARD
  9
$CLAYER
  8
0
  9
$CELTYPE
  6
CONTINUOUS
  9
$CECOLOR
 62
   256
  9
$DIMSCALE
 40
1.0
  9
$DIMASZ
 40
0.18
  9
$DIMEXO
 40
0.0625
  9
$DIMDLI
 40
0.38
  9
$DIMRND
 40
0.0
  9
$DIMDLE
 40
0.0
  9
$DIMEXE
 40
0.18
  9
$DIMTP
 40
0.0
  9
$DIMTM
 40
0.0
  9
$DIMTXT
 40
0.18
  9
$DIMCEN
 40
0.09
  9
$DIMTSZ
 40
0.0
  9
$DIMTOL
 70
     0
  9
$DIMLIM
 70
     0
  9
$DIMTIH
 70
     1
  9
$DIMTOH
 70
     1
  9
$DIMSE1
 70
     0
  9
$DIMSE2
 70
     0
  9
$DIMTAD
 70
     0
  9
$DIMZIN
 70
     0
  9
$DIMBLK
  1

  9
$DIMASO
 70
     1
  9
$DIMSHO
 70
     1
  9
$DIMPOST
  1

  9
$DIMAPOST
  1

  9
$DIMALT
 70
     0
  9
$DIMALTD
 70
     2
  9
$DIMALTF
 40
25.399999999999999
  9
$DIMLFAC
 40
1.0
  9
$DIMTOFL
 70
     0
  9
$DIMTVP
 40
0.0
  9
$DIMTIX
 70
     0
  9
$DIMSOXD
 70
     0
  9
$DIMSAH
 70
     0
  9
$DIMBLK1
  1

  9
$DIMBLK2
  1

  9
$DIMSTYLE
  2
STANDARD
  9
$DIMCLRD
 70
     0
  9
$DIMCLRE
 70
     0
  9
$DIMCLRT
 70
     0
  9
$DIMTFAC
 40
1.0
  9
$DIMGAP
 40
0.09
  9
$LUNITS
 70
     2
  9
$LUPREC
 70
     4
  9
$SKETCHINC
 40
0.1
  9
$FILLETRAD
 40
0.0
  9
$AUNITS
 70
     0
  9
$AUPREC
 70
     0
  9
$MENU
  1
acad
  9
$ELEVATION
 40
0.0
  9
$PELEVATION
 40
0.0
  9
$THICKNESS
 40
0.0
  9
$LIMCHECK
 70
     0
  9
$BLIPMODE
 70
     0
  9
$CHAMFERA
 40
0.0
  9
$CHAMFERB
 40
0.0
  9
$SKPOLY
 70
     0
  9
$TDCREATE
 40
2451859.8009027769
  9
$TDUPDATE
 40
2451859.8349939808
  9
$TDINDWG
 40
0.0001284722
  9
$TDUSRTIMER
 40
0.0001284722
  9
$USRTIMER
 70
     1
  9
$ANGBASE
 50
0.0
  9
$ANGDIR
 70
     0
  9
$PDMODE
 70
     0
  9
$PDSIZE
 40
0.0
  9
$PLINEWID
 40
0.0
  9
$COORDS
 70
     1
  9
$SPLFRAME
 70
     0
  9
$SPLINETYPE
 70
     6
  9
$SPLINESEGS
 70
     8
  9
$ATTDIA
 70
     0
  9
$ATTREQ
 70
     1
  9
$HANDLING
 70
-16383
  9
$HANDSEED
  5
1CC
  9
$SURFTAB1
 70
     6
  9
$SURFTAB2
 70
     6
  9
$SURFTYPE
 70
     6
  9
$SURFU
 70
     6
  9
$SURFV
 70
     6
  9
$UCSNAME
  2

  9
$UCSORG
 10
0.0
 20
0.0
 30
0.0
  9
$UCSXDIR
 10
1.0
 20
0.0
 30
0.0
  9
$UCSYDIR
 10
0.0
 20
1.0
 30
0.0
  9
$PUCSNAME
  2

  9
$PUCSORG
 10
0.0
 20
0.0
 30
0.0
  9
$PUCSXDIR
 10
1.0
 20
0.0
 30
0.0
  9
$PUCSYDIR
 10
0.0
 20
1.0
 30
0.0
  9
$USERI1
 70
     0
  9
$USERI2
 70
     0
  9
$USERI3
 70
     0
  9
$USERI4
 70
     0
  9
$USERI5
 70
     0
  9
$USERR1
 40
0.0
  9
$USERR2
 40
0.0
  9
$USERR3
 40
0.0
  9
$USERR4
 40
0.0
  9
$USERR5
 40
0.0
  9
$WORLDVIEW
 70
     1
  9
$SHADEDGE
 70
     3
  9
$SHADEDIF
 70
    70
  9
$TILEMODE
 70
     1
  9
$MAXACTVP
 70
    16
  9
$PLIMCHECK
 70
     0
  9
$PEXTMIN
 10
1.0000000000000000E+020
 20
1.0000000000000000E+020
 30
1.0000000000000000E+020
  9
$PEXTMAX
 10
-1.0000000000000000E+020
 20
-1.0000000000000000E+020
 30
-1.0000000000000000E+020
  9
$PLIMMIN
 10
0.0
 20
0.0
  9
$PLIMMAX
 10
12.0
 20
9.0
  9
$UNITMODE
 70
     0
  9
$VISRETAIN
 70
     0
  9
$PLINEGEN
 70
     1
  9
$PSLTSCALE
 70
     0
  0
ENDSEC
  0
SECTION
  2
TABLES
  0
TABLE
  2
VPORT
 70
     2
  0
VPORT
  2
*ACTIVE
 70
     0
 10
0.0
 20
0.0
 11
1.0
 21
1.0
 12
102.7178592300572
 22
135.82454691251769
 13
0.0
 23
0.0
 14
1.0
 24
1.0
 15
0.0
 25
0.0
 16
0.0
 26
0.0
 36
1.0
 17
0.0
 27
0.0
 37
0.0
 40
1081.5858530837911
 41
1.743925233644859
 42
50.0
 43
0.0
 44
0.0
 50
0.0
 51
0.0
 71
     0
 72
   100
 73
     1
 74
     1
 75
     0
 76
     0
 77
     0
 78
     0
  0
ENDTAB
  0
TABLE
  2
LTYPE
 70
    11
  0
LTYPE
  2
CONTINUOUS
 70
     0
  3
Solid line
 72
    65
 73
     0
 40
0.0
  0
LTYPE
  2
VECTORWORKS_DASH_01
 70
     0
  3
(unavailable)
 72
    65
 73
     2
 40
2.116537475585937
 49
1.058074951171875
 49
-1.058462524414062
  0
LTYPE
  2
VECTORWORKS_DASH_02
 70
     0
  3
(unavailable)
 72
    65
 73
     2
 40
3.5276916503906239
 49
2.469229125976562
 49
-1.058462524414062
  0
LTYPE
  2
VECTORWORKS_DASH_03
 70
     0
  3
(unavailable)
 72
    65
 73
     2
 40
6.3499999999999988
 49
5.2915374755859359
 49
-1.058462524414062
  0
LTYPE
  2
VECTORWORKS_DASH_04
 70
     0
  3
(unavailable)
 72
    65
 73
     2
 40
7.7607666015624988
 49
6.7026916503906238
 49
-1.058074951171875
  0
LTYPE
  2
VECTORWORKS_DASH_05
 70
     0
  3
(unavailable)
 72
    65
 73
     2
 40
1.058074951171875
 49
0.352691650390625
 49
-0.70538330078125
  0
LTYPE
  2
VECTORWORKS_DASH_06
 70
     0
  3
(unavailable)
 72
    65
 73
     4
 40
5.2915374755859359
 49
3.1749999999999989
 49
-1.058074951171875
 49
0.352691650390625
 49
-0.7057708740234375
  0
LTYPE
  2
VECTORWORKS_DASH_07
 70
     0
  3
(unavailable)
 72
    65
 73
     6
 40
9.5249999999999986
 49
3.1749999999999989
 49
-1.058074951171875
 49
3.1749999999999989
 49
-1.058462524414062
 49
0.352691650390625
 49
-0.7057708740234375
  0
LTYPE
  2
VECTORWORKS_DASH_08
 70
     0
  3
(unavailable)
 72
    65
 73
     6
 40
6.3499999999999988
 49
3.1749999999999989
 49
-1.058074951171875
 49
0.352691650390625
 49
-0.7057708740234375
 49
0.352691650390625
 49
-0.7057708740234375
  0
LTYPE
  2
VECTORWORKS_DASH_09
 70
     0
  3
(unavailable)
 72
    65
 73
     4
 40
25.399999999999999
 49
19.04999999999999
 49
-1.411154174804687
 49
3.5276916503906239
 49
-1.411154174804687
  0
LTYPE
  2
VECTORWORKS_DASH_10
 70
     0
  3
(unavailable)
 72
    65
 73
     6
 40
30.162499999999991
 49
19.04999999999999
 49
-1.411154174804687
 49
3.5276916503906239
 49
-1.411154174804687
 49
3.1749999999999989
 49
-1.587499999999999
  0
ENDTAB
  0
TABLE
  2
LAYER
 70
     5
  0
LAYER
  2
0
 70
     0
 62
     7
  6
CONTINUOUS
  0
LAYER
  2
HIBINO-BASE
 70
     0
 62
     7
  6
CONTINUOUS
  0
LAYER
  2
SPEC
 70
     0
 62
     7
  6
CONTINUOUS
  0
LAYER
  2
DIMNSIONS
 70
     0
 62
     7
  6
CONTINUOUS
  0
LAYER
  2
DATA
 70
     0
 62
     7
  6
CONTINUOUS
  0
ENDTAB
  0
TABLE
  2
STYLE
 70
     1
  0
STYLE
  2
STANDARD
 70
     0
 40
0.0
 41
1.0
 50
0.0
 71
     0
 42
0.0
  3
txt
  4
BIGFONT.SHX
  0
ENDTAB
  0
TABLE
  2
VIEW
 70
     0
  0
ENDTAB
  0
TABLE
  2
UCS
 70
     0
  0
ENDTAB
  0
TABLE
  2
APPID
 70
     1
  0
APPID
  2
ACAD
 70
     0
  0
ENDTAB
  0
TABLE
  2
DIMSTYLE
 70
     1
  0
DIMSTYLE
  2
STANDARD
 70
     0
  3

  4

  5

  6

  7

 40
1.0
 41
0.18
 42
0.0625
 43
0.38
 44
0.18
 45
0.0
 46
0.0
 47
0.0
 48
0.0
140
0.18
141
0.09
142
0.0
143
25.399999999999999
144
1.0
145
0.0
146
1.0
147
0.09
 71
     0
 72
     0
 73
     1
 74
     1
 75
     0
 76
     0
 77
     0
 78
     0
170
     0
171
     2
172
     0
173
     0
174
     0
175
     0
176
     0
177
     0
178
     0
  0
ENDTAB
  0
ENDSEC
  0
SECTION
  2
BLOCKS
  0
BLOCK
  8
0
  2
$MODEL_SPACE
 70
     0
 10
0.0
 20
0.0
 30
0.0
  3
$MODEL_SPACE
  1

  0
ENDBLK
  5
1C3
  8
0
  0
BLOCK
 67
     1
  8
0
  2
$PAPER_SPACE
 70
     0
 10
0.0
 20
0.0
 30
0.0
  3
$PAPER_SPACE
  1

  0
ENDBLK
  5
1C1
 67
     1
  8
0
  0
BLOCK
  8
DIMNSIONS
  2
*G0
 70
     1
 10
0.0
 20
0.0
 30
0.0
  3
*G0
  1

  0
TEXT
  5
34
  8
DIMNSIONS
 62
     7
 10
-146.25
 20
218.17500000000001
 30
0.0
 40
12.699999999999999
  1
13.5
 11
-146.25
 21
230.87499999999989
 31
0.0
 73
     3
  0
ENDBLK
  5
35
  8
DIMNSIONS
  0
BLOCK
  8
DIMNSIONS
  2
*G1
 70
     1
 10
0.0
 20
0.0
 30
0.0
  3
*G1
  1

  0
TEXT
  5
37
  8
DIMNSIONS
 62
     7
 10
-158.17500000000001
 20
127.3759899999999
 30
0.0
 40
12.699999999999999
  1
36.5
 50
90.0
 11
-170.875
 21
127.3759899999999
 31
0.0
 73
     3
  0
ENDBLK
  5
38
  8
DIMNSIONS
  0
BLOCK
  8
DIMNSIONS
  2
*G2
 70
     1
 10
0.0
 20
0.0
 30
0.0
  3
*G2
  1

  0
TEXT
  5
3A
  8
DIMNSIONS
 62
     7
 10
-158.17500000000001
 20
72.375990000000002
 30
0.0
 40
12.699999999999999
  1
73.5
 50
90.0
 11
-170.875
 21
72.375990000000002
 31
0.0
 73
     3
  0
ENDBLK
  5
3B
  8
DIMNSIONS
  0
BLOCK
  8
DIMNSIONS
  2
*G3
 70
     1
 10
0.0
 20
0.0
 30
0.0
  3
*G3
  1

  0
TEXT
  5
3D
  8
DIMNSIONS
 62
     7
 10
-158.17500000000001
 20
-32.905259999999991
 30
0.0
 40
12.699999999999999
  1
145
 50
90.0
 11
-170.875
 21
-32.905259999999991
 31
0.0
 73
     3
  0
ENDBLK
  5
3E
  8
DIMNSIONS
  0
BLOCK
  8
DIMNSIONS
  2
*G4
 70
     1
 10
0.0
 20
0.0
 30
0.0
  3
*G4
  1

  0
TEXT
  5
40
  8
DIMNSIONS
 62
     7
 10
-158.17500000000001
 20
-137.93649999999991
 30
0.0
 40
12.699999999999999
  1
73
 50
90.0
 11
-170.875
 21
-137.93649999999991
 31
0.0
 73
     3
  0
ENDBLK
  5
41
  8
DIMNSIONS
  0
BLOCK
  8
DIMNSIONS
  2
*G5
 70
     1
 10
0.0
 20
0.0
 30
0.0
  3
*G5
  1

  0
TEXT
  5
43
  8
DIMNSIONS
 62
     7
 10
-158.17500000000001
 20
-248.09325000000001
 30
0.0
 40
12.699999999999999
  1
123.5
 50
90.0
 11
-170.875
 21
-248.09325000000001
 31
0.0
 73
     3
  0
ENDBLK
  5
44
  8
DIMNSIONS
  0
BLOCK
  8
DIMNSIONS
  2
*G6
 70
     1
 10
0.0
 20
0.0
 30
0.0
  3
*G6
  1

  0
TEXT
  5
46
  8
DIMNSIONS
 62
     7
 10
-127.9374999999999
 20
-331.82499999999987
 30
0.0
 40
12.699999999999999
  1
19
 11
-127.9374999999999
 21
-319.125
 31
0.0
 73
     3
  0
ENDBLK
  5
47
  8
DIMNSIONS
  0
BLOCK
  8
DIMNSIONS
  2
*G7
 70
     1
 10
0.0
 20
0.0
 30
0.0
  3
*G7
  1

  0
TEXT
  5
49
  8
DIMNSIONS
 62
     7
 10
-208.1749999999999
 20
-84.093260000000001
 30
0.0
 40
12.699999999999999
  1
451.5
 50
90.0
 11
-220.875
 21
-84.093260000000001
 31
0.0
 73
     3
  0
ENDBLK
  5
4A
  8
DIMNSIONS
  0
ENDSEC
  0
SECTION
  2
ENTITIES
  0
LINE
  5
4B
  8
HIBINO-BASE
  6
CONTINUOUS
 62
     7
 10
-260.0
 20
670.59546
 30
0.0
 11
460.0
 21
670.59546
 31
0.0
  0
LINE
  5
4C
  8
HIBINO-BASE
  6
CONTINUOUS
 62
     7
 10
460.0
 20
-369.40454
 30
0.0
 11
-260.0
 21
-369.40454
 31
0.0
  0
LINE
  5
4D
  8
HIBINO-BASE
  6
CONTINUOUS
 62
     7
 10
-260.0
 20
-369.40454
 30
0.0
 11
-260.0
 21
670.59546
 31
0.0
  0
TEXT
  5
4E
  8
HIBINO-BASE
 62
     7
 10
-231.26400000000001
 20
-393.91647999999998
 30
0.0
 40
14.97034
  1
Hibino Corporation
 11
-231.26400000000001
 21
-378.94614000000001
 31
0.0
 73
     3
  0
LINE
  5
4F
  8
HIBINO-BASE
  6
CONTINUOUS
 62
     7
 10
460.0
 20
670.59546
 30
0.0
 11
460.0
 21
-369.40454
 31
0.0
  0
LINE
  5
50
  8
HIBINO-BASE
  6
CONTINUOUS
 62
     7
 10
100.0
 20
-279.40453999999988
 30
0.0
 11
460.0
 21
-279.40453999999988
 31
0.0
  0
LINE
  5
51
  8
HIBINO-BASE
  6
CONTINUOUS
 62
     7
 10
100.0
 20
-369.40454
 30
0.0
 11
100.0
 21
-279.40453999999988
 31
0.0
  0
TEXT
  5
52
  8
HIBINO-BASE
 62
     7
 10
103.59999999999999
 20
-289.64316000000002
 30
0.0
 40
7.4851799999999988
  1
NOTE
 11
103.59999999999999
 21
-282.15798000000001
 31
0.0
 73
     3
  0
LINE
  5
53
  8
HIBINO-BASE
  6
CONTINUOUS
 62
     7
 10
240.0
 20
-369.40454
 30
0.0
 11
240.0
 21
-279.40453999999988
 31
0.0
  0
TEXT
  5
54
  8
HIBINO-BASE
 62
     7
 10
243.59999999999991
 20
-289.64316000000002
 30
0.0
 40
7.4851799999999988
  1
TITLE
 11
243.59999999999991
 21
-282.15798000000001
 31
0.0
 73
     3
  0
TEXT
  5
55
  8
HIBINO-BASE
 62
     7
 10
300.27355999999992
 20
-393.91647999999998
 30
0.0
 40
14.97034
  1
ヒビノ株式会社
 11
300.27355999999992
 21
-378.94614000000001
 31
0.0
 73
     3
  0
LINE
  5
56
  8
HIBINO-BASE
  6
CONTINUOUS
 62
     7
 10
100.0
 20
-329.40453999999988
 30
0.0
 11
460.0
 21
-329.40453999999988
 31
0.0
  0
TEXT
  5
57
  8
HIBINO-BASE
 62
     7
 10
293.60000000000002
 20
-339.41788000000003
 30
0.0
 40
7.4851799999999988
  1
DRAWN
 11
293.60000000000002
 21
-331.93270000000001
 31
0.0
 73
     3
  0
TEXT
  5
58
  8
HIBINO-BASE
 62
     7
 10
193.59999999999991
 20
-339.41788000000003
 30
0.0
 40
7.4851799999999988
  1
DATE
 11
193.59999999999991
 21
-331.93270000000001
 31
0.0
 73
     3
  0
TEXT
  5
59
  8
HIBINO-BASE
 62
     7
 10
104.40000000000001
 20
-339.37436000000002
 30
0.0
 40
6.7733400000000001
  1
図面サイズ
 11
104.40000000000001
 21
-332.60102000000001
 31
0.0
 73
     3
  0
TEXT
  5
5A
  8
HIBINO-BASE
 62
     7
 10
153.59999999999999
 20
-339.41788000000003
 30
0.0
 40
7.4851799999999988
  1
SCALE
 11
153.59999999999999
 21
-331.93270000000001
 31
0.0
 73
     3
  0
TEXT
  5
5B
  8
HIBINO-BASE
 62
     7
 10
243.59999999999991
 20
-339.41788000000003
 30
0.0
 40
7.4851799999999988
  1
DESIGN
 11
243.59999999999991
 21
-331.93270000000001
 31
0.0
 73
     3
  0
TEXT
  5
5C
  8
HIBINO-BASE
 62
     7
 10
393.60000000000002
 20
-339.41788000000003
 30
0.0
 40
7.4851799999999988
  1
DRAWING NO.
 11
393.60000000000002
 21
-331.93270000000001
 31
0.0
 73
     3
  0
TEXT
  5
5D
  8
HIBINO-BASE
 62
     7
 10
343.60000000000002
 20
-339.41788000000003
 30
0.0
 40
7.4851799999999988
  1
CHECK
 11
343.60000000000002
 21
-331.93270000000001
 31
0.0
 73
     3
  0
LINE
  5
5E
  8
HIBINO-BASE
  6
CONTINUOUS
 62
     7
 10
157.5
 20
-364.40453999999988
 30
0.0
 11
172.5
 21
-349.40454
 31
0.0
  0
TEXT
  5
5F
  8
HIBINO-BASE
 62
     7
 10
155.0
 20
-355.59007999999989
 30
0.0
 40
9.0311000000000003
  1
1
 11
155.0
 21
-346.55898000000002
 31
0.0
 73
     3
  0
LINE
  5
60
  8
HIBINO-BASE
  6
CONTINUOUS
 62
     7
 10
150.0
 20
-369.40454
 30
0.0
 11
150.0
 21
-329.40453999999988
 31
0.0
  0
LINE
  5
61
  8
HIBINO-BASE
  6
CONTINUOUS
 62
     7
 10
190.0
 20
-369.40454
 30
0.0
 11
190.0
 21
-329.40453999999988
 31
0.0
  0
LINE
  5
62
  8
HIBINO-BASE
  6
CONTINUOUS
 62
     7
 10
290.0
 20
-329.40453999999988
 30
0.0
 11
290.0
 21
-369.40454
 31
0.0
  0
LINE
  5
63
  8
HIBINO-BASE
  6
CONTINUOUS
 62
     7
 10
390.0
 20
-329.40453999999988
 30
0.0
 11
390.0
 21
-369.40454
 31
0.0
  0
LINE
  5
64
  8
HIBINO-BASE
  6
CONTINUOUS
 62
     7
 10
340.0
 20
-369.40454
 30
0.0
 11
340.0
 21
-329.40453999999988
 31
0.0
  0
TEXT
  5
65
  8
HIBINO-BASE
 62
     7
 10
115.64355999999999
 20
-358.39471999999989
 30
0.0
 40
13.54665999999999
  1
A4
 11
115.64355999999999
 21
-344.84805999999992
 31
0.0
 73
     3
  0
TEXT
  5
66
  8
HIBINO-BASE
 62
     7
 10
193.4261599999999
 20
-358.15379999999999
 30
0.0
 40
7.4851799999999988
  1
'95.02.
 11
193.4261599999999
 21
-350.66861999999992
 31
0.0
 73
     3
  0
TEXT
  5
67
  8
HIBINO-BASE
 62
     7
 10
170.0
 20
-363.09008
 30
0.0
 40
9.0311000000000003
  1
4
 11
170.0
 21
-354.05898000000002
 31
0.0
 73
     3
  0
LINE
  5
68
  8
SPEC
  6
CONTINUOUS
 62
     7
 10
-230.0
 20
630.59545999999989
 30
0.0
 11
100.0
 21
630.59545999999989
 31
0.0
  0
LINE
  5
69
  8
SPEC
  6
CONTINUOUS
 62
     7
 10
-230.0
 20
615.59546
 30
0.0
 11
100.0
 21
615.59546
 31
0.0
  0
LINE
  5
6A
  8
SPEC
  6
CONTINUOUS
 62
     7
 10
-230.0
 20
555.59545999999989
 30
0.0
 11
100.0
 21
555.59545999999989
 31
0.0
  0
LINE
  5
6B
  8
SPEC
  6
CONTINUOUS
 62
     7
 10
-230.0
 20
570.59546
 30
0.0
 11
100.0
 21
570.59546
 31
0.0
  0
LINE
  5
6C
  8
SPEC
  6
CONTINUOUS
 62
     7
 10
-230.0
 20
585.59546
 30
0.0
 11
100.0
 21
585.59546
 31
0.0
  0
LINE
  5
6D
  8
SPEC
  6
CONTINUOUS
 62
     7
 10
-230.0
 20
540.59546
 30
0.0
 11
100.0
 21
540.59546
 31
0.0
  0
LINE
  5
6E
  8
SPEC
  6
CONTINUOUS
 62
     7
 10
-230.0
 20
510.59546
 30
0.0
 11
100.0
 21
510.59546
 31
0.0
  0
LINE
  5
6F
  8
SPEC
  6
CONTINUOUS
 62
     7
 10
-230.0
 20
525.59545999999989
 30
0.0
 11
100.0
 21
525.59545999999989
 31
0.0
  0
LINE
  5
70
  8
SPEC
  6
CONTINUOUS
 62
     7
 10
-230.0
 20
495.59546
 30
0.0
 11
100.0
 21
495.59546
 31
0.0
  0
LINE
  5
71
  8
SPEC
  6
CONTINUOUS
 62
     7
 10
-230.0
 20
480.59545999999989
 30
0.0
 11
100.0
 21
480.59545999999989
 31
0.0
  0
LINE
  5
72
  8
SPEC
  6
CONTINUOUS
 62
     7
 10
-230.0
 20
600.59545999999989
 30
0.0
 11
100.0
 21
600.59545999999989
 31
0.0
  0
TEXT
  5
73
  8
SPEC
 62
     7
 10
-96.400000000000006
 20
619.33981000000006
 30
0.0
 40
7.9022100000000002
  1
エレクトレット・コンデンサー
 11
-96.400000000000006
 21
627.24202000000002
 31
0.0
 73
     3
  0
LINE
  5
74
  8
SPEC
  6
CONTINUOUS
 62
     7
 10
-230.0
 20
630.59545999999989
 30
0.0
 11
-230.0
 21
465.59546
 31
0.0
  0
TEXT
  5
75
  8
SPEC
 62
     7
 10
-225.0
 20
636.93053999999995
 30
0.0
 40
10.16
  1
仕様
 11
-225.0
 21
647.09053999999992
 31
0.0
 73
     3
  0
LINE
  5
76
  8
SPEC
  6
CONTINUOUS
 62
     7
 10
-100.0
 20
630.59545999999989
 30
0.0
 11
-100.0
 21
465.59546
 31
0.0
  0
LINE
  5
77
  8
SPEC
  6
CONTINUOUS
 62
     7
 10
100.0
 20
630.59545999999989
 30
0.0
 11
100.0
 21
465.59546
 31
0.0
  0
TEXT
  5
78
  8
SPEC
 62
     7
 10
-96.400000000000006
 20
484.33980999999989
 30
0.0
 40
7.9022100000000002
  1
直径19mm×長451.5mm
 11
-96.400000000000006
 21
492.24202000000002
 31
0.0
 73
     3
  0
TEXT
  5
79
  8
SPEC
 62
     7
 10
-96.400000000000006
 20
499.33981
 30
0.0
 40
7.9022100000000002
  1
黒
 11
-96.400000000000006
 21
507.24202000000002
 31
0.0
 73
     3
  0
TEXT
  5
7A
  8
SPEC
 62
     7
 10
-226.39999999999989
 20
559.33981000000006
 30
0.0
 40
7.9022100000000002
  1
インピーダンス
 11
-226.39999999999989
 21
567.24202000000002
 31
0.0
 73
     3
  0
TEXT
  5
7B
  8
SPEC
 62
     7
 10
-226.39999999999989
 20
619.33981000000006
 30
0.0
 40
7.9022100000000002
  1
形式
 11
-226.39999999999989
 21
627.24202000000002
 31
0.0
 73
     3
  0
TEXT
  5
7C
  8
SPEC
 62
     7
 10
-226.39999999999989
 20
469.33981
 30
0.0
 40
7.9022100000000002
  1
重量
 11
-226.39999999999989
 21
477.24202000000002
 31
0.0
 73
     3
  0
TEXT
  5
7D
  8
SPEC
 62
     7
 10
-226.39999999999989
 20
529.33981000000006
 30
0.0
 40
7.9022100000000002
  1
最大音圧レベル
 11
-226.39999999999989
 21
537.24202000000002
 31
0.0
 73
     3
  0
TEXT
  5
7E
  8
SPEC
 62
     7
 10
-226.39999999999989
 20
514.33981000000006
 30
0.0
 40
7.9022100000000002
  1
電源
 11
-226.39999999999989
 21
522.24202000000002
 31
0.0
 73
     3
  0
TEXT
  5
7F
  8
SPEC
 62
     7
 10
-226.39999999999989
 20
574.33981000000006
 30
0.0
 40
7.9022100000000002
  1
開回路感度
 11
-226.39999999999989
 21
582.24202000000002
 31
0.0
 73
     3
  0
TEXT
  5
80
  8
SPEC
 62
     7
 10
-226.39999999999989
 20
544.33981000000006
 30
0.0
 40
7.9022100000000002
  1
等価雑音レベル
 11
-226.39999999999989
 21
552.24202000000002
 31
0.0
 73
     3
  0
TEXT
  5
81
  8
SPEC
 62
     7
 10
-226.39999999999989
 20
604.33981000000006
 30
0.0
 40
7.9022100000000002
  1
指向特性
 11
-226.39999999999989
 21
612.24202000000002
 31
0.0
 73
     3
  0
TEXT
  5
82
  8
SPEC
 62
     7
 10
-226.39999999999989
 20
589.33981000000006
 30
0.0
 40
7.9022100000000002
  1
周波数特性
 11
-226.39999999999989
 21
597.24202000000002
 31
0.0
 73
     3
  0
TEXT
  5
83
  8
SPEC
 62
     7
 10
-226.39999999999989
 20
499.33981
 30
0.0
 40
7.9022100000000002
  1
色
 11
-226.39999999999989
 21
507.24202000000002
 31
0.0
 73
     3
  0
TEXT
  5
84
  8
SPEC
 62
     7
 10
-226.39999999999989
 20
484.33980999999989
 30
0.0
 40
7.9022100000000002
  1
寸法
 11
-226.39999999999989
 21
492.24202000000002
 31
0.0
 73
     3
  0
TEXT
  5
85
  8
SPEC
 62
     7
 10
-96.400000000000006
 20
559.33981000000006
 30
0.0
 40
7.9022100000000002
  1
150Ω
 11
-96.400000000000006
 21
567.24202000000002
 31
0.0
 73
     3
  0
TEXT
  5
86
  8
SPEC
 62
     7
 10
-96.400000000000006
 20
529.33981000000006
 30
0.0
 40
7.9022100000000002
  1
120dB SPL(3%%%THD)
 11
-96.400000000000006
 21
537.24202000000002
 31
0.0
 73
     3
  0
TEXT
  5
87
  8
SPEC
 62
     7
 10
-96.400000000000006
 20
514.33981000000006
 30
0.0
 40
7.9022100000000002
  1
ファンタム12V～48V/3.5mA
 11
-96.400000000000006
 21
522.24202000000002
 31
0.0
 73
     3
  0
TEXT
  5
88
  8
SPEC
 62
     7
 10
-96.400000000000006
 20
469.33981
 30
0.0
 40
7.9022100000000002
  1
約159g
 11
-96.400000000000006
 21
477.24202000000002
 31
0.0
 73
     3
  0
TEXT
  5
89
  8
SPEC
 62
     7
 10
-96.400000000000006
 20
574.33981000000006
 30
0.0
 40
7.9022100000000002
  1
-44.5dB re 1V/Pa
 11
-96.400000000000006
 21
582.24202000000002
 31
0.0
 73
     3
  0
TEXT
  5
8A
  8
SPEC
 62
     7
 10
-96.400000000000006
 20
544.33981000000006
 30
0.0
 40
7.9022100000000002
  1
28dB SPL(Aウエイト)
 11
-96.400000000000006
 21
552.24202000000002
 31
0.0
 73
     3
  0
TEXT
  5
8B
  8
SPEC
 62
     7
 10
-96.400000000000006
 20
589.33981000000006
 30
0.0
 40
7.9022100000000002
  1
80Hz～15kHz
 11
-96.400000000000006
 21
597.24202000000002
 31
0.0
 73
     3
  0
TEXT
  5
8C
  8
SPEC
 62
     7
 10
-96.400000000000006
 20
604.33981000000006
 30
0.0
 40
7.9022100000000002
  1
スーパーカーディオイド
 11
-96.400000000000006
 21
612.24202000000002
 31
0.0
 73
     3
  0
LINE
  5
8D
  8
SPEC
  6
CONTINUOUS
 62
     7
 10
-230.0
 20
465.59546
 30
0.0
 11
100.0
 21
465.59546
 31
0.0
  0
TEXT
  5
8E
  8
DIMNSIONS
 62
     7
 10
20.0
 20
-319.56457999999998
 30
0.0
 40
10.16
  1
(単位：mm)
 11
20.0
 21
-309.4045799999999
 31
0.0
 73
     3
  0
LINE
  5
8F
  8
DIMNSIONS
  6
CONTINUOUS
 62
     7
 10
2.75
 20
307.50098999999989
 30
0.0
 11
2.75
 21
358.0
 31
0.0
  0
LINE
  5
90
  8
DIMNSIONS
  6
CONTINUOUS
 62
     7
 10
16.25
 20
307.50098999999989
 30
0.0
 11
16.25
 21
358.0
 31
0.0
  0
LINE
  5
91
  8
DIMNSIONS
  6
CONTINUOUS
 62
     7
 10
16.25
 20
350.0
 30
0.0
 11
2.75
 21
350.0
 31
0.0
  0
LINE
  5
93
  8
DIMNSIONS
 62
     7
 10
2.75
 20
350.0
 30
0.0
 11
-9.9500000000000028
 21
346.59703999999988
 31
0.0
  0
LINE
  5
94
  8
DIMNSIONS
 62
     7
 10
2.75
 20
350.0
 30
0.0
 11
-9.9500000000000028
 21
353.40294999999998
 31
0.0
  0
LINE
  5
92
  8
DIMNSIONS
  6
CONTINUOUS
 62
     7
 10
2.75
 20
350.0
 30
0.0
 11
-46.25
 21
350.0
 31
0.0
  0
LINE
  5
96
  8
DIMNSIONS
 62
     7
 10
16.25
 20
350.0
 30
0.0
 11
28.94999
 21
353.40294999999998
 31
0.0
  0
LINE
  5
97
  8
DIMNSIONS
 62
     7
 10
16.25
 20
350.0
 30
0.0
 11
28.94999
 21
346.59703999999988
 31
0.0
  0
LINE
  5
95
  8
DIMNSIONS
  6
CONTINUOUS
 62
     7
 10
16.25
 20
350.0
 30
0.0
 11
36.25
 21
350.0
 31
0.0
  0
INSERT
  5
98
  8
DIMNSIONS
  2
*G0
 10
100.0
 20
140.0
 30
0.0
  0
LINE
  5
99
  8
DIMNSIONS
  6
CONTINUOUS
 62
     7
 10
-3.5
 20
301.50098999999989
 30
0.0
 11
-58.0
 21
301.50098999999989
 31
0.0
  0
LINE
  5
9A
  8
DIMNSIONS
  6
CONTINUOUS
 62
     7
 10
-2.5
 20
265.00099
 30
0.0
 11
-58.0
 21
265.00099
 31
0.0
  0
LINE
  5
9C
  8
DIMNSIONS
 62
     7
 10
-50.0
 20
301.50098999999989
 30
0.0
 11
-46.597049999999989
 21
288.80099000000001
 31
0.0
  0
LINE
  5
9D
  8
DIMNSIONS
 62
     7
 10
-50.0
 20
301.50098999999989
 30
0.0
 11
-53.402960000000007
 21
288.80099000000001
 31
0.0
  0
LINE
  5
9E
  8
DIMNSIONS
 62
     7
 10
-50.0
 20
265.00099
 30
0.0
 11
-53.402960000000007
 21
277.7009799999999
 31
0.0
  0
LINE
  5
9F
  8
DIMNSIONS
 62
     7
 10
-50.0
 20
265.00099
 30
0.0
 11
-46.597049999999989
 21
277.7009799999999
 31
0.0
  0
LINE
  5
9B
  8
DIMNSIONS
  6
CONTINUOUS
 62
     7
 10
-50.0
 20
301.50098999999989
 30
0.0
 11
-50.0
 21
265.00099
 31
0.0
  0
INSERT
  5
A0
  8
DIMNSIONS
  2
*G1
 10
100.0
 20
140.0
 30
0.0
  0
LINE
  5
A1
  8
DIMNSIONS
  6
CONTINUOUS
 62
     7
 10
-2.5
 20
265.00099
 30
0.0
 11
-58.0
 21
265.00099
 31
0.0
  0
LINE
  5
A2
  8
DIMNSIONS
  6
CONTINUOUS
 62
     7
 10
-1.75
 20
191.50099
 30
0.0
 11
-58.0
 21
191.50099
 31
0.0
  0
LINE
  5
A4
  8
DIMNSIONS
 62
     7
 10
-50.0
 20
265.00099
 30
0.0
 11
-46.597049999999989
 21
252.30099000000001
 31
0.0
  0
LINE
  5
A5
  8
DIMNSIONS
 62
     7
 10
-50.0
 20
265.00099
 30
0.0
 11
-53.402960000000007
 21
252.30099000000001
 31
0.0
  0
LINE
  5
A6
  8
DIMNSIONS
 62
     7
 10
-50.0
 20
191.50099
 30
0.0
 11
-53.402960000000007
 21
204.20097999999999
 31
0.0
  0
LINE
  5
A7
  8
DIMNSIONS
 62
     7
 10
-50.0
 20
191.50099
 30
0.0
 11
-46.597049999999989
 21
204.20097999999999
 31
0.0
  0
LINE
  5
A3
  8
DIMNSIONS
  6
CONTINUOUS
 62
     7
 10
-50.0
 20
265.00099
 30
0.0
 11
-50.0
 21
191.50099
 31
0.0
  0
INSERT
  5
A8
  8
DIMNSIONS
  2
*G2
 10
100.0
 20
140.0
 30
0.0
  0
LINE
  5
A9
  8
DIMNSIONS
  6
CONTINUOUS
 62
     7
 10
-1.75
 20
191.50099
 30
0.0
 11
-58.0
 21
191.50099
 31
0.0
  0
LINE
  5
AA
  8
DIMNSIONS
  6
CONTINUOUS
 62
     7
 10
-2.25
 20
46.501000000000012
 30
0.0
 11
-58.0
 21
46.501000000000012
 31
0.0
  0
LINE
  5
AC
  8
DIMNSIONS
 62
     7
 10
-50.0
 20
191.50099
 30
0.0
 11
-46.597049999999989
 21
178.80099000000001
 31
0.0
  0
LINE
  5
AD
  8
DIMNSIONS
 62
     7
 10
-50.0
 20
191.50099
 30
0.0
 11
-53.402960000000007
 21
178.80099000000001
 31
0.0
  0
LINE
  5
AE
  8
DIMNSIONS
 62
     7
 10
-50.0
 20
46.501000000000012
 30
0.0
 11
-53.402960000000007
 21
59.200989999999997
 31
0.0
  0
LINE
  5
AF
  8
DIMNSIONS
 62
     7
 10
-50.0
 20
46.501000000000012
 30
0.0
 11
-46.597049999999989
 21
59.200989999999997
 31
0.0
  0
LINE
  5
AB
  8
DIMNSIONS
  6
CONTINUOUS
 62
     7
 10
-50.0
 20
191.50099
 30
0.0
 11
-50.0
 21
46.501000000000012
 31
0.0
  0
INSERT
  5
B0
  8
DIMNSIONS
  2
*G3
 10
100.0
 20
140.0
 30
0.0
  0
LINE
  5
B1
  8
DIMNSIONS
  6
CONTINUOUS
 62
     7
 10
-2.25
 20
46.501000000000012
 30
0.0
 11
-58.0
 21
46.501000000000012
 31
0.0
  0
LINE
  5
B2
  8
DIMNSIONS
  6
CONTINUOUS
 62
     7
 10
-3.5
 20
-26.498999999999992
 30
0.0
 11
-58.0
 21
-26.498999999999992
 31
0.0
  0
LINE
  5
B4
  8
DIMNSIONS
 62
     7
 10
-50.0
 20
46.501000000000012
 30
0.0
 11
-46.597049999999989
 21
33.801000000000002
 31
0.0
  0
LINE
  5
B5
  8
DIMNSIONS
 62
     7
 10
-50.0
 20
46.501000000000012
 30
0.0
 11
-53.402960000000007
 21
33.801000000000002
 31
0.0
  0
LINE
  5
B6
  8
DIMNSIONS
 62
     7
 10
-50.0
 20
-26.498999999999992
 30
0.0
 11
-53.402960000000007
 21
-13.79901000000001
 31
0.0
  0
LINE
  5
B7
  8
DIMNSIONS
 62
     7
 10
-50.0
 20
-26.498999999999992
 30
0.0
 11
-46.597049999999989
 21
-13.79901000000001
 31
0.0
  0
LINE
  5
B3
  8
DIMNSIONS
  6
CONTINUOUS
 62
     7
 10
-50.0
 20
46.501000000000012
 30
0.0
 11
-50.0
 21
-26.498999999999992
 31
0.0
  0
INSERT
  5
B8
  8
DIMNSIONS
  2
*G4
 10
100.0
 20
140.0
 30
0.0
  0
LINE
  5
B9
  8
DIMNSIONS
  6
CONTINUOUS
 62
     7
 10
-3.5
 20
-26.498999999999992
 30
0.0
 11
-58.0
 21
-26.498999999999992
 31
0.0
  0
LINE
  5
BA
  8
DIMNSIONS
  6
CONTINUOUS
 62
     7
 10
-8.0
 20
-150.0
 30
0.0
 11
-58.0
 21
-150.0
 31
0.0
  0
LINE
  5
BC
  8
DIMNSIONS
 62
     7
 10
-50.0
 20
-26.498999999999992
 30
0.0
 11
-46.597049999999989
 21
-39.199000000000012
 31
0.0
  0
LINE
  5
BD
  8
DIMNSIONS
 62
     7
 10
-50.0
 20
-26.498999999999992
 30
0.0
 11
-53.402960000000007
 21
-39.199000000000012
 31
0.0
  0
LINE
  5
BE
  8
DIMNSIONS
 62
     7
 10
-50.0
 20
-150.0
 30
0.0
 11
-53.402960000000007
 21
-137.3000099999999
 31
0.0
  0
LINE
  5
BF
  8
DIMNSIONS
 62
     7
 10
-50.0
 20
-150.0
 30
0.0
 11
-46.597049999999989
 21
-137.3000099999999
 31
0.0
  0
LINE
  5
BB
  8
DIMNSIONS
  6
CONTINUOUS
 62
     7
 10
-50.0
 20
-26.498999999999992
 30
0.0
 11
-50.0
 21
-150.0
 31
0.0
  0
INSERT
  5
C0
  8
DIMNSIONS
  2
*G5
 10
100.0
 20
140.0
 30
0.0
  0
LINE
  5
C1
  8
DIMNSIONS
  6
CONTINUOUS
 62
     7
 10
0.0
 20
-158.0
 30
0.0
 11
0.0
 21
-208.0
 31
0.0
  0
LINE
  5
C2
  8
DIMNSIONS
  6
CONTINUOUS
 62
     7
 10
19.0
 20
-158.0
 30
0.0
 11
19.0
 21
-208.0
 31
0.0
  0
LINE
  5
C3
  8
DIMNSIONS
  6
CONTINUOUS
 62
     7
 10
19.0
 20
-200.0
 30
0.0
 11
0.0
 21
-200.0
 31
0.0
  0
LINE
  5
C5
  8
DIMNSIONS
 62
     7
 10
0.0
 20
-200.0
 30
0.0
 11
-12.699999999999999
 21
-203.40296000000001
 31
0.0
  0
LINE
  5
C6
  8
DIMNSIONS
 62
     7
 10
0.0
 20
-200.0
 30
0.0
 11
-12.699999999999999
 21
-196.59705
 31
0.0
  0
LINE
  5
C4
  8
DIMNSIONS
  6
CONTINUOUS
 62
     7
 10
0.0
 20
-200.0
 30
0.0
 11
-27.9375
 21
-200.0
 31
0.0
  0
LINE
  5
C8
  8
DIMNSIONS
 62
     7
 10
19.0
 20
-200.0
 30
0.0
 11
31.69999
 21
-196.59705
 31
0.0
  0
LINE
  5
C9
  8
DIMNSIONS
 62
     7
 10
19.0
 20
-200.0
 30
0.0
 11
31.69999
 21
-203.40296000000001
 31
0.0
  0
LINE
  5
C7
  8
DIMNSIONS
  6
CONTINUOUS
 62
     7
 10
19.0
 20
-200.0
 30
0.0
 11
39.0
 21
-200.0
 31
0.0
  0
INSERT
  5
CA
  8
DIMNSIONS
  2
*G6
 10
100.0
 20
140.0
 30
0.0
  0
LINE
  5
CB
  8
DIMNSIONS
  6
CONTINUOUS
 62
     7
 10
-8.0
 20
-150.0
 30
0.0
 11
-108.0
 21
-150.0
 31
0.0
  0
LINE
  5
CC
  8
DIMNSIONS
  6
CONTINUOUS
 62
     7
 10
-3.5
 20
301.50098999999989
 30
0.0
 11
-108.0
 21
301.50098999999989
 31
0.0
  0
LINE
  5
CE
  8
DIMNSIONS
 62
     7
 10
-100.0
 20
-150.0
 30
0.0
 11
-103.40295999999989
 21
-137.3000099999999
 31
0.0
  0
LINE
  5
CF
  8
DIMNSIONS
 62
     7
 10
-100.0
 20
-150.0
 30
0.0
 11
-96.597049999999996
 21
-137.3000099999999
 31
0.0
  0
LINE
  5
D0
  8
DIMNSIONS
 62
     7
 10
-100.0
 20
301.50098999999989
 30
0.0
 11
-96.597049999999996
 21
288.80099000000001
 31
0.0
  0
LINE
  5
D1
  8
DIMNSIONS
 62
     7
 10
-100.0
 20
301.50098999999989
 30
0.0
 11
-103.40295999999989
 21
288.80099000000001
 31
0.0
  0
LINE
  5
CD
  8
DIMNSIONS
  6
CONTINUOUS
 62
     7
 10
-100.0
 20
-150.0
 30
0.0
 11
-100.0
 21
301.50098999999989
 31
0.0
  0
INSERT
  5
D2
  8
DIMNSIONS
  2
*G7
 10
100.0
 20
140.0
 30
0.0
  0
TEXT
  5
D3
  8
DATA
 62
     7
 10
300.0
 20
-324.11898000000002
 30
0.0
 40
10.16
  1
LM-300A
 11
300.0
 21
-313.95897999999988
 31
0.0
 73
     3
  0
TEXT
  5
D4
  8
DATA
 62
     7
 10
300.0
 20
-295.11898000000002
 30
0.0
 40
10.16
  1
Amcron
 11
300.0
 21
-284.95898
 31
0.0
 73
     3
  0
TEXT
  5
D5
  8
DATA
 62
     7
 10
290.0
 20
-309.2808
 30
0.0
 40
6.7733400000000001
  1
デュアル・グーズネック
 11
290.0
 21
-302.50745999999992
 31
0.0
 73
     3
  0
LINE
  5
D6
  8
DATA
  6
CONTINUOUS
 62
     7
 10
6.25
 20
78.000990000000002
 30
0.0
 11
6.25
 21
191.50099
 31
0.0
  0
LINE
  5
D7
  8
DATA
  6
CONTINUOUS
 62
     7
 10
12.75
 20
78.000990000000002
 30
0.0
 11
12.75
 21
191.50099
 31
0.0
  0
LINE
  5
D8
  8
DATA
  6
CONTINUOUS
 62
     7
 10
133.3299999999999
 20
69.046989999999994
 30
0.0
 11
190.0799999999999
 21
167.34099000000001
 31
0.0
  0
LINE
  5
D9
  8
DATA
  6
CONTINUOUS
 62
     7
 10
138.959
 20
65.796989999999994
 30
0.0
 11
195.70899999999989
 21
164.09099000000001
 31
0.0
  0
LINE
  5
DA
  8
DATA
  6
CONTINUOUS
 62
     7
 10
19.0
 20
-40.499000000000002
 30
0.0
 11
19.0
 21
-150.0
 31
0.0
  0
LINE
  5
DB
  8
DATA
  6
CONTINUOUS
 62
     7
 10
0.0
 20
-150.0
 30
0.0
 11
0.0
 21
-40.499000000000002
 31
0.0
  0
LINE
  5
DC
  8
DATA
  6
CONTINUOUS
 62
     7
 10
19.0
 20
-150.0
 30
0.0
 11
0.0
 21
-150.0
 31
0.0
  0
LINE
  5
DD
  8
DATA
  6
CONTINUOUS
 62
     7
 10
8.0
 20
-133.499
 30
0.0
 11
11.0
 21
-133.499
 31
0.0
  0
LINE
  5
DE
  8
DATA
  6
CONTINUOUS
 62
     7
 10
9.5
 20
-134.999
 30
0.0
 11
9.5
 21
-131.999
 31
0.0
  0
CIRCLE
  5
DF
  8
DATA
  6
CONTINUOUS
 62
     7
 10
9.5
 20
-133.499
 30
0.0
 40
2.5
  0
LINE
  5
E0
  8
DATA
  6
CONTINUOUS
 62
     7
 10
13.25
 20
46.501000000000012
 30
0.0
 11
13.25
 21
-26.498999999999992
 31
0.0
  0
LINE
  5
E1
  8
DATA
  6
CONTINUOUS
 62
     7
 10
5.75
 20
-26.498999999999992
 30
0.0
 11
5.75
 21
46.501000000000012
 31
0.0
  0
LINE
  5
E2
  8
DATA
  6
CONTINUOUS
 62
     7
 10
13.25
 20
2.957999999999998
 30
0.0
 11
5.75
 21
0.9480000000000075
 31
0.0
  0
LINE
  5
E3
  8
DATA
  6
CONTINUOUS
 62
     7
 10
13.25
 20
-1.1829899999999891
 30
0.0
 11
5.75
 21
-3.192990000000008
 31
0.0
  0
LINE
  5
E4
  8
DATA
  6
CONTINUOUS
 62
     7
 10
13.25
 20
-5.3240000000000123
 30
0.0
 11
5.75
 21
-7.3340000000000032
 31
0.0
  0
LINE
  5
E5
  8
DATA
  6
CONTINUOUS
 62
     7
 10
13.25
 20
-9.4650000000000034
 30
0.0
 11
5.75
 21
-11.474999999999991
 31
0.0
  0
LINE
  5
E6
  8
DATA
  6
CONTINUOUS
 62
     7
 10
13.25
 20
-13.60598999999999
 30
0.0
 11
5.75
 21
-15.615990000000011
 31
0.0
  0
LINE
  5
E7
  8
DATA
  6
CONTINUOUS
 62
     7
 10
13.25
 20
-17.747000000000011
 30
0.0
 11
5.75
 21
-19.757000000000001
 31
0.0
  0
LINE
  5
E8
  8
DATA
  6
CONTINUOUS
 62
     7
 10
19.0
 20
-40.499000000000002
 30
0.0
 11
14.5
 21
-26.498999999999992
 31
0.0
  0
LINE
  5
E9
  8
DATA
  6
CONTINUOUS
 62
     7
 10
0.0
 20
-40.499000000000002
 30
0.0
 11
19.0
 21
-40.499000000000002
 31
0.0
  0
LINE
  5
EA
  8
DATA
  6
CONTINUOUS
 62
     7
 10
0.0
 20
-55.499000000000002
 30
0.0
 11
19.0
 21
-55.499000000000002
 31
0.0
  0
LINE
  5
EB
  8
DATA
  6
CONTINUOUS
 62
     7
 10
19.0
 20
-47.999000000000002
 30
0.0
 11
0.0
 21
-47.999000000000002
 31
0.0
  0
LINE
  5
EC
  8
DATA
  6
CONTINUOUS
 62
     7
 10
8.5
 20
-75.998999999999995
 30
0.0
 11
8.5
 21
-82.998999999999995
 31
0.0
  0
LINE
  5
ED
  8
DATA
  6
CONTINUOUS
 62
     7
 10
10.5
 20
-75.998999999999995
 30
0.0
 11
10.5
 21
-82.998999999999995
 31
0.0
  0
LINE
  5
EE
  8
DATA
  6
CONTINUOUS
 62
     7
 10
9.0
 20
-79.998999999999995
 30
0.0
 11
10.0
 21
-79.998999999999995
 31
0.0
  0
LINE
  5
EF
  8
DATA
  6
CONTINUOUS
 62
     7
 10
10.0
 20
-79.998999999999995
 30
0.0
 11
10.0
 21
-81.498999999999995
 31
0.0
  0
LINE
  5
F0
  8
DATA
  6
CONTINUOUS
 62
     7
 10
10.0
 20
-81.498999999999995
 30
0.0
 11
9.0
 21
-81.498999999999995
 31
0.0
  0
LINE
  5
F1
  8
DATA
  6
CONTINUOUS
 62
     7
 10
9.0
 20
-81.498999999999995
 30
0.0
 11
9.0
 21
-79.998999999999995
 31
0.0
  0
LINE
  5
F2
  8
DATA
  6
CONTINUOUS
 62
     7
 10
4.5
 20
-26.498999999999992
 30
0.0
 11
0.0
 21
-40.499000000000002
 31
0.0
  0
LINE
  5
F3
  8
DATA
  6
CONTINUOUS
 62
     7
 10
13.25
 20
-26.498999999999992
 30
0.0
 11
5.75
 21
-26.498999999999992
 31
0.0
  0
LINE
  5
F4
  8
DATA
  6
CONTINUOUS
 62
     7
 10
13.25
 20
-21.887989999999999
 30
0.0
 11
5.75
 21
-23.897989999999989
 31
0.0
  0
LINE
  5
F5
  8
DATA
  6
CONTINUOUS
 62
     7
 10
13.24998999999999
 20
-26.030000000000001
 30
0.0
 11
11.495990000000001
 21
-26.498999999999992
 31
0.0
  0
LINE
  5
F6
  8
DATA
  6
CONTINUOUS
 62
     7
 10
4.5
 20
-26.498999999999992
 30
0.0
 11
14.5
 21
-26.498999999999992
 31
0.0
  0
ARC
  5
F7
  8
DATA
  6
CONTINUOUS
 62
     7
 10
9.5
 20
-82.998999999999995
 30
0.0
 40
1.0
 50
180.0
 51
0.0
  0
ARC
  5
F8
  8
DATA
  6
CONTINUOUS
 62
     7
 10
9.5
 20
-75.998999999999995
 30
0.0
 40
1.0
 50
0.0
 51
180.0
  0
LINE
  5
F9
  8
DATA
  6
CONTINUOUS
 62
     7
 10
5.75
 20
46.501000000000012
 30
0.0
 11
13.25
 21
46.501000000000012
 31
0.0
  0
LINE
  5
FA
  8
DATA
  6
CONTINUOUS
 62
     7
 10
13.25
 20
44.369010000000003
 30
0.0
 11
5.75
 21
42.359009999999998
 31
0.0
  0
LINE
  5
FB
  8
DATA
  6
CONTINUOUS
 62
     7
 10
13.25
 20
40.228009999999998
 30
0.0
 11
5.75
 21
38.21801
 31
0.0
  0
LINE
  5
FC
  8
DATA
  6
CONTINUOUS
 62
     7
 10
13.25
 20
36.087000000000003
 30
0.0
 11
5.75
 21
34.076999999999998
 31
0.0
  0
LINE
  5
FD
  8
DATA
  6
CONTINUOUS
 62
     7
 10
13.25
 20
31.945999999999991
 30
0.0
 11
5.75
 21
29.936
 31
0.0
  0
LINE
  5
FE
  8
DATA
  6
CONTINUOUS
 62
     7
 10
13.25
 20
27.805009999999989
 30
0.0
 11
5.75
 21
25.795010000000001
 31
0.0
  0
LINE
  5
FF
  8
DATA
  6
CONTINUOUS
 62
     7
 10
13.25
 20
23.664000000000001
 30
0.0
 11
5.75
 21
21.653999999999989
 31
0.0
  0
LINE
  5
100
  8
DATA
  6
CONTINUOUS
 62
     7
 10
13.25
 20
19.521999999999998
 30
0.0
 11
5.75
 21
17.513000000000002
 31
0.0
  0
LINE
  5
101
  8
DATA
  6
CONTINUOUS
 62
     7
 10
13.25
 20
15.381
 30
0.0
 11
5.75
 21
13.372
 31
0.0
  0
LINE
  5
102
  8
DATA
  6
CONTINUOUS
 62
     7
 10
13.25
 20
11.24
 30
0.0
 11
5.75
 21
9.2309999999999945
 31
0.0
  0
LINE
  5
103
  8
DATA
  6
CONTINUOUS
 62
     7
 10
6.0
 20
78.001000000000005
 30
0.0
 11
13.0
 21
78.001000000000005
 31
0.0
  0
LINE
  5
104
  8
DATA
  6
CONTINUOUS
 62
     7
 10
4.75
 20
62.251000000000012
 30
0.0
 11
6.0
 21
78.001000000000005
 31
0.0
  0
LINE
  5
105
  8
DATA
  6
CONTINUOUS
 62
     7
 10
13.0
 20
78.001000000000005
 30
0.0
 11
14.25
 21
62.251000000000012
 31
0.0
  0
LINE
  5
106
  8
DATA
  6
CONTINUOUS
 62
     7
 10
14.25
 20
62.251000000000012
 30
0.0
 11
13.25
 21
46.501000000000012
 31
0.0
  0
LINE
  5
107
  8
DATA
  6
CONTINUOUS
 62
     7
 10
5.75
 20
46.501000000000012
 30
0.0
 11
4.75
 21
62.251000000000012
 31
0.0
  0
LINE
  5
108
  8
DATA
  6
CONTINUOUS
 62
     7
 10
13.25
 20
7.0989999999999887
 30
0.0
 11
5.75
 21
5.0900000000000034
 31
0.0
  0
LINE
  5
109
  8
DATA
  6
CONTINUOUS
 62
     7
 10
119.0
 20
-40.499000000000002
 30
0.0
 11
119.0
 21
-150.0
 31
0.0
  0
LINE
  5
10A
  8
DATA
  6
CONTINUOUS
 62
     7
 10
100.0
 20
-150.0
 30
0.0
 11
100.0
 21
-40.499000000000002
 31
0.0
  0
LINE
  5
10B
  8
DATA
  6
CONTINUOUS
 62
     7
 10
119.0
 20
-150.0
 30
0.0
 11
100.0
 21
-150.0
 31
0.0
  0
LINE
  5
10C
  8
DATA
  6
CONTINUOUS
 62
     7
 10
108.0
 20
-133.499
 30
0.0
 11
111.0
 21
-133.499
 31
0.0
  0
LINE
  5
10D
  8
DATA
  6
CONTINUOUS
 62
     7
 10
109.4999999999999
 20
-134.999
 30
0.0
 11
109.4999999999999
 21
-131.999
 31
0.0
  0
CIRCLE
  5
10E
  8
DATA
  6
CONTINUOUS
 62
     7
 10
109.4999999999999
 20
-133.499
 30
0.0
 40
2.5
  0
LINE
  5
10F
  8
DATA
  6
CONTINUOUS
 62
     7
 10
113.25
 20
-26.498999999999992
 30
0.0
 11
113.25
 21
13.500999999999999
 31
0.0
  0
LINE
  5
110
  8
DATA
  6
CONTINUOUS
 62
     7
 10
105.75
 20
13.500999999999999
 30
0.0
 11
105.75
 21
-26.498999999999992
 31
0.0
  0
LINE
  5
111
  8
DATA
  6
CONTINUOUS
 62
     7
 10
113.25
 20
2.957999999999998
 30
0.0
 11
105.75
 21
0.9480000000000075
 31
0.0
  0
LINE
  5
112
  8
DATA
  6
CONTINUOUS
 62
     7
 10
113.25
 20
-1.1829899999999891
 30
0.0
 11
105.75
 21
-3.192990000000008
 31
0.0
  0
LINE
  5
113
  8
DATA
  6
CONTINUOUS
 62
     7
 10
113.25
 20
-5.3240000000000123
 30
0.0
 11
105.75
 21
-7.3340000000000032
 31
0.0
  0
LINE
  5
114
  8
DATA
  6
CONTINUOUS
 62
     7
 10
113.25
 20
-9.4650000000000034
 30
0.0
 11
105.75
 21
-11.474999999999991
 31
0.0
  0
LINE
  5
115
  8
DATA
  6
CONTINUOUS
 62
     7
 10
113.25
 20
-13.60598999999999
 30
0.0
 11
105.75
 21
-15.615990000000011
 31
0.0
  0
LINE
  5
116
  8
DATA
  6
CONTINUOUS
 62
     7
 10
113.25
 20
-17.747000000000011
 30
0.0
 11
105.75
 21
-19.757000000000001
 31
0.0
  0
LINE
  5
117
  8
DATA
  6
CONTINUOUS
 62
     7
 10
108.4999999999999
 20
-75.998999999999995
 30
0.0
 11
108.4999999999999
 21
-82.998999999999995
 31
0.0
  0
LINE
  5
118
  8
DATA
  6
CONTINUOUS
 62
     7
 10
110.4999999999999
 20
-75.998999999999995
 30
0.0
 11
110.4999999999999
 21
-82.998999999999995
 31
0.0
  0
LINE
  5
119
  8
DATA
  6
CONTINUOUS
 62
     7
 10
109.0
 20
-79.998999999999995
 30
0.0
 11
110.0
 21
-79.998999999999995
 31
0.0
  0
LINE
  5
11A
  8
DATA
  6
CONTINUOUS
 62
     7
 10
110.0
 20
-79.998999999999995
 30
0.0
 11
110.0
 21
-81.498999999999995
 31
0.0
  0
LINE
  5
11B
  8
DATA
  6
CONTINUOUS
 62
     7
 10
110.0
 20
-81.498999999999995
 30
0.0
 11
109.0
 21
-81.498999999999995
 31
0.0
  0
LINE
  5
11C
  8
DATA
  6
CONTINUOUS
 62
     7
 10
109.0
 20
-81.498999999999995
 30
0.0
 11
109.0
 21
-79.998999999999995
 31
0.0
  0
LINE
  5
11D
  8
DATA
  6
CONTINUOUS
 62
     7
 10
104.4999999999999
 20
-26.498999999999992
 30
0.0
 11
100.0
 21
-40.499000000000002
 31
0.0
  0
LINE
  5
11E
  8
DATA
  6
CONTINUOUS
 62
     7
 10
119.0
 20
-40.499000000000002
 30
0.0
 11
114.5
 21
-26.498999999999992
 31
0.0
  0
LINE
  5
11F
  8
DATA
  6
CONTINUOUS
 62
     7
 10
100.0
 20
-40.499000000000002
 30
0.0
 11
119.0
 21
-40.499000000000002
 31
0.0
  0
LINE
  5
120
  8
DATA
  6
CONTINUOUS
 62
     7
 10
100.0
 20
-55.499000000000002
 30
0.0
 11
119.0
 21
-55.499000000000002
 31
0.0
  0
LINE
  5
121
  8
DATA
  6
CONTINUOUS
 62
     7
 10
119.0
 20
-47.999000000000002
 30
0.0
 11
100.0
 21
-47.999000000000002
 31
0.0
  0
LINE
  5
122
  8
DATA
  6
CONTINUOUS
 62
     7
 10
104.4999999999999
 20
-26.498999999999992
 30
0.0
 11
114.5
 21
-26.498999999999992
 31
0.0
  0
LINE
  5
123
  8
DATA
  6
CONTINUOUS
 62
     7
 10
105.75
 20
-26.498999999999992
 30
0.0
 11
113.25
 21
-26.498999999999992
 31
0.0
  0
LINE
  5
124
  8
DATA
  6
CONTINUOUS
 62
     7
 10
113.25
 20
-21.887989999999999
 30
0.0
 11
105.75
 21
-23.897989999999989
 31
0.0
  0
LINE
  5
125
  8
DATA
  6
CONTINUOUS
 62
     7
 10
113.25
 20
-26.030000000000001
 30
0.0
 11
111.4959999999999
 21
-26.498999999999992
 31
0.0
  0
ARC
  5
126
  8
DATA
  6
CONTINUOUS
 62
     7
 10
109.4999999999999
 20
-82.998999999999995
 30
0.0
 40
1.0
 50
180.0
 51
0.0
  0
ARC
  5
127
  8
DATA
  6
CONTINUOUS
 62
     7
 10
109.4999999999999
 20
-75.998999999999995
 30
0.0
 40
1.0
 50
0.0
 51
180.0
  0
LINE
  5
128
  8
DATA
  6
CONTINUOUS
 62
     7
 10
133.11399999999989
 20
69.171999999999997
 30
0.0
 11
139.1759999999999
 21
65.671999999999997
 31
0.0
  0
LINE
  5
129
  8
DATA
  6
CONTINUOUS
 62
     7
 10
124.15599999999991
 20
56.156999999999996
 30
0.0
 11
133.11399999999989
 21
69.171999999999997
 31
0.0
  0
LINE
  5
12A
  8
DATA
  6
CONTINUOUS
 62
     7
 10
139.1759999999999
 20
65.671999999999997
 30
0.0
 11
132.38300000000001
 21
51.406999999999989
 31
0.0
  0
LINE
  5
12B
  8
DATA
  6
CONTINUOUS
 62
     7
 10
117.14700000000001
 20
42.016999999999989
 30
0.0
 11
123.642
 21
38.266999999999989
 31
0.0
  0
LINE
  5
12C
  8
DATA
  6
CONTINUOUS
 62
     7
 10
113.25
 20
11.24
 30
0.0
 11
105.75
 21
9.2309999999999945
 31
0.0
  0
LINE
  5
12D
  8
DATA
  6
CONTINUOUS
 62
     7
 10
122.577
 20
36.421000000000006
 30
0.0
 11
115.077
 21
38.43099999999999
 31
0.0
  0
LINE
  5
12E
  8
DATA
  6
CONTINUOUS
 62
     7
 10
120.5059899999999
 20
32.834999999999987
 30
0.0
 11
113.00599
 21
34.843999999999987
 31
0.0
  0
LINE
  5
12F
  8
DATA
  6
CONTINUOUS
 62
     7
 10
113.352
 20
15.83199999999999
 30
0.0
 11
105.82899999999989
 21
15.83199999999999
 31
0.0
  0
LINE
  5
130
  8
DATA
  6
CONTINUOUS
 62
     7
 10
106.753
 20
21.73
 30
0.0
 11
114.161
 21
20.423999999999999
 31
0.0
  0
LINE
  5
131
  8
DATA
  6
CONTINUOUS
 62
     7
 10
108.4249999999999
 20
26.770009999999999
 30
0.0
 11
115.7559999999999
 21
24.806010000000001
 31
0.0
  0
LINE
  5
132
  8
DATA
  6
CONTINUOUS
 62
     7
 10
118.642
 20
29.606999999999999
 30
0.0
 11
110.733
 21
31.29099999999999
 31
0.0
  0
LINE
  5
133
  8
DATA
  6
CONTINUOUS
 62
     7
 10
113.25
 20
7.0989999999999887
 30
0.0
 11
105.75
 21
5.0900000000000034
 31
0.0
  0
LINE
  5
134
  8
DATA
  6
CONTINUOUS
 62
     7
 10
132.38300000000001
 20
51.406999999999989
 30
0.0
 11
123.642
 21
38.266999999999989
 31
0.0
  0
LINE
  5
135
  8
DATA
  6
CONTINUOUS
 62
     7
 10
117.14700000000001
 20
42.016999999999989
 30
0.0
 11
124.15599999999991
 21
56.156999999999996
 31
0.0
  0
LINE
  5
136
  8
DATA
  6
CONTINUOUS
 62
     7
 10
112.14700000000001
 20
33.357010000000002
 30
0.0
 11
117.14700000000001
 21
42.017009999999992
 31
0.0
  0
LINE
  5
137
  8
DATA
  6
CONTINUOUS
 62
     7
 10
123.642
 20
38.267009999999992
 30
0.0
 11
118.642
 21
29.607009999999999
 31
0.0
  0
ARC
  5
138
  8
DATA
  6
CONTINUOUS
 62
     7
 10
139.37576000000001
 20
13.62626
 30
0.0
 40
33.625990000000002
 50
144.07183631421771
 51
180.21343268212891
  0
ARC
  5
139
  8
DATA
  6
CONTINUOUS
 62
     7
 10
139.99386999999999
 20
13.50320999999999
 30
0.0
 40
26.743870000000001
 50
142.97602583413379
 51
180.00471325633291
  0
LINE
  5
13A
  8
DATA
  6
CONTINUOUS
 62
     7
 10
12.0
 20
265.00099
 30
0.0
 11
12.0
 21
191.50099
 31
0.0
  0
LINE
  5
13B
  8
DATA
  6
CONTINUOUS
 62
     7
 10
7.0
 20
191.50099
 30
0.0
 11
7.0
 21
265.00099
 31
0.0
  0
LINE
  5
13C
  8
DATA
  6
CONTINUOUS
 62
     7
 10
12.0
 20
191.50099
 30
0.0
 11
7.0
 21
191.50099
 31
0.0
  0
LINE
  5
13D
  8
DATA
  6
CONTINUOUS
 62
     7
 10
12.0
 20
224.929
 30
0.0
 11
7.0
 21
223.58999999999989
 31
0.0
  0
LINE
  5
13E
  8
DATA
  6
CONTINUOUS
 62
     7
 10
12.0
 20
220.78799000000001
 30
0.0
 11
7.0
 21
219.44799
 31
0.0
  0
LINE
  5
13F
  8
DATA
  6
CONTINUOUS
 62
     7
 10
12.0
 20
216.64698999999999
 30
0.0
 11
7.0
 21
215.3069899999999
 31
0.0
  0
LINE
  5
140
  8
DATA
  6
CONTINUOUS
 62
     7
 10
12.0
 20
212.50599999999989
 30
0.0
 11
7.0
 21
211.166
 31
0.0
  0
LINE
  5
141
  8
DATA
  6
CONTINUOUS
 62
     7
 10
12.0
 20
208.36499000000001
 30
0.0
 11
7.0
 21
207.02498999999989
 31
0.0
  0
LINE
  5
142
  8
DATA
  6
CONTINUOUS
 62
     7
 10
12.0
 20
204.22399999999999
 30
0.0
 11
7.0
 21
202.88399999999999
 31
0.0
  0
LINE
  5
143
  8
DATA
  6
CONTINUOUS
 62
     7
 10
12.0
 20
200.083
 30
0.0
 11
7.0
 21
198.74299999999991
 31
0.0
  0
LINE
  5
144
  8
DATA
  6
CONTINUOUS
 62
     7
 10
12.0
 20
195.94199
 30
0.0
 11
7.0
 21
194.60198999999989
 31
0.0
  0
LINE
  5
145
  8
DATA
  6
CONTINUOUS
 62
     7
 10
6.25
 20
191.50099
 30
0.0
 11
12.75
 21
191.50099
 31
0.0
  0
LINE
  5
146
  8
DATA
  6
CONTINUOUS
 62
     7
 10
7.0
 20
265.00099
 30
0.0
 11
12.0
 21
265.00099
 31
0.0
  0
LINE
  5
147
  8
DATA
  6
CONTINUOUS
 62
     7
 10
12.0
 20
262.19900000000001
 30
0.0
 11
7.0
 21
260.85899999999992
 31
0.0
  0
LINE
  5
148
  8
DATA
  6
CONTINUOUS
 62
     7
 10
12.0
 20
258.05799999999988
 30
0.0
 11
7.0
 21
256.71800000000002
 31
0.0
  0
LINE
  5
149
  8
DATA
  6
CONTINUOUS
 62
     7
 10
12.0
 20
253.91699
 30
0.0
 11
7.0
 21
252.57698999999991
 31
0.0
  0
LINE
  5
14A
  8
DATA
  6
CONTINUOUS
 62
     7
 10
12.0
 20
249.7759999999999
 30
0.0
 11
7.0
 21
248.43600000000001
 31
0.0
  0
LINE
  5
14B
  8
DATA
  6
CONTINUOUS
 62
     7
 10
12.0
 20
245.63498999999999
 30
0.0
 11
7.0
 21
244.2949899999999
 31
0.0
  0
LINE
  5
14C
  8
DATA
  6
CONTINUOUS
 62
     7
 10
12.0
 20
241.494
 30
0.0
 11
7.0
 21
240.154
 31
0.0
  0
LINE
  5
14D
  8
DATA
  6
CONTINUOUS
 62
     7
 10
12.0
 20
237.35300000000001
 30
0.0
 11
7.0
 21
236.01300000000001
 31
0.0
  0
LINE
  5
14E
  8
DATA
  6
CONTINUOUS
 62
     7
 10
12.0
 20
233.21100000000001
 30
0.0
 11
7.0
 21
231.87200000000001
 31
0.0
  0
LINE
  5
14F
  8
DATA
  6
CONTINUOUS
 62
     7
 10
12.0
 20
229.06998999999999
 30
0.0
 11
7.0
 21
227.73098999999999
 31
0.0
  0
LINE
  5
150
  8
DATA
  6
CONTINUOUS
 62
     7
 10
4.5
 20
301.50098999999989
 30
0.0
 11
14.5
 21
301.50098999999989
 31
0.0
  0
LINE
  5
151
  8
DATA
  6
CONTINUOUS
 62
     7
 10
5.5
 20
265.00099
 30
0.0
 11
13.5
 21
265.00099
 31
0.0
  0
LINE
  5
152
  8
DATA
  6
CONTINUOUS
 62
     7
 10
5.5
 20
265.00099
 30
0.0
 11
2.75
 21
279.50099
 31
0.0
  0
LINE
  5
153
  8
DATA
  6
CONTINUOUS
 62
     7
 10
16.25
 20
279.50099
 30
0.0
 11
13.5
 21
265.00099
 31
0.0
  0
LINE
  5
154
  8
DATA
  6
CONTINUOUS
 62
     7
 10
2.75
 20
299.50098999999989
 30
0.0
 11
16.25
 21
299.50098999999989
 31
0.0
  0
LINE
  5
155
  8
DATA
  6
CONTINUOUS
 62
     7
 10
16.25
 20
279.50099
 30
0.0
 11
2.75
 21
279.50099
 31
0.0
  0
LINE
  5
156
  8
DATA
  6
CONTINUOUS
 62
     7
 10
2.75
 20
299.50098999999989
 30
0.0
 11
2.75
 21
293.50099
 31
0.0
  0
LINE
  5
157
  8
DATA
  6
CONTINUOUS
 62
     7
 10
2.75
 20
289.50099
 30
0.0
 11
2.75
 21
279.50099
 31
0.0
  0
LINE
  5
158
  8
DATA
  6
CONTINUOUS
 62
     7
 10
16.25
 20
279.50099
 30
0.0
 11
16.25
 21
289.50099
 31
0.0
  0
LINE
  5
159
  8
DATA
  6
CONTINUOUS
 62
     7
 10
16.25
 20
293.5
 30
0.0
 11
16.25
 21
299.50099999999992
 31
0.0
  0
LINE
  5
15A
  8
DATA
  6
CONTINUOUS
 62
     7
 10
7.0
 20
293.5
 30
0.0
 11
12.0
 21
293.5
 31
0.0
  0
LINE
  5
15B
  8
DATA
  6
CONTINUOUS
 62
     7
 10
12.0
 20
289.50099
 30
0.0
 11
7.0
 21
289.50099
 31
0.0
  0
LINE
  5
15C
  8
DATA
  6
CONTINUOUS
 62
     7
 10
4.5
 20
301.50098999999989
 30
0.0
 11
4.5
 21
299.50098999999989
 31
0.0
  0
LINE
  5
15D
  8
DATA
  6
CONTINUOUS
 62
     7
 10
14.5
 20
301.50098999999989
 30
0.0
 11
14.5
 21
299.50098999999989
 31
0.0
  0
ARC
  5
15E
  8
DATA
  6
CONTINUOUS
 62
     7
 10
2.166129999999995
 20
291.50099
 30
0.0
 40
2.0834800000000002
 50
286.27410872199579
 51
73.725891278004212
  0
ARC
  5
15F
  8
DATA
  6
CONTINUOUS
 62
     7
 10
7.583129999999997
 20
291.50049999999987
 30
0.0
 40
2.0827900000000001
 50
106.2587632267134
 51
253.74123677328649
  0
ARC
  5
160
  8
DATA
  6
CONTINUOUS
 62
     7
 10
11.416859999999989
 20
291.50049999999987
 30
0.0
 40
2.0827900000000001
 50
286.25876322671343
 51
73.741236773286573
  0
ARC
  5
161
  8
DATA
  6
CONTINUOUS
 62
     7
 10
16.83312999999999
 20
291.50049999999987
 30
0.0
 40
2.0827900000000001
 50
106.2587632267134
 51
253.74123677328649
  0
ARC
  5
162
  8
DATA
  6
CONTINUOUS
 62
     7
 10
246.11178000000001
 20
142.11947000000001
 30
0.0
 40
60.700519999999997
 50
89.982811413911563
 51
155.83724161954379
  0
ARC
  5
163
  8
DATA
  6
CONTINUOUS
 62
     7
 10
246.1465299999999
 20
142.01907
 30
0.0
 40
55.800919999999998
 50
90.016972824241023
 51
156.27999867707609
  0
LINE
  5
164
  8
DATA
  6
CONTINUOUS
 62
     7
 10
213.3599899999999
 20
187.17198999999999
 30
0.0
 11
210.42198999999991
 21
191.21699000000001
 31
0.0
  0
LINE
  5
165
  8
DATA
  6
CONTINUOUS
 62
     7
 10
190.0799999999999
 20
167.34100000000001
 30
0.0
 11
195.70899999999989
 21
164.09100000000001
 31
0.0
  0
LINE
  5
166
  8
DATA
  6
CONTINUOUS
 62
     7
 10
206.274
 20
187.91800000000001
 30
0.0
 11
209.554
 21
184.14500000000001
 31
0.0
  0
LINE
  5
167
  8
DATA
  6
CONTINUOUS
 62
     7
 10
206.0259999999999
 20
180.797
 30
0.0
 11
202.43000000000001
 21
184.27000000000001
 31
0.0
  0
LINE
  5
168
  8
DATA
  6
CONTINUOUS
 62
     7
 10
198.91800000000001
 20
180.30099000000001
 30
0.0
 11
202.80399999999989
 21
177.15398999999999
 31
0.0
  0
LINE
  5
169
  8
DATA
  6
CONTINUOUS
 62
     7
 10
199.91099
 20
173.245
 30
0.0
 11
195.76499000000001
 21
176.041
 31
0.0
  0
LINE
  5
16A
  8
DATA
  6
CONTINUOUS
 62
     7
 10
192.9959999999999
 20
171.52199999999991
 30
0.0
 11
197.36899999999989
 21
169.09800000000001
 31
0.0
  0
LINE
  5
16B
  8
DATA
  6
CONTINUOUS
 62
     7
 10
282.62999999999988
 20
205.31999999999991
 30
0.0
 11
282.62999999999988
 21
195.31999999999999
 31
0.0
  0
LINE
  5
16C
  8
DATA
  6
CONTINUOUS
 62
     7
 10
280.62999999999988
 20
207.06999999999991
 30
0.0
 11
280.62999999999988
 21
193.56999999999991
 31
0.0
  0
LINE
  5
16D
  8
DATA
  6
CONTINUOUS
 62
     7
 10
280.62999999999988
 20
207.06999999999991
 30
0.0
 11
274.63
 21
207.06999999999991
 31
0.0
  0
LINE
  5
16E
  8
DATA
  6
CONTINUOUS
 62
     7
 10
270.63
 20
207.06999999999991
 30
0.0
 11
260.63
 21
207.06999999999991
 31
0.0
  0
LINE
  5
16F
  8
DATA
  6
CONTINUOUS
 62
     7
 10
260.63
 20
193.56999999999991
 30
0.0
 11
270.63
 21
193.56999999999991
 31
0.0
  0
LINE
  5
170
  8
DATA
  6
CONTINUOUS
 62
     7
 10
274.62900000000002
 20
193.56999999999991
 30
0.0
 11
280.62999999999988
 21
193.56999999999991
 31
0.0
  0
LINE
  5
171
  8
DATA
  6
CONTINUOUS
 62
     7
 10
274.62900000000002
 20
202.81999999999999
 30
0.0
 11
274.62900000000002
 21
197.81999999999999
 31
0.0
  0
LINE
  5
172
  8
DATA
  6
CONTINUOUS
 62
     7
 10
270.63
 20
197.81999999999999
 30
0.0
 11
270.63
 21
202.81999999999999
 31
0.0
  0
LINE
  5
173
  8
DATA
  6
CONTINUOUS
 62
     7
 10
282.62999999999988
 20
205.31999999999991
 30
0.0
 11
280.62999999999988
 21
205.31999999999991
 31
0.0
  0
LINE
  5
174
  8
DATA
  6
CONTINUOUS
 62
     7
 10
282.62999999999988
 20
195.31999999999999
 30
0.0
 11
280.62999999999988
 21
195.31999999999999
 31
0.0
  0
LINE
  5
175
  8
DATA
  6
CONTINUOUS
 62
     7
 10
260.63
 20
193.56999999999991
 30
0.0
 11
260.63
 21
207.06999999999991
 31
0.0
  0
LINE
  5
176
  8
DATA
  6
CONTINUOUS
 62
     7
 10
260.63
 20
193.56999999999991
 30
0.0
 11
246.13
 21
196.31999999999999
 31
0.0
  0
LINE
  5
177
  8
DATA
  6
CONTINUOUS
 62
     7
 10
246.13
 20
204.31999999999999
 30
0.0
 11
260.63
 21
207.06999999999991
 31
0.0
  0
LINE
  5
178
  8
DATA
  6
CONTINUOUS
 62
     7
 10
246.13
 20
204.31999999999999
 30
0.0
 11
246.13
 21
196.31999999999999
 31
0.0
  0
LINE
  5
179
  8
DATA
  6
CONTINUOUS
 62
     7
 10
246.13
 20
202.81999999999999
 30
0.0
 11
246.13
 21
197.81999999999999
 31
0.0
  0
ARC
  5
17A
  8
DATA
  6
CONTINUOUS
 62
     7
 10
272.63
 20
207.65386000000001
 30
0.0
 40
2.0834800000000002
 50
196.2741087219957
 51
343.72589127800433
  0
ARC
  5
17B
  8
DATA
  6
CONTINUOUS
 62
     7
 10
272.62949999999989
 20
202.23686000000001
 30
0.0
 40
2.0827900000000001
 50
16.25876322671343
 51
163.74123677328649
  0
ARC
  5
17C
  8
DATA
  6
CONTINUOUS
 62
     7
 10
272.62949999999989
 20
198.40313
 30
0.0
 40
2.0827900000000001
 50
196.2587632267134
 51
343.74123677328652
  0
ARC
  5
17D
  8
DATA
  6
CONTINUOUS
 62
     7
 10
272.62949999999989
 20
192.98686000000001
 30
0.0
 40
2.0827900000000001
 50
16.25876322671343
 51
163.74123677328649
  0
LINE
  5
17E
  8
DATA
  6
CONTINUOUS
 62
     7
 10
239.77998999999991
 20
202.48698999999999
 30
0.0
 11
240.3019899999999
 21
197.51399000000001
 31
0.0
  0
LINE
  5
17F
  8
DATA
  6
CONTINUOUS
 62
     7
 10
234.53800000000001
 20
201.703
 30
0.0
 11
235.4919999999999
 21
196.79499999999999
 31
0.0
  0
LINE
  5
180
  8
DATA
  6
CONTINUOUS
 62
     7
 10
229.38499999999991
 20
200.46599000000001
 30
0.0
 11
230.76300000000001
 21
195.65998999999999
 31
0.0
  0
LINE
  5
181
  8
DATA
  6
CONTINUOUS
 62
     7
 10
219.499
 20
196.67098999999999
 30
0.0
 11
221.68999999999991
 21
192.1769899999999
 31
0.0
  0
LINE
  5
182
  8
DATA
  6
CONTINUOUS
 62
     7
 10
226.15100000000001
 20
194.1169999999999
 30
0.0
 11
224.3589999999999
 21
198.785
 31
0.0
  0
LINE
  5
183
  8
DATA
  6
CONTINUOUS
 62
     7
 10
214.84100000000001
 20
194.143
 30
0.0
 11
217.416
 21
189.857
 31
0.0
  0
TEXT
  5
184
  8
DATA
 62
     7
 10
297.42005999999998
 20
-358.31197999999989
 30
0.0
 40
7.906979999999999
  1
N.SASAKI
 11
297.42005999999998
 21
-350.40499999999992
 31
0.0
 73
     3
  0
ENDSEC
  0
EOF
