  0
SECTION
  2
HEADER
  9
$ACADVER
  1
AC1009
  9
$INSBASE
 10
0.0
 20
0.0
 30
0.0
  9
$EXTMIN
 10
-450.02746372486871
 20
-688.10956819777812
 30
-0.0011328818172274
  9
$EXTMAX
 10
450.02746791582013
 20
650.04075378504137
 30
0.0000000259305963
  9
$LIMMIN
 10
0.0
 20
0.0
  9
$LIMMAX
 10
0.0
 20
0.0
  9
$ORTHOMODE
 70
     0
  9
$REGENMODE
 70
     1
  9
$FILLMODE
 70
     1
  9
$QTEXTMODE
 70
     0
  9
$MIRRTEXT
 70
     1
  9
$DRAGMODE
 70
     2
  9
$LTSCALE
 40
25.399999999999999
  9
$OSMODE
 70
   231
  9
$ATTMODE
 70
     1
  9
$TEXTSIZE
 40
0.0
  9
$TRACEWID
 40
1.0
  9
$TEXTSTYLE
  7
STANDARD
  9
$CLAYER
  8
DATA
  9
$CELTYPE
  6
BYLAYER
  9
$CECOLOR
 62
   256
  9
$DIMSCALE
 40
1.0
  9
$DIMASZ
 40
0.18
  9
$DIMEXO
 40
0.0625
  9
$DIMDLI
 40
0.38
  9
$DIMRND
 40
0.0
  9
$DIMDLE
 40
0.0
  9
$DIMEXE
 40
0.18
  9
$DIMTP
 40
0.0
  9
$DIMTM
 40
0.0
  9
$DIMTXT
 40
0.18
  9
$DIMCEN
 40
0.09
  9
$DIMTSZ
 40
0.0
  9
$DIMTOL
 70
     0
  9
$DIMLIM
 70
     0
  9
$DIMTIH
 70
     1
  9
$DIMTOH
 70
     1
  9
$DIMSE1
 70
     0
  9
$DIMSE2
 70
     0
  9
$DIMTAD
 70
     0
  9
$DIMZIN
 70
     0
  9
$DIMBLK
  1

  9
$DIMASO
 70
     1
  9
$DIMSHO
 70
     1
  9
$DIMPOST
  1

  9
$DIMAPOST
  1

  9
$DIMALT
 70
     0
  9
$DIMALTD
 70
     2
  9
$DIMALTF
 40
25.399999999999999
  9
$DIMLFAC
 40
1.0
  9
$DIMTOFL
 70
     0
  9
$DIMTVP
 40
0.0
  9
$DIMTIX
 70
     0
  9
$DIMSOXD
 70
     0
  9
$DIMSAH
 70
     0
  9
$DIMBLK1
  1

  9
$DIMBLK2
  1

  9
$DIMSTYLE
  2
STANDARD
  9
$DIMCLRD
 70
     0
  9
$DIMCLRE
 70
     0
  9
$DIMCLRT
 70
     0
  9
$DIMTFAC
 40
1.0
  9
$DIMGAP
 40
0.09
  9
$LUNITS
 70
     2
  9
$LUPREC
 70
     4
  9
$SKETCHINC
 40
0.1
  9
$FILLETRAD
 40
0.0
  9
$AUNITS
 70
     0
  9
$AUPREC
 70
     0
  9
$MENU
  1
acad
  9
$ELEVATION
 40
0.0
  9
$PELEVATION
 40
0.0
  9
$THICKNESS
 40
0.0
  9
$LIMCHECK
 70
     0
  9
$BLIPMODE
 70
     0
  9
$CHAMFERA
 40
0.0
  9
$CHAMFERB
 40
0.0
  9
$SKPOLY
 70
     0
  9
$TDCREATE
 40
2456483.5490624998
  9
$TDUPDATE
 40
2456483.5495695029
  9
$TDINDWG
 40
0.0003755556
  9
$TDUSRTIMER
 40
0.0003755208
  9
$USRTIMER
 70
     1
  9
$ANGBASE
 50
0.0
  9
$ANGDIR
 70
     0
  9
$PDMODE
 70
     1
  9
$PDSIZE
 40
-2.0
  9
$PLINEWID
 40
0.0
  9
$COORDS
 70
     2
  9
$SPLFRAME
 70
     0
  9
$SPLINETYPE
 70
     6
  9
$SPLINESEGS
 70
     8
  9
$ATTDIA
 70
     0
  9
$ATTREQ
 70
     1
  9
$HANDLING
 70
     1
  9
$HANDSEED
  5
AD4
  9
$SURFTAB1
 70
     6
  9
$SURFTAB2
 70
     6
  9
$SURFTYPE
 70
     6
  9
$SURFU
 70
     6
  9
$SURFV
 70
     6
  9
$UCSNAME
  2

  9
$UCSORG
 10
0.0
 20
0.0
 30
0.0
  9
$UCSXDIR
 10
1.0
 20
0.0
 30
0.0
  9
$UCSYDIR
 10
0.0
 20
1.0
 30
0.0
  9
$PUCSNAME
  2

  9
$PUCSORG
 10
0.0
 20
0.0
 30
0.0
  9
$PUCSXDIR
 10
1.0
 20
0.0
 30
0.0
  9
$PUCSYDIR
 10
0.0
 20
1.0
 30
0.0
  9
$USERI1
 70
     0
  9
$USERI2
 70
     0
  9
$USERI3
 70
     0
  9
$USERI4
 70
     0
  9
$USERI5
 70
     0
  9
$USERR1
 40
0.0
  9
$USERR2
 40
0.0
  9
$USERR3
 40
0.0
  9
$USERR4
 40
0.0
  9
$USERR5
 40
0.0
  9
$WORLDVIEW
 70
     1
  9
$SHADEDGE
 70
     3
  9
$SHADEDIF
 70
    70
  9
$TILEMODE
 70
     1
  9
$MAXACTVP
 70
    64
  9
$PLIMCHECK
 70
     0
  9
$PEXTMIN
 10
1.0000000000000000E+020
 20
1.0000000000000000E+020
 30
1.0000000000000000E+020
  9
$PEXTMAX
 10
-1.0000000000000000E+020
 20
-1.0000000000000000E+020
 30
-1.0000000000000000E+020
  9
$PLIMMIN
 10
0.0
 20
0.0
  9
$PLIMMAX
 10
12.0
 20
9.0
  9
$UNITMODE
 70
     0
  9
$VISRETAIN
 70
     0
  9
$PLINEGEN
 70
     1
  9
$PSLTSCALE
 70
     0
  0
ENDSEC
  0
SECTION
  2
TABLES
  0
TABLE
  2
VPORT
 70
     1
  0
VPORT
  2
*ACTIVE
 70
     0
 10
0.0
 20
0.0
 11
1.0
 21
1.0
 12
0.0000020954756792
 22
-19.034407206368311
 13
0.0
 23
0.0
 14
1.0
 24
1.0
 15
0.0
 25
0.0
 16
0.0
 26
0.0
 36
1.0
 17
0.0
 27
0.0
 37
0.0
 40
1348.483529102378
 41
2.1585051546391751
 42
50.0
 43
0.0
 44
0.0
 50
0.0
 51
0.0
 71
     0
 72
  2000
 73
     1
 74
     1
 75
     0
 76
     0
 77
     0
 78
     0
  0
ENDTAB
  0
TABLE
  2
LTYPE
 70
    11
  0
LTYPE
  2
CONTINUOUS
 70
     0
  3
Solid line
 72
    65
 73
     0
 40
0.0
  0
ENDTAB
  0
TABLE
  2
LAYER
 70
     5
  0
LAYER
  2
0
 70
     0
 62
     7
  6
CONTINUOUS
  0
LAYER
  2
DATA
 70
     0
 62
     7
  6
CONTINUOUS
  0
LAYER
  2
HIBINO-BASE
 70
     0
 62
     7
  6
CONTINUOUS
  0
LAYER
  2
SPEC
 70
     0
 62
     7
  6
CONTINUOUS
  0
LAYER
  2
DIMNSIONS
 70
     0
 62
     7
  6
CONTINUOUS
  0
ENDTAB
  0
TABLE
  2
STYLE
 70
     3
  0
STYLE
  2
STANDARD
 70
     0
 40
0.0
 41
1.0
 50
0.0
 71
     0
 42
0.0
  3
txt
  4
BIGFONT.SHX
  0
ENDTAB
  0
TABLE
  2
VIEW
 70
     0
  0
ENDTAB
  0
TABLE
  2
UCS
 70
     0
  0
ENDTAB
  0
TABLE
  2
APPID
 70
     4
  0
APPID
  2
ACAD
 70
     0
  0
APPID
  2
ACADANNOTATIVE
 70
     0
  0
APPID
  2
ACAD_NAV_VCDISPLAY
 70
     0
  0
APPID
  2
ACAD_MLEADERVER
 70
     0
  0
ENDTAB
  0
TABLE
  2
DIMSTYLE
 70
     2
  0
DIMSTYLE
  2
STANDARD
 70
     0
  3

  4

  5

  6

  7

 40
1.0
 41
0.18
 42
0.0625
 43
0.38
 44
0.18
 45
0.0
 46
0.0
 47
0.0
 48
0.0
140
0.18
141
0.09
142
0.0
143
25.399999999999999
144
1.0
145
0.0
146
1.0
147
0.09
 71
     0
 72
     0
 73
     1
 74
     1
 75
     0
 76
     0
 77
     0
 78
     0
170
     0
171
     2
172
     0
173
     0
174
     0
175
     0
176
     0
177
     0
178
     0
  0
ENDTAB
  0
ENDSEC
  0
SECTION
  2
BLOCKS
  0
BLOCK
  8
0
  2
$MODEL_SPACE
 70
     0
 10
0.0
 20
0.0
 30
0.0
  3
$MODEL_SPACE
  1

  0
ENDBLK
  5
874
  8
0
  0
BLOCK
 67
     1
  8
0
  2
$PAPER_SPACE
 70
     0
 10
0.0
 20
0.0
 30
0.0
  3
$PAPER_SPACE
  1

  0
ENDBLK
  5
870
 67
     1
  8
0
  0
BLOCK
  8
DATA
  2
__NNA_WALL_STYLE_FORMAT_TE
 70
     0
 10
0.0
 20
0.0
 30
0.0
  3
__NNA_WALL_STYLE_FORMAT_TE
  1

  0
LINE
  5
48
  8
0
  6
CONTINUOUS
 62
     7
 10
-88.649999999999963
 20
-250.0
 30
0.0
 11
-72.350000000000023
 21
-250.0
 31
0.0
  0
ENDBLK
  5
49
  8
DATA
  0
BLOCK
  8
DATA
  2
____
 70
     0
 10
0.0
 20
0.0
 30
0.0
  3
____
  1

  0
LINE
  5
4B
  8
0
  6
CONTINUOUS
 62
     7
 10
175.64999999999989
 20
-250.0
 30
0.0
 11
159.34999999999999
 21
-250.0
 31
0.0
  0
ENDBLK
  5
4C
  8
DATA
  0
BLOCK
  8
DATA
  2
____-1
 70
     0
 10
0.0
 20
0.0
 30
0.0
  3
____-1
  1

  0
LINE
  5
4E
  8
0
  6
CONTINUOUS
 62
     7
 10
41.5
 20
-447.55166326474261
 30
0.0
 11
45.499999999999993
 21
-447.55166326474261
 31
0.0
  0
CIRCLE
  5
4F
  8
0
  6
CONTINUOUS
 62
     7
 10
43.5
 20
-447.55166326474261
 30
0.0
 40
3.25
  0
LINE
  5
50
  8
0
  6
CONTINUOUS
 62
     7
 10
43.5
 20
-445.55166326474267
 30
0.0
 11
43.5
 21
-449.55166326474267
 31
0.0
  0
ENDBLK
  5
51
  8
DATA
  0
BLOCK
  8
DATA
  2
____-2
 70
     0
 10
0.0
 20
0.0
 30
0.0
  3
____-2
  1

  0
LINE
  5
53
  8
0
  6
CONTINUOUS
 62
     7
 10
104.0
 20
-370.04833673525729
 30
0.0
 11
108.0
 21
-370.04833673525729
 31
0.0
  0
CIRCLE
  5
54
  8
0
  6
CONTINUOUS
 62
     7
 10
106.0
 20
-370.04833673525729
 30
0.0
 40
3.25
  0
LINE
  5
55
  8
0
  6
CONTINUOUS
 62
     7
 10
106.0
 20
-368.04833673525729
 30
0.0
 11
106.0
 21
-372.04833673525729
 31
0.0
  0
ENDBLK
  5
56
  8
DATA
  0
BLOCK
  8
DATA
  2
____-3
 70
     0
 10
0.0
 20
0.0
 30
0.0
  3
____-3
  1

  0
LINE
  5
58
  8
0
  6
CONTINUOUS
 62
     7
 10
-21.0
 20
-370.04833673525729
 30
0.0
 11
-17.0
 21
-370.04833673525729
 31
0.0
  0
CIRCLE
  5
59
  8
0
  6
CONTINUOUS
 62
     7
 10
-19.0
 20
-370.04833673525729
 30
0.0
 40
3.25
  0
LINE
  5
5A
  8
0
  6
CONTINUOUS
 62
     7
 10
-19.0
 20
-368.04833673525729
 30
0.0
 11
-19.0
 21
-372.04833673525729
 31
0.0
  0
ENDBLK
  5
5B
  8
DATA
  0
BLOCK
  8
DATA
  2
____-4
 70
     0
 10
0.0
 20
0.0
 30
0.0
  3
____-4
  1

  0
LINE
  5
5D
  8
0
  6
CONTINUOUS
 62
     7
 10
42.0
 20
-362.27414036369339
 30
0.0
 11
45.0
 21
-362.27414036369339
 31
0.0
  0
LINE
  5
5E
  8
0
  6
CONTINUOUS
 62
     7
 10
48.0
 20
-363.77414036369339
 30
0.0
 11
48.0
 21
-360.77414036369339
 31
0.0
  0
ARC
  5
5F
  8
0
  6
CONTINUOUS
 62
     7
 10
43.5
 20
-360.77414036369339
 30
0.0
 40
4.5
 50
0.0
 51
180.0
  0
ARC
  5
60
  8
0
  6
CONTINUOUS
 62
     7
 10
43.5
 20
-363.77414036369339
 30
0.0
 40
4.5
 50
180.0
 51
0.0
  0
LINE
  5
61
  8
0
  6
CONTINUOUS
 62
     7
 10
39.0
 20
-360.77414036369339
 30
0.0
 11
39.0
 21
-363.77414036369339
 31
0.0
  0
CIRCLE
  5
62
  8
0
  6
CONTINUOUS
 62
     7
 10
43.5
 20
-362.27414036369339
 30
0.0
 40
2.5
  0
LINE
  5
63
  8
0
  6
CONTINUOUS
 62
     7
 10
43.5
 20
-360.77414036369339
 30
0.0
 11
43.5
 21
-363.77414036369339
 31
0.0
  0
ENDBLK
  5
64
  8
DATA
  0
BLOCK
  8
DATA
  2
____-5
 70
     0
 10
0.0
 20
0.0
 30
0.0
  3
____-5
  1

  0
LINE
  5
66
  8
0
  6
CONTINUOUS
 62
     7
 10
176.0
 20
-362.27414036369339
 30
0.0
 11
179.0
 21
-362.27414036369339
 31
0.0
  0
LINE
  5
67
  8
0
  6
CONTINUOUS
 62
     7
 10
182.0
 20
-363.77414036369339
 30
0.0
 11
182.0
 21
-360.77414036369339
 31
0.0
  0
ARC
  5
68
  8
0
  6
CONTINUOUS
 62
     7
 10
177.5
 20
-360.77414036369339
 30
0.0
 40
4.5
 50
0.0
 51
180.0
  0
ARC
  5
69
  8
0
  6
CONTINUOUS
 62
     7
 10
177.5
 20
-363.77414036369339
 30
0.0
 40
4.5
 50
180.0
 51
0.0
  0
LINE
  5
6A
  8
0
  6
CONTINUOUS
 62
     7
 10
173.0
 20
-360.77414036369339
 30
0.0
 11
173.0
 21
-363.77414036369339
 31
0.0
  0
CIRCLE
  5
6B
  8
0
  6
CONTINUOUS
 62
     7
 10
177.5
 20
-362.27414036369339
 30
0.0
 40
2.5
  0
LINE
  5
6C
  8
0
  6
CONTINUOUS
 62
     7
 10
177.5
 20
-360.77414036369339
 30
0.0
 11
177.5
 21
-363.77414036369339
 31
0.0
  0
ENDBLK
  5
6D
  8
DATA
  0
BLOCK
  8
DATA
  2
____-6
 70
     0
 10
0.0
 20
0.0
 30
0.0
  3
____-6
  1

  0
LINE
  5
6F
  8
0
  6
CONTINUOUS
 62
     7
 10
-88.649999999999963
 20
65.5
 30
0.0
 11
-72.350000000000023
 21
65.5
 31
0.0
  0
ENDBLK
  5
70
  8
DATA
  0
BLOCK
  8
DATA
  2
____-7
 70
     0
 10
0.0
 20
0.0
 30
0.0
  3
____-7
  1

  0
LINE
  5
72
  8
0
  6
CONTINUOUS
 62
     7
 10
175.64999999999989
 20
65.5
 30
0.0
 11
159.34999999999999
 21
65.5
 31
0.0
  0
ENDBLK
  5
73
  8
DATA
  0
BLOCK
  8
DATA
  2
____-8
 70
     0
 10
0.0
 20
0.0
 30
0.0
  3
____-8
  1

  0
LINE
  5
75
  8
0
  6
CONTINUOUS
 62
     7
 10
-89.0
 20
-362.27414036369339
 30
0.0
 11
-92.0
 21
-362.27414036369339
 31
0.0
  0
LINE
  5
76
  8
0
  6
CONTINUOUS
 62
     7
 10
-95.0
 20
-363.77414036369339
 30
0.0
 11
-95.0
 21
-360.77414036369339
 31
0.0
  0
ARC
  5
77
  8
0
  6
CONTINUOUS
 62
     7
 10
-90.5
 20
-360.77414036369339
 30
0.0
 40
4.5
 50
0.0
 51
180.0
  0
ARC
  5
78
  8
0
  6
CONTINUOUS
 62
     7
 10
-90.5
 20
-363.77414036369339
 30
0.0
 40
4.5
 50
180.0
 51
0.0
  0
LINE
  5
79
  8
0
  6
CONTINUOUS
 62
     7
 10
-86.0
 20
-360.77414036369339
 30
0.0
 11
-86.0
 21
-363.77414036369339
 31
0.0
  0
CIRCLE
  5
7A
  8
0
  6
CONTINUOUS
 62
     7
 10
-90.5
 20
-362.27414036369339
 30
0.0
 40
2.5
  0
LINE
  5
7B
  8
0
  6
CONTINUOUS
 62
     7
 10
-90.5
 20
-360.77414036369339
 30
0.0
 11
-90.5
 21
-363.77414036369339
 31
0.0
  0
ENDBLK
  5
7C
  8
DATA
  0
BLOCK
  8
DATA
  2
____-9
 70
     0
 10
0.0
 20
0.0
 30
0.0
  3
____-9
  1

  0
CIRCLE
  5
7E
  8
0
  6
CONTINUOUS
 62
     7
 10
-40.900000000000119
 20
45.399999999999991
 30
0.0
 40
10.75
  0
CIRCLE
  5
7F
  8
0
  6
CONTINUOUS
 62
     7
 10
-40.900000000000119
 20
45.399999999999991
 30
0.0
 40
7.9000000000000039
  0
CIRCLE
  5
80
  8
0
  6
CONTINUOUS
 62
     7
 10
-44.900000000000112
 20
45.399999999999991
 30
0.0
 40
1.5
  0
CIRCLE
  5
81
  8
0
  6
CONTINUOUS
 62
     7
 10
-40.900000000000119
 20
49.149999999999991
 30
0.0
 40
1.5
  0
CIRCLE
  5
82
  8
0
  6
CONTINUOUS
 62
     7
 10
-36.900000000000119
 20
45.399999999999991
 30
0.0
 40
1.5
  0
LINE
  5
83
  8
0
  6
CONTINUOUS
 62
     7
 10
-29.75
 20
35.5
 30
0.0
 11
-32.25
 21
35.5
 31
0.0
  0
LINE
  5
84
  8
0
  6
CONTINUOUS
 62
     7
 10
-31.0
 20
34.25
 30
0.0
 11
-31.0
 21
36.75
 31
0.0
  0
CIRCLE
  5
85
  8
0
  6
CONTINUOUS
 62
     7
 10
-31.0
 20
35.5
 30
0.0
 40
2.5999999999998971
  0
CIRCLE
  5
86
  8
0
  6
CONTINUOUS
 62
     7
 10
-50.799999999999898
 20
55.299999999999997
 30
0.0
 40
2.5999999999999082
  0
LINE
  5
87
  8
0
  6
CONTINUOUS
 62
     7
 10
-50.799999999999898
 20
56.549999999999997
 30
0.0
 11
-50.799999999999898
 21
54.049999999999997
 31
0.0
  0
LINE
  5
88
  8
0
  6
CONTINUOUS
 62
     7
 10
-49.549999999999898
 20
55.299999999999997
 30
0.0
 11
-52.050000000000132
 21
55.299999999999997
 31
0.0
  0
ENDBLK
  5
89
  8
DATA
  0
BLOCK
  8
DATA
  2
____-10
 70
     0
 10
0.0
 20
0.0
 30
0.0
  3
____-10
  1

  0
CIRCLE
  5
8B
  8
0
  6
CONTINUOUS
 62
     7
 10
-65.900000000000119
 20
45.399999999999991
 30
0.0
 40
10.75
  0
CIRCLE
  5
8C
  8
0
  6
CONTINUOUS
 62
     7
 10
-65.900000000000119
 20
45.399999999999991
 30
0.0
 40
7.9000000000000039
  0
CIRCLE
  5
8D
  8
0
  6
CONTINUOUS
 62
     7
 10
-69.900000000000119
 20
45.399999999999991
 30
0.0
 40
1.5
  0
CIRCLE
  5
8E
  8
0
  6
CONTINUOUS
 62
     7
 10
-65.900000000000119
 20
49.149999999999991
 30
0.0
 40
1.5
  0
CIRCLE
  5
8F
  8
0
  6
CONTINUOUS
 62
     7
 10
-61.900000000000112
 20
45.399999999999991
 30
0.0
 40
1.5
  0
LINE
  5
90
  8
0
  6
CONTINUOUS
 62
     7
 10
-54.75
 20
35.5
 30
0.0
 11
-57.25
 21
35.5
 31
0.0
  0
LINE
  5
91
  8
0
  6
CONTINUOUS
 62
     7
 10
-56.0
 20
34.25
 30
0.0
 11
-56.0
 21
36.75
 31
0.0
  0
CIRCLE
  5
92
  8
0
  6
CONTINUOUS
 62
     7
 10
-56.0
 20
35.5
 30
0.0
 40
2.5999999999998971
  0
CIRCLE
  5
93
  8
0
  6
CONTINUOUS
 62
     7
 10
-75.799999999999898
 20
55.299999999999997
 30
0.0
 40
2.5999999999999082
  0
LINE
  5
94
  8
0
  6
CONTINUOUS
 62
     7
 10
-75.799999999999898
 20
56.549999999999997
 30
0.0
 11
-75.799999999999898
 21
54.049999999999997
 31
0.0
  0
LINE
  5
95
  8
0
  6
CONTINUOUS
 62
     7
 10
-74.549999999999898
 20
55.299999999999997
 30
0.0
 11
-77.050000000000125
 21
55.299999999999997
 31
0.0
  0
ENDBLK
  5
96
  8
DATA
  0
BLOCK
  8
DATA
  2
____-11
 70
     0
 10
0.0
 20
0.0
 30
0.0
  3
____-11
  1

  0
LINE
  5
98
  8
0
  6
CONTINUOUS
 62
     7
 10
44.75
 20
35.5
 30
0.0
 11
42.25
 21
35.5
 31
0.0
  0
LINE
  5
99
  8
0
  6
CONTINUOUS
 62
     7
 10
43.5
 20
34.25
 30
0.0
 11
43.5
 21
36.75
 31
0.0
  0
CIRCLE
  5
9A
  8
0
  6
CONTINUOUS
 62
     7
 10
43.5
 20
35.5
 30
0.0
 40
2.5999999999998971
  0
ENDBLK
  5
9B
  8
DATA
  0
BLOCK
  8
DATA
  2
____-12
 70
     0
 10
0.0
 20
0.0
 30
0.0
  3
____-12
  1

  0
LINE
  5
9D
  8
0
  6
CONTINUOUS
 62
     7
 10
82.30449966478163
 20
57.0
 30
0.0
 11
65.80449966478163
 21
57.0
 31
0.0
  0
LINE
  5
9E
  8
0
  6
CONTINUOUS
 62
     7
 10
82.30449966478163
 20
43.5
 30
0.0
 11
65.80449966478163
 21
43.5
 31
0.0
  0
LINE
  5
9F
  8
0
  6
CONTINUOUS
 62
     7
 10
82.30449966478163
 20
43.0
 30
0.0
 11
65.80449966478163
 21
43.0
 31
0.0
  0
LINE
  5
A0
  8
0
  6
CONTINUOUS
 62
     7
 10
65.80449966478163
 20
43.0
 30
0.0
 11
65.80449966478163
 21
57.0
 31
0.0
  0
LINE
  5
A1
  8
0
  6
CONTINUOUS
 62
     7
 10
82.30449966478163
 20
43.0
 30
0.0
 11
82.30449966478163
 21
57.0
 31
0.0
  0
LINE
  5
A2
  8
0
  6
CONTINUOUS
 62
     7
 10
82.30449966478163
 20
56.5
 30
0.0
 11
65.80449966478163
 21
56.5
 31
0.0
  0
LINE
  5
A3
  8
0
  6
CONTINUOUS
 62
     7
 10
80.554499664781616
 20
53.5
 30
0.0
 11
67.55449966478163
 21
53.5
 31
0.0
  0
LINE
  5
A4
  8
0
  6
CONTINUOUS
 62
     7
 10
82.30449966478163
 20
46.0
 30
0.0
 11
77.30449966478163
 21
46.0
 31
0.0
  0
LINE
  5
A5
  8
0
  6
CONTINUOUS
 62
     7
 10
70.80449966478163
 20
46.0
 30
0.0
 11
65.80449966478163
 21
46.0
 31
0.0
  0
LINE
  5
A6
  8
0
  6
CONTINUOUS
 62
     7
 10
82.30449966478163
 20
44.0
 30
0.0
 11
76.05449966478163
 21
44.0
 31
0.0
  0
LINE
  5
A7
  8
0
  6
CONTINUOUS
 62
     7
 10
72.05449966478163
 20
44.0
 30
0.0
 11
65.80449966478163
 21
44.0
 31
0.0
  0
LINE
  5
A8
  8
0
  6
CONTINUOUS
 62
     7
 10
70.80449966478163
 20
44.0
 30
0.0
 11
70.80449966478163
 21
46.0
 31
0.0
  0
LINE
  5
A9
  8
0
  6
CONTINUOUS
 62
     7
 10
77.30449966478163
 20
44.0
 30
0.0
 11
77.30449966478163
 21
46.0
 31
0.0
  0
LINE
  5
AA
  8
0
  6
CONTINUOUS
 62
     7
 10
72.05449966478163
 20
43.5
 30
0.0
 11
72.05449966478163
 21
44.0
 31
0.0
  0
LINE
  5
AB
  8
0
  6
CONTINUOUS
 62
     7
 10
76.05449966478163
 20
43.5
 30
0.0
 11
76.05449966478163
 21
44.0
 31
0.0
  0
LINE
  5
AC
  8
0
  6
CONTINUOUS
 62
     7
 10
67.55449966478163
 20
53.5
 30
0.0
 11
67.55449966478163
 21
46.0
 31
0.0
  0
LINE
  5
AD
  8
0
  6
CONTINUOUS
 62
     7
 10
80.554499664781616
 20
53.5
 30
0.0
 11
80.554499664781616
 21
46.0
 31
0.0
  0
ENDBLK
  5
AE
  8
DATA
  0
BLOCK
  8
DATA
  2
____-13
 70
     0
 10
0.0
 20
0.0
 30
0.0
  3
____-13
  1

  0
LINE
  5
B0
  8
0
  6
CONTINUOUS
 62
     7
 10
40.55449966478163
 20
52.0
 30
0.0
 11
33.55449966478163
 21
52.0
 31
0.0
  0
LINE
  5
B1
  8
0
  6
CONTINUOUS
 62
     7
 10
33.05449966478163
 20
54.300000000000061
 30
0.0
 11
33.05449966478163
 21
52.5
 31
0.0
  0
LINE
  5
B2
  8
0
  6
CONTINUOUS
 62
     7
 10
40.054499664781623
 20
56.5
 30
0.0
 11
34.05449966478163
 21
56.5
 31
0.0
  0
LINE
  5
B3
  8
0
  6
CONTINUOUS
 62
     7
 10
40.854499664781592
 20
54.5
 30
0.0
 11
40.754499664781562
 21
54.5
 31
0.0
  0
LINE
  5
B4
  8
0
  6
CONTINUOUS
 62
     7
 10
33.354499664781578
 20
54.5
 30
0.0
 11
33.254499664781562
 21
54.5
 31
0.0
  0
LINE
  5
B5
  8
0
  6
CONTINUOUS
 62
     7
 10
41.05449966478163
 20
54.300000000000061
 30
0.0
 11
41.05449966478163
 21
52.5
 31
0.0
  0
LINE
  5
B6
  8
0
  6
CONTINUOUS
 62
     7
 10
40.55449966478163
 20
54.700000000000053
 30
0.0
 11
40.55449966478163
 21
56.0
 31
0.0
  0
LINE
  5
B7
  8
0
  6
CONTINUOUS
 62
     7
 10
33.55449966478163
 20
54.700000000000053
 30
0.0
 11
33.55449966478163
 21
56.0
 31
0.0
  0
ARC
  5
B8
  8
0
  6
CONTINUOUS
 62
     7
 10
40.754499664781562
 20
54.700000000000053
 30
0.0
 40
0.1999999999999318
 50
180.0
 51
270.0
  0
ARC
  5
B9
  8
0
  6
CONTINUOUS
 62
     7
 10
40.854499664781592
 20
54.300000000000061
 30
0.0
 40
0.2000000000000455
 50
0.0
 51
90.0
  0
ARC
  5
BA
  8
0
  6
CONTINUOUS
 62
     7
 10
33.354499664781578
 20
54.700000000000053
 30
0.0
 40
0.2000000000000455
 50
270.0
 51
0.0
  0
ARC
  5
BB
  8
0
  6
CONTINUOUS
 62
     7
 10
33.254499664781449
 20
54.300000000000061
 30
0.0
 40
0.1999999999999318
 50
89.999999999967429
 51
180.0
  0
ARC
  5
BC
  8
0
  6
CONTINUOUS
 62
     7
 10
40.054499664781623
 20
56.0
 30
0.0
 40
0.5
 50
0.0
 51
90.0
  0
ARC
  5
BD
  8
0
  6
CONTINUOUS
 62
     7
 10
34.05449966478163
 20
56.0
 30
0.0
 40
0.5
 50
90.0
 51
180.0
  0
ARC
  5
BE
  8
0
  6
CONTINUOUS
 62
     7
 10
33.55449966478163
 20
52.5
 30
0.0
 40
0.5
 50
180.0
 51
270.0
  0
ARC
  5
BF
  8
0
  6
CONTINUOUS
 62
     7
 10
40.55449966478163
 20
52.5
 30
0.0
 40
0.5
 50
270.0
 51
0.0
  0
ENDBLK
  5
C0
  8
DATA
  0
BLOCK
  8
DATA
  2
____-14
 70
     0
 10
0.0
 20
0.0
 30
0.0
  3
____-14
  1

  0
LINE
  5
C2
  8
0
  6
CONTINUOUS
 62
     7
 10
144.80449966478159
 20
30.5
 30
0.0
 11
128.30449966478159
 21
30.5
 31
0.0
  0
LINE
  5
C3
  8
0
  6
CONTINUOUS
 62
     7
 10
128.30449966478159
 20
30.5
 30
0.0
 11
128.30449966478159
 21
43.5
 31
0.0
  0
LINE
  5
C4
  8
0
  6
CONTINUOUS
 62
     7
 10
144.80449966478159
 20
30.5
 30
0.0
 11
144.80449966478159
 21
43.5
 31
0.0
  0
LINE
  5
C5
  8
0
  6
CONTINUOUS
 62
     7
 10
144.80449966478159
 20
43.5
 30
0.0
 11
128.30449966478159
 21
43.5
 31
0.0
  0
LINE
  5
C6
  8
0
  6
CONTINUOUS
 62
     7
 10
143.05449966478159
 20
40.499999999999993
 30
0.0
 11
130.05449966478159
 21
40.499999999999993
 31
0.0
  0
LINE
  5
C7
  8
0
  6
CONTINUOUS
 62
     7
 10
143.05449966478159
 20
33.0
 30
0.0
 11
139.80449966478159
 21
33.0
 31
0.0
  0
LINE
  5
C8
  8
0
  6
CONTINUOUS
 62
     7
 10
133.30449966478159
 20
33.0
 30
0.0
 11
130.05449966478159
 21
33.0
 31
0.0
  0
LINE
  5
C9
  8
0
  6
CONTINUOUS
 62
     7
 10
144.80449966478159
 20
31.0
 30
0.0
 11
138.55449966478159
 21
31.0
 31
0.0
  0
LINE
  5
CA
  8
0
  6
CONTINUOUS
 62
     7
 10
134.55449966478159
 20
31.0
 30
0.0
 11
128.30449966478159
 21
31.0
 31
0.0
  0
LINE
  5
CB
  8
0
  6
CONTINUOUS
 62
     7
 10
133.30449966478159
 20
31.0
 30
0.0
 11
133.30449966478159
 21
33.0
 31
0.0
  0
LINE
  5
CC
  8
0
  6
CONTINUOUS
 62
     7
 10
139.80449966478159
 20
31.0
 30
0.0
 11
139.80449966478159
 21
33.0
 31
0.0
  0
LINE
  5
CD
  8
0
  6
CONTINUOUS
 62
     7
 10
134.55449966478159
 20
30.5
 30
0.0
 11
134.55449966478159
 21
31.0
 31
0.0
  0
LINE
  5
CE
  8
0
  6
CONTINUOUS
 62
     7
 10
138.55449966478159
 20
30.5
 30
0.0
 11
138.55449966478159
 21
31.0
 31
0.0
  0
LINE
  5
CF
  8
0
  6
CONTINUOUS
 62
     7
 10
130.05449966478159
 20
40.499999999999993
 30
0.0
 11
130.05449966478159
 21
31.0
 31
0.0
  0
LINE
  5
D0
  8
0
  6
CONTINUOUS
 62
     7
 10
143.05449966478159
 20
40.499999999999993
 30
0.0
 11
143.05449966478159
 21
31.0
 31
0.0
  0
ENDBLK
  5
D1
  8
DATA
  0
BLOCK
  8
DATA
  2
____-15
 70
     0
 10
0.0
 20
0.0
 30
0.0
  3
____-15
  1

  0
LINE
  5
D3
  8
0
  6
CONTINUOUS
 62
     7
 10
128.30449966478159
 20
56.5
 30
0.0
 11
144.80449966478159
 21
56.5
 31
0.0
  0
LINE
  5
D4
  8
0
  6
CONTINUOUS
 62
     7
 10
144.80449966478159
 20
56.5
 30
0.0
 11
144.80449966478159
 21
43.5
 31
0.0
  0
LINE
  5
D5
  8
0
  6
CONTINUOUS
 62
     7
 10
128.30449966478159
 20
56.5
 30
0.0
 11
128.30449966478159
 21
43.5
 31
0.0
  0
LINE
  5
D6
  8
0
  6
CONTINUOUS
 62
     7
 10
128.30449966478159
 20
43.5
 30
0.0
 11
144.80449966478159
 21
43.5
 31
0.0
  0
LINE
  5
D7
  8
0
  6
CONTINUOUS
 62
     7
 10
130.05449966478159
 20
46.5
 30
0.0
 11
143.05449966478159
 21
46.5
 31
0.0
  0
LINE
  5
D8
  8
0
  6
CONTINUOUS
 62
     7
 10
130.05449966478159
 20
54.0
 30
0.0
 11
133.30449966478159
 21
54.0
 31
0.0
  0
LINE
  5
D9
  8
0
  6
CONTINUOUS
 62
     7
 10
139.80449966478159
 20
54.0
 30
0.0
 11
143.05449966478159
 21
54.0
 31
0.0
  0
LINE
  5
DA
  8
0
  6
CONTINUOUS
 62
     7
 10
128.30449966478159
 20
56.0
 30
0.0
 11
134.55449966478159
 21
56.0
 31
0.0
  0
LINE
  5
DB
  8
0
  6
CONTINUOUS
 62
     7
 10
138.55449966478159
 20
56.0
 30
0.0
 11
144.80449966478159
 21
56.0
 31
0.0
  0
LINE
  5
DC
  8
0
  6
CONTINUOUS
 62
     7
 10
139.80449966478159
 20
56.0
 30
0.0
 11
139.80449966478159
 21
54.0
 31
0.0
  0
LINE
  5
DD
  8
0
  6
CONTINUOUS
 62
     7
 10
133.30449966478159
 20
56.0
 30
0.0
 11
133.30449966478159
 21
54.0
 31
0.0
  0
LINE
  5
DE
  8
0
  6
CONTINUOUS
 62
     7
 10
138.55449966478159
 20
56.5
 30
0.0
 11
138.55449966478159
 21
56.0
 31
0.0
  0
LINE
  5
DF
  8
0
  6
CONTINUOUS
 62
     7
 10
134.55449966478159
 20
56.5
 30
0.0
 11
134.55449966478159
 21
56.0
 31
0.0
  0
LINE
  5
E0
  8
0
  6
CONTINUOUS
 62
     7
 10
143.05449966478159
 20
46.5
 30
0.0
 11
143.05449966478159
 21
56.0
 31
0.0
  0
LINE
  5
E1
  8
0
  6
CONTINUOUS
 62
     7
 10
130.05449966478159
 20
46.5
 30
0.0
 11
130.05449966478159
 21
56.0
 31
0.0
  0
ENDBLK
  5
E2
  8
DATA
  0
BLOCK
  8
DATA
  2
____-16
 70
     0
 10
0.0
 20
0.0
 30
0.0
  3
____-16
  1

  0
ARC
  5
E4
  8
0
  6
CONTINUOUS
 62
     7
 10
107.5044996647816
 20
51.0
 30
0.0
 40
1.0
 50
0.0
 51
179.99999999999829
  0
LINE
  5
E5
  8
0
  6
CONTINUOUS
 62
     7
 10
108.5044996647816
 20
51.0
 30
0.0
 11
108.5044996647816
 21
36.0
 31
0.0
  0
LINE
  5
E6
  8
0
  6
CONTINUOUS
 62
     7
 10
106.5044996647816
 20
36.0
 30
0.0
 11
106.5044996647816
 21
51.0
 31
0.0
  0
ARC
  5
E7
  8
0
  6
CONTINUOUS
 62
     7
 10
107.5044996647816
 20
36.0
 30
0.0
 40
1.0
 50
180.00000000000159
 51
0.0
  0
ARC
  5
E8
  8
0
  6
CONTINUOUS
 62
     7
 10
111.70449966478159
 20
51.0
 30
0.0
 40
1.0
 50
0.0
 51
179.99999999999829
  0
LINE
  5
E9
  8
0
  6
CONTINUOUS
 62
     7
 10
112.70449966478159
 20
51.0
 30
0.0
 11
112.70449966478159
 21
36.0
 31
0.0
  0
LINE
  5
EA
  8
0
  6
CONTINUOUS
 62
     7
 10
110.70449966478159
 20
36.0
 30
0.0
 11
110.70449966478159
 21
51.0
 31
0.0
  0
ARC
  5
EB
  8
0
  6
CONTINUOUS
 62
     7
 10
111.70449966478159
 20
36.0
 30
0.0
 40
1.0
 50
180.00000000000159
 51
0.0
  0
ARC
  5
EC
  8
0
  6
CONTINUOUS
 62
     7
 10
115.9044996647816
 20
51.0
 30
0.0
 40
1.0
 50
0.0
 51
179.99999999999829
  0
LINE
  5
ED
  8
0
  6
CONTINUOUS
 62
     7
 10
116.9044996647816
 20
51.0
 30
0.0
 11
116.9044996647816
 21
36.0
 31
0.0
  0
LINE
  5
EE
  8
0
  6
CONTINUOUS
 62
     7
 10
114.9044996647816
 20
36.0
 30
0.0
 11
114.9044996647816
 21
51.0
 31
0.0
  0
ARC
  5
EF
  8
0
  6
CONTINUOUS
 62
     7
 10
115.9044996647816
 20
36.0
 30
0.0
 40
1.0
 50
180.00000000000159
 51
0.0
  0
ARC
  5
F0
  8
0
  6
CONTINUOUS
 62
     7
 10
120.1044996647816
 20
51.0
 30
0.0
 40
1.0
 50
0.0
 51
179.99999999999829
  0
LINE
  5
F1
  8
0
  6
CONTINUOUS
 62
     7
 10
121.1044996647816
 20
51.0
 30
0.0
 11
121.1044996647816
 21
36.0
 31
0.0
  0
LINE
  5
F2
  8
0
  6
CONTINUOUS
 62
     7
 10
119.1044996647816
 20
36.0
 30
0.0
 11
119.1044996647816
 21
51.0
 31
0.0
  0
ARC
  5
F3
  8
0
  6
CONTINUOUS
 62
     7
 10
120.1044996647816
 20
36.0
 30
0.0
 40
1.0
 50
180.00000000000159
 51
0.0
  0
ARC
  5
F4
  8
0
  6
CONTINUOUS
 62
     7
 10
124.3044996647816
 20
51.0
 30
0.0
 40
1.0
 50
0.0
 51
179.99999999999829
  0
LINE
  5
F5
  8
0
  6
CONTINUOUS
 62
     7
 10
125.3044996647816
 20
51.0
 30
0.0
 11
125.3044996647816
 21
36.0
 31
0.0
  0
LINE
  5
F6
  8
0
  6
CONTINUOUS
 62
     7
 10
123.3044996647816
 20
36.0
 30
0.0
 11
123.3044996647816
 21
51.0
 31
0.0
  0
ARC
  5
F7
  8
0
  6
CONTINUOUS
 62
     7
 10
124.3044996647816
 20
36.0
 30
0.0
 40
1.0
 50
180.00000000000159
 51
0.0
  0
ENDBLK
  5
F8
  8
DATA
  0
BLOCK
  8
DATA
  2
____-17
 70
     0
 10
0.0
 20
0.0
 30
0.0
  3
____-17
  1

  0
ARC
  5
FA
  8
0
  6
CONTINUOUS
 62
     7
 10
-288.79942449610581
 20
-242.9152229470092
 30
0.0
 40
2.0
 50
180.0
 51
270.0
  0
LINE
  5
FB
  8
0
  6
CONTINUOUS
 62
     7
 10
-288.79942449610581
 20
-230.41522294700911
 30
0.0
 11
-285.79942449610581
 21
-230.41522294700911
 31
0.0
  0
LINE
  5
FC
  8
0
  6
CONTINUOUS
 62
     7
 10
-270.7994244961057
 20
-230.41522294700911
 30
0.0
 11
-264.79942449610581
 21
-230.41522294700911
 31
0.0
  0
LINE
  5
FD
  8
0
  6
CONTINUOUS
 62
     7
 10
-290.79942449610581
 20
-232.41522294700911
 30
0.0
 11
-290.79942449610581
 21
-242.9152229470092
 31
0.0
  0
LINE
  5
FE
  8
0
  6
CONTINUOUS
 62
     7
 10
-285.79942449610581
 20
-227.86522294700899
 30
0.0
 11
-285.79942449610581
 21
-230.41522294700911
 31
0.0
  0
POLYLINE
  5
FF
  8
0
  6
CONTINUOUS
 62
     7
 66
     1
 10
0.0
 20
0.0
 30
0.0
 70
   128
  0
VERTEX
  5
8BF
  8
0
  6
CONTINUOUS
 62
     7
 10
-270.7994244961057
 20
-227.86522294700899
 30
0.0
  0
VERTEX
  5
8C0
  8
0
  6
CONTINUOUS
 62
     7
 10
-263.79942449610581
 20
-227.86522294700899
 30
0.0
 42
-0.4142135623730951
  0
VERTEX
  5
8C1
  8
0
  6
CONTINUOUS
 62
     7
 10
-261.79942449610581
 20
-229.86522294700899
 30
0.0
  0
VERTEX
  5
8C2
  8
0
  6
CONTINUOUS
 62
     7
 10
-261.79942449610581
 20
-243.86522294700899
 30
0.0
  0
VERTEX
  5
8C3
  8
0
  6
CONTINUOUS
 62
     7
 10
-261.79942449610581
 20
-243.86522294700899
 30
0.0
 42
-0.4142135623730951
  0
VERTEX
  5
8C4
  8
0
  6
CONTINUOUS
 62
     7
 10
-263.79942449610581
 20
-245.8652229470089
 30
0.0
  0
VERTEX
  5
8C5
  8
0
  6
CONTINUOUS
 62
     7
 10
-289.79942449610581
 20
-245.8652229470089
 30
0.0
  0
VERTEX
  5
8C6
  8
0
  6
CONTINUOUS
 62
     7
 10
-289.79942449610581
 20
-245.8652229470089
 30
0.0
 42
-0.4142135623730951
  0
VERTEX
  5
8C7
  8
0
  6
CONTINUOUS
 62
     7
 10
-291.7994244961057
 20
-243.86522294700899
 30
0.0
  0
VERTEX
  5
8C8
  8
0
  6
CONTINUOUS
 62
     7
 10
-291.7994244961057
 20
-229.86522294700899
 30
0.0
  0
VERTEX
  5
8C9
  8
0
  6
CONTINUOUS
 62
     7
 10
-291.7994244961057
 20
-229.86522294700899
 30
0.0
 42
-0.4142135623730951
  0
VERTEX
  5
8CA
  8
0
  6
CONTINUOUS
 62
     7
 10
-289.79942449610581
 20
-227.86522294700899
 30
0.0
  0
VERTEX
  5
8CB
  8
0
  6
CONTINUOUS
 62
     7
 10
-285.79942449610581
 20
-227.86522294700899
 30
0.0
  0
SEQEND
  5
8CC
  8
0
  6
CONTINUOUS
 62
     7
  0
ARC
  5
10E
  8
0
  6
CONTINUOUS
 62
     7
 10
-264.79942449610581
 20
-242.9152229470092
 30
0.0
 40
2.0
 50
270.0
 51
0.0
  0
LINE
  5
10F
  8
0
  6
CONTINUOUS
 62
     7
 10
-261.79942449610581
 20
-229.86522294700899
 30
0.0
 11
-261.79942449610581
 21
-243.86522294700899
 31
0.0
  0
LINE
  5
110
  8
0
  6
CONTINUOUS
 62
     7
 10
-262.79942449610581
 20
-232.41522294700911
 30
0.0
 11
-262.79942449610581
 21
-242.9152229470092
 31
0.0
  0
LINE
  5
111
  8
0
  6
CONTINUOUS
 62
     7
 10
-270.7994244961057
 20
-227.86522294700899
 30
0.0
 11
-270.7994244961057
 21
-230.41522294700911
 31
0.0
  0
ARC
  5
112
  8
0
  6
CONTINUOUS
 62
     7
 10
-264.79942449610581
 20
-232.41522294700911
 30
0.0
 40
2.0
 50
0.0
 51
90.0
  0
ARC
  5
113
  8
0
  6
CONTINUOUS
 62
     7
 10
-288.79942449610581
 20
-232.41522294700911
 30
0.0
 40
2.0
 50
90.0
 51
180.0
  0
LINE
  5
114
  8
0
  6
CONTINUOUS
 62
     7
 10
-288.79942449610581
 20
-244.9152229470092
 30
0.0
 11
-264.79942449610581
 21
-244.9152229470092
 31
0.0
  0
ENDBLK
  5
115
  8
DATA
  0
BLOCK
  8
DATA
  2
____-18
 70
     0
 10
0.0
 20
0.0
 30
0.0
  3
____-18
  1

  0
LINE
  5
117
  8
0
  6
CONTINUOUS
 62
     7
 10
-298.58612492694891
 20
-253.50000000000011
 30
0.0
 11
-308.58612492694891
 21
-253.50000000000011
 31
0.0
  0
LINE
  5
118
  8
0
  6
CONTINUOUS
 62
     7
 10
-311.73612492694878
 20
-251.50000000000011
 30
0.0
 11
-311.73612492694878
 21
-250.00000000000011
 31
0.0
  0
LINE
  5
119
  8
0
  6
CONTINUOUS
 62
     7
 10
-295.43612492694888
 20
-251.50000000000011
 30
0.0
 11
-295.43612492694888
 21
-250.00000000000011
 31
0.0
  0
LINE
  5
11A
  8
0
  6
CONTINUOUS
 62
     7
 10
-311.73612492694878
 20
-251.50000000000011
 30
0.0
 11
-295.43612492694888
 21
-251.50000000000011
 31
0.0
  0
LINE
  5
11B
  8
0
  6
CONTINUOUS
 62
     7
 10
-308.58612492694891
 20
-251.50000000000011
 30
0.0
 11
-308.58612492694891
 21
-253.50000000000011
 31
0.0
  0
LINE
  5
11C
  8
0
  6
CONTINUOUS
 62
     7
 10
-298.58612492694891
 20
-251.50000000000011
 30
0.0
 11
-298.58612492694891
 21
-253.50000000000011
 31
0.0
  0
LINE
  5
11D
  8
0
  6
CONTINUOUS
 62
     7
 10
-311.73612492694878
 20
-250.00000000000011
 30
0.0
 11
-295.43612492694888
 21
-250.00000000000011
 31
0.0
  0
ENDBLK
  5
11E
  8
DATA
  0
BLOCK
  8
DATA
  2
____-19
 70
     0
 10
0.0
 20
0.0
 30
0.0
  3
____-19
  1

  0
LINE
  5
120
  8
0
  6
CONTINUOUS
 62
     7
 10
-208.5861249269488
 20
-253.50000000000011
 30
0.0
 11
-218.5861249269488
 21
-253.50000000000011
 31
0.0
  0
LINE
  5
121
  8
0
  6
CONTINUOUS
 62
     7
 10
-221.7361249269488
 20
-251.50000000000011
 30
0.0
 11
-221.7361249269488
 21
-250.00000000000011
 31
0.0
  0
LINE
  5
122
  8
0
  6
CONTINUOUS
 62
     7
 10
-205.43612492694879
 20
-251.50000000000011
 30
0.0
 11
-205.43612492694879
 21
-250.00000000000011
 31
0.0
  0
LINE
  5
123
  8
0
  6
CONTINUOUS
 62
     7
 10
-221.7361249269488
 20
-251.50000000000011
 30
0.0
 11
-205.43612492694879
 21
-251.50000000000011
 31
0.0
  0
LINE
  5
124
  8
0
  6
CONTINUOUS
 62
     7
 10
-218.5861249269488
 20
-251.50000000000011
 30
0.0
 11
-218.5861249269488
 21
-253.50000000000011
 31
0.0
  0
LINE
  5
125
  8
0
  6
CONTINUOUS
 62
     7
 10
-208.5861249269488
 20
-251.50000000000011
 30
0.0
 11
-208.5861249269488
 21
-253.50000000000011
 31
0.0
  0
LINE
  5
126
  8
0
  6
CONTINUOUS
 62
     7
 10
-221.7361249269488
 20
-250.00000000000011
 30
0.0
 11
-205.43612492694879
 21
-250.00000000000011
 31
0.0
  0
ENDBLK
  5
127
  8
DATA
  0
BLOCK
  8
DATA
  2
____-20
 70
     0
 10
0.0
 20
0.0
 30
0.0
  3
____-20
  1

  0
LINE
  5
129
  8
0
  6
CONTINUOUS
 62
     7
 10
-272.33612492694891
 20
-250.50000000000011
 30
0.0
 11
-244.83612492694891
 21
-250.50000000000011
 31
0.0
  0
LINE
  5
12A
  8
0
  6
CONTINUOUS
 62
     7
 10
-272.33612492694891
 20
-250.50000000000011
 30
0.0
 11
-272.33612492694891
 21
-250.00000000000011
 31
0.0
  0
LINE
  5
12B
  8
0
  6
CONTINUOUS
 62
     7
 10
-244.83612492694891
 20
-250.50000000000011
 30
0.0
 11
-244.83612492694891
 21
-250.00000000000011
 31
0.0
  0
LINE
  5
12C
  8
0
  6
CONTINUOUS
 62
     7
 10
-272.33612492694891
 20
-250.00000000000011
 30
0.0
 11
-244.83612492694891
 21
-250.00000000000011
 31
0.0
  0
ENDBLK
  5
12D
  8
DATA
  0
BLOCK
  8
DATA
  2
____-21
 70
     0
 10
0.0
 20
0.0
 30
0.0
  3
____-21
  1

  0
INSERT
  5
12F
  8
0
 62
     7
  2
____-20
 10
0.0
 20
0.0
 30
0.0
  0
ENDBLK
  5
130
  8
DATA
  0
BLOCK
  8
DATA
  2
____-22
 70
     0
 10
0.0
 20
0.0
 30
0.0
  3
____-22
  1

  0
LINE
  5
132
  8
0
  6
CONTINUOUS
 62
     7
 10
268.58612492694891
 20
-253.5
 30
0.0
 11
258.58612492694891
 21
-253.5
 31
0.0
  0
LINE
  5
133
  8
0
  6
CONTINUOUS
 62
     7
 10
255.43612492694891
 20
-251.5
 30
0.0
 11
255.43612492694891
 21
-250.0
 31
0.0
  0
LINE
  5
134
  8
0
  6
CONTINUOUS
 62
     7
 10
271.73612492694878
 20
-251.5
 30
0.0
 11
271.73612492694878
 21
-250.0
 31
0.0
  0
LINE
  5
135
  8
0
  6
CONTINUOUS
 62
     7
 10
255.43612492694891
 20
-251.5
 30
0.0
 11
271.73612492694878
 21
-251.5
 31
0.0
  0
LINE
  5
136
  8
0
  6
CONTINUOUS
 62
     7
 10
258.58612492694891
 20
-251.5
 30
0.0
 11
258.58612492694891
 21
-253.5
 31
0.0
  0
LINE
  5
137
  8
0
  6
CONTINUOUS
 62
     7
 10
268.58612492694891
 20
-251.5
 30
0.0
 11
268.58612492694891
 21
-253.5
 31
0.0
  0
LINE
  5
138
  8
0
  6
CONTINUOUS
 62
     7
 10
255.43612492694891
 20
-250.0
 30
0.0
 11
271.73612492694878
 21
-250.0
 31
0.0
  0
ENDBLK
  5
139
  8
DATA
  0
BLOCK
  8
DATA
  2
____-23
 70
     0
 10
0.0
 20
0.0
 30
0.0
  3
____-23
  1

  0
LINE
  5
13B
  8
0
  6
CONTINUOUS
 62
     7
 10
358.58612492694891
 20
-253.5
 30
0.0
 11
348.5861249269488
 21
-253.5
 31
0.0
  0
LINE
  5
13C
  8
0
  6
CONTINUOUS
 62
     7
 10
345.43612492694888
 20
-251.5
 30
0.0
 11
345.43612492694888
 21
-250.0
 31
0.0
  0
LINE
  5
13D
  8
0
  6
CONTINUOUS
 62
     7
 10
361.73612492694878
 20
-251.5
 30
0.0
 11
361.73612492694878
 21
-250.0
 31
0.0
  0
LINE
  5
13E
  8
0
  6
CONTINUOUS
 62
     7
 10
345.43612492694888
 20
-251.5
 30
0.0
 11
361.73612492694878
 21
-251.5
 31
0.0
  0
LINE
  5
13F
  8
0
  6
CONTINUOUS
 62
     7
 10
348.5861249269488
 20
-251.5
 30
0.0
 11
348.5861249269488
 21
-253.5
 31
0.0
  0
LINE
  5
140
  8
0
  6
CONTINUOUS
 62
     7
 10
358.58612492694891
 20
-251.5
 30
0.0
 11
358.58612492694891
 21
-253.5
 31
0.0
  0
LINE
  5
141
  8
0
  6
CONTINUOUS
 62
     7
 10
345.43612492694888
 20
-250.0
 30
0.0
 11
361.73612492694878
 21
-250.0
 31
0.0
  0
ENDBLK
  5
142
  8
DATA
  0
BLOCK
  8
DATA
  2
____-24
 70
     0
 10
0.0
 20
0.0
 30
0.0
  3
____-24
  1

  0
LINE
  5
144
  8
0
  6
CONTINUOUS
 62
     7
 10
294.83612492694891
 20
-250.5
 30
0.0
 11
322.33612492694868
 21
-250.5
 31
0.0
  0
LINE
  5
145
  8
0
  6
CONTINUOUS
 62
     7
 10
294.83612492694891
 20
-250.5
 30
0.0
 11
294.83612492694891
 21
-250.0
 31
0.0
  0
LINE
  5
146
  8
0
  6
CONTINUOUS
 62
     7
 10
322.33612492694868
 20
-250.5
 30
0.0
 11
322.33612492694868
 21
-250.0
 31
0.0
  0
LINE
  5
147
  8
0
  6
CONTINUOUS
 62
     7
 10
294.83612492694891
 20
-250.0
 30
0.0
 11
322.33612492694868
 21
-250.0
 31
0.0
  0
ENDBLK
  5
148
  8
DATA
  0
BLOCK
  8
DATA
  2
____-25
 70
     0
 10
0.0
 20
0.0
 30
0.0
  3
____-25
  1

  0
INSERT
  5
14A
  8
0
 62
     7
  2
____-24
 10
0.0
 20
0.0
 30
0.0
  0
ENDBLK
  5
14B
  8
DATA
  0
ENDSEC
  0
SECTION
  2
ENTITIES
  0
LINE
  5
14C
  8
HIBINO-BASE
  6
CONTINUOUS
 62
     7
 10
-450.0
 20
650.0
 30
0.0
 11
450.0
 21
650.0
 31
0.0
  0
LINE
  5
14D
  8
HIBINO-BASE
  6
CONTINUOUS
 62
     7
 10
450.0
 20
-649.99999999999989
 30
0.0
 11
-450.0
 21
-649.99999999999989
 31
0.0
  0
LINE
  5
14E
  8
HIBINO-BASE
  6
CONTINUOUS
 62
     7
 10
-450.0
 20
-649.99999999999989
 30
0.0
 11
-450.0
 21
650.0
 31
0.0
  0
LINE
  5
14F
  8
HIBINO-BASE
  6
CONTINUOUS
 62
     7
 10
450.0
 20
650.0
 30
0.0
 11
450.0
 21
-649.99999999999989
 31
0.0
  0
LINE
  5
150
  8
HIBINO-BASE
  6
CONTINUOUS
 62
     7
 10
0.0000000000000355
 20
-537.49999999999989
 30
0.0
 11
450.0
 21
-537.49999999999989
 31
0.0
  0
LINE
  5
151
  8
HIBINO-BASE
  6
CONTINUOUS
 62
     7
 10
0.0000000000000355
 20
-649.99999999999989
 30
0.0
 11
0.0000000000000355
 21
-537.49999999999989
 31
0.0
  0
TEXT
  5
152
  8
HIBINO-BASE
 62
     7
 10
4.5000000000000631
 20
-550.0434666666664
 30
0.0
 40
8.1442057291666661
  1
NOTE
 41
0.7
 11
4.5000000000000631
 21
-541.89926093749966
 31
0.0
 73
     3
  0
LINE
  5
153
  8
HIBINO-BASE
  6
CONTINUOUS
 62
     7
 10
175.00000000000011
 20
-649.99999999999989
 30
0.0
 11
175.00000000000011
 21
-537.49999999999989
 31
0.0
  0
TEXT
  5
154
  8
HIBINO-BASE
 62
     7
 10
179.5
 20
-550.0434666666664
 30
0.0
 40
8.1442057291666661
  1
TITLE
 41
0.7
 11
179.5
 21
-541.89926093749966
 31
0.0
 73
     3
  0
LINE
  5
155
  8
HIBINO-BASE
  6
CONTINUOUS
 62
     7
 10
0.0000000000000355
 20
-599.99999999999989
 30
0.0
 11
450.0
 21
-599.99999999999989
 31
0.0
  0
TEXT
  5
156
  8
HIBINO-BASE
 62
     7
 10
242.0
 20
-612.26186666666638
 30
0.0
 40
8.1442057291666661
  1
DRAWN
 41
0.7
 11
242.0
 21
-604.11766093749975
 31
0.0
 73
     3
  0
TEXT
  5
157
  8
HIBINO-BASE
 62
     7
 10
117.0
 20
-612.26186666666638
 30
0.0
 40
8.1442057291666661
  1
DATE
 41
0.7
 11
117.0
 21
-604.11766093749975
 31
0.0
 73
     3
  0
TEXT
  5
158
  8
HIBINO-BASE
 62
     7
 10
67.0
 20
-612.26186666666638
 30
0.0
 40
8.1442057291666661
  1
SCALE
 41
0.7
 11
67.0
 21
-604.11766093749975
 31
0.0
 73
     3
  0
TEXT
  5
159
  8
HIBINO-BASE
 62
     7
 10
179.5
 20
-612.26186666666638
 30
0.0
 40
8.1442057291666661
  1
DESIGN
 41
0.7
 11
179.5
 21
-604.11766093749975
 31
0.0
 73
     3
  0
TEXT
  5
15A
  8
HIBINO-BASE
 62
     7
 10
367.0
 20
-612.26186666666638
 30
0.0
 40
8.1442057291666661
  1
DRAWING NO.
 41
0.7
 11
367.0
 21
-604.11766093749975
 31
0.0
 73
     3
  0
TEXT
  5
15B
  8
HIBINO-BASE
 62
     7
 10
304.49999999999989
 20
-612.26186666666638
 30
0.0
 40
8.1442057291666661
  1
CHECK
 41
0.7
 11
304.49999999999989
 21
-604.11766093749975
 31
0.0
 73
     3
  0
LINE
  5
15C
  8
HIBINO-BASE
  6
CONTINUOUS
 62
     7
 10
71.875000000000014
 20
-643.74999999999989
 30
0.0
 11
90.625000000000114
 21
-624.99999999999989
 31
0.0
  0
TEXT
  5
15D
  8
HIBINO-BASE
 62
     7
 10
68.750000000000014
 20
-630.54471666666643
 30
0.0
 40
8.1442057291666661
  1
1
 41
0.7
 11
68.750000000000014
 21
-622.40051093749969
 31
0.0
 73
     3
  0
LINE
  5
15E
  8
HIBINO-BASE
  6
CONTINUOUS
 62
     7
 10
62.500000000000028
 20
-649.99999999999989
 30
0.0
 11
62.500000000000028
 21
-599.99999999999989
 31
0.0
  0
LINE
  5
15F
  8
HIBINO-BASE
  6
CONTINUOUS
 62
     7
 10
112.4999999999999
 20
-649.99999999999989
 30
0.0
 11
112.4999999999999
 21
-599.99999999999989
 31
0.0
  0
LINE
  5
160
  8
HIBINO-BASE
  6
CONTINUOUS
 62
     7
 10
237.5
 20
-599.99999999999989
 30
0.0
 11
237.5
 21
-649.99999999999989
 31
0.0
  0
LINE
  5
161
  8
HIBINO-BASE
  6
CONTINUOUS
 62
     7
 10
362.5
 20
-599.99999999999989
 30
0.0
 11
362.5
 21
-649.99999999999989
 31
0.0
  0
LINE
  5
162
  8
HIBINO-BASE
  6
CONTINUOUS
 62
     7
 10
300.0
 20
-649.99999999999989
 30
0.0
 11
300.0
 21
-599.99999999999989
 31
0.0
  0
TEXT
  5
163
  8
HIBINO-BASE
 62
     7
 10
116.7827000000001
 20
-635.68176666666625
 30
0.0
 40
8.1442057291666661
  1
'13.07.
 41
0.7
 11
116.7827000000001
 21
-627.53756093749962
 31
0.0
 73
     3
  0
TEXT
  5
164
  8
HIBINO-BASE
 62
     7
 10
87.500000000000057
 20
-639.91971666666643
 30
0.0
 40
8.1442057291666661
  1
5
 41
0.7
 11
87.500000000000057
 21
-631.77551093749969
 31
0.0
 73
     3
  0
TEXT
  5
165
  8
HIBINO-BASE
 62
     7
 10
245.02905005517309
 20
-635.68176666666625
 30
0.0
 40
8.1442057291666661
  1
N.Sasaki
 41
0.7
 11
245.02905005517309
 21
-627.53756093749962
 31
0.0
 73
     3
  0
TEXT
  5
166
  8
HIBINO-BASE
 62
     7
 10
19.416666666666799
 20
-640.11999999999989
 30
0.0
 40
16.288411458333329
  1
A4
 41
0.7
 11
19.416666666666799
 21
-623.83158854166652
 31
0.0
 73
     3
  0
TEXT
  5
167
  8
HIBINO-BASE
 62
     7
 10
4.7916666666666776
 20
-613.09727499999974
 30
0.0
 40
8.1442057291666661
  1
PAPER SIZE
 41
0.7
 11
4.7916666666666794
 21
-604.95306927083311
 31
0.0
 73
     3
  0
TEXT
  5
168
  8
HIBINO-BASE
 62
     7
 10
-414.07999999999993
 20
-682.04338899999959
 30
0.0
 40
18.00022089843749
  1
Hibino Corporation
 41
0.7
 11
-414.07999999999993
 21
-664.04316810156217
 31
0.0
 73
     3
  0
TEXT
  5
169
  8
HIBINO-BASE
 62
     7
 10
250.34195
 20
-682.04338899999959
 30
0.0
 40
18.00022089843749
  1
ヒビノ株式会社
 41
0.7
 11
250.34195
 21
-664.04316810156217
 31
0.0
 73
     3
  0
LINE
  5
16A
  8
SPEC
  6
CONTINUOUS
 62
     7
 10
-412.49999999999989
 20
600.0
 30
0.0
 11
325.0
 21
600.0
 31
0.0
  0
LINE
  5
16B
  8
SPEC
  6
CONTINUOUS
 62
     7
 10
-412.49999999999989
 20
581.25
 30
0.0
 11
325.0
 21
581.25
 31
0.0
  0
LINE
  5
16C
  8
SPEC
  6
CONTINUOUS
 62
     7
 10
-412.49999999999989
 20
468.75
 30
0.0
 11
325.0
 21
468.75
 31
0.0
  0
LINE
  5
16D
  8
SPEC
  6
CONTINUOUS
 62
     7
 10
-412.49999999999989
 20
412.5
 30
0.0
 11
325.0
 21
412.5
 31
0.0
  0
LINE
  5
16E
  8
SPEC
  6
CONTINUOUS
 62
     7
 10
-412.49999999999989
 20
375.0
 30
0.0
 11
325.0
 21
375.0
 31
0.0
  0
LINE
  5
16F
  8
SPEC
  6
CONTINUOUS
 62
     7
 10
-412.49999999999989
 20
337.5
 30
0.0
 11
325.0
 21
337.5
 31
0.0
  0
LINE
  5
170
  8
SPEC
  6
CONTINUOUS
 62
     7
 10
-412.49999999999989
 20
243.75000000000011
 30
0.0
 11
325.0
 21
243.75000000000011
 31
0.0
  0
LINE
  5
171
  8
SPEC
  6
CONTINUOUS
 62
     7
 10
-412.49999999999989
 20
281.25
 30
0.0
 11
325.0
 21
281.25
 31
0.0
  0
LINE
  5
172
  8
SPEC
  6
CONTINUOUS
 62
     7
 10
-412.49999999999989
 20
262.5
 30
0.0
 11
325.0
 21
262.5
 31
0.0
  0
LINE
  5
173
  8
SPEC
  6
CONTINUOUS
 62
     7
 10
-412.49999999999989
 20
600.0
 30
0.0
 11
-412.49999999999989
 21
224.9500000000001
 31
0.0
  0
TEXT
  5
174
  8
SPEC
 62
     7
 10
-406.24999999999989
 20
606.96635000000003
 30
0.0
 40
12.21630859375
  1
仕様
 41
0.7
 11
-406.24999999999989
 21
619.18265859375003
 31
0.0
 73
     3
  0
LINE
  5
175
  8
SPEC
  6
CONTINUOUS
 62
     7
 10
325.0
 20
600.0
 30
0.0
 11
325.0
 21
224.9500000000001
 31
0.0
  0
LINE
  5
176
  8
SPEC
  6
CONTINUOUS
 62
     7
 10
-412.49999999999989
 20
356.20000000000022
 30
0.0
 11
325.0
 21
356.20000000000022
 31
0.0
  0
LINE
  5
177
  8
SPEC
  6
CONTINUOUS
 62
     7
 10
-412.49999999999989
 20
318.7000000000001
 30
0.0
 11
325.0
 21
318.7000000000001
 31
0.0
  0
LINE
  5
178
  8
SPEC
  6
CONTINUOUS
 62
     7
 10
-412.49999999999989
 20
299.90000000000009
 30
0.0
 11
325.0
 21
299.90000000000009
 31
0.0
  0
LINE
  5
179
  8
SPEC
  6
CONTINUOUS
 62
     7
 10
-412.49999999999989
 20
224.9500000000001
 30
0.0
 11
325.0
 21
224.9500000000001
 31
0.0
  0
LINE
  5
17A
  8
SPEC
  6
CONTINUOUS
 62
     7
 10
166.61834143494499
 20
-27.36538474039455
 30
0.0
 11
166.61834143494499
 21
-31.36538474039455
 31
0.0
  0
LINE
  5
17B
  8
SPEC
  6
CONTINUOUS
 62
     7
 10
144.41834143494501
 20
-27.36538474039455
 30
0.0
 11
144.41834143494501
 21
-31.36538474039455
 31
0.0
  0
LINE
  5
17C
  8
SPEC
  6
CONTINUOUS
 62
     7
 10
146.41834143494501
 20
-29.36538474039455
 30
0.0
 11
146.41834143494501
 21
-31.36538474039455
 31
0.0
  0
LINE
  5
17D
  8
SPEC
  6
CONTINUOUS
 62
     7
 10
164.61834143494499
 20
-29.36538474039455
 30
0.0
 11
164.61834143494499
 21
-31.36538474039455
 31
0.0
  0
LINE
  5
17E
  8
SPEC
  6
CONTINUOUS
 62
     7
 10
144.41834143494501
 20
-31.36538474039455
 30
0.0
 11
146.41834143494501
 21
-31.36538474039455
 31
0.0
  0
LINE
  5
17F
  8
SPEC
  6
CONTINUOUS
 62
     7
 10
164.61834143494499
 20
-31.36538474039455
 30
0.0
 11
166.61834143494499
 21
-31.36538474039455
 31
0.0
  0
LINE
  5
180
  8
SPEC
  6
CONTINUOUS
 62
     7
 10
160.518341434945
 20
-32.365384740394553
 30
0.0
 11
160.518341434945
 21
-29.36538474039455
 31
0.0
  0
LINE
  5
181
  8
SPEC
  6
CONTINUOUS
 62
     7
 10
150.518341434945
 20
-32.365384740394553
 30
0.0
 11
150.518341434945
 21
-29.36538474039455
 31
0.0
  0
LINE
  5
182
  8
SPEC
  6
CONTINUOUS
 62
     7
 10
146.41834143494501
 20
-29.36538474039455
 30
0.0
 11
164.61834143494499
 21
-29.36538474039455
 31
0.0
  0
LINE
  5
183
  8
SPEC
  6
CONTINUOUS
 62
     7
 10
155.518341434945
 20
-26.36538474039455
 30
0.0
 11
144.41834143494501
 21
-27.36538474039455
 31
0.0
  0
LINE
  5
184
  8
SPEC
  6
CONTINUOUS
 62
     7
 10
155.518341434945
 20
-26.36538474039455
 30
0.0
 11
166.61834143494499
 21
-27.36538474039455
 31
0.0
  0
LINE
  5
185
  8
SPEC
  6
CONTINUOUS
 62
     7
 10
166.90449966478161
 20
-472.59999999999991
 30
0.0
 11
166.90449966478161
 21
-468.59999999999991
 31
0.0
  0
LINE
  5
186
  8
SPEC
  6
CONTINUOUS
 62
     7
 10
144.70449966478159
 20
-472.59999999999991
 30
0.0
 11
144.70449966478159
 21
-468.59999999999991
 31
0.0
  0
LINE
  5
187
  8
SPEC
  6
CONTINUOUS
 62
     7
 10
146.70449966478159
 20
-470.60000000000002
 30
0.0
 11
146.70449966478159
 21
-468.59999999999991
 31
0.0
  0
LINE
  5
188
  8
SPEC
  6
CONTINUOUS
 62
     7
 10
164.90449966478161
 20
-470.60000000000002
 30
0.0
 11
164.90449966478161
 21
-468.59999999999991
 31
0.0
  0
LINE
  5
189
  8
SPEC
  6
CONTINUOUS
 62
     7
 10
144.70449966478159
 20
-468.59999999999991
 30
0.0
 11
146.70449966478159
 21
-468.59999999999991
 31
0.0
  0
LINE
  5
18A
  8
SPEC
  6
CONTINUOUS
 62
     7
 10
164.90449966478161
 20
-468.59999999999991
 30
0.0
 11
166.90449966478161
 21
-468.59999999999991
 31
0.0
  0
LINE
  5
18B
  8
SPEC
  6
CONTINUOUS
 62
     7
 10
160.80449966478159
 20
-467.60000000000002
 30
0.0
 11
160.80449966478159
 21
-470.60000000000002
 31
0.0
  0
LINE
  5
18C
  8
SPEC
  6
CONTINUOUS
 62
     7
 10
150.80449966478159
 20
-467.60000000000002
 30
0.0
 11
150.80449966478159
 21
-470.60000000000002
 31
0.0
  0
LINE
  5
18D
  8
SPEC
  6
CONTINUOUS
 62
     7
 10
146.70449966478159
 20
-470.60000000000002
 30
0.0
 11
164.90449966478161
 21
-470.60000000000002
 31
0.0
  0
LINE
  5
18E
  8
SPEC
  6
CONTINUOUS
 62
     7
 10
155.80449966478159
 20
-473.60000000000002
 30
0.0
 11
144.70449966478159
 21
-472.59999999999991
 31
0.0
  0
LINE
  5
18F
  8
SPEC
  6
CONTINUOUS
 62
     7
 10
155.80449966478159
 20
-473.60000000000002
 30
0.0
 11
166.90449966478161
 21
-472.59999999999991
 31
0.0
  0
LINE
  5
190
  8
SPEC
  6
CONTINUOUS
 62
     7
 10
-250.0
 20
581.25
 30
0.0
 11
-250.0
 21
375.0
 31
0.0
  0
LINE
  5
191
  8
SPEC
  6
CONTINUOUS
 62
     7
 10
-100.0
 20
600.0
 30
0.0
 11
-100.0
 21
224.9500000000001
 31
0.0
  0
TEXT
  5
192
  8
SPEC
 62
     7
 10
-95.500000000000128
 20
361.18000000000012
 30
0.0
 40
9.5015733506944464
  1
20Hz～20kHz(+0/－0.2dB、0dBu)
 41
0.7
 11
-95.500000000000128
 21
370.68157335069452
 31
0.0
 73
     3
  0
TEXT
  5
193
  8
SPEC
 62
     7
 10
-95.500000000000043
 20
342.43000000000012
 30
0.0
 40
9.5015733506944464
  1
0.005%%%(20Hz～20kHz、0dBu)
 41
0.7
 11
-95.500000000000043
 21
351.93157335069452
 31
0.0
 73
     3
  0
TEXT
  5
194
  8
SPEC
 62
     7
 10
-95.500000000000043
 20
323.68000000000012
 30
0.0
 40
9.5015733506944464
  1
112dB(Aウェイト)
 41
0.7
 11
-95.500000000000043
 21
333.18157335069452
 31
0.0
 73
     3
  0
TEXT
  5
195
  8
SPEC
 62
     7
 10
-95.500000000000043
 20
304.93000000000012
 30
0.0
 40
9.5015733506944464
  1
97dB以下(20Hz～20kHz)
 41
0.7
 11
-95.500000000000043
 21
314.43157335069452
 31
0.0
 73
     3
  0
TEXT
  5
196
  8
SPEC
 62
     7
 10
-95.500000000000128
 20
286.18000000000012
 30
0.0
 40
9.5015733506944464
  1
DC9V(2.0A)、ACアダプター(AC100V、50/60Hz)
 41
0.7
 11
-95.500000000000128
 21
295.68157335069458
 31
0.0
 73
     3
  0
TEXT
  5
197
  8
SPEC
 62
     7
 10
-407.99999999999989
 20
267.43000000000001
 30
0.0
 40
9.5015733506944464
  1
消費電力
 41
0.7
 11
-407.99999999999989
 21
276.93157335069452
 31
0.0
 73
     3
  0
LINE
  5
198
  8
SPEC
  6
CONTINUOUS
 62
     7
 10
-250.0
 20
506.25
 30
0.0
 11
325.0
 21
506.25
 31
0.0
  0
LINE
  5
199
  8
SPEC
  6
CONTINUOUS
 62
     7
 10
-250.0
 20
525.0
 30
0.0
 11
325.0
 21
525.0
 31
0.0
  0
LINE
  5
19A
  8
SPEC
  6
CONTINUOUS
 62
     7
 10
-250.0
 20
543.75
 30
0.0
 11
325.0
 21
543.75
 31
0.0
  0
LINE
  5
19B
  8
SPEC
  6
CONTINUOUS
 62
     7
 10
-250.0
 20
487.5
 30
0.0
 11
325.0
 21
487.5
 31
0.0
  0
LINE
  5
19C
  8
SPEC
  6
CONTINUOUS
 62
     7
 10
-250.0
 20
450.0
 30
0.0
 11
325.0
 21
450.0
 31
0.0
  0
LINE
  5
19D
  8
SPEC
  6
CONTINUOUS
 62
     7
 10
-250.0
 20
431.25
 30
0.0
 11
325.0
 21
431.25
 31
0.0
  0
LINE
  5
19E
  8
SPEC
  6
CONTINUOUS
 62
     7
 10
-250.0
 20
562.5
 30
0.0
 11
325.0
 21
562.5
 31
0.0
  0
LINE
  5
19F
  8
SPEC
  6
CONTINUOUS
 62
     7
 10
-250.0
 20
393.7000000000001
 30
0.0
 11
325.0
 21
393.7000000000001
 31
0.0
  0
TEXT
  5
1A0
  8
SPEC
 62
     7
 10
-407.99999999999989
 20
586.17999999999995
 30
0.0
 40
9.5015733506944464
  1
処理可能チャンネル数
 41
0.7
 11
-407.99999999999989
 21
595.68157335069452
 31
0.0
 73
     3
  0
TEXT
  5
1A1
  8
SPEC
 62
     7
 10
-95.500000000000043
 20
586.17999999999995
 30
0.0
 40
9.5015733506944464
  1
16
 41
0.7
 11
-95.500000000000043
 21
595.68157335069452
 31
0.0
 73
     3
  0
TEXT
  5
1A2
  8
SPEC
 62
     7
 10
-245.5
 20
567.42999999999995
 30
0.0
 40
9.5015733506944464
  1
量子化ビット数
 41
0.7
 11
-245.5
 21
576.93157335069452
 31
0.0
 73
     3
  0
TEXT
  5
1A3
  8
SPEC
 62
     7
 10
-407.99999999999989
 20
229.93000000000009
 30
0.0
 40
9.5015733506944464
  1
質量
 41
0.7
 11
-407.99999999999989
 21
239.43157335069461
 31
0.0
 73
     3
  0
TEXT
  5
1A4
  8
SPEC
 62
     7
 10
-95.500000000000043
 20
473.68000000000012
 30
0.0
 40
9.5015733506944464
  1
0.08mS(48kHz使用時)
 41
0.7
 11
-95.500000000000043
 21
483.18157335069452
 31
0.0
 73
     3
  0
TEXT
  5
1A5
  8
SPEC
 62
     7
 10
-407.99999999999989
 20
567.42999999999995
 30
0.0
 40
9.5015733506944464
  1
BLU link
 41
0.7
 11
-407.99999999999989
 21
576.93157335069452
 31
0.0
 73
     3
  0
TEXT
  5
1A6
  8
SPEC
 62
     7
 10
-245.5
 20
548.67999999999995
 30
0.0
 40
9.5015733506944464
  1
サンプリングレート
 41
0.7
 11
-245.5
 21
558.18157335069452
 31
0.0
 73
     3
  0
TEXT
  5
1A7
  8
SPEC
 62
     7
 10
-95.500000000000043
 20
567.42999999999995
 30
0.0
 40
9.5015733506944464
  1
24bit
 41
0.7
 11
-95.500000000000043
 21
576.93157335069452
 31
0.0
 73
     3
  0
TEXT
  5
1A8
  8
SPEC
 62
     7
 10
-95.500000000000043
 20
548.67999999999995
 30
0.0
 40
9.5015733506944464
  1
48kHzまたは96kHz
 41
0.7
 11
-95.500000000000043
 21
558.18157335069452
 31
0.0
 73
     3
  0
TEXT
  5
1A9
  8
SPEC
 62
     7
 10
-95.500000000000043
 20
529.92999999999995
 30
0.0
 40
9.5015733506944464
  1
RJ-45(Ethernetコネクター)\U+00D72
 41
0.7
 11
-95.500000000000043
 21
539.43157335069452
 31
0.0
 73
     3
  0
TEXT
  5
1AA
  8
SPEC
 62
     7
 10
-95.500000000000043
 20
511.18000000000001
 30
0.0
 40
9.5015733506944464
  1
100m(CAT5eケーブル使用時)
 41
0.7
 11
-95.500000000000043
 21
520.68157335069452
 31
0.0
 73
     3
  0
TEXT
  5
1AB
  8
SPEC
 62
     7
 10
-94.94575020530479
 20
492.74999626816572
 30
0.0
 40
9.5015733506944464
  1
60
 41
0.7
 11
-94.94575020530479
 21
502.25156961886017
 31
0.0
 73
     3
  0
TEXT
  5
1AC
  8
SPEC
 62
     7
 10
-245.5
 20
529.92999999999995
 30
0.0
 40
9.5015733506944464
  1
端子
 41
0.7
 11
-245.5
 21
539.43157335069452
 31
0.0
 73
     3
  0
TEXT
  5
1AD
  8
SPEC
 62
     7
 10
-245.5
 20
511.18000000000001
 30
0.0
 40
9.5015733506944464
  1
最大伝送距離
 41
0.7
 11
-245.5
 21
520.68157335069452
 31
0.0
 73
     3
  0
TEXT
  5
1AE
  8
SPEC
 62
     7
 10
-245.5
 20
492.43000000000012
 30
0.0
 40
9.5015733506944464
  1
最大ノード数
 41
0.7
 11
-245.5
 21
501.93157335069452
 31
0.0
 73
     3
  0
TEXT
  5
1AF
  8
SPEC
 62
     7
 10
-245.5
 20
473.68000000000001
 30
0.0
 40
9.5015733506944464
  1
パススルーレイテンシー
 41
0.7
 11
-245.5
 21
483.18157335069452
 31
0.0
 73
     3
  0
TEXT
  5
1B0
  8
SPEC
 62
     7
 10
-245.5
 20
417.43000000000012
 30
0.0
 40
9.5015733506944464
  1
インピーダンス
 41
0.7
 11
-245.5
 21
426.93157335069452
 31
0.0
 73
     3
  0
TEXT
  5
1B1
  8
SPEC
 62
     7
 10
-95.500000000000043
 20
379.93000000000012
 30
0.0
 40
9.5015733506944464
  1
900mW/ch(50\U+03A9)
 41
0.7
 11
-95.500000000000043
 21
389.43157335069458
 31
0.0
 73
     3
  0
TEXT
  5
1B2
  8
SPEC
 62
     7
 10
-407.99999999999989
 20
454.93000000000012
 30
0.0
 40
9.5015733506944464
  1
マスター出力
 41
0.7
 11
-407.99999999999989
 21
464.43157335069452
 31
0.0
 73
     3
  0
TEXT
  5
1B3
  8
SPEC
 62
     7
 10
-95.500000000000043
 20
454.93000000000012
 30
0.0
 40
9.5015733506944464
  1
XLR、標準フォーンジャック
 41
0.7
 11
-95.500000000000043
 21
464.43157335069452
 31
0.0
 73
     3
  0
TEXT
  5
1B4
  8
SPEC
 62
     7
 10
-94.94575020530479
 20
436.49999626816572
 30
0.0
 40
9.5015733506944464
  1
20dBu
 41
0.7
 11
-94.94575020530479
 21
446.00156961886017
 31
0.0
 73
     3
  0
TEXT
  5
1B5
  8
SPEC
 62
     7
 10
-245.5
 20
454.93000000000012
 30
0.0
 40
9.5015733506944464
  1
端子
 41
0.7
 11
-245.5
 21
464.43157335069452
 31
0.0
 73
     3
  0
TEXT
  5
1B6
  8
SPEC
 62
     7
 10
-245.5
 20
436.18000000000012
 30
0.0
 40
9.5015733506944464
  1
最大レベル
 41
0.7
 11
-245.5
 21
445.68157335069452
 31
0.0
 73
     3
  0
TEXT
  5
1B7
  8
SPEC
 62
     7
 10
-95.500000000000043
 20
417.43000000000012
 30
0.0
 40
9.5015733506944464
  1
40\U+03A9
 41
0.7
 11
-95.500000000000043
 21
426.93157335069452
 31
0.0
 73
     3
  0
TEXT
  5
1B8
  8
SPEC
 62
     7
 10
-407.99999999999989
 20
398.68000000000012
 30
0.0
 40
9.5015733506944464
  1
ヘッドホン出力
 41
0.7
 11
-407.99999999999989
 21
408.18157335069452
 31
0.0
 73
     3
  0
TEXT
  5
1B9
  8
SPEC
 62
     7
 10
-94.94575020530479
 20
398.99999626816572
 30
0.0
 40
9.5015733506944464
  1
標準フォーンジャック、ミニジャック
 41
0.7
 11
-94.94575020530479
 21
408.50156961886017
 31
0.0
 73
     3
  0
TEXT
  5
1BA
  8
SPEC
 62
     7
 10
-245.5
 20
398.68000000000012
 30
0.0
 40
9.5015733506944464
  1
端子
 41
0.7
 11
-245.5
 21
408.18157335069452
 31
0.0
 73
     3
  0
TEXT
  5
1BB
  8
SPEC
 62
     7
 10
-245.5
 20
379.93000000000012
 30
0.0
 40
9.5015733506944464
  1
最大出力
 41
0.7
 11
-245.5
 21
389.43157335069458
 31
0.0
 73
     3
  0
TEXT
  5
1BC
  8
SPEC
 62
     7
 10
-407.99999999999989
 20
548.67999999999995
 30
0.0
 40
9.5015733506944464
  1
デジタルオーディオバス
 41
0.7
 11
-407.99999999999989
 21
558.18157335069452
 31
0.0
 73
     3
  0
TEXT
  5
1BD
  8
SPEC
 62
     7
 10
-407.99999999999989
 20
361.18000000000012
 30
0.0
 40
9.5015733506944464
  1
周波数特性
 41
0.7
 11
-407.99999999999989
 21
370.68157335069458
 31
0.0
 73
     3
  0
TEXT
  5
1BE
  8
SPEC
 62
     7
 10
-407.99999999999989
 20
342.43000000000012
 30
0.0
 40
9.5015733506944464
  1
THD+N
 41
0.7
 11
-407.99999999999989
 21
351.93157335069452
 31
0.0
 73
     3
  0
TEXT
  5
1BF
  8
SPEC
 62
     7
 10
-407.99999999999989
 20
323.68000000000012
 30
0.0
 40
9.5015733506944464
  1
ダイナミックレンジ
 41
0.7
 11
-407.99999999999989
 21
333.18157335069452
 31
0.0
 73
     3
  0
TEXT
  5
1C0
  8
SPEC
 62
     7
 10
-407.99999999999989
 20
304.93000000000012
 30
0.0
 40
9.5015733506944464
  1
クロストーク
 41
0.7
 11
-407.99999999999989
 21
314.43157335069452
 31
0.0
 73
     3
  0
TEXT
  5
1C1
  8
SPEC
 62
     7
 10
-407.99999999999989
 20
286.18000000000012
 30
0.0
 40
9.5015733506944464
  1
電源
 41
0.7
 11
-407.99999999999989
 21
295.68157335069458
 31
0.0
 73
     3
  0
TEXT
  5
1C2
  8
SPEC
 62
     7
 10
-95.500000000000043
 20
267.43000000000001
 30
0.0
 40
9.5015733506944464
  1
18W
 41
0.7
 11
-95.500000000000043
 21
276.93157335069452
 31
0.0
 73
     3
  0
TEXT
  5
1C3
  8
SPEC
 62
     7
 10
-407.99999999999989
 20
248.68000000000001
 30
0.0
 40
9.5015733506944464
  1
寸法(W\U+00D7H\U+00D7D)
 41
0.7
 11
-407.99999999999989
 21
258.18157335069452
 31
0.0
 73
     3
  0
TEXT
  5
1C4
  8
SPEC
 62
     7
 10
-95.500000000000043
 20
248.68000000000001
 30
0.0
 40
9.5015733506944464
  1
287\U+00D740.5\U+00D7118mm(除突起部)
 41
0.7
 11
-95.500000000000043
 21
258.18157335069452
 31
0.0
 73
     3
  0
TEXT
  5
1C5
  8
SPEC
 62
     7
 10
-95.500000000000043
 20
229.93000000000009
 30
0.0
 40
9.5015733506944464
  1
1.0kg(除ACアダプター)
 41
0.7
 11
-95.500000000000043
 21
239.43157335069461
 31
0.0
 73
     3
  0
TEXT
  5
1C6
  8
DIMNSIONS
 62
     7
 10
-99.999999999999957
 20
-588.65254999999968
 30
0.0
 40
12.21630859375
  1
(単位：mm)
 41
0.7
 11
-99.999999999999957
 21
-576.43624140624979
 31
0.0
 73
     3
  0
LINE
  5
1C7
  8
DIMNSIONS
  6
CONTINUOUS
 62
     7
 10
-110.2861582298366
 20
-32.365384740394553
 30
0.0
 11
-160.0
 21
-32.365384740394553
 31
0.0
  0
LINE
  5
1C8
  8
DIMNSIONS
  6
CONTINUOUS
 62
     7
 10
-108.7861582298366
 20
-149.96538474039451
 30
0.0
 11
-160.0
 21
-149.96538474039451
 31
0.0
  0
LINE
  5
1C9
  8
DIMNSIONS
  6
CONTINUOUS
 62
     7
 10
-150.0
 20
-32.365384740394553
 30
0.0
 11
-150.0
 21
-149.96538474039451
 31
0.0
  0
LINE
  5
1CA
  8
DIMNSIONS
  6
CONTINUOUS
 62
     7
 10
-150.0
 20
-32.365384740394553
 30
0.0
 11
-146.64980102424869
 21
-44.868497533363289
 31
0.0
  0
LINE
  5
1CB
  8
DIMNSIONS
  6
CONTINUOUS
 62
     7
 10
-150.0
 20
-32.365384740394553
 30
0.0
 11
-153.3501989757512
 21
-44.868497533363289
 31
0.0
  0
LINE
  5
1CC
  8
DIMNSIONS
  6
CONTINUOUS
 62
     7
 10
-150.0
 20
-149.96538474039451
 30
0.0
 11
-153.3501989757512
 21
-137.46227194742579
 31
0.0
  0
LINE
  5
1CD
  8
DIMNSIONS
  6
CONTINUOUS
 62
     7
 10
-150.0
 20
-149.96538474039451
 30
0.0
 11
-146.64980102424869
 21
-137.46227194742579
 31
0.0
  0
TEXT
  5
1CE
  8
DIMNSIONS
 62
     7
 10
-154.96944444444441
 20
-104.3945514070612
 30
0.0
 40
13.57367621527778
  1
118
 50
90.0
 41
0.7
 11
-168.54312065972221
 21
-104.3945514070612
 31
0.0
 73
     3
  0
LINE
  5
1CF
  8
DIMNSIONS
  6
CONTINUOUS
 62
     7
 10
-323.54810949020418
 20
-250.00000000000011
 30
0.0
 11
-360.0
 21
-250.00000000000011
 31
0.0
  0
LINE
  5
1D0
  8
DIMNSIONS
  6
CONTINUOUS
 62
     7
 10
-325.09902028700611
 20
-209.50065939859181
 30
0.0
 11
-360.0
 21
-209.50065939859181
 31
0.0
  0
LINE
  5
1D1
  8
DIMNSIONS
  6
CONTINUOUS
 62
     7
 10
-350.0
 20
-250.00000000000011
 30
0.0
 11
-350.0
 21
-209.50065939859181
 31
0.0
  0
LINE
  5
1D2
  8
DIMNSIONS
  6
CONTINUOUS
 62
     7
 10
-350.0
 20
-250.00000000000011
 30
0.0
 11
-353.3501989757512
 21
-237.49688720703131
 31
0.0
  0
LINE
  5
1D3
  8
DIMNSIONS
  6
CONTINUOUS
 62
     7
 10
-350.0
 20
-250.00000000000011
 30
0.0
 11
-346.6498010242488
 21
-237.49688720703131
 31
0.0
  0
LINE
  5
1D4
  8
DIMNSIONS
  6
CONTINUOUS
 62
     7
 10
-350.0
 20
-209.50065939859181
 30
0.0
 11
-346.6498010242488
 21
-222.0037721915605
 31
0.0
  0
LINE
  5
1D5
  8
DIMNSIONS
  6
CONTINUOUS
 62
     7
 10
-350.0
 20
-209.50065939859181
 30
0.0
 11
-353.3501989757512
 21
-222.0037721915605
 31
0.0
  0
TEXT
  5
1D6
  8
DIMNSIONS
 62
     7
 10
-354.96944444444449
 20
-247.38921858818489
 30
0.0
 40
13.57367621527778
  1
40.5
 50
90.0
 41
0.7
 11
-368.54312065972232
 21
-247.38921858818489
 31
0.0
 73
     3
  0
LINE
  5
1D7
  8
DIMNSIONS
  6
CONTINUOUS
 62
     7
 10
-323.54810949020418
 20
-250.00000000000011
 30
0.0
 11
-360.0
 21
-250.00000000000011
 31
0.0
  0
LINE
  5
1D8
  8
DIMNSIONS
  6
CONTINUOUS
 62
     7
 10
-318.58612492694891
 20
-253.50000000000011
 30
0.0
 11
-360.0
 21
-253.50000000000011
 31
0.0
  0
LINE
  5
1D9
  8
DIMNSIONS
  6
CONTINUOUS
 62
     7
 10
-350.0
 20
-253.50000000000011
 30
0.0
 11
-350.0
 21
-250.00000000000011
 31
0.0
  0
LINE
  5
1DA
  8
DIMNSIONS
  6
CONTINUOUS
 62
     7
 10
-350.0
 20
-250.00000000000011
 30
0.0
 11
-350.0
 21
-225.00000000000011
 31
0.0
  0
LINE
  5
1DB
  8
DIMNSIONS
  6
CONTINUOUS
 62
     7
 10
-350.0
 20
-250.00000000000011
 30
0.0
 11
-353.3501989757512
 21
-237.49688720703131
 31
0.0
  0
LINE
  5
1DC
  8
DIMNSIONS
  6
CONTINUOUS
 62
     7
 10
-350.0
 20
-250.00000000000011
 30
0.0
 11
-346.6498010242488
 21
-237.49688720703131
 31
0.0
  0
LINE
  5
1DD
  8
DIMNSIONS
  6
CONTINUOUS
 62
     7
 10
-350.0
 20
-253.50000000000011
 30
0.0
 11
-350.0
 21
-288.9583333333332
 31
0.0
  0
LINE
  5
1DE
  8
DIMNSIONS
  6
CONTINUOUS
 62
     7
 10
-350.0
 20
-253.50000000000011
 30
0.0
 11
-346.6498010242488
 21
-266.00311279296881
 31
0.0
  0
LINE
  5
1DF
  8
DIMNSIONS
  6
CONTINUOUS
 62
     7
 10
-350.0
 20
-253.50000000000011
 30
0.0
 11
-353.3501989757512
 21
-266.00311279296881
 31
0.0
  0
TEXT
  5
1E0
  8
DIMNSIONS
 62
     7
 10
-354.96944444444449
 20
-288.95833333333343
 30
0.0
 40
13.57367621527778
  1
3.5
 50
90.0
 41
0.7
 11
-368.54312065972232
 21
-288.95833333333343
 31
0.0
 73
     3
  0
LINE
  5
1E1
  8
DIMNSIONS
  6
CONTINUOUS
 62
     7
 10
-107.0
 20
-250.0
 30
0.0
 11
-160.0
 21
-250.0
 31
0.0
  0
LINE
  5
1E2
  8
DIMNSIONS
  6
CONTINUOUS
 62
     7
 10
-110.0
 20
-209.5
 30
0.0
 11
-160.0
 21
-209.5
 31
0.0
  0
LINE
  5
1E3
  8
DIMNSIONS
  6
CONTINUOUS
 62
     7
 10
-150.0
 20
-250.0
 30
0.0
 11
-150.0
 21
-209.5
 31
0.0
  0
LINE
  5
1E4
  8
DIMNSIONS
  6
CONTINUOUS
 62
     7
 10
-150.0
 20
-250.0
 30
0.0
 11
-153.3501989757512
 21
-237.49688720703119
 31
0.0
  0
LINE
  5
1E5
  8
DIMNSIONS
  6
CONTINUOUS
 62
     7
 10
-150.0
 20
-250.0
 30
0.0
 11
-146.64980102424869
 21
-237.49688720703119
 31
0.0
  0
LINE
  5
1E6
  8
DIMNSIONS
  6
CONTINUOUS
 62
     7
 10
-150.0
 20
-209.5
 30
0.0
 11
-146.64980102424869
 21
-222.00311279296869
 31
0.0
  0
LINE
  5
1E7
  8
DIMNSIONS
  6
CONTINUOUS
 62
     7
 10
-150.0
 20
-209.5
 30
0.0
 11
-153.3501989757512
 21
-222.00311279296869
 31
0.0
  0
TEXT
  5
1E8
  8
DIMNSIONS
 62
     7
 10
-154.96944444444441
 20
-247.38888888888891
 30
0.0
 40
13.57367621527778
  1
40.5
 50
90.0
 41
0.7
 11
-168.54312065972221
 21
-247.38888888888891
 31
0.0
 73
     3
  0
LINE
  5
1E9
  8
DIMNSIONS
  6
CONTINUOUS
 62
     7
 10
-107.0
 20
-250.0
 30
0.0
 11
-160.0
 21
-250.0
 31
0.0
  0
LINE
  5
1EA
  8
DIMNSIONS
  6
CONTINUOUS
 62
     7
 10
-95.5
 20
-253.5
 30
0.0
 11
-160.0
 21
-253.5
 31
0.0
  0
LINE
  5
1EB
  8
DIMNSIONS
  6
CONTINUOUS
 62
     7
 10
-150.0
 20
-253.5
 30
0.0
 11
-150.0
 21
-250.0
 31
0.0
  0
LINE
  5
1EC
  8
DIMNSIONS
  6
CONTINUOUS
 62
     7
 10
-150.0
 20
-250.0
 30
0.0
 11
-150.0
 21
-225.0
 31
0.0
  0
LINE
  5
1ED
  8
DIMNSIONS
  6
CONTINUOUS
 62
     7
 10
-150.0
 20
-250.0
 30
0.0
 11
-153.3501989757512
 21
-237.49688720703119
 31
0.0
  0
LINE
  5
1EE
  8
DIMNSIONS
  6
CONTINUOUS
 62
     7
 10
-150.0
 20
-250.0
 30
0.0
 11
-146.64980102424869
 21
-237.49688720703119
 31
0.0
  0
LINE
  5
1EF
  8
DIMNSIONS
  6
CONTINUOUS
 62
     7
 10
-150.0
 20
-253.5
 30
0.0
 11
-150.0
 21
-288.9583333333332
 31
0.0
  0
LINE
  5
1F0
  8
DIMNSIONS
  6
CONTINUOUS
 62
     7
 10
-150.0
 20
-253.5
 30
0.0
 11
-146.64980102424869
 21
-266.00311279296881
 31
0.0
  0
LINE
  5
1F1
  8
DIMNSIONS
  6
CONTINUOUS
 62
     7
 10
-150.0
 20
-253.5
 30
0.0
 11
-153.3501989757512
 21
-266.00311279296881
 31
0.0
  0
TEXT
  5
1F2
  8
DIMNSIONS
 62
     7
 10
-154.96944444444441
 20
-288.95833333333343
 30
0.0
 40
13.57367621527778
  1
3.5
 50
90.0
 41
0.7
 11
-168.54312065972221
 21
-288.95833333333343
 31
0.0
 73
     3
  0
LINE
  5
1F3
  8
DIMNSIONS
  6
CONTINUOUS
 62
     7
 10
-100.0
 20
-246.43529782451799
 30
0.0
 11
-100.0
 21
-310.0
 31
0.0
  0
LINE
  5
1F4
  8
DIMNSIONS
  6
CONTINUOUS
 62
     7
 10
187.0
 20
-246.43529782451799
 30
0.0
 11
187.0
 21
-310.0
 31
0.0
  0
LINE
  5
1F5
  8
DIMNSIONS
  6
CONTINUOUS
 62
     7
 10
-100.0
 20
-300.0
 30
0.0
 11
187.0
 21
-300.0
 31
0.0
  0
LINE
  5
1F6
  8
DIMNSIONS
  6
CONTINUOUS
 62
     7
 10
-100.0
 20
-300.0
 30
0.0
 11
-87.496887207031236
 21
-296.6498010242488
 31
0.0
  0
LINE
  5
1F7
  8
DIMNSIONS
  6
CONTINUOUS
 62
     7
 10
-100.0
 20
-300.0
 30
0.0
 11
-87.496887207031236
 21
-303.3501989757512
 31
0.0
  0
LINE
  5
1F8
  8
DIMNSIONS
  6
CONTINUOUS
 62
     7
 10
187.0
 20
-300.0
 30
0.0
 11
174.49688720703119
 21
-303.3501989757512
 31
0.0
  0
LINE
  5
1F9
  8
DIMNSIONS
  6
CONTINUOUS
 62
     7
 10
187.0
 20
-300.0
 30
0.0
 11
174.49688720703119
 21
-296.6498010242488
 31
0.0
  0
TEXT
  5
1FA
  8
DIMNSIONS
 62
     7
 10
30.270833333333329
 20
-295.03055555555551
 30
0.0
 40
13.57367621527778
  1
287
 41
0.7
 11
30.270833333333329
 21
-281.45687934027768
 31
0.0
 73
     3
  0
LINE
  5
1FB
  8
DIMNSIONS
  6
CONTINUOUS
 62
     7
 10
145.518341434945
 20
-26.36538474039455
 30
0.0
 11
-160.0
 21
-26.36538474039455
 31
0.0
  0
LINE
  5
1FC
  8
DIMNSIONS
  6
CONTINUOUS
 62
     7
 10
-110.2861582298366
 20
-32.365384740394553
 30
0.0
 11
-160.0
 21
-32.365384740394553
 31
0.0
  0
LINE
  5
1FD
  8
DIMNSIONS
  6
CONTINUOUS
 62
     7
 10
-150.0
 20
-32.365384740394553
 30
0.0
 11
-150.0
 21
-26.36538474039455
 31
0.0
  0
LINE
  5
1FE
  8
DIMNSIONS
  6
CONTINUOUS
 62
     7
 10
-150.0
 20
-26.36538474039455
 30
0.0
 11
-150.0
 21
-1.3653847403945489
 31
0.0
  0
LINE
  5
1FF
  8
DIMNSIONS
  6
CONTINUOUS
 62
     7
 10
-150.0
 20
-26.36538474039455
 30
0.0
 11
-153.3501989757512
 21
-13.862271947425789
 31
0.0
  0
LINE
  5
200
  8
DIMNSIONS
  6
CONTINUOUS
 62
     7
 10
-150.0
 20
-26.36538474039455
 30
0.0
 11
-146.64980102424869
 21
-13.862271947425789
 31
0.0
  0
LINE
  5
201
  8
DIMNSIONS
  6
CONTINUOUS
 62
     7
 10
-150.0
 20
-32.365384740394553
 30
0.0
 11
-150.0
 21
-57.365384740394553
 31
0.0
  0
LINE
  5
202
  8
DIMNSIONS
  6
CONTINUOUS
 62
     7
 10
-150.0
 20
-32.365384740394553
 30
0.0
 11
-146.64980102424869
 21
-44.868497533363289
 31
0.0
  0
LINE
  5
203
  8
DIMNSIONS
  6
CONTINUOUS
 62
     7
 10
-150.0
 20
-32.365384740394553
 30
0.0
 11
-153.3501989757512
 21
-44.868497533363289
 31
0.0
  0
TEXT
  5
204
  8
DIMNSIONS
 62
     7
 10
-154.96944444444441
 20
-42.594551407061211
 30
0.0
 40
13.57367621527778
  1
6.0
 50
90.0
 41
0.7
 11
-168.54312065972221
 21
-42.594551407061211
 31
0.0
 73
     3
  0
LINE
  5
205
  8
DIMNSIONS
  6
CONTINUOUS
 62
     7
 10
-286.09942449610583
 20
-197.253171008301
 30
0.0
 11
-385.09942449610571
 21
-197.253171008301
 31
0.0
  0
LINE
  5
206
  8
DIMNSIONS
  6
CONTINUOUS
 62
     7
 10
-318.5714655746242
 20
-253.4963959817585
 30
0.0
 11
-385.09942449610571
 21
-253.4963959817585
 31
0.0
  0
LINE
  5
207
  8
DIMNSIONS
  6
CONTINUOUS
 62
     7
 10
-375.09942449610571
 20
-197.253171008301
 30
0.0
 11
-375.09942449610571
 21
-253.4963959817585
 31
0.0
  0
LINE
  5
208
  8
DIMNSIONS
  6
CONTINUOUS
 62
     7
 10
-375.09942449610571
 20
-197.253171008301
 30
0.0
 11
-371.74922552035451
 21
-209.75628380126969
 31
0.0
  0
LINE
  5
209
  8
DIMNSIONS
  6
CONTINUOUS
 62
     7
 10
-375.09942449610571
 20
-197.253171008301
 30
0.0
 11
-378.44962347185691
 21
-209.75628380126969
 31
0.0
  0
LINE
  5
20A
  8
DIMNSIONS
  6
CONTINUOUS
 62
     7
 10
-375.09942449610571
 20
-253.4963959817585
 30
0.0
 11
-378.44962347185691
 21
-240.9932831887898
 31
0.0
  0
LINE
  5
20B
  8
DIMNSIONS
  6
CONTINUOUS
 62
     7
 10
-375.09942449610571
 20
-253.4963959817585
 30
0.0
 11
-371.74922552035451
 21
-240.9932831887898
 31
0.0
  0
TEXT
  5
20C
  8
DIMNSIONS
 62
     7
 10
-380.06886894055032
 20
-243.0136723839187
 30
0.0
 40
13.57367621527778
  1
56.2
 50
90.0
 41
0.7
 11
-393.64254515582809
 21
-243.0136723839187
 31
0.0
 73
     3
  0
LINE
  5
20D
  8
DIMNSIONS
  6
CONTINUOUS
 62
     7
 10
-110.0
 20
-350.0
 30
0.0
 11
-160.0
 21
-350.0
 31
0.0
  0
LINE
  5
20E
  8
DIMNSIONS
  6
CONTINUOUS
 62
     7
 10
145.80449966478159
 20
-473.60000000000002
 30
0.0
 11
-160.0
 21
-473.60000000000002
 31
0.0
  0
LINE
  5
20F
  8
DIMNSIONS
  6
CONTINUOUS
 62
     7
 10
-150.0
 20
-350.0
 30
0.0
 11
-150.0
 21
-473.60000000000002
 31
0.0
  0
LINE
  5
210
  8
DIMNSIONS
  6
CONTINUOUS
 62
     7
 10
-150.0
 20
-350.0
 30
0.0
 11
-146.64980102424869
 21
-362.50311279296881
 31
0.0
  0
LINE
  5
211
  8
DIMNSIONS
  6
CONTINUOUS
 62
     7
 10
-150.0
 20
-350.0
 30
0.0
 11
-153.3501989757512
 21
-362.50311279296881
 31
0.0
  0
LINE
  5
212
  8
DIMNSIONS
  6
CONTINUOUS
 62
     7
 10
-150.0
 20
-473.60000000000002
 30
0.0
 11
-153.3501989757512
 21
-461.09688720703122
 31
0.0
  0
LINE
  5
213
  8
DIMNSIONS
  6
CONTINUOUS
 62
     7
 10
-150.0
 20
-473.60000000000002
 30
0.0
 11
-146.64980102424869
 21
-461.09688720703122
 31
0.0
  0
TEXT
  5
214
  8
DIMNSIONS
 62
     7
 10
-154.96944444444441
 20
-425.0291666666667
 30
0.0
 40
13.57367621527778
  1
124
 50
90.0
 41
0.7
 11
-168.54312065972221
 21
-425.0291666666667
 31
0.0
 73
     3
  0
TEXT
  5
215
  8
DATA
 62
     7
 10
250.0
 20
-594.34554999999978
 30
0.0
 40
12.21630859375
  1
PMC16
 41
0.7
 11
250.0
 21
-582.12924140624966
 31
0.0
 73
     3
  0
TEXT
  5
216
  8
DATA
 62
     7
 10
250.0
 20
-558.09554999999978
 30
0.0
 40
12.21630859375
  1
dbx
 41
0.7
 11
250.0
 21
-545.87924140624966
 31
0.0
 73
     3
  0
TEXT
  5
217
  8
DATA
 62
     7
 10
-437.5
 20
-610.61861111111079
 30
0.0
 40
9.5015733506944464
  1
※仕様及び外観は予告なく変更されることがあります。
 41
0.7
 11
-437.5
 21
-601.11703776041645
 31
0.0
 73
     3
  0
TEXT
  5
218
  8
DATA
 62
     7
 10
-437.5
 20
-622.96583333333319
 30
0.0
 40
9.5015733506944464
  1
　また、同一商品でも若干の個体差があることがあります。ご了承ください。
 41
0.7
 11
-437.5
 21
-613.46425998263874
 31
0.0
 73
     3
  0
LINE
  5
219
  8
DATA
  6
CONTINUOUS
 62
     7
 10
-71.0
 20
-253.5
 30
0.0
 11
-81.0
 21
-253.5
 31
0.0
  0
LINE
  5
21A
  8
DATA
  6
CONTINUOUS
 62
     7
 10
-100.0
 20
-209.5
 30
0.0
 11
-8.7722456472020198
 21
-209.5
 31
0.0
  0
LINE
  5
21B
  8
DATA
  6
CONTINUOUS
 62
     7
 10
22.27224564720203
 20
-209.5
 30
0.0
 11
26.199999999999999
 21
-209.5
 31
0.0
  0
LINE
  5
21C
  8
DATA
  6
CONTINUOUS
 62
     7
 10
31.5
 20
-209.5
 30
0.0
 11
37.5
 21
-209.5
 31
0.0
  0
LINE
  5
21D
  8
DATA
  6
CONTINUOUS
 62
     7
 10
47.5
 20
-209.5
 30
0.0
 11
54.0
 21
-209.5
 31
0.0
  0
LINE
  5
21E
  8
DATA
  6
CONTINUOUS
 62
     7
 10
64.0
 20
-209.5
 30
0.0
 11
70.5
 21
-209.5
 31
0.0
  0
LINE
  5
21F
  8
DATA
  6
CONTINUOUS
 62
     7
 10
80.5
 20
-209.5
 30
0.0
 11
94.048450014331394
 21
-209.5
 31
0.0
  0
LINE
  5
220
  8
DATA
  6
CONTINUOUS
 62
     7
 10
106.95154998566861
 20
-209.5
 30
0.0
 11
116.04845001433139
 21
-209.5
 31
0.0
  0
LINE
  5
221
  8
DATA
  6
CONTINUOUS
 62
     7
 10
128.95154998566861
 20
-209.5
 30
0.0
 11
141.04845001433139
 21
-209.5
 31
0.0
  0
LINE
  5
222
  8
DATA
  6
CONTINUOUS
 62
     7
 10
153.95154998566861
 20
-209.5
 30
0.0
 11
163.04845001433139
 21
-209.5
 31
0.0
  0
LINE
  5
223
  8
DATA
  6
CONTINUOUS
 62
     7
 10
175.95154998566861
 20
-209.5
 30
0.0
 11
187.0
 21
-209.5
 31
0.0
  0
LINE
  5
224
  8
DATA
  6
CONTINUOUS
 62
     7
 10
-97.0
 20
-250.0
 30
0.0
 11
184.0
 21
-250.0
 31
0.0
  0
LINE
  5
225
  8
DATA
  6
CONTINUOUS
 62
     7
 10
29.75
 20
-250.5
 30
0.0
 11
57.25
 21
-250.5
 31
0.0
  0
LINE
  5
226
  8
DATA
  6
CONTINUOUS
 62
     7
 10
29.75
 20
-250.5
 30
0.0
 11
29.75
 21
-250.0
 31
0.0
  0
LINE
  5
227
  8
DATA
  6
CONTINUOUS
 62
     7
 10
57.25
 20
-250.5
 30
0.0
 11
57.25
 21
-250.0
 31
0.0
  0
LINE
  5
228
  8
DATA
  6
CONTINUOUS
 62
     7
 10
-84.149999999999963
 20
-251.5
 30
0.0
 11
-84.149999999999963
 21
-250.0
 31
0.0
  0
LINE
  5
229
  8
DATA
  6
CONTINUOUS
 62
     7
 10
-100.0
 20
-209.5
 30
0.0
 11
-100.0
 21
-236.43529782451799
 31
0.0
  0
LINE
  5
22A
  8
DATA
  6
CONTINUOUS
 62
     7
 10
187.0
 20
-209.5
 30
0.0
 11
187.0
 21
-236.43529782451799
 31
0.0
  0
LINE
  5
22B
  8
DATA
  6
CONTINUOUS
 62
     7
 10
-67.850000000000023
 20
-251.5
 30
0.0
 11
-67.850000000000023
 21
-250.0
 31
0.0
  0
LINE
  5
22C
  8
DATA
  6
CONTINUOUS
 62
     7
 10
-84.149999999999963
 20
-251.5
 30
0.0
 11
-67.850000000000023
 21
-251.5
 31
0.0
  0
LINE
  5
22D
  8
DATA
  6
CONTINUOUS
 62
     7
 10
-81.0
 20
-251.5
 30
0.0
 11
-81.0
 21
-253.5
 31
0.0
  0
LINE
  5
22E
  8
DATA
  6
CONTINUOUS
 62
     7
 10
-71.0
 20
-251.5
 30
0.0
 11
-71.0
 21
-253.5
 31
0.0
  0
LINE
  5
22F
  8
DATA
  6
CONTINUOUS
 62
     7
 10
-75.5
 20
-253.5
 30
0.0
 11
-85.5
 21
-253.5
 31
0.0
  0
LINE
  5
230
  8
DATA
  6
CONTINUOUS
 62
     7
 10
-88.649999999999963
 20
-251.5
 30
0.0
 11
-88.649999999999963
 21
-250.0
 31
0.0
  0
LINE
  5
231
  8
DATA
  6
CONTINUOUS
 62
     7
 10
-72.350000000000023
 20
-251.5
 30
0.0
 11
-88.649999999999963
 21
-251.5
 31
0.0
  0
LINE
  5
232
  8
DATA
  6
CONTINUOUS
 62
     7
 10
-85.5
 20
-251.5
 30
0.0
 11
-85.5
 21
-253.5
 31
0.0
  0
INSERT
  5
233
  8
DATA
 62
     7
  2
__NNA_WALL_STYLE_FORMAT_TE
 10
0.0
 20
0.0
 30
0.0
  0
LINE
  5
234
  8
DATA
  6
CONTINUOUS
 62
     7
 10
158.0
 20
-253.5
 30
0.0
 11
168.0
 21
-253.5
 31
0.0
  0
LINE
  5
235
  8
DATA
  6
CONTINUOUS
 62
     7
 10
171.15000000000001
 20
-251.5
 30
0.0
 11
171.15000000000001
 21
-250.0
 31
0.0
  0
LINE
  5
236
  8
DATA
  6
CONTINUOUS
 62
     7
 10
154.84999999999999
 20
-251.5
 30
0.0
 11
154.84999999999999
 21
-250.0
 31
0.0
  0
LINE
  5
237
  8
DATA
  6
CONTINUOUS
 62
     7
 10
171.15000000000001
 20
-251.5
 30
0.0
 11
154.84999999999999
 21
-251.5
 31
0.0
  0
LINE
  5
238
  8
DATA
  6
CONTINUOUS
 62
     7
 10
168.0
 20
-251.5
 30
0.0
 11
168.0
 21
-253.5
 31
0.0
  0
LINE
  5
239
  8
DATA
  6
CONTINUOUS
 62
     7
 10
158.0
 20
-251.5
 30
0.0
 11
158.0
 21
-253.5
 31
0.0
  0
LINE
  5
23A
  8
DATA
  6
CONTINUOUS
 62
     7
 10
162.5
 20
-253.5
 30
0.0
 11
172.5
 21
-253.5
 31
0.0
  0
LINE
  5
23B
  8
DATA
  6
CONTINUOUS
 62
     7
 10
175.64999999999989
 20
-251.5
 30
0.0
 11
175.64999999999989
 21
-250.0
 31
0.0
  0
LINE
  5
23C
  8
DATA
  6
CONTINUOUS
 62
     7
 10
159.34999999999999
 20
-251.5
 30
0.0
 11
175.64999999999989
 21
-251.5
 31
0.0
  0
LINE
  5
23D
  8
DATA
  6
CONTINUOUS
 62
     7
 10
172.5
 20
-251.5
 30
0.0
 11
172.5
 21
-253.5
 31
0.0
  0
INSERT
  5
23E
  8
DATA
 62
     7
  2
____
 10
0.0
 20
0.0
 30
0.0
  0
LINE
  5
23F
  8
DATA
  6
CONTINUOUS
 62
     7
 10
253.62414036369341
 20
-250.0
 30
0.0
 11
363.54810949020418
 21
-250.0
 31
0.0
  0
LINE
  5
240
  8
DATA
  6
CONTINUOUS
 62
     7
 10
365.55721825665057
 20
-209.8623717442552
 30
0.0
 11
367.59999999999991
 21
-216.3335956833493
 31
0.0
  0
LINE
  5
241
  8
DATA
  6
CONTINUOUS
 62
     7
 10
367.59999999999991
 20
-216.3335956833493
 30
0.0
 11
363.54810949020418
 21
-250.0
 31
0.0
  0
LINE
  5
242
  8
DATA
  6
CONTINUOUS
 62
     7
 10
-100.0
 20
-236.43529782451799
 30
0.0
 11
187.0
 21
-236.43529782451799
 31
0.0
  0
ARC
  5
243
  8
DATA
  6
CONTINUOUS
 62
     7
 10
365.07657738504292
 20
-210.00015546078279
 30
0.0
 40
0.5000000000000325
 50
15.995832313529929
 51
97.142703725471407
  0
LINE
  5
244
  8
DATA
  6
CONTINUOUS
 62
     7
 10
250.72970766083751
 20
-229.55729536900279
 30
0.0
 11
250.0
 21
-236.43529782451799
 31
0.0
  0
LINE
  5
245
  8
DATA
  6
CONTINUOUS
 62
     7
 10
250.0
 20
-236.43529782451799
 30
0.0
 11
253.62414036369341
 21
-250.0
 31
0.0
  0
ARC
  5
246
  8
DATA
  6
CONTINUOUS
 62
     7
 10
252.21178231703149
 20
-229.78849812302499
 30
0.0
 40
1.500000000000006
 50
125.74411704333301
 51
171.13335763356099
  0
ARC
  5
247
  8
DATA
  6
CONTINUOUS
 62
     7
 10
382.0
 20
-659.18316615723916
 30
0.0
 40
450.0
 50
92.162905610563129
 51
106.879838197225
  0
ARC
  5
248
  8
DATA
  6
CONTINUOUS
 62
     7
 10
383.95096398483253
 20
-666.03643754313032
 30
0.0
 40
449.99999999999631
 50
92.069660336023674
 51
107.3176400518207
  0
LINE
  5
249
  8
DATA
  6
CONTINUOUS
 62
     7
 10
185.21384177016341
 20
-149.96538474039451
 30
0.0
 11
-98.78615822983663
 21
-149.96538474039451
 31
0.0
  0
LINE
  5
24A
  8
DATA
  6
CONTINUOUS
 62
     7
 10
186.71384177016341
 20
-32.365384740394553
 30
0.0
 11
186.71384177016341
 21
-97.36538474039456
 31
0.0
  0
LINE
  5
24B
  8
DATA
  6
CONTINUOUS
 62
     7
 10
-100.2861582298366
 20
-32.365384740394553
 30
0.0
 11
186.71384177016341
 21
-32.365384740394553
 31
0.0
  0
LINE
  5
24C
  8
DATA
  6
CONTINUOUS
 62
     7
 10
119.82293267925429
 20
-104.9653847403945
 30
0.0
 11
-96.03615822983663
 21
-104.9653847403945
 31
0.0
  0
LINE
  5
24D
  8
DATA
  6
CONTINUOUS
 62
     7
 10
181.21384177016341
 20
-149.96538474039451
 30
0.0
 11
181.21384177016341
 21
-95.965384740394555
 31
0.0
  0
LINE
  5
24E
  8
DATA
  6
CONTINUOUS
 62
     7
 10
125.5138417701633
 20
-94.965384740394555
 30
0.0
 11
182.46384177016341
 21
-94.965384740394555
 31
0.0
  0
LINE
  5
24F
  8
DATA
  6
CONTINUOUS
 62
     7
 10
125.5138417701633
 20
-94.965384740394555
 30
0.0
 11
119.82293267925429
 21
-104.9653847403945
 31
0.0
  0
LINE
  5
250
  8
DATA
  6
CONTINUOUS
 62
     7
 10
-94.78615822983663
 20
-106.4653847403945
 30
0.0
 11
120.4692963156179
 21
-106.4653847403945
 31
0.0
  0
LINE
  5
251
  8
DATA
  6
CONTINUOUS
 62
     7
 10
181.21384177016341
 20
-95.965384740394555
 30
0.0
 11
126.44475086107239
 21
-95.965384740394555
 31
0.0
  0
LINE
  5
252
  8
DATA
  6
CONTINUOUS
 62
     7
 10
126.44475086107239
 20
-95.965384740394555
 30
0.0
 11
120.4692963156179
 21
-106.4653847403945
 31
0.0
  0
LINE
  5
253
  8
DATA
  6
CONTINUOUS
 62
     7
 10
182.46384177016341
 20
-149.96538474039451
 30
0.0
 11
182.46384177016341
 21
-94.965384740394555
 31
0.0
  0
LINE
  5
254
  8
DATA
  6
CONTINUOUS
 62
     7
 10
185.46384177016341
 20
-97.36538474039456
 30
0.0
 11
185.46384177016341
 21
-32.365384740394553
 31
0.0
  0
POLYLINE
  5
255
  8
DATA
  6
CONTINUOUS
 62
     7
 66
     1
 10
0.0
 20
0.0
 30
0.0
 70
   129
  0
VERTEX
  5
8CD
  8
DATA
  6
CONTINUOUS
 62
     7
 10
164.21384177016341
 20
-124.4653847403945
 30
0.0
 42
-0.4142135623730951
  0
VERTEX
  5
8CE
  8
DATA
  6
CONTINUOUS
 62
     7
 10
164.71384177016341
 20
-123.9653847403945
 30
0.0
  0
VERTEX
  5
8CF
  8
DATA
  6
CONTINUOUS
 62
     7
 10
173.7138417701633
 20
-123.9653847403945
 30
0.0
 42
-0.4142135623731117
  0
VERTEX
  5
8D0
  8
DATA
  6
CONTINUOUS
 62
     7
 10
174.2138417701633
 20
-124.4653847403945
 30
0.0
  0
VERTEX
  5
8D1
  8
DATA
  6
CONTINUOUS
 62
     7
 10
174.2138417701633
 20
-142.96538474039451
 30
0.0
 42
-0.4142135623730951
  0
VERTEX
  5
8D2
  8
DATA
  6
CONTINUOUS
 62
     7
 10
173.7138417701633
 20
-143.46538474039451
 30
0.0
  0
VERTEX
  5
8D3
  8
DATA
  6
CONTINUOUS
 62
     7
 10
164.71384177016341
 20
-143.46538474039451
 30
0.0
 42
-0.4142135623730951
  0
VERTEX
  5
8D4
  8
DATA
  6
CONTINUOUS
 62
     7
 10
164.21384177016341
 20
-142.96538474039451
 30
0.0
  0
SEQEND
  5
8D5
  8
DATA
  6
CONTINUOUS
 62
     7
  0
LINE
  5
25F
  8
DATA
  6
CONTINUOUS
 62
     7
 10
-90.786158229836616
 20
-121.9653847403945
 30
0.0
 11
177.21384177016341
 21
-121.9653847403945
 31
0.0
  0
LINE
  5
260
  8
DATA
  6
CONTINUOUS
 62
     7
 10
-90.786158229836616
 20
-107.4653847403945
 30
0.0
 11
177.21384177016341
 21
-107.4653847403945
 31
0.0
  0
LINE
  5
261
  8
DATA
  6
CONTINUOUS
 62
     7
 10
177.21384177016341
 20
-107.4653847403945
 30
0.0
 11
177.21384177016341
 21
-121.9653847403945
 31
0.0
  0
LINE
  5
262
  8
DATA
  6
CONTINUOUS
 62
     7
 10
-90.786158229836616
 20
-107.4653847403945
 30
0.0
 11
-90.786158229836616
 21
-121.9653847403945
 31
0.0
  0
LINE
  5
263
  8
DATA
  6
CONTINUOUS
 62
     7
 10
181.1725616648759
 20
-148.62985192227151
 30
0.0
 11
-94.744878124549203
 21
-148.62985192227151
 31
0.0
  0
LINE
  5
264
  8
DATA
  6
CONTINUOUS
 62
     7
 10
160.41384177016329
 20
-107.4653847403945
 30
0.0
 11
160.41384177016329
 21
-121.9653847403945
 31
0.0
  0
LINE
  5
265
  8
DATA
  6
CONTINUOUS
 62
     7
 10
143.61384177016339
 20
-107.4653847403945
 30
0.0
 11
143.61384177016339
 21
-121.9653847403945
 31
0.0
  0
LINE
  5
266
  8
DATA
  6
CONTINUOUS
 62
     7
 10
126.81384177016329
 20
-107.4653847403945
 30
0.0
 11
126.81384177016329
 21
-121.9653847403945
 31
0.0
  0
LINE
  5
267
  8
DATA
  6
CONTINUOUS
 62
     7
 10
110.0138417701634
 20
-107.4653847403945
 30
0.0
 11
110.0138417701634
 21
-121.9653847403945
 31
0.0
  0
LINE
  5
268
  8
DATA
  6
CONTINUOUS
 62
     7
 10
93.21384177016337
 20
-107.4653847403945
 30
0.0
 11
93.21384177016337
 21
-121.9653847403945
 31
0.0
  0
LINE
  5
269
  8
DATA
  6
CONTINUOUS
 62
     7
 10
76.413841770163359
 20
-107.4653847403945
 30
0.0
 11
76.413841770163359
 21
-121.9653847403945
 31
0.0
  0
LINE
  5
26A
  8
DATA
  6
CONTINUOUS
 62
     7
 10
59.613841770163347
 20
-107.4653847403945
 30
0.0
 11
59.613841770163347
 21
-121.9653847403945
 31
0.0
  0
LINE
  5
26B
  8
DATA
  6
CONTINUOUS
 62
     7
 10
42.81384177016335
 20
-107.4653847403945
 30
0.0
 11
42.81384177016335
 21
-121.9653847403945
 31
0.0
  0
LINE
  5
26C
  8
DATA
  6
CONTINUOUS
 62
     7
 10
26.013841770163332
 20
-107.4653847403945
 30
0.0
 11
26.013841770163332
 21
-121.9653847403945
 31
0.0
  0
LINE
  5
26D
  8
DATA
  6
CONTINUOUS
 62
     7
 10
9.2138417701633273
 20
-107.4653847403945
 30
0.0
 11
9.2138417701633273
 21
-121.9653847403945
 31
0.0
  0
LINE
  5
26E
  8
DATA
  6
CONTINUOUS
 62
     7
 10
-7.5861582298366841
 20
-107.4653847403945
 30
0.0
 11
-7.5861582298366841
 21
-121.9653847403945
 31
0.0
  0
LINE
  5
26F
  8
DATA
  6
CONTINUOUS
 62
     7
 10
-24.386158229836688
 20
-107.4653847403945
 30
0.0
 11
-24.386158229836688
 21
-121.9653847403945
 31
0.0
  0
LINE
  5
270
  8
DATA
  6
CONTINUOUS
 62
     7
 10
-41.186158229836707
 20
-107.4653847403945
 30
0.0
 11
-41.186158229836707
 21
-121.9653847403945
 31
0.0
  0
LINE
  5
271
  8
DATA
  6
CONTINUOUS
 62
     7
 10
-57.986158229836718
 20
-107.4653847403945
 30
0.0
 11
-57.986158229836718
 21
-121.9653847403945
 31
0.0
  0
LINE
  5
272
  8
DATA
  6
CONTINUOUS
 62
     7
 10
-74.78615822983673
 20
-107.4653847403945
 30
0.0
 11
-74.78615822983673
 21
-121.9653847403945
 31
0.0
  0
POLYLINE
  5
273
  8
DATA
  6
CONTINUOUS
 62
     7
 66
     1
 10
0.0
 20
0.0
 30
0.0
 70
   129
  0
VERTEX
  5
8D6
  8
DATA
  6
CONTINUOUS
 62
     7
 10
130.6138417701633
 20
-99.965384740394555
 30
0.0
 42
-0.4142135623730951
  0
VERTEX
  5
8D7
  8
DATA
  6
CONTINUOUS
 62
     7
 10
131.1138417701633
 20
-99.465384740394555
 30
0.0
  0
VERTEX
  5
8D8
  8
DATA
  6
CONTINUOUS
 62
     7
 10
140.1138417701633
 20
-99.465384740394555
 30
0.0
 42
-0.4142135623730951
  0
VERTEX
  5
8D9
  8
DATA
  6
CONTINUOUS
 62
     7
 10
140.6138417701633
 20
-99.965384740394555
 30
0.0
  0
VERTEX
  5
8DA
  8
DATA
  6
CONTINUOUS
 62
     7
 10
140.6138417701633
 20
-104.9653847403945
 30
0.0
 42
-0.4142135623730951
  0
VERTEX
  5
8DB
  8
DATA
  6
CONTINUOUS
 62
     7
 10
140.1138417701633
 20
-105.4653847403945
 30
0.0
  0
VERTEX
  5
8DC
  8
DATA
  6
CONTINUOUS
 62
     7
 10
131.1138417701633
 20
-105.4653847403945
 30
0.0
 42
-0.4142135623730951
  0
VERTEX
  5
8DD
  8
DATA
  6
CONTINUOUS
 62
     7
 10
130.6138417701633
 20
-104.9653847403945
 30
0.0
  0
SEQEND
  5
8DE
  8
DATA
  6
CONTINUOUS
 62
     7
  0
POLYLINE
  5
27D
  8
DATA
  6
CONTINUOUS
 62
     7
 66
     1
 10
0.0
 20
0.0
 30
0.0
 70
   129
  0
VERTEX
  5
8DF
  8
DATA
  6
CONTINUOUS
 62
     7
 10
147.41384177016329
 20
-99.965384740394555
 30
0.0
 42
-0.4142135623730951
  0
VERTEX
  5
8E0
  8
DATA
  6
CONTINUOUS
 62
     7
 10
147.91384177016329
 20
-99.465384740394555
 30
0.0
  0
VERTEX
  5
8E1
  8
DATA
  6
CONTINUOUS
 62
     7
 10
156.91384177016329
 20
-99.465384740394555
 30
0.0
 42
-0.4142135623730951
  0
VERTEX
  5
8E2
  8
DATA
  6
CONTINUOUS
 62
     7
 10
157.41384177016329
 20
-99.965384740394555
 30
0.0
  0
VERTEX
  5
8E3
  8
DATA
  6
CONTINUOUS
 62
     7
 10
157.41384177016329
 20
-104.9653847403945
 30
0.0
 42
-0.4142135623730951
  0
VERTEX
  5
8E4
  8
DATA
  6
CONTINUOUS
 62
     7
 10
156.91384177016329
 20
-105.4653847403945
 30
0.0
  0
VERTEX
  5
8E5
  8
DATA
  6
CONTINUOUS
 62
     7
 10
147.91384177016329
 20
-105.4653847403945
 30
0.0
 42
-0.4142135623730951
  0
VERTEX
  5
8E6
  8
DATA
  6
CONTINUOUS
 62
     7
 10
147.41384177016329
 20
-104.9653847403945
 30
0.0
  0
SEQEND
  5
8E7
  8
DATA
  6
CONTINUOUS
 62
     7
  0
POLYLINE
  5
287
  8
DATA
  6
CONTINUOUS
 62
     7
 66
     1
 10
0.0
 20
0.0
 30
0.0
 70
   129
  0
VERTEX
  5
8E8
  8
DATA
  6
CONTINUOUS
 62
     7
 10
164.21384177016341
 20
-99.965384740394555
 30
0.0
 42
-0.4142135623730951
  0
VERTEX
  5
8E9
  8
DATA
  6
CONTINUOUS
 62
     7
 10
164.71384177016341
 20
-99.465384740394555
 30
0.0
  0
VERTEX
  5
8EA
  8
DATA
  6
CONTINUOUS
 62
     7
 10
173.71384177016341
 20
-99.465384740394555
 30
0.0
 42
-0.4142135623730951
  0
VERTEX
  5
8EB
  8
DATA
  6
CONTINUOUS
 62
     7
 10
174.21384177016341
 20
-99.965384740394555
 30
0.0
  0
VERTEX
  5
8EC
  8
DATA
  6
CONTINUOUS
 62
     7
 10
174.21384177016341
 20
-104.9653847403945
 30
0.0
 42
-0.4142135623730951
  0
VERTEX
  5
8ED
  8
DATA
  6
CONTINUOUS
 62
     7
 10
173.71384177016341
 20
-105.4653847403945
 30
0.0
  0
VERTEX
  5
8EE
  8
DATA
  6
CONTINUOUS
 62
     7
 10
164.71384177016341
 20
-105.4653847403945
 30
0.0
 42
-0.4142135623730951
  0
VERTEX
  5
8EF
  8
DATA
  6
CONTINUOUS
 62
     7
 10
164.21384177016341
 20
-104.9653847403945
 30
0.0
  0
SEQEND
  5
8F0
  8
DATA
  6
CONTINUOUS
 62
     7
  0
POLYLINE
  5
291
  8
DATA
  6
CONTINUOUS
 62
     7
 66
     1
 10
0.0
 20
0.0
 30
0.0
 70
   129
  0
VERTEX
  5
8F1
  8
DATA
  6
CONTINUOUS
 62
     7
 10
147.41384177016329
 20
-124.4653847403945
 30
0.0
 42
-0.4142135623730951
  0
VERTEX
  5
8F2
  8
DATA
  6
CONTINUOUS
 62
     7
 10
147.91384177016329
 20
-123.9653847403945
 30
0.0
  0
VERTEX
  5
8F3
  8
DATA
  6
CONTINUOUS
 62
     7
 10
156.91384177016329
 20
-123.9653847403945
 30
0.0
 42
-0.4142135623730951
  0
VERTEX
  5
8F4
  8
DATA
  6
CONTINUOUS
 62
     7
 10
157.41384177016329
 20
-124.4653847403945
 30
0.0
  0
VERTEX
  5
8F5
  8
DATA
  6
CONTINUOUS
 62
     7
 10
157.41384177016329
 20
-142.96538474039451
 30
0.0
 42
-0.4142135623730951
  0
VERTEX
  5
8F6
  8
DATA
  6
CONTINUOUS
 62
     7
 10
156.91384177016329
 20
-143.46538474039451
 30
0.0
  0
VERTEX
  5
8F7
  8
DATA
  6
CONTINUOUS
 62
     7
 10
147.91384177016329
 20
-143.46538474039451
 30
0.0
 42
-0.4142135623730951
  0
VERTEX
  5
8F8
  8
DATA
  6
CONTINUOUS
 62
     7
 10
147.41384177016329
 20
-142.96538474039451
 30
0.0
  0
SEQEND
  5
8F9
  8
DATA
  6
CONTINUOUS
 62
     7
  0
POLYLINE
  5
29B
  8
DATA
  6
CONTINUOUS
 62
     7
 66
     1
 10
0.0
 20
0.0
 30
0.0
 70
   129
  0
VERTEX
  5
8FA
  8
DATA
  6
CONTINUOUS
 62
     7
 10
130.6138417701633
 20
-124.4653847403945
 30
0.0
 42
-0.4142135623730951
  0
VERTEX
  5
8FB
  8
DATA
  6
CONTINUOUS
 62
     7
 10
131.1138417701633
 20
-123.9653847403945
 30
0.0
  0
VERTEX
  5
8FC
  8
DATA
  6
CONTINUOUS
 62
     7
 10
140.1138417701633
 20
-123.9653847403945
 30
0.0
 42
-0.4142135623730951
  0
VERTEX
  5
8FD
  8
DATA
  6
CONTINUOUS
 62
     7
 10
140.6138417701633
 20
-124.4653847403945
 30
0.0
  0
VERTEX
  5
8FE
  8
DATA
  6
CONTINUOUS
 62
     7
 10
140.6138417701633
 20
-142.96538474039451
 30
0.0
 42
-0.4142135623730951
  0
VERTEX
  5
8FF
  8
DATA
  6
CONTINUOUS
 62
     7
 10
140.1138417701633
 20
-143.46538474039451
 30
0.0
  0
VERTEX
  5
900
  8
DATA
  6
CONTINUOUS
 62
     7
 10
131.1138417701633
 20
-143.46538474039451
 30
0.0
 42
-0.4142135623731117
  0
VERTEX
  5
901
  8
DATA
  6
CONTINUOUS
 62
     7
 10
130.6138417701633
 20
-142.96538474039451
 30
0.0
  0
SEQEND
  5
902
  8
DATA
  6
CONTINUOUS
 62
     7
  0
POLYLINE
  5
2A5
  8
DATA
  6
CONTINUOUS
 62
     7
 66
     1
 10
0.0
 20
0.0
 30
0.0
 70
   129
  0
VERTEX
  5
903
  8
DATA
  6
CONTINUOUS
 62
     7
 10
113.81384177016329
 20
-124.4653847403945
 30
0.0
 42
-0.4142135623730951
  0
VERTEX
  5
904
  8
DATA
  6
CONTINUOUS
 62
     7
 10
114.31384177016329
 20
-123.9653847403945
 30
0.0
  0
VERTEX
  5
905
  8
DATA
  6
CONTINUOUS
 62
     7
 10
123.31384177016329
 20
-123.9653847403945
 30
0.0
 42
-0.4142135623730951
  0
VERTEX
  5
906
  8
DATA
  6
CONTINUOUS
 62
     7
 10
123.81384177016329
 20
-124.4653847403945
 30
0.0
  0
VERTEX
  5
907
  8
DATA
  6
CONTINUOUS
 62
     7
 10
123.81384177016329
 20
-142.96538474039451
 30
0.0
 42
-0.4142135623730951
  0
VERTEX
  5
908
  8
DATA
  6
CONTINUOUS
 62
     7
 10
123.31384177016329
 20
-143.46538474039451
 30
0.0
  0
VERTEX
  5
909
  8
DATA
  6
CONTINUOUS
 62
     7
 10
114.31384177016329
 20
-143.46538474039451
 30
0.0
 42
-0.4142135623730784
  0
VERTEX
  5
90A
  8
DATA
  6
CONTINUOUS
 62
     7
 10
113.81384177016329
 20
-142.96538474039451
 30
0.0
  0
SEQEND
  5
90B
  8
DATA
  6
CONTINUOUS
 62
     7
  0
POLYLINE
  5
2AF
  8
DATA
  6
CONTINUOUS
 62
     7
 66
     1
 10
0.0
 20
0.0
 30
0.0
 70
   129
  0
VERTEX
  5
90C
  8
DATA
  6
CONTINUOUS
 62
     7
 10
97.013841770163367
 20
-124.4653847403945
 30
0.0
 42
-0.4142135623730951
  0
VERTEX
  5
90D
  8
DATA
  6
CONTINUOUS
 62
     7
 10
97.513841770163367
 20
-123.9653847403945
 30
0.0
  0
VERTEX
  5
90E
  8
DATA
  6
CONTINUOUS
 62
     7
 10
106.5138417701633
 20
-123.9653847403945
 30
0.0
 42
-0.4142135623730868
  0
VERTEX
  5
90F
  8
DATA
  6
CONTINUOUS
 62
     7
 10
107.0138417701633
 20
-124.4653847403945
 30
0.0
  0
VERTEX
  5
910
  8
DATA
  6
CONTINUOUS
 62
     7
 10
107.0138417701633
 20
-142.96538474039451
 30
0.0
 42
-0.4142135623730951
  0
VERTEX
  5
911
  8
DATA
  6
CONTINUOUS
 62
     7
 10
106.5138417701633
 20
-143.46538474039451
 30
0.0
  0
VERTEX
  5
912
  8
DATA
  6
CONTINUOUS
 62
     7
 10
97.513841770163367
 20
-143.46538474039451
 30
0.0
 42
-0.4142135623730868
  0
VERTEX
  5
913
  8
DATA
  6
CONTINUOUS
 62
     7
 10
97.013841770163367
 20
-142.96538474039451
 30
0.0
  0
SEQEND
  5
914
  8
DATA
  6
CONTINUOUS
 62
     7
  0
POLYLINE
  5
2B9
  8
DATA
  6
CONTINUOUS
 62
     7
 66
     1
 10
0.0
 20
0.0
 30
0.0
 70
   129
  0
VERTEX
  5
915
  8
DATA
  6
CONTINUOUS
 62
     7
 10
80.213841770163356
 20
-124.4653847403945
 30
0.0
 42
-0.4142135623730951
  0
VERTEX
  5
916
  8
DATA
  6
CONTINUOUS
 62
     7
 10
80.713841770163341
 20
-123.9653847403945
 30
0.0
  0
VERTEX
  5
917
  8
DATA
  6
CONTINUOUS
 62
     7
 10
89.713841770163313
 20
-123.9653847403945
 30
0.0
 42
-0.4142135623730951
  0
VERTEX
  5
918
  8
DATA
  6
CONTINUOUS
 62
     7
 10
90.213841770163313
 20
-124.4653847403945
 30
0.0
  0
VERTEX
  5
919
  8
DATA
  6
CONTINUOUS
 62
     7
 10
90.213841770163313
 20
-142.96538474039451
 30
0.0
 42
-0.4142135623730951
  0
VERTEX
  5
91A
  8
DATA
  6
CONTINUOUS
 62
     7
 10
89.713841770163313
 20
-143.46538474039451
 30
0.0
  0
VERTEX
  5
91B
  8
DATA
  6
CONTINUOUS
 62
     7
 10
80.713841770163341
 20
-143.46538474039451
 30
0.0
 42
-0.4142135623730951
  0
VERTEX
  5
91C
  8
DATA
  6
CONTINUOUS
 62
     7
 10
80.213841770163356
 20
-142.96538474039451
 30
0.0
  0
SEQEND
  5
91D
  8
DATA
  6
CONTINUOUS
 62
     7
  0
POLYLINE
  5
2C3
  8
DATA
  6
CONTINUOUS
 62
     7
 66
     1
 10
0.0
 20
0.0
 30
0.0
 70
   129
  0
VERTEX
  5
91E
  8
DATA
  6
CONTINUOUS
 62
     7
 10
63.413841770163351
 20
-124.4653847403945
 30
0.0
 42
-0.4142135623730951
  0
VERTEX
  5
91F
  8
DATA
  6
CONTINUOUS
 62
     7
 10
63.913841770163351
 20
-123.9653847403945
 30
0.0
  0
VERTEX
  5
920
  8
DATA
  6
CONTINUOUS
 62
     7
 10
72.91384177016333
 20
-123.9653847403945
 30
0.0
 42
-0.4142135623731035
  0
VERTEX
  5
921
  8
DATA
  6
CONTINUOUS
 62
     7
 10
73.41384177016333
 20
-124.4653847403945
 30
0.0
  0
VERTEX
  5
922
  8
DATA
  6
CONTINUOUS
 62
     7
 10
73.41384177016333
 20
-142.96538474039451
 30
0.0
 42
-0.4142135623730951
  0
VERTEX
  5
923
  8
DATA
  6
CONTINUOUS
 62
     7
 10
72.91384177016333
 20
-143.46538474039451
 30
0.0
  0
VERTEX
  5
924
  8
DATA
  6
CONTINUOUS
 62
     7
 10
63.913841770163351
 20
-143.46538474039451
 30
0.0
 42
-0.4142135623731035
  0
VERTEX
  5
925
  8
DATA
  6
CONTINUOUS
 62
     7
 10
63.413841770163351
 20
-142.96538474039451
 30
0.0
  0
SEQEND
  5
926
  8
DATA
  6
CONTINUOUS
 62
     7
  0
POLYLINE
  5
2CD
  8
DATA
  6
CONTINUOUS
 62
     7
 66
     1
 10
0.0
 20
0.0
 30
0.0
 70
   129
  0
VERTEX
  5
927
  8
DATA
  6
CONTINUOUS
 62
     7
 10
46.613841770163347
 20
-124.4653847403945
 30
0.0
 42
-0.4142135623730951
  0
VERTEX
  5
928
  8
DATA
  6
CONTINUOUS
 62
     7
 10
47.113841770163347
 20
-123.9653847403945
 30
0.0
  0
VERTEX
  5
929
  8
DATA
  6
CONTINUOUS
 62
     7
 10
56.113841770163333
 20
-123.9653847403945
 30
0.0
 42
-0.4142135623730951
  0
VERTEX
  5
92A
  8
DATA
  6
CONTINUOUS
 62
     7
 10
56.613841770163333
 20
-124.4653847403945
 30
0.0
  0
VERTEX
  5
92B
  8
DATA
  6
CONTINUOUS
 62
     7
 10
56.613841770163333
 20
-142.96538474039451
 30
0.0
 42
-0.4142135623730951
  0
VERTEX
  5
92C
  8
DATA
  6
CONTINUOUS
 62
     7
 10
56.113841770163333
 20
-143.46538474039451
 30
0.0
  0
VERTEX
  5
92D
  8
DATA
  6
CONTINUOUS
 62
     7
 10
47.113841770163347
 20
-143.46538474039451
 30
0.0
 42
-0.4142135623730951
  0
VERTEX
  5
92E
  8
DATA
  6
CONTINUOUS
 62
     7
 10
46.613841770163347
 20
-142.96538474039451
 30
0.0
  0
SEQEND
  5
92F
  8
DATA
  6
CONTINUOUS
 62
     7
  0
POLYLINE
  5
2D7
  8
DATA
  6
CONTINUOUS
 62
     7
 66
     1
 10
0.0
 20
0.0
 30
0.0
 70
   129
  0
VERTEX
  5
930
  8
DATA
  6
CONTINUOUS
 62
     7
 10
29.81384177016335
 20
-124.4653847403945
 30
0.0
 42
-0.4142135623730951
  0
VERTEX
  5
931
  8
DATA
  6
CONTINUOUS
 62
     7
 10
30.31384177016335
 20
-123.9653847403945
 30
0.0
  0
VERTEX
  5
932
  8
DATA
  6
CONTINUOUS
 62
     7
 10
39.313841770163322
 20
-123.9653847403945
 30
0.0
 42
-0.4142135623730951
  0
VERTEX
  5
933
  8
DATA
  6
CONTINUOUS
 62
     7
 10
39.813841770163322
 20
-124.4653847403945
 30
0.0
  0
VERTEX
  5
934
  8
DATA
  6
CONTINUOUS
 62
     7
 10
39.813841770163322
 20
-142.96538474039451
 30
0.0
 42
-0.4142135623730951
  0
VERTEX
  5
935
  8
DATA
  6
CONTINUOUS
 62
     7
 10
39.313841770163322
 20
-143.46538474039451
 30
0.0
  0
VERTEX
  5
936
  8
DATA
  6
CONTINUOUS
 62
     7
 10
30.31384177016335
 20
-143.46538474039451
 30
0.0
 42
-0.4142135623730951
  0
VERTEX
  5
937
  8
DATA
  6
CONTINUOUS
 62
     7
 10
29.81384177016335
 20
-142.96538474039451
 30
0.0
  0
SEQEND
  5
938
  8
DATA
  6
CONTINUOUS
 62
     7
  0
POLYLINE
  5
2E1
  8
DATA
  6
CONTINUOUS
 62
     7
 66
     1
 10
0.0
 20
0.0
 30
0.0
 70
   129
  0
VERTEX
  5
939
  8
DATA
  6
CONTINUOUS
 62
     7
 10
13.01384177016334
 20
-124.4653847403945
 30
0.0
 42
-0.4142135623730951
  0
VERTEX
  5
93A
  8
DATA
  6
CONTINUOUS
 62
     7
 10
13.51384177016334
 20
-123.9653847403945
 30
0.0
  0
VERTEX
  5
93B
  8
DATA
  6
CONTINUOUS
 62
     7
 10
22.51384177016331
 20
-123.9653847403945
 30
0.0
 42
-0.4142135623730951
  0
VERTEX
  5
93C
  8
DATA
  6
CONTINUOUS
 62
     7
 10
23.01384177016331
 20
-124.4653847403945
 30
0.0
  0
VERTEX
  5
93D
  8
DATA
  6
CONTINUOUS
 62
     7
 10
23.01384177016331
 20
-142.96538474039451
 30
0.0
 42
-0.4142135623730951
  0
VERTEX
  5
93E
  8
DATA
  6
CONTINUOUS
 62
     7
 10
22.51384177016331
 20
-143.46538474039451
 30
0.0
  0
VERTEX
  5
93F
  8
DATA
  6
CONTINUOUS
 62
     7
 10
13.51384177016334
 20
-143.46538474039451
 30
0.0
 42
-0.4142135623730951
  0
VERTEX
  5
940
  8
DATA
  6
CONTINUOUS
 62
     7
 10
13.01384177016334
 20
-142.96538474039451
 30
0.0
  0
SEQEND
  5
941
  8
DATA
  6
CONTINUOUS
 62
     7
  0
POLYLINE
  5
2EB
  8
DATA
  6
CONTINUOUS
 62
     7
 66
     1
 10
0.0
 20
0.0
 30
0.0
 70
   129
  0
VERTEX
  5
942
  8
DATA
  6
CONTINUOUS
 62
     7
 10
-3.7861582298366718
 20
-124.4653847403945
 30
0.0
 42
-0.4142135623730951
  0
VERTEX
  5
943
  8
DATA
  6
CONTINUOUS
 62
     7
 10
-3.2861582298366718
 20
-123.9653847403945
 30
0.0
  0
VERTEX
  5
944
  8
DATA
  6
CONTINUOUS
 62
     7
 10
5.7138417701632971
 20
-123.9653847403945
 30
0.0
 42
-0.4142135623730951
  0
VERTEX
  5
945
  8
DATA
  6
CONTINUOUS
 62
     7
 10
6.2138417701632971
 20
-124.4653847403945
 30
0.0
  0
VERTEX
  5
946
  8
DATA
  6
CONTINUOUS
 62
     7
 10
6.2138417701632971
 20
-142.96538474039451
 30
0.0
 42
-0.4142135623730951
  0
VERTEX
  5
947
  8
DATA
  6
CONTINUOUS
 62
     7
 10
5.7138417701632971
 20
-143.46538474039451
 30
0.0
  0
VERTEX
  5
948
  8
DATA
  6
CONTINUOUS
 62
     7
 10
-3.2861582298366718
 20
-143.46538474039451
 30
0.0
 42
-0.4142135623730951
  0
VERTEX
  5
949
  8
DATA
  6
CONTINUOUS
 62
     7
 10
-3.7861582298366718
 20
-142.96538474039451
 30
0.0
  0
SEQEND
  5
94A
  8
DATA
  6
CONTINUOUS
 62
     7
  0
POLYLINE
  5
2F5
  8
DATA
  6
CONTINUOUS
 62
     7
 66
     1
 10
0.0
 20
0.0
 30
0.0
 70
   129
  0
VERTEX
  5
94B
  8
DATA
  6
CONTINUOUS
 62
     7
 10
-20.586158229836681
 20
-124.4653847403945
 30
0.0
 42
-0.4142135623730951
  0
VERTEX
  5
94C
  8
DATA
  6
CONTINUOUS
 62
     7
 10
-20.086158229836691
 20
-123.9653847403945
 30
0.0
  0
VERTEX
  5
94D
  8
DATA
  6
CONTINUOUS
 62
     7
 10
-11.086158229836711
 20
-123.9653847403945
 30
0.0
 42
-0.4142135623730951
  0
VERTEX
  5
94E
  8
DATA
  6
CONTINUOUS
 62
     7
 10
-10.586158229836711
 20
-124.4653847403945
 30
0.0
  0
VERTEX
  5
94F
  8
DATA
  6
CONTINUOUS
 62
     7
 10
-10.586158229836711
 20
-142.96538474039451
 30
0.0
 42
-0.4142135623730951
  0
VERTEX
  5
950
  8
DATA
  6
CONTINUOUS
 62
     7
 10
-11.086158229836711
 20
-143.46538474039451
 30
0.0
  0
VERTEX
  5
951
  8
DATA
  6
CONTINUOUS
 62
     7
 10
-20.086158229836691
 20
-143.46538474039451
 30
0.0
 42
-0.4142135623730951
  0
VERTEX
  5
952
  8
DATA
  6
CONTINUOUS
 62
     7
 10
-20.586158229836681
 20
-142.96538474039451
 30
0.0
  0
SEQEND
  5
953
  8
DATA
  6
CONTINUOUS
 62
     7
  0
POLYLINE
  5
2FF
  8
DATA
  6
CONTINUOUS
 62
     7
 66
     1
 10
0.0
 20
0.0
 30
0.0
 70
   129
  0
VERTEX
  5
954
  8
DATA
  6
CONTINUOUS
 62
     7
 10
-37.386158229836703
 20
-124.4653847403945
 30
0.0
 42
-0.4142135623730951
  0
VERTEX
  5
955
  8
DATA
  6
CONTINUOUS
 62
     7
 10
-36.886158229836703
 20
-123.9653847403945
 30
0.0
  0
VERTEX
  5
956
  8
DATA
  6
CONTINUOUS
 62
     7
 10
-27.886158229836731
 20
-123.9653847403945
 30
0.0
 42
-0.4142135623730951
  0
VERTEX
  5
957
  8
DATA
  6
CONTINUOUS
 62
     7
 10
-27.386158229836731
 20
-124.4653847403945
 30
0.0
  0
VERTEX
  5
958
  8
DATA
  6
CONTINUOUS
 62
     7
 10
-27.386158229836731
 20
-142.96538474039451
 30
0.0
 42
-0.4142135623730951
  0
VERTEX
  5
959
  8
DATA
  6
CONTINUOUS
 62
     7
 10
-27.886158229836731
 20
-143.46538474039451
 30
0.0
  0
VERTEX
  5
95A
  8
DATA
  6
CONTINUOUS
 62
     7
 10
-36.886158229836703
 20
-143.46538474039451
 30
0.0
 42
-0.4142135623730951
  0
VERTEX
  5
95B
  8
DATA
  6
CONTINUOUS
 62
     7
 10
-37.386158229836703
 20
-142.96538474039451
 30
0.0
  0
SEQEND
  5
95C
  8
DATA
  6
CONTINUOUS
 62
     7
  0
POLYLINE
  5
309
  8
DATA
  6
CONTINUOUS
 62
     7
 66
     1
 10
0.0
 20
0.0
 30
0.0
 70
   129
  0
VERTEX
  5
95D
  8
DATA
  6
CONTINUOUS
 62
     7
 10
-54.186158229836707
 20
-124.4653847403945
 30
0.0
 42
-0.4142135623730951
  0
VERTEX
  5
95E
  8
DATA
  6
CONTINUOUS
 62
     7
 10
-53.686158229836707
 20
-123.9653847403945
 30
0.0
  0
VERTEX
  5
95F
  8
DATA
  6
CONTINUOUS
 62
     7
 10
-44.686158229836721
 20
-123.9653847403945
 30
0.0
 42
-0.4142135623730951
  0
VERTEX
  5
960
  8
DATA
  6
CONTINUOUS
 62
     7
 10
-44.186158229836728
 20
-124.4653847403945
 30
0.0
  0
VERTEX
  5
961
  8
DATA
  6
CONTINUOUS
 62
     7
 10
-44.186158229836728
 20
-142.96538474039451
 30
0.0
 42
-0.4142135623730951
  0
VERTEX
  5
962
  8
DATA
  6
CONTINUOUS
 62
     7
 10
-44.686158229836721
 20
-143.46538474039451
 30
0.0
  0
VERTEX
  5
963
  8
DATA
  6
CONTINUOUS
 62
     7
 10
-53.686158229836707
 20
-143.46538474039451
 30
0.0
 42
-0.4142135623730951
  0
VERTEX
  5
964
  8
DATA
  6
CONTINUOUS
 62
     7
 10
-54.186158229836707
 20
-142.96538474039451
 30
0.0
  0
SEQEND
  5
965
  8
DATA
  6
CONTINUOUS
 62
     7
  0
POLYLINE
  5
313
  8
DATA
  6
CONTINUOUS
 62
     7
 66
     1
 10
0.0
 20
0.0
 30
0.0
 70
   129
  0
VERTEX
  5
966
  8
DATA
  6
CONTINUOUS
 62
     7
 10
-70.986158229836704
 20
-124.4653847403945
 30
0.0
 42
-0.4142135623730951
  0
VERTEX
  5
967
  8
DATA
  6
CONTINUOUS
 62
     7
 10
-70.486158229836718
 20
-123.9653847403945
 30
0.0
  0
VERTEX
  5
968
  8
DATA
  6
CONTINUOUS
 62
     7
 10
-61.48615822983674
 20
-123.9653847403945
 30
0.0
 42
-0.4142135623730951
  0
VERTEX
  5
969
  8
DATA
  6
CONTINUOUS
 62
     7
 10
-60.98615822983674
 20
-124.4653847403945
 30
0.0
  0
VERTEX
  5
96A
  8
DATA
  6
CONTINUOUS
 62
     7
 10
-60.98615822983674
 20
-142.96538474039451
 30
0.0
 42
-0.4142135623730951
  0
VERTEX
  5
96B
  8
DATA
  6
CONTINUOUS
 62
     7
 10
-61.48615822983674
 20
-143.46538474039451
 30
0.0
  0
VERTEX
  5
96C
  8
DATA
  6
CONTINUOUS
 62
     7
 10
-70.486158229836718
 20
-143.46538474039451
 30
0.0
 42
-0.4142135623730951
  0
VERTEX
  5
96D
  8
DATA
  6
CONTINUOUS
 62
     7
 10
-70.986158229836704
 20
-142.96538474039451
 30
0.0
  0
SEQEND
  5
96E
  8
DATA
  6
CONTINUOUS
 62
     7
  0
POLYLINE
  5
31D
  8
DATA
  6
CONTINUOUS
 62
     7
 66
     1
 10
0.0
 20
0.0
 30
0.0
 70
   129
  0
VERTEX
  5
96F
  8
DATA
  6
CONTINUOUS
 62
     7
 10
-87.786158229836715
 20
-124.4653847403945
 30
0.0
 42
-0.4142135623730951
  0
VERTEX
  5
970
  8
DATA
  6
CONTINUOUS
 62
     7
 10
-87.28615822983673
 20
-123.9653847403945
 30
0.0
  0
VERTEX
  5
971
  8
DATA
  6
CONTINUOUS
 62
     7
 10
-78.286158229836772
 20
-123.9653847403945
 30
0.0
 42
-0.4142135623730951
  0
VERTEX
  5
972
  8
DATA
  6
CONTINUOUS
 62
     7
 10
-77.786158229836772
 20
-124.4653847403945
 30
0.0
  0
VERTEX
  5
973
  8
DATA
  6
CONTINUOUS
 62
     7
 10
-77.786158229836772
 20
-142.96538474039451
 30
0.0
 42
-0.4142135623730951
  0
VERTEX
  5
974
  8
DATA
  6
CONTINUOUS
 62
     7
 10
-78.286158229836772
 20
-143.46538474039451
 30
0.0
  0
VERTEX
  5
975
  8
DATA
  6
CONTINUOUS
 62
     7
 10
-87.28615822983673
 20
-143.46538474039451
 30
0.0
 42
-0.4142135623730951
  0
VERTEX
  5
976
  8
DATA
  6
CONTINUOUS
 62
     7
 10
-87.786158229836715
 20
-142.96538474039451
 30
0.0
  0
SEQEND
  5
977
  8
DATA
  6
CONTINUOUS
 62
     7
  0
CIRCLE
  5
327
  8
DATA
  6
CONTINUOUS
 62
     7
 10
169.21384177016341
 20
-83.253076393745687
 30
0.0
 40
6.451549985668577
  0
ARC
  5
328
  8
DATA
  6
CONTINUOUS
 62
     7
 10
169.21384177016341
 20
-81.509436706100814
 30
0.0
 40
6.451549985668577
 50
0.0
 51
180.0
  0
LINE
  5
329
  8
DATA
  6
CONTINUOUS
 62
     7
 10
175.66539175583191
 20
-83.253076393745687
 30
0.0
 11
175.66539175583191
 21
-81.509436706100814
 31
0.0
  0
LINE
  5
32A
  8
DATA
  6
CONTINUOUS
 62
     7
 10
162.76229178449469
 20
-83.253076393745687
 30
0.0
 11
162.76229178449469
 21
-81.509436706100814
 31
0.0
  0
CIRCLE
  5
32B
  8
DATA
  6
CONTINUOUS
 62
     7
 10
144.21384177016341
 20
-83.253076393745687
 30
0.0
 40
6.451549985668577
  0
ARC
  5
32C
  8
DATA
  6
CONTINUOUS
 62
     7
 10
144.21384177016341
 20
-81.509436706100814
 30
0.0
 40
6.451549985668577
 50
0.0
 51
180.0
  0
LINE
  5
32D
  8
DATA
  6
CONTINUOUS
 62
     7
 10
150.66539175583191
 20
-83.253076393745687
 30
0.0
 11
150.66539175583191
 21
-81.509436706100814
 31
0.0
  0
LINE
  5
32E
  8
DATA
  6
CONTINUOUS
 62
     7
 10
137.76229178449469
 20
-83.253076393745687
 30
0.0
 11
137.76229178449469
 21
-81.509436706100814
 31
0.0
  0
CIRCLE
  5
32F
  8
DATA
  6
CONTINUOUS
 62
     7
 10
122.2138417701633
 20
-83.253076393745687
 30
0.0
 40
6.451549985668577
  0
ARC
  5
330
  8
DATA
  6
CONTINUOUS
 62
     7
 10
122.2138417701633
 20
-81.509436706100814
 30
0.0
 40
6.451549985668577
 50
0.0
 51
180.0
  0
LINE
  5
331
  8
DATA
  6
CONTINUOUS
 62
     7
 10
128.66539175583191
 20
-83.253076393745687
 30
0.0
 11
128.66539175583191
 21
-81.509436706100814
 31
0.0
  0
LINE
  5
332
  8
DATA
  6
CONTINUOUS
 62
     7
 10
115.76229178449471
 20
-83.253076393745687
 30
0.0
 11
115.76229178449471
 21
-81.509436706100814
 31
0.0
  0
CIRCLE
  5
333
  8
DATA
  6
CONTINUOUS
 62
     7
 10
97.213841770163384
 20
-83.253076393745687
 30
0.0
 40
6.451549985668577
  0
ARC
  5
334
  8
DATA
  6
CONTINUOUS
 62
     7
 10
97.213841770163384
 20
-81.509436706100814
 30
0.0
 40
6.451549985668577
 50
0.0
 51
180.0
  0
LINE
  5
335
  8
DATA
  6
CONTINUOUS
 62
     7
 10
103.66539175583191
 20
-83.253076393745687
 30
0.0
 11
103.66539175583191
 21
-81.509436706100814
 31
0.0
  0
LINE
  5
336
  8
DATA
  6
CONTINUOUS
 62
     7
 10
90.762291784494764
 20
-83.253076393745687
 30
0.0
 11
90.762291784494764
 21
-81.509436706100814
 31
0.0
  0
CIRCLE
  5
337
  8
DATA
  6
CONTINUOUS
 62
     7
 10
169.21384177016341
 20
-81.938901442604276
 30
0.0
 40
8.25
  0
CIRCLE
  5
338
  8
DATA
  6
CONTINUOUS
 62
     7
 10
144.21384177016341
 20
-81.938901442604276
 30
0.0
 40
8.25
  0
CIRCLE
  5
339
  8
DATA
  6
CONTINUOUS
 62
     7
 10
122.2138417701633
 20
-81.938901442604276
 30
0.0
 40
8.25
  0
CIRCLE
  5
33A
  8
DATA
  6
CONTINUOUS
 62
     7
 10
97.213841770163384
 20
-81.938901442604276
 30
0.0
 40
8.25
  0
CIRCLE
  5
33B
  8
DATA
  6
CONTINUOUS
 62
     7
 10
166.30430477131489
 20
-87.257710515902517
 30
0.0
 40
1.0
  0
TEXT
  5
33C
  8
DATA
 62
     7
 10
163.2138417423478
 20
-92.248862819958376
 30
0.0
 40
3.078125
  1
-
 41
0.7
 11
163.2138417423478
 21
-89.170737819958376
 31
0.0
 73
     3
  0
TEXT
  5
33D
  8
DATA
 62
     7
 10
173.2138417423478
 20
-92.248862819958376
 30
0.0
 40
3.078125
  1
+
 41
0.7
 11
173.2138417423478
 21
-89.170737819958376
 31
0.0
 73
     3
  0
CIRCLE
  5
33E
  8
DATA
  6
CONTINUOUS
 62
     7
 10
141.30430477131489
 20
-87.257710515902517
 30
0.0
 40
1.0
  0
TEXT
  5
33F
  8
DATA
 62
     7
 10
138.2138417423478
 20
-92.248862819958376
 30
0.0
 40
3.078125
  1
-
 41
0.7
 11
138.2138417423478
 21
-89.170737819958376
 31
0.0
 73
     3
  0
TEXT
  5
340
  8
DATA
 62
     7
 10
148.2138417423478
 20
-92.248862819958376
 30
0.0
 40
3.078125
  1
+
 41
0.7
 11
148.2138417423478
 21
-89.170737819958376
 31
0.0
 73
     3
  0
CIRCLE
  5
341
  8
DATA
  6
CONTINUOUS
 62
     7
 10
119.3043047713149
 20
-87.257710515902517
 30
0.0
 40
1.0
  0
TEXT
  5
342
  8
DATA
 62
     7
 10
116.2138417423478
 20
-92.248862819958376
 30
0.0
 40
3.078125
  1
-
 41
0.7
 11
116.2138417423478
 21
-89.170737819958376
 31
0.0
 73
     3
  0
TEXT
  5
343
  8
DATA
 62
     7
 10
126.2138417423478
 20
-92.248862819958376
 30
0.0
 40
3.078125
  1
+
 41
0.7
 11
126.2138417423478
 21
-89.170737819958376
 31
0.0
 73
     3
  0
CIRCLE
  5
344
  8
DATA
  6
CONTINUOUS
 62
     7
 10
94.304304771314946
 20
-87.257710515902517
 30
0.0
 40
1.0
  0
TEXT
  5
345
  8
DATA
 62
     7
 10
91.213841742347796
 20
-92.248862819958376
 30
0.0
 40
3.078125
  1
-
 41
0.7
 11
91.213841742347796
 21
-89.170737819958376
 31
0.0
 73
     3
  0
TEXT
  5
346
  8
DATA
 62
     7
 10
101.2138417423478
 20
-92.248862819958376
 30
0.0
 40
3.078125
  1
+
 41
0.7
 11
101.2138417423478
 21
-89.170737819958376
 31
0.0
 73
     3
  0
POLYLINE
  5
347
  8
DATA
  6
CONTINUOUS
 62
     7
 66
     1
 10
0.0
 20
0.0
 30
0.0
 70
   129
  0
VERTEX
  5
978
  8
DATA
  6
CONTINUOUS
 62
     7
 10
34.213841770163363
 20
-68.465384740394541
 30
0.0
 42
-0.4142135623730951
  0
VERTEX
  5
979
  8
DATA
  6
CONTINUOUS
 62
     7
 10
36.21384177016337
 20
-66.465384740394541
 30
0.0
  0
VERTEX
  5
97A
  8
DATA
  6
CONTINUOUS
 62
     7
 10
81.213841770163341
 20
-66.465384740394541
 30
0.0
 42
-0.4142135623730951
  0
VERTEX
  5
97B
  8
DATA
  6
CONTINUOUS
 62
     7
 10
83.213841770163341
 20
-68.465384740394541
 30
0.0
  0
VERTEX
  5
97C
  8
DATA
  6
CONTINUOUS
 62
     7
 10
83.213841770163341
 20
-92.465384740394555
 30
0.0
 42
-0.4142135623730951
  0
VERTEX
  5
97D
  8
DATA
  6
CONTINUOUS
 62
     7
 10
81.213841770163341
 20
-94.465384740394555
 30
0.0
  0
VERTEX
  5
97E
  8
DATA
  6
CONTINUOUS
 62
     7
 10
36.21384177016337
 20
-94.465384740394555
 30
0.0
 42
-0.4142135623730951
  0
VERTEX
  5
97F
  8
DATA
  6
CONTINUOUS
 62
     7
 10
34.213841770163363
 20
-92.465384740394555
 30
0.0
  0
SEQEND
  5
980
  8
DATA
  6
CONTINUOUS
 62
     7
  0
POLYLINE
  5
351
  8
DATA
  6
CONTINUOUS
 62
     7
 66
     1
 10
0.0
 20
0.0
 30
0.0
 70
   129
  0
VERTEX
  5
981
  8
DATA
  6
CONTINUOUS
 62
     7
 10
53.713841770163349
 20
-71.965384740394541
 30
0.0
 42
-0.4142135623730951
  0
VERTEX
  5
982
  8
DATA
  6
CONTINUOUS
 62
     7
 10
54.213841770163349
 20
-71.465384740394541
 30
0.0
  0
VERTEX
  5
983
  8
DATA
  6
CONTINUOUS
 62
     7
 10
63.213841770163349
 20
-71.465384740394541
 30
0.0
 42
-0.4142135623730951
  0
VERTEX
  5
984
  8
DATA
  6
CONTINUOUS
 62
     7
 10
63.713841770163349
 20
-71.965384740394541
 30
0.0
  0
VERTEX
  5
985
  8
DATA
  6
CONTINUOUS
 62
     7
 10
63.713841770163349
 20
-76.965384740394541
 30
0.0
 42
-0.4142135623730951
  0
VERTEX
  5
986
  8
DATA
  6
CONTINUOUS
 62
     7
 10
63.213841770163349
 20
-77.465384740394541
 30
0.0
  0
VERTEX
  5
987
  8
DATA
  6
CONTINUOUS
 62
     7
 10
54.213841770163349
 20
-77.465384740394541
 30
0.0
 42
-0.4142135623730951
  0
VERTEX
  5
988
  8
DATA
  6
CONTINUOUS
 62
     7
 10
53.713841770163349
 20
-76.965384740394541
 30
0.0
  0
SEQEND
  5
989
  8
DATA
  6
CONTINUOUS
 62
     7
  0
POLYLINE
  5
35B
  8
DATA
  6
CONTINUOUS
 62
     7
 66
     1
 10
0.0
 20
0.0
 30
0.0
 70
   129
  0
VERTEX
  5
98A
  8
DATA
  6
CONTINUOUS
 62
     7
 10
53.713841770163349
 20
-84.965384740394541
 30
0.0
 42
-0.4142135623730951
  0
VERTEX
  5
98B
  8
DATA
  6
CONTINUOUS
 62
     7
 10
54.213841770163349
 20
-84.465384740394555
 30
0.0
  0
VERTEX
  5
98C
  8
DATA
  6
CONTINUOUS
 62
     7
 10
63.213841770163349
 20
-84.465384740394555
 30
0.0
 42
-0.4142135623730951
  0
VERTEX
  5
98D
  8
DATA
  6
CONTINUOUS
 62
     7
 10
63.713841770163349
 20
-84.965384740394541
 30
0.0
  0
VERTEX
  5
98E
  8
DATA
  6
CONTINUOUS
 62
     7
 10
63.713841770163349
 20
-89.965384740394555
 30
0.0
 42
-0.4142135623730951
  0
VERTEX
  5
98F
  8
DATA
  6
CONTINUOUS
 62
     7
 10
63.213841770163349
 20
-90.465384740394555
 30
0.0
  0
VERTEX
  5
990
  8
DATA
  6
CONTINUOUS
 62
     7
 10
54.213841770163349
 20
-90.465384740394555
 30
0.0
 42
-0.4142135623730951
  0
VERTEX
  5
991
  8
DATA
  6
CONTINUOUS
 62
     7
 10
53.713841770163349
 20
-89.965384740394555
 30
0.0
  0
SEQEND
  5
992
  8
DATA
  6
CONTINUOUS
 62
     7
  0
POLYLINE
  5
365
  8
DATA
  6
CONTINUOUS
 62
     7
 66
     1
 10
0.0
 20
0.0
 30
0.0
 70
   129
  0
VERTEX
  5
993
  8
DATA
  6
CONTINUOUS
 62
     7
 10
70.213841770163356
 20
-71.965384740394541
 30
0.0
 42
-0.4142135623730951
  0
VERTEX
  5
994
  8
DATA
  6
CONTINUOUS
 62
     7
 10
70.713841770163356
 20
-71.465384740394541
 30
0.0
  0
VERTEX
  5
995
  8
DATA
  6
CONTINUOUS
 62
     7
 10
79.713841770163341
 20
-71.465384740394541
 30
0.0
 42
-0.4142135623730951
  0
VERTEX
  5
996
  8
DATA
  6
CONTINUOUS
 62
     7
 10
80.213841770163356
 20
-71.965384740394541
 30
0.0
  0
VERTEX
  5
997
  8
DATA
  6
CONTINUOUS
 62
     7
 10
80.213841770163356
 20
-76.965384740394541
 30
0.0
 42
-0.4142135623730951
  0
VERTEX
  5
998
  8
DATA
  6
CONTINUOUS
 62
     7
 10
79.713841770163341
 20
-77.465384740394541
 30
0.0
  0
VERTEX
  5
999
  8
DATA
  6
CONTINUOUS
 62
     7
 10
70.713841770163356
 20
-77.465384740394541
 30
0.0
 42
-0.4142135623730951
  0
VERTEX
  5
99A
  8
DATA
  6
CONTINUOUS
 62
     7
 10
70.213841770163356
 20
-76.965384740394541
 30
0.0
  0
SEQEND
  5
99B
  8
DATA
  6
CONTINUOUS
 62
     7
  0
POLYLINE
  5
36F
  8
DATA
  6
CONTINUOUS
 62
     7
 66
     1
 10
0.0
 20
0.0
 30
0.0
 70
   129
  0
VERTEX
  5
99C
  8
DATA
  6
CONTINUOUS
 62
     7
 10
70.213841770163356
 20
-84.965384740394541
 30
0.0
 42
-0.4142135623730951
  0
VERTEX
  5
99D
  8
DATA
  6
CONTINUOUS
 62
     7
 10
70.713841770163356
 20
-84.465384740394555
 30
0.0
  0
VERTEX
  5
99E
  8
DATA
  6
CONTINUOUS
 62
     7
 10
79.713841770163341
 20
-84.465384740394555
 30
0.0
 42
-0.4142135623730951
  0
VERTEX
  5
99F
  8
DATA
  6
CONTINUOUS
 62
     7
 10
80.213841770163356
 20
-84.965384740394541
 30
0.0
  0
VERTEX
  5
9A0
  8
DATA
  6
CONTINUOUS
 62
     7
 10
80.213841770163356
 20
-89.965384740394555
 30
0.0
 42
-0.4142135623730951
  0
VERTEX
  5
9A1
  8
DATA
  6
CONTINUOUS
 62
     7
 10
79.713841770163341
 20
-90.465384740394555
 30
0.0
  0
VERTEX
  5
9A2
  8
DATA
  6
CONTINUOUS
 62
     7
 10
70.713841770163356
 20
-90.465384740394555
 30
0.0
 42
-0.4142135623730951
  0
VERTEX
  5
9A3
  8
DATA
  6
CONTINUOUS
 62
     7
 10
70.213841770163356
 20
-89.965384740394555
 30
0.0
  0
SEQEND
  5
9A4
  8
DATA
  6
CONTINUOUS
 62
     7
  0
POLYLINE
  5
379
  8
DATA
  6
CONTINUOUS
 62
     7
 66
     1
 10
0.0
 20
0.0
 30
0.0
 70
   129
  0
VERTEX
  5
9A5
  8
DATA
  6
CONTINUOUS
 62
     7
 10
37.213841770163363
 20
-71.965384740394541
 30
0.0
 42
-0.4142135623730951
  0
VERTEX
  5
9A6
  8
DATA
  6
CONTINUOUS
 62
     7
 10
37.713841770163363
 20
-71.465384740394541
 30
0.0
  0
VERTEX
  5
9A7
  8
DATA
  6
CONTINUOUS
 62
     7
 10
46.713841770163349
 20
-71.465384740394541
 30
0.0
 42
-0.4142135623730951
  0
VERTEX
  5
9A8
  8
DATA
  6
CONTINUOUS
 62
     7
 10
47.213841770163349
 20
-71.965384740394541
 30
0.0
  0
VERTEX
  5
9A9
  8
DATA
  6
CONTINUOUS
 62
     7
 10
47.213841770163349
 20
-76.965384740394541
 30
0.0
 42
-0.4142135623730951
  0
VERTEX
  5
9AA
  8
DATA
  6
CONTINUOUS
 62
     7
 10
46.713841770163349
 20
-77.465384740394541
 30
0.0
  0
VERTEX
  5
9AB
  8
DATA
  6
CONTINUOUS
 62
     7
 10
37.713841770163363
 20
-77.465384740394541
 30
0.0
 42
-0.4142135623730951
  0
VERTEX
  5
9AC
  8
DATA
  6
CONTINUOUS
 62
     7
 10
37.213841770163363
 20
-76.965384740394541
 30
0.0
  0
SEQEND
  5
9AD
  8
DATA
  6
CONTINUOUS
 62
     7
  0
POLYLINE
  5
383
  8
DATA
  6
CONTINUOUS
 62
     7
 66
     1
 10
0.0
 20
0.0
 30
0.0
 70
   129
  0
VERTEX
  5
9AE
  8
DATA
  6
CONTINUOUS
 62
     7
 10
37.213841770163363
 20
-84.965384740394541
 30
0.0
 42
-0.4142135623730951
  0
VERTEX
  5
9AF
  8
DATA
  6
CONTINUOUS
 62
     7
 10
37.713841770163363
 20
-84.465384740394555
 30
0.0
  0
VERTEX
  5
9B0
  8
DATA
  6
CONTINUOUS
 62
     7
 10
46.713841770163349
 20
-84.465384740394555
 30
0.0
 42
-0.4142135623730951
  0
VERTEX
  5
9B1
  8
DATA
  6
CONTINUOUS
 62
     7
 10
47.213841770163349
 20
-84.965384740394541
 30
0.0
  0
VERTEX
  5
9B2
  8
DATA
  6
CONTINUOUS
 62
     7
 10
47.213841770163349
 20
-89.965384740394555
 30
0.0
 42
-0.4142135623730951
  0
VERTEX
  5
9B3
  8
DATA
  6
CONTINUOUS
 62
     7
 10
46.713841770163349
 20
-90.465384740394555
 30
0.0
  0
VERTEX
  5
9B4
  8
DATA
  6
CONTINUOUS
 62
     7
 10
37.713841770163363
 20
-90.465384740394555
 30
0.0
 42
-0.4142135623730951
  0
VERTEX
  5
9B5
  8
DATA
  6
CONTINUOUS
 62
     7
 10
37.213841770163363
 20
-89.965384740394555
 30
0.0
  0
SEQEND
  5
9B6
  8
DATA
  6
CONTINUOUS
 62
     7
  0
POLYLINE
  5
38D
  8
DATA
  6
CONTINUOUS
 62
     7
 66
     1
 10
0.0
 20
0.0
 30
0.0
 70
     1
  0
VERTEX
  5
9B7
  8
DATA
  6
CONTINUOUS
 62
     7
 10
38.213841770163363
 20
-72.465384740394541
 30
0.0
  0
VERTEX
  5
9B8
  8
DATA
  6
CONTINUOUS
 62
     7
 10
41.213841770163363
 20
-72.465384740394541
 30
0.0
  0
VERTEX
  5
9B9
  8
DATA
  6
CONTINUOUS
 62
     7
 10
41.213841770163363
 20
-73.665384740394543
 30
0.0
  0
VERTEX
  5
9BA
  8
DATA
  6
CONTINUOUS
 62
     7
 10
38.213841770163363
 20
-73.665384740394543
 30
0.0
  0
SEQEND
  5
9BB
  8
DATA
  6
CONTINUOUS
 62
     7
  0
LINE
  5
394
  8
DATA
  6
CONTINUOUS
 62
     7
 10
46.213841770163349
 20
-71.965384740394541
 30
0.0
 11
38.213841770163363
 21
-71.965384740394541
 31
0.0
  0
LINE
  5
395
  8
DATA
  6
CONTINUOUS
 62
     7
 10
37.713841770163363
 20
-77.465384740394541
 30
0.0
 11
37.713841770163363
 21
-72.465384740394541
 31
0.0
  0
LINE
  5
396
  8
DATA
  6
CONTINUOUS
 62
     7
 10
46.713841770163349
 20
-77.465384740394541
 30
0.0
 11
46.713841770163349
 21
-72.465384740394541
 31
0.0
  0
ARC
  5
397
  8
DATA
  6
CONTINUOUS
 62
     7
 10
46.213841770163349
 20
-72.465384740394541
 30
0.0
 40
0.5
 50
0.0
 51
90.0
  0
ARC
  5
398
  8
DATA
  6
CONTINUOUS
 62
     7
 10
38.213841770163363
 20
-72.465384740394541
 30
0.0
 40
0.5
 50
90.0
 51
180.0
  0
POLYLINE
  5
399
  8
DATA
  6
CONTINUOUS
 62
     7
 66
     1
 10
0.0
 20
0.0
 30
0.0
 70
     1
  0
VERTEX
  5
9BC
  8
DATA
  6
CONTINUOUS
 62
     7
 10
54.713841770163363
 20
-72.465384740394541
 30
0.0
  0
VERTEX
  5
9BD
  8
DATA
  6
CONTINUOUS
 62
     7
 10
57.713841770163363
 20
-72.465384740394541
 30
0.0
  0
VERTEX
  5
9BE
  8
DATA
  6
CONTINUOUS
 62
     7
 10
57.713841770163363
 20
-73.665384740394543
 30
0.0
  0
VERTEX
  5
9BF
  8
DATA
  6
CONTINUOUS
 62
     7
 10
54.713841770163363
 20
-73.665384740394543
 30
0.0
  0
SEQEND
  5
9C0
  8
DATA
  6
CONTINUOUS
 62
     7
  0
LINE
  5
3A0
  8
DATA
  6
CONTINUOUS
 62
     7
 10
62.713841770163363
 20
-71.965384740394541
 30
0.0
 11
54.713841770163363
 21
-71.965384740394541
 31
0.0
  0
LINE
  5
3A1
  8
DATA
  6
CONTINUOUS
 62
     7
 10
54.213841770163349
 20
-77.465384740394541
 30
0.0
 11
54.213841770163349
 21
-72.465384740394541
 31
0.0
  0
LINE
  5
3A2
  8
DATA
  6
CONTINUOUS
 62
     7
 10
63.213841770163349
 20
-77.465384740394541
 30
0.0
 11
63.213841770163349
 21
-72.465384740394541
 31
0.0
  0
ARC
  5
3A3
  8
DATA
  6
CONTINUOUS
 62
     7
 10
62.713841770163363
 20
-72.465384740394541
 30
0.0
 40
0.5
 50
0.0
 51
90.0
  0
ARC
  5
3A4
  8
DATA
  6
CONTINUOUS
 62
     7
 10
54.713841770163363
 20
-72.465384740394541
 30
0.0
 40
0.5
 50
90.0
 51
180.0
  0
POLYLINE
  5
3A5
  8
DATA
  6
CONTINUOUS
 62
     7
 66
     1
 10
0.0
 20
0.0
 30
0.0
 70
     1
  0
VERTEX
  5
9C1
  8
DATA
  6
CONTINUOUS
 62
     7
 10
71.213841770163356
 20
-72.465384740394541
 30
0.0
  0
VERTEX
  5
9C2
  8
DATA
  6
CONTINUOUS
 62
     7
 10
74.213841770163341
 20
-72.465384740394541
 30
0.0
  0
VERTEX
  5
9C3
  8
DATA
  6
CONTINUOUS
 62
     7
 10
74.213841770163341
 20
-73.665384740394543
 30
0.0
  0
VERTEX
  5
9C4
  8
DATA
  6
CONTINUOUS
 62
     7
 10
71.213841770163356
 20
-73.665384740394543
 30
0.0
  0
SEQEND
  5
9C5
  8
DATA
  6
CONTINUOUS
 62
     7
  0
LINE
  5
3AC
  8
DATA
  6
CONTINUOUS
 62
     7
 10
79.213841770163341
 20
-71.965384740394541
 30
0.0
 11
71.213841770163356
 21
-71.965384740394541
 31
0.0
  0
LINE
  5
3AD
  8
DATA
  6
CONTINUOUS
 62
     7
 10
70.713841770163356
 20
-77.465384740394541
 30
0.0
 11
70.713841770163356
 21
-72.465384740394541
 31
0.0
  0
LINE
  5
3AE
  8
DATA
  6
CONTINUOUS
 62
     7
 10
79.713841770163341
 20
-77.465384740394541
 30
0.0
 11
79.713841770163341
 21
-72.465384740394541
 31
0.0
  0
ARC
  5
3AF
  8
DATA
  6
CONTINUOUS
 62
     7
 10
79.213841770163341
 20
-72.465384740394541
 30
0.0
 40
0.5
 50
0.0
 51
90.0
  0
ARC
  5
3B0
  8
DATA
  6
CONTINUOUS
 62
     7
 10
71.213841770163356
 20
-72.465384740394541
 30
0.0
 40
0.5
 50
90.0
 51
180.0
  0
POLYLINE
  5
3B1
  8
DATA
  6
CONTINUOUS
 62
     7
 66
     1
 10
0.0
 20
0.0
 30
0.0
 70
     1
  0
VERTEX
  5
9C6
  8
DATA
  6
CONTINUOUS
 62
     7
 10
38.213841770163363
 20
-85.465384740394541
 30
0.0
  0
VERTEX
  5
9C7
  8
DATA
  6
CONTINUOUS
 62
     7
 10
41.213841770163363
 20
-85.465384740394541
 30
0.0
  0
VERTEX
  5
9C8
  8
DATA
  6
CONTINUOUS
 62
     7
 10
41.213841770163363
 20
-86.665384740394543
 30
0.0
  0
VERTEX
  5
9C9
  8
DATA
  6
CONTINUOUS
 62
     7
 10
38.213841770163363
 20
-86.665384740394543
 30
0.0
  0
SEQEND
  5
9CA
  8
DATA
  6
CONTINUOUS
 62
     7
  0
LINE
  5
3B8
  8
DATA
  6
CONTINUOUS
 62
     7
 10
46.213841770163349
 20
-84.965384740394541
 30
0.0
 11
38.213841770163363
 21
-84.965384740394541
 31
0.0
  0
LINE
  5
3B9
  8
DATA
  6
CONTINUOUS
 62
     7
 10
37.713841770163363
 20
-90.465384740394555
 30
0.0
 11
37.713841770163363
 21
-85.465384740394541
 31
0.0
  0
LINE
  5
3BA
  8
DATA
  6
CONTINUOUS
 62
     7
 10
46.713841770163349
 20
-90.465384740394555
 30
0.0
 11
46.713841770163349
 21
-85.465384740394541
 31
0.0
  0
ARC
  5
3BB
  8
DATA
  6
CONTINUOUS
 62
     7
 10
46.213841770163349
 20
-85.465384740394541
 30
0.0
 40
0.5
 50
0.0
 51
90.0
  0
ARC
  5
3BC
  8
DATA
  6
CONTINUOUS
 62
     7
 10
38.213841770163363
 20
-85.465384740394541
 30
0.0
 40
0.5
 50
90.0
 51
180.0
  0
POLYLINE
  5
3BD
  8
DATA
  6
CONTINUOUS
 62
     7
 66
     1
 10
0.0
 20
0.0
 30
0.0
 70
     1
  0
VERTEX
  5
9CB
  8
DATA
  6
CONTINUOUS
 62
     7
 10
54.713841770163363
 20
-85.465384740394541
 30
0.0
  0
VERTEX
  5
9CC
  8
DATA
  6
CONTINUOUS
 62
     7
 10
57.713841770163363
 20
-85.465384740394541
 30
0.0
  0
VERTEX
  5
9CD
  8
DATA
  6
CONTINUOUS
 62
     7
 10
57.713841770163363
 20
-86.665384740394543
 30
0.0
  0
VERTEX
  5
9CE
  8
DATA
  6
CONTINUOUS
 62
     7
 10
54.713841770163363
 20
-86.665384740394543
 30
0.0
  0
SEQEND
  5
9CF
  8
DATA
  6
CONTINUOUS
 62
     7
  0
LINE
  5
3C4
  8
DATA
  6
CONTINUOUS
 62
     7
 10
62.713841770163363
 20
-84.965384740394541
 30
0.0
 11
54.713841770163363
 21
-84.965384740394541
 31
0.0
  0
LINE
  5
3C5
  8
DATA
  6
CONTINUOUS
 62
     7
 10
54.213841770163349
 20
-90.465384740394555
 30
0.0
 11
54.213841770163349
 21
-85.465384740394541
 31
0.0
  0
LINE
  5
3C6
  8
DATA
  6
CONTINUOUS
 62
     7
 10
63.213841770163349
 20
-90.465384740394555
 30
0.0
 11
63.213841770163349
 21
-85.465384740394541
 31
0.0
  0
ARC
  5
3C7
  8
DATA
  6
CONTINUOUS
 62
     7
 10
62.713841770163363
 20
-85.465384740394541
 30
0.0
 40
0.5
 50
0.0
 51
90.0
  0
ARC
  5
3C8
  8
DATA
  6
CONTINUOUS
 62
     7
 10
54.713841770163363
 20
-85.465384740394541
 30
0.0
 40
0.5
 50
90.0
 51
180.0
  0
POLYLINE
  5
3C9
  8
DATA
  6
CONTINUOUS
 62
     7
 66
     1
 10
0.0
 20
0.0
 30
0.0
 70
     1
  0
VERTEX
  5
9D0
  8
DATA
  6
CONTINUOUS
 62
     7
 10
71.213841770163356
 20
-85.465384740394541
 30
0.0
  0
VERTEX
  5
9D1
  8
DATA
  6
CONTINUOUS
 62
     7
 10
74.213841770163341
 20
-85.465384740394541
 30
0.0
  0
VERTEX
  5
9D2
  8
DATA
  6
CONTINUOUS
 62
     7
 10
74.213841770163341
 20
-86.665384740394543
 30
0.0
  0
VERTEX
  5
9D3
  8
DATA
  6
CONTINUOUS
 62
     7
 10
71.213841770163356
 20
-86.665384740394543
 30
0.0
  0
SEQEND
  5
9D4
  8
DATA
  6
CONTINUOUS
 62
     7
  0
LINE
  5
3D0
  8
DATA
  6
CONTINUOUS
 62
     7
 10
79.213841770163341
 20
-84.965384740394541
 30
0.0
 11
71.213841770163356
 21
-84.965384740394541
 31
0.0
  0
LINE
  5
3D1
  8
DATA
  6
CONTINUOUS
 62
     7
 10
70.713841770163356
 20
-90.465384740394555
 30
0.0
 11
70.713841770163356
 21
-85.465384740394541
 31
0.0
  0
LINE
  5
3D2
  8
DATA
  6
CONTINUOUS
 62
     7
 10
79.713841770163341
 20
-90.465384740394555
 30
0.0
 11
79.713841770163341
 21
-85.465384740394541
 31
0.0
  0
ARC
  5
3D3
  8
DATA
  6
CONTINUOUS
 62
     7
 10
79.213841770163341
 20
-85.465384740394541
 30
0.0
 40
0.5
 50
0.0
 51
90.0
  0
ARC
  5
3D4
  8
DATA
  6
CONTINUOUS
 62
     7
 10
71.213841770163356
 20
-85.465384740394541
 30
0.0
 40
0.5
 50
90.0
 51
180.0
  0
POLYLINE
  5
3D5
  8
DATA
  6
CONTINUOUS
 62
     7
 66
     1
 10
0.0
 20
0.0
 30
0.0
 70
     1
  0
VERTEX
  5
9D5
  8
DATA
  6
CONTINUOUS
 62
     7
 10
131.6138417701633
 20
-100.4653847403945
 30
0.0
  0
VERTEX
  5
9D6
  8
DATA
  6
CONTINUOUS
 62
     7
 10
134.6138417701633
 20
-100.4653847403945
 30
0.0
  0
VERTEX
  5
9D7
  8
DATA
  6
CONTINUOUS
 62
     7
 10
134.6138417701633
 20
-101.6653847403945
 30
0.0
  0
VERTEX
  5
9D8
  8
DATA
  6
CONTINUOUS
 62
     7
 10
131.6138417701633
 20
-101.6653847403945
 30
0.0
  0
SEQEND
  5
9D9
  8
DATA
  6
CONTINUOUS
 62
     7
  0
LINE
  5
3DC
  8
DATA
  6
CONTINUOUS
 62
     7
 10
139.6138417701633
 20
-99.965384740394555
 30
0.0
 11
131.6138417701633
 21
-99.965384740394555
 31
0.0
  0
LINE
  5
3DD
  8
DATA
  6
CONTINUOUS
 62
     7
 10
131.1138417701633
 20
-105.4653847403945
 30
0.0
 11
131.1138417701633
 21
-100.4653847403945
 31
0.0
  0
LINE
  5
3DE
  8
DATA
  6
CONTINUOUS
 62
     7
 10
140.1138417701633
 20
-105.4653847403945
 30
0.0
 11
140.1138417701633
 21
-100.4653847403945
 31
0.0
  0
ARC
  5
3DF
  8
DATA
  6
CONTINUOUS
 62
     7
 10
139.6138417701633
 20
-100.4653847403945
 30
0.0
 40
0.5
 50
0.0
 51
90.0
  0
ARC
  5
3E0
  8
DATA
  6
CONTINUOUS
 62
     7
 10
131.6138417701633
 20
-100.4653847403945
 30
0.0
 40
0.5
 50
90.0
 51
180.0
  0
LINE
  5
3E1
  8
DATA
  6
CONTINUOUS
 62
     7
 10
131.1138417701633
 20
-105.4653847403945
 30
0.0
 11
140.1138417701633
 21
-105.4653847403945
 31
0.0
  0
POLYLINE
  5
3E2
  8
DATA
  6
CONTINUOUS
 62
     7
 66
     1
 10
0.0
 20
0.0
 30
0.0
 70
     1
  0
VERTEX
  5
9DA
  8
DATA
  6
CONTINUOUS
 62
     7
 10
148.41384177016329
 20
-100.4653847403945
 30
0.0
  0
VERTEX
  5
9DB
  8
DATA
  6
CONTINUOUS
 62
     7
 10
151.41384177016329
 20
-100.4653847403945
 30
0.0
  0
VERTEX
  5
9DC
  8
DATA
  6
CONTINUOUS
 62
     7
 10
151.41384177016329
 20
-101.6653847403945
 30
0.0
  0
VERTEX
  5
9DD
  8
DATA
  6
CONTINUOUS
 62
     7
 10
148.41384177016329
 20
-101.6653847403945
 30
0.0
  0
SEQEND
  5
9DE
  8
DATA
  6
CONTINUOUS
 62
     7
  0
LINE
  5
3E9
  8
DATA
  6
CONTINUOUS
 62
     7
 10
156.41384177016329
 20
-99.965384740394555
 30
0.0
 11
148.41384177016329
 21
-99.965384740394555
 31
0.0
  0
LINE
  5
3EA
  8
DATA
  6
CONTINUOUS
 62
     7
 10
147.91384177016329
 20
-105.4653847403945
 30
0.0
 11
147.91384177016329
 21
-100.4653847403945
 31
0.0
  0
LINE
  5
3EB
  8
DATA
  6
CONTINUOUS
 62
     7
 10
156.91384177016329
 20
-105.4653847403945
 30
0.0
 11
156.91384177016329
 21
-100.4653847403945
 31
0.0
  0
ARC
  5
3EC
  8
DATA
  6
CONTINUOUS
 62
     7
 10
156.41384177016329
 20
-100.4653847403945
 30
0.0
 40
0.5
 50
0.0
 51
90.0
  0
ARC
  5
3ED
  8
DATA
  6
CONTINUOUS
 62
     7
 10
148.41384177016329
 20
-100.4653847403945
 30
0.0
 40
0.5
 50
90.0
 51
180.0
  0
LINE
  5
3EE
  8
DATA
  6
CONTINUOUS
 62
     7
 10
147.91384177016329
 20
-105.4653847403945
 30
0.0
 11
156.91384177016329
 21
-105.4653847403945
 31
0.0
  0
POLYLINE
  5
3EF
  8
DATA
  6
CONTINUOUS
 62
     7
 66
     1
 10
0.0
 20
0.0
 30
0.0
 70
     1
  0
VERTEX
  5
9DF
  8
DATA
  6
CONTINUOUS
 62
     7
 10
165.21384177016341
 20
-100.4653847403945
 30
0.0
  0
VERTEX
  5
9E0
  8
DATA
  6
CONTINUOUS
 62
     7
 10
168.21384177016341
 20
-100.4653847403945
 30
0.0
  0
VERTEX
  5
9E1
  8
DATA
  6
CONTINUOUS
 62
     7
 10
168.21384177016341
 20
-101.6653847403945
 30
0.0
  0
VERTEX
  5
9E2
  8
DATA
  6
CONTINUOUS
 62
     7
 10
165.21384177016341
 20
-101.6653847403945
 30
0.0
  0
SEQEND
  5
9E3
  8
DATA
  6
CONTINUOUS
 62
     7
  0
LINE
  5
3F6
  8
DATA
  6
CONTINUOUS
 62
     7
 10
173.21384177016341
 20
-99.965384740394555
 30
0.0
 11
165.21384177016341
 21
-99.965384740394555
 31
0.0
  0
LINE
  5
3F7
  8
DATA
  6
CONTINUOUS
 62
     7
 10
164.71384177016341
 20
-105.4653847403945
 30
0.0
 11
164.71384177016341
 21
-100.4653847403945
 31
0.0
  0
LINE
  5
3F8
  8
DATA
  6
CONTINUOUS
 62
     7
 10
173.71384177016341
 20
-105.4653847403945
 30
0.0
 11
173.71384177016341
 21
-100.4653847403945
 31
0.0
  0
ARC
  5
3F9
  8
DATA
  6
CONTINUOUS
 62
     7
 10
173.21384177016341
 20
-100.4653847403945
 30
0.0
 40
0.5
 50
0.0
 51
90.0
  0
ARC
  5
3FA
  8
DATA
  6
CONTINUOUS
 62
     7
 10
165.21384177016341
 20
-100.4653847403945
 30
0.0
 40
0.5
 50
90.0
 51
180.0
  0
LINE
  5
3FB
  8
DATA
  6
CONTINUOUS
 62
     7
 10
164.71384177016341
 20
-105.4653847403945
 30
0.0
 11
173.71384177016341
 21
-105.4653847403945
 31
0.0
  0
POLYLINE
  5
3FC
  8
DATA
  6
CONTINUOUS
 62
     7
 66
     1
 10
0.0
 20
0.0
 30
0.0
 70
     1
  0
VERTEX
  5
9E4
  8
DATA
  6
CONTINUOUS
 62
     7
 10
167.7138417701633
 20
-124.9653847403945
 30
0.0
  0
VERTEX
  5
9E5
  8
DATA
  6
CONTINUOUS
 62
     7
 10
170.7138417701633
 20
-124.9653847403945
 30
0.0
  0
VERTEX
  5
9E6
  8
DATA
  6
CONTINUOUS
 62
     7
 10
170.7138417701633
 20
-126.1653847403945
 30
0.0
  0
VERTEX
  5
9E7
  8
DATA
  6
CONTINUOUS
 62
     7
 10
167.7138417701633
 20
-126.1653847403945
 30
0.0
  0
SEQEND
  5
9E8
  8
DATA
  6
CONTINUOUS
 62
     7
  0
LINE
  5
403
  8
DATA
  6
CONTINUOUS
 62
     7
 10
173.2138417701633
 20
-124.4653847403945
 30
0.0
 11
165.2138417701633
 21
-124.4653847403945
 31
0.0
  0
LINE
  5
404
  8
DATA
  6
CONTINUOUS
 62
     7
 10
164.71384177016341
 20
-143.46538474039451
 30
0.0
 11
164.7138417701633
 21
-124.9653847403945
 31
0.0
  0
LINE
  5
405
  8
DATA
  6
CONTINUOUS
 62
     7
 10
173.7138417701633
 20
-143.46538474039451
 30
0.0
 11
173.7138417701633
 21
-124.9653847403945
 31
0.0
  0
ARC
  5
406
  8
DATA
  6
CONTINUOUS
 62
     7
 10
173.2138417701633
 20
-124.9653847403945
 30
0.0
 40
0.5
 50
0.0
 51
90.0
  0
ARC
  5
407
  8
DATA
  6
CONTINUOUS
 62
     7
 10
165.2138417701633
 20
-124.9653847403945
 30
0.0
 40
0.5
 50
90.0
 51
180.0
  0
LINE
  5
408
  8
DATA
  6
CONTINUOUS
 62
     7
 10
156.41384177016329
 20
-124.4653847403945
 30
0.0
 11
148.41384177016329
 21
-124.4653847403945
 31
0.0
  0
LINE
  5
409
  8
DATA
  6
CONTINUOUS
 62
     7
 10
147.91384177016329
 20
-143.46538474039451
 30
0.0
 11
147.91384177016329
 21
-124.9653847403945
 31
0.0
  0
LINE
  5
40A
  8
DATA
  6
CONTINUOUS
 62
     7
 10
156.91384177016329
 20
-143.46538474039451
 30
0.0
 11
156.91384177016329
 21
-124.9653847403945
 31
0.0
  0
ARC
  5
40B
  8
DATA
  6
CONTINUOUS
 62
     7
 10
156.41384177016329
 20
-124.9653847403945
 30
0.0
 40
0.5
 50
0.0
 51
90.0
  0
ARC
  5
40C
  8
DATA
  6
CONTINUOUS
 62
     7
 10
148.41384177016329
 20
-124.9653847403945
 30
0.0
 40
0.5
 50
90.0
 51
180.0
  0
LINE
  5
40D
  8
DATA
  6
CONTINUOUS
 62
     7
 10
139.6138417701633
 20
-124.4653847403945
 30
0.0
 11
131.6138417701633
 21
-124.4653847403945
 31
0.0
  0
LINE
  5
40E
  8
DATA
  6
CONTINUOUS
 62
     7
 10
131.1138417701633
 20
-143.46538474039451
 30
0.0
 11
131.1138417701633
 21
-124.9653847403945
 31
0.0
  0
LINE
  5
40F
  8
DATA
  6
CONTINUOUS
 62
     7
 10
140.1138417701633
 20
-143.46538474039451
 30
0.0
 11
140.1138417701633
 21
-124.9653847403945
 31
0.0
  0
ARC
  5
410
  8
DATA
  6
CONTINUOUS
 62
     7
 10
139.6138417701633
 20
-124.9653847403945
 30
0.0
 40
0.5
 50
0.0
 51
90.0
  0
ARC
  5
411
  8
DATA
  6
CONTINUOUS
 62
     7
 10
131.6138417701633
 20
-124.9653847403945
 30
0.0
 40
0.5
 50
90.0
 51
180.0
  0
LINE
  5
412
  8
DATA
  6
CONTINUOUS
 62
     7
 10
122.81384177016329
 20
-124.4653847403945
 30
0.0
 11
114.81384177016329
 21
-124.4653847403945
 31
0.0
  0
LINE
  5
413
  8
DATA
  6
CONTINUOUS
 62
     7
 10
114.31384177016329
 20
-143.46538474039451
 30
0.0
 11
114.31384177016329
 21
-124.9653847403945
 31
0.0
  0
LINE
  5
414
  8
DATA
  6
CONTINUOUS
 62
     7
 10
123.31384177016329
 20
-143.46538474039451
 30
0.0
 11
123.31384177016329
 21
-124.9653847403945
 31
0.0
  0
ARC
  5
415
  8
DATA
  6
CONTINUOUS
 62
     7
 10
122.81384177016329
 20
-124.9653847403945
 30
0.0
 40
0.5
 50
0.0
 51
90.0
  0
ARC
  5
416
  8
DATA
  6
CONTINUOUS
 62
     7
 10
114.81384177016329
 20
-124.9653847403945
 30
0.0
 40
0.5
 50
90.0
 51
180.0
  0
LINE
  5
417
  8
DATA
  6
CONTINUOUS
 62
     7
 10
106.0138417701633
 20
-124.4653847403945
 30
0.0
 11
98.01384177016331
 21
-124.4653847403945
 31
0.0
  0
LINE
  5
418
  8
DATA
  6
CONTINUOUS
 62
     7
 10
97.513841770163367
 20
-143.46538474039451
 30
0.0
 11
97.513841770163324
 21
-124.9653847403945
 31
0.0
  0
LINE
  5
419
  8
DATA
  6
CONTINUOUS
 62
     7
 10
106.5138417701633
 20
-143.46538474039451
 30
0.0
 11
106.5138417701633
 21
-124.9653847403945
 31
0.0
  0
ARC
  5
41A
  8
DATA
  6
CONTINUOUS
 62
     7
 10
106.0138417701633
 20
-124.9653847403945
 30
0.0
 40
0.5
 50
0.0
 51
90.0
  0
ARC
  5
41B
  8
DATA
  6
CONTINUOUS
 62
     7
 10
98.01384177016331
 20
-124.9653847403945
 30
0.0
 40
0.5
 50
90.0
 51
180.0
  0
LINE
  5
41C
  8
DATA
  6
CONTINUOUS
 62
     7
 10
89.213841770163327
 20
-124.4653847403945
 30
0.0
 11
81.213841770163327
 21
-124.4653847403945
 31
0.0
  0
LINE
  5
41D
  8
DATA
  6
CONTINUOUS
 62
     7
 10
80.713841770163341
 20
-143.46538474039451
 30
0.0
 11
80.713841770163313
 21
-124.9653847403945
 31
0.0
  0
LINE
  5
41E
  8
DATA
  6
CONTINUOUS
 62
     7
 10
89.713841770163313
 20
-143.46538474039451
 30
0.0
 11
89.713841770163313
 21
-124.9653847403945
 31
0.0
  0
ARC
  5
41F
  8
DATA
  6
CONTINUOUS
 62
     7
 10
89.213841770163327
 20
-124.9653847403945
 30
0.0
 40
0.5
 50
0.0
 51
90.0
  0
ARC
  5
420
  8
DATA
  6
CONTINUOUS
 62
     7
 10
81.213841770163327
 20
-124.9653847403945
 30
0.0
 40
0.5
 50
90.0
 51
180.0
  0
LINE
  5
421
  8
DATA
  6
CONTINUOUS
 62
     7
 10
72.41384177016333
 20
-124.4653847403945
 30
0.0
 11
64.41384177016333
 21
-124.4653847403945
 31
0.0
  0
LINE
  5
422
  8
DATA
  6
CONTINUOUS
 62
     7
 10
63.913841770163351
 20
-143.46538474039451
 30
0.0
 11
63.913841770163323
 21
-124.9653847403945
 31
0.0
  0
LINE
  5
423
  8
DATA
  6
CONTINUOUS
 62
     7
 10
72.91384177016333
 20
-143.46538474039451
 30
0.0
 11
72.91384177016333
 21
-124.9653847403945
 31
0.0
  0
ARC
  5
424
  8
DATA
  6
CONTINUOUS
 62
     7
 10
72.41384177016333
 20
-124.9653847403945
 30
0.0
 40
0.5
 50
0.0
 51
90.0
  0
ARC
  5
425
  8
DATA
  6
CONTINUOUS
 62
     7
 10
64.41384177016333
 20
-124.9653847403945
 30
0.0
 40
0.5
 50
90.0
 51
180.0
  0
LINE
  5
426
  8
DATA
  6
CONTINUOUS
 62
     7
 10
55.613841770163319
 20
-124.4653847403945
 30
0.0
 11
47.613841770163319
 21
-124.4653847403945
 31
0.0
  0
LINE
  5
427
  8
DATA
  6
CONTINUOUS
 62
     7
 10
47.113841770163347
 20
-143.46538474039451
 30
0.0
 11
47.113841770163319
 21
-124.9653847403945
 31
0.0
  0
LINE
  5
428
  8
DATA
  6
CONTINUOUS
 62
     7
 10
56.113841770163333
 20
-143.46538474039451
 30
0.0
 11
56.113841770163333
 21
-124.9653847403945
 31
0.0
  0
ARC
  5
429
  8
DATA
  6
CONTINUOUS
 62
     7
 10
55.613841770163319
 20
-124.9653847403945
 30
0.0
 40
0.5
 50
0.0
 51
90.0
  0
ARC
  5
42A
  8
DATA
  6
CONTINUOUS
 62
     7
 10
47.613841770163319
 20
-124.9653847403945
 30
0.0
 40
0.5
 50
90.0
 51
180.0
  0
LINE
  5
42B
  8
DATA
  6
CONTINUOUS
 62
     7
 10
38.813841770163322
 20
-124.4653847403945
 30
0.0
 11
30.813841770163322
 21
-124.4653847403945
 31
0.0
  0
LINE
  5
42C
  8
DATA
  6
CONTINUOUS
 62
     7
 10
30.31384177016335
 20
-143.46538474039451
 30
0.0
 11
30.313841770163322
 21
-124.9653847403945
 31
0.0
  0
LINE
  5
42D
  8
DATA
  6
CONTINUOUS
 62
     7
 10
39.313841770163322
 20
-143.46538474039451
 30
0.0
 11
39.313841770163322
 21
-124.9653847403945
 31
0.0
  0
ARC
  5
42E
  8
DATA
  6
CONTINUOUS
 62
     7
 10
38.813841770163322
 20
-124.9653847403945
 30
0.0
 40
0.5
 50
0.0
 51
90.0
  0
ARC
  5
42F
  8
DATA
  6
CONTINUOUS
 62
     7
 10
30.813841770163322
 20
-124.9653847403945
 30
0.0
 40
0.5
 50
90.0
 51
180.0
  0
LINE
  5
430
  8
DATA
  6
CONTINUOUS
 62
     7
 10
22.01384177016331
 20
-124.4653847403945
 30
0.0
 11
14.01384177016331
 21
-124.4653847403945
 31
0.0
  0
LINE
  5
431
  8
DATA
  6
CONTINUOUS
 62
     7
 10
13.51384177016334
 20
-143.46538474039451
 30
0.0
 11
13.51384177016331
 21
-124.9653847403945
 31
0.0
  0
LINE
  5
432
  8
DATA
  6
CONTINUOUS
 62
     7
 10
22.51384177016331
 20
-143.46538474039451
 30
0.0
 11
22.51384177016331
 21
-124.9653847403945
 31
0.0
  0
ARC
  5
433
  8
DATA
  6
CONTINUOUS
 62
     7
 10
22.01384177016331
 20
-124.9653847403945
 30
0.0
 40
0.5
 50
0.0
 51
90.0
  0
ARC
  5
434
  8
DATA
  6
CONTINUOUS
 62
     7
 10
14.01384177016331
 20
-124.9653847403945
 30
0.0
 40
0.5
 50
90.0
 51
180.0
  0
LINE
  5
435
  8
DATA
  6
CONTINUOUS
 62
     7
 10
5.2138417701632971
 20
-124.4653847403945
 30
0.0
 11
-2.7861582298366998
 21
-124.4653847403945
 31
0.0
  0
LINE
  5
436
  8
DATA
  6
CONTINUOUS
 62
     7
 10
-3.2861582298366718
 20
-143.46538474039451
 30
0.0
 11
-3.2861582298366998
 21
-124.9653847403945
 31
0.0
  0
LINE
  5
437
  8
DATA
  6
CONTINUOUS
 62
     7
 10
5.7138417701632971
 20
-143.46538474039451
 30
0.0
 11
5.7138417701632971
 21
-124.9653847403945
 31
0.0
  0
ARC
  5
438
  8
DATA
  6
CONTINUOUS
 62
     7
 10
5.2138417701632971
 20
-124.9653847403945
 30
0.0
 40
0.5
 50
0.0
 51
90.0
  0
ARC
  5
439
  8
DATA
  6
CONTINUOUS
 62
     7
 10
-2.7861582298366998
 20
-124.9653847403945
 30
0.0
 40
0.5
 50
90.0
 51
180.0
  0
LINE
  5
43A
  8
DATA
  6
CONTINUOUS
 62
     7
 10
-11.586158229836711
 20
-124.4653847403945
 30
0.0
 11
-19.586158229836709
 21
-124.4653847403945
 31
0.0
  0
LINE
  5
43B
  8
DATA
  6
CONTINUOUS
 62
     7
 10
-20.086158229836691
 20
-143.46538474039451
 30
0.0
 11
-20.086158229836709
 21
-124.9653847403945
 31
0.0
  0
LINE
  5
43C
  8
DATA
  6
CONTINUOUS
 62
     7
 10
-11.086158229836711
 20
-143.46538474039451
 30
0.0
 11
-11.086158229836711
 21
-124.9653847403945
 31
0.0
  0
ARC
  5
43D
  8
DATA
  6
CONTINUOUS
 62
     7
 10
-11.586158229836711
 20
-124.9653847403945
 30
0.0
 40
0.5
 50
0.0
 51
90.0
  0
ARC
  5
43E
  8
DATA
  6
CONTINUOUS
 62
     7
 10
-19.586158229836709
 20
-124.9653847403945
 30
0.0
 40
0.5
 50
90.0
 51
180.0
  0
LINE
  5
43F
  8
DATA
  6
CONTINUOUS
 62
     7
 10
-28.386158229836731
 20
-124.4653847403945
 30
0.0
 11
-36.386158229836717
 21
-124.4653847403945
 31
0.0
  0
LINE
  5
440
  8
DATA
  6
CONTINUOUS
 62
     7
 10
-36.886158229836703
 20
-143.46538474039451
 30
0.0
 11
-36.886158229836717
 21
-124.9653847403945
 31
0.0
  0
LINE
  5
441
  8
DATA
  6
CONTINUOUS
 62
     7
 10
-27.886158229836731
 20
-143.46538474039451
 30
0.0
 11
-27.886158229836731
 21
-124.9653847403945
 31
0.0
  0
ARC
  5
442
  8
DATA
  6
CONTINUOUS
 62
     7
 10
-28.386158229836731
 20
-124.9653847403945
 30
0.0
 40
0.5
 50
0.0
 51
90.0
  0
ARC
  5
443
  8
DATA
  6
CONTINUOUS
 62
     7
 10
-36.386158229836717
 20
-124.9653847403945
 30
0.0
 40
0.5
 50
90.0
 51
180.0
  0
LINE
  5
444
  8
DATA
  6
CONTINUOUS
 62
     7
 10
-45.186158229836742
 20
-124.4653847403945
 30
0.0
 11
-53.186158229836742
 21
-124.4653847403945
 31
0.0
  0
LINE
  5
445
  8
DATA
  6
CONTINUOUS
 62
     7
 10
-53.686158229836707
 20
-143.46538474039451
 30
0.0
 11
-53.686158229836742
 21
-124.9653847403945
 31
0.0
  0
LINE
  5
446
  8
DATA
  6
CONTINUOUS
 62
     7
 10
-44.686158229836721
 20
-143.46538474039451
 30
0.0
 11
-44.686158229836721
 21
-124.9653847403945
 31
0.0
  0
ARC
  5
447
  8
DATA
  6
CONTINUOUS
 62
     7
 10
-45.186158229836742
 20
-124.9653847403945
 30
0.0
 40
0.5
 50
0.0
 51
90.0
  0
ARC
  5
448
  8
DATA
  6
CONTINUOUS
 62
     7
 10
-53.186158229836742
 20
-124.9653847403945
 30
0.0
 40
0.5
 50
90.0
 51
180.0
  0
LINE
  5
449
  8
DATA
  6
CONTINUOUS
 62
     7
 10
-61.98615822983674
 20
-124.4653847403945
 30
0.0
 11
-69.986158229836747
 21
-124.4653847403945
 31
0.0
  0
LINE
  5
44A
  8
DATA
  6
CONTINUOUS
 62
     7
 10
-70.486158229836718
 20
-143.46538474039451
 30
0.0
 11
-70.486158229836732
 21
-124.9653847403945
 31
0.0
  0
LINE
  5
44B
  8
DATA
  6
CONTINUOUS
 62
     7
 10
-61.48615822983674
 20
-143.46538474039451
 30
0.0
 11
-61.48615822983674
 21
-124.9653847403945
 31
0.0
  0
ARC
  5
44C
  8
DATA
  6
CONTINUOUS
 62
     7
 10
-61.98615822983674
 20
-124.9653847403945
 30
0.0
 40
0.5
 50
0.0
 51
90.0
  0
ARC
  5
44D
  8
DATA
  6
CONTINUOUS
 62
     7
 10
-69.986158229836747
 20
-124.9653847403945
 30
0.0
 40
0.5
 50
90.0
 51
180.0
  0
LINE
  5
44E
  8
DATA
  6
CONTINUOUS
 62
     7
 10
-78.786158229836772
 20
-124.4653847403945
 30
0.0
 11
-86.786158229836786
 21
-124.4653847403945
 31
0.0
  0
LINE
  5
44F
  8
DATA
  6
CONTINUOUS
 62
     7
 10
-87.28615822983673
 20
-143.46538474039451
 30
0.0
 11
-87.286158229836772
 21
-124.9653847403945
 31
0.0
  0
LINE
  5
450
  8
DATA
  6
CONTINUOUS
 62
     7
 10
-78.286158229836772
 20
-143.46538474039451
 30
0.0
 11
-78.286158229836772
 21
-124.9653847403945
 31
0.0
  0
ARC
  5
451
  8
DATA
  6
CONTINUOUS
 62
     7
 10
-78.786158229836772
 20
-124.9653847403945
 30
0.0
 40
0.5
 50
0.0
 51
90.0
  0
ARC
  5
452
  8
DATA
  6
CONTINUOUS
 62
     7
 10
-86.786158229836786
 20
-124.9653847403945
 30
0.0
 40
0.5
 50
90.0
 51
180.0
  0
LINE
  5
453
  8
DATA
  6
CONTINUOUS
 62
     7
 10
31.213841770163359
 20
-71.965384740394541
 30
0.0
 11
31.213841770163359
 21
-76.265384740394524
 31
0.0
  0
LINE
  5
454
  8
DATA
  6
CONTINUOUS
 62
     7
 10
30.713841770163359
 20
-71.465384740394541
 30
0.0
 11
26.413841770163359
 21
-71.465384740394541
 31
0.0
  0
LINE
  5
455
  8
DATA
  6
CONTINUOUS
 62
     7
 10
30.713841770163359
 20
-76.765384740394524
 30
0.0
 11
26.413841770163359
 21
-76.765384740394524
 31
0.0
  0
LINE
  5
456
  8
DATA
  6
CONTINUOUS
 62
     7
 10
25.913841770163351
 20
-71.965384740394541
 30
0.0
 11
25.913841770163351
 21
-76.265384740394524
 31
0.0
  0
ARC
  5
457
  8
DATA
  6
CONTINUOUS
 62
     7
 10
26.413841770163359
 20
-71.965384740394541
 30
0.0
 40
0.5
 50
90.0
 51
180.0
  0
ARC
  5
458
  8
DATA
  6
CONTINUOUS
 62
     7
 10
30.713841770163359
 20
-71.965384740394541
 30
0.0
 40
0.5
 50
0.0
 51
90.0
  0
ARC
  5
459
  8
DATA
  6
CONTINUOUS
 62
     7
 10
30.713841770163359
 20
-76.265384740394524
 30
0.0
 40
0.5
 50
270.0
 51
0.0
  0
ARC
  5
45A
  8
DATA
  6
CONTINUOUS
 62
     7
 10
26.413841770163359
 20
-76.265384740394524
 30
0.0
 40
0.5
 50
180.0
 51
270.0
  0
POLYLINE
  5
45B
  8
DATA
  6
CONTINUOUS
 62
     7
 66
     1
 10
0.0
 20
0.0
 30
0.0
 70
     1
  0
VERTEX
  5
9E9
  8
DATA
  6
CONTINUOUS
 62
     7
 10
26.713841770163359
 20
-72.265384740394538
 30
0.0
  0
VERTEX
  5
9EA
  8
DATA
  6
CONTINUOUS
 62
     7
 10
29.713841770163359
 20
-72.265384740394538
 30
0.0
  0
VERTEX
  5
9EB
  8
DATA
  6
CONTINUOUS
 62
     7
 10
29.713841770163359
 20
-73.465384740394583
 30
0.0
  0
VERTEX
  5
9EC
  8
DATA
  6
CONTINUOUS
 62
     7
 10
26.713841770163359
 20
-73.465384740394583
 30
0.0
  0
SEQEND
  5
9ED
  8
DATA
  6
CONTINUOUS
 62
     7
  0
LINE
  5
462
  8
DATA
  6
CONTINUOUS
 62
     7
 10
26.213841770163359
 20
-72.265384740394538
 30
0.0
 11
26.213841770163359
 21
-76.723642309890138
 31
0.0
  0
LINE
  5
463
  8
DATA
  6
CONTINUOUS
 62
     7
 10
30.913841770163359
 20
-72.265384740394538
 30
0.0
 11
30.913841770163359
 21
-76.723642309890138
 31
0.0
  0
LINE
  5
464
  8
DATA
  6
CONTINUOUS
 62
     7
 10
26.713841770163359
 20
-71.765384740394524
 30
0.0
 11
30.413841770163359
 21
-71.765384740394524
 31
0.0
  0
ARC
  5
465
  8
DATA
  6
CONTINUOUS
 62
     7
 10
30.413841770163359
 20
-72.265384740394538
 30
0.0
 40
0.5
 50
0.0
 51
90.0
  0
ARC
  5
466
  8
DATA
  6
CONTINUOUS
 62
     7
 10
26.713841770163359
 20
-72.265384740394538
 30
0.0
 40
0.5
 50
90.0
 51
180.0
  0
CIRCLE
  5
467
  8
DATA
  6
CONTINUOUS
 62
     7
 10
6.463841770163369
 20
-83.215328714579783
 30
0.0
 40
15.522245647202039
  0
LINE
  5
468
  8
DATA
  6
CONTINUOUS
 62
     7
 10
-99.03615822983663
 20
-95.965384740394555
 30
0.0
 11
-9.2861582298366425
 21
-95.965384740394555
 31
0.0
  0
LINE
  5
469
  8
DATA
  6
CONTINUOUS
 62
     7
 10
-88.286158229836616
 20
-68.965384740394541
 30
0.0
 11
-88.286158229836616
 21
-95.965384740394555
 31
0.0
  0
LINE
  5
46A
  8
DATA
  6
CONTINUOUS
 62
     7
 10
-19.286158229836659
 20
-68.965384740394541
 30
0.0
 11
-19.286158229836659
 21
-95.965384740394555
 31
0.0
  0
LINE
  5
46B
  8
DATA
  6
CONTINUOUS
 62
     7
 10
-9.2861582298366301
 20
-68.965384740394541
 30
0.0
 11
-9.2861582298366301
 21
-73.751172211427885
 31
0.0
  0
LINE
  5
46C
  8
DATA
  6
CONTINUOUS
 62
     7
 10
-9.2861582298366301
 20
-91.17959726936121
 30
0.0
 11
-9.2861582298366301
 21
-95.965384740394555
 31
0.0
  0
LINE
  5
46D
  8
DATA
  6
CONTINUOUS
 62
     7
 10
-19.286158229836641
 20
-32.365384740394553
 30
0.0
 11
-100.2861582298366
 21
-32.365384740394553
 31
0.0
  0
LINE
  5
46E
  8
DATA
  6
CONTINUOUS
 62
     7
 10
-99.03615822983663
 20
-68.965384740394541
 30
0.0
 11
-9.2861582298366425
 21
-68.965384740394541
 31
0.0
  0
CIRCLE
  5
46F
  8
DATA
  6
CONTINUOUS
 62
     7
 10
6.463841770163369
 20
-82.465384740394541
 30
0.0
 40
18.0
  0
LINE
  5
470
  8
DATA
  6
CONTINUOUS
 62
     7
 10
185.46384177016341
 20
-34.457977195306647
 30
0.0
 11
-99.03615822983663
 21
-34.457977195306647
 31
0.0
  0
LINE
  5
471
  8
DATA
  6
CONTINUOUS
 62
     7
 10
312.12267506891931
 20
-214.6416501427324
 30
0.0
 11
310.13634173440448
 21
-200.5009545203857
 31
0.0
  0
LINE
  5
472
  8
DATA
  6
CONTINUOUS
 62
     7
 10
323.00882241505349
 20
-198.69173416761831
 30
0.0
 11
324.99388550169721
 21
-212.8161919513455
 31
0.0
  0
ARC
  5
473
  8
DATA
  6
CONTINUOUS
 62
     7
 10
324.77806732790572
 20
-257.97781801871167
 30
0.0
 40
59.312477321054409
 50
91.70837144520344
 51
104.2916285547966
  0
LINE
  5
474
  8
DATA
  6
CONTINUOUS
 62
     7
 10
310.1363417344046
 20
-200.5009545203857
 30
0.0
 11
323.009826628045
 21
-198.69170420790491
 31
0.0
  0
ARC
  5
475
  8
DATA
  6
CONTINUOUS
 62
     7
 10
324.50378841936822
 20
-256.6061504253687
 30
0.0
 40
59.368232324407423
 50
82.535809311227013
 51
113.3046142671429
  0
LINE
  5
476
  8
DATA
  6
CONTINUOUS
 62
     7
 10
302.99615858230101
 20
-216.16707975658889
 30
0.0
 11
301.0165599558598
 21
-202.08150362753619
 31
0.0
  0
LINE
  5
477
  8
DATA
  6
CONTINUOUS
 62
     7
 10
332.21610907292143
 20
-197.7409899357917
 30
0.0
 11
334.18408066656963
 21
-211.7438354277478
 31
0.0
  0
ARC
  5
478
  8
DATA
  6
CONTINUOUS
 62
     7
 10
6.4638417701633344
 20
-81.462811699536374
 30
0.0
 40
15.52224564720208
 50
356.76383045540058
 51
183.23616954460061
  0
LINE
  5
479
  8
DATA
  6
CONTINUOUS
 62
     7
 10
-8.7722456472020198
 20
-201.9083264217484
 30
0.0
 11
-8.7722456472020198
 21
-211.66936507986301
 31
0.0
  0
LINE
  5
47A
  8
DATA
  6
CONTINUOUS
 62
     7
 10
22.27224564720203
 20
-201.9083264217484
 30
0.0
 11
22.27224564720203
 21
-211.66936507986301
 31
0.0
  0
ARC
  5
47B
  8
DATA
  6
CONTINUOUS
 62
     7
 10
6.7500000000000071
 20
-177.0392872629443
 30
0.0
 40
29.35284835750679
 50
238.07453190795451
 51
255.51660896947541
  0
ARC
  5
47C
  8
DATA
  6
CONTINUOUS
 62
     7
 10
6.7500000000000071
 20
-177.0392872629443
 30
0.0
 40
29.352848357506812
 50
284.48339103052467
 51
301.92546809204561
  0
ARC
  5
47D
  8
DATA
  6
CONTINUOUS
 62
     7
 10
6.7500000000000071
 20
-226.8211664197637
 30
0.0
 40
29.35284835750679
 50
58.074531907954437
 51
78.912005943533913
  0
ARC
  5
47E
  8
DATA
  6
CONTINUOUS
 62
     7
 10
6.7500000000000071
 20
-226.8211664197637
 30
0.0
 40
29.35284835750678
 50
101.2137734268867
 51
121.92546809204561
  0
ARC
  5
47F
  8
DATA
  6
CONTINUOUS
 62
     7
 10
22.27224564720203
 20
-212.76343417391919
 30
0.0
 40
3.2634341739192139
 50
50.445673738084473
 51
90.0
  0
ARC
  5
480
  8
DATA
  6
CONTINUOUS
 62
     7
 10
-8.0360590148992568
 20
-212.76343417391919
 30
0.0
 40
3.263434173919177
 50
103.0373677607232
 51
137.34277409032811
  0
LINE
  5
481
  8
DATA
  6
CONTINUOUS
 62
     7
 10
187.0
 20
-229.3789909621278
 30
0.0
 11
-100.0
 21
-229.3789909621278
 31
0.0
  0
LINE
  5
482
  8
DATA
  6
CONTINUOUS
 62
     7
 10
182.75
 20
-216.52686834783839
 30
0.0
 11
182.75
 21
-229.3789909621278
 31
0.0
  0
LINE
  5
483
  8
DATA
  6
CONTINUOUS
 62
     7
 10
181.0
 20
-221.0
 30
0.0
 11
174.5
 21
-221.0
 31
0.0
  0
LINE
  5
484
  8
DATA
  6
CONTINUOUS
 62
     7
 10
164.5
 20
-221.0
 30
0.0
 11
157.69999999999999
 21
-221.0
 31
0.0
  0
LINE
  5
485
  8
DATA
  6
CONTINUOUS
 62
     7
 10
147.69999999999999
 20
-221.0
 30
0.0
 11
140.90000000000001
 21
-221.0
 31
0.0
  0
LINE
  5
486
  8
DATA
  6
CONTINUOUS
 62
     7
 10
130.89999999999989
 20
-221.0
 30
0.0
 11
126.73090909090899
 21
-221.0
 31
0.0
  0
LINE
  5
487
  8
DATA
  6
CONTINUOUS
 62
     7
 10
181.5
 20
-221.5
 30
0.0
 11
181.5
 21
-229.3789909621278
 31
0.0
  0
LINE
  5
488
  8
DATA
  6
CONTINUOUS
 62
     7
 10
174.49999999999989
 20
-223.86497074963361
 30
0.0
 11
164.5
 21
-223.86497074963361
 31
0.0
  0
LINE
  5
489
  8
DATA
  6
CONTINUOUS
 62
     7
 10
174.49999999999989
 20
-227.01311889778171
 30
0.0
 11
164.5
 21
-227.01311889778171
 31
0.0
  0
LINE
  5
48A
  8
DATA
  6
CONTINUOUS
 62
     7
 10
174.49999999999989
 20
-228.47685185185179
 30
0.0
 11
164.5
 21
-228.47685185185179
 31
0.0
  0
LINE
  5
48B
  8
DATA
  6
CONTINUOUS
 62
     7
 10
174.49999999999989
 20
-223.86497074963361
 30
0.0
 11
174.49999999999989
 21
-228.47685185185179
 31
0.0
  0
LINE
  5
48C
  8
DATA
  6
CONTINUOUS
 62
     7
 10
164.5
 20
-223.86497074963361
 30
0.0
 11
164.5
 21
-228.47685185185179
 31
0.0
  0
LINE
  5
48D
  8
DATA
  6
CONTINUOUS
 62
     7
 10
157.69999999999999
 20
-223.86497074963361
 30
0.0
 11
147.69999999999999
 21
-223.86497074963361
 31
0.0
  0
LINE
  5
48E
  8
DATA
  6
CONTINUOUS
 62
     7
 10
157.69999999999999
 20
-227.01311889778171
 30
0.0
 11
147.69999999999999
 21
-227.01311889778171
 31
0.0
  0
LINE
  5
48F
  8
DATA
  6
CONTINUOUS
 62
     7
 10
157.69999999999999
 20
-228.47685185185179
 30
0.0
 11
147.69999999999999
 21
-228.47685185185179
 31
0.0
  0
LINE
  5
490
  8
DATA
  6
CONTINUOUS
 62
     7
 10
157.69999999999999
 20
-223.86497074963361
 30
0.0
 11
157.69999999999999
 21
-228.47685185185179
 31
0.0
  0
LINE
  5
491
  8
DATA
  6
CONTINUOUS
 62
     7
 10
147.69999999999999
 20
-223.86497074963361
 30
0.0
 11
147.69999999999999
 21
-228.47685185185179
 31
0.0
  0
LINE
  5
492
  8
DATA
  6
CONTINUOUS
 62
     7
 10
140.89999999999989
 20
-223.86497074963361
 30
0.0
 11
130.90000000000001
 21
-223.86497074963361
 31
0.0
  0
LINE
  5
493
  8
DATA
  6
CONTINUOUS
 62
     7
 10
140.89999999999989
 20
-227.01311889778171
 30
0.0
 11
130.90000000000001
 21
-227.01311889778171
 31
0.0
  0
LINE
  5
494
  8
DATA
  6
CONTINUOUS
 62
     7
 10
140.89999999999989
 20
-228.47685185185179
 30
0.0
 11
130.90000000000001
 21
-228.47685185185179
 31
0.0
  0
LINE
  5
495
  8
DATA
  6
CONTINUOUS
 62
     7
 10
140.89999999999989
 20
-223.86497074963361
 30
0.0
 11
140.89999999999989
 21
-228.47685185185179
 31
0.0
  0
LINE
  5
496
  8
DATA
  6
CONTINUOUS
 62
     7
 10
130.90000000000001
 20
-223.86497074963361
 30
0.0
 11
130.90000000000001
 21
-228.47685185185179
 31
0.0
  0
LINE
  5
497
  8
DATA
  6
CONTINUOUS
 62
     7
 10
124.09999999999989
 20
-223.86497074963361
 30
0.0
 11
114.09999999999999
 21
-223.86497074963361
 31
0.0
  0
LINE
  5
498
  8
DATA
  6
CONTINUOUS
 62
     7
 10
124.09999999999989
 20
-227.01311889778171
 30
0.0
 11
114.09999999999999
 21
-227.01311889778171
 31
0.0
  0
LINE
  5
499
  8
DATA
  6
CONTINUOUS
 62
     7
 10
124.09999999999989
 20
-228.47685185185179
 30
0.0
 11
114.09999999999999
 21
-228.47685185185179
 31
0.0
  0
LINE
  5
49A
  8
DATA
  6
CONTINUOUS
 62
     7
 10
124.09999999999989
 20
-223.86497074963361
 30
0.0
 11
124.09999999999989
 21
-228.47685185185179
 31
0.0
  0
LINE
  5
49B
  8
DATA
  6
CONTINUOUS
 62
     7
 10
114.09999999999999
 20
-223.86497074963361
 30
0.0
 11
114.09999999999999
 21
-228.47685185185179
 31
0.0
  0
LINE
  5
49C
  8
DATA
  6
CONTINUOUS
 62
     7
 10
107.2999999999999
 20
-223.86497074963361
 30
0.0
 11
97.299999999999997
 21
-223.86497074963361
 31
0.0
  0
LINE
  5
49D
  8
DATA
  6
CONTINUOUS
 62
     7
 10
107.2999999999999
 20
-227.01311889778171
 30
0.0
 11
97.299999999999997
 21
-227.01311889778171
 31
0.0
  0
LINE
  5
49E
  8
DATA
  6
CONTINUOUS
 62
     7
 10
107.2999999999999
 20
-228.47685185185179
 30
0.0
 11
97.299999999999997
 21
-228.47685185185179
 31
0.0
  0
LINE
  5
49F
  8
DATA
  6
CONTINUOUS
 62
     7
 10
107.2999999999999
 20
-223.86497074963361
 30
0.0
 11
107.2999999999999
 21
-228.47685185185179
 31
0.0
  0
LINE
  5
4A0
  8
DATA
  6
CONTINUOUS
 62
     7
 10
97.299999999999997
 20
-223.86497074963361
 30
0.0
 11
97.299999999999997
 21
-228.47685185185179
 31
0.0
  0
LINE
  5
4A1
  8
DATA
  6
CONTINUOUS
 62
     7
 10
90.499999999999943
 20
-223.86497074963361
 30
0.0
 11
80.500000000000014
 21
-223.86497074963361
 31
0.0
  0
LINE
  5
4A2
  8
DATA
  6
CONTINUOUS
 62
     7
 10
90.499999999999943
 20
-227.01311889778171
 30
0.0
 11
80.5
 21
-227.01311889778171
 31
0.0
  0
LINE
  5
4A3
  8
DATA
  6
CONTINUOUS
 62
     7
 10
90.499999999999943
 20
-228.47685185185179
 30
0.0
 11
80.5
 21
-228.47685185185179
 31
0.0
  0
LINE
  5
4A4
  8
DATA
  6
CONTINUOUS
 62
     7
 10
90.499999999999943
 20
-223.86497074963361
 30
0.0
 11
90.499999999999943
 21
-228.47685185185179
 31
0.0
  0
LINE
  5
4A5
  8
DATA
  6
CONTINUOUS
 62
     7
 10
80.5
 20
-223.86497074963361
 30
0.0
 11
80.5
 21
-228.47685185185179
 31
0.0
  0
LINE
  5
4A6
  8
DATA
  6
CONTINUOUS
 62
     7
 10
73.699999999999974
 20
-223.86497074963361
 30
0.0
 11
63.70000000000001
 21
-223.86497074963361
 31
0.0
  0
LINE
  5
4A7
  8
DATA
  6
CONTINUOUS
 62
     7
 10
73.699999999999974
 20
-227.01311889778171
 30
0.0
 11
63.700000000000003
 21
-227.01311889778171
 31
0.0
  0
LINE
  5
4A8
  8
DATA
  6
CONTINUOUS
 62
     7
 10
73.699999999999974
 20
-228.47685185185179
 30
0.0
 11
63.700000000000003
 21
-228.47685185185179
 31
0.0
  0
LINE
  5
4A9
  8
DATA
  6
CONTINUOUS
 62
     7
 10
73.699999999999974
 20
-223.86497074963361
 30
0.0
 11
73.699999999999974
 21
-228.47685185185179
 31
0.0
  0
LINE
  5
4AA
  8
DATA
  6
CONTINUOUS
 62
     7
 10
63.700000000000003
 20
-223.86497074963361
 30
0.0
 11
63.700000000000003
 21
-228.47685185185179
 31
0.0
  0
LINE
  5
4AB
  8
DATA
  6
CONTINUOUS
 62
     7
 10
56.899999999999977
 20
-223.86497074963361
 30
0.0
 11
46.90000000000002
 21
-223.86497074963361
 31
0.0
  0
LINE
  5
4AC
  8
DATA
  6
CONTINUOUS
 62
     7
 10
56.899999999999977
 20
-227.01311889778171
 30
0.0
 11
46.900000000000013
 21
-227.01311889778171
 31
0.0
  0
LINE
  5
4AD
  8
DATA
  6
CONTINUOUS
 62
     7
 10
56.899999999999977
 20
-228.47685185185179
 30
0.0
 11
46.900000000000013
 21
-228.47685185185179
 31
0.0
  0
LINE
  5
4AE
  8
DATA
  6
CONTINUOUS
 62
     7
 10
56.899999999999977
 20
-223.86497074963361
 30
0.0
 11
56.899999999999977
 21
-228.47685185185179
 31
0.0
  0
LINE
  5
4AF
  8
DATA
  6
CONTINUOUS
 62
     7
 10
46.900000000000013
 20
-223.86497074963361
 30
0.0
 11
46.900000000000013
 21
-228.47685185185179
 31
0.0
  0
LINE
  5
4B0
  8
DATA
  6
CONTINUOUS
 62
     7
 10
40.099999999999973
 20
-223.86497074963361
 30
0.0
 11
30.100000000000009
 21
-223.86497074963361
 31
0.0
  0
LINE
  5
4B1
  8
DATA
  6
CONTINUOUS
 62
     7
 10
40.099999999999973
 20
-227.01311889778171
 30
0.0
 11
30.100000000000001
 21
-227.01311889778171
 31
0.0
  0
LINE
  5
4B2
  8
DATA
  6
CONTINUOUS
 62
     7
 10
40.099999999999973
 20
-228.47685185185179
 30
0.0
 11
30.100000000000001
 21
-228.47685185185179
 31
0.0
  0
LINE
  5
4B3
  8
DATA
  6
CONTINUOUS
 62
     7
 10
40.099999999999973
 20
-223.86497074963361
 30
0.0
 11
40.099999999999973
 21
-228.47685185185179
 31
0.0
  0
LINE
  5
4B4
  8
DATA
  6
CONTINUOUS
 62
     7
 10
30.100000000000001
 20
-223.86497074963361
 30
0.0
 11
30.100000000000001
 21
-228.47685185185179
 31
0.0
  0
LINE
  5
4B5
  8
DATA
  6
CONTINUOUS
 62
     7
 10
23.299999999999951
 20
-223.86497074963361
 30
0.0
 11
13.29999999999999
 21
-223.86497074963361
 31
0.0
  0
LINE
  5
4B6
  8
DATA
  6
CONTINUOUS
 62
     7
 10
23.299999999999951
 20
-227.01311889778171
 30
0.0
 11
13.299999999999979
 21
-227.01311889778171
 31
0.0
  0
LINE
  5
4B7
  8
DATA
  6
CONTINUOUS
 62
     7
 10
23.299999999999951
 20
-228.47685185185179
 30
0.0
 11
13.299999999999979
 21
-228.47685185185179
 31
0.0
  0
LINE
  5
4B8
  8
DATA
  6
CONTINUOUS
 62
     7
 10
23.299999999999951
 20
-223.86497074963361
 30
0.0
 11
23.299999999999951
 21
-228.47685185185179
 31
0.0
  0
LINE
  5
4B9
  8
DATA
  6
CONTINUOUS
 62
     7
 10
13.299999999999979
 20
-223.86497074963361
 30
0.0
 11
13.299999999999979
 21
-228.47685185185179
 31
0.0
  0
LINE
  5
4BA
  8
DATA
  6
CONTINUOUS
 62
     7
 10
6.4999999999999432
 20
-223.86497074963361
 30
0.0
 11
-3.5000000000000142
 21
-223.86497074963361
 31
0.0
  0
LINE
  5
4BB
  8
DATA
  6
CONTINUOUS
 62
     7
 10
6.4999999999999432
 20
-227.01311889778171
 30
0.0
 11
-3.500000000000028
 21
-227.01311889778171
 31
0.0
  0
LINE
  5
4BC
  8
DATA
  6
CONTINUOUS
 62
     7
 10
6.4999999999999432
 20
-228.47685185185179
 30
0.0
 11
-3.500000000000028
 21
-228.47685185185179
 31
0.0
  0
LINE
  5
4BD
  8
DATA
  6
CONTINUOUS
 62
     7
 10
6.4999999999999432
 20
-223.86497074963361
 30
0.0
 11
6.4999999999999432
 21
-228.47685185185179
 31
0.0
  0
LINE
  5
4BE
  8
DATA
  6
CONTINUOUS
 62
     7
 10
-3.500000000000028
 20
-223.86497074963361
 30
0.0
 11
-3.500000000000028
 21
-228.47685185185179
 31
0.0
  0
LINE
  5
4BF
  8
DATA
  6
CONTINUOUS
 62
     7
 10
-10.30000000000007
 20
-223.86497074963361
 30
0.0
 11
-20.300000000000018
 21
-223.86497074963361
 31
0.0
  0
LINE
  5
4C0
  8
DATA
  6
CONTINUOUS
 62
     7
 10
-10.30000000000007
 20
-227.01311889778171
 30
0.0
 11
-20.30000000000004
 21
-227.01311889778171
 31
0.0
  0
LINE
  5
4C1
  8
DATA
  6
CONTINUOUS
 62
     7
 10
-10.30000000000007
 20
-228.47685185185179
 30
0.0
 11
-20.30000000000004
 21
-228.47685185185179
 31
0.0
  0
LINE
  5
4C2
  8
DATA
  6
CONTINUOUS
 62
     7
 10
-10.30000000000007
 20
-223.86497074963361
 30
0.0
 11
-10.30000000000007
 21
-228.47685185185179
 31
0.0
  0
LINE
  5
4C3
  8
DATA
  6
CONTINUOUS
 62
     7
 10
-20.30000000000004
 20
-223.86497074963361
 30
0.0
 11
-20.30000000000004
 21
-228.47685185185179
 31
0.0
  0
LINE
  5
4C4
  8
DATA
  6
CONTINUOUS
 62
     7
 10
-27.10000000000008
 20
-223.86497074963361
 30
0.0
 11
-37.100000000000037
 21
-223.86497074963361
 31
0.0
  0
LINE
  5
4C5
  8
DATA
  6
CONTINUOUS
 62
     7
 10
-27.10000000000008
 20
-227.01311889778171
 30
0.0
 11
-37.100000000000051
 21
-227.01311889778171
 31
0.0
  0
LINE
  5
4C6
  8
DATA
  6
CONTINUOUS
 62
     7
 10
-27.10000000000008
 20
-228.47685185185179
 30
0.0
 11
-37.100000000000051
 21
-228.47685185185179
 31
0.0
  0
LINE
  5
4C7
  8
DATA
  6
CONTINUOUS
 62
     7
 10
-27.10000000000008
 20
-223.86497074963361
 30
0.0
 11
-27.10000000000008
 21
-228.47685185185179
 31
0.0
  0
LINE
  5
4C8
  8
DATA
  6
CONTINUOUS
 62
     7
 10
-37.100000000000051
 20
-223.86497074963361
 30
0.0
 11
-37.100000000000051
 21
-228.47685185185179
 31
0.0
  0
LINE
  5
4C9
  8
DATA
  6
CONTINUOUS
 62
     7
 10
-43.900000000000098
 20
-223.86497074963361
 30
0.0
 11
-53.900000000000048
 21
-223.86497074963361
 31
0.0
  0
LINE
  5
4CA
  8
DATA
  6
CONTINUOUS
 62
     7
 10
-43.900000000000098
 20
-227.01311889778171
 30
0.0
 11
-53.90000000000007
 21
-227.01311889778171
 31
0.0
  0
LINE
  5
4CB
  8
DATA
  6
CONTINUOUS
 62
     7
 10
-43.900000000000098
 20
-228.47685185185179
 30
0.0
 11
-53.90000000000007
 21
-228.47685185185179
 31
0.0
  0
LINE
  5
4CC
  8
DATA
  6
CONTINUOUS
 62
     7
 10
-43.900000000000098
 20
-223.86497074963361
 30
0.0
 11
-43.900000000000098
 21
-228.47685185185179
 31
0.0
  0
LINE
  5
4CD
  8
DATA
  6
CONTINUOUS
 62
     7
 10
-53.90000000000007
 20
-223.86497074963361
 30
0.0
 11
-53.90000000000007
 21
-228.47685185185179
 31
0.0
  0
LINE
  5
4CE
  8
DATA
  6
CONTINUOUS
 62
     7
 10
-60.700000000000102
 20
-223.86497074963361
 30
0.0
 11
-70.70000000000006
 21
-223.86497074963361
 31
0.0
  0
LINE
  5
4CF
  8
DATA
  6
CONTINUOUS
 62
     7
 10
-60.700000000000102
 20
-227.01311889778171
 30
0.0
 11
-70.700000000000074
 21
-227.01311889778171
 31
0.0
  0
LINE
  5
4D0
  8
DATA
  6
CONTINUOUS
 62
     7
 10
-60.700000000000102
 20
-228.47685185185179
 30
0.0
 11
-70.700000000000074
 21
-228.47685185185179
 31
0.0
  0
LINE
  5
4D1
  8
DATA
  6
CONTINUOUS
 62
     7
 10
-60.700000000000102
 20
-223.86497074963361
 30
0.0
 11
-60.700000000000102
 21
-228.47685185185179
 31
0.0
  0
LINE
  5
4D2
  8
DATA
  6
CONTINUOUS
 62
     7
 10
-70.700000000000074
 20
-223.86497074963361
 30
0.0
 11
-70.700000000000074
 21
-228.47685185185179
 31
0.0
  0
LINE
  5
4D3
  8
DATA
  6
CONTINUOUS
 62
     7
 10
-77.500000000000099
 20
-223.86497074963361
 30
0.0
 11
-87.500000000000071
 21
-223.86497074963361
 31
0.0
  0
LINE
  5
4D4
  8
DATA
  6
CONTINUOUS
 62
     7
 10
-77.500000000000099
 20
-227.01311889778171
 30
0.0
 11
-87.500000000000071
 21
-227.01311889778171
 31
0.0
  0
LINE
  5
4D5
  8
DATA
  6
CONTINUOUS
 62
     7
 10
-77.500000000000099
 20
-228.47685185185179
 30
0.0
 11
-87.500000000000071
 21
-228.47685185185179
 31
0.0
  0
LINE
  5
4D6
  8
DATA
  6
CONTINUOUS
 62
     7
 10
-77.500000000000099
 20
-223.86497074963361
 30
0.0
 11
-77.500000000000099
 21
-228.47685185185179
 31
0.0
  0
LINE
  5
4D7
  8
DATA
  6
CONTINUOUS
 62
     7
 10
-87.500000000000071
 20
-223.86497074963361
 30
0.0
 11
-87.500000000000071
 21
-228.47685185185179
 31
0.0
  0
LINE
  5
4D8
  8
DATA
  6
CONTINUOUS
 62
     7
 10
126.73090909090899
 20
-216.02686834783839
 30
0.0
 11
126.73090909090899
 21
-221.0
 31
0.0
  0
LINE
  5
4D9
  8
DATA
  6
CONTINUOUS
 62
     7
 10
120.7554545454545
 20
-217.8565578155949
 30
0.0
 11
120.7554545454545
 21
-222.5
 31
0.0
  0
LINE
  5
4DA
  8
DATA
  6
CONTINUOUS
 62
     7
 10
120.7554545454545
 20
-222.5
 30
0.0
 11
-92.641003646631717
 21
-222.5
 31
0.0
  0
LINE
  5
4DB
  8
DATA
  6
CONTINUOUS
 62
     7
 10
120.7554545454545
 20
-222.5
 30
0.0
 11
126.73090909090899
 21
-221.0
 31
0.0
  0
LINE
  5
4DC
  8
DATA
  6
CONTINUOUS
 62
     7
 10
184.19999999999999
 20
-216.0
 30
0.0
 11
126.73090909090899
 21
-216.02686834783839
 31
0.0
  0
LINE
  5
4DD
  8
DATA
  6
CONTINUOUS
 62
     7
 10
120.7554545454545
 20
-217.8565578155949
 30
0.0
 11
-95.25
 21
-217.8565578155949
 31
0.0
  0
LINE
  5
4DE
  8
DATA
  6
CONTINUOUS
 62
     7
 10
120.7554545454545
 20
-217.8565578155949
 30
0.0
 11
126.73090909090899
 21
-216.02686834783839
 31
0.0
  0
ARC
  5
4DF
  8
DATA
  6
CONTINUOUS
 62
     7
 10
6.7500000000000071
 20
-186.7565250818478
 30
0.0
 40
29.352848357506801
 50
234.16176791970759
 51
306.84238654634379
  0
LINE
  5
4E0
  8
DATA
  6
CONTINUOUS
 62
     7
 10
185.75
 20
-209.5
 30
0.0
 11
185.75
 21
-236.43529782451799
 31
0.0
  0
LINE
  5
4E1
  8
DATA
  6
CONTINUOUS
 62
     7
 10
26.199999999999999
 20
-212.54457940784201
 30
0.0
 11
26.199999999999999
 21
-215.0618426430444
 31
0.0
  0
LINE
  5
4E2
  8
DATA
  6
CONTINUOUS
 62
     7
 10
31.5
 20
-212.54457940784201
 30
0.0
 11
31.5
 21
-215.0618426430444
 31
0.0
  0
LINE
  5
4E3
  8
DATA
  6
CONTINUOUS
 62
     7
 10
37.5
 20
-212.54457940784201
 30
0.0
 11
37.5
 21
-215.0618426430444
 31
0.0
  0
LINE
  5
4E4
  8
DATA
  6
CONTINUOUS
 62
     7
 10
47.5
 20
-212.54457940784201
 30
0.0
 11
47.5
 21
-215.0618426430444
 31
0.0
  0
LINE
  5
4E5
  8
DATA
  6
CONTINUOUS
 62
     7
 10
54.0
 20
-212.54457940784201
 30
0.0
 11
54.0
 21
-215.0618426430444
 31
0.0
  0
LINE
  5
4E6
  8
DATA
  6
CONTINUOUS
 62
     7
 10
64.0
 20
-212.54457940784201
 30
0.0
 11
64.0
 21
-215.0618426430444
 31
0.0
  0
LINE
  5
4E7
  8
DATA
  6
CONTINUOUS
 62
     7
 10
70.5
 20
-212.54457940784201
 30
0.0
 11
70.5
 21
-215.0618426430444
 31
0.0
  0
LINE
  5
4E8
  8
DATA
  6
CONTINUOUS
 62
     7
 10
80.5
 20
-212.54457940784201
 30
0.0
 11
80.5
 21
-215.0618426430444
 31
0.0
  0
POLYLINE
  5
4E9
  8
DATA
  6
CONTINUOUS
 62
     7
 66
     1
 10
0.0
 20
0.0
 30
0.0
 70
     1
  0
VERTEX
  5
9EE
  8
DATA
  6
CONTINUOUS
 62
     7
 10
167.7138417701633
 20
-141.7653847403945
 30
0.0
  0
VERTEX
  5
9EF
  8
DATA
  6
CONTINUOUS
 62
     7
 10
170.7138417701633
 20
-141.7653847403945
 30
0.0
  0
VERTEX
  5
9F0
  8
DATA
  6
CONTINUOUS
 62
     7
 10
170.7138417701633
 20
-142.96538474039451
 30
0.0
  0
VERTEX
  5
9F1
  8
DATA
  6
CONTINUOUS
 62
     7
 10
167.7138417701633
 20
-142.96538474039451
 30
0.0
  0
SEQEND
  5
9F2
  8
DATA
  6
CONTINUOUS
 62
     7
  0
POLYLINE
  5
4F0
  8
DATA
  6
CONTINUOUS
 62
     7
 66
     1
 10
0.0
 20
0.0
 30
0.0
 70
     1
  0
VERTEX
  5
9F3
  8
DATA
  6
CONTINUOUS
 62
     7
 10
150.91384177016329
 20
-124.9653847403945
 30
0.0
  0
VERTEX
  5
9F4
  8
DATA
  6
CONTINUOUS
 62
     7
 10
153.91384177016329
 20
-124.9653847403945
 30
0.0
  0
VERTEX
  5
9F5
  8
DATA
  6
CONTINUOUS
 62
     7
 10
153.91384177016329
 20
-126.1653847403945
 30
0.0
  0
VERTEX
  5
9F6
  8
DATA
  6
CONTINUOUS
 62
     7
 10
150.91384177016329
 20
-126.1653847403945
 30
0.0
  0
SEQEND
  5
9F7
  8
DATA
  6
CONTINUOUS
 62
     7
  0
POLYLINE
  5
4F7
  8
DATA
  6
CONTINUOUS
 62
     7
 66
     1
 10
0.0
 20
0.0
 30
0.0
 70
     1
  0
VERTEX
  5
9F8
  8
DATA
  6
CONTINUOUS
 62
     7
 10
150.91384177016329
 20
-141.7653847403945
 30
0.0
  0
VERTEX
  5
9F9
  8
DATA
  6
CONTINUOUS
 62
     7
 10
153.91384177016329
 20
-141.7653847403945
 30
0.0
  0
VERTEX
  5
9FA
  8
DATA
  6
CONTINUOUS
 62
     7
 10
153.91384177016329
 20
-142.96538474039451
 30
0.0
  0
VERTEX
  5
9FB
  8
DATA
  6
CONTINUOUS
 62
     7
 10
150.91384177016329
 20
-142.96538474039451
 30
0.0
  0
SEQEND
  5
9FC
  8
DATA
  6
CONTINUOUS
 62
     7
  0
POLYLINE
  5
4FE
  8
DATA
  6
CONTINUOUS
 62
     7
 66
     1
 10
0.0
 20
0.0
 30
0.0
 70
     1
  0
VERTEX
  5
9FD
  8
DATA
  6
CONTINUOUS
 62
     7
 10
134.1138417701633
 20
-124.9653847403945
 30
0.0
  0
VERTEX
  5
9FE
  8
DATA
  6
CONTINUOUS
 62
     7
 10
137.1138417701633
 20
-124.9653847403945
 30
0.0
  0
VERTEX
  5
9FF
  8
DATA
  6
CONTINUOUS
 62
     7
 10
137.1138417701633
 20
-126.1653847403945
 30
0.0
  0
VERTEX
  5
A00
  8
DATA
  6
CONTINUOUS
 62
     7
 10
134.1138417701633
 20
-126.1653847403945
 30
0.0
  0
SEQEND
  5
A01
  8
DATA
  6
CONTINUOUS
 62
     7
  0
POLYLINE
  5
505
  8
DATA
  6
CONTINUOUS
 62
     7
 66
     1
 10
0.0
 20
0.0
 30
0.0
 70
     1
  0
VERTEX
  5
A02
  8
DATA
  6
CONTINUOUS
 62
     7
 10
134.1138417701633
 20
-141.7653847403945
 30
0.0
  0
VERTEX
  5
A03
  8
DATA
  6
CONTINUOUS
 62
     7
 10
137.1138417701633
 20
-141.7653847403945
 30
0.0
  0
VERTEX
  5
A04
  8
DATA
  6
CONTINUOUS
 62
     7
 10
137.1138417701633
 20
-142.96538474039451
 30
0.0
  0
VERTEX
  5
A05
  8
DATA
  6
CONTINUOUS
 62
     7
 10
134.1138417701633
 20
-142.96538474039451
 30
0.0
  0
SEQEND
  5
A06
  8
DATA
  6
CONTINUOUS
 62
     7
  0
POLYLINE
  5
50C
  8
DATA
  6
CONTINUOUS
 62
     7
 66
     1
 10
0.0
 20
0.0
 30
0.0
 70
     1
  0
VERTEX
  5
A07
  8
DATA
  6
CONTINUOUS
 62
     7
 10
117.31384177016329
 20
-124.9653847403945
 30
0.0
  0
VERTEX
  5
A08
  8
DATA
  6
CONTINUOUS
 62
     7
 10
120.31384177016329
 20
-124.9653847403945
 30
0.0
  0
VERTEX
  5
A09
  8
DATA
  6
CONTINUOUS
 62
     7
 10
120.31384177016329
 20
-126.1653847403945
 30
0.0
  0
VERTEX
  5
A0A
  8
DATA
  6
CONTINUOUS
 62
     7
 10
117.31384177016329
 20
-126.1653847403945
 30
0.0
  0
SEQEND
  5
A0B
  8
DATA
  6
CONTINUOUS
 62
     7
  0
POLYLINE
  5
513
  8
DATA
  6
CONTINUOUS
 62
     7
 66
     1
 10
0.0
 20
0.0
 30
0.0
 70
     1
  0
VERTEX
  5
A0C
  8
DATA
  6
CONTINUOUS
 62
     7
 10
117.31384177016329
 20
-141.7653847403945
 30
0.0
  0
VERTEX
  5
A0D
  8
DATA
  6
CONTINUOUS
 62
     7
 10
120.31384177016329
 20
-141.7653847403945
 30
0.0
  0
VERTEX
  5
A0E
  8
DATA
  6
CONTINUOUS
 62
     7
 10
120.31384177016329
 20
-142.96538474039451
 30
0.0
  0
VERTEX
  5
A0F
  8
DATA
  6
CONTINUOUS
 62
     7
 10
117.31384177016329
 20
-142.96538474039451
 30
0.0
  0
SEQEND
  5
A10
  8
DATA
  6
CONTINUOUS
 62
     7
  0
POLYLINE
  5
51A
  8
DATA
  6
CONTINUOUS
 62
     7
 66
     1
 10
0.0
 20
0.0
 30
0.0
 70
     1
  0
VERTEX
  5
A11
  8
DATA
  6
CONTINUOUS
 62
     7
 10
100.5138417701633
 20
-124.9653847403945
 30
0.0
  0
VERTEX
  5
A12
  8
DATA
  6
CONTINUOUS
 62
     7
 10
103.5138417701633
 20
-124.9653847403945
 30
0.0
  0
VERTEX
  5
A13
  8
DATA
  6
CONTINUOUS
 62
     7
 10
103.5138417701633
 20
-126.1653847403945
 30
0.0
  0
VERTEX
  5
A14
  8
DATA
  6
CONTINUOUS
 62
     7
 10
100.5138417701633
 20
-126.1653847403945
 30
0.0
  0
SEQEND
  5
A15
  8
DATA
  6
CONTINUOUS
 62
     7
  0
POLYLINE
  5
521
  8
DATA
  6
CONTINUOUS
 62
     7
 66
     1
 10
0.0
 20
0.0
 30
0.0
 70
     1
  0
VERTEX
  5
A16
  8
DATA
  6
CONTINUOUS
 62
     7
 10
100.5138417701633
 20
-141.7653847403945
 30
0.0
  0
VERTEX
  5
A17
  8
DATA
  6
CONTINUOUS
 62
     7
 10
103.5138417701633
 20
-141.7653847403945
 30
0.0
  0
VERTEX
  5
A18
  8
DATA
  6
CONTINUOUS
 62
     7
 10
103.5138417701633
 20
-142.96538474039451
 30
0.0
  0
VERTEX
  5
A19
  8
DATA
  6
CONTINUOUS
 62
     7
 10
100.5138417701633
 20
-142.96538474039451
 30
0.0
  0
SEQEND
  5
A1A
  8
DATA
  6
CONTINUOUS
 62
     7
  0
POLYLINE
  5
528
  8
DATA
  6
CONTINUOUS
 62
     7
 66
     1
 10
0.0
 20
0.0
 30
0.0
 70
     1
  0
VERTEX
  5
A1B
  8
DATA
  6
CONTINUOUS
 62
     7
 10
83.713841770163327
 20
-124.9653847403945
 30
0.0
  0
VERTEX
  5
A1C
  8
DATA
  6
CONTINUOUS
 62
     7
 10
86.713841770163327
 20
-124.9653847403945
 30
0.0
  0
VERTEX
  5
A1D
  8
DATA
  6
CONTINUOUS
 62
     7
 10
86.713841770163327
 20
-126.1653847403945
 30
0.0
  0
VERTEX
  5
A1E
  8
DATA
  6
CONTINUOUS
 62
     7
 10
83.713841770163327
 20
-126.1653847403945
 30
0.0
  0
SEQEND
  5
A1F
  8
DATA
  6
CONTINUOUS
 62
     7
  0
POLYLINE
  5
52F
  8
DATA
  6
CONTINUOUS
 62
     7
 66
     1
 10
0.0
 20
0.0
 30
0.0
 70
     1
  0
VERTEX
  5
A20
  8
DATA
  6
CONTINUOUS
 62
     7
 10
83.713841770163327
 20
-141.7653847403945
 30
0.0
  0
VERTEX
  5
A21
  8
DATA
  6
CONTINUOUS
 62
     7
 10
86.713841770163327
 20
-141.7653847403945
 30
0.0
  0
VERTEX
  5
A22
  8
DATA
  6
CONTINUOUS
 62
     7
 10
86.713841770163327
 20
-142.96538474039451
 30
0.0
  0
VERTEX
  5
A23
  8
DATA
  6
CONTINUOUS
 62
     7
 10
83.713841770163327
 20
-142.96538474039451
 30
0.0
  0
SEQEND
  5
A24
  8
DATA
  6
CONTINUOUS
 62
     7
  0
POLYLINE
  5
536
  8
DATA
  6
CONTINUOUS
 62
     7
 66
     1
 10
0.0
 20
0.0
 30
0.0
 70
     1
  0
VERTEX
  5
A25
  8
DATA
  6
CONTINUOUS
 62
     7
 10
66.91384177016333
 20
-124.9653847403945
 30
0.0
  0
VERTEX
  5
A26
  8
DATA
  6
CONTINUOUS
 62
     7
 10
69.91384177016333
 20
-124.9653847403945
 30
0.0
  0
VERTEX
  5
A27
  8
DATA
  6
CONTINUOUS
 62
     7
 10
69.91384177016333
 20
-126.1653847403945
 30
0.0
  0
VERTEX
  5
A28
  8
DATA
  6
CONTINUOUS
 62
     7
 10
66.91384177016333
 20
-126.1653847403945
 30
0.0
  0
SEQEND
  5
A29
  8
DATA
  6
CONTINUOUS
 62
     7
  0
POLYLINE
  5
53D
  8
DATA
  6
CONTINUOUS
 62
     7
 66
     1
 10
0.0
 20
0.0
 30
0.0
 70
     1
  0
VERTEX
  5
A2A
  8
DATA
  6
CONTINUOUS
 62
     7
 10
66.91384177016333
 20
-141.7653847403945
 30
0.0
  0
VERTEX
  5
A2B
  8
DATA
  6
CONTINUOUS
 62
     7
 10
69.91384177016333
 20
-141.7653847403945
 30
0.0
  0
VERTEX
  5
A2C
  8
DATA
  6
CONTINUOUS
 62
     7
 10
69.91384177016333
 20
-142.96538474039451
 30
0.0
  0
VERTEX
  5
A2D
  8
DATA
  6
CONTINUOUS
 62
     7
 10
66.91384177016333
 20
-142.96538474039451
 30
0.0
  0
SEQEND
  5
A2E
  8
DATA
  6
CONTINUOUS
 62
     7
  0
POLYLINE
  5
544
  8
DATA
  6
CONTINUOUS
 62
     7
 66
     1
 10
0.0
 20
0.0
 30
0.0
 70
     1
  0
VERTEX
  5
A2F
  8
DATA
  6
CONTINUOUS
 62
     7
 10
50.113841770163319
 20
-124.9653847403945
 30
0.0
  0
VERTEX
  5
A30
  8
DATA
  6
CONTINUOUS
 62
     7
 10
53.113841770163319
 20
-124.9653847403945
 30
0.0
  0
VERTEX
  5
A31
  8
DATA
  6
CONTINUOUS
 62
     7
 10
53.113841770163319
 20
-126.1653847403945
 30
0.0
  0
VERTEX
  5
A32
  8
DATA
  6
CONTINUOUS
 62
     7
 10
50.113841770163319
 20
-126.1653847403945
 30
0.0
  0
SEQEND
  5
A33
  8
DATA
  6
CONTINUOUS
 62
     7
  0
POLYLINE
  5
54B
  8
DATA
  6
CONTINUOUS
 62
     7
 66
     1
 10
0.0
 20
0.0
 30
0.0
 70
     1
  0
VERTEX
  5
A34
  8
DATA
  6
CONTINUOUS
 62
     7
 10
50.113841770163319
 20
-141.7653847403945
 30
0.0
  0
VERTEX
  5
A35
  8
DATA
  6
CONTINUOUS
 62
     7
 10
53.113841770163319
 20
-141.7653847403945
 30
0.0
  0
VERTEX
  5
A36
  8
DATA
  6
CONTINUOUS
 62
     7
 10
53.113841770163319
 20
-142.96538474039451
 30
0.0
  0
VERTEX
  5
A37
  8
DATA
  6
CONTINUOUS
 62
     7
 10
50.113841770163319
 20
-142.96538474039451
 30
0.0
  0
SEQEND
  5
A38
  8
DATA
  6
CONTINUOUS
 62
     7
  0
POLYLINE
  5
552
  8
DATA
  6
CONTINUOUS
 62
     7
 66
     1
 10
0.0
 20
0.0
 30
0.0
 70
     1
  0
VERTEX
  5
A39
  8
DATA
  6
CONTINUOUS
 62
     7
 10
33.313841770163322
 20
-124.9653847403945
 30
0.0
  0
VERTEX
  5
A3A
  8
DATA
  6
CONTINUOUS
 62
     7
 10
36.313841770163322
 20
-124.9653847403945
 30
0.0
  0
VERTEX
  5
A3B
  8
DATA
  6
CONTINUOUS
 62
     7
 10
36.313841770163322
 20
-126.1653847403945
 30
0.0
  0
VERTEX
  5
A3C
  8
DATA
  6
CONTINUOUS
 62
     7
 10
33.313841770163322
 20
-126.1653847403945
 30
0.0
  0
SEQEND
  5
A3D
  8
DATA
  6
CONTINUOUS
 62
     7
  0
POLYLINE
  5
559
  8
DATA
  6
CONTINUOUS
 62
     7
 66
     1
 10
0.0
 20
0.0
 30
0.0
 70
     1
  0
VERTEX
  5
A3E
  8
DATA
  6
CONTINUOUS
 62
     7
 10
33.313841770163322
 20
-141.7653847403945
 30
0.0
  0
VERTEX
  5
A3F
  8
DATA
  6
CONTINUOUS
 62
     7
 10
36.313841770163322
 20
-141.7653847403945
 30
0.0
  0
VERTEX
  5
A40
  8
DATA
  6
CONTINUOUS
 62
     7
 10
36.313841770163322
 20
-142.96538474039451
 30
0.0
  0
VERTEX
  5
A41
  8
DATA
  6
CONTINUOUS
 62
     7
 10
33.313841770163322
 20
-142.96538474039451
 30
0.0
  0
SEQEND
  5
A42
  8
DATA
  6
CONTINUOUS
 62
     7
  0
POLYLINE
  5
560
  8
DATA
  6
CONTINUOUS
 62
     7
 66
     1
 10
0.0
 20
0.0
 30
0.0
 70
     1
  0
VERTEX
  5
A43
  8
DATA
  6
CONTINUOUS
 62
     7
 10
16.51384177016331
 20
-124.9653847403945
 30
0.0
  0
VERTEX
  5
A44
  8
DATA
  6
CONTINUOUS
 62
     7
 10
19.51384177016331
 20
-124.9653847403945
 30
0.0
  0
VERTEX
  5
A45
  8
DATA
  6
CONTINUOUS
 62
     7
 10
19.51384177016331
 20
-126.1653847403945
 30
0.0
  0
VERTEX
  5
A46
  8
DATA
  6
CONTINUOUS
 62
     7
 10
16.51384177016331
 20
-126.1653847403945
 30
0.0
  0
SEQEND
  5
A47
  8
DATA
  6
CONTINUOUS
 62
     7
  0
POLYLINE
  5
567
  8
DATA
  6
CONTINUOUS
 62
     7
 66
     1
 10
0.0
 20
0.0
 30
0.0
 70
     1
  0
VERTEX
  5
A48
  8
DATA
  6
CONTINUOUS
 62
     7
 10
16.51384177016331
 20
-141.7653847403945
 30
0.0
  0
VERTEX
  5
A49
  8
DATA
  6
CONTINUOUS
 62
     7
 10
19.51384177016331
 20
-141.7653847403945
 30
0.0
  0
VERTEX
  5
A4A
  8
DATA
  6
CONTINUOUS
 62
     7
 10
19.51384177016331
 20
-142.96538474039451
 30
0.0
  0
VERTEX
  5
A4B
  8
DATA
  6
CONTINUOUS
 62
     7
 10
16.51384177016331
 20
-142.96538474039451
 30
0.0
  0
SEQEND
  5
A4C
  8
DATA
  6
CONTINUOUS
 62
     7
  0
POLYLINE
  5
56E
  8
DATA
  6
CONTINUOUS
 62
     7
 66
     1
 10
0.0
 20
0.0
 30
0.0
 70
     1
  0
VERTEX
  5
A4D
  8
DATA
  6
CONTINUOUS
 62
     7
 10
-0.2861582298367011
 20
-124.9653847403945
 30
0.0
  0
VERTEX
  5
A4E
  8
DATA
  6
CONTINUOUS
 62
     7
 10
2.713841770163298
 20
-124.9653847403945
 30
0.0
  0
VERTEX
  5
A4F
  8
DATA
  6
CONTINUOUS
 62
     7
 10
2.713841770163298
 20
-126.1653847403945
 30
0.0
  0
VERTEX
  5
A50
  8
DATA
  6
CONTINUOUS
 62
     7
 10
-0.2861582298367011
 20
-126.1653847403945
 30
0.0
  0
SEQEND
  5
A51
  8
DATA
  6
CONTINUOUS
 62
     7
  0
POLYLINE
  5
575
  8
DATA
  6
CONTINUOUS
 62
     7
 66
     1
 10
0.0
 20
0.0
 30
0.0
 70
     1
  0
VERTEX
  5
A52
  8
DATA
  6
CONTINUOUS
 62
     7
 10
-0.2861582298367011
 20
-141.7653847403945
 30
0.0
  0
VERTEX
  5
A53
  8
DATA
  6
CONTINUOUS
 62
     7
 10
2.713841770163298
 20
-141.7653847403945
 30
0.0
  0
VERTEX
  5
A54
  8
DATA
  6
CONTINUOUS
 62
     7
 10
2.713841770163298
 20
-142.96538474039451
 30
0.0
  0
VERTEX
  5
A55
  8
DATA
  6
CONTINUOUS
 62
     7
 10
-0.2861582298367011
 20
-142.96538474039451
 30
0.0
  0
SEQEND
  5
A56
  8
DATA
  6
CONTINUOUS
 62
     7
  0
POLYLINE
  5
57C
  8
DATA
  6
CONTINUOUS
 62
     7
 66
     1
 10
0.0
 20
0.0
 30
0.0
 70
     1
  0
VERTEX
  5
A57
  8
DATA
  6
CONTINUOUS
 62
     7
 10
-17.086158229836709
 20
-124.9653847403945
 30
0.0
  0
VERTEX
  5
A58
  8
DATA
  6
CONTINUOUS
 62
     7
 10
-14.086158229836711
 20
-124.9653847403945
 30
0.0
  0
VERTEX
  5
A59
  8
DATA
  6
CONTINUOUS
 62
     7
 10
-14.086158229836711
 20
-126.1653847403945
 30
0.0
  0
VERTEX
  5
A5A
  8
DATA
  6
CONTINUOUS
 62
     7
 10
-17.086158229836709
 20
-126.1653847403945
 30
0.0
  0
SEQEND
  5
A5B
  8
DATA
  6
CONTINUOUS
 62
     7
  0
POLYLINE
  5
583
  8
DATA
  6
CONTINUOUS
 62
     7
 66
     1
 10
0.0
 20
0.0
 30
0.0
 70
     1
  0
VERTEX
  5
A5C
  8
DATA
  6
CONTINUOUS
 62
     7
 10
-17.086158229836709
 20
-141.7653847403945
 30
0.0
  0
VERTEX
  5
A5D
  8
DATA
  6
CONTINUOUS
 62
     7
 10
-14.086158229836711
 20
-141.7653847403945
 30
0.0
  0
VERTEX
  5
A5E
  8
DATA
  6
CONTINUOUS
 62
     7
 10
-14.086158229836711
 20
-142.96538474039451
 30
0.0
  0
VERTEX
  5
A5F
  8
DATA
  6
CONTINUOUS
 62
     7
 10
-17.086158229836709
 20
-142.96538474039451
 30
0.0
  0
SEQEND
  5
A60
  8
DATA
  6
CONTINUOUS
 62
     7
  0
POLYLINE
  5
58A
  8
DATA
  6
CONTINUOUS
 62
     7
 66
     1
 10
0.0
 20
0.0
 30
0.0
 70
     1
  0
VERTEX
  5
A61
  8
DATA
  6
CONTINUOUS
 62
     7
 10
-33.886158229836717
 20
-124.9653847403945
 30
0.0
  0
VERTEX
  5
A62
  8
DATA
  6
CONTINUOUS
 62
     7
 10
-30.886158229836731
 20
-124.9653847403945
 30
0.0
  0
VERTEX
  5
A63
  8
DATA
  6
CONTINUOUS
 62
     7
 10
-30.886158229836731
 20
-126.1653847403945
 30
0.0
  0
VERTEX
  5
A64
  8
DATA
  6
CONTINUOUS
 62
     7
 10
-33.886158229836717
 20
-126.1653847403945
 30
0.0
  0
SEQEND
  5
A65
  8
DATA
  6
CONTINUOUS
 62
     7
  0
POLYLINE
  5
591
  8
DATA
  6
CONTINUOUS
 62
     7
 66
     1
 10
0.0
 20
0.0
 30
0.0
 70
     1
  0
VERTEX
  5
A66
  8
DATA
  6
CONTINUOUS
 62
     7
 10
-33.886158229836717
 20
-141.7653847403945
 30
0.0
  0
VERTEX
  5
A67
  8
DATA
  6
CONTINUOUS
 62
     7
 10
-30.886158229836731
 20
-141.7653847403945
 30
0.0
  0
VERTEX
  5
A68
  8
DATA
  6
CONTINUOUS
 62
     7
 10
-30.886158229836731
 20
-142.96538474039451
 30
0.0
  0
VERTEX
  5
A69
  8
DATA
  6
CONTINUOUS
 62
     7
 10
-33.886158229836717
 20
-142.96538474039451
 30
0.0
  0
SEQEND
  5
A6A
  8
DATA
  6
CONTINUOUS
 62
     7
  0
POLYLINE
  5
598
  8
DATA
  6
CONTINUOUS
 62
     7
 66
     1
 10
0.0
 20
0.0
 30
0.0
 70
     1
  0
VERTEX
  5
A6B
  8
DATA
  6
CONTINUOUS
 62
     7
 10
-50.686158229836742
 20
-124.9653847403945
 30
0.0
  0
VERTEX
  5
A6C
  8
DATA
  6
CONTINUOUS
 62
     7
 10
-47.686158229836742
 20
-124.9653847403945
 30
0.0
  0
VERTEX
  5
A6D
  8
DATA
  6
CONTINUOUS
 62
     7
 10
-47.686158229836742
 20
-126.1653847403945
 30
0.0
  0
VERTEX
  5
A6E
  8
DATA
  6
CONTINUOUS
 62
     7
 10
-50.686158229836742
 20
-126.1653847403945
 30
0.0
  0
SEQEND
  5
A6F
  8
DATA
  6
CONTINUOUS
 62
     7
  0
POLYLINE
  5
59F
  8
DATA
  6
CONTINUOUS
 62
     7
 66
     1
 10
0.0
 20
0.0
 30
0.0
 70
     1
  0
VERTEX
  5
A70
  8
DATA
  6
CONTINUOUS
 62
     7
 10
-50.686158229836742
 20
-141.7653847403945
 30
0.0
  0
VERTEX
  5
A71
  8
DATA
  6
CONTINUOUS
 62
     7
 10
-47.686158229836742
 20
-141.7653847403945
 30
0.0
  0
VERTEX
  5
A72
  8
DATA
  6
CONTINUOUS
 62
     7
 10
-47.686158229836742
 20
-142.96538474039451
 30
0.0
  0
VERTEX
  5
A73
  8
DATA
  6
CONTINUOUS
 62
     7
 10
-50.686158229836742
 20
-142.96538474039451
 30
0.0
  0
SEQEND
  5
A74
  8
DATA
  6
CONTINUOUS
 62
     7
  0
POLYLINE
  5
5A6
  8
DATA
  6
CONTINUOUS
 62
     7
 66
     1
 10
0.0
 20
0.0
 30
0.0
 70
     1
  0
VERTEX
  5
A75
  8
DATA
  6
CONTINUOUS
 62
     7
 10
-67.486158229836747
 20
-124.9653847403945
 30
0.0
  0
VERTEX
  5
A76
  8
DATA
  6
CONTINUOUS
 62
     7
 10
-64.486158229836747
 20
-124.9653847403945
 30
0.0
  0
VERTEX
  5
A77
  8
DATA
  6
CONTINUOUS
 62
     7
 10
-64.486158229836747
 20
-126.1653847403945
 30
0.0
  0
VERTEX
  5
A78
  8
DATA
  6
CONTINUOUS
 62
     7
 10
-67.486158229836747
 20
-126.1653847403945
 30
0.0
  0
SEQEND
  5
A79
  8
DATA
  6
CONTINUOUS
 62
     7
  0
POLYLINE
  5
5AD
  8
DATA
  6
CONTINUOUS
 62
     7
 66
     1
 10
0.0
 20
0.0
 30
0.0
 70
     1
  0
VERTEX
  5
A7A
  8
DATA
  6
CONTINUOUS
 62
     7
 10
-67.486158229836747
 20
-141.7653847403945
 30
0.0
  0
VERTEX
  5
A7B
  8
DATA
  6
CONTINUOUS
 62
     7
 10
-64.486158229836747
 20
-141.7653847403945
 30
0.0
  0
VERTEX
  5
A7C
  8
DATA
  6
CONTINUOUS
 62
     7
 10
-64.486158229836747
 20
-142.96538474039451
 30
0.0
  0
VERTEX
  5
A7D
  8
DATA
  6
CONTINUOUS
 62
     7
 10
-67.486158229836747
 20
-142.96538474039451
 30
0.0
  0
SEQEND
  5
A7E
  8
DATA
  6
CONTINUOUS
 62
     7
  0
POLYLINE
  5
5B4
  8
DATA
  6
CONTINUOUS
 62
     7
 66
     1
 10
0.0
 20
0.0
 30
0.0
 70
     1
  0
VERTEX
  5
A7F
  8
DATA
  6
CONTINUOUS
 62
     7
 10
-84.286158229836786
 20
-124.9653847403945
 30
0.0
  0
VERTEX
  5
A80
  8
DATA
  6
CONTINUOUS
 62
     7
 10
-81.286158229836772
 20
-124.9653847403945
 30
0.0
  0
VERTEX
  5
A81
  8
DATA
  6
CONTINUOUS
 62
     7
 10
-81.286158229836772
 20
-126.1653847403945
 30
0.0
  0
VERTEX
  5
A82
  8
DATA
  6
CONTINUOUS
 62
     7
 10
-84.286158229836786
 20
-126.1653847403945
 30
0.0
  0
SEQEND
  5
A83
  8
DATA
  6
CONTINUOUS
 62
     7
  0
POLYLINE
  5
5BB
  8
DATA
  6
CONTINUOUS
 62
     7
 66
     1
 10
0.0
 20
0.0
 30
0.0
 70
     1
  0
VERTEX
  5
A84
  8
DATA
  6
CONTINUOUS
 62
     7
 10
-84.286158229836786
 20
-141.7653847403945
 30
0.0
  0
VERTEX
  5
A85
  8
DATA
  6
CONTINUOUS
 62
     7
 10
-81.286158229836772
 20
-141.7653847403945
 30
0.0
  0
VERTEX
  5
A86
  8
DATA
  6
CONTINUOUS
 62
     7
 10
-81.286158229836772
 20
-142.96538474039451
 30
0.0
  0
VERTEX
  5
A87
  8
DATA
  6
CONTINUOUS
 62
     7
 10
-84.286158229836786
 20
-142.96538474039451
 30
0.0
  0
SEQEND
  5
A88
  8
DATA
  6
CONTINUOUS
 62
     7
  0
LINE
  5
5C2
  8
DATA
  6
CONTINUOUS
 62
     7
 10
80.5
 20
-215.0618426430444
 30
0.0
 11
70.5
 21
-215.0618426430444
 31
0.0
  0
LINE
  5
5C3
  8
DATA
  6
CONTINUOUS
 62
     7
 10
64.0
 20
-215.0618426430444
 30
0.0
 11
54.0
 21
-215.0618426430444
 31
0.0
  0
LINE
  5
5C4
  8
DATA
  6
CONTINUOUS
 62
     7
 10
47.5
 20
-215.0618426430444
 30
0.0
 11
37.5
 21
-215.0618426430444
 31
0.0
  0
LINE
  5
5C5
  8
DATA
  6
CONTINUOUS
 62
     7
 10
31.5
 20
-215.0618426430444
 30
0.0
 11
26.199999999999999
 21
-215.0618426430444
 31
0.0
  0
LINE
  5
5C6
  8
DATA
  6
CONTINUOUS
 62
     7
 10
80.5
 20
-213.54457940784201
 30
0.0
 11
70.5
 21
-213.54457940784201
 31
0.0
  0
LINE
  5
5C7
  8
DATA
  6
CONTINUOUS
 62
     7
 10
64.0
 20
-213.54457940784201
 30
0.0
 11
53.999999999999972
 21
-213.54457940784201
 31
0.0
  0
LINE
  5
5C8
  8
DATA
  6
CONTINUOUS
 62
     7
 10
47.499999999999972
 20
-213.54457940784201
 30
0.0
 11
37.499999999999957
 21
-213.54457940784201
 31
0.0
  0
LINE
  5
5C9
  8
DATA
  6
CONTINUOUS
 62
     7
 10
31.499999999999972
 20
-213.54457940784201
 30
0.0
 11
26.199999999999999
 21
-213.54457940784201
 31
0.0
  0
LINE
  5
5CA
  8
DATA
  6
CONTINUOUS
 62
     7
 10
80.5
 20
-212.54457940784201
 30
0.0
 11
70.5
 21
-212.54457940784201
 31
0.0
  0
LINE
  5
5CB
  8
DATA
  6
CONTINUOUS
 62
     7
 10
64.0
 20
-212.54457940784201
 30
0.0
 11
53.999999999999972
 21
-212.54457940784201
 31
0.0
  0
LINE
  5
5CC
  8
DATA
  6
CONTINUOUS
 62
     7
 10
47.499999999999972
 20
-212.54457940784201
 30
0.0
 11
37.499999999999957
 21
-212.54457940784201
 31
0.0
  0
LINE
  5
5CD
  8
DATA
  6
CONTINUOUS
 62
     7
 10
31.499999999999972
 20
-212.54457940784201
 30
0.0
 11
26.199999999999999
 21
-212.54457940784201
 31
0.0
  0
LINE
  5
5CE
  8
DATA
  6
CONTINUOUS
 62
     7
 10
26.199999999999999
 20
-209.02731617263959
 30
0.0
 11
26.199999999999999
 21
-211.54457940784201
 31
0.0
  0
LINE
  5
5CF
  8
DATA
  6
CONTINUOUS
 62
     7
 10
31.5
 20
-209.02731617263959
 30
0.0
 11
31.5
 21
-211.54457940784201
 31
0.0
  0
LINE
  5
5D0
  8
DATA
  6
CONTINUOUS
 62
     7
 10
37.5
 20
-209.02731617263959
 30
0.0
 11
37.5
 21
-211.54457940784201
 31
0.0
  0
LINE
  5
5D1
  8
DATA
  6
CONTINUOUS
 62
     7
 10
47.5
 20
-209.02731617263959
 30
0.0
 11
47.5
 21
-211.54457940784201
 31
0.0
  0
LINE
  5
5D2
  8
DATA
  6
CONTINUOUS
 62
     7
 10
54.0
 20
-209.02731617263959
 30
0.0
 11
54.0
 21
-211.54457940784201
 31
0.0
  0
LINE
  5
5D3
  8
DATA
  6
CONTINUOUS
 62
     7
 10
64.0
 20
-209.02731617263959
 30
0.0
 11
64.0
 21
-211.54457940784201
 31
0.0
  0
LINE
  5
5D4
  8
DATA
  6
CONTINUOUS
 62
     7
 10
70.5
 20
-209.02731617263959
 30
0.0
 11
70.5
 21
-211.54457940784201
 31
0.0
  0
LINE
  5
5D5
  8
DATA
  6
CONTINUOUS
 62
     7
 10
80.5
 20
-209.02731617263959
 30
0.0
 11
80.5
 21
-211.54457940784201
 31
0.0
  0
LINE
  5
5D6
  8
DATA
  6
CONTINUOUS
 62
     7
 10
80.5
 20
-211.54457940784201
 30
0.0
 11
70.5
 21
-211.54457940784201
 31
0.0
  0
LINE
  5
5D7
  8
DATA
  6
CONTINUOUS
 62
     7
 10
64.0
 20
-211.54457940784201
 30
0.0
 11
54.0
 21
-211.54457940784201
 31
0.0
  0
LINE
  5
5D8
  8
DATA
  6
CONTINUOUS
 62
     7
 10
47.5
 20
-211.54457940784201
 30
0.0
 11
37.5
 21
-211.54457940784201
 31
0.0
  0
LINE
  5
5D9
  8
DATA
  6
CONTINUOUS
 62
     7
 10
31.5
 20
-211.54457940784201
 30
0.0
 11
26.199999999999999
 21
-211.54457940784201
 31
0.0
  0
LINE
  5
5DA
  8
DATA
  6
CONTINUOUS
 62
     7
 10
80.5
 20
-210.02731617263959
 30
0.0
 11
70.5
 21
-210.02731617263959
 31
0.0
  0
LINE
  5
5DB
  8
DATA
  6
CONTINUOUS
 62
     7
 10
64.0
 20
-210.02731617263959
 30
0.0
 11
53.999999999999972
 21
-210.02731617263959
 31
0.0
  0
LINE
  5
5DC
  8
DATA
  6
CONTINUOUS
 62
     7
 10
47.499999999999972
 20
-210.02731617263959
 30
0.0
 11
37.499999999999957
 21
-210.02731617263959
 31
0.0
  0
LINE
  5
5DD
  8
DATA
  6
CONTINUOUS
 62
     7
 10
31.499999999999972
 20
-210.02731617263959
 30
0.0
 11
26.199999999999999
 21
-210.02731617263959
 31
0.0
  0
LINE
  5
5DE
  8
DATA
  6
CONTINUOUS
 62
     7
 10
80.5
 20
-209.02731617263959
 30
0.0
 11
70.5
 21
-209.02731617263959
 31
0.0
  0
LINE
  5
5DF
  8
DATA
  6
CONTINUOUS
 62
     7
 10
64.0
 20
-209.02731617263959
 30
0.0
 11
53.999999999999972
 21
-209.02731617263959
 31
0.0
  0
LINE
  5
5E0
  8
DATA
  6
CONTINUOUS
 62
     7
 10
47.499999999999972
 20
-209.02731617263959
 30
0.0
 11
37.499999999999957
 21
-209.02731617263959
 31
0.0
  0
LINE
  5
5E1
  8
DATA
  6
CONTINUOUS
 62
     7
 10
31.499999999999972
 20
-209.02731617263959
 30
0.0
 11
26.199999999999999
 21
-209.02731617263959
 31
0.0
  0
LINE
  5
5E2
  8
DATA
  6
CONTINUOUS
 62
     7
 10
164.5
 20
-220.34770751443119
 30
0.0
 11
164.5
 21
-222.86497074963361
 31
0.0
  0
LINE
  5
5E3
  8
DATA
  6
CONTINUOUS
 62
     7
 10
174.5
 20
-220.34770751443119
 30
0.0
 11
174.5
 21
-222.86497074963361
 31
0.0
  0
LINE
  5
5E4
  8
DATA
  6
CONTINUOUS
 62
     7
 10
174.5
 20
-222.86497074963361
 30
0.0
 11
164.5
 21
-222.86497074963361
 31
0.0
  0
LINE
  5
5E5
  8
DATA
  6
CONTINUOUS
 62
     7
 10
174.5
 20
-221.84770751443119
 30
0.0
 11
164.5
 21
-221.84770751443119
 31
0.0
  0
LINE
  5
5E6
  8
DATA
  6
CONTINUOUS
 62
     7
 10
174.5
 20
-220.34770751443119
 30
0.0
 11
164.5
 21
-220.34770751443119
 31
0.0
  0
LINE
  5
5E7
  8
DATA
  6
CONTINUOUS
 62
     7
 10
147.69999999999999
 20
-220.34770751443119
 30
0.0
 11
147.69999999999999
 21
-222.86497074963361
 31
0.0
  0
LINE
  5
5E8
  8
DATA
  6
CONTINUOUS
 62
     7
 10
157.69999999999999
 20
-220.34770751443119
 30
0.0
 11
157.69999999999999
 21
-222.86497074963361
 31
0.0
  0
LINE
  5
5E9
  8
DATA
  6
CONTINUOUS
 62
     7
 10
157.69999999999999
 20
-222.86497074963361
 30
0.0
 11
147.69999999999999
 21
-222.86497074963361
 31
0.0
  0
LINE
  5
5EA
  8
DATA
  6
CONTINUOUS
 62
     7
 10
157.69999999999999
 20
-221.84770751443119
 30
0.0
 11
147.69999999999999
 21
-221.84770751443119
 31
0.0
  0
LINE
  5
5EB
  8
DATA
  6
CONTINUOUS
 62
     7
 10
157.69999999999999
 20
-220.34770751443119
 30
0.0
 11
147.69999999999999
 21
-220.34770751443119
 31
0.0
  0
LINE
  5
5EC
  8
DATA
  6
CONTINUOUS
 62
     7
 10
130.89999999999989
 20
-220.34770751443119
 30
0.0
 11
130.89999999999989
 21
-222.86497074963361
 31
0.0
  0
LINE
  5
5ED
  8
DATA
  6
CONTINUOUS
 62
     7
 10
140.90000000000001
 20
-220.34770751443119
 30
0.0
 11
140.90000000000001
 21
-222.86497074963361
 31
0.0
  0
LINE
  5
5EE
  8
DATA
  6
CONTINUOUS
 62
     7
 10
140.90000000000001
 20
-222.86497074963361
 30
0.0
 11
130.89999999999989
 21
-222.86497074963361
 31
0.0
  0
LINE
  5
5EF
  8
DATA
  6
CONTINUOUS
 62
     7
 10
140.90000000000001
 20
-221.84770751443119
 30
0.0
 11
130.89999999999989
 21
-221.84770751443119
 31
0.0
  0
LINE
  5
5F0
  8
DATA
  6
CONTINUOUS
 62
     7
 10
140.90000000000001
 20
-220.34770751443119
 30
0.0
 11
130.89999999999989
 21
-220.34770751443119
 31
0.0
  0
ARC
  5
5F1
  8
DATA
  6
CONTINUOUS
 62
     7
 10
182.25
 20
-216.52686834783839
 30
0.0
 40
0.5
 50
0.0
 51
90.0
  0
LINE
  5
5F2
  8
DATA
  6
CONTINUOUS
 62
     7
 10
-95.750000000000014
 20
-218.3565578155949
 30
0.0
 11
-95.750000000000014
 21
-229.75
 31
0.0
  0
LINE
  5
5F3
  8
DATA
  6
CONTINUOUS
 62
     7
 10
-92.933684830935647
 20
-218.33430937198469
 30
0.0
 11
-93.425626038492865
 21
-229.37899096212789
 31
0.0
  0
ARC
  5
5F4
  8
DATA
  6
CONTINUOUS
 62
     7
 10
-92.641003646631717
 20
-223.0
 30
0.0
 40
0.5
 50
90.0
 51
177.44967409213231
  0
ARC
  5
5F5
  8
DATA
  6
CONTINUOUS
 62
     7
 10
-92.434180069439847
 20
-218.3565578155949
 30
0.0
 40
0.5
 50
90.0
 51
177.44967409213231
  0
LINE
  5
5F6
  8
DATA
  6
CONTINUOUS
 62
     7
 10
-98.75
 20
-209.5
 30
0.0
 11
-98.75
 21
-236.43529782451799
 31
0.0
  0
LINE
  5
5F7
  8
DATA
  6
CONTINUOUS
 62
     7
 10
175.95154998566861
 20
-200.5279289962557
 30
0.0
 11
175.95154998566861
 21
-212.854419160975
 31
0.0
  0
LINE
  5
5F8
  8
DATA
  6
CONTINUOUS
 62
     7
 10
163.04845001433139
 20
-200.52792899625601
 30
0.0
 11
163.04845001433139
 21
-212.91756706914549
 31
0.0
  0
ARC
  5
5F9
  8
DATA
  6
CONTINUOUS
 62
     7
 10
169.5
 20
-211.59483413895541
 30
0.0
 40
12.810108768277139
 50
59.759575497592927
 51
120.240424502408
  0
ARC
  5
5FA
  8
DATA
  6
CONTINUOUS
 62
     7
 10
169.4458393178391
 20
-201.81926554348601
 30
0.0
 40
12.81010876827712
 50
231.62890825594209
 51
308.37109174405788
  0
LINE
  5
5FB
  8
DATA
  6
CONTINUOUS
 62
     7
 10
163.04845001433139
 20
-200.52792899625601
 30
0.0
 11
169.5
 21
-201.02792899625589
 31
0.0
  0
LINE
  5
5FC
  8
DATA
  6
CONTINUOUS
 62
     7
 10
169.5
 20
-201.02792899625589
 30
0.0
 11
175.95154998566861
 21
-200.5279289962557
 31
0.0
  0
LINE
  5
5FD
  8
DATA
  6
CONTINUOUS
 62
     7
 10
153.95154998566861
 20
-200.5279289962557
 30
0.0
 11
153.95154998566861
 21
-212.854419160975
 31
0.0
  0
LINE
  5
5FE
  8
DATA
  6
CONTINUOUS
 62
     7
 10
141.04845001433139
 20
-200.52792899625601
 30
0.0
 11
141.04845001433139
 21
-212.91756706914549
 31
0.0
  0
ARC
  5
5FF
  8
DATA
  6
CONTINUOUS
 62
     7
 10
147.5
 20
-211.59483413895541
 30
0.0
 40
12.810108768277139
 50
59.759575497592927
 51
120.240424502408
  0
LINE
  5
600
  8
DATA
  6
CONTINUOUS
 62
     7
 10
141.04845001433139
 20
-200.52792899625601
 30
0.0
 11
147.49999999999989
 21
-201.02792899625589
 31
0.0
  0
LINE
  5
601
  8
DATA
  6
CONTINUOUS
 62
     7
 10
147.49999999999989
 20
-201.02792899625589
 30
0.0
 11
153.95154998566861
 21
-200.5279289962557
 31
0.0
  0
LINE
  5
602
  8
DATA
  6
CONTINUOUS
 62
     7
 10
128.95154998566861
 20
-200.5279289962557
 30
0.0
 11
128.95154998566861
 21
-212.854419160975
 31
0.0
  0
LINE
  5
603
  8
DATA
  6
CONTINUOUS
 62
     7
 10
116.04845001433139
 20
-200.52792899625601
 30
0.0
 11
116.04845001433139
 21
-212.91756706914549
 31
0.0
  0
ARC
  5
604
  8
DATA
  6
CONTINUOUS
 62
     7
 10
122.5
 20
-211.59483413895541
 30
0.0
 40
12.810108768277139
 50
59.759575497592927
 51
120.2404245024079
  0
LINE
  5
605
  8
DATA
  6
CONTINUOUS
 62
     7
 10
116.04845001433139
 20
-200.52792899625601
 30
0.0
 11
122.4999999999999
 21
-201.02792899625589
 31
0.0
  0
LINE
  5
606
  8
DATA
  6
CONTINUOUS
 62
     7
 10
122.4999999999999
 20
-201.02792899625589
 30
0.0
 11
128.95154998566861
 21
-200.5279289962557
 31
0.0
  0
LINE
  5
607
  8
DATA
  6
CONTINUOUS
 62
     7
 10
106.95154998566861
 20
-200.5279289962557
 30
0.0
 11
106.95154998566861
 21
-212.854419160975
 31
0.0
  0
LINE
  5
608
  8
DATA
  6
CONTINUOUS
 62
     7
 10
94.048450014331394
 20
-200.52792899625601
 30
0.0
 11
94.048450014331394
 21
-212.91756706914549
 31
0.0
  0
ARC
  5
609
  8
DATA
  6
CONTINUOUS
 62
     7
 10
100.5
 20
-211.59483413895541
 30
0.0
 40
12.810108768277139
 50
59.759575497592927
 51
120.2404245024079
  0
LINE
  5
60A
  8
DATA
  6
CONTINUOUS
 62
     7
 10
94.048450014331394
 20
-200.52792899625601
 30
0.0
 11
100.4999999999999
 21
-201.02792899625589
 31
0.0
  0
LINE
  5
60B
  8
DATA
  6
CONTINUOUS
 62
     7
 10
100.4999999999999
 20
-201.02792899625589
 30
0.0
 11
106.95154998566861
 21
-200.5279289962557
 31
0.0
  0
LINE
  5
60C
  8
DATA
  6
CONTINUOUS
 62
     7
 10
-203.62414036369341
 20
-250.00000000000011
 30
0.0
 11
-313.54810949020418
 21
-250.00000000000011
 31
0.0
  0
LINE
  5
60D
  8
DATA
  6
CONTINUOUS
 62
     7
 10
-315.55721825665069
 20
-209.86237174425531
 30
0.0
 11
-317.59999999999991
 21
-216.3335956833493
 31
0.0
  0
LINE
  5
60E
  8
DATA
  6
CONTINUOUS
 62
     7
 10
-317.59999999999991
 20
-216.3335956833493
 30
0.0
 11
-313.54810949020418
 21
-250.00000000000011
 31
0.0
  0
ARC
  5
60F
  8
DATA
  6
CONTINUOUS
 62
     7
 10
-315.07657738504292
 20
-210.00015546078279
 30
0.0
 40
0.499999999999955
 50
82.857296274527812
 51
164.00416768647631
  0
LINE
  5
610
  8
DATA
  6
CONTINUOUS
 62
     7
 10
-200.72970766083759
 20
-229.55729536900279
 30
0.0
 11
-200.0
 21
-236.43529782451799
 31
0.0
  0
LINE
  5
611
  8
DATA
  6
CONTINUOUS
 62
     7
 10
-200.0
 20
-236.43529782451799
 30
0.0
 11
-203.62414036369341
 21
-250.00000000000011
 31
0.0
  0
ARC
  5
612
  8
DATA
  6
CONTINUOUS
 62
     7
 10
-202.21178231703149
 20
-229.78849812302499
 30
0.0
 40
1.499999999999964
 50
8.8666423664392902
 51
54.255882956666973
  0
ARC
  5
613
  8
DATA
  6
CONTINUOUS
 62
     7
 10
-332.0
 20
-659.18316615723916
 30
0.0
 40
450.0
 50
73.120161802774945
 51
87.837094389436857
  0
ARC
  5
614
  8
DATA
  6
CONTINUOUS
 62
     7
 10
-333.95096398483253
 20
-666.03643754313032
 30
0.0
 40
449.99999999999608
 50
72.682359948179297
 51
87.930339663976355
  0
ARC
  5
615
  8
DATA
  6
CONTINUOUS
 62
     7
 10
-274.50378841936822
 20
-256.6061504253687
 30
0.0
 40
59.368232324407423
 50
66.695385732857119
 51
97.464190688773101
  0
LINE
  5
616
  8
DATA
  6
CONTINUOUS
 62
     7
 10
-252.99615858230089
 20
-216.16707975658889
 30
0.0
 11
-251.0165599558598
 21
-202.08150362753619
 31
0.0
  0
LINE
  5
617
  8
DATA
  6
CONTINUOUS
 62
     7
 10
-282.21610907292143
 20
-197.7409899357917
 30
0.0
 11
-284.18408066656963
 21
-211.74383542774791
 31
0.0
  0
ARC
  5
618
  8
DATA
  6
CONTINUOUS
 62
     7
 10
169.4458393178391
 20
-221.90568913368969
 30
0.0
 40
12.81010876827718
 50
51.628908255942243
 51
59.478771584646857
  0
ARC
  5
619
  8
DATA
  6
CONTINUOUS
 62
     7
 10
169.4458393178391
 20
-221.90568913368969
 30
0.0
 40
12.810108768277139
 50
119.9604205869214
 51
128.37109174405759
  0
ARC
  5
61A
  8
DATA
  6
CONTINUOUS
 62
     7
 10
147.4458393178391
 20
-201.81926554348601
 30
0.0
 40
12.810108768277139
 50
231.62890825594209
 51
308.37109174405782
  0
ARC
  5
61B
  8
DATA
  6
CONTINUOUS
 62
     7
 10
147.4458393178391
 20
-221.90568913368969
 30
0.0
 40
12.810108768277169
 50
51.628908255942342
 51
59.478771584646971
  0
ARC
  5
61C
  8
DATA
  6
CONTINUOUS
 62
     7
 10
147.4458393178391
 20
-221.90568913368969
 30
0.0
 40
12.810108768277161
 50
119.9604205869215
 51
128.37109174405771
  0
ARC
  5
61D
  8
DATA
  6
CONTINUOUS
 62
     7
 10
122.4458393178391
 20
-201.81926554348601
 30
0.0
 40
12.81010876827713
 50
231.62890825594209
 51
308.37109174405788
  0
ARC
  5
61E
  8
DATA
  6
CONTINUOUS
 62
     7
 10
122.4458393178391
 20
-221.90568913368969
 30
0.0
 40
12.810108768277169
 50
51.628908255942306
 51
59.478771584646907
  0
ARC
  5
61F
  8
DATA
  6
CONTINUOUS
 62
     7
 10
122.4458393178391
 20
-221.90568913368969
 30
0.0
 40
12.810108768277139
 50
119.9604205869214
 51
128.37109174405771
  0
ARC
  5
620
  8
DATA
  6
CONTINUOUS
 62
     7
 10
100.4458393178391
 20
-201.81926554348601
 30
0.0
 40
12.81010876827713
 50
231.62890825594209
 51
308.37109174405788
  0
ARC
  5
621
  8
DATA
  6
CONTINUOUS
 62
     7
 10
100.4458393178391
 20
-221.90568913368969
 30
0.0
 40
12.810108768277169
 50
51.628908255942306
 51
59.478771584646907
  0
ARC
  5
622
  8
DATA
  6
CONTINUOUS
 62
     7
 10
100.4458393178391
 20
-221.90568913368969
 30
0.0
 40
12.810108768277139
 50
119.9604205869214
 51
128.37109174405771
  0
TEXT
  5
623
  8
DATA
 62
     7
 10
135.13050843683001
 20
-53.528051407061241
 30
0.0
 40
13.03072916666666
  1
PMC
 41
0.7
 11
135.13050843683001
 21
-40.49732224039456
 31
0.0
 73
     3
  0
TEXT
  5
624
  8
DATA
 62
     7
 10
164.32988343682999
 20
-70.360568109270915
 30
0.0
 40
2.4624999999999999
  1
MASTER
 41
0.7
 72
     1
 11
169.21384177016341
 21
-70.688901442604248
 31
0.0
 73
     1
  0
TEXT
  5
625
  8
DATA
 62
     7
 10
92.042591770163384
 20
-70.360568109270915
 30
0.0
 40
2.4624999999999999
  1
REVERS
 41
0.7
 72
     1
 11
97.213841770163384
 21
-70.688901442604248
 31
0.0
 73
     1
  0
TEXT
  5
626
  8
DATA
 62
     7
 10
141.34092510349669
 20
-70.360568109270915
 30
0.0
 40
2.4624999999999999
  1
HIGH
 41
0.7
 72
     1
 11
144.21384177016341
 21
-70.688901442604248
 31
0.0
 73
     1
  0
TEXT
  5
627
  8
DATA
 62
     7
 10
119.62821677016331
 20
-70.360568109270915
 30
0.0
 40
2.4624999999999999
  1
LOW
 41
0.7
 72
     1
 11
122.2138417701633
 21
-70.688901442604248
 31
0.0
 73
     1
  0
CIRCLE
  5
628
  8
DATA
  6
CONTINUOUS
 62
     7
 10
144.21384177016341
 20
-71.688901442604248
 30
0.0
 40
0.5
  0
CIRCLE
  5
629
  8
DATA
  6
CONTINUOUS
 62
     7
 10
122.2138417701633
 20
-71.688901442604248
 30
0.0
 40
0.5
  0
TEXT
  5
62A
  8
DATA
 62
     7
 10
37.329883436830031
 20
-71.137051407061193
 30
0.0
 40
2.4624999999999999
  1
WIZARD
 41
0.7
 72
     1
 11
42.213841770163363
 21
-71.465384740394541
 31
0.0
 73
     1
  0
TEXT
  5
62B
  8
DATA
 62
     7
 10
54.691758436830021
 20
-71.137051407061193
 30
0.0
 40
2.4624999999999999
  1
GROUP
 41
0.7
 72
     1
 11
58.713841770163349
 21
-71.465384740394541
 31
0.0
 73
     1
  0
TEXT
  5
62C
  8
DATA
 62
     7
 10
70.329883436830016
 20
-71.137051407061193
 30
0.0
 40
2.4624999999999999
  1
PRESET
 41
0.7
 72
     1
 11
75.213841770163341
 21
-71.465384740394541
 31
0.0
 73
     1
  0
TEXT
  5
62D
  8
DATA
 62
     7
 10
37.90446677016336
 20
-84.137051407061193
 30
0.0
 40
2.4624999999999999
  1
LEVEL
 41
0.7
 72
     1
 11
42.213841770163363
 21
-84.465384740394555
 31
0.0
 73
     1
  0
TEXT
  5
62E
  8
DATA
 62
     7
 10
56.415508436830031
 20
-84.137051407061193
 30
0.0
 40
2.4624999999999999
  1
PAN
 41
0.7
 72
     1
 11
58.713841770163349
 21
-84.465384740394555
 31
0.0
 73
     1
  0
TEXT
  5
62F
  8
DATA
 62
     7
 10
69.468008436830004
 20
-84.137051407061193
 30
0.0
 40
2.4624999999999999
  1
EFFECTS
 41
0.7
 72
     1
 11
75.213841770163341
 21
-84.465384740394555
 31
0.0
 73
     1
  0
TEXT
  5
630
  8
DATA
 62
     7
 10
25.403633436830031
 20
-71.137051407061193
 30
0.0
 40
2.4624999999999999
  1
BACK
 41
0.7
 72
     1
 11
28.563841770163361
 21
-71.465384740394541
 31
0.0
 73
     1
  0
TEXT
  5
631
  8
DATA
 62
     7
 10
131.59175843682999
 20
-99.137051407061222
 30
0.0
 40
2.4624999999999999
  1
CLEAR
 41
0.7
 72
     1
 11
135.6138417701633
 21
-99.465384740394555
 31
0.0
 73
     1
  0
TEXT
  5
632
  8
DATA
 62
     7
 10
149.25363343683
 20
-99.137051407061222
 30
0.0
 40
2.4624999999999999
  1
SOLO
 41
0.7
 72
     1
 11
152.41384177016329
 21
-99.465384740394555
 31
0.0
 73
     1
  0
TEXT
  5
633
  8
DATA
 62
     7
 10
166.05363343683001
 20
-99.137051407061222
 30
0.0
 40
2.4624999999999999
  1
MUTE
 41
0.7
 72
     1
 11
169.21384177016341
 21
-99.465384740394555
 31
0.0
 73
     1
  0
TEXT
  5
634
  8
DATA
 62
     7
 10
-83.073449896503305
 20
-147.63705140706119
 30
0.0
 40
2.4624999999999999
  1
1
 41
0.7
 72
     1
 11
-82.786158229836644
 21
-147.96538474039451
 31
0.0
 73
     1
  0
TEXT
  5
635
  8
DATA
 62
     7
 10
-66.560741563169998
 20
-147.63705140706119
 30
0.0
 40
2.4624999999999999
  1
2
 41
0.7
 72
     1
 11
-65.986158229836661
 21
-147.96538474039451
 31
0.0
 73
     1
  0
TEXT
  5
636
  8
DATA
 62
     7
 10
-49.760741563169979
 20
-147.63705140706119
 30
0.0
 40
2.4624999999999999
  1
3
 41
0.7
 72
     1
 11
-49.186158229836643
 21
-147.96538474039451
 31
0.0
 73
     1
  0
TEXT
  5
637
  8
DATA
 62
     7
 10
-32.960741563169989
 20
-147.63705140706119
 30
0.0
 40
2.4624999999999999
  1
4
 41
0.7
 72
     1
 11
-32.386158229836653
 21
-147.96538474039451
 31
0.0
 73
     1
  0
TEXT
  5
638
  8
DATA
 62
     7
 10
-16.160741563169989
 20
-147.63705140706119
 30
0.0
 40
2.4624999999999999
  1
5
 41
0.7
 72
     1
 11
-15.58615822983665
 21
-147.96538474039451
 31
0.0
 73
     1
  0
TEXT
  5
639
  8
DATA
 62
     7
 10
0.6392584368300081
 20
-147.63705140706119
 30
0.0
 40
2.4624999999999999
  1
6
 41
0.7
 72
     1
 11
1.213841770163341
 21
-147.96538474039451
 31
0.0
 73
     1
  0
TEXT
  5
63A
  8
DATA
 62
     7
 10
17.439258436830009
 20
-147.63705140706119
 30
0.0
 40
2.4624999999999999
  1
7
 41
0.7
 72
     1
 11
18.013841770163339
 21
-147.96538474039451
 31
0.0
 73
     1
  0
TEXT
  5
63B
  8
DATA
 62
     7
 10
34.239258436829999
 20
-147.63705140706119
 30
0.0
 40
2.4624999999999999
  1
8
 41
0.7
 72
     1
 11
34.813841770163343
 21
-147.96538474039451
 31
0.0
 73
     1
  0
TEXT
  5
63C
  8
DATA
 62
     7
 10
51.039258436830011
 20
-147.63705140706119
 30
0.0
 40
2.4624999999999999
  1
9
 41
0.7
 72
     1
 11
51.613841770163347
 21
-147.96538474039451
 31
0.0
 73
     1
  0
TEXT
  5
63D
  8
DATA
 62
     7
 10
67.408320936830023
 20
-147.63705140706119
 30
0.0
 40
2.4624999999999999
  1
10
 41
0.7
 72
     1
 11
68.413841770163359
 21
-147.96538474039451
 31
0.0
 73
     1
  0
TEXT
  5
63E
  8
DATA
 62
     7
 10
84.351966770163372
 20
-147.63705140706119
 30
0.0
 40
2.4624999999999999
  1
11
 41
0.7
 72
     1
 11
85.213841770163356
 21
-147.96538474039451
 31
0.0
 73
     1
  0
TEXT
  5
63F
  8
DATA
 62
     7
 10
100.86467510349669
 20
-147.63705140706119
 30
0.0
 40
2.4624999999999999
  1
12
 41
0.7
 72
     1
 11
102.0138417701634
 21
-147.96538474039451
 31
0.0
 73
     1
  0
TEXT
  5
640
  8
DATA
 62
     7
 10
117.66467510349671
 20
-147.63705140706119
 30
0.0
 40
2.4624999999999999
  1
13
 41
0.7
 72
     1
 11
118.81384177016341
 21
-147.96538474039451
 31
0.0
 73
     1
  0
TEXT
  5
641
  8
DATA
 62
     7
 10
134.46467510349669
 20
-147.63705140706119
 30
0.0
 40
2.4624999999999999
  1
14
 41
0.7
 72
     1
 11
135.61384177016339
 21
-147.96538474039451
 31
0.0
 73
     1
  0
TEXT
  5
642
  8
DATA
 62
     7
 10
151.2646751034967
 20
-147.63705140706119
 30
0.0
 40
2.4624999999999999
  1
15
 41
0.7
 72
     1
 11
152.4138417701634
 21
-147.96538474039451
 31
0.0
 73
     1
  0
TEXT
  5
643
  8
DATA
 62
     7
 10
168.06467510349671
 20
-147.63705140706119
 30
0.0
 40
2.4624999999999999
  1
16
 41
0.7
 72
     1
 11
169.21384177016341
 21
-147.96538474039451
 31
0.0
 73
     1
  0
LINE
  5
644
  8
DATA
  6
CONTINUOUS
 62
     7
 10
-80.786158229836644
 20
-146.36538474039449
 30
0.0
 11
-67.786158229836659
 21
-146.36538474039449
 31
0.0
  0
LINE
  5
645
  8
DATA
  6
CONTINUOUS
 62
     7
 10
-63.986158229836647
 20
-146.36538474039449
 30
0.0
 11
-50.986158229836647
 21
-146.36538474039449
 31
0.0
  0
LINE
  5
646
  8
DATA
  6
CONTINUOUS
 62
     7
 10
-47.186158229836643
 20
-146.36538474039449
 30
0.0
 11
-34.18615822983665
 21
-146.36538474039449
 31
0.0
  0
LINE
  5
647
  8
DATA
  6
CONTINUOUS
 62
     7
 10
-30.386158229836649
 20
-146.36538474039449
 30
0.0
 11
-17.386158229836649
 21
-146.36538474039449
 31
0.0
  0
LINE
  5
648
  8
DATA
  6
CONTINUOUS
 62
     7
 10
-13.58615822983665
 20
-146.36538474039449
 30
0.0
 11
-0.5861582298366557
 21
-146.36538474039449
 31
0.0
  0
LINE
  5
649
  8
DATA
  6
CONTINUOUS
 62
     7
 10
3.213841770163341
 20
-146.36538474039449
 30
0.0
 11
16.213841770163341
 21
-146.36538474039449
 31
0.0
  0
LINE
  5
64A
  8
DATA
  6
CONTINUOUS
 62
     7
 10
20.013841770163332
 20
-146.36538474039449
 30
0.0
 11
33.013841770163339
 21
-146.36538474039449
 31
0.0
  0
LINE
  5
64B
  8
DATA
  6
CONTINUOUS
 62
     7
 10
36.813841770163343
 20
-146.36538474039449
 30
0.0
 11
49.813841770163343
 21
-146.36538474039449
 31
0.0
  0
LINE
  5
64C
  8
DATA
  6
CONTINUOUS
 62
     7
 10
53.613841770163347
 20
-146.36538474039449
 30
0.0
 11
66.613841770163361
 21
-146.36538474039449
 31
0.0
  0
LINE
  5
64D
  8
DATA
  6
CONTINUOUS
 62
     7
 10
70.413841770163359
 20
-146.36538474039449
 30
0.0
 11
83.413841770163344
 21
-146.36538474039449
 31
0.0
  0
LINE
  5
64E
  8
DATA
  6
CONTINUOUS
 62
     7
 10
87.213841770163384
 20
-146.36538474039449
 30
0.0
 11
100.2138417701633
 21
-146.36538474039449
 31
0.0
  0
LINE
  5
64F
  8
DATA
  6
CONTINUOUS
 62
     7
 10
104.0138417701633
 20
-146.36538474039449
 30
0.0
 11
117.0138417701634
 21
-146.36538474039449
 31
0.0
  0
LINE
  5
650
  8
DATA
  6
CONTINUOUS
 62
     7
 10
120.81384177016341
 20
-146.36538474039449
 30
0.0
 11
133.81384177016329
 21
-146.36538474039449
 31
0.0
  0
LINE
  5
651
  8
DATA
  6
CONTINUOUS
 62
     7
 10
137.61384177016339
 20
-146.36538474039449
 30
0.0
 11
150.61384177016339
 21
-146.36538474039449
 31
0.0
  0
LINE
  5
652
  8
DATA
  6
CONTINUOUS
 62
     7
 10
154.4138417701634
 20
-146.36538474039449
 30
0.0
 11
167.4138417701634
 21
-146.36538474039449
 31
0.0
  0
TEXT
  5
653
  8
DATA
 62
     7
 10
164.18683945534849
 20
-45.030685666320501
 30
0.0
 40
4.3435763888888879
  1
16
 41
0.7
 72
     1
 11
166.2138417701633
 21
-45.609829184839022
 31
0.0
 73
     1
  0
POLYLINE
  5
654
  8
DATA
  6
CONTINUOUS
 62
     7
 66
     1
 10
0.0
 20
0.0
 30
0.0
 70
     1
  0
VERTEX
  5
A89
  8
DATA
  6
CONTINUOUS
 62
     7
 10
-100.0
 20
-350.0
 30
0.0
  0
VERTEX
  5
A8A
  8
DATA
  6
CONTINUOUS
 62
     7
 10
187.0
 20
-350.0
 30
0.0
  0
VERTEX
  5
A8B
  8
DATA
  6
CONTINUOUS
 62
     7
 10
187.0
 20
-467.60000000000002
 30
0.0
  0
VERTEX
  5
A8C
  8
DATA
  6
CONTINUOUS
 62
     7
 10
-100.0
 20
-467.60000000000002
 30
0.0
  0
SEQEND
  5
A8D
  8
DATA
  6
CONTINUOUS
 62
     7
  0
LINE
  5
65B
  8
DATA
  6
CONTINUOUS
 62
     7
 10
184.0
 20
-353.62414036369341
 30
0.0
 11
-97.0
 21
-353.62414036369341
 31
0.0
  0
LINE
  5
65C
  8
DATA
  6
CONTINUOUS
 62
     7
 10
184.0
 20
-463.5481094902043
 30
0.0
 11
-97.0
 21
-463.5481094902043
 31
0.0
  0
LINE
  5
65D
  8
DATA
  6
CONTINUOUS
 62
     7
 10
-100.0
 20
-467.60000000000002
 30
0.0
 11
187.0
 21
-467.60000000000002
 31
0.0
  0
CIRCLE
  5
65E
  8
DATA
  6
CONTINUOUS
 62
     7
 10
-76.0
 20
-362.27414036369339
 30
0.0
 40
8.1499999999999773
  0
CIRCLE
  5
65F
  8
DATA
  6
CONTINUOUS
 62
     7
 10
-76.0
 20
-362.27414036369339
 30
0.0
 40
5.0
  0
CIRCLE
  5
660
  8
DATA
  6
CONTINUOUS
 62
     7
 10
-76.0
 20
-362.27414036369339
 30
0.0
 40
7.1500000000000048
  0
CIRCLE
  5
661
  8
DATA
  6
CONTINUOUS
 62
     7
 10
-80.5
 20
-452.35740754508799
 30
0.0
 40
8.1499999999999773
  0
CIRCLE
  5
662
  8
DATA
  6
CONTINUOUS
 62
     7
 10
-80.5
 20
-452.35740754508799
 30
0.0
 40
5.0
  0
CIRCLE
  5
663
  8
DATA
  6
CONTINUOUS
 62
     7
 10
-80.5
 20
-452.35740754508799
 30
0.0
 40
7.1500000000000048
  0
CIRCLE
  5
664
  8
DATA
  6
CONTINUOUS
 62
     7
 10
163.0
 20
-362.27414036369339
 30
0.0
 40
8.1499999999999773
  0
CIRCLE
  5
665
  8
DATA
  6
CONTINUOUS
 62
     7
 10
163.0
 20
-362.27414036369339
 30
0.0
 40
5.0
  0
CIRCLE
  5
666
  8
DATA
  6
CONTINUOUS
 62
     7
 10
163.0
 20
-362.27414036369339
 30
0.0
 40
7.1500000000000048
  0
CIRCLE
  5
667
  8
DATA
  6
CONTINUOUS
 62
     7
 10
167.5
 20
-452.35740754508799
 30
0.0
 40
8.1499999999999773
  0
CIRCLE
  5
668
  8
DATA
  6
CONTINUOUS
 62
     7
 10
167.5
 20
-452.35740754508799
 30
0.0
 40
5.0
  0
CIRCLE
  5
669
  8
DATA
  6
CONTINUOUS
 62
     7
 10
167.5
 20
-452.35740754508799
 30
0.0
 40
7.1500000000000048
  0
CIRCLE
  5
66A
  8
DATA
  6
CONTINUOUS
 62
     7
 10
43.5
 20
-408.80000000000001
 30
0.0
 40
13.75166326474265
  0
CIRCLE
  5
66B
  8
DATA
  6
CONTINUOUS
 62
     7
 10
43.5
 20
-408.80000000000001
 30
0.0
 40
11.25
  0
CIRCLE
  5
66C
  8
DATA
  6
CONTINUOUS
 62
     7
 10
43.5
 20
-408.80000000000001
 30
0.0
 40
10.75
  0
CIRCLE
  5
66D
  8
DATA
  6
CONTINUOUS
 62
     7
 10
43.5
 20
-408.58612492694891
 30
0.0
 40
8.5
  0
INSERT
  5
66E
  8
DATA
 62
     7
  2
____-1
 10
0.0
 20
0.0
 30
0.0
  0
INSERT
  5
66F
  8
DATA
 62
     7
  2
____-2
 10
0.0
 20
0.0
 30
0.0
  0
INSERT
  5
670
  8
DATA
 62
     7
  2
____-3
 10
0.0
 20
0.0
 30
0.0
  0
INSERT
  5
671
  8
DATA
 62
     7
  2
____-4
 10
0.0
 20
0.0
 30
0.0
  0
INSERT
  5
672
  8
DATA
 62
     7
  2
____-5
 10
0.0
 20
0.0
 30
0.0
  0
CIRCLE
  5
673
  8
DATA
  6
CONTINUOUS
 62
     7
 10
93.499999999999986
 20
-386.0481094902043
 30
0.0
 40
2.0
  0
CIRCLE
  5
674
  8
DATA
  6
CONTINUOUS
 62
     7
 10
93.499999999999986
 20
-431.04810949020418
 30
0.0
 40
2.0
  0
CIRCLE
  5
675
  8
DATA
  6
CONTINUOUS
 62
     7
 10
-6.5
 20
-386.0481094902043
 30
0.0
 40
2.0
  0
CIRCLE
  5
676
  8
DATA
  6
CONTINUOUS
 62
     7
 10
-6.5
 20
-431.04810949020418
 30
0.0
 40
2.0
  0
LINE
  5
677
  8
DATA
  6
CONTINUOUS
 62
     7
 10
143.65000000000001
 20
-403.04810949020418
 30
0.0
 11
126.34999999999999
 21
-403.04810949020418
 31
0.0
  0
LINE
  5
678
  8
DATA
  6
CONTINUOUS
 62
     7
 10
126.34999999999999
 20
-405.74810949020411
 30
0.0
 11
143.65000000000001
 21
-405.74810949020411
 31
0.0
  0
ARC
  5
679
  8
DATA
  6
CONTINUOUS
 62
     7
 10
143.64999999999989
 20
-404.39810949020409
 30
0.0
 40
1.3499999999999319
 50
179.99993162788499
 51
180.0000695169546
  0
ARC
  5
67A
  8
DATA
  6
CONTINUOUS
 62
     7
 10
143.64999999999989
 20
-404.39810949020409
 30
0.0
 40
1.3499999999999091
 50
270.0
 51
89.999999999998764
  0
LINE
  5
67B
  8
DATA
  6
CONTINUOUS
 62
     7
 10
141.5499999999999
 20
-403.04810949020418
 30
0.0
 11
141.5499999999999
 21
-403.53933128833683
 31
0.0
  0
LINE
  5
67C
  8
DATA
  6
CONTINUOUS
 62
     7
 10
141.5499999999999
 20
-405.25688769207193
 30
0.0
 11
141.5499999999999
 21
-405.74810949020411
 31
0.0
  0
LINE
  5
67D
  8
DATA
  6
CONTINUOUS
 62
     7
 10
138.84999999999999
 20
-403.04810949020418
 30
0.0
 11
138.84999999999999
 21
-403.53933128833683
 31
0.0
  0
LINE
  5
67E
  8
DATA
  6
CONTINUOUS
 62
     7
 10
138.84999999999999
 20
-405.25688769207193
 30
0.0
 11
138.84999999999999
 21
-405.74810949020411
 31
0.0
  0
LINE
  5
67F
  8
DATA
  6
CONTINUOUS
 62
     7
 10
135.40000000000001
 20
-403.04810949020418
 30
0.0
 11
135.40000000000001
 21
-403.53933128833683
 31
0.0
  0
LINE
  5
680
  8
DATA
  6
CONTINUOUS
 62
     7
 10
135.40000000000001
 20
-405.25688769207193
 30
0.0
 11
135.40000000000001
 21
-405.74810949020411
 31
0.0
  0
LINE
  5
681
  8
DATA
  6
CONTINUOUS
 62
     7
 10
134.65000000000001
 20
-403.04810949020418
 30
0.0
 11
134.65000000000001
 21
-403.53933128833671
 31
0.0
  0
LINE
  5
682
  8
DATA
  6
CONTINUOUS
 62
     7
 10
134.65000000000001
 20
-405.25688769207181
 30
0.0
 11
134.65000000000001
 21
-405.74810949020411
 31
0.0
  0
LINE
  5
683
  8
DATA
  6
CONTINUOUS
 62
     7
 10
138.09999999999999
 20
-403.04810949020418
 30
0.0
 11
138.09999999999999
 21
-403.53933128833671
 31
0.0
  0
LINE
  5
684
  8
DATA
  6
CONTINUOUS
 62
     7
 10
138.09999999999999
 20
-405.25688769207181
 30
0.0
 11
138.09999999999999
 21
-405.74810949020411
 31
0.0
  0
LINE
  5
685
  8
DATA
  6
CONTINUOUS
 62
     7
 10
131.94999999999999
 20
-403.04810949020418
 30
0.0
 11
131.94999999999999
 21
-403.53933128833683
 31
0.0
  0
LINE
  5
686
  8
DATA
  6
CONTINUOUS
 62
     7
 10
131.94999999999999
 20
-405.25688769207193
 30
0.0
 11
131.94999999999999
 21
-405.74810949020411
 31
0.0
  0
LINE
  5
687
  8
DATA
  6
CONTINUOUS
 62
     7
 10
131.19999999999999
 20
-403.04810949020418
 30
0.0
 11
131.19999999999999
 21
-403.53933128833671
 31
0.0
  0
LINE
  5
688
  8
DATA
  6
CONTINUOUS
 62
     7
 10
131.19999999999999
 20
-405.25688769207181
 30
0.0
 11
131.19999999999999
 21
-405.74810949020411
 31
0.0
  0
LINE
  5
689
  8
DATA
  6
CONTINUOUS
 62
     7
 10
128.5
 20
-403.04810949020418
 30
0.0
 11
128.5
 21
-403.53933128833683
 31
0.0
  0
LINE
  5
68A
  8
DATA
  6
CONTINUOUS
 62
     7
 10
128.5
 20
-405.25688769207193
 30
0.0
 11
128.5
 21
-405.74810949020411
 31
0.0
  0
ARC
  5
68B
  8
DATA
  6
CONTINUOUS
 62
     7
 10
140.19999999999999
 20
-404.39810949020438
 30
0.0
 40
1.599999999999872
 50
327.53825503270571
 51
32.461744967294919
  0
ARC
  5
68C
  8
DATA
  6
CONTINUOUS
 62
     7
 10
140.19999999999999
 20
-404.39810949020438
 30
0.0
 40
1.5999999999998411
 50
147.5382550327073
 51
212.46174496729211
  0
ARC
  5
68D
  8
DATA
  6
CONTINUOUS
 62
     7
 10
136.75
 20
-404.39810949020438
 30
0.0
 40
1.6000000000001251
 50
147.53825503270659
 51
212.46174496729341
  0
ARC
  5
68E
  8
DATA
  6
CONTINUOUS
 62
     7
 10
136.75
 20
-404.39810949020438
 30
0.0
 40
1.6000000000001251
 50
327.53825503270662
 51
32.461744967293377
  0
ARC
  5
68F
  8
DATA
  6
CONTINUOUS
 62
     7
 10
133.30000000000001
 20
-404.39810949020438
 30
0.0
 40
1.6000000000001251
 50
147.53825503270659
 51
212.46174496729401
  0
ARC
  5
690
  8
DATA
  6
CONTINUOUS
 62
     7
 10
133.30000000000001
 20
-404.39810949020438
 30
0.0
 40
1.6000000000001009
 50
327.53825503270599
 51
32.461744967294521
  0
ARC
  5
691
  8
DATA
  6
CONTINUOUS
 62
     7
 10
129.84999999999999
 20
-404.39810949020438
 30
0.0
 40
1.6000000000001009
 50
147.53825503270599
 51
212.46174496729401
  0
ARC
  5
692
  8
DATA
  6
CONTINUOUS
 62
     7
 10
129.84999999999999
 20
-404.39810949020438
 30
0.0
 40
1.6000000000001009
 50
327.53825503270599
 51
32.461744967293953
  0
LINE
  5
693
  8
DATA
  6
CONTINUOUS
 62
     7
 10
142.5499999999997
 20
-403.04810949020418
 30
0.0
 11
142.5499999999997
 21
-403.53933128833683
 31
0.0
  0
LINE
  5
694
  8
DATA
  6
CONTINUOUS
 62
     7
 10
142.5499999999997
 20
-405.25688769207193
 30
0.0
 11
142.5499999999997
 21
-405.74810949020411
 31
0.0
  0
ARC
  5
695
  8
DATA
  6
CONTINUOUS
 62
     7
 10
143.89999999999969
 20
-404.39810949020438
 30
0.0
 40
1.599999999999872
 50
147.53825503270571
 51
212.46174496729429
  0
ARC
  5
696
  8
DATA
  6
CONTINUOUS
 62
     7
 10
126.34999999999999
 20
-404.39810949020409
 30
0.0
 40
1.3499999999999359
 50
359.99993048304538
 51
0.0000683721150381
  0
ARC
  5
697
  8
DATA
  6
CONTINUOUS
 62
     7
 10
126.34999999999999
 20
-404.39810949020409
 30
0.0
 40
1.3499999999999091
 50
90.000000000001222
 51
270.0
  0
LINE
  5
698
  8
DATA
  6
CONTINUOUS
 62
     7
 10
127.4500000000002
 20
-403.04810949020418
 30
0.0
 11
127.4500000000002
 21
-403.53933128833683
 31
0.0
  0
LINE
  5
699
  8
DATA
  6
CONTINUOUS
 62
     7
 10
127.4500000000002
 20
-405.25688769207193
 30
0.0
 11
127.4500000000002
 21
-405.74810949020411
 31
0.0
  0
ARC
  5
69A
  8
DATA
  6
CONTINUOUS
 62
     7
 10
126.10000000000019
 20
-404.39810949020438
 30
0.0
 40
1.599999999999872
 50
327.53825503270571
 51
32.461744967294642
  0
LINE
  5
69B
  8
DATA
  6
CONTINUOUS
 62
     7
 10
143.65000000000001
 20
-406.20810949020432
 30
0.0
 11
126.34999999999999
 21
-406.20810949020432
 31
0.0
  0
LINE
  5
69C
  8
DATA
  6
CONTINUOUS
 62
     7
 10
126.34999999999999
 20
-408.9081094902042
 30
0.0
 11
143.65000000000001
 21
-408.9081094902042
 31
0.0
  0
ARC
  5
69D
  8
DATA
  6
CONTINUOUS
 62
     7
 10
143.64999999999989
 20
-407.55810949020412
 30
0.0
 40
1.3499999999999319
 50
179.99993162788499
 51
180.0000695169546
  0
ARC
  5
69E
  8
DATA
  6
CONTINUOUS
 62
     7
 10
143.64999999999989
 20
-407.55810949020412
 30
0.0
 40
1.3499999999999091
 50
270.0
 51
89.999999999998764
  0
LINE
  5
69F
  8
DATA
  6
CONTINUOUS
 62
     7
 10
141.5499999999999
 20
-406.20810949020432
 30
0.0
 11
141.5499999999999
 21
-406.69933128833679
 31
0.0
  0
LINE
  5
6A0
  8
DATA
  6
CONTINUOUS
 62
     7
 10
141.5499999999999
 20
-408.41688769207201
 30
0.0
 11
141.5499999999999
 21
-408.9081094902042
 31
0.0
  0
LINE
  5
6A1
  8
DATA
  6
CONTINUOUS
 62
     7
 10
138.84999999999999
 20
-406.20810949020432
 30
0.0
 11
138.84999999999999
 21
-406.69933128833679
 31
0.0
  0
LINE
  5
6A2
  8
DATA
  6
CONTINUOUS
 62
     7
 10
138.84999999999999
 20
-408.41688769207201
 30
0.0
 11
138.84999999999999
 21
-408.9081094902042
 31
0.0
  0
LINE
  5
6A3
  8
DATA
  6
CONTINUOUS
 62
     7
 10
135.40000000000001
 20
-406.20810949020432
 30
0.0
 11
135.40000000000001
 21
-406.69933128833679
 31
0.0
  0
LINE
  5
6A4
  8
DATA
  6
CONTINUOUS
 62
     7
 10
135.40000000000001
 20
-408.41688769207201
 30
0.0
 11
135.40000000000001
 21
-408.9081094902042
 31
0.0
  0
LINE
  5
6A5
  8
DATA
  6
CONTINUOUS
 62
     7
 10
134.65000000000001
 20
-406.20810949020432
 30
0.0
 11
134.65000000000001
 21
-406.69933128833679
 31
0.0
  0
LINE
  5
6A6
  8
DATA
  6
CONTINUOUS
 62
     7
 10
134.65000000000001
 20
-408.41688769207178
 30
0.0
 11
134.65000000000001
 21
-408.9081094902042
 31
0.0
  0
LINE
  5
6A7
  8
DATA
  6
CONTINUOUS
 62
     7
 10
138.09999999999999
 20
-406.20810949020432
 30
0.0
 11
138.09999999999999
 21
-406.69933128833679
 31
0.0
  0
LINE
  5
6A8
  8
DATA
  6
CONTINUOUS
 62
     7
 10
138.09999999999999
 20
-408.41688769207178
 30
0.0
 11
138.09999999999999
 21
-408.9081094902042
 31
0.0
  0
LINE
  5
6A9
  8
DATA
  6
CONTINUOUS
 62
     7
 10
131.94999999999999
 20
-406.20810949020432
 30
0.0
 11
131.94999999999999
 21
-406.69933128833679
 31
0.0
  0
LINE
  5
6AA
  8
DATA
  6
CONTINUOUS
 62
     7
 10
131.94999999999999
 20
-408.41688769207201
 30
0.0
 11
131.94999999999999
 21
-408.9081094902042
 31
0.0
  0
LINE
  5
6AB
  8
DATA
  6
CONTINUOUS
 62
     7
 10
131.19999999999999
 20
-406.20810949020432
 30
0.0
 11
131.19999999999999
 21
-406.69933128833679
 31
0.0
  0
LINE
  5
6AC
  8
DATA
  6
CONTINUOUS
 62
     7
 10
131.19999999999999
 20
-408.41688769207178
 30
0.0
 11
131.19999999999999
 21
-408.9081094902042
 31
0.0
  0
LINE
  5
6AD
  8
DATA
  6
CONTINUOUS
 62
     7
 10
128.5
 20
-406.20810949020432
 30
0.0
 11
128.5
 21
-406.69933128833679
 31
0.0
  0
LINE
  5
6AE
  8
DATA
  6
CONTINUOUS
 62
     7
 10
128.5
 20
-408.41688769207201
 30
0.0
 11
128.5
 21
-408.9081094902042
 31
0.0
  0
ARC
  5
6AF
  8
DATA
  6
CONTINUOUS
 62
     7
 10
140.19999999999999
 20
-407.55810949020452
 30
0.0
 40
1.599999999999872
 50
327.53825503270571
 51
32.461744967294919
  0
ARC
  5
6B0
  8
DATA
  6
CONTINUOUS
 62
     7
 10
140.19999999999999
 20
-407.55810949020452
 30
0.0
 40
1.5999999999998411
 50
147.5382550327073
 51
212.46174496729211
  0
ARC
  5
6B1
  8
DATA
  6
CONTINUOUS
 62
     7
 10
136.75
 20
-407.55810949020452
 30
0.0
 40
1.6000000000001251
 50
147.53825503270659
 51
212.46174496729341
  0
ARC
  5
6B2
  8
DATA
  6
CONTINUOUS
 62
     7
 10
136.75
 20
-407.55810949020452
 30
0.0
 40
1.6000000000001251
 50
327.53825503270662
 51
32.461744967293377
  0
ARC
  5
6B3
  8
DATA
  6
CONTINUOUS
 62
     7
 10
133.30000000000001
 20
-407.5581094902044
 30
0.0
 40
1.6000000000001251
 50
147.53825503270659
 51
212.46174496729401
  0
ARC
  5
6B4
  8
DATA
  6
CONTINUOUS
 62
     7
 10
133.30000000000001
 20
-407.5581094902044
 30
0.0
 40
1.6000000000001009
 50
327.53825503270599
 51
32.461744967294521
  0
ARC
  5
6B5
  8
DATA
  6
CONTINUOUS
 62
     7
 10
129.84999999999999
 20
-407.5581094902044
 30
0.0
 40
1.6000000000001009
 50
147.53825503270599
 51
212.46174496729401
  0
ARC
  5
6B6
  8
DATA
  6
CONTINUOUS
 62
     7
 10
129.84999999999999
 20
-407.5581094902044
 30
0.0
 40
1.6000000000001009
 50
327.53825503270599
 51
32.461744967293953
  0
LINE
  5
6B7
  8
DATA
  6
CONTINUOUS
 62
     7
 10
142.5499999999997
 20
-406.20810949020432
 30
0.0
 11
142.5499999999997
 21
-406.69933128833679
 31
0.0
  0
LINE
  5
6B8
  8
DATA
  6
CONTINUOUS
 62
     7
 10
142.5499999999997
 20
-408.41688769207201
 30
0.0
 11
142.5499999999997
 21
-408.9081094902042
 31
0.0
  0
ARC
  5
6B9
  8
DATA
  6
CONTINUOUS
 62
     7
 10
143.89999999999969
 20
-407.55810949020452
 30
0.0
 40
1.599999999999872
 50
147.53825503270571
 51
212.46174496729429
  0
ARC
  5
6BA
  8
DATA
  6
CONTINUOUS
 62
     7
 10
126.34999999999999
 20
-407.55810949020412
 30
0.0
 40
1.3499999999999359
 50
359.99993048304538
 51
0.0000683721150381
  0
ARC
  5
6BB
  8
DATA
  6
CONTINUOUS
 62
     7
 10
126.34999999999999
 20
-407.55810949020412
 30
0.0
 40
1.3499999999999091
 50
90.000000000001222
 51
270.0
  0
LINE
  5
6BC
  8
DATA
  6
CONTINUOUS
 62
     7
 10
127.4500000000002
 20
-406.20810949020432
 30
0.0
 11
127.4500000000002
 21
-406.69933128833679
 31
0.0
  0
LINE
  5
6BD
  8
DATA
  6
CONTINUOUS
 62
     7
 10
127.4500000000002
 20
-408.41688769207201
 30
0.0
 11
127.4500000000002
 21
-408.9081094902042
 31
0.0
  0
ARC
  5
6BE
  8
DATA
  6
CONTINUOUS
 62
     7
 10
126.10000000000019
 20
-407.55810949020452
 30
0.0
 40
1.599999999999872
 50
327.53825503270571
 51
32.461744967294642
  0
LINE
  5
6BF
  8
DATA
  6
CONTINUOUS
 62
     7
 10
143.65000000000001
 20
-409.36810949020418
 30
0.0
 11
126.34999999999999
 21
-409.36810949020418
 31
0.0
  0
LINE
  5
6C0
  8
DATA
  6
CONTINUOUS
 62
     7
 10
126.34999999999999
 20
-412.06810949020422
 30
0.0
 11
143.65000000000001
 21
-412.06810949020422
 31
0.0
  0
ARC
  5
6C1
  8
DATA
  6
CONTINUOUS
 62
     7
 10
143.64999999999989
 20
-410.71810949020409
 30
0.0
 40
1.3499999999999319
 50
179.99993162788499
 51
180.0000695169546
  0
ARC
  5
6C2
  8
DATA
  6
CONTINUOUS
 62
     7
 10
143.64999999999989
 20
-410.71810949020409
 30
0.0
 40
1.3499999999999091
 50
270.0
 51
89.999999999998764
  0
LINE
  5
6C3
  8
DATA
  6
CONTINUOUS
 62
     7
 10
141.5499999999999
 20
-409.36810949020418
 30
0.0
 11
141.5499999999999
 21
-409.85933128833688
 31
0.0
  0
LINE
  5
6C4
  8
DATA
  6
CONTINUOUS
 62
     7
 10
141.5499999999999
 20
-411.57688769207198
 30
0.0
 11
141.5499999999999
 21
-412.06810949020422
 31
0.0
  0
LINE
  5
6C5
  8
DATA
  6
CONTINUOUS
 62
     7
 10
138.84999999999999
 20
-409.36810949020418
 30
0.0
 11
138.84999999999999
 21
-409.85933128833688
 31
0.0
  0
LINE
  5
6C6
  8
DATA
  6
CONTINUOUS
 62
     7
 10
138.84999999999999
 20
-411.57688769207198
 30
0.0
 11
138.84999999999999
 21
-412.06810949020422
 31
0.0
  0
LINE
  5
6C7
  8
DATA
  6
CONTINUOUS
 62
     7
 10
135.40000000000001
 20
-409.36810949020418
 30
0.0
 11
135.40000000000001
 21
-409.85933128833688
 31
0.0
  0
LINE
  5
6C8
  8
DATA
  6
CONTINUOUS
 62
     7
 10
135.40000000000001
 20
-411.57688769207198
 30
0.0
 11
135.40000000000001
 21
-412.06810949020422
 31
0.0
  0
LINE
  5
6C9
  8
DATA
  6
CONTINUOUS
 62
     7
 10
134.65000000000001
 20
-409.36810949020418
 30
0.0
 11
134.65000000000001
 21
-409.8593312883367
 31
0.0
  0
LINE
  5
6CA
  8
DATA
  6
CONTINUOUS
 62
     7
 10
134.65000000000001
 20
-411.57688769207181
 30
0.0
 11
134.65000000000001
 21
-412.06810949020422
 31
0.0
  0
LINE
  5
6CB
  8
DATA
  6
CONTINUOUS
 62
     7
 10
138.09999999999999
 20
-409.36810949020418
 30
0.0
 11
138.09999999999999
 21
-409.8593312883367
 31
0.0
  0
LINE
  5
6CC
  8
DATA
  6
CONTINUOUS
 62
     7
 10
138.09999999999999
 20
-411.57688769207181
 30
0.0
 11
138.09999999999999
 21
-412.06810949020422
 31
0.0
  0
LINE
  5
6CD
  8
DATA
  6
CONTINUOUS
 62
     7
 10
131.94999999999999
 20
-409.36810949020418
 30
0.0
 11
131.94999999999999
 21
-409.85933128833682
 31
0.0
  0
LINE
  5
6CE
  8
DATA
  6
CONTINUOUS
 62
     7
 10
131.94999999999999
 20
-411.57688769207192
 30
0.0
 11
131.94999999999999
 21
-412.06810949020422
 31
0.0
  0
LINE
  5
6CF
  8
DATA
  6
CONTINUOUS
 62
     7
 10
131.19999999999999
 20
-409.36810949020418
 30
0.0
 11
131.19999999999999
 21
-409.8593312883367
 31
0.0
  0
LINE
  5
6D0
  8
DATA
  6
CONTINUOUS
 62
     7
 10
131.19999999999999
 20
-411.57688769207181
 30
0.0
 11
131.19999999999999
 21
-412.06810949020422
 31
0.0
  0
LINE
  5
6D1
  8
DATA
  6
CONTINUOUS
 62
     7
 10
128.5
 20
-409.36810949020418
 30
0.0
 11
128.5
 21
-409.85933128833682
 31
0.0
  0
LINE
  5
6D2
  8
DATA
  6
CONTINUOUS
 62
     7
 10
128.5
 20
-411.57688769207192
 30
0.0
 11
128.5
 21
-412.06810949020422
 31
0.0
  0
ARC
  5
6D3
  8
DATA
  6
CONTINUOUS
 62
     7
 10
140.19999999999999
 20
-410.71810949020443
 30
0.0
 40
1.599999999999872
 50
327.53825503270571
 51
32.461744967294919
  0
ARC
  5
6D4
  8
DATA
  6
CONTINUOUS
 62
     7
 10
140.19999999999999
 20
-410.71810949020443
 30
0.0
 40
1.5999999999998411
 50
147.5382550327073
 51
212.46174496729211
  0
ARC
  5
6D5
  8
DATA
  6
CONTINUOUS
 62
     7
 10
136.75
 20
-410.71810949020443
 30
0.0
 40
1.6000000000001251
 50
147.53825503270659
 51
212.46174496729341
  0
ARC
  5
6D6
  8
DATA
  6
CONTINUOUS
 62
     7
 10
136.75
 20
-410.71810949020443
 30
0.0
 40
1.6000000000001251
 50
327.53825503270662
 51
32.461744967293377
  0
ARC
  5
6D7
  8
DATA
  6
CONTINUOUS
 62
     7
 10
133.30000000000001
 20
-410.71810949020443
 30
0.0
 40
1.6000000000001251
 50
147.53825503270659
 51
212.46174496729401
  0
ARC
  5
6D8
  8
DATA
  6
CONTINUOUS
 62
     7
 10
133.30000000000001
 20
-410.71810949020443
 30
0.0
 40
1.6000000000001009
 50
327.53825503270599
 51
32.461744967294521
  0
ARC
  5
6D9
  8
DATA
  6
CONTINUOUS
 62
     7
 10
129.84999999999999
 20
-410.71810949020443
 30
0.0
 40
1.6000000000001009
 50
147.53825503270599
 51
212.46174496729401
  0
ARC
  5
6DA
  8
DATA
  6
CONTINUOUS
 62
     7
 10
129.84999999999999
 20
-410.71810949020443
 30
0.0
 40
1.6000000000001009
 50
327.53825503270599
 51
32.461744967293953
  0
LINE
  5
6DB
  8
DATA
  6
CONTINUOUS
 62
     7
 10
142.5499999999997
 20
-409.36810949020418
 30
0.0
 11
142.5499999999997
 21
-409.85933128833688
 31
0.0
  0
LINE
  5
6DC
  8
DATA
  6
CONTINUOUS
 62
     7
 10
142.5499999999997
 20
-411.57688769207198
 30
0.0
 11
142.5499999999997
 21
-412.06810949020422
 31
0.0
  0
ARC
  5
6DD
  8
DATA
  6
CONTINUOUS
 62
     7
 10
143.89999999999969
 20
-410.71810949020443
 30
0.0
 40
1.599999999999872
 50
147.53825503270571
 51
212.46174496729429
  0
ARC
  5
6DE
  8
DATA
  6
CONTINUOUS
 62
     7
 10
126.34999999999999
 20
-410.71810949020409
 30
0.0
 40
1.3499999999999359
 50
359.99993048304538
 51
0.0000683721150381
  0
ARC
  5
6DF
  8
DATA
  6
CONTINUOUS
 62
     7
 10
126.34999999999999
 20
-410.71810949020409
 30
0.0
 40
1.3499999999999091
 50
90.000000000001222
 51
270.0
  0
LINE
  5
6E0
  8
DATA
  6
CONTINUOUS
 62
     7
 10
127.4500000000002
 20
-409.36810949020418
 30
0.0
 11
127.4500000000002
 21
-409.85933128833688
 31
0.0
  0
LINE
  5
6E1
  8
DATA
  6
CONTINUOUS
 62
     7
 10
127.4500000000002
 20
-411.57688769207198
 30
0.0
 11
127.4500000000002
 21
-412.06810949020422
 31
0.0
  0
ARC
  5
6E2
  8
DATA
  6
CONTINUOUS
 62
     7
 10
126.10000000000019
 20
-410.71810949020443
 30
0.0
 40
1.599999999999872
 50
327.53825503270571
 51
32.461744967294642
  0
LINE
  5
6E3
  8
DATA
  6
CONTINUOUS
 62
     7
 10
143.65000000000001
 20
-412.5281094902042
 30
0.0
 11
126.34999999999999
 21
-412.5281094902042
 31
0.0
  0
LINE
  5
6E4
  8
DATA
  6
CONTINUOUS
 62
     7
 10
126.34999999999999
 20
-415.22810949020419
 30
0.0
 11
143.65000000000001
 21
-415.22810949020419
 31
0.0
  0
ARC
  5
6E5
  8
DATA
  6
CONTINUOUS
 62
     7
 10
143.64999999999989
 20
-413.87810949020411
 30
0.0
 40
1.3499999999999319
 50
179.99993162788499
 51
180.0000695169546
  0
ARC
  5
6E6
  8
DATA
  6
CONTINUOUS
 62
     7
 10
143.64999999999989
 20
-413.87810949020411
 30
0.0
 40
1.3499999999999091
 50
270.0
 51
89.999999999998764
  0
LINE
  5
6E7
  8
DATA
  6
CONTINUOUS
 62
     7
 10
141.5499999999999
 20
-412.5281094902042
 30
0.0
 11
141.5499999999999
 21
-413.01933128833679
 31
0.0
  0
LINE
  5
6E8
  8
DATA
  6
CONTINUOUS
 62
     7
 10
141.5499999999999
 20
-414.736887692072
 30
0.0
 11
141.5499999999999
 21
-415.22810949020419
 31
0.0
  0
LINE
  5
6E9
  8
DATA
  6
CONTINUOUS
 62
     7
 10
138.84999999999999
 20
-412.5281094902042
 30
0.0
 11
138.84999999999999
 21
-413.01933128833679
 31
0.0
  0
LINE
  5
6EA
  8
DATA
  6
CONTINUOUS
 62
     7
 10
138.84999999999999
 20
-414.736887692072
 30
0.0
 11
138.84999999999999
 21
-415.22810949020419
 31
0.0
  0
LINE
  5
6EB
  8
DATA
  6
CONTINUOUS
 62
     7
 10
135.40000000000001
 20
-412.5281094902042
 30
0.0
 11
135.40000000000001
 21
-413.01933128833679
 31
0.0
  0
LINE
  5
6EC
  8
DATA
  6
CONTINUOUS
 62
     7
 10
135.40000000000001
 20
-414.736887692072
 30
0.0
 11
135.40000000000001
 21
-415.22810949020419
 31
0.0
  0
LINE
  5
6ED
  8
DATA
  6
CONTINUOUS
 62
     7
 10
134.65000000000001
 20
-412.5281094902042
 30
0.0
 11
134.65000000000001
 21
-413.01933128833667
 31
0.0
  0
LINE
  5
6EE
  8
DATA
  6
CONTINUOUS
 62
     7
 10
134.65000000000001
 20
-414.73688769207178
 30
0.0
 11
134.65000000000001
 21
-415.22810949020419
 31
0.0
  0
LINE
  5
6EF
  8
DATA
  6
CONTINUOUS
 62
     7
 10
138.09999999999999
 20
-412.5281094902042
 30
0.0
 11
138.09999999999999
 21
-413.01933128833667
 31
0.0
  0
LINE
  5
6F0
  8
DATA
  6
CONTINUOUS
 62
     7
 10
138.09999999999999
 20
-414.73688769207178
 30
0.0
 11
138.09999999999999
 21
-415.22810949020419
 31
0.0
  0
LINE
  5
6F1
  8
DATA
  6
CONTINUOUS
 62
     7
 10
131.94999999999999
 20
-412.5281094902042
 30
0.0
 11
131.94999999999999
 21
-413.01933128833679
 31
0.0
  0
LINE
  5
6F2
  8
DATA
  6
CONTINUOUS
 62
     7
 10
131.94999999999999
 20
-414.736887692072
 30
0.0
 11
131.94999999999999
 21
-415.22810949020419
 31
0.0
  0
LINE
  5
6F3
  8
DATA
  6
CONTINUOUS
 62
     7
 10
131.19999999999999
 20
-412.5281094902042
 30
0.0
 11
131.19999999999999
 21
-413.01933128833667
 31
0.0
  0
LINE
  5
6F4
  8
DATA
  6
CONTINUOUS
 62
     7
 10
131.19999999999999
 20
-414.73688769207178
 30
0.0
 11
131.19999999999999
 21
-415.22810949020419
 31
0.0
  0
LINE
  5
6F5
  8
DATA
  6
CONTINUOUS
 62
     7
 10
128.5
 20
-412.5281094902042
 30
0.0
 11
128.5
 21
-413.01933128833679
 31
0.0
  0
LINE
  5
6F6
  8
DATA
  6
CONTINUOUS
 62
     7
 10
128.5
 20
-414.736887692072
 30
0.0
 11
128.5
 21
-415.22810949020419
 31
0.0
  0
ARC
  5
6F7
  8
DATA
  6
CONTINUOUS
 62
     7
 10
140.19999999999999
 20
-413.87810949020439
 30
0.0
 40
1.599999999999872
 50
327.53825503270571
 51
32.461744967294919
  0
ARC
  5
6F8
  8
DATA
  6
CONTINUOUS
 62
     7
 10
140.19999999999999
 20
-413.87810949020439
 30
0.0
 40
1.5999999999998411
 50
147.5382550327073
 51
212.46174496729211
  0
ARC
  5
6F9
  8
DATA
  6
CONTINUOUS
 62
     7
 10
136.75
 20
-413.87810949020439
 30
0.0
 40
1.6000000000001251
 50
147.53825503270659
 51
212.46174496729341
  0
ARC
  5
6FA
  8
DATA
  6
CONTINUOUS
 62
     7
 10
136.75
 20
-413.87810949020439
 30
0.0
 40
1.6000000000001251
 50
327.53825503270662
 51
32.461744967293377
  0
ARC
  5
6FB
  8
DATA
  6
CONTINUOUS
 62
     7
 10
133.30000000000001
 20
-413.87810949020439
 30
0.0
 40
1.6000000000001251
 50
147.53825503270659
 51
212.46174496729401
  0
ARC
  5
6FC
  8
DATA
  6
CONTINUOUS
 62
     7
 10
133.30000000000001
 20
-413.87810949020439
 30
0.0
 40
1.6000000000001009
 50
327.53825503270599
 51
32.461744967294521
  0
ARC
  5
6FD
  8
DATA
  6
CONTINUOUS
 62
     7
 10
129.84999999999999
 20
-413.87810949020439
 30
0.0
 40
1.6000000000001009
 50
147.53825503270599
 51
212.46174496729401
  0
ARC
  5
6FE
  8
DATA
  6
CONTINUOUS
 62
     7
 10
129.84999999999999
 20
-413.87810949020439
 30
0.0
 40
1.6000000000001009
 50
327.53825503270599
 51
32.461744967293953
  0
LINE
  5
6FF
  8
DATA
  6
CONTINUOUS
 62
     7
 10
142.5499999999997
 20
-412.5281094902042
 30
0.0
 11
142.5499999999997
 21
-413.01933128833679
 31
0.0
  0
LINE
  5
700
  8
DATA
  6
CONTINUOUS
 62
     7
 10
142.5499999999997
 20
-414.736887692072
 30
0.0
 11
142.5499999999997
 21
-415.22810949020419
 31
0.0
  0
ARC
  5
701
  8
DATA
  6
CONTINUOUS
 62
     7
 10
143.89999999999969
 20
-413.87810949020439
 30
0.0
 40
1.599999999999872
 50
147.53825503270571
 51
212.46174496729429
  0
ARC
  5
702
  8
DATA
  6
CONTINUOUS
 62
     7
 10
126.34999999999999
 20
-413.87810949020411
 30
0.0
 40
1.3499999999999359
 50
359.99993048304538
 51
0.0000683721150381
  0
ARC
  5
703
  8
DATA
  6
CONTINUOUS
 62
     7
 10
126.34999999999999
 20
-413.87810949020411
 30
0.0
 40
1.3499999999999091
 50
90.000000000001222
 51
270.0
  0
LINE
  5
704
  8
DATA
  6
CONTINUOUS
 62
     7
 10
127.4500000000002
 20
-412.5281094902042
 30
0.0
 11
127.4500000000002
 21
-413.01933128833679
 31
0.0
  0
LINE
  5
705
  8
DATA
  6
CONTINUOUS
 62
     7
 10
127.4500000000002
 20
-414.736887692072
 30
0.0
 11
127.4500000000002
 21
-415.22810949020419
 31
0.0
  0
ARC
  5
706
  8
DATA
  6
CONTINUOUS
 62
     7
 10
126.10000000000019
 20
-413.87810949020439
 30
0.0
 40
1.599999999999872
 50
327.53825503270571
 51
32.461744967294642
  0
LINE
  5
707
  8
DATA
  6
CONTINUOUS
 62
     7
 10
143.65000000000001
 20
-415.68810949020423
 30
0.0
 11
126.34999999999999
 21
-415.68810949020423
 31
0.0
  0
LINE
  5
708
  8
DATA
  6
CONTINUOUS
 62
     7
 10
126.34999999999999
 20
-418.3881094902041
 30
0.0
 11
143.65000000000001
 21
-418.3881094902041
 31
0.0
  0
ARC
  5
709
  8
DATA
  6
CONTINUOUS
 62
     7
 10
143.64999999999989
 20
-417.03810949020408
 30
0.0
 40
1.3499999999999319
 50
179.99993162788499
 51
180.0000695169546
  0
ARC
  5
70A
  8
DATA
  6
CONTINUOUS
 62
     7
 10
143.64999999999989
 20
-417.03810949020408
 30
0.0
 40
1.3499999999999091
 50
270.0
 51
89.999999999998764
  0
LINE
  5
70B
  8
DATA
  6
CONTINUOUS
 62
     7
 10
141.5499999999999
 20
-415.68810949020423
 30
0.0
 11
141.5499999999999
 21
-416.17933128833681
 31
0.0
  0
LINE
  5
70C
  8
DATA
  6
CONTINUOUS
 62
     7
 10
141.5499999999999
 20
-417.89688769207191
 30
0.0
 11
141.5499999999999
 21
-418.3881094902041
 31
0.0
  0
LINE
  5
70D
  8
DATA
  6
CONTINUOUS
 62
     7
 10
138.84999999999999
 20
-415.68810949020423
 30
0.0
 11
138.84999999999999
 21
-416.17933128833681
 31
0.0
  0
LINE
  5
70E
  8
DATA
  6
CONTINUOUS
 62
     7
 10
138.84999999999999
 20
-417.89688769207191
 30
0.0
 11
138.84999999999999
 21
-418.3881094902041
 31
0.0
  0
LINE
  5
70F
  8
DATA
  6
CONTINUOUS
 62
     7
 10
135.40000000000001
 20
-415.68810949020423
 30
0.0
 11
135.40000000000001
 21
-416.17933128833681
 31
0.0
  0
LINE
  5
710
  8
DATA
  6
CONTINUOUS
 62
     7
 10
135.40000000000001
 20
-417.89688769207191
 30
0.0
 11
135.40000000000001
 21
-418.3881094902041
 31
0.0
  0
LINE
  5
711
  8
DATA
  6
CONTINUOUS
 62
     7
 10
134.65000000000001
 20
-415.68810949020423
 30
0.0
 11
134.65000000000001
 21
-416.17933128833658
 31
0.0
  0
LINE
  5
712
  8
DATA
  6
CONTINUOUS
 62
     7
 10
134.65000000000001
 20
-417.8968876920718
 30
0.0
 11
134.65000000000001
 21
-418.3881094902041
 31
0.0
  0
LINE
  5
713
  8
DATA
  6
CONTINUOUS
 62
     7
 10
138.09999999999999
 20
-415.68810949020423
 30
0.0
 11
138.09999999999999
 21
-416.17933128833658
 31
0.0
  0
LINE
  5
714
  8
DATA
  6
CONTINUOUS
 62
     7
 10
138.09999999999999
 20
-417.8968876920718
 30
0.0
 11
138.09999999999999
 21
-418.3881094902041
 31
0.0
  0
LINE
  5
715
  8
DATA
  6
CONTINUOUS
 62
     7
 10
131.94999999999999
 20
-415.68810949020423
 30
0.0
 11
131.94999999999999
 21
-416.17933128833681
 31
0.0
  0
LINE
  5
716
  8
DATA
  6
CONTINUOUS
 62
     7
 10
131.94999999999999
 20
-417.89688769207191
 30
0.0
 11
131.94999999999999
 21
-418.3881094902041
 31
0.0
  0
LINE
  5
717
  8
DATA
  6
CONTINUOUS
 62
     7
 10
131.19999999999999
 20
-415.68810949020423
 30
0.0
 11
131.19999999999999
 21
-416.17933128833658
 31
0.0
  0
LINE
  5
718
  8
DATA
  6
CONTINUOUS
 62
     7
 10
131.19999999999999
 20
-417.8968876920718
 30
0.0
 11
131.19999999999999
 21
-418.3881094902041
 31
0.0
  0
LINE
  5
719
  8
DATA
  6
CONTINUOUS
 62
     7
 10
128.5
 20
-415.68810949020423
 30
0.0
 11
128.5
 21
-416.17933128833681
 31
0.0
  0
LINE
  5
71A
  8
DATA
  6
CONTINUOUS
 62
     7
 10
128.5
 20
-417.89688769207191
 30
0.0
 11
128.5
 21
-418.3881094902041
 31
0.0
  0
ARC
  5
71B
  8
DATA
  6
CONTINUOUS
 62
     7
 10
140.19999999999999
 20
-417.03810949020442
 30
0.0
 40
1.599999999999872
 50
327.53825503270571
 51
32.461744967294919
  0
ARC
  5
71C
  8
DATA
  6
CONTINUOUS
 62
     7
 10
140.19999999999999
 20
-417.03810949020442
 30
0.0
 40
1.5999999999998411
 50
147.5382550327073
 51
212.46174496729211
  0
ARC
  5
71D
  8
DATA
  6
CONTINUOUS
 62
     7
 10
136.75
 20
-417.03810949020442
 30
0.0
 40
1.6000000000001251
 50
147.53825503270659
 51
212.46174496729341
  0
ARC
  5
71E
  8
DATA
  6
CONTINUOUS
 62
     7
 10
136.75
 20
-417.03810949020442
 30
0.0
 40
1.6000000000001251
 50
327.53825503270662
 51
32.461744967293377
  0
ARC
  5
71F
  8
DATA
  6
CONTINUOUS
 62
     7
 10
133.30000000000001
 20
-417.03810949020442
 30
0.0
 40
1.6000000000001251
 50
147.53825503270659
 51
212.46174496729401
  0
ARC
  5
720
  8
DATA
  6
CONTINUOUS
 62
     7
 10
133.30000000000001
 20
-417.03810949020442
 30
0.0
 40
1.6000000000001009
 50
327.53825503270599
 51
32.461744967294521
  0
ARC
  5
721
  8
DATA
  6
CONTINUOUS
 62
     7
 10
129.84999999999999
 20
-417.03810949020442
 30
0.0
 40
1.6000000000001009
 50
147.53825503270599
 51
212.46174496729401
  0
ARC
  5
722
  8
DATA
  6
CONTINUOUS
 62
     7
 10
129.84999999999999
 20
-417.03810949020442
 30
0.0
 40
1.6000000000001009
 50
327.53825503270599
 51
32.461744967293953
  0
LINE
  5
723
  8
DATA
  6
CONTINUOUS
 62
     7
 10
142.5499999999997
 20
-415.68810949020423
 30
0.0
 11
142.5499999999997
 21
-416.17933128833681
 31
0.0
  0
LINE
  5
724
  8
DATA
  6
CONTINUOUS
 62
     7
 10
142.5499999999997
 20
-417.89688769207191
 30
0.0
 11
142.5499999999997
 21
-418.3881094902041
 31
0.0
  0
ARC
  5
725
  8
DATA
  6
CONTINUOUS
 62
     7
 10
143.89999999999969
 20
-417.03810949020442
 30
0.0
 40
1.599999999999872
 50
147.53825503270571
 51
212.46174496729429
  0
ARC
  5
726
  8
DATA
  6
CONTINUOUS
 62
     7
 10
126.34999999999999
 20
-417.03810949020408
 30
0.0
 40
1.3499999999999359
 50
359.99993048304538
 51
0.0000683721150381
  0
ARC
  5
727
  8
DATA
  6
CONTINUOUS
 62
     7
 10
126.34999999999999
 20
-417.03810949020408
 30
0.0
 40
1.3499999999999091
 50
90.000000000001222
 51
270.0
  0
LINE
  5
728
  8
DATA
  6
CONTINUOUS
 62
     7
 10
127.4500000000002
 20
-415.68810949020423
 30
0.0
 11
127.4500000000002
 21
-416.17933128833681
 31
0.0
  0
LINE
  5
729
  8
DATA
  6
CONTINUOUS
 62
     7
 10
127.4500000000002
 20
-417.89688769207191
 30
0.0
 11
127.4500000000002
 21
-418.3881094902041
 31
0.0
  0
ARC
  5
72A
  8
DATA
  6
CONTINUOUS
 62
     7
 10
126.10000000000019
 20
-417.03810949020442
 30
0.0
 40
1.599999999999872
 50
327.53825503270571
 51
32.461744967294642
  0
LINE
  5
72B
  8
DATA
  6
CONTINUOUS
 62
     7
 10
143.65000000000001
 20
-418.84810949020431
 30
0.0
 11
126.34999999999999
 21
-418.84810949020431
 31
0.0
  0
LINE
  5
72C
  8
DATA
  6
CONTINUOUS
 62
     7
 10
126.34999999999999
 20
-421.54810949020418
 30
0.0
 11
143.65000000000001
 21
-421.54810949020418
 31
0.0
  0
ARC
  5
72D
  8
DATA
  6
CONTINUOUS
 62
     7
 10
143.64999999999989
 20
-420.1981094902041
 30
0.0
 40
1.3499999999999319
 50
179.99993162788499
 51
180.0000695169546
  0
ARC
  5
72E
  8
DATA
  6
CONTINUOUS
 62
     7
 10
143.64999999999989
 20
-420.1981094902041
 30
0.0
 40
1.3499999999999091
 50
270.0
 51
89.999999999998764
  0
LINE
  5
72F
  8
DATA
  6
CONTINUOUS
 62
     7
 10
141.5499999999999
 20
-418.84810949020431
 30
0.0
 11
141.5499999999999
 21
-419.33933128833689
 31
0.0
  0
LINE
  5
730
  8
DATA
  6
CONTINUOUS
 62
     7
 10
141.5499999999999
 20
-421.056887692072
 30
0.0
 11
141.5499999999999
 21
-421.54810949020418
 31
0.0
  0
LINE
  5
731
  8
DATA
  6
CONTINUOUS
 62
     7
 10
138.84999999999999
 20
-418.84810949020431
 30
0.0
 11
138.84999999999999
 21
-419.33933128833689
 31
0.0
  0
LINE
  5
732
  8
DATA
  6
CONTINUOUS
 62
     7
 10
138.84999999999999
 20
-421.056887692072
 30
0.0
 11
138.84999999999999
 21
-421.54810949020418
 31
0.0
  0
LINE
  5
733
  8
DATA
  6
CONTINUOUS
 62
     7
 10
135.40000000000001
 20
-418.84810949020431
 30
0.0
 11
135.40000000000001
 21
-419.33933128833689
 31
0.0
  0
LINE
  5
734
  8
DATA
  6
CONTINUOUS
 62
     7
 10
135.40000000000001
 20
-421.056887692072
 30
0.0
 11
135.40000000000001
 21
-421.54810949020418
 31
0.0
  0
LINE
  5
735
  8
DATA
  6
CONTINUOUS
 62
     7
 10
134.65000000000001
 20
-418.84810949020431
 30
0.0
 11
134.65000000000001
 21
-419.33933128833672
 31
0.0
  0
LINE
  5
736
  8
DATA
  6
CONTINUOUS
 62
     7
 10
134.65000000000001
 20
-421.05688769207183
 30
0.0
 11
134.65000000000001
 21
-421.54810949020418
 31
0.0
  0
LINE
  5
737
  8
DATA
  6
CONTINUOUS
 62
     7
 10
138.09999999999999
 20
-418.84810949020431
 30
0.0
 11
138.09999999999999
 21
-419.33933128833672
 31
0.0
  0
LINE
  5
738
  8
DATA
  6
CONTINUOUS
 62
     7
 10
138.09999999999999
 20
-421.05688769207183
 30
0.0
 11
138.09999999999999
 21
-421.54810949020418
 31
0.0
  0
LINE
  5
739
  8
DATA
  6
CONTINUOUS
 62
     7
 10
131.94999999999999
 20
-418.84810949020431
 30
0.0
 11
131.94999999999999
 21
-419.33933128833672
 31
0.0
  0
LINE
  5
73A
  8
DATA
  6
CONTINUOUS
 62
     7
 10
131.94999999999999
 20
-421.056887692072
 30
0.0
 11
131.94999999999999
 21
-421.54810949020418
 31
0.0
  0
LINE
  5
73B
  8
DATA
  6
CONTINUOUS
 62
     7
 10
131.19999999999999
 20
-418.84810949020431
 30
0.0
 11
131.19999999999999
 21
-419.33933128833672
 31
0.0
  0
LINE
  5
73C
  8
DATA
  6
CONTINUOUS
 62
     7
 10
131.19999999999999
 20
-421.05688769207183
 30
0.0
 11
131.19999999999999
 21
-421.54810949020418
 31
0.0
  0
LINE
  5
73D
  8
DATA
  6
CONTINUOUS
 62
     7
 10
128.5
 20
-418.84810949020431
 30
0.0
 11
128.5
 21
-419.33933128833672
 31
0.0
  0
LINE
  5
73E
  8
DATA
  6
CONTINUOUS
 62
     7
 10
128.5
 20
-421.056887692072
 30
0.0
 11
128.5
 21
-421.54810949020418
 31
0.0
  0
ARC
  5
73F
  8
DATA
  6
CONTINUOUS
 62
     7
 10
140.19999999999999
 20
-420.19810949020439
 30
0.0
 40
1.599999999999872
 50
327.53825503270571
 51
32.461744967294919
  0
ARC
  5
740
  8
DATA
  6
CONTINUOUS
 62
     7
 10
140.19999999999999
 20
-420.19810949020439
 30
0.0
 40
1.5999999999998411
 50
147.5382550327073
 51
212.46174496729211
  0
ARC
  5
741
  8
DATA
  6
CONTINUOUS
 62
     7
 10
136.75
 20
-420.19810949020439
 30
0.0
 40
1.6000000000001251
 50
147.53825503270659
 51
212.46174496729341
  0
ARC
  5
742
  8
DATA
  6
CONTINUOUS
 62
     7
 10
136.75
 20
-420.19810949020439
 30
0.0
 40
1.6000000000001251
 50
327.53825503270662
 51
32.461744967293377
  0
ARC
  5
743
  8
DATA
  6
CONTINUOUS
 62
     7
 10
133.30000000000001
 20
-420.19810949020427
 30
0.0
 40
1.6000000000001251
 50
147.53825503270659
 51
212.46174496729401
  0
ARC
  5
744
  8
DATA
  6
CONTINUOUS
 62
     7
 10
133.30000000000001
 20
-420.19810949020427
 30
0.0
 40
1.6000000000001009
 50
327.53825503270599
 51
32.461744967294521
  0
ARC
  5
745
  8
DATA
  6
CONTINUOUS
 62
     7
 10
129.84999999999999
 20
-420.19810949020427
 30
0.0
 40
1.6000000000001009
 50
147.53825503270599
 51
212.46174496729401
  0
ARC
  5
746
  8
DATA
  6
CONTINUOUS
 62
     7
 10
129.84999999999999
 20
-420.19810949020427
 30
0.0
 40
1.6000000000001009
 50
327.53825503270599
 51
32.461744967293953
  0
LINE
  5
747
  8
DATA
  6
CONTINUOUS
 62
     7
 10
142.5499999999997
 20
-418.84810949020431
 30
0.0
 11
142.5499999999997
 21
-419.33933128833689
 31
0.0
  0
LINE
  5
748
  8
DATA
  6
CONTINUOUS
 62
     7
 10
142.5499999999997
 20
-421.056887692072
 30
0.0
 11
142.5499999999997
 21
-421.54810949020418
 31
0.0
  0
ARC
  5
749
  8
DATA
  6
CONTINUOUS
 62
     7
 10
143.89999999999969
 20
-420.19810949020439
 30
0.0
 40
1.599999999999872
 50
147.53825503270571
 51
212.46174496729429
  0
ARC
  5
74A
  8
DATA
  6
CONTINUOUS
 62
     7
 10
126.34999999999999
 20
-420.1981094902041
 30
0.0
 40
1.3499999999999359
 50
359.99993048304538
 51
0.0000683721150381
  0
ARC
  5
74B
  8
DATA
  6
CONTINUOUS
 62
     7
 10
126.34999999999999
 20
-420.1981094902041
 30
0.0
 40
1.3499999999999091
 50
90.000000000001222
 51
270.0
  0
LINE
  5
74C
  8
DATA
  6
CONTINUOUS
 62
     7
 10
127.4500000000002
 20
-418.84810949020431
 30
0.0
 11
127.4500000000002
 21
-419.33933128833689
 31
0.0
  0
LINE
  5
74D
  8
DATA
  6
CONTINUOUS
 62
     7
 10
127.4500000000002
 20
-421.056887692072
 30
0.0
 11
127.4500000000002
 21
-421.54810949020418
 31
0.0
  0
ARC
  5
74E
  8
DATA
  6
CONTINUOUS
 62
     7
 10
126.10000000000019
 20
-420.19810949020439
 30
0.0
 40
1.599999999999872
 50
327.53825503270571
 51
32.461744967294642
  0
LINE
  5
74F
  8
DATA
  6
CONTINUOUS
 62
     7
 10
-71.0
 20
69.0
 30
0.0
 11
-81.0
 21
69.0
 31
0.0
  0
LINE
  5
750
  8
DATA
  6
CONTINUOUS
 62
     7
 10
-99.0
 20
25.0
 30
0.0
 11
186.0
 21
25.0
 31
0.0
  0
LINE
  5
751
  8
DATA
  6
CONTINUOUS
 62
     7
 10
-97.0
 20
65.5
 30
0.0
 11
184.0
 21
65.5
 31
0.0
  0
LINE
  5
752
  8
DATA
  6
CONTINUOUS
 62
     7
 10
29.75
 20
66.0
 30
0.0
 11
57.25
 21
66.0
 31
0.0
  0
LINE
  5
753
  8
DATA
  6
CONTINUOUS
 62
     7
 10
29.75
 20
66.0
 30
0.0
 11
29.75
 21
65.5
 31
0.0
  0
LINE
  5
754
  8
DATA
  6
CONTINUOUS
 62
     7
 10
57.25
 20
66.0
 30
0.0
 11
57.25
 21
65.5
 31
0.0
  0
LINE
  5
755
  8
DATA
  6
CONTINUOUS
 62
     7
 10
-84.149999999999963
 20
67.0
 30
0.0
 11
-84.149999999999963
 21
65.5
 31
0.0
  0
LINE
  5
756
  8
DATA
  6
CONTINUOUS
 62
     7
 10
187.0
 20
31.829991665107681
 30
0.0
 11
184.0
 21
65.5
 31
0.0
  0
LINE
  5
757
  8
DATA
  6
CONTINUOUS
 62
     7
 10
-67.850000000000023
 20
67.0
 30
0.0
 11
-67.850000000000023
 21
65.5
 31
0.0
  0
LINE
  5
758
  8
DATA
  6
CONTINUOUS
 62
     7
 10
-84.149999999999963
 20
67.0
 30
0.0
 11
-67.850000000000023
 21
67.0
 31
0.0
  0
LINE
  5
759
  8
DATA
  6
CONTINUOUS
 62
     7
 10
-81.0
 20
67.0
 30
0.0
 11
-81.0
 21
69.0
 31
0.0
  0
LINE
  5
75A
  8
DATA
  6
CONTINUOUS
 62
     7
 10
-71.0
 20
67.0
 30
0.0
 11
-71.0
 21
69.0
 31
0.0
  0
LINE
  5
75B
  8
DATA
  6
CONTINUOUS
 62
     7
 10
-75.5
 20
69.0
 30
0.0
 11
-85.5
 21
69.0
 31
0.0
  0
LINE
  5
75C
  8
DATA
  6
CONTINUOUS
 62
     7
 10
-88.649999999999963
 20
67.0
 30
0.0
 11
-88.649999999999963
 21
65.5
 31
0.0
  0
LINE
  5
75D
  8
DATA
  6
CONTINUOUS
 62
     7
 10
-72.350000000000023
 20
67.0
 30
0.0
 11
-88.649999999999963
 21
67.0
 31
0.0
  0
LINE
  5
75E
  8
DATA
  6
CONTINUOUS
 62
     7
 10
-85.5
 20
67.0
 30
0.0
 11
-85.5
 21
69.0
 31
0.0
  0
INSERT
  5
75F
  8
DATA
 62
     7
  2
____-6
 10
0.0
 20
0.0
 30
0.0
  0
LINE
  5
760
  8
DATA
  6
CONTINUOUS
 62
     7
 10
158.0
 20
69.0
 30
0.0
 11
168.0
 21
69.0
 31
0.0
  0
LINE
  5
761
  8
DATA
  6
CONTINUOUS
 62
     7
 10
171.15000000000001
 20
67.0
 30
0.0
 11
171.15000000000001
 21
65.5
 31
0.0
  0
LINE
  5
762
  8
DATA
  6
CONTINUOUS
 62
     7
 10
154.84999999999999
 20
67.0
 30
0.0
 11
154.84999999999999
 21
65.5
 31
0.0
  0
LINE
  5
763
  8
DATA
  6
CONTINUOUS
 62
     7
 10
171.15000000000001
 20
67.0
 30
0.0
 11
154.84999999999999
 21
67.0
 31
0.0
  0
LINE
  5
764
  8
DATA
  6
CONTINUOUS
 62
     7
 10
168.0
 20
67.0
 30
0.0
 11
168.0
 21
69.0
 31
0.0
  0
LINE
  5
765
  8
DATA
  6
CONTINUOUS
 62
     7
 10
158.0
 20
67.0
 30
0.0
 11
158.0
 21
69.0
 31
0.0
  0
LINE
  5
766
  8
DATA
  6
CONTINUOUS
 62
     7
 10
162.5
 20
69.0
 30
0.0
 11
172.5
 21
69.0
 31
0.0
  0
LINE
  5
767
  8
DATA
  6
CONTINUOUS
 62
     7
 10
175.64999999999989
 20
67.0
 30
0.0
 11
175.64999999999989
 21
65.5
 31
0.0
  0
LINE
  5
768
  8
DATA
  6
CONTINUOUS
 62
     7
 10
159.34999999999999
 20
67.0
 30
0.0
 11
175.64999999999989
 21
67.0
 31
0.0
  0
LINE
  5
769
  8
DATA
  6
CONTINUOUS
 62
     7
 10
172.5
 20
67.0
 30
0.0
 11
172.5
 21
69.0
 31
0.0
  0
INSERT
  5
76A
  8
DATA
 62
     7
  2
____-7
 10
0.0
 20
0.0
 30
0.0
  0
LINE
  5
76B
  8
DATA
  6
CONTINUOUS
 62
     7
 10
-8.7722456472020198
 20
17.40832642174848
 30
0.0
 11
-8.7722456472020198
 21
25.0
 31
0.0
  0
LINE
  5
76C
  8
DATA
  6
CONTINUOUS
 62
     7
 10
22.27224564720203
 20
17.40832642174848
 30
0.0
 11
22.27224564720203
 21
25.0
 31
0.0
  0
ARC
  5
76D
  8
DATA
  6
CONTINUOUS
 62
     7
 10
6.7500000000000071
 20
42.321166419763692
 30
0.0
 40
29.35284835750679
 50
238.07453190795451
 51
301.92546809204561
  0
LINE
  5
76E
  8
DATA
  6
CONTINUOUS
 62
     7
 10
175.95154998566861
 20
16.027928996255689
 30
0.0
 11
175.95154998566861
 21
25.0
 31
0.0
  0
LINE
  5
76F
  8
DATA
  6
CONTINUOUS
 62
     7
 10
163.04845001433139
 20
16.02792899625603
 30
0.0
 11
163.04845001433139
 21
25.0
 31
0.0
  0
ARC
  5
770
  8
DATA
  6
CONTINUOUS
 62
     7
 10
169.5
 20
27.094834138955441
 30
0.0
 40
12.81010876827713
 50
239.7595754975921
 51
300.240424502407
  0
LINE
  5
771
  8
DATA
  6
CONTINUOUS
 62
     7
 10
153.95154998566861
 20
16.027928996255689
 30
0.0
 11
153.95154998566861
 21
25.0
 31
0.0
  0
LINE
  5
772
  8
DATA
  6
CONTINUOUS
 62
     7
 10
141.04845001433139
 20
16.02792899625603
 30
0.0
 11
141.04845001433139
 21
25.0
 31
0.0
  0
ARC
  5
773
  8
DATA
  6
CONTINUOUS
 62
     7
 10
147.5
 20
27.094834138955441
 30
0.0
 40
12.81010876827713
 50
239.7595754975921
 51
300.240424502407
  0
LINE
  5
774
  8
DATA
  6
CONTINUOUS
 62
     7
 10
128.95154998566861
 20
16.027928996255689
 30
0.0
 11
128.95154998566861
 21
25.0
 31
0.0
  0
LINE
  5
775
  8
DATA
  6
CONTINUOUS
 62
     7
 10
116.04845001433139
 20
16.02792899625603
 30
0.0
 11
116.04845001433139
 21
25.0
 31
0.0
  0
ARC
  5
776
  8
DATA
  6
CONTINUOUS
 62
     7
 10
122.5
 20
27.094834138955441
 30
0.0
 40
12.81010876827712
 50
239.7595754975921
 51
300.240424502407
  0
LINE
  5
777
  8
DATA
  6
CONTINUOUS
 62
     7
 10
106.95154998566861
 20
16.027928996255689
 30
0.0
 11
106.95154998566861
 21
25.0
 31
0.0
  0
LINE
  5
778
  8
DATA
  6
CONTINUOUS
 62
     7
 10
94.048450014331394
 20
16.02792899625603
 30
0.0
 11
94.048450014331394
 21
25.0
 31
0.0
  0
ARC
  5
779
  8
DATA
  6
CONTINUOUS
 62
     7
 10
100.5
 20
27.094834138955441
 30
0.0
 40
12.81010876827712
 50
239.7595754975921
 51
300.240424502407
  0
LINE
  5
77A
  8
DATA
  6
CONTINUOUS
 62
     7
 10
187.0
 20
31.829991665107681
 30
0.0
 11
174.0
 21
31.829991665107681
 31
0.0
  0
LINE
  5
77B
  8
DATA
  6
CONTINUOUS
 62
     7
 10
-87.0
 20
31.829991665107681
 30
0.0
 11
-100.0
 21
31.829991665107681
 31
0.0
  0
LINE
  5
77C
  8
DATA
  6
CONTINUOUS
 62
     7
 10
-87.0
 20
27.5
 30
0.0
 11
174.0
 21
27.5
 31
0.0
  0
LINE
  5
77D
  8
DATA
  6
CONTINUOUS
 62
     7
 10
186.0
 20
31.829991665107681
 30
0.0
 11
183.0
 21
65.5
 31
0.0
  0
LINE
  5
77E
  8
DATA
  6
CONTINUOUS
 62
     7
 10
187.0
 20
31.829991665107681
 30
0.0
 11
186.0
 21
25.0
 31
0.0
  0
LINE
  5
77F
  8
DATA
  6
CONTINUOUS
 62
     7
 10
186.0
 20
31.829991665107681
 30
0.0
 11
185.0
 21
25.0
 31
0.0
  0
LINE
  5
780
  8
DATA
  6
CONTINUOUS
 62
     7
 10
174.0
 20
31.829991665107681
 30
0.0
 11
174.0
 21
27.5
 31
0.0
  0
LINE
  5
781
  8
DATA
  6
CONTINUOUS
 62
     7
 10
174.0
 20
25.0
 30
0.0
 11
174.0
 21
24.899999999999991
 31
0.0
  0
LINE
  5
782
  8
DATA
  6
CONTINUOUS
 62
     7
 10
-87.0
 20
31.829991665107681
 30
0.0
 11
-87.0
 21
27.5
 31
0.0
  0
LINE
  5
783
  8
DATA
  6
CONTINUOUS
 62
     7
 10
-87.0
 20
25.0
 30
0.0
 11
-87.0
 21
24.899999999999991
 31
0.0
  0
LINE
  5
784
  8
DATA
  6
CONTINUOUS
 62
     7
 10
-100.0
 20
31.829991665107681
 30
0.0
 11
-97.0
 21
65.5
 31
0.0
  0
LINE
  5
785
  8
DATA
  6
CONTINUOUS
 62
     7
 10
-99.0
 20
31.829991665107681
 30
0.0
 11
-96.0
 21
65.5
 31
0.0
  0
LINE
  5
786
  8
DATA
  6
CONTINUOUS
 62
     7
 10
-100.0
 20
31.829991665107681
 30
0.0
 11
-99.0
 21
25.0
 31
0.0
  0
LINE
  5
787
  8
DATA
  6
CONTINUOUS
 62
     7
 10
-99.0
 20
31.829991665107681
 30
0.0
 11
-98.0
 21
25.0
 31
0.0
  0
LINE
  5
788
  8
DATA
  6
CONTINUOUS
 62
     7
 10
186.71384177016341
 20
-97.36538474039456
 30
0.0
 11
185.21384177016341
 21
-149.96538474039451
 31
0.0
  0
LINE
  5
789
  8
DATA
  6
CONTINUOUS
 62
     7
 10
185.41384177016329
 20
-97.36538474039456
 30
0.0
 11
183.91384177016329
 21
-149.96538474039451
 31
0.0
  0
LINE
  5
78A
  8
DATA
  6
CONTINUOUS
 62
     7
 10
-100.2861582298366
 20
-32.365384740394553
 30
0.0
 11
-100.2861582298366
 21
-97.36538474039456
 31
0.0
  0
LINE
  5
78B
  8
DATA
  6
CONTINUOUS
 62
     7
 10
-94.78615822983663
 20
-149.96538474039451
 30
0.0
 11
-94.78615822983663
 21
-106.4653847403945
 31
0.0
  0
LINE
  5
78C
  8
DATA
  6
CONTINUOUS
 62
     7
 10
-96.03615822983663
 20
-149.96538474039451
 30
0.0
 11
-96.03615822983663
 21
-104.9653847403945
 31
0.0
  0
LINE
  5
78D
  8
DATA
  6
CONTINUOUS
 62
     7
 10
-99.03615822983663
 20
-97.36538474039456
 30
0.0
 11
-99.03615822983663
 21
-32.365384740394553
 31
0.0
  0
LINE
  5
78E
  8
DATA
  6
CONTINUOUS
 62
     7
 10
-100.2861582298366
 20
-97.36538474039456
 30
0.0
 11
-98.78615822983663
 21
-149.96538474039451
 31
0.0
  0
LINE
  5
78F
  8
DATA
  6
CONTINUOUS
 62
     7
 10
-98.986158229836633
 20
-97.36538474039456
 30
0.0
 11
-97.486158229836633
 21
-149.96538474039451
 31
0.0
  0
LINE
  5
790
  8
DATA
  6
CONTINUOUS
 62
     7
 10
185.75
 20
-216.32999166510771
 30
0.0
 11
185.5
 21
-229.3789909621278
 31
0.0
  0
LINE
  5
791
  8
DATA
  6
CONTINUOUS
 62
     7
 10
184.19999999999999
 20
-216.0
 30
0.0
 11
184.19999999999999
 21
-229.3789909621278
 31
0.0
  0
ARC
  5
792
  8
DATA
  6
CONTINUOUS
 62
     7
 10
181.0
 20
-221.5
 30
0.0
 40
0.5
 50
0.0
 51
90.0
  0
LINE
  5
793
  8
DATA
  6
CONTINUOUS
 62
     7
 10
187.0
 20
-236.43529782451799
 30
0.0
 11
184.0
 21
-250.0
 31
0.0
  0
LINE
  5
794
  8
DATA
  6
CONTINUOUS
 62
     7
 10
185.69999999999999
 20
-236.43529782451799
 30
0.0
 11
182.69999999999999
 21
-250.0
 31
0.0
  0
LINE
  5
795
  8
DATA
  6
CONTINUOUS
 62
     7
 10
-100.0
 20
-236.43529782451799
 30
0.0
 11
-97.0
 21
-250.0
 31
0.0
  0
LINE
  5
796
  8
DATA
  6
CONTINUOUS
 62
     7
 10
-98.700000000000003
 20
-236.43529782451799
 30
0.0
 11
-95.700000000000003
 21
-250.0
 31
0.0
  0
ARC
  5
797
  8
DATA
  6
CONTINUOUS
 62
     7
 10
-95.25
 20
-218.3565578155949
 30
0.0
 40
0.5
 50
90.0
 51
180.0
  0
LINE
  5
798
  8
DATA
  6
CONTINUOUS
 62
     7
 10
182.69999999999999
 20
-350.0
 30
0.0
 11
182.69999999999999
 21
-463.5481094902043
 31
0.0
  0
LINE
  5
799
  8
DATA
  6
CONTINUOUS
 62
     7
 10
184.0
 20
-350.0
 30
0.0
 11
184.0
 21
-463.5481094902043
 31
0.0
  0
INSERT
  5
79A
  8
DATA
 62
     7
  2
____-8
 10
0.0
 20
0.0
 30
0.0
  0
LINE
  5
79B
  8
DATA
  6
CONTINUOUS
 62
     7
 10
-95.700000000000003
 20
-350.0
 30
0.0
 11
-95.700000000000003
 21
-463.5481094902043
 31
0.0
  0
LINE
  5
79C
  8
DATA
  6
CONTINUOUS
 62
     7
 10
-97.0
 20
-350.0
 30
0.0
 11
-97.0
 21
-463.5481094902043
 31
0.0
  0
INSERT
  5
79D
  8
DATA
 62
     7
  2
____-9
 10
0.0
 20
0.0
 30
0.0
  0
LINE
  5
79E
  8
DATA
  6
CONTINUOUS
 62
     7
 10
-87.0
 20
31.829991665107681
 30
0.0
 11
-84.445500335218327
 21
60.5
 31
0.0
  0
INSERT
  5
79F
  8
DATA
 62
     7
  2
____-10
 10
0.0
 20
0.0
 30
0.0
  0
INSERT
  5
7A0
  8
DATA
 62
     7
  2
____-11
 10
0.0
 20
0.0
 30
0.0
  0
LINE
  5
7A1
  8
DATA
  6
CONTINUOUS
 62
     7
 10
-97.0
 20
60.5
 30
0.0
 11
-96.445500335218384
 21
60.5
 31
0.0
  0
LINE
  5
7A2
  8
DATA
  6
CONTINUOUS
 62
     7
 10
-84.445500335218327
 20
60.5
 30
0.0
 11
171.44550033521841
 21
60.5
 31
0.0
  0
LINE
  5
7A3
  8
DATA
  6
CONTINUOUS
 62
     7
 10
183.44550033521841
 20
60.5
 30
0.0
 11
184.0
 21
60.5
 31
0.0
  0
CIRCLE
  5
7A4
  8
DATA
  6
CONTINUOUS
 62
     7
 10
-15.94550033521837
 20
50.5
 30
0.0
 40
4.25
  0
CIRCLE
  5
7A5
  8
DATA
  6
CONTINUOUS
 62
     7
 10
7.0544996647816314
 20
50.5
 30
0.0
 40
4.25
  0
CIRCLE
  5
7A6
  8
DATA
  6
CONTINUOUS
 62
     7
 10
-15.94550033521837
 20
50.5
 30
0.0
 40
3.200000000000002
  0
CIRCLE
  5
7A7
  8
DATA
  6
CONTINUOUS
 62
     7
 10
7.0544996647816314
 20
50.5
 30
0.0
 40
3.200000000000002
  0
LINE
  5
7A8
  8
DATA
  6
CONTINUOUS
 62
     7
 10
47.05449966478163
 20
56.5
 30
0.0
 11
47.05449966478163
 21
44.0
 31
0.0
  0
LINE
  5
7A9
  8
DATA
  6
CONTINUOUS
 62
     7
 10
61.054499664781638
 20
56.5
 30
0.0
 11
61.054499664781638
 21
44.0
 31
0.0
  0
INSERT
  5
7AA
  8
DATA
 62
     7
  2
____-12
 10
0.0
 20
0.0
 30
0.0
  0
LINE
  5
7AB
  8
DATA
  6
CONTINUOUS
 62
     7
 10
47.05449966478163
 20
44.0
 30
0.0
 11
61.054499664781638
 21
44.0
 31
0.0
  0
TEXT
  5
7AC
  8
DATA
 62
     7
 10
40.841999456827601
 20
59.493489583333343
 30
0.0
 40
1.923828125
  1
ＵＳＢ
 50
180.0
 41
0.7
 11
40.841999456827601
 21
59.75
 31
0.0
 73
     1
  0
INSERT
  5
7AD
  8
DATA
 62
     7
  2
____-13
 10
0.0
 20
0.0
 30
0.0
  0
CIRCLE
  5
7AE
  8
DATA
  6
CONTINUOUS
 62
     7
 10
54.054499664781638
 20
50.25
 30
0.0
 40
5.0
  0
INSERT
  5
7AF
  8
DATA
 62
     7
  2
____-14
 10
0.0
 20
0.0
 30
0.0
  0
INSERT
  5
7B0
  8
DATA
 62
     7
  2
____-15
 10
0.0
 20
0.0
 30
0.0
  0
LINE
  5
7B1
  8
DATA
  6
CONTINUOUS
 62
     7
 10
154.80449966478159
 20
56.5
 30
0.0
 11
154.80449966478159
 21
46.5
 31
0.0
  0
LINE
  5
7B2
  8
DATA
  6
CONTINUOUS
 62
     7
 10
163.80449966478159
 20
56.5
 30
0.0
 11
163.80449966478159
 21
46.5
 31
0.0
  0
LINE
  5
7B3
  8
DATA
  6
CONTINUOUS
 62
     7
 10
154.80449966478159
 20
46.5
 30
0.0
 11
163.80449966478159
 21
46.5
 31
0.0
  0
CIRCLE
  5
7B4
  8
DATA
  6
CONTINUOUS
 62
     7
 10
159.30449966478159
 20
50.650000000000013
 30
0.0
 40
3.1499999999999768
  0
CIRCLE
  5
7B5
  8
DATA
  6
CONTINUOUS
 62
     7
 10
159.30449966478159
 20
50.650000000000013
 30
0.0
 40
0.75
  0
POLYLINE
  5
7B6
  8
DATA
  6
CONTINUOUS
 62
     7
 66
     1
 10
0.0
 20
0.0
 30
0.0
 70
     1
  0
VERTEX
  5
A8E
  8
DATA
  6
CONTINUOUS
 62
     7
 10
148.20449966478159
 20
43.5
 30
0.0
  0
VERTEX
  5
A8F
  8
DATA
  6
CONTINUOUS
 62
     7
 10
170.40449966478161
 20
43.5
 30
0.0
  0
VERTEX
  5
A90
  8
DATA
  6
CONTINUOUS
 62
     7
 10
170.40449966478161
 20
33.5
 30
0.0
  0
VERTEX
  5
A91
  8
DATA
  6
CONTINUOUS
 62
     7
 10
148.20449966478159
 20
33.5
 30
0.0
  0
SEQEND
  5
A92
  8
DATA
  6
CONTINUOUS
 62
     7
  0
CIRCLE
  5
7BD
  8
DATA
  6
CONTINUOUS
 62
     7
 10
159.30449966478159
 20
38.5
 30
0.0
 40
3.1500000000000048
  0
INSERT
  5
7BE
  8
DATA
 62
     7
  2
____-16
 10
0.0
 20
0.0
 30
0.0
  0
LINE
  5
7BF
  8
DATA
  6
CONTINUOUS
 62
     7
 10
47.05449966478163
 20
56.5
 30
0.0
 11
61.054499664781638
 21
56.5
 31
0.0
  0
LINE
  5
7C0
  8
DATA
  6
CONTINUOUS
 62
     7
 10
154.80449966478159
 20
56.5
 30
0.0
 11
163.80449966478159
 21
56.5
 31
0.0
  0
LINE
  5
7C1
  8
DATA
  6
CONTINUOUS
 62
     7
 10
174.0
 20
31.829991665107681
 30
0.0
 11
171.44550033521841
 21
60.5
 31
0.0
  0
TEXT
  5
7C2
  8
DATA
 62
     7
 10
55.966999720081503
 20
59.493489583333343
 30
0.0
 40
1.923828125
  1
DSC
 50
180.0
 41
0.7
 11
55.966999720081503
 21
59.75
 31
0.0
 73
     1
  0
TEXT
  5
7C3
  8
DATA
 62
     7
 10
79.154499672066621
 20
59.743489583333329
 30
0.0
 40
1.923828125
  1
ETHERNET
 50
180.0
 41
0.7
 11
79.154499672066621
 21
60.0
 31
0.0
 73
     1
  0
TEXT
  5
7C4
  8
DATA
 62
     7
 10
126.5
 20
56.061807645590257
 30
0.0
 40
1.923828125
  1
OUT
 50
180.0
 41
0.7
 11
126.5
 21
56.318318062256921
 31
0.0
 73
     1
  0
TEXT
  5
7C5
  8
DATA
 62
     7
 10
126.5
 20
33.061807645590257
 30
0.0
 40
1.923828125
  1
IN
 50
180.0
 41
0.7
 11
126.5
 21
33.318318062256921
 31
0.0
 73
     1
  0
TEXT
  5
7C6
  8
DATA
 62
     7
 10
160.57949966660291
 20
59.493489583333343
 30
0.0
 40
1.923828125
  1
2A
 50
180.0
 41
0.7
 11
160.57949966660291
 21
59.75
 31
0.0
 73
     1
  0
TEXT
  5
7C7
  8
DATA
 62
     7
 10
141.65449967206661
 20
59.493489583333343
 30
0.0
 40
1.923828125
  1
BLU LINK
 50
180.0
 41
0.7
 11
141.65449967206661
 21
59.75
 31
0.0
 73
     1
  0
TEXT
  5
7C8
  8
DATA
 62
     7
 10
161.8544996684241
 20
45.993489583333329
 30
0.0
 40
1.923828125
  1
9VDC
 50
180.0
 41
0.7
 11
161.8544996684241
 21
46.25
 31
0.0
 73
     1
  0
CIRCLE
  5
7C9
  8
DATA
  6
CONTINUOUS
 62
     7
 10
166.5
 20
56.5
 30
0.0
 40
1.5
  0
CIRCLE
  5
7CA
  8
DATA
  6
CONTINUOUS
 62
     7
 10
166.5
 20
46.5
 30
0.0
 40
1.5
  0
TEXT
  5
7CB
  8
DATA
 62
     7
 10
167.13750000091059
 20
57.493489583333329
 30
0.0
 40
1.923828125
  1
-
 50
180.0
 41
0.7
 11
167.13750000091059
 21
57.75
 31
0.0
 73
     1
  0
TEXT
  5
7CC
  8
DATA
 62
     7
 10
167.13750000091059
 20
47.493489583333329
 30
0.0
 40
1.923828125
  1
+
 50
180.0
 41
0.7
 11
167.13750000091059
 21
47.75
 31
0.0
 73
     1
  0
LINE
  5
7CD
  8
DATA
  6
CONTINUOUS
 62
     7
 10
166.5
 20
48.0
 30
0.0
 11
166.5
 21
50.0
 31
0.0
  0
LINE
  5
7CE
  8
DATA
  6
CONTINUOUS
 62
     7
 10
166.5
 20
52.5
 30
0.0
 11
166.5
 21
55.0
 31
0.0
  0
ARC
  5
7CF
  8
DATA
  6
CONTINUOUS
 62
     7
 10
166.5
 20
51.500000000000107
 30
0.0
 40
1.4999999999999201
 50
138.18968510419171
 51
41.810314895773217
  0
CIRCLE
  5
7D0
  8
DATA
  6
CONTINUOUS
 62
     7
 10
166.5
 20
51.5
 30
0.0
 40
1.0
  0
TEXT
  5
7D1
  8
DATA
 62
     7
 10
9.5234124251982983
 20
58.5869140625
 30
0.0
 40
1.923828125
  1
LEFT
 50
180.0
 41
0.7
 72
     1
 11
7.0544996647816314
 21
57.625
 31
0.0
 73
     2
  0
TEXT
  5
7D2
  8
DATA
 62
     7
 10
-13.027694345635039
 20
58.5869140625
 30
0.0
 40
1.923828125
  1
RIGHT
 50
180.0
 41
0.7
 72
     1
 11
-15.94550033521837
 21
57.625
 31
0.0
 73
     2
  0
TEXT
  5
7D3
  8
DATA
 62
     7
 10
-38.0310872395833
 20
58.761914062500182
 30
0.0
 40
1.923828125
  1
LEFT
 50
180.0
 41
0.7
 72
     1
 11
-40.499999999999957
 21
57.800000000000182
 31
0.0
 73
     2
  0
TEXT
  5
7D4
  8
DATA
 62
     7
 10
-62.982194010416777
 20
58.761914062500182
 30
0.0
 40
1.923828125
  1
RIGHT
 50
180.0
 41
0.7
 72
     1
 11
-65.900000000000119
 21
57.800000000000182
 31
0.0
 73
     2
  0
ARC
  5
7D5
  8
DATA
  6
CONTINUOUS
 62
     7
 10
10.849999999999881
 20
57.050000000000182
 30
0.0
 40
2.0
 50
0.0
 51
90.0
  0
LINE
  5
7D6
  8
DATA
  6
CONTINUOUS
 62
     7
 10
-77.650000000000119
 20
59.050000000000182
 30
0.0
 11
10.849999999999881
 21
59.050000000000182
 31
0.0
  0
ARC
  5
7D7
  8
DATA
  6
CONTINUOUS
 62
     7
 10
-77.650000000000119
 20
57.050000000000182
 30
0.0
 40
2.0
 50
90.0
 51
180.0
  0
ARC
  5
7D8
  8
DATA
  6
CONTINUOUS
 62
     7
 10
11.849999999999881
 20
58.0
 30
0.0
 40
2.0
 50
0.0
 51
90.0
  0
LINE
  5
7D9
  8
DATA
  6
CONTINUOUS
 62
     7
 10
-78.650000000000119
 20
60.0
 30
0.0
 11
11.849999999999881
 21
60.0
 31
0.0
  0
ARC
  5
7DA
  8
DATA
  6
CONTINUOUS
 62
     7
 10
-78.650000000000119
 20
58.0
 30
0.0
 40
2.0
 50
90.0
 51
180.0
  0
LINE
  5
7DB
  8
DATA
  6
CONTINUOUS
 62
     7
 10
10.849999999999881
 20
34.050000000000011
 30
0.0
 11
3.8499999999998802
 21
34.050000000000011
 31
0.0
  0
ARC
  5
7DC
  8
DATA
  6
CONTINUOUS
 62
     7
 10
10.849999999999881
 20
36.050000000000011
 30
0.0
 40
2.0
 50
270.0
 51
0.0
  0
ARC
  5
7DD
  8
DATA
  6
CONTINUOUS
 62
     7
 10
-77.650000000000119
 20
36.050000000000011
 30
0.0
 40
2.0
 50
180.0
 51
270.0
  0
LINE
  5
7DE
  8
DATA
  6
CONTINUOUS
 62
     7
 10
-7.1500000000001203
 20
34.050000000000011
 30
0.0
 11
-28.841875814509532
 21
34.050000000000011
 31
0.0
  0
LINE
  5
7DF
  8
DATA
  6
CONTINUOUS
 62
     7
 10
-33.15812418549045
 20
34.050000000000011
 30
0.0
 11
-53.841875814509372
 21
34.050000000000011
 31
0.0
  0
LINE
  5
7E0
  8
DATA
  6
CONTINUOUS
 62
     7
 10
-58.158124185490607
 20
34.050000000000011
 30
0.0
 11
-77.650000000000119
 21
34.050000000000011
 31
0.0
  0
LINE
  5
7E1
  8
DATA
  6
CONTINUOUS
 62
     7
 10
11.849999999999881
 20
31.5
 30
0.0
 11
3.8499999999998802
 21
31.5
 31
0.0
  0
ARC
  5
7E2
  8
DATA
  6
CONTINUOUS
 62
     7
 10
11.849999999999881
 20
33.5
 30
0.0
 40
2.0
 50
270.0
 51
0.0
  0
ARC
  5
7E3
  8
DATA
  6
CONTINUOUS
 62
     7
 10
-78.650000000000119
 20
33.5
 30
0.0
 40
2.0
 50
180.0
 51
270.0
  0
LINE
  5
7E4
  8
DATA
  6
CONTINUOUS
 62
     7
 10
13.849999999999881
 20
33.5
 30
0.0
 11
13.849999999999881
 21
58.0
 31
0.0
  0
LINE
  5
7E5
  8
DATA
  6
CONTINUOUS
 62
     7
 10
-78.650000000000119
 20
31.5
 30
0.0
 11
-7.1500000000001203
 21
31.5
 31
0.0
  0
LINE
  5
7E6
  8
DATA
  6
CONTINUOUS
 62
     7
 10
12.849999999999881
 20
36.050000000000011
 30
0.0
 11
12.849999999999881
 21
57.050000000000182
 31
0.0
  0
LINE
  5
7E7
  8
DATA
  6
CONTINUOUS
 62
     7
 10
-80.650000000000105
 20
58.0
 30
0.0
 11
-80.650000000000105
 21
33.5
 31
0.0
  0
LINE
  5
7E8
  8
DATA
  6
CONTINUOUS
 62
     7
 10
-79.650000000000119
 20
36.050000000000011
 30
0.0
 11
-79.650000000000119
 21
57.050000000000182
 31
0.0
  0
LINE
  5
7E9
  8
DATA
  6
CONTINUOUS
 62
     7
 10
3.8499999999998802
 20
31.5
 30
0.0
 11
3.8499999999998802
 21
34.050000000000011
 31
0.0
  0
LINE
  5
7EA
  8
DATA
  6
CONTINUOUS
 62
     7
 10
-7.1500000000001203
 20
31.5
 30
0.0
 11
-7.1500000000001203
 21
34.050000000000011
 31
0.0
  0
TEXT
  5
7EB
  8
DATA
 62
     7
 10
2.2172463020604898
 20
33.73691406250002
 30
0.0
 40
1.923828125
  1
OUTPUT
 50
180.0
 41
0.7
 72
     1
 11
-1.5983461458561761
 21
32.77500000000002
 31
0.0
 73
     2
  0
CIRCLE
  5
7EC
  8
DATA
  6
CONTINUOUS
 62
     7
 10
-284.69942449610579
 20
-235.0
 30
0.0
 40
4.25
  0
CIRCLE
  5
7ED
  8
DATA
  6
CONTINUOUS
 62
     7
 10
-284.69942449610579
 20
-235.0
 30
0.0
 40
3.1999999999999309
  0
CIRCLE
  5
7EE
  8
DATA
  6
CONTINUOUS
 62
     7
 10
-268.19942449610568
 20
-239.5
 30
0.0
 40
1.7999999999999541
  0
CIRCLE
  5
7EF
  8
DATA
  6
CONTINUOUS
 62
     7
 10
-268.19942449610568
 20
-239.5
 30
0.0
 40
2.5
  0
CIRCLE
  5
7F0
  8
DATA
  6
CONTINUOUS
 62
     7
 10
-268.19942449610568
 20
-239.5
 30
0.0
 40
5.3999999999999764
  0
INSERT
  5
7F1
  8
DATA
 62
     7
  2
____-17
 10
0.0
 20
0.0
 30
0.0
  0
TEXT
  5
7F2
  8
DATA
 62
     7
 10
-282.96791407943891
 20
-230.10213700950911
 30
0.0
 40
1.923828125
  1
ＰＨＯＮＥＳ
 41
0.7
 72
     1
 11
-278.29942449610559
 21
-229.14022294700911
 31
0.0
 73
     2
  0
INSERT
  5
7F3
  8
DATA
 62
     7
  2
____-18
 10
0.0
 20
0.0
 30
0.0
  0
INSERT
  5
7F4
  8
DATA
 62
     7
  2
____-19
 10
0.0
 20
0.0
 30
0.0
  0
INSERT
  5
7F5
  8
DATA
 62
     7
  2
____-21
 10
0.0
 20
0.0
 30
0.0
  0
INSERT
  5
7F6
  8
DATA
 62
     7
  2
____-22
 10
0.0
 20
0.0
 30
0.0
  0
INSERT
  5
7F7
  8
DATA
 62
     7
  2
____-23
 10
0.0
 20
0.0
 30
0.0
  0
INSERT
  5
7F8
  8
DATA
 62
     7
  2
____-25
 10
0.0
 20
0.0
 30
0.0
  0
ARC
  5
7F9
  8
DATA
  6
CONTINUOUS
 62
     7
 10
6.463841770163369
 20
-111.891876054024
 30
0.0
 40
16.70006475448595
 50
63.922479120833422
 51
116.0775208791666
  0
LINE
  5
7FA
  8
DATA
  6
CONTINUOUS
 62
     7
 10
14.09112816970417
 20
-205.45930738775701
 30
0.0
 11
14.09112816970417
 21
-208.45930738775701
 31
0.0
  0
LINE
  5
7FB
  8
DATA
  6
CONTINUOUS
 62
     7
 10
-0.5911281697041418
 20
-205.45930738775701
 30
0.0
 11
-0.5911281697041418
 21
-208.45930738775701
 31
0.0
  0
ARC
  5
7FC
  8
DATA
  6
CONTINUOUS
 62
     7
 10
6.7500000000000142
 20
-220.45930738775701
 30
0.0
 40
16.70006475448595
 50
63.922479120833422
 51
116.0775208791666
  0
ARC
  5
7FD
  8
DATA
  6
CONTINUOUS
 62
     7
 10
6.7500000000000142
 20
-223.45930738775709
 30
0.0
 40
16.70006475448595
 50
63.922479120833422
 51
116.0775208791666
  0
ARC
  5
7FE
  8
DATA
  6
CONTINUOUS
 62
     7
 10
6.7500000000000142
 20
-193.45930738775701
 30
0.0
 40
16.70006475448595
 50
243.9224791208334
 51
296.07752087916651
  0
ARC
  5
7FF
  8
DATA
  6
CONTINUOUS
 62
     7
 10
6.7500000000000142
 20
-182.33450683016761
 30
0.0
 40
16.700064754485961
 50
250.01279808903919
 51
289.98720191096072
  0
ARC
  5
800
  8
DATA
  6
CONTINUOUS
 62
     7
 10
6.463841770163369
 20
-54.538781375135557
 30
0.0
 40
16.70006475448595
 50
243.9224791208334
 51
296.07752087916651
  0
TEXT
  5
801
  8
DATA
 62
     7
 10
237.5
 20
-575.48032499999965
 30
0.0
 40
8.1442057291666661
  1
パーソナルモニター・コントローラー
 41
0.7
 11
237.5
 21
-567.33611927083302
 31
0.0
 73
     3
  0
ENDSEC
  0
EOF
