  0
SECTION
  2
HEADER
  9
$ACADVER
  1
AC1015
  9
$ACADMAINTVER
 70
    20
  9
$DWGCODEPAGE
  3
ANSI_932
  9
$INSBASE
 10
0.0
 20
0.0
 30
0.0
  9
$EXTMIN
 10
-180.0109854899474
 20
-271.7120122791109
 30
-0.0015258207003583
  9
$EXTMAX
 10
180.0109871663281
 20
263.548116514017
 30
0.0000000349246037
  9
$LIMMIN
 10
0.0
 20
0.0
  9
$LIMMAX
 10
0.0
 20
0.0
  9
$ORTHOMODE
 70
     0
  9
$REGENMODE
 70
     1
  9
$FILLMODE
 70
     1
  9
$QTEXTMODE
 70
     0
  9
$MIRRTEXT
 70
     1
  9
$LTSCALE
 40
10.16
  9
$ATTMODE
 70
     1
  9
$TEXTSIZE
 40
0.0
  9
$TRACEWID
 40
1.0
  9
$TEXTSTYLE
  7
STANDARD
  9
$CLAYER
  8
DATA
  9
$CELTYPE
  6
ByLayer
  9
$CECOLOR
 62
   256
  9
$CELTSCALE
 40
1.0
  9
$DISPSILH
 70
     0
  9
$DIMSCALE
 40
1.0
  9
$DIMASZ
 40
0.18
  9
$DIMEXO
 40
0.0625
  9
$DIMDLI
 40
0.38
  9
$DIMRND
 40
0.0
  9
$DIMDLE
 40
0.0
  9
$DIMEXE
 40
0.18
  9
$DIMTP
 40
0.0
  9
$DIMTM
 40
0.0
  9
$DIMTXT
 40
0.18
  9
$DIMCEN
 40
0.09
  9
$DIMTSZ
 40
0.0
  9
$DIMTOL
 70
     0
  9
$DIMLIM
 70
     0
  9
$DIMTIH
 70
     1
  9
$DIMTOH
 70
     1
  9
$DIMSE1
 70
     0
  9
$DIMSE2
 70
     0
  9
$DIMTAD
 70
     0
  9
$DIMZIN
 70
     0
  9
$DIMBLK
  1

  9
$DIMASO
 70
     1
  9
$DIMSHO
 70
     1
  9
$DIMPOST
  1

  9
$DIMAPOST
  1

  9
$DIMALT
 70
     0
  9
$DIMALTD
 70
     2
  9
$DIMALTF
 40
25.4
  9
$DIMLFAC
 40
1.0
  9
$DIMTOFL
 70
     0
  9
$DIMTVP
 40
0.0
  9
$DIMTIX
 70
     0
  9
$DIMSOXD
 70
     0
  9
$DIMSAH
 70
     0
  9
$DIMBLK1
  1

  9
$DIMBLK2
  1

  9
$DIMSTYLE
  2
STANDARD
  9
$DIMCLRD
 70
     0
  9
$DIMCLRE
 70
     0
  9
$DIMCLRT
 70
     0
  9
$DIMTFAC
 40
1.0
  9
$DIMGAP
 40
0.09
  9
$DIMJUST
 70
     0
  9
$DIMSD1
 70
     0
  9
$DIMSD2
 70
     0
  9
$DIMTOLJ
 70
     1
  9
$DIMTZIN
 70
     0
  9
$DIMALTZ
 70
     0
  9
$DIMALTTZ
 70
     0
  9
$DIMUPT
 70
     0
  9
$DIMDEC
 70
     4
  9
$DIMTDEC
 70
     4
  9
$DIMALTU
 70
     2
  9
$DIMALTTD
 70
     2
  9
$DIMTXSTY
  7
STANDARD
  9
$DIMAUNIT
 70
     0
  9
$DIMADEC
 70
     0
  9
$DIMALTRND
 40
0.0
  9
$DIMAZIN
 70
     0
  9
$DIMDSEP
 70
    46
  9
$DIMATFIT
 70
     3
  9
$DIMFRAC
 70
     0
  9
$DIMLDRBLK
  1

  9
$DIMLUNIT
 70
     2
  9
$DIMLWD
 70
    -2
  9
$DIMLWE
 70
    -2
  9
$DIMTMOVE
 70
     0
  9
$LUNITS
 70
     2
  9
$LUPREC
 70
     4
  9
$SKETCHINC
 40
0.1
  9
$FILLETRAD
 40
0.0
  9
$AUNITS
 70
     0
  9
$AUPREC
 70
     0
  9
$MENU
  1
acad
  9
$ELEVATION
 40
0.0
  9
$PELEVATION
 40
0.0
  9
$THICKNESS
 40
0.0
  9
$LIMCHECK
 70
     0
  9
$CHAMFERA
 40
0.0
  9
$CHAMFERB
 40
0.0
  9
$CHAMFERC
 40
0.0
  9
$CHAMFERD
 40
0.0
  9
$SKPOLY
 70
     0
  9
$TDCREATE
 40
2457393.538055556
  9
$TDUCREATE
 40
2457393.163055555
  9
$TDUPDATE
 40
2457393.538607338
  9
$TDUUPDATE
 40
2457393.163607338
  9
$TDINDWG
 40
0.0004281134
  9
$TDUSRTIMER
 40
0.0004280556
  9
$USRTIMER
 70
     1
  9
$ANGBASE
 50
0.0
  9
$ANGDIR
 70
     0
  9
$PDMODE
 70
     1
  9
$PDSIZE
 40
-2.0
  9
$PLINEWID
 40
0.0
  9
$SPLFRAME
 70
     0
  9
$SPLINETYPE
 70
     6
  9
$SPLINESEGS
 70
     8
  9
$HANDSEED
  5
348
  9
$SURFTAB1
 70
     6
  9
$SURFTAB2
 70
     6
  9
$SURFTYPE
 70
     6
  9
$SURFU
 70
     6
  9
$SURFV
 70
     6
  9
$UCSBASE
  2

  9
$UCSNAME
  2

  9
$UCSORG
 10
0.0
 20
0.0
 30
0.0
  9
$UCSXDIR
 10
1.0
 20
0.0
 30
0.0
  9
$UCSYDIR
 10
0.0
 20
1.0
 30
0.0
  9
$UCSORTHOREF
  2

  9
$UCSORTHOVIEW
 70
     0
  9
$UCSORGTOP
 10
0.0
 20
0.0
 30
0.0
  9
$UCSORGBOTTOM
 10
0.0
 20
0.0
 30
0.0
  9
$UCSORGLEFT
 10
0.0
 20
0.0
 30
0.0
  9
$UCSORGRIGHT
 10
0.0
 20
0.0
 30
0.0
  9
$UCSORGFRONT
 10
0.0
 20
0.0
 30
0.0
  9
$UCSORGBACK
 10
0.0
 20
0.0
 30
0.0
  9
$PUCSBASE
  2

  9
$PUCSNAME
  2

  9
$PUCSORG
 10
0.0
 20
0.0
 30
0.0
  9
$PUCSXDIR
 10
1.0
 20
0.0
 30
0.0
  9
$PUCSYDIR
 10
0.0
 20
1.0
 30
0.0
  9
$PUCSORTHOREF
  2

  9
$PUCSORTHOVIEW
 70
     0
  9
$PUCSORGTOP
 10
0.0
 20
0.0
 30
0.0
  9
$PUCSORGBOTTOM
 10
0.0
 20
0.0
 30
0.0
  9
$PUCSORGLEFT
 10
0.0
 20
0.0
 30
0.0
  9
$PUCSORGRIGHT
 10
0.0
 20
0.0
 30
0.0
  9
$PUCSORGFRONT
 10
0.0
 20
0.0
 30
0.0
  9
$PUCSORGBACK
 10
0.0
 20
0.0
 30
0.0
  9
$USERI1
 70
     0
  9
$USERI2
 70
     0
  9
$USERI3
 70
     0
  9
$USERI4
 70
     0
  9
$USERI5
 70
     0
  9
$USERR1
 40
0.0
  9
$USERR2
 40
0.0
  9
$USERR3
 40
0.0
  9
$USERR4
 40
0.0
  9
$USERR5
 40
0.0
  9
$WORLDVIEW
 70
     1
  9
$SHADEDGE
 70
     3
  9
$SHADEDIF
 70
    70
  9
$TILEMODE
 70
     1
  9
$MAXACTVP
 70
    64
  9
$PINSBASE
 10
0.0
 20
0.0
 30
0.0
  9
$PLIMCHECK
 70
     0
  9
$PEXTMIN
 10
1.000000000000000E+20
 20
1.000000000000000E+20
 30
1.000000000000000E+20
  9
$PEXTMAX
 10
-1.000000000000000E+20
 20
-1.000000000000000E+20
 30
-1.000000000000000E+20
  9
$PLIMMIN
 10
0.0
 20
0.0
  9
$PLIMMAX
 10
12.0
 20
9.0
  9
$UNITMODE
 70
     0
  9
$VISRETAIN
 70
     0
  9
$PLINEGEN
 70
     1
  9
$PSLTSCALE
 70
     0
  9
$TREEDEPTH
 70
  3020
  9
$CMLSTYLE
  2
Standard
  9
$CMLJUST
 70
     0
  9
$CMLSCALE
 40
1.0
  9
$PROXYGRAPHICS
 70
     1
  9
$MEASUREMENT
 70
     0
  9
$CELWEIGHT
370
    -1
  9
$ENDCAPS
280
     0
  9
$JOINSTYLE
280
     0
  9
$LWDISPLAY
290
     0
  9
$INSUNITS
 70
     0
  9
$HYPERLINKBASE
  1

  9
$STYLESHEET
  1

  9
$XEDIT
290
     1
  9
$CEPSNTYPE
380
     0
  9
$PSTYLEMODE
290
     1
  9
$FINGERPRINTGUID
  2
{4AC18CCE-FAA7-4885-9AEC-9934A9C23995}
  9
$VERSIONGUID
  2
{D3743B07-6D1C-4B53-AA69-C529CB5F55A9}
  9
$EXTNAMES
290
     1
  9
$PSVPSCALE
 40
0.0
  9
$OLESTARTUP
290
     0
  0
ENDSEC
  0
SECTION
  2
CLASSES
  0
CLASS
  1
ACDBDICTIONARYWDFLT
  2
AcDbDictionaryWithDefault
  3
ObjectDBX Classes
 90
        0
280
     0
281
     0
  0
CLASS
  1
MATERIAL
  2
AcDbMaterial
  3
ObjectDBX Classes
 90
     1153
280
     0
281
     0
  0
CLASS
  1
VISUALSTYLE
  2
AcDbVisualStyle
  3
ObjectDBX Classes
 90
     4095
280
     0
281
     0
  0
CLASS
  1
SCALE
  2
AcDbScale
  3
ObjectDBX Classes
 90
     1153
280
     0
281
     0
  0
CLASS
  1
TABLESTYLE
  2
AcDbTableStyle
  3
ObjectDBX Classes
 90
     4095
280
     0
281
     0
  0
CLASS
  1
MLEADERSTYLE
  2
AcDbMLeaderStyle
  3
ACDB_MLEADERSTYLE_CLASS
 90
     4095
280
     0
281
     0
  0
CLASS
  1
ACDBSECTIONVIEWSTYLE
  2
AcDbSectionViewStyle
  3
ObjectDBX Classes
 90
     1025
280
     0
281
     0
  0
CLASS
  1
ACDBDETAILVIEWSTYLE
  2
AcDbDetailViewStyle
  3
ObjectDBX Classes
 90
     1025
280
     0
281
     0
  0
CLASS
  1
DICTIONARYVAR
  2
AcDbDictionaryVar
  3
ObjectDBX Classes
 90
        0
280
     0
281
     0
  0
CLASS
  1
CELLSTYLEMAP
  2
AcDbCellStyleMap
  3
ObjectDBX Classes
 90
     1152
280
     0
281
     0
  0
CLASS
  1
ACDBPLACEHOLDER
  2
AcDbPlaceHolder
  3
ObjectDBX Classes
 90
        0
280
     0
281
     0
  0
CLASS
  1
LAYOUT
  2
AcDbLayout
  3
ObjectDBX Classes
 90
        0
280
     0
281
     0
  0
ENDSEC
  0
SECTION
  2
TABLES
  0
TABLE
  2
VPORT
  5
271
330
0
100
AcDbSymbolTable
 70
     1
  0
VPORT
  5
2DD
330
271
100
AcDbSymbolTableRecord
100
AcDbViewportTableRecord
  2
*ACTIVE
 70
     0
 10
0.0
 20
0.0
 11
1.0
 21
1.0
 12
0.0000008381904308
 22
-4.081947882546955
 13
0.0
 23
0.0
 14
1.0
 24
1.0
 15
0.0
 25
0.0
 16
0.0
 26
0.0
 36
1.0
 17
0.0
 27
0.0
 37
0.0
 40
538.1850475297023
 41
2.315405651777575
 42
50.0
 43
0.0
 44
0.0
 50
0.0
 51
0.0
 71
     0
 72
  2000
 73
     1
 74
     1
 75
     0
 76
     0
 77
     0
 78
     0
281
     0
 65
     1
110
0.0
120
0.0
130
0.0
111
1.0
121
0.0
131
0.0
112
0.0
122
1.0
132
0.0
 79
     0
146
0.0
1001
ACAD_NAV_VCDISPLAY
1070
     3
  0
ENDTAB
  0
TABLE
  2
LTYPE
  5
26E
330
0
100
AcDbSymbolTable
 70
    11
  0
LTYPE
  5
2C3
330
26E
100
AcDbSymbolTableRecord
100
AcDbLinetypeTableRecord
  2
ByBlock
 70
     0
  3

 72
    65
 73
     0
 40
0.0
  0
LTYPE
  5
2C4
330
26E
100
AcDbSymbolTableRecord
100
AcDbLinetypeTableRecord
  2
ByLayer
 70
     0
  3

 72
    65
 73
     0
 40
0.0
  0
LTYPE
  5
2C5
330
26E
100
AcDbSymbolTableRecord
100
AcDbLinetypeTableRecord
  2
CONTINUOUS
 70
     0
  3
Solid line
 72
    65
 73
     0
 40
0.0
  0
ENDTAB
  0
TABLE
  2
LAYER
  5
26B
330
0
100
AcDbSymbolTable
 70
     6
  0
LAYER
  5
2BD
102
{ACAD_XDICTIONARY
360
2F2
102
}
330
26B
100
AcDbSymbolTableRecord
100
AcDbLayerTableRecord
  2
0
 70
     0
 62
     7
  6
CONTINUOUS
370
    -3
390
278
  0
LAYER
  5
2DC
102
{ACAD_XDICTIONARY
360
2F4
102
}
330
26B
100
AcDbSymbolTableRecord
100
AcDbLayerTableRecord
  2
DATA
 70
     0
 62
     7
  6
CONTINUOUS
370
    -3
390
278
  0
LAYER
  5
2E8
102
{ACAD_XDICTIONARY
360
2F6
102
}
330
26B
100
AcDbSymbolTableRecord
100
AcDbLayerTableRecord
  2
HIBINO-BASE
 70
     0
 62
     7
  6
CONTINUOUS
370
    -3
390
278
  0
LAYER
  5
2EA
102
{ACAD_XDICTIONARY
360
2F8
102
}
330
26B
100
AcDbSymbolTableRecord
100
AcDbLayerTableRecord
  2
SPEC
 70
     0
 62
     7
  6
CONTINUOUS
370
    -3
390
278
  0
LAYER
  5
2EB
102
{ACAD_XDICTIONARY
360
2FA
102
}
330
26B
100
AcDbSymbolTableRecord
100
AcDbLayerTableRecord
  2
DIMNSIONS
 70
     0
 62
     7
  6
CONTINUOUS
370
    -3
390
278
  0
ENDTAB
  0
TABLE
  2
STYLE
  5
26C
330
0
100
AcDbSymbolTable
 70
     3
  0
STYLE
  5
2BE
330
26C
100
AcDbSymbolTableRecord
100
AcDbTextStyleTableRecord
  2
STANDARD
 70
     0
 40
0.0
 41
1.0
 50
0.0
 71
     0
 42
0.0
  3
txt
  4
BIGFONT.SHX
  0
ENDTAB
  0
TABLE
  2
VIEW
  5
26F
330
0
100
AcDbSymbolTable
 70
     0
  0
ENDTAB
  0
TABLE
  2
UCS
  5
270
330
0
100
AcDbSymbolTable
 70
     0
  0
ENDTAB
  0
TABLE
  2
APPID
  5
272
330
0
100
AcDbSymbolTable
 70
     4
  0
APPID
  5
2BF
330
272
100
AcDbSymbolTableRecord
100
AcDbRegAppTableRecord
  2
ACAD
 70
     0
  0
APPID
  5
2C6
330
272
100
AcDbSymbolTableRecord
100
AcDbRegAppTableRecord
  2
AcadAnnotative
 70
     0
  0
APPID
  5
306
330
272
100
AcDbSymbolTableRecord
100
AcDbRegAppTableRecord
  2
ACAD_NAV_VCDISPLAY
 70
     0
  0
APPID
  5
33F
330
272
100
AcDbSymbolTableRecord
100
AcDbRegAppTableRecord
  2
ACAD_MLEADERVER
 70
     0
  0
ENDTAB
  0
TABLE
  2
DIMSTYLE
  5
273
330
0
100
AcDbSymbolTable
 70
     2
100
AcDbDimStyleTable
 71
     0
  0
DIMSTYLE
105
2C0
330
273
100
AcDbSymbolTableRecord
100
AcDbDimStyleTableRecord
  2
STANDARD
 70
     0
279
     2
340
2BE
  0
ENDTAB
  0
TABLE
  2
BLOCK_RECORD
  5
26A
330
0
100
AcDbSymbolTable
 70
     0
  0
BLOCK_RECORD
  5
2D8
330
26A
100
AcDbSymbolTableRecord
100
AcDbBlockTableRecord
  2
*Model_Space
340
2DB
  0
BLOCK_RECORD
  5
2D4
330
26A
100
AcDbSymbolTableRecord
100
AcDbBlockTableRecord
  2
*Paper_Space
340
2D7
  0
ENDTAB
  0
ENDSEC
  0
SECTION
  2
BLOCKS
  0
BLOCK
  5
2D9
330
2D8
100
AcDbEntity
  8
0
100
AcDbBlockBegin
  2
*Model_Space
 70
     0
 10
0.0
 20
0.0
 30
0.0
  3
*Model_Space
  1

  0
ENDBLK
  5
2DA
330
2D8
100
AcDbEntity
  8
0
100
AcDbBlockEnd
  0
BLOCK
  5
2D5
330
2D4
100
AcDbEntity
 67
     1
  8
0
100
AcDbBlockBegin
  2
*Paper_Space
 70
     0
 10
0.0
 20
0.0
 30
0.0
  3
*Paper_Space
  1

  0
ENDBLK
  5
2D6
330
2D4
100
AcDbEntity
 67
     1
  8
0
100
AcDbBlockEnd
  0
ENDSEC
  0
SECTION
  2
ENTITIES
  0
LINE
  5
2D
330
2D8
100
AcDbEntity
  8
HIBINO-BASE
  6
Continuous
 62
     7
100
AcDbLine
 10
-180.0
 20
263.5318150000001
 30
0.0
 11
180.0
 21
263.5318150000001
 31
0.0
  0
LINE
  5
2E
330
2D8
100
AcDbEntity
  8
HIBINO-BASE
  6
Continuous
 62
     7
100
AcDbLine
 10
180.0
 20
-256.468185
 30
0.0
 11
-180.0
 21
-256.468185
 31
0.0
  0
LINE
  5
2F
330
2D8
100
AcDbEntity
  8
HIBINO-BASE
  6
Continuous
 62
     7
100
AcDbLine
 10
-180.0
 20
-256.468185
 30
0.0
 11
-180.0
 21
263.5318150000001
 31
0.0
  0
LINE
  5
30
330
2D8
100
AcDbEntity
  8
HIBINO-BASE
  6
Continuous
 62
     7
100
AcDbLine
 10
180.0
 20
263.5318150000001
 30
0.0
 11
180.0
 21
-256.468185
 31
0.0
  0
LINE
  5
31
330
2D8
100
AcDbEntity
  8
HIBINO-BASE
  6
Continuous
 62
     7
100
AcDbLine
 10
0.0000000000000142
 20
-211.468185
 30
0.0
 11
180.0
 21
-211.468185
 31
0.0
  0
LINE
  5
32
330
2D8
100
AcDbEntity
  8
HIBINO-BASE
  6
Continuous
 62
     7
100
AcDbLine
 10
0.0000000000000142
 20
-256.468185
 30
0.0
 11
0.0000000000000142
 21
-211.468185
 31
0.0
  0
TEXT
  5
33
330
2D8
100
AcDbEntity
  8
HIBINO-BASE
 62
     7
100
AcDbText
 10
1.800000000000025
 20
-216.4855716666667
 30
0.0
 40
3.257682291666666
  1
NOTE
 41
0.7
 11
1.800000000000025
 21
-213.227889375
 31
0.0
100
AcDbText
 73
     3
  0
LINE
  5
34
330
2D8
100
AcDbEntity
  8
HIBINO-BASE
  6
Continuous
 62
     7
100
AcDbLine
 10
70.00000000000004
 20
-256.468185
 30
0.0
 11
70.00000000000004
 21
-211.468185
 31
0.0
  0
TEXT
  5
35
330
2D8
100
AcDbEntity
  8
HIBINO-BASE
 62
     7
100
AcDbText
 10
71.79999999999999
 20
-216.4855716666667
 30
0.0
 40
3.257682291666666
  1
TITLE
 41
0.7
 11
71.79999999999999
 21
-213.227889375
 31
0.0
100
AcDbText
 73
     3
  0
LINE
  5
36
330
2D8
100
AcDbEntity
  8
HIBINO-BASE
  6
Continuous
 62
     7
100
AcDbLine
 10
0.0000000000000142
 20
-236.468185
 30
0.0
 11
180.0
 21
-236.468185
 31
0.0
  0
TEXT
  5
37
330
2D8
100
AcDbEntity
  8
HIBINO-BASE
 62
     7
100
AcDbText
 10
96.79999999999999
 20
-241.3729316666667
 30
0.0
 40
3.257682291666666
  1
DRAWN
 41
0.7
 11
96.79999999999999
 21
-238.115249375
 31
0.0
100
AcDbText
 73
     3
  0
TEXT
  5
38
330
2D8
100
AcDbEntity
  8
HIBINO-BASE
 62
     7
100
AcDbText
 10
46.79999999999999
 20
-241.3729316666667
 30
0.0
 40
3.257682291666666
  1
DATE
 41
0.7
 11
46.79999999999999
 21
-238.115249375
 31
0.0
100
AcDbText
 73
     3
  0
TEXT
  5
39
330
2D8
100
AcDbEntity
  8
HIBINO-BASE
 62
     7
100
AcDbText
 10
26.8
 20
-241.3729316666667
 30
0.0
 40
3.257682291666666
  1
SCALE
 41
0.7
 11
26.8
 21
-238.115249375
 31
0.0
100
AcDbText
 73
     3
  0
TEXT
  5
3A
330
2D8
100
AcDbEntity
  8
HIBINO-BASE
 62
     7
100
AcDbText
 10
71.79999999999999
 20
-241.3729316666667
 30
0.0
 40
3.257682291666666
  1
DESIGN
 41
0.7
 11
71.79999999999999
 21
-238.115249375
 31
0.0
100
AcDbText
 73
     3
  0
TEXT
  5
3B
330
2D8
100
AcDbEntity
  8
HIBINO-BASE
 62
     7
100
AcDbText
 10
146.7999999999999
 20
-241.3729316666667
 30
0.0
 40
3.257682291666666
  1
DRAWING NO.
 41
0.7
 11
146.7999999999999
 21
-238.115249375
 31
0.0
100
AcDbText
 73
     3
  0
TEXT
  5
3C
330
2D8
100
AcDbEntity
  8
HIBINO-BASE
 62
     7
100
AcDbText
 10
121.7999999999999
 20
-241.3729316666667
 30
0.0
 40
3.257682291666666
  1
CHECK
 41
0.7
 11
121.7999999999999
 21
-238.115249375
 31
0.0
100
AcDbText
 73
     3
  0
LINE
  5
3D
330
2D8
100
AcDbEntity
  8
HIBINO-BASE
  6
Continuous
 62
     7
100
AcDbLine
 10
28.75000000000001
 20
-253.968185
 30
0.0
 11
36.25000000000003
 21
-246.468185
 31
0.0
  0
TEXT
  5
3E
330
2D8
100
AcDbEntity
  8
HIBINO-BASE
 62
     7
100
AcDbText
 10
27.50000000000001
 20
-248.6860716666666
 30
0.0
 40
3.257682291666666
  1
1
 41
0.7
 11
27.50000000000001
 21
-245.428389375
 31
0.0
100
AcDbText
 73
     3
  0
LINE
  5
3F
330
2D8
100
AcDbEntity
  8
HIBINO-BASE
  6
Continuous
 62
     7
100
AcDbLine
 10
25.00000000000001
 20
-256.468185
 30
0.0
 11
25.00000000000001
 21
-236.468185
 31
0.0
  0
LINE
  5
40
330
2D8
100
AcDbEntity
  8
HIBINO-BASE
  6
Continuous
 62
     7
100
AcDbLine
 10
44.99999999999999
 20
-256.468185
 30
0.0
 11
44.99999999999999
 21
-236.468185
 31
0.0
  0
LINE
  5
41
330
2D8
100
AcDbEntity
  8
HIBINO-BASE
  6
Continuous
 62
     7
100
AcDbLine
 10
94.99999999999996
 20
-236.468185
 30
0.0
 11
94.99999999999996
 21
-256.468185
 31
0.0
  0
LINE
  5
42
330
2D8
100
AcDbEntity
  8
HIBINO-BASE
  6
Continuous
 62
     7
100
AcDbLine
 10
145.0
 20
-236.468185
 30
0.0
 11
145.0
 21
-256.468185
 31
0.0
  0
LINE
  5
43
330
2D8
100
AcDbEntity
  8
HIBINO-BASE
  6
Continuous
 62
     7
100
AcDbLine
 10
119.9999999999999
 20
-256.468185
 30
0.0
 11
119.9999999999999
 21
-236.468185
 31
0.0
  0
TEXT
  5
44
330
2D8
100
AcDbEntity
  8
HIBINO-BASE
 62
     7
100
AcDbText
 10
46.71308000000002
 20
-250.7408916666667
 30
0.0
 40
3.257682291666666
  1
'16.01.
 41
0.7
 11
46.71308000000002
 21
-247.483209375
 31
0.0
100
AcDbText
 73
     3
  0
TEXT
  5
45
330
2D8
100
AcDbEntity
  8
HIBINO-BASE
 62
     7
100
AcDbText
 10
35.00000000000001
 20
-252.4360716666667
 30
0.0
 40
3.257682291666666
  1
2
 41
0.7
 11
35.00000000000001
 21
-249.178389375
 31
0.0
100
AcDbText
 73
     3
  0
TEXT
  5
46
330
2D8
100
AcDbEntity
  8
HIBINO-BASE
 62
     7
100
AcDbText
 10
98.01162002206922
 20
-250.7408916666667
 30
0.0
 40
3.257682291666666
  1
N.Sasaki
 41
0.7
 11
98.01162002206922
 21
-247.483209375
 31
0.0
100
AcDbText
 73
     3
  0
TEXT
  5
47
330
2D8
100
AcDbEntity
  8
HIBINO-BASE
 62
     7
100
AcDbText
 10
7.766666666666721
 20
-252.516185
 30
0.0
 40
6.515364583333332
  1
A4
 41
0.7
 11
7.766666666666721
 21
-246.0008204166666
 31
0.0
100
AcDbText
 73
     3
  0
TEXT
  5
48
330
2D8
100
AcDbEntity
  8
HIBINO-BASE
 62
     7
100
AcDbText
 10
1.916666666666671
 20
-241.7070949999999
 30
0.0
 40
3.257682291666666
  1
PAPER SIZE
 41
0.7
 11
1.916666666666671
 21
-238.4494127083333
 31
0.0
100
AcDbText
 73
     3
  0
TEXT
  5
49
330
2D8
100
AcDbEntity
  8
HIBINO-BASE
 62
     7
100
AcDbText
 10
-165.6319999999999
 20
-269.2855405999999
 30
0.0
 40
7.200088359374999
  1
Hibino Corporation
 41
0.7
 11
-165.6319999999999
 21
-262.0854522406249
 31
0.0
100
AcDbText
 73
     3
  0
TEXT
  5
4A
330
2D8
100
AcDbEntity
  8
HIBINO-BASE
 62
     7
100
AcDbText
 10
100.13678
 20
-269.2855405999999
 30
0.0
 40
7.200088359374999
  1
ヒビノ株式会社
 41
0.7
 11
100.13678
 21
-262.0854522406249
 31
0.0
100
AcDbText
 73
     3
  0
LINE
  5
4B
330
2D8
100
AcDbEntity
  8
SPEC
  6
Continuous
 62
     7
100
AcDbLine
 10
-164.9999999999999
 20
243.531815
 30
0.0
 11
130.0
 21
243.531815
 31
0.0
  0
LINE
  5
4C
330
2D8
100
AcDbEntity
  8
SPEC
  6
Continuous
 62
     7
100
AcDbLine
 10
-112.5
 20
236.031815
 30
0.0
 11
130.0
 21
236.031815
 31
0.0
  0
LINE
  5
4D
330
2D8
100
AcDbEntity
  8
SPEC
  6
Continuous
 62
     7
100
AcDbLine
 10
-164.9999999999999
 20
243.531815
 30
0.0
 11
-164.9999999999999
 21
86.03181499999998
 31
0.0
  0
TEXT
  5
4E
330
2D8
100
AcDbEntity
  8
SPEC
 62
     7
100
AcDbText
 10
-162.4999999999999
 20
246.318355
 30
0.0
 40
4.8865234375
  1
仕様
 41
0.7
 11
-162.4999999999999
 21
251.2048784375
 31
0.0
100
AcDbText
 73
     3
  0
LINE
  5
4F
330
2D8
100
AcDbEntity
  8
SPEC
  6
Continuous
 62
     7
100
AcDbLine
 10
-112.5
 20
243.531815
 30
0.0
 11
-112.5
 21
153.531815
 31
0.0
  0
LINE
  5
50
330
2D8
100
AcDbEntity
  8
SPEC
  6
Continuous
 62
     7
100
AcDbLine
 10
130.0
 20
243.531815
 30
0.0
 11
130.0
 21
86.03181499999998
 31
0.0
  0
TEXT
  5
51
330
2D8
100
AcDbEntity
  8
SPEC
 62
     7
100
AcDbText
 10
-163.2
 20
102.522
 30
0.0
 40
3.800629340277777
  1
寸法(W\U+00D7H\U+00D7D)
 41
0.7
 11
-163.2
 21
106.3226293402777
 31
0.0
100
AcDbText
 73
     3
  0
TEXT
  5
52
330
2D8
100
AcDbEntity
  8
SPEC
 62
     7
100
AcDbText
 10
-163.2
 20
95.0219999999995
 30
0.0
 40
3.800629340277777
  1
質量
 41
0.7
 11
-163.2
 21
98.82262934027728
 31
0.0
100
AcDbText
 73
     3
  0
TEXT
  5
53
330
2D8
100
AcDbEntity
  8
SPEC
 62
     7
100
AcDbText
 10
-163.2
 20
237.6076505555555
 30
0.0
 40
3.800629340277777
  1
マイク/ライン入力
 41
0.7
 11
-163.2
 21
241.4082798958333
 31
0.0
100
AcDbText
 73
     3
  0
TEXT
  5
54
330
2D8
100
AcDbEntity
  8
SPEC
 62
     7
100
AcDbText
 10
-60.69999999999997
 20
102.6076505555555
 30
0.0
 40
3.800629340277777
  1
155\U+00D740\U+00D7102mm(除突起部)
 41
0.7
 11
-60.69999999999997
 21
106.4082798958333
 31
0.0
100
AcDbText
 73
     3
  0
TEXT
  5
55
330
2D8
100
AcDbEntity
  8
SPEC
 62
     7
100
AcDbText
 10
-60.69999999999997
 20
95.1076505555555
 30
0.0
 40
3.800629340277777
  1
540g
 41
0.7
 11
-60.69999999999997
 21
98.90827989583328
 31
0.0
100
AcDbText
 73
     3
  0
TEXT
  5
56
330
2D8
100
AcDbEntity
  8
SPEC
 62
     7
100
AcDbText
 10
-110.7
 20
237.6076505555555
 30
0.0
 40
3.800629340277777
  1
チャンネル数
 41
0.7
 11
-110.7
 21
241.4082798958333
 31
0.0
100
AcDbText
 73
     3
  0
LINE
  5
57
330
2D8
100
AcDbEntity
  8
SPEC
  6
Continuous
 62
     7
100
AcDbLine
 10
-112.5
 20
228.531815
 30
0.0
 11
130.0
 21
228.531815
 31
0.0
  0
TEXT
  5
58
330
2D8
100
AcDbEntity
  8
SPEC
 62
     7
100
AcDbText
 10
-110.7
 20
230.1076505555555
 30
0.0
 40
3.800629340277777
  1
端子・形式
 41
0.7
 11
-110.7
 21
233.9082798958333
 31
0.0
100
AcDbText
 73
     3
  0
LINE
  5
59
330
2D8
100
AcDbEntity
  8
SPEC
  6
Continuous
 62
     7
100
AcDbLine
 10
-112.5
 20
221.031815
 30
0.0
 11
130.0
 21
221.031815
 31
0.0
  0
TEXT
  5
5A
330
2D8
100
AcDbEntity
  8
SPEC
 62
     7
100
AcDbText
 10
-110.7
 20
222.6076505555555
 30
0.0
 40
3.800629340277777
  1
インピーダンス
 41
0.7
 11
-110.7
 21
226.4082798958333
 31
0.0
100
AcDbText
 73
     3
  0
LINE
  5
5B
330
2D8
100
AcDbEntity
  8
SPEC
  6
Continuous
 62
     7
100
AcDbLine
 10
-164.9999999999999
 20
213.531815
 30
0.0
 11
130.0
 21
213.531815
 31
0.0
  0
TEXT
  5
5C
330
2D8
100
AcDbEntity
  8
SPEC
 62
     7
100
AcDbText
 10
-110.7
 20
215.1076505555555
 30
0.0
 40
3.800629340277777
  1
最大レベル
 41
0.7
 11
-110.7
 21
218.9082798958333
 31
0.0
100
AcDbText
 73
     3
  0
LINE
  5
5D
330
2D8
100
AcDbEntity
  8
SPEC
  6
Continuous
 62
     7
100
AcDbLine
 10
-112.5
 20
206.031815
 30
0.0
 11
130.0
 21
206.031815
 31
0.0
  0
TEXT
  5
5E
330
2D8
100
AcDbEntity
  8
SPEC
 62
     7
100
AcDbText
 10
-163.2
 20
207.6076505555555
 30
0.0
 40
3.800629340277777
  1
AUX入力
 41
0.7
 11
-163.2
 21
211.4082798958333
 31
0.0
100
AcDbText
 73
     3
  0
TEXT
  5
5F
330
2D8
100
AcDbEntity
  8
SPEC
 62
     7
100
AcDbText
 10
-110.7
 20
207.6076505555555
 30
0.0
 40
3.800629340277777
  1
チャンネル数
 41
0.7
 11
-110.7
 21
211.4082798958333
 31
0.0
100
AcDbText
 73
     3
  0
LINE
  5
60
330
2D8
100
AcDbEntity
  8
SPEC
  6
Continuous
 62
     7
100
AcDbLine
 10
-112.5
 20
198.531815
 30
0.0
 11
130.0
 21
198.531815
 31
0.0
  0
TEXT
  5
61
330
2D8
100
AcDbEntity
  8
SPEC
 62
     7
100
AcDbText
 10
-110.7
 20
200.1076505555555
 30
0.0
 40
3.800629340277777
  1
端子・形式
 41
0.7
 11
-110.7
 21
203.9082798958333
 31
0.0
100
AcDbText
 73
     3
  0
LINE
  5
62
330
2D8
100
AcDbEntity
  8
SPEC
  6
Continuous
 62
     7
100
AcDbLine
 10
-112.5
 20
191.031815
 30
0.0
 11
130.0
 21
191.031815
 31
0.0
  0
TEXT
  5
63
330
2D8
100
AcDbEntity
  8
SPEC
 62
     7
100
AcDbText
 10
-110.7
 20
192.6076505555555
 30
0.0
 40
3.800629340277777
  1
インピーダンス
 41
0.7
 11
-110.7
 21
196.4082798958333
 31
0.0
100
AcDbText
 73
     3
  0
LINE
  5
64
330
2D8
100
AcDbEntity
  8
SPEC
  6
Continuous
 62
     7
100
AcDbLine
 10
-164.9999999999999
 20
183.531815
 30
0.0
 11
130.0
 21
183.531815
 31
0.0
  0
TEXT
  5
65
330
2D8
100
AcDbEntity
  8
SPEC
 62
     7
100
AcDbText
 10
-110.7
 20
185.1076505555555
 30
0.0
 40
3.800629340277777
  1
最大レベル
 41
0.7
 11
-110.7
 21
188.9082798958333
 31
0.0
100
AcDbText
 73
     3
  0
LINE
  5
66
330
2D8
100
AcDbEntity
  8
SPEC
  6
Continuous
 62
     7
100
AcDbLine
 10
-112.5
 20
176.031815
 30
0.0
 11
130.0
 21
176.031815
 31
0.0
  0
TEXT
  5
67
330
2D8
100
AcDbEntity
  8
SPEC
 62
     7
100
AcDbText
 10
-163.2
 20
177.6076505555555
 30
0.0
 40
3.800629340277777
  1
音声出力
 41
0.7
 11
-163.2
 21
181.4082798958333
 31
0.0
100
AcDbText
 73
     3
  0
TEXT
  5
68
330
2D8
100
AcDbEntity
  8
SPEC
 62
     7
100
AcDbText
 10
-110.7
 20
177.6076505555555
 30
0.0
 40
3.800629340277777
  1
チャンネル数
 41
0.7
 11
-110.7
 21
181.4082798958333
 31
0.0
100
AcDbText
 73
     3
  0
LINE
  5
69
330
2D8
100
AcDbEntity
  8
SPEC
  6
Continuous
 62
     7
100
AcDbLine
 10
-112.5
 20
168.531815
 30
0.0
 11
130.0
 21
168.531815
 31
0.0
  0
TEXT
  5
6A
330
2D8
100
AcDbEntity
  8
SPEC
 62
     7
100
AcDbText
 10
-110.7
 20
170.1076505555555
 30
0.0
 40
3.800629340277777
  1
端子・形式
 41
0.7
 11
-110.7
 21
173.9082798958333
 31
0.0
100
AcDbText
 73
     3
  0
LINE
  5
6B
330
2D8
100
AcDbEntity
  8
SPEC
  6
Continuous
 62
     7
100
AcDbLine
 10
-112.5
 20
161.031815
 30
0.0
 11
130.0
 21
161.031815
 31
0.0
  0
TEXT
  5
6C
330
2D8
100
AcDbEntity
  8
SPEC
 62
     7
100
AcDbText
 10
-110.7
 20
162.6076505555555
 30
0.0
 40
3.800629340277777
  1
インピーダンス
 41
0.7
 11
-110.7
 21
166.4082798958333
 31
0.0
100
AcDbText
 73
     3
  0
LINE
  5
6D
330
2D8
100
AcDbEntity
  8
SPEC
  6
Continuous
 62
     7
100
AcDbLine
 10
-164.9999999999999
 20
153.531815
 30
0.0
 11
130.0
 21
153.531815
 31
0.0
  0
TEXT
  5
6E
330
2D8
100
AcDbEntity
  8
SPEC
 62
     7
100
AcDbText
 10
-110.7
 20
155.1076505555555
 30
0.0
 40
3.800629340277777
  1
最大レベル
 41
0.7
 11
-110.7
 21
158.9082798958333
 31
0.0
100
AcDbText
 73
     3
  0
LINE
  5
6F
330
2D8
100
AcDbEntity
  8
SPEC
  6
Continuous
 62
     7
100
AcDbLine
 10
-164.9999999999999
 20
146.031815
 30
0.0
 11
130.0
 21
146.031815
 31
0.0
  0
LINE
  5
70
330
2D8
100
AcDbEntity
  8
SPEC
  6
Continuous
 62
     7
100
AcDbLine
 10
-164.9999999999999
 20
138.531815
 30
0.0
 11
130.0
 21
138.531815
 31
0.0
  0
LINE
  5
71
330
2D8
100
AcDbEntity
  8
SPEC
  6
Continuous
 62
     7
100
AcDbLine
 10
-62.5
 20
243.531815
 30
0.0
 11
-62.5
 21
86.03181499999998
 31
0.0
  0
TEXT
  5
72
330
2D8
100
AcDbEntity
  8
SPEC
 62
     7
100
AcDbText
 10
-60.7
 20
237.6076505555555
 30
0.0
 40
3.800629340277777
  1
2
 41
0.7
 11
-60.7
 21
241.4082798958333
 31
0.0
100
AcDbText
 73
     3
  0
TEXT
  5
73
330
2D8
100
AcDbEntity
  8
SPEC
 62
     7
100
AcDbText
 10
-60.7
 20
230.1076505555555
 30
0.0
 40
3.800629340277777
  1
XLR(3P)と標準フォーン(3P)対応の複合型 端子\U+00D72
 41
0.7
 11
-60.7
 21
233.9082798958333
 31
0.0
100
AcDbText
 73
     3
  0
TEXT
  5
74
330
2D8
100
AcDbEntity
  8
SPEC
 62
     7
100
AcDbText
 10
-60.7
 20
222.6076505555555
 30
0.0
 40
3.800629340277777
  1
マイク:2k\U+03A9(バランス)、ライン:22k\U+03A9(バランス)
 41
0.7
 11
-60.7
 21
226.4082798958333
 31
0.0
100
AcDbText
 73
     3
  0
TEXT
  5
75
330
2D8
100
AcDbEntity
  8
SPEC
 62
     7
100
AcDbText
 10
-60.7
 20
215.1076505555555
 30
0.0
 40
3.800629340277777
  1
マイク:0dBu、ライン:+20dBu
 41
0.7
 11
-60.7
 21
218.9082798958333
 31
0.0
100
AcDbText
 73
     3
  0
TEXT
  5
76
330
2D8
100
AcDbEntity
  8
SPEC
 62
     7
100
AcDbText
 10
-60.7
 20
207.6076505555555
 30
0.0
 40
3.800629340277777
  1
1
 41
0.7
 11
-60.7
 21
211.4082798958333
 31
0.0
100
AcDbText
 73
     3
  0
TEXT
  5
77
330
2D8
100
AcDbEntity
  8
SPEC
 62
     7
100
AcDbText
 10
-60.7
 20
200.1076505555555
 30
0.0
 40
3.800629340277777
  1
ステレオミニフォーン
 41
0.7
 11
-60.7
 21
203.9082798958333
 31
0.0
100
AcDbText
 73
     3
  0
TEXT
  5
78
330
2D8
100
AcDbEntity
  8
SPEC
 62
     7
100
AcDbText
 10
-60.7
 20
192.6076505555555
 30
0.0
 40
3.800629340277777
  1
20k\U+03A9
 41
0.7
 11
-60.7
 21
196.4082798958333
 31
0.0
100
AcDbText
 73
     3
  0
TEXT
  5
79
330
2D8
100
AcDbEntity
  8
SPEC
 62
     7
100
AcDbText
 10
-60.7
 20
185.1076505555555
 30
0.0
 40
3.800629340277777
  1
+20dBu
 41
0.7
 11
-60.7
 21
188.9082798958333
 31
0.0
100
AcDbText
 73
     3
  0
LINE
  5
7A
330
2D8
100
AcDbEntity
  8
SPEC
  6
Continuous
 62
     7
100
AcDbLine
 10
-164.9999999999999
 20
131.031815
 30
0.0
 11
130.0
 21
131.031815
 31
0.0
  0
LINE
  5
7B
330
2D8
100
AcDbEntity
  8
SPEC
  6
Continuous
 62
     7
100
AcDbLine
 10
-164.9999999999999
 20
123.531815
 30
0.0
 11
130.0
 21
123.531815
 31
0.0
  0
LINE
  5
7C
330
2D8
100
AcDbEntity
  8
SPEC
  6
Continuous
 62
     7
100
AcDbLine
 10
-164.9999999999999
 20
116.031815
 30
0.0
 11
130.0
 21
116.031815
 31
0.0
  0
LINE
  5
7D
330
2D8
100
AcDbEntity
  8
SPEC
  6
Continuous
 62
     7
100
AcDbLine
 10
-164.9999999999999
 20
108.531815
 30
0.0
 11
130.0
 21
108.531815
 31
0.0
  0
LINE
  5
7E
330
2D8
100
AcDbEntity
  8
SPEC
  6
Continuous
 62
     7
100
AcDbLine
 10
-164.9999999999999
 20
101.031815
 30
0.0
 11
130.0
 21
101.031815
 31
0.0
  0
LINE
  5
7F
330
2D8
100
AcDbEntity
  8
SPEC
  6
Continuous
 62
     7
100
AcDbLine
 10
-164.9999999999999
 20
93.53181499999999
 30
0.0
 11
130.0
 21
93.53181499999999
 31
0.0
  0
TEXT
  5
80
330
2D8
100
AcDbEntity
  8
SPEC
 62
     7
100
AcDbText
 10
-60.41666666666671
 20
177.6076505555555
 30
0.0
 40
3.800629340277777
  1
2
 41
0.7
 11
-60.41666666666671
 21
181.4082798958333
 31
0.0
100
AcDbText
 73
     3
  0
TEXT
  5
81
330
2D8
100
AcDbEntity
  8
SPEC
 62
     7
100
AcDbText
 10
-60.41666666666671
 20
170.1076505555555
 30
0.0
 40
3.800629340277777
  1
XLR(3P)
 41
0.7
 11
-60.41666666666671
 21
173.9082798958333
 31
0.0
100
AcDbText
 73
     3
  0
TEXT
  5
82
330
2D8
100
AcDbEntity
  8
SPEC
 62
     7
100
AcDbText
 10
-60.41666666666671
 20
162.6076505555555
 30
0.0
 40
3.800629340277777
  1
40\U+03A9
 41
0.7
 11
-60.41666666666671
 21
166.4082798958333
 31
0.0
100
AcDbText
 73
     3
  0
TEXT
  5
83
330
2D8
100
AcDbEntity
  8
SPEC
 62
     7
100
AcDbText
 10
-60.41666666666671
 20
155.1076505555555
 30
0.0
 40
3.800629340277777
  1
+14dBu
 41
0.7
 11
-60.41666666666671
 21
158.9082798958333
 31
0.0
100
AcDbText
 73
     3
  0
TEXT
  5
84
330
2D8
100
AcDbEntity
  8
SPEC
 62
     7
100
AcDbText
 10
-163.2
 20
110.1076505555555
 30
0.0
 40
3.800629340277777
  1
消費電力
 41
0.7
 11
-163.2
 21
113.9082798958333
 31
0.0
100
AcDbText
 73
     3
  0
TEXT
  5
85
330
2D8
100
AcDbEntity
  8
SPEC
 62
     7
100
AcDbText
 10
-60.69999999999997
 20
110.1076505555555
 30
0.0
 40
3.800629340277777
  1
4.5W
 41
0.7
 11
-60.69999999999997
 21
113.9082798958333
 31
0.0
100
AcDbText
 73
     3
  0
TEXT
  5
86
330
2D8
100
AcDbEntity
  8
SPEC
 62
     7
100
AcDbText
 10
-163.2
 20
147.6076505555554
 30
0.0
 40
3.800629340277777
  1
AD-DA変換
 41
0.7
 11
-163.2
 21
151.4082798958332
 31
0.0
100
AcDbText
 73
     3
  0
TEXT
  5
87
330
2D8
100
AcDbEntity
  8
SPEC
 62
     7
100
AcDbText
 10
-60.69999999999997
 20
147.6076505555554
 30
0.0
 40
3.800629340277777
  1
24bit、48kHz
 41
0.7
 11
-60.69999999999997
 21
151.4082798958332
 31
0.0
100
AcDbText
 73
     3
  0
TEXT
  5
88
330
2D8
100
AcDbEntity
  8
SPEC
 62
     7
100
AcDbText
 10
-163.2
 20
139.6076505555554
 30
0.0
 40
3.800629340277777
  1
周波数特性
 41
0.7
 11
-163.2
 21
143.4082798958332
 31
0.0
100
AcDbText
 73
     3
  0
TEXT
  5
89
330
2D8
100
AcDbEntity
  8
SPEC
 62
     7
100
AcDbText
 10
-60.69999999999997
 20
140.1076505555554
 30
0.0
 40
3.800629340277777
  1
20Hz～20kHz(+0/-0.5dB)
 41
0.7
 11
-60.69999999999997
 21
143.9082798958332
 31
0.0
100
AcDbText
 73
     3
  0
TEXT
  5
8A
330
2D8
100
AcDbEntity
  8
SPEC
 62
     7
100
AcDbText
 10
-163.2
 20
132.3076505555554
 30
0.0
 40
3.800629340277777
  1
THD+N
 41
0.7
 11
-163.2
 21
136.1082798958332
 31
0.0
100
AcDbText
 73
     3
  0
TEXT
  5
8B
330
2D8
100
AcDbEntity
  8
SPEC
 62
     7
100
AcDbText
 10
-60.69999999999997
 20
132.6076505555555
 30
0.0
 40
3.800629340277777
  1
0.04%%%(0dBu、1kHz)
 41
0.7
 11
-60.69999999999997
 21
136.4082798958332
 31
0.0
100
AcDbText
 73
     3
  0
TEXT
  5
8C
330
2D8
100
AcDbEntity
  8
SPEC
 62
     7
100
AcDbText
 10
-163.2
 20
124.9076505555554
 30
0.0
 40
3.800629340277777
  1
ダイナミックレンジ
 41
0.7
 11
-163.2
 21
128.7082798958332
 31
0.0
100
AcDbText
 73
     3
  0
TEXT
  5
8D
330
2D8
100
AcDbEntity
  8
SPEC
 62
     7
100
AcDbText
 10
-60.69999999999997
 20
125.1076505555555
 30
0.0
 40
3.800629340277777
  1
103.5dB(Aウェイト)
 41
0.7
 11
-60.69999999999997
 21
128.9082798958332
 31
0.0
100
AcDbText
 73
     3
  0
TEXT
  5
8E
330
2D8
100
AcDbEntity
  8
SPEC
 62
     7
100
AcDbText
 10
-163.2
 20
117.3076505555554
 30
0.0
 40
3.800629340277777
  1
電源
 41
0.7
 11
-163.2
 21
121.1082798958332
 31
0.0
100
AcDbText
 73
     3
  0
TEXT
  5
8F
330
2D8
100
AcDbEntity
  8
SPEC
 62
     7
100
AcDbText
 10
-60.69999999999997
 20
117.6076505555555
 30
0.0
 40
3.800629340277777
  1
DC9V(0.5A)、ACアダプター(AC100V、50/60Hz)
 41
0.7
 11
-60.69999999999997
 21
121.4082798958333
 31
0.0
100
AcDbText
 73
     3
  0
LINE
  5
90
330
2D8
100
AcDbEntity
  8
SPEC
  6
Continuous
 62
     7
100
AcDbLine
 10
-164.9999999999999
 20
86.03181499999998
 30
0.0
 11
130.0
 21
86.03181499999998
 31
0.0
  0
TEXT
  5
91
330
2D8
100
AcDbEntity
  8
SPEC
 62
     7
100
AcDbText
 10
-163.2
 20
87.5219999999995
 30
0.0
 40
3.800629340277777
  1
付属品
 41
0.7
 11
-163.2
 21
91.32262934027727
 31
0.0
100
AcDbText
 73
     3
  0
TEXT
  5
92
330
2D8
100
AcDbEntity
  8
SPEC
 62
     7
100
AcDbText
 10
-60.69999999999997
 20
87.6076505555555
 30
0.0
 40
3.800629340277777
  1
電源アダプター、和文取扱説明書
 41
0.7
 11
-60.69999999999997
 21
91.40827989583328
 31
0.0
100
AcDbText
 73
     3
  0
TEXT
  5
93
330
2D8
100
AcDbEntity
  8
DIMNSIONS
 62
     7
100
AcDbText
 10
-40.0
 20
-231.929205
 30
0.0
 40
4.8865234375
  1
(単位：mm)
 41
0.7
 11
-40.0
 21
-227.0426815625
 31
0.0
100
AcDbText
 73
     3
  0
LINE
  5
94
330
2D8
100
AcDbEntity
  8
DIMNSIONS
  6
Continuous
 62
     7
100
AcDbLine
 10
-129.0
 20
-100.0
 30
0.0
 11
-154.0
 21
-100.0
 31
0.0
  0
LINE
  5
95
330
2D8
100
AcDbEntity
  8
DIMNSIONS
  6
Continuous
 62
     7
100
AcDbLine
 10
-129.0
 20
2.0
 30
0.0
 11
-154.0
 21
2.0
 31
0.0
  0
LINE
  5
96
330
2D8
100
AcDbEntity
  8
DIMNSIONS
  6
Continuous
 62
     7
100
AcDbLine
 10
-150.0
 20
-100.0
 30
0.0
 11
-150.0
 21
2.0
 31
0.0
  0
LINE
  5
97
330
2D8
100
AcDbEntity
  8
DIMNSIONS
  6
Continuous
 62
     7
100
AcDbLine
 10
-150.0
 20
-100.0
 30
0.0
 11
-151.3400795903004
 21
-94.99875488281251
 31
0.0
  0
LINE
  5
98
330
2D8
100
AcDbEntity
  8
DIMNSIONS
  6
Continuous
 62
     7
100
AcDbLine
 10
-150.0
 20
-100.0
 30
0.0
 11
-148.6599204096995
 21
-94.99875488281251
 31
0.0
  0
LINE
  5
99
330
2D8
100
AcDbEntity
  8
DIMNSIONS
  6
Continuous
 62
     7
100
AcDbLine
 10
-150.0
 20
2.0
 30
0.0
 11
-148.6599204096995
 21
-3.0012451171875
 31
0.0
  0
LINE
  5
9A
330
2D8
100
AcDbEntity
  8
DIMNSIONS
  6
Continuous
 62
     7
100
AcDbLine
 10
-150.0
 20
2.0
 30
0.0
 11
-151.3400795903004
 21
-3.0012451171875
 31
0.0
  0
TEXT
  5
9B
330
2D8
100
AcDbEntity
  8
DIMNSIONS
 62
     7
100
AcDbText
 10
-151.9877777924968
 20
-54.29166666666666
 30
0.0
 40
5.429470567016529
  1
102
 50
90.0
 41
0.7
 11
-157.4172483595133
 21
-54.29166666666666
 31
0.0
100
AcDbText
 73
     3
  0
LINE
  5
9C
330
2D8
100
AcDbEntity
  8
DIMNSIONS
  6
Continuous
 62
     7
100
AcDbLine
 10
-129.0
 20
-175.0
 30
0.0
 11
-154.0
 21
-175.0
 31
0.0
  0
LINE
  5
9D
330
2D8
100
AcDbEntity
  8
DIMNSIONS
  6
Continuous
 62
     7
100
AcDbLine
 10
-129.0
 20
-135.0
 30
0.0
 11
-154.0
 21
-135.0
 31
0.0
  0
LINE
  5
9E
330
2D8
100
AcDbEntity
  8
DIMNSIONS
  6
Continuous
 62
     7
100
AcDbLine
 10
-150.0
 20
-175.0
 30
0.0
 11
-150.0
 21
-135.0
 31
0.0
  0
LINE
  5
9F
330
2D8
100
AcDbEntity
  8
DIMNSIONS
  6
Continuous
 62
     7
100
AcDbLine
 10
-150.0
 20
-175.0
 30
0.0
 11
-151.3400795903004
 21
-169.9987548828125
 31
0.0
  0
LINE
  5
A0
330
2D8
100
AcDbEntity
  8
DIMNSIONS
  6
Continuous
 62
     7
100
AcDbLine
 10
-150.0
 20
-175.0
 30
0.0
 11
-148.6599204096995
 21
-169.9987548828125
 31
0.0
  0
LINE
  5
A1
330
2D8
100
AcDbEntity
  8
DIMNSIONS
  6
Continuous
 62
     7
100
AcDbLine
 10
-150.0
 20
-135.0
 30
0.0
 11
-148.6599204096995
 21
-140.0012451171875
 31
0.0
  0
LINE
  5
A2
330
2D8
100
AcDbEntity
  8
DIMNSIONS
  6
Continuous
 62
     7
100
AcDbLine
 10
-150.0
 20
-135.0
 30
0.0
 11
-151.3400795903004
 21
-140.0012451171875
 31
0.0
  0
TEXT
  5
A3
330
2D8
100
AcDbEntity
  8
DIMNSIONS
 62
     7
100
AcDbText
 10
-151.9877778072158
 20
-162.0555555555555
 30
0.0
 40
5.429470647921957
  1
40.0
 50
90.0
 41
0.7
 11
-157.4172484551378
 21
-162.0555555555555
 31
0.0
100
AcDbText
 73
     3
  0
LINE
  5
A4
330
2D8
100
AcDbEntity
  8
DIMNSIONS
  6
Continuous
 62
     7
100
AcDbLine
 10
-133.0
 20
2.0
 30
0.0
 11
-154.0
 21
2.0
 31
0.0
  0
LINE
  5
A5
330
2D8
100
AcDbEntity
  8
DIMNSIONS
  6
Continuous
 62
     7
100
AcDbLine
 10
-37.45000000000015
 20
6.0
 30
0.0
 11
-154.0
 21
6.0
 31
0.0
  0
LINE
  5
A6
330
2D8
100
AcDbEntity
  8
DIMNSIONS
  6
Continuous
 62
     7
100
AcDbLine
 10
-150.0
 20
6.0
 30
0.0
 11
-150.0
 21
2.0
 31
0.0
  0
LINE
  5
A7
330
2D8
100
AcDbEntity
  8
DIMNSIONS
  6
Continuous
 62
     7
100
AcDbLine
 10
-150.0
 20
2.0
 30
0.0
 11
-150.0
 21
-7.999999999999998
 31
0.0
  0
LINE
  5
A8
330
2D8
100
AcDbEntity
  8
DIMNSIONS
  6
Continuous
 62
     7
100
AcDbLine
 10
-150.0
 20
2.0
 30
0.0
 11
-148.6599204096995
 21
-3.0012451171875
 31
0.0
  0
LINE
  5
A9
330
2D8
100
AcDbEntity
  8
DIMNSIONS
  6
Continuous
 62
     7
100
AcDbLine
 10
-150.0
 20
2.0
 30
0.0
 11
-151.3400795903004
 21
-3.0012451171875
 31
0.0
  0
LINE
  5
AA
330
2D8
100
AcDbEntity
  8
DIMNSIONS
  6
Continuous
 62
     7
100
AcDbLine
 10
-150.0
 20
6.0
 30
0.0
 11
-150.0
 21
22.32710018117334
 31
0.0
  0
LINE
  5
AB
330
2D8
100
AcDbEntity
  8
DIMNSIONS
  6
Continuous
 62
     7
100
AcDbLine
 10
-150.0
 20
6.0
 30
0.0
 11
-151.3400795903004
 21
11.0012451171875
 31
0.0
  0
LINE
  5
AC
330
2D8
100
AcDbEntity
  8
DIMNSIONS
  6
Continuous
 62
     7
100
AcDbLine
 10
-150.0
 20
6.0
 30
0.0
 11
-148.6599204096995
 21
11.0012451171875
 31
0.0
  0
TEXT
  5
AD
330
2D8
100
AcDbEntity
  8
DIMNSIONS
 62
     7
100
AcDbText
 10
-151.9877778366539
 20
11.74376617496979
 30
0.0
 40
5.42947080973281
  1
4.0
 50
90.0
 41
0.7
 11
-157.4172486463867
 21
11.74376617496979
 31
0.0
100
AcDbText
 73
     3
  0
LINE
  5
AE
330
2D8
100
AcDbEntity
  8
DIMNSIONS
  6
Continuous
 62
     7
100
AcDbLine
 10
-133.0
 20
-135.0
 30
0.0
 11
-154.0
 21
-135.0
 31
0.0
  0
LINE
  5
AF
330
2D8
100
AcDbEntity
  8
DIMNSIONS
  6
Continuous
 62
     7
100
AcDbLine
 10
-63.06325010803111
 20
-132.0
 30
0.0
 11
-154.0
 21
-132.0
 31
0.0
  0
LINE
  5
B0
330
2D8
100
AcDbEntity
  8
DIMNSIONS
  6
Continuous
 62
     7
100
AcDbLine
 10
-150.0
 20
-132.0
 30
0.0
 11
-150.0
 21
-135.0
 31
0.0
  0
LINE
  5
B1
330
2D8
100
AcDbEntity
  8
DIMNSIONS
  6
Continuous
 62
     7
100
AcDbLine
 10
-150.0
 20
-135.0
 30
0.0
 11
-150.0
 21
-145.0
 31
0.0
  0
LINE
  5
B2
330
2D8
100
AcDbEntity
  8
DIMNSIONS
  6
Continuous
 62
     7
100
AcDbLine
 10
-150.0
 20
-135.0
 30
0.0
 11
-148.6599204096995
 21
-140.0012451171875
 31
0.0
  0
LINE
  5
B3
330
2D8
100
AcDbEntity
  8
DIMNSIONS
  6
Continuous
 62
     7
100
AcDbLine
 10
-150.0
 20
-135.0
 30
0.0
 11
-151.3400795903004
 21
-140.0012451171875
 31
0.0
  0
LINE
  5
B4
330
2D8
100
AcDbEntity
  8
DIMNSIONS
  6
Continuous
 62
     7
100
AcDbLine
 10
-150.0
 20
-132.0
 30
0.0
 11
-150.0
 21
-116.798584920513
 31
0.0
  0
LINE
  5
B5
330
2D8
100
AcDbEntity
  8
DIMNSIONS
  6
Continuous
 62
     7
100
AcDbLine
 10
-150.0
 20
-132.0
 30
0.0
 11
-151.3400795903004
 21
-126.9987548828125
 31
0.0
  0
LINE
  5
B6
330
2D8
100
AcDbEntity
  8
DIMNSIONS
  6
Continuous
 62
     7
100
AcDbLine
 10
-150.0
 20
-132.0
 30
0.0
 11
-148.6599204096995
 21
-126.9987548828125
 31
0.0
  0
TEXT
  5
B7
330
2D8
100
AcDbEntity
  8
DIMNSIONS
 62
     7
100
AcDbText
 10
-151.9877778366539
 20
-127.3819189267165
 30
0.0
 40
5.42947080973281
  1
3.0
 50
90.0
 41
0.7
 11
-157.4172486463867
 21
-127.3819189267165
 31
0.0
100
AcDbText
 73
     3
  0
LINE
  5
B8
330
2D8
100
AcDbEntity
  8
DIMNSIONS
  6
Continuous
 62
     7
100
AcDbLine
 10
-125.0
 20
-179.0
 30
0.0
 11
-125.0
 21
-204.0
 31
0.0
  0
LINE
  5
B9
330
2D8
100
AcDbEntity
  8
DIMNSIONS
  6
Continuous
 62
     7
100
AcDbLine
 10
30.0
 20
-179.0
 30
0.0
 11
30.0
 21
-204.0
 31
0.0
  0
LINE
  5
BA
330
2D8
100
AcDbEntity
  8
DIMNSIONS
  6
Continuous
 62
     7
100
AcDbLine
 10
-125.0
 20
-200.0
 30
0.0
 11
30.0
 21
-200.0
 31
0.0
  0
LINE
  5
BB
330
2D8
100
AcDbEntity
  8
DIMNSIONS
  6
Continuous
 62
     7
100
AcDbLine
 10
-125.0
 20
-200.0
 30
0.0
 11
-119.9987548828125
 21
-198.6599204096995
 31
0.0
  0
LINE
  5
BC
330
2D8
100
AcDbEntity
  8
DIMNSIONS
  6
Continuous
 62
     7
100
AcDbLine
 10
-125.0
 20
-200.0
 30
0.0
 11
-119.9987548828125
 21
-201.3400795903005
 31
0.0
  0
LINE
  5
BD
330
2D8
100
AcDbEntity
  8
DIMNSIONS
  6
Continuous
 62
     7
100
AcDbLine
 10
30.0
 20
-200.0
 30
0.0
 11
24.99875488281251
 21
-201.3400795903005
 31
0.0
  0
LINE
  5
BE
330
2D8
100
AcDbEntity
  8
DIMNSIONS
  6
Continuous
 62
     7
100
AcDbLine
 10
30.0
 20
-200.0
 30
0.0
 11
24.99875488281251
 21
-198.6599204096995
 31
0.0
  0
TEXT
  5
BF
330
2D8
100
AcDbEntity
  8
DIMNSIONS
 62
     7
100
AcDbText
 10
-52.79166666666668
 20
-198.0122222222222
 30
0.0
 40
5.429470486111111
  1
155
 41
0.7
 11
-52.79166666666668
 21
-192.5827517361111
 31
0.0
100
AcDbText
 73
     3
  0
LINE
  5
C0
330
2D8
100
AcDbEntity
  8
DIMNSIONS
  6
Continuous
 62
     7
100
AcDbLine
 10
-129.0
 20
-175.0
 30
0.0
 11
-154.0
 21
-175.0
 31
0.0
  0
LINE
  5
C1
330
2D8
100
AcDbEntity
  8
DIMNSIONS
  6
Continuous
 62
     7
100
AcDbLine
 10
-113.8
 20
-176.0
 30
0.0
 11
-154.0
 21
-176.0
 31
0.0
  0
LINE
  5
C2
330
2D8
100
AcDbEntity
  8
DIMNSIONS
  6
Continuous
 62
     7
100
AcDbLine
 10
-150.0
 20
-176.0
 30
0.0
 11
-150.0
 21
-175.0
 31
0.0
  0
LINE
  5
C3
330
2D8
100
AcDbEntity
  8
DIMNSIONS
  6
Continuous
 62
     7
100
AcDbLine
 10
-150.0
 20
-175.0
 30
0.0
 11
-150.0
 21
-165.0
 31
0.0
  0
LINE
  5
C4
330
2D8
100
AcDbEntity
  8
DIMNSIONS
  6
Continuous
 62
     7
100
AcDbLine
 10
-150.0
 20
-175.0
 30
0.0
 11
-151.3400795903004
 21
-169.9987548828125
 31
0.0
  0
LINE
  5
C5
330
2D8
100
AcDbEntity
  8
DIMNSIONS
  6
Continuous
 62
     7
100
AcDbLine
 10
-150.0
 20
-175.0
 30
0.0
 11
-148.6599204096995
 21
-169.9987548828125
 31
0.0
  0
LINE
  5
C6
330
2D8
100
AcDbEntity
  8
DIMNSIONS
  6
Continuous
 62
     7
100
AcDbLine
 10
-150.0
 20
-176.0
 30
0.0
 11
-150.0
 21
-191.3333333333333
 31
0.0
  0
LINE
  5
C7
330
2D8
100
AcDbEntity
  8
DIMNSIONS
  6
Continuous
 62
     7
100
AcDbLine
 10
-150.0
 20
-176.0
 30
0.0
 11
-148.6599204096995
 21
-181.0012451171875
 31
0.0
  0
LINE
  5
C8
330
2D8
100
AcDbEntity
  8
DIMNSIONS
  6
Continuous
 62
     7
100
AcDbLine
 10
-150.0
 20
-176.0
 30
0.0
 11
-151.3400795903004
 21
-181.0012451171875
 31
0.0
  0
TEXT
  5
C9
330
2D8
100
AcDbEntity
  8
DIMNSIONS
 62
     7
100
AcDbText
 10
-151.9877777777777
 20
-191.3333333333333
 30
0.0
 40
5.429470486111111
  1
1.0
 50
90.0
 41
0.7
 11
-157.4172482638888
 21
-191.3333333333333
 31
0.0
100
AcDbText
 73
     3
  0
TEXT
  5
CA
330
2D8
100
AcDbEntity
  8
DATA
 62
     7
100
AcDbText
 10
99.99999999999996
 20
-234.1234197516321
 30
0.0
 40
4.8865234375
  1
goRack
 41
0.7
 11
99.99999999999996
 21
-229.2368963141321
 31
0.0
100
AcDbText
 73
     3
  0
TEXT
  5
CB
330
2D8
100
AcDbEntity
  8
DATA
 62
     7
100
AcDbText
 10
99.99999999999996
 20
-219.706405
 30
0.0
 40
4.8865234375
  1
dbx
 41
0.7
 11
99.99999999999996
 21
-214.8198815625
 31
0.0
100
AcDbText
 73
     3
  0
TEXT
  5
CC
330
2D8
100
AcDbEntity
  8
DATA
 62
     7
100
AcDbText
 10
94.99999999999996
 20
-226.6603174
 30
0.0
 40
3.257687421875
  1
ミキサー/PAプロセッサー
 41
0.7
 11
94.99999999999996
 21
-223.4026299781251
 31
0.0
100
AcDbText
 73
     3
  0
TEXT
  5
CD
330
2D8
100
AcDbEntity
  8
DATA
 62
     7
100
AcDbText
 10
-175.0
 20
-240.7156294444444
 30
0.0
 40
3.800629340277777
  1
※仕様及び外観は予告なく変更されることがあります。
 41
0.7
 11
-175.0
 21
-236.9150001041667
 31
0.0
100
AcDbText
 73
     3
  0
TEXT
  5
CE
330
2D8
100
AcDbEntity
  8
DATA
 62
     7
100
AcDbText
 10
-175.0
 20
-245.6545183333334
 30
0.0
 40
3.800629340277777
  1
　また、同一商品でも若干の個体差があることがあります。ご了承ください。
 41
0.7
 11
-175.0
 21
-241.8538889930556
 31
0.0
100
AcDbText
 73
     3
  0
LINE
  5
CF
330
2D8
100
AcDbEntity
  8
DATA
  6
Continuous
 62
     7
100
AcDbLine
 10
-125.0
 20
-93.45999999999996
 30
0.0
 11
-125.0
 21
-4.540000000000076
 31
0.0
  0
LINE
  5
D0
330
2D8
100
AcDbEntity
  8
DATA
  6
Continuous
 62
     7
100
AcDbLine
 10
25.0
 20
-100.0
 30
0.0
 11
-120.0000000000003
 21
-100.0
 31
0.0
  0
LINE
  5
D1
330
2D8
100
AcDbEntity
  8
DATA
  6
Continuous
 62
     7
100
AcDbLine
 10
30.0
 20
-4.539999999999967
 30
0.0
 11
30.0
 21
-93.46
 31
0.0
  0
LINE
  5
D2
330
2D8
100
AcDbEntity
  8
DATA
  6
Continuous
 62
     7
100
AcDbLine
 10
-119.9999999999999
 20
2.0
 30
0.0
 11
25.00000000000051
 21
2.0
 31
0.0
  0
LINE
  5
D3
330
2D8
100
AcDbEntity
  8
DATA
  6
Continuous
 62
     7
100
AcDbLine
 10
24.5
 20
-99.50000000000001
 30
0.0
 11
-119.5
 21
-99.50000000000001
 31
0.0
  0
LINE
  5
D4
330
2D8
100
AcDbEntity
  8
DATA
  6
Continuous
 62
     7
100
AcDbLine
 10
-119.5
 20
1.0
 30
0.0
 11
24.50000000000051
 21
1.0
 31
0.0
  0
LINE
  5
D5
330
2D8
100
AcDbEntity
  8
DATA
  6
Continuous
 62
     7
100
AcDbLine
 10
29.0
 20
-4.940000000000087
 30
0.0
 11
29.0
 21
-93.19833152723871
 31
0.0
  0
LINE
  5
D6
330
2D8
100
AcDbEntity
  8
DATA
  6
Continuous
 62
     7
100
AcDbLine
 10
-124.0
 20
-93.19833152723871
 30
0.0
 11
-124.0
 21
-4.801668472761264
 31
0.0
  0
LINE
  5
D7
330
2D8
100
AcDbEntity
  8
DATA
  6
Continuous
 62
     7
100
AcDbLine
 10
4.163468101661052
 20
-46.0
 30
0.0
 11
-6.00416782471753
 21
-46.0
 31
0.0
  0
LINE
  5
D8
330
2D8
100
AcDbEntity
  8
DATA
  6
Continuous
 62
     7
100
AcDbLine
 10
-20.99583217528248
 20
-46.0
 30
0.0
 11
-31.00201626017113
 21
-46.0
 31
0.0
  0
LINE
  5
D9
330
2D8
100
AcDbEntity
  8
DATA
  6
Continuous
 62
     7
100
AcDbLine
 10
-61.99798373982886
 20
-46.0
 30
0.0
 11
-82.00000000000001
 21
-46.0
 31
0.0
  0
LINE
  5
DA
330
2D8
100
AcDbEntity
  8
DATA
  6
Continuous
 62
     7
100
AcDbLine
 10
-101.5
 20
-46.0
 30
0.0
 11
-123.9999999999999
 21
-46.0
 31
0.0
  0
LINE
  5
DB
330
2D8
100
AcDbEntity
  8
DATA
  6
Continuous
 62
     7
100
AcDbLine
 10
4.163468101661052
 20
-45.49999999999999
 30
0.0
 11
-6.00416782471753
 21
-45.49999999999999
 31
0.0
  0
LINE
  5
DC
330
2D8
100
AcDbEntity
  8
DATA
  6
Continuous
 62
     7
100
AcDbLine
 10
-20.99583217528248
 20
-45.49999999999999
 30
0.0
 11
-31.00201626017113
 21
-45.49999999999999
 31
0.0
  0
LINE
  5
DD
330
2D8
100
AcDbEntity
  8
DATA
  6
Continuous
 62
     7
100
AcDbLine
 10
-61.99798373982886
 20
-45.49999999999999
 30
0.0
 11
-82.00000000000001
 21
-45.49999999999999
 31
0.0
  0
LINE
  5
DE
330
2D8
100
AcDbEntity
  8
DATA
  6
Continuous
 62
     7
100
AcDbLine
 10
-101.5
 20
-45.49999999999999
 30
0.0
 11
-123.9999999999999
 21
-45.49999999999999
 31
0.0
  0
LINE
  5
DF
330
2D8
100
AcDbEntity
  8
DATA
  6
Continuous
 62
     7
100
AcDbLine
 10
-101.5
 20
-52.5
 30
0.0
 11
-101.5
 21
-39.5
 31
0.0
  0
LINE
  5
E0
330
2D8
100
AcDbEntity
  8
DATA
  6
Continuous
 62
     7
100
AcDbLine
 10
-82.0
 20
-52.5
 30
0.0
 11
-82.0
 21
-39.5
 31
0.0
  0
LINE
  5
E1
330
2D8
100
AcDbEntity
  8
DATA
  6
Continuous
 62
     7
100
AcDbLine
 10
-83.0
 20
-53.5
 30
0.0
 11
-100.5
 21
-53.5
 31
0.0
  0
LINE
  5
E2
330
2D8
100
AcDbEntity
  8
DATA
  6
Continuous
 62
     7
100
AcDbLine
 10
-83.0
 20
-38.5
 30
0.0
 11
-100.5
 21
-38.5
 31
0.0
  0
CIRCLE
  5
E3
330
2D8
100
AcDbEntity
  8
DATA
  6
Continuous
 62
     7
100
AcDbCircle
 10
-46.5
 20
-45.75
 30
0.0
 40
15.5
  0
CIRCLE
  5
E4
330
2D8
100
AcDbEntity
  8
DATA
  6
Continuous
 62
     7
100
AcDbCircle
 10
-13.5
 20
-45.75
 30
0.0
 40
7.5
  0
ARC
  5
E5
330
2D8
100
AcDbEntity
  8
DATA
  6
Continuous
 62
     7
100
AcDbCircle
 10
-46.50000000049535
 20
-45.75000000000278
 30
0.0
 40
19.49999999950464
100
AcDbArc
 50
180.7345814000689
 51
359.2654185999312
  0
ARC
  5
E6
330
2D8
100
AcDbEntity
  8
DATA
  6
Continuous
 62
     7
100
AcDbCircle
 10
-46.50000000049535
 20
-45.75000000000278
 30
0.0
 40
19.49999999950464
100
AcDbArc
 50
0.7345814000852946
 51
179.2654185999154
  0
ARC
  5
E7
330
2D8
100
AcDbEntity
  8
DATA
  6
Continuous
 62
     7
100
AcDbCircle
 10
-13.50000000008792
 20
-45.75000000000077
 30
0.0
 40
11.99999999991208
100
AcDbArc
 50
181.193748437146
 51
358.8062515628538
  0
ARC
  5
E8
330
2D8
100
AcDbEntity
  8
DATA
  6
Continuous
 62
     7
100
AcDbCircle
 10
-13.50000000008792
 20
-45.75000000000077
 30
0.0
 40
11.99999999991208
100
AcDbArc
 50
1.19374843715349
 51
178.8062515628461
  0
CIRCLE
  5
E9
330
2D8
100
AcDbEntity
  8
DATA
  6
Continuous
 62
     7
100
AcDbCircle
 10
-95.5
 20
-82.0
 30
0.0
 40
4.125
  0
CIRCLE
  5
EA
330
2D8
100
AcDbEntity
  8
DATA
  6
Continuous
 62
     7
100
AcDbCircle
 10
-95.5
 20
-82.0
 30
0.0
 40
4.5
  0
CIRCLE
  5
EB
330
2D8
100
AcDbEntity
  8
DATA
  6
Continuous
 62
     7
100
AcDbCircle
 10
-71.5
 20
-82.0
 30
0.0
 40
4.125
  0
CIRCLE
  5
EC
330
2D8
100
AcDbEntity
  8
DATA
  6
Continuous
 62
     7
100
AcDbCircle
 10
-71.5
 20
-82.0
 30
0.0
 40
4.5
  0
CIRCLE
  5
ED
330
2D8
100
AcDbEntity
  8
DATA
  6
Continuous
 62
     7
100
AcDbCircle
 10
-47.5
 20
-82.0
 30
0.0
 40
4.125
  0
CIRCLE
  5
EE
330
2D8
100
AcDbEntity
  8
DATA
  6
Continuous
 62
     7
100
AcDbCircle
 10
-47.5
 20
-82.0
 30
0.0
 40
4.5
  0
CIRCLE
  5
EF
330
2D8
100
AcDbEntity
  8
DATA
  6
Continuous
 62
     7
100
AcDbCircle
 10
-23.5
 20
-82.0
 30
0.0
 40
4.125
  0
CIRCLE
  5
F0
330
2D8
100
AcDbEntity
  8
DATA
  6
Continuous
 62
     7
100
AcDbCircle
 10
-23.5
 20
-82.0
 30
0.0
 40
4.5
  0
CIRCLE
  5
F1
330
2D8
100
AcDbEntity
  8
DATA
  6
Continuous
 62
     7
100
AcDbCircle
 10
0.5
 20
-82.0
 30
0.0
 40
4.125
  0
CIRCLE
  5
F2
330
2D8
100
AcDbEntity
  8
DATA
  6
Continuous
 62
     7
100
AcDbCircle
 10
0.5
 20
-82.0
 30
0.0
 40
4.5
  0
TEXT
  5
F3
330
2D8
100
AcDbEntity
  8
DATA
 62
     7
100
AcDbText
 10
-97.91735343451875
 20
-32.53399747461808
 30
0.0
 40
6.515364680419835
  1
dbx
 41
0.7
 11
-97.91735343451875
 21
-26.01863279419824
 31
0.0
100
AcDbText
 73
     3
  0
LINE
  5
F4
330
2D8
100
AcDbEntity
  8
DATA
  6
Continuous
 62
     7
100
AcDbLine
 10
4.999999999999996
 20
-75.0
 30
0.0
 11
-43.87220908696486
 21
-75.0
 31
0.0
  0
LINE
  5
F5
330
2D8
100
AcDbEntity
  8
DATA
  6
Continuous
 62
     7
100
AcDbLine
 10
-51.12779091303514
 20
-75.0
 30
0.0
 11
-92.51066909422872
 21
-75.0
 31
0.0
  0
TEXT
  5
F6
330
2D8
100
AcDbEntity
  8
DATA
 62
     7
100
AcDbText
 10
-78.39803588069114
 20
-74.08900732892584
 30
0.0
 40
1.628841170104958
  1
ANTI-FEEDBACK
 41
0.7
 11
-78.39803588069114
 21
-72.46016615882088
 31
0.0
100
AcDbText
 73
     3
  0
TEXT
  5
F7
330
2D8
100
AcDbEntity
  8
DATA
 62
     7
100
AcDbText
 10
-52.77024406736423
 20
-74.08900732892584
 30
0.0
 40
1.628841170104958
  1
COMPRESSOR
 41
0.7
 11
-52.77024406736423
 21
-72.46016615882088
 31
0.0
100
AcDbText
 73
     3
  0
TEXT
  5
F8
330
2D8
100
AcDbEntity
  8
DATA
 62
     7
100
AcDbText
 10
-28.24026550194891
 20
-74.08900732892584
 30
0.0
 40
1.628841170104958
  1
SUB SYNTH
 41
0.7
 11
-28.24026550194891
 21
-72.46016615882088
 31
0.0
100
AcDbText
 73
     3
  0
TEXT
  5
F9
330
2D8
100
AcDbEntity
  8
DATA
 62
     7
100
AcDbText
 10
-0.4925590546596867
 20
-74.08900732892584
 30
0.0
 40
1.628841170104958
  1
EQ
 41
0.7
 11
-0.4925590546596866
 21
-72.46016615882088
 31
0.0
100
AcDbText
 73
     3
  0
TEXT
  5
FA
330
2D8
100
AcDbEntity
  8
DATA
 62
     7
100
AcDbText
 10
-97.62822795935257
 20
-74.08900732892584
 30
0.0
 40
1.628841170104958
  1
MUTE
 41
0.7
 11
-97.62822795935257
 21
-72.46016615882088
 31
0.0
100
AcDbText
 73
     3
  0
TEXT
  5
FB
330
2D8
100
AcDbEntity
  8
DATA
 62
     7
100
AcDbText
 10
-96.73108713930092
 20
-75.52445638261399
 30
0.0
 40
0.9773047020629753
  1
MODE
 41
0.7
 11
-96.73108713930092
 21
-74.54715168055101
 31
0.0
100
AcDbText
 73
     3
  0
TEXT
  5
FC
330
2D8
100
AcDbEntity
  8
DATA
 62
     7
100
AcDbText
 10
-50.649142407367
 20
-75.52445638261399
 30
0.0
 40
0.9773047020629753
  1
(HOLD)EDIT
 41
0.7
 11
-50.649142407367
 21
-74.54715168055101
 31
0.0
100
AcDbText
 73
     3
  0
LINE
  5
FD
330
2D8
100
AcDbEntity
  8
DATA
  6
Continuous
 62
     7
100
AcDbLine
 10
-119.5
 20
-99.50000000000001
 30
0.0
 11
-119.5
 21
-46.0
 31
0.0
  0
LINE
  5
FE
330
2D8
100
AcDbEntity
  8
DATA
  6
Continuous
 62
     7
100
AcDbLine
 10
-119.5
 20
-45.49999999999999
 30
0.0
 11
-119.5
 21
1.0
 31
0.0
  0
LINE
  5
FF
330
2D8
100
AcDbEntity
  8
DATA
  6
Continuous
 62
     7
100
AcDbLine
 10
24.5
 20
-99.50000000000001
 30
0.0
 11
24.5
 21
-46.0
 31
0.0
  0
LINE
  5
100
330
2D8
100
AcDbEntity
  8
DATA
  6
Continuous
 62
     7
100
AcDbLine
 10
24.5
 20
-45.49999999999999
 30
0.0
 11
24.5
 21
1.000000000000028
 31
0.0
  0
CIRCLE
  5
101
330
2D8
100
AcDbEntity
  8
DATA
  6
Continuous
 62
     7
100
AcDbCircle
 10
-46.5
 20
-45.75
 30
0.0
 40
13.0
  0
CIRCLE
  5
102
330
2D8
100
AcDbEntity
  8
DATA
  6
Continuous
 62
     7
100
AcDbCircle
 10
-46.5
 20
-38.06137940397313
 30
0.0
 40
4.75
  0
CIRCLE
  5
103
330
2D8
100
AcDbEntity
  8
DATA
  6
Continuous
 62
     7
100
AcDbCircle
 10
-13.5
 20
-45.75
 30
0.0
 40
5.0
  0
LINE
  5
104
330
2D8
100
AcDbEntity
  8
DATA
  6
Continuous
 62
     7
100
AcDbLine
 10
-14.0
 20
-40.75
 30
0.0
 11
-14.0
 21
-45.73167534221972
 31
0.0
  0
LINE
  5
105
330
2D8
100
AcDbEntity
  8
DATA
  6
Continuous
 62
     7
100
AcDbLine
 10
-13.0
 20
-40.75
 30
0.0
 11
-13.0
 21
-45.73167533476914
 31
0.0
  0
ARC
  5
106
330
2D8
100
AcDbEntity
  8
DATA
  6
Continuous
 62
     7
100
AcDbCircle
 10
-13.5
 20
-45.73167534221972
 30
0.0
 40
0.5
100
AcDbArc
 50
180.0
 51
270.0
  0
ARC
  5
107
330
2D8
100
AcDbEntity
  8
DATA
  6
Continuous
 62
     7
100
AcDbCircle
 10
-13.50000000745058
 20
-45.73167533476914
 30
0.0
 40
0.5000000074505806
100
AcDbArc
 50
270.0
 51
0.0
  0
TEXT
  5
108
330
2D8
100
AcDbEntity
  8
DATA
 62
     7
100
AcDbText
 10
-15.59303217724384
 20
-33.02863961006499
 30
0.0
 40
1.628841170104958
  1
LEFT
 41
0.7
 11
-15.59303217724384
 21
-31.39979843996002
 31
0.0
100
AcDbText
 73
     3
  0
CIRCLE
  5
109
330
2D8
100
AcDbEntity
  8
DATA
  6
Continuous
 62
     7
100
AcDbCircle
 10
11.65930027694353
 20
-45.75
 30
0.0
 40
7.5
  0
ARC
  5
10A
330
2D8
100
AcDbEntity
  8
DATA
  6
Continuous
 62
     7
100
AcDbCircle
 10
11.65930027685561
 20
-45.75000000000077
 30
0.0
 40
11.99999999991208
100
AcDbArc
 50
181.193748437146
 51
358.8062515628538
  0
ARC
  5
10B
330
2D8
100
AcDbEntity
  8
DATA
  6
Continuous
 62
     7
100
AcDbCircle
 10
11.65930027685561
 20
-45.75000000000077
 30
0.0
 40
11.99999999991208
100
AcDbArc
 50
1.19374843715349
 51
178.8062515628461
  0
CIRCLE
  5
10C
330
2D8
100
AcDbEntity
  8
DATA
  6
Continuous
 62
     7
100
AcDbCircle
 10
11.65930027694353
 20
-45.75
 30
0.0
 40
5.0
  0
LINE
  5
10D
330
2D8
100
AcDbEntity
  8
DATA
  6
Continuous
 62
     7
100
AcDbLine
 10
11.15930027694353
 20
-40.75
 30
0.0
 11
11.15930027694353
 21
-45.73167534221972
 31
0.0
  0
LINE
  5
10E
330
2D8
100
AcDbEntity
  8
DATA
  6
Continuous
 62
     7
100
AcDbLine
 10
12.15930027694353
 20
-40.75
 30
0.0
 11
12.15930027694353
 21
-45.73167533476914
 31
0.0
  0
ARC
  5
10F
330
2D8
100
AcDbEntity
  8
DATA
  6
Continuous
 62
     7
100
AcDbCircle
 10
11.65930027694353
 20
-45.73167534221972
 30
0.0
 40
0.5
100
AcDbArc
 50
180.0
 51
270.0
  0
ARC
  5
110
330
2D8
100
AcDbEntity
  8
DATA
  6
Continuous
 62
     7
100
AcDbCircle
 10
11.65930026949295
 20
-45.73167533476914
 30
0.0
 40
0.5000000074505806
100
AcDbArc
 50
270.0
 51
0.0
  0
TEXT
  5
111
330
2D8
100
AcDbEntity
  8
DATA
 62
     7
100
AcDbText
 10
9.364371967518087
 20
-33.02863961006499
 30
0.0
 40
1.628841170104958
  1
RIGHT
 41
0.7
 11
9.364371967518087
 21
-31.39979843996002
 31
0.0
100
AcDbText
 73
     3
  0
CIRCLE
  5
112
330
2D8
100
AcDbEntity
  8
DATA
  6
Continuous
 62
     7
100
AcDbCircle
 10
-6.42952604074982
 20
-32.19999999999999
 30
0.0
 40
1.25
  0
CIRCLE
  5
113
330
2D8
100
AcDbEntity
  8
DATA
  6
Continuous
 62
     7
100
AcDbCircle
 10
4.57047395925018
 20
-32.19999999999999
 30
0.0
 40
1.25
  0
TEXT
  5
114
330
2D8
100
AcDbEntity
  8
DATA
 62
     7
100
AcDbText
 10
-4.076310147294606
 20
-30.62270870343135
 30
0.0
 40
1.628841170104958
  1
SIGNAL
 41
0.7
 11
-4.076310147294606
 21
-28.99386753332639
 31
0.0
100
AcDbText
 73
     3
  0
TEXT
  5
115
330
2D8
100
AcDbEntity
  8
DATA
 62
     7
100
AcDbText
 10
-3.571570057519466
 20
-28.29569548979825
 30
0.0
 40
1.628841170104958
  1
INPUT
 41
0.7
 11
-3.571570057519466
 21
-26.66685431969329
 31
0.0
100
AcDbText
 73
     3
  0
LINE
  5
116
330
2D8
100
AcDbEntity
  8
DATA
  6
Continuous
 62
     7
100
AcDbLine
 10
19.155132452226
 20
-45.49999999999999
 30
0.0
 11
29.0
 21
-45.49999999999999
 31
0.0
  0
LINE
  5
117
330
2D8
100
AcDbEntity
  8
DATA
  6
Continuous
 62
     7
100
AcDbLine
 10
19.155132452226
 20
-46.0
 30
0.0
 11
29.0
 21
-46.0
 31
0.0
  0
ARC
  5
118
330
2D8
100
AcDbEntity
  8
DATA
  6
Continuous
 62
     7
100
AcDbCircle
 10
-100.5
 20
-39.5
 30
0.0
 40
1.0
100
AcDbArc
 50
90.0
 51
180.0
  0
ARC
  5
119
330
2D8
100
AcDbEntity
  8
DATA
  6
Continuous
 62
     7
100
AcDbCircle
 10
-83.0
 20
-39.5
 30
0.0
 40
1.0
100
AcDbArc
 50
0.0
 51
90.0
  0
ARC
  5
11A
330
2D8
100
AcDbEntity
  8
DATA
  6
Continuous
 62
     7
100
AcDbCircle
 10
-100.5
 20
-52.5
 30
0.0
 40
1.0
100
AcDbArc
 50
180.0
 51
270.0
  0
ARC
  5
11B
330
2D8
100
AcDbEntity
  8
DATA
  6
Continuous
 62
     7
100
AcDbCircle
 10
-83.0
 20
-52.5
 30
0.0
 40
1.0
100
AcDbArc
 50
270.0
 51
0.0
  0
TEXT
  5
11C
330
2D8
100
AcDbEntity
  8
DATA
 62
     7
100
AcDbText
 10
-68.41698491153133
 20
-30.74355716578056
 30
0.0
 40
1.628841170104958
  1
VOLUME
 41
0.7
 11
-68.41698491153133
 21
-29.1147159956756
 31
0.0
100
AcDbText
 73
     3
  0
TEXT
  5
11D
330
2D8
100
AcDbEntity
  8
DATA
 62
     7
100
AcDbText
 10
-68.41698491153133
 20
-32.93299001722133
 30
0.0
 40
1.628841170104958
  1
(EDIT)
 41
0.7
 11
-68.41698491153133
 21
-31.30414884711637
 31
0.0
100
AcDbText
 73
     3
  0
LINE
  5
11E
330
2D8
100
AcDbEntity
  8
DATA
  6
Continuous
 62
     7
100
AcDbLine
 10
30.0
 20
-175.0
 30
0.0
 11
-125.0
 21
-175.0
 31
0.0
  0
LINE
  5
11F
330
2D8
100
AcDbEntity
  8
DATA
  6
Continuous
 62
     7
100
AcDbLine
 10
-119.5
 20
-135.0
 30
0.0
 11
-99.625
 21
-135.0
 31
0.0
  0
LINE
  5
120
330
2D8
100
AcDbEntity
  8
DATA
  6
Continuous
 62
     7
100
AcDbLine
 10
-91.37500000000001
 20
-135.0
 30
0.0
 11
-75.625
 21
-135.0
 31
0.0
  0
LINE
  5
121
330
2D8
100
AcDbEntity
  8
DATA
  6
Continuous
 62
     7
100
AcDbLine
 10
-67.37499999999998
 20
-135.0
 30
0.0
 11
-51.62500000000002
 21
-135.0
 31
0.0
  0
LINE
  5
122
330
2D8
100
AcDbEntity
  8
DATA
  6
Continuous
 62
     7
100
AcDbLine
 10
-43.37500000000001
 20
-135.0
 30
0.0
 11
-27.625
 21
-135.0
 31
0.0
  0
LINE
  5
123
330
2D8
100
AcDbEntity
  8
DATA
  6
Continuous
 62
     7
100
AcDbLine
 10
-19.375
 20
-135.0
 30
0.0
 11
-3.625
 21
-135.0
 31
0.0
  0
LINE
  5
124
330
2D8
100
AcDbEntity
  8
DATA
  6
Continuous
 62
     7
100
AcDbLine
 10
4.625
 20
-135.0
 30
0.0
 11
24.5
 21
-135.0
 31
0.0
  0
LINE
  5
125
330
2D8
100
AcDbEntity
  8
DATA
  6
Continuous
 62
     7
100
AcDbLine
 10
62.5
 20
-175.0
 30
0.0
 11
164.5
 21
-175.0
 31
0.0
  0
ARC
  5
126
330
2D8
100
AcDbEntity
  8
DATA
  6
Continuous
 62
     7
100
AcDbCircle
 10
-119.4666218013187
 20
-95.45796031274011
 30
0.0
 40
4.042177499508289
100
AcDbArc
 50
196.1160023942215
 51
269.5268758864322
  0
ARC
  5
127
330
2D8
100
AcDbEntity
  8
DATA
  6
Continuous
 62
     7
100
AcDbCircle
 10
-114.51918260843
 20
-93.12916576361931
 30
0.0
 40
9.481069682011238
100
AcDbArc
 50
179.5820153604667
 51
201.3442688548988
  0
ARC
  5
128
330
2D8
100
AcDbEntity
  8
DATA
  6
Continuous
 62
     7
100
AcDbCircle
 10
-119.8152765372724
 20
-95.2832875300584
 30
0.0
 40
4.720328302330747
100
AcDbArc
 50
204.2231728490066
 51
267.7572369116827
  0
ARC
  5
129
330
2D8
100
AcDbEntity
  8
DATA
  6
Continuous
 62
     7
100
AcDbCircle
 10
-112.0334782608688
 20
-92.40826086956507
 30
0.0
 40
13.00910608803879
100
AcDbArc
 50
184.6372173140659
 51
201.7078895325878
  0
ARC
  5
12A
330
2D8
100
AcDbEntity
  8
DATA
  6
Continuous
 62
     7
100
AcDbCircle
 10
24.46662180131867
 20
-95.45796031274011
 30
0.0
 40
4.042177499508291
100
AcDbArc
 50
270.4731241135677
 51
343.8839976057785
  0
ARC
  5
12B
330
2D8
100
AcDbEntity
  8
DATA
  6
Continuous
 62
     7
100
AcDbCircle
 10
19.51918260843001
 20
-93.12916576361931
 30
0.0
 40
9.48106968201125
100
AcDbArc
 50
338.6557311451014
 51
0.4179846395333584
  0
ARC
  5
12C
330
2D8
100
AcDbEntity
  8
DATA
  6
Continuous
 62
     7
100
AcDbCircle
 10
24.81527653727241
 20
-95.2832875300584
 30
0.0
 40
4.720328302330729
100
AcDbArc
 50
272.2427630883173
 51
335.7768271509934
  0
ARC
  5
12D
330
2D8
100
AcDbEntity
  8
DATA
  6
Continuous
 62
     7
100
AcDbCircle
 10
17.03347826086889
 20
-92.40826086956507
 30
0.0
 40
13.00910608803878
100
AcDbArc
 50
338.2921104674121
 51
355.3627826859342
  0
ARC
  5
12E
330
2D8
100
AcDbEntity
  8
DATA
  6
Continuous
 62
     7
100
AcDbCircle
 10
-114.51918260843
 20
-4.870834236380673
 30
0.0
 40
9.481069682011241
100
AcDbArc
 50
162.743294929816
 51
180.4179846395333
  0
ARC
  5
12F
330
2D8
100
AcDbEntity
  8
DATA
  6
Continuous
 62
     7
100
AcDbCircle
 10
-119.8152765372724
 20
-2.716712469941584
 30
0.0
 40
4.720328302330729
100
AcDbArc
 50
92.24276308831731
 51
155.7768271509934
  0
ARC
  5
130
330
2D8
100
AcDbEntity
  8
DATA
  6
Continuous
 62
     7
100
AcDbCircle
 10
-112.0334782608688
 20
-5.591739130434929
 30
0.0
 40
13.00910608803879
100
AcDbArc
 50
158.2921104674122
 51
175.3627826859341
  0
ARC
  5
131
330
2D8
100
AcDbEntity
  8
DATA
  6
Continuous
 62
     7
100
AcDbCircle
 10
24.81527653727241
 20
-2.716712469941584
 30
0.0
 40
4.720328302330747
100
AcDbArc
 50
24.22317284900659
 51
87.75723691168268
  0
ARC
  5
132
330
2D8
100
AcDbEntity
  8
DATA
  6
Continuous
 62
     7
100
AcDbCircle
 10
17.03347826086889
 20
-5.591739130434929
 30
0.0
 40
13.00910608803878
100
AcDbArc
 50
4.637217314065902
 51
21.70788953258783
  0
ARC
  5
133
330
2D8
100
AcDbEntity
  8
DATA
  6
Continuous
 62
     7
100
AcDbCircle
 10
-119.2580321433799
 20
-3.564263606529564
 30
0.0
 40
4.570672895048123
100
AcDbArc
 50
93.03461243507815
 51
160.7617875463261
  0
ARC
  5
134
330
2D8
100
AcDbEntity
  8
DATA
  6
Continuous
 62
     7
100
AcDbCircle
 10
19.51918260843049
 20
-4.870834236380673
 30
0.0
 40
9.48106968201125
100
AcDbArc
 50
359.5820153604667
 51
17.25670507018395
  0
ARC
  5
135
330
2D8
100
AcDbEntity
  8
DATA
  6
Continuous
 62
     7
100
AcDbCircle
 10
24.25803214338038
 20
-3.564263606529564
 30
0.0
 40
4.570672895048125
100
AcDbArc
 50
19.23821245367392
 51
86.96538756492184
  0
LINE
  5
136
330
2D8
100
AcDbEntity
  8
DATA
  6
Continuous
 62
     7
100
AcDbLine
 10
24.5
 20
-140.7
 30
0.0
 11
-119.5
 21
-140.7
 31
0.0
  0
LINE
  5
137
330
2D8
100
AcDbEntity
  8
DATA
  6
Continuous
 62
     7
100
AcDbLine
 10
-109.8
 20
-176.0
 30
0.0
 11
-95.20000000000001
 21
-176.0
 31
0.0
  0
LINE
  5
138
330
2D8
100
AcDbEntity
  8
DATA
  6
Continuous
 62
     7
100
AcDbLine
 10
-109.8
 20
-176.0
 30
0.0
 11
-109.8
 21
-175.0
 31
0.0
  0
LINE
  5
139
330
2D8
100
AcDbEntity
  8
DATA
  6
Continuous
 62
     7
100
AcDbLine
 10
-95.20000000000001
 20
-175.0
 30
0.0
 11
-95.20000000000001
 21
-176.0
 31
0.0
  0
LINE
  5
13A
330
2D8
100
AcDbEntity
  8
DATA
  6
Continuous
 62
     7
100
AcDbLine
 10
14.79999999999999
 20
-176.0
 30
0.0
 11
0.2000000000000028
 21
-176.0
 31
0.0
  0
LINE
  5
13B
330
2D8
100
AcDbEntity
  8
DATA
  6
Continuous
 62
     7
100
AcDbLine
 10
14.79999999999999
 20
-176.0
 30
0.0
 11
14.79999999999999
 21
-175.0
 31
0.0
  0
LINE
  5
13C
330
2D8
100
AcDbEntity
  8
DATA
  6
Continuous
 62
     7
100
AcDbLine
 10
0.2000000000000028
 20
-175.0
 30
0.0
 11
0.2000000000000028
 21
-176.0
 31
0.0
  0
LINE
  5
13D
330
2D8
100
AcDbEntity
  8
DATA
  6
Continuous
 62
     7
100
AcDbLine
 10
-119.5
 20
-140.7
 30
0.0
 11
-119.5
 21
-175.0
 31
0.0
  0
LINE
  5
13E
330
2D8
100
AcDbEntity
  8
DATA
  6
Continuous
 62
     7
100
AcDbLine
 10
24.5
 20
-140.7
 30
0.0
 11
24.5
 21
-175.0
 31
0.0
  0
LINE
  5
13F
330
2D8
100
AcDbEntity
  8
DATA
  6
Continuous
 62
     7
100
AcDbLine
 10
-99.625
 20
-134.158088508477
 30
0.0
 11
-99.625
 21
-135.0
 31
0.0
  0
LINE
  5
140
330
2D8
100
AcDbEntity
  8
DATA
  6
Continuous
 62
     7
100
AcDbLine
 10
-91.37500000000001
 20
-134.158088508477
 30
0.0
 11
-91.37500000000001
 21
-135.0
 31
0.0
  0
ARC
  5
141
330
2D8
100
AcDbEntity
  8
DATA
  6
Continuous
 62
     7
100
AcDbCircle
 10
-95.5
 20
-143.072968561263
 30
0.0
 40
9.822968561263024
100
AcDbArc
 50
65.16956952502427
 51
114.8304304749757
  0
ARC
  5
142
330
2D8
100
AcDbEntity
  8
DATA
  6
Continuous
 62
     7
100
AcDbCircle
 10
-95.5
 20
-122.0038060421635
 30
0.0
 40
13.63512678304475
100
AcDbArc
 50
252.3905295497291
 51
287.6094704502709
  0
LINE
  5
143
330
2D8
100
AcDbEntity
  8
DATA
  6
Continuous
 62
     7
100
AcDbLine
 10
-75.625
 20
-134.158088508477
 30
0.0
 11
-75.625
 21
-135.0
 31
0.0
  0
LINE
  5
144
330
2D8
100
AcDbEntity
  8
DATA
  6
Continuous
 62
     7
100
AcDbLine
 10
-67.375
 20
-134.158088508477
 30
0.0
 11
-67.375
 21
-135.0
 31
0.0
  0
ARC
  5
145
330
2D8
100
AcDbEntity
  8
DATA
  6
Continuous
 62
     7
100
AcDbCircle
 10
-71.5
 20
-143.072968561263
 30
0.0
 40
9.822968561263024
100
AcDbArc
 50
65.16956952502427
 51
114.8304304749757
  0
ARC
  5
146
330
2D8
100
AcDbEntity
  8
DATA
  6
Continuous
 62
     7
100
AcDbCircle
 10
-71.5
 20
-122.0038060421635
 30
0.0
 40
13.63512678304475
100
AcDbArc
 50
252.3905295497291
 51
287.6094704502709
  0
LINE
  5
147
330
2D8
100
AcDbEntity
  8
DATA
  6
Continuous
 62
     7
100
AcDbLine
 10
-51.625
 20
-134.158088508477
 30
0.0
 11
-51.625
 21
-135.0
 31
0.0
  0
LINE
  5
148
330
2D8
100
AcDbEntity
  8
DATA
  6
Continuous
 62
     7
100
AcDbLine
 10
-43.375
 20
-134.158088508477
 30
0.0
 11
-43.375
 21
-135.0
 31
0.0
  0
ARC
  5
149
330
2D8
100
AcDbEntity
  8
DATA
  6
Continuous
 62
     7
100
AcDbCircle
 10
-47.5
 20
-143.072968561263
 30
0.0
 40
9.822968561263024
100
AcDbArc
 50
65.16956952502427
 51
114.8304304749757
  0
ARC
  5
14A
330
2D8
100
AcDbEntity
  8
DATA
  6
Continuous
 62
     7
100
AcDbCircle
 10
-47.5
 20
-122.0038060421635
 30
0.0
 40
13.63512678304475
100
AcDbArc
 50
252.3905295497291
 51
287.6094704502709
  0
LINE
  5
14B
330
2D8
100
AcDbEntity
  8
DATA
  6
Continuous
 62
     7
100
AcDbLine
 10
-27.625
 20
-134.158088508477
 30
0.0
 11
-27.625
 21
-135.0
 31
0.0
  0
LINE
  5
14C
330
2D8
100
AcDbEntity
  8
DATA
  6
Continuous
 62
     7
100
AcDbLine
 10
-19.375
 20
-134.158088508477
 30
0.0
 11
-19.375
 21
-135.0
 31
0.0
  0
ARC
  5
14D
330
2D8
100
AcDbEntity
  8
DATA
  6
Continuous
 62
     7
100
AcDbCircle
 10
-23.5
 20
-143.072968561263
 30
0.0
 40
9.822968561263024
100
AcDbArc
 50
65.16956952502427
 51
114.8304304749757
  0
ARC
  5
14E
330
2D8
100
AcDbEntity
  8
DATA
  6
Continuous
 62
     7
100
AcDbCircle
 10
-23.5
 20
-122.0038060421635
 30
0.0
 40
13.63512678304475
100
AcDbArc
 50
252.3905295497291
 51
287.6094704502709
  0
LINE
  5
14F
330
2D8
100
AcDbEntity
  8
DATA
  6
Continuous
 62
     7
100
AcDbLine
 10
-3.625
 20
-134.158088508477
 30
0.0
 11
-3.625
 21
-135.0
 31
0.0
  0
LINE
  5
150
330
2D8
100
AcDbEntity
  8
DATA
  6
Continuous
 62
     7
100
AcDbLine
 10
4.625
 20
-134.158088508477
 30
0.0
 11
4.625
 21
-135.0
 31
0.0
  0
ARC
  5
151
330
2D8
100
AcDbEntity
  8
DATA
  6
Continuous
 62
     7
100
AcDbCircle
 10
0.5
 20
-143.072968561263
 30
0.0
 40
9.822968561263024
100
AcDbArc
 50
65.16956952502427
 51
114.8304304749757
  0
ARC
  5
152
330
2D8
100
AcDbEntity
  8
DATA
  6
Continuous
 62
     7
100
AcDbCircle
 10
0.5
 20
-122.0038060421635
 30
0.0
 40
13.63512678304475
100
AcDbArc
 50
252.3905295497291
 51
287.6094704502709
  0
LINE
  5
153
330
2D8
100
AcDbEntity
  8
DATA
  6
Continuous
 62
     7
100
AcDbLine
 10
28.69235673465396
 20
-138.7265393196924
 30
0.0
 11
24.5
 21
-135.0
 31
0.0
  0
LINE
  5
154
330
2D8
100
AcDbEntity
  8
DATA
  6
Continuous
 62
     7
100
AcDbLine
 10
-123.6923567346537
 20
-138.7265393196922
 30
0.0
 11
-119.5
 21
-135.0
 31
0.0
  0
ARC
  5
155
330
2D8
100
AcDbEntity
  8
DATA
  6
Continuous
 62
     7
100
AcDbCircle
 10
22.27898817930479
 20
-128.0149687099243
 30
0.0
 40
12.87800110024323
100
AcDbArc
 50
279.9312036476654
 51
299.6065911365129
  0
ARC
  5
156
330
2D8
100
AcDbEntity
  8
DATA
  6
Continuous
 62
     7
100
AcDbCircle
 10
-117.2789881793048
 20
-128.0149687099243
 30
0.0
 40
12.87800110024322
100
AcDbArc
 50
240.3934088634875
 51
260.0687963523347
  0
LINE
  5
157
330
2D8
100
AcDbEntity
  8
DATA
  6
Continuous
 62
     7
100
AcDbLine
 10
-58.56325010803111
 20
-132.0
 30
0.0
 11
-34.43687081841332
 21
-132.0
 31
0.0
  0
LINE
  5
158
330
2D8
100
AcDbEntity
  8
DATA
  6
Continuous
 62
     7
100
AcDbLine
 10
-62.0
 20
-135.0
 30
0.0
 11
-60.09969266722586
 21
-132.719631200671
 31
0.0
  0
LINE
  5
159
330
2D8
100
AcDbEntity
  8
DATA
  6
Continuous
 62
     7
100
AcDbLine
 10
-31.00050406504279
 20
-135.0
 30
0.0
 11
-32.90030129448131
 21
-132.7197835737176
 31
0.0
  0
ARC
  5
15A
330
2D8
100
AcDbEntity
  8
DATA
  6
Continuous
 62
     7
100
AcDbCircle
 10
-58.56325010803113
 20
-134.0
 30
0.0
 40
2.000000000000028
100
AcDbArc
 50
89.99999999999957
 51
140.1944289077341
  0
ARC
  5
15B
330
2D8
100
AcDbEntity
  8
DATA
  6
Continuous
 62
     7
100
AcDbCircle
 10
-34.4368708184133
 20
-134.0
 30
0.0
 40
1.999999999999974
100
AcDbArc
 50
39.7998891540009
 51
90.00000000000081
  0
ARC
  5
15C
330
2D8
100
AcDbEntity
  8
DATA
  6
Continuous
 62
     7
100
AcDbCircle
 10
-123.4930475830045
 20
-138.9507621152975
 30
0.0
 40
0.300000000000283
100
AcDbArc
 50
131.6335393365729
 51
240.393408863433
  0
ARC
  5
15D
330
2D8
100
AcDbEntity
  8
DATA
  6
Continuous
 62
     7
100
AcDbCircle
 10
28.49304758300495
 20
-138.9507621152976
 30
0.0
 40
0.3000000000000483
100
AcDbArc
 50
299.6065911365217
 51
48.36646066343135
  0
LINE
  5
15E
330
2D8
100
AcDbEntity
  8
DATA
  6
Continuous
 62
     7
100
AcDbLine
 10
16.60668311803981
 20
-133.0
 30
0.0
 11
6.714707676278208
 21
-133.0
 31
0.0
  0
LINE
  5
15F
330
2D8
100
AcDbEntity
  8
DATA
  6
Continuous
 62
     7
100
AcDbLine
 10
-8.552617158903725
 20
-133.0
 30
0.0
 11
-18.43951239889413
 21
-133.0
 31
0.0
  0
LINE
  5
160
330
2D8
100
AcDbEntity
  8
DATA
  6
Continuous
 62
     7
100
AcDbLine
 10
-18.54356714392077
 20
-133.0419601460689
 30
0.0
 11
-19.59853923658013
 21
-134.0580190180289
 31
0.0
  0
LINE
  5
161
330
2D8
100
AcDbEntity
  8
DATA
  6
Continuous
 62
     7
100
AcDbLine
 10
-8.45891290177056
 20
-133.0328696785835
 30
0.0
 11
-6.0
 21
-135.0
 31
0.0
  0
LINE
  5
162
330
2D8
100
AcDbEntity
  8
DATA
  6
Continuous
 62
     7
100
AcDbLine
 10
6.617197510853331
 20
-133.0360185644992
 30
0.0
 11
4.624999999999978
 21
-134.7403268844365
 31
0.0
  0
LINE
  5
163
330
2D8
100
AcDbEntity
  8
DATA
  6
Continuous
 62
     7
100
AcDbLine
 10
16.70038737517297
 20
-133.0328696785835
 30
0.0
 11
19.15930027694353
 21
-135.0
 31
0.0
  0
ARC
  5
164
330
2D8
100
AcDbEntity
  8
DATA
  6
Continuous
 62
     7
100
AcDbCircle
 10
-18.43951239889413
 20
-133.15
 30
0.0
 40
0.1500000000000057
100
AcDbArc
 50
90.0
 51
133.9235791093254
  0
ARC
  5
165
330
2D8
100
AcDbEntity
  8
DATA
  6
Continuous
 62
     7
100
AcDbCircle
 10
-8.552617158903736
 20
-133.15
 30
0.0
 40
0.1500000000000071
100
AcDbArc
 50
51.34019174590609
 51
89.99999999999594
  0
ARC
  5
166
330
2D8
100
AcDbEntity
  8
DATA
  6
Continuous
 62
     7
100
AcDbCircle
 10
6.714707676278176
 20
-133.15
 30
0.0
 40
0.1500000000000341
100
AcDbArc
 50
89.99999999998781
 51
130.5467115979192
  0
ARC
  5
167
330
2D8
100
AcDbEntity
  8
DATA
  6
Continuous
 62
     7
100
AcDbCircle
 10
16.6066831180398
 20
-133.15
 30
0.0
 40
0.1500000000000049
100
AcDbArc
 50
51.34019174590716
 51
89.99999999999594
  0
LINE
  5
168
330
2D8
100
AcDbEntity
  8
DATA
  6
Continuous
 62
     7
100
AcDbLine
 10
30.00000000000001
 20
64.99999999999997
 30
0.0
 11
-125.0
 21
64.99999999999997
 31
0.0
  0
LINE
  5
169
330
2D8
100
AcDbEntity
  8
DATA
  6
Continuous
 62
     7
100
AcDbLine
 10
-119.5
 20
24.99999999999997
 30
0.0
 11
24.5
 21
24.99999999999997
 31
0.0
  0
LINE
  5
16A
330
2D8
100
AcDbEntity
  8
DATA
  6
Continuous
 62
     7
100
AcDbLine
 10
-109.8
 20
65.99999999999997
 30
0.0
 11
-95.20000000000001
 21
65.99999999999997
 31
0.0
  0
LINE
  5
16B
330
2D8
100
AcDbEntity
  8
DATA
  6
Continuous
 62
     7
100
AcDbLine
 10
-109.8
 20
66.0
 30
0.0
 11
-109.8
 21
64.99999999999997
 31
0.0
  0
LINE
  5
16C
330
2D8
100
AcDbEntity
  8
DATA
  6
Continuous
 62
     7
100
AcDbLine
 10
-95.20000000000001
 20
65.0
 30
0.0
 11
-95.20000000000001
 21
66.0
 31
0.0
  0
LINE
  5
16D
330
2D8
100
AcDbEntity
  8
DATA
  6
Continuous
 62
     7
100
AcDbLine
 10
14.79999999999999
 20
65.99999999999997
 30
0.0
 11
0.2000000000000028
 21
65.99999999999997
 31
0.0
  0
LINE
  5
16E
330
2D8
100
AcDbEntity
  8
DATA
  6
Continuous
 62
     7
100
AcDbLine
 10
14.79999999999999
 20
66.0
 30
0.0
 11
14.79999999999999
 21
64.99999999999997
 31
0.0
  0
LINE
  5
16F
330
2D8
100
AcDbEntity
  8
DATA
  6
Continuous
 62
     7
100
AcDbLine
 10
0.2000000000000028
 20
65.0
 30
0.0
 11
0.2000000000000028
 21
66.0
 31
0.0
  0
LINE
  5
170
330
2D8
100
AcDbEntity
  8
DATA
  6
Continuous
 62
     7
100
AcDbLine
 10
28.69235673465397
 20
28.72653931969239
 30
0.0
 11
24.5
 21
24.99999999999997
 31
0.0
  0
LINE
  5
171
330
2D8
100
AcDbEntity
  8
DATA
  6
Continuous
 62
     7
100
AcDbLine
 10
-123.6923567346537
 20
28.72653931969217
 30
0.0
 11
-119.5
 21
24.99999999999997
 31
0.0
  0
ARC
  5
172
330
2D8
100
AcDbEntity
  8
DATA
  6
Continuous
 62
     7
100
AcDbCircle
 10
22.2789881793048
 20
18.01496870992432
 30
0.0
 40
12.87800110024323
100
AcDbArc
 50
60.39340886348721
 51
80.0687963523347
  0
ARC
  5
173
330
2D8
100
AcDbEntity
  8
DATA
  6
Continuous
 62
     7
100
AcDbCircle
 10
-117.2789881793048
 20
18.01496870992432
 30
0.0
 40
12.87800110024323
100
AcDbArc
 50
99.93120364766529
 51
119.6065911365125
  0
LINE
  5
174
330
2D8
100
AcDbEntity
  8
DATA
  6
Continuous
 62
     7
100
AcDbLine
 10
-58.56325010803111
 20
21.99999999999997
 30
0.0
 11
-34.43687081841332
 21
21.99999999999997
 31
0.0
  0
LINE
  5
175
330
2D8
100
AcDbEntity
  8
DATA
  6
Continuous
 62
     7
100
AcDbLine
 10
-62.0
 20
24.99999999999997
 30
0.0
 11
-60.09969266722586
 21
22.71963120067101
 31
0.0
  0
LINE
  5
176
330
2D8
100
AcDbEntity
  8
DATA
  6
Continuous
 62
     7
100
AcDbLine
 10
-31.00050406504277
 20
24.99999999999997
 30
0.0
 11
-32.90030129448129
 21
22.71978357371757
 31
0.0
  0
ARC
  5
177
330
2D8
100
AcDbEntity
  8
DATA
  6
Continuous
 62
     7
100
AcDbCircle
 10
-58.56325010803113
 20
24.0
 30
0.0
 40
2.000000000000005
100
AcDbArc
 50
219.8055710922659
 51
270.0000000000004
  0
ARC
  5
178
330
2D8
100
AcDbEntity
  8
DATA
  6
Continuous
 62
     7
100
AcDbCircle
 10
-34.4368708184133
 20
23.99999999999997
 30
0.0
 40
2.0
100
AcDbArc
 50
269.9999999999992
 51
320.2001108459992
  0
ARC
  5
179
330
2D8
100
AcDbEntity
  8
DATA
  6
Continuous
 62
     7
100
AcDbCircle
 10
-123.4930475830045
 20
28.95076211529747
 30
0.0
 40
0.300000000000314
100
AcDbArc
 50
119.606591136567
 51
228.3664606634271
  0
ARC
  5
17A
330
2D8
100
AcDbEntity
  8
DATA
  6
Continuous
 62
     7
100
AcDbCircle
 10
28.49304758300494
 20
28.95076211529755
 30
0.0
 40
0.3000000000000823
100
AcDbArc
 50
311.6335393365706
 51
60.39340886347898
  0
LINE
  5
17B
330
2D8
100
AcDbEntity
  8
DATA
  6
Continuous
 62
     7
100
AcDbLine
 10
16.60668311803981
 20
22.99999999999997
 30
0.0
 11
6.714707676278209
 21
22.99999999999997
 31
0.0
  0
LINE
  5
17C
330
2D8
100
AcDbEntity
  8
DATA
  6
Continuous
 62
     7
100
AcDbLine
 10
-8.552617158903728
 20
22.99999999999997
 30
0.0
 11
-18.43951239889413
 21
22.99999999999997
 31
0.0
  0
LINE
  5
17D
330
2D8
100
AcDbEntity
  8
DATA
  6
Continuous
 62
     7
100
AcDbLine
 10
-18.54356714392078
 20
23.04196014606893
 30
0.0
 11
-20.57659638978268
 21
24.99999999999997
 31
0.0
  0
LINE
  5
17E
330
2D8
100
AcDbEntity
  8
DATA
  6
Continuous
 62
     7
100
AcDbLine
 10
-8.45891290177056
 20
23.03286967858352
 30
0.0
 11
-6.0
 21
24.99999999999997
 31
0.0
  0
LINE
  5
17F
330
2D8
100
AcDbEntity
  8
DATA
  6
Continuous
 62
     7
100
AcDbLine
 10
6.617197510853329
 20
23.03601856449922
 30
0.0
 11
4.321463293402118
 21
24.99999999999999
 31
0.0
  0
LINE
  5
180
330
2D8
100
AcDbEntity
  8
DATA
  6
Continuous
 62
     7
100
AcDbLine
 10
16.70038737517296
 20
23.03286967858352
 30
0.0
 11
19.15930027694352
 21
24.99999999999997
 31
0.0
  0
ARC
  5
181
330
2D8
100
AcDbEntity
  8
DATA
  6
Continuous
 62
     7
100
AcDbCircle
 10
-18.43951239889413
 20
23.14999999999998
 30
0.0
 40
0.1500000000000062
100
AcDbArc
 50
226.0764208906736
 51
270.0
  0
ARC
  5
182
330
2D8
100
AcDbEntity
  8
DATA
  6
Continuous
 62
     7
100
AcDbCircle
 10
-8.552617158903728
 20
23.14999999999998
 30
0.0
 40
0.1500000000000057
100
AcDbArc
 50
270.0
 51
308.6598082540918
  0
ARC
  5
183
330
2D8
100
AcDbEntity
  8
DATA
  6
Continuous
 62
     7
100
AcDbCircle
 10
6.71470767627818
 20
23.15000000000001
 30
0.0
 40
0.1500000000000082
100
AcDbArc
 50
229.4532884020789
 51
270.0000000000108
  0
ARC
  5
184
330
2D8
100
AcDbEntity
  8
DATA
  6
Continuous
 62
     7
100
AcDbCircle
 10
16.60668311803979
 20
23.14999999999998
 30
0.0
 40
0.1500000000000057
100
AcDbArc
 50
270.0000000000054
 51
308.6598082540918
  0
LINE
  5
185
330
2D8
100
AcDbEntity
  8
DATA
  6
Continuous
 62
     7
100
AcDbLine
 10
18.06152367580223
 20
32.99999999999997
 30
0.0
 11
6.949999999999874
 21
32.99999999999997
 31
0.0
  0
LINE
  5
186
330
2D8
100
AcDbEntity
  8
DATA
  6
Continuous
 62
     7
100
AcDbLine
 10
-2.950000000000144
 20
32.99999999999997
 30
0.0
 11
-23.05000000000014
 21
32.99999999999997
 31
0.0
  0
LINE
  5
187
330
2D8
100
AcDbEntity
  8
DATA
  6
Continuous
 62
     7
100
AcDbLine
 10
-32.95000000000016
 20
32.99999999999997
 30
0.0
 11
-113.0615236758022
 21
32.99999999999997
 31
0.0
  0
LINE
  5
188
330
2D8
100
AcDbEntity
  8
DATA
  6
Continuous
 62
     7
100
AcDbLine
 10
21.0
 20
64.99999999999997
 30
0.0
 11
20.06054782797639
 21
34.93753049524453
 31
0.0
  0
LINE
  5
189
330
2D8
100
AcDbEntity
  8
DATA
  6
Continuous
 62
     7
100
AcDbLine
 10
-116.0
 20
64.99999999999997
 30
0.0
 11
-115.0605478279764
 21
34.93753049524453
 31
0.0
  0
CIRCLE
  5
18A
330
2D8
100
AcDbEntity
  8
DATA
  6
Continuous
 62
     7
100
AcDbCircle
 10
-47.5
 20
55.99999999999997
 30
0.0
 40
1.75
  0
CIRCLE
  5
18B
330
2D8
100
AcDbEntity
  8
DATA
  6
Continuous
 62
     7
100
AcDbCircle
 10
-47.5
 20
55.99999999999997
 30
0.0
 40
3.0
  0
ARC
  5
18C
330
2D8
100
AcDbEntity
  8
DATA
  6
Continuous
 62
     7
100
AcDbCircle
 10
-65.0000000000001
 20
45.9999999999998
 30
0.0
 40
8.149999999999803
100
AcDbArc
 50
246.2863115655977
 51
233.5805789910148
  0
CIRCLE
  5
18D
330
2D8
100
AcDbEntity
  8
DATA
  6
Continuous
 62
     7
100
AcDbCircle
 10
-65.0
 20
45.99999999999996
 30
0.0
 40
10.5
  0
CIRCLE
  5
18E
330
2D8
100
AcDbEntity
  8
DATA
  6
Continuous
 62
     7
100
AcDbCircle
 10
-56.2952902523028
 20
35.80206341218364
 30
0.0
 40
2.5
  0
LINE
  5
18F
330
2D8
100
AcDbEntity
  8
DATA
  6
Continuous
 62
     7
100
AcDbLine
 10
-56.2952902523028
 20
37.45936590235547
 30
0.0
 11
-56.2952902523028
 21
34.14476092201179
 31
0.0
  0
LINE
  5
190
330
2D8
100
AcDbEntity
  8
DATA
  6
Continuous
 62
     7
100
AcDbLine
 10
-57.95259274247465
 20
35.80206341218364
 30
0.0
 11
-54.63798776213096
 21
35.80206341218364
 31
0.0
  0
CIRCLE
  5
191
330
2D8
100
AcDbEntity
  8
DATA
  6
Continuous
 62
     7
100
AcDbCircle
 10
-73.28606828252429
 20
56.35428058493634
 30
0.0
 40
2.500000000000014
  0
LINE
  5
192
330
2D8
100
AcDbEntity
  8
DATA
  6
Continuous
 62
     7
100
AcDbLine
 10
-73.28606828252429
 20
58.01158307510817
 30
0.0
 11
-73.28606828252429
 21
54.69697809476449
 31
0.0
  0
LINE
  5
193
330
2D8
100
AcDbEntity
  8
DATA
  6
Continuous
 62
     7
100
AcDbLine
 10
-74.94337077269614
 20
56.35428058493634
 30
0.0
 11
-71.62876579235245
 21
56.35428058493634
 31
0.0
  0
CIRCLE
  5
194
330
2D8
100
AcDbEntity
  8
DATA
  6
Continuous
 62
     7
100
AcDbCircle
 10
-61.1
 20
44.73961515170897
 30
0.0
 40
1.200000000000017
  0
CIRCLE
  5
195
330
2D8
100
AcDbEntity
  8
DATA
  6
Continuous
 62
     7
100
AcDbCircle
 10
-68.9
 20
44.73961515170897
 30
0.0
 40
1.200000000000017
  0
CIRCLE
  5
196
330
2D8
100
AcDbEntity
  8
DATA
  6
Continuous
 62
     7
100
AcDbCircle
 10
-65.0
 20
49.84164942452962
 30
0.0
 40
1.200000000000002
  0
ARC
  5
197
330
2D8
100
AcDbEntity
  8
DATA
  6
Continuous
 62
     7
100
AcDbCircle
 10
-69.27462441769829
 20
38.61595505213863
 30
0.0
 40
0.9999999999999904
100
AcDbArc
 50
355.5365952276576
 51
124.3302953289552
  0
ARC
  5
198
330
2D8
100
AcDbEntity
  8
DATA
  6
Continuous
 62
     7
100
AcDbCircle
 10
-89.00000000000011
 20
45.9999999999998
 30
0.0
 40
8.149999999999803
100
AcDbArc
 50
246.2863115655977
 51
233.5805789910148
  0
CIRCLE
  5
199
330
2D8
100
AcDbEntity
  8
DATA
  6
Continuous
 62
     7
100
AcDbCircle
 10
-89.0
 20
45.99999999999996
 30
0.0
 40
10.5
  0
CIRCLE
  5
19A
330
2D8
100
AcDbEntity
  8
DATA
  6
Continuous
 62
     7
100
AcDbCircle
 10
-80.2952902523028
 20
35.80206341218364
 30
0.0
 40
2.5
  0
LINE
  5
19B
330
2D8
100
AcDbEntity
  8
DATA
  6
Continuous
 62
     7
100
AcDbLine
 10
-80.2952902523028
 20
37.45936590235547
 30
0.0
 11
-80.2952902523028
 21
34.14476092201179
 31
0.0
  0
LINE
  5
19C
330
2D8
100
AcDbEntity
  8
DATA
  6
Continuous
 62
     7
100
AcDbLine
 10
-81.95259274247467
 20
35.80206341218364
 30
0.0
 11
-78.63798776213096
 21
35.80206341218364
 31
0.0
  0
CIRCLE
  5
19D
330
2D8
100
AcDbEntity
  8
DATA
  6
Continuous
 62
     7
100
AcDbCircle
 10
-97.28606828252429
 20
56.35428058493634
 30
0.0
 40
2.500000000000014
  0
LINE
  5
19E
330
2D8
100
AcDbEntity
  8
DATA
  6
Continuous
 62
     7
100
AcDbLine
 10
-97.28606828252429
 20
58.01158307510817
 30
0.0
 11
-97.28606828252429
 21
54.69697809476449
 31
0.0
  0
LINE
  5
19F
330
2D8
100
AcDbEntity
  8
DATA
  6
Continuous
 62
     7
100
AcDbLine
 10
-98.94337077269613
 20
56.35428058493634
 30
0.0
 11
-95.62876579235242
 21
56.35428058493634
 31
0.0
  0
CIRCLE
  5
1A0
330
2D8
100
AcDbEntity
  8
DATA
  6
Continuous
 62
     7
100
AcDbCircle
 10
-85.09999999999998
 20
44.73961515170897
 30
0.0
 40
1.200000000000017
  0
CIRCLE
  5
1A1
330
2D8
100
AcDbEntity
  8
DATA
  6
Continuous
 62
     7
100
AcDbCircle
 10
-92.9
 20
44.73961515170897
 30
0.0
 40
1.200000000000017
  0
CIRCLE
  5
1A2
330
2D8
100
AcDbEntity
  8
DATA
  6
Continuous
 62
     7
100
AcDbCircle
 10
-89.0
 20
49.84164942452962
 30
0.0
 40
1.200000000000002
  0
ARC
  5
1A3
330
2D8
100
AcDbEntity
  8
DATA
  6
Continuous
 62
     7
100
AcDbCircle
 10
-93.2746244176983
 20
38.61595505213863
 30
0.0
 40
0.9999999999999904
100
AcDbArc
 50
355.5365952276576
 51
124.3302953289552
  0
LWPOLYLINE
  5
1A4
330
2D8
100
AcDbEntity
  8
DATA
  6
Continuous
 62
     7
100
AcDbPolyline
 90
        4
 70
     1
 43
0.0
 10
-110.95
 20
58.99999999999997
 10
-102.05
 20
58.99999999999997
 10
-102.05
 20
47.99999999999997
 10
-110.95
 20
47.99999999999997
  0
CIRCLE
  5
1AB
330
2D8
100
AcDbEntity
  8
DATA
  6
Continuous
 62
     7
100
AcDbCircle
 10
-106.5
 20
52.5
 30
0.0
 40
3.200000000000002
  0
CIRCLE
  5
1AC
330
2D8
100
AcDbEntity
  8
DATA
  6
Continuous
 62
     7
100
AcDbCircle
 10
-106.5
 20
52.5
 30
0.0
 40
0.9749999999999944
  0
LINE
  5
1AD
330
2D8
100
AcDbEntity
  8
DATA
  6
Continuous
 62
     7
100
AcDbLine
 10
-103.0
 20
45.99999999999996
 30
0.0
 11
-103.0
 21
38.49999999999996
 31
0.0
  0
LINE
  5
1AE
330
2D8
100
AcDbEntity
  8
DATA
  6
Continuous
 62
     7
100
AcDbLine
 10
-110.0
 20
45.99999999999996
 30
0.0
 11
-108.15
 21
45.99999999999996
 31
0.0
  0
LINE
  5
1AF
330
2D8
100
AcDbEntity
  8
DATA
  6
Continuous
 62
     7
100
AcDbLine
 10
-104.85
 20
45.99999999999996
 30
0.0
 11
-103.0
 21
45.99999999999996
 31
0.0
  0
ARC
  5
1B0
330
2D8
100
AcDbEntity
  8
DATA
  6
Continuous
 62
     7
100
AcDbCircle
 10
-106.5
 20
38.49999999999996
 30
0.0
 40
3.5
100
AcDbArc
 50
180.0
 51
0.0
  0
LINE
  5
1B1
330
2D8
100
AcDbEntity
  8
DATA
  6
Continuous
 62
     7
100
AcDbLine
 10
-110.0
 20
45.99999999999996
 30
0.0
 11
-110.0
 21
38.49999999999996
 31
0.0
  0
LINE
  5
1B2
330
2D8
100
AcDbEntity
  8
DATA
  6
Continuous
 62
     7
100
AcDbLine
 10
-104.85
 20
45.99999999999996
 30
0.0
 11
-104.85
 21
38.64999999999998
 31
0.0
  0
ARC
  5
1B3
330
2D8
100
AcDbEntity
  8
DATA
  6
Continuous
 62
     7
100
AcDbCircle
 10
-106.5
 20
38.64999999999998
 30
0.0
 40
1.650000000000005
100
AcDbArc
 50
180.0000000000002
 51
359.9999999999998
  0
LINE
  5
1B4
330
2D8
100
AcDbEntity
  8
DATA
  6
Continuous
 62
     7
100
AcDbLine
 10
-108.15
 20
38.64999999999997
 30
0.0
 11
-108.15
 21
45.99999999999996
 31
0.0
  0
LINE
  5
1B5
330
2D8
100
AcDbEntity
  8
DATA
  6
Continuous
 62
     7
100
AcDbLine
 10
-104.85
 20
41.49999999999996
 30
0.0
 11
-108.175
 21
41.49999999999996
 31
0.0
  0
ARC
  5
1B6
330
2D8
100
AcDbEntity
  8
DATA
  6
Continuous
 62
     7
100
AcDbCircle
 10
-27.9999999999999
 20
45.99999999999886
 30
0.0
 40
10.4999999999989
100
AcDbArc
 50
283.4933988215516
 51
256.5066011784452
  0
CIRCLE
  5
1B7
330
2D8
100
AcDbEntity
  8
DATA
  6
Continuous
 62
     7
100
AcDbCircle
 10
-19.29529025230281
 20
35.80206341218364
 30
0.0
 40
2.5
  0
LINE
  5
1B8
330
2D8
100
AcDbEntity
  8
DATA
  6
Continuous
 62
     7
100
AcDbLine
 10
-19.29529025230281
 20
37.45936590235547
 30
0.0
 11
-19.29529025230281
 21
34.14476092201179
 31
0.0
  0
LINE
  5
1B9
330
2D8
100
AcDbEntity
  8
DATA
  6
Continuous
 62
     7
100
AcDbLine
 10
-20.95259274247465
 20
35.80206341218364
 30
0.0
 11
-17.63798776213096
 21
35.80206341218364
 31
0.0
  0
CIRCLE
  5
1BA
330
2D8
100
AcDbEntity
  8
DATA
  6
Continuous
 62
     7
100
AcDbCircle
 10
-36.2860682825243
 20
56.35428058493634
 30
0.0
 40
2.500000000000014
  0
LINE
  5
1BB
330
2D8
100
AcDbEntity
  8
DATA
  6
Continuous
 62
     7
100
AcDbLine
 10
-36.2860682825243
 20
58.01158307510817
 30
0.0
 11
-36.2860682825243
 21
54.69697809476449
 31
0.0
  0
LINE
  5
1BC
330
2D8
100
AcDbEntity
  8
DATA
  6
Continuous
 62
     7
100
AcDbLine
 10
-37.94337077269615
 20
56.35428058493634
 30
0.0
 11
-34.62876579235245
 21
56.35428058493634
 31
0.0
  0
CIRCLE
  5
1BD
330
2D8
100
AcDbEntity
  8
DATA
  6
Continuous
 62
     7
100
AcDbCircle
 10
-28.0
 20
45.99999999999996
 30
0.0
 40
9.900000000000003
  0
ARC
  5
1BE
330
2D8
100
AcDbEntity
  8
DATA
  6
Continuous
 62
     7
100
AcDbCircle
 10
-28.00000000000013
 20
45.99999999999999
 30
0.0
 40
3.000000000000122
100
AcDbArc
 50
351.7540619022139
 51
78.02476504991301
  0
ARC
  5
1BF
330
2D8
100
AcDbEntity
  8
DATA
  6
Continuous
 62
     7
100
AcDbCircle
 10
-28.00000000000013
 20
45.99999999999999
 30
0.0
 40
3.000000000000124
100
AcDbArc
 50
101.9752349500837
 51
188.2459380977813
  0
ARC
  5
1C0
330
2D8
100
AcDbEntity
  8
DATA
  6
Continuous
 62
     7
100
AcDbCircle
 10
-28.00000000000013
 20
45.99999999999999
 30
0.0
 40
3.000000000000123
100
AcDbArc
 50
209.4642238541819
 51
330.5357761458257
  0
CIRCLE
  5
1C1
330
2D8
100
AcDbEntity
  8
DATA
  6
Continuous
 62
     7
100
AcDbCircle
 10
-28.0
 20
45.99999999999996
 30
0.0
 40
8.0
  0
ARC
  5
1C2
330
2D8
100
AcDbEntity
  8
DATA
  6
Continuous
 62
     7
100
AcDbCircle
 10
-28.0
 20
49.84164942452963
 30
0.0
 40
1.100000000000012
100
AcDbArc
 50
304.4633374559976
 51
235.5366625439986
  0
ARC
  5
1C3
330
2D8
100
AcDbEntity
  8
DATA
  6
Continuous
 62
     7
100
AcDbCircle
 10
-24.30927784380909
 20
44.73961515170897
 30
0.0
 40
1.099999999999991
100
AcDbArc
 50
191.2848305232932
 51
131.0050075247463
  0
ARC
  5
1C4
330
2D8
100
AcDbEntity
  8
DATA
  6
Continuous
 62
     7
100
AcDbCircle
 10
-31.69072215619096
 20
44.73961515170895
 30
0.0
 40
1.10000000000003
100
AcDbArc
 50
48.99499247527275
 51
348.7151694766907
  0
LINE
  5
1C5
330
2D8
100
AcDbEntity
  8
DATA
  6
Continuous
 62
     7
100
AcDbLine
 10
-32.95000000000015
 20
30.78715984858903
 30
0.0
 11
-32.95000000000015
 21
33.69879410331868
 31
0.0
  0
LINE
  5
1C6
330
2D8
100
AcDbEntity
  8
DATA
  6
Continuous
 62
     7
100
AcDbLine
 10
-30.45000000000016
 20
34.9825286839269
 30
0.0
 11
-25.54999999999983
 21
34.9825286839269
 31
0.0
  0
LINE
  5
1C7
330
2D8
100
AcDbEntity
  8
DATA
  6
Continuous
 62
     7
100
AcDbLine
 10
-23.05000000000014
 20
33.698794112466
 30
0.0
 11
-23.05000000000014
 21
30.78715984858903
 31
0.0
  0
LINE
  5
1C8
330
2D8
100
AcDbEntity
  8
DATA
  6
Continuous
 62
     7
100
AcDbLine
 10
-25.55000000000016
 20
36.40794599681583
 30
0.0
 11
-25.55000000000016
 21
34.9825286839269
 31
0.0
  0
LINE
  5
1C9
330
2D8
100
AcDbEntity
  8
DATA
  6
Continuous
 62
     7
100
AcDbLine
 10
-30.45000000000016
 20
36.40794599681591
 30
0.0
 11
-30.45000000000016
 21
34.9825286839269
 31
0.0
  0
ARC
  5
1CA
330
2D8
100
AcDbEntity
  8
DATA
  6
Continuous
 62
     7
100
AcDbCircle
 10
-28.00000000000014
 20
38.85639804798149
 30
0.0
 40
9.873869364054604
100
AcDbArc
 50
242.7832929017382
 51
297.2167070982617
  0
LINE
  5
1CB
330
2D8
100
AcDbEntity
  8
DATA
  6
Continuous
 62
     7
100
AcDbLine
 10
-30.45000000000016
 20
34.9825286839269
 30
0.0
 11
-32.35705522724659
 21
34.47153477586466
 31
0.0
  0
LINE
  5
1CC
330
2D8
100
AcDbEntity
  8
DATA
  6
Continuous
 62
     7
100
AcDbLine
 10
-25.54999999999984
 20
34.9825286839269
 30
0.0
 11
-23.64294476391812
 21
34.47153477349725
 31
0.0
  0
ARC
  5
1CD
330
2D8
100
AcDbEntity
  8
DATA
  6
Continuous
 62
     7
100
AcDbCircle
 10
-23.85000000000014
 20
33.698794112466
 30
0.0
 40
0.7999999999999972
100
AcDbArc
 50
0.0
 51
75.00000000000034
  0
ARC
  5
1CE
330
2D8
100
AcDbEntity
  8
DATA
  6
Continuous
 62
     7
100
AcDbCircle
 10
-32.14999998807922
 20
33.69879410331866
 30
0.0
 40
0.8000000119209392
100
AcDbArc
 50
104.9999999999994
 51
179.999999999999
  0
ARC
  5
1CF
330
2D8
100
AcDbEntity
  8
DATA
  6
Continuous
 62
     7
100
AcDbCircle
 10
-32.14999998807923
 20
30.78715984858903
 30
0.0
 40
0.8000000119209147
100
AcDbArc
 50
180.0
 51
242.7832929017389
  0
ARC
  5
1D0
330
2D8
100
AcDbEntity
  8
DATA
  6
Continuous
 62
     7
100
AcDbCircle
 10
-23.85000001192105
 20
30.78715984858903
 30
0.0
 40
0.8000000119209241
100
AcDbArc
 50
297.2167070982611
 51
0.0
  0
ARC
  5
1D1
330
2D8
100
AcDbEntity
  8
DATA
  6
Continuous
 62
     7
100
AcDbCircle
 10
2.000000000000099
 20
45.99999999999886
 30
0.0
 40
10.4999999999989
100
AcDbArc
 50
283.4933988215516
 51
256.5066011784452
  0
CIRCLE
  5
1D2
330
2D8
100
AcDbEntity
  8
DATA
  6
Continuous
 62
     7
100
AcDbCircle
 10
10.70470974769719
 20
35.80206341218364
 30
0.0
 40
2.5
  0
LINE
  5
1D3
330
2D8
100
AcDbEntity
  8
DATA
  6
Continuous
 62
     7
100
AcDbLine
 10
10.70470974769719
 20
37.45936590235547
 30
0.0
 11
10.70470974769719
 21
34.14476092201179
 31
0.0
  0
LINE
  5
1D4
330
2D8
100
AcDbEntity
  8
DATA
  6
Continuous
 62
     7
100
AcDbLine
 10
9.04740725752535
 20
35.80206341218364
 30
0.0
 11
12.36201223786904
 21
35.80206341218364
 31
0.0
  0
CIRCLE
  5
1D5
330
2D8
100
AcDbEntity
  8
DATA
  6
Continuous
 62
     7
100
AcDbCircle
 10
-6.286068282524297
 20
56.35428058493634
 30
0.0
 40
2.500000000000014
  0
LINE
  5
1D6
330
2D8
100
AcDbEntity
  8
DATA
  6
Continuous
 62
     7
100
AcDbLine
 10
-6.286068282524297
 20
58.01158307510817
 30
0.0
 11
-6.286068282524297
 21
54.69697809476449
 31
0.0
  0
LINE
  5
1D7
330
2D8
100
AcDbEntity
  8
DATA
  6
Continuous
 62
     7
100
AcDbLine
 10
-7.94337077269614
 20
56.35428058493634
 30
0.0
 11
-4.628765792352452
 21
56.35428058493634
 31
0.0
  0
CIRCLE
  5
1D8
330
2D8
100
AcDbEntity
  8
DATA
  6
Continuous
 62
     7
100
AcDbCircle
 10
2.0
 20
45.99999999999996
 30
0.0
 40
9.900000000000003
  0
ARC
  5
1D9
330
2D8
100
AcDbEntity
  8
DATA
  6
Continuous
 62
     7
100
AcDbCircle
 10
1.999999999999872
 20
45.99999999999999
 30
0.0
 40
3.000000000000122
100
AcDbArc
 50
351.7540619022139
 51
78.02476504991301
  0
ARC
  5
1DA
330
2D8
100
AcDbEntity
  8
DATA
  6
Continuous
 62
     7
100
AcDbCircle
 10
1.999999999999872
 20
45.99999999999999
 30
0.0
 40
3.000000000000124
100
AcDbArc
 50
101.9752349500837
 51
188.2459380977813
  0
ARC
  5
1DB
330
2D8
100
AcDbEntity
  8
DATA
  6
Continuous
 62
     7
100
AcDbCircle
 10
1.999999999999872
 20
45.99999999999999
 30
0.0
 40
3.000000000000123
100
AcDbArc
 50
209.4642238541819
 51
330.5357761458257
  0
CIRCLE
  5
1DC
330
2D8
100
AcDbEntity
  8
DATA
  6
Continuous
 62
     7
100
AcDbCircle
 10
2.0
 20
45.99999999999996
 30
0.0
 40
8.0
  0
ARC
  5
1DD
330
2D8
100
AcDbEntity
  8
DATA
  6
Continuous
 62
     7
100
AcDbCircle
 10
2.0
 20
49.84164942452963
 30
0.0
 40
1.100000000000012
100
AcDbArc
 50
304.4633374559976
 51
235.5366625439986
  0
ARC
  5
1DE
330
2D8
100
AcDbEntity
  8
DATA
  6
Continuous
 62
     7
100
AcDbCircle
 10
5.690722156190915
 20
44.73961515170897
 30
0.0
 40
1.099999999999991
100
AcDbArc
 50
191.2848305232932
 51
131.0050075247463
  0
ARC
  5
1DF
330
2D8
100
AcDbEntity
  8
DATA
  6
Continuous
 62
     7
100
AcDbCircle
 10
-1.690722156190958
 20
44.73961515170895
 30
0.0
 40
1.10000000000003
100
AcDbArc
 50
48.99499247527275
 51
348.7151694766907
  0
LINE
  5
1E0
330
2D8
100
AcDbEntity
  8
DATA
  6
Continuous
 62
     7
100
AcDbLine
 10
-2.950000000000144
 20
30.78715984858903
 30
0.0
 11
-2.950000000000144
 21
33.69879410331868
 31
0.0
  0
LINE
  5
1E1
330
2D8
100
AcDbEntity
  8
DATA
  6
Continuous
 62
     7
100
AcDbLine
 10
-0.4500000000001593
 20
34.9825286839269
 30
0.0
 11
4.450000000000172
 21
34.9825286839269
 31
0.0
  0
LINE
  5
1E2
330
2D8
100
AcDbEntity
  8
DATA
  6
Continuous
 62
     7
100
AcDbLine
 10
6.94999999999986
 20
33.698794112466
 30
0.0
 11
6.94999999999986
 21
30.78715984858903
 31
0.0
  0
LINE
  5
1E3
330
2D8
100
AcDbEntity
  8
DATA
  6
Continuous
 62
     7
100
AcDbLine
 10
4.449999999999847
 20
36.40794599681583
 30
0.0
 11
4.449999999999847
 21
34.9825286839269
 31
0.0
  0
LINE
  5
1E4
330
2D8
100
AcDbEntity
  8
DATA
  6
Continuous
 62
     7
100
AcDbLine
 10
-0.4500000000001593
 20
36.40794599681591
 30
0.0
 11
-0.4500000000001593
 21
34.9825286839269
 31
0.0
  0
ARC
  5
1E5
330
2D8
100
AcDbEntity
  8
DATA
  6
Continuous
 62
     7
100
AcDbCircle
 10
1.999999999999857
 20
38.85639804798149
 30
0.0
 40
9.873869364054604
100
AcDbArc
 50
242.7832929017382
 51
297.2167070982617
  0
LINE
  5
1E6
330
2D8
100
AcDbEntity
  8
DATA
  6
Continuous
 62
     7
100
AcDbLine
 10
-0.4500000000001593
 20
34.9825286839269
 30
0.0
 11
-2.35705522724659
 21
34.47153477586466
 31
0.0
  0
LINE
  5
1E7
330
2D8
100
AcDbEntity
  8
DATA
  6
Continuous
 62
     7
100
AcDbLine
 10
4.450000000000159
 20
34.9825286839269
 30
0.0
 11
6.357055236081876
 21
34.47153477349725
 31
0.0
  0
ARC
  5
1E8
330
2D8
100
AcDbEntity
  8
DATA
  6
Continuous
 62
     7
100
AcDbCircle
 10
6.149999999999863
 20
33.698794112466
 30
0.0
 40
0.7999999999999972
100
AcDbArc
 50
0.0
 51
75.00000000000034
  0
ARC
  5
1E9
330
2D8
100
AcDbEntity
  8
DATA
  6
Continuous
 62
     7
100
AcDbCircle
 10
-2.149999988079215
 20
33.69879410331866
 30
0.0
 40
0.8000000119209392
100
AcDbArc
 50
104.9999999999994
 51
179.999999999999
  0
ARC
  5
1EA
330
2D8
100
AcDbEntity
  8
DATA
  6
Continuous
 62
     7
100
AcDbCircle
 10
-2.14999998807923
 20
30.78715984858903
 30
0.0
 40
0.8000000119209147
100
AcDbArc
 50
180.0
 51
242.7832929017389
  0
ARC
  5
1EB
330
2D8
100
AcDbEntity
  8
DATA
  6
Continuous
 62
     7
100
AcDbCircle
 10
6.149999988078945
 20
30.78715984858903
 30
0.0
 40
0.8000000119209241
100
AcDbArc
 50
297.2167070982611
 51
0.0
  0
ARC
  5
1EC
330
2D8
100
AcDbEntity
  8
DATA
  6
Continuous
 62
     7
100
AcDbCircle
 10
18.06152367580223
 20
34.99999999999996
 30
0.0
 40
2.0
100
AcDbArc
 50
270.0
 51
358.210089391754
  0
ARC
  5
1ED
330
2D8
100
AcDbEntity
  8
DATA
  6
Continuous
 62
     7
100
AcDbCircle
 10
-113.0615236758022
 20
34.99999999999996
 30
0.0
 40
2.0
100
AcDbArc
 50
181.789910608246
 51
270.0
  0
CIRCLE
  5
1EE
330
2D8
100
AcDbEntity
  8
DATA
  6
Continuous
 62
     7
100
AcDbCircle
 10
-12.91625918539432
 20
53.49999999999997
 30
0.0
 40
3.0
  0
CIRCLE
  5
1EF
330
2D8
100
AcDbEntity
  8
DATA
  6
Continuous
 62
     7
100
AcDbCircle
 10
16.5323246948701
 20
53.49999999999997
 30
0.0
 40
3.0
  0
TEXT
  5
1F0
330
2D8
100
AcDbEntity
  8
DATA
 62
     7
100
AcDbText
 10
-7.707154810793852
 20
61.45742612983806
 30
0.0
 40
1.95460940412595
  1
INPUTS
 50
180.0
 41
0.7
 11
-7.707154810793852
 21
59.5028167257121
 31
0.0
100
AcDbText
 73
     3
  0
TEXT
  5
1F1
330
2D8
100
AcDbEntity
  8
DATA
 62
     7
100
AcDbText
 10
5.130190696277396
 20
59.92731573633663
 30
0.0
 40
1.95460940412595
  1
RIGHT
 50
180.0
 41
0.7
 11
5.130190696277396
 21
57.97270633221067
 31
0.0
100
AcDbText
 73
     3
  0
TEXT
  5
1F2
330
2D8
100
AcDbEntity
  8
DATA
 62
     7
100
AcDbText
 10
-25.54152557021917
 20
59.92731573633663
 30
0.0
 40
1.95460940412595
  1
LEFT
 50
180.0
 41
0.7
 11
-25.54152557021917
 21
57.97270633221067
 31
0.0
100
AcDbText
 73
     3
  0
LINE
  5
1F3
330
2D8
100
AcDbEntity
  8
DATA
  6
Continuous
 62
     7
100
AcDbLine
 10
14.08374081460567
 20
60.55141685924265
 30
0.0
 11
-7.022382953662116
 21
60.55141685924265
 31
0.0
  0
LINE
  5
1F4
330
2D8
100
AcDbEntity
  8
DATA
  6
Continuous
 62
     7
100
AcDbLine
 10
-37.94337077269615
 20
60.55141685924265
 30
0.0
 11
-16.29031424983779
 21
60.55141685924265
 31
0.0
  0
TEXT
  5
1F5
330
2D8
100
AcDbEntity
  8
DATA
 62
     7
100
AcDbText
 10
-70.73887802061881
 20
61.45742612983806
 30
0.0
 40
1.95460940412595
  1
OUTPUTS
 50
180.0
 41
0.7
 11
-70.73887802061881
 21
59.5028167257121
 31
0.0
100
AcDbText
 73
     3
  0
TEXT
  5
1F6
330
2D8
100
AcDbEntity
  8
DATA
 62
     7
100
AcDbText
 10
-61.60390075773213
 20
59.92731573633663
 30
0.0
 40
1.95460940412595
  1
RIGHT
 50
180.0
 41
0.7
 11
-61.60390075773213
 21
57.97270633221067
 31
0.0
100
AcDbText
 73
     3
  0
TEXT
  5
1F7
330
2D8
100
AcDbEntity
  8
DATA
 62
     7
100
AcDbText
 10
-86.68267776173703
 20
59.92731573633663
 30
0.0
 40
1.95460940412595
  1
LEFT
 50
180.0
 41
0.7
 11
-86.68267776173703
 21
57.97270633221067
 31
0.0
100
AcDbText
 73
     3
  0
LINE
  5
1F8
330
2D8
100
AcDbEntity
  8
DATA
  6
Continuous
 62
     7
100
AcDbLine
 10
-54.07987305695986
 20
60.55141685924265
 30
0.0
 11
-70.07744655060271
 21
60.55141685924265
 31
0.0
  0
LINE
  5
1F9
330
2D8
100
AcDbEntity
  8
DATA
  6
Continuous
 62
     7
100
AcDbLine
 10
-99.92611059687106
 20
60.55141685924265
 30
0.0
 11
-80.19730200258445
 21
60.55141685924265
 31
0.0
  0
TEXT
  5
1FA
330
2D8
100
AcDbEntity
  8
DATA
 62
     7
100
AcDbText
 10
-44.50219883738438
 20
52.39006576043724
 30
0.0
 40
1.95460940412595
  1
INPUT
 50
180.0
 41
0.7
 11
-44.50219883738438
 21
50.43545635631129
 31
0.0
100
AcDbText
 73
     3
  0
TEXT
  5
1FB
330
2D8
100
AcDbEntity
  8
DATA
 62
     7
100
AcDbText
 10
-45.60503170132796
 20
49.60232800047755
 30
0.0
 40
1.95460940412595
  1
AUX
 50
180.0
 41
0.7
 11
-45.60503170132796
 21
47.6477185963516
 31
0.0
100
AcDbText
 73
     3
  0
TEXT
  5
1FC
330
2D8
100
AcDbEntity
  8
DATA
 62
     7
100
AcDbText
 10
-9.207864205299912
 20
49.6627858554193
 30
0.0
 40
1.628841170104958
  1
MIC
 50
180.0
 41
0.7
 11
-9.207864205299912
 21
48.03394468531434
 31
0.0
100
AcDbText
 73
     3
  0
TEXT
  5
1FD
330
2D8
100
AcDbEntity
  8
DATA
 62
     7
100
AcDbText
 10
-9.207864205299912
 20
46.76341925594089
 30
0.0
 40
1.628841170104958
  1
LINE
 50
180.0
 41
0.7
 11
-9.207864205299912
 21
45.13457808583593
 31
0.0
100
AcDbText
 73
     3
  0
LINE
  5
1FE
330
2D8
100
AcDbEntity
  8
DATA
  6
Continuous
 62
     7
100
AcDbLine
 10
-16.48029555769497
 20
46.78630073809194
 30
0.0
 11
-13.98029555769497
 21
46.78630073809194
 31
0.0
  0
LINE
  5
1FF
330
2D8
100
AcDbEntity
  8
DATA
  6
Continuous
 62
     7
100
AcDbLine
 10
-14.33029555769496
 20
46.78630073809194
 30
0.0
 11
-14.33029555769496
 21
44.78630073809194
 31
0.0
  0
LINE
  5
200
330
2D8
100
AcDbEntity
  8
DATA
  6
Continuous
 62
     7
100
AcDbLine
 10
-16.13029555769496
 20
44.78630073809194
 30
0.0
 11
-16.13029555769496
 21
46.78630073809194
 31
0.0
  0
LINE
  5
201
330
2D8
100
AcDbEntity
  8
DATA
  6
Continuous
 62
     7
100
AcDbLine
 10
-14.33029555769496
 20
44.78630073809194
 30
0.0
 11
-16.13029555769496
 21
44.78630073809194
 31
0.0
  0
LINE
  5
202
330
2D8
100
AcDbEntity
  8
DATA
  6
Continuous
 62
     7
100
AcDbLine
 10
-16.48029555769497
 20
49.54820554256624
 30
0.0
 11
-13.98029555769497
 21
49.54820554256624
 31
0.0
  0
LINE
  5
203
330
2D8
100
AcDbEntity
  8
DATA
  6
Continuous
 62
     7
100
AcDbLine
 10
-14.33029555769496
 20
49.54820554256624
 30
0.0
 11
-14.33029555769496
 21
48.73856443405298
 31
0.0
  0
LINE
  5
204
330
2D8
100
AcDbEntity
  8
DATA
  6
Continuous
 62
     7
100
AcDbLine
 10
-16.13029555769496
 20
48.73856443405298
 30
0.0
 11
-16.13029555769496
 21
49.54820554256624
 31
0.0
  0
LINE
  5
205
330
2D8
100
AcDbEntity
  8
DATA
  6
Continuous
 62
     7
100
AcDbLine
 10
-14.33029555769496
 20
48.73856443405298
 30
0.0
 11
-16.13029555769496
 21
48.73856443405298
 31
0.0
  0
TEXT
  5
206
330
2D8
100
AcDbEntity
  8
DATA
 62
     7
100
AcDbText
 10
19.9879029629178
 20
49.6627858554193
 30
0.0
 40
1.628841170104958
  1
MIC
 50
180.0
 41
0.7
 11
19.9879029629178
 21
48.03394468531434
 31
0.0
100
AcDbText
 73
     3
  0
TEXT
  5
207
330
2D8
100
AcDbEntity
  8
DATA
 62
     7
100
AcDbText
 10
19.9879029629178
 20
46.76341925594089
 30
0.0
 40
1.628841170104958
  1
LINE
 50
180.0
 41
0.7
 11
19.9879029629178
 21
45.13457808583593
 31
0.0
100
AcDbText
 73
     3
  0
LINE
  5
208
330
2D8
100
AcDbEntity
  8
DATA
  6
Continuous
 62
     7
100
AcDbLine
 10
12.71547161052275
 20
46.78630073809194
 30
0.0
 11
15.21547161052275
 21
46.78630073809194
 31
0.0
  0
LINE
  5
209
330
2D8
100
AcDbEntity
  8
DATA
  6
Continuous
 62
     7
100
AcDbLine
 10
14.86547161052276
 20
46.78630073809194
 30
0.0
 11
14.86547161052276
 21
44.78630073809194
 31
0.0
  0
LINE
  5
20A
330
2D8
100
AcDbEntity
  8
DATA
  6
Continuous
 62
     7
100
AcDbLine
 10
13.06547161052276
 20
44.78630073809194
 30
0.0
 11
13.06547161052276
 21
46.78630073809194
 31
0.0
  0
LINE
  5
20B
330
2D8
100
AcDbEntity
  8
DATA
  6
Continuous
 62
     7
100
AcDbLine
 10
14.86547161052276
 20
44.78630073809194
 30
0.0
 11
13.06547161052276
 21
44.78630073809194
 31
0.0
  0
LINE
  5
20C
330
2D8
100
AcDbEntity
  8
DATA
  6
Continuous
 62
     7
100
AcDbLine
 10
12.71547161052275
 20
49.54820554256624
 30
0.0
 11
15.21547161052275
 21
49.54820554256624
 31
0.0
  0
LINE
  5
20D
330
2D8
100
AcDbEntity
  8
DATA
  6
Continuous
 62
     7
100
AcDbLine
 10
14.86547161052276
 20
49.54820554256624
 30
0.0
 11
14.86547161052276
 21
48.73856443405298
 31
0.0
  0
LINE
  5
20E
330
2D8
100
AcDbEntity
  8
DATA
  6
Continuous
 62
     7
100
AcDbLine
 10
13.06547161052276
 20
48.73856443405298
 30
0.0
 11
13.06547161052276
 21
49.54820554256624
 31
0.0
  0
LINE
  5
20F
330
2D8
100
AcDbEntity
  8
DATA
  6
Continuous
 62
     7
100
AcDbLine
 10
14.86547161052276
 20
48.73856443405298
 30
0.0
 11
13.06547161052276
 21
48.73856443405298
 31
0.0
  0
TEXT
  5
210
330
2D8
100
AcDbEntity
  8
DATA
 62
     7
100
AcDbText
 10
-102.3447060374262
 20
61.42821942964845
 30
0.0
 40
1.290042206723127
  1
9VDC 500mA
 50
180.0
 41
0.7
 11
-102.3447060374262
 21
60.13817722292532
 31
0.0
100
AcDbText
 73
     3
  0
CIRCLE
  5
211
330
2D8
100
AcDbEntity
  8
DATA
  6
Continuous
 62
     7
100
AcDbCircle
 10
-113.1202907092427
 20
53.33159300706006
 30
0.0
 40
0.75
  0
ARC
  5
212
330
2D8
100
AcDbEntity
  8
DATA
  6
Continuous
 62
     7
100
AcDbCircle
 10
-113.1202907092426
 20
53.33159300705842
 30
0.0
 40
1.24999999999836
100
AcDbArc
 50
276.8921025793512
 51
263.1078974206397
  0
CIRCLE
  5
213
330
2D8
100
AcDbEntity
  8
DATA
  6
Continuous
 62
     7
100
AcDbCircle
 10
-113.1202907092427
 20
48.44322440550639
 30
0.0
 40
0.75
  0
LINE
  5
214
330
2D8
100
AcDbEntity
  8
DATA
  6
Continuous
 62
     7
100
AcDbLine
 10
-112.6770663037363
 20
48.44322440550639
 30
0.0
 11
-113.5635151147491
 21
48.44322440550639
 31
0.0
  0
CIRCLE
  5
215
330
2D8
100
AcDbEntity
  8
DATA
  6
Continuous
 62
     7
100
AcDbCircle
 10
-113.1202907092427
 20
58.21996160861373
 30
0.0
 40
0.75
  0
LINE
  5
216
330
2D8
100
AcDbEntity
  8
DATA
  6
Continuous
 62
     7
100
AcDbLine
 10
-112.6770663037363
 20
58.21996160861373
 30
0.0
 11
-113.5635151147491
 21
58.21996160861373
 31
0.0
  0
LINE
  5
217
330
2D8
100
AcDbEntity
  8
DATA
  6
Continuous
 62
     7
100
AcDbLine
 10
-113.1202907092427
 20
57.77673720310734
 30
0.0
 11
-113.1202907092427
 21
58.66318601412011
 31
0.0
  0
LINE
  5
218
330
2D8
100
AcDbEntity
  8
DATA
  6
Continuous
 62
     7
100
AcDbLine
 10
-113.1202907092427
 20
57.46996160861373
 30
0.0
 11
-113.1202907092427
 21
54.58159300706006
 31
0.0
  0
LINE
  5
219
330
2D8
100
AcDbEntity
  8
DATA
  6
Continuous
 62
     7
100
AcDbLine
 10
-113.1202907092427
 20
49.19322440550639
 30
0.0
 11
-113.1202907092427
 21
52.58159300706005
 31
0.0
  0
LINE
  5
21A
330
2D8
100
AcDbEntity
  8
DATA
  6
Continuous
 62
     7
100
AcDbLine
 10
21.00000000000017
 20
31.14999999999997
 30
0.0
 11
6.949999999999874
 21
31.14999999999997
 31
0.0
  0
LINE
  5
21B
330
2D8
100
AcDbEntity
  8
DATA
  6
Continuous
 62
     7
100
AcDbLine
 10
-2.950000000000159
 20
31.14999999999997
 30
0.0
 11
-23.05000000000014
 21
31.14999999999997
 31
0.0
  0
LINE
  5
21C
330
2D8
100
AcDbEntity
  8
DATA
  6
Continuous
 62
     7
100
AcDbLine
 10
-32.95000000000015
 20
31.14999999999997
 30
0.0
 11
-116.0
 21
31.14999999999997
 31
0.0
  0
ARC
  5
21D
330
2D8
100
AcDbEntity
  8
DATA
  6
Continuous
 62
     7
100
AcDbCircle
 10
-115.2968238841585
 20
11.84474132123309
 30
0.0
 40
19.31806070246167
100
AcDbArc
 50
92.08602335812164
 51
102.5667899622177
  0
ARC
  5
21E
330
2D8
100
AcDbEntity
  8
DATA
  6
Continuous
 62
     7
100
AcDbCircle
 10
20.29682388415849
 20
11.84474132123309
 30
0.0
 40
19.31806070246167
100
AcDbArc
 50
77.4332100377823
 51
87.91397664187833
  0
LINE
  5
21F
330
2D8
100
AcDbEntity
  8
DATA
  6
Continuous
 62
     7
100
AcDbLine
 10
-108.15
 20
3.299999999999996
 30
0.0
 11
-108.15
 21
2.0
 31
0.0
  0
LINE
  5
220
330
2D8
100
AcDbEntity
  8
DATA
  6
Continuous
 62
     7
100
AcDbLine
 10
-104.85
 20
3.299999999999996
 30
0.0
 11
-104.85
 21
2.0
 31
0.0
  0
LINE
  5
221
330
2D8
100
AcDbEntity
  8
DATA
  6
Continuous
 62
     7
100
AcDbLine
 10
-108.15
 20
3.3
 30
0.0
 11
-104.85
 21
3.3
 31
0.0
  0
LINE
  5
222
330
2D8
100
AcDbEntity
  8
DATA
  6
Continuous
 62
     7
100
AcDbLine
 10
-32.95000000000015
 20
6.0
 30
0.0
 11
-32.95000000000015
 21
5.0
 31
0.0
  0
LINE
  5
223
330
2D8
100
AcDbEntity
  8
DATA
  6
Continuous
 62
     7
100
AcDbLine
 10
-23.05000000000014
 20
6.0
 30
0.0
 11
-23.05000000000014
 21
5.0
 31
0.0
  0
LINE
  5
224
330
2D8
100
AcDbEntity
  8
DATA
  6
Continuous
 62
     7
100
AcDbLine
 10
-2.950000000000159
 20
6.0
 30
0.0
 11
-2.950000000000159
 21
5.0
 31
0.0
  0
LINE
  5
225
330
2D8
100
AcDbEntity
  8
DATA
  6
Continuous
 62
     7
100
AcDbLine
 10
6.949999999999874
 20
6.0
 30
0.0
 11
6.949999999999874
 21
5.0
 31
0.0
  0
LINE
  5
226
330
2D8
100
AcDbEntity
  8
DATA
  6
Continuous
 62
     7
100
AcDbLine
 10
-23.05000000000014
 20
6.0
 30
0.0
 11
-32.95000000000015
 21
6.0
 31
0.0
  0
LINE
  5
227
330
2D8
100
AcDbEntity
  8
DATA
  6
Continuous
 62
     7
100
AcDbLine
 10
-2.950000000000159
 20
6.0
 30
0.0
 11
6.949999999999874
 21
6.0
 31
0.0
  0
LINE
  5
228
330
2D8
100
AcDbEntity
  8
DATA
  6
Continuous
 62
     7
100
AcDbLine
 10
-23.05000000000014
 20
5.0
 30
0.0
 11
-32.95000000000015
 21
5.0
 31
0.0
  0
LINE
  5
229
330
2D8
100
AcDbEntity
  8
DATA
  6
Continuous
 62
     7
100
AcDbLine
 10
-2.950000000000159
 20
5.0
 30
0.0
 11
6.949999999999874
 21
5.0
 31
0.0
  0
LINE
  5
22A
330
2D8
100
AcDbEntity
  8
DATA
  6
Continuous
 62
     7
100
AcDbLine
 10
-30.40000000000014
 20
2.0
 30
0.0
 11
-30.40000000000014
 21
5.0
 31
0.0
  0
LINE
  5
22B
330
2D8
100
AcDbEntity
  8
DATA
  6
Continuous
 62
     7
100
AcDbLine
 10
-25.60000000000015
 20
4.999999999999999
 30
0.0
 11
-25.60000000000015
 21
2.0
 31
0.0
  0
LINE
  5
22C
330
2D8
100
AcDbEntity
  8
DATA
  6
Continuous
 62
     7
100
AcDbLine
 10
-0.4000000000001442
 20
2.0
 30
0.0
 11
-0.4000000000001442
 21
4.999999999999999
 31
0.0
  0
LINE
  5
22D
330
2D8
100
AcDbEntity
  8
DATA
  6
Continuous
 62
     7
100
AcDbLine
 10
4.399999999999856
 20
5.0
 30
0.0
 11
4.399999999999856
 21
2.0
 31
0.0
  0
LINE
  5
22E
330
2D8
100
AcDbEntity
  8
DATA
  6
Continuous
 62
     7
100
AcDbLine
 10
19.53232469487009
 20
3.0
 30
0.0
 11
13.5323246948701
 21
3.0
 31
0.0
  0
LINE
  5
22F
330
2D8
100
AcDbEntity
  8
DATA
  6
Continuous
 62
     7
100
AcDbLine
 10
-9.916259185394324
 20
3.0
 30
0.0
 11
-15.91625918539432
 21
3.0
 31
0.0
  0
LINE
  5
230
330
2D8
100
AcDbEntity
  8
DATA
  6
Continuous
 62
     7
100
AcDbLine
 10
-15.91625918539432
 20
3.0
 30
0.0
 11
-15.91625918539432
 21
2.0
 31
0.0
  0
LINE
  5
231
330
2D8
100
AcDbEntity
  8
DATA
  6
Continuous
 62
     7
100
AcDbLine
 10
-9.916259185394324
 20
3.0
 30
0.0
 11
-9.916259185394324
 21
2.0
 31
0.0
  0
LINE
  5
232
330
2D8
100
AcDbEntity
  8
DATA
  6
Continuous
 62
     7
100
AcDbLine
 10
13.5323246948701
 20
3.0
 30
0.0
 11
13.5323246948701
 21
2.0
 31
0.0
  0
LINE
  5
233
330
2D8
100
AcDbEntity
  8
DATA
  6
Continuous
 62
     7
100
AcDbLine
 10
19.53232469487009
 20
3.0
 30
0.0
 11
19.53232469487009
 21
2.0
 31
0.0
  0
ARC
  5
234
330
2D8
100
AcDbEntity
  8
DATA
  6
Continuous
 62
     7
100
AcDbCircle
 10
-28.0
 20
-20.04574193469573
 30
0.0
 40
24.04574193469573
100
AcDbArc
 50
70.56730966581831
 51
84.27178363564093
  0
ARC
  5
235
330
2D8
100
AcDbEntity
  8
DATA
  6
Continuous
 62
     7
100
AcDbCircle
 10
-28.0
 20
-20.04574193469573
 30
0.0
 40
24.04574193469573
100
AcDbArc
 50
95.72821636435975
 51
109.4326903341817
  0
ARC
  5
236
330
2D8
100
AcDbEntity
  8
DATA
  6
Continuous
 62
     7
100
AcDbCircle
 10
2.0
 20
-20.04574193469573
 30
0.0
 40
24.04574193469573
100
AcDbArc
 50
70.56730966581831
 51
84.27178363564093
  0
ARC
  5
237
330
2D8
100
AcDbEntity
  8
DATA
  6
Continuous
 62
     7
100
AcDbCircle
 10
2.0
 20
-20.04574193469573
 30
0.0
 40
24.04574193469573
100
AcDbArc
 50
95.72821636435975
 51
109.4326903341817
  0
LINE
  5
238
330
2D8
100
AcDbEntity
  8
DATA
  6
Continuous
 62
     7
100
AcDbLine
 10
-36.0
 20
2.630185944665342
 30
0.0
 11
-36.0
 21
2.0
 31
0.0
  0
LINE
  5
239
330
2D8
100
AcDbEntity
  8
DATA
  6
Continuous
 62
     7
100
AcDbLine
 10
-20.0
 20
2.630185944665342
 30
0.0
 11
-20.0
 21
2.0
 31
0.0
  0
LINE
  5
23A
330
2D8
100
AcDbEntity
  8
DATA
  6
Continuous
 62
     7
100
AcDbLine
 10
-6.0
 20
2.630185944665342
 30
0.0
 11
-6.0
 21
2.0
 31
0.0
  0
LINE
  5
23B
330
2D8
100
AcDbEntity
  8
DATA
  6
Continuous
 62
     7
100
AcDbLine
 10
10.0
 20
2.630185944665342
 30
0.0
 11
10.0
 21
2.0
 31
0.0
  0
LINE
  5
23C
330
2D8
100
AcDbEntity
  8
DATA
  6
Continuous
 62
     7
100
AcDbLine
 10
68.2
 20
-176.0
 30
0.0
 11
82.79999999999999
 21
-176.0
 31
0.0
  0
LINE
  5
23D
330
2D8
100
AcDbEntity
  8
DATA
  6
Continuous
 62
     7
100
AcDbLine
 10
68.2
 20
-176.0
 30
0.0
 11
68.2
 21
-175.0
 31
0.0
  0
LINE
  5
23E
330
2D8
100
AcDbEntity
  8
DATA
  6
Continuous
 62
     7
100
AcDbLine
 10
82.79999999999999
 20
-175.0
 30
0.0
 11
82.79999999999999
 21
-176.0
 31
0.0
  0
LINE
  5
23F
330
2D8
100
AcDbEntity
  8
DATA
  6
Continuous
 62
     7
100
AcDbLine
 10
143.2
 20
-176.0
 30
0.0
 11
157.8
 21
-176.0
 31
0.0
  0
LINE
  5
240
330
2D8
100
AcDbEntity
  8
DATA
  6
Continuous
 62
     7
100
AcDbLine
 10
143.2
 20
-176.0
 30
0.0
 11
143.2
 21
-175.0
 31
0.0
  0
LINE
  5
241
330
2D8
100
AcDbEntity
  8
DATA
  6
Continuous
 62
     7
100
AcDbLine
 10
157.8
 20
-175.0
 30
0.0
 11
157.8
 21
-176.0
 31
0.0
  0
LINE
  5
242
330
2D8
100
AcDbEntity
  8
DATA
  6
Continuous
 62
     7
100
AcDbLine
 10
81.5
 20
-135.0
 30
0.0
 11
110.0
 21
-135.0
 31
0.0
  0
LINE
  5
243
330
2D8
100
AcDbEntity
  8
DATA
  6
Continuous
 62
     7
100
AcDbLine
 10
110.4999999999999
 20
-135.0
 30
0.0
 11
145.5
 21
-135.0
 31
0.0
  0
LINE
  5
244
330
2D8
100
AcDbEntity
  8
DATA
  6
Continuous
 62
     7
100
AcDbLine
 10
68.60255447709025
 20
-140.0
 30
0.0
 11
156.6249999999999
 21
-140.0
 31
0.0
  0
LINE
  5
245
330
2D8
100
AcDbEntity
  8
DATA
  6
Continuous
 62
     7
100
AcDbLine
 10
62.5
 20
-175.0
 30
0.0
 11
63.47499628961146
 21
-140.8751298635991
 31
0.0
  0
LINE
  5
246
330
2D8
100
AcDbEntity
  8
DATA
  6
Continuous
 62
     7
100
AcDbLine
 10
164.5
 20
-175.0
 30
0.0
 11
163.5350943154284
 21
-141.2283010399942
 31
0.0
  0
ARC
  5
247
330
2D8
100
AcDbEntity
  8
DATA
  6
Continuous
 62
     7
100
AcDbCircle
 10
150.6208333333333
 20
-193.8291666666666
 30
0.0
 40
54.16298737504133
100
AcDbArc
 50
76.20590783608371
 51
83.63547098343499
  0
ARC
  5
248
330
2D8
100
AcDbEntity
  8
DATA
  6
Continuous
 62
     7
100
AcDbCircle
 10
144.1593768846479
 20
-168.1079765426047
 30
0.0
 40
33.13510798357361
100
AcDbArc
 50
54.21474816647738
 51
87.68122022651679
  0
ARC
  5
249
330
2D8
100
AcDbEntity
  8
DATA
  6
Continuous
 62
     7
100
AcDbCircle
 10
69.42627723854513
 20
-160.2856053143601
 30
0.0
 40
20.30232258037819
100
AcDbArc
 50
92.32529040675967
 51
107.0456182533497
  0
ARC
  5
24A
330
2D8
100
AcDbEntity
  8
DATA
  6
Continuous
 62
     7
100
AcDbCircle
 10
83.13124917949677
 20
-170.5927838540972
 30
0.0
 40
35.63014505120761
100
AcDbArc
 50
92.62408067855229
 51
123.4819867909711
  0
LINE
  5
24B
330
2D8
100
AcDbEntity
  8
DATA
  6
Continuous
 62
     7
100
AcDbLine
 10
110.5
 20
-140.0
 30
0.0
 11
110.5
 21
-135.0
 31
0.0
  0
LINE
  5
24C
330
2D8
100
AcDbEntity
  8
DATA
  6
Continuous
 62
     7
100
AcDbLine
 10
110.0
 20
-140.0
 30
0.0
 11
110.0
 21
-135.0
 31
0.0
  0
LINE
  5
24D
330
2D8
100
AcDbEntity
  8
DATA
  6
Continuous
 62
     7
100
AcDbLine
 10
110.25
 20
-135.1751948965542
 30
0.0
 11
110.0
 21
-135.0
 31
0.0
  0
LINE
  5
24E
330
2D8
100
AcDbEntity
  8
DATA
  6
Continuous
 62
     7
100
AcDbLine
 10
110.25
 20
-135.1751948965542
 30
0.0
 11
110.5
 21
-135.0
 31
0.0
  0
LINE
  5
24F
330
2D8
100
AcDbEntity
  8
DATA
  6
Continuous
 62
     7
100
AcDbLine
 10
142.375
 20
-134.158088508477
 30
0.0
 11
142.375
 21
-135.0
 31
0.0
  0
LINE
  5
250
330
2D8
100
AcDbEntity
  8
DATA
  6
Continuous
 62
     7
100
AcDbLine
 10
150.625
 20
-134.158088508477
 30
0.0
 11
150.625
 21
-135.6098058431129
 31
0.0
  0
ARC
  5
251
330
2D8
100
AcDbEntity
  8
DATA
  6
Continuous
 62
     7
100
AcDbCircle
 10
146.5
 20
-143.072968561263
 30
0.0
 40
9.822968561263024
100
AcDbArc
 50
65.16956952502427
 51
114.8304304749757
  0
LINE
  5
252
330
2D8
100
AcDbEntity
  8
DATA
  6
Continuous
 62
     7
100
AcDbLine
 10
98.13674989196888
 20
-132.0
 30
0.0
 11
122.2631291815866
 21
-132.0
 31
0.0
  0
LINE
  5
253
330
2D8
100
AcDbEntity
  8
DATA
  6
Continuous
 62
     7
100
AcDbLine
 10
94.7
 20
-135.0
 30
0.0
 11
96.60030733277412
 21
-132.719631200671
 31
0.0
  0
LINE
  5
254
330
2D8
100
AcDbEntity
  8
DATA
  6
Continuous
 62
     7
100
AcDbLine
 10
125.6994959349572
 20
-135.0
 30
0.0
 11
123.7996987055187
 21
-132.7197835737176
 31
0.0
  0
ARC
  5
255
330
2D8
100
AcDbEntity
  8
DATA
  6
Continuous
 62
     7
100
AcDbCircle
 10
98.13674989196886
 20
-134.0
 30
0.0
 40
2.000000000000028
100
AcDbArc
 50
89.99999999999957
 51
140.1944289077341
  0
ARC
  5
256
330
2D8
100
AcDbEntity
  8
DATA
  6
Continuous
 62
     7
100
AcDbCircle
 10
122.2631291815867
 20
-134.0
 30
0.0
 40
1.99999999999998
100
AcDbArc
 50
39.79988915400078
 51
90.00000000000081
  0
LINE
  5
257
330
2D8
100
AcDbEntity
  8
DATA
  6
Continuous
 62
     7
100
AcDbLine
 10
58.5
 20
-138.9999999999999
 30
0.0
 11
58.5
 21
-145.1
 31
0.0
  0
LINE
  5
258
330
2D8
100
AcDbEntity
  8
DATA
  6
Continuous
 62
     7
100
AcDbLine
 10
59.5
 20
-139.0
 30
0.0
 11
58.5
 21
-139.0
 31
0.0
  0
LINE
  5
259
330
2D8
100
AcDbEntity
  8
DATA
  6
Continuous
 62
     7
100
AcDbLine
 10
59.5
 20
-138.9999999999999
 30
0.0
 11
59.5
 21
-144.1
 31
0.0
  0
LINE
  5
25A
330
2D8
100
AcDbEntity
  8
DATA
  6
Continuous
 62
     7
100
AcDbLine
 10
63.32571428571429
 20
-146.1
 30
0.0
 11
59.5
 21
-146.1
 31
0.0
  0
LINE
  5
25B
330
2D8
100
AcDbEntity
  8
DATA
  6
Continuous
 62
     7
100
AcDbLine
 10
63.35428571428572
 20
-145.1
 30
0.0
 11
60.5
 21
-145.1
 31
0.0
  0
ARC
  5
25C
330
2D8
100
AcDbEntity
  8
DATA
  6
Continuous
 62
     7
100
AcDbCircle
 10
60.5
 20
-144.1
 30
0.0
 40
1.0
100
AcDbArc
 50
180.0
 51
270.0
  0
ARC
  5
25D
330
2D8
100
AcDbEntity
  8
DATA
  6
Continuous
 62
     7
100
AcDbCircle
 10
59.5
 20
-145.1
 30
0.0
 40
1.0
100
AcDbArc
 50
180.0
 51
270.0
  0
LINE
  5
25E
330
2D8
100
AcDbEntity
  8
DATA
  6
Continuous
 62
     7
100
AcDbLine
 10
63.29999999999998
 20
-147.0
 30
0.0
 11
61.27096145798604
 21
-147.0
 31
0.0
  0
LINE
  5
25F
330
2D8
100
AcDbEntity
  8
DATA
  6
Continuous
 62
     7
100
AcDbLine
 10
61.18647116258171
 20
-149.9571603391517
 30
0.0
 11
61.27096145798605
 21
-147.0
 31
0.0
  0
ARC
  5
260
330
2D8
100
AcDbEntity
  8
DATA
  6
Continuous
 62
     7
100
AcDbCircle
 10
62.68585929227275
 20
-150.0
 30
0.0
 40
1.499999999999999
100
AcDbArc
 50
178.3634229583839
 51
270.0
  0
LINE
  5
261
330
2D8
100
AcDbEntity
  8
DATA
  6
Continuous
 62
     7
100
AcDbLine
 10
62.68585929227275
 20
-151.5
 30
0.0
 11
63.17142857142856
 21
-151.5
 31
0.0
  0
LINE
  5
262
330
2D8
100
AcDbEntity
  8
DATA
  6
Continuous
 62
     7
100
AcDbLine
 10
-125.0
 20
-175.0
 30
0.0
 11
-123.7913967688589
 21
-138.9821908171511
 31
0.0
  0
LINE
  5
263
330
2D8
100
AcDbEntity
  8
DATA
  6
Continuous
 62
     7
100
AcDbLine
 10
30.0
 20
-175.0
 30
0.0
 11
28.79139676885907
 21
-138.9821908171513
 31
0.0
  0
LINE
  5
264
330
2D8
100
AcDbEntity
  8
DATA
  6
Continuous
 62
     7
100
AcDbLine
 10
-125.0
 20
64.99999999999997
 30
0.0
 11
-123.7913967688589
 21
28.98219081715117
 31
0.0
  0
LINE
  5
265
330
2D8
100
AcDbEntity
  8
DATA
  6
Continuous
 62
     7
100
AcDbLine
 10
30.0
 20
64.99999999999997
 30
0.0
 11
28.78861879798281
 21
28.89940399153374
 31
0.0
  0
ARC
  5
266
330
2D8
100
AcDbEntity
  8
DATA
  6
Continuous
 62
     7
100
AcDbCircle
 10
-91.8645248432049
 20
-137.85
 30
0.0
 40
27.7820443297796
100
AcDbArc
 50
174.1119977524479
 51
185.8880022475521
  0
ARC
  5
267
330
2D8
100
AcDbEntity
  8
DATA
  6
Continuous
 62
     7
100
AcDbCircle
 10
-3.135475156795109
 20
-137.85
 30
0.0
 40
27.78204432977959
100
AcDbArc
 50
354.1119977524477
 51
5.888002247552208
  0
ENDSEC
  0
SECTION
  2
OBJECTS
  0
DICTIONARY
  5
275
330
0
100
AcDbDictionary
281
     1
  3
ACAD_CIP_PREVIOUS_PRODUCT_INFO
350
2F1
  3
ACAD_COLOR
350
2CB
  3
ACAD_DETAILVIEWSTYLE
350
2D2
  3
ACAD_GROUP
350
276
  3
ACAD_LAYOUT
350
2CA
  3
ACAD_MATERIAL
350
279
  3
ACAD_MLEADERSTYLE
350
2CE
  3
ACAD_MLINESTYLE
350
2C7
  3
ACAD_PLOTSETTINGS
350
2C9
  3
ACAD_PLOTSTYLENAME
350
277
  3
ACAD_SCALELIST
350
2AB
  3
ACAD_SECTIONVIEWSTYLE
350
2D0
  3
ACAD_TABLESTYLE
350
2CC
  3
ACAD_VISUALSTYLE
350
292
  3
ACDB_RECOMPOSE_DATA
350
309
  3
AcDbVariableDictionary
350
2FC
  3
DWGPROPS
350
30A
  0
DICTIONARY
  5
2F2
330
2BD
100
AcDbDictionary
280
     1
281
     1
  3
ADSK_XREC_LAYER_RECONCILED
360
2F3
  0
DICTIONARY
  5
2F4
330
2DC
100
AcDbDictionary
280
     1
281
     1
  3
ADSK_XREC_LAYER_RECONCILED
360
2F5
  0
DICTIONARY
  5
2F6
330
2E8
100
AcDbDictionary
280
     1
281
     1
  3
ADSK_XREC_LAYER_RECONCILED
360
2F7
  0
DICTIONARY
  5
2F8
330
2EA
100
AcDbDictionary
280
     1
281
     1
  3
ADSK_XREC_LAYER_RECONCILED
360
2F9
  0
DICTIONARY
  5
2FA
330
2EB
100
AcDbDictionary
280
     1
281
     1
  3
ADSK_XREC_LAYER_RECONCILED
360
2FB
  0
XRECORD
  5
2F1
102
{ACAD_REACTORS
330
275
102
}
330
275
100
AcDbXrecord
280
     1
300
ACDLT
300
2016
300
ACDLT_F_S
  0
DICTIONARY
  5
2CB
102
{ACAD_REACTORS
330
275
102
}
330
275
100
AcDbDictionary
281
     1
  0
DICTIONARY
  5
2D2
102
{ACAD_REACTORS
330
275
102
}
330
275
100
AcDbDictionary
281
     1
  3
Imperial24
350
2D3
  0
DICTIONARY
  5
276
102
{ACAD_REACTORS
330
275
102
}
330
275
100
AcDbDictionary
281
     1
  0
DICTIONARY
  5
2CA
102
{ACAD_REACTORS
330
275
102
}
330
275
100
AcDbDictionary
281
     1
  3
Model
350
2DB
  3
レイアウト1
350
2D7
  0
DICTIONARY
  5
279
102
{ACAD_REACTORS
330
275
102
}
330
275
100
AcDbDictionary
281
     1
  3
ByBlock
350
282
  3
ByLayer
350
27A
  3
Global
350
28A
  0
DICTIONARY
  5
2CE
102
{ACAD_REACTORS
330
275
102
}
330
275
100
AcDbDictionary
281
     1
  3
Standard
350
2CF
  0
DICTIONARY
  5
2C7
102
{ACAD_REACTORS
330
275
102
}
330
275
100
AcDbDictionary
281
     1
  3
Standard
350
2C8
  0
DICTIONARY
  5
2C9
102
{ACAD_REACTORS
330
275
102
}
330
275
100
AcDbDictionary
281
     1
  0
ACDBDICTIONARYWDFLT
  5
277
102
{ACAD_REACTORS
330
275
102
}
330
275
100
AcDbDictionary
281
     1
  3
Normal
350
278
100
AcDbDictionaryWithDefault
340
278
  0
DICTIONARY
  5
2AB
102
{ACAD_REACTORS
330
275
102
}
330
275
100
AcDbDictionary
281
     1
  3
A0
350
2AC
  3
A1
350
2AD
  3
A2
350
2AE
  3
A3
350
2AF
  3
A4
350
2B0
  3
A5
350
2B1
  3
A6
350
2B2
  3
A7
350
2B3
  3
A8
350
2B4
  3
A9
350
2B5
  3
B0
350
2B6
  3
B1
350
2B7
  3
B2
350
2B8
  3
B3
350
2B9
  3
B4
350
2BA
  3
B5
350
2BB
  3
B6
350
2BC
  0
DICTIONARY
  5
2D0
102
{ACAD_REACTORS
330
275
102
}
330
275
100
AcDbDictionary
281
     1
  3
Imperial24
350
2D1
  0
DICTIONARY
  5
2CC
102
{ACAD_REACTORS
330
275
102
}
330
275
100
AcDbDictionary
281
     1
  3
Standard
350
2CD
  0
DICTIONARY
  5
292
102
{ACAD_REACTORS
330
275
102
}
330
275
100
AcDbDictionary
281
     1
  3
2dWireframe
350
298
  3
Basic
350
297
  3
Brighten
350
29E
  3
ColorChange
350
2A2
  3
Conceptual
350
29B
  3
Dim
350
29D
  3
EdgeColorOff
350
2AA
  3
Facepattern
350
2A1
  3
Flat
350
293
  3
FlatWithEdges
350
294
  3
Gouraud
350
295
  3
GouraudWithEdges
350
296
  3
Hidden
350
29A
  3
JitterOff
350
2A8
  3
Linepattern
350
2A0
  3
OverhangOff
350
2A9
  3
Realistic
350
29C
  3
Shaded
350
2A7
  3
Shaded with edges
350
2A6
  3
Shades of Gray
350
2A3
  3
Sketchy
350
2A4
  3
Thicken
350
29F
  3
Wireframe
350
299
  3
X-Ray
350
2A5
  0
XRECORD
  5
309
102
{ACAD_REACTORS
330
275
102
}
330
275
100
AcDbXrecord
280
     1
 90
        1
330
2CD
  0
DICTIONARY
  5
2FC
102
{ACAD_REACTORS
330
275
102
}
330
275
100
AcDbDictionary
281
     1
  3
CANNOSCALE
350
301
  3
CMLEADERSTYLE
350
2FE
  3
CTABLESTYLE
350
2FD
  3
CVIEWDETAILSTYLE
350
2FF
  3
CVIEWSECTIONSTYLE
350
300
  3
DIMASSOC
350
304
  3
INDEXCTL
350
303
  3
SORTENTS
350
302
  3
XCLIPFRAME
350
305
  0
XRECORD
  5
30A
102
{ACAD_REACTORS
330
275
102
}
330
275
100
AcDbXrecord
280
     1
  1
DWGPROPS COOKIE
  2

  3

  4

  6

  7

  8
sasaki_n
  9

300
=
301
=
302
=
303
=
304
=
305
=
306
=
307
=
308
=
309
=
 40
0.0004272685185185
 41
2457393.538055556
 42
2457393.538607338
  1

 90
        0
  0
XRECORD
  5
2F3
102
{ACAD_REACTORS
330
2F2
102
}
330
2F2
100
AcDbXrecord
280
     1
290
     1
  0
XRECORD
  5
2F5
102
{ACAD_REACTORS
330
2F4
102
}
330
2F4
100
AcDbXrecord
280
     1
290
     1
  0
XRECORD
  5
2F7
102
{ACAD_REACTORS
330
2F6
102
}
330
2F6
100
AcDbXrecord
280
     1
290
     1
  0
XRECORD
  5
2F9
102
{ACAD_REACTORS
330
2F8
102
}
330
2F8
100
AcDbXrecord
280
     1
290
     1
  0
XRECORD
  5
2FB
102
{ACAD_REACTORS
330
2FA
102
}
330
2FA
100
AcDbXrecord
280
     1
290
     1
  0
ACDBDETAILVIEWSTYLE
  5
2D3
102
{ACAD_XDICTIONARY
360
342
102
}
102
{ACAD_REACTORS
330
2D2
102
}
330
2D2
100
AcDbModelDocViewStyle
 70
     0
  3
Imperial24
290
     0
100
AcDbDetailViewStyle
 70
     0
 71
     0
 90
        3
 71
     1
340
2BE
 40
0.24
340
0
 40
0.24
300

 40
0.36
280
     3
 71
     2
340
2C5
 90
       25
 71
     3
340
2BE
 40
0.24
 90
        1
 40
0.75
 90
        1
300
%<\AcVar ViewType \f "%tc1">% %<\AcVar ViewDetailId>%\PSCALE %<\AcVar ViewScale \f "%sn">%
 71
     4
340
2C5
 90
       25
340
2C5
 90
       25
280
     0
  0
LAYOUT
  5
2DB
102
{ACAD_XDICTIONARY
360
346
102
}
102
{ACAD_REACTORS
330
2CA
102
}
330
2CA
100
AcDbPlotSettings
  1

  2
DocuPrint 3000-2
  4

  6

 40
0.0
 41
0.0
 42
0.0
 43
0.0
 44
0.0
 45
0.0
 46
0.0
 47
0.0
 48
0.0
 49
0.0
140
0.0
141
0.0
142
1.0
143
1.0
 70
  1712
 72
     0
 73
     0
 74
     0
  7

 75
     0
147
1.0
148
0.0
149
0.0
100
AcDbLayout
  1
Model
 70
     1
 71
     0
 10
0.0
 20
0.0
 11
12.0
 21
9.0
 12
0.0
 22
0.0
 32
0.0
 14
0.0
 24
0.0
 34
0.0
 15
0.0
 25
0.0
 35
0.0
146
0.0
 13
0.0
 23
0.0
 33
0.0
 16
1.0
 26
0.0
 36
0.0
 17
0.0
 27
1.0
 37
0.0
 76
     0
330
2D8
331
2DD
  0
LAYOUT
  5
2D7
102
{ACAD_XDICTIONARY
360
344
102
}
102
{ACAD_REACTORS
330
2CA
102
}
330
2CA
100
AcDbPlotSettings
  1

  2
DocuPrint 3000-2
  4

  6

 40
0.0
 41
0.0
 42
0.0
 43
0.0
 44
0.0
 45
0.0
 46
0.0
 47
0.0
 48
0.0
 49
0.0
140
0.0
141
0.0
142
1.0
143
1.0
 70
   688
 72
     0
 73
     0
 74
     5
  7

 75
    16
147
1.0
148
0.0
149
0.0
100
AcDbLayout
  1
レイアウト1
 70
     0
 71
     1
 10
0.0
 20
0.0
 11
12.0
 21
9.0
 12
0.0
 22
0.0
 32
0.0
 14
1.000000000000000E+20
 24
1.000000000000000E+20
 34
1.000000000000000E+20
 15
-1.000000000000000E+20
 25
-1.000000000000000E+20
 35
-1.000000000000000E+20
146
0.0
 13
0.0
 23
0.0
 33
0.0
 16
1.0
 26
0.0
 36
0.0
 17
0.0
 27
1.0
 37
0.0
 76
     0
330
2D4
  0
MATERIAL
  5
282
102
{ACAD_XDICTIONARY
360
283
102
}
102
{ACAD_REACTORS
330
279
102
}
330
279
100
AcDbMaterial
  1
ByBlock
 72
     0
 43
0.0208333333333333
 43
0.0
 43
0.0
 43
0.0
 43
0.0
 43
0.0208333333333333
 43
0.0
 43
0.0
 43
0.0
 43
0.0
 43
1.0
 43
0.0
 43
0.0
 43
0.0
 43
0.0
 43
1.0
 77
     0
 47
0.0208333333333333
 47
0.0
 47
0.0
 47
0.0
 47
0.0
 47
0.0208333333333333
 47
0.0
 47
0.0
 47
0.0
 47
0.0
 47
1.0
 47
0.0
 47
0.0
 47
0.0
 47
0.0
 47
1.0
171
     0
 49
0.0208333333333333
 49
0.0
 49
0.0
 49
0.0
 49
0.0
 49
0.0208333333333333
 49
0.0
 49
0.0
 49
0.0
 49
0.0
 49
1.0
 49
0.0
 49
0.0
 49
0.0
 49
0.0
 49
1.0
175
     0
142
0.0208333333333333
142
0.0
142
0.0
142
0.0
142
0.0
142
0.0208333333333333
142
0.0
142
0.0
142
0.0
142
0.0
142
1.0
142
0.0
142
0.0
142
0.0
142
0.0
142
1.0
179
     0
144
0.0208333333333333
144
0.0
144
0.0
144
0.0
144
0.0
144
0.0208333333333333
144
0.0
144
0.0
144
0.0
144
0.0
144
1.0
144
0.0
144
0.0
144
0.0
144
0.0
144
1.0
147
0.0208333333333333
147
0.0
147
0.0
147
0.0
147
0.0
147
0.0208333333333333
147
0.0
147
0.0
147
0.0
147
0.0
147
1.0
147
0.0
147
0.0
147
0.0
147
0.0
147
1.0
  0
MATERIAL
  5
27A
102
{ACAD_XDICTIONARY
360
27B
102
}
102
{ACAD_REACTORS
330
279
102
}
330
279
100
AcDbMaterial
  1
ByLayer
 72
     0
 43
0.0208333333333333
 43
0.0
 43
0.0
 43
0.0
 43
0.0
 43
0.0208333333333333
 43
0.0
 43
0.0
 43
0.0
 43
0.0
 43
1.0
 43
0.0
 43
0.0
 43
0.0
 43
0.0
 43
1.0
 77
     0
 47
0.0208333333333333
 47
0.0
 47
0.0
 47
0.0
 47
0.0
 47
0.0208333333333333
 47
0.0
 47
0.0
 47
0.0
 47
0.0
 47
1.0
 47
0.0
 47
0.0
 47
0.0
 47
0.0
 47
1.0
171
     0
 49
0.0208333333333333
 49
0.0
 49
0.0
 49
0.0
 49
0.0
 49
0.0208333333333333
 49
0.0
 49
0.0
 49
0.0
 49
0.0
 49
1.0
 49
0.0
 49
0.0
 49
0.0
 49
0.0
 49
1.0
175
     0
142
0.0208333333333333
142
0.0
142
0.0
142
0.0
142
0.0
142
0.0208333333333333
142
0.0
142
0.0
142
0.0
142
0.0
142
1.0
142
0.0
142
0.0
142
0.0
142
0.0
142
1.0
179
     0
144
0.0208333333333333
144
0.0
144
0.0
144
0.0
144
0.0
144
0.0208333333333333
144
0.0
144
0.0
144
0.0
144
0.0
144
1.0
144
0.0
144
0.0
144
0.0
144
0.0
144
1.0
147
0.0208333333333333
147
0.0
147
0.0
147
0.0
147
0.0
147
0.0208333333333333
147
0.0
147
0.0
147
0.0
147
0.0
147
1.0
147
0.0
147
0.0
147
0.0
147
0.0
147
1.0
  0
MATERIAL
  5
28A
102
{ACAD_XDICTIONARY
360
28B
102
}
102
{ACAD_REACTORS
330
279
102
}
330
279
100
AcDbMaterial
  1
Global
 72
     0
 43
0.0208333333333333
 43
0.0
 43
0.0
 43
0.0
 43
0.0
 43
0.0208333333333333
 43
0.0
 43
0.0
 43
0.0
 43
0.0
 43
1.0
 43
0.0
 43
0.0
 43
0.0
 43
0.0
 43
1.0
 77
     0
 47
0.0208333333333333
 47
0.0
 47
0.0
 47
0.0
 47
0.0
 47
0.0208333333333333
 47
0.0
 47
0.0
 47
0.0
 47
0.0
 47
1.0
 47
0.0
 47
0.0
 47
0.0
 47
0.0
 47
1.0
171
     0
 49
0.0208333333333333
 49
0.0
 49
0.0
 49
0.0
 49
0.0
 49
0.0208333333333333
 49
0.0
 49
0.0
 49
0.0
 49
0.0
 49
1.0
 49
0.0
 49
0.0
 49
0.0
 49
0.0
 49
1.0
175
     0
142
0.0208333333333333
142
0.0
142
0.0
142
0.0
142
0.0
142
0.0208333333333333
142
0.0
142
0.0
142
0.0
142
0.0
142
1.0
142
0.0
142
0.0
142
0.0
142
0.0
142
1.0
179
     0
144
0.0208333333333333
144
0.0
144
0.0
144
0.0
144
0.0
144
0.0208333333333333
144
0.0
144
0.0
144
0.0
144
0.0
144
1.0
144
0.0
144
0.0
144
0.0
144
0.0
144
1.0
147
0.0208333333333333
147
0.0
147
0.0
147
0.0
147
0.0
147
0.0208333333333333
147
0.0
147
0.0
147
0.0
147
0.0
147
1.0
147
0.0
147
0.0
147
0.0
147
0.0
147
1.0
  0
MLEADERSTYLE
  5
2CF
102
{ACAD_REACTORS
330
2CE
102
}
330
2CE
100
AcDbMLeaderStyle
170
     2
171
     1
172
     0
 90
        2
 40
0.0
 41
0.0
173
     1
 91
-1056964608
340
2C3
 92
       -2
290
     1
 42
0.09
291
     1
 43
0.36
  3
Standard
 44
0.18
300

342
2BE
174
     1
178
     6
175
     1
176
     0
 93
-1056964608
 45
0.18
292
     0
297
     0
 46
0.18
 94
-1056964608
 47
1.0
 49
1.0
140
1.0
293
     1
141
0.0
294
     1
177
     0
142
1.0
295
     0
296
     0
143
0.125
1001
ACAD_MLEADERVER
1070
     2
  0
MLINESTYLE
  5
2C8
102
{ACAD_REACTORS
330
2C7
102
}
330
2C7
100
AcDbMlineStyle
  2
STANDARD
 70
     0
  3

 62
   256
 51
90.0
 52
90.0
 71
     2
 49
0.5
 62
   256
  6
BYLAYER
 49
-0.5
 62
   256
  6
BYLAYER
  0
ACDBPLACEHOLDER
  5
278
102
{ACAD_REACTORS
330
277
102
}
330
277
  0
SCALE
  5
2AC
102
{ACAD_REACTORS
330
2AB
102
}
330
2AB
100
AcDbScale
 70
     0
300
1:1
140
1.0
141
1.0
290
     1
  0
SCALE
  5
2AD
102
{ACAD_REACTORS
330
2AB
102
}
330
2AB
100
AcDbScale
 70
     0
300
1/128" = 1'-0"
140
0.0078125
141
12.0
290
     0
  0
SCALE
  5
2AE
102
{ACAD_REACTORS
330
2AB
102
}
330
2AB
100
AcDbScale
 70
     0
300
1/64" = 1'-0"
140
0.015625
141
12.0
290
     0
  0
SCALE
  5
2AF
102
{ACAD_REACTORS
330
2AB
102
}
330
2AB
100
AcDbScale
 70
     0
300
1/32" = 1'-0"
140
0.03125
141
12.0
290
     0
  0
SCALE
  5
2B0
102
{ACAD_REACTORS
330
2AB
102
}
330
2AB
100
AcDbScale
 70
     0
300
1/16" = 1'-0"
140
0.0625
141
12.0
290
     0
  0
SCALE
  5
2B1
102
{ACAD_REACTORS
330
2AB
102
}
330
2AB
100
AcDbScale
 70
     0
300
3/32" = 1'-0"
140
0.09375
141
12.0
290
     0
  0
SCALE
  5
2B2
102
{ACAD_REACTORS
330
2AB
102
}
330
2AB
100
AcDbScale
 70
     0
300
1/8" = 1'-0"
140
0.125
141
12.0
290
     0
  0
SCALE
  5
2B3
102
{ACAD_REACTORS
330
2AB
102
}
330
2AB
100
AcDbScale
 70
     0
300
3/16" = 1'-0"
140
0.1875
141
12.0
290
     0
  0
SCALE
  5
2B4
102
{ACAD_REACTORS
330
2AB
102
}
330
2AB
100
AcDbScale
 70
     0
300
1/4" = 1'-0"
140
0.25
141
12.0
290
     0
  0
SCALE
  5
2B5
102
{ACAD_REACTORS
330
2AB
102
}
330
2AB
100
AcDbScale
 70
     0
300
3/8" = 1'-0"
140
0.375
141
12.0
290
     0
  0
SCALE
  5
2B6
102
{ACAD_REACTORS
330
2AB
102
}
330
2AB
100
AcDbScale
 70
     0
300
1/2" = 1'-0"
140
0.5
141
12.0
290
     0
  0
SCALE
  5
2B7
102
{ACAD_REACTORS
330
2AB
102
}
330
2AB
100
AcDbScale
 70
     0
300
3/4" = 1'-0"
140
0.75
141
12.0
290
     0
  0
SCALE
  5
2B8
102
{ACAD_REACTORS
330
2AB
102
}
330
2AB
100
AcDbScale
 70
     0
300
1" = 1'-0"
140
1.0
141
12.0
290
     0
  0
SCALE
  5
2B9
102
{ACAD_REACTORS
330
2AB
102
}
330
2AB
100
AcDbScale
 70
     0
300
1-1/2" = 1'-0"
140
1.5
141
12.0
290
     0
  0
SCALE
  5
2BA
102
{ACAD_REACTORS
330
2AB
102
}
330
2AB
100
AcDbScale
 70
     0
300
3" = 1'-0"
140
3.0
141
12.0
290
     0
  0
SCALE
  5
2BB
102
{ACAD_REACTORS
330
2AB
102
}
330
2AB
100
AcDbScale
 70
     0
300
6" = 1'-0"
140
6.0
141
12.0
290
     0
  0
SCALE
  5
2BC
102
{ACAD_REACTORS
330
2AB
102
}
330
2AB
100
AcDbScale
 70
     0
300
1'-0" = 1'-0"
140
12.0
141
12.0
290
     0
  0
ACDBSECTIONVIEWSTYLE
  5
2D1
102
{ACAD_XDICTIONARY
360
340
102
}
102
{ACAD_REACTORS
330
2D0
102
}
330
2D0
100
AcDbModelDocViewStyle
 70
     0
  3
Imperial24
290
     0
100
AcDbSectionViewStyle
 70
     0
 71
     0
 90
       78
 71
     1
340
2BE
 40
0.24
340
0
340
0
 40
0.24
300
I, O, Q, S, X, Z
 40
0.48
 90
        3
 40
0.18
 90
        1
 71
     2
340
2C5
 90
       25
340
2C5
 90
       50
 40
0.24
 40
0.0
 40
0.24
 71
     3
340
2BE
 40
0.24
 90
        1
 40
0.75
 90
        1
300
%<\AcVar ViewType \f "%tc1">% %<\AcVar ViewSectionStartId>%-%<\AcVar ViewSectionEndId>%\PSCALE %<\AcVar ViewScale \f "%sn">%
 71
     4
300
ANSI31
 40
1.0
 90
        0
290
     0
290
     0
 90
        6
 40
0.0
 40
1.570796326794896
 40
0.2617993877991494
 40
1.308996938995747
 40
-0.2617993877991494
 40
1.832595714594046
  0
TABLESTYLE
  5
2CD
102
{ACAD_XDICTIONARY
360
307
102
}
102
{ACAD_REACTORS
330
2CC
102
}
330
2CC
100
AcDbTableStyle
  3
Standard
 70
     0
 71
     0
 40
0.06
 41
0.06
280
     0
281
     0
  7
STANDARD
140
0.18
170
     2
 62
     0
 63
     7
283
     0
274
    -2
284
     1
 64
     0
275
    -2
285
     1
 65
     0
276
    -2
286
     1
 66
     0
277
    -2
287
     1
 67
     0
278
    -2
288
     1
 68
     0
279
    -2
289
     1
 69
     0
  7
STANDARD
140
0.25
170
     5
 62
     0
 63
     7
283
     0
274
    -2
284
     1
 64
     0
275
    -2
285
     1
 65
     0
276
    -2
286
     1
 66
     0
277
    -2
287
     1
 67
     0
278
    -2
288
     1
 68
     0
279
    -2
289
     1
 69
     0
  7
STANDARD
140
0.18
170
     5
 62
     0
 63
     7
283
     0
274
    -2
284
     1
 64
     0
275
    -2
285
     1
 65
     0
276
    -2
286
     1
 66
     0
277
    -2
287
     1
 67
     0
278
    -2
288
     1
 68
     0
279
    -2
289
     1
 69
     0
  0
VISUALSTYLE
  5
298
102
{ACAD_XDICTIONARY
360
318
102
}
102
{ACAD_REACTORS
330
292
102
}
330
292
100
AcDbVisualStyle
  2
2dWireframe
 70
     4
 71
     0
 72
     2
 73
     0
 90
        0
 40
-0.6
 41
-30.0
 62
     5
 63
     7
 74
     1
 91
        4
 64
     7
 65
   257
 75
     1
175
     1
 42
1.0
 92
        0
 66
   257
 43
1.0
 76
     1
 77
     6
 78
     2
 67
     7
 79
     5
170
     0
171
     0
290
     0
174
     0
 93
        1
 44
0.0
173
     0
291
     0
 45
0.0
1001
ACAD
1000
AcDbSavedByObjectVersion
1070
     0
  0
VISUALSTYLE
  5
297
102
{ACAD_XDICTIONARY
360
316
102
}
102
{ACAD_REACTORS
330
292
102
}
330
292
100
AcDbVisualStyle
  2
Basic
 70
     7
 71
     1
 72
     0
 73
     1
 90
        0
 40
-0.6
 41
-30.0
 62
     5
 63
     7
 74
     0
 91
        4
 64
     7
 65
   257
 75
     1
175
     1
 42
1.0
 92
        8
 66
     7
 43
1.0
 76
     1
 77
     6
 78
     2
 67
     7
 79
     5
170
     0
171
     0
290
     0
174
     0
 93
        1
 44
0.0
173
     0
291
     1
 45
0.0
1001
ACAD
1000
AcDbSavedByObjectVersion
1070
     0
  0
VISUALSTYLE
  5
29E
102
{ACAD_XDICTIONARY
360
324
102
}
102
{ACAD_REACTORS
330
292
102
}
330
292
100
AcDbVisualStyle
  2
Brighten
 70
    12
 71
     2
 72
     2
 73
     0
 90
        0
 40
-0.6
 41
-30.0
 62
     5
 63
     7
 74
     1
 91
        4
 64
     7
 65
   257
 75
     1
175
     1
 42
1.0
 92
        8
 66
     7
 43
1.0
 76
     1
 77
     6
 78
     2
 67
     7
 79
     5
170
     0
171
     0
290
     0
174
     0
 93
        1
 44
50.0
173
     0
291
     1
 45
0.0
1001
ACAD
1000
AcDbSavedByObjectVersion
1070
     0
  0
VISUALSTYLE
  5
2A2
102
{ACAD_XDICTIONARY
360
32C
102
}
102
{ACAD_REACTORS
330
292
102
}
330
292
100
AcDbVisualStyle
  2
ColorChange
 70
    16
 71
     2
 72
     2
 73
     3
 90
        0
 40
-0.6
 41
-30.0
 62
     5
 63
     8
 74
     1
 91
        4
 64
     7
 65
   257
 75
     1
175
     1
 42
1.0
 92
        8
 66
     8
 43
1.0
 76
     1
 77
     6
 78
     2
 67
     7
 79
     5
170
     0
171
     0
290
     0
174
     0
 93
        1
 44
0.0
173
     0
291
     1
 45
0.0
1001
ACAD
1000
AcDbSavedByObjectVersion
1070
     0
  0
VISUALSTYLE
  5
29B
102
{ACAD_XDICTIONARY
360
31E
102
}
102
{ACAD_REACTORS
330
292
102
}
330
292
100
AcDbVisualStyle
  2
Conceptual
 70
     9
 71
     3
 72
     2
 73
     0
 90
        0
 40
-0.6
 41
-30.0
 62
     5
 63
     7
 74
     2
 91
        2
 64
     7
 65
   257
 75
     1
175
     1
 42
179.0
 92
        8
 66
     7
 43
1.0
 76
     1
 77
     6
 78
     2
 67
     7
 79
     3
170
     0
171
     0
290
     0
174
     0
 93
        1
 44
0.0
173
     0
291
     0
 45
0.0
1001
ACAD
1000
AcDbSavedByObjectVersion
1070
     0
  0
VISUALSTYLE
  5
29D
102
{ACAD_XDICTIONARY
360
322
102
}
102
{ACAD_REACTORS
330
292
102
}
330
292
100
AcDbVisualStyle
  2
Dim
 70
    11
 71
     2
 72
     2
 73
     0
 90
        0
 40
-0.6
 41
-30.0
 62
     5
 63
     7
 74
     1
 91
        4
 64
     7
 65
   257
 75
     1
175
     1
 42
1.0
 92
        8
 66
     7
 43
1.0
 76
     1
 77
     6
 78
     2
 67
     7
 79
     5
170
     0
171
     0
290
     0
174
     0
 93
        1
 44
-50.0
173
     0
291
     1
 45
0.0
1001
ACAD
1000
AcDbSavedByObjectVersion
1070
     0
  0
VISUALSTYLE
  5
2AA
102
{ACAD_XDICTIONARY
360
33C
102
}
102
{ACAD_REACTORS
330
292
102
}
330
292
100
AcDbVisualStyle
  2
EdgeColorOff
 70
    22
 71
     2
 72
     2
 73
     0
 90
        0
 40
-0.6
 41
-30.0
 62
     5
 63
     7
 74
     1
 91
        4
 64
     7
 65
   257
 75
     1
175
     1
 42
1.0
 92
        8
 66
     7
 43
1.0
 76
     1
 77
     6
 78
     2
 67
     7
 79
     5
170
     0
171
     0
290
     0
174
     0
 93
        1
 44
0.0
173
     0
291
     1
 45
0.0
1001
ACAD
1000
AcDbSavedByObjectVersion
1070
     0
  0
VISUALSTYLE
  5
2A1
102
{ACAD_XDICTIONARY
360
32A
102
}
102
{ACAD_REACTORS
330
292
102
}
330
292
100
AcDbVisualStyle
  2
Facepattern
 70
    15
 71
     2
 72
     2
 73
     0
 90
        0
 40
-0.6
 41
-30.0
 62
     5
 63
     7
 74
     1
 91
        4
 64
     7
 65
   257
 75
     1
175
     1
 42
1.0
 92
        8
 66
     7
 43
1.0
 76
     1
 77
     6
 78
     2
 67
     7
 79
     5
170
     0
171
     0
290
     0
174
     0
 93
        1
 44
0.0
173
     0
291
     1
 45
0.0
1001
ACAD
1000
AcDbSavedByObjectVersion
1070
     0
  0
VISUALSTYLE
  5
293
102
{ACAD_XDICTIONARY
360
30E
102
}
102
{ACAD_REACTORS
330
292
102
}
330
292
100
AcDbVisualStyle
  2
Flat
 70
     0
 71
     2
 72
     1
 73
     1
 90
        2
 40
-0.6
 41
30.0
 62
     5
 63
     7
 74
     0
 91
        0
 64
     7
 65
   257
 75
     1
175
     1
 42
1.0
 92
        8
 66
     7
 43
1.0
 76
     1
 77
     6
 78
     2
 67
     7
 79
     5
170
     0
171
     0
290
     0
174
     0
 93
       13
 44
0.0
173
     0
291
     1
 45
0.0
1001
ACAD
1000
AcDbSavedByObjectVersion
1070
     0
  0
VISUALSTYLE
  5
294
102
{ACAD_XDICTIONARY
360
310
102
}
102
{ACAD_REACTORS
330
292
102
}
330
292
100
AcDbVisualStyle
  2
FlatWithEdges
 70
     1
 71
     2
 72
     1
 73
     1
 90
        2
 40
-0.6
 41
30.0
 62
     5
 63
     7
 74
     1
 91
        0
 64
     7
 65
   257
 75
     1
175
     1
 42
1.0
 92
        0
 66
   257
 43
1.0
 76
     1
 77
     6
 78
     2
 67
     7
 79
     5
170
     0
171
     0
290
     0
174
     0
 93
       13
 44
0.0
173
     0
291
     1
 45
0.0
1001
ACAD
1000
AcDbSavedByObjectVersion
1070
     0
  0
VISUALSTYLE
  5
295
102
{ACAD_XDICTIONARY
360
312
102
}
102
{ACAD_REACTORS
330
292
102
}
330
292
100
AcDbVisualStyle
  2
Gouraud
 70
     2
 71
     2
 72
     2
 73
     1
 90
        2
 40
-0.6
 41
30.0
 62
     5
 63
     7
 74
     0
 91
        0
 64
     7
 65
   257
 75
     1
175
     1
 42
1.0
 92
        0
 66
     7
 43
1.0
 76
     1
 77
     6
 78
     2
 67
     7
 79
     5
170
     0
171
     0
290
     0
174
     0
 93
       13
 44
0.0
173
     0
291
     1
 45
0.0
1001
ACAD
1000
AcDbSavedByObjectVersion
1070
     0
  0
VISUALSTYLE
  5
296
102
{ACAD_XDICTIONARY
360
314
102
}
102
{ACAD_REACTORS
330
292
102
}
330
292
100
AcDbVisualStyle
  2
GouraudWithEdges
 70
     3
 71
     2
 72
     2
 73
     1
 90
        2
 40
-0.6
 41
30.0
 62
     5
 63
     7
 74
     1
 91
        0
 64
     7
 65
   257
 75
     1
175
     1
 42
1.0
 92
        0
 66
   257
 43
1.0
 76
     1
 77
     6
 78
     2
 67
     7
 79
     5
170
     0
171
     0
290
     0
174
     0
 93
       13
 44
0.0
173
     0
291
     1
 45
0.0
1001
ACAD
1000
AcDbSavedByObjectVersion
1070
     0
  0
VISUALSTYLE
  5
29A
102
{ACAD_XDICTIONARY
360
31C
102
}
102
{ACAD_REACTORS
330
292
102
}
330
292
100
AcDbVisualStyle
  2
Hidden
 70
     6
 71
     1
 72
     2
 73
     2
 90
        0
 40
-0.6
 41
-30.0
 62
     5
 63
     7
 74
     2
 91
        2
 64
     7
 65
   257
 75
     2
175
     1
 42
40.0
 92
        0
 66
   257
 43
1.0
 76
     1
 77
     6
 78
     2
 67
     7
 79
     3
170
     0
171
     0
290
     0
174
     0
 93
        1
 44
0.0
173
     0
291
     0
 45
0.0
1001
ACAD
1000
AcDbSavedByObjectVersion
1070
     0
  0
VISUALSTYLE
  5
2A8
102
{ACAD_XDICTIONARY
360
338
102
}
102
{ACAD_REACTORS
330
292
102
}
330
292
100
AcDbVisualStyle
  2
JitterOff
 70
    20
 71
     2
 72
     2
 73
     0
 90
        0
 40
-0.6
 41
-30.0
 62
     5
 63
     7
 74
     1
 91
        4
 64
     7
 65
   257
 75
     1
175
     1
 42
1.0
 92
       10
 66
     7
 43
1.0
 76
     1
 77
     6
 78
     2
 67
     7
 79
     5
170
     0
171
     0
290
     0
174
     0
 93
        1
 44
0.0
173
     0
291
     1
 45
0.0
1001
ACAD
1000
AcDbSavedByObjectVersion
1070
     0
  0
VISUALSTYLE
  5
2A0
102
{ACAD_XDICTIONARY
360
328
102
}
102
{ACAD_REACTORS
330
292
102
}
330
292
100
AcDbVisualStyle
  2
Linepattern
 70
    14
 71
     2
 72
     2
 73
     0
 90
        0
 40
-0.6
 41
-30.0
 62
     5
 63
     7
 74
     1
 91
        4
 64
     7
 65
   257
 75
     7
175
     7
 42
1.0
 92
        8
 66
     7
 43
1.0
 76
     1
 77
     6
 78
     2
 67
     7
 79
     5
170
     0
171
     0
290
     0
174
     0
 93
        1
 44
0.0
173
     0
291
     1
 45
0.0
1001
ACAD
1000
AcDbSavedByObjectVersion
1070
     0
  0
VISUALSTYLE
  5
2A9
102
{ACAD_XDICTIONARY
360
33A
102
}
102
{ACAD_REACTORS
330
292
102
}
330
292
100
AcDbVisualStyle
  2
OverhangOff
 70
    21
 71
     2
 72
     2
 73
     0
 90
        0
 40
-0.6
 41
-30.0
 62
     5
 63
     7
 74
     1
 91
        4
 64
     7
 65
   257
 75
     1
175
     1
 42
1.0
 92
        9
 66
     7
 43
1.0
 76
     1
 77
     6
 78
     2
 67
     7
 79
     5
170
     0
171
     0
290
     0
174
     0
 93
        1
 44
0.0
173
     0
291
     1
 45
0.0
1001
ACAD
1000
AcDbSavedByObjectVersion
1070
     0
  0
VISUALSTYLE
  5
29C
102
{ACAD_XDICTIONARY
360
320
102
}
102
{ACAD_REACTORS
330
292
102
}
330
292
100
AcDbVisualStyle
  2
Realistic
 70
     8
 71
     2
 72
     3
 73
     0
 90
        2
 40
-0.6
 41
30.0
 62
     5
 63
     7
 74
     0
 91
        0
 64
     7
 65
   257
 75
     1
175
     1
 42
1.0
 92
        8
 66
   257
 43
1.0
 76
     1
 77
     6
 78
     2
 67
     7
 79
     3
170
     0
171
     0
290
     0
174
     0
 93
       13
 44
0.0
173
     0
291
     0
 45
0.0
1001
ACAD
1000
AcDbSavedByObjectVersion
1070
     0
  0
VISUALSTYLE
  5
2A7
102
{ACAD_XDICTIONARY
360
336
102
}
102
{ACAD_REACTORS
330
292
102
}
330
292
100
AcDbVisualStyle
  2
Shaded
 70
    27
 71
     2
 72
     2
 73
     1
 90
        2
 40
-0.6
 41
30.0
 62
     5
 63
     7
 74
     0
 91
        4
 64
     7
 65
   257
 75
     1
175
     1
 42
1.0
 92
        8
 66
   257
 43
1.0
 76
     1
 77
     6
 78
     2
 67
     8
 79
     3
170
     0
171
     0
290
     0
174
     0
 93
        5
 44
0.0
173
     0
291
     0
 45
0.0
1001
ACAD
1000
AcDbSavedByObjectVersion
1070
     0
  0
VISUALSTYLE
  5
2A6
102
{ACAD_XDICTIONARY
360
334
102
}
102
{ACAD_REACTORS
330
292
102
}
330
292
100
AcDbVisualStyle
  2
Shaded with edges
 70
    26
 71
     2
 72
     2
 73
     1
 90
        2
 40
-0.6
 41
30.0
 62
     5
 63
     7
 74
     1
 91
       10
 64
     7
 65
   257
 75
     2
175
     1
 42
1.0
 92
        8
 66
   257
 43
1.0
 76
     1
 77
     6
 78
     2
 67
     7
 79
     3
170
     0
171
     0
290
     0
174
     0
 93
        5
 44
0.0
173
     0
291
     0
 45
0.0
1001
ACAD
1000
AcDbSavedByObjectVersion
1070
     0
  0
VISUALSTYLE
  5
2A3
102
{ACAD_XDICTIONARY
360
32E
102
}
102
{ACAD_REACTORS
330
292
102
}
330
292
100
AcDbVisualStyle
  2
Shades of Gray
 70
    23
 71
     2
 72
     2
 73
     3
 90
        0
 40
-0.6
 41
-30.0
 62
     5
 63
     7
 74
     2
 91
        2
 64
     7
 65
     7
 75
     1
175
     1
 42
40.0
 92
        8
 66
     7
 43
1.0
 76
     1
 77
     6
 78
     2
 67
     7
 79
     3
170
     0
171
     0
290
     0
174
     0
 93
        1
 44
0.0
173
     0
291
     0
 45
0.0
1001
ACAD
1000
AcDbSavedByObjectVersion
1070
     0
  0
VISUALSTYLE
  5
2A4
102
{ACAD_XDICTIONARY
360
330
102
}
102
{ACAD_REACTORS
330
292
102
}
330
292
100
AcDbVisualStyle
  2
Sketchy
 70
    24
 71
     1
 72
     2
 73
     2
 90
        0
 40
-0.6
 41
-30.0
 62
     5
 63
     7
 74
     2
 91
        2
 64
     7
 65
     7
 75
     1
175
     1
 42
40.0
 92
       11
 66
     7
 43
1.0
 76
     1
 77
     6
 78
     2
 67
     7
 79
     6
170
     0
171
     0
290
     0
174
     0
 93
        1
 44
0.0
173
     0
291
     0
 45
0.0
1001
ACAD
1000
AcDbSavedByObjectVersion
1070
     0
  0
VISUALSTYLE
  5
29F
102
{ACAD_XDICTIONARY
360
326
102
}
102
{ACAD_REACTORS
330
292
102
}
330
292
100
AcDbVisualStyle
  2
Thicken
 70
    13
 71
     2
 72
     2
 73
     0
 90
        0
 40
-0.6
 41
-30.0
 62
     5
 63
     7
 74
     1
 91
        4
 64
     7
 65
   257
 75
     1
175
     1
 42
1.0
 92
       12
 66
     7
 43
1.0
 76
     1
 77
     6
 78
     2
 67
     7
 79
     5
170
     0
171
     0
290
     0
174
     0
 93
        1
 44
0.0
173
     0
291
     1
 45
0.0
1001
ACAD
1000
AcDbSavedByObjectVersion
1070
     0
  0
VISUALSTYLE
  5
299
102
{ACAD_XDICTIONARY
360
31A
102
}
102
{ACAD_REACTORS
330
292
102
}
330
292
100
AcDbVisualStyle
  2
Wireframe
 70
     5
 71
     0
 72
     2
 73
     0
 90
        0
 40
-0.6
 41
-30.0
 62
     5
 63
     7
 74
     1
 91
        4
 64
     7
 65
   257
 75
     1
175
     1
 42
1.0
 92
        0
 66
   257
 43
1.0
 76
     1
 77
     6
 78
     2
 67
     7
 79
     3
170
     0
171
     0
290
     0
174
     0
 93
        1
 44
0.0
173
     0
291
     0
 45
0.0
1001
ACAD
1000
AcDbSavedByObjectVersion
1070
     0
  0
VISUALSTYLE
  5
2A5
102
{ACAD_XDICTIONARY
360
332
102
}
102
{ACAD_REACTORS
330
292
102
}
330
292
100
AcDbVisualStyle
  2
X-Ray
 70
    25
 71
     2
 72
     2
 73
     1
 90
        1
 40
0.5
 41
-30.0
 62
     5
 63
     7
 74
     1
 91
        0
 64
     7
 65
   257
 75
     1
175
     1
 42
1.0
 92
        8
 66
     7
 43
1.0
 76
     1
 77
     6
 78
     2
 67
     7
 79
     3
170
     0
171
     0
290
     0
174
     0
 93
       13
 44
0.0
173
     0
291
     0
 45
0.0
1001
ACAD
1000
AcDbSavedByObjectVersion
1070
     0
  0
DICTIONARYVAR
  5
301
102
{ACAD_REACTORS
330
2FC
102
}
330
2FC
100
DictionaryVariables
280
     0
  1
1:1
  0
DICTIONARYVAR
  5
2FE
102
{ACAD_REACTORS
330
2FC
102
}
330
2FC
100
DictionaryVariables
280
     0
  1
STANDARD
  0
DICTIONARYVAR
  5
2FD
102
{ACAD_REACTORS
330
2FC
102
}
330
2FC
100
DictionaryVariables
280
     0
  1
STANDARD
  0
DICTIONARYVAR
  5
2FF
102
{ACAD_REACTORS
330
2FC
102
}
330
2FC
100
DictionaryVariables
280
     0
  1
Imperial24
  0
DICTIONARYVAR
  5
300
102
{ACAD_REACTORS
330
2FC
102
}
330
2FC
100
DictionaryVariables
280
     0
  1
Imperial24
  0
DICTIONARYVAR
  5
304
102
{ACAD_REACTORS
330
2FC
102
}
330
2FC
100
DictionaryVariables
280
     0
  1
1
  0
DICTIONARYVAR
  5
303
102
{ACAD_REACTORS
330
2FC
102
}
330
2FC
100
DictionaryVariables
280
     0
  1
0
  0
DICTIONARYVAR
  5
302
102
{ACAD_REACTORS
330
2FC
102
}
330
2FC
100
DictionaryVariables
280
     0
  1
127
  0
DICTIONARYVAR
  5
305
102
{ACAD_REACTORS
330
2FC
102
}
330
2FC
100
DictionaryVariables
280
     0
  1
2
  0
DICTIONARY
  5
342
330
2D3
100
AcDbDictionary
280
     1
281
     1
  3
ACAD_XREC_ROUNDTRIP
360
343
  0
DICTIONARY
  5
346
330
2DB
100
AcDbDictionary
280
     1
281
     1
  3
ACAD_XREC_ROUNDTRIP
360
347
  0
DICTIONARY
  5
344
330
2D7
100
AcDbDictionary
280
     1
281
     1
  3
ACAD_XREC_ROUNDTRIP
360
345
  0
DICTIONARY
  5
283
330
282
100
AcDbDictionary
280
     1
281
     1
  3
ACAD_XREC_ROUNDTRIP
360
30C
  3
BUMPTILE
360
285
  3
DIFFUSETILE
360
284
  3
OPACITYTILE
360
288
  3
REFLECTIONTILE
360
287
  3
REFRACTIONTILE
360
289
  3
SPECULARTILE
360
286
  0
DICTIONARY
  5
27B
330
27A
100
AcDbDictionary
280
     1
281
     1
  3
ACAD_XREC_ROUNDTRIP
360
30B
  3
BUMPTILE
360
27D
  3
DIFFUSETILE
360
27C
  3
OPACITYTILE
360
280
  3
REFLECTIONTILE
360
27F
  3
REFRACTIONTILE
360
281
  3
SPECULARTILE
360
27E
  0
DICTIONARY
  5
28B
330
28A
100
AcDbDictionary
280
     1
281
     1
  3
ACAD_XREC_ROUNDTRIP
360
30D
  3
BUMPTILE
360
28D
  3
DIFFUSETILE
360
28C
  3
OPACITYTILE
360
290
  3
REFLECTIONTILE
360
28F
  3
REFRACTIONTILE
360
291
  3
SPECULARTILE
360
28E
  0
DICTIONARY
  5
340
330
2D1
100
AcDbDictionary
280
     1
281
     1
  3
ACAD_XREC_ROUNDTRIP
360
341
  0
DICTIONARY
  5
307
330
2CD
100
AcDbDictionary
280
     1
281
     1
  3
ACAD_ROUNDTRIP_2008_TABLESTYLE_CELLSTYLEMAP
360
308
  3
ACAD_XREC_ROUNDTRIP
360
33E
  0
DICTIONARY
  5
318
330
298
100
AcDbDictionary
280
     1
281
     1
  3
ACAD_XREC_ROUNDTRIP
360
319
  0
DICTIONARY
  5
316
330
297
100
AcDbDictionary
280
     1
281
     1
  3
ACAD_XREC_ROUNDTRIP
360
317
  0
DICTIONARY
  5
324
330
29E
100
AcDbDictionary
280
     1
281
     1
  3
ACAD_XREC_ROUNDTRIP
360
325
  0
DICTIONARY
  5
32C
330
2A2
100
AcDbDictionary
280
     1
281
     1
  3
ACAD_XREC_ROUNDTRIP
360
32D
  0
DICTIONARY
  5
31E
330
29B
100
AcDbDictionary
280
     1
281
     1
  3
ACAD_XREC_ROUNDTRIP
360
31F
  0
DICTIONARY
  5
322
330
29D
100
AcDbDictionary
280
     1
281
     1
  3
ACAD_XREC_ROUNDTRIP
360
323
  0
DICTIONARY
  5
33C
330
2AA
100
AcDbDictionary
280
     1
281
     1
  3
ACAD_XREC_ROUNDTRIP
360
33D
  0
DICTIONARY
  5
32A
330
2A1
100
AcDbDictionary
280
     1
281
     1
  3
ACAD_XREC_ROUNDTRIP
360
32B
  0
DICTIONARY
  5
30E
330
293
100
AcDbDictionary
280
     1
281
     1
  3
ACAD_XREC_ROUNDTRIP
360
30F
  0
DICTIONARY
  5
310
330
294
100
AcDbDictionary
280
     1
281
     1
  3
ACAD_XREC_ROUNDTRIP
360
311
  0
DICTIONARY
  5
312
330
295
100
AcDbDictionary
280
     1
281
     1
  3
ACAD_XREC_ROUNDTRIP
360
313
  0
DICTIONARY
  5
314
330
296
100
AcDbDictionary
280
     1
281
     1
  3
ACAD_XREC_ROUNDTRIP
360
315
  0
DICTIONARY
  5
31C
330
29A
100
AcDbDictionary
280
     1
281
     1
  3
ACAD_XREC_ROUNDTRIP
360
31D
  0
DICTIONARY
  5
338
330
2A8
100
AcDbDictionary
280
     1
281
     1
  3
ACAD_XREC_ROUNDTRIP
360
339
  0
DICTIONARY
  5
328
330
2A0
100
AcDbDictionary
280
     1
281
     1
  3
ACAD_XREC_ROUNDTRIP
360
329
  0
DICTIONARY
  5
33A
330
2A9
100
AcDbDictionary
280
     1
281
     1
  3
ACAD_XREC_ROUNDTRIP
360
33B
  0
DICTIONARY
  5
320
330
29C
100
AcDbDictionary
280
     1
281
     1
  3
ACAD_XREC_ROUNDTRIP
360
321
  0
DICTIONARY
  5
336
330
2A7
100
AcDbDictionary
280
     1
281
     1
  3
ACAD_XREC_ROUNDTRIP
360
337
  0
DICTIONARY
  5
334
330
2A6
100
AcDbDictionary
280
     1
281
     1
  3
ACAD_XREC_ROUNDTRIP
360
335
  0
DICTIONARY
  5
32E
330
2A3
100
AcDbDictionary
280
     1
281
     1
  3
ACAD_XREC_ROUNDTRIP
360
32F
  0
DICTIONARY
  5
330
330
2A4
100
AcDbDictionary
280
     1
281
     1
  3
ACAD_XREC_ROUNDTRIP
360
331
  0
DICTIONARY
  5
326
330
29F
100
AcDbDictionary
280
     1
281
     1
  3
ACAD_XREC_ROUNDTRIP
360
327
  0
DICTIONARY
  5
31A
330
299
100
AcDbDictionary
280
     1
281
     1
  3
ACAD_XREC_ROUNDTRIP
360
31B
  0
DICTIONARY
  5
332
330
2A5
100
AcDbDictionary
280
     1
281
     1
  3
ACAD_XREC_ROUNDTRIP
360
333
  0
XRECORD
  5
343
102
{ACAD_REACTORS
330
342
102
}
330
342
100
AcDbXrecord
280
     1
102
DISPLAYNAME
  1
Imperial24
102
FLAGS
 90
        0
  0
XRECORD
  5
347
102
{ACAD_REACTORS
330
346
102
}
330
346
100
AcDbXrecord
280
     1
102
SHADEPLOT
 70
     0
102
SHADEPLOTRESLEVEL
 70
     2
102
SHADEPLOTCUSTOMDPI
 70
   300
  0
XRECORD
  5
345
102
{ACAD_REACTORS
330
344
102
}
330
344
100
AcDbXrecord
280
     1
102
SHADEPLOT
 70
     0
102
SHADEPLOTRESLEVEL
 70
     2
102
SHADEPLOTCUSTOMDPI
 70
   300
  0
XRECORD
  5
30C
102
{ACAD_REACTORS
330
283
102
}
330
283
100
AcDbXrecord
280
     1
102
MATERIAL
148
0.0
149
0.0
149
0.0
 93
        0
 94
      127
282
     0
 72
     0
 77
     0
171
     0
175
     0
179
     0
273
     0
  0
XRECORD
  5
285
102
{ACAD_REACTORS
330
283
102
}
330
283
100
AcDbXrecord
280
     1
270
     1
271
     1
  0
XRECORD
  5
284
102
{ACAD_REACTORS
330
283
102
}
330
283
100
AcDbXrecord
280
     1
270
     1
271
     1
  0
XRECORD
  5
288
102
{ACAD_REACTORS
330
283
102
}
330
283
100
AcDbXrecord
280
     1
270
     1
271
     1
  0
XRECORD
  5
287
102
{ACAD_REACTORS
330
283
102
}
330
283
100
AcDbXrecord
280
     1
270
     1
271
     1
  0
XRECORD
  5
289
102
{ACAD_REACTORS
330
283
102
}
330
283
100
AcDbXrecord
280
     1
270
     1
271
     1
  0
XRECORD
  5
286
102
{ACAD_REACTORS
330
283
102
}
330
283
100
AcDbXrecord
280
     1
270
     1
271
     1
  0
XRECORD
  5
30B
102
{ACAD_REACTORS
330
27B
102
}
330
27B
100
AcDbXrecord
280
     1
102
MATERIAL
148
0.0
149
0.0
149
0.0
 93
        0
 94
      127
282
     0
 72
     0
 77
     0
171
     0
175
     0
179
     0
273
     0
  0
XRECORD
  5
27D
102
{ACAD_REACTORS
330
27B
102
}
330
27B
100
AcDbXrecord
280
     1
270
     1
271
     1
  0
XRECORD
  5
27C
102
{ACAD_REACTORS
330
27B
102
}
330
27B
100
AcDbXrecord
280
     1
270
     1
271
     1
  0
XRECORD
  5
280
102
{ACAD_REACTORS
330
27B
102
}
330
27B
100
AcDbXrecord
280
     1
270
     1
271
     1
  0
XRECORD
  5
27F
102
{ACAD_REACTORS
330
27B
102
}
330
27B
100
AcDbXrecord
280
     1
270
     1
271
     1
  0
XRECORD
  5
281
102
{ACAD_REACTORS
330
27B
102
}
330
27B
100
AcDbXrecord
280
     1
270
     1
271
     1
  0
XRECORD
  5
27E
102
{ACAD_REACTORS
330
27B
102
}
330
27B
100
AcDbXrecord
280
     1
270
     1
271
     1
  0
XRECORD
  5
30D
102
{ACAD_REACTORS
330
28B
102
}
330
28B
100
AcDbXrecord
280
     1
102
MATERIAL
148
0.0
149
0.0
149
0.0
 93
        0
 94
      127
282
     0
 72
     0
 77
     0
171
     0
175
     0
179
     0
273
     0
  0
XRECORD
  5
28D
102
{ACAD_REACTORS
330
28B
102
}
330
28B
100
AcDbXrecord
280
     1
270
     1
271
     1
  0
XRECORD
  5
28C
102
{ACAD_REACTORS
330
28B
102
}
330
28B
100
AcDbXrecord
280
     1
270
     1
271
     1
  0
XRECORD
  5
290
102
{ACAD_REACTORS
330
28B
102
}
330
28B
100
AcDbXrecord
280
     1
270
     1
271
     1
  0
XRECORD
  5
28F
102
{ACAD_REACTORS
330
28B
102
}
330
28B
100
AcDbXrecord
280
     1
270
     1
271
     1
  0
XRECORD
  5
291
102
{ACAD_REACTORS
330
28B
102
}
330
28B
100
AcDbXrecord
280
     1
270
     1
271
     1
  0
XRECORD
  5
28E
102
{ACAD_REACTORS
330
28B
102
}
330
28B
100
AcDbXrecord
280
     1
270
     1
271
     1
  0
XRECORD
  5
341
102
{ACAD_REACTORS
330
340
102
}
330
340
100
AcDbXrecord
280
     1
102
DISPLAYNAME
  1
Imperial24
102
FLAGS
 90
        0
  0
CELLSTYLEMAP
  5
308
102
{ACAD_REACTORS
330
307
102
}
330
307
100
AcDbCellStyleMap
 90
        3
300
CELLSTYLE
  1
TABLEFORMAT_BEGIN
 90
        5
170
     1
 91
        0
 92
    32768
 62
   257
 93
        1
300
CONTENTFORMAT
  1
CONTENTFORMAT_BEGIN
 90
        0
 91
        0
 92
      512
 93
        0
300

 40
0.0
140
1.0
 94
        5
 62
     0
340
2BE
144
0.25
309
CONTENTFORMAT_END
171
     0
 94
        0
309
TABLEFORMAT_END
  1
CELLSTYLE_BEGIN
 90
        1
 91
        1
300
_TITLE
309
CELLSTYLE_END
300
CELLSTYLE
  1
TABLEFORMAT_BEGIN
 90
        5
170
     1
 91
        0
 92
        0
 62
   257
 93
        1
300
CONTENTFORMAT
  1
CONTENTFORMAT_BEGIN
 90
        0
 91
        0
 92
      512
 93
        0
300

 40
0.0
140
1.0
 94
        5
 62
     0
340
2BE
144
0.18
309
CONTENTFORMAT_END
171
     0
 94
        0
309
TABLEFORMAT_END
  1
CELLSTYLE_BEGIN
 90
        2
 91
        1
300
_HEADER
309
CELLSTYLE_END
300
CELLSTYLE
  1
TABLEFORMAT_BEGIN
 90
        5
170
     1
 91
        0
 92
        0
 62
   257
 93
        1
300
CONTENTFORMAT
  1
CONTENTFORMAT_BEGIN
 90
        0
 91
        0
 92
      512
 93
        0
300

 40
0.0
140
1.0
 94
        2
 62
     0
340
2BE
144
0.18
309
CONTENTFORMAT_END
171
     0
 94
        0
309
TABLEFORMAT_END
  1
CELLSTYLE_BEGIN
 90
        3
 91
        2
300
_DATA
309
CELLSTYLE_END
  0
XRECORD
  5
33E
102
{ACAD_REACTORS
330
307
102
}
330
307
100
AcDbXrecord
280
     1
102
ACAD_ROUNDTRIP_PRE2007_TABLESTYLE
 90
      512
 91
        0
  1

 92
      512
 93
        0
  2

 94
      512
 95
        0
  3

  0
XRECORD
  5
319
102
{ACAD_REACTORS
330
318
102
}
330
318
100
AcDbXrecord
280
     1
102
RTVSPost2010Prop28
280
     1
102
RTVSPost2010PropOp28
 70
     1
102
RTVSPost2010Prop29
280
     1
102
RTVSPost2010PropOp29
 70
     1
102
RTVSPost2010Prop30
280
     0
102
RTVSPost2010PropOp30
 70
     1
102
RTVSPost2010Prop31
280
     0
102
RTVSPost2010PropOp31
 70
     1
102
RTVSPost2010Prop32
280
     0
102
RTVSPost2010PropOp32
 70
     1
102
RTVSPost2010Prop33
280
     0
102
RTVSPost2010PropOp33
 70
     1
102
RTVSPost2010Prop34
280
     0
102
RTVSPost2010PropOp34
 70
     1
102
RTVSPost2010Prop35
280
     0
102
RTVSPost2010PropOp35
 70
     1
102
RTVSPost2010Prop36
280
     0
102
RTVSPost2010PropOp36
 70
     1
102
RTVSPost2010Prop37
 90
       50
102
RTVSPost2010PropOp37
 70
     1
102
RTVSPost2010Prop38
140
0.0
102
RTVSPost2010PropOp38
 70
     1
102
RTVSPost2010Prop39
140
1.0
102
RTVSPost2010PropOp39
 70
     1
102
RTVSPost2010Prop40
 90
        0
102
RTVSPost2010PropOp40
 70
     1
102
RTVSPost2010Prop41ColorIndex
 90
       18
102
RTVSPost2010Prop41ColorRGB
 90
        0
102
RTVSPost2010PropOp41
 70
     1
102
RTVSPost2010Prop42
 90
       50
102
RTVSPost2010PropOp42
 70
     1
102
RTVSPost2010Prop43
 90
        3
102
RTVSPost2010PropOp43
 70
     1
102
RTVSPost2010Prop44ColorIndex
 90
        5
102
RTVSPost2010Prop44ColorRGB
 90
      255
102
RTVSPost2010PropOp44
 70
     1
102
RTVSPost2010Prop45
280
     0
102
RTVSPost2010PropOp45
 70
     1
102
RTVSPost2010Prop46
 90
       50
102
RTVSPost2010PropOp46
 70
     1
102
RTVSPost2010Prop47
 90
       50
102
RTVSPost2010PropOp47
 70
     1
102
RTVSPost2010Prop48
 90
       50
102
RTVSPost2010PropOp48
 70
     1
102
RTVSPost2010Prop49
280
     0
102
RTVSPost2010PropOp49
 70
     1
102
RTVSPost2010Prop50
 90
       50
102
RTVSPost2010PropOp50
 70
     1
102
RTVSPost2010Prop51ColorIndex
 90
      256
102
RTVSPost2010Prop51ColorRGB
 90
-16777216
102
RTVSPost2010PropOp51
 70
     0
102
RTVSPost2010Prop52
140
1.0
102
RTVSPost2010PropOp52
 70
     0
102
RTVSPost2010Prop53
 90
        2
102
RTVSPost2010PropOp53
 70
     1
102
RTVSPost2010Prop54
  1
strokes_ogs.tif
102
RTVSPost2010PropOp54
 70
     1
102
RTVSPost2010Prop55
280
     0
102
RTVSPost2010PropOp55
 70
     1
102
RTVSPost2010Prop56
140
1.0
102
RTVSPost2010PropOp56
 70
     1
102
RTVSPost2010Prop57
140
1.0
102
RTVSPost2010PropOp57
 70
     1
102
RTVSPropertyOp0
 70
     1
102
RTVSPropertyOp1
 70
     1
102
RTVSPropertyOp2
 70
     1
102
RTVSPropertyOp3
 70
     1
102
RTVSPropertyOp4
 70
     1
102
RTVSPropertyOp5
 70
     1
102
RTVSPropertyOp6
 70
     1
102
RTVSPropertyOp7
 70
     1
102
RTVSPropertyOp8
 70
     1
102
RTVSPropertyOp9
 70
     1
102
RTVSPropertyOp10
 70
     1
102
RTVSPropertyOp11
 70
     1
102
RTVSPropertyOp12
 70
     1
102
RTVSPropertyOp13
 70
     1
102
RTVSPropertyOp14
 70
     1
102
RTVSPropertyOp15
 70
     1
102
RTVSPropertyOp16
 70
     1
102
RTVSPropertyOp17
 70
     1
102
RTVSPropertyOp18
 70
     1
102
RTVSPropertyOp19
 70
     1
102
RTVSPropertyOp20
 70
     1
102
RTVSPropertyOp21
 70
     1
102
RTVSPropertyOp22
 70
     1
102
RTVSPropertyOp23
 70
     1
102
RTVSPropertyOp24
 70
     1
102
RTVSPropertyOp25
 70
     1
102
RTVSPropertyOp26
 70
     1
102
RTVSPropertyOp27
 70
     1
102
RTVSPropertyOp28
 70
     1
102
RTVSPropertyOp29
 70
     1
102
RTVSPropertyOp30
 70
     1
102
RTVSPropertyOp31
 70
     1
102
RTVSPropertyOp32
 70
     1
102
RTVSPropertyOp33
 70
     1
102
RTVSPropertyOp34
 70
     1
102
RTVSPropertyOp35
 70
     1
102
RTVSPropertyOp36
 70
     1
102
RTVSPropertyOp37
 70
     1
102
RTVSPropertyOp38
 70
     1
102
RTVSPropertyOp39
 70
     1
102
RTVSPropertyOp40
 70
     1
102
RTVSPropertyOp41
 70
     1
102
RTVSPropertyOp42
 70
     1
102
RTVSPropertyOp43
 70
     1
102
RTVSPropertyOp44
 70
     1
102
RTVSPropertyOp45
 70
     1
102
RTVSPropertyOp46
 70
     1
102
RTVSPropertyOp47
 70
     1
102
RTVSPropertyOp48
 70
     1
102
RTVSPropertyOp49
 70
     1
102
RTVSPropertyOp50
 70
     1
102
RTVSPropertyOp51
 70
     0
102
RTVSPropertyOp52
 70
     0
102
RTVSPropertyOp53
 70
     1
102
RTVSPropertyOp54
 70
     1
102
RTVSPropertyOp55
 70
     1
102
RTVSPropertyOp56
 70
     1
102
RTVSPropertyOp57
 70
     1
102
RTVSPropertyOp58
 70
     1
102
RTVSPropertyOp59
 70
     1
102
RTVSPropertyOp60
 70
     1
102
RTVSPropertyOp61
 70
     1
102
RTVSPropertyOp62
 70
     1
  0
XRECORD
  5
317
102
{ACAD_REACTORS
330
316
102
}
330
316
100
AcDbXrecord
280
     1
102
RTVSPost2010Prop28
280
     0
102
RTVSPost2010PropOp28
 70
     1
102
RTVSPost2010Prop29
280
     1
102
RTVSPost2010PropOp29
 70
     1
102
RTVSPost2010Prop30
280
     1
102
RTVSPost2010PropOp30
 70
     1
102
RTVSPost2010Prop31
280
     0
102
RTVSPost2010PropOp31
 70
     1
102
RTVSPost2010Prop32
280
     0
102
RTVSPost2010PropOp32
 70
     1
102
RTVSPost2010Prop33
280
     0
102
RTVSPost2010PropOp33
 70
     1
102
RTVSPost2010Prop34
280
     0
102
RTVSPost2010PropOp34
 70
     1
102
RTVSPost2010Prop35
280
     0
102
RTVSPost2010PropOp35
 70
     1
102
RTVSPost2010Prop36
280
     0
102
RTVSPost2010PropOp36
 70
     1
102
RTVSPost2010Prop37
 90
       50
102
RTVSPost2010PropOp37
 70
     1
102
RTVSPost2010Prop38
140
0.0
102
RTVSPost2010PropOp38
 70
     1
102
RTVSPost2010Prop39
140
1.0
102
RTVSPost2010PropOp39
 70
     1
102
RTVSPost2010Prop40
 90
        0
102
RTVSPost2010PropOp40
 70
     1
102
RTVSPost2010Prop41ColorIndex
 90
       18
102
RTVSPost2010Prop41ColorRGB
 90
        0
102
RTVSPost2010PropOp41
 70
     1
102
RTVSPost2010Prop42
 90
       50
102
RTVSPost2010PropOp42
 70
     1
102
RTVSPost2010Prop43
 90
        3
102
RTVSPost2010PropOp43
 70
     1
102
RTVSPost2010Prop44ColorIndex
 90
        5
102
RTVSPost2010Prop44ColorRGB
 90
      255
102
RTVSPost2010PropOp44
 70
     1
102
RTVSPost2010Prop45
280
     0
102
RTVSPost2010PropOp45
 70
     1
102
RTVSPost2010Prop46
 90
       50
102
RTVSPost2010PropOp46
 70
     1
102
RTVSPost2010Prop47
 90
       50
102
RTVSPost2010PropOp47
 70
     1
102
RTVSPost2010Prop48
 90
       50
102
RTVSPost2010PropOp48
 70
     1
102
RTVSPost2010Prop49
280
     0
102
RTVSPost2010PropOp49
 70
     1
102
RTVSPost2010Prop50
 90
       50
102
RTVSPost2010PropOp50
 70
     1
102
RTVSPost2010Prop51ColorIndex
 90
      256
102
RTVSPost2010Prop51ColorRGB
 90
-16777216
102
RTVSPost2010PropOp51
 70
     0
102
RTVSPost2010Prop52
140
1.0
102
RTVSPost2010PropOp52
 70
     0
102
RTVSPost2010Prop53
 90
        2
102
RTVSPost2010PropOp53
 70
     1
102
RTVSPost2010Prop54
  1
strokes_ogs.tif
102
RTVSPost2010PropOp54
 70
     1
102
RTVSPost2010Prop55
280
     0
102
RTVSPost2010PropOp55
 70
     1
102
RTVSPost2010Prop56
140
1.0
102
RTVSPost2010PropOp56
 70
     1
102
RTVSPost2010Prop57
140
1.0
102
RTVSPost2010PropOp57
 70
     1
102
RTVSPropertyOp0
 70
     1
102
RTVSPropertyOp1
 70
     1
102
RTVSPropertyOp2
 70
     1
102
RTVSPropertyOp3
 70
     1
102
RTVSPropertyOp4
 70
     1
102
RTVSPropertyOp5
 70
     1
102
RTVSPropertyOp6
 70
     1
102
RTVSPropertyOp7
 70
     1
102
RTVSPropertyOp8
 70
     1
102
RTVSPropertyOp9
 70
     1
102
RTVSPropertyOp10
 70
     1
102
RTVSPropertyOp11
 70
     1
102
RTVSPropertyOp12
 70
     1
102
RTVSPropertyOp13
 70
     1
102
RTVSPropertyOp14
 70
     1
102
RTVSPropertyOp15
 70
     1
102
RTVSPropertyOp16
 70
     1
102
RTVSPropertyOp17
 70
     1
102
RTVSPropertyOp18
 70
     1
102
RTVSPropertyOp19
 70
     1
102
RTVSPropertyOp20
 70
     1
102
RTVSPropertyOp21
 70
     1
102
RTVSPropertyOp22
 70
     1
102
RTVSPropertyOp23
 70
     1
102
RTVSPropertyOp24
 70
     1
102
RTVSPropertyOp25
 70
     1
102
RTVSPropertyOp26
 70
     1
102
RTVSPropertyOp27
 70
     1
102
RTVSPropertyOp28
 70
     1
102
RTVSPropertyOp29
 70
     1
102
RTVSPropertyOp30
 70
     1
102
RTVSPropertyOp31
 70
     1
102
RTVSPropertyOp32
 70
     1
102
RTVSPropertyOp33
 70
     1
102
RTVSPropertyOp34
 70
     1
102
RTVSPropertyOp35
 70
     1
102
RTVSPropertyOp36
 70
     1
102
RTVSPropertyOp37
 70
     1
102
RTVSPropertyOp38
 70
     1
102
RTVSPropertyOp39
 70
     1
102
RTVSPropertyOp40
 70
     1
102
RTVSPropertyOp41
 70
     1
102
RTVSPropertyOp42
 70
     1
102
RTVSPropertyOp43
 70
     1
102
RTVSPropertyOp44
 70
     1
102
RTVSPropertyOp45
 70
     1
102
RTVSPropertyOp46
 70
     1
102
RTVSPropertyOp47
 70
     1
102
RTVSPropertyOp48
 70
     1
102
RTVSPropertyOp49
 70
     1
102
RTVSPropertyOp50
 70
     1
102
RTVSPropertyOp51
 70
     0
102
RTVSPropertyOp52
 70
     0
102
RTVSPropertyOp53
 70
     1
102
RTVSPropertyOp54
 70
     1
102
RTVSPropertyOp55
 70
     1
102
RTVSPropertyOp56
 70
     1
102
RTVSPropertyOp57
 70
     1
102
RTVSPropertyOp58
 70
     1
102
RTVSPropertyOp59
 70
     1
102
RTVSPropertyOp60
 70
     1
102
RTVSPropertyOp61
 70
     1
102
RTVSPropertyOp62
 70
     1
  0
XRECORD
  5
325
102
{ACAD_REACTORS
330
324
102
}
330
324
100
AcDbXrecord
280
     1
102
RTVSPost2010Prop28
280
     0
102
RTVSPost2010PropOp28
 70
     1
102
RTVSPost2010Prop29
280
     1
102
RTVSPost2010PropOp29
 70
     1
102
RTVSPost2010Prop30
280
     1
102
RTVSPost2010PropOp30
 70
     1
102
RTVSPost2010Prop31
280
     0
102
RTVSPost2010PropOp31
 70
     1
102
RTVSPost2010Prop32
280
     0
102
RTVSPost2010PropOp32
 70
     1
102
RTVSPost2010Prop33
280
     0
102
RTVSPost2010PropOp33
 70
     1
102
RTVSPost2010Prop34
280
     0
102
RTVSPost2010PropOp34
 70
     1
102
RTVSPost2010Prop35
280
     0
102
RTVSPost2010PropOp35
 70
     1
102
RTVSPost2010Prop36
280
     0
102
RTVSPost2010PropOp36
 70
     1
102
RTVSPost2010Prop37
 90
       50
102
RTVSPost2010PropOp37
 70
     1
102
RTVSPost2010Prop38
140
0.0
102
RTVSPost2010PropOp38
 70
     1
102
RTVSPost2010Prop39
140
1.0
102
RTVSPost2010PropOp39
 70
     1
102
RTVSPost2010Prop40
 90
        0
102
RTVSPost2010PropOp40
 70
     1
102
RTVSPost2010Prop41ColorIndex
 90
       18
102
RTVSPost2010Prop41ColorRGB
 90
        0
102
RTVSPost2010PropOp41
 70
     1
102
RTVSPost2010Prop42
 90
       50
102
RTVSPost2010PropOp42
 70
     1
102
RTVSPost2010Prop43
 90
        3
102
RTVSPost2010PropOp43
 70
     1
102
RTVSPost2010Prop44ColorIndex
 90
        5
102
RTVSPost2010Prop44ColorRGB
 90
      255
102
RTVSPost2010PropOp44
 70
     1
102
RTVSPost2010Prop45
280
     0
102
RTVSPost2010PropOp45
 70
     1
102
RTVSPost2010Prop46
 90
       50
102
RTVSPost2010PropOp46
 70
     1
102
RTVSPost2010Prop47
 90
       50
102
RTVSPost2010PropOp47
 70
     1
102
RTVSPost2010Prop48
 90
       50
102
RTVSPost2010PropOp48
 70
     1
102
RTVSPost2010Prop49
280
     0
102
RTVSPost2010PropOp49
 70
     1
102
RTVSPost2010Prop50
 90
       50
102
RTVSPost2010PropOp50
 70
     1
102
RTVSPost2010Prop51ColorIndex
 90
      256
102
RTVSPost2010Prop51ColorRGB
 90
-16777216
102
RTVSPost2010PropOp51
 70
     0
102
RTVSPost2010Prop52
140
1.0
102
RTVSPost2010PropOp52
 70
     0
102
RTVSPost2010Prop53
 90
        2
102
RTVSPost2010PropOp53
 70
     1
102
RTVSPost2010Prop54
  1
strokes_ogs.tif
102
RTVSPost2010PropOp54
 70
     1
102
RTVSPost2010Prop55
280
     0
102
RTVSPost2010PropOp55
 70
     1
102
RTVSPost2010Prop56
140
1.0
102
RTVSPost2010PropOp56
 70
     1
102
RTVSPost2010Prop57
140
1.0
102
RTVSPost2010PropOp57
 70
     1
102
RTVSPropertyOp0
 70
     1
102
RTVSPropertyOp1
 70
     1
102
RTVSPropertyOp2
 70
     1
102
RTVSPropertyOp3
 70
     1
102
RTVSPropertyOp4
 70
     1
102
RTVSPropertyOp5
 70
     1
102
RTVSPropertyOp6
 70
     1
102
RTVSPropertyOp7
 70
     1
102
RTVSPropertyOp8
 70
     1
102
RTVSPropertyOp9
 70
     1
102
RTVSPropertyOp10
 70
     1
102
RTVSPropertyOp11
 70
     1
102
RTVSPropertyOp12
 70
     1
102
RTVSPropertyOp13
 70
     1
102
RTVSPropertyOp14
 70
     1
102
RTVSPropertyOp15
 70
     1
102
RTVSPropertyOp16
 70
     1
102
RTVSPropertyOp17
 70
     1
102
RTVSPropertyOp18
 70
     1
102
RTVSPropertyOp19
 70
     1
102
RTVSPropertyOp20
 70
     1
102
RTVSPropertyOp21
 70
     1
102
RTVSPropertyOp22
 70
     1
102
RTVSPropertyOp23
 70
     1
102
RTVSPropertyOp24
 70
     1
102
RTVSPropertyOp25
 70
     1
102
RTVSPropertyOp26
 70
     1
102
RTVSPropertyOp27
 70
     1
102
RTVSPropertyOp28
 70
     1
102
RTVSPropertyOp29
 70
     1
102
RTVSPropertyOp30
 70
     1
102
RTVSPropertyOp31
 70
     1
102
RTVSPropertyOp32
 70
     1
102
RTVSPropertyOp33
 70
     1
102
RTVSPropertyOp34
 70
     1
102
RTVSPropertyOp35
 70
     1
102
RTVSPropertyOp36
 70
     1
102
RTVSPropertyOp37
 70
     1
102
RTVSPropertyOp38
 70
     1
102
RTVSPropertyOp39
 70
     1
102
RTVSPropertyOp40
 70
     1
102
RTVSPropertyOp41
 70
     1
102
RTVSPropertyOp42
 70
     1
102
RTVSPropertyOp43
 70
     1
102
RTVSPropertyOp44
 70
     1
102
RTVSPropertyOp45
 70
     1
102
RTVSPropertyOp46
 70
     1
102
RTVSPropertyOp47
 70
     1
102
RTVSPropertyOp48
 70
     1
102
RTVSPropertyOp49
 70
     1
102
RTVSPropertyOp50
 70
     1
102
RTVSPropertyOp51
 70
     0
102
RTVSPropertyOp52
 70
     0
102
RTVSPropertyOp53
 70
     1
102
RTVSPropertyOp54
 70
     1
102
RTVSPropertyOp55
 70
     1
102
RTVSPropertyOp56
 70
     1
102
RTVSPropertyOp57
 70
     1
102
RTVSPropertyOp58
 70
     1
102
RTVSPropertyOp59
 70
     1
102
RTVSPropertyOp60
 70
     1
102
RTVSPropertyOp61
 70
     1
102
RTVSPropertyOp62
 70
     1
  0
XRECORD
  5
32D
102
{ACAD_REACTORS
330
32C
102
}
330
32C
100
AcDbXrecord
280
     1
102
RTVSPost2010Prop28
280
     0
102
RTVSPost2010PropOp28
 70
     1
102
RTVSPost2010Prop29
280
     1
102
RTVSPost2010PropOp29
 70
     1
102
RTVSPost2010Prop30
280
     1
102
RTVSPost2010PropOp30
 70
     1
102
RTVSPost2010Prop31
280
     0
102
RTVSPost2010PropOp31
 70
     1
102
RTVSPost2010Prop32
280
     0
102
RTVSPost2010PropOp32
 70
     1
102
RTVSPost2010Prop33
280
     0
102
RTVSPost2010PropOp33
 70
     1
102
RTVSPost2010Prop34
280
     0
102
RTVSPost2010PropOp34
 70
     1
102
RTVSPost2010Prop35
280
     0
102
RTVSPost2010PropOp35
 70
     1
102
RTVSPost2010Prop36
280
     0
102
RTVSPost2010PropOp36
 70
     1
102
RTVSPost2010Prop37
 90
       50
102
RTVSPost2010PropOp37
 70
     1
102
RTVSPost2010Prop38
140
0.0
102
RTVSPost2010PropOp38
 70
     1
102
RTVSPost2010Prop39
140
1.0
102
RTVSPost2010PropOp39
 70
     1
102
RTVSPost2010Prop40
 90
        0
102
RTVSPost2010PropOp40
 70
     1
102
RTVSPost2010Prop41ColorIndex
 90
       18
102
RTVSPost2010Prop41ColorRGB
 90
        0
102
RTVSPost2010PropOp41
 70
     1
102
RTVSPost2010Prop42
 90
       50
102
RTVSPost2010PropOp42
 70
     1
102
RTVSPost2010Prop43
 90
        3
102
RTVSPost2010PropOp43
 70
     1
102
RTVSPost2010Prop44ColorIndex
 90
        5
102
RTVSPost2010Prop44ColorRGB
 90
      255
102
RTVSPost2010PropOp44
 70
     1
102
RTVSPost2010Prop45
280
     0
102
RTVSPost2010PropOp45
 70
     1
102
RTVSPost2010Prop46
 90
       50
102
RTVSPost2010PropOp46
 70
     1
102
RTVSPost2010Prop47
 90
       50
102
RTVSPost2010PropOp47
 70
     1
102
RTVSPost2010Prop48
 90
       50
102
RTVSPost2010PropOp48
 70
     1
102
RTVSPost2010Prop49
280
     0
102
RTVSPost2010PropOp49
 70
     1
102
RTVSPost2010Prop50
 90
       50
102
RTVSPost2010PropOp50
 70
     1
102
RTVSPost2010Prop51ColorIndex
 90
      256
102
RTVSPost2010Prop51ColorRGB
 90
-16777216
102
RTVSPost2010PropOp51
 70
     0
102
RTVSPost2010Prop52
140
1.0
102
RTVSPost2010PropOp52
 70
     0
102
RTVSPost2010Prop53
 90
        2
102
RTVSPost2010PropOp53
 70
     1
102
RTVSPost2010Prop54
  1
strokes_ogs.tif
102
RTVSPost2010PropOp54
 70
     1
102
RTVSPost2010Prop55
280
     0
102
RTVSPost2010PropOp55
 70
     1
102
RTVSPost2010Prop56
140
1.0
102
RTVSPost2010PropOp56
 70
     1
102
RTVSPost2010Prop57
140
1.0
102
RTVSPost2010PropOp57
 70
     1
102
RTVSPropertyOp0
 70
     1
102
RTVSPropertyOp1
 70
     1
102
RTVSPropertyOp2
 70
     1
102
RTVSPropertyOp3
 70
     1
102
RTVSPropertyOp4
 70
     1
102
RTVSPropertyOp5
 70
     1
102
RTVSPropertyOp6
 70
     1
102
RTVSPropertyOp7
 70
     1
102
RTVSPropertyOp8
 70
     1
102
RTVSPropertyOp9
 70
     1
102
RTVSPropertyOp10
 70
     1
102
RTVSPropertyOp11
 70
     1
102
RTVSPropertyOp12
 70
     1
102
RTVSPropertyOp13
 70
     1
102
RTVSPropertyOp14
 70
     1
102
RTVSPropertyOp15
 70
     1
102
RTVSPropertyOp16
 70
     1
102
RTVSPropertyOp17
 70
     1
102
RTVSPropertyOp18
 70
     1
102
RTVSPropertyOp19
 70
     1
102
RTVSPropertyOp20
 70
     1
102
RTVSPropertyOp21
 70
     1
102
RTVSPropertyOp22
 70
     1
102
RTVSPropertyOp23
 70
     1
102
RTVSPropertyOp24
 70
     1
102
RTVSPropertyOp25
 70
     1
102
RTVSPropertyOp26
 70
     1
102
RTVSPropertyOp27
 70
     1
102
RTVSPropertyOp28
 70
     1
102
RTVSPropertyOp29
 70
     1
102
RTVSPropertyOp30
 70
     1
102
RTVSPropertyOp31
 70
     1
102
RTVSPropertyOp32
 70
     1
102
RTVSPropertyOp33
 70
     1
102
RTVSPropertyOp34
 70
     1
102
RTVSPropertyOp35
 70
     1
102
RTVSPropertyOp36
 70
     1
102
RTVSPropertyOp37
 70
     1
102
RTVSPropertyOp38
 70
     1
102
RTVSPropertyOp39
 70
     1
102
RTVSPropertyOp40
 70
     1
102
RTVSPropertyOp41
 70
     1
102
RTVSPropertyOp42
 70
     1
102
RTVSPropertyOp43
 70
     1
102
RTVSPropertyOp44
 70
     1
102
RTVSPropertyOp45
 70
     1
102
RTVSPropertyOp46
 70
     1
102
RTVSPropertyOp47
 70
     1
102
RTVSPropertyOp48
 70
     1
102
RTVSPropertyOp49
 70
     1
102
RTVSPropertyOp50
 70
     1
102
RTVSPropertyOp51
 70
     0
102
RTVSPropertyOp52
 70
     0
102
RTVSPropertyOp53
 70
     1
102
RTVSPropertyOp54
 70
     1
102
RTVSPropertyOp55
 70
     1
102
RTVSPropertyOp56
 70
     1
102
RTVSPropertyOp57
 70
     1
102
RTVSPropertyOp58
 70
     1
102
RTVSPropertyOp59
 70
     1
102
RTVSPropertyOp60
 70
     1
102
RTVSPropertyOp61
 70
     1
102
RTVSPropertyOp62
 70
     1
  0
XRECORD
  5
31F
102
{ACAD_REACTORS
330
31E
102
}
330
31E
100
AcDbXrecord
280
     1
102
RTVSPost2010Prop28
280
     0
102
RTVSPost2010PropOp28
 70
     1
102
RTVSPost2010Prop29
280
     1
102
RTVSPost2010PropOp29
 70
     1
102
RTVSPost2010Prop30
280
     1
102
RTVSPost2010PropOp30
 70
     1
102
RTVSPost2010Prop31
280
     0
102
RTVSPost2010PropOp31
 70
     1
102
RTVSPost2010Prop32
280
     0
102
RTVSPost2010PropOp32
 70
     1
102
RTVSPost2010Prop33
280
     0
102
RTVSPost2010PropOp33
 70
     1
102
RTVSPost2010Prop34
280
     0
102
RTVSPost2010PropOp34
 70
     1
102
RTVSPost2010Prop35
280
     0
102
RTVSPost2010PropOp35
 70
     1
102
RTVSPost2010Prop36
280
     0
102
RTVSPost2010PropOp36
 70
     1
102
RTVSPost2010Prop37
 90
       50
102
RTVSPost2010PropOp37
 70
     1
102
RTVSPost2010Prop38
140
0.0
102
RTVSPost2010PropOp38
 70
     1
102
RTVSPost2010Prop39
140
1.0
102
RTVSPost2010PropOp39
 70
     1
102
RTVSPost2010Prop40
 90
        0
102
RTVSPost2010PropOp40
 70
     1
102
RTVSPost2010Prop41ColorIndex
 90
       18
102
RTVSPost2010Prop41ColorRGB
 90
        0
102
RTVSPost2010PropOp41
 70
     1
102
RTVSPost2010Prop42
 90
       50
102
RTVSPost2010PropOp42
 70
     1
102
RTVSPost2010Prop43
 90
        3
102
RTVSPost2010PropOp43
 70
     1
102
RTVSPost2010Prop44ColorIndex
 90
        5
102
RTVSPost2010Prop44ColorRGB
 90
      255
102
RTVSPost2010PropOp44
 70
     1
102
RTVSPost2010Prop45
280
     0
102
RTVSPost2010PropOp45
 70
     1
102
RTVSPost2010Prop46
 90
       50
102
RTVSPost2010PropOp46
 70
     1
102
RTVSPost2010Prop47
 90
       50
102
RTVSPost2010PropOp47
 70
     1
102
RTVSPost2010Prop48
 90
       50
102
RTVSPost2010PropOp48
 70
     1
102
RTVSPost2010Prop49
280
     0
102
RTVSPost2010PropOp49
 70
     1
102
RTVSPost2010Prop50
 90
       50
102
RTVSPost2010PropOp50
 70
     1
102
RTVSPost2010Prop51ColorIndex
 90
      256
102
RTVSPost2010Prop51ColorRGB
 90
-16777216
102
RTVSPost2010PropOp51
 70
     0
102
RTVSPost2010Prop52
140
1.0
102
RTVSPost2010PropOp52
 70
     0
102
RTVSPost2010Prop53
 90
        2
102
RTVSPost2010PropOp53
 70
     1
102
RTVSPost2010Prop54
  1
strokes_ogs.tif
102
RTVSPost2010PropOp54
 70
     1
102
RTVSPost2010Prop55
280
     0
102
RTVSPost2010PropOp55
 70
     1
102
RTVSPost2010Prop56
140
1.0
102
RTVSPost2010PropOp56
 70
     1
102
RTVSPost2010Prop57
140
1.0
102
RTVSPost2010PropOp57
 70
     1
102
RTVSPropertyOp0
 70
     1
102
RTVSPropertyOp1
 70
     1
102
RTVSPropertyOp2
 70
     1
102
RTVSPropertyOp3
 70
     1
102
RTVSPropertyOp4
 70
     1
102
RTVSPropertyOp5
 70
     1
102
RTVSPropertyOp6
 70
     1
102
RTVSPropertyOp7
 70
     1
102
RTVSPropertyOp8
 70
     1
102
RTVSPropertyOp9
 70
     1
102
RTVSPropertyOp10
 70
     1
102
RTVSPropertyOp11
 70
     1
102
RTVSPropertyOp12
 70
     1
102
RTVSPropertyOp13
 70
     1
102
RTVSPropertyOp14
 70
     1
102
RTVSPropertyOp15
 70
     1
102
RTVSPropertyOp16
 70
     1
102
RTVSPropertyOp17
 70
     1
102
RTVSPropertyOp18
 70
     1
102
RTVSPropertyOp19
 70
     1
102
RTVSPropertyOp20
 70
     1
102
RTVSPropertyOp21
 70
     1
102
RTVSPropertyOp22
 70
     1
102
RTVSPropertyOp23
 70
     1
102
RTVSPropertyOp24
 70
     1
102
RTVSPropertyOp25
 70
     1
102
RTVSPropertyOp26
 70
     1
102
RTVSPropertyOp27
 70
     1
102
RTVSPropertyOp28
 70
     1
102
RTVSPropertyOp29
 70
     1
102
RTVSPropertyOp30
 70
     1
102
RTVSPropertyOp31
 70
     1
102
RTVSPropertyOp32
 70
     1
102
RTVSPropertyOp33
 70
     1
102
RTVSPropertyOp34
 70
     1
102
RTVSPropertyOp35
 70
     1
102
RTVSPropertyOp36
 70
     1
102
RTVSPropertyOp37
 70
     1
102
RTVSPropertyOp38
 70
     1
102
RTVSPropertyOp39
 70
     1
102
RTVSPropertyOp40
 70
     1
102
RTVSPropertyOp41
 70
     1
102
RTVSPropertyOp42
 70
     1
102
RTVSPropertyOp43
 70
     1
102
RTVSPropertyOp44
 70
     1
102
RTVSPropertyOp45
 70
     1
102
RTVSPropertyOp46
 70
     1
102
RTVSPropertyOp47
 70
     1
102
RTVSPropertyOp48
 70
     1
102
RTVSPropertyOp49
 70
     1
102
RTVSPropertyOp50
 70
     1
102
RTVSPropertyOp51
 70
     0
102
RTVSPropertyOp52
 70
     0
102
RTVSPropertyOp53
 70
     1
102
RTVSPropertyOp54
 70
     1
102
RTVSPropertyOp55
 70
     1
102
RTVSPropertyOp56
 70
     1
102
RTVSPropertyOp57
 70
     1
102
RTVSPropertyOp58
 70
     1
102
RTVSPropertyOp59
 70
     1
102
RTVSPropertyOp60
 70
     1
102
RTVSPropertyOp61
 70
     1
102
RTVSPropertyOp62
 70
     1
  0
XRECORD
  5
323
102
{ACAD_REACTORS
330
322
102
}
330
322
100
AcDbXrecord
280
     1
102
RTVSPost2010Prop28
280
     0
102
RTVSPost2010PropOp28
 70
     1
102
RTVSPost2010Prop29
280
     1
102
RTVSPost2010PropOp29
 70
     1
102
RTVSPost2010Prop30
280
     1
102
RTVSPost2010PropOp30
 70
     1
102
RTVSPost2010Prop31
280
     0
102
RTVSPost2010PropOp31
 70
     1
102
RTVSPost2010Prop32
280
     0
102
RTVSPost2010PropOp32
 70
     1
102
RTVSPost2010Prop33
280
     0
102
RTVSPost2010PropOp33
 70
     1
102
RTVSPost2010Prop34
280
     0
102
RTVSPost2010PropOp34
 70
     1
102
RTVSPost2010Prop35
280
     0
102
RTVSPost2010PropOp35
 70
     1
102
RTVSPost2010Prop36
280
     0
102
RTVSPost2010PropOp36
 70
     1
102
RTVSPost2010Prop37
 90
       50
102
RTVSPost2010PropOp37
 70
     1
102
RTVSPost2010Prop38
140
0.0
102
RTVSPost2010PropOp38
 70
     1
102
RTVSPost2010Prop39
140
1.0
102
RTVSPost2010PropOp39
 70
     1
102
RTVSPost2010Prop40
 90
        0
102
RTVSPost2010PropOp40
 70
     1
102
RTVSPost2010Prop41ColorIndex
 90
       18
102
RTVSPost2010Prop41ColorRGB
 90
        0
102
RTVSPost2010PropOp41
 70
     1
102
RTVSPost2010Prop42
 90
       50
102
RTVSPost2010PropOp42
 70
     1
102
RTVSPost2010Prop43
 90
        3
102
RTVSPost2010PropOp43
 70
     1
102
RTVSPost2010Prop44ColorIndex
 90
        5
102
RTVSPost2010Prop44ColorRGB
 90
      255
102
RTVSPost2010PropOp44
 70
     1
102
RTVSPost2010Prop45
280
     0
102
RTVSPost2010PropOp45
 70
     1
102
RTVSPost2010Prop46
 90
       50
102
RTVSPost2010PropOp46
 70
     1
102
RTVSPost2010Prop47
 90
       50
102
RTVSPost2010PropOp47
 70
     1
102
RTVSPost2010Prop48
 90
       50
102
RTVSPost2010PropOp48
 70
     1
102
RTVSPost2010Prop49
280
     0
102
RTVSPost2010PropOp49
 70
     1
102
RTVSPost2010Prop50
 90
       50
102
RTVSPost2010PropOp50
 70
     1
102
RTVSPost2010Prop51ColorIndex
 90
      256
102
RTVSPost2010Prop51ColorRGB
 90
-16777216
102
RTVSPost2010PropOp51
 70
     0
102
RTVSPost2010Prop52
140
1.0
102
RTVSPost2010PropOp52
 70
     0
102
RTVSPost2010Prop53
 90
        2
102
RTVSPost2010PropOp53
 70
     1
102
RTVSPost2010Prop54
  1
strokes_ogs.tif
102
RTVSPost2010PropOp54
 70
     1
102
RTVSPost2010Prop55
280
     0
102
RTVSPost2010PropOp55
 70
     1
102
RTVSPost2010Prop56
140
1.0
102
RTVSPost2010PropOp56
 70
     1
102
RTVSPost2010Prop57
140
1.0
102
RTVSPost2010PropOp57
 70
     1
102
RTVSPropertyOp0
 70
     1
102
RTVSPropertyOp1
 70
     1
102
RTVSPropertyOp2
 70
     1
102
RTVSPropertyOp3
 70
     1
102
RTVSPropertyOp4
 70
     1
102
RTVSPropertyOp5
 70
     1
102
RTVSPropertyOp6
 70
     1
102
RTVSPropertyOp7
 70
     1
102
RTVSPropertyOp8
 70
     1
102
RTVSPropertyOp9
 70
     1
102
RTVSPropertyOp10
 70
     1
102
RTVSPropertyOp11
 70
     1
102
RTVSPropertyOp12
 70
     1
102
RTVSPropertyOp13
 70
     1
102
RTVSPropertyOp14
 70
     1
102
RTVSPropertyOp15
 70
     1
102
RTVSPropertyOp16
 70
     1
102
RTVSPropertyOp17
 70
     1
102
RTVSPropertyOp18
 70
     1
102
RTVSPropertyOp19
 70
     1
102
RTVSPropertyOp20
 70
     1
102
RTVSPropertyOp21
 70
     1
102
RTVSPropertyOp22
 70
     1
102
RTVSPropertyOp23
 70
     1
102
RTVSPropertyOp24
 70
     1
102
RTVSPropertyOp25
 70
     1
102
RTVSPropertyOp26
 70
     1
102
RTVSPropertyOp27
 70
     1
102
RTVSPropertyOp28
 70
     1
102
RTVSPropertyOp29
 70
     1
102
RTVSPropertyOp30
 70
     1
102
RTVSPropertyOp31
 70
     1
102
RTVSPropertyOp32
 70
     1
102
RTVSPropertyOp33
 70
     1
102
RTVSPropertyOp34
 70
     1
102
RTVSPropertyOp35
 70
     1
102
RTVSPropertyOp36
 70
     1
102
RTVSPropertyOp37
 70
     1
102
RTVSPropertyOp38
 70
     1
102
RTVSPropertyOp39
 70
     1
102
RTVSPropertyOp40
 70
     1
102
RTVSPropertyOp41
 70
     1
102
RTVSPropertyOp42
 70
     1
102
RTVSPropertyOp43
 70
     1
102
RTVSPropertyOp44
 70
     1
102
RTVSPropertyOp45
 70
     1
102
RTVSPropertyOp46
 70
     1
102
RTVSPropertyOp47
 70
     1
102
RTVSPropertyOp48
 70
     1
102
RTVSPropertyOp49
 70
     1
102
RTVSPropertyOp50
 70
     1
102
RTVSPropertyOp51
 70
     0
102
RTVSPropertyOp52
 70
     0
102
RTVSPropertyOp53
 70
     1
102
RTVSPropertyOp54
 70
     1
102
RTVSPropertyOp55
 70
     1
102
RTVSPropertyOp56
 70
     1
102
RTVSPropertyOp57
 70
     1
102
RTVSPropertyOp58
 70
     1
102
RTVSPropertyOp59
 70
     1
102
RTVSPropertyOp60
 70
     1
102
RTVSPropertyOp61
 70
     1
102
RTVSPropertyOp62
 70
     1
  0
XRECORD
  5
33D
102
{ACAD_REACTORS
330
33C
102
}
330
33C
100
AcDbXrecord
280
     1
102
RTVSPost2010Prop28
280
     0
102
RTVSPost2010PropOp28
 70
     1
102
RTVSPost2010Prop29
280
     1
102
RTVSPost2010PropOp29
 70
     1
102
RTVSPost2010Prop30
280
     1
102
RTVSPost2010PropOp30
 70
     1
102
RTVSPost2010Prop31
280
     0
102
RTVSPost2010PropOp31
 70
     1
102
RTVSPost2010Prop32
280
     0
102
RTVSPost2010PropOp32
 70
     1
102
RTVSPost2010Prop33
280
     0
102
RTVSPost2010PropOp33
 70
     1
102
RTVSPost2010Prop34
280
     0
102
RTVSPost2010PropOp34
 70
     1
102
RTVSPost2010Prop35
280
     0
102
RTVSPost2010PropOp35
 70
     1
102
RTVSPost2010Prop36
280
     0
102
RTVSPost2010PropOp36
 70
     1
102
RTVSPost2010Prop37
 90
       50
102
RTVSPost2010PropOp37
 70
     0
102
RTVSPost2010Prop38
140
0.0
102
RTVSPost2010PropOp38
 70
     0
102
RTVSPost2010Prop39
140
1.0
102
RTVSPost2010PropOp39
 70
     0
102
RTVSPost2010Prop40
 90
        0
102
RTVSPost2010PropOp40
 70
     0
102
RTVSPost2010Prop41ColorIndex
 90
       18
102
RTVSPost2010Prop41ColorRGB
 90
        0
102
RTVSPost2010PropOp41
 70
     0
102
RTVSPost2010Prop42
 90
       50
102
RTVSPost2010PropOp42
 70
     0
102
RTVSPost2010Prop43
 90
        3
102
RTVSPost2010PropOp43
 70
     0
102
RTVSPost2010Prop44ColorIndex
 90
        5
102
RTVSPost2010Prop44ColorRGB
 90
      255
102
RTVSPost2010PropOp44
 70
     0
102
RTVSPost2010Prop45
280
     0
102
RTVSPost2010PropOp45
 70
     1
102
RTVSPost2010Prop46
 90
       50
102
RTVSPost2010PropOp46
 70
     0
102
RTVSPost2010Prop47
 90
       50
102
RTVSPost2010PropOp47
 70
     0
102
RTVSPost2010Prop48
 90
       50
102
RTVSPost2010PropOp48
 70
     0
102
RTVSPost2010Prop49
280
     0
102
RTVSPost2010PropOp49
 70
     1
102
RTVSPost2010Prop50
 90
       50
102
RTVSPost2010PropOp50
 70
     0
102
RTVSPost2010Prop51ColorIndex
 90
      256
102
RTVSPost2010Prop51ColorRGB
 90
-16777216
102
RTVSPost2010PropOp51
 70
     0
102
RTVSPost2010Prop52
140
1.0
102
RTVSPost2010PropOp52
 70
     0
102
RTVSPost2010Prop53
 90
        2
102
RTVSPost2010PropOp53
 70
     0
102
RTVSPost2010Prop54
  1
strokes_ogs.tif
102
RTVSPost2010PropOp54
 70
     0
102
RTVSPost2010Prop55
280
     0
102
RTVSPost2010PropOp55
 70
     1
102
RTVSPost2010Prop56
140
1.0
102
RTVSPost2010PropOp56
 70
     0
102
RTVSPost2010Prop57
140
1.0
102
RTVSPost2010PropOp57
 70
     0
102
RTVSPropertyOp0
 70
     0
102
RTVSPropertyOp1
 70
     0
102
RTVSPropertyOp2
 70
     0
102
RTVSPropertyOp3
 70
     0
102
RTVSPropertyOp4
 70
     0
102
RTVSPropertyOp5
 70
     0
102
RTVSPropertyOp6
 70
     0
102
RTVSPropertyOp7
 70
     0
102
RTVSPropertyOp8
 70
     0
102
RTVSPropertyOp9
 70
     0
102
RTVSPropertyOp10
 70
     0
102
RTVSPropertyOp11
 70
     0
102
RTVSPropertyOp12
 70
     0
102
RTVSPropertyOp13
 70
     0
102
RTVSPropertyOp14
 70
     2
102
RTVSPropertyOp15
 70
     0
102
RTVSPropertyOp16
 70
     0
102
RTVSPropertyOp17
 70
     0
102
RTVSPropertyOp18
 70
     0
102
RTVSPropertyOp19
 70
     0
102
RTVSPropertyOp20
 70
     0
102
RTVSPropertyOp21
 70
     0
102
RTVSPropertyOp22
 70
     0
102
RTVSPropertyOp23
 70
     0
102
RTVSPropertyOp24
 70
     0
102
RTVSPropertyOp25
 70
     0
102
RTVSPropertyOp26
 70
     0
102
RTVSPropertyOp27
 70
     0
102
RTVSPropertyOp28
 70
     1
102
RTVSPropertyOp29
 70
     1
102
RTVSPropertyOp30
 70
     1
102
RTVSPropertyOp31
 70
     1
102
RTVSPropertyOp32
 70
     1
102
RTVSPropertyOp33
 70
     1
102
RTVSPropertyOp34
 70
     1
102
RTVSPropertyOp35
 70
     1
102
RTVSPropertyOp36
 70
     1
102
RTVSPropertyOp37
 70
     0
102
RTVSPropertyOp38
 70
     0
102
RTVSPropertyOp39
 70
     0
102
RTVSPropertyOp40
 70
     0
102
RTVSPropertyOp41
 70
     0
102
RTVSPropertyOp42
 70
     0
102
RTVSPropertyOp43
 70
     0
102
RTVSPropertyOp44
 70
     0
102
RTVSPropertyOp45
 70
     1
102
RTVSPropertyOp46
 70
     0
102
RTVSPropertyOp47
 70
     0
102
RTVSPropertyOp48
 70
     0
102
RTVSPropertyOp49
 70
     1
102
RTVSPropertyOp50
 70
     0
102
RTVSPropertyOp51
 70
     0
102
RTVSPropertyOp52
 70
     0
102
RTVSPropertyOp53
 70
     0
102
RTVSPropertyOp54
 70
     0
102
RTVSPropertyOp55
 70
     1
102
RTVSPropertyOp56
 70
     0
102
RTVSPropertyOp57
 70
     0
102
RTVSPropertyOp58
 70
     0
102
RTVSPropertyOp59
 70
     0
102
RTVSPropertyOp60
 70
     0
102
RTVSPropertyOp61
 70
     0
102
RTVSPropertyOp62
 70
     0
  0
XRECORD
  5
32B
102
{ACAD_REACTORS
330
32A
102
}
330
32A
100
AcDbXrecord
280
     1
102
RTVSPost2010Prop28
280
     0
102
RTVSPost2010PropOp28
 70
     1
102
RTVSPost2010Prop29
280
     1
102
RTVSPost2010PropOp29
 70
     1
102
RTVSPost2010Prop30
280
     1
102
RTVSPost2010PropOp30
 70
     1
102
RTVSPost2010Prop31
280
     0
102
RTVSPost2010PropOp31
 70
     1
102
RTVSPost2010Prop32
280
     0
102
RTVSPost2010PropOp32
 70
     1
102
RTVSPost2010Prop33
280
     0
102
RTVSPost2010PropOp33
 70
     1
102
RTVSPost2010Prop34
280
     0
102
RTVSPost2010PropOp34
 70
     1
102
RTVSPost2010Prop35
280
     0
102
RTVSPost2010PropOp35
 70
     1
102
RTVSPost2010Prop36
280
     0
102
RTVSPost2010PropOp36
 70
     1
102
RTVSPost2010Prop37
 90
       50
102
RTVSPost2010PropOp37
 70
     1
102
RTVSPost2010Prop38
140
0.0
102
RTVSPost2010PropOp38
 70
     1
102
RTVSPost2010Prop39
140
1.0
102
RTVSPost2010PropOp39
 70
     1
102
RTVSPost2010Prop40
 90
        0
102
RTVSPost2010PropOp40
 70
     1
102
RTVSPost2010Prop41ColorIndex
 90
       18
102
RTVSPost2010Prop41ColorRGB
 90
        0
102
RTVSPost2010PropOp41
 70
     1
102
RTVSPost2010Prop42
 90
       50
102
RTVSPost2010PropOp42
 70
     1
102
RTVSPost2010Prop43
 90
        3
102
RTVSPost2010PropOp43
 70
     1
102
RTVSPost2010Prop44ColorIndex
 90
        5
102
RTVSPost2010Prop44ColorRGB
 90
      255
102
RTVSPost2010PropOp44
 70
     1
102
RTVSPost2010Prop45
280
     0
102
RTVSPost2010PropOp45
 70
     1
102
RTVSPost2010Prop46
 90
       50
102
RTVSPost2010PropOp46
 70
     1
102
RTVSPost2010Prop47
 90
       50
102
RTVSPost2010PropOp47
 70
     1
102
RTVSPost2010Prop48
 90
       50
102
RTVSPost2010PropOp48
 70
     1
102
RTVSPost2010Prop49
280
     0
102
RTVSPost2010PropOp49
 70
     1
102
RTVSPost2010Prop50
 90
       50
102
RTVSPost2010PropOp50
 70
     1
102
RTVSPost2010Prop51ColorIndex
 90
      256
102
RTVSPost2010Prop51ColorRGB
 90
-16777216
102
RTVSPost2010PropOp51
 70
     0
102
RTVSPost2010Prop52
140
1.0
102
RTVSPost2010PropOp52
 70
     0
102
RTVSPost2010Prop53
 90
        2
102
RTVSPost2010PropOp53
 70
     1
102
RTVSPost2010Prop54
  1
strokes_ogs.tif
102
RTVSPost2010PropOp54
 70
     1
102
RTVSPost2010Prop55
280
     0
102
RTVSPost2010PropOp55
 70
     1
102
RTVSPost2010Prop56
140
1.0
102
RTVSPost2010PropOp56
 70
     1
102
RTVSPost2010Prop57
140
1.0
102
RTVSPost2010PropOp57
 70
     1
102
RTVSPropertyOp0
 70
     1
102
RTVSPropertyOp1
 70
     1
102
RTVSPropertyOp2
 70
     1
102
RTVSPropertyOp3
 70
     1
102
RTVSPropertyOp4
 70
     1
102
RTVSPropertyOp5
 70
     1
102
RTVSPropertyOp6
 70
     1
102
RTVSPropertyOp7
 70
     1
102
RTVSPropertyOp8
 70
     1
102
RTVSPropertyOp9
 70
     1
102
RTVSPropertyOp10
 70
     1
102
RTVSPropertyOp11
 70
     1
102
RTVSPropertyOp12
 70
     1
102
RTVSPropertyOp13
 70
     1
102
RTVSPropertyOp14
 70
     1
102
RTVSPropertyOp15
 70
     1
102
RTVSPropertyOp16
 70
     1
102
RTVSPropertyOp17
 70
     1
102
RTVSPropertyOp18
 70
     1
102
RTVSPropertyOp19
 70
     1
102
RTVSPropertyOp20
 70
     1
102
RTVSPropertyOp21
 70
     1
102
RTVSPropertyOp22
 70
     1
102
RTVSPropertyOp23
 70
     1
102
RTVSPropertyOp24
 70
     1
102
RTVSPropertyOp25
 70
     1
102
RTVSPropertyOp26
 70
     1
102
RTVSPropertyOp27
 70
     1
102
RTVSPropertyOp28
 70
     1
102
RTVSPropertyOp29
 70
     1
102
RTVSPropertyOp30
 70
     1
102
RTVSPropertyOp31
 70
     1
102
RTVSPropertyOp32
 70
     1
102
RTVSPropertyOp33
 70
     1
102
RTVSPropertyOp34
 70
     1
102
RTVSPropertyOp35
 70
     1
102
RTVSPropertyOp36
 70
     1
102
RTVSPropertyOp37
 70
     1
102
RTVSPropertyOp38
 70
     1
102
RTVSPropertyOp39
 70
     1
102
RTVSPropertyOp40
 70
     1
102
RTVSPropertyOp41
 70
     1
102
RTVSPropertyOp42
 70
     1
102
RTVSPropertyOp43
 70
     1
102
RTVSPropertyOp44
 70
     1
102
RTVSPropertyOp45
 70
     1
102
RTVSPropertyOp46
 70
     1
102
RTVSPropertyOp47
 70
     1
102
RTVSPropertyOp48
 70
     1
102
RTVSPropertyOp49
 70
     1
102
RTVSPropertyOp50
 70
     1
102
RTVSPropertyOp51
 70
     0
102
RTVSPropertyOp52
 70
     0
102
RTVSPropertyOp53
 70
     1
102
RTVSPropertyOp54
 70
     1
102
RTVSPropertyOp55
 70
     1
102
RTVSPropertyOp56
 70
     1
102
RTVSPropertyOp57
 70
     1
102
RTVSPropertyOp58
 70
     1
102
RTVSPropertyOp59
 70
     1
102
RTVSPropertyOp60
 70
     1
102
RTVSPropertyOp61
 70
     1
102
RTVSPropertyOp62
 70
     1
  0
XRECORD
  5
30F
102
{ACAD_REACTORS
330
30E
102
}
330
30E
100
AcDbXrecord
280
     1
102
RTVSPost2010Prop28
280
     0
102
RTVSPost2010PropOp28
 70
     1
102
RTVSPost2010Prop29
280
     1
102
RTVSPost2010PropOp29
 70
     1
102
RTVSPost2010Prop30
280
     1
102
RTVSPost2010PropOp30
 70
     1
102
RTVSPost2010Prop31
280
     0
102
RTVSPost2010PropOp31
 70
     1
102
RTVSPost2010Prop32
280
     0
102
RTVSPost2010PropOp32
 70
     1
102
RTVSPost2010Prop33
280
     0
102
RTVSPost2010PropOp33
 70
     1
102
RTVSPost2010Prop34
280
     0
102
RTVSPost2010PropOp34
 70
     1
102
RTVSPost2010Prop35
280
     0
102
RTVSPost2010PropOp35
 70
     1
102
RTVSPost2010Prop36
280
     0
102
RTVSPost2010PropOp36
 70
     1
102
RTVSPost2010Prop37
 90
       50
102
RTVSPost2010PropOp37
 70
     1
102
RTVSPost2010Prop38
140
0.0
102
RTVSPost2010PropOp38
 70
     1
102
RTVSPost2010Prop39
140
1.0
102
RTVSPost2010PropOp39
 70
     1
102
RTVSPost2010Prop40
 90
        0
102
RTVSPost2010PropOp40
 70
     1
102
RTVSPost2010Prop41ColorIndex
 90
       18
102
RTVSPost2010Prop41ColorRGB
 90
        0
102
RTVSPost2010PropOp41
 70
     1
102
RTVSPost2010Prop42
 90
       50
102
RTVSPost2010PropOp42
 70
     1
102
RTVSPost2010Prop43
 90
        3
102
RTVSPost2010PropOp43
 70
     1
102
RTVSPost2010Prop44ColorIndex
 90
        5
102
RTVSPost2010Prop44ColorRGB
 90
      255
102
RTVSPost2010PropOp44
 70
     1
102
RTVSPost2010Prop45
280
     0
102
RTVSPost2010PropOp45
 70
     1
102
RTVSPost2010Prop46
 90
       50
102
RTVSPost2010PropOp46
 70
     1
102
RTVSPost2010Prop47
 90
       50
102
RTVSPost2010PropOp47
 70
     1
102
RTVSPost2010Prop48
 90
       50
102
RTVSPost2010PropOp48
 70
     1
102
RTVSPost2010Prop49
280
     0
102
RTVSPost2010PropOp49
 70
     1
102
RTVSPost2010Prop50
 90
       50
102
RTVSPost2010PropOp50
 70
     1
102
RTVSPost2010Prop51ColorIndex
 90
      256
102
RTVSPost2010Prop51ColorRGB
 90
-16777216
102
RTVSPost2010PropOp51
 70
     0
102
RTVSPost2010Prop52
140
1.0
102
RTVSPost2010PropOp52
 70
     0
102
RTVSPost2010Prop53
 90
        2
102
RTVSPost2010PropOp53
 70
     1
102
RTVSPost2010Prop54
  1
strokes_ogs.tif
102
RTVSPost2010PropOp54
 70
     1
102
RTVSPost2010Prop55
280
     0
102
RTVSPost2010PropOp55
 70
     1
102
RTVSPost2010Prop56
140
1.0
102
RTVSPost2010PropOp56
 70
     1
102
RTVSPost2010Prop57
140
1.0
102
RTVSPost2010PropOp57
 70
     1
102
RTVSPropertyOp0
 70
     1
102
RTVSPropertyOp1
 70
     1
102
RTVSPropertyOp2
 70
     1
102
RTVSPropertyOp3
 70
     1
102
RTVSPropertyOp4
 70
     1
102
RTVSPropertyOp5
 70
     1
102
RTVSPropertyOp6
 70
     1
102
RTVSPropertyOp7
 70
     1
102
RTVSPropertyOp8
 70
     1
102
RTVSPropertyOp9
 70
     1
102
RTVSPropertyOp10
 70
     1
102
RTVSPropertyOp11
 70
     1
102
RTVSPropertyOp12
 70
     1
102
RTVSPropertyOp13
 70
     1
102
RTVSPropertyOp14
 70
     1
102
RTVSPropertyOp15
 70
     1
102
RTVSPropertyOp16
 70
     1
102
RTVSPropertyOp17
 70
     1
102
RTVSPropertyOp18
 70
     1
102
RTVSPropertyOp19
 70
     1
102
RTVSPropertyOp20
 70
     1
102
RTVSPropertyOp21
 70
     1
102
RTVSPropertyOp22
 70
     1
102
RTVSPropertyOp23
 70
     1
102
RTVSPropertyOp24
 70
     1
102
RTVSPropertyOp25
 70
     1
102
RTVSPropertyOp26
 70
     1
102
RTVSPropertyOp27
 70
     1
102
RTVSPropertyOp28
 70
     1
102
RTVSPropertyOp29
 70
     1
102
RTVSPropertyOp30
 70
     1
102
RTVSPropertyOp31
 70
     1
102
RTVSPropertyOp32
 70
     1
102
RTVSPropertyOp33
 70
     1
102
RTVSPropertyOp34
 70
     1
102
RTVSPropertyOp35
 70
     1
102
RTVSPropertyOp36
 70
     1
102
RTVSPropertyOp37
 70
     1
102
RTVSPropertyOp38
 70
     1
102
RTVSPropertyOp39
 70
     1
102
RTVSPropertyOp40
 70
     1
102
RTVSPropertyOp41
 70
     1
102
RTVSPropertyOp42
 70
     1
102
RTVSPropertyOp43
 70
     1
102
RTVSPropertyOp44
 70
     1
102
RTVSPropertyOp45
 70
     1
102
RTVSPropertyOp46
 70
     1
102
RTVSPropertyOp47
 70
     1
102
RTVSPropertyOp48
 70
     1
102
RTVSPropertyOp49
 70
     1
102
RTVSPropertyOp50
 70
     1
102
RTVSPropertyOp51
 70
     0
102
RTVSPropertyOp52
 70
     0
102
RTVSPropertyOp53
 70
     1
102
RTVSPropertyOp54
 70
     1
102
RTVSPropertyOp55
 70
     1
102
RTVSPropertyOp56
 70
     1
102
RTVSPropertyOp57
 70
     1
102
RTVSPropertyOp58
 70
     1
102
RTVSPropertyOp59
 70
     1
102
RTVSPropertyOp60
 70
     1
102
RTVSPropertyOp61
 70
     1
102
RTVSPropertyOp62
 70
     1
  0
XRECORD
  5
311
102
{ACAD_REACTORS
330
310
102
}
330
310
100
AcDbXrecord
280
     1
102
RTVSPost2010Prop28
280
     0
102
RTVSPost2010PropOp28
 70
     1
102
RTVSPost2010Prop29
280
     1
102
RTVSPost2010PropOp29
 70
     1
102
RTVSPost2010Prop30
280
     1
102
RTVSPost2010PropOp30
 70
     1
102
RTVSPost2010Prop31
280
     0
102
RTVSPost2010PropOp31
 70
     1
102
RTVSPost2010Prop32
280
     0
102
RTVSPost2010PropOp32
 70
     1
102
RTVSPost2010Prop33
280
     0
102
RTVSPost2010PropOp33
 70
     1
102
RTVSPost2010Prop34
280
     0
102
RTVSPost2010PropOp34
 70
     1
102
RTVSPost2010Prop35
280
     0
102
RTVSPost2010PropOp35
 70
     1
102
RTVSPost2010Prop36
280
     0
102
RTVSPost2010PropOp36
 70
     1
102
RTVSPost2010Prop37
 90
       50
102
RTVSPost2010PropOp37
 70
     1
102
RTVSPost2010Prop38
140
0.0
102
RTVSPost2010PropOp38
 70
     1
102
RTVSPost2010Prop39
140
1.0
102
RTVSPost2010PropOp39
 70
     1
102
RTVSPost2010Prop40
 90
        0
102
RTVSPost2010PropOp40
 70
     1
102
RTVSPost2010Prop41ColorIndex
 90
       18
102
RTVSPost2010Prop41ColorRGB
 90
        0
102
RTVSPost2010PropOp41
 70
     1
102
RTVSPost2010Prop42
 90
       50
102
RTVSPost2010PropOp42
 70
     1
102
RTVSPost2010Prop43
 90
        3
102
RTVSPost2010PropOp43
 70
     1
102
RTVSPost2010Prop44ColorIndex
 90
        5
102
RTVSPost2010Prop44ColorRGB
 90
      255
102
RTVSPost2010PropOp44
 70
     1
102
RTVSPost2010Prop45
280
     0
102
RTVSPost2010PropOp45
 70
     1
102
RTVSPost2010Prop46
 90
       50
102
RTVSPost2010PropOp46
 70
     1
102
RTVSPost2010Prop47
 90
       50
102
RTVSPost2010PropOp47
 70
     1
102
RTVSPost2010Prop48
 90
       50
102
RTVSPost2010PropOp48
 70
     1
102
RTVSPost2010Prop49
280
     0
102
RTVSPost2010PropOp49
 70
     1
102
RTVSPost2010Prop50
 90
       50
102
RTVSPost2010PropOp50
 70
     1
102
RTVSPost2010Prop51ColorIndex
 90
      256
102
RTVSPost2010Prop51ColorRGB
 90
-16777216
102
RTVSPost2010PropOp51
 70
     0
102
RTVSPost2010Prop52
140
1.0
102
RTVSPost2010PropOp52
 70
     0
102
RTVSPost2010Prop53
 90
        2
102
RTVSPost2010PropOp53
 70
     1
102
RTVSPost2010Prop54
  1
strokes_ogs.tif
102
RTVSPost2010PropOp54
 70
     1
102
RTVSPost2010Prop55
280
     0
102
RTVSPost2010PropOp55
 70
     1
102
RTVSPost2010Prop56
140
1.0
102
RTVSPost2010PropOp56
 70
     1
102
RTVSPost2010Prop57
140
1.0
102
RTVSPost2010PropOp57
 70
     1
102
RTVSPropertyOp0
 70
     1
102
RTVSPropertyOp1
 70
     1
102
RTVSPropertyOp2
 70
     1
102
RTVSPropertyOp3
 70
     1
102
RTVSPropertyOp4
 70
     1
102
RTVSPropertyOp5
 70
     1
102
RTVSPropertyOp6
 70
     1
102
RTVSPropertyOp7
 70
     1
102
RTVSPropertyOp8
 70
     1
102
RTVSPropertyOp9
 70
     1
102
RTVSPropertyOp10
 70
     1
102
RTVSPropertyOp11
 70
     1
102
RTVSPropertyOp12
 70
     1
102
RTVSPropertyOp13
 70
     1
102
RTVSPropertyOp14
 70
     1
102
RTVSPropertyOp15
 70
     1
102
RTVSPropertyOp16
 70
     1
102
RTVSPropertyOp17
 70
     1
102
RTVSPropertyOp18
 70
     1
102
RTVSPropertyOp19
 70
     1
102
RTVSPropertyOp20
 70
     1
102
RTVSPropertyOp21
 70
     1
102
RTVSPropertyOp22
 70
     1
102
RTVSPropertyOp23
 70
     1
102
RTVSPropertyOp24
 70
     1
102
RTVSPropertyOp25
 70
     1
102
RTVSPropertyOp26
 70
     1
102
RTVSPropertyOp27
 70
     1
102
RTVSPropertyOp28
 70
     1
102
RTVSPropertyOp29
 70
     1
102
RTVSPropertyOp30
 70
     1
102
RTVSPropertyOp31
 70
     1
102
RTVSPropertyOp32
 70
     1
102
RTVSPropertyOp33
 70
     1
102
RTVSPropertyOp34
 70
     1
102
RTVSPropertyOp35
 70
     1
102
RTVSPropertyOp36
 70
     1
102
RTVSPropertyOp37
 70
     1
102
RTVSPropertyOp38
 70
     1
102
RTVSPropertyOp39
 70
     1
102
RTVSPropertyOp40
 70
     1
102
RTVSPropertyOp41
 70
     1
102
RTVSPropertyOp42
 70
     1
102
RTVSPropertyOp43
 70
     1
102
RTVSPropertyOp44
 70
     1
102
RTVSPropertyOp45
 70
     1
102
RTVSPropertyOp46
 70
     1
102
RTVSPropertyOp47
 70
     1
102
RTVSPropertyOp48
 70
     1
102
RTVSPropertyOp49
 70
     1
102
RTVSPropertyOp50
 70
     1
102
RTVSPropertyOp51
 70
     0
102
RTVSPropertyOp52
 70
     0
102
RTVSPropertyOp53
 70
     1
102
RTVSPropertyOp54
 70
     1
102
RTVSPropertyOp55
 70
     1
102
RTVSPropertyOp56
 70
     1
102
RTVSPropertyOp57
 70
     1
102
RTVSPropertyOp58
 70
     1
102
RTVSPropertyOp59
 70
     1
102
RTVSPropertyOp60
 70
     1
102
RTVSPropertyOp61
 70
     1
102
RTVSPropertyOp62
 70
     1
  0
XRECORD
  5
313
102
{ACAD_REACTORS
330
312
102
}
330
312
100
AcDbXrecord
280
     1
102
RTVSPost2010Prop28
280
     0
102
RTVSPost2010PropOp28
 70
     1
102
RTVSPost2010Prop29
280
     1
102
RTVSPost2010PropOp29
 70
     1
102
RTVSPost2010Prop30
280
     1
102
RTVSPost2010PropOp30
 70
     1
102
RTVSPost2010Prop31
280
     0
102
RTVSPost2010PropOp31
 70
     1
102
RTVSPost2010Prop32
280
     0
102
RTVSPost2010PropOp32
 70
     1
102
RTVSPost2010Prop33
280
     0
102
RTVSPost2010PropOp33
 70
     1
102
RTVSPost2010Prop34
280
     0
102
RTVSPost2010PropOp34
 70
     1
102
RTVSPost2010Prop35
280
     0
102
RTVSPost2010PropOp35
 70
     1
102
RTVSPost2010Prop36
280
     0
102
RTVSPost2010PropOp36
 70
     1
102
RTVSPost2010Prop37
 90
       50
102
RTVSPost2010PropOp37
 70
     1
102
RTVSPost2010Prop38
140
0.0
102
RTVSPost2010PropOp38
 70
     1
102
RTVSPost2010Prop39
140
1.0
102
RTVSPost2010PropOp39
 70
     1
102
RTVSPost2010Prop40
 90
        0
102
RTVSPost2010PropOp40
 70
     1
102
RTVSPost2010Prop41ColorIndex
 90
       18
102
RTVSPost2010Prop41ColorRGB
 90
        0
102
RTVSPost2010PropOp41
 70
     1
102
RTVSPost2010Prop42
 90
       50
102
RTVSPost2010PropOp42
 70
     1
102
RTVSPost2010Prop43
 90
        3
102
RTVSPost2010PropOp43
 70
     1
102
RTVSPost2010Prop44ColorIndex
 90
        5
102
RTVSPost2010Prop44ColorRGB
 90
      255
102
RTVSPost2010PropOp44
 70
     1
102
RTVSPost2010Prop45
280
     0
102
RTVSPost2010PropOp45
 70
     1
102
RTVSPost2010Prop46
 90
       50
102
RTVSPost2010PropOp46
 70
     1
102
RTVSPost2010Prop47
 90
       50
102
RTVSPost2010PropOp47
 70
     1
102
RTVSPost2010Prop48
 90
       50
102
RTVSPost2010PropOp48
 70
     1
102
RTVSPost2010Prop49
280
     0
102
RTVSPost2010PropOp49
 70
     1
102
RTVSPost2010Prop50
 90
       50
102
RTVSPost2010PropOp50
 70
     1
102
RTVSPost2010Prop51ColorIndex
 90
      256
102
RTVSPost2010Prop51ColorRGB
 90
-16777216
102
RTVSPost2010PropOp51
 70
     0
102
RTVSPost2010Prop52
140
1.0
102
RTVSPost2010PropOp52
 70
     0
102
RTVSPost2010Prop53
 90
        2
102
RTVSPost2010PropOp53
 70
     1
102
RTVSPost2010Prop54
  1
strokes_ogs.tif
102
RTVSPost2010PropOp54
 70
     1
102
RTVSPost2010Prop55
280
     0
102
RTVSPost2010PropOp55
 70
     1
102
RTVSPost2010Prop56
140
1.0
102
RTVSPost2010PropOp56
 70
     1
102
RTVSPost2010Prop57
140
1.0
102
RTVSPost2010PropOp57
 70
     1
102
RTVSPropertyOp0
 70
     1
102
RTVSPropertyOp1
 70
     1
102
RTVSPropertyOp2
 70
     1
102
RTVSPropertyOp3
 70
     1
102
RTVSPropertyOp4
 70
     1
102
RTVSPropertyOp5
 70
     1
102
RTVSPropertyOp6
 70
     1
102
RTVSPropertyOp7
 70
     1
102
RTVSPropertyOp8
 70
     1
102
RTVSPropertyOp9
 70
     1
102
RTVSPropertyOp10
 70
     1
102
RTVSPropertyOp11
 70
     1
102
RTVSPropertyOp12
 70
     1
102
RTVSPropertyOp13
 70
     1
102
RTVSPropertyOp14
 70
     1
102
RTVSPropertyOp15
 70
     1
102
RTVSPropertyOp16
 70
     1
102
RTVSPropertyOp17
 70
     1
102
RTVSPropertyOp18
 70
     1
102
RTVSPropertyOp19
 70
     1
102
RTVSPropertyOp20
 70
     1
102
RTVSPropertyOp21
 70
     1
102
RTVSPropertyOp22
 70
     1
102
RTVSPropertyOp23
 70
     1
102
RTVSPropertyOp24
 70
     1
102
RTVSPropertyOp25
 70
     1
102
RTVSPropertyOp26
 70
     1
102
RTVSPropertyOp27
 70
     1
102
RTVSPropertyOp28
 70
     1
102
RTVSPropertyOp29
 70
     1
102
RTVSPropertyOp30
 70
     1
102
RTVSPropertyOp31
 70
     1
102
RTVSPropertyOp32
 70
     1
102
RTVSPropertyOp33
 70
     1
102
RTVSPropertyOp34
 70
     1
102
RTVSPropertyOp35
 70
     1
102
RTVSPropertyOp36
 70
     1
102
RTVSPropertyOp37
 70
     1
102
RTVSPropertyOp38
 70
     1
102
RTVSPropertyOp39
 70
     1
102
RTVSPropertyOp40
 70
     1
102
RTVSPropertyOp41
 70
     1
102
RTVSPropertyOp42
 70
     1
102
RTVSPropertyOp43
 70
     1
102
RTVSPropertyOp44
 70
     1
102
RTVSPropertyOp45
 70
     1
102
RTVSPropertyOp46
 70
     1
102
RTVSPropertyOp47
 70
     1
102
RTVSPropertyOp48
 70
     1
102
RTVSPropertyOp49
 70
     1
102
RTVSPropertyOp50
 70
     1
102
RTVSPropertyOp51
 70
     0
102
RTVSPropertyOp52
 70
     0
102
RTVSPropertyOp53
 70
     1
102
RTVSPropertyOp54
 70
     1
102
RTVSPropertyOp55
 70
     1
102
RTVSPropertyOp56
 70
     1
102
RTVSPropertyOp57
 70
     1
102
RTVSPropertyOp58
 70
     1
102
RTVSPropertyOp59
 70
     1
102
RTVSPropertyOp60
 70
     1
102
RTVSPropertyOp61
 70
     1
102
RTVSPropertyOp62
 70
     1
  0
XRECORD
  5
315
102
{ACAD_REACTORS
330
314
102
}
330
314
100
AcDbXrecord
280
     1
102
RTVSPost2010Prop28
280
     0
102
RTVSPost2010PropOp28
 70
     1
102
RTVSPost2010Prop29
280
     1
102
RTVSPost2010PropOp29
 70
     1
102
RTVSPost2010Prop30
280
     1
102
RTVSPost2010PropOp30
 70
     1
102
RTVSPost2010Prop31
280
     0
102
RTVSPost2010PropOp31
 70
     1
102
RTVSPost2010Prop32
280
     0
102
RTVSPost2010PropOp32
 70
     1
102
RTVSPost2010Prop33
280
     0
102
RTVSPost2010PropOp33
 70
     1
102
RTVSPost2010Prop34
280
     0
102
RTVSPost2010PropOp34
 70
     1
102
RTVSPost2010Prop35
280
     0
102
RTVSPost2010PropOp35
 70
     1
102
RTVSPost2010Prop36
280
     0
102
RTVSPost2010PropOp36
 70
     1
102
RTVSPost2010Prop37
 90
       50
102
RTVSPost2010PropOp37
 70
     1
102
RTVSPost2010Prop38
140
0.0
102
RTVSPost2010PropOp38
 70
     1
102
RTVSPost2010Prop39
140
1.0
102
RTVSPost2010PropOp39
 70
     1
102
RTVSPost2010Prop40
 90
        0
102
RTVSPost2010PropOp40
 70
     1
102
RTVSPost2010Prop41ColorIndex
 90
       18
102
RTVSPost2010Prop41ColorRGB
 90
        0
102
RTVSPost2010PropOp41
 70
     1
102
RTVSPost2010Prop42
 90
       50
102
RTVSPost2010PropOp42
 70
     1
102
RTVSPost2010Prop43
 90
        3
102
RTVSPost2010PropOp43
 70
     1
102
RTVSPost2010Prop44ColorIndex
 90
        5
102
RTVSPost2010Prop44ColorRGB
 90
      255
102
RTVSPost2010PropOp44
 70
     1
102
RTVSPost2010Prop45
280
     0
102
RTVSPost2010PropOp45
 70
     1
102
RTVSPost2010Prop46
 90
       50
102
RTVSPost2010PropOp46
 70
     1
102
RTVSPost2010Prop47
 90
       50
102
RTVSPost2010PropOp47
 70
     1
102
RTVSPost2010Prop48
 90
       50
102
RTVSPost2010PropOp48
 70
     1
102
RTVSPost2010Prop49
280
     0
102
RTVSPost2010PropOp49
 70
     1
102
RTVSPost2010Prop50
 90
       50
102
RTVSPost2010PropOp50
 70
     1
102
RTVSPost2010Prop51ColorIndex
 90
      256
102
RTVSPost2010Prop51ColorRGB
 90
-16777216
102
RTVSPost2010PropOp51
 70
     0
102
RTVSPost2010Prop52
140
1.0
102
RTVSPost2010PropOp52
 70
     0
102
RTVSPost2010Prop53
 90
        2
102
RTVSPost2010PropOp53
 70
     1
102
RTVSPost2010Prop54
  1
strokes_ogs.tif
102
RTVSPost2010PropOp54
 70
     1
102
RTVSPost2010Prop55
280
     0
102
RTVSPost2010PropOp55
 70
     1
102
RTVSPost2010Prop56
140
1.0
102
RTVSPost2010PropOp56
 70
     1
102
RTVSPost2010Prop57
140
1.0
102
RTVSPost2010PropOp57
 70
     1
102
RTVSPropertyOp0
 70
     1
102
RTVSPropertyOp1
 70
     1
102
RTVSPropertyOp2
 70
     1
102
RTVSPropertyOp3
 70
     1
102
RTVSPropertyOp4
 70
     1
102
RTVSPropertyOp5
 70
     1
102
RTVSPropertyOp6
 70
     1
102
RTVSPropertyOp7
 70
     1
102
RTVSPropertyOp8
 70
     1
102
RTVSPropertyOp9
 70
     1
102
RTVSPropertyOp10
 70
     1
102
RTVSPropertyOp11
 70
     1
102
RTVSPropertyOp12
 70
     1
102
RTVSPropertyOp13
 70
     1
102
RTVSPropertyOp14
 70
     1
102
RTVSPropertyOp15
 70
     1
102
RTVSPropertyOp16
 70
     1
102
RTVSPropertyOp17
 70
     1
102
RTVSPropertyOp18
 70
     1
102
RTVSPropertyOp19
 70
     1
102
RTVSPropertyOp20
 70
     1
102
RTVSPropertyOp21
 70
     1
102
RTVSPropertyOp22
 70
     1
102
RTVSPropertyOp23
 70
     1
102
RTVSPropertyOp24
 70
     1
102
RTVSPropertyOp25
 70
     1
102
RTVSPropertyOp26
 70
     1
102
RTVSPropertyOp27
 70
     1
102
RTVSPropertyOp28
 70
     1
102
RTVSPropertyOp29
 70
     1
102
RTVSPropertyOp30
 70
     1
102
RTVSPropertyOp31
 70
     1
102
RTVSPropertyOp32
 70
     1
102
RTVSPropertyOp33
 70
     1
102
RTVSPropertyOp34
 70
     1
102
RTVSPropertyOp35
 70
     1
102
RTVSPropertyOp36
 70
     1
102
RTVSPropertyOp37
 70
     1
102
RTVSPropertyOp38
 70
     1
102
RTVSPropertyOp39
 70
     1
102
RTVSPropertyOp40
 70
     1
102
RTVSPropertyOp41
 70
     1
102
RTVSPropertyOp42
 70
     1
102
RTVSPropertyOp43
 70
     1
102
RTVSPropertyOp44
 70
     1
102
RTVSPropertyOp45
 70
     1
102
RTVSPropertyOp46
 70
     1
102
RTVSPropertyOp47
 70
     1
102
RTVSPropertyOp48
 70
     1
102
RTVSPropertyOp49
 70
     1
102
RTVSPropertyOp50
 70
     1
102
RTVSPropertyOp51
 70
     0
102
RTVSPropertyOp52
 70
     0
102
RTVSPropertyOp53
 70
     1
102
RTVSPropertyOp54
 70
     1
102
RTVSPropertyOp55
 70
     1
102
RTVSPropertyOp56
 70
     1
102
RTVSPropertyOp57
 70
     1
102
RTVSPropertyOp58
 70
     1
102
RTVSPropertyOp59
 70
     1
102
RTVSPropertyOp60
 70
     1
102
RTVSPropertyOp61
 70
     1
102
RTVSPropertyOp62
 70
     1
  0
XRECORD
  5
31D
102
{ACAD_REACTORS
330
31C
102
}
330
31C
100
AcDbXrecord
280
     1
102
RTVSPost2010Prop28
280
     0
102
RTVSPost2010PropOp28
 70
     1
102
RTVSPost2010Prop29
280
     1
102
RTVSPost2010PropOp29
 70
     1
102
RTVSPost2010Prop30
280
     1
102
RTVSPost2010PropOp30
 70
     1
102
RTVSPost2010Prop31
280
     0
102
RTVSPost2010PropOp31
 70
     1
102
RTVSPost2010Prop32
280
     0
102
RTVSPost2010PropOp32
 70
     1
102
RTVSPost2010Prop33
280
     0
102
RTVSPost2010PropOp33
 70
     1
102
RTVSPost2010Prop34
280
     0
102
RTVSPost2010PropOp34
 70
     1
102
RTVSPost2010Prop35
280
     0
102
RTVSPost2010PropOp35
 70
     1
102
RTVSPost2010Prop36
280
     0
102
RTVSPost2010PropOp36
 70
     1
102
RTVSPost2010Prop37
 90
       50
102
RTVSPost2010PropOp37
 70
     1
102
RTVSPost2010Prop38
140
0.0
102
RTVSPost2010PropOp38
 70
     1
102
RTVSPost2010Prop39
140
1.0
102
RTVSPost2010PropOp39
 70
     1
102
RTVSPost2010Prop40
 90
        0
102
RTVSPost2010PropOp40
 70
     1
102
RTVSPost2010Prop41ColorIndex
 90
       18
102
RTVSPost2010Prop41ColorRGB
 90
        0
102
RTVSPost2010PropOp41
 70
     1
102
RTVSPost2010Prop42
 90
       50
102
RTVSPost2010PropOp42
 70
     1
102
RTVSPost2010Prop43
 90
        3
102
RTVSPost2010PropOp43
 70
     1
102
RTVSPost2010Prop44ColorIndex
 90
        5
102
RTVSPost2010Prop44ColorRGB
 90
      255
102
RTVSPost2010PropOp44
 70
     1
102
RTVSPost2010Prop45
280
     0
102
RTVSPost2010PropOp45
 70
     1
102
RTVSPost2010Prop46
 90
       50
102
RTVSPost2010PropOp46
 70
     1
102
RTVSPost2010Prop47
 90
       50
102
RTVSPost2010PropOp47
 70
     1
102
RTVSPost2010Prop48
 90
       50
102
RTVSPost2010PropOp48
 70
     1
102
RTVSPost2010Prop49
280
     0
102
RTVSPost2010PropOp49
 70
     1
102
RTVSPost2010Prop50
 90
       50
102
RTVSPost2010PropOp50
 70
     1
102
RTVSPost2010Prop51ColorIndex
 90
      256
102
RTVSPost2010Prop51ColorRGB
 90
-16777216
102
RTVSPost2010PropOp51
 70
     0
102
RTVSPost2010Prop52
140
1.0
102
RTVSPost2010PropOp52
 70
     0
102
RTVSPost2010Prop53
 90
        2
102
RTVSPost2010PropOp53
 70
     1
102
RTVSPost2010Prop54
  1
strokes_ogs.tif
102
RTVSPost2010PropOp54
 70
     1
102
RTVSPost2010Prop55
280
     0
102
RTVSPost2010PropOp55
 70
     1
102
RTVSPost2010Prop56
140
1.0
102
RTVSPost2010PropOp56
 70
     1
102
RTVSPost2010Prop57
140
1.0
102
RTVSPost2010PropOp57
 70
     1
102
RTVSPropertyOp0
 70
     1
102
RTVSPropertyOp1
 70
     1
102
RTVSPropertyOp2
 70
     1
102
RTVSPropertyOp3
 70
     1
102
RTVSPropertyOp4
 70
     1
102
RTVSPropertyOp5
 70
     1
102
RTVSPropertyOp6
 70
     1
102
RTVSPropertyOp7
 70
     1
102
RTVSPropertyOp8
 70
     1
102
RTVSPropertyOp9
 70
     1
102
RTVSPropertyOp10
 70
     1
102
RTVSPropertyOp11
 70
     1
102
RTVSPropertyOp12
 70
     1
102
RTVSPropertyOp13
 70
     1
102
RTVSPropertyOp14
 70
     1
102
RTVSPropertyOp15
 70
     1
102
RTVSPropertyOp16
 70
     1
102
RTVSPropertyOp17
 70
     1
102
RTVSPropertyOp18
 70
     1
102
RTVSPropertyOp19
 70
     1
102
RTVSPropertyOp20
 70
     1
102
RTVSPropertyOp21
 70
     1
102
RTVSPropertyOp22
 70
     1
102
RTVSPropertyOp23
 70
     1
102
RTVSPropertyOp24
 70
     1
102
RTVSPropertyOp25
 70
     1
102
RTVSPropertyOp26
 70
     1
102
RTVSPropertyOp27
 70
     1
102
RTVSPropertyOp28
 70
     1
102
RTVSPropertyOp29
 70
     1
102
RTVSPropertyOp30
 70
     1
102
RTVSPropertyOp31
 70
     1
102
RTVSPropertyOp32
 70
     1
102
RTVSPropertyOp33
 70
     1
102
RTVSPropertyOp34
 70
     1
102
RTVSPropertyOp35
 70
     1
102
RTVSPropertyOp36
 70
     1
102
RTVSPropertyOp37
 70
     1
102
RTVSPropertyOp38
 70
     1
102
RTVSPropertyOp39
 70
     1
102
RTVSPropertyOp40
 70
     1
102
RTVSPropertyOp41
 70
     1
102
RTVSPropertyOp42
 70
     1
102
RTVSPropertyOp43
 70
     1
102
RTVSPropertyOp44
 70
     1
102
RTVSPropertyOp45
 70
     1
102
RTVSPropertyOp46
 70
     1
102
RTVSPropertyOp47
 70
     1
102
RTVSPropertyOp48
 70
     1
102
RTVSPropertyOp49
 70
     1
102
RTVSPropertyOp50
 70
     1
102
RTVSPropertyOp51
 70
     0
102
RTVSPropertyOp52
 70
     0
102
RTVSPropertyOp53
 70
     1
102
RTVSPropertyOp54
 70
     1
102
RTVSPropertyOp55
 70
     1
102
RTVSPropertyOp56
 70
     1
102
RTVSPropertyOp57
 70
     1
102
RTVSPropertyOp58
 70
     1
102
RTVSPropertyOp59
 70
     1
102
RTVSPropertyOp60
 70
     1
102
RTVSPropertyOp61
 70
     1
102
RTVSPropertyOp62
 70
     1
  0
XRECORD
  5
339
102
{ACAD_REACTORS
330
338
102
}
330
338
100
AcDbXrecord
280
     1
102
RTVSPost2010Prop28
280
     0
102
RTVSPost2010PropOp28
 70
     1
102
RTVSPost2010Prop29
280
     1
102
RTVSPost2010PropOp29
 70
     1
102
RTVSPost2010Prop30
280
     1
102
RTVSPost2010PropOp30
 70
     1
102
RTVSPost2010Prop31
280
     0
102
RTVSPost2010PropOp31
 70
     1
102
RTVSPost2010Prop32
280
     0
102
RTVSPost2010PropOp32
 70
     1
102
RTVSPost2010Prop33
280
     0
102
RTVSPost2010PropOp33
 70
     1
102
RTVSPost2010Prop34
280
     0
102
RTVSPost2010PropOp34
 70
     1
102
RTVSPost2010Prop35
280
     0
102
RTVSPost2010PropOp35
 70
     1
102
RTVSPost2010Prop36
280
     0
102
RTVSPost2010PropOp36
 70
     1
102
RTVSPost2010Prop37
 90
       50
102
RTVSPost2010PropOp37
 70
     0
102
RTVSPost2010Prop38
140
0.0
102
RTVSPost2010PropOp38
 70
     0
102
RTVSPost2010Prop39
140
1.0
102
RTVSPost2010PropOp39
 70
     0
102
RTVSPost2010Prop40
 90
        0
102
RTVSPost2010PropOp40
 70
     0
102
RTVSPost2010Prop41ColorIndex
 90
       18
102
RTVSPost2010Prop41ColorRGB
 90
        0
102
RTVSPost2010PropOp41
 70
     0
102
RTVSPost2010Prop42
 90
       50
102
RTVSPost2010PropOp42
 70
     0
102
RTVSPost2010Prop43
 90
        3
102
RTVSPost2010PropOp43
 70
     0
102
RTVSPost2010Prop44ColorIndex
 90
        5
102
RTVSPost2010Prop44ColorRGB
 90
      255
102
RTVSPost2010PropOp44
 70
     0
102
RTVSPost2010Prop45
280
     0
102
RTVSPost2010PropOp45
 70
     1
102
RTVSPost2010Prop46
 90
       50
102
RTVSPost2010PropOp46
 70
     0
102
RTVSPost2010Prop47
 90
       50
102
RTVSPost2010PropOp47
 70
     0
102
RTVSPost2010Prop48
 90
       50
102
RTVSPost2010PropOp48
 70
     0
102
RTVSPost2010Prop49
280
     0
102
RTVSPost2010PropOp49
 70
     1
102
RTVSPost2010Prop50
 90
       50
102
RTVSPost2010PropOp50
 70
     0
102
RTVSPost2010Prop51ColorIndex
 90
      256
102
RTVSPost2010Prop51ColorRGB
 90
-16777216
102
RTVSPost2010PropOp51
 70
     0
102
RTVSPost2010Prop52
140
1.0
102
RTVSPost2010PropOp52
 70
     0
102
RTVSPost2010Prop53
 90
        2
102
RTVSPost2010PropOp53
 70
     0
102
RTVSPost2010Prop54
  1
strokes_ogs.tif
102
RTVSPost2010PropOp54
 70
     0
102
RTVSPost2010Prop55
280
     0
102
RTVSPost2010PropOp55
 70
     1
102
RTVSPost2010Prop56
140
1.0
102
RTVSPost2010PropOp56
 70
     0
102
RTVSPost2010Prop57
140
1.0
102
RTVSPost2010PropOp57
 70
     0
102
RTVSPropertyOp0
 70
     0
102
RTVSPropertyOp1
 70
     0
102
RTVSPropertyOp2
 70
     0
102
RTVSPropertyOp3
 70
     0
102
RTVSPropertyOp4
 70
     0
102
RTVSPropertyOp5
 70
     0
102
RTVSPropertyOp6
 70
     0
102
RTVSPropertyOp7
 70
     0
102
RTVSPropertyOp8
 70
     0
102
RTVSPropertyOp9
 70
     0
102
RTVSPropertyOp10
 70
     0
102
RTVSPropertyOp11
 70
     0
102
RTVSPropertyOp12
 70
     0
102
RTVSPropertyOp13
 70
     0
102
RTVSPropertyOp14
 70
     2
102
RTVSPropertyOp15
 70
     0
102
RTVSPropertyOp16
 70
     0
102
RTVSPropertyOp17
 70
     0
102
RTVSPropertyOp18
 70
     0
102
RTVSPropertyOp19
 70
     0
102
RTVSPropertyOp20
 70
     0
102
RTVSPropertyOp21
 70
     0
102
RTVSPropertyOp22
 70
     0
102
RTVSPropertyOp23
 70
     0
102
RTVSPropertyOp24
 70
     0
102
RTVSPropertyOp25
 70
     0
102
RTVSPropertyOp26
 70
     0
102
RTVSPropertyOp27
 70
     0
102
RTVSPropertyOp28
 70
     1
102
RTVSPropertyOp29
 70
     1
102
RTVSPropertyOp30
 70
     1
102
RTVSPropertyOp31
 70
     1
102
RTVSPropertyOp32
 70
     1
102
RTVSPropertyOp33
 70
     1
102
RTVSPropertyOp34
 70
     1
102
RTVSPropertyOp35
 70
     1
102
RTVSPropertyOp36
 70
     1
102
RTVSPropertyOp37
 70
     0
102
RTVSPropertyOp38
 70
     0
102
RTVSPropertyOp39
 70
     0
102
RTVSPropertyOp40
 70
     0
102
RTVSPropertyOp41
 70
     0
102
RTVSPropertyOp42
 70
     0
102
RTVSPropertyOp43
 70
     0
102
RTVSPropertyOp44
 70
     0
102
RTVSPropertyOp45
 70
     1
102
RTVSPropertyOp46
 70
     0
102
RTVSPropertyOp47
 70
     0
102
RTVSPropertyOp48
 70
     0
102
RTVSPropertyOp49
 70
     1
102
RTVSPropertyOp50
 70
     0
102
RTVSPropertyOp51
 70
     0
102
RTVSPropertyOp52
 70
     0
102
RTVSPropertyOp53
 70
     0
102
RTVSPropertyOp54
 70
     0
102
RTVSPropertyOp55
 70
     1
102
RTVSPropertyOp56
 70
     0
102
RTVSPropertyOp57
 70
     0
102
RTVSPropertyOp58
 70
     0
102
RTVSPropertyOp59
 70
     0
102
RTVSPropertyOp60
 70
     0
102
RTVSPropertyOp61
 70
     0
102
RTVSPropertyOp62
 70
     0
  0
XRECORD
  5
329
102
{ACAD_REACTORS
330
328
102
}
330
328
100
AcDbXrecord
280
     1
102
RTVSPost2010Prop28
280
     0
102
RTVSPost2010PropOp28
 70
     1
102
RTVSPost2010Prop29
280
     1
102
RTVSPost2010PropOp29
 70
     1
102
RTVSPost2010Prop30
280
     1
102
RTVSPost2010PropOp30
 70
     1
102
RTVSPost2010Prop31
280
     0
102
RTVSPost2010PropOp31
 70
     1
102
RTVSPost2010Prop32
280
     0
102
RTVSPost2010PropOp32
 70
     1
102
RTVSPost2010Prop33
280
     0
102
RTVSPost2010PropOp33
 70
     1
102
RTVSPost2010Prop34
280
     0
102
RTVSPost2010PropOp34
 70
     1
102
RTVSPost2010Prop35
280
     0
102
RTVSPost2010PropOp35
 70
     1
102
RTVSPost2010Prop36
280
     0
102
RTVSPost2010PropOp36
 70
     1
102
RTVSPost2010Prop37
 90
       50
102
RTVSPost2010PropOp37
 70
     1
102
RTVSPost2010Prop38
140
0.0
102
RTVSPost2010PropOp38
 70
     1
102
RTVSPost2010Prop39
140
1.0
102
RTVSPost2010PropOp39
 70
     1
102
RTVSPost2010Prop40
 90
        0
102
RTVSPost2010PropOp40
 70
     1
102
RTVSPost2010Prop41ColorIndex
 90
       18
102
RTVSPost2010Prop41ColorRGB
 90
        0
102
RTVSPost2010PropOp41
 70
     1
102
RTVSPost2010Prop42
 90
       50
102
RTVSPost2010PropOp42
 70
     1
102
RTVSPost2010Prop43
 90
        3
102
RTVSPost2010PropOp43
 70
     1
102
RTVSPost2010Prop44ColorIndex
 90
        5
102
RTVSPost2010Prop44ColorRGB
 90
      255
102
RTVSPost2010PropOp44
 70
     1
102
RTVSPost2010Prop45
280
     0
102
RTVSPost2010PropOp45
 70
     1
102
RTVSPost2010Prop46
 90
       50
102
RTVSPost2010PropOp46
 70
     1
102
RTVSPost2010Prop47
 90
       50
102
RTVSPost2010PropOp47
 70
     1
102
RTVSPost2010Prop48
 90
       50
102
RTVSPost2010PropOp48
 70
     1
102
RTVSPost2010Prop49
280
     0
102
RTVSPost2010PropOp49
 70
     1
102
RTVSPost2010Prop50
 90
       50
102
RTVSPost2010PropOp50
 70
     1
102
RTVSPost2010Prop51ColorIndex
 90
      256
102
RTVSPost2010Prop51ColorRGB
 90
-16777216
102
RTVSPost2010PropOp51
 70
     0
102
RTVSPost2010Prop52
140
1.0
102
RTVSPost2010PropOp52
 70
     0
102
RTVSPost2010Prop53
 90
        2
102
RTVSPost2010PropOp53
 70
     1
102
RTVSPost2010Prop54
  1
strokes_ogs.tif
102
RTVSPost2010PropOp54
 70
     1
102
RTVSPost2010Prop55
280
     0
102
RTVSPost2010PropOp55
 70
     1
102
RTVSPost2010Prop56
140
1.0
102
RTVSPost2010PropOp56
 70
     1
102
RTVSPost2010Prop57
140
1.0
102
RTVSPost2010PropOp57
 70
     1
102
RTVSPropertyOp0
 70
     1
102
RTVSPropertyOp1
 70
     1
102
RTVSPropertyOp2
 70
     1
102
RTVSPropertyOp3
 70
     1
102
RTVSPropertyOp4
 70
     1
102
RTVSPropertyOp5
 70
     1
102
RTVSPropertyOp6
 70
     1
102
RTVSPropertyOp7
 70
     1
102
RTVSPropertyOp8
 70
     1
102
RTVSPropertyOp9
 70
     1
102
RTVSPropertyOp10
 70
     1
102
RTVSPropertyOp11
 70
     1
102
RTVSPropertyOp12
 70
     1
102
RTVSPropertyOp13
 70
     1
102
RTVSPropertyOp14
 70
     1
102
RTVSPropertyOp15
 70
     1
102
RTVSPropertyOp16
 70
     1
102
RTVSPropertyOp17
 70
     1
102
RTVSPropertyOp18
 70
     1
102
RTVSPropertyOp19
 70
     1
102
RTVSPropertyOp20
 70
     1
102
RTVSPropertyOp21
 70
     1
102
RTVSPropertyOp22
 70
     1
102
RTVSPropertyOp23
 70
     1
102
RTVSPropertyOp24
 70
     1
102
RTVSPropertyOp25
 70
     1
102
RTVSPropertyOp26
 70
     1
102
RTVSPropertyOp27
 70
     1
102
RTVSPropertyOp28
 70
     1
102
RTVSPropertyOp29
 70
     1
102
RTVSPropertyOp30
 70
     1
102
RTVSPropertyOp31
 70
     1
102
RTVSPropertyOp32
 70
     1
102
RTVSPropertyOp33
 70
     1
102
RTVSPropertyOp34
 70
     1
102
RTVSPropertyOp35
 70
     1
102
RTVSPropertyOp36
 70
     1
102
RTVSPropertyOp37
 70
     1
102
RTVSPropertyOp38
 70
     1
102
RTVSPropertyOp39
 70
     1
102
RTVSPropertyOp40
 70
     1
102
RTVSPropertyOp41
 70
     1
102
RTVSPropertyOp42
 70
     1
102
RTVSPropertyOp43
 70
     1
102
RTVSPropertyOp44
 70
     1
102
RTVSPropertyOp45
 70
     1
102
RTVSPropertyOp46
 70
     1
102
RTVSPropertyOp47
 70
     1
102
RTVSPropertyOp48
 70
     1
102
RTVSPropertyOp49
 70
     1
102
RTVSPropertyOp50
 70
     1
102
RTVSPropertyOp51
 70
     0
102
RTVSPropertyOp52
 70
     0
102
RTVSPropertyOp53
 70
     1
102
RTVSPropertyOp54
 70
     1
102
RTVSPropertyOp55
 70
     1
102
RTVSPropertyOp56
 70
     1
102
RTVSPropertyOp57
 70
     1
102
RTVSPropertyOp58
 70
     1
102
RTVSPropertyOp59
 70
     1
102
RTVSPropertyOp60
 70
     1
102
RTVSPropertyOp61
 70
     1
102
RTVSPropertyOp62
 70
     1
  0
XRECORD
  5
33B
102
{ACAD_REACTORS
330
33A
102
}
330
33A
100
AcDbXrecord
280
     1
102
RTVSPost2010Prop28
280
     0
102
RTVSPost2010PropOp28
 70
     1
102
RTVSPost2010Prop29
280
     1
102
RTVSPost2010PropOp29
 70
     1
102
RTVSPost2010Prop30
280
     1
102
RTVSPost2010PropOp30
 70
     1
102
RTVSPost2010Prop31
280
     0
102
RTVSPost2010PropOp31
 70
     1
102
RTVSPost2010Prop32
280
     0
102
RTVSPost2010PropOp32
 70
     1
102
RTVSPost2010Prop33
280
     0
102
RTVSPost2010PropOp33
 70
     1
102
RTVSPost2010Prop34
280
     0
102
RTVSPost2010PropOp34
 70
     1
102
RTVSPost2010Prop35
280
     0
102
RTVSPost2010PropOp35
 70
     1
102
RTVSPost2010Prop36
280
     0
102
RTVSPost2010PropOp36
 70
     1
102
RTVSPost2010Prop37
 90
       50
102
RTVSPost2010PropOp37
 70
     0
102
RTVSPost2010Prop38
140
0.0
102
RTVSPost2010PropOp38
 70
     0
102
RTVSPost2010Prop39
140
1.0
102
RTVSPost2010PropOp39
 70
     0
102
RTVSPost2010Prop40
 90
        0
102
RTVSPost2010PropOp40
 70
     0
102
RTVSPost2010Prop41ColorIndex
 90
       18
102
RTVSPost2010Prop41ColorRGB
 90
        0
102
RTVSPost2010PropOp41
 70
     0
102
RTVSPost2010Prop42
 90
       50
102
RTVSPost2010PropOp42
 70
     0
102
RTVSPost2010Prop43
 90
        3
102
RTVSPost2010PropOp43
 70
     0
102
RTVSPost2010Prop44ColorIndex
 90
        5
102
RTVSPost2010Prop44ColorRGB
 90
      255
102
RTVSPost2010PropOp44
 70
     0
102
RTVSPost2010Prop45
280
     0
102
RTVSPost2010PropOp45
 70
     1
102
RTVSPost2010Prop46
 90
       50
102
RTVSPost2010PropOp46
 70
     0
102
RTVSPost2010Prop47
 90
       50
102
RTVSPost2010PropOp47
 70
     0
102
RTVSPost2010Prop48
 90
       50
102
RTVSPost2010PropOp48
 70
     0
102
RTVSPost2010Prop49
280
     0
102
RTVSPost2010PropOp49
 70
     1
102
RTVSPost2010Prop50
 90
       50
102
RTVSPost2010PropOp50
 70
     0
102
RTVSPost2010Prop51ColorIndex
 90
      256
102
RTVSPost2010Prop51ColorRGB
 90
-16777216
102
RTVSPost2010PropOp51
 70
     0
102
RTVSPost2010Prop52
140
1.0
102
RTVSPost2010PropOp52
 70
     0
102
RTVSPost2010Prop53
 90
        2
102
RTVSPost2010PropOp53
 70
     0
102
RTVSPost2010Prop54
  1
strokes_ogs.tif
102
RTVSPost2010PropOp54
 70
     0
102
RTVSPost2010Prop55
280
     0
102
RTVSPost2010PropOp55
 70
     1
102
RTVSPost2010Prop56
140
1.0
102
RTVSPost2010PropOp56
 70
     0
102
RTVSPost2010Prop57
140
1.0
102
RTVSPost2010PropOp57
 70
     0
102
RTVSPropertyOp0
 70
     0
102
RTVSPropertyOp1
 70
     0
102
RTVSPropertyOp2
 70
     0
102
RTVSPropertyOp3
 70
     0
102
RTVSPropertyOp4
 70
     0
102
RTVSPropertyOp5
 70
     0
102
RTVSPropertyOp6
 70
     0
102
RTVSPropertyOp7
 70
     0
102
RTVSPropertyOp8
 70
     0
102
RTVSPropertyOp9
 70
     0
102
RTVSPropertyOp10
 70
     0
102
RTVSPropertyOp11
 70
     0
102
RTVSPropertyOp12
 70
     0
102
RTVSPropertyOp13
 70
     0
102
RTVSPropertyOp14
 70
     2
102
RTVSPropertyOp15
 70
     0
102
RTVSPropertyOp16
 70
     0
102
RTVSPropertyOp17
 70
     0
102
RTVSPropertyOp18
 70
     0
102
RTVSPropertyOp19
 70
     0
102
RTVSPropertyOp20
 70
     0
102
RTVSPropertyOp21
 70
     0
102
RTVSPropertyOp22
 70
     0
102
RTVSPropertyOp23
 70
     0
102
RTVSPropertyOp24
 70
     0
102
RTVSPropertyOp25
 70
     0
102
RTVSPropertyOp26
 70
     0
102
RTVSPropertyOp27
 70
     0
102
RTVSPropertyOp28
 70
     1
102
RTVSPropertyOp29
 70
     1
102
RTVSPropertyOp30
 70
     1
102
RTVSPropertyOp31
 70
     1
102
RTVSPropertyOp32
 70
     1
102
RTVSPropertyOp33
 70
     1
102
RTVSPropertyOp34
 70
     1
102
RTVSPropertyOp35
 70
     1
102
RTVSPropertyOp36
 70
     1
102
RTVSPropertyOp37
 70
     0
102
RTVSPropertyOp38
 70
     0
102
RTVSPropertyOp39
 70
     0
102
RTVSPropertyOp40
 70
     0
102
RTVSPropertyOp41
 70
     0
102
RTVSPropertyOp42
 70
     0
102
RTVSPropertyOp43
 70
     0
102
RTVSPropertyOp44
 70
     0
102
RTVSPropertyOp45
 70
     1
102
RTVSPropertyOp46
 70
     0
102
RTVSPropertyOp47
 70
     0
102
RTVSPropertyOp48
 70
     0
102
RTVSPropertyOp49
 70
     1
102
RTVSPropertyOp50
 70
     0
102
RTVSPropertyOp51
 70
     0
102
RTVSPropertyOp52
 70
     0
102
RTVSPropertyOp53
 70
     0
102
RTVSPropertyOp54
 70
     0
102
RTVSPropertyOp55
 70
     1
102
RTVSPropertyOp56
 70
     0
102
RTVSPropertyOp57
 70
     0
102
RTVSPropertyOp58
 70
     0
102
RTVSPropertyOp59
 70
     0
102
RTVSPropertyOp60
 70
     0
102
RTVSPropertyOp61
 70
     0
102
RTVSPropertyOp62
 70
     0
  0
XRECORD
  5
321
102
{ACAD_REACTORS
330
320
102
}
330
320
100
AcDbXrecord
280
     1
102
RTVSPost2010Prop28
280
     0
102
RTVSPost2010PropOp28
 70
     1
102
RTVSPost2010Prop29
280
     1
102
RTVSPost2010PropOp29
 70
     1
102
RTVSPost2010Prop30
280
     1
102
RTVSPost2010PropOp30
 70
     1
102
RTVSPost2010Prop31
280
     0
102
RTVSPost2010PropOp31
 70
     1
102
RTVSPost2010Prop32
280
     0
102
RTVSPost2010PropOp32
 70
     1
102
RTVSPost2010Prop33
280
     0
102
RTVSPost2010PropOp33
 70
     1
102
RTVSPost2010Prop34
280
     0
102
RTVSPost2010PropOp34
 70
     1
102
RTVSPost2010Prop35
280
     0
102
RTVSPost2010PropOp35
 70
     1
102
RTVSPost2010Prop36
280
     0
102
RTVSPost2010PropOp36
 70
     1
102
RTVSPost2010Prop37
 90
       50
102
RTVSPost2010PropOp37
 70
     1
102
RTVSPost2010Prop38
140
0.0
102
RTVSPost2010PropOp38
 70
     1
102
RTVSPost2010Prop39
140
1.0
102
RTVSPost2010PropOp39
 70
     1
102
RTVSPost2010Prop40
 90
        0
102
RTVSPost2010PropOp40
 70
     1
102
RTVSPost2010Prop41ColorIndex
 90
       18
102
RTVSPost2010Prop41ColorRGB
 90
        0
102
RTVSPost2010PropOp41
 70
     1
102
RTVSPost2010Prop42
 90
       50
102
RTVSPost2010PropOp42
 70
     1
102
RTVSPost2010Prop43
 90
        3
102
RTVSPost2010PropOp43
 70
     1
102
RTVSPost2010Prop44ColorIndex
 90
        5
102
RTVSPost2010Prop44ColorRGB
 90
      255
102
RTVSPost2010PropOp44
 70
     1
102
RTVSPost2010Prop45
280
     0
102
RTVSPost2010PropOp45
 70
     1
102
RTVSPost2010Prop46
 90
       50
102
RTVSPost2010PropOp46
 70
     1
102
RTVSPost2010Prop47
 90
       50
102
RTVSPost2010PropOp47
 70
     1
102
RTVSPost2010Prop48
 90
       50
102
RTVSPost2010PropOp48
 70
     1
102
RTVSPost2010Prop49
280
     0
102
RTVSPost2010PropOp49
 70
     1
102
RTVSPost2010Prop50
 90
       50
102
RTVSPost2010PropOp50
 70
     1
102
RTVSPost2010Prop51ColorIndex
 90
      256
102
RTVSPost2010Prop51ColorRGB
 90
-16777216
102
RTVSPost2010PropOp51
 70
     0
102
RTVSPost2010Prop52
140
1.0
102
RTVSPost2010PropOp52
 70
     0
102
RTVSPost2010Prop53
 90
        2
102
RTVSPost2010PropOp53
 70
     1
102
RTVSPost2010Prop54
  1
strokes_ogs.tif
102
RTVSPost2010PropOp54
 70
     1
102
RTVSPost2010Prop55
280
     0
102
RTVSPost2010PropOp55
 70
     1
102
RTVSPost2010Prop56
140
1.0
102
RTVSPost2010PropOp56
 70
     1
102
RTVSPost2010Prop57
140
1.0
102
RTVSPost2010PropOp57
 70
     1
102
RTVSPropertyOp0
 70
     1
102
RTVSPropertyOp1
 70
     1
102
RTVSPropertyOp2
 70
     1
102
RTVSPropertyOp3
 70
     1
102
RTVSPropertyOp4
 70
     1
102
RTVSPropertyOp5
 70
     1
102
RTVSPropertyOp6
 70
     1
102
RTVSPropertyOp7
 70
     1
102
RTVSPropertyOp8
 70
     1
102
RTVSPropertyOp9
 70
     1
102
RTVSPropertyOp10
 70
     1
102
RTVSPropertyOp11
 70
     1
102
RTVSPropertyOp12
 70
     1
102
RTVSPropertyOp13
 70
     1
102
RTVSPropertyOp14
 70
     1
102
RTVSPropertyOp15
 70
     1
102
RTVSPropertyOp16
 70
     1
102
RTVSPropertyOp17
 70
     1
102
RTVSPropertyOp18
 70
     1
102
RTVSPropertyOp19
 70
     1
102
RTVSPropertyOp20
 70
     1
102
RTVSPropertyOp21
 70
     1
102
RTVSPropertyOp22
 70
     1
102
RTVSPropertyOp23
 70
     1
102
RTVSPropertyOp24
 70
     1
102
RTVSPropertyOp25
 70
     1
102
RTVSPropertyOp26
 70
     1
102
RTVSPropertyOp27
 70
     1
102
RTVSPropertyOp28
 70
     1
102
RTVSPropertyOp29
 70
     1
102
RTVSPropertyOp30
 70
     1
102
RTVSPropertyOp31
 70
     1
102
RTVSPropertyOp32
 70
     1
102
RTVSPropertyOp33
 70
     1
102
RTVSPropertyOp34
 70
     1
102
RTVSPropertyOp35
 70
     1
102
RTVSPropertyOp36
 70
     1
102
RTVSPropertyOp37
 70
     1
102
RTVSPropertyOp38
 70
     1
102
RTVSPropertyOp39
 70
     1
102
RTVSPropertyOp40
 70
     1
102
RTVSPropertyOp41
 70
     1
102
RTVSPropertyOp42
 70
     1
102
RTVSPropertyOp43
 70
     1
102
RTVSPropertyOp44
 70
     1
102
RTVSPropertyOp45
 70
     1
102
RTVSPropertyOp46
 70
     1
102
RTVSPropertyOp47
 70
     1
102
RTVSPropertyOp48
 70
     1
102
RTVSPropertyOp49
 70
     1
102
RTVSPropertyOp50
 70
     1
102
RTVSPropertyOp51
 70
     0
102
RTVSPropertyOp52
 70
     0
102
RTVSPropertyOp53
 70
     1
102
RTVSPropertyOp54
 70
     1
102
RTVSPropertyOp55
 70
     1
102
RTVSPropertyOp56
 70
     1
102
RTVSPropertyOp57
 70
     1
102
RTVSPropertyOp58
 70
     1
102
RTVSPropertyOp59
 70
     1
102
RTVSPropertyOp60
 70
     1
102
RTVSPropertyOp61
 70
     1
102
RTVSPropertyOp62
 70
     1
  0
XRECORD
  5
337
102
{ACAD_REACTORS
330
336
102
}
330
336
100
AcDbXrecord
280
     1
102
RTVSPost2010Prop28
280
     0
102
RTVSPost2010PropOp28
 70
     1
102
RTVSPost2010Prop29
280
     1
102
RTVSPost2010PropOp29
 70
     1
102
RTVSPost2010Prop30
280
     1
102
RTVSPost2010PropOp30
 70
     1
102
RTVSPost2010Prop31
280
     0
102
RTVSPost2010PropOp31
 70
     1
102
RTVSPost2010Prop32
280
     0
102
RTVSPost2010PropOp32
 70
     1
102
RTVSPost2010Prop33
280
     0
102
RTVSPost2010PropOp33
 70
     1
102
RTVSPost2010Prop34
280
     0
102
RTVSPost2010PropOp34
 70
     1
102
RTVSPost2010Prop35
280
     0
102
RTVSPost2010PropOp35
 70
     1
102
RTVSPost2010Prop36
280
     0
102
RTVSPost2010PropOp36
 70
     1
102
RTVSPost2010Prop37
 90
       50
102
RTVSPost2010PropOp37
 70
     1
102
RTVSPost2010Prop38
140
0.0
102
RTVSPost2010PropOp38
 70
     1
102
RTVSPost2010Prop39
140
1.0
102
RTVSPost2010PropOp39
 70
     1
102
RTVSPost2010Prop40
 90
        0
102
RTVSPost2010PropOp40
 70
     1
102
RTVSPost2010Prop41ColorIndex
 90
       18
102
RTVSPost2010Prop41ColorRGB
 90
        0
102
RTVSPost2010PropOp41
 70
     1
102
RTVSPost2010Prop42
 90
       50
102
RTVSPost2010PropOp42
 70
     1
102
RTVSPost2010Prop43
 90
        3
102
RTVSPost2010PropOp43
 70
     1
102
RTVSPost2010Prop44ColorIndex
 90
        5
102
RTVSPost2010Prop44ColorRGB
 90
      255
102
RTVSPost2010PropOp44
 70
     1
102
RTVSPost2010Prop45
280
     0
102
RTVSPost2010PropOp45
 70
     1
102
RTVSPost2010Prop46
 90
       50
102
RTVSPost2010PropOp46
 70
     1
102
RTVSPost2010Prop47
 90
       50
102
RTVSPost2010PropOp47
 70
     1
102
RTVSPost2010Prop48
 90
       50
102
RTVSPost2010PropOp48
 70
     1
102
RTVSPost2010Prop49
280
     0
102
RTVSPost2010PropOp49
 70
     1
102
RTVSPost2010Prop50
 90
       50
102
RTVSPost2010PropOp50
 70
     1
102
RTVSPost2010Prop51ColorIndex
 90
      256
102
RTVSPost2010Prop51ColorRGB
 90
-16777216
102
RTVSPost2010PropOp51
 70
     0
102
RTVSPost2010Prop52
140
1.0
102
RTVSPost2010PropOp52
 70
     0
102
RTVSPost2010Prop53
 90
        2
102
RTVSPost2010PropOp53
 70
     1
102
RTVSPost2010Prop54
  1
strokes_ogs.tif
102
RTVSPost2010PropOp54
 70
     1
102
RTVSPost2010Prop55
280
     0
102
RTVSPost2010PropOp55
 70
     1
102
RTVSPost2010Prop56
140
1.0
102
RTVSPost2010PropOp56
 70
     1
102
RTVSPost2010Prop57
140
1.0
102
RTVSPost2010PropOp57
 70
     1
102
RTVSPropertyOp0
 70
     1
102
RTVSPropertyOp1
 70
     1
102
RTVSPropertyOp2
 70
     1
102
RTVSPropertyOp3
 70
     1
102
RTVSPropertyOp4
 70
     1
102
RTVSPropertyOp5
 70
     1
102
RTVSPropertyOp6
 70
     1
102
RTVSPropertyOp7
 70
     1
102
RTVSPropertyOp8
 70
     1
102
RTVSPropertyOp9
 70
     1
102
RTVSPropertyOp10
 70
     1
102
RTVSPropertyOp11
 70
     1
102
RTVSPropertyOp12
 70
     1
102
RTVSPropertyOp13
 70
     1
102
RTVSPropertyOp14
 70
     1
102
RTVSPropertyOp15
 70
     1
102
RTVSPropertyOp16
 70
     1
102
RTVSPropertyOp17
 70
     1
102
RTVSPropertyOp18
 70
     1
102
RTVSPropertyOp19
 70
     1
102
RTVSPropertyOp20
 70
     1
102
RTVSPropertyOp21
 70
     1
102
RTVSPropertyOp22
 70
     1
102
RTVSPropertyOp23
 70
     1
102
RTVSPropertyOp24
 70
     1
102
RTVSPropertyOp25
 70
     1
102
RTVSPropertyOp26
 70
     1
102
RTVSPropertyOp27
 70
     1
102
RTVSPropertyOp28
 70
     1
102
RTVSPropertyOp29
 70
     1
102
RTVSPropertyOp30
 70
     1
102
RTVSPropertyOp31
 70
     1
102
RTVSPropertyOp32
 70
     1
102
RTVSPropertyOp33
 70
     1
102
RTVSPropertyOp34
 70
     1
102
RTVSPropertyOp35
 70
     1
102
RTVSPropertyOp36
 70
     1
102
RTVSPropertyOp37
 70
     1
102
RTVSPropertyOp38
 70
     1
102
RTVSPropertyOp39
 70
     1
102
RTVSPropertyOp40
 70
     1
102
RTVSPropertyOp41
 70
     1
102
RTVSPropertyOp42
 70
     1
102
RTVSPropertyOp43
 70
     1
102
RTVSPropertyOp44
 70
     1
102
RTVSPropertyOp45
 70
     1
102
RTVSPropertyOp46
 70
     1
102
RTVSPropertyOp47
 70
     1
102
RTVSPropertyOp48
 70
     1
102
RTVSPropertyOp49
 70
     1
102
RTVSPropertyOp50
 70
     1
102
RTVSPropertyOp51
 70
     0
102
RTVSPropertyOp52
 70
     0
102
RTVSPropertyOp53
 70
     1
102
RTVSPropertyOp54
 70
     1
102
RTVSPropertyOp55
 70
     1
102
RTVSPropertyOp56
 70
     1
102
RTVSPropertyOp57
 70
     1
102
RTVSPropertyOp58
 70
     1
102
RTVSPropertyOp59
 70
     1
102
RTVSPropertyOp60
 70
     1
102
RTVSPropertyOp61
 70
     1
102
RTVSPropertyOp62
 70
     1
  0
XRECORD
  5
335
102
{ACAD_REACTORS
330
334
102
}
330
334
100
AcDbXrecord
280
     1
102
RTVSPost2010Prop28
280
     0
102
RTVSPost2010PropOp28
 70
     1
102
RTVSPost2010Prop29
280
     1
102
RTVSPost2010PropOp29
 70
     1
102
RTVSPost2010Prop30
280
     1
102
RTVSPost2010PropOp30
 70
     1
102
RTVSPost2010Prop31
280
     0
102
RTVSPost2010PropOp31
 70
     1
102
RTVSPost2010Prop32
280
     0
102
RTVSPost2010PropOp32
 70
     1
102
RTVSPost2010Prop33
280
     0
102
RTVSPost2010PropOp33
 70
     1
102
RTVSPost2010Prop34
280
     0
102
RTVSPost2010PropOp34
 70
     1
102
RTVSPost2010Prop35
280
     0
102
RTVSPost2010PropOp35
 70
     1
102
RTVSPost2010Prop36
280
     0
102
RTVSPost2010PropOp36
 70
     1
102
RTVSPost2010Prop37
 90
       50
102
RTVSPost2010PropOp37
 70
     1
102
RTVSPost2010Prop38
140
0.0
102
RTVSPost2010PropOp38
 70
     1
102
RTVSPost2010Prop39
140
1.0
102
RTVSPost2010PropOp39
 70
     1
102
RTVSPost2010Prop40
 90
        0
102
RTVSPost2010PropOp40
 70
     1
102
RTVSPost2010Prop41ColorIndex
 90
       18
102
RTVSPost2010Prop41ColorRGB
 90
        0
102
RTVSPost2010PropOp41
 70
     1
102
RTVSPost2010Prop42
 90
       50
102
RTVSPost2010PropOp42
 70
     1
102
RTVSPost2010Prop43
 90
        3
102
RTVSPost2010PropOp43
 70
     1
102
RTVSPost2010Prop44ColorIndex
 90
        5
102
RTVSPost2010Prop44ColorRGB
 90
      255
102
RTVSPost2010PropOp44
 70
     1
102
RTVSPost2010Prop45
280
     0
102
RTVSPost2010PropOp45
 70
     1
102
RTVSPost2010Prop46
 90
       50
102
RTVSPost2010PropOp46
 70
     1
102
RTVSPost2010Prop47
 90
       50
102
RTVSPost2010PropOp47
 70
     1
102
RTVSPost2010Prop48
 90
       50
102
RTVSPost2010PropOp48
 70
     1
102
RTVSPost2010Prop49
280
     0
102
RTVSPost2010PropOp49
 70
     1
102
RTVSPost2010Prop50
 90
       50
102
RTVSPost2010PropOp50
 70
     1
102
RTVSPost2010Prop51ColorIndex
 90
      256
102
RTVSPost2010Prop51ColorRGB
 90
-16777216
102
RTVSPost2010PropOp51
 70
     0
102
RTVSPost2010Prop52
140
1.0
102
RTVSPost2010PropOp52
 70
     0
102
RTVSPost2010Prop53
 90
        2
102
RTVSPost2010PropOp53
 70
     1
102
RTVSPost2010Prop54
  1
strokes_ogs.tif
102
RTVSPost2010PropOp54
 70
     1
102
RTVSPost2010Prop55
280
     0
102
RTVSPost2010PropOp55
 70
     1
102
RTVSPost2010Prop56
140
1.0
102
RTVSPost2010PropOp56
 70
     1
102
RTVSPost2010Prop57
140
1.0
102
RTVSPost2010PropOp57
 70
     1
102
RTVSPropertyOp0
 70
     1
102
RTVSPropertyOp1
 70
     1
102
RTVSPropertyOp2
 70
     1
102
RTVSPropertyOp3
 70
     1
102
RTVSPropertyOp4
 70
     1
102
RTVSPropertyOp5
 70
     1
102
RTVSPropertyOp6
 70
     1
102
RTVSPropertyOp7
 70
     1
102
RTVSPropertyOp8
 70
     1
102
RTVSPropertyOp9
 70
     1
102
RTVSPropertyOp10
 70
     1
102
RTVSPropertyOp11
 70
     1
102
RTVSPropertyOp12
 70
     1
102
RTVSPropertyOp13
 70
     1
102
RTVSPropertyOp14
 70
     1
102
RTVSPropertyOp15
 70
     1
102
RTVSPropertyOp16
 70
     1
102
RTVSPropertyOp17
 70
     1
102
RTVSPropertyOp18
 70
     1
102
RTVSPropertyOp19
 70
     1
102
RTVSPropertyOp20
 70
     1
102
RTVSPropertyOp21
 70
     1
102
RTVSPropertyOp22
 70
     1
102
RTVSPropertyOp23
 70
     1
102
RTVSPropertyOp24
 70
     1
102
RTVSPropertyOp25
 70
     1
102
RTVSPropertyOp26
 70
     1
102
RTVSPropertyOp27
 70
     1
102
RTVSPropertyOp28
 70
     1
102
RTVSPropertyOp29
 70
     1
102
RTVSPropertyOp30
 70
     1
102
RTVSPropertyOp31
 70
     1
102
RTVSPropertyOp32
 70
     1
102
RTVSPropertyOp33
 70
     1
102
RTVSPropertyOp34
 70
     1
102
RTVSPropertyOp35
 70
     1
102
RTVSPropertyOp36
 70
     1
102
RTVSPropertyOp37
 70
     1
102
RTVSPropertyOp38
 70
     1
102
RTVSPropertyOp39
 70
     1
102
RTVSPropertyOp40
 70
     1
102
RTVSPropertyOp41
 70
     1
102
RTVSPropertyOp42
 70
     1
102
RTVSPropertyOp43
 70
     1
102
RTVSPropertyOp44
 70
     1
102
RTVSPropertyOp45
 70
     1
102
RTVSPropertyOp46
 70
     1
102
RTVSPropertyOp47
 70
     1
102
RTVSPropertyOp48
 70
     1
102
RTVSPropertyOp49
 70
     1
102
RTVSPropertyOp50
 70
     1
102
RTVSPropertyOp51
 70
     0
102
RTVSPropertyOp52
 70
     0
102
RTVSPropertyOp53
 70
     1
102
RTVSPropertyOp54
 70
     1
102
RTVSPropertyOp55
 70
     1
102
RTVSPropertyOp56
 70
     1
102
RTVSPropertyOp57
 70
     1
102
RTVSPropertyOp58
 70
     1
102
RTVSPropertyOp59
 70
     1
102
RTVSPropertyOp60
 70
     1
102
RTVSPropertyOp61
 70
     1
102
RTVSPropertyOp62
 70
     1
  0
XRECORD
  5
32F
102
{ACAD_REACTORS
330
32E
102
}
330
32E
100
AcDbXrecord
280
     1
102
RTVSPost2010Prop28
280
     0
102
RTVSPost2010PropOp28
 70
     1
102
RTVSPost2010Prop29
280
     1
102
RTVSPost2010PropOp29
 70
     1
102
RTVSPost2010Prop30
280
     1
102
RTVSPost2010PropOp30
 70
     1
102
RTVSPost2010Prop31
280
     0
102
RTVSPost2010PropOp31
 70
     1
102
RTVSPost2010Prop32
280
     0
102
RTVSPost2010PropOp32
 70
     1
102
RTVSPost2010Prop33
280
     0
102
RTVSPost2010PropOp33
 70
     1
102
RTVSPost2010Prop34
280
     0
102
RTVSPost2010PropOp34
 70
     1
102
RTVSPost2010Prop35
280
     0
102
RTVSPost2010PropOp35
 70
     1
102
RTVSPost2010Prop36
280
     0
102
RTVSPost2010PropOp36
 70
     1
102
RTVSPost2010Prop37
 90
       50
102
RTVSPost2010PropOp37
 70
     1
102
RTVSPost2010Prop38
140
0.0
102
RTVSPost2010PropOp38
 70
     1
102
RTVSPost2010Prop39
140
1.0
102
RTVSPost2010PropOp39
 70
     1
102
RTVSPost2010Prop40
 90
        0
102
RTVSPost2010PropOp40
 70
     1
102
RTVSPost2010Prop41ColorIndex
 90
       18
102
RTVSPost2010Prop41ColorRGB
 90
        0
102
RTVSPost2010PropOp41
 70
     1
102
RTVSPost2010Prop42
 90
       50
102
RTVSPost2010PropOp42
 70
     1
102
RTVSPost2010Prop43
 90
        3
102
RTVSPost2010PropOp43
 70
     1
102
RTVSPost2010Prop44ColorIndex
 90
        5
102
RTVSPost2010Prop44ColorRGB
 90
      255
102
RTVSPost2010PropOp44
 70
     1
102
RTVSPost2010Prop45
280
     0
102
RTVSPost2010PropOp45
 70
     1
102
RTVSPost2010Prop46
 90
       50
102
RTVSPost2010PropOp46
 70
     1
102
RTVSPost2010Prop47
 90
       50
102
RTVSPost2010PropOp47
 70
     1
102
RTVSPost2010Prop48
 90
       50
102
RTVSPost2010PropOp48
 70
     1
102
RTVSPost2010Prop49
280
     0
102
RTVSPost2010PropOp49
 70
     1
102
RTVSPost2010Prop50
 90
       50
102
RTVSPost2010PropOp50
 70
     1
102
RTVSPost2010Prop51ColorIndex
 90
      256
102
RTVSPost2010Prop51ColorRGB
 90
-16777216
102
RTVSPost2010PropOp51
 70
     0
102
RTVSPost2010Prop52
140
1.0
102
RTVSPost2010PropOp52
 70
     0
102
RTVSPost2010Prop53
 90
        2
102
RTVSPost2010PropOp53
 70
     1
102
RTVSPost2010Prop54
  1
strokes_ogs.tif
102
RTVSPost2010PropOp54
 70
     1
102
RTVSPost2010Prop55
280
     0
102
RTVSPost2010PropOp55
 70
     1
102
RTVSPost2010Prop56
140
1.0
102
RTVSPost2010PropOp56
 70
     1
102
RTVSPost2010Prop57
140
1.0
102
RTVSPost2010PropOp57
 70
     1
102
RTVSPropertyOp0
 70
     1
102
RTVSPropertyOp1
 70
     1
102
RTVSPropertyOp2
 70
     1
102
RTVSPropertyOp3
 70
     1
102
RTVSPropertyOp4
 70
     1
102
RTVSPropertyOp5
 70
     1
102
RTVSPropertyOp6
 70
     1
102
RTVSPropertyOp7
 70
     1
102
RTVSPropertyOp8
 70
     1
102
RTVSPropertyOp9
 70
     1
102
RTVSPropertyOp10
 70
     1
102
RTVSPropertyOp11
 70
     1
102
RTVSPropertyOp12
 70
     1
102
RTVSPropertyOp13
 70
     1
102
RTVSPropertyOp14
 70
     1
102
RTVSPropertyOp15
 70
     1
102
RTVSPropertyOp16
 70
     1
102
RTVSPropertyOp17
 70
     1
102
RTVSPropertyOp18
 70
     1
102
RTVSPropertyOp19
 70
     1
102
RTVSPropertyOp20
 70
     1
102
RTVSPropertyOp21
 70
     1
102
RTVSPropertyOp22
 70
     1
102
RTVSPropertyOp23
 70
     1
102
RTVSPropertyOp24
 70
     1
102
RTVSPropertyOp25
 70
     1
102
RTVSPropertyOp26
 70
     1
102
RTVSPropertyOp27
 70
     1
102
RTVSPropertyOp28
 70
     1
102
RTVSPropertyOp29
 70
     1
102
RTVSPropertyOp30
 70
     1
102
RTVSPropertyOp31
 70
     1
102
RTVSPropertyOp32
 70
     1
102
RTVSPropertyOp33
 70
     1
102
RTVSPropertyOp34
 70
     1
102
RTVSPropertyOp35
 70
     1
102
RTVSPropertyOp36
 70
     1
102
RTVSPropertyOp37
 70
     1
102
RTVSPropertyOp38
 70
     1
102
RTVSPropertyOp39
 70
     1
102
RTVSPropertyOp40
 70
     1
102
RTVSPropertyOp41
 70
     1
102
RTVSPropertyOp42
 70
     1
102
RTVSPropertyOp43
 70
     1
102
RTVSPropertyOp44
 70
     1
102
RTVSPropertyOp45
 70
     1
102
RTVSPropertyOp46
 70
     1
102
RTVSPropertyOp47
 70
     1
102
RTVSPropertyOp48
 70
     1
102
RTVSPropertyOp49
 70
     1
102
RTVSPropertyOp50
 70
     1
102
RTVSPropertyOp51
 70
     0
102
RTVSPropertyOp52
 70
     0
102
RTVSPropertyOp53
 70
     1
102
RTVSPropertyOp54
 70
     1
102
RTVSPropertyOp55
 70
     1
102
RTVSPropertyOp56
 70
     1
102
RTVSPropertyOp57
 70
     1
102
RTVSPropertyOp58
 70
     1
102
RTVSPropertyOp59
 70
     1
102
RTVSPropertyOp60
 70
     1
102
RTVSPropertyOp61
 70
     1
102
RTVSPropertyOp62
 70
     1
  0
XRECORD
  5
331
102
{ACAD_REACTORS
330
330
102
}
330
330
100
AcDbXrecord
280
     1
102
RTVSPost2010Prop28
280
     0
102
RTVSPost2010PropOp28
 70
     1
102
RTVSPost2010Prop29
280
     1
102
RTVSPost2010PropOp29
 70
     1
102
RTVSPost2010Prop30
280
     1
102
RTVSPost2010PropOp30
 70
     1
102
RTVSPost2010Prop31
280
     0
102
RTVSPost2010PropOp31
 70
     1
102
RTVSPost2010Prop32
280
     0
102
RTVSPost2010PropOp32
 70
     1
102
RTVSPost2010Prop33
280
     0
102
RTVSPost2010PropOp33
 70
     1
102
RTVSPost2010Prop34
280
     0
102
RTVSPost2010PropOp34
 70
     1
102
RTVSPost2010Prop35
280
     0
102
RTVSPost2010PropOp35
 70
     1
102
RTVSPost2010Prop36
280
     0
102
RTVSPost2010PropOp36
 70
     1
102
RTVSPost2010Prop37
 90
       50
102
RTVSPost2010PropOp37
 70
     1
102
RTVSPost2010Prop38
140
0.0
102
RTVSPost2010PropOp38
 70
     1
102
RTVSPost2010Prop39
140
1.0
102
RTVSPost2010PropOp39
 70
     1
102
RTVSPost2010Prop40
 90
        0
102
RTVSPost2010PropOp40
 70
     1
102
RTVSPost2010Prop41ColorIndex
 90
       18
102
RTVSPost2010Prop41ColorRGB
 90
        0
102
RTVSPost2010PropOp41
 70
     1
102
RTVSPost2010Prop42
 90
       50
102
RTVSPost2010PropOp42
 70
     1
102
RTVSPost2010Prop43
 90
        3
102
RTVSPost2010PropOp43
 70
     1
102
RTVSPost2010Prop44ColorIndex
 90
        5
102
RTVSPost2010Prop44ColorRGB
 90
      255
102
RTVSPost2010PropOp44
 70
     1
102
RTVSPost2010Prop45
280
     0
102
RTVSPost2010PropOp45
 70
     1
102
RTVSPost2010Prop46
 90
       50
102
RTVSPost2010PropOp46
 70
     1
102
RTVSPost2010Prop47
 90
       50
102
RTVSPost2010PropOp47
 70
     1
102
RTVSPost2010Prop48
 90
       50
102
RTVSPost2010PropOp48
 70
     1
102
RTVSPost2010Prop49
280
     0
102
RTVSPost2010PropOp49
 70
     1
102
RTVSPost2010Prop50
 90
       50
102
RTVSPost2010PropOp50
 70
     1
102
RTVSPost2010Prop51ColorIndex
 90
      256
102
RTVSPost2010Prop51ColorRGB
 90
-16777216
102
RTVSPost2010PropOp51
 70
     0
102
RTVSPost2010Prop52
140
1.0
102
RTVSPost2010PropOp52
 70
     0
102
RTVSPost2010Prop53
 90
        2
102
RTVSPost2010PropOp53
 70
     1
102
RTVSPost2010Prop54
  1
strokes_ogs.tif
102
RTVSPost2010PropOp54
 70
     1
102
RTVSPost2010Prop55
280
     0
102
RTVSPost2010PropOp55
 70
     1
102
RTVSPost2010Prop56
140
1.0
102
RTVSPost2010PropOp56
 70
     1
102
RTVSPost2010Prop57
140
1.0
102
RTVSPost2010PropOp57
 70
     1
102
RTVSPropertyOp0
 70
     1
102
RTVSPropertyOp1
 70
     1
102
RTVSPropertyOp2
 70
     1
102
RTVSPropertyOp3
 70
     1
102
RTVSPropertyOp4
 70
     1
102
RTVSPropertyOp5
 70
     1
102
RTVSPropertyOp6
 70
     1
102
RTVSPropertyOp7
 70
     1
102
RTVSPropertyOp8
 70
     1
102
RTVSPropertyOp9
 70
     1
102
RTVSPropertyOp10
 70
     1
102
RTVSPropertyOp11
 70
     1
102
RTVSPropertyOp12
 70
     1
102
RTVSPropertyOp13
 70
     1
102
RTVSPropertyOp14
 70
     1
102
RTVSPropertyOp15
 70
     1
102
RTVSPropertyOp16
 70
     1
102
RTVSPropertyOp17
 70
     1
102
RTVSPropertyOp18
 70
     1
102
RTVSPropertyOp19
 70
     1
102
RTVSPropertyOp20
 70
     1
102
RTVSPropertyOp21
 70
     1
102
RTVSPropertyOp22
 70
     1
102
RTVSPropertyOp23
 70
     1
102
RTVSPropertyOp24
 70
     1
102
RTVSPropertyOp25
 70
     1
102
RTVSPropertyOp26
 70
     1
102
RTVSPropertyOp27
 70
     1
102
RTVSPropertyOp28
 70
     1
102
RTVSPropertyOp29
 70
     1
102
RTVSPropertyOp30
 70
     1
102
RTVSPropertyOp31
 70
     1
102
RTVSPropertyOp32
 70
     1
102
RTVSPropertyOp33
 70
     1
102
RTVSPropertyOp34
 70
     1
102
RTVSPropertyOp35
 70
     1
102
RTVSPropertyOp36
 70
     1
102
RTVSPropertyOp37
 70
     1
102
RTVSPropertyOp38
 70
     1
102
RTVSPropertyOp39
 70
     1
102
RTVSPropertyOp40
 70
     1
102
RTVSPropertyOp41
 70
     1
102
RTVSPropertyOp42
 70
     1
102
RTVSPropertyOp43
 70
     1
102
RTVSPropertyOp44
 70
     1
102
RTVSPropertyOp45
 70
     1
102
RTVSPropertyOp46
 70
     1
102
RTVSPropertyOp47
 70
     1
102
RTVSPropertyOp48
 70
     1
102
RTVSPropertyOp49
 70
     1
102
RTVSPropertyOp50
 70
     1
102
RTVSPropertyOp51
 70
     0
102
RTVSPropertyOp52
 70
     0
102
RTVSPropertyOp53
 70
     1
102
RTVSPropertyOp54
 70
     1
102
RTVSPropertyOp55
 70
     1
102
RTVSPropertyOp56
 70
     1
102
RTVSPropertyOp57
 70
     1
102
RTVSPropertyOp58
 70
     1
102
RTVSPropertyOp59
 70
     1
102
RTVSPropertyOp60
 70
     1
102
RTVSPropertyOp61
 70
     1
102
RTVSPropertyOp62
 70
     1
  0
XRECORD
  5
327
102
{ACAD_REACTORS
330
326
102
}
330
326
100
AcDbXrecord
280
     1
102
RTVSPost2010Prop28
280
     0
102
RTVSPost2010PropOp28
 70
     1
102
RTVSPost2010Prop29
280
     1
102
RTVSPost2010PropOp29
 70
     1
102
RTVSPost2010Prop30
280
     1
102
RTVSPost2010PropOp30
 70
     1
102
RTVSPost2010Prop31
280
     0
102
RTVSPost2010PropOp31
 70
     1
102
RTVSPost2010Prop32
280
     0
102
RTVSPost2010PropOp32
 70
     1
102
RTVSPost2010Prop33
280
     0
102
RTVSPost2010PropOp33
 70
     1
102
RTVSPost2010Prop34
280
     0
102
RTVSPost2010PropOp34
 70
     1
102
RTVSPost2010Prop35
280
     0
102
RTVSPost2010PropOp35
 70
     1
102
RTVSPost2010Prop36
280
     0
102
RTVSPost2010PropOp36
 70
     1
102
RTVSPost2010Prop37
 90
       50
102
RTVSPost2010PropOp37
 70
     1
102
RTVSPost2010Prop38
140
0.0
102
RTVSPost2010PropOp38
 70
     1
102
RTVSPost2010Prop39
140
1.0
102
RTVSPost2010PropOp39
 70
     1
102
RTVSPost2010Prop40
 90
        0
102
RTVSPost2010PropOp40
 70
     1
102
RTVSPost2010Prop41ColorIndex
 90
       18
102
RTVSPost2010Prop41ColorRGB
 90
        0
102
RTVSPost2010PropOp41
 70
     1
102
RTVSPost2010Prop42
 90
       50
102
RTVSPost2010PropOp42
 70
     1
102
RTVSPost2010Prop43
 90
        3
102
RTVSPost2010PropOp43
 70
     1
102
RTVSPost2010Prop44ColorIndex
 90
        5
102
RTVSPost2010Prop44ColorRGB
 90
      255
102
RTVSPost2010PropOp44
 70
     1
102
RTVSPost2010Prop45
280
     0
102
RTVSPost2010PropOp45
 70
     1
102
RTVSPost2010Prop46
 90
       50
102
RTVSPost2010PropOp46
 70
     1
102
RTVSPost2010Prop47
 90
       50
102
RTVSPost2010PropOp47
 70
     1
102
RTVSPost2010Prop48
 90
       50
102
RTVSPost2010PropOp48
 70
     1
102
RTVSPost2010Prop49
280
     0
102
RTVSPost2010PropOp49
 70
     1
102
RTVSPost2010Prop50
 90
       50
102
RTVSPost2010PropOp50
 70
     1
102
RTVSPost2010Prop51ColorIndex
 90
      256
102
RTVSPost2010Prop51ColorRGB
 90
-16777216
102
RTVSPost2010PropOp51
 70
     0
102
RTVSPost2010Prop52
140
1.0
102
RTVSPost2010PropOp52
 70
     0
102
RTVSPost2010Prop53
 90
        2
102
RTVSPost2010PropOp53
 70
     1
102
RTVSPost2010Prop54
  1
strokes_ogs.tif
102
RTVSPost2010PropOp54
 70
     1
102
RTVSPost2010Prop55
280
     0
102
RTVSPost2010PropOp55
 70
     1
102
RTVSPost2010Prop56
140
1.0
102
RTVSPost2010PropOp56
 70
     1
102
RTVSPost2010Prop57
140
1.0
102
RTVSPost2010PropOp57
 70
     1
102
RTVSPropertyOp0
 70
     1
102
RTVSPropertyOp1
 70
     1
102
RTVSPropertyOp2
 70
     1
102
RTVSPropertyOp3
 70
     1
102
RTVSPropertyOp4
 70
     1
102
RTVSPropertyOp5
 70
     1
102
RTVSPropertyOp6
 70
     1
102
RTVSPropertyOp7
 70
     1
102
RTVSPropertyOp8
 70
     1
102
RTVSPropertyOp9
 70
     1
102
RTVSPropertyOp10
 70
     1
102
RTVSPropertyOp11
 70
     1
102
RTVSPropertyOp12
 70
     1
102
RTVSPropertyOp13
 70
     1
102
RTVSPropertyOp14
 70
     1
102
RTVSPropertyOp15
 70
     1
102
RTVSPropertyOp16
 70
     1
102
RTVSPropertyOp17
 70
     1
102
RTVSPropertyOp18
 70
     1
102
RTVSPropertyOp19
 70
     1
102
RTVSPropertyOp20
 70
     1
102
RTVSPropertyOp21
 70
     1
102
RTVSPropertyOp22
 70
     1
102
RTVSPropertyOp23
 70
     1
102
RTVSPropertyOp24
 70
     1
102
RTVSPropertyOp25
 70
     1
102
RTVSPropertyOp26
 70
     1
102
RTVSPropertyOp27
 70
     1
102
RTVSPropertyOp28
 70
     1
102
RTVSPropertyOp29
 70
     1
102
RTVSPropertyOp30
 70
     1
102
RTVSPropertyOp31
 70
     1
102
RTVSPropertyOp32
 70
     1
102
RTVSPropertyOp33
 70
     1
102
RTVSPropertyOp34
 70
     1
102
RTVSPropertyOp35
 70
     1
102
RTVSPropertyOp36
 70
     1
102
RTVSPropertyOp37
 70
     1
102
RTVSPropertyOp38
 70
     1
102
RTVSPropertyOp39
 70
     1
102
RTVSPropertyOp40
 70
     1
102
RTVSPropertyOp41
 70
     1
102
RTVSPropertyOp42
 70
     1
102
RTVSPropertyOp43
 70
     1
102
RTVSPropertyOp44
 70
     1
102
RTVSPropertyOp45
 70
     1
102
RTVSPropertyOp46
 70
     1
102
RTVSPropertyOp47
 70
     1
102
RTVSPropertyOp48
 70
     1
102
RTVSPropertyOp49
 70
     1
102
RTVSPropertyOp50
 70
     1
102
RTVSPropertyOp51
 70
     0
102
RTVSPropertyOp52
 70
     0
102
RTVSPropertyOp53
 70
     1
102
RTVSPropertyOp54
 70
     1
102
RTVSPropertyOp55
 70
     1
102
RTVSPropertyOp56
 70
     1
102
RTVSPropertyOp57
 70
     1
102
RTVSPropertyOp58
 70
     1
102
RTVSPropertyOp59
 70
     1
102
RTVSPropertyOp60
 70
     1
102
RTVSPropertyOp61
 70
     1
102
RTVSPropertyOp62
 70
     1
  0
XRECORD
  5
31B
102
{ACAD_REACTORS
330
31A
102
}
330
31A
100
AcDbXrecord
280
     1
102
RTVSPost2010Prop28
280
     0
102
RTVSPost2010PropOp28
 70
     1
102
RTVSPost2010Prop29
280
     1
102
RTVSPost2010PropOp29
 70
     1
102
RTVSPost2010Prop30
280
     1
102
RTVSPost2010PropOp30
 70
     1
102
RTVSPost2010Prop31
280
     0
102
RTVSPost2010PropOp31
 70
     1
102
RTVSPost2010Prop32
280
     0
102
RTVSPost2010PropOp32
 70
     1
102
RTVSPost2010Prop33
280
     0
102
RTVSPost2010PropOp33
 70
     1
102
RTVSPost2010Prop34
280
     0
102
RTVSPost2010PropOp34
 70
     1
102
RTVSPost2010Prop35
280
     0
102
RTVSPost2010PropOp35
 70
     1
102
RTVSPost2010Prop36
280
     0
102
RTVSPost2010PropOp36
 70
     1
102
RTVSPost2010Prop37
 90
       50
102
RTVSPost2010PropOp37
 70
     1
102
RTVSPost2010Prop38
140
0.0
102
RTVSPost2010PropOp38
 70
     1
102
RTVSPost2010Prop39
140
1.0
102
RTVSPost2010PropOp39
 70
     1
102
RTVSPost2010Prop40
 90
        0
102
RTVSPost2010PropOp40
 70
     1
102
RTVSPost2010Prop41ColorIndex
 90
       18
102
RTVSPost2010Prop41ColorRGB
 90
        0
102
RTVSPost2010PropOp41
 70
     1
102
RTVSPost2010Prop42
 90
       50
102
RTVSPost2010PropOp42
 70
     1
102
RTVSPost2010Prop43
 90
        3
102
RTVSPost2010PropOp43
 70
     1
102
RTVSPost2010Prop44ColorIndex
 90
        5
102
RTVSPost2010Prop44ColorRGB
 90
      255
102
RTVSPost2010PropOp44
 70
     1
102
RTVSPost2010Prop45
280
     0
102
RTVSPost2010PropOp45
 70
     1
102
RTVSPost2010Prop46
 90
       50
102
RTVSPost2010PropOp46
 70
     1
102
RTVSPost2010Prop47
 90
       50
102
RTVSPost2010PropOp47
 70
     1
102
RTVSPost2010Prop48
 90
       50
102
RTVSPost2010PropOp48
 70
     1
102
RTVSPost2010Prop49
280
     0
102
RTVSPost2010PropOp49
 70
     1
102
RTVSPost2010Prop50
 90
       50
102
RTVSPost2010PropOp50
 70
     1
102
RTVSPost2010Prop51ColorIndex
 90
      256
102
RTVSPost2010Prop51ColorRGB
 90
-16777216
102
RTVSPost2010PropOp51
 70
     0
102
RTVSPost2010Prop52
140
1.0
102
RTVSPost2010PropOp52
 70
     0
102
RTVSPost2010Prop53
 90
        2
102
RTVSPost2010PropOp53
 70
     1
102
RTVSPost2010Prop54
  1
strokes_ogs.tif
102
RTVSPost2010PropOp54
 70
     1
102
RTVSPost2010Prop55
280
     0
102
RTVSPost2010PropOp55
 70
     1
102
RTVSPost2010Prop56
140
1.0
102
RTVSPost2010PropOp56
 70
     1
102
RTVSPost2010Prop57
140
1.0
102
RTVSPost2010PropOp57
 70
     1
102
RTVSPropertyOp0
 70
     1
102
RTVSPropertyOp1
 70
     1
102
RTVSPropertyOp2
 70
     1
102
RTVSPropertyOp3
 70
     1
102
RTVSPropertyOp4
 70
     1
102
RTVSPropertyOp5
 70
     1
102
RTVSPropertyOp6
 70
     1
102
RTVSPropertyOp7
 70
     1
102
RTVSPropertyOp8
 70
     1
102
RTVSPropertyOp9
 70
     1
102
RTVSPropertyOp10
 70
     1
102
RTVSPropertyOp11
 70
     1
102
RTVSPropertyOp12
 70
     1
102
RTVSPropertyOp13
 70
     1
102
RTVSPropertyOp14
 70
     1
102
RTVSPropertyOp15
 70
     1
102
RTVSPropertyOp16
 70
     1
102
RTVSPropertyOp17
 70
     1
102
RTVSPropertyOp18
 70
     1
102
RTVSPropertyOp19
 70
     1
102
RTVSPropertyOp20
 70
     1
102
RTVSPropertyOp21
 70
     1
102
RTVSPropertyOp22
 70
     1
102
RTVSPropertyOp23
 70
     1
102
RTVSPropertyOp24
 70
     1
102
RTVSPropertyOp25
 70
     1
102
RTVSPropertyOp26
 70
     1
102
RTVSPropertyOp27
 70
     1
102
RTVSPropertyOp28
 70
     1
102
RTVSPropertyOp29
 70
     1
102
RTVSPropertyOp30
 70
     1
102
RTVSPropertyOp31
 70
     1
102
RTVSPropertyOp32
 70
     1
102
RTVSPropertyOp33
 70
     1
102
RTVSPropertyOp34
 70
     1
102
RTVSPropertyOp35
 70
     1
102
RTVSPropertyOp36
 70
     1
102
RTVSPropertyOp37
 70
     1
102
RTVSPropertyOp38
 70
     1
102
RTVSPropertyOp39
 70
     1
102
RTVSPropertyOp40
 70
     1
102
RTVSPropertyOp41
 70
     1
102
RTVSPropertyOp42
 70
     1
102
RTVSPropertyOp43
 70
     1
102
RTVSPropertyOp44
 70
     1
102
RTVSPropertyOp45
 70
     1
102
RTVSPropertyOp46
 70
     1
102
RTVSPropertyOp47
 70
     1
102
RTVSPropertyOp48
 70
     1
102
RTVSPropertyOp49
 70
     1
102
RTVSPropertyOp50
 70
     1
102
RTVSPropertyOp51
 70
     0
102
RTVSPropertyOp52
 70
     0
102
RTVSPropertyOp53
 70
     1
102
RTVSPropertyOp54
 70
     1
102
RTVSPropertyOp55
 70
     1
102
RTVSPropertyOp56
 70
     1
102
RTVSPropertyOp57
 70
     1
102
RTVSPropertyOp58
 70
     1
102
RTVSPropertyOp59
 70
     1
102
RTVSPropertyOp60
 70
     1
102
RTVSPropertyOp61
 70
     1
102
RTVSPropertyOp62
 70
     1
  0
XRECORD
  5
333
102
{ACAD_REACTORS
330
332
102
}
330
332
100
AcDbXrecord
280
     1
102
RTVSPost2010Prop28
280
     0
102
RTVSPost2010PropOp28
 70
     1
102
RTVSPost2010Prop29
280
     1
102
RTVSPost2010PropOp29
 70
     1
102
RTVSPost2010Prop30
280
     1
102
RTVSPost2010PropOp30
 70
     1
102
RTVSPost2010Prop31
280
     0
102
RTVSPost2010PropOp31
 70
     1
102
RTVSPost2010Prop32
280
     0
102
RTVSPost2010PropOp32
 70
     1
102
RTVSPost2010Prop33
280
     0
102
RTVSPost2010PropOp33
 70
     1
102
RTVSPost2010Prop34
280
     0
102
RTVSPost2010PropOp34
 70
     1
102
RTVSPost2010Prop35
280
     0
102
RTVSPost2010PropOp35
 70
     1
102
RTVSPost2010Prop36
280
     0
102
RTVSPost2010PropOp36
 70
     1
102
RTVSPost2010Prop37
 90
       50
102
RTVSPost2010PropOp37
 70
     1
102
RTVSPost2010Prop38
140
0.0
102
RTVSPost2010PropOp38
 70
     1
102
RTVSPost2010Prop39
140
1.0
102
RTVSPost2010PropOp39
 70
     1
102
RTVSPost2010Prop40
 90
        0
102
RTVSPost2010PropOp40
 70
     1
102
RTVSPost2010Prop41ColorIndex
 90
       18
102
RTVSPost2010Prop41ColorRGB
 90
        0
102
RTVSPost2010PropOp41
 70
     1
102
RTVSPost2010Prop42
 90
       50
102
RTVSPost2010PropOp42
 70
     1
102
RTVSPost2010Prop43
 90
        3
102
RTVSPost2010PropOp43
 70
     1
102
RTVSPost2010Prop44ColorIndex
 90
        5
102
RTVSPost2010Prop44ColorRGB
 90
      255
102
RTVSPost2010PropOp44
 70
     1
102
RTVSPost2010Prop45
280
     0
102
RTVSPost2010PropOp45
 70
     1
102
RTVSPost2010Prop46
 90
       50
102
RTVSPost2010PropOp46
 70
     1
102
RTVSPost2010Prop47
 90
       50
102
RTVSPost2010PropOp47
 70
     1
102
RTVSPost2010Prop48
 90
       50
102
RTVSPost2010PropOp48
 70
     1
102
RTVSPost2010Prop49
280
     0
102
RTVSPost2010PropOp49
 70
     1
102
RTVSPost2010Prop50
 90
       50
102
RTVSPost2010PropOp50
 70
     1
102
RTVSPost2010Prop51ColorIndex
 90
      256
102
RTVSPost2010Prop51ColorRGB
 90
-16777216
102
RTVSPost2010PropOp51
 70
     0
102
RTVSPost2010Prop52
140
1.0
102
RTVSPost2010PropOp52
 70
     0
102
RTVSPost2010Prop53
 90
        2
102
RTVSPost2010PropOp53
 70
     1
102
RTVSPost2010Prop54
  1
strokes_ogs.tif
102
RTVSPost2010PropOp54
 70
     1
102
RTVSPost2010Prop55
280
     0
102
RTVSPost2010PropOp55
 70
     1
102
RTVSPost2010Prop56
140
1.0
102
RTVSPost2010PropOp56
 70
     1
102
RTVSPost2010Prop57
140
1.0
102
RTVSPost2010PropOp57
 70
     1
102
RTVSPropertyOp0
 70
     1
102
RTVSPropertyOp1
 70
     1
102
RTVSPropertyOp2
 70
     1
102
RTVSPropertyOp3
 70
     1
102
RTVSPropertyOp4
 70
     1
102
RTVSPropertyOp5
 70
     1
102
RTVSPropertyOp6
 70
     1
102
RTVSPropertyOp7
 70
     1
102
RTVSPropertyOp8
 70
     1
102
RTVSPropertyOp9
 70
     1
102
RTVSPropertyOp10
 70
     1
102
RTVSPropertyOp11
 70
     1
102
RTVSPropertyOp12
 70
     1
102
RTVSPropertyOp13
 70
     1
102
RTVSPropertyOp14
 70
     1
102
RTVSPropertyOp15
 70
     1
102
RTVSPropertyOp16
 70
     1
102
RTVSPropertyOp17
 70
     1
102
RTVSPropertyOp18
 70
     1
102
RTVSPropertyOp19
 70
     1
102
RTVSPropertyOp20
 70
     1
102
RTVSPropertyOp21
 70
     1
102
RTVSPropertyOp22
 70
     1
102
RTVSPropertyOp23
 70
     1
102
RTVSPropertyOp24
 70
     1
102
RTVSPropertyOp25
 70
     1
102
RTVSPropertyOp26
 70
     1
102
RTVSPropertyOp27
 70
     1
102
RTVSPropertyOp28
 70
     1
102
RTVSPropertyOp29
 70
     1
102
RTVSPropertyOp30
 70
     1
102
RTVSPropertyOp31
 70
     1
102
RTVSPropertyOp32
 70
     1
102
RTVSPropertyOp33
 70
     1
102
RTVSPropertyOp34
 70
     1
102
RTVSPropertyOp35
 70
     1
102
RTVSPropertyOp36
 70
     1
102
RTVSPropertyOp37
 70
     1
102
RTVSPropertyOp38
 70
     1
102
RTVSPropertyOp39
 70
     1
102
RTVSPropertyOp40
 70
     1
102
RTVSPropertyOp41
 70
     1
102
RTVSPropertyOp42
 70
     1
102
RTVSPropertyOp43
 70
     1
102
RTVSPropertyOp44
 70
     1
102
RTVSPropertyOp45
 70
     1
102
RTVSPropertyOp46
 70
     1
102
RTVSPropertyOp47
 70
     1
102
RTVSPropertyOp48
 70
     1
102
RTVSPropertyOp49
 70
     1
102
RTVSPropertyOp50
 70
     1
102
RTVSPropertyOp51
 70
     0
102
RTVSPropertyOp52
 70
     0
102
RTVSPropertyOp53
 70
     1
102
RTVSPropertyOp54
 70
     1
102
RTVSPropertyOp55
 70
     1
102
RTVSPropertyOp56
 70
     1
102
RTVSPropertyOp57
 70
     1
102
RTVSPropertyOp58
 70
     1
102
RTVSPropertyOp59
 70
     1
102
RTVSPropertyOp60
 70
     1
102
RTVSPropertyOp61
 70
     1
102
RTVSPropertyOp62
 70
     1
  0
ENDSEC
  0
EOF
