  0
SECTION
  2
HEADER
  9
$ACADVER
  1
AC1009
  9
$INSBASE
 10
0.0
 20
0.0
 30
0.0
  9
$EXTMIN
 10
-444.7935243309289
 20
-688.10956819777812
 30
-0.0015258207003583
  9
$EXTMAX
 10
455.2614073097597
 20
650.04075378504137
 30
0.0000000349246037
  9
$LIMMIN
 10
0.0
 20
0.0
  9
$LIMMAX
 10
0.0
 20
0.0
  9
$ORTHOMODE
 70
     0
  9
$REGENMODE
 70
     1
  9
$FILLMODE
 70
     1
  9
$QTEXTMODE
 70
     0
  9
$MIRRTEXT
 70
     1
  9
$DRAGMODE
 70
     2
  9
$LTSCALE
 40
25.399999999999999
  9
$OSMODE
 70
   167
  9
$ATTMODE
 70
     1
  9
$TEXTSIZE
 40
0.0
  9
$TRACEWID
 40
1.0
  9
$TEXTSTYLE
  7
STANDARD
  9
$CLAYER
  8
DATA
  9
$CELTYPE
  6
CONTINUOUS
  9
$CECOLOR
 62
   256
  9
$DIMSCALE
 40
1.0
  9
$DIMASZ
 40
0.18
  9
$DIMEXO
 40
0.0625
  9
$DIMDLI
 40
0.38
  9
$DIMRND
 40
0.0
  9
$DIMDLE
 40
0.0
  9
$DIMEXE
 40
0.18
  9
$DIMTP
 40
0.0
  9
$DIMTM
 40
0.0
  9
$DIMTXT
 40
0.18
  9
$DIMCEN
 40
0.09
  9
$DIMTSZ
 40
0.0
  9
$DIMTOL
 70
     0
  9
$DIMLIM
 70
     0
  9
$DIMTIH
 70
     1
  9
$DIMTOH
 70
     1
  9
$DIMSE1
 70
     0
  9
$DIMSE2
 70
     0
  9
$DIMTAD
 70
     0
  9
$DIMZIN
 70
     0
  9
$DIMBLK
  1

  9
$DIMASO
 70
     1
  9
$DIMSHO
 70
     1
  9
$DIMPOST
  1

  9
$DIMAPOST
  1

  9
$DIMALT
 70
     0
  9
$DIMALTD
 70
     2
  9
$DIMALTF
 40
25.399999999999999
  9
$DIMLFAC
 40
1.0
  9
$DIMTOFL
 70
     0
  9
$DIMTVP
 40
0.0
  9
$DIMTIX
 70
     0
  9
$DIMSOXD
 70
     0
  9
$DIMSAH
 70
     0
  9
$DIMBLK1
  1

  9
$DIMBLK2
  1

  9
$DIMSTYLE
  2
STANDARD
  9
$DIMCLRD
 70
     0
  9
$DIMCLRE
 70
     0
  9
$DIMCLRT
 70
     0
  9
$DIMTFAC
 40
1.0
  9
$DIMGAP
 40
0.09
  9
$LUNITS
 70
     2
  9
$LUPREC
 70
     4
  9
$SKETCHINC
 40
0.1
  9
$FILLETRAD
 40
0.0
  9
$AUNITS
 70
     0
  9
$AUPREC
 70
     0
  9
$MENU
  1
acad
  9
$ELEVATION
 40
0.0
  9
$PELEVATION
 40
0.0
  9
$THICKNESS
 40
0.0
  9
$LIMCHECK
 70
     0
  9
$BLIPMODE
 70
     0
  9
$CHAMFERA
 40
0.0
  9
$CHAMFERB
 40
0.0
  9
$SKPOLY
 70
     0
  9
$TDCREATE
 40
2453187.8286226848
  9
$TDUPDATE
 40
2453187.847451169
  9
$TDINDWG
 40
0.0001788542
  9
$TDUSRTIMER
 40
0.000178669
  9
$USRTIMER
 70
     1
  9
$ANGBASE
 50
0.0
  9
$ANGDIR
 70
     0
  9
$PDMODE
 70
     1
  9
$PDSIZE
 40
-2.0
  9
$PLINEWID
 40
0.0
  9
$COORDS
 70
     0
  9
$SPLFRAME
 70
     0
  9
$SPLINETYPE
 70
     6
  9
$SPLINESEGS
 70
     8
  9
$ATTDIA
 70
     0
  9
$ATTREQ
 70
     1
  9
$HANDLING
 70
     1
  9
$HANDSEED
  5
5FA
  9
$SURFTAB1
 70
     6
  9
$SURFTAB2
 70
     6
  9
$SURFTYPE
 70
     6
  9
$SURFU
 70
     6
  9
$SURFV
 70
     6
  9
$UCSNAME
  2

  9
$UCSORG
 10
0.0
 20
0.0
 30
0.0
  9
$UCSXDIR
 10
1.0
 20
0.0
 30
0.0
  9
$UCSYDIR
 10
0.0
 20
1.0
 30
0.0
  9
$PUCSNAME
  2

  9
$PUCSORG
 10
0.0
 20
0.0
 30
0.0
  9
$PUCSXDIR
 10
1.0
 20
0.0
 30
0.0
  9
$PUCSYDIR
 10
0.0
 20
1.0
 30
0.0
  9
$USERI1
 70
     0
  9
$USERI2
 70
     0
  9
$USERI3
 70
     0
  9
$USERI4
 70
     0
  9
$USERI5
 70
     0
  9
$USERR1
 40
0.0
  9
$USERR2
 40
0.0
  9
$USERR3
 40
0.0
  9
$USERR4
 40
0.0
  9
$USERR5
 40
0.0
  9
$WORLDVIEW
 70
     1
  9
$SHADEDGE
 70
     3
  9
$SHADEDIF
 70
    70
  9
$TILEMODE
 70
     1
  9
$MAXACTVP
 70
    16
  9
$PLIMCHECK
 70
     0
  9
$PEXTMIN
 10
1.0000000000000000E+020
 20
1.0000000000000000E+020
 30
1.0000000000000000E+020
  9
$PEXTMAX
 10
-1.0000000000000000E+020
 20
-1.0000000000000000E+020
 30
-1.0000000000000000E+020
  9
$PLIMMIN
 10
0.0
 20
0.0
  9
$PLIMMAX
 10
12.0
 20
9.0
  9
$UNITMODE
 70
     0
  9
$VISRETAIN
 70
     0
  9
$PLINEGEN
 70
     1
  9
$PSLTSCALE
 70
     0
  0
ENDSEC
  0
SECTION
  2
TABLES
  0
TABLE
  2
VPORT
 70
     2
  0
VPORT
  2
*ACTIVE
 70
     0
 10
0.0
 20
0.0
 11
1.0
 21
1.0
 12
5.2339414894154279
 22
-19.034407206368311
 13
0.0
 23
0.0
 14
1.0
 24
1.0
 15
0.0
 25
0.0
 16
0.0
 26
0.0
 36
1.0
 17
0.0
 27
0.0
 37
0.0
 40
1348.7846291773851
 41
1.5994694960212199
 42
50.0
 43
0.0
 44
0.0
 50
0.0
 51
0.0
 71
     0
 72
   100
 73
     1
 74
     1
 75
     0
 76
     0
 77
     0
 78
     0
  0
ENDTAB
  0
TABLE
  2
LTYPE
 70
    11
  0
LTYPE
  2
CONTINUOUS
 70
     0
  3
Solid line
 72
    65
 73
     0
 40
0.0
  0
ENDTAB
  0
TABLE
  2
LAYER
 70
     6
  0
LAYER
  2
0
 70
     0
 62
     7
  6
CONTINUOUS
  0
LAYER
  2
DATA
 70
     0
 62
     7
  6
CONTINUOUS
  0
LAYER
  2
DEFPOINTS
 70
     0
 62
     7
  6
CONTINUOUS
  0
LAYER
  2
HIBINO-BASE
 70
     0
 62
     7
  6
CONTINUOUS
  0
LAYER
  2
SPEC
 70
     0
 62
     7
  6
CONTINUOUS
  0
LAYER
  2
DIMNSIONS
 70
     0
 62
     7
  6
CONTINUOUS
  0
ENDTAB
  0
TABLE
  2
STYLE
 70
     3
  0
STYLE
  2
STANDARD
 70
     0
 40
0.0
 41
1.0
 50
0.0
 71
     0
 42
0.0
  3
txt
  4
BIGFONT.SHX
  0
ENDTAB
  0
TABLE
  2
VIEW
 70
     0
  0
ENDTAB
  0
TABLE
  2
UCS
 70
     0
  0
ENDTAB
  0
TABLE
  2
APPID
 70
     1
  0
APPID
  2
ACAD
 70
     0
  0
ENDTAB
  0
TABLE
  2
DIMSTYLE
 70
     1
  0
DIMSTYLE
  2
STANDARD
 70
     0
  3

  4

  5

  6

  7

 40
1.0
 41
0.18
 42
0.0625
 43
0.38
 44
0.18
 45
0.0
 46
0.0
 47
0.0
 48
0.0
140
0.18
141
0.09
142
0.0
143
25.399999999999999
144
1.0
145
0.0
146
1.0
147
0.09
 71
     0
 72
     0
 73
     1
 74
     1
 75
     0
 76
     0
 77
     0
 78
     0
170
     0
171
     2
172
     0
173
     0
174
     0
175
     0
176
     0
177
     0
178
     0
  0
ENDTAB
  0
ENDSEC
  0
SECTION
  2
BLOCKS
  0
BLOCK
  8
0
  2
$MODEL_SPACE
 70
     0
 10
0.0
 20
0.0
 30
0.0
  3
$MODEL_SPACE
  1

  0
ENDBLK
  5
503
  8
0
  0
BLOCK
 67
     1
  8
0
  2
$PAPER_SPACE
 70
     0
 10
0.0
 20
0.0
 30
0.0
  3
$PAPER_SPACE
  1

  0
ENDBLK
  5
4FF
 67
     1
  8
0
  0
ENDSEC
  0
SECTION
  2
ENTITIES
  0
LINE
  5
2E
  8
HIBINO-BASE
  6
CONTINUOUS
 62
     7
 10
-444.76606060606048
 20
650.0
 30
0.0
 11
455.23393939393929
 21
650.0
 31
0.0
  0
LINE
  5
2F
  8
HIBINO-BASE
  6
CONTINUOUS
 62
     7
 10
455.23393939393929
 20
-650.0
 30
0.0
 11
-444.76606060606048
 21
-650.0
 31
0.0
  0
LINE
  5
30
  8
HIBINO-BASE
  6
CONTINUOUS
 62
     7
 10
-444.76606060606048
 20
-650.0
 30
0.0
 11
-444.76606060606048
 21
650.0
 31
0.0
  0
TEXT
  5
31
  8
HIBINO-BASE
 62
     7
 10
-408.84606060606041
 20
-682.04338899999993
 30
0.0
 40
18.00022089843749
  1
Hibino Corporation
 41
0.8
 11
-408.84606060606041
 21
-664.04316810156229
 31
0.0
 73
     3
  0
LINE
  5
32
  8
HIBINO-BASE
  6
CONTINUOUS
 62
     7
 10
455.23393939393929
 20
650.0
 30
0.0
 11
455.23393939393929
 21
-650.0
 31
0.0
  0
LINE
  5
33
  8
HIBINO-BASE
  6
CONTINUOUS
 62
     7
 10
5.2339393939393926
 20
-537.49999999999989
 30
0.0
 11
455.23393939393929
 21
-537.49999999999989
 31
0.0
  0
LINE
  5
34
  8
HIBINO-BASE
  6
CONTINUOUS
 62
     7
 10
5.2339393939393926
 20
-650.0
 30
0.0
 11
5.2339393939393926
 21
-537.49999999999989
 31
0.0
  0
TEXT
  5
35
  8
HIBINO-BASE
 62
     7
 10
9.7339393939393943
 20
-550.04346666666652
 30
0.0
 40
8.1442057291666661
  1
NOTE
 41
0.8
 11
9.7339393939393943
 21
-541.89926093749978
 31
0.0
 73
     3
  0
LINE
  5
36
  8
HIBINO-BASE
  6
CONTINUOUS
 62
     7
 10
180.23393939393941
 20
-650.0
 30
0.0
 11
180.23393939393941
 21
-537.49999999999989
 31
0.0
  0
TEXT
  5
37
  8
HIBINO-BASE
 62
     7
 10
184.73393939393941
 20
-550.04346666666652
 30
0.0
 40
8.1442057291666661
  1
TITLE
 41
0.8
 11
184.73393939393941
 21
-541.89926093749978
 31
0.0
 73
     3
  0
TEXT
  5
38
  8
HIBINO-BASE
 62
     7
 10
255.57588939393929
 20
-682.04338899999993
 30
0.0
 40
18.00022089843749
  1
ヒビノ株式会社
 41
0.8
 11
255.57588939393929
 21
-664.04316810156229
 31
0.0
 73
     3
  0
LINE
  5
39
  8
HIBINO-BASE
  6
CONTINUOUS
 62
     7
 10
5.2339393939393926
 20
-599.99999999999989
 30
0.0
 11
455.23393939393929
 21
-599.99999999999989
 31
0.0
  0
TEXT
  5
3A
  8
HIBINO-BASE
 62
     7
 10
247.23393939393941
 20
-612.26186666666649
 30
0.0
 40
8.1442057291666661
  1
DRAWN
 41
0.8
 11
247.23393939393941
 21
-604.11766093749975
 31
0.0
 73
     3
  0
TEXT
  5
3B
  8
HIBINO-BASE
 62
     7
 10
122.23393939393939
 20
-612.26186666666649
 30
0.0
 40
8.1442057291666661
  1
DATE
 41
0.8
 11
122.23393939393939
 21
-604.11766093749975
 31
0.0
 73
     3
  0
TEXT
  5
3C
  8
HIBINO-BASE
 62
     7
 10
72.233939393939394
 20
-612.26186666666649
 30
0.0
 40
8.1442057291666661
  1
SCALE
 41
0.8
 11
72.233939393939394
 21
-604.11766093749975
 31
0.0
 73
     3
  0
TEXT
  5
3D
  8
HIBINO-BASE
 62
     7
 10
184.73393939393941
 20
-612.26186666666649
 30
0.0
 40
8.1442057291666661
  1
DESIGN
 41
0.8
 11
184.73393939393941
 21
-604.11766093749975
 31
0.0
 73
     3
  0
TEXT
  5
3E
  8
HIBINO-BASE
 62
     7
 10
372.23393939393929
 20
-612.26186666666649
 30
0.0
 40
8.1442057291666661
  1
DRAWING NO.
 41
0.8
 11
372.23393939393929
 21
-604.11766093749975
 31
0.0
 73
     3
  0
TEXT
  5
3F
  8
HIBINO-BASE
 62
     7
 10
309.73393939393929
 20
-612.26186666666649
 30
0.0
 40
8.1442057291666661
  1
CHECK
 41
0.8
 11
309.73393939393929
 21
-604.11766093749975
 31
0.0
 73
     3
  0
LINE
  5
40
  8
HIBINO-BASE
  6
CONTINUOUS
 62
     7
 10
77.108939393939366
 20
-643.75
 30
0.0
 11
95.858939393939394
 21
-624.99999999999989
 31
0.0
  0
TEXT
  5
41
  8
HIBINO-BASE
 62
     7
 10
77.394846838830588
 20
-633.52347858749306
 30
0.0
 40
9.5015733506944446
  1
1
 41
0.8
 11
77.394846838830588
 21
-624.0219052367986
 31
0.0
 73
     3
  0
LINE
  5
42
  8
HIBINO-BASE
  6
CONTINUOUS
 62
     7
 10
67.73393939393938
 20
-650.0
 30
0.0
 11
67.73393939393938
 21
-599.99999999999989
 31
0.0
  0
LINE
  5
43
  8
HIBINO-BASE
  6
CONTINUOUS
 62
     7
 10
117.73393939393939
 20
-650.0
 30
0.0
 11
117.73393939393939
 21
-599.99999999999989
 31
0.0
  0
LINE
  5
44
  8
HIBINO-BASE
  6
CONTINUOUS
 62
     7
 10
242.73393939393929
 20
-599.99999999999989
 30
0.0
 11
242.73393939393929
 21
-650.0
 31
0.0
  0
LINE
  5
45
  8
HIBINO-BASE
  6
CONTINUOUS
 62
     7
 10
367.73393939393929
 20
-599.99999999999989
 30
0.0
 11
367.73393939393929
 21
-650.0
 31
0.0
  0
LINE
  5
46
  8
HIBINO-BASE
  6
CONTINUOUS
 62
     7
 10
305.23393939393929
 20
-650.0
 30
0.0
 11
305.23393939393929
 21
-599.99999999999989
 31
0.0
  0
TEXT
  5
47
  8
HIBINO-BASE
 62
     7
 10
122.0166393939394
 20
-637.19871111111115
 30
0.0
 40
9.5015733506944446
  1
'04.6.
 41
0.8
 11
122.0166393939394
 21
-627.69713776041669
 31
0.0
 73
     3
  0
TEXT
  5
48
  8
HIBINO-BASE
 62
     7
 10
91.759394409684774
 20
-642.89847858749306
 30
0.0
 40
9.5015733506944446
  1
5
 41
0.8
 11
91.759394409684774
 21
-633.3969052367986
 31
0.0
 73
     3
  0
TEXT
  5
49
  8
HIBINO-BASE
 62
     7
 10
24.65060606060614
 20
-640.11999999999989
 30
0.0
 40
16.288411458333329
  1
A4
 41
0.8
 11
24.65060606060614
 21
-623.83158854166652
 31
0.0
 73
     3
  0
TEXT
  5
4A
  8
HIBINO-BASE
 62
     7
 10
10.02560606060606
 20
-613.09727499999985
 30
0.0
 40
8.1442057291666661
  1
PAPER SIZE
 41
0.8
 11
10.02560606060606
 21
-604.95306927083334
 31
0.0
 73
     3
  0
TEXT
  5
4B
  8
HIBINO-BASE
 62
     7
 10
224.1083779584493
 20
-573.40185519421289
 30
0.0
 40
9.5015733506944446
  1
パッチベイ
 41
0.8
 11
224.1083779584493
 21
-563.90028184351843
 31
0.0
 73
     3
  0
TEXT
  5
4C
  8
HIBINO-BASE
 62
     7
 10
-391.7077562313961
 20
-624.68560606060612
 30
0.0
 40
8.1442057291666661
  1
仕様および外観は予告なく変更されることがありますので、ご了承ください。
 41
0.8
 11
-391.7077562313961
 21
-616.54140033143949
 31
0.0
 73
     3
  0
LINE
  5
4D
  8
SPEC
  6
CONTINUOUS
 62
     7
 10
-399.942780603872
 20
600.03202521605965
 30
0.0
 11
337.55721939612789
 21
600.03202521605965
 31
0.0
  0
LINE
  5
4E
  8
SPEC
  6
CONTINUOUS
 62
     7
 10
-399.942780603872
 20
581.28202521605965
 30
0.0
 11
337.55721939612789
 21
581.28202521605965
 31
0.0
  0
LINE
  5
4F
  8
SPEC
  6
CONTINUOUS
 62
     7
 10
-399.942780603872
 20
600.03202521605965
 30
0.0
 11
-399.942780603872
 21
581.28202521605965
 31
0.0
  0
TEXT
  5
50
  8
SPEC
 62
     7
 10
-386.437066787003
 20
606.99837521605957
 30
0.0
 40
12.21630859375
  1
仕様
 41
0.8
 11
-386.437066787003
 21
619.21468380980957
 31
0.0
 73
     3
  0
LINE
  5
51
  8
SPEC
  6
CONTINUOUS
 62
     7
 10
-237.44278060387279
 20
600.03202521605965
 30
0.0
 11
-237.44278060387279
 21
581.28202521605965
 31
0.0
  0
LINE
  5
52
  8
SPEC
  6
CONTINUOUS
 62
     7
 10
337.55721939612789
 20
600.03202521605965
 30
0.0
 11
337.55721939612789
 21
581.28202521605965
 31
0.0
  0
TEXT
  5
53
  8
SPEC
 62
     7
 10
-394.76321156635731
 20
568.5560891800917
 30
0.0
 40
9.5015733506944446
  1
寸法（W x H x D）・重量　
 41
0.8
 11
-394.76321156635731
 21
578.05766253078605
 31
0.0
 73
     3
  0
TEXT
  5
54
  8
SPEC
 62
     7
 10
-229.53336308889121
 20
567.47439768016102
 30
0.0
 40
9.5015733506944446
  1
483X45X58.5mm（突起部含まず）、1.2Kg
 41
0.8
 11
-229.53336308889121
 21
576.97597103085536
 31
0.0
 73
     3
  0
LINE
  5
55
  8
SPEC
  6
CONTINUOUS
 62
     7
 10
-399.942780603872
 20
562.53202521605965
 30
0.0
 11
337.55721939612789
 21
562.53202521605965
 31
0.0
  0
LINE
  5
56
  8
SPEC
  6
CONTINUOUS
 62
     7
 10
-399.942780603872
 20
581.28202521605965
 30
0.0
 11
-399.942780603872
 21
562.53202521605965
 31
0.0
  0
LINE
  5
57
  8
SPEC
  6
CONTINUOUS
 62
     7
 10
-237.44278060387279
 20
581.28202521605965
 30
0.0
 11
-237.44278060387279
 21
562.53202521605965
 31
0.0
  0
LINE
  5
58
  8
SPEC
  6
CONTINUOUS
 62
     7
 10
337.55721939612789
 20
562.53202521605965
 30
0.0
 11
337.55721939612789
 21
581.28202521605965
 31
0.0
  0
TEXT
  5
59
  8
SPEC
 62
     7
 10
-394.85809535503682
 20
585.76845543194156
 30
0.0
 40
9.5015562499999984
  1
形式
 41
0.8
 11
-394.85809535503682
 21
595.27001168194147
 31
0.0
 73
     3
  0
TEXT
  5
5A
  8
SPEC
 62
     7
 10
-228.98704743194119
 20
586.40081774097666
 30
0.0
 40
9.5015733506944446
  1
パッチベイ
 41
0.8
 11
-228.98704743194119
 21
595.90239109167123
 31
0.0
 73
     3
  0
TEXT
  5
5B
  8
DIMNSIONS
 62
     7
 10
-94.766060606060606
 20
-588.65255000000002
 30
0.0
 40
12.21630859375
  1
(単位：mm)
 41
0.8
 11
-94.766060606060606
 21
-576.43624140625002
 31
0.0
 73
     3
  0
LINE
  5
5C
  8
DIMNSIONS
  6
CONTINUOUS
 62
     7
 10
-359.94674520360468
 20
-319.88357459917512
 30
0.0
 11
-359.94674520360468
 21
-369.91015982217721
 31
0.0
  0
LINE
  5
5D
  8
DIMNSIONS
  6
CONTINUOUS
 62
     7
 10
123.0532547963969
 20
-319.88357459917512
 30
0.0
 11
123.0532547963969
 21
-369.91015982217721
 31
0.0
  0
LINE
  5
5E
  8
DIMNSIONS
  6
CONTINUOUS
 62
     7
 10
-359.94674520360468
 20
-359.91015982217721
 30
0.0
 11
123.0532547963969
 21
-359.91015982217721
 31
0.0
  0
LINE
  5
5F
  8
DIMNSIONS
  6
CONTINUOUS
 62
     7
 10
-359.94674520360468
 20
-359.91015982217721
 30
0.0
 11
-347.44363241063598
 21
-356.55996084642601
 31
0.0
  0
LINE
  5
60
  8
DIMNSIONS
  6
CONTINUOUS
 62
     7
 10
-359.94674520360468
 20
-359.91015982217721
 30
0.0
 11
-347.44363241063598
 21
-363.2603587979284
 31
0.0
  0
LINE
  5
61
  8
DIMNSIONS
  6
CONTINUOUS
 62
     7
 10
123.0532547963969
 20
-359.91015982217721
 30
0.0
 11
110.55014200342821
 21
-363.2603587979284
 31
0.0
  0
LINE
  5
62
  8
DIMNSIONS
  6
CONTINUOUS
 62
     7
 10
123.0532547963969
 20
-359.91015982217721
 30
0.0
 11
110.55014200342821
 21
-356.55996084642601
 31
0.0
  0
TEXT
  5
63
  8
DIMNSIONS
 62
     7
 10
-131.67591187027051
 20
-354.94071537773272
 30
0.0
 40
13.57367621527778
  1
483
 41
0.8
 11
-131.67591187027051
 21
-341.36703916245489
 31
0.0
 73
     3
  0
LINE
  5
64
  8
DIMNSIONS
  6
CONTINUOUS
 62
     7
 10
-359.94674520360468
 20
-319.88357459917512
 30
0.0
 11
-359.94674520360468
 21
-309.0
 31
0.0
  0
LINE
  5
65
  8
DIMNSIONS
  6
CONTINUOUS
 62
     7
 10
123.0532547963969
 20
-319.88357459917512
 30
0.0
 11
123.0532547963969
 21
-308.0
 31
0.0
  0
LINE
  5
66
  8
DIMNSIONS
  6
CONTINUOUS
 62
     7
 10
-377.99474938554698
 20
-299.9734147769978
 30
0.0
 11
-409.99474938554698
 21
-299.9734147769978
 31
0.0
  0
LINE
  5
67
  8
DIMNSIONS
  6
CONTINUOUS
 62
     7
 10
-377.99474938554698
 20
-254.9734147769978
 30
0.0
 11
-409.99474938554698
 21
-254.9734147769978
 31
0.0
  0
LINE
  5
68
  8
DIMNSIONS
  6
CONTINUOUS
 62
     7
 10
-399.99474938554698
 20
-299.9734147769978
 30
0.0
 11
-399.99474938554698
 21
-254.9734147769978
 31
0.0
  0
LINE
  5
69
  8
DIMNSIONS
  6
CONTINUOUS
 62
     7
 10
-399.99474938554698
 20
-299.9734147769978
 30
0.0
 11
-403.34494836129818
 21
-287.47030198402911
 31
0.0
  0
LINE
  5
6A
  8
DIMNSIONS
  6
CONTINUOUS
 62
     7
 10
-399.99474938554698
 20
-299.9734147769978
 30
0.0
 11
-396.6445504097959
 21
-287.47030198402911
 31
0.0
  0
LINE
  5
6B
  8
DIMNSIONS
  6
CONTINUOUS
 62
     7
 10
-399.99474938554698
 20
-254.9734147769978
 30
0.0
 11
-396.6445504097959
 21
-267.47652756996661
 31
0.0
  0
LINE
  5
6C
  8
DIMNSIONS
  6
CONTINUOUS
 62
     7
 10
-399.99474938554698
 20
-254.9734147769978
 30
0.0
 11
-403.34494836129818
 21
-267.47652756996661
 31
0.0
  0
TEXT
  5
6D
  8
DIMNSIONS
 62
     7
 10
-404.96419382999147
 20
-286.29285922144231
 30
0.0
 40
13.57367621527778
  1
45
 50
90.0
 41
0.8
 11
-418.5378700452693
 21
-286.29285922144231
 31
0.0
 73
     3
  0
LINE
  5
6E
  8
DIMNSIONS
  6
CONTINUOUS
 62
     7
 10
-377.99474938554698
 20
-254.9734147769978
 30
0.0
 11
-370.0
 21
-254.9734147769978
 31
0.0
  0
LINE
  5
6F
  8
DIMNSIONS
  6
CONTINUOUS
 62
     7
 10
-377.99474938554698
 20
-299.9734147769978
 30
0.0
 11
-370.0
 21
-299.9734147769978
 31
0.0
  0
LINE
  5
70
  8
DIMNSIONS
  6
CONTINUOUS
 62
     7
 10
-381.5
 20
-180.0
 30
0.0
 11
-410.0
 21
-180.0
 31
0.0
  0
LINE
  5
71
  8
DIMNSIONS
  6
CONTINUOUS
 62
     7
 10
-381.5
 20
-121.59999999999999
 30
0.0
 11
-410.0
 21
-121.59999999999999
 31
0.0
  0
LINE
  5
72
  8
DIMNSIONS
  6
CONTINUOUS
 62
     7
 10
-400.0
 20
-180.0
 30
0.0
 11
-400.0
 21
-121.59999999999999
 31
0.0
  0
LINE
  5
73
  8
DIMNSIONS
  6
CONTINUOUS
 62
     7
 10
-400.0
 20
-180.0
 30
0.0
 11
-403.35019897575108
 21
-167.49688720703119
 31
0.0
  0
LINE
  5
74
  8
DIMNSIONS
  6
CONTINUOUS
 62
     7
 10
-400.0
 20
-180.0
 30
0.0
 11
-396.6498010242488
 21
-167.49688720703119
 31
0.0
  0
LINE
  5
75
  8
DIMNSIONS
  6
CONTINUOUS
 62
     7
 10
-400.0
 20
-121.59999999999999
 30
0.0
 11
-396.6498010242488
 21
-134.1031127929688
 31
0.0
  0
LINE
  5
76
  8
DIMNSIONS
  6
CONTINUOUS
 62
     7
 10
-400.0
 20
-121.59999999999999
 30
0.0
 11
-403.35019897575108
 21
-134.1031127929688
 31
0.0
  0
TEXT
  5
77
  8
DIMNSIONS
 62
     7
 10
-404.96944444444449
 20
-168.4388888888889
 30
0.0
 40
13.57367621527778
  1
58.5
 50
90.0
 41
0.8
 11
-418.54312065972221
 21
-168.4388888888889
 31
0.0
 73
     3
  0
LINE
  5
78
  8
DIMNSIONS
  6
CONTINUOUS
 62
     7
 10
-381.5
 20
-180.0
 30
0.0
 11
-370.0
 21
-180.0
 31
0.0
  0
LINE
  5
79
  8
DIMNSIONS
  6
CONTINUOUS
 62
     7
 10
-381.5
 20
-121.59999999999999
 30
0.0
 11
-340.0
 21
-121.59999999999999
 31
0.0
  0
LINE
  5
7A
  8
DIMNSIONS
  6
CONTINUOUS
 62
     7
 10
-377.2835868314495
 20
-180.0
 30
0.0
 11
-385.2835868314495
 21
-180.0
 31
0.0
  0
LINE
  5
7B
  8
DIMNSIONS
  6
CONTINUOUS
 62
     7
 10
-377.2835868314495
 20
-178.30000000000001
 30
0.0
 11
-385.2835868314495
 21
-178.30000000000001
 31
0.0
  0
LINE
  5
7C
  8
DIMNSIONS
  6
CONTINUOUS
 62
     7
 10
-375.2835868314495
 20
-178.30000000000001
 30
0.0
 11
-375.2835868314495
 21
-180.0
 31
0.0
  0
LINE
  5
7D
  8
DIMNSIONS
  6
CONTINUOUS
 62
     7
 10
-375.2835868314495
 20
-180.0
 30
0.0
 11
-375.2835868314495
 21
-205.0
 31
0.0
  0
LINE
  5
7E
  8
DIMNSIONS
  6
CONTINUOUS
 62
     7
 10
-375.2835868314495
 20
-180.0
 30
0.0
 11
-371.9333878556983
 21
-192.50311279296869
 31
0.0
  0
LINE
  5
7F
  8
DIMNSIONS
  6
CONTINUOUS
 62
     7
 10
-375.2835868314495
 20
-180.0
 30
0.0
 11
-378.6337858072007
 21
-192.50311279296869
 31
0.0
  0
LINE
  5
80
  8
DIMNSIONS
  6
CONTINUOUS
 62
     7
 10
-375.2835868314495
 20
-178.30000000000001
 30
0.0
 11
-375.2835868314495
 21
-140.0416666666666
 31
0.0
  0
LINE
  5
81
  8
DIMNSIONS
  6
CONTINUOUS
 62
     7
 10
-375.2835868314495
 20
-178.30000000000001
 30
0.0
 11
-378.6337858072007
 21
-165.79688720703129
 31
0.0
  0
LINE
  5
82
  8
DIMNSIONS
  6
CONTINUOUS
 62
     7
 10
-375.2835868314495
 20
-178.30000000000001
 30
0.0
 11
-371.9333878556983
 21
-165.79688720703129
 31
0.0
  0
TEXT
  5
83
  8
DIMNSIONS
 62
     7
 10
-380.25303127589387
 20
-166.5
 30
0.0
 40
13.57367621527778
  1
1.7
 50
90.0
 41
0.8
 11
-393.8267074911717
 21
-166.5
 31
0.0
 73
     3
  0
LINE
  5
84
  8
DIMNSIONS
  6
CONTINUOUS
 62
     7
 10
-377.2835868314495
 20
-178.30000000000001
 30
0.0
 11
-370.0
 21
-178.30000000000001
 31
0.0
  0
LINE
  5
85
  8
DIMNSIONS
  6
CONTINUOUS
 62
     7
 10
-394.0
 20
-183.0
 30
0.0
 11
-410.0
 21
-183.0
 31
0.0
  0
LINE
  5
86
  8
DIMNSIONS
  6
CONTINUOUS
 62
     7
 10
-394.0
 20
-180.0
 30
0.0
 11
-410.0
 21
-180.0
 31
0.0
  0
LINE
  5
87
  8
DIMNSIONS
  6
CONTINUOUS
 62
     7
 10
-400.0
 20
-180.0
 30
0.0
 11
-400.0
 21
-183.0
 31
0.0
  0
LINE
  5
88
  8
DIMNSIONS
  6
CONTINUOUS
 62
     7
 10
-400.0
 20
-183.0
 30
0.0
 11
-400.0
 21
-208.8194444444444
 31
0.0
  0
LINE
  5
89
  8
DIMNSIONS
  6
CONTINUOUS
 62
     7
 10
-400.0
 20
-183.0
 30
0.0
 11
-396.6498010242488
 21
-195.50311279296869
 31
0.0
  0
LINE
  5
8A
  8
DIMNSIONS
  6
CONTINUOUS
 62
     7
 10
-400.0
 20
-183.0
 30
0.0
 11
-403.35019897575108
 21
-195.50311279296869
 31
0.0
  0
LINE
  5
8B
  8
DIMNSIONS
  6
CONTINUOUS
 62
     7
 10
-400.0
 20
-180.0
 30
0.0
 11
-400.0
 21
-155.0
 31
0.0
  0
LINE
  5
8C
  8
DIMNSIONS
  6
CONTINUOUS
 62
     7
 10
-400.0
 20
-180.0
 30
0.0
 11
-403.35019897575108
 21
-167.49688720703119
 31
0.0
  0
LINE
  5
8D
  8
DIMNSIONS
  6
CONTINUOUS
 62
     7
 10
-400.0
 20
-180.0
 30
0.0
 11
-396.6498010242488
 21
-167.49688720703119
 31
0.0
  0
TEXT
  5
8E
  8
DIMNSIONS
 62
     7
 10
-404.96944444444449
 20
-208.8194444444444
 30
0.0
 40
13.57367621527778
  1
3
 50
90.0
 41
0.8
 11
-418.54312065972221
 21
-208.8194444444444
 31
0.0
 73
     3
  0
LINE
  5
8F
  8
DIMNSIONS
  6
CONTINUOUS
 62
     7
 10
-394.0
 20
-183.0
 30
0.0
 11
-334.5
 21
-183.0
 31
0.0
  0
LINE
  5
90
  8
DIMNSIONS
  6
CONTINUOUS
 62
     7
 10
-381.0
 20
-114.69746193957729
 30
0.0
 11
-410.0
 21
-114.69746193957729
 31
0.0
  0
LINE
  5
91
  8
DIMNSIONS
  6
CONTINUOUS
 62
     7
 10
-381.0
 20
-121.59999999999999
 30
0.0
 11
-410.0
 21
-121.59999999999999
 31
0.0
  0
LINE
  5
92
  8
DIMNSIONS
  6
CONTINUOUS
 62
     7
 10
-400.0
 20
-121.59999999999999
 30
0.0
 11
-400.0
 21
-114.69746193957729
 31
0.0
  0
LINE
  5
93
  8
DIMNSIONS
  6
CONTINUOUS
 62
     7
 10
-400.0
 20
-114.69746193957729
 30
0.0
 11
-400.0
 21
-60.041666666666657
 31
0.0
  0
LINE
  5
94
  8
DIMNSIONS
  6
CONTINUOUS
 62
     7
 10
-400.0
 20
-114.69746193957729
 30
0.0
 11
-403.35019897575108
 21
-102.1943491466085
 31
0.0
  0
LINE
  5
95
  8
DIMNSIONS
  6
CONTINUOUS
 62
     7
 10
-400.0
 20
-114.69746193957729
 30
0.0
 11
-396.6498010242488
 21
-102.1943491466085
 31
0.0
  0
LINE
  5
96
  8
DIMNSIONS
  6
CONTINUOUS
 62
     7
 10
-400.0
 20
-121.59999999999999
 30
0.0
 11
-400.0
 21
-146.59999999999999
 31
0.0
  0
LINE
  5
97
  8
DIMNSIONS
  6
CONTINUOUS
 62
     7
 10
-400.0
 20
-121.59999999999999
 30
0.0
 11
-396.6498010242488
 21
-134.1031127929688
 31
0.0
  0
LINE
  5
98
  8
DIMNSIONS
  6
CONTINUOUS
 62
     7
 10
-400.0
 20
-121.59999999999999
 30
0.0
 11
-403.35019897575108
 21
-134.1031127929688
 31
0.0
  0
TEXT
  5
99
  8
DIMNSIONS
 62
     7
 10
-404.96944444444449
 20
-86.5
 30
0.0
 40
13.57367621527778
  1
7.5
 50
90.0
 41
0.8
 11
-418.54312065972221
 21
-86.5
 31
0.0
 73
     3
  0
LINE
  5
9A
  8
DIMNSIONS
  6
CONTINUOUS
 62
     7
 10
-335.94674520360479
 20
-108.706379606195
 30
0.0
 11
-335.94674520360479
 21
-69.706379606195057
 31
0.0
  0
LINE
  5
9B
  8
DIMNSIONS
  6
CONTINUOUS
 62
     7
 10
99.053254796396956
 20
-108.706379606195
 30
0.0
 11
99.053254796396956
 21
-69.706379606195057
 31
0.0
  0
LINE
  5
9C
  8
DIMNSIONS
  6
CONTINUOUS
 62
     7
 10
-335.94674520360479
 20
-79.706379606195057
 30
0.0
 11
99.053254796396956
 21
-79.706379606195057
 31
0.0
  0
LINE
  5
9D
  8
DIMNSIONS
  6
CONTINUOUS
 62
     7
 10
-335.94674520360479
 20
-79.706379606195057
 30
0.0
 11
-323.44363241063598
 21
-76.356180630443845
 31
0.0
  0
LINE
  5
9E
  8
DIMNSIONS
  6
CONTINUOUS
 62
     7
 10
-335.94674520360479
 20
-79.706379606195057
 30
0.0
 11
-323.44363241063598
 21
-83.056578581946255
 31
0.0
  0
LINE
  5
9F
  8
DIMNSIONS
  6
CONTINUOUS
 62
     7
 10
99.053254796396956
 20
-79.706379606195057
 30
0.0
 11
86.550142003428206
 21
-83.056578581946255
 31
0.0
  0
LINE
  5
A0
  8
DIMNSIONS
  6
CONTINUOUS
 62
     7
 10
99.053254796396956
 20
-79.706379606195057
 30
0.0
 11
86.550142003428206
 21
-76.356180630443845
 31
0.0
  0
TEXT
  5
A1
  8
DIMNSIONS
 62
     7
 10
-131.67591187027051
 20
-74.736935161750623
 30
0.0
 40
13.57367621527778
  1
435
 41
0.8
 11
-131.67591187027051
 21
-61.163258946472837
 31
0.0
 73
     3
  0
ARC
  5
A2
  8
DATA
  6
CONTINUOUS
 62
     7
 10
-352.76236080071982
 20
-261.56903577945059
 30
0.0
 40
3.1999999999999882
 50
90.0
 51
270.0
  0
ARC
  5
A3
  8
DATA
  6
CONTINUOUS
 62
     7
 10
-348.16236080071991
 20
-261.56903577945059
 30
0.0
 40
3.1999999999999882
 50
270.0
 51
90.0
  0
LINE
  5
A4
  8
DATA
  6
CONTINUOUS
 62
     7
 10
-352.76236080071982
 20
-258.3690357794506
 30
0.0
 11
-348.16236080071991
 21
-258.3690357794506
 31
0.0
  0
LINE
  5
A5
  8
DATA
  6
CONTINUOUS
 62
     7
 10
-352.76236080071982
 20
-264.76903577945058
 30
0.0
 11
-348.16236080071991
 21
-264.76903577945058
 31
0.0
  0
TEXT
  5
A6
  8
DATA
 62
     7
 10
233.5088757718411
 20
-555.7321086492808
 30
0.0
 40
12.21630859375
  1
dbx
 41
0.8
 11
233.5088757718411
 21
-543.5158000555308
 31
0.0
 73
     3
  0
TEXT
  5
A7
  8
DATA
 62
     7
 10
224.06283468836961
 20
-592.74600365038577
 30
0.0
 40
12.21630859375
  1
PB-48
 41
0.8
 11
224.06283468836961
 21
-580.52969505663589
 31
0.0
 73
     3
  0
POLYLINE
  5
A8
  8
DATA
  6
CONTINUOUS
 62
     7
 66
     1
 10
0.0
 20
0.0
 30
0.0
 70
     1
  0
VERTEX
  5
522
  8
DATA
  6
CONTINUOUS
 62
     7
 10
-359.94674520360468
 20
-254.9734147769978
 30
0.0
  0
VERTEX
  5
523
  8
DATA
  6
CONTINUOUS
 62
     7
 10
123.0532547963969
 20
-254.9734147769978
 30
0.0
  0
VERTEX
  5
524
  8
DATA
  6
CONTINUOUS
 62
     7
 10
123.0532547963969
 20
-299.9734147769978
 30
0.0
  0
VERTEX
  5
525
  8
DATA
  6
CONTINUOUS
 62
     7
 10
-359.94674520360468
 20
-299.9734147769978
 30
0.0
  0
SEQEND
  5
526
  8
DATA
  6
CONTINUOUS
 62
     7
  0
CIRCLE
  5
AE
  8
DATA
  6
CONTINUOUS
 62
     7
 10
-127.4467452036029
 20
-267.4734147769978
 30
0.0
 40
5.4999999999999281
  0
CIRCLE
  5
AF
  8
DATA
  6
CONTINUOUS
 62
     7
 10
-109.446745203603
 20
-267.4734147769978
 30
0.0
 40
5.5
  0
CIRCLE
  5
B0
  8
DATA
  6
CONTINUOUS
 62
     7
 10
-127.4467452036029
 20
-285.9734147769978
 30
0.0
 40
5.4999999999999281
  0
CIRCLE
  5
B1
  8
DATA
  6
CONTINUOUS
 62
     7
 10
-109.446745203603
 20
-285.9734147769978
 30
0.0
 40
5.5
  0
CIRCLE
  5
B2
  8
DATA
  6
CONTINUOUS
 62
     7
 10
-127.4467452036029
 20
-267.4734147769978
 30
0.0
 40
3.1999999999999171
  0
CIRCLE
  5
B3
  8
DATA
  6
CONTINUOUS
 62
     7
 10
-109.446745203603
 20
-267.4734147769978
 30
0.0
 40
3.1999999999999882
  0
CIRCLE
  5
B4
  8
DATA
  6
CONTINUOUS
 62
     7
 10
-127.4467452036029
 20
-285.9734147769978
 30
0.0
 40
3.1999999999999171
  0
CIRCLE
  5
B5
  8
DATA
  6
CONTINUOUS
 62
     7
 10
-109.446745203603
 20
-285.9734147769978
 30
0.0
 40
3.1999999999999882
  0
CIRCLE
  5
B6
  8
DATA
  6
CONTINUOUS
 62
     7
 10
-91.446745203603044
 20
-267.4734147769978
 30
0.0
 40
5.5
  0
CIRCLE
  5
B7
  8
DATA
  6
CONTINUOUS
 62
     7
 10
-91.446745203603044
 20
-285.9734147769978
 30
0.0
 40
5.5
  0
CIRCLE
  5
B8
  8
DATA
  6
CONTINUOUS
 62
     7
 10
-91.446745203603044
 20
-267.4734147769978
 30
0.0
 40
3.1999999999999882
  0
CIRCLE
  5
B9
  8
DATA
  6
CONTINUOUS
 62
     7
 10
-91.446745203603044
 20
-285.9734147769978
 30
0.0
 40
3.1999999999999882
  0
CIRCLE
  5
BA
  8
DATA
  6
CONTINUOUS
 62
     7
 10
-73.446745203603058
 20
-267.4734147769978
 30
0.0
 40
5.4999999999997717
  0
CIRCLE
  5
BB
  8
DATA
  6
CONTINUOUS
 62
     7
 10
-73.446745203603058
 20
-285.9734147769978
 30
0.0
 40
5.4999999999997717
  0
CIRCLE
  5
BC
  8
DATA
  6
CONTINUOUS
 62
     7
 10
-73.446745203603058
 20
-267.4734147769978
 30
0.0
 40
3.1999999999998741
  0
CIRCLE
  5
BD
  8
DATA
  6
CONTINUOUS
 62
     7
 10
-73.446745203603058
 20
-285.9734147769978
 30
0.0
 40
3.1999999999998741
  0
CIRCLE
  5
BE
  8
DATA
  6
CONTINUOUS
 62
     7
 10
-55.446745203603392
 20
-267.4734147769978
 30
0.0
 40
5.5
  0
CIRCLE
  5
BF
  8
DATA
  6
CONTINUOUS
 62
     7
 10
-55.446745203603392
 20
-285.9734147769978
 30
0.0
 40
5.5
  0
CIRCLE
  5
C0
  8
DATA
  6
CONTINUOUS
 62
     7
 10
-55.446745203603392
 20
-267.4734147769978
 30
0.0
 40
3.200000000000002
  0
CIRCLE
  5
C1
  8
DATA
  6
CONTINUOUS
 62
     7
 10
-55.446745203603392
 20
-285.9734147769978
 30
0.0
 40
3.200000000000002
  0
CIRCLE
  5
C2
  8
DATA
  6
CONTINUOUS
 62
     7
 10
-37.4467452036033
 20
-267.4734147769978
 30
0.0
 40
5.500000000000103
  0
CIRCLE
  5
C3
  8
DATA
  6
CONTINUOUS
 62
     7
 10
-37.4467452036033
 20
-285.9734147769978
 30
0.0
 40
5.500000000000103
  0
CIRCLE
  5
C4
  8
DATA
  6
CONTINUOUS
 62
     7
 10
-37.4467452036033
 20
-267.4734147769978
 30
0.0
 40
3.2000000000000659
  0
CIRCLE
  5
C5
  8
DATA
  6
CONTINUOUS
 62
     7
 10
-37.4467452036033
 20
-285.9734147769978
 30
0.0
 40
3.2000000000000659
  0
CIRCLE
  5
C6
  8
DATA
  6
CONTINUOUS
 62
     7
 10
-19.4467452036032
 20
-267.4734147769978
 30
0.0
 40
5.4999999999999689
  0
CIRCLE
  5
C7
  8
DATA
  6
CONTINUOUS
 62
     7
 10
-19.4467452036032
 20
-285.9734147769978
 30
0.0
 40
5.4999999999999689
  0
CIRCLE
  5
C8
  8
DATA
  6
CONTINUOUS
 62
     7
 10
-19.4467452036032
 20
-267.4734147769978
 30
0.0
 40
3.1999999999999922
  0
CIRCLE
  5
C9
  8
DATA
  6
CONTINUOUS
 62
     7
 10
-19.4467452036032
 20
-285.9734147769978
 30
0.0
 40
3.1999999999999922
  0
CIRCLE
  5
CA
  8
DATA
  6
CONTINUOUS
 62
     7
 10
-1.446745203603242
 20
-267.4734147769978
 30
0.0
 40
5.5000000000000178
  0
CIRCLE
  5
CB
  8
DATA
  6
CONTINUOUS
 62
     7
 10
-1.446745203603242
 20
-285.9734147769978
 30
0.0
 40
5.5000000000000178
  0
CIRCLE
  5
CC
  8
DATA
  6
CONTINUOUS
 62
     7
 10
-1.446745203603242
 20
-267.4734147769978
 30
0.0
 40
3.2000000000000148
  0
CIRCLE
  5
CD
  8
DATA
  6
CONTINUOUS
 62
     7
 10
-1.446745203603242
 20
-285.9734147769978
 30
0.0
 40
3.2000000000000148
  0
CIRCLE
  5
CE
  8
DATA
  6
CONTINUOUS
 62
     7
 10
16.553254796396789
 20
-267.4734147769978
 30
0.0
 40
5.5000000000000098
  0
CIRCLE
  5
CF
  8
DATA
  6
CONTINUOUS
 62
     7
 10
16.553254796396789
 20
-285.9734147769978
 30
0.0
 40
5.5000000000000098
  0
CIRCLE
  5
D0
  8
DATA
  6
CONTINUOUS
 62
     7
 10
16.553254796396789
 20
-267.4734147769978
 30
0.0
 40
3.2000000000000131
  0
CIRCLE
  5
D1
  8
DATA
  6
CONTINUOUS
 62
     7
 10
16.553254796396789
 20
-285.9734147769978
 30
0.0
 40
3.2000000000000131
  0
CIRCLE
  5
D2
  8
DATA
  6
CONTINUOUS
 62
     7
 10
34.553254796396608
 20
-267.4734147769978
 30
0.0
 40
5.5
  0
CIRCLE
  5
D3
  8
DATA
  6
CONTINUOUS
 62
     7
 10
34.553254796396608
 20
-285.9734147769978
 30
0.0
 40
5.5
  0
CIRCLE
  5
D4
  8
DATA
  6
CONTINUOUS
 62
     7
 10
34.553254796396608
 20
-267.4734147769978
 30
0.0
 40
3.200000000000002
  0
CIRCLE
  5
D5
  8
DATA
  6
CONTINUOUS
 62
     7
 10
34.553254796396608
 20
-285.9734147769978
 30
0.0
 40
3.200000000000002
  0
CIRCLE
  5
D6
  8
DATA
  6
CONTINUOUS
 62
     7
 10
52.553254796396608
 20
-267.4734147769978
 30
0.0
 40
5.5000000000001492
  0
CIRCLE
  5
D7
  8
DATA
  6
CONTINUOUS
 62
     7
 10
52.553254796396608
 20
-285.9734147769978
 30
0.0
 40
5.5000000000001492
  0
CIRCLE
  5
D8
  8
DATA
  6
CONTINUOUS
 62
     7
 10
52.553254796396608
 20
-267.4734147769978
 30
0.0
 40
3.200000000000073
  0
CIRCLE
  5
D9
  8
DATA
  6
CONTINUOUS
 62
     7
 10
52.553254796396608
 20
-285.9734147769978
 30
0.0
 40
3.200000000000073
  0
CIRCLE
  5
DA
  8
DATA
  6
CONTINUOUS
 62
     7
 10
70.553254796396956
 20
-267.4734147769978
 30
0.0
 40
5.5
  0
CIRCLE
  5
DB
  8
DATA
  6
CONTINUOUS
 62
     7
 10
70.553254796396956
 20
-285.9734147769978
 30
0.0
 40
5.5
  0
CIRCLE
  5
DC
  8
DATA
  6
CONTINUOUS
 62
     7
 10
70.553254796396956
 20
-267.4734147769978
 30
0.0
 40
3.200000000000002
  0
CIRCLE
  5
DD
  8
DATA
  6
CONTINUOUS
 62
     7
 10
70.553254796396956
 20
-285.9734147769978
 30
0.0
 40
3.200000000000002
  0
CIRCLE
  5
DE
  8
DATA
  6
CONTINUOUS
 62
     7
 10
88.553254796396928
 20
-267.4734147769978
 30
0.0
 40
5.5
  0
CIRCLE
  5
DF
  8
DATA
  6
CONTINUOUS
 62
     7
 10
88.553254796396928
 20
-285.9734147769978
 30
0.0
 40
5.5
  0
CIRCLE
  5
E0
  8
DATA
  6
CONTINUOUS
 62
     7
 10
88.553254796396928
 20
-267.4734147769978
 30
0.0
 40
3.200000000000002
  0
CIRCLE
  5
E1
  8
DATA
  6
CONTINUOUS
 62
     7
 10
88.553254796396928
 20
-285.9734147769978
 30
0.0
 40
3.200000000000002
  0
CIRCLE
  5
E2
  8
DATA
  6
CONTINUOUS
 62
     7
 10
-145.44674520360289
 20
-267.4734147769978
 30
0.0
 40
5.5
  0
CIRCLE
  5
E3
  8
DATA
  6
CONTINUOUS
 62
     7
 10
-145.44674520360289
 20
-285.9734147769978
 30
0.0
 40
5.5
  0
CIRCLE
  5
E4
  8
DATA
  6
CONTINUOUS
 62
     7
 10
-145.44674520360289
 20
-267.4734147769978
 30
0.0
 40
3.1999999999999882
  0
CIRCLE
  5
E5
  8
DATA
  6
CONTINUOUS
 62
     7
 10
-145.44674520360289
 20
-285.9734147769978
 30
0.0
 40
3.1999999999999882
  0
CIRCLE
  5
E6
  8
DATA
  6
CONTINUOUS
 62
     7
 10
-163.44674520360289
 20
-267.4734147769978
 30
0.0
 40
5.5
  0
CIRCLE
  5
E7
  8
DATA
  6
CONTINUOUS
 62
     7
 10
-163.44674520360289
 20
-285.9734147769978
 30
0.0
 40
5.5
  0
CIRCLE
  5
E8
  8
DATA
  6
CONTINUOUS
 62
     7
 10
-163.44674520360289
 20
-267.4734147769978
 30
0.0
 40
3.1999999999999882
  0
CIRCLE
  5
E9
  8
DATA
  6
CONTINUOUS
 62
     7
 10
-163.44674520360289
 20
-285.9734147769978
 30
0.0
 40
3.1999999999999882
  0
CIRCLE
  5
EA
  8
DATA
  6
CONTINUOUS
 62
     7
 10
-181.44674520360289
 20
-267.4734147769978
 30
0.0
 40
5.5
  0
CIRCLE
  5
EB
  8
DATA
  6
CONTINUOUS
 62
     7
 10
-181.44674520360289
 20
-285.9734147769978
 30
0.0
 40
5.5
  0
CIRCLE
  5
EC
  8
DATA
  6
CONTINUOUS
 62
     7
 10
-181.44674520360289
 20
-267.4734147769978
 30
0.0
 40
3.1999999999999882
  0
CIRCLE
  5
ED
  8
DATA
  6
CONTINUOUS
 62
     7
 10
-181.44674520360289
 20
-285.9734147769978
 30
0.0
 40
3.1999999999999882
  0
CIRCLE
  5
EE
  8
DATA
  6
CONTINUOUS
 62
     7
 10
-199.44674520360289
 20
-267.4734147769978
 30
0.0
 40
5.5
  0
CIRCLE
  5
EF
  8
DATA
  6
CONTINUOUS
 62
     7
 10
-199.44674520360289
 20
-285.9734147769978
 30
0.0
 40
5.5
  0
CIRCLE
  5
F0
  8
DATA
  6
CONTINUOUS
 62
     7
 10
-199.44674520360289
 20
-267.4734147769978
 30
0.0
 40
3.1999999999999882
  0
CIRCLE
  5
F1
  8
DATA
  6
CONTINUOUS
 62
     7
 10
-199.44674520360289
 20
-285.9734147769978
 30
0.0
 40
3.1999999999999882
  0
CIRCLE
  5
F2
  8
DATA
  6
CONTINUOUS
 62
     7
 10
-217.44674520360289
 20
-267.4734147769978
 30
0.0
 40
5.5
  0
CIRCLE
  5
F3
  8
DATA
  6
CONTINUOUS
 62
     7
 10
-217.44674520360289
 20
-285.9734147769978
 30
0.0
 40
5.5
  0
CIRCLE
  5
F4
  8
DATA
  6
CONTINUOUS
 62
     7
 10
-217.44674520360289
 20
-267.4734147769978
 30
0.0
 40
3.1999999999999882
  0
CIRCLE
  5
F5
  8
DATA
  6
CONTINUOUS
 62
     7
 10
-217.44674520360289
 20
-285.9734147769978
 30
0.0
 40
3.1999999999999882
  0
CIRCLE
  5
F6
  8
DATA
  6
CONTINUOUS
 62
     7
 10
-235.44674520360289
 20
-267.4734147769978
 30
0.0
 40
5.5
  0
CIRCLE
  5
F7
  8
DATA
  6
CONTINUOUS
 62
     7
 10
-235.44674520360289
 20
-285.9734147769978
 30
0.0
 40
5.5
  0
CIRCLE
  5
F8
  8
DATA
  6
CONTINUOUS
 62
     7
 10
-235.44674520360289
 20
-267.4734147769978
 30
0.0
 40
3.1999999999999882
  0
CIRCLE
  5
F9
  8
DATA
  6
CONTINUOUS
 62
     7
 10
-235.44674520360289
 20
-285.9734147769978
 30
0.0
 40
3.1999999999999882
  0
CIRCLE
  5
FA
  8
DATA
  6
CONTINUOUS
 62
     7
 10
-253.44674520360289
 20
-267.4734147769978
 30
0.0
 40
5.5
  0
CIRCLE
  5
FB
  8
DATA
  6
CONTINUOUS
 62
     7
 10
-253.44674520360289
 20
-285.9734147769978
 30
0.0
 40
5.5
  0
CIRCLE
  5
FC
  8
DATA
  6
CONTINUOUS
 62
     7
 10
-253.44674520360289
 20
-267.4734147769978
 30
0.0
 40
3.1999999999999882
  0
CIRCLE
  5
FD
  8
DATA
  6
CONTINUOUS
 62
     7
 10
-253.44674520360289
 20
-285.9734147769978
 30
0.0
 40
3.1999999999999882
  0
CIRCLE
  5
FE
  8
DATA
  6
CONTINUOUS
 62
     7
 10
-271.44674520360468
 20
-267.4734147769978
 30
0.0
 40
5.5
  0
CIRCLE
  5
FF
  8
DATA
  6
CONTINUOUS
 62
     7
 10
-271.44674520360468
 20
-285.9734147769978
 30
0.0
 40
5.5
  0
CIRCLE
  5
100
  8
DATA
  6
CONTINUOUS
 62
     7
 10
-271.44674520360468
 20
-267.4734147769978
 30
0.0
 40
3.1999999999999882
  0
CIRCLE
  5
101
  8
DATA
  6
CONTINUOUS
 62
     7
 10
-271.44674520360468
 20
-285.9734147769978
 30
0.0
 40
3.1999999999999882
  0
CIRCLE
  5
102
  8
DATA
  6
CONTINUOUS
 62
     7
 10
-289.44674520360468
 20
-267.4734147769978
 30
0.0
 40
5.5
  0
CIRCLE
  5
103
  8
DATA
  6
CONTINUOUS
 62
     7
 10
-289.44674520360468
 20
-285.9734147769978
 30
0.0
 40
5.5
  0
CIRCLE
  5
104
  8
DATA
  6
CONTINUOUS
 62
     7
 10
-289.44674520360468
 20
-267.4734147769978
 30
0.0
 40
3.1999999999999882
  0
CIRCLE
  5
105
  8
DATA
  6
CONTINUOUS
 62
     7
 10
-289.44674520360468
 20
-285.9734147769978
 30
0.0
 40
3.1999999999999882
  0
CIRCLE
  5
106
  8
DATA
  6
CONTINUOUS
 62
     7
 10
-307.44674520360468
 20
-267.4734147769978
 30
0.0
 40
5.5
  0
CIRCLE
  5
107
  8
DATA
  6
CONTINUOUS
 62
     7
 10
-307.44674520360468
 20
-285.9734147769978
 30
0.0
 40
5.5
  0
CIRCLE
  5
108
  8
DATA
  6
CONTINUOUS
 62
     7
 10
-307.44674520360468
 20
-267.4734147769978
 30
0.0
 40
3.1999999999999882
  0
CIRCLE
  5
109
  8
DATA
  6
CONTINUOUS
 62
     7
 10
-307.44674520360468
 20
-285.9734147769978
 30
0.0
 40
3.1999999999999882
  0
CIRCLE
  5
10A
  8
DATA
  6
CONTINUOUS
 62
     7
 10
-325.44674520360468
 20
-267.4734147769978
 30
0.0
 40
5.5
  0
CIRCLE
  5
10B
  8
DATA
  6
CONTINUOUS
 62
     7
 10
-325.44674520360468
 20
-285.9734147769978
 30
0.0
 40
5.5
  0
CIRCLE
  5
10C
  8
DATA
  6
CONTINUOUS
 62
     7
 10
-325.44674520360468
 20
-267.4734147769978
 30
0.0
 40
3.1999999999999882
  0
CIRCLE
  5
10D
  8
DATA
  6
CONTINUOUS
 62
     7
 10
-325.44674520360468
 20
-285.9734147769978
 30
0.0
 40
3.1999999999999882
  0
ARC
  5
10E
  8
DATA
  6
CONTINUOUS
 62
     7
 10
-352.76236080071982
 20
-293.3690357794506
 30
0.0
 40
3.1999999999999882
 50
90.0
 51
270.0
  0
ARC
  5
10F
  8
DATA
  6
CONTINUOUS
 62
     7
 10
-348.16236080071991
 20
-293.3690357794506
 30
0.0
 40
3.1999999999999882
 50
270.0
 51
90.0
  0
LINE
  5
110
  8
DATA
  6
CONTINUOUS
 62
     7
 10
-352.76236080071982
 20
-290.16903577945061
 30
0.0
 11
-348.16236080071991
 21
-290.16903577945061
 31
0.0
  0
LINE
  5
111
  8
DATA
  6
CONTINUOUS
 62
     7
 10
-352.76236080071982
 20
-296.56903577945059
 30
0.0
 11
-348.16236080071991
 21
-296.56903577945059
 31
0.0
  0
ARC
  5
112
  8
DATA
  6
CONTINUOUS
 62
     7
 10
111.272676182875
 20
-261.56903577945059
 30
0.0
 40
3.1999999999999882
 50
90.0
 51
270.0
  0
ARC
  5
113
  8
DATA
  6
CONTINUOUS
 62
     7
 10
115.8726761828749
 20
-261.56903577945059
 30
0.0
 40
3.1999999999999882
 50
270.0
 51
90.0
  0
LINE
  5
114
  8
DATA
  6
CONTINUOUS
 62
     7
 10
111.272676182875
 20
-258.3690357794506
 30
0.0
 11
115.8726761828749
 21
-258.3690357794506
 31
0.0
  0
LINE
  5
115
  8
DATA
  6
CONTINUOUS
 62
     7
 10
111.272676182875
 20
-264.76903577945058
 30
0.0
 11
115.8726761828749
 21
-264.76903577945058
 31
0.0
  0
ARC
  5
116
  8
DATA
  6
CONTINUOUS
 62
     7
 10
111.272676182875
 20
-293.3690357794506
 30
0.0
 40
3.1999999999999882
 50
90.0
 51
270.0
  0
ARC
  5
117
  8
DATA
  6
CONTINUOUS
 62
     7
 10
115.8726761828749
 20
-293.3690357794506
 30
0.0
 40
3.1999999999999882
 50
270.0
 51
90.0
  0
LINE
  5
118
  8
DATA
  6
CONTINUOUS
 62
     7
 10
111.272676182875
 20
-290.16903577945061
 30
0.0
 11
115.8726761828749
 21
-290.16903577945061
 31
0.0
  0
LINE
  5
119
  8
DATA
  6
CONTINUOUS
 62
     7
 10
111.272676182875
 20
-296.56903577945059
 30
0.0
 11
115.8726761828749
 21
-296.56903577945059
 31
0.0
  0
POLYLINE
  5
11A
  8
DATA
  6
CONTINUOUS
 62
     7
 66
     1
 10
0.0
 20
0.0
 30
0.0
 70
     1
  0
VERTEX
  5
527
  8
DATA
  6
CONTINUOUS
 62
     7
 10
-330.94674520360297
 20
-274.4264488378418
 30
0.0
  0
VERTEX
  5
528
  8
DATA
  6
CONTINUOUS
 62
     7
 10
94.053254796396956
 20
-274.4264488378418
 30
0.0
  0
VERTEX
  5
529
  8
DATA
  6
CONTINUOUS
 62
     7
 10
94.053254796396956
 20
-278.9264488378418
 30
0.0
  0
VERTEX
  5
52A
  8
DATA
  6
CONTINUOUS
 62
     7
 10
-330.94674520360297
 20
-278.9264488378418
 30
0.0
  0
SEQEND
  5
52B
  8
DATA
  6
CONTINUOUS
 62
     7
  0
POLYLINE
  5
120
  8
DATA
  6
CONTINUOUS
 62
     7
 66
     1
 10
0.0
 20
0.0
 30
0.0
 70
     1
  0
VERTEX
  5
52C
  8
DATA
  6
CONTINUOUS
 62
     7
 10
-330.94674520360297
 20
-292.76623878293282
 30
0.0
  0
VERTEX
  5
52D
  8
DATA
  6
CONTINUOUS
 62
     7
 10
94.053254796396914
 20
-292.76623878293282
 30
0.0
  0
VERTEX
  5
52E
  8
DATA
  6
CONTINUOUS
 62
     7
 10
94.053254796396914
 20
-297.26623878293282
 30
0.0
  0
VERTEX
  5
52F
  8
DATA
  6
CONTINUOUS
 62
     7
 10
-330.94674520360297
 20
-297.26623878293282
 30
0.0
  0
SEQEND
  5
530
  8
DATA
  6
CONTINUOUS
 62
     7
  0
TEXT
  5
126
  8
DATA
 62
     7
 10
-326.79946587950582
 20
-260.19162937513852
 30
0.0
 40
3.84765625
  1
1
 41
0.8
 11
-326.79946587950582
 21
-256.34397312513852
 31
0.0
 73
     3
  0
TEXT
  5
127
  8
DATA
 62
     7
 10
-308.79946587950582
 20
-260.19162937513852
 30
0.0
 40
3.84765625
  1
2
 41
0.8
 11
-308.79946587950582
 21
-256.34397312513852
 31
0.0
 73
     3
  0
TEXT
  5
128
  8
DATA
 62
     7
 10
-290.79946587950582
 20
-260.19162937513852
 30
0.0
 40
3.84765625
  1
3
 41
0.8
 11
-290.79946587950582
 21
-256.34397312513852
 31
0.0
 73
     3
  0
TEXT
  5
129
  8
DATA
 62
     7
 10
-272.79946587950582
 20
-260.19162937513852
 30
0.0
 40
3.84765625
  1
4
 41
0.8
 11
-272.79946587950582
 21
-256.34397312513852
 31
0.0
 73
     3
  0
TEXT
  5
12A
  8
DATA
 62
     7
 10
-254.7994658795059
 20
-260.19162937513852
 30
0.0
 40
3.84765625
  1
5
 41
0.8
 11
-254.7994658795059
 21
-256.34397312513852
 31
0.0
 73
     3
  0
TEXT
  5
12B
  8
DATA
 62
     7
 10
-236.79946587950579
 20
-260.19162937513852
 30
0.0
 40
3.84765625
  1
6
 41
0.8
 11
-236.79946587950579
 21
-256.34397312513852
 31
0.0
 73
     3
  0
TEXT
  5
12C
  8
DATA
 62
     7
 10
-218.7994658795059
 20
-260.19162937513852
 30
0.0
 40
3.84765625
  1
7
 41
0.8
 11
-218.7994658795059
 21
-256.34397312513852
 31
0.0
 73
     3
  0
TEXT
  5
12D
  8
DATA
 62
     7
 10
-200.7994658795059
 20
-260.19162937513852
 30
0.0
 40
3.84765625
  1
8
 41
0.8
 11
-200.7994658795059
 21
-256.34397312513852
 31
0.0
 73
     3
  0
TEXT
  5
12E
  8
DATA
 62
     7
 10
-182.79946587950579
 20
-260.19162937513852
 30
0.0
 40
3.84765625
  1
9
 41
0.8
 11
-182.79946587950579
 21
-256.34397312513852
 31
0.0
 73
     3
  0
TEXT
  5
12F
  8
DATA
 62
     7
 10
-165.8802529280224
 20
-260.19162937513852
 30
0.0
 40
3.84765625
  1
10
 41
0.8
 11
-165.8802529280224
 21
-256.34397312513852
 31
0.0
 73
     3
  0
TEXT
  5
130
  8
DATA
 62
     7
 10
-147.8802529280224
 20
-260.19162937513852
 30
0.0
 40
3.84765625
  1
11
 41
0.8
 11
-147.8802529280224
 21
-256.34397312513852
 31
0.0
 73
     3
  0
TEXT
  5
131
  8
DATA
 62
     7
 10
-129.8802529280224
 20
-260.19162937513852
 30
0.0
 40
3.84765625
  1
12
 41
0.8
 11
-129.8802529280224
 21
-256.34397312513852
 31
0.0
 73
     3
  0
TEXT
  5
132
  8
DATA
 62
     7
 10
-111.69569976053189
 20
-260.19162937513852
 30
0.0
 40
3.84765625
  1
13
 41
0.8
 11
-111.69569976053189
 21
-256.34397312513852
 31
0.0
 73
     3
  0
TEXT
  5
133
  8
DATA
 62
     7
 10
-94.040615194065907
 20
-260.19162937513852
 30
0.0
 40
3.84765625
  1
14
 41
0.8
 11
-94.040615194065907
 21
-256.34397312513852
 31
0.0
 73
     3
  0
TEXT
  5
134
  8
DATA
 62
     7
 10
-75.704489042577464
 20
-260.39162937513862
 30
0.0
 40
3.84765625
  1
15
 41
0.8
 11
-75.704489042577464
 21
-256.54397312513862
 31
0.0
 73
     3
  0
TEXT
  5
135
  8
DATA
 62
     7
 10
-57.688676595595886
 20
-260.19162937513852
 30
0.0
 40
3.84765625
  1
16
 41
0.8
 11
-57.688676595595886
 21
-256.34397312513852
 31
0.0
 73
     3
  0
TEXT
  5
136
  8
DATA
 62
     7
 10
-40.016034116789278
 20
-260.19162937513852
 30
0.0
 40
3.84765625
  1
17
 41
0.8
 11
-40.016034116789278
 21
-256.34397312513852
 31
0.0
 73
     3
  0
TEXT
  5
137
  8
DATA
 62
     7
 10
-21.740960156787722
 20
-260.19162937513852
 30
0.0
 40
3.84765625
  1
18
 41
0.8
 11
-21.740960156787722
 21
-256.34397312513852
 31
0.0
 73
     3
  0
TEXT
  5
138
  8
DATA
 62
     7
 10
-3.6153235395955008
 20
-260.19162937513852
 30
0.0
 40
3.84765625
  1
19
 41
0.8
 11
-3.6153235395954999
 21
-256.34397312513852
 31
0.0
 73
     3
  0
TEXT
  5
139
  8
DATA
 62
     7
 10
14.774852290193881
 20
-260.19162937513852
 30
0.0
 40
3.84765625
  1
20
 41
0.8
 11
14.774852290193881
 21
-256.34397312513852
 31
0.0
 73
     3
  0
TEXT
  5
13A
  8
DATA
 62
     7
 10
32.416280702617399
 20
-260.19162937513852
 30
0.0
 40
3.84765625
  1
21
 41
0.8
 11
32.416280702617399
 21
-256.34397312513852
 31
0.0
 73
     3
  0
TEXT
  5
13B
  8
DATA
 62
     7
 10
50.468564263809192
 20
-260.19162937513852
 30
0.0
 40
3.84765625
  1
22
 41
0.8
 11
50.468564263809192
 21
-256.34397312513852
 31
0.0
 73
     3
  0
TEXT
  5
13C
  8
DATA
 62
     7
 10
68.0502957742749
 20
-260.19162937513852
 30
0.0
 40
3.84765625
  1
23
 41
0.8
 11
68.0502957742749
 21
-256.34397312513852
 31
0.0
 73
     3
  0
TEXT
  5
13D
  8
DATA
 62
     7
 10
85.527460162357045
 20
-260.19162937513852
 30
0.0
 40
3.84765625
  1
24
 41
0.8
 11
85.527460162357045
 21
-256.34397312513852
 31
0.0
 73
     3
  0
TEXT
  5
13E
  8
DATA
 62
     7
 10
-358.53951734093789
 20
-282.54304299144479
 30
0.0
 40
1.923828125
  1
PROFESSIONAL PRODUCTS  
 41
0.8
 11
-358.53951734093789
 21
-280.61921486644479
 31
0.0
 73
     3
  0
TEXT
  5
13F
  8
DATA
 62
     7
 10
97.578693467808634
 20
-276.1152104888958
 30
0.0
 40
6.7868381076388884
  1
PB-48
 41
0.8
 11
97.578693467808634
 21
-269.32837238125688
 31
0.0
 73
     3
  0
TEXT
  5
140
  8
DATA
 62
     7
 10
102.4176858549431
 20
-280.89353196823703
 30
0.0
 40
2.8504720052083332
  1
 48-Point
 41
0.8
 11
102.4176858549431
 21
-278.04305996302861
 31
0.0
 73
     3
  0
TEXT
  5
141
  8
DATA
 62
     7
 10
102.4176858549431
 20
-284.59769863490362
 30
0.0
 40
2.8504720052083332
  1
Patch Bay
 41
0.8
 11
102.4176858549431
 21
-281.74722662969521
 31
0.0
 73
     3
  0
LINE
  5
142
  8
DATA
  6
CONTINUOUS
 62
     7
 10
-359.94674520360468
 20
-180.0
 30
0.0
 11
123.0532547963969
 21
-180.0
 31
0.0
  0
LINE
  5
143
  8
DATA
  6
CONTINUOUS
 62
     7
 10
-359.94674520360479
 20
-180.0
 30
0.0
 11
123.0532547963969
 21
-180.0
 31
0.0
  0
LINE
  5
144
  8
DATA
  6
CONTINUOUS
 62
     7
 10
-335.94674520360479
 20
-121.59999999999999
 30
0.0
 11
99.053254796396956
 21
-121.59999999999999
 31
0.0
  0
LINE
  5
145
  8
DATA
  6
CONTINUOUS
 62
     7
 10
123.0532547963969
 20
-178.30000000000001
 30
0.0
 11
99.053254796396956
 21
-178.30000000000001
 31
0.0
  0
LINE
  5
146
  8
DATA
  6
CONTINUOUS
 62
     7
 10
123.0532547963969
 20
-180.0
 30
0.0
 11
123.0532547963969
 21
-178.30000000000001
 31
0.0
  0
LINE
  5
147
  8
DATA
  6
CONTINUOUS
 62
     7
 10
99.053254796396956
 20
-178.30000000000001
 30
0.0
 11
99.053254796396956
 21
-121.59999999999999
 31
0.0
  0
LINE
  5
148
  8
DATA
  6
CONTINUOUS
 62
     7
 10
-335.94674520360479
 20
-178.30000000000001
 30
0.0
 11
-335.94674520360479
 21
-121.59999999999999
 31
0.0
  0
LINE
  5
149
  8
DATA
  6
CONTINUOUS
 62
     7
 10
-359.94674520360468
 20
-180.0
 30
0.0
 11
-359.94674520360468
 21
-178.30000000000001
 31
0.0
  0
LINE
  5
14A
  8
DATA
  6
CONTINUOUS
 62
     7
 10
-335.94674520360479
 20
-178.30000000000001
 30
0.0
 11
-359.94674520360468
 21
-178.30000000000001
 31
0.0
  0
LINE
  5
14B
  8
DATA
  6
CONTINUOUS
 62
     7
 10
-325.4206641467768
 20
-117.19746193957729
 30
0.0
 11
-325.4206641467768
 21
-119.6868021394788
 31
0.0
  0
LINE
  5
14C
  8
DATA
  6
CONTINUOUS
 62
     7
 10
-330.67066414677669
 20
-114.69746193957729
 30
0.0
 11
-320.17066414677669
 21
-114.69746193957729
 31
0.0
  0
LINE
  5
14D
  8
DATA
  6
CONTINUOUS
 62
     7
 10
-330.67066414677669
 20
-114.69746193957729
 30
0.0
 11
-330.67066414677669
 21
-117.19746193957729
 31
0.0
  0
LINE
  5
14E
  8
DATA
  6
CONTINUOUS
 62
     7
 10
-320.17066414677669
 20
-114.69746193957729
 30
0.0
 11
-320.17066414677669
 21
-117.19746193957729
 31
0.0
  0
LINE
  5
14F
  8
DATA
  6
CONTINUOUS
 62
     7
 10
-329.52066414677671
 20
-117.19746193957729
 30
0.0
 11
-320.17066414677669
 21
-115.94746193957729
 31
0.0
  0
LINE
  5
150
  8
DATA
  6
CONTINUOUS
 62
     7
 10
-330.67066414677669
 20
-115.94746193957729
 30
0.0
 11
-322.52066414677671
 21
-114.69746193957729
 31
0.0
  0
LINE
  5
151
  8
DATA
  6
CONTINUOUS
 62
     7
 10
-332.92066414677669
 20
-117.19746193957729
 30
0.0
 11
-317.92066414677669
 21
-117.19746193957729
 31
0.0
  0
LINE
  5
152
  8
DATA
  6
CONTINUOUS
 62
     7
 10
-332.92066414677669
 20
-117.19746193957729
 30
0.0
 11
-332.92066414677669
 21
-121.59999999999999
 31
0.0
  0
LINE
  5
153
  8
DATA
  6
CONTINUOUS
 62
     7
 10
-317.92066414677669
 20
-117.19746193957729
 30
0.0
 11
-317.92066414677669
 21
-121.59999999999999
 31
0.0
  0
LINE
  5
154
  8
DATA
  6
CONTINUOUS
 62
     7
 10
-332.92066414677669
 20
-120.8
 30
0.0
 11
-317.92066414677669
 21
-120.8
 31
0.0
  0
LINE
  5
155
  8
DATA
  6
CONTINUOUS
 62
     7
 10
-325.4206641467768
 20
-119.6868021394788
 30
0.0
 11
-325.4206641467768
 21
-120.8
 31
0.0
  0
LINE
  5
156
  8
DATA
  6
CONTINUOUS
 62
     7
 10
-307.4206641467768
 20
-117.19746193957729
 30
0.0
 11
-307.4206641467768
 21
-119.6868021394788
 31
0.0
  0
LINE
  5
157
  8
DATA
  6
CONTINUOUS
 62
     7
 10
-312.67066414677669
 20
-114.69746193957729
 30
0.0
 11
-302.17066414677669
 21
-114.69746193957729
 31
0.0
  0
LINE
  5
158
  8
DATA
  6
CONTINUOUS
 62
     7
 10
-312.67066414677669
 20
-114.69746193957729
 30
0.0
 11
-312.67066414677669
 21
-117.19746193957729
 31
0.0
  0
LINE
  5
159
  8
DATA
  6
CONTINUOUS
 62
     7
 10
-302.17066414677669
 20
-114.69746193957729
 30
0.0
 11
-302.17066414677669
 21
-117.19746193957729
 31
0.0
  0
LINE
  5
15A
  8
DATA
  6
CONTINUOUS
 62
     7
 10
-311.52066414677671
 20
-117.19746193957729
 30
0.0
 11
-302.17066414677669
 21
-115.94746193957729
 31
0.0
  0
LINE
  5
15B
  8
DATA
  6
CONTINUOUS
 62
     7
 10
-312.67066414677669
 20
-115.94746193957729
 30
0.0
 11
-304.52066414677671
 21
-114.69746193957729
 31
0.0
  0
LINE
  5
15C
  8
DATA
  6
CONTINUOUS
 62
     7
 10
-314.92066414677669
 20
-117.19746193957729
 30
0.0
 11
-299.92066414677669
 21
-117.19746193957729
 31
0.0
  0
LINE
  5
15D
  8
DATA
  6
CONTINUOUS
 62
     7
 10
-314.92066414677669
 20
-117.19746193957729
 30
0.0
 11
-314.92066414677669
 21
-121.59999999999999
 31
0.0
  0
LINE
  5
15E
  8
DATA
  6
CONTINUOUS
 62
     7
 10
-299.92066414677669
 20
-117.19746193957729
 30
0.0
 11
-299.92066414677669
 21
-121.59999999999999
 31
0.0
  0
LINE
  5
15F
  8
DATA
  6
CONTINUOUS
 62
     7
 10
-314.92066414677669
 20
-120.8
 30
0.0
 11
-299.92066414677669
 21
-120.8
 31
0.0
  0
LINE
  5
160
  8
DATA
  6
CONTINUOUS
 62
     7
 10
-307.4206641467768
 20
-119.6868021394788
 30
0.0
 11
-307.4206641467768
 21
-120.8
 31
0.0
  0
LINE
  5
161
  8
DATA
  6
CONTINUOUS
 62
     7
 10
-289.42066414677669
 20
-117.19746193957729
 30
0.0
 11
-289.42066414677669
 21
-119.6868021394788
 31
0.0
  0
LINE
  5
162
  8
DATA
  6
CONTINUOUS
 62
     7
 10
-294.6706641467768
 20
-114.69746193957729
 30
0.0
 11
-284.1706641467768
 21
-114.69746193957729
 31
0.0
  0
LINE
  5
163
  8
DATA
  6
CONTINUOUS
 62
     7
 10
-294.6706641467768
 20
-114.69746193957729
 30
0.0
 11
-294.6706641467768
 21
-117.19746193957729
 31
0.0
  0
LINE
  5
164
  8
DATA
  6
CONTINUOUS
 62
     7
 10
-284.1706641467768
 20
-114.69746193957729
 30
0.0
 11
-284.1706641467768
 21
-117.19746193957729
 31
0.0
  0
LINE
  5
165
  8
DATA
  6
CONTINUOUS
 62
     7
 10
-293.52066414677671
 20
-117.19746193957729
 30
0.0
 11
-284.1706641467768
 21
-115.94746193957729
 31
0.0
  0
LINE
  5
166
  8
DATA
  6
CONTINUOUS
 62
     7
 10
-294.6706641467768
 20
-115.94746193957729
 30
0.0
 11
-286.52066414677671
 21
-114.69746193957729
 31
0.0
  0
LINE
  5
167
  8
DATA
  6
CONTINUOUS
 62
     7
 10
-296.92066414677669
 20
-117.19746193957729
 30
0.0
 11
-281.9206641467768
 21
-117.19746193957729
 31
0.0
  0
LINE
  5
168
  8
DATA
  6
CONTINUOUS
 62
     7
 10
-296.92066414677669
 20
-117.19746193957729
 30
0.0
 11
-296.92066414677669
 21
-121.59999999999999
 31
0.0
  0
LINE
  5
169
  8
DATA
  6
CONTINUOUS
 62
     7
 10
-281.9206641467768
 20
-117.19746193957729
 30
0.0
 11
-281.9206641467768
 21
-121.59999999999999
 31
0.0
  0
LINE
  5
16A
  8
DATA
  6
CONTINUOUS
 62
     7
 10
-296.92066414677669
 20
-120.8
 30
0.0
 11
-281.9206641467768
 21
-120.8
 31
0.0
  0
LINE
  5
16B
  8
DATA
  6
CONTINUOUS
 62
     7
 10
-289.42066414677669
 20
-119.6868021394788
 30
0.0
 11
-289.42066414677669
 21
-120.8
 31
0.0
  0
LINE
  5
16C
  8
DATA
  6
CONTINUOUS
 62
     7
 10
-271.4206641467768
 20
-117.19746193957729
 30
0.0
 11
-271.4206641467768
 21
-119.6868021394788
 31
0.0
  0
LINE
  5
16D
  8
DATA
  6
CONTINUOUS
 62
     7
 10
-276.67066414677669
 20
-114.69746193957729
 30
0.0
 11
-266.17066414677669
 21
-114.69746193957729
 31
0.0
  0
LINE
  5
16E
  8
DATA
  6
CONTINUOUS
 62
     7
 10
-276.67066414677669
 20
-114.69746193957729
 30
0.0
 11
-276.67066414677669
 21
-117.19746193957729
 31
0.0
  0
LINE
  5
16F
  8
DATA
  6
CONTINUOUS
 62
     7
 10
-266.17066414677669
 20
-114.69746193957729
 30
0.0
 11
-266.17066414677669
 21
-117.19746193957729
 31
0.0
  0
LINE
  5
170
  8
DATA
  6
CONTINUOUS
 62
     7
 10
-275.52066414677671
 20
-117.19746193957729
 30
0.0
 11
-266.17066414677669
 21
-115.94746193957729
 31
0.0
  0
LINE
  5
171
  8
DATA
  6
CONTINUOUS
 62
     7
 10
-276.67066414677669
 20
-115.94746193957729
 30
0.0
 11
-268.52066414677671
 21
-114.69746193957729
 31
0.0
  0
LINE
  5
172
  8
DATA
  6
CONTINUOUS
 62
     7
 10
-278.92066414677669
 20
-117.19746193957729
 30
0.0
 11
-263.92066414677669
 21
-117.19746193957729
 31
0.0
  0
LINE
  5
173
  8
DATA
  6
CONTINUOUS
 62
     7
 10
-278.92066414677669
 20
-117.19746193957729
 30
0.0
 11
-278.92066414677669
 21
-121.59999999999999
 31
0.0
  0
LINE
  5
174
  8
DATA
  6
CONTINUOUS
 62
     7
 10
-263.92066414677669
 20
-117.19746193957729
 30
0.0
 11
-263.92066414677669
 21
-121.59999999999999
 31
0.0
  0
LINE
  5
175
  8
DATA
  6
CONTINUOUS
 62
     7
 10
-278.92066414677669
 20
-120.8
 30
0.0
 11
-263.92066414677669
 21
-120.8
 31
0.0
  0
LINE
  5
176
  8
DATA
  6
CONTINUOUS
 62
     7
 10
-271.4206641467768
 20
-119.6868021394788
 30
0.0
 11
-271.4206641467768
 21
-120.8
 31
0.0
  0
LINE
  5
177
  8
DATA
  6
CONTINUOUS
 62
     7
 10
-253.42066414677669
 20
-117.19746193957729
 30
0.0
 11
-253.42066414677669
 21
-119.6868021394788
 31
0.0
  0
LINE
  5
178
  8
DATA
  6
CONTINUOUS
 62
     7
 10
-258.67066414677669
 20
-114.69746193957729
 30
0.0
 11
-248.17066414677669
 21
-114.69746193957729
 31
0.0
  0
LINE
  5
179
  8
DATA
  6
CONTINUOUS
 62
     7
 10
-258.67066414677669
 20
-114.69746193957729
 30
0.0
 11
-258.67066414677669
 21
-117.19746193957729
 31
0.0
  0
LINE
  5
17A
  8
DATA
  6
CONTINUOUS
 62
     7
 10
-248.17066414677669
 20
-114.69746193957729
 30
0.0
 11
-248.17066414677669
 21
-117.19746193957729
 31
0.0
  0
LINE
  5
17B
  8
DATA
  6
CONTINUOUS
 62
     7
 10
-257.52066414677671
 20
-117.19746193957729
 30
0.0
 11
-248.17066414677669
 21
-115.94746193957729
 31
0.0
  0
LINE
  5
17C
  8
DATA
  6
CONTINUOUS
 62
     7
 10
-258.67066414677669
 20
-115.94746193957729
 30
0.0
 11
-250.5206641467768
 21
-114.69746193957729
 31
0.0
  0
LINE
  5
17D
  8
DATA
  6
CONTINUOUS
 62
     7
 10
-260.9206641467768
 20
-117.19746193957729
 30
0.0
 11
-245.92066414677669
 21
-117.19746193957729
 31
0.0
  0
LINE
  5
17E
  8
DATA
  6
CONTINUOUS
 62
     7
 10
-260.9206641467768
 20
-117.19746193957729
 30
0.0
 11
-260.9206641467768
 21
-121.59999999999999
 31
0.0
  0
LINE
  5
17F
  8
DATA
  6
CONTINUOUS
 62
     7
 10
-245.92066414677669
 20
-117.19746193957729
 30
0.0
 11
-245.92066414677669
 21
-121.59999999999999
 31
0.0
  0
LINE
  5
180
  8
DATA
  6
CONTINUOUS
 62
     7
 10
-260.9206641467768
 20
-120.8
 30
0.0
 11
-245.92066414677669
 21
-120.8
 31
0.0
  0
LINE
  5
181
  8
DATA
  6
CONTINUOUS
 62
     7
 10
-253.42066414677669
 20
-119.6868021394788
 30
0.0
 11
-253.42066414677669
 21
-120.8
 31
0.0
  0
LINE
  5
182
  8
DATA
  6
CONTINUOUS
 62
     7
 10
-235.42066414677669
 20
-117.19746193957729
 30
0.0
 11
-235.42066414677669
 21
-119.6868021394788
 31
0.0
  0
LINE
  5
183
  8
DATA
  6
CONTINUOUS
 62
     7
 10
-240.6706641467768
 20
-114.69746193957729
 30
0.0
 11
-230.1706641467768
 21
-114.69746193957729
 31
0.0
  0
LINE
  5
184
  8
DATA
  6
CONTINUOUS
 62
     7
 10
-240.6706641467768
 20
-114.69746193957729
 30
0.0
 11
-240.6706641467768
 21
-117.19746193957729
 31
0.0
  0
LINE
  5
185
  8
DATA
  6
CONTINUOUS
 62
     7
 10
-230.1706641467768
 20
-114.69746193957729
 30
0.0
 11
-230.1706641467768
 21
-117.19746193957729
 31
0.0
  0
LINE
  5
186
  8
DATA
  6
CONTINUOUS
 62
     7
 10
-239.52066414677671
 20
-117.19746193957729
 30
0.0
 11
-230.1706641467768
 21
-115.94746193957729
 31
0.0
  0
LINE
  5
187
  8
DATA
  6
CONTINUOUS
 62
     7
 10
-240.6706641467768
 20
-115.94746193957729
 30
0.0
 11
-232.52066414677671
 21
-114.69746193957729
 31
0.0
  0
LINE
  5
188
  8
DATA
  6
CONTINUOUS
 62
     7
 10
-242.92066414677669
 20
-117.19746193957729
 30
0.0
 11
-227.9206641467768
 21
-117.19746193957729
 31
0.0
  0
LINE
  5
189
  8
DATA
  6
CONTINUOUS
 62
     7
 10
-242.92066414677669
 20
-117.19746193957729
 30
0.0
 11
-242.92066414677669
 21
-121.59999999999999
 31
0.0
  0
LINE
  5
18A
  8
DATA
  6
CONTINUOUS
 62
     7
 10
-227.9206641467768
 20
-117.19746193957729
 30
0.0
 11
-227.9206641467768
 21
-121.59999999999999
 31
0.0
  0
LINE
  5
18B
  8
DATA
  6
CONTINUOUS
 62
     7
 10
-242.92066414677669
 20
-120.8
 30
0.0
 11
-227.9206641467768
 21
-120.8
 31
0.0
  0
LINE
  5
18C
  8
DATA
  6
CONTINUOUS
 62
     7
 10
-235.42066414677669
 20
-119.6868021394788
 30
0.0
 11
-235.42066414677669
 21
-120.8
 31
0.0
  0
LINE
  5
18D
  8
DATA
  6
CONTINUOUS
 62
     7
 10
-217.4206641467768
 20
-117.19746193957729
 30
0.0
 11
-217.4206641467768
 21
-119.6868021394788
 31
0.0
  0
LINE
  5
18E
  8
DATA
  6
CONTINUOUS
 62
     7
 10
-222.67066414677669
 20
-114.69746193957729
 30
0.0
 11
-212.17066414677669
 21
-114.69746193957729
 31
0.0
  0
LINE
  5
18F
  8
DATA
  6
CONTINUOUS
 62
     7
 10
-222.67066414677669
 20
-114.69746193957729
 30
0.0
 11
-222.67066414677669
 21
-117.19746193957729
 31
0.0
  0
LINE
  5
190
  8
DATA
  6
CONTINUOUS
 62
     7
 10
-212.17066414677669
 20
-114.69746193957729
 30
0.0
 11
-212.17066414677669
 21
-117.19746193957729
 31
0.0
  0
LINE
  5
191
  8
DATA
  6
CONTINUOUS
 62
     7
 10
-221.5206641467768
 20
-117.19746193957729
 30
0.0
 11
-212.17066414677669
 21
-115.94746193957729
 31
0.0
  0
LINE
  5
192
  8
DATA
  6
CONTINUOUS
 62
     7
 10
-222.67066414677669
 20
-115.94746193957729
 30
0.0
 11
-214.52066414677671
 21
-114.69746193957729
 31
0.0
  0
LINE
  5
193
  8
DATA
  6
CONTINUOUS
 62
     7
 10
-224.92066414677669
 20
-117.19746193957729
 30
0.0
 11
-209.92066414677669
 21
-117.19746193957729
 31
0.0
  0
LINE
  5
194
  8
DATA
  6
CONTINUOUS
 62
     7
 10
-224.92066414677669
 20
-117.19746193957729
 30
0.0
 11
-224.92066414677669
 21
-121.59999999999999
 31
0.0
  0
LINE
  5
195
  8
DATA
  6
CONTINUOUS
 62
     7
 10
-209.92066414677669
 20
-117.19746193957729
 30
0.0
 11
-209.92066414677669
 21
-121.59999999999999
 31
0.0
  0
LINE
  5
196
  8
DATA
  6
CONTINUOUS
 62
     7
 10
-224.92066414677669
 20
-120.8
 30
0.0
 11
-209.92066414677669
 21
-120.8
 31
0.0
  0
LINE
  5
197
  8
DATA
  6
CONTINUOUS
 62
     7
 10
-217.4206641467768
 20
-119.6868021394788
 30
0.0
 11
-217.4206641467768
 21
-120.8
 31
0.0
  0
LINE
  5
198
  8
DATA
  6
CONTINUOUS
 62
     7
 10
-199.42066414677669
 20
-117.19746193957729
 30
0.0
 11
-199.42066414677669
 21
-119.6868021394788
 31
0.0
  0
LINE
  5
199
  8
DATA
  6
CONTINUOUS
 62
     7
 10
-204.67066414677669
 20
-114.69746193957729
 30
0.0
 11
-194.17066414677669
 21
-114.69746193957729
 31
0.0
  0
LINE
  5
19A
  8
DATA
  6
CONTINUOUS
 62
     7
 10
-204.67066414677669
 20
-114.69746193957729
 30
0.0
 11
-204.67066414677669
 21
-117.19746193957729
 31
0.0
  0
LINE
  5
19B
  8
DATA
  6
CONTINUOUS
 62
     7
 10
-194.17066414677669
 20
-114.69746193957729
 30
0.0
 11
-194.17066414677669
 21
-117.19746193957729
 31
0.0
  0
LINE
  5
19C
  8
DATA
  6
CONTINUOUS
 62
     7
 10
-203.52066414677671
 20
-117.19746193957729
 30
0.0
 11
-194.17066414677669
 21
-115.94746193957729
 31
0.0
  0
LINE
  5
19D
  8
DATA
  6
CONTINUOUS
 62
     7
 10
-204.67066414677669
 20
-115.94746193957729
 30
0.0
 11
-196.52066414677671
 21
-114.69746193957729
 31
0.0
  0
LINE
  5
19E
  8
DATA
  6
CONTINUOUS
 62
     7
 10
-206.9206641467768
 20
-117.19746193957729
 30
0.0
 11
-191.92066414677669
 21
-117.19746193957729
 31
0.0
  0
LINE
  5
19F
  8
DATA
  6
CONTINUOUS
 62
     7
 10
-206.9206641467768
 20
-117.19746193957729
 30
0.0
 11
-206.9206641467768
 21
-121.59999999999999
 31
0.0
  0
LINE
  5
1A0
  8
DATA
  6
CONTINUOUS
 62
     7
 10
-191.92066414677669
 20
-117.19746193957729
 30
0.0
 11
-191.92066414677669
 21
-121.59999999999999
 31
0.0
  0
LINE
  5
1A1
  8
DATA
  6
CONTINUOUS
 62
     7
 10
-206.9206641467768
 20
-120.8
 30
0.0
 11
-191.92066414677669
 21
-120.8
 31
0.0
  0
LINE
  5
1A2
  8
DATA
  6
CONTINUOUS
 62
     7
 10
-199.42066414677669
 20
-119.6868021394788
 30
0.0
 11
-199.42066414677669
 21
-120.8
 31
0.0
  0
LINE
  5
1A3
  8
DATA
  6
CONTINUOUS
 62
     7
 10
-181.42066414677669
 20
-117.19746193957729
 30
0.0
 11
-181.42066414677669
 21
-119.6868021394788
 31
0.0
  0
LINE
  5
1A4
  8
DATA
  6
CONTINUOUS
 62
     7
 10
-186.67066414677669
 20
-114.69746193957729
 30
0.0
 11
-176.17066414677669
 21
-114.69746193957729
 31
0.0
  0
LINE
  5
1A5
  8
DATA
  6
CONTINUOUS
 62
     7
 10
-186.67066414677669
 20
-114.69746193957729
 30
0.0
 11
-186.67066414677669
 21
-117.19746193957729
 31
0.0
  0
LINE
  5
1A6
  8
DATA
  6
CONTINUOUS
 62
     7
 10
-176.17066414677669
 20
-114.69746193957729
 30
0.0
 11
-176.17066414677669
 21
-117.19746193957729
 31
0.0
  0
LINE
  5
1A7
  8
DATA
  6
CONTINUOUS
 62
     7
 10
-185.52066414677671
 20
-117.19746193957729
 30
0.0
 11
-176.17066414677669
 21
-115.94746193957729
 31
0.0
  0
LINE
  5
1A8
  8
DATA
  6
CONTINUOUS
 62
     7
 10
-186.67066414677669
 20
-115.94746193957729
 30
0.0
 11
-178.52066414677671
 21
-114.69746193957729
 31
0.0
  0
LINE
  5
1A9
  8
DATA
  6
CONTINUOUS
 62
     7
 10
-188.92066414677669
 20
-117.19746193957729
 30
0.0
 11
-173.92066414677669
 21
-117.19746193957729
 31
0.0
  0
LINE
  5
1AA
  8
DATA
  6
CONTINUOUS
 62
     7
 10
-188.92066414677669
 20
-117.19746193957729
 30
0.0
 11
-188.92066414677669
 21
-121.59999999999999
 31
0.0
  0
LINE
  5
1AB
  8
DATA
  6
CONTINUOUS
 62
     7
 10
-173.92066414677669
 20
-117.19746193957729
 30
0.0
 11
-173.92066414677669
 21
-121.59999999999999
 31
0.0
  0
LINE
  5
1AC
  8
DATA
  6
CONTINUOUS
 62
     7
 10
-188.92066414677669
 20
-120.8
 30
0.0
 11
-173.92066414677669
 21
-120.8
 31
0.0
  0
LINE
  5
1AD
  8
DATA
  6
CONTINUOUS
 62
     7
 10
-181.42066414677669
 20
-119.6868021394788
 30
0.0
 11
-181.42066414677669
 21
-120.8
 31
0.0
  0
LINE
  5
1AE
  8
DATA
  6
CONTINUOUS
 62
     7
 10
-163.42066414677669
 20
-117.19746193957729
 30
0.0
 11
-163.42066414677669
 21
-119.6868021394788
 31
0.0
  0
LINE
  5
1AF
  8
DATA
  6
CONTINUOUS
 62
     7
 10
-168.67066414677669
 20
-114.69746193957729
 30
0.0
 11
-158.17066414677669
 21
-114.69746193957729
 31
0.0
  0
LINE
  5
1B0
  8
DATA
  6
CONTINUOUS
 62
     7
 10
-168.67066414677669
 20
-114.69746193957729
 30
0.0
 11
-168.67066414677669
 21
-117.19746193957729
 31
0.0
  0
LINE
  5
1B1
  8
DATA
  6
CONTINUOUS
 62
     7
 10
-158.17066414677669
 20
-114.69746193957729
 30
0.0
 11
-158.17066414677669
 21
-117.19746193957729
 31
0.0
  0
LINE
  5
1B2
  8
DATA
  6
CONTINUOUS
 62
     7
 10
-167.52066414677671
 20
-117.19746193957729
 30
0.0
 11
-158.17066414677669
 21
-115.94746193957729
 31
0.0
  0
LINE
  5
1B3
  8
DATA
  6
CONTINUOUS
 62
     7
 10
-168.67066414677669
 20
-115.94746193957729
 30
0.0
 11
-160.52066414677671
 21
-114.69746193957729
 31
0.0
  0
LINE
  5
1B4
  8
DATA
  6
CONTINUOUS
 62
     7
 10
-170.92066414677669
 20
-117.19746193957729
 30
0.0
 11
-155.92066414677669
 21
-117.19746193957729
 31
0.0
  0
LINE
  5
1B5
  8
DATA
  6
CONTINUOUS
 62
     7
 10
-170.92066414677669
 20
-117.19746193957729
 30
0.0
 11
-170.92066414677669
 21
-121.59999999999999
 31
0.0
  0
LINE
  5
1B6
  8
DATA
  6
CONTINUOUS
 62
     7
 10
-155.92066414677669
 20
-117.19746193957729
 30
0.0
 11
-155.92066414677669
 21
-121.59999999999999
 31
0.0
  0
LINE
  5
1B7
  8
DATA
  6
CONTINUOUS
 62
     7
 10
-170.92066414677669
 20
-120.8
 30
0.0
 11
-155.92066414677669
 21
-120.8
 31
0.0
  0
LINE
  5
1B8
  8
DATA
  6
CONTINUOUS
 62
     7
 10
-163.42066414677669
 20
-119.6868021394788
 30
0.0
 11
-163.42066414677669
 21
-120.8
 31
0.0
  0
LINE
  5
1B9
  8
DATA
  6
CONTINUOUS
 62
     7
 10
-145.42066414677669
 20
-117.19746193957729
 30
0.0
 11
-145.42066414677669
 21
-119.6868021394788
 31
0.0
  0
LINE
  5
1BA
  8
DATA
  6
CONTINUOUS
 62
     7
 10
-150.67066414677669
 20
-114.69746193957729
 30
0.0
 11
-140.17066414677669
 21
-114.69746193957729
 31
0.0
  0
LINE
  5
1BB
  8
DATA
  6
CONTINUOUS
 62
     7
 10
-150.67066414677669
 20
-114.69746193957729
 30
0.0
 11
-150.67066414677669
 21
-117.19746193957729
 31
0.0
  0
LINE
  5
1BC
  8
DATA
  6
CONTINUOUS
 62
     7
 10
-140.17066414677669
 20
-114.69746193957729
 30
0.0
 11
-140.17066414677669
 21
-117.19746193957729
 31
0.0
  0
LINE
  5
1BD
  8
DATA
  6
CONTINUOUS
 62
     7
 10
-149.52066414677671
 20
-117.19746193957729
 30
0.0
 11
-140.17066414677669
 21
-115.94746193957729
 31
0.0
  0
LINE
  5
1BE
  8
DATA
  6
CONTINUOUS
 62
     7
 10
-150.67066414677669
 20
-115.94746193957729
 30
0.0
 11
-142.52066414677671
 21
-114.69746193957729
 31
0.0
  0
LINE
  5
1BF
  8
DATA
  6
CONTINUOUS
 62
     7
 10
-152.92066414677669
 20
-117.19746193957729
 30
0.0
 11
-137.92066414677669
 21
-117.19746193957729
 31
0.0
  0
LINE
  5
1C0
  8
DATA
  6
CONTINUOUS
 62
     7
 10
-152.92066414677669
 20
-117.19746193957729
 30
0.0
 11
-152.92066414677669
 21
-121.59999999999999
 31
0.0
  0
LINE
  5
1C1
  8
DATA
  6
CONTINUOUS
 62
     7
 10
-137.92066414677669
 20
-117.19746193957729
 30
0.0
 11
-137.92066414677669
 21
-121.59999999999999
 31
0.0
  0
LINE
  5
1C2
  8
DATA
  6
CONTINUOUS
 62
     7
 10
-152.92066414677669
 20
-120.8
 30
0.0
 11
-137.92066414677669
 21
-120.8
 31
0.0
  0
LINE
  5
1C3
  8
DATA
  6
CONTINUOUS
 62
     7
 10
-145.42066414677669
 20
-119.6868021394788
 30
0.0
 11
-145.42066414677669
 21
-120.8
 31
0.0
  0
LINE
  5
1C4
  8
DATA
  6
CONTINUOUS
 62
     7
 10
-127.4206641467767
 20
-117.19746193957729
 30
0.0
 11
-127.4206641467767
 21
-119.6868021394788
 31
0.0
  0
LINE
  5
1C5
  8
DATA
  6
CONTINUOUS
 62
     7
 10
-132.67066414677669
 20
-114.69746193957729
 30
0.0
 11
-122.1706641467767
 21
-114.69746193957729
 31
0.0
  0
LINE
  5
1C6
  8
DATA
  6
CONTINUOUS
 62
     7
 10
-132.67066414677669
 20
-114.69746193957729
 30
0.0
 11
-132.67066414677669
 21
-117.19746193957729
 31
0.0
  0
LINE
  5
1C7
  8
DATA
  6
CONTINUOUS
 62
     7
 10
-122.1706641467767
 20
-114.69746193957729
 30
0.0
 11
-122.1706641467767
 21
-117.19746193957729
 31
0.0
  0
LINE
  5
1C8
  8
DATA
  6
CONTINUOUS
 62
     7
 10
-131.52066414677671
 20
-117.19746193957729
 30
0.0
 11
-122.1706641467767
 21
-115.94746193957729
 31
0.0
  0
LINE
  5
1C9
  8
DATA
  6
CONTINUOUS
 62
     7
 10
-132.67066414677669
 20
-115.94746193957729
 30
0.0
 11
-124.5206641467767
 21
-114.69746193957729
 31
0.0
  0
LINE
  5
1CA
  8
DATA
  6
CONTINUOUS
 62
     7
 10
-134.92066414677669
 20
-117.19746193957729
 30
0.0
 11
-119.9206641467767
 21
-117.19746193957729
 31
0.0
  0
LINE
  5
1CB
  8
DATA
  6
CONTINUOUS
 62
     7
 10
-134.92066414677669
 20
-117.19746193957729
 30
0.0
 11
-134.92066414677669
 21
-121.59999999999999
 31
0.0
  0
LINE
  5
1CC
  8
DATA
  6
CONTINUOUS
 62
     7
 10
-119.9206641467767
 20
-117.19746193957729
 30
0.0
 11
-119.9206641467767
 21
-121.59999999999999
 31
0.0
  0
LINE
  5
1CD
  8
DATA
  6
CONTINUOUS
 62
     7
 10
-134.92066414677669
 20
-120.8
 30
0.0
 11
-119.9206641467767
 21
-120.8
 31
0.0
  0
LINE
  5
1CE
  8
DATA
  6
CONTINUOUS
 62
     7
 10
-127.4206641467767
 20
-119.6868021394788
 30
0.0
 11
-127.4206641467767
 21
-120.8
 31
0.0
  0
LINE
  5
1CF
  8
DATA
  6
CONTINUOUS
 62
     7
 10
-109.4206641467767
 20
-117.19746193957729
 30
0.0
 11
-109.4206641467767
 21
-119.6868021394788
 31
0.0
  0
LINE
  5
1D0
  8
DATA
  6
CONTINUOUS
 62
     7
 10
-114.6706641467767
 20
-114.69746193957729
 30
0.0
 11
-104.1706641467767
 21
-114.69746193957729
 31
0.0
  0
LINE
  5
1D1
  8
DATA
  6
CONTINUOUS
 62
     7
 10
-114.6706641467767
 20
-114.69746193957729
 30
0.0
 11
-114.6706641467767
 21
-117.19746193957729
 31
0.0
  0
LINE
  5
1D2
  8
DATA
  6
CONTINUOUS
 62
     7
 10
-104.1706641467767
 20
-114.69746193957729
 30
0.0
 11
-104.1706641467767
 21
-117.19746193957729
 31
0.0
  0
LINE
  5
1D3
  8
DATA
  6
CONTINUOUS
 62
     7
 10
-113.5206641467767
 20
-117.19746193957729
 30
0.0
 11
-104.1706641467767
 21
-115.94746193957729
 31
0.0
  0
LINE
  5
1D4
  8
DATA
  6
CONTINUOUS
 62
     7
 10
-114.6706641467767
 20
-115.94746193957729
 30
0.0
 11
-106.5206641467767
 21
-114.69746193957729
 31
0.0
  0
LINE
  5
1D5
  8
DATA
  6
CONTINUOUS
 62
     7
 10
-116.9206641467767
 20
-117.19746193957729
 30
0.0
 11
-101.9206641467767
 21
-117.19746193957729
 31
0.0
  0
LINE
  5
1D6
  8
DATA
  6
CONTINUOUS
 62
     7
 10
-116.9206641467767
 20
-117.19746193957729
 30
0.0
 11
-116.9206641467767
 21
-121.59999999999999
 31
0.0
  0
LINE
  5
1D7
  8
DATA
  6
CONTINUOUS
 62
     7
 10
-101.9206641467767
 20
-117.19746193957729
 30
0.0
 11
-101.9206641467767
 21
-121.59999999999999
 31
0.0
  0
LINE
  5
1D8
  8
DATA
  6
CONTINUOUS
 62
     7
 10
-116.9206641467767
 20
-120.8
 30
0.0
 11
-101.9206641467767
 21
-120.8
 31
0.0
  0
LINE
  5
1D9
  8
DATA
  6
CONTINUOUS
 62
     7
 10
-109.4206641467767
 20
-119.6868021394788
 30
0.0
 11
-109.4206641467767
 21
-120.8
 31
0.0
  0
LINE
  5
1DA
  8
DATA
  6
CONTINUOUS
 62
     7
 10
-91.42066414677673
 20
-117.19746193957729
 30
0.0
 11
-91.42066414677673
 21
-119.6868021394788
 31
0.0
  0
LINE
  5
1DB
  8
DATA
  6
CONTINUOUS
 62
     7
 10
-96.67066414677673
 20
-114.69746193957729
 30
0.0
 11
-86.170664146776716
 21
-114.69746193957729
 31
0.0
  0
LINE
  5
1DC
  8
DATA
  6
CONTINUOUS
 62
     7
 10
-96.67066414677673
 20
-114.69746193957729
 30
0.0
 11
-96.67066414677673
 21
-117.19746193957729
 31
0.0
  0
LINE
  5
1DD
  8
DATA
  6
CONTINUOUS
 62
     7
 10
-86.170664146776716
 20
-114.69746193957729
 30
0.0
 11
-86.170664146776716
 21
-117.19746193957729
 31
0.0
  0
LINE
  5
1DE
  8
DATA
  6
CONTINUOUS
 62
     7
 10
-95.52066414677671
 20
-117.19746193957729
 30
0.0
 11
-86.170664146776716
 21
-115.94746193957729
 31
0.0
  0
LINE
  5
1DF
  8
DATA
  6
CONTINUOUS
 62
     7
 10
-96.67066414677673
 20
-115.94746193957729
 30
0.0
 11
-88.520664146776696
 21
-114.69746193957729
 31
0.0
  0
LINE
  5
1E0
  8
DATA
  6
CONTINUOUS
 62
     7
 10
-98.92066414677673
 20
-117.19746193957729
 30
0.0
 11
-83.92066414677673
 21
-117.19746193957729
 31
0.0
  0
LINE
  5
1E1
  8
DATA
  6
CONTINUOUS
 62
     7
 10
-98.92066414677673
 20
-117.19746193957729
 30
0.0
 11
-98.92066414677673
 21
-121.59999999999999
 31
0.0
  0
LINE
  5
1E2
  8
DATA
  6
CONTINUOUS
 62
     7
 10
-83.92066414677673
 20
-117.19746193957729
 30
0.0
 11
-83.92066414677673
 21
-121.59999999999999
 31
0.0
  0
LINE
  5
1E3
  8
DATA
  6
CONTINUOUS
 62
     7
 10
-98.92066414677673
 20
-120.8
 30
0.0
 11
-83.92066414677673
 21
-120.8
 31
0.0
  0
LINE
  5
1E4
  8
DATA
  6
CONTINUOUS
 62
     7
 10
-91.42066414677673
 20
-119.6868021394788
 30
0.0
 11
-91.42066414677673
 21
-120.8
 31
0.0
  0
LINE
  5
1E5
  8
DATA
  6
CONTINUOUS
 62
     7
 10
-73.42066414677673
 20
-117.19746193957729
 30
0.0
 11
-73.42066414677673
 21
-119.6868021394788
 31
0.0
  0
LINE
  5
1E6
  8
DATA
  6
CONTINUOUS
 62
     7
 10
-78.670664146776716
 20
-114.69746193957729
 30
0.0
 11
-68.170664146776744
 21
-114.69746193957729
 31
0.0
  0
LINE
  5
1E7
  8
DATA
  6
CONTINUOUS
 62
     7
 10
-78.670664146776716
 20
-114.69746193957729
 30
0.0
 11
-78.670664146776716
 21
-117.19746193957729
 31
0.0
  0
LINE
  5
1E8
  8
DATA
  6
CONTINUOUS
 62
     7
 10
-68.170664146776744
 20
-114.69746193957729
 30
0.0
 11
-68.170664146776744
 21
-117.19746193957729
 31
0.0
  0
LINE
  5
1E9
  8
DATA
  6
CONTINUOUS
 62
     7
 10
-77.520664146776696
 20
-117.19746193957729
 30
0.0
 11
-68.170664146776744
 21
-115.94746193957729
 31
0.0
  0
LINE
  5
1EA
  8
DATA
  6
CONTINUOUS
 62
     7
 10
-78.670664146776716
 20
-115.94746193957729
 30
0.0
 11
-70.52066414677671
 21
-114.69746193957729
 31
0.0
  0
LINE
  5
1EB
  8
DATA
  6
CONTINUOUS
 62
     7
 10
-80.920664146776716
 20
-117.19746193957729
 30
0.0
 11
-65.920664146776744
 21
-117.19746193957729
 31
0.0
  0
LINE
  5
1EC
  8
DATA
  6
CONTINUOUS
 62
     7
 10
-80.920664146776716
 20
-117.19746193957729
 30
0.0
 11
-80.920664146776716
 21
-121.59999999999999
 31
0.0
  0
LINE
  5
1ED
  8
DATA
  6
CONTINUOUS
 62
     7
 10
-65.920664146776744
 20
-117.19746193957729
 30
0.0
 11
-65.920664146776744
 21
-121.59999999999999
 31
0.0
  0
LINE
  5
1EE
  8
DATA
  6
CONTINUOUS
 62
     7
 10
-80.920664146776716
 20
-120.8
 30
0.0
 11
-65.920664146776744
 21
-120.8
 31
0.0
  0
LINE
  5
1EF
  8
DATA
  6
CONTINUOUS
 62
     7
 10
-73.42066414677673
 20
-119.6868021394788
 30
0.0
 11
-73.42066414677673
 21
-120.8
 31
0.0
  0
LINE
  5
1F0
  8
DATA
  6
CONTINUOUS
 62
     7
 10
-55.420664146776737
 20
-117.19746193957729
 30
0.0
 11
-55.420664146776737
 21
-119.6868021394788
 31
0.0
  0
LINE
  5
1F1
  8
DATA
  6
CONTINUOUS
 62
     7
 10
-60.670664146776737
 20
-114.69746193957729
 30
0.0
 11
-50.170664146776751
 21
-114.69746193957729
 31
0.0
  0
LINE
  5
1F2
  8
DATA
  6
CONTINUOUS
 62
     7
 10
-60.670664146776737
 20
-114.69746193957729
 30
0.0
 11
-60.670664146776737
 21
-117.19746193957729
 31
0.0
  0
LINE
  5
1F3
  8
DATA
  6
CONTINUOUS
 62
     7
 10
-50.170664146776751
 20
-114.69746193957729
 30
0.0
 11
-50.170664146776751
 21
-117.19746193957729
 31
0.0
  0
LINE
  5
1F4
  8
DATA
  6
CONTINUOUS
 62
     7
 10
-59.520664146776717
 20
-117.19746193957729
 30
0.0
 11
-50.170664146776751
 21
-115.94746193957729
 31
0.0
  0
LINE
  5
1F5
  8
DATA
  6
CONTINUOUS
 62
     7
 10
-60.670664146776737
 20
-115.94746193957729
 30
0.0
 11
-52.52066414677671
 21
-114.69746193957729
 31
0.0
  0
LINE
  5
1F6
  8
DATA
  6
CONTINUOUS
 62
     7
 10
-62.920664146776737
 20
-117.19746193957729
 30
0.0
 11
-47.920664146776737
 21
-117.19746193957729
 31
0.0
  0
LINE
  5
1F7
  8
DATA
  6
CONTINUOUS
 62
     7
 10
-62.920664146776737
 20
-117.19746193957729
 30
0.0
 11
-62.920664146776737
 21
-121.59999999999999
 31
0.0
  0
LINE
  5
1F8
  8
DATA
  6
CONTINUOUS
 62
     7
 10
-47.920664146776737
 20
-117.19746193957729
 30
0.0
 11
-47.920664146776737
 21
-121.59999999999999
 31
0.0
  0
LINE
  5
1F9
  8
DATA
  6
CONTINUOUS
 62
     7
 10
-62.920664146776737
 20
-120.8
 30
0.0
 11
-47.920664146776737
 21
-120.8
 31
0.0
  0
LINE
  5
1FA
  8
DATA
  6
CONTINUOUS
 62
     7
 10
-55.420664146776737
 20
-119.6868021394788
 30
0.0
 11
-55.420664146776737
 21
-120.8
 31
0.0
  0
LINE
  5
1FB
  8
DATA
  6
CONTINUOUS
 62
     7
 10
-37.420664146776737
 20
-117.19746193957729
 30
0.0
 11
-37.420664146776737
 21
-119.6868021394788
 31
0.0
  0
LINE
  5
1FC
  8
DATA
  6
CONTINUOUS
 62
     7
 10
-42.670664146776737
 20
-114.69746193957729
 30
0.0
 11
-32.170664146776751
 21
-114.69746193957729
 31
0.0
  0
LINE
  5
1FD
  8
DATA
  6
CONTINUOUS
 62
     7
 10
-42.670664146776737
 20
-114.69746193957729
 30
0.0
 11
-42.670664146776737
 21
-117.19746193957729
 31
0.0
  0
LINE
  5
1FE
  8
DATA
  6
CONTINUOUS
 62
     7
 10
-32.170664146776751
 20
-114.69746193957729
 30
0.0
 11
-32.170664146776751
 21
-117.19746193957729
 31
0.0
  0
LINE
  5
1FF
  8
DATA
  6
CONTINUOUS
 62
     7
 10
-41.52066414677671
 20
-117.19746193957729
 30
0.0
 11
-32.170664146776751
 21
-115.94746193957729
 31
0.0
  0
LINE
  5
200
  8
DATA
  6
CONTINUOUS
 62
     7
 10
-42.670664146776737
 20
-115.94746193957729
 30
0.0
 11
-34.52066414677671
 21
-114.69746193957729
 31
0.0
  0
LINE
  5
201
  8
DATA
  6
CONTINUOUS
 62
     7
 10
-44.92066414677673
 20
-117.19746193957729
 30
0.0
 11
-29.920664146776751
 21
-117.19746193957729
 31
0.0
  0
LINE
  5
202
  8
DATA
  6
CONTINUOUS
 62
     7
 10
-44.92066414677673
 20
-117.19746193957729
 30
0.0
 11
-44.92066414677673
 21
-121.59999999999999
 31
0.0
  0
LINE
  5
203
  8
DATA
  6
CONTINUOUS
 62
     7
 10
-29.920664146776751
 20
-117.19746193957729
 30
0.0
 11
-29.920664146776751
 21
-121.59999999999999
 31
0.0
  0
LINE
  5
204
  8
DATA
  6
CONTINUOUS
 62
     7
 10
-44.92066414677673
 20
-120.8
 30
0.0
 11
-29.920664146776751
 21
-120.8
 31
0.0
  0
LINE
  5
205
  8
DATA
  6
CONTINUOUS
 62
     7
 10
-37.420664146776737
 20
-119.6868021394788
 30
0.0
 11
-37.420664146776737
 21
-120.8
 31
0.0
  0
LINE
  5
206
  8
DATA
  6
CONTINUOUS
 62
     7
 10
-19.42066414677674
 20
-117.19746193957729
 30
0.0
 11
-19.42066414677674
 21
-119.6868021394788
 31
0.0
  0
LINE
  5
207
  8
DATA
  6
CONTINUOUS
 62
     7
 10
-24.670664146776751
 20
-114.69746193957729
 30
0.0
 11
-14.17066414677674
 21
-114.69746193957729
 31
0.0
  0
LINE
  5
208
  8
DATA
  6
CONTINUOUS
 62
     7
 10
-24.670664146776751
 20
-114.69746193957729
 30
0.0
 11
-24.670664146776751
 21
-117.19746193957729
 31
0.0
  0
LINE
  5
209
  8
DATA
  6
CONTINUOUS
 62
     7
 10
-14.17066414677674
 20
-114.69746193957729
 30
0.0
 11
-14.17066414677674
 21
-117.19746193957729
 31
0.0
  0
LINE
  5
20A
  8
DATA
  6
CONTINUOUS
 62
     7
 10
-23.52066414677671
 20
-117.19746193957729
 30
0.0
 11
-14.17066414677674
 21
-115.94746193957729
 31
0.0
  0
LINE
  5
20B
  8
DATA
  6
CONTINUOUS
 62
     7
 10
-24.670664146776751
 20
-115.94746193957729
 30
0.0
 11
-16.52066414677671
 21
-114.69746193957729
 31
0.0
  0
LINE
  5
20C
  8
DATA
  6
CONTINUOUS
 62
     7
 10
-26.920664146776751
 20
-117.19746193957729
 30
0.0
 11
-11.92066414677674
 21
-117.19746193957729
 31
0.0
  0
LINE
  5
20D
  8
DATA
  6
CONTINUOUS
 62
     7
 10
-26.920664146776751
 20
-117.19746193957729
 30
0.0
 11
-26.920664146776751
 21
-121.59999999999999
 31
0.0
  0
LINE
  5
20E
  8
DATA
  6
CONTINUOUS
 62
     7
 10
-11.92066414677674
 20
-117.19746193957729
 30
0.0
 11
-11.92066414677674
 21
-121.59999999999999
 31
0.0
  0
LINE
  5
20F
  8
DATA
  6
CONTINUOUS
 62
     7
 10
-26.920664146776751
 20
-120.8
 30
0.0
 11
-11.92066414677674
 21
-120.8
 31
0.0
  0
LINE
  5
210
  8
DATA
  6
CONTINUOUS
 62
     7
 10
-19.42066414677674
 20
-119.6868021394788
 30
0.0
 11
-19.42066414677674
 21
-120.8
 31
0.0
  0
LINE
  5
211
  8
DATA
  6
CONTINUOUS
 62
     7
 10
-1.420664146776744
 20
-117.19746193957729
 30
0.0
 11
-1.420664146776744
 21
-119.6868021394788
 31
0.0
  0
LINE
  5
212
  8
DATA
  6
CONTINUOUS
 62
     7
 10
-6.670664146776744
 20
-114.69746193957729
 30
0.0
 11
3.829335853223256
 21
-114.69746193957729
 31
0.0
  0
LINE
  5
213
  8
DATA
  6
CONTINUOUS
 62
     7
 10
-6.670664146776744
 20
-114.69746193957729
 30
0.0
 11
-6.670664146776744
 21
-117.19746193957729
 31
0.0
  0
LINE
  5
214
  8
DATA
  6
CONTINUOUS
 62
     7
 10
3.829335853223256
 20
-114.69746193957729
 30
0.0
 11
3.829335853223256
 21
-117.19746193957729
 31
0.0
  0
LINE
  5
215
  8
DATA
  6
CONTINUOUS
 62
     7
 10
-5.520664146776709
 20
-117.19746193957729
 30
0.0
 11
3.829335853223256
 21
-115.94746193957729
 31
0.0
  0
LINE
  5
216
  8
DATA
  6
CONTINUOUS
 62
     7
 10
-6.670664146776744
 20
-115.94746193957729
 30
0.0
 11
1.4793358532232901
 21
-114.69746193957729
 31
0.0
  0
LINE
  5
217
  8
DATA
  6
CONTINUOUS
 62
     7
 10
-8.920664146776744
 20
-117.19746193957729
 30
0.0
 11
6.0793358532232551
 21
-117.19746193957729
 31
0.0
  0
LINE
  5
218
  8
DATA
  6
CONTINUOUS
 62
     7
 10
-8.920664146776744
 20
-117.19746193957729
 30
0.0
 11
-8.920664146776744
 21
-121.59999999999999
 31
0.0
  0
LINE
  5
219
  8
DATA
  6
CONTINUOUS
 62
     7
 10
6.0793358532232551
 20
-117.19746193957729
 30
0.0
 11
6.0793358532232551
 21
-121.59999999999999
 31
0.0
  0
LINE
  5
21A
  8
DATA
  6
CONTINUOUS
 62
     7
 10
-8.920664146776744
 20
-120.8
 30
0.0
 11
6.0793358532232551
 21
-120.8
 31
0.0
  0
LINE
  5
21B
  8
DATA
  6
CONTINUOUS
 62
     7
 10
-1.420664146776744
 20
-119.6868021394788
 30
0.0
 11
-1.420664146776744
 21
-120.8
 31
0.0
  0
LINE
  5
21C
  8
DATA
  6
CONTINUOUS
 62
     7
 10
16.579335853223249
 20
-117.19746193957729
 30
0.0
 11
16.579335853223249
 21
-119.6868021394788
 31
0.0
  0
LINE
  5
21D
  8
DATA
  6
CONTINUOUS
 62
     7
 10
11.329335853223251
 20
-114.69746193957729
 30
0.0
 11
21.829335853223249
 21
-114.69746193957729
 31
0.0
  0
LINE
  5
21E
  8
DATA
  6
CONTINUOUS
 62
     7
 10
11.329335853223251
 20
-114.69746193957729
 30
0.0
 11
11.329335853223251
 21
-117.19746193957729
 31
0.0
  0
LINE
  5
21F
  8
DATA
  6
CONTINUOUS
 62
     7
 10
21.829335853223249
 20
-114.69746193957729
 30
0.0
 11
21.829335853223249
 21
-117.19746193957729
 31
0.0
  0
LINE
  5
220
  8
DATA
  6
CONTINUOUS
 62
     7
 10
12.47933585322329
 20
-117.19746193957729
 30
0.0
 11
21.829335853223249
 21
-115.94746193957729
 31
0.0
  0
LINE
  5
221
  8
DATA
  6
CONTINUOUS
 62
     7
 10
11.329335853223251
 20
-115.94746193957729
 30
0.0
 11
19.47933585322329
 21
-114.69746193957729
 31
0.0
  0
LINE
  5
222
  8
DATA
  6
CONTINUOUS
 62
     7
 10
9.0793358532232542
 20
-117.19746193957729
 30
0.0
 11
24.07933585322326
 21
-117.19746193957729
 31
0.0
  0
LINE
  5
223
  8
DATA
  6
CONTINUOUS
 62
     7
 10
9.0793358532232542
 20
-117.19746193957729
 30
0.0
 11
9.0793358532232542
 21
-121.59999999999999
 31
0.0
  0
LINE
  5
224
  8
DATA
  6
CONTINUOUS
 62
     7
 10
24.07933585322326
 20
-117.19746193957729
 30
0.0
 11
24.07933585322326
 21
-121.59999999999999
 31
0.0
  0
LINE
  5
225
  8
DATA
  6
CONTINUOUS
 62
     7
 10
9.0793358532232542
 20
-120.8
 30
0.0
 11
24.07933585322326
 21
-120.8
 31
0.0
  0
LINE
  5
226
  8
DATA
  6
CONTINUOUS
 62
     7
 10
16.579335853223249
 20
-119.6868021394788
 30
0.0
 11
16.579335853223249
 21
-120.8
 31
0.0
  0
LINE
  5
227
  8
DATA
  6
CONTINUOUS
 62
     7
 10
34.579335853223249
 20
-117.19746193957729
 30
0.0
 11
34.579335853223249
 21
-119.6868021394788
 31
0.0
  0
LINE
  5
228
  8
DATA
  6
CONTINUOUS
 62
     7
 10
29.329335853223249
 20
-114.69746193957729
 30
0.0
 11
39.829335853223263
 21
-114.69746193957729
 31
0.0
  0
LINE
  5
229
  8
DATA
  6
CONTINUOUS
 62
     7
 10
29.329335853223249
 20
-114.69746193957729
 30
0.0
 11
29.329335853223249
 21
-117.19746193957729
 31
0.0
  0
LINE
  5
22A
  8
DATA
  6
CONTINUOUS
 62
     7
 10
39.829335853223263
 20
-114.69746193957729
 30
0.0
 11
39.829335853223263
 21
-117.19746193957729
 31
0.0
  0
LINE
  5
22B
  8
DATA
  6
CONTINUOUS
 62
     7
 10
30.47933585322329
 20
-117.19746193957729
 30
0.0
 11
39.829335853223263
 21
-115.94746193957729
 31
0.0
  0
LINE
  5
22C
  8
DATA
  6
CONTINUOUS
 62
     7
 10
29.329335853223249
 20
-115.94746193957729
 30
0.0
 11
37.47933585322329
 21
-114.69746193957729
 31
0.0
  0
LINE
  5
22D
  8
DATA
  6
CONTINUOUS
 62
     7
 10
27.079335853223249
 20
-117.19746193957729
 30
0.0
 11
42.079335853223249
 21
-117.19746193957729
 31
0.0
  0
LINE
  5
22E
  8
DATA
  6
CONTINUOUS
 62
     7
 10
27.079335853223249
 20
-117.19746193957729
 30
0.0
 11
27.079335853223249
 21
-121.59999999999999
 31
0.0
  0
LINE
  5
22F
  8
DATA
  6
CONTINUOUS
 62
     7
 10
42.079335853223249
 20
-117.19746193957729
 30
0.0
 11
42.079335853223249
 21
-121.59999999999999
 31
0.0
  0
LINE
  5
230
  8
DATA
  6
CONTINUOUS
 62
     7
 10
27.079335853223249
 20
-120.8
 30
0.0
 11
42.079335853223249
 21
-120.8
 31
0.0
  0
LINE
  5
231
  8
DATA
  6
CONTINUOUS
 62
     7
 10
34.579335853223249
 20
-119.6868021394788
 30
0.0
 11
34.579335853223249
 21
-120.8
 31
0.0
  0
LINE
  5
232
  8
DATA
  6
CONTINUOUS
 62
     7
 10
52.579335853223263
 20
-117.19746193957729
 30
0.0
 11
52.579335853223263
 21
-119.6868021394788
 31
0.0
  0
LINE
  5
233
  8
DATA
  6
CONTINUOUS
 62
     7
 10
47.329335853223249
 20
-114.69746193957729
 30
0.0
 11
57.829335853223249
 21
-114.69746193957729
 31
0.0
  0
LINE
  5
234
  8
DATA
  6
CONTINUOUS
 62
     7
 10
47.329335853223249
 20
-114.69746193957729
 30
0.0
 11
47.329335853223249
 21
-117.19746193957729
 31
0.0
  0
LINE
  5
235
  8
DATA
  6
CONTINUOUS
 62
     7
 10
57.829335853223249
 20
-114.69746193957729
 30
0.0
 11
57.829335853223249
 21
-117.19746193957729
 31
0.0
  0
LINE
  5
236
  8
DATA
  6
CONTINUOUS
 62
     7
 10
48.479335853223283
 20
-117.19746193957729
 30
0.0
 11
57.829335853223249
 21
-115.94746193957729
 31
0.0
  0
LINE
  5
237
  8
DATA
  6
CONTINUOUS
 62
     7
 10
47.329335853223249
 20
-115.94746193957729
 30
0.0
 11
55.479335853223283
 21
-114.69746193957729
 31
0.0
  0
LINE
  5
238
  8
DATA
  6
CONTINUOUS
 62
     7
 10
45.079335853223263
 20
-117.19746193957729
 30
0.0
 11
60.079335853223263
 21
-117.19746193957729
 31
0.0
  0
LINE
  5
239
  8
DATA
  6
CONTINUOUS
 62
     7
 10
45.079335853223263
 20
-117.19746193957729
 30
0.0
 11
45.079335853223263
 21
-121.59999999999999
 31
0.0
  0
LINE
  5
23A
  8
DATA
  6
CONTINUOUS
 62
     7
 10
60.079335853223263
 20
-117.19746193957729
 30
0.0
 11
60.079335853223263
 21
-121.59999999999999
 31
0.0
  0
LINE
  5
23B
  8
DATA
  6
CONTINUOUS
 62
     7
 10
45.079335853223263
 20
-120.8
 30
0.0
 11
60.079335853223263
 21
-120.8
 31
0.0
  0
LINE
  5
23C
  8
DATA
  6
CONTINUOUS
 62
     7
 10
52.579335853223263
 20
-119.6868021394788
 30
0.0
 11
52.579335853223263
 21
-120.8
 31
0.0
  0
LINE
  5
23D
  8
DATA
  6
CONTINUOUS
 62
     7
 10
70.57933585322327
 20
-117.19746193957729
 30
0.0
 11
70.57933585322327
 21
-119.6868021394788
 31
0.0
  0
LINE
  5
23E
  8
DATA
  6
CONTINUOUS
 62
     7
 10
65.329335853223256
 20
-114.69746193957729
 30
0.0
 11
75.829335853223242
 21
-114.69746193957729
 31
0.0
  0
LINE
  5
23F
  8
DATA
  6
CONTINUOUS
 62
     7
 10
65.329335853223256
 20
-114.69746193957729
 30
0.0
 11
65.329335853223256
 21
-117.19746193957729
 31
0.0
  0
LINE
  5
240
  8
DATA
  6
CONTINUOUS
 62
     7
 10
75.829335853223242
 20
-114.69746193957729
 30
0.0
 11
75.829335853223242
 21
-117.19746193957729
 31
0.0
  0
LINE
  5
241
  8
DATA
  6
CONTINUOUS
 62
     7
 10
66.47933585322329
 20
-117.19746193957729
 30
0.0
 11
75.829335853223242
 21
-115.94746193957729
 31
0.0
  0
LINE
  5
242
  8
DATA
  6
CONTINUOUS
 62
     7
 10
65.329335853223256
 20
-115.94746193957729
 30
0.0
 11
73.47933585322329
 21
-114.69746193957729
 31
0.0
  0
LINE
  5
243
  8
DATA
  6
CONTINUOUS
 62
     7
 10
63.079335853223249
 20
-117.19746193957729
 30
0.0
 11
78.079335853223242
 21
-117.19746193957729
 31
0.0
  0
LINE
  5
244
  8
DATA
  6
CONTINUOUS
 62
     7
 10
63.079335853223249
 20
-117.19746193957729
 30
0.0
 11
63.079335853223249
 21
-121.59999999999999
 31
0.0
  0
LINE
  5
245
  8
DATA
  6
CONTINUOUS
 62
     7
 10
78.079335853223242
 20
-117.19746193957729
 30
0.0
 11
78.079335853223242
 21
-121.59999999999999
 31
0.0
  0
LINE
  5
246
  8
DATA
  6
CONTINUOUS
 62
     7
 10
63.079335853223249
 20
-120.8
 30
0.0
 11
78.079335853223242
 21
-120.8
 31
0.0
  0
LINE
  5
247
  8
DATA
  6
CONTINUOUS
 62
     7
 10
70.57933585322327
 20
-119.6868021394788
 30
0.0
 11
70.57933585322327
 21
-120.8
 31
0.0
  0
LINE
  5
248
  8
DATA
  6
CONTINUOUS
 62
     7
 10
88.579335853223242
 20
-117.19746193957729
 30
0.0
 11
88.579335853223242
 21
-119.6868021394788
 31
0.0
  0
LINE
  5
249
  8
DATA
  6
CONTINUOUS
 62
     7
 10
83.329335853223242
 20
-114.69746193957729
 30
0.0
 11
93.829335853223228
 21
-114.69746193957729
 31
0.0
  0
LINE
  5
24A
  8
DATA
  6
CONTINUOUS
 62
     7
 10
83.329335853223242
 20
-114.69746193957729
 30
0.0
 11
83.329335853223242
 21
-117.19746193957729
 31
0.0
  0
LINE
  5
24B
  8
DATA
  6
CONTINUOUS
 62
     7
 10
93.829335853223228
 20
-114.69746193957729
 30
0.0
 11
93.829335853223228
 21
-117.19746193957729
 31
0.0
  0
LINE
  5
24C
  8
DATA
  6
CONTINUOUS
 62
     7
 10
84.479335853223304
 20
-117.19746193957729
 30
0.0
 11
93.829335853223228
 21
-115.94746193957729
 31
0.0
  0
LINE
  5
24D
  8
DATA
  6
CONTINUOUS
 62
     7
 10
83.329335853223242
 20
-115.94746193957729
 30
0.0
 11
91.47933585322329
 21
-114.69746193957729
 31
0.0
  0
LINE
  5
24E
  8
DATA
  6
CONTINUOUS
 62
     7
 10
81.079335853223242
 20
-117.19746193957729
 30
0.0
 11
96.079335853223228
 21
-117.19746193957729
 31
0.0
  0
LINE
  5
24F
  8
DATA
  6
CONTINUOUS
 62
     7
 10
81.079335853223242
 20
-117.19746193957729
 30
0.0
 11
81.079335853223242
 21
-121.59999999999999
 31
0.0
  0
LINE
  5
250
  8
DATA
  6
CONTINUOUS
 62
     7
 10
96.079335853223228
 20
-117.19746193957729
 30
0.0
 11
96.079335853223228
 21
-121.59999999999999
 31
0.0
  0
LINE
  5
251
  8
DATA
  6
CONTINUOUS
 62
     7
 10
81.079335853223242
 20
-120.8
 30
0.0
 11
96.079335853223228
 21
-120.8
 31
0.0
  0
LINE
  5
252
  8
DATA
  6
CONTINUOUS
 62
     7
 10
88.579335853223242
 20
-119.6868021394788
 30
0.0
 11
88.579335853223242
 21
-120.8
 31
0.0
  0
LINE
  5
253
  8
DATA
  6
CONTINUOUS
 62
     7
 10
-330.92066414677669
 20
-180.0
 30
0.0
 11
-330.92066414677669
 21
-183.0
 31
0.0
  0
LINE
  5
254
  8
DATA
  6
CONTINUOUS
 62
     7
 10
-319.9206641467768
 20
-180.0
 30
0.0
 11
-319.9206641467768
 21
-183.0
 31
0.0
  0
LINE
  5
255
  8
DATA
  6
CONTINUOUS
 62
     7
 10
-330.92066414677669
 20
-183.0
 30
0.0
 11
-319.9206641467768
 21
-183.0
 31
0.0
  0
LINE
  5
256
  8
DATA
  6
CONTINUOUS
 62
     7
 10
-312.9206641467768
 20
-180.0
 30
0.0
 11
-312.9206641467768
 21
-183.0
 31
0.0
  0
LINE
  5
257
  8
DATA
  6
CONTINUOUS
 62
     7
 10
-301.92066414677669
 20
-180.0
 30
0.0
 11
-301.92066414677669
 21
-183.0
 31
0.0
  0
LINE
  5
258
  8
DATA
  6
CONTINUOUS
 62
     7
 10
-312.9206641467768
 20
-183.0
 30
0.0
 11
-301.92066414677669
 21
-183.0
 31
0.0
  0
LINE
  5
259
  8
DATA
  6
CONTINUOUS
 62
     7
 10
-294.9206641467768
 20
-180.0
 30
0.0
 11
-294.9206641467768
 21
-183.0
 31
0.0
  0
LINE
  5
25A
  8
DATA
  6
CONTINUOUS
 62
     7
 10
-283.9206641467768
 20
-180.0
 30
0.0
 11
-283.9206641467768
 21
-183.0
 31
0.0
  0
LINE
  5
25B
  8
DATA
  6
CONTINUOUS
 62
     7
 10
-294.9206641467768
 20
-183.0
 30
0.0
 11
-283.9206641467768
 21
-183.0
 31
0.0
  0
LINE
  5
25C
  8
DATA
  6
CONTINUOUS
 62
     7
 10
-276.92066414677669
 20
-180.0
 30
0.0
 11
-276.92066414677669
 21
-183.0
 31
0.0
  0
LINE
  5
25D
  8
DATA
  6
CONTINUOUS
 62
     7
 10
-265.92066414677669
 20
-180.0
 30
0.0
 11
-265.92066414677669
 21
-183.0
 31
0.0
  0
LINE
  5
25E
  8
DATA
  6
CONTINUOUS
 62
     7
 10
-276.92066414677669
 20
-183.0
 30
0.0
 11
-265.92066414677669
 21
-183.0
 31
0.0
  0
LINE
  5
25F
  8
DATA
  6
CONTINUOUS
 62
     7
 10
-258.9206641467768
 20
-180.0
 30
0.0
 11
-258.9206641467768
 21
-183.0
 31
0.0
  0
LINE
  5
260
  8
DATA
  6
CONTINUOUS
 62
     7
 10
-247.92066414677669
 20
-180.0
 30
0.0
 11
-247.92066414677669
 21
-183.0
 31
0.0
  0
LINE
  5
261
  8
DATA
  6
CONTINUOUS
 62
     7
 10
-258.9206641467768
 20
-183.0
 30
0.0
 11
-247.92066414677669
 21
-183.0
 31
0.0
  0
LINE
  5
262
  8
DATA
  6
CONTINUOUS
 62
     7
 10
-240.92066414677669
 20
-180.0
 30
0.0
 11
-240.92066414677669
 21
-183.0
 31
0.0
  0
LINE
  5
263
  8
DATA
  6
CONTINUOUS
 62
     7
 10
-229.9206641467768
 20
-180.0
 30
0.0
 11
-229.9206641467768
 21
-183.0
 31
0.0
  0
LINE
  5
264
  8
DATA
  6
CONTINUOUS
 62
     7
 10
-240.92066414677669
 20
-183.0
 30
0.0
 11
-229.9206641467768
 21
-183.0
 31
0.0
  0
LINE
  5
265
  8
DATA
  6
CONTINUOUS
 62
     7
 10
-222.92066414677669
 20
-180.0
 30
0.0
 11
-222.92066414677669
 21
-183.0
 31
0.0
  0
LINE
  5
266
  8
DATA
  6
CONTINUOUS
 62
     7
 10
-211.92066414677669
 20
-180.0
 30
0.0
 11
-211.92066414677669
 21
-183.0
 31
0.0
  0
LINE
  5
267
  8
DATA
  6
CONTINUOUS
 62
     7
 10
-222.92066414677669
 20
-183.0
 30
0.0
 11
-211.92066414677669
 21
-183.0
 31
0.0
  0
LINE
  5
268
  8
DATA
  6
CONTINUOUS
 62
     7
 10
-204.9206641467768
 20
-180.0
 30
0.0
 11
-204.9206641467768
 21
-183.0
 31
0.0
  0
LINE
  5
269
  8
DATA
  6
CONTINUOUS
 62
     7
 10
-193.92066414677669
 20
-180.0
 30
0.0
 11
-193.92066414677669
 21
-183.0
 31
0.0
  0
LINE
  5
26A
  8
DATA
  6
CONTINUOUS
 62
     7
 10
-204.9206641467768
 20
-183.0
 30
0.0
 11
-193.92066414677669
 21
-183.0
 31
0.0
  0
LINE
  5
26B
  8
DATA
  6
CONTINUOUS
 62
     7
 10
-186.92066414677669
 20
-180.0
 30
0.0
 11
-186.92066414677669
 21
-183.0
 31
0.0
  0
LINE
  5
26C
  8
DATA
  6
CONTINUOUS
 62
     7
 10
-175.92066414677669
 20
-180.0
 30
0.0
 11
-175.92066414677669
 21
-183.0
 31
0.0
  0
LINE
  5
26D
  8
DATA
  6
CONTINUOUS
 62
     7
 10
-186.92066414677669
 20
-183.0
 30
0.0
 11
-175.92066414677669
 21
-183.0
 31
0.0
  0
LINE
  5
26E
  8
DATA
  6
CONTINUOUS
 62
     7
 10
-168.92066414677669
 20
-180.0
 30
0.0
 11
-168.92066414677669
 21
-183.0
 31
0.0
  0
LINE
  5
26F
  8
DATA
  6
CONTINUOUS
 62
     7
 10
-157.92066414677669
 20
-180.0
 30
0.0
 11
-157.92066414677669
 21
-183.0
 31
0.0
  0
LINE
  5
270
  8
DATA
  6
CONTINUOUS
 62
     7
 10
-168.92066414677669
 20
-183.0
 30
0.0
 11
-157.92066414677669
 21
-183.0
 31
0.0
  0
LINE
  5
271
  8
DATA
  6
CONTINUOUS
 62
     7
 10
-150.92066414677669
 20
-180.0
 30
0.0
 11
-150.92066414677669
 21
-183.0
 31
0.0
  0
LINE
  5
272
  8
DATA
  6
CONTINUOUS
 62
     7
 10
-139.92066414677669
 20
-180.0
 30
0.0
 11
-139.92066414677669
 21
-183.0
 31
0.0
  0
LINE
  5
273
  8
DATA
  6
CONTINUOUS
 62
     7
 10
-150.92066414677669
 20
-183.0
 30
0.0
 11
-139.92066414677669
 21
-183.0
 31
0.0
  0
LINE
  5
274
  8
DATA
  6
CONTINUOUS
 62
     7
 10
-132.92066414677669
 20
-180.0
 30
0.0
 11
-132.92066414677669
 21
-183.0
 31
0.0
  0
LINE
  5
275
  8
DATA
  6
CONTINUOUS
 62
     7
 10
-121.9206641467767
 20
-180.0
 30
0.0
 11
-121.9206641467767
 21
-183.0
 31
0.0
  0
LINE
  5
276
  8
DATA
  6
CONTINUOUS
 62
     7
 10
-132.92066414677669
 20
-183.0
 30
0.0
 11
-121.9206641467767
 21
-183.0
 31
0.0
  0
LINE
  5
277
  8
DATA
  6
CONTINUOUS
 62
     7
 10
-114.9206641467767
 20
-180.0
 30
0.0
 11
-114.9206641467767
 21
-183.0
 31
0.0
  0
LINE
  5
278
  8
DATA
  6
CONTINUOUS
 62
     7
 10
-103.9206641467767
 20
-180.0
 30
0.0
 11
-103.9206641467767
 21
-183.0
 31
0.0
  0
LINE
  5
279
  8
DATA
  6
CONTINUOUS
 62
     7
 10
-114.9206641467767
 20
-183.0
 30
0.0
 11
-103.9206641467767
 21
-183.0
 31
0.0
  0
LINE
  5
27A
  8
DATA
  6
CONTINUOUS
 62
     7
 10
-96.920664146776744
 20
-180.0
 30
0.0
 11
-96.920664146776744
 21
-183.0
 31
0.0
  0
LINE
  5
27B
  8
DATA
  6
CONTINUOUS
 62
     7
 10
-85.920664146776716
 20
-180.0
 30
0.0
 11
-85.920664146776716
 21
-183.0
 31
0.0
  0
LINE
  5
27C
  8
DATA
  6
CONTINUOUS
 62
     7
 10
-96.920664146776744
 20
-183.0
 30
0.0
 11
-85.920664146776716
 21
-183.0
 31
0.0
  0
LINE
  5
27D
  8
DATA
  6
CONTINUOUS
 62
     7
 10
-78.92066414677673
 20
-180.0
 30
0.0
 11
-78.92066414677673
 21
-183.0
 31
0.0
  0
LINE
  5
27E
  8
DATA
  6
CONTINUOUS
 62
     7
 10
-67.920664146776744
 20
-180.0
 30
0.0
 11
-67.920664146776744
 21
-183.0
 31
0.0
  0
LINE
  5
27F
  8
DATA
  6
CONTINUOUS
 62
     7
 10
-78.92066414677673
 20
-183.0
 30
0.0
 11
-67.920664146776744
 21
-183.0
 31
0.0
  0
LINE
  5
280
  8
DATA
  6
CONTINUOUS
 62
     7
 10
-60.920664146776737
 20
-180.0
 30
0.0
 11
-60.920664146776737
 21
-183.0
 31
0.0
  0
LINE
  5
281
  8
DATA
  6
CONTINUOUS
 62
     7
 10
-49.920664146776737
 20
-180.0
 30
0.0
 11
-49.920664146776737
 21
-183.0
 31
0.0
  0
LINE
  5
282
  8
DATA
  6
CONTINUOUS
 62
     7
 10
-60.920664146776737
 20
-183.0
 30
0.0
 11
-49.920664146776737
 21
-183.0
 31
0.0
  0
LINE
  5
283
  8
DATA
  6
CONTINUOUS
 62
     7
 10
-42.92066414677673
 20
-180.0
 30
0.0
 11
-42.92066414677673
 21
-183.0
 31
0.0
  0
LINE
  5
284
  8
DATA
  6
CONTINUOUS
 62
     7
 10
-31.920664146776751
 20
-180.0
 30
0.0
 11
-31.920664146776751
 21
-183.0
 31
0.0
  0
LINE
  5
285
  8
DATA
  6
CONTINUOUS
 62
     7
 10
-42.92066414677673
 20
-183.0
 30
0.0
 11
-31.920664146776751
 21
-183.0
 31
0.0
  0
LINE
  5
286
  8
DATA
  6
CONTINUOUS
 62
     7
 10
-24.920664146776751
 20
-180.0
 30
0.0
 11
-24.920664146776751
 21
-183.0
 31
0.0
  0
LINE
  5
287
  8
DATA
  6
CONTINUOUS
 62
     7
 10
-13.92066414677674
 20
-180.0
 30
0.0
 11
-13.92066414677674
 21
-183.0
 31
0.0
  0
LINE
  5
288
  8
DATA
  6
CONTINUOUS
 62
     7
 10
-24.920664146776751
 20
-183.0
 30
0.0
 11
-13.92066414677674
 21
-183.0
 31
0.0
  0
LINE
  5
289
  8
DATA
  6
CONTINUOUS
 62
     7
 10
-6.920664146776744
 20
-180.0
 30
0.0
 11
-6.920664146776744
 21
-183.0
 31
0.0
  0
LINE
  5
28A
  8
DATA
  6
CONTINUOUS
 62
     7
 10
4.079335853223256
 20
-180.0
 30
0.0
 11
4.079335853223256
 21
-183.0
 31
0.0
  0
LINE
  5
28B
  8
DATA
  6
CONTINUOUS
 62
     7
 10
-6.920664146776744
 20
-183.0
 30
0.0
 11
4.079335853223256
 21
-183.0
 31
0.0
  0
LINE
  5
28C
  8
DATA
  6
CONTINUOUS
 62
     7
 10
11.079335853223251
 20
-180.0
 30
0.0
 11
11.079335853223251
 21
-183.0
 31
0.0
  0
LINE
  5
28D
  8
DATA
  6
CONTINUOUS
 62
     7
 10
22.079335853223249
 20
-180.0
 30
0.0
 11
22.079335853223249
 21
-183.0
 31
0.0
  0
LINE
  5
28E
  8
DATA
  6
CONTINUOUS
 62
     7
 10
11.079335853223251
 20
-183.0
 30
0.0
 11
22.079335853223249
 21
-183.0
 31
0.0
  0
LINE
  5
28F
  8
DATA
  6
CONTINUOUS
 62
     7
 10
29.079335853223249
 20
-180.0
 30
0.0
 11
29.079335853223249
 21
-183.0
 31
0.0
  0
LINE
  5
290
  8
DATA
  6
CONTINUOUS
 62
     7
 10
40.079335853223263
 20
-180.0
 30
0.0
 11
40.079335853223263
 21
-183.0
 31
0.0
  0
LINE
  5
291
  8
DATA
  6
CONTINUOUS
 62
     7
 10
29.079335853223249
 20
-183.0
 30
0.0
 11
40.079335853223263
 21
-183.0
 31
0.0
  0
LINE
  5
292
  8
DATA
  6
CONTINUOUS
 62
     7
 10
47.079335853223249
 20
-180.0
 30
0.0
 11
47.079335853223249
 21
-183.0
 31
0.0
  0
LINE
  5
293
  8
DATA
  6
CONTINUOUS
 62
     7
 10
58.079335853223249
 20
-180.0
 30
0.0
 11
58.079335853223249
 21
-183.0
 31
0.0
  0
LINE
  5
294
  8
DATA
  6
CONTINUOUS
 62
     7
 10
47.079335853223249
 20
-183.0
 30
0.0
 11
58.079335853223249
 21
-183.0
 31
0.0
  0
LINE
  5
295
  8
DATA
  6
CONTINUOUS
 62
     7
 10
65.079335853223256
 20
-180.0
 30
0.0
 11
65.079335853223256
 21
-183.0
 31
0.0
  0
LINE
  5
296
  8
DATA
  6
CONTINUOUS
 62
     7
 10
76.079335853223242
 20
-180.0
 30
0.0
 11
76.079335853223242
 21
-183.0
 31
0.0
  0
LINE
  5
297
  8
DATA
  6
CONTINUOUS
 62
     7
 10
65.079335853223256
 20
-183.0
 30
0.0
 11
76.079335853223242
 21
-183.0
 31
0.0
  0
LINE
  5
298
  8
DATA
  6
CONTINUOUS
 62
     7
 10
83.079335853223242
 20
-180.0
 30
0.0
 11
83.079335853223242
 21
-183.0
 31
0.0
  0
LINE
  5
299
  8
DATA
  6
CONTINUOUS
 62
     7
 10
94.079335853223228
 20
-180.0
 30
0.0
 11
94.079335853223228
 21
-183.0
 31
0.0
  0
LINE
  5
29A
  8
DATA
  6
CONTINUOUS
 62
     7
 10
83.079335853223242
 20
-183.0
 30
0.0
 11
94.079335853223228
 21
-183.0
 31
0.0
  0
ARC
  5
29B
  8
DATA
  6
CONTINUOUS
 62
     7
 10
-352.76236080071982
 20
58.430964220549413
 30
0.0
 40
3.1999999999999882
 50
90.0
 51
270.0
  0
ARC
  5
29C
  8
DATA
  6
CONTINUOUS
 62
     7
 10
-348.16236080071991
 20
58.430964220549413
 30
0.0
 40
3.1999999999999882
 50
270.0
 51
90.0
  0
LINE
  5
29D
  8
DATA
  6
CONTINUOUS
 62
     7
 10
-352.76236080071982
 20
61.630964220549401
 30
0.0
 11
-348.16236080071991
 21
61.630964220549401
 31
0.0
  0
LINE
  5
29E
  8
DATA
  6
CONTINUOUS
 62
     7
 10
-352.76236080071982
 20
55.230964220549417
 30
0.0
 11
-348.16236080071991
 21
55.230964220549417
 31
0.0
  0
POLYLINE
  5
29F
  8
DATA
  6
CONTINUOUS
 62
     7
 66
     1
 10
0.0
 20
0.0
 30
0.0
 70
     1
  0
VERTEX
  5
531
  8
DATA
  6
CONTINUOUS
 62
     7
 10
-359.94674520360468
 20
65.026585223002144
 30
0.0
  0
VERTEX
  5
532
  8
DATA
  6
CONTINUOUS
 62
     7
 10
123.0532547963969
 20
65.026585223002144
 30
0.0
  0
VERTEX
  5
533
  8
DATA
  6
CONTINUOUS
 62
     7
 10
123.0532547963969
 20
20.02658522300214
 30
0.0
  0
VERTEX
  5
534
  8
DATA
  6
CONTINUOUS
 62
     7
 10
-359.94674520360468
 20
20.02658522300214
 30
0.0
  0
SEQEND
  5
535
  8
DATA
  6
CONTINUOUS
 62
     7
  0
ARC
  5
2A5
  8
DATA
  6
CONTINUOUS
 62
     7
 10
-352.76236080071982
 20
26.630964220549401
 30
0.0
 40
3.1999999999999882
 50
90.0
 51
270.0
  0
ARC
  5
2A6
  8
DATA
  6
CONTINUOUS
 62
     7
 10
-348.16236080071991
 20
26.630964220549401
 30
0.0
 40
3.1999999999999882
 50
270.0
 51
90.0
  0
LINE
  5
2A7
  8
DATA
  6
CONTINUOUS
 62
     7
 10
-352.76236080071982
 20
29.830964220549401
 30
0.0
 11
-348.16236080071991
 21
29.830964220549401
 31
0.0
  0
LINE
  5
2A8
  8
DATA
  6
CONTINUOUS
 62
     7
 10
-352.76236080071982
 20
23.430964220549409
 30
0.0
 11
-348.16236080071991
 21
23.430964220549409
 31
0.0
  0
ARC
  5
2A9
  8
DATA
  6
CONTINUOUS
 62
     7
 10
111.272676182875
 20
58.430964220549413
 30
0.0
 40
3.1999999999999882
 50
90.0
 51
270.0
  0
ARC
  5
2AA
  8
DATA
  6
CONTINUOUS
 62
     7
 10
115.8726761828749
 20
58.430964220549413
 30
0.0
 40
3.1999999999999882
 50
270.0
 51
90.0
  0
LINE
  5
2AB
  8
DATA
  6
CONTINUOUS
 62
     7
 10
111.272676182875
 20
61.630964220549401
 30
0.0
 11
115.8726761828749
 21
61.630964220549401
 31
0.0
  0
LINE
  5
2AC
  8
DATA
  6
CONTINUOUS
 62
     7
 10
111.272676182875
 20
55.230964220549417
 30
0.0
 11
115.8726761828749
 21
55.230964220549417
 31
0.0
  0
ARC
  5
2AD
  8
DATA
  6
CONTINUOUS
 62
     7
 10
111.272676182875
 20
26.630964220549401
 30
0.0
 40
3.1999999999999882
 50
90.0
 51
270.0
  0
ARC
  5
2AE
  8
DATA
  6
CONTINUOUS
 62
     7
 10
115.8726761828749
 20
26.630964220549401
 30
0.0
 40
3.1999999999999882
 50
270.0
 51
90.0
  0
LINE
  5
2AF
  8
DATA
  6
CONTINUOUS
 62
     7
 10
111.272676182875
 20
29.830964220549401
 30
0.0
 11
115.8726761828749
 21
29.830964220549401
 31
0.0
  0
LINE
  5
2B0
  8
DATA
  6
CONTINUOUS
 62
     7
 10
111.272676182875
 20
23.430964220549409
 30
0.0
 11
115.8726761828749
 21
23.430964220549409
 31
0.0
  0
LINE
  5
2B1
  8
DATA
  6
CONTINUOUS
 62
     7
 10
99.053254796396956
 20
20.02658522300214
 30
0.0
 11
99.053254796396956
 21
65.026585223002144
 31
0.0
  0
LINE
  5
2B2
  8
DATA
  6
CONTINUOUS
 62
     7
 10
-335.94674520360479
 20
20.02658522300214
 30
0.0
 11
-335.94674520360479
 21
65.026585223002144
 31
0.0
  0
CIRCLE
  5
2B3
  8
DATA
  6
CONTINUOUS
 62
     7
 10
-325.4206641467768
 20
52.526585223002137
 30
0.0
 40
5.5
  0
CIRCLE
  5
2B4
  8
DATA
  6
CONTINUOUS
 62
     7
 10
-325.4206641467768
 20
52.526585223002137
 30
0.0
 40
3.1999999999999882
  0
CIRCLE
  5
2B5
  8
DATA
  6
CONTINUOUS
 62
     7
 10
-325.4206641467768
 20
34.026585223002137
 30
0.0
 40
3.1999999999999882
  0
CIRCLE
  5
2B6
  8
DATA
  6
CONTINUOUS
 62
     7
 10
-325.4206641467768
 20
34.026585223002137
 30
0.0
 40
5.25
  0
POLYLINE
  5
2B7
  8
DATA
  6
CONTINUOUS
 62
     7
 66
     1
 10
0.0
 20
0.0
 30
0.0
 70
     1
  0
VERTEX
  5
536
  8
DATA
  6
CONTINUOUS
 62
     7
 10
-325.60470271261312
 20
42.68488354347236
 30
0.0
  0
VERTEX
  5
537
  8
DATA
  6
CONTINUOUS
 62
     7
 10
-333.01098972876628
 20
38.196352309946903
 30
0.0
  0
VERTEX
  5
538
  8
DATA
  6
CONTINUOUS
 62
     7
 10
-332.8269511629299
 20
29.53805398947668
 30
0.0
  0
VERTEX
  5
539
  8
DATA
  6
CONTINUOUS
 62
     7
 10
-325.23662558094043
 20
25.368286902531931
 30
0.0
  0
VERTEX
  5
53A
  8
DATA
  6
CONTINUOUS
 62
     7
 10
-317.8303385647871
 20
29.856818136057392
 30
0.0
  0
VERTEX
  5
53B
  8
DATA
  6
CONTINUOUS
 62
     7
 10
-318.01437713062359
 20
38.515116456527622
 30
0.0
  0
SEQEND
  5
53C
  8
DATA
  6
CONTINUOUS
 62
     7
  0
LINE
  5
2BF
  8
DATA
  6
CONTINUOUS
 62
     7
 10
-331.9206641467768
 20
59.026585223002137
 30
0.0
 11
-318.92066414677669
 21
59.026585223002137
 31
0.0
  0
LINE
  5
2C0
  8
DATA
  6
CONTINUOUS
 62
     7
 10
-331.9206641467768
 20
59.026585223002137
 30
0.0
 11
-331.9206641467768
 21
43.026585223002151
 31
0.0
  0
LINE
  5
2C1
  8
DATA
  6
CONTINUOUS
 62
     7
 10
-318.92066414677669
 20
59.026585223002137
 30
0.0
 11
-318.92066414677669
 21
43.026585223002151
 31
0.0
  0
LINE
  5
2C2
  8
DATA
  6
CONTINUOUS
 62
     7
 10
-318.92066414677669
 20
43.026585223002151
 30
0.0
 11
-331.9206641467768
 21
43.026585223002151
 31
0.0
  0
LINE
  5
2C3
  8
DATA
  6
CONTINUOUS
 62
     7
 10
-333.01098972876628
 20
38.196352309946903
 30
0.0
 11
-333.01098972876628
 21
59.026585223002137
 31
0.0
  0
LINE
  5
2C4
  8
DATA
  6
CONTINUOUS
 62
     7
 10
-331.9206641467768
 20
43.026585223002151
 30
0.0
 11
-331.9206641467768
 21
38.857136913459847
 31
0.0
  0
LINE
  5
2C5
  8
DATA
  6
CONTINUOUS
 62
     7
 10
-333.01098972876628
 20
59.026585223002137
 30
0.0
 11
-331.9206641467768
 21
59.026585223002137
 31
0.0
  0
TEXT
  5
2C6
  8
DATA
 62
     7
 10
-315.9957375525633
 20
24.91488492797216
 30
0.0
 40
3.078125
  1
1
 50
180.0
 41
0.8
 11
-315.9957375525633
 21
21.83675992797216
 31
0.0
 73
     3
  0
CIRCLE
  5
2C7
  8
DATA
  6
CONTINUOUS
 62
     7
 10
-307.4206641467768
 20
52.526585223002137
 30
0.0
 40
5.5
  0
CIRCLE
  5
2C8
  8
DATA
  6
CONTINUOUS
 62
     7
 10
-307.4206641467768
 20
52.526585223002137
 30
0.0
 40
3.1999999999999882
  0
CIRCLE
  5
2C9
  8
DATA
  6
CONTINUOUS
 62
     7
 10
-307.4206641467768
 20
34.026585223002137
 30
0.0
 40
3.1999999999999882
  0
CIRCLE
  5
2CA
  8
DATA
  6
CONTINUOUS
 62
     7
 10
-307.4206641467768
 20
34.026585223002137
 30
0.0
 40
5.25
  0
POLYLINE
  5
2CB
  8
DATA
  6
CONTINUOUS
 62
     7
 66
     1
 10
0.0
 20
0.0
 30
0.0
 70
     1
  0
VERTEX
  5
53D
  8
DATA
  6
CONTINUOUS
 62
     7
 10
-307.60470271261312
 20
42.68488354347236
 30
0.0
  0
VERTEX
  5
53E
  8
DATA
  6
CONTINUOUS
 62
     7
 10
-315.01098972876628
 20
38.196352309946903
 30
0.0
  0
VERTEX
  5
53F
  8
DATA
  6
CONTINUOUS
 62
     7
 10
-314.8269511629299
 20
29.53805398947668
 30
0.0
  0
VERTEX
  5
540
  8
DATA
  6
CONTINUOUS
 62
     7
 10
-307.23662558094043
 20
25.368286902531931
 30
0.0
  0
VERTEX
  5
541
  8
DATA
  6
CONTINUOUS
 62
     7
 10
-299.83033856478721
 20
29.856818136057392
 30
0.0
  0
VERTEX
  5
542
  8
DATA
  6
CONTINUOUS
 62
     7
 10
-300.0143771306237
 20
38.515116456527622
 30
0.0
  0
SEQEND
  5
543
  8
DATA
  6
CONTINUOUS
 62
     7
  0
LINE
  5
2D3
  8
DATA
  6
CONTINUOUS
 62
     7
 10
-313.92066414677669
 20
59.026585223002137
 30
0.0
 11
-300.9206641467768
 21
59.026585223002137
 31
0.0
  0
LINE
  5
2D4
  8
DATA
  6
CONTINUOUS
 62
     7
 10
-313.92066414677669
 20
59.026585223002137
 30
0.0
 11
-313.92066414677669
 21
43.026585223002151
 31
0.0
  0
LINE
  5
2D5
  8
DATA
  6
CONTINUOUS
 62
     7
 10
-300.9206641467768
 20
59.026585223002137
 30
0.0
 11
-300.9206641467768
 21
43.026585223002151
 31
0.0
  0
LINE
  5
2D6
  8
DATA
  6
CONTINUOUS
 62
     7
 10
-300.9206641467768
 20
43.026585223002151
 30
0.0
 11
-313.92066414677669
 21
43.026585223002151
 31
0.0
  0
LINE
  5
2D7
  8
DATA
  6
CONTINUOUS
 62
     7
 10
-315.01098972876628
 20
38.196352309946903
 30
0.0
 11
-315.01098972876628
 21
59.026585223002137
 31
0.0
  0
LINE
  5
2D8
  8
DATA
  6
CONTINUOUS
 62
     7
 10
-313.92066414677669
 20
43.026585223002151
 30
0.0
 11
-313.92066414677669
 21
38.857136913459847
 31
0.0
  0
LINE
  5
2D9
  8
DATA
  6
CONTINUOUS
 62
     7
 10
-315.01098972876628
 20
59.026585223002137
 30
0.0
 11
-313.92066414677669
 21
59.026585223002137
 31
0.0
  0
TEXT
  5
2DA
  8
DATA
 62
     7
 10
-297.9957375525633
 20
24.91488492797216
 30
0.0
 40
3.078125
  1
2
 50
180.0
 41
0.8
 11
-297.9957375525633
 21
21.83675992797216
 31
0.0
 73
     3
  0
CIRCLE
  5
2DB
  8
DATA
  6
CONTINUOUS
 62
     7
 10
-289.42066414677669
 20
52.526585223002137
 30
0.0
 40
5.5
  0
CIRCLE
  5
2DC
  8
DATA
  6
CONTINUOUS
 62
     7
 10
-289.42066414677669
 20
52.526585223002137
 30
0.0
 40
3.1999999999999882
  0
CIRCLE
  5
2DD
  8
DATA
  6
CONTINUOUS
 62
     7
 10
-289.42066414677669
 20
34.026585223002137
 30
0.0
 40
3.1999999999999882
  0
CIRCLE
  5
2DE
  8
DATA
  6
CONTINUOUS
 62
     7
 10
-289.42066414677669
 20
34.026585223002137
 30
0.0
 40
5.25
  0
POLYLINE
  5
2DF
  8
DATA
  6
CONTINUOUS
 62
     7
 66
     1
 10
0.0
 20
0.0
 30
0.0
 70
     1
  0
VERTEX
  5
544
  8
DATA
  6
CONTINUOUS
 62
     7
 10
-289.60470271261312
 20
42.68488354347236
 30
0.0
  0
VERTEX
  5
545
  8
DATA
  6
CONTINUOUS
 62
     7
 10
-297.01098972876628
 20
38.196352309946903
 30
0.0
  0
VERTEX
  5
546
  8
DATA
  6
CONTINUOUS
 62
     7
 10
-296.8269511629299
 20
29.53805398947668
 30
0.0
  0
VERTEX
  5
547
  8
DATA
  6
CONTINUOUS
 62
     7
 10
-289.23662558094043
 20
25.368286902531931
 30
0.0
  0
VERTEX
  5
548
  8
DATA
  6
CONTINUOUS
 62
     7
 10
-281.83033856478721
 20
29.856818136057392
 30
0.0
  0
VERTEX
  5
549
  8
DATA
  6
CONTINUOUS
 62
     7
 10
-282.01437713062359
 20
38.515116456527622
 30
0.0
  0
SEQEND
  5
54A
  8
DATA
  6
CONTINUOUS
 62
     7
  0
LINE
  5
2E7
  8
DATA
  6
CONTINUOUS
 62
     7
 10
-295.92066414677669
 20
59.026585223002137
 30
0.0
 11
-282.92066414677669
 21
59.026585223002137
 31
0.0
  0
LINE
  5
2E8
  8
DATA
  6
CONTINUOUS
 62
     7
 10
-295.92066414677669
 20
59.026585223002137
 30
0.0
 11
-295.92066414677669
 21
43.026585223002151
 31
0.0
  0
LINE
  5
2E9
  8
DATA
  6
CONTINUOUS
 62
     7
 10
-282.92066414677669
 20
59.026585223002137
 30
0.0
 11
-282.92066414677669
 21
43.026585223002151
 31
0.0
  0
LINE
  5
2EA
  8
DATA
  6
CONTINUOUS
 62
     7
 10
-282.92066414677669
 20
43.026585223002151
 30
0.0
 11
-295.92066414677669
 21
43.026585223002151
 31
0.0
  0
LINE
  5
2EB
  8
DATA
  6
CONTINUOUS
 62
     7
 10
-297.01098972876628
 20
38.196352309946903
 30
0.0
 11
-297.01098972876628
 21
59.026585223002137
 31
0.0
  0
LINE
  5
2EC
  8
DATA
  6
CONTINUOUS
 62
     7
 10
-295.92066414677669
 20
43.026585223002151
 30
0.0
 11
-295.92066414677669
 21
38.857136913459847
 31
0.0
  0
LINE
  5
2ED
  8
DATA
  6
CONTINUOUS
 62
     7
 10
-297.01098972876628
 20
59.026585223002137
 30
0.0
 11
-295.92066414677669
 21
59.026585223002137
 31
0.0
  0
TEXT
  5
2EE
  8
DATA
 62
     7
 10
-279.9957375525633
 20
24.91488492797216
 30
0.0
 40
3.078125
  1
3
 50
180.0
 41
0.8
 11
-279.9957375525633
 21
21.83675992797216
 31
0.0
 73
     3
  0
CIRCLE
  5
2EF
  8
DATA
  6
CONTINUOUS
 62
     7
 10
-271.4206641467768
 20
52.526585223002137
 30
0.0
 40
5.5
  0
CIRCLE
  5
2F0
  8
DATA
  6
CONTINUOUS
 62
     7
 10
-271.4206641467768
 20
52.526585223002137
 30
0.0
 40
3.1999999999999882
  0
CIRCLE
  5
2F1
  8
DATA
  6
CONTINUOUS
 62
     7
 10
-271.4206641467768
 20
34.026585223002137
 30
0.0
 40
3.1999999999999882
  0
CIRCLE
  5
2F2
  8
DATA
  6
CONTINUOUS
 62
     7
 10
-271.4206641467768
 20
34.026585223002137
 30
0.0
 40
5.25
  0
POLYLINE
  5
2F3
  8
DATA
  6
CONTINUOUS
 62
     7
 66
     1
 10
0.0
 20
0.0
 30
0.0
 70
     1
  0
VERTEX
  5
54B
  8
DATA
  6
CONTINUOUS
 62
     7
 10
-271.60470271261312
 20
42.68488354347236
 30
0.0
  0
VERTEX
  5
54C
  8
DATA
  6
CONTINUOUS
 62
     7
 10
-279.01098972876628
 20
38.196352309946903
 30
0.0
  0
VERTEX
  5
54D
  8
DATA
  6
CONTINUOUS
 62
     7
 10
-278.8269511629299
 20
29.53805398947668
 30
0.0
  0
VERTEX
  5
54E
  8
DATA
  6
CONTINUOUS
 62
     7
 10
-271.23662558094043
 20
25.368286902531931
 30
0.0
  0
VERTEX
  5
54F
  8
DATA
  6
CONTINUOUS
 62
     7
 10
-263.8303385647871
 20
29.856818136057392
 30
0.0
  0
VERTEX
  5
550
  8
DATA
  6
CONTINUOUS
 62
     7
 10
-264.01437713062359
 20
38.515116456527622
 30
0.0
  0
SEQEND
  5
551
  8
DATA
  6
CONTINUOUS
 62
     7
  0
LINE
  5
2FB
  8
DATA
  6
CONTINUOUS
 62
     7
 10
-277.9206641467768
 20
59.026585223002137
 30
0.0
 11
-264.92066414677669
 21
59.026585223002137
 31
0.0
  0
LINE
  5
2FC
  8
DATA
  6
CONTINUOUS
 62
     7
 10
-277.9206641467768
 20
59.026585223002137
 30
0.0
 11
-277.9206641467768
 21
43.026585223002151
 31
0.0
  0
LINE
  5
2FD
  8
DATA
  6
CONTINUOUS
 62
     7
 10
-264.92066414677669
 20
59.026585223002137
 30
0.0
 11
-264.92066414677669
 21
43.026585223002151
 31
0.0
  0
LINE
  5
2FE
  8
DATA
  6
CONTINUOUS
 62
     7
 10
-264.92066414677669
 20
43.026585223002151
 30
0.0
 11
-277.9206641467768
 21
43.026585223002151
 31
0.0
  0
LINE
  5
2FF
  8
DATA
  6
CONTINUOUS
 62
     7
 10
-279.01098972876628
 20
38.196352309946903
 30
0.0
 11
-279.01098972876628
 21
59.026585223002137
 31
0.0
  0
LINE
  5
300
  8
DATA
  6
CONTINUOUS
 62
     7
 10
-277.9206641467768
 20
43.026585223002151
 30
0.0
 11
-277.9206641467768
 21
38.857136913459847
 31
0.0
  0
LINE
  5
301
  8
DATA
  6
CONTINUOUS
 62
     7
 10
-279.01098972876628
 20
59.026585223002137
 30
0.0
 11
-277.9206641467768
 21
59.026585223002137
 31
0.0
  0
TEXT
  5
302
  8
DATA
 62
     7
 10
-261.9957375525633
 20
24.91488492797216
 30
0.0
 40
3.078125
  1
4
 50
180.0
 41
0.8
 11
-261.9957375525633
 21
21.83675992797216
 31
0.0
 73
     3
  0
CIRCLE
  5
303
  8
DATA
  6
CONTINUOUS
 62
     7
 10
-253.42066414677669
 20
52.526585223002137
 30
0.0
 40
5.5
  0
CIRCLE
  5
304
  8
DATA
  6
CONTINUOUS
 62
     7
 10
-253.42066414677669
 20
52.526585223002137
 30
0.0
 40
3.1999999999999882
  0
CIRCLE
  5
305
  8
DATA
  6
CONTINUOUS
 62
     7
 10
-253.42066414677669
 20
34.026585223002137
 30
0.0
 40
3.1999999999999882
  0
CIRCLE
  5
306
  8
DATA
  6
CONTINUOUS
 62
     7
 10
-253.42066414677669
 20
34.026585223002137
 30
0.0
 40
5.25
  0
POLYLINE
  5
307
  8
DATA
  6
CONTINUOUS
 62
     7
 66
     1
 10
0.0
 20
0.0
 30
0.0
 70
     1
  0
VERTEX
  5
552
  8
DATA
  6
CONTINUOUS
 62
     7
 10
-253.60470271261309
 20
42.68488354347236
 30
0.0
  0
VERTEX
  5
553
  8
DATA
  6
CONTINUOUS
 62
     7
 10
-261.01098972876628
 20
38.196352309946903
 30
0.0
  0
VERTEX
  5
554
  8
DATA
  6
CONTINUOUS
 62
     7
 10
-260.8269511629299
 20
29.53805398947668
 30
0.0
  0
VERTEX
  5
555
  8
DATA
  6
CONTINUOUS
 62
     7
 10
-253.2366255809404
 20
25.368286902531931
 30
0.0
  0
VERTEX
  5
556
  8
DATA
  6
CONTINUOUS
 62
     7
 10
-245.83033856478721
 20
29.856818136057392
 30
0.0
  0
VERTEX
  5
557
  8
DATA
  6
CONTINUOUS
 62
     7
 10
-246.01437713062359
 20
38.515116456527622
 30
0.0
  0
SEQEND
  5
558
  8
DATA
  6
CONTINUOUS
 62
     7
  0
LINE
  5
30F
  8
DATA
  6
CONTINUOUS
 62
     7
 10
-259.92066414677669
 20
59.026585223002137
 30
0.0
 11
-246.9206641467768
 21
59.026585223002137
 31
0.0
  0
LINE
  5
310
  8
DATA
  6
CONTINUOUS
 62
     7
 10
-259.92066414677669
 20
59.026585223002137
 30
0.0
 11
-259.92066414677669
 21
43.026585223002151
 31
0.0
  0
LINE
  5
311
  8
DATA
  6
CONTINUOUS
 62
     7
 10
-246.9206641467768
 20
59.026585223002137
 30
0.0
 11
-246.9206641467768
 21
43.026585223002151
 31
0.0
  0
LINE
  5
312
  8
DATA
  6
CONTINUOUS
 62
     7
 10
-246.9206641467768
 20
43.026585223002151
 30
0.0
 11
-259.92066414677669
 21
43.026585223002151
 31
0.0
  0
LINE
  5
313
  8
DATA
  6
CONTINUOUS
 62
     7
 10
-261.01098972876628
 20
38.196352309946903
 30
0.0
 11
-261.01098972876628
 21
59.026585223002137
 31
0.0
  0
LINE
  5
314
  8
DATA
  6
CONTINUOUS
 62
     7
 10
-259.92066414677669
 20
43.026585223002151
 30
0.0
 11
-259.92066414677669
 21
38.857136913459847
 31
0.0
  0
LINE
  5
315
  8
DATA
  6
CONTINUOUS
 62
     7
 10
-261.01098972876628
 20
59.026585223002137
 30
0.0
 11
-259.92066414677669
 21
59.026585223002137
 31
0.0
  0
TEXT
  5
316
  8
DATA
 62
     7
 10
-243.9957375525633
 20
24.91488492797216
 30
0.0
 40
3.078125
  1
5
 50
180.0
 41
0.8
 11
-243.9957375525633
 21
21.83675992797216
 31
0.0
 73
     3
  0
CIRCLE
  5
317
  8
DATA
  6
CONTINUOUS
 62
     7
 10
-235.42066414677669
 20
52.526585223002137
 30
0.0
 40
5.5
  0
CIRCLE
  5
318
  8
DATA
  6
CONTINUOUS
 62
     7
 10
-235.42066414677669
 20
52.526585223002137
 30
0.0
 40
3.1999999999999882
  0
CIRCLE
  5
319
  8
DATA
  6
CONTINUOUS
 62
     7
 10
-235.42066414677669
 20
34.026585223002137
 30
0.0
 40
3.1999999999999882
  0
CIRCLE
  5
31A
  8
DATA
  6
CONTINUOUS
 62
     7
 10
-235.42066414677669
 20
34.026585223002137
 30
0.0
 40
5.25
  0
POLYLINE
  5
31B
  8
DATA
  6
CONTINUOUS
 62
     7
 66
     1
 10
0.0
 20
0.0
 30
0.0
 70
     1
  0
VERTEX
  5
559
  8
DATA
  6
CONTINUOUS
 62
     7
 10
-235.60470271261309
 20
42.68488354347236
 30
0.0
  0
VERTEX
  5
55A
  8
DATA
  6
CONTINUOUS
 62
     7
 10
-243.0109897287663
 20
38.196352309946903
 30
0.0
  0
VERTEX
  5
55B
  8
DATA
  6
CONTINUOUS
 62
     7
 10
-242.8269511629299
 20
29.53805398947668
 30
0.0
  0
VERTEX
  5
55C
  8
DATA
  6
CONTINUOUS
 62
     7
 10
-235.2366255809404
 20
25.368286902531931
 30
0.0
  0
VERTEX
  5
55D
  8
DATA
  6
CONTINUOUS
 62
     7
 10
-227.83033856478721
 20
29.856818136057392
 30
0.0
  0
VERTEX
  5
55E
  8
DATA
  6
CONTINUOUS
 62
     7
 10
-228.01437713062359
 20
38.515116456527622
 30
0.0
  0
SEQEND
  5
55F
  8
DATA
  6
CONTINUOUS
 62
     7
  0
LINE
  5
323
  8
DATA
  6
CONTINUOUS
 62
     7
 10
-241.92066414677669
 20
59.026585223002137
 30
0.0
 11
-228.92066414677669
 21
59.026585223002137
 31
0.0
  0
LINE
  5
324
  8
DATA
  6
CONTINUOUS
 62
     7
 10
-241.92066414677669
 20
59.026585223002137
 30
0.0
 11
-241.92066414677669
 21
43.026585223002151
 31
0.0
  0
LINE
  5
325
  8
DATA
  6
CONTINUOUS
 62
     7
 10
-228.92066414677669
 20
59.026585223002137
 30
0.0
 11
-228.92066414677669
 21
43.026585223002151
 31
0.0
  0
LINE
  5
326
  8
DATA
  6
CONTINUOUS
 62
     7
 10
-228.92066414677669
 20
43.026585223002151
 30
0.0
 11
-241.92066414677669
 21
43.026585223002151
 31
0.0
  0
LINE
  5
327
  8
DATA
  6
CONTINUOUS
 62
     7
 10
-243.0109897287663
 20
38.196352309946903
 30
0.0
 11
-243.0109897287663
 21
59.026585223002137
 31
0.0
  0
LINE
  5
328
  8
DATA
  6
CONTINUOUS
 62
     7
 10
-241.92066414677669
 20
43.026585223002151
 30
0.0
 11
-241.92066414677669
 21
38.857136913459847
 31
0.0
  0
LINE
  5
329
  8
DATA
  6
CONTINUOUS
 62
     7
 10
-243.0109897287663
 20
59.026585223002137
 30
0.0
 11
-241.92066414677669
 21
59.026585223002137
 31
0.0
  0
TEXT
  5
32A
  8
DATA
 62
     7
 10
-225.9957375525633
 20
24.91488492797216
 30
0.0
 40
3.078125
  1
6
 50
180.0
 41
0.8
 11
-225.9957375525633
 21
21.83675992797216
 31
0.0
 73
     3
  0
CIRCLE
  5
32B
  8
DATA
  6
CONTINUOUS
 62
     7
 10
-217.4206641467768
 20
52.526585223002137
 30
0.0
 40
5.5
  0
CIRCLE
  5
32C
  8
DATA
  6
CONTINUOUS
 62
     7
 10
-217.4206641467768
 20
52.526585223002137
 30
0.0
 40
3.1999999999999882
  0
CIRCLE
  5
32D
  8
DATA
  6
CONTINUOUS
 62
     7
 10
-217.4206641467768
 20
34.026585223002137
 30
0.0
 40
3.1999999999999882
  0
CIRCLE
  5
32E
  8
DATA
  6
CONTINUOUS
 62
     7
 10
-217.4206641467768
 20
34.026585223002137
 30
0.0
 40
5.25
  0
POLYLINE
  5
32F
  8
DATA
  6
CONTINUOUS
 62
     7
 66
     1
 10
0.0
 20
0.0
 30
0.0
 70
     1
  0
VERTEX
  5
560
  8
DATA
  6
CONTINUOUS
 62
     7
 10
-217.6047027126132
 20
42.68488354347236
 30
0.0
  0
VERTEX
  5
561
  8
DATA
  6
CONTINUOUS
 62
     7
 10
-225.0109897287663
 20
38.196352309946903
 30
0.0
  0
VERTEX
  5
562
  8
DATA
  6
CONTINUOUS
 62
     7
 10
-224.8269511629299
 20
29.53805398947668
 30
0.0
  0
VERTEX
  5
563
  8
DATA
  6
CONTINUOUS
 62
     7
 10
-217.2366255809404
 20
25.368286902531931
 30
0.0
  0
VERTEX
  5
564
  8
DATA
  6
CONTINUOUS
 62
     7
 10
-209.83033856478721
 20
29.856818136057392
 30
0.0
  0
VERTEX
  5
565
  8
DATA
  6
CONTINUOUS
 62
     7
 10
-210.01437713062359
 20
38.515116456527622
 30
0.0
  0
SEQEND
  5
566
  8
DATA
  6
CONTINUOUS
 62
     7
  0
LINE
  5
337
  8
DATA
  6
CONTINUOUS
 62
     7
 10
-223.9206641467768
 20
59.026585223002137
 30
0.0
 11
-210.92066414677669
 21
59.026585223002137
 31
0.0
  0
LINE
  5
338
  8
DATA
  6
CONTINUOUS
 62
     7
 10
-223.9206641467768
 20
59.026585223002137
 30
0.0
 11
-223.9206641467768
 21
43.026585223002151
 31
0.0
  0
LINE
  5
339
  8
DATA
  6
CONTINUOUS
 62
     7
 10
-210.92066414677669
 20
59.026585223002137
 30
0.0
 11
-210.92066414677669
 21
43.026585223002151
 31
0.0
  0
LINE
  5
33A
  8
DATA
  6
CONTINUOUS
 62
     7
 10
-210.92066414677669
 20
43.026585223002151
 30
0.0
 11
-223.9206641467768
 21
43.026585223002151
 31
0.0
  0
LINE
  5
33B
  8
DATA
  6
CONTINUOUS
 62
     7
 10
-225.0109897287663
 20
38.196352309946903
 30
0.0
 11
-225.0109897287663
 21
59.026585223002137
 31
0.0
  0
LINE
  5
33C
  8
DATA
  6
CONTINUOUS
 62
     7
 10
-223.9206641467768
 20
43.026585223002151
 30
0.0
 11
-223.9206641467768
 21
38.857136913459847
 31
0.0
  0
LINE
  5
33D
  8
DATA
  6
CONTINUOUS
 62
     7
 10
-225.0109897287663
 20
59.026585223002137
 30
0.0
 11
-223.9206641467768
 21
59.026585223002137
 31
0.0
  0
TEXT
  5
33E
  8
DATA
 62
     7
 10
-207.9957375525633
 20
24.91488492797216
 30
0.0
 40
3.078125
  1
7
 50
180.0
 41
0.8
 11
-207.9957375525633
 21
21.83675992797216
 31
0.0
 73
     3
  0
CIRCLE
  5
33F
  8
DATA
  6
CONTINUOUS
 62
     7
 10
-199.42066414677669
 20
52.526585223002137
 30
0.0
 40
5.5
  0
CIRCLE
  5
340
  8
DATA
  6
CONTINUOUS
 62
     7
 10
-199.42066414677669
 20
52.526585223002137
 30
0.0
 40
3.1999999999999882
  0
CIRCLE
  5
341
  8
DATA
  6
CONTINUOUS
 62
     7
 10
-199.42066414677669
 20
34.026585223002137
 30
0.0
 40
3.1999999999999882
  0
CIRCLE
  5
342
  8
DATA
  6
CONTINUOUS
 62
     7
 10
-199.42066414677669
 20
34.026585223002137
 30
0.0
 40
5.25
  0
POLYLINE
  5
343
  8
DATA
  6
CONTINUOUS
 62
     7
 66
     1
 10
0.0
 20
0.0
 30
0.0
 70
     1
  0
VERTEX
  5
567
  8
DATA
  6
CONTINUOUS
 62
     7
 10
-199.60470271261309
 20
42.68488354347236
 30
0.0
  0
VERTEX
  5
568
  8
DATA
  6
CONTINUOUS
 62
     7
 10
-207.0109897287663
 20
38.196352309946903
 30
0.0
  0
VERTEX
  5
569
  8
DATA
  6
CONTINUOUS
 62
     7
 10
-206.8269511629299
 20
29.53805398947668
 30
0.0
  0
VERTEX
  5
56A
  8
DATA
  6
CONTINUOUS
 62
     7
 10
-199.2366255809404
 20
25.368286902531931
 30
0.0
  0
VERTEX
  5
56B
  8
DATA
  6
CONTINUOUS
 62
     7
 10
-191.83033856478721
 20
29.856818136057392
 30
0.0
  0
VERTEX
  5
56C
  8
DATA
  6
CONTINUOUS
 62
     7
 10
-192.01437713062359
 20
38.515116456527622
 30
0.0
  0
SEQEND
  5
56D
  8
DATA
  6
CONTINUOUS
 62
     7
  0
LINE
  5
34B
  8
DATA
  6
CONTINUOUS
 62
     7
 10
-205.92066414677669
 20
59.026585223002137
 30
0.0
 11
-192.92066414677669
 21
59.026585223002137
 31
0.0
  0
LINE
  5
34C
  8
DATA
  6
CONTINUOUS
 62
     7
 10
-205.92066414677669
 20
59.026585223002137
 30
0.0
 11
-205.92066414677669
 21
43.026585223002151
 31
0.0
  0
LINE
  5
34D
  8
DATA
  6
CONTINUOUS
 62
     7
 10
-192.92066414677669
 20
59.026585223002137
 30
0.0
 11
-192.92066414677669
 21
43.026585223002151
 31
0.0
  0
LINE
  5
34E
  8
DATA
  6
CONTINUOUS
 62
     7
 10
-192.92066414677669
 20
43.026585223002151
 30
0.0
 11
-205.92066414677669
 21
43.026585223002151
 31
0.0
  0
LINE
  5
34F
  8
DATA
  6
CONTINUOUS
 62
     7
 10
-207.0109897287663
 20
38.196352309946903
 30
0.0
 11
-207.0109897287663
 21
59.026585223002137
 31
0.0
  0
LINE
  5
350
  8
DATA
  6
CONTINUOUS
 62
     7
 10
-205.92066414677669
 20
43.026585223002151
 30
0.0
 11
-205.92066414677669
 21
38.857136913459847
 31
0.0
  0
LINE
  5
351
  8
DATA
  6
CONTINUOUS
 62
     7
 10
-207.0109897287663
 20
59.026585223002137
 30
0.0
 11
-205.92066414677669
 21
59.026585223002137
 31
0.0
  0
TEXT
  5
352
  8
DATA
 62
     7
 10
-189.9957375525633
 20
24.91488492797216
 30
0.0
 40
3.078125
  1
8
 50
180.0
 41
0.8
 11
-189.9957375525633
 21
21.83675992797216
 31
0.0
 73
     3
  0
CIRCLE
  5
353
  8
DATA
  6
CONTINUOUS
 62
     7
 10
-181.42066414677669
 20
52.526585223002137
 30
0.0
 40
5.5
  0
CIRCLE
  5
354
  8
DATA
  6
CONTINUOUS
 62
     7
 10
-181.42066414677669
 20
52.526585223002137
 30
0.0
 40
3.1999999999999882
  0
CIRCLE
  5
355
  8
DATA
  6
CONTINUOUS
 62
     7
 10
-181.42066414677669
 20
34.026585223002137
 30
0.0
 40
3.1999999999999882
  0
CIRCLE
  5
356
  8
DATA
  6
CONTINUOUS
 62
     7
 10
-181.42066414677669
 20
34.026585223002137
 30
0.0
 40
5.25
  0
POLYLINE
  5
357
  8
DATA
  6
CONTINUOUS
 62
     7
 66
     1
 10
0.0
 20
0.0
 30
0.0
 70
     1
  0
VERTEX
  5
56E
  8
DATA
  6
CONTINUOUS
 62
     7
 10
-181.60470271261309
 20
42.68488354347236
 30
0.0
  0
VERTEX
  5
56F
  8
DATA
  6
CONTINUOUS
 62
     7
 10
-189.0109897287663
 20
38.196352309946903
 30
0.0
  0
VERTEX
  5
570
  8
DATA
  6
CONTINUOUS
 62
     7
 10
-188.8269511629299
 20
29.53805398947668
 30
0.0
  0
VERTEX
  5
571
  8
DATA
  6
CONTINUOUS
 62
     7
 10
-181.2366255809404
 20
25.368286902531931
 30
0.0
  0
VERTEX
  5
572
  8
DATA
  6
CONTINUOUS
 62
     7
 10
-173.83033856478721
 20
29.856818136057392
 30
0.0
  0
VERTEX
  5
573
  8
DATA
  6
CONTINUOUS
 62
     7
 10
-174.01437713062359
 20
38.515116456527622
 30
0.0
  0
SEQEND
  5
574
  8
DATA
  6
CONTINUOUS
 62
     7
  0
LINE
  5
35F
  8
DATA
  6
CONTINUOUS
 62
     7
 10
-187.92066414677669
 20
59.026585223002137
 30
0.0
 11
-174.92066414677669
 21
59.026585223002137
 31
0.0
  0
LINE
  5
360
  8
DATA
  6
CONTINUOUS
 62
     7
 10
-187.92066414677669
 20
59.026585223002137
 30
0.0
 11
-187.92066414677669
 21
43.026585223002151
 31
0.0
  0
LINE
  5
361
  8
DATA
  6
CONTINUOUS
 62
     7
 10
-174.92066414677669
 20
59.026585223002137
 30
0.0
 11
-174.92066414677669
 21
43.026585223002151
 31
0.0
  0
LINE
  5
362
  8
DATA
  6
CONTINUOUS
 62
     7
 10
-174.92066414677669
 20
43.026585223002151
 30
0.0
 11
-187.92066414677669
 21
43.026585223002151
 31
0.0
  0
LINE
  5
363
  8
DATA
  6
CONTINUOUS
 62
     7
 10
-189.0109897287663
 20
38.196352309946903
 30
0.0
 11
-189.0109897287663
 21
59.026585223002137
 31
0.0
  0
LINE
  5
364
  8
DATA
  6
CONTINUOUS
 62
     7
 10
-187.92066414677669
 20
43.026585223002151
 30
0.0
 11
-187.92066414677669
 21
38.857136913459847
 31
0.0
  0
LINE
  5
365
  8
DATA
  6
CONTINUOUS
 62
     7
 10
-189.0109897287663
 20
59.026585223002137
 30
0.0
 11
-187.92066414677669
 21
59.026585223002137
 31
0.0
  0
TEXT
  5
366
  8
DATA
 62
     7
 10
-171.9957375525633
 20
24.91488492797216
 30
0.0
 40
3.078125
  1
9
 50
180.0
 41
0.8
 11
-171.9957375525633
 21
21.83675992797216
 31
0.0
 73
     3
  0
CIRCLE
  5
367
  8
DATA
  6
CONTINUOUS
 62
     7
 10
-163.42066414677669
 20
52.526585223002137
 30
0.0
 40
5.5
  0
CIRCLE
  5
368
  8
DATA
  6
CONTINUOUS
 62
     7
 10
-163.42066414677669
 20
52.526585223002137
 30
0.0
 40
3.1999999999999882
  0
CIRCLE
  5
369
  8
DATA
  6
CONTINUOUS
 62
     7
 10
-163.42066414677669
 20
34.026585223002137
 30
0.0
 40
3.1999999999999882
  0
CIRCLE
  5
36A
  8
DATA
  6
CONTINUOUS
 62
     7
 10
-163.42066414677669
 20
34.026585223002137
 30
0.0
 40
5.25
  0
POLYLINE
  5
36B
  8
DATA
  6
CONTINUOUS
 62
     7
 66
     1
 10
0.0
 20
0.0
 30
0.0
 70
     1
  0
VERTEX
  5
575
  8
DATA
  6
CONTINUOUS
 62
     7
 10
-163.60470271261309
 20
42.68488354347236
 30
0.0
  0
VERTEX
  5
576
  8
DATA
  6
CONTINUOUS
 62
     7
 10
-171.01098972876619
 20
38.196352309946903
 30
0.0
  0
VERTEX
  5
577
  8
DATA
  6
CONTINUOUS
 62
     7
 10
-170.8269511629299
 20
29.53805398947668
 30
0.0
  0
VERTEX
  5
578
  8
DATA
  6
CONTINUOUS
 62
     7
 10
-163.23662558094031
 20
25.368286902531931
 30
0.0
  0
VERTEX
  5
579
  8
DATA
  6
CONTINUOUS
 62
     7
 10
-155.83033856478721
 20
29.856818136057392
 30
0.0
  0
VERTEX
  5
57A
  8
DATA
  6
CONTINUOUS
 62
     7
 10
-156.01437713062359
 20
38.515116456527622
 30
0.0
  0
SEQEND
  5
57B
  8
DATA
  6
CONTINUOUS
 62
     7
  0
LINE
  5
373
  8
DATA
  6
CONTINUOUS
 62
     7
 10
-169.92066414677669
 20
59.026585223002137
 30
0.0
 11
-156.92066414677669
 21
59.026585223002137
 31
0.0
  0
LINE
  5
374
  8
DATA
  6
CONTINUOUS
 62
     7
 10
-169.92066414677669
 20
59.026585223002137
 30
0.0
 11
-169.92066414677669
 21
43.026585223002151
 31
0.0
  0
LINE
  5
375
  8
DATA
  6
CONTINUOUS
 62
     7
 10
-156.92066414677669
 20
59.026585223002137
 30
0.0
 11
-156.92066414677669
 21
43.026585223002151
 31
0.0
  0
LINE
  5
376
  8
DATA
  6
CONTINUOUS
 62
     7
 10
-156.92066414677669
 20
43.026585223002151
 30
0.0
 11
-169.92066414677669
 21
43.026585223002151
 31
0.0
  0
LINE
  5
377
  8
DATA
  6
CONTINUOUS
 62
     7
 10
-171.01098972876619
 20
38.196352309946903
 30
0.0
 11
-171.01098972876619
 21
59.026585223002137
 31
0.0
  0
LINE
  5
378
  8
DATA
  6
CONTINUOUS
 62
     7
 10
-169.92066414677669
 20
43.026585223002151
 30
0.0
 11
-169.92066414677669
 21
38.857136913459847
 31
0.0
  0
LINE
  5
379
  8
DATA
  6
CONTINUOUS
 62
     7
 10
-171.01098972876619
 20
59.026585223002137
 30
0.0
 11
-169.92066414677669
 21
59.026585223002137
 31
0.0
  0
TEXT
  5
37A
  8
DATA
 62
     7
 10
-153.9957375525633
 20
24.91488492797216
 30
0.0
 40
3.078125
  1
10
 50
180.0
 41
0.8
 11
-153.9957375525633
 21
21.83675992797216
 31
0.0
 73
     3
  0
CIRCLE
  5
37B
  8
DATA
  6
CONTINUOUS
 62
     7
 10
-145.42066414677669
 20
52.526585223002137
 30
0.0
 40
5.5
  0
CIRCLE
  5
37C
  8
DATA
  6
CONTINUOUS
 62
     7
 10
-145.42066414677669
 20
52.526585223002137
 30
0.0
 40
3.1999999999999882
  0
CIRCLE
  5
37D
  8
DATA
  6
CONTINUOUS
 62
     7
 10
-145.42066414677669
 20
34.026585223002137
 30
0.0
 40
3.1999999999999882
  0
CIRCLE
  5
37E
  8
DATA
  6
CONTINUOUS
 62
     7
 10
-145.42066414677669
 20
34.026585223002137
 30
0.0
 40
5.25
  0
POLYLINE
  5
37F
  8
DATA
  6
CONTINUOUS
 62
     7
 66
     1
 10
0.0
 20
0.0
 30
0.0
 70
     1
  0
VERTEX
  5
57C
  8
DATA
  6
CONTINUOUS
 62
     7
 10
-145.60470271261309
 20
42.68488354347236
 30
0.0
  0
VERTEX
  5
57D
  8
DATA
  6
CONTINUOUS
 62
     7
 10
-153.0109897287663
 20
38.196352309946903
 30
0.0
  0
VERTEX
  5
57E
  8
DATA
  6
CONTINUOUS
 62
     7
 10
-152.8269511629299
 20
29.53805398947668
 30
0.0
  0
VERTEX
  5
57F
  8
DATA
  6
CONTINUOUS
 62
     7
 10
-145.23662558094031
 20
25.368286902531931
 30
0.0
  0
VERTEX
  5
580
  8
DATA
  6
CONTINUOUS
 62
     7
 10
-137.83033856478721
 20
29.856818136057392
 30
0.0
  0
VERTEX
  5
581
  8
DATA
  6
CONTINUOUS
 62
     7
 10
-138.01437713062359
 20
38.515116456527622
 30
0.0
  0
SEQEND
  5
582
  8
DATA
  6
CONTINUOUS
 62
     7
  0
LINE
  5
387
  8
DATA
  6
CONTINUOUS
 62
     7
 10
-151.92066414677669
 20
59.026585223002137
 30
0.0
 11
-138.92066414677669
 21
59.026585223002137
 31
0.0
  0
LINE
  5
388
  8
DATA
  6
CONTINUOUS
 62
     7
 10
-151.92066414677669
 20
59.026585223002137
 30
0.0
 11
-151.92066414677669
 21
43.026585223002151
 31
0.0
  0
LINE
  5
389
  8
DATA
  6
CONTINUOUS
 62
     7
 10
-138.92066414677669
 20
59.026585223002137
 30
0.0
 11
-138.92066414677669
 21
43.026585223002151
 31
0.0
  0
LINE
  5
38A
  8
DATA
  6
CONTINUOUS
 62
     7
 10
-138.92066414677669
 20
43.026585223002151
 30
0.0
 11
-151.92066414677669
 21
43.026585223002151
 31
0.0
  0
LINE
  5
38B
  8
DATA
  6
CONTINUOUS
 62
     7
 10
-153.0109897287663
 20
38.196352309946903
 30
0.0
 11
-153.0109897287663
 21
59.026585223002137
 31
0.0
  0
LINE
  5
38C
  8
DATA
  6
CONTINUOUS
 62
     7
 10
-151.92066414677669
 20
43.026585223002151
 30
0.0
 11
-151.92066414677669
 21
38.857136913459847
 31
0.0
  0
LINE
  5
38D
  8
DATA
  6
CONTINUOUS
 62
     7
 10
-153.0109897287663
 20
59.026585223002137
 30
0.0
 11
-151.92066414677669
 21
59.026585223002137
 31
0.0
  0
TEXT
  5
38E
  8
DATA
 62
     7
 10
-135.9957375525633
 20
24.91488492797216
 30
0.0
 40
3.078125
  1
11
 50
180.0
 41
0.8
 11
-135.9957375525633
 21
21.83675992797216
 31
0.0
 73
     3
  0
CIRCLE
  5
38F
  8
DATA
  6
CONTINUOUS
 62
     7
 10
-127.4206641467767
 20
52.526585223002137
 30
0.0
 40
5.5
  0
CIRCLE
  5
390
  8
DATA
  6
CONTINUOUS
 62
     7
 10
-127.4206641467767
 20
52.526585223002137
 30
0.0
 40
3.1999999999999882
  0
CIRCLE
  5
391
  8
DATA
  6
CONTINUOUS
 62
     7
 10
-127.4206641467767
 20
34.026585223002137
 30
0.0
 40
3.1999999999999882
  0
CIRCLE
  5
392
  8
DATA
  6
CONTINUOUS
 62
     7
 10
-127.4206641467767
 20
34.026585223002137
 30
0.0
 40
5.25
  0
POLYLINE
  5
393
  8
DATA
  6
CONTINUOUS
 62
     7
 66
     1
 10
0.0
 20
0.0
 30
0.0
 70
     1
  0
VERTEX
  5
583
  8
DATA
  6
CONTINUOUS
 62
     7
 10
-127.6047027126131
 20
42.68488354347236
 30
0.0
  0
VERTEX
  5
584
  8
DATA
  6
CONTINUOUS
 62
     7
 10
-135.0109897287663
 20
38.196352309946903
 30
0.0
  0
VERTEX
  5
585
  8
DATA
  6
CONTINUOUS
 62
     7
 10
-134.8269511629299
 20
29.53805398947668
 30
0.0
  0
VERTEX
  5
586
  8
DATA
  6
CONTINUOUS
 62
     7
 10
-127.2366255809403
 20
25.368286902531931
 30
0.0
  0
VERTEX
  5
587
  8
DATA
  6
CONTINUOUS
 62
     7
 10
-119.8303385647872
 20
29.856818136057392
 30
0.0
  0
VERTEX
  5
588
  8
DATA
  6
CONTINUOUS
 62
     7
 10
-120.0143771306236
 20
38.515116456527622
 30
0.0
  0
SEQEND
  5
589
  8
DATA
  6
CONTINUOUS
 62
     7
  0
LINE
  5
39B
  8
DATA
  6
CONTINUOUS
 62
     7
 10
-133.92066414677669
 20
59.026585223002137
 30
0.0
 11
-120.9206641467767
 21
59.026585223002137
 31
0.0
  0
LINE
  5
39C
  8
DATA
  6
CONTINUOUS
 62
     7
 10
-133.92066414677669
 20
59.026585223002137
 30
0.0
 11
-133.92066414677669
 21
43.026585223002151
 31
0.0
  0
LINE
  5
39D
  8
DATA
  6
CONTINUOUS
 62
     7
 10
-120.9206641467767
 20
59.026585223002137
 30
0.0
 11
-120.9206641467767
 21
43.026585223002151
 31
0.0
  0
LINE
  5
39E
  8
DATA
  6
CONTINUOUS
 62
     7
 10
-120.9206641467767
 20
43.026585223002151
 30
0.0
 11
-133.92066414677669
 21
43.026585223002151
 31
0.0
  0
LINE
  5
39F
  8
DATA
  6
CONTINUOUS
 62
     7
 10
-135.0109897287663
 20
38.196352309946903
 30
0.0
 11
-135.0109897287663
 21
59.026585223002137
 31
0.0
  0
LINE
  5
3A0
  8
DATA
  6
CONTINUOUS
 62
     7
 10
-133.92066414677669
 20
43.026585223002151
 30
0.0
 11
-133.92066414677669
 21
38.857136913459847
 31
0.0
  0
LINE
  5
3A1
  8
DATA
  6
CONTINUOUS
 62
     7
 10
-135.0109897287663
 20
59.026585223002137
 30
0.0
 11
-133.92066414677669
 21
59.026585223002137
 31
0.0
  0
TEXT
  5
3A2
  8
DATA
 62
     7
 10
-117.9957375525633
 20
24.91488492797216
 30
0.0
 40
3.078125
  1
12
 50
180.0
 41
0.8
 11
-117.9957375525633
 21
21.83675992797216
 31
0.0
 73
     3
  0
CIRCLE
  5
3A3
  8
DATA
  6
CONTINUOUS
 62
     7
 10
-109.4206641467767
 20
52.526585223002137
 30
0.0
 40
5.5
  0
CIRCLE
  5
3A4
  8
DATA
  6
CONTINUOUS
 62
     7
 10
-109.4206641467767
 20
52.526585223002137
 30
0.0
 40
3.1999999999999882
  0
CIRCLE
  5
3A5
  8
DATA
  6
CONTINUOUS
 62
     7
 10
-109.4206641467767
 20
34.026585223002137
 30
0.0
 40
3.1999999999999882
  0
CIRCLE
  5
3A6
  8
DATA
  6
CONTINUOUS
 62
     7
 10
-109.4206641467767
 20
34.026585223002137
 30
0.0
 40
5.25
  0
POLYLINE
  5
3A7
  8
DATA
  6
CONTINUOUS
 62
     7
 66
     1
 10
0.0
 20
0.0
 30
0.0
 70
     1
  0
VERTEX
  5
58A
  8
DATA
  6
CONTINUOUS
 62
     7
 10
-109.6047027126131
 20
42.68488354347236
 30
0.0
  0
VERTEX
  5
58B
  8
DATA
  6
CONTINUOUS
 62
     7
 10
-117.0109897287663
 20
38.196352309946903
 30
0.0
  0
VERTEX
  5
58C
  8
DATA
  6
CONTINUOUS
 62
     7
 10
-116.8269511629299
 20
29.53805398947668
 30
0.0
  0
VERTEX
  5
58D
  8
DATA
  6
CONTINUOUS
 62
     7
 10
-109.2366255809403
 20
25.368286902531931
 30
0.0
  0
VERTEX
  5
58E
  8
DATA
  6
CONTINUOUS
 62
     7
 10
-101.8303385647872
 20
29.856818136057392
 30
0.0
  0
VERTEX
  5
58F
  8
DATA
  6
CONTINUOUS
 62
     7
 10
-102.0143771306236
 20
38.515116456527622
 30
0.0
  0
SEQEND
  5
590
  8
DATA
  6
CONTINUOUS
 62
     7
  0
LINE
  5
3AF
  8
DATA
  6
CONTINUOUS
 62
     7
 10
-115.9206641467767
 20
59.026585223002137
 30
0.0
 11
-102.9206641467767
 21
59.026585223002137
 31
0.0
  0
LINE
  5
3B0
  8
DATA
  6
CONTINUOUS
 62
     7
 10
-115.9206641467767
 20
59.026585223002137
 30
0.0
 11
-115.9206641467767
 21
43.026585223002151
 31
0.0
  0
LINE
  5
3B1
  8
DATA
  6
CONTINUOUS
 62
     7
 10
-102.9206641467767
 20
59.026585223002137
 30
0.0
 11
-102.9206641467767
 21
43.026585223002151
 31
0.0
  0
LINE
  5
3B2
  8
DATA
  6
CONTINUOUS
 62
     7
 10
-102.9206641467767
 20
43.026585223002151
 30
0.0
 11
-115.9206641467767
 21
43.026585223002151
 31
0.0
  0
LINE
  5
3B3
  8
DATA
  6
CONTINUOUS
 62
     7
 10
-117.0109897287663
 20
38.196352309946903
 30
0.0
 11
-117.0109897287663
 21
59.026585223002137
 31
0.0
  0
LINE
  5
3B4
  8
DATA
  6
CONTINUOUS
 62
     7
 10
-115.9206641467767
 20
43.026585223002151
 30
0.0
 11
-115.9206641467767
 21
38.857136913459847
 31
0.0
  0
LINE
  5
3B5
  8
DATA
  6
CONTINUOUS
 62
     7
 10
-117.0109897287663
 20
59.026585223002137
 30
0.0
 11
-115.9206641467767
 21
59.026585223002137
 31
0.0
  0
TEXT
  5
3B6
  8
DATA
 62
     7
 10
-99.995737552563298
 20
24.91488492797216
 30
0.0
 40
3.078125
  1
13
 50
180.0
 41
0.8
 11
-99.995737552563298
 21
21.83675992797216
 31
0.0
 73
     3
  0
CIRCLE
  5
3B7
  8
DATA
  6
CONTINUOUS
 62
     7
 10
-91.42066414677673
 20
52.526585223002137
 30
0.0
 40
5.5
  0
CIRCLE
  5
3B8
  8
DATA
  6
CONTINUOUS
 62
     7
 10
-91.42066414677673
 20
52.526585223002137
 30
0.0
 40
3.1999999999999882
  0
CIRCLE
  5
3B9
  8
DATA
  6
CONTINUOUS
 62
     7
 10
-91.42066414677673
 20
34.026585223002137
 30
0.0
 40
3.1999999999999882
  0
CIRCLE
  5
3BA
  8
DATA
  6
CONTINUOUS
 62
     7
 10
-91.42066414677673
 20
34.026585223002137
 30
0.0
 40
5.25
  0
POLYLINE
  5
3BB
  8
DATA
  6
CONTINUOUS
 62
     7
 66
     1
 10
0.0
 20
0.0
 30
0.0
 70
     1
  0
VERTEX
  5
591
  8
DATA
  6
CONTINUOUS
 62
     7
 10
-91.604702712613118
 20
42.68488354347236
 30
0.0
  0
VERTEX
  5
592
  8
DATA
  6
CONTINUOUS
 62
     7
 10
-99.010989728766305
 20
38.196352309946903
 30
0.0
  0
VERTEX
  5
593
  8
DATA
  6
CONTINUOUS
 62
     7
 10
-98.826951162929916
 20
29.53805398947668
 30
0.0
  0
VERTEX
  5
594
  8
DATA
  6
CONTINUOUS
 62
     7
 10
-91.236625580940355
 20
25.368286902531931
 30
0.0
  0
VERTEX
  5
595
  8
DATA
  6
CONTINUOUS
 62
     7
 10
-83.830338564787212
 20
29.856818136057392
 30
0.0
  0
VERTEX
  5
596
  8
DATA
  6
CONTINUOUS
 62
     7
 10
-84.014377130623572
 20
38.515116456527622
 30
0.0
  0
SEQEND
  5
597
  8
DATA
  6
CONTINUOUS
 62
     7
  0
LINE
  5
3C3
  8
DATA
  6
CONTINUOUS
 62
     7
 10
-97.92066414677673
 20
59.026585223002137
 30
0.0
 11
-84.920664146776716
 21
59.026585223002137
 31
0.0
  0
LINE
  5
3C4
  8
DATA
  6
CONTINUOUS
 62
     7
 10
-97.92066414677673
 20
59.026585223002137
 30
0.0
 11
-97.92066414677673
 21
43.026585223002151
 31
0.0
  0
LINE
  5
3C5
  8
DATA
  6
CONTINUOUS
 62
     7
 10
-84.920664146776716
 20
59.026585223002137
 30
0.0
 11
-84.920664146776716
 21
43.026585223002151
 31
0.0
  0
LINE
  5
3C6
  8
DATA
  6
CONTINUOUS
 62
     7
 10
-84.920664146776716
 20
43.026585223002151
 30
0.0
 11
-97.92066414677673
 21
43.026585223002151
 31
0.0
  0
LINE
  5
3C7
  8
DATA
  6
CONTINUOUS
 62
     7
 10
-99.010989728766305
 20
38.196352309946903
 30
0.0
 11
-99.010989728766305
 21
59.026585223002137
 31
0.0
  0
LINE
  5
3C8
  8
DATA
  6
CONTINUOUS
 62
     7
 10
-97.92066414677673
 20
43.026585223002151
 30
0.0
 11
-97.92066414677673
 21
38.857136913459847
 31
0.0
  0
LINE
  5
3C9
  8
DATA
  6
CONTINUOUS
 62
     7
 10
-99.010989728766305
 20
59.026585223002137
 30
0.0
 11
-97.92066414677673
 21
59.026585223002137
 31
0.0
  0
TEXT
  5
3CA
  8
DATA
 62
     7
 10
-81.995737552563284
 20
24.91488492797216
 30
0.0
 40
3.078125
  1
14
 50
180.0
 41
0.8
 11
-81.995737552563284
 21
21.83675992797216
 31
0.0
 73
     3
  0
CIRCLE
  5
3CB
  8
DATA
  6
CONTINUOUS
 62
     7
 10
-73.42066414677673
 20
52.526585223002137
 30
0.0
 40
5.5
  0
CIRCLE
  5
3CC
  8
DATA
  6
CONTINUOUS
 62
     7
 10
-73.42066414677673
 20
52.526585223002137
 30
0.0
 40
3.1999999999999882
  0
CIRCLE
  5
3CD
  8
DATA
  6
CONTINUOUS
 62
     7
 10
-73.42066414677673
 20
34.026585223002137
 30
0.0
 40
3.1999999999999882
  0
CIRCLE
  5
3CE
  8
DATA
  6
CONTINUOUS
 62
     7
 10
-73.42066414677673
 20
34.026585223002137
 30
0.0
 40
5.25
  0
POLYLINE
  5
3CF
  8
DATA
  6
CONTINUOUS
 62
     7
 66
     1
 10
0.0
 20
0.0
 30
0.0
 70
     1
  0
VERTEX
  5
598
  8
DATA
  6
CONTINUOUS
 62
     7
 10
-73.604702712613118
 20
42.68488354347236
 30
0.0
  0
VERTEX
  5
599
  8
DATA
  6
CONTINUOUS
 62
     7
 10
-81.010989728766276
 20
38.196352309946903
 30
0.0
  0
VERTEX
  5
59A
  8
DATA
  6
CONTINUOUS
 62
     7
 10
-80.826951162929902
 20
29.53805398947668
 30
0.0
  0
VERTEX
  5
59B
  8
DATA
  6
CONTINUOUS
 62
     7
 10
-73.23662558094037
 20
25.368286902531931
 30
0.0
  0
VERTEX
  5
59C
  8
DATA
  6
CONTINUOUS
 62
     7
 10
-65.830338564787212
 20
29.856818136057392
 30
0.0
  0
VERTEX
  5
59D
  8
DATA
  6
CONTINUOUS
 62
     7
 10
-66.0143771306236
 20
38.515116456527622
 30
0.0
  0
SEQEND
  5
59E
  8
DATA
  6
CONTINUOUS
 62
     7
  0
LINE
  5
3D7
  8
DATA
  6
CONTINUOUS
 62
     7
 10
-79.920664146776716
 20
59.026585223002137
 30
0.0
 11
-66.920664146776744
 21
59.026585223002137
 31
0.0
  0
LINE
  5
3D8
  8
DATA
  6
CONTINUOUS
 62
     7
 10
-79.920664146776716
 20
59.026585223002137
 30
0.0
 11
-79.920664146776716
 21
43.026585223002151
 31
0.0
  0
LINE
  5
3D9
  8
DATA
  6
CONTINUOUS
 62
     7
 10
-66.920664146776744
 20
59.026585223002137
 30
0.0
 11
-66.920664146776744
 21
43.026585223002151
 31
0.0
  0
LINE
  5
3DA
  8
DATA
  6
CONTINUOUS
 62
     7
 10
-66.920664146776744
 20
43.026585223002151
 30
0.0
 11
-79.920664146776716
 21
43.026585223002151
 31
0.0
  0
LINE
  5
3DB
  8
DATA
  6
CONTINUOUS
 62
     7
 10
-81.010989728766276
 20
38.196352309946903
 30
0.0
 11
-81.010989728766276
 21
59.026585223002137
 31
0.0
  0
LINE
  5
3DC
  8
DATA
  6
CONTINUOUS
 62
     7
 10
-79.920664146776716
 20
43.026585223002151
 30
0.0
 11
-79.920664146776716
 21
38.857136913459847
 31
0.0
  0
LINE
  5
3DD
  8
DATA
  6
CONTINUOUS
 62
     7
 10
-81.010989728766276
 20
59.026585223002137
 30
0.0
 11
-79.920664146776716
 21
59.026585223002137
 31
0.0
  0
TEXT
  5
3DE
  8
DATA
 62
     7
 10
-63.995737552563298
 20
24.91488492797216
 30
0.0
 40
3.078125
  1
15
 50
180.0
 41
0.8
 11
-63.995737552563298
 21
21.83675992797216
 31
0.0
 73
     3
  0
CIRCLE
  5
3DF
  8
DATA
  6
CONTINUOUS
 62
     7
 10
-55.420664146776737
 20
52.526585223002137
 30
0.0
 40
5.5
  0
CIRCLE
  5
3E0
  8
DATA
  6
CONTINUOUS
 62
     7
 10
-55.420664146776737
 20
52.526585223002137
 30
0.0
 40
3.1999999999999882
  0
CIRCLE
  5
3E1
  8
DATA
  6
CONTINUOUS
 62
     7
 10
-55.420664146776737
 20
34.026585223002137
 30
0.0
 40
3.1999999999999882
  0
CIRCLE
  5
3E2
  8
DATA
  6
CONTINUOUS
 62
     7
 10
-55.420664146776737
 20
34.026585223002137
 30
0.0
 40
5.25
  0
POLYLINE
  5
3E3
  8
DATA
  6
CONTINUOUS
 62
     7
 66
     1
 10
0.0
 20
0.0
 30
0.0
 70
     1
  0
VERTEX
  5
59F
  8
DATA
  6
CONTINUOUS
 62
     7
 10
-55.604702712613118
 20
42.68488354347236
 30
0.0
  0
VERTEX
  5
5A0
  8
DATA
  6
CONTINUOUS
 62
     7
 10
-63.010989728766269
 20
38.196352309946903
 30
0.0
  0
VERTEX
  5
5A1
  8
DATA
  6
CONTINUOUS
 62
     7
 10
-62.826951162929888
 20
29.53805398947668
 30
0.0
  0
VERTEX
  5
5A2
  8
DATA
  6
CONTINUOUS
 62
     7
 10
-55.23662558094037
 20
25.368286902531931
 30
0.0
  0
VERTEX
  5
5A3
  8
DATA
  6
CONTINUOUS
 62
     7
 10
-47.830338564787198
 20
29.856818136057392
 30
0.0
  0
VERTEX
  5
5A4
  8
DATA
  6
CONTINUOUS
 62
     7
 10
-48.0143771306236
 20
38.515116456527622
 30
0.0
  0
SEQEND
  5
5A5
  8
DATA
  6
CONTINUOUS
 62
     7
  0
LINE
  5
3EB
  8
DATA
  6
CONTINUOUS
 62
     7
 10
-61.920664146776737
 20
59.026585223002137
 30
0.0
 11
-48.920664146776751
 21
59.026585223002137
 31
0.0
  0
LINE
  5
3EC
  8
DATA
  6
CONTINUOUS
 62
     7
 10
-61.920664146776737
 20
59.026585223002137
 30
0.0
 11
-61.920664146776737
 21
43.026585223002151
 31
0.0
  0
LINE
  5
3ED
  8
DATA
  6
CONTINUOUS
 62
     7
 10
-48.920664146776751
 20
59.026585223002137
 30
0.0
 11
-48.920664146776751
 21
43.026585223002151
 31
0.0
  0
LINE
  5
3EE
  8
DATA
  6
CONTINUOUS
 62
     7
 10
-48.920664146776751
 20
43.026585223002151
 30
0.0
 11
-61.920664146776737
 21
43.026585223002151
 31
0.0
  0
LINE
  5
3EF
  8
DATA
  6
CONTINUOUS
 62
     7
 10
-63.010989728766269
 20
38.196352309946903
 30
0.0
 11
-63.010989728766269
 21
59.026585223002137
 31
0.0
  0
LINE
  5
3F0
  8
DATA
  6
CONTINUOUS
 62
     7
 10
-61.920664146776737
 20
43.026585223002151
 30
0.0
 11
-61.920664146776737
 21
38.857136913459847
 31
0.0
  0
LINE
  5
3F1
  8
DATA
  6
CONTINUOUS
 62
     7
 10
-63.010989728766269
 20
59.026585223002137
 30
0.0
 11
-61.920664146776737
 21
59.026585223002137
 31
0.0
  0
TEXT
  5
3F2
  8
DATA
 62
     7
 10
-45.995737552563291
 20
24.91488492797216
 30
0.0
 40
3.078125
  1
16
 50
180.0
 41
0.8
 11
-45.995737552563291
 21
21.83675992797216
 31
0.0
 73
     3
  0
CIRCLE
  5
3F3
  8
DATA
  6
CONTINUOUS
 62
     7
 10
-37.420664146776737
 20
52.526585223002137
 30
0.0
 40
5.5
  0
CIRCLE
  5
3F4
  8
DATA
  6
CONTINUOUS
 62
     7
 10
-37.420664146776737
 20
52.526585223002137
 30
0.0
 40
3.1999999999999882
  0
CIRCLE
  5
3F5
  8
DATA
  6
CONTINUOUS
 62
     7
 10
-37.420664146776737
 20
34.026585223002137
 30
0.0
 40
3.1999999999999882
  0
CIRCLE
  5
3F6
  8
DATA
  6
CONTINUOUS
 62
     7
 10
-37.420664146776737
 20
34.026585223002137
 30
0.0
 40
5.25
  0
POLYLINE
  5
3F7
  8
DATA
  6
CONTINUOUS
 62
     7
 66
     1
 10
0.0
 20
0.0
 30
0.0
 70
     1
  0
VERTEX
  5
5A6
  8
DATA
  6
CONTINUOUS
 62
     7
 10
-37.604702712613118
 20
42.68488354347236
 30
0.0
  0
VERTEX
  5
5A7
  8
DATA
  6
CONTINUOUS
 62
     7
 10
-45.010989728766269
 20
38.196352309946903
 30
0.0
  0
VERTEX
  5
5A8
  8
DATA
  6
CONTINUOUS
 62
     7
 10
-44.826951162929902
 20
29.53805398947668
 30
0.0
  0
VERTEX
  5
5A9
  8
DATA
  6
CONTINUOUS
 62
     7
 10
-37.236625580940363
 20
25.368286902531931
 30
0.0
  0
VERTEX
  5
5AA
  8
DATA
  6
CONTINUOUS
 62
     7
 10
-29.830338564787208
 20
29.856818136057392
 30
0.0
  0
VERTEX
  5
5AB
  8
DATA
  6
CONTINUOUS
 62
     7
 10
-30.01437713062359
 20
38.515116456527622
 30
0.0
  0
SEQEND
  5
5AC
  8
DATA
  6
CONTINUOUS
 62
     7
  0
LINE
  5
3FF
  8
DATA
  6
CONTINUOUS
 62
     7
 10
-43.920664146776737
 20
59.026585223002137
 30
0.0
 11
-30.920664146776751
 21
59.026585223002137
 31
0.0
  0
LINE
  5
400
  8
DATA
  6
CONTINUOUS
 62
     7
 10
-43.920664146776737
 20
59.026585223002137
 30
0.0
 11
-43.920664146776737
 21
43.026585223002151
 31
0.0
  0
LINE
  5
401
  8
DATA
  6
CONTINUOUS
 62
     7
 10
-30.920664146776751
 20
59.026585223002137
 30
0.0
 11
-30.920664146776751
 21
43.026585223002151
 31
0.0
  0
LINE
  5
402
  8
DATA
  6
CONTINUOUS
 62
     7
 10
-30.920664146776751
 20
43.026585223002151
 30
0.0
 11
-43.920664146776737
 21
43.026585223002151
 31
0.0
  0
LINE
  5
403
  8
DATA
  6
CONTINUOUS
 62
     7
 10
-45.010989728766269
 20
38.196352309946903
 30
0.0
 11
-45.010989728766269
 21
59.026585223002137
 31
0.0
  0
LINE
  5
404
  8
DATA
  6
CONTINUOUS
 62
     7
 10
-43.920664146776737
 20
43.026585223002151
 30
0.0
 11
-43.920664146776737
 21
38.857136913459847
 31
0.0
  0
LINE
  5
405
  8
DATA
  6
CONTINUOUS
 62
     7
 10
-45.010989728766269
 20
59.026585223002137
 30
0.0
 11
-43.920664146776737
 21
59.026585223002137
 31
0.0
  0
TEXT
  5
406
  8
DATA
 62
     7
 10
-27.995737552563298
 20
24.91488492797216
 30
0.0
 40
3.078125
  1
17
 50
180.0
 41
0.8
 11
-27.995737552563298
 21
21.83675992797216
 31
0.0
 73
     3
  0
CIRCLE
  5
407
  8
DATA
  6
CONTINUOUS
 62
     7
 10
-19.42066414677674
 20
52.526585223002137
 30
0.0
 40
5.5
  0
CIRCLE
  5
408
  8
DATA
  6
CONTINUOUS
 62
     7
 10
-19.42066414677674
 20
52.526585223002137
 30
0.0
 40
3.1999999999999882
  0
CIRCLE
  5
409
  8
DATA
  6
CONTINUOUS
 62
     7
 10
-19.42066414677674
 20
34.026585223002137
 30
0.0
 40
3.1999999999999882
  0
CIRCLE
  5
40A
  8
DATA
  6
CONTINUOUS
 62
     7
 10
-19.42066414677674
 20
34.026585223002137
 30
0.0
 40
5.25
  0
POLYLINE
  5
40B
  8
DATA
  6
CONTINUOUS
 62
     7
 66
     1
 10
0.0
 20
0.0
 30
0.0
 70
     1
  0
VERTEX
  5
5AD
  8
DATA
  6
CONTINUOUS
 62
     7
 10
-19.604702712613118
 20
42.68488354347236
 30
0.0
  0
VERTEX
  5
5AE
  8
DATA
  6
CONTINUOUS
 62
     7
 10
-27.01098972876628
 20
38.196352309946903
 30
0.0
  0
VERTEX
  5
5AF
  8
DATA
  6
CONTINUOUS
 62
     7
 10
-26.826951162929909
 20
29.53805398947668
 30
0.0
  0
VERTEX
  5
5B0
  8
DATA
  6
CONTINUOUS
 62
     7
 10
-19.23662558094037
 20
25.368286902531931
 30
0.0
  0
VERTEX
  5
5B1
  8
DATA
  6
CONTINUOUS
 62
     7
 10
-11.83033856478721
 20
29.856818136057392
 30
0.0
  0
VERTEX
  5
5B2
  8
DATA
  6
CONTINUOUS
 62
     7
 10
-12.01437713062359
 20
38.515116456527622
 30
0.0
  0
SEQEND
  5
5B3
  8
DATA
  6
CONTINUOUS
 62
     7
  0
LINE
  5
413
  8
DATA
  6
CONTINUOUS
 62
     7
 10
-25.920664146776751
 20
59.026585223002137
 30
0.0
 11
-12.92066414677674
 21
59.026585223002137
 31
0.0
  0
LINE
  5
414
  8
DATA
  6
CONTINUOUS
 62
     7
 10
-25.920664146776751
 20
59.026585223002137
 30
0.0
 11
-25.920664146776751
 21
43.026585223002151
 31
0.0
  0
LINE
  5
415
  8
DATA
  6
CONTINUOUS
 62
     7
 10
-12.92066414677674
 20
59.026585223002137
 30
0.0
 11
-12.92066414677674
 21
43.026585223002151
 31
0.0
  0
LINE
  5
416
  8
DATA
  6
CONTINUOUS
 62
     7
 10
-12.92066414677674
 20
43.026585223002151
 30
0.0
 11
-25.920664146776751
 21
43.026585223002151
 31
0.0
  0
LINE
  5
417
  8
DATA
  6
CONTINUOUS
 62
     7
 10
-27.01098972876628
 20
38.196352309946903
 30
0.0
 11
-27.01098972876628
 21
59.026585223002137
 31
0.0
  0
LINE
  5
418
  8
DATA
  6
CONTINUOUS
 62
     7
 10
-25.920664146776751
 20
43.026585223002151
 30
0.0
 11
-25.920664146776751
 21
38.857136913459847
 31
0.0
  0
LINE
  5
419
  8
DATA
  6
CONTINUOUS
 62
     7
 10
-27.01098972876628
 20
59.026585223002137
 30
0.0
 11
-25.920664146776751
 21
59.026585223002137
 31
0.0
  0
TEXT
  5
41A
  8
DATA
 62
     7
 10
-9.9957375525632983
 20
24.91488492797216
 30
0.0
 40
3.078125
  1
18
 50
180.0
 41
0.8
 11
-9.9957375525632983
 21
21.83675992797216
 31
0.0
 73
     3
  0
CIRCLE
  5
41B
  8
DATA
  6
CONTINUOUS
 62
     7
 10
-1.420664146776744
 20
52.526585223002137
 30
0.0
 40
5.5
  0
CIRCLE
  5
41C
  8
DATA
  6
CONTINUOUS
 62
     7
 10
-1.420664146776744
 20
52.526585223002137
 30
0.0
 40
3.1999999999999882
  0
CIRCLE
  5
41D
  8
DATA
  6
CONTINUOUS
 62
     7
 10
-1.420664146776744
 20
34.026585223002137
 30
0.0
 40
3.1999999999999882
  0
CIRCLE
  5
41E
  8
DATA
  6
CONTINUOUS
 62
     7
 10
-1.420664146776744
 20
34.026585223002137
 30
0.0
 40
5.25
  0
POLYLINE
  5
41F
  8
DATA
  6
CONTINUOUS
 62
     7
 66
     1
 10
0.0
 20
0.0
 30
0.0
 70
     1
  0
VERTEX
  5
5B4
  8
DATA
  6
CONTINUOUS
 62
     7
 10
-1.6047027126131179
 20
42.68488354347236
 30
0.0
  0
VERTEX
  5
5B5
  8
DATA
  6
CONTINUOUS
 62
     7
 10
-9.0109897287662744
 20
38.196352309946903
 30
0.0
  0
VERTEX
  5
5B6
  8
DATA
  6
CONTINUOUS
 62
     7
 10
-8.8269511629299
 20
29.53805398947668
 30
0.0
  0
VERTEX
  5
5B7
  8
DATA
  6
CONTINUOUS
 62
     7
 10
-1.236625580940369
 20
25.368286902531931
 30
0.0
  0
VERTEX
  5
5B8
  8
DATA
  6
CONTINUOUS
 62
     7
 10
6.1696614352127881
 20
29.856818136057392
 30
0.0
  0
VERTEX
  5
5B9
  8
DATA
  6
CONTINUOUS
 62
     7
 10
5.9856228693764129
 20
38.515116456527622
 30
0.0
  0
SEQEND
  5
5BA
  8
DATA
  6
CONTINUOUS
 62
     7
  0
LINE
  5
427
  8
DATA
  6
CONTINUOUS
 62
     7
 10
-7.920664146776744
 20
59.026585223002137
 30
0.0
 11
5.0793358532232551
 21
59.026585223002137
 31
0.0
  0
LINE
  5
428
  8
DATA
  6
CONTINUOUS
 62
     7
 10
-7.920664146776744
 20
59.026585223002137
 30
0.0
 11
-7.920664146776744
 21
43.026585223002151
 31
0.0
  0
LINE
  5
429
  8
DATA
  6
CONTINUOUS
 62
     7
 10
5.0793358532232551
 20
59.026585223002137
 30
0.0
 11
5.0793358532232551
 21
43.026585223002151
 31
0.0
  0
LINE
  5
42A
  8
DATA
  6
CONTINUOUS
 62
     7
 10
5.0793358532232551
 20
43.026585223002151
 30
0.0
 11
-7.920664146776744
 21
43.026585223002151
 31
0.0
  0
LINE
  5
42B
  8
DATA
  6
CONTINUOUS
 62
     7
 10
-9.0109897287662744
 20
38.196352309946903
 30
0.0
 11
-9.0109897287662744
 21
59.026585223002137
 31
0.0
  0
LINE
  5
42C
  8
DATA
  6
CONTINUOUS
 62
     7
 10
-7.920664146776744
 20
43.026585223002151
 30
0.0
 11
-7.920664146776744
 21
38.857136913459847
 31
0.0
  0
LINE
  5
42D
  8
DATA
  6
CONTINUOUS
 62
     7
 10
-9.0109897287662744
 20
59.026585223002137
 30
0.0
 11
-7.920664146776744
 21
59.026585223002137
 31
0.0
  0
TEXT
  5
42E
  8
DATA
 62
     7
 10
8.0042624474367017
 20
24.91488492797216
 30
0.0
 40
3.078125
  1
19
 50
180.0
 41
0.8
 11
8.0042624474367017
 21
21.83675992797216
 31
0.0
 73
     3
  0
CIRCLE
  5
42F
  8
DATA
  6
CONTINUOUS
 62
     7
 10
16.579335853223249
 20
52.526585223002137
 30
0.0
 40
5.5
  0
CIRCLE
  5
430
  8
DATA
  6
CONTINUOUS
 62
     7
 10
16.579335853223249
 20
52.526585223002137
 30
0.0
 40
3.1999999999999882
  0
CIRCLE
  5
431
  8
DATA
  6
CONTINUOUS
 62
     7
 10
16.579335853223249
 20
34.026585223002137
 30
0.0
 40
3.1999999999999882
  0
CIRCLE
  5
432
  8
DATA
  6
CONTINUOUS
 62
     7
 10
16.579335853223249
 20
34.026585223002137
 30
0.0
 40
5.25
  0
POLYLINE
  5
433
  8
DATA
  6
CONTINUOUS
 62
     7
 66
     1
 10
0.0
 20
0.0
 30
0.0
 70
     1
  0
VERTEX
  5
5BB
  8
DATA
  6
CONTINUOUS
 62
     7
 10
16.395297287386882
 20
42.68488354347236
 30
0.0
  0
VERTEX
  5
5BC
  8
DATA
  6
CONTINUOUS
 62
     7
 10
8.9890102712337256
 20
38.196352309946903
 30
0.0
  0
VERTEX
  5
5BD
  8
DATA
  6
CONTINUOUS
 62
     7
 10
9.1730488370700982
 20
29.53805398947668
 30
0.0
  0
VERTEX
  5
5BE
  8
DATA
  6
CONTINUOUS
 62
     7
 10
16.76337441905963
 20
25.368286902531931
 30
0.0
  0
VERTEX
  5
5BF
  8
DATA
  6
CONTINUOUS
 62
     7
 10
24.169661435212792
 20
29.856818136057392
 30
0.0
  0
VERTEX
  5
5C0
  8
DATA
  6
CONTINUOUS
 62
     7
 10
23.98562286937641
 20
38.515116456527622
 30
0.0
  0
SEQEND
  5
5C1
  8
DATA
  6
CONTINUOUS
 62
     7
  0
LINE
  5
43B
  8
DATA
  6
CONTINUOUS
 62
     7
 10
10.079335853223251
 20
59.026585223002137
 30
0.0
 11
23.079335853223249
 21
59.026585223002137
 31
0.0
  0
LINE
  5
43C
  8
DATA
  6
CONTINUOUS
 62
     7
 10
10.079335853223251
 20
59.026585223002137
 30
0.0
 11
10.079335853223251
 21
43.026585223002151
 31
0.0
  0
LINE
  5
43D
  8
DATA
  6
CONTINUOUS
 62
     7
 10
23.079335853223249
 20
59.026585223002137
 30
0.0
 11
23.079335853223249
 21
43.026585223002151
 31
0.0
  0
LINE
  5
43E
  8
DATA
  6
CONTINUOUS
 62
     7
 10
23.079335853223249
 20
43.026585223002151
 30
0.0
 11
10.079335853223251
 21
43.026585223002151
 31
0.0
  0
LINE
  5
43F
  8
DATA
  6
CONTINUOUS
 62
     7
 10
8.9890102712337256
 20
38.196352309946903
 30
0.0
 11
8.9890102712337256
 21
59.026585223002137
 31
0.0
  0
LINE
  5
440
  8
DATA
  6
CONTINUOUS
 62
     7
 10
10.079335853223251
 20
43.026585223002151
 30
0.0
 11
10.079335853223251
 21
38.857136913459847
 31
0.0
  0
LINE
  5
441
  8
DATA
  6
CONTINUOUS
 62
     7
 10
8.9890102712337256
 20
59.026585223002137
 30
0.0
 11
10.079335853223251
 21
59.026585223002137
 31
0.0
  0
TEXT
  5
442
  8
DATA
 62
     7
 10
26.004262447436709
 20
24.91488492797216
 30
0.0
 40
3.078125
  1
20
 50
180.0
 41
0.8
 11
26.004262447436709
 21
21.83675992797216
 31
0.0
 73
     3
  0
CIRCLE
  5
443
  8
DATA
  6
CONTINUOUS
 62
     7
 10
34.579335853223249
 20
52.526585223002137
 30
0.0
 40
5.5
  0
CIRCLE
  5
444
  8
DATA
  6
CONTINUOUS
 62
     7
 10
34.579335853223249
 20
52.526585223002137
 30
0.0
 40
3.1999999999999882
  0
CIRCLE
  5
445
  8
DATA
  6
CONTINUOUS
 62
     7
 10
34.579335853223249
 20
34.026585223002137
 30
0.0
 40
3.1999999999999882
  0
CIRCLE
  5
446
  8
DATA
  6
CONTINUOUS
 62
     7
 10
34.579335853223249
 20
34.026585223002137
 30
0.0
 40
5.25
  0
POLYLINE
  5
447
  8
DATA
  6
CONTINUOUS
 62
     7
 66
     1
 10
0.0
 20
0.0
 30
0.0
 70
     1
  0
VERTEX
  5
5C2
  8
DATA
  6
CONTINUOUS
 62
     7
 10
34.395297287386882
 20
42.68488354347236
 30
0.0
  0
VERTEX
  5
5C3
  8
DATA
  6
CONTINUOUS
 62
     7
 10
26.989010271233731
 20
38.196352309946903
 30
0.0
  0
VERTEX
  5
5C4
  8
DATA
  6
CONTINUOUS
 62
     7
 10
27.173048837070102
 20
29.53805398947668
 30
0.0
  0
VERTEX
  5
5C5
  8
DATA
  6
CONTINUOUS
 62
     7
 10
34.76337441905963
 20
25.368286902531931
 30
0.0
  0
VERTEX
  5
5C6
  8
DATA
  6
CONTINUOUS
 62
     7
 10
42.169661435212781
 20
29.856818136057392
 30
0.0
  0
VERTEX
  5
5C7
  8
DATA
  6
CONTINUOUS
 62
     7
 10
41.985622869376407
 20
38.515116456527622
 30
0.0
  0
SEQEND
  5
5C8
  8
DATA
  6
CONTINUOUS
 62
     7
  0
LINE
  5
44F
  8
DATA
  6
CONTINUOUS
 62
     7
 10
28.079335853223249
 20
59.026585223002137
 30
0.0
 11
41.079335853223249
 21
59.026585223002137
 31
0.0
  0
LINE
  5
450
  8
DATA
  6
CONTINUOUS
 62
     7
 10
28.079335853223249
 20
59.026585223002137
 30
0.0
 11
28.079335853223249
 21
43.026585223002151
 31
0.0
  0
LINE
  5
451
  8
DATA
  6
CONTINUOUS
 62
     7
 10
41.079335853223249
 20
59.026585223002137
 30
0.0
 11
41.079335853223249
 21
43.026585223002151
 31
0.0
  0
LINE
  5
452
  8
DATA
  6
CONTINUOUS
 62
     7
 10
41.079335853223249
 20
43.026585223002151
 30
0.0
 11
28.079335853223249
 21
43.026585223002151
 31
0.0
  0
LINE
  5
453
  8
DATA
  6
CONTINUOUS
 62
     7
 10
26.989010271233731
 20
38.196352309946903
 30
0.0
 11
26.989010271233731
 21
59.026585223002137
 31
0.0
  0
LINE
  5
454
  8
DATA
  6
CONTINUOUS
 62
     7
 10
28.079335853223249
 20
43.026585223002151
 30
0.0
 11
28.079335853223249
 21
38.857136913459847
 31
0.0
  0
LINE
  5
455
  8
DATA
  6
CONTINUOUS
 62
     7
 10
26.989010271233731
 20
59.026585223002137
 30
0.0
 11
28.079335853223249
 21
59.026585223002137
 31
0.0
  0
TEXT
  5
456
  8
DATA
 62
     7
 10
44.004262447436702
 20
24.91488492797216
 30
0.0
 40
3.078125
  1
21
 50
180.0
 41
0.8
 11
44.004262447436702
 21
21.83675992797216
 31
0.0
 73
     3
  0
CIRCLE
  5
457
  8
DATA
  6
CONTINUOUS
 62
     7
 10
52.579335853223263
 20
52.526585223002137
 30
0.0
 40
5.5
  0
CIRCLE
  5
458
  8
DATA
  6
CONTINUOUS
 62
     7
 10
52.579335853223263
 20
52.526585223002137
 30
0.0
 40
3.1999999999999882
  0
CIRCLE
  5
459
  8
DATA
  6
CONTINUOUS
 62
     7
 10
52.579335853223263
 20
34.026585223002137
 30
0.0
 40
3.1999999999999882
  0
CIRCLE
  5
45A
  8
DATA
  6
CONTINUOUS
 62
     7
 10
52.579335853223263
 20
34.026585223002137
 30
0.0
 40
5.25
  0
POLYLINE
  5
45B
  8
DATA
  6
CONTINUOUS
 62
     7
 66
     1
 10
0.0
 20
0.0
 30
0.0
 70
     1
  0
VERTEX
  5
5C9
  8
DATA
  6
CONTINUOUS
 62
     7
 10
52.395297287386882
 20
42.68488354347236
 30
0.0
  0
VERTEX
  5
5CA
  8
DATA
  6
CONTINUOUS
 62
     7
 10
44.989010271233717
 20
38.196352309946903
 30
0.0
  0
VERTEX
  5
5CB
  8
DATA
  6
CONTINUOUS
 62
     7
 10
45.173048837070098
 20
29.53805398947668
 30
0.0
  0
VERTEX
  5
5CC
  8
DATA
  6
CONTINUOUS
 62
     7
 10
52.76337441905963
 20
25.368286902531931
 30
0.0
  0
VERTEX
  5
5CD
  8
DATA
  6
CONTINUOUS
 62
     7
 10
60.169661435212802
 20
29.856818136057392
 30
0.0
  0
VERTEX
  5
5CE
  8
DATA
  6
CONTINUOUS
 62
     7
 10
59.985622869376421
 20
38.515116456527622
 30
0.0
  0
SEQEND
  5
5CF
  8
DATA
  6
CONTINUOUS
 62
     7
  0
LINE
  5
463
  8
DATA
  6
CONTINUOUS
 62
     7
 10
46.079335853223249
 20
59.026585223002137
 30
0.0
 11
59.079335853223249
 21
59.026585223002137
 31
0.0
  0
LINE
  5
464
  8
DATA
  6
CONTINUOUS
 62
     7
 10
46.079335853223249
 20
59.026585223002137
 30
0.0
 11
46.079335853223249
 21
43.026585223002151
 31
0.0
  0
LINE
  5
465
  8
DATA
  6
CONTINUOUS
 62
     7
 10
59.079335853223249
 20
59.026585223002137
 30
0.0
 11
59.079335853223249
 21
43.026585223002151
 31
0.0
  0
LINE
  5
466
  8
DATA
  6
CONTINUOUS
 62
     7
 10
59.079335853223249
 20
43.026585223002151
 30
0.0
 11
46.079335853223249
 21
43.026585223002151
 31
0.0
  0
LINE
  5
467
  8
DATA
  6
CONTINUOUS
 62
     7
 10
44.989010271233717
 20
38.196352309946903
 30
0.0
 11
44.989010271233717
 21
59.026585223002137
 31
0.0
  0
LINE
  5
468
  8
DATA
  6
CONTINUOUS
 62
     7
 10
46.079335853223249
 20
43.026585223002151
 30
0.0
 11
46.079335853223249
 21
38.857136913459847
 31
0.0
  0
LINE
  5
469
  8
DATA
  6
CONTINUOUS
 62
     7
 10
44.989010271233717
 20
59.026585223002137
 30
0.0
 11
46.079335853223249
 21
59.026585223002137
 31
0.0
  0
TEXT
  5
46A
  8
DATA
 62
     7
 10
62.004262447436702
 20
24.91488492797216
 30
0.0
 40
3.078125
  1
22
 50
180.0
 41
0.8
 11
62.004262447436702
 21
21.83675992797216
 31
0.0
 73
     3
  0
CIRCLE
  5
46B
  8
DATA
  6
CONTINUOUS
 62
     7
 10
70.57933585322327
 20
52.526585223002137
 30
0.0
 40
5.5
  0
CIRCLE
  5
46C
  8
DATA
  6
CONTINUOUS
 62
     7
 10
70.57933585322327
 20
52.526585223002137
 30
0.0
 40
3.1999999999999882
  0
CIRCLE
  5
46D
  8
DATA
  6
CONTINUOUS
 62
     7
 10
70.57933585322327
 20
34.026585223002137
 30
0.0
 40
3.1999999999999882
  0
CIRCLE
  5
46E
  8
DATA
  6
CONTINUOUS
 62
     7
 10
70.57933585322327
 20
34.026585223002137
 30
0.0
 40
5.25
  0
POLYLINE
  5
46F
  8
DATA
  6
CONTINUOUS
 62
     7
 66
     1
 10
0.0
 20
0.0
 30
0.0
 70
     1
  0
VERTEX
  5
5D0
  8
DATA
  6
CONTINUOUS
 62
     7
 10
70.395297287386882
 20
42.68488354347236
 30
0.0
  0
VERTEX
  5
5D1
  8
DATA
  6
CONTINUOUS
 62
     7
 10
62.989010271233731
 20
38.196352309946903
 30
0.0
  0
VERTEX
  5
5D2
  8
DATA
  6
CONTINUOUS
 62
     7
 10
63.173048837070098
 20
29.53805398947668
 30
0.0
  0
VERTEX
  5
5D3
  8
DATA
  6
CONTINUOUS
 62
     7
 10
70.76337441905963
 20
25.368286902531931
 30
0.0
  0
VERTEX
  5
5D4
  8
DATA
  6
CONTINUOUS
 62
     7
 10
78.169661435212788
 20
29.856818136057392
 30
0.0
  0
VERTEX
  5
5D5
  8
DATA
  6
CONTINUOUS
 62
     7
 10
77.985622869376414
 20
38.515116456527622
 30
0.0
  0
SEQEND
  5
5D6
  8
DATA
  6
CONTINUOUS
 62
     7
  0
LINE
  5
477
  8
DATA
  6
CONTINUOUS
 62
     7
 10
64.079335853223256
 20
59.026585223002137
 30
0.0
 11
77.079335853223242
 21
59.026585223002137
 31
0.0
  0
LINE
  5
478
  8
DATA
  6
CONTINUOUS
 62
     7
 10
64.079335853223256
 20
59.026585223002137
 30
0.0
 11
64.079335853223256
 21
43.026585223002151
 31
0.0
  0
LINE
  5
479
  8
DATA
  6
CONTINUOUS
 62
     7
 10
77.079335853223242
 20
59.026585223002137
 30
0.0
 11
77.079335853223242
 21
43.026585223002151
 31
0.0
  0
LINE
  5
47A
  8
DATA
  6
CONTINUOUS
 62
     7
 10
77.079335853223242
 20
43.026585223002151
 30
0.0
 11
64.079335853223256
 21
43.026585223002151
 31
0.0
  0
LINE
  5
47B
  8
DATA
  6
CONTINUOUS
 62
     7
 10
62.989010271233731
 20
38.196352309946903
 30
0.0
 11
62.989010271233731
 21
59.026585223002137
 31
0.0
  0
LINE
  5
47C
  8
DATA
  6
CONTINUOUS
 62
     7
 10
64.079335853223256
 20
43.026585223002151
 30
0.0
 11
64.079335853223256
 21
38.857136913459847
 31
0.0
  0
LINE
  5
47D
  8
DATA
  6
CONTINUOUS
 62
     7
 10
62.989010271233731
 20
59.026585223002137
 30
0.0
 11
64.079335853223256
 21
59.026585223002137
 31
0.0
  0
TEXT
  5
47E
  8
DATA
 62
     7
 10
80.004262447436687
 20
24.91488492797216
 30
0.0
 40
3.078125
  1
23
 50
180.0
 41
0.8
 11
80.004262447436687
 21
21.83675992797216
 31
0.0
 73
     3
  0
CIRCLE
  5
47F
  8
DATA
  6
CONTINUOUS
 62
     7
 10
88.579335853223242
 20
52.526585223002137
 30
0.0
 40
5.5
  0
CIRCLE
  5
480
  8
DATA
  6
CONTINUOUS
 62
     7
 10
88.579335853223242
 20
52.526585223002137
 30
0.0
 40
3.1999999999999882
  0
CIRCLE
  5
481
  8
DATA
  6
CONTINUOUS
 62
     7
 10
88.579335853223242
 20
34.026585223002137
 30
0.0
 40
3.1999999999999882
  0
CIRCLE
  5
482
  8
DATA
  6
CONTINUOUS
 62
     7
 10
88.579335853223242
 20
34.026585223002137
 30
0.0
 40
5.25
  0
POLYLINE
  5
483
  8
DATA
  6
CONTINUOUS
 62
     7
 66
     1
 10
0.0
 20
0.0
 30
0.0
 70
     1
  0
VERTEX
  5
5D7
  8
DATA
  6
CONTINUOUS
 62
     7
 10
88.395297287386867
 20
42.68488354347236
 30
0.0
  0
VERTEX
  5
5D8
  8
DATA
  6
CONTINUOUS
 62
     7
 10
80.989010271233724
 20
38.196352309946903
 30
0.0
  0
VERTEX
  5
5D9
  8
DATA
  6
CONTINUOUS
 62
     7
 10
81.173048837070127
 20
29.53805398947668
 30
0.0
  0
VERTEX
  5
5DA
  8
DATA
  6
CONTINUOUS
 62
     7
 10
88.763374419059616
 20
25.368286902531931
 30
0.0
  0
VERTEX
  5
5DB
  8
DATA
  6
CONTINUOUS
 62
     7
 10
96.169661435212817
 20
29.856818136057392
 30
0.0
  0
VERTEX
  5
5DC
  8
DATA
  6
CONTINUOUS
 62
     7
 10
95.985622869376414
 20
38.515116456527622
 30
0.0
  0
SEQEND
  5
5DD
  8
DATA
  6
CONTINUOUS
 62
     7
  0
LINE
  5
48B
  8
DATA
  6
CONTINUOUS
 62
     7
 10
82.079335853223242
 20
59.026585223002137
 30
0.0
 11
95.079335853223228
 21
59.026585223002137
 31
0.0
  0
LINE
  5
48C
  8
DATA
  6
CONTINUOUS
 62
     7
 10
82.079335853223242
 20
59.026585223002137
 30
0.0
 11
82.079335853223242
 21
43.026585223002151
 31
0.0
  0
LINE
  5
48D
  8
DATA
  6
CONTINUOUS
 62
     7
 10
95.079335853223228
 20
59.026585223002137
 30
0.0
 11
95.079335853223228
 21
43.026585223002151
 31
0.0
  0
LINE
  5
48E
  8
DATA
  6
CONTINUOUS
 62
     7
 10
95.079335853223228
 20
43.026585223002151
 30
0.0
 11
82.079335853223242
 21
43.026585223002151
 31
0.0
  0
LINE
  5
48F
  8
DATA
  6
CONTINUOUS
 62
     7
 10
80.989010271233724
 20
38.196352309946903
 30
0.0
 11
80.989010271233724
 21
59.026585223002137
 31
0.0
  0
LINE
  5
490
  8
DATA
  6
CONTINUOUS
 62
     7
 10
82.079335853223242
 20
43.026585223002151
 30
0.0
 11
82.079335853223242
 21
38.857136913459847
 31
0.0
  0
LINE
  5
491
  8
DATA
  6
CONTINUOUS
 62
     7
 10
80.989010271233724
 20
59.026585223002137
 30
0.0
 11
82.079335853223242
 21
59.026585223002137
 31
0.0
  0
TEXT
  5
492
  8
DATA
 62
     7
 10
98.004262447436702
 20
24.91488492797216
 30
0.0
 40
3.078125
  1
24
 50
180.0
 41
0.8
 11
98.004262447436702
 21
21.83675992797216
 31
0.0
 73
     3
  0
LINE
  5
493
  8
DATA
  6
CONTINUOUS
 62
     7
 10
252.82823791123249
 20
-268.9292570383459
 30
0.0
 11
250.33889771133099
 21
-268.9292570383459
 31
0.0
  0
LINE
  5
494
  8
DATA
  6
CONTINUOUS
 62
     7
 10
255.32823791123241
 20
-263.6792570383459
 30
0.0
 11
255.32823791123241
 21
-274.1792570383459
 31
0.0
  0
LINE
  5
495
  8
DATA
  6
CONTINUOUS
 62
     7
 10
255.32823791123241
 20
-263.6792570383459
 30
0.0
 11
252.82823791123249
 21
-263.6792570383459
 31
0.0
  0
LINE
  5
496
  8
DATA
  6
CONTINUOUS
 62
     7
 10
255.32823791123241
 20
-274.1792570383459
 30
0.0
 11
252.82823791123249
 21
-274.1792570383459
 31
0.0
  0
LINE
  5
497
  8
DATA
  6
CONTINUOUS
 62
     7
 10
252.82823791123249
 20
-264.82925703834599
 30
0.0
 11
254.07823791123249
 21
-274.1792570383459
 31
0.0
  0
LINE
  5
498
  8
DATA
  6
CONTINUOUS
 62
     7
 10
254.07823791123249
 20
-263.6792570383459
 30
0.0
 11
255.32823791123241
 21
-271.82925703834599
 31
0.0
  0
LINE
  5
499
  8
DATA
  6
CONTINUOUS
 62
     7
 10
252.82823791123249
 20
-261.4292570383459
 30
0.0
 11
252.82823791123249
 21
-276.4292570383459
 31
0.0
  0
LINE
  5
49A
  8
DATA
  6
CONTINUOUS
 62
     7
 10
252.82823791123249
 20
-261.4292570383459
 30
0.0
 11
248.42569985080991
 21
-261.4292570383459
 31
0.0
  0
LINE
  5
49B
  8
DATA
  6
CONTINUOUS
 62
     7
 10
252.82823791123249
 20
-276.4292570383459
 30
0.0
 11
248.42569985080991
 21
-276.4292570383459
 31
0.0
  0
LINE
  5
49C
  8
DATA
  6
CONTINUOUS
 62
     7
 10
249.2256998508098
 20
-261.4292570383459
 30
0.0
 11
249.2256998508098
 21
-276.4292570383459
 31
0.0
  0
LINE
  5
49D
  8
DATA
  6
CONTINUOUS
 62
     7
 10
250.33889771133099
 20
-268.9292570383459
 30
0.0
 11
249.2256998508098
 21
-268.9292570383459
 31
0.0
  0
LINE
  5
49E
  8
DATA
  6
CONTINUOUS
 62
     7
 10
191.60000000000011
 20
-296.56903577945059
 30
0.0
 11
191.60000000000011
 21
-259.57341477699788
 31
0.0
  0
LINE
  5
49F
  8
DATA
  6
CONTINUOUS
 62
     7
 10
194.60000000000011
 20
-256.57341477699788
 30
0.0
 11
243.6999999999999
 21
-256.57341477699788
 31
0.0
  0
LINE
  5
4A0
  8
DATA
  6
CONTINUOUS
 62
     7
 10
245.39999999999989
 20
-254.9734147769978
 30
0.0
 11
193.0
 21
-254.9734147769978
 31
0.0
  0
LINE
  5
4A1
  8
DATA
  6
CONTINUOUS
 62
     7
 10
190.0
 20
-257.97341477699791
 30
0.0
 11
190.0
 21
-296.56903577945059
 31
0.0
  0
LINE
  5
4A2
  8
DATA
  6
CONTINUOUS
 62
     7
 10
190.0
 20
-296.56903577945059
 30
0.0
 11
191.60000000000011
 21
-296.56903577945059
 31
0.0
  0
LINE
  5
4A3
  8
DATA
  6
CONTINUOUS
 62
     7
 10
248.39999999999989
 20
-257.97341477699791
 30
0.0
 11
248.39999999999989
 21
-270.97341477699791
 31
0.0
  0
LINE
  5
4A4
  8
DATA
  6
CONTINUOUS
 62
     7
 10
246.6999999999999
 20
-259.57341477699788
 30
0.0
 11
246.6999999999999
 21
-270.97341477699791
 31
0.0
  0
ARC
  5
4A5
  8
DATA
  6
CONTINUOUS
 62
     7
 10
194.60000000000011
 20
-259.57341477699788
 30
0.0
 40
3.0
 50
90.0
 51
180.0
  0
ARC
  5
4A6
  8
DATA
  6
CONTINUOUS
 62
     7
 10
193.0
 20
-257.97341477699791
 30
0.0
 40
3.0
 50
90.0
 51
180.0
  0
ARC
  5
4A7
  8
DATA
  6
CONTINUOUS
 62
     7
 10
243.6999999999999
 20
-259.57341477699788
 30
0.0
 40
3.0
 50
0.0
 51
90.0
  0
ARC
  5
4A8
  8
DATA
  6
CONTINUOUS
 62
     7
 10
245.39999999999989
 20
-257.97341477699791
 30
0.0
 40
3.0
 50
0.0
 51
90.0
  0
LINE
  5
4A9
  8
DATA
  6
CONTINUOUS
 62
     7
 10
187.0
 20
-272.97341477699791
 30
0.0
 11
187.0
 21
-261.97341477699791
 31
0.0
  0
LINE
  5
4AA
  8
DATA
  6
CONTINUOUS
 62
     7
 10
187.0
 20
-280.47341477699791
 30
0.0
 11
187.0
 21
-291.4734147769978
 31
0.0
  0
LINE
  5
4AB
  8
DATA
  6
CONTINUOUS
 62
     7
 10
187.0
 20
-261.97341477699791
 30
0.0
 11
190.0
 21
-261.97341477699791
 31
0.0
  0
LINE
  5
4AC
  8
DATA
  6
CONTINUOUS
 62
     7
 10
187.0
 20
-272.97341477699791
 30
0.0
 11
190.0
 21
-272.97341477699791
 31
0.0
  0
LINE
  5
4AD
  8
DATA
  6
CONTINUOUS
 62
     7
 10
187.0
 20
-280.47341477699791
 30
0.0
 11
190.0
 21
-280.47341477699791
 31
0.0
  0
LINE
  5
4AE
  8
DATA
  6
CONTINUOUS
 62
     7
 10
187.0
 20
-291.4734147769978
 30
0.0
 11
190.0
 21
-291.4734147769978
 31
0.0
  0
LINE
  5
4AF
  8
DATA
  6
CONTINUOUS
 62
     7
 10
248.39999999999989
 20
-270.97341477699791
 30
0.0
 11
248.39999999999989
 21
-277.25
 31
0.0
  0
LINE
  5
4B0
  8
DATA
  6
CONTINUOUS
 62
     7
 10
246.6999999999999
 20
-270.97341477699791
 30
0.0
 11
246.6999999999999
 21
-277.25
 31
0.0
  0
LINE
  5
4B1
  8
DATA
  6
CONTINUOUS
 62
     7
 10
248.39999999999989
 20
-277.25
 30
0.0
 11
246.6999999999999
 21
-277.25
 31
0.0
  0
LINE
  5
4B2
  8
DATA
  6
CONTINUOUS
 62
     7
 10
255.32823791123241
 20
-281.0607248583417
 30
0.0
 11
255.32823791123241
 21
-291.5607248583417
 31
0.0
  0
LINE
  5
4B3
  8
DATA
  6
CONTINUOUS
 62
     7
 10
255.32823791123241
 20
-281.0607248583417
 30
0.0
 11
252.82823791123249
 21
-281.0607248583417
 31
0.0
  0
LINE
  5
4B4
  8
DATA
  6
CONTINUOUS
 62
     7
 10
255.32823791123241
 20
-291.5607248583417
 30
0.0
 11
252.82823791123249
 21
-291.5607248583417
 31
0.0
  0
LINE
  5
4B5
  8
DATA
  6
CONTINUOUS
 62
     7
 10
254.07823791123249
 20
-281.0607248583417
 30
0.0
 11
255.32823791123241
 21
-289.21072485834179
 31
0.0
  0
POLYLINE
  5
4B6
  8
DATA
  6
CONTINUOUS
 62
     7
 66
     1
 10
0.0
 20
0.0
 30
0.0
 70
     1
  0
VERTEX
  5
5DE
  8
DATA
  6
CONTINUOUS
 62
     7
 10
222.6999999999999
 20
-261.4292570383459
 30
0.0
  0
VERTEX
  5
5DF
  8
DATA
  6
CONTINUOUS
 62
     7
 10
246.6999999999999
 20
-261.4292570383459
 30
0.0
  0
VERTEX
  5
5E0
  8
DATA
  6
CONTINUOUS
 62
     7
 10
246.6999999999999
 20
-276.4292570383459
 30
0.0
  0
VERTEX
  5
5E1
  8
DATA
  6
CONTINUOUS
 62
     7
 10
222.6999999999999
 20
-276.4292570383459
 30
0.0
  0
SEQEND
  5
5E2
  8
DATA
  6
CONTINUOUS
 62
     7
  0
LINE
  5
4BC
  8
DATA
  6
CONTINUOUS
 62
     7
 10
246.6999999999999
 20
-276.4292570383459
 30
0.0
 11
246.6999999999999
 21
-293.60000000000002
 31
0.0
  0
POLYLINE
  5
4BD
  8
DATA
  6
CONTINUOUS
 62
     7
 66
     1
 10
0.0
 20
0.0
 30
0.0
 70
     1
  0
VERTEX
  5
5E3
  8
DATA
  6
CONTINUOUS
 62
     7
 10
222.6999999999999
 20
-278.8107248583417
 30
0.0
  0
VERTEX
  5
5E4
  8
DATA
  6
CONTINUOUS
 62
     7
 10
246.6999999999999
 20
-278.8107248583417
 30
0.0
  0
VERTEX
  5
5E5
  8
DATA
  6
CONTINUOUS
 62
     7
 10
246.6999999999999
 20
-293.8107248583417
 30
0.0
  0
VERTEX
  5
5E6
  8
DATA
  6
CONTINUOUS
 62
     7
 10
222.6999999999999
 20
-293.8107248583417
 30
0.0
  0
SEQEND
  5
5E7
  8
DATA
  6
CONTINUOUS
 62
     7
  0
LINE
  5
4C3
  8
DATA
  6
CONTINUOUS
 62
     7
 10
252.82823791123249
 20
-281.0607248583417
 30
0.0
 11
246.6999999999999
 21
-281.0607248583417
 31
0.0
  0
LINE
  5
4C4
  8
DATA
  6
CONTINUOUS
 62
     7
 10
252.82823791123249
 20
-291.5607248583417
 30
0.0
 11
246.6999999999999
 21
-291.5607248583417
 31
0.0
  0
POLYLINE
  5
4C5
  8
DATA
  6
CONTINUOUS
 62
     7
 66
     1
 10
0.0
 20
0.0
 30
0.0
 70
     1
  0
VERTEX
  5
5E8
  8
DATA
  6
CONTINUOUS
 62
     7
 10
193.83880316136319
 20
-259.97341477699791
 30
0.0
  0
VERTEX
  5
5E9
  8
DATA
  6
CONTINUOUS
 62
     7
 10
217.83880316136319
 20
-259.97341477699791
 30
0.0
  0
VERTEX
  5
5EA
  8
DATA
  6
CONTINUOUS
 62
     7
 10
217.83880316136319
 20
-274.97341477699791
 30
0.0
  0
VERTEX
  5
5EB
  8
DATA
  6
CONTINUOUS
 62
     7
 10
193.83880316136319
 20
-274.97341477699791
 30
0.0
  0
SEQEND
  5
5EC
  8
DATA
  6
CONTINUOUS
 62
     7
  0
POLYLINE
  5
4CB
  8
DATA
  6
CONTINUOUS
 62
     7
 66
     1
 10
0.0
 20
0.0
 30
0.0
 70
     1
  0
VERTEX
  5
5ED
  8
DATA
  6
CONTINUOUS
 62
     7
 10
193.83880316136319
 20
-278.47341477699791
 30
0.0
  0
VERTEX
  5
5EE
  8
DATA
  6
CONTINUOUS
 62
     7
 10
217.83880316136319
 20
-278.47341477699791
 30
0.0
  0
VERTEX
  5
5EF
  8
DATA
  6
CONTINUOUS
 62
     7
 10
217.83880316136319
 20
-293.4734147769978
 30
0.0
  0
VERTEX
  5
5F0
  8
DATA
  6
CONTINUOUS
 62
     7
 10
193.83880316136319
 20
-293.4734147769978
 30
0.0
  0
SEQEND
  5
5F1
  8
DATA
  6
CONTINUOUS
 62
     7
  0
LINE
  5
4D1
  8
DATA
  6
CONTINUOUS
 62
     7
 10
193.83880316136319
 20
-261.97341477699791
 30
0.0
 11
191.60000000000011
 21
-261.97341477699791
 31
0.0
  0
LINE
  5
4D2
  8
DATA
  6
CONTINUOUS
 62
     7
 10
193.83880316136319
 20
-272.97341477699791
 30
0.0
 11
191.60000000000011
 21
-272.97341477699791
 31
0.0
  0
LINE
  5
4D3
  8
DATA
  6
CONTINUOUS
 62
     7
 10
193.83880316136319
 20
-280.47341477699791
 30
0.0
 11
191.60000000000011
 21
-280.47341477699791
 31
0.0
  0
LINE
  5
4D4
  8
DATA
  6
CONTINUOUS
 62
     7
 10
193.83880316136319
 20
-291.4734147769978
 30
0.0
 11
191.60000000000011
 21
-291.4734147769978
 31
0.0
  0
LINE
  5
4D5
  8
DATA
  6
CONTINUOUS
 62
     7
 10
252.70083520643951
 20
-281.0607248583417
 30
0.0
 11
254.17808447066659
 21
-291.5607248583417
 31
0.0
  0
LINE
  5
4D6
  8
DATA
  6
CONTINUOUS
 62
     7
 10
251.32083520643951
 20
-281.0607248583417
 30
0.0
 11
252.79808447066659
 21
-291.5607248583417
 31
0.0
  0
LINE
  5
4D7
  8
DATA
  6
CONTINUOUS
 62
     7
 10
249.94083520643949
 20
-281.0607248583417
 30
0.0
 11
251.4180844706666
 21
-291.5607248583417
 31
0.0
  0
LINE
  5
4D8
  8
DATA
  6
CONTINUOUS
 62
     7
 10
248.56083520643949
 20
-281.0607248583417
 30
0.0
 11
250.0380844706666
 21
-291.5607248583417
 31
0.0
  0
LINE
  5
4D9
  8
DATA
  6
CONTINUOUS
 62
     7
 10
247.1808352064395
 20
-281.0607248583417
 30
0.0
 11
248.65808447066661
 21
-291.5607248583417
 31
0.0
  0
LINE
  5
4DA
  8
DATA
  6
CONTINUOUS
 62
     7
 10
246.6999999999999
 20
-287.45181305246842
 30
0.0
 11
247.27808447066661
 21
-291.5607248583417
 31
0.0
  0
LINE
  5
4DB
  8
DATA
  6
CONTINUOUS
 62
     7
 10
99.053254796396956
 20
-108.706379606195
 30
0.0
 11
99.053254796396956
 21
-119.0
 31
0.0
  0
LINE
  5
4DC
  8
DATA
  6
CONTINUOUS
 62
     7
 10
-335.94674520360479
 20
-108.706379606195
 30
0.0
 11
-335.94674520360479
 21
-119.0
 31
0.0
  0
LINE
  5
4DD
  8
DATA
  6
CONTINUOUS
 62
     7
 10
-381.0
 20
-114.69746193957729
 30
0.0
 11
-332.5
 21
-114.69746193957729
 31
0.0
  0
ENDSEC
  0
EOF
