  0
SECTION
  2
HEADER
  9
$ACADVER
  1
AC1009
  9
$INSBASE
 10
0.0
 20
0.0
 30
0.0
  9
$EXTMIN
 10
-80.010985489947416
 20
-131.71201227911089
 30
-0.0015258207003583
  9
$EXTMAX
 10
280.01098716632811
 20
403.5481165140169
 30
0.0000000349246037
  9
$LIMMIN
 10
0.0
 20
0.0
  9
$LIMMAX
 10
0.0
 20
0.0
  9
$ORTHOMODE
 70
     0
  9
$REGENMODE
 70
     1
  9
$FILLMODE
 70
     1
  9
$QTEXTMODE
 70
     0
  9
$MIRRTEXT
 70
     1
  9
$DRAGMODE
 70
     2
  9
$LTSCALE
 40
10.16
  9
$OSMODE
 70
   231
  9
$ATTMODE
 70
     1
  9
$TEXTSIZE
 40
0.0
  9
$TRACEWID
 40
1.0
  9
$TEXTSTYLE
  7
STANDARD
  9
$CLAYER
  8
DATA
  9
$CELTYPE
  6
BYLAYER
  9
$CECOLOR
 62
   256
  9
$DIMSCALE
 40
1.0
  9
$DIMASZ
 40
0.18
  9
$DIMEXO
 40
0.0625
  9
$DIMDLI
 40
0.38
  9
$DIMRND
 40
0.0
  9
$DIMDLE
 40
0.0
  9
$DIMEXE
 40
0.18
  9
$DIMTP
 40
0.0
  9
$DIMTM
 40
0.0
  9
$DIMTXT
 40
0.18
  9
$DIMCEN
 40
0.09
  9
$DIMTSZ
 40
0.0
  9
$DIMTOL
 70
     0
  9
$DIMLIM
 70
     0
  9
$DIMTIH
 70
     1
  9
$DIMTOH
 70
     1
  9
$DIMSE1
 70
     0
  9
$DIMSE2
 70
     0
  9
$DIMTAD
 70
     0
  9
$DIMZIN
 70
     0
  9
$DIMBLK
  1

  9
$DIMASO
 70
     1
  9
$DIMSHO
 70
     1
  9
$DIMPOST
  1

  9
$DIMAPOST
  1

  9
$DIMALT
 70
     0
  9
$DIMALTD
 70
     2
  9
$DIMALTF
 40
25.399999999999999
  9
$DIMLFAC
 40
1.0
  9
$DIMTOFL
 70
     0
  9
$DIMTVP
 40
0.0
  9
$DIMTIX
 70
     0
  9
$DIMSOXD
 70
     0
  9
$DIMSAH
 70
     0
  9
$DIMBLK1
  1

  9
$DIMBLK2
  1

  9
$DIMSTYLE
  2
STANDARD
  9
$DIMCLRD
 70
     0
  9
$DIMCLRE
 70
     0
  9
$DIMCLRT
 70
     0
  9
$DIMTFAC
 40
1.0
  9
$DIMGAP
 40
0.09
  9
$LUNITS
 70
     2
  9
$LUPREC
 70
     4
  9
$SKETCHINC
 40
0.1
  9
$FILLETRAD
 40
0.0
  9
$AUNITS
 70
     0
  9
$AUPREC
 70
     0
  9
$MENU
  1
acad
  9
$ELEVATION
 40
0.0
  9
$PELEVATION
 40
0.0
  9
$THICKNESS
 40
0.0
  9
$LIMCHECK
 70
     0
  9
$BLIPMODE
 70
     0
  9
$CHAMFERA
 40
0.0
  9
$CHAMFERB
 40
0.0
  9
$SKPOLY
 70
     0
  9
$TDCREATE
 40
2454720.6994328699
  9
$TDUPDATE
 40
2454720.7002769331
  9
$TDINDWG
 40
0.0004459606
  9
$TDUSRTIMER
 40
0.0004148495
  9
$USRTIMER
 70
     1
  9
$ANGBASE
 50
0.0
  9
$ANGDIR
 70
     0
  9
$PDMODE
 70
     1
  9
$PDSIZE
 40
-2.0
  9
$PLINEWID
 40
0.0
  9
$COORDS
 70
     1
  9
$SPLFRAME
 70
     0
  9
$SPLINETYPE
 70
     6
  9
$SPLINESEGS
 70
     8
  9
$ATTDIA
 70
     0
  9
$ATTREQ
 70
     1
  9
$HANDLING
 70
     1
  9
$HANDSEED
  5
B4E
  9
$SURFTAB1
 70
     6
  9
$SURFTAB2
 70
     6
  9
$SURFTYPE
 70
     6
  9
$SURFU
 70
     6
  9
$SURFV
 70
     6
  9
$UCSNAME
  2

  9
$UCSORG
 10
0.0
 20
0.0
 30
0.0
  9
$UCSXDIR
 10
1.0
 20
0.0
 30
0.0
  9
$UCSYDIR
 10
0.0
 20
1.0
 30
0.0
  9
$PUCSNAME
  2

  9
$PUCSORG
 10
0.0
 20
0.0
 30
0.0
  9
$PUCSXDIR
 10
1.0
 20
0.0
 30
0.0
  9
$PUCSYDIR
 10
0.0
 20
1.0
 30
0.0
  9
$USERI1
 70
     0
  9
$USERI2
 70
     0
  9
$USERI3
 70
     0
  9
$USERI4
 70
     0
  9
$USERI5
 70
     0
  9
$USERR1
 40
0.0
  9
$USERR2
 40
0.0
  9
$USERR3
 40
0.0
  9
$USERR4
 40
0.0
  9
$USERR5
 40
0.0
  9
$WORLDVIEW
 70
     1
  9
$SHADEDGE
 70
     3
  9
$SHADEDIF
 70
    70
  9
$TILEMODE
 70
     1
  9
$MAXACTVP
 70
    64
  9
$PLIMCHECK
 70
     0
  9
$PEXTMIN
 10
1.0000000000000000E+020
 20
1.0000000000000000E+020
 30
1.0000000000000000E+020
  9
$PEXTMAX
 10
-1.0000000000000000E+020
 20
-1.0000000000000000E+020
 30
-1.0000000000000000E+020
  9
$PLIMMIN
 10
0.0
 20
0.0
  9
$PLIMMAX
 10
12.0
 20
9.0
  9
$UNITMODE
 70
     0
  9
$VISRETAIN
 70
     0
  9
$PLINEGEN
 70
     1
  9
$PSLTSCALE
 70
     0
  0
ENDSEC
  0
SECTION
  2
TABLES
  0
TABLE
  2
VPORT
 70
     1
  0
VPORT
  2
*ACTIVE
 70
     0
 10
0.0
 20
0.0
 11
1.0
 21
1.0
 12
100.0000008381904
 22
135.91805211745299
 13
0.0
 23
0.0
 14
1.0
 24
1.0
 15
0.0
 25
0.0
 16
0.0
 26
0.0
 36
1.0
 17
0.0
 27
0.0
 37
0.0
 40
539.6898677900366
 41
1.665745856353591
 42
50.0
 43
0.0
 44
0.0
 50
0.0
 51
0.0
 71
     0
 72
  2000
 73
     1
 74
     1
 75
     0
 76
     0
 77
     0
 78
     0
  0
ENDTAB
  0
TABLE
  2
LTYPE
 70
    11
  0
LTYPE
  2
CONTINUOUS
 70
     0
  3
Solid line
 72
    65
 73
     0
 40
0.0
  0
ENDTAB
  0
TABLE
  2
LAYER
 70
     5
  0
LAYER
  2
0
 70
     0
 62
     7
  6
CONTINUOUS
  0
LAYER
  2
DATA
 70
     0
 62
     7
  6
CONTINUOUS
  0
LAYER
  2
HIBINO-BASE
 70
     0
 62
     7
  6
CONTINUOUS
  0
LAYER
  2
SPEC
 70
     0
 62
     7
  6
CONTINUOUS
  0
LAYER
  2
DIMNSIONS
 70
     0
 62
     7
  6
CONTINUOUS
  0
ENDTAB
  0
TABLE
  2
STYLE
 70
     2
  0
STYLE
  2
STANDARD
 70
     0
 40
0.0
 41
1.0
 50
0.0
 71
     0
 42
0.0
  3
txt
  4
BIGFONT.SHX
  0
ENDTAB
  0
TABLE
  2
VIEW
 70
     0
  0
ENDTAB
  0
TABLE
  2
UCS
 70
     0
  0
ENDTAB
  0
TABLE
  2
APPID
 70
     1
  0
APPID
  2
ACAD
 70
     0
  0
ENDTAB
  0
TABLE
  2
DIMSTYLE
 70
     1
  0
DIMSTYLE
  2
STANDARD
 70
     0
  3

  4

  5

  6

  7

 40
1.0
 41
0.18
 42
0.0625
 43
0.38
 44
0.18
 45
0.0
 46
0.0
 47
0.0
 48
0.0
140
0.18
141
0.09
142
0.0
143
25.399999999999999
144
1.0
145
0.0
146
1.0
147
0.09
 71
     0
 72
     0
 73
     1
 74
     1
 75
     0
 76
     0
 77
     0
 78
     0
170
     0
171
     2
172
     0
173
     0
174
     0
175
     0
176
     0
177
     0
178
     0
  0
ENDTAB
  0
ENDSEC
  0
SECTION
  2
BLOCKS
  0
BLOCK
  8
0
  2
$MODEL_SPACE
 70
     0
 10
0.0
 20
0.0
 30
0.0
  3
$MODEL_SPACE
  1

  0
ENDBLK
  5
736
  8
0
  0
BLOCK
 67
     1
  8
0
  2
$PAPER_SPACE
 70
     0
 10
0.0
 20
0.0
 30
0.0
  3
$PAPER_SPACE
  1

  0
ENDBLK
  5
732
 67
     1
  8
0
  0
ENDSEC
  0
SECTION
  2
ENTITIES
  0
LINE
  5
2C
  8
HIBINO-BASE
  6
CONTINUOUS
 62
     7
 10
-79.999999999999986
 20
403.53181499999999
 30
0.0
 11
279.99999999999989
 21
403.53181499999999
 31
0.0
  0
LINE
  5
2D
  8
HIBINO-BASE
  6
CONTINUOUS
 62
     7
 10
279.99999999999989
 20
-116.46818500000001
 30
0.0
 11
-79.999999999999986
 21
-116.46818500000001
 31
0.0
  0
LINE
  5
2E
  8
HIBINO-BASE
  6
CONTINUOUS
 62
     7
 10
-79.999999999999986
 20
-116.46818500000001
 30
0.0
 11
-79.999999999999986
 21
403.53181499999999
 31
0.0
  0
TEXT
  5
2F
  8
HIBINO-BASE
 62
     7
 10
-65.631999999999991
 20
-129.2855405999999
 30
0.0
 40
7.2000883593749991
  1
Hibino Corporation
 41
0.7
 11
-65.631999999999991
 21
-122.0854522406249
 31
0.0
 73
     3
  0
LINE
  5
30
  8
HIBINO-BASE
  6
CONTINUOUS
 62
     7
 10
279.99999999999989
 20
403.53181499999999
 30
0.0
 11
279.99999999999989
 21
-116.46818500000001
 31
0.0
  0
LINE
  5
31
  8
HIBINO-BASE
  6
CONTINUOUS
 62
     7
 10
100.0
 20
-71.468184999999977
 30
0.0
 11
279.99999999999989
 21
-71.468184999999977
 31
0.0
  0
LINE
  5
32
  8
HIBINO-BASE
  6
CONTINUOUS
 62
     7
 10
100.0
 20
-116.46818500000001
 30
0.0
 11
100.0
 21
-71.468184999999977
 31
0.0
  0
TEXT
  5
33
  8
HIBINO-BASE
 62
     7
 10
101.8
 20
-76.485571666666644
 30
0.0
 40
3.2576822916666659
  1
NOTE
 41
0.7
 11
101.8
 21
-73.227889374999975
 31
0.0
 73
     3
  0
LINE
  5
34
  8
HIBINO-BASE
  6
CONTINUOUS
 62
     7
 10
170.0
 20
-116.46818500000001
 30
0.0
 11
170.0
 21
-71.468184999999977
 31
0.0
  0
TEXT
  5
35
  8
HIBINO-BASE
 62
     7
 10
171.7999999999999
 20
-76.485571666666644
 30
0.0
 40
3.2576822916666659
  1
TITLE
 41
0.7
 11
171.7999999999999
 21
-73.227889374999975
 31
0.0
 73
     3
  0
TEXT
  5
36
  8
HIBINO-BASE
 62
     7
 10
200.13677999999999
 20
-129.2855405999999
 30
0.0
 40
7.2000883593749991
  1
ヒビノ株式会社
 41
0.7
 11
200.13677999999999
 21
-122.0854522406249
 31
0.0
 73
     3
  0
LINE
  5
37
  8
HIBINO-BASE
  6
CONTINUOUS
 62
     7
 10
100.0
 20
-96.468184999999963
 30
0.0
 11
279.99999999999989
 21
-96.468184999999963
 31
0.0
  0
TEXT
  5
38
  8
HIBINO-BASE
 62
     7
 10
196.80000000000001
 20
-101.3729316666666
 30
0.0
 40
3.2576822916666659
  1
DRAWN
 41
0.7
 11
196.80000000000001
 21
-98.115249375000005
 31
0.0
 73
     3
  0
TEXT
  5
39
  8
HIBINO-BASE
 62
     7
 10
146.7999999999999
 20
-101.3729316666666
 30
0.0
 40
3.2576822916666659
  1
DATE
 41
0.7
 11
146.7999999999999
 21
-98.115249375000005
 31
0.0
 73
     3
  0
TEXT
  5
3A
  8
HIBINO-BASE
 62
     7
 10
126.8
 20
-101.3729316666666
 30
0.0
 40
3.2576822916666659
  1
SCALE
 41
0.7
 11
126.8
 21
-98.115249375000005
 31
0.0
 73
     3
  0
TEXT
  5
3B
  8
HIBINO-BASE
 62
     7
 10
171.7999999999999
 20
-101.3729316666666
 30
0.0
 40
3.2576822916666659
  1
DESIGN
 41
0.7
 11
171.7999999999999
 21
-98.115249375000005
 31
0.0
 73
     3
  0
TEXT
  5
3C
  8
HIBINO-BASE
 62
     7
 10
246.7999999999999
 20
-101.3729316666666
 30
0.0
 40
3.2576822916666659
  1
DRAWING NO.
 41
0.7
 11
246.7999999999999
 21
-98.115249375000005
 31
0.0
 73
     3
  0
TEXT
  5
3D
  8
HIBINO-BASE
 62
     7
 10
221.7999999999999
 20
-101.3729316666666
 30
0.0
 40
3.2576822916666659
  1
CHECK
 41
0.7
 11
221.7999999999999
 21
-98.115249375000005
 31
0.0
 73
     3
  0
LINE
  5
3E
  8
HIBINO-BASE
  6
CONTINUOUS
 62
     7
 10
128.74999999999989
 20
-113.96818500000001
 30
0.0
 11
136.25
 21
-106.46818499999991
 31
0.0
  0
TEXT
  5
3F
  8
HIBINO-BASE
 62
     7
 10
127.5
 20
-108.68607166666661
 30
0.0
 40
3.2576822916666659
  1
1
 41
0.7
 11
127.5
 21
-105.42838937499999
 31
0.0
 73
     3
  0
LINE
  5
40
  8
HIBINO-BASE
  6
CONTINUOUS
 62
     7
 10
125.0
 20
-116.46818500000001
 30
0.0
 11
125.0
 21
-96.468184999999963
 31
0.0
  0
LINE
  5
41
  8
HIBINO-BASE
  6
CONTINUOUS
 62
     7
 10
145.0
 20
-116.46818500000001
 30
0.0
 11
145.0
 21
-96.468184999999963
 31
0.0
  0
LINE
  5
42
  8
HIBINO-BASE
  6
CONTINUOUS
 62
     7
 10
195.0
 20
-96.468184999999963
 30
0.0
 11
195.0
 21
-116.46818500000001
 31
0.0
  0
LINE
  5
43
  8
HIBINO-BASE
  6
CONTINUOUS
 62
     7
 10
245.0
 20
-96.468184999999963
 30
0.0
 11
245.0
 21
-116.46818500000001
 31
0.0
  0
LINE
  5
44
  8
HIBINO-BASE
  6
CONTINUOUS
 62
     7
 10
220.0
 20
-116.46818500000001
 30
0.0
 11
220.0
 21
-96.468184999999963
 31
0.0
  0
TEXT
  5
45
  8
HIBINO-BASE
 62
     7
 10
146.71307999999999
 20
-110.7408916666666
 30
0.0
 40
3.2576822916666659
  1
'07.06.
 41
0.7
 11
146.71307999999999
 21
-107.483209375
 31
0.0
 73
     3
  0
TEXT
  5
46
  8
HIBINO-BASE
 62
     7
 10
135.0
 20
-112.43607166666661
 30
0.0
 40
3.2576822916666659
  1
2
 41
0.7
 11
135.0
 21
-109.17838937499999
 31
0.0
 73
     3
  0
TEXT
  5
47
  8
HIBINO-BASE
 62
     7
 10
198.0116200220692
 20
-110.7408916666666
 30
0.0
 40
3.2576822916666659
  1
N.Sasaki
 41
0.7
 11
198.0116200220692
 21
-107.483209375
 31
0.0
 73
     3
  0
TEXT
  5
48
  8
HIBINO-BASE
 62
     7
 10
107.76666666666659
 20
-112.51618499999999
 30
0.0
 40
6.5153645833333318
  1
A4
 41
0.7
 11
107.76666666666659
 21
-106.0008204166666
 31
0.0
 73
     3
  0
TEXT
  5
49
  8
HIBINO-BASE
 62
     7
 10
101.9166666666666
 20
-101.707095
 30
0.0
 40
3.2576822916666659
  1
PAPER SIZE
 41
0.7
 11
101.9166666666666
 21
-98.449412708333327
 31
0.0
 73
     3
  0
TEXT
  5
4A
  8
SPEC
 62
     7
 10
-62.5
 20
386.318355
 30
0.0
 40
4.8865234375000002
  1
仕様
 41
0.7
 11
-62.5
 21
391.20487843749999
 31
0.0
 73
     3
  0
LINE
  5
4B
  8
SPEC
  6
CONTINUOUS
 62
     7
 10
-65.000000000000014
 20
383.46363000000002
 30
0.0
 11
230.0
 21
383.46363000000002
 31
0.0
  0
LINE
  5
4C
  8
SPEC
  6
CONTINUOUS
 62
     7
 10
-65.000000000000014
 20
375.96363000000002
 30
0.0
 11
230.0
 21
375.96363000000002
 31
0.0
  0
LINE
  5
4D
  8
SPEC
  6
CONTINUOUS
 62
     7
 10
-0.0000000000000711
 20
383.46363000000002
 30
0.0
 11
-0.0000000000000711
 21
353.46363000000002
 31
0.0
  0
LINE
  5
4E
  8
SPEC
  6
CONTINUOUS
 62
     7
 10
-65.000000000000014
 20
368.46363000000002
 30
0.0
 11
230.0
 21
368.46363000000002
 31
0.0
  0
TEXT
  5
4F
  8
SPEC
 62
     7
 10
-60.319953207634917
 20
355.40520948530258
 30
0.0
 40
3.8006293402777769
  1
重量
 41
0.7
 11
-60.319953207634917
 21
359.20583882558037
 31
0.0
 73
     3
  0
TEXT
  5
50
  8
SPEC
 62
     7
 10
4.7520613608202629
 20
355.58876072932031
 30
0.0
 40
3.8006293402777769
  1
約218g(プレート含まず)
 41
0.7
 11
4.7520613608202629
 21
359.38939006959811
 31
0.0
 73
     3
  0
LINE
  5
51
  8
SPEC
  6
CONTINUOUS
 62
     7
 10
-65.000000000000014
 20
360.96363000000002
 30
0.0
 11
230.0
 21
360.96363000000002
 31
0.0
  0
LINE
  5
52
  8
SPEC
  6
CONTINUOUS
 62
     7
 10
-65.000000000000014
 20
353.46363000000002
 30
0.0
 11
230.0
 21
353.46363000000002
 31
0.0
  0
LINE
  5
53
  8
SPEC
  6
CONTINUOUS
 62
     7
 10
-65.000000000000014
 20
353.46363000000002
 30
0.0
 11
-65.000000000000014
 21
383.53181499999999
 31
0.0
  0
LINE
  5
54
  8
SPEC
  6
CONTINUOUS
 62
     7
 10
230.0
 20
353.46363000000002
 30
0.0
 11
230.0
 21
383.46363000000002
 31
0.0
  0
TEXT
  5
55
  8
SPEC
 62
     7
 10
-60.055929808393572
 20
377.72889519690892
 30
0.0
 40
3.8006293402777769
  1
ZC-8
 41
0.7
 11
-60.055929808393572
 21
381.52952453718672
 31
0.0
 73
     3
  0
TEXT
  5
56
  8
SPEC
 62
     7
 10
-60.325507741152038
 20
370.36368416328821
 30
0.0
 40
3.8006293402777769
  1
対応機種
 41
0.7
 11
-60.325507741152038
 21
374.16431350356601
 31
0.0
 73
     3
  0
TEXT
  5
57
  8
SPEC
 62
     7
 10
-60.729874640289736
 20
362.72889519690892
 30
0.0
 40
3.8006293402777769
  1
コネクタの形状
 41
0.7
 11
-60.729874640289736
 21
366.52952453718672
 31
0.0
 73
     3
  0
TEXT
  5
58
  8
SPEC
 62
     7
 10
4.8184690912674313
 20
370.43327726505078
 30
0.0
 40
3.8006293402777769
  1
DriveRack 4800,ZonePRO 640/641,1260/1261
 41
0.7
 11
4.8184690912674313
 21
374.23390660532863
 31
0.0
 73
     3
  0
TEXT
  5
59
  8
SPEC
 62
     7
 10
4.7840204524175514
 20
362.94908799417863
 30
0.0
 40
3.8006293402777769
  1
640/641,1260/1261用コントローラ
 41
0.7
 11
4.7840204524175514
 21
366.74971733445642
 31
0.0
 73
     3
  0
TEXT
  5
5A
  8
DIMNSIONS
 62
     7
 10
60.0
 20
-91.929204999999968
 30
0.0
 40
4.8865234375000002
  1
(単位：mm)
 41
0.7
 11
60.0
 21
-87.042681562499979
 31
0.0
 73
     3
  0
LINE
  5
5B
  8
DIMNSIONS
  6
CONTINUOUS
 62
     7
 10
-17.230927268691769
 20
154.99275795997491
 30
0.0
 11
-66.500000000000014
 21
154.99275795997491
 31
0.0
  0
LINE
  5
5C
  8
DIMNSIONS
  6
CONTINUOUS
 62
     7
 10
-39.000000000000021
 20
172.0
 30
0.0
 11
-66.500000000000014
 21
172.0
 31
0.0
  0
LINE
  5
5D
  8
DIMNSIONS
  6
CONTINUOUS
 62
     7
 10
-62.500000000000021
 20
154.99275795997491
 30
0.0
 11
-62.500000000000021
 21
172.0
 31
0.0
  0
LINE
  5
5E
  8
DIMNSIONS
  6
CONTINUOUS
 62
     7
 10
-62.500000000000021
 20
154.99275795997491
 30
0.0
 11
-63.840079590300498
 21
159.9940030771624
 31
0.0
  0
LINE
  5
5F
  8
DIMNSIONS
  6
CONTINUOUS
 62
     7
 10
-62.500000000000021
 20
154.99275795997491
 30
0.0
 11
-61.159920409699531
 21
159.9940030771624
 31
0.0
  0
LINE
  5
60
  8
DIMNSIONS
  6
CONTINUOUS
 62
     7
 10
-62.500000000000021
 20
172.0
 30
0.0
 11
-61.159920409699531
 21
166.99875488281251
 31
0.0
  0
LINE
  5
61
  8
DIMNSIONS
  6
CONTINUOUS
 62
     7
 10
-62.500000000000021
 20
172.0
 30
0.0
 11
-63.840079590300498
 21
166.99875488281251
 31
0.0
  0
TEXT
  5
62
  8
DIMNSIONS
 62
     7
 10
-64.487777777777765
 20
159.9686012022097
 30
0.0
 40
5.4294704861111107
  1
17
 50
90.0
 41
0.7
 11
-69.917248263888879
 21
159.9686012022097
 31
0.0
 73
     3
  0
LINE
  5
63
  8
DIMNSIONS
  6
CONTINUOUS
 62
     7
 10
-39.000000000000021
 20
172.0
 30
0.0
 11
-54.000000000000021
 21
172.0
 31
0.0
  0
LINE
  5
64
  8
DIMNSIONS
  6
CONTINUOUS
 62
     7
 10
-39.000000000000021
 20
175.0
 30
0.0
 11
-54.000000000000021
 21
175.0
 31
0.0
  0
LINE
  5
65
  8
DIMNSIONS
  6
CONTINUOUS
 62
     7
 10
-50.000000000000021
 20
175.0
 30
0.0
 11
-50.000000000000021
 21
172.0
 31
0.0
  0
LINE
  5
66
  8
DIMNSIONS
  6
CONTINUOUS
 62
     7
 10
-50.000000000000021
 20
172.0
 30
0.0
 11
-50.000000000000021
 21
162.0
 31
0.0
  0
LINE
  5
67
  8
DIMNSIONS
  6
CONTINUOUS
 62
     7
 10
-50.000000000000021
 20
172.0
 30
0.0
 11
-48.659920409699531
 21
166.99875488281251
 31
0.0
  0
LINE
  5
68
  8
DIMNSIONS
  6
CONTINUOUS
 62
     7
 10
-50.000000000000021
 20
172.0
 30
0.0
 11
-51.340079590300498
 21
166.99875488281251
 31
0.0
  0
LINE
  5
69
  8
DIMNSIONS
  6
CONTINUOUS
 62
     7
 10
-50.000000000000021
 20
175.0
 30
0.0
 11
-50.000000000000021
 21
184.77777777777769
 31
0.0
  0
LINE
  5
6A
  8
DIMNSIONS
  6
CONTINUOUS
 62
     7
 10
-50.000000000000021
 20
175.0
 30
0.0
 11
-51.340079590300498
 21
180.00124511718741
 31
0.0
  0
LINE
  5
6B
  8
DIMNSIONS
  6
CONTINUOUS
 62
     7
 10
-50.000000000000021
 20
175.0
 30
0.0
 11
-48.659920409699531
 21
180.00124511718741
 31
0.0
  0
TEXT
  5
6C
  8
DIMNSIONS
 62
     7
 10
-51.987777777777772
 20
181.25
 30
0.0
 40
5.4294704861111107
  1
3
 50
90.0
 41
0.7
 11
-57.417248263888887
 21
181.25
 31
0.0
 73
     3
  0
LINE
  5
6D
  8
DIMNSIONS
  6
CONTINUOUS
 62
     7
 10
-39.000000000000021
 20
172.0
 30
0.0
 11
-66.500000000000014
 21
172.0
 31
0.0
  0
LINE
  5
6E
  8
DIMNSIONS
  6
CONTINUOUS
 62
     7
 10
-23.849999999999991
 20
195.0004887693589
 30
0.0
 11
-66.500000000000014
 21
195.0004887693589
 31
0.0
  0
LINE
  5
6F
  8
DIMNSIONS
  6
CONTINUOUS
 62
     7
 10
-62.500000000000021
 20
172.0
 30
0.0
 11
-62.500000000000021
 21
195.0004887693589
 31
0.0
  0
LINE
  5
70
  8
DIMNSIONS
  6
CONTINUOUS
 62
     7
 10
-62.500000000000021
 20
172.0
 30
0.0
 11
-63.840079590300498
 21
177.00124511718741
 31
0.0
  0
LINE
  5
71
  8
DIMNSIONS
  6
CONTINUOUS
 62
     7
 10
-62.500000000000021
 20
172.0
 30
0.0
 11
-61.159920409699531
 21
177.00124511718741
 31
0.0
  0
LINE
  5
72
  8
DIMNSIONS
  6
CONTINUOUS
 62
     7
 10
-62.500000000000021
 20
195.0004887693589
 30
0.0
 11
-61.159920409699531
 21
189.9992436521714
 31
0.0
  0
LINE
  5
73
  8
DIMNSIONS
  6
CONTINUOUS
 62
     7
 10
-62.500000000000021
 20
195.0004887693589
 30
0.0
 11
-63.840079590300498
 21
189.9992436521714
 31
0.0
  0
TEXT
  5
74
  8
DIMNSIONS
 62
     7
 10
-64.487777777777765
 20
179.97246660690169
 30
0.0
 40
5.4294704861111107
  1
23
 50
90.0
 41
0.7
 11
-69.917248263888879
 21
179.97246660690169
 31
0.0
 73
     3
  0
LINE
  5
75
  8
DIMNSIONS
  6
CONTINUOUS
 62
     7
 10
-37.000000000000007
 20
17.75
 30
0.0
 11
-66.500000000000014
 21
17.75
 31
0.0
  0
LINE
  5
76
  8
DIMNSIONS
  6
CONTINUOUS
 62
     7
 10
-37.000000000000007
 20
132.25
 30
0.0
 11
-66.500000000000014
 21
132.25
 31
0.0
  0
LINE
  5
77
  8
DIMNSIONS
  6
CONTINUOUS
 62
     7
 10
-62.500000000000021
 20
17.75
 30
0.0
 11
-62.500000000000021
 21
132.25
 31
0.0
  0
LINE
  5
78
  8
DIMNSIONS
  6
CONTINUOUS
 62
     7
 10
-62.500000000000021
 20
17.75
 30
0.0
 11
-63.840079590300498
 21
22.751245117187491
 31
0.0
  0
LINE
  5
79
  8
DIMNSIONS
  6
CONTINUOUS
 62
     7
 10
-62.500000000000021
 20
17.75
 30
0.0
 11
-61.159920409699531
 21
22.751245117187491
 31
0.0
  0
LINE
  5
7A
  8
DIMNSIONS
  6
CONTINUOUS
 62
     7
 10
-62.500000000000021
 20
132.25
 30
0.0
 11
-61.159920409699531
 21
127.24875488281251
 31
0.0
  0
LINE
  5
7B
  8
DIMNSIONS
  6
CONTINUOUS
 62
     7
 10
-62.500000000000021
 20
132.25
 30
0.0
 11
-63.840079590300498
 21
127.24875488281251
 31
0.0
  0
TEXT
  5
7C
  8
DIMNSIONS
 62
     7
 10
-64.487777777777765
 20
69.708333333333343
 30
0.0
 40
5.4294704861111107
  1
115
 50
90.0
 41
0.7
 11
-69.917248263888879
 21
69.708333333333343
 31
0.0
 73
     3
  0
LINE
  5
7D
  8
DIMNSIONS
  6
CONTINUOUS
 62
     7
 10
-7.5000000000000844
 20
33.349999999999987
 30
0.0
 11
-54.000000000000021
 21
33.349999999999987
 31
0.0
  0
LINE
  5
7E
  8
DIMNSIONS
  6
CONTINUOUS
 62
     7
 10
-7.5000000000000844
 20
116.65000000000001
 30
0.0
 11
-54.000000000000021
 21
116.65000000000001
 31
0.0
  0
LINE
  5
7F
  8
DIMNSIONS
  6
CONTINUOUS
 62
     7
 10
-50.000000000000021
 20
33.349999999999987
 30
0.0
 11
-50.000000000000021
 21
116.65000000000001
 31
0.0
  0
LINE
  5
80
  8
DIMNSIONS
  6
CONTINUOUS
 62
     7
 10
-50.000000000000021
 20
33.349999999999987
 30
0.0
 11
-51.340079590300498
 21
38.351245117187489
 31
0.0
  0
LINE
  5
81
  8
DIMNSIONS
  6
CONTINUOUS
 62
     7
 10
-50.000000000000021
 20
33.349999999999987
 30
0.0
 11
-48.659920409699531
 21
38.351245117187489
 31
0.0
  0
LINE
  5
82
  8
DIMNSIONS
  6
CONTINUOUS
 62
     7
 10
-50.000000000000021
 20
116.65000000000001
 30
0.0
 11
-48.659920409699531
 21
111.6487548828125
 31
0.0
  0
LINE
  5
83
  8
DIMNSIONS
  6
CONTINUOUS
 62
     7
 10
-50.000000000000021
 20
116.65000000000001
 30
0.0
 11
-51.340079590300498
 21
111.6487548828125
 31
0.0
  0
TEXT
  5
84
  8
DIMNSIONS
 62
     7
 10
-51.987777777777772
 20
67.944444444444471
 30
0.0
 40
5.4294704861111107
  1
83.3
 50
90.0
 41
0.7
 11
-57.417248263888887
 21
67.944444444444471
 31
0.0
 73
     3
  0
LINE
  5
85
  8
DIMNSIONS
  6
CONTINUOUS
 62
     7
 10
-35.000000000000007
 20
15.75
 30
0.0
 11
-35.000000000000007
 21
-16.5
 31
0.0
  0
LINE
  5
86
  8
DIMNSIONS
  6
CONTINUOUS
 62
     7
 10
35.000000000000028
 20
15.75
 30
0.0
 11
35.000000000000028
 21
-16.5
 31
0.0
  0
LINE
  5
87
  8
DIMNSIONS
  6
CONTINUOUS
 62
     7
 10
-35.000000000000007
 20
-12.5
 30
0.0
 11
35.000000000000028
 21
-12.5
 31
0.0
  0
LINE
  5
88
  8
DIMNSIONS
  6
CONTINUOUS
 62
     7
 10
-35.000000000000007
 20
-12.5
 30
0.0
 11
-29.99875488281252
 21
-11.159920409699501
 31
0.0
  0
LINE
  5
89
  8
DIMNSIONS
  6
CONTINUOUS
 62
     7
 10
-35.000000000000007
 20
-12.5
 30
0.0
 11
-29.99875488281252
 21
-13.840079590300491
 31
0.0
  0
LINE
  5
8A
  8
DIMNSIONS
  6
CONTINUOUS
 62
     7
 10
35.000000000000028
 20
-12.5
 30
0.0
 11
29.998754882812531
 21
-13.840079590300491
 31
0.0
  0
LINE
  5
8B
  8
DIMNSIONS
  6
CONTINUOUS
 62
     7
 10
35.000000000000028
 20
-12.5
 30
0.0
 11
29.998754882812531
 21
-11.159920409699501
 31
0.0
  0
TEXT
  5
8C
  8
DIMNSIONS
 62
     7
 10
-3.5277777777777568
 20
-10.51222222222224
 30
0.0
 40
5.4294704861111107
  1
70
 41
0.7
 11
-3.5277777777777568
 21
-5.0827517361111347
 31
0.0
 73
     3
  0
TEXT
  5
8D
  8
DATA
 62
     7
 10
-60.0
 20
-107.99218500000001
 30
0.0
 40
3.2576822916666659
  1
仕様および外観は予告なく変更されることがありますので、ご了承ください。
 41
0.7
 11
-60.0
 21
-104.7345027083333
 31
0.0
 73
     3
  0
TEXT
  5
8E
  8
DATA
 62
     7
 10
200.0
 20
-79.706404999999933
 30
0.0
 40
4.8865234375000002
  1
dbx
 41
0.7
 11
200.0
 21
-74.81988156249993
 31
0.0
 73
     3
  0
TEXT
  5
8F
  8
DATA
 62
     7
 10
200.0
 20
-94.206404999999947
 30
0.0
 40
4.8865234375000002
  1
ZC-8
 41
0.7
 11
200.0
 21
-89.319881562499944
 31
0.0
 73
     3
  0
TEXT
  5
90
  8
DATA
 62
     7
 10
195.0
 20
-86.914315000000002
 30
0.0
 40
3.8006293402777769
  1
レベルコントローラ
 41
0.7
 11
195.0
 21
-83.113685659722208
 31
0.0
 73
     3
  0
LINE
  5
91
  8
DATA
  6
CONTINUOUS
 62
     7
 10
243.82859134127779
 20
85.75436816129293
 30
0.0
 11
242.60930178767421
 21
85.75436816129293
 31
0.0
  0
LINE
  5
92
  8
DATA
  6
CONTINUOUS
 62
     7
 10
243.82859134127779
 20
86.262118610633578
 30
0.0
 11
243.82859134127779
 21
85.75436816129293
 31
0.0
  0
LINE
  5
93
  8
DATA
  6
CONTINUOUS
 62
     7
 10
243.82859134127779
 20
86.262118610633578
 30
0.0
 11
242.60930178767421
 21
86.262118610633578
 31
0.0
  0
LINE
  5
94
  8
DATA
  6
CONTINUOUS
 62
     7
 10
243.82859134127779
 20
93.875965687596675
 30
0.0
 11
243.82859134127779
 21
93.368559475848414
 31
0.0
  0
LINE
  5
95
  8
DATA
  6
CONTINUOUS
 62
     7
 10
243.82859134127779
 20
93.368559475848414
 30
0.0
 11
242.60930178767421
 21
93.368559475848414
 31
0.0
  0
LINE
  5
96
  8
DATA
  6
CONTINUOUS
 62
     7
 10
243.82859134127779
 20
93.875965687596675
 30
0.0
 11
242.60930178767421
 21
93.875965687596675
 31
0.0
  0
LINE
  5
97
  8
DATA
  6
CONTINUOUS
 62
     7
 10
243.82859134127779
 20
88.799838144559686
 30
0.0
 11
243.82859134127779
 21
88.292431932811425
 31
0.0
  0
LINE
  5
98
  8
DATA
  6
CONTINUOUS
 62
     7
 10
243.82859134127779
 20
88.799838144559686
 30
0.0
 11
242.60930178767421
 21
88.799838144559686
 31
0.0
  0
LINE
  5
99
  8
DATA
  6
CONTINUOUS
 62
     7
 10
243.82859134127779
 20
88.292431932811425
 30
0.0
 11
242.60930178767421
 21
88.292431932811425
 31
0.0
  0
LINE
  5
9A
  8
DATA
  6
CONTINUOUS
 62
     7
 10
243.82859134127779
 20
91.337901916078181
 30
0.0
 11
242.60930178767421
 21
91.337901916078181
 31
0.0
  0
LINE
  5
9B
  8
DATA
  6
CONTINUOUS
 62
     7
 10
243.82859134127779
 20
91.337901916078181
 30
0.0
 11
243.82859134127779
 21
90.830495704329934
 31
0.0
  0
LINE
  5
9C
  8
DATA
  6
CONTINUOUS
 62
     7
 10
243.82859134127779
 20
90.830495704329934
 30
0.0
 11
242.60930178767421
 21
90.830495704329934
 31
0.0
  0
LINE
  5
9D
  8
DATA
  6
CONTINUOUS
 62
     7
 10
243.82859134127779
 20
83.724054839115098
 30
0.0
 11
243.82859134127779
 21
83.216304389774436
 31
0.0
  0
LINE
  5
9E
  8
DATA
  6
CONTINUOUS
 62
     7
 10
243.82859134127779
 20
83.216304389774436
 30
0.0
 11
242.60930178767421
 21
83.216304389774436
 31
0.0
  0
LINE
  5
9F
  8
DATA
  6
CONTINUOUS
 62
     7
 10
243.82859134127779
 20
83.724054839115098
 30
0.0
 11
242.60930178767421
 21
83.724054839115098
 31
0.0
  0
LINE
  5
A0
  8
DATA
  6
CONTINUOUS
 62
     7
 10
243.82859134127779
 20
96.414029459115156
 30
0.0
 11
242.60930178767421
 21
96.414029459115156
 31
0.0
  0
LINE
  5
A1
  8
DATA
  6
CONTINUOUS
 62
     7
 10
243.82859134127779
 20
95.906279009774451
 30
0.0
 11
242.60930178767421
 21
95.906279009774451
 31
0.0
  0
LINE
  5
A2
  8
DATA
  6
CONTINUOUS
 62
     7
 10
243.82859134127779
 20
96.414029459115156
 30
0.0
 11
243.82859134127779
 21
95.906279009774451
 31
0.0
  0
LINE
  5
A3
  8
DATA
  6
CONTINUOUS
 62
     7
 10
35.000000000000028
 20
130.25
 30
0.0
 11
35.000000000000028
 21
19.75
 31
0.0
  0
LINE
  5
A4
  8
DATA
  6
CONTINUOUS
 62
     7
 10
-35.000000000000007
 20
19.75
 30
0.0
 11
-35.000000000000007
 21
130.25
 31
0.0
  0
TEXT
  5
A5
  8
DATA
 62
     7
 10
-9.3575319783606954
 20
43.700339023110743
 30
0.0
 40
1.357367621527777
  1
PROFESSIONAL PRODUCTS  
 41
0.7
 11
-9.3575319783606954
 21
45.057706644638507
 31
0.0
 73
     3
  0
TEXT
  5
A6
  8
DATA
 62
     7
 10
-4.2827586249638596
 20
39.056448510603758
 30
0.0
 40
3.078125
  1
ZC-8
 41
0.7
 11
-4.2827586249638596
 21
42.134573510603758
 31
0.0
 73
     3
  0
POLYLINE
  5
A7
  8
DATA
  6
CONTINUOUS
 62
     7
 66
     1
 10
0.0
 20
0.0
 30
0.0
 70
     1
  0
VERTEX
  5
753
  8
DATA
  6
CONTINUOUS
 62
     7
 10
128.39999999999981
 20
110.0
 30
0.0
  0
VERTEX
  5
754
  8
DATA
  6
CONTINUOUS
 62
     7
 10
171.60000000000011
 20
110.0
 30
0.0
  0
VERTEX
  5
755
  8
DATA
  6
CONTINUOUS
 62
     7
 10
171.60000000000011
 20
40.0
 30
0.0
  0
VERTEX
  5
756
  8
DATA
  6
CONTINUOUS
 62
     7
 10
128.39999999999981
 20
40.0
 30
0.0
  0
SEQEND
  5
757
  8
DATA
  6
CONTINUOUS
 62
     7
  0
POLYLINE
  5
AE
  8
DATA
  6
CONTINUOUS
 62
     7
 66
     1
 10
0.0
 20
0.0
 30
0.0
  0
VERTEX
  5
758
  8
DATA
  6
CONTINUOUS
 62
     7
 10
131.87536788056141
 20
58.140916940344177
 30
0.0
  0
VERTEX
  5
759
  8
DATA
  6
CONTINUOUS
 62
     7
 10
131.87536788056141
 20
53.540916940344161
 30
0.0
  0
VERTEX
  5
75A
  8
DATA
  6
CONTINUOUS
 62
     7
 10
143.5753678805614
 20
53.540916940344161
 30
0.0
  0
VERTEX
  5
75B
  8
DATA
  6
CONTINUOUS
 62
     7
 10
143.5753678805614
 20
67.24091694034432
 30
0.0
  0
VERTEX
  5
75C
  8
DATA
  6
CONTINUOUS
 62
     7
 10
131.87536788056141
 20
67.24091694034432
 30
0.0
  0
VERTEX
  5
75D
  8
DATA
  6
CONTINUOUS
 62
     7
 10
131.87536788056141
 20
62.640916940344191
 30
0.0
  0
SEQEND
  5
75E
  8
DATA
  6
CONTINUOUS
 62
     7
  0
LINE
  5
B7
  8
DATA
  6
CONTINUOUS
 62
     7
 10
130.87536788056141
 20
62.640916940344191
 30
0.0
 11
131.87536788056141
 21
62.640916940344191
 31
0.0
  0
LINE
  5
B8
  8
DATA
  6
CONTINUOUS
 62
     7
 10
130.87536788056141
 20
58.140916940344177
 30
0.0
 11
130.87536788056141
 21
62.640916940344191
 31
0.0
  0
LINE
  5
B9
  8
DATA
  6
CONTINUOUS
 62
     7
 10
131.87536788056141
 20
58.140916940344177
 30
0.0
 11
130.87536788056141
 21
58.140916940344177
 31
0.0
  0
LINE
  5
BA
  8
DATA
  6
CONTINUOUS
 62
     7
 10
135.5753678805614
 20
66.440916940344295
 30
0.0
 11
143.5753678805614
 21
66.440916940344295
 31
0.0
  0
LINE
  5
BB
  8
DATA
  6
CONTINUOUS
 62
     7
 10
135.5753678805614
 20
54.340916940344151
 30
0.0
 11
143.5753678805614
 21
54.340916940344151
 31
0.0
  0
LINE
  5
BC
  8
DATA
  6
CONTINUOUS
 62
     7
 10
135.5753678805614
 20
54.340916940344151
 30
0.0
 11
135.5753678805614
 21
58.240916940344178
 31
0.0
  0
LINE
  5
BD
  8
DATA
  6
CONTINUOUS
 62
     7
 10
135.5753678805614
 20
58.240916940344178
 30
0.0
 11
132.12569074059181
 21
58.240916940344178
 31
0.0
  0
LINE
  5
BE
  8
DATA
  6
CONTINUOUS
 62
     7
 10
135.5753678805614
 20
66.440916940344295
 30
0.0
 11
135.5753678805614
 21
62.540916940344182
 31
0.0
  0
LINE
  5
BF
  8
DATA
  6
CONTINUOUS
 62
     7
 10
135.5753678805614
 20
62.540916940344182
 30
0.0
 11
132.12569074059181
 21
62.540916940344182
 31
0.0
  0
LINE
  5
C0
  8
DATA
  6
CONTINUOUS
 62
     7
 10
132.12569074059181
 20
58.240916940344178
 30
0.0
 11
132.12569074059181
 21
62.540916940344182
 31
0.0
  0
LINE
  5
C1
  8
DATA
  6
CONTINUOUS
 62
     7
 10
62.724230434059848
 20
107.1413941462215
 30
0.0
 11
61.111510299385031
 21
107.1413941462215
 31
0.0
  0
LINE
  5
C2
  8
DATA
  6
CONTINUOUS
 62
     7
 10
58.964693832407292
 20
109.9084965451846
 30
0.0
 11
58.964693832407292
 21
40.113636135184322
 31
0.0
  0
LINE
  5
C3
  8
DATA
  6
CONTINUOUS
 62
     7
 10
57.391183795839368
 20
109.9084965451846
 30
0.0
 11
57.391183795839368
 21
40.113636135184322
 31
0.0
  0
LINE
  5
C4
  8
DATA
  6
CONTINUOUS
 62
     7
 10
231.20930178767409
 20
98.145094078500989
 30
0.0
 11
231.20930178767409
 21
81.645094078500989
 31
0.0
  0
LINE
  5
C5
  8
DATA
  6
CONTINUOUS
 62
     7
 10
231.20930178767409
 20
81.645094078500989
 30
0.0
 11
241.0357917511063
 21
81.645094078500989
 31
0.0
  0
LINE
  5
C6
  8
DATA
  6
CONTINUOUS
 62
     7
 10
241.0357917511063
 20
98.145094078500989
 30
0.0
 11
231.20930178767409
 21
98.145094078500989
 31
0.0
  0
POLYLINE
  5
C7
  8
DATA
  6
CONTINUOUS
 62
     7
 66
     1
 10
0.0
 20
0.0
 30
0.0
 70
     1
  0
VERTEX
  5
75F
  8
DATA
  6
CONTINUOUS
 62
     7
 10
234.30930178767429
 20
96.845094078501006
 30
0.0
  0
VERTEX
  5
760
  8
DATA
  6
CONTINUOUS
 62
     7
 10
237.8093017876742
 20
96.845094078501006
 30
0.0
  0
VERTEX
  5
761
  8
DATA
  6
CONTINUOUS
 62
     7
 10
237.8093017876742
 20
95.545094078501009
 30
0.0
  0
VERTEX
  5
762
  8
DATA
  6
CONTINUOUS
 62
     7
 10
234.30930178767429
 20
95.545094078501009
 30
0.0
  0
SEQEND
  5
763
  8
DATA
  6
CONTINUOUS
 62
     7
  0
LINE
  5
CE
  8
DATA
  6
CONTINUOUS
 62
     7
 10
236.5093017876743
 20
95.545094078501009
 30
0.0
 11
236.5093017876743
 21
96.845094078501006
 31
0.0
  0
POLYLINE
  5
CF
  8
DATA
  6
CONTINUOUS
 62
     7
 66
     1
 10
0.0
 20
0.0
 30
0.0
 70
     1
  0
VERTEX
  5
764
  8
DATA
  6
CONTINUOUS
 62
     7
 10
234.30930178767429
 20
94.445094078501
 30
0.0
  0
VERTEX
  5
765
  8
DATA
  6
CONTINUOUS
 62
     7
 10
237.8093017876742
 20
94.445094078501
 30
0.0
  0
VERTEX
  5
766
  8
DATA
  6
CONTINUOUS
 62
     7
 10
237.8093017876742
 20
93.145094078500989
 30
0.0
  0
VERTEX
  5
767
  8
DATA
  6
CONTINUOUS
 62
     7
 10
234.30930178767429
 20
93.145094078500989
 30
0.0
  0
SEQEND
  5
768
  8
DATA
  6
CONTINUOUS
 62
     7
  0
LINE
  5
D6
  8
DATA
  6
CONTINUOUS
 62
     7
 10
236.5093017876743
 20
93.145094078500989
 30
0.0
 11
236.5093017876743
 21
94.445094078501
 31
0.0
  0
POLYLINE
  5
D7
  8
DATA
  6
CONTINUOUS
 62
     7
 66
     1
 10
0.0
 20
0.0
 30
0.0
 70
     1
  0
VERTEX
  5
769
  8
DATA
  6
CONTINUOUS
 62
     7
 10
234.30930178767429
 20
92.045094078501009
 30
0.0
  0
VERTEX
  5
76A
  8
DATA
  6
CONTINUOUS
 62
     7
 10
237.8093017876742
 20
92.045094078501009
 30
0.0
  0
VERTEX
  5
76B
  8
DATA
  6
CONTINUOUS
 62
     7
 10
237.8093017876742
 20
90.745094078500983
 30
0.0
  0
VERTEX
  5
76C
  8
DATA
  6
CONTINUOUS
 62
     7
 10
234.30930178767429
 20
90.745094078500983
 30
0.0
  0
SEQEND
  5
76D
  8
DATA
  6
CONTINUOUS
 62
     7
  0
LINE
  5
DE
  8
DATA
  6
CONTINUOUS
 62
     7
 10
236.5093017876743
 20
90.745094078500983
 30
0.0
 11
236.5093017876743
 21
92.045094078501009
 31
0.0
  0
POLYLINE
  5
DF
  8
DATA
  6
CONTINUOUS
 62
     7
 66
     1
 10
0.0
 20
0.0
 30
0.0
 70
     1
  0
VERTEX
  5
76E
  8
DATA
  6
CONTINUOUS
 62
     7
 10
234.30930178767429
 20
89.645094078501003
 30
0.0
  0
VERTEX
  5
76F
  8
DATA
  6
CONTINUOUS
 62
     7
 10
237.8093017876742
 20
89.645094078501003
 30
0.0
  0
VERTEX
  5
770
  8
DATA
  6
CONTINUOUS
 62
     7
 10
237.8093017876742
 20
88.34509407850102
 30
0.0
  0
VERTEX
  5
771
  8
DATA
  6
CONTINUOUS
 62
     7
 10
234.30930178767429
 20
88.34509407850102
 30
0.0
  0
SEQEND
  5
772
  8
DATA
  6
CONTINUOUS
 62
     7
  0
LINE
  5
E6
  8
DATA
  6
CONTINUOUS
 62
     7
 10
236.5093017876743
 20
88.34509407850102
 30
0.0
 11
236.5093017876743
 21
89.645094078501003
 31
0.0
  0
POLYLINE
  5
E7
  8
DATA
  6
CONTINUOUS
 62
     7
 66
     1
 10
0.0
 20
0.0
 30
0.0
 70
     1
  0
VERTEX
  5
773
  8
DATA
  6
CONTINUOUS
 62
     7
 10
234.30930178767429
 20
87.245094078501012
 30
0.0
  0
VERTEX
  5
774
  8
DATA
  6
CONTINUOUS
 62
     7
 10
237.8093017876742
 20
87.245094078501012
 30
0.0
  0
VERTEX
  5
775
  8
DATA
  6
CONTINUOUS
 62
     7
 10
237.8093017876742
 20
85.945094078501015
 30
0.0
  0
VERTEX
  5
776
  8
DATA
  6
CONTINUOUS
 62
     7
 10
234.30930178767429
 20
85.945094078501015
 30
0.0
  0
SEQEND
  5
777
  8
DATA
  6
CONTINUOUS
 62
     7
  0
LINE
  5
EE
  8
DATA
  6
CONTINUOUS
 62
     7
 10
236.5093017876743
 20
85.945094078501015
 30
0.0
 11
236.5093017876743
 21
87.245094078501012
 31
0.0
  0
POLYLINE
  5
EF
  8
DATA
  6
CONTINUOUS
 62
     7
 66
     1
 10
0.0
 20
0.0
 30
0.0
 70
     1
  0
VERTEX
  5
778
  8
DATA
  6
CONTINUOUS
 62
     7
 10
234.30930178767429
 20
84.845094078500992
 30
0.0
  0
VERTEX
  5
779
  8
DATA
  6
CONTINUOUS
 62
     7
 10
237.8093017876742
 20
84.845094078500992
 30
0.0
  0
VERTEX
  5
77A
  8
DATA
  6
CONTINUOUS
 62
     7
 10
237.8093017876742
 20
83.545094078500995
 30
0.0
  0
VERTEX
  5
77B
  8
DATA
  6
CONTINUOUS
 62
     7
 10
234.30930178767429
 20
83.545094078500995
 30
0.0
  0
SEQEND
  5
77C
  8
DATA
  6
CONTINUOUS
 62
     7
  0
LINE
  5
F6
  8
DATA
  6
CONTINUOUS
 62
     7
 10
236.5093017876743
 20
83.545094078500995
 30
0.0
 11
236.5093017876743
 21
84.845094078500992
 31
0.0
  0
TEXT
  5
F7
  8
DATA
 62
     7
 10
233.10999044405949
 20
84.810738671235029
 30
0.0
 40
0.9234375000000001
  1
ON
 50
90.0
 41
0.7
 11
232.18655294405951
 21
84.810738671235029
 31
0.0
 73
     3
  0
TEXT
  5
F8
  8
DATA
 62
     7
 10
239.5453121809021
 20
83.799809775631815
 30
0.0
 40
0.9234375000000001
  1
1
 50
90.0
 41
0.7
 11
238.6218746809021
 21
83.799809775631815
 31
0.0
 73
     3
  0
TEXT
  5
F9
  8
DATA
 62
     7
 10
239.5453121809021
 20
86.199809775631806
 30
0.0
 40
0.9234375000000001
  1
2
 50
90.0
 41
0.7
 11
238.6218746809021
 21
86.199809775631806
 31
0.0
 73
     3
  0
TEXT
  5
FA
  8
DATA
 62
     7
 10
239.5453121809021
 20
88.599809775631797
 30
0.0
 40
0.9234375000000001
  1
3
 50
90.0
 41
0.7
 11
238.6218746809021
 21
88.599809775631797
 31
0.0
 73
     3
  0
TEXT
  5
FB
  8
DATA
 62
     7
 10
239.5453121809021
 20
90.999809775631789
 30
0.0
 40
0.9234375000000001
  1
4
 50
90.0
 41
0.7
 11
238.6218746809021
 21
90.999809775631789
 31
0.0
 73
     3
  0
TEXT
  5
FC
  8
DATA
 62
     7
 10
239.5453121809021
 20
93.399809775631809
 30
0.0
 40
0.9234375000000001
  1
5
 50
90.0
 41
0.7
 11
238.6218746809021
 21
93.399809775631809
 31
0.0
 73
     3
  0
TEXT
  5
FD
  8
DATA
 62
     7
 10
239.5453121809021
 20
95.799809775631786
 30
0.0
 40
0.9234375000000001
  1
6
 50
90.0
 41
0.7
 11
238.6218746809021
 21
95.799809775631786
 31
0.0
 73
     3
  0
LINE
  5
FE
  8
DATA
  6
CONTINUOUS
 62
     7
 10
62.72423043405972
 20
107.1413941462215
 30
0.0
 11
58.964693832407292
 21
107.1413941462215
 31
0.0
  0
LINE
  5
FF
  8
DATA
  6
CONTINUOUS
 62
     7
 10
63.12721480422374
 20
101.7609605711727
 30
0.0
 11
58.964693832407292
 21
101.7609605711727
 31
0.0
  0
POLYLINE
  5
100
  8
DATA
  6
CONTINUOUS
 62
     7
 66
     1
 10
0.0
 20
0.0
 30
0.0
 70
     1
  0
VERTEX
  5
77D
  8
DATA
  6
CONTINUOUS
 62
     7
 10
57.391183795839368
 20
107.8011773586971
 30
0.0
  0
VERTEX
  5
77E
  8
DATA
  6
CONTINUOUS
 62
     7
 10
55.0
 20
107.8011773586971
 30
0.0
  0
VERTEX
  5
77F
  8
DATA
  6
CONTINUOUS
 62
     7
 10
55.0
 20
101.1011773586971
 30
0.0
  0
VERTEX
  5
780
  8
DATA
  6
CONTINUOUS
 62
     7
 10
57.391183795839368
 20
101.1011773586971
 30
0.0
  0
SEQEND
  5
781
  8
DATA
  6
CONTINUOUS
 62
     7
  0
POLYLINE
  5
107
  8
DATA
  6
CONTINUOUS
 62
     7
 66
     1
 10
0.0
 20
0.0
 30
0.0
 70
   128
  0
VERTEX
  5
782
  8
DATA
  6
CONTINUOUS
 62
     7
 10
56.391183795839368
 20
48.819655848378581
 30
0.0
  0
VERTEX
  5
783
  8
DATA
  6
CONTINUOUS
 62
     7
 10
55.0
 20
48.819655848378581
 30
0.0
  0
VERTEX
  5
784
  8
DATA
  6
CONTINUOUS
 62
     7
 10
55.0
 20
42.119655848378599
 30
0.0
  0
VERTEX
  5
785
  8
DATA
  6
CONTINUOUS
 62
     7
 10
56.391183795839368
 20
42.119655848378599
 30
0.0
  0
SEQEND
  5
786
  8
DATA
  6
CONTINUOUS
 62
     7
  0
LINE
  5
10D
  8
DATA
  6
CONTINUOUS
 62
     7
 10
55.0
 20
107.8011773586971
 30
0.0
 11
55.0
 21
101.1011773586971
 31
0.0
  0
CIRCLE
  5
10E
  8
DATA
  6
CONTINUOUS
 62
     7
 10
133.51378785643811
 20
104.43619405604819
 30
0.0
 40
3.3503691950977119
  0
POLYLINE
  5
10F
  8
DATA
  6
CONTINUOUS
 62
     7
 66
     1
 10
0.0
 20
0.0
 30
0.0
  0
VERTEX
  5
787
  8
DATA
  6
CONTINUOUS
 62
     7
 10
134.0137878564382
 20
104.93619405604829
 30
0.0
  0
VERTEX
  5
788
  8
DATA
  6
CONTINUOUS
 62
     7
 10
134.0137878564382
 20
106.93619405604829
 30
0.0
  0
VERTEX
  5
789
  8
DATA
  6
CONTINUOUS
 62
     7
 10
133.0137878564382
 20
106.93619405604829
 30
0.0
  0
VERTEX
  5
78A
  8
DATA
  6
CONTINUOUS
 62
     7
 10
133.0137878564382
 20
104.93619405604829
 30
0.0
  0
SEQEND
  5
78B
  8
DATA
  6
CONTINUOUS
 62
     7
  0
POLYLINE
  5
116
  8
DATA
  6
CONTINUOUS
 62
     7
 66
     1
 10
0.0
 20
0.0
 30
0.0
  0
VERTEX
  5
78C
  8
DATA
  6
CONTINUOUS
 62
     7
 10
134.0137878564382
 20
103.93619405604829
 30
0.0
  0
VERTEX
  5
78D
  8
DATA
  6
CONTINUOUS
 62
     7
 10
134.0137878564382
 20
101.93619405604829
 30
0.0
  0
VERTEX
  5
78E
  8
DATA
  6
CONTINUOUS
 62
     7
 10
133.0137878564382
 20
101.93619405604829
 30
0.0
  0
VERTEX
  5
78F
  8
DATA
  6
CONTINUOUS
 62
     7
 10
133.0137878564382
 20
103.93619405604829
 30
0.0
  0
SEQEND
  5
790
  8
DATA
  6
CONTINUOUS
 62
     7
  0
POLYLINE
  5
11D
  8
DATA
  6
CONTINUOUS
 62
     7
 66
     1
 10
0.0
 20
0.0
 30
0.0
  0
VERTEX
  5
791
  8
DATA
  6
CONTINUOUS
 62
     7
 10
133.0137878564382
 20
103.93619405604829
 30
0.0
  0
VERTEX
  5
792
  8
DATA
  6
CONTINUOUS
 62
     7
 10
131.0137878564382
 20
103.93619405604829
 30
0.0
  0
VERTEX
  5
793
  8
DATA
  6
CONTINUOUS
 62
     7
 10
131.0137878564382
 20
104.93619405604829
 30
0.0
  0
VERTEX
  5
794
  8
DATA
  6
CONTINUOUS
 62
     7
 10
133.0137878564382
 20
104.93619405604829
 30
0.0
  0
SEQEND
  5
795
  8
DATA
  6
CONTINUOUS
 62
     7
  0
POLYLINE
  5
124
  8
DATA
  6
CONTINUOUS
 62
     7
 66
     1
 10
0.0
 20
0.0
 30
0.0
  0
VERTEX
  5
796
  8
DATA
  6
CONTINUOUS
 62
     7
 10
134.0137878564382
 20
103.93619405604829
 30
0.0
  0
VERTEX
  5
797
  8
DATA
  6
CONTINUOUS
 62
     7
 10
136.0137878564382
 20
103.93619405604829
 30
0.0
  0
VERTEX
  5
798
  8
DATA
  6
CONTINUOUS
 62
     7
 10
136.0137878564382
 20
104.93619405604829
 30
0.0
  0
VERTEX
  5
799
  8
DATA
  6
CONTINUOUS
 62
     7
 10
134.0137878564382
 20
104.93619405604829
 30
0.0
  0
SEQEND
  5
79A
  8
DATA
  6
CONTINUOUS
 62
     7
  0
CIRCLE
  5
12B
  8
DATA
  6
CONTINUOUS
 62
     7
 10
149.99749326071449
 20
45.473112392000942
 30
0.0
 40
3.3503691950977039
  0
POLYLINE
  5
12C
  8
DATA
  6
CONTINUOUS
 62
     7
 66
     1
 10
0.0
 20
0.0
 30
0.0
  0
VERTEX
  5
79B
  8
DATA
  6
CONTINUOUS
 62
     7
 10
150.49749326071441
 20
45.973112392000928
 30
0.0
  0
VERTEX
  5
79C
  8
DATA
  6
CONTINUOUS
 62
     7
 10
150.49749326071441
 20
47.973112392000942
 30
0.0
  0
VERTEX
  5
79D
  8
DATA
  6
CONTINUOUS
 62
     7
 10
149.49749326071441
 20
47.973112392000942
 30
0.0
  0
VERTEX
  5
79E
  8
DATA
  6
CONTINUOUS
 62
     7
 10
149.49749326071441
 20
45.973112392000928
 30
0.0
  0
SEQEND
  5
79F
  8
DATA
  6
CONTINUOUS
 62
     7
  0
POLYLINE
  5
133
  8
DATA
  6
CONTINUOUS
 62
     7
 66
     1
 10
0.0
 20
0.0
 30
0.0
  0
VERTEX
  5
7A0
  8
DATA
  6
CONTINUOUS
 62
     7
 10
150.49749326071441
 20
44.973112392000928
 30
0.0
  0
VERTEX
  5
7A1
  8
DATA
  6
CONTINUOUS
 62
     7
 10
150.49749326071441
 20
42.973112392000942
 30
0.0
  0
VERTEX
  5
7A2
  8
DATA
  6
CONTINUOUS
 62
     7
 10
149.49749326071441
 20
42.973112392000942
 30
0.0
  0
VERTEX
  5
7A3
  8
DATA
  6
CONTINUOUS
 62
     7
 10
149.49749326071441
 20
44.973112392000928
 30
0.0
  0
SEQEND
  5
7A4
  8
DATA
  6
CONTINUOUS
 62
     7
  0
POLYLINE
  5
13A
  8
DATA
  6
CONTINUOUS
 62
     7
 66
     1
 10
0.0
 20
0.0
 30
0.0
  0
VERTEX
  5
7A5
  8
DATA
  6
CONTINUOUS
 62
     7
 10
149.49749326071441
 20
44.973112392000928
 30
0.0
  0
VERTEX
  5
7A6
  8
DATA
  6
CONTINUOUS
 62
     7
 10
147.49749326071441
 20
44.973112392000928
 30
0.0
  0
VERTEX
  5
7A7
  8
DATA
  6
CONTINUOUS
 62
     7
 10
147.49749326071441
 20
45.973112392000928
 30
0.0
  0
VERTEX
  5
7A8
  8
DATA
  6
CONTINUOUS
 62
     7
 10
149.49749326071441
 20
45.973112392000928
 30
0.0
  0
SEQEND
  5
7A9
  8
DATA
  6
CONTINUOUS
 62
     7
  0
POLYLINE
  5
141
  8
DATA
  6
CONTINUOUS
 62
     7
 66
     1
 10
0.0
 20
0.0
 30
0.0
  0
VERTEX
  5
7AA
  8
DATA
  6
CONTINUOUS
 62
     7
 10
150.49749326071441
 20
44.973112392000928
 30
0.0
  0
VERTEX
  5
7AB
  8
DATA
  6
CONTINUOUS
 62
     7
 10
152.49749326071441
 20
44.973112392000928
 30
0.0
  0
VERTEX
  5
7AC
  8
DATA
  6
CONTINUOUS
 62
     7
 10
152.49749326071441
 20
45.973112392000928
 30
0.0
  0
VERTEX
  5
7AD
  8
DATA
  6
CONTINUOUS
 62
     7
 10
150.49749326071441
 20
45.973112392000928
 30
0.0
  0
SEQEND
  5
7AE
  8
DATA
  6
CONTINUOUS
 62
     7
  0
POLYLINE
  5
148
  8
DATA
  6
CONTINUOUS
 62
     7
 66
     1
 10
0.0
 20
0.0
 30
0.0
  0
VERTEX
  5
7AF
  8
DATA
  6
CONTINUOUS
 62
     7
 10
131.87536788056141
 20
73.718011940191843
 30
0.0
  0
VERTEX
  5
7B0
  8
DATA
  6
CONTINUOUS
 62
     7
 10
131.87536788056141
 20
69.118011940191806
 30
0.0
  0
VERTEX
  5
7B1
  8
DATA
  6
CONTINUOUS
 62
     7
 10
143.5753678805614
 20
69.118011940191806
 30
0.0
  0
VERTEX
  5
7B2
  8
DATA
  6
CONTINUOUS
 62
     7
 10
143.5753678805614
 20
82.818011940191951
 30
0.0
  0
VERTEX
  5
7B3
  8
DATA
  6
CONTINUOUS
 62
     7
 10
131.87536788056141
 20
82.818011940191951
 30
0.0
  0
VERTEX
  5
7B4
  8
DATA
  6
CONTINUOUS
 62
     7
 10
131.87536788056141
 20
78.218011940191843
 30
0.0
  0
SEQEND
  5
7B5
  8
DATA
  6
CONTINUOUS
 62
     7
  0
LINE
  5
151
  8
DATA
  6
CONTINUOUS
 62
     7
 10
130.87536788056141
 20
78.218011940191843
 30
0.0
 11
131.87536788056141
 21
78.218011940191843
 31
0.0
  0
LINE
  5
152
  8
DATA
  6
CONTINUOUS
 62
     7
 10
130.87536788056141
 20
73.718011940191843
 30
0.0
 11
130.87536788056141
 21
78.218011940191843
 31
0.0
  0
LINE
  5
153
  8
DATA
  6
CONTINUOUS
 62
     7
 10
131.87536788056141
 20
73.718011940191843
 30
0.0
 11
130.87536788056141
 21
73.718011940191843
 31
0.0
  0
LINE
  5
154
  8
DATA
  6
CONTINUOUS
 62
     7
 10
135.5753678805614
 20
82.018011940191954
 30
0.0
 11
143.5753678805614
 21
82.018011940191954
 31
0.0
  0
LINE
  5
155
  8
DATA
  6
CONTINUOUS
 62
     7
 10
135.5753678805614
 20
69.918011940191789
 30
0.0
 11
143.5753678805614
 21
69.918011940191789
 31
0.0
  0
LINE
  5
156
  8
DATA
  6
CONTINUOUS
 62
     7
 10
135.5753678805614
 20
69.918011940191789
 30
0.0
 11
135.5753678805614
 21
73.818011940191809
 31
0.0
  0
LINE
  5
157
  8
DATA
  6
CONTINUOUS
 62
     7
 10
135.5753678805614
 20
73.818011940191809
 30
0.0
 11
132.12569074059181
 21
73.818011940191809
 31
0.0
  0
LINE
  5
158
  8
DATA
  6
CONTINUOUS
 62
     7
 10
135.5753678805614
 20
82.018011940191954
 30
0.0
 11
135.5753678805614
 21
78.118011940191806
 31
0.0
  0
LINE
  5
159
  8
DATA
  6
CONTINUOUS
 62
     7
 10
135.5753678805614
 20
78.118011940191806
 30
0.0
 11
132.12569074059181
 21
78.118011940191806
 31
0.0
  0
LINE
  5
15A
  8
DATA
  6
CONTINUOUS
 62
     7
 10
132.12569074059181
 20
73.818011940191809
 30
0.0
 11
132.12569074059181
 21
78.118011940191806
 31
0.0
  0
LINE
  5
15B
  8
DATA
  6
CONTINUOUS
 62
     7
 10
56.391183795839368
 20
48.819655848378581
 30
0.0
 11
57.391183795839368
 21
48.819655848378581
 31
0.0
  0
LINE
  5
15C
  8
DATA
  6
CONTINUOUS
 62
     7
 10
56.391183795839368
 20
42.119655848378599
 30
0.0
 11
57.391183795839368
 21
42.119655848378599
 31
0.0
  0
LINE
  5
15D
  8
DATA
  6
CONTINUOUS
 62
     7
 10
68.457389690727211
 20
48.160044754699364
 30
0.0
 11
58.964693832407292
 21
48.160044754699364
 31
0.0
  0
LINE
  5
15E
  8
DATA
  6
CONTINUOUS
 62
     7
 10
68.420000000000016
 20
42.779266942057831
 30
0.0
 11
58.964693832407292
 21
42.779266942057831
 31
0.0
  0
POLYLINE
  5
15F
  8
DATA
  6
CONTINUOUS
 62
     7
 66
     1
 10
0.0
 20
0.0
 30
0.0
 70
     1
  0
VERTEX
  5
7B6
  8
DATA
  6
CONTINUOUS
 62
     7
 10
-2.8594782748755558
 20
90.898087379844497
 30
0.0
  0
VERTEX
  5
7B7
  8
DATA
  6
CONTINUOUS
 62
     7
 10
2.9405217251244551
 20
90.898087379844497
 30
0.0
  0
VERTEX
  5
7B8
  8
DATA
  6
CONTINUOUS
 62
     7
 10
2.9405217251244551
 20
85.098087379844486
 30
0.0
  0
VERTEX
  5
7B9
  8
DATA
  6
CONTINUOUS
 62
     7
 10
-2.8594782748755558
 20
85.098087379844486
 30
0.0
  0
SEQEND
  5
7BA
  8
DATA
  6
CONTINUOUS
 62
     7
  0
POLYLINE
  5
166
  8
DATA
  6
CONTINUOUS
 62
     7
 66
     1
 10
0.0
 20
0.0
 30
0.0
 70
     1
  0
VERTEX
  5
7BB
  8
DATA
  6
CONTINUOUS
 62
     7
 10
-2.8594782748755558
 20
104.8490451366673
 30
0.0
  0
VERTEX
  5
7BC
  8
DATA
  6
CONTINUOUS
 62
     7
 10
2.9405217251244551
 20
104.8490451366673
 30
0.0
  0
VERTEX
  5
7BD
  8
DATA
  6
CONTINUOUS
 62
     7
 10
2.9405217251244551
 20
99.049045136667345
 30
0.0
  0
VERTEX
  5
7BE
  8
DATA
  6
CONTINUOUS
 62
     7
 10
-2.8594782748755558
 20
99.049045136667345
 30
0.0
  0
SEQEND
  5
7BF
  8
DATA
  6
CONTINUOUS
 62
     7
  0
TEXT
  5
16D
  8
DATA
 62
     7
 10
-4.0158970593463721
 20
93.803146249719646
 30
0.0
 40
2.1546875000000001
  1
VOLUME
 41
0.7
 11
-4.0158970593463721
 21
95.957833749719626
 31
0.0
 73
     3
  0
LINE
  5
16E
  8
DATA
  6
CONTINUOUS
 62
     7
 10
-0.9594782748755221
 20
83.881192163922805
 30
0.0
 11
0.0405217251244778
 21
80.881192163922819
 31
0.0
  0
LINE
  5
16F
  8
DATA
  6
CONTINUOUS
 62
     7
 10
1.0405217251244769
 20
83.881192163922805
 30
0.0
 11
0.0405217251244778
 21
80.881192163922819
 31
0.0
  0
LINE
  5
170
  8
DATA
  6
CONTINUOUS
 62
     7
 10
-0.9594782748755221
 20
83.881192163922805
 30
0.0
 11
1.0479469234102501
 21
83.881192163922805
 31
0.0
  0
LINE
  5
171
  8
DATA
  6
CONTINUOUS
 62
     7
 10
1.038281174622369
 20
105.66642016787171
 30
0.0
 11
0.0382811746223695
 21
108.66642016787161
 31
0.0
  0
LINE
  5
172
  8
DATA
  6
CONTINUOUS
 62
     7
 10
-0.9617188253776303
 20
105.66642016787171
 30
0.0
 11
0.0382811746223695
 21
108.66642016787161
 31
0.0
  0
LINE
  5
173
  8
DATA
  6
CONTINUOUS
 62
     7
 10
1.038281174622369
 20
105.66642016787171
 30
0.0
 11
-0.9691440236633468
 21
105.66642016787171
 31
0.0
  0
POLYLINE
  5
174
  8
DATA
  6
CONTINUOUS
 62
     7
 66
     1
 10
0.0
 20
0.0
 30
0.0
 70
     1
  0
VERTEX
  5
7C0
  8
DATA
  6
CONTINUOUS
 62
     7
 10
-0.7750000000000057
 20
57.799999999999997
 30
0.0
  0
VERTEX
  5
7C1
  8
DATA
  6
CONTINUOUS
 62
     7
 10
0.7750000000000057
 20
57.799999999999997
 30
0.0
  0
VERTEX
  5
7C2
  8
DATA
  6
CONTINUOUS
 62
     7
 10
0.7750000000000057
 20
54.0
 30
0.0
  0
VERTEX
  5
7C3
  8
DATA
  6
CONTINUOUS
 62
     7
 10
-0.7750000000000057
 20
54.0
 30
0.0
  0
SEQEND
  5
7C4
  8
DATA
  6
CONTINUOUS
 62
     7
  0
POLYLINE
  5
17B
  8
DATA
  6
CONTINUOUS
 62
     7
 66
     1
 10
0.0
 20
0.0
 30
0.0
 70
     1
  0
VERTEX
  5
7C5
  8
DATA
  6
CONTINUOUS
 62
     7
 10
-0.7750000000000057
 20
62.799999999999997
 30
0.0
  0
VERTEX
  5
7C6
  8
DATA
  6
CONTINUOUS
 62
     7
 10
0.7750000000000057
 20
62.799999999999997
 30
0.0
  0
VERTEX
  5
7C7
  8
DATA
  6
CONTINUOUS
 62
     7
 10
0.7750000000000057
 20
59.0
 30
0.0
  0
VERTEX
  5
7C8
  8
DATA
  6
CONTINUOUS
 62
     7
 10
-0.7750000000000057
 20
59.0
 30
0.0
  0
SEQEND
  5
7C9
  8
DATA
  6
CONTINUOUS
 62
     7
  0
POLYLINE
  5
182
  8
DATA
  6
CONTINUOUS
 62
     7
 66
     1
 10
0.0
 20
0.0
 30
0.0
 70
     1
  0
VERTEX
  5
7CA
  8
DATA
  6
CONTINUOUS
 62
     7
 10
-0.7750000000000057
 20
67.799999999999997
 30
0.0
  0
VERTEX
  5
7CB
  8
DATA
  6
CONTINUOUS
 62
     7
 10
0.7750000000000057
 20
67.799999999999997
 30
0.0
  0
VERTEX
  5
7CC
  8
DATA
  6
CONTINUOUS
 62
     7
 10
0.7750000000000057
 20
64.0
 30
0.0
  0
VERTEX
  5
7CD
  8
DATA
  6
CONTINUOUS
 62
     7
 10
-0.7750000000000057
 20
64.0
 30
0.0
  0
SEQEND
  5
7CE
  8
DATA
  6
CONTINUOUS
 62
     7
  0
POLYLINE
  5
189
  8
DATA
  6
CONTINUOUS
 62
     7
 66
     1
 10
0.0
 20
0.0
 30
0.0
 70
     1
  0
VERTEX
  5
7CF
  8
DATA
  6
CONTINUOUS
 62
     7
 10
-0.7750000000000057
 20
72.799999999999983
 30
0.0
  0
VERTEX
  5
7D0
  8
DATA
  6
CONTINUOUS
 62
     7
 10
0.7750000000000057
 20
72.799999999999983
 30
0.0
  0
VERTEX
  5
7D1
  8
DATA
  6
CONTINUOUS
 62
     7
 10
0.7750000000000057
 20
69.0
 30
0.0
  0
VERTEX
  5
7D2
  8
DATA
  6
CONTINUOUS
 62
     7
 10
-0.7750000000000057
 20
69.0
 30
0.0
  0
SEQEND
  5
7D3
  8
DATA
  6
CONTINUOUS
 62
     7
  0
POLYLINE
  5
190
  8
DATA
  6
CONTINUOUS
 62
     7
 66
     1
 10
0.0
 20
0.0
 30
0.0
 70
     1
  0
VERTEX
  5
7D4
  8
DATA
  6
CONTINUOUS
 62
     7
 10
-1.4799999999999891
 20
73.400000000000006
 30
0.0
  0
VERTEX
  5
7D5
  8
DATA
  6
CONTINUOUS
 62
     7
 10
1.4799999999999891
 20
73.400000000000006
 30
0.0
  0
VERTEX
  5
7D6
  8
DATA
  6
CONTINUOUS
 62
     7
 10
1.4799999999999891
 20
53.400000000000013
 30
0.0
  0
VERTEX
  5
7D7
  8
DATA
  6
CONTINUOUS
 62
     7
 10
-1.4799999999999891
 20
53.400000000000013
 30
0.0
  0
SEQEND
  5
7D8
  8
DATA
  6
CONTINUOUS
 62
     7
  0
TEXT
  5
197
  8
DATA
 62
     7
 10
2.6889292003491221
 20
54.33090796238357
 30
0.0
 40
3.078125
  1
D
 41
0.7
 11
2.6889292003491221
 21
57.409032962383563
 31
0.0
 73
     3
  0
POLYLINE
  5
198
  8
DATA
  6
CONTINUOUS
 62
     7
 66
     1
 10
0.0
 20
0.0
 30
0.0
 70
     1
  0
VERTEX
  5
7D9
  8
DATA
  6
CONTINUOUS
 62
     7
 10
6.0000000000000284
 20
58.17499999999999
 30
0.0
  0
VERTEX
  5
7DA
  8
DATA
  6
CONTINUOUS
 62
     7
 10
26.000000000000028
 20
58.17499999999999
 30
0.0
  0
VERTEX
  5
7DB
  8
DATA
  6
CONTINUOUS
 62
     7
 10
26.000000000000028
 20
53.625
 30
0.0
  0
VERTEX
  5
7DC
  8
DATA
  6
CONTINUOUS
 62
     7
 10
6.0000000000000284
 20
53.625
 30
0.0
  0
SEQEND
  5
7DD
  8
DATA
  6
CONTINUOUS
 62
     7
  0
TEXT
  5
19F
  8
DATA
 62
     7
 10
2.6889292003491221
 20
59.33090796238357
 30
0.0
 40
3.078125
  1
C
 41
0.7
 11
2.6889292003491221
 21
62.409032962383563
 31
0.0
 73
     3
  0
POLYLINE
  5
1A0
  8
DATA
  6
CONTINUOUS
 62
     7
 66
     1
 10
0.0
 20
0.0
 30
0.0
 70
     1
  0
VERTEX
  5
7DE
  8
DATA
  6
CONTINUOUS
 62
     7
 10
6.0000000000000284
 20
63.17499999999999
 30
0.0
  0
VERTEX
  5
7DF
  8
DATA
  6
CONTINUOUS
 62
     7
 10
26.000000000000028
 20
63.17499999999999
 30
0.0
  0
VERTEX
  5
7E0
  8
DATA
  6
CONTINUOUS
 62
     7
 10
26.000000000000028
 20
58.625
 30
0.0
  0
VERTEX
  5
7E1
  8
DATA
  6
CONTINUOUS
 62
     7
 10
6.0000000000000284
 20
58.625
 30
0.0
  0
SEQEND
  5
7E2
  8
DATA
  6
CONTINUOUS
 62
     7
  0
TEXT
  5
1A7
  8
DATA
 62
     7
 10
2.6889292003491221
 20
64.330907962383563
 30
0.0
 40
3.078125
  1
B
 41
0.7
 11
2.6889292003491221
 21
67.409032962383563
 31
0.0
 73
     3
  0
POLYLINE
  5
1A8
  8
DATA
  6
CONTINUOUS
 62
     7
 66
     1
 10
0.0
 20
0.0
 30
0.0
 70
     1
  0
VERTEX
  5
7E3
  8
DATA
  6
CONTINUOUS
 62
     7
 10
6.0000000000000284
 20
68.174999999999983
 30
0.0
  0
VERTEX
  5
7E4
  8
DATA
  6
CONTINUOUS
 62
     7
 10
26.000000000000028
 20
68.174999999999983
 30
0.0
  0
VERTEX
  5
7E5
  8
DATA
  6
CONTINUOUS
 62
     7
 10
26.000000000000028
 20
63.625
 30
0.0
  0
VERTEX
  5
7E6
  8
DATA
  6
CONTINUOUS
 62
     7
 10
6.0000000000000284
 20
63.625
 30
0.0
  0
SEQEND
  5
7E7
  8
DATA
  6
CONTINUOUS
 62
     7
  0
TEXT
  5
1AF
  8
DATA
 62
     7
 10
2.6889292003491221
 20
69.330907962383549
 30
0.0
 40
3.078125
  1
A
 41
0.7
 11
2.6889292003491221
 21
72.409032962383549
 31
0.0
 73
     3
  0
POLYLINE
  5
1B0
  8
DATA
  6
CONTINUOUS
 62
     7
 66
     1
 10
0.0
 20
0.0
 30
0.0
 70
     1
  0
VERTEX
  5
7E8
  8
DATA
  6
CONTINUOUS
 62
     7
 10
6.0000000000000284
 20
73.174999999999983
 30
0.0
  0
VERTEX
  5
7E9
  8
DATA
  6
CONTINUOUS
 62
     7
 10
26.000000000000028
 20
73.174999999999983
 30
0.0
  0
VERTEX
  5
7EA
  8
DATA
  6
CONTINUOUS
 62
     7
 10
26.000000000000028
 20
68.625
 30
0.0
  0
VERTEX
  5
7EB
  8
DATA
  6
CONTINUOUS
 62
     7
 10
6.0000000000000284
 20
68.625
 30
0.0
  0
SEQEND
  5
7EC
  8
DATA
  6
CONTINUOUS
 62
     7
  0
TEXT
  5
1B7
  8
DATA
 62
     7
 10
-13.69470171277046
 20
72.66365921611137
 30
0.0
 40
1.492902787441406
  1
A
 41
0.7
 11
-13.69470171277046
 21
74.156562003552779
 31
0.0
 73
     3
  0
LINE
  5
1B8
  8
DATA
  6
CONTINUOUS
 62
     7
 10
-10.273437351568729
 20
59.563148242867783
 30
0.0
 11
-9.470682953443287
 21
58.172736839315171
 31
0.0
  0
LINE
  5
1B9
  8
DATA
  6
CONTINUOUS
 62
     7
 10
-11.78326171977071
 20
58.778240759099191
 30
0.0
 11
-10.971301395572681
 21
57.371884223858089
 31
0.0
  0
CIRCLE
  5
1BA
  8
DATA
  6
CONTINUOUS
 62
     7
 10
-13.326284082421891
 20
63.59093210473506
 30
0.0
 40
6.6500000000000394
  0
CIRCLE
  5
1BB
  8
DATA
  6
CONTINUOUS
 62
     7
 10
-13.326284082421891
 20
63.59093210473506
 30
0.0
 40
5.0540000000000314
  0
POLYLINE
  5
1BC
  8
DATA
  6
CONTINUOUS
 62
     7
 66
     1
 10
0.0
 20
0.0
 30
0.0
 70
   129
  0
VERTEX
  5
7ED
  8
DATA
  6
CONTINUOUS
 62
     7
 10
-13.08251158606012
 20
71.21163281462573
 30
0.0
  0
VERTEX
  5
7EE
  8
DATA
  6
CONTINUOUS
 62
     7
 10
-13.08251158606012
 20
71.21163281462573
 30
0.0
 42
-0.4142135623730839
  0
VERTEX
  5
7EF
  8
DATA
  6
CONTINUOUS
 62
     7
 10
-12.33771158606012
 20
70.466832814625718
 30
0.0
  0
VERTEX
  5
7F0
  8
DATA
  6
CONTINUOUS
 62
     7
 10
-12.33771158606007
 20
64.338192814625756
 30
0.0
  0
VERTEX
  5
7F1
  8
DATA
  6
CONTINUOUS
 62
     7
 10
-12.33771158606007
 20
64.338192814625756
 30
0.0
 42
-0.4142135623731286
  0
VERTEX
  5
7F2
  8
DATA
  6
CONTINUOUS
 62
     7
 10
-13.08251158606001
 20
63.59339281462573
 30
0.0
  0
VERTEX
  5
7F3
  8
DATA
  6
CONTINUOUS
 62
     7
 10
-13.29531158605991
 20
63.593392814625773
 30
0.0
  0
VERTEX
  5
7F4
  8
DATA
  6
CONTINUOUS
 62
     7
 10
-13.29531158606002
 20
63.593392814625773
 30
0.0
 42
-0.4142135623730728
  0
VERTEX
  5
7F5
  8
DATA
  6
CONTINUOUS
 62
     7
 10
-14.040111586059959
 20
64.338192814625813
 30
0.0
  0
VERTEX
  5
7F6
  8
DATA
  6
CONTINUOUS
 62
     7
 10
-14.040111586059959
 20
70.466832814625732
 30
0.0
  0
VERTEX
  5
7F7
  8
DATA
  6
CONTINUOUS
 62
     7
 10
-14.040111586059959
 20
70.466832814625732
 30
0.0
 42
-0.4142135623730336
  0
VERTEX
  5
7F8
  8
DATA
  6
CONTINUOUS
 62
     7
 10
-13.295311586059849
 20
71.211632814625673
 30
0.0
  0
SEQEND
  5
7F9
  8
DATA
  6
CONTINUOUS
 62
     7
  0
LINE
  5
1CA
  8
DATA
  6
CONTINUOUS
 62
     7
 10
-8.5863149605199016
 20
65.344673454947269
 30
0.0
 11
-7.1889882816986121
 21
66.151420389110584
 31
0.0
  0
LINE
  5
1CB
  8
DATA
  6
CONTINUOUS
 62
     7
 10
-9.4375149605199038
 20
66.818995102349916
 30
0.0
 11
-8.0401882816986152
 21
67.625742036513245
 31
0.0
  0
LINE
  5
1CC
  8
DATA
  6
CONTINUOUS
 62
     7
 10
-17.21505320432388
 20
60.362869107120211
 30
0.0
 11
-18.61237988314517
 21
59.556122172956918
 31
0.0
  0
LINE
  5
1CD
  8
DATA
  6
CONTINUOUS
 62
     7
 10
-18.066253204323889
 20
61.837190754522879
 30
0.0
 11
-19.463579883145169
 21
61.030443820359572
 31
0.0
  0
LINE
  5
1CE
  8
DATA
  6
CONTINUOUS
 62
     7
 10
-8.2939238301500762
 20
63.123742323881423
 30
0.0
 11
-6.7354084321695771
 21
62.70613938160102
 31
0.0
  0
LINE
  5
1CF
  8
DATA
  6
CONTINUOUS
 62
     7
 10
-8.7345373725262032
 20
61.479350197205221
 30
0.0
 11
-7.1760219745521283
 21
61.06174725492658
 31
0.0
  0
LINE
  5
1D0
  8
DATA
  6
CONTINUOUS
 62
     7
 10
-13.79347386327558
 20
58.558571852463317
 30
0.0
 11
-14.21107680555596
 21
57.000056454482753
 31
0.0
  0
LINE
  5
1D1
  8
DATA
  6
CONTINUOUS
 62
     7
 10
-15.85546893223048
 20
57.440669996865338
 30
0.0
 11
-15.437865989951799
 21
58.999185394839529
 31
0.0
  0
LINE
  5
1D2
  8
DATA
  6
CONTINUOUS
 62
     7
 10
-19.917159732674261
 20
64.475724827869072
 30
0.0
 11
-18.35864433470007
 21
64.058121885590452
 31
0.0
  0
LINE
  5
1D3
  8
DATA
  6
CONTINUOUS
 62
     7
 10
-19.47654619029165
 20
66.120116954543604
 30
0.0
 11
-17.91803079231115
 21
65.702514012263237
 31
0.0
  0
ARC
  5
1D4
  8
DATA
  6
CONTINUOUS
 62
     7
 10
-13.20000000000007
 20
63.5
 30
0.0
 40
8.2499999999999982
 50
92.430912363021207
 51
357.56908763697959
  0
ARC
  5
1D5
  8
DATA
  6
CONTINUOUS
 62
     7
 10
-13.20000000000007
 20
63.5
 30
0.0
 40
8.2500000000000142
 50
2.43091236302199
 51
27.56908763697961
  0
ARC
  5
1D6
  8
DATA
  6
CONTINUOUS
 62
     7
 10
-13.20000000000007
 20
63.5
 30
0.0
 40
8.2500000000000249
 50
32.430912363020688
 51
57.569087636979752
  0
ARC
  5
1D7
  8
DATA
  6
CONTINUOUS
 62
     7
 10
-13.20000000000007
 20
63.5
 30
0.0
 40
8.2499999999999911
 50
62.430912363019253
 51
87.569087636979205
  0
CIRCLE
  5
1D8
  8
DATA
  6
CONTINUOUS
 62
     7
 10
-13.20000000000007
 20
71.75
 30
0.0
 40
0.3500000000000227
  0
CIRCLE
  5
1D9
  8
DATA
  6
CONTINUOUS
 62
     7
 10
-9.0750000000000153
 20
70.644709581221633
 30
0.0
 40
0.3499999999999659
  0
CIRCLE
  5
1DA
  8
DATA
  6
CONTINUOUS
 62
     7
 10
-6.0552904187786947
 20
67.624999999999844
 30
0.0
 40
0.3500000000000227
  0
CIRCLE
  5
1DB
  8
DATA
  6
CONTINUOUS
 62
     7
 10
-4.950000000000073
 20
63.5
 30
0.0
 40
0.3500000000000227
  0
TEXT
  5
1DC
  8
DATA
 62
     7
 10
-8.5810824459390176
 20
71.619397491499001
 30
0.0
 40
1.492902787441406
  1
B
 41
0.7
 11
-8.5810824459390176
 21
73.112300278940396
 31
0.0
 73
     3
  0
TEXT
  5
1DD
  8
DATA
 62
     7
 10
-5.1532837720663158
 20
67.585069254315513
 30
0.0
 40
1.492902787441406
  1
C
 41
0.7
 11
-5.1532837720663158
 21
69.077972041756922
 31
0.0
 73
     3
  0
TEXT
  5
1DE
  8
DATA
 62
     7
 10
-3.987612009249772
 20
62.810815432203142
 30
0.0
 40
1.492902787441406
  1
D
 41
0.7
 11
-3.987612009249772
 21
64.303718219644551
 31
0.0
 73
     3
  0
TEXT
  5
1DF
  8
DATA
 62
     7
 10
-6.0325748017142748
 20
75.449918011734553
 30
0.0
 40
3.2576822916666659
  1
SELECT
 41
0.7
 11
-6.0325748017142748
 21
78.707600303401222
 31
0.0
 73
     3
  0
LINE
  5
1E0
  8
DATA
  6
CONTINUOUS
 62
     7
 10
78.0
 20
17.75
 30
0.0
 11
78.0
 21
132.25
 31
0.0
  0
LINE
  5
1E1
  8
DATA
  6
CONTINUOUS
 62
     7
 10
75.0
 20
17.75
 30
0.0
 11
75.0
 21
132.25
 31
0.0
  0
LINE
  5
1E2
  8
DATA
  6
CONTINUOUS
 62
     7
 10
57.391183795839368
 20
109.9084965451846
 30
0.0
 11
57.391183795839368
 21
110.0
 31
0.0
  0
LINE
  5
1E3
  8
DATA
  6
CONTINUOUS
 62
     7
 10
58.964693832407292
 20
109.9084965451846
 30
0.0
 11
58.964693832407292
 21
110.0
 31
0.0
  0
LINE
  5
1E4
  8
DATA
  6
CONTINUOUS
 62
     7
 10
58.964693832407292
 20
110.0
 30
0.0
 11
57.39382989800135
 21
110.0
 31
0.0
  0
LINE
  5
1E5
  8
DATA
  6
CONTINUOUS
 62
     7
 10
57.391183795839368
 20
40.113636135184322
 30
0.0
 11
57.391183795839368
 21
40.0
 31
0.0
  0
LINE
  5
1E6
  8
DATA
  6
CONTINUOUS
 62
     7
 10
58.964693832407292
 20
40.113636135184322
 30
0.0
 11
58.964693832407292
 21
40.0
 31
0.0
  0
LINE
  5
1E7
  8
DATA
  6
CONTINUOUS
 62
     7
 10
58.964693832407292
 20
40.0
 30
0.0
 11
57.391183795839368
 21
40.0
 31
0.0
  0
LINE
  5
1E8
  8
DATA
  6
CONTINUOUS
 62
     7
 10
68.457389690727211
 20
48.160044754699364
 30
0.0
 11
71.029999999999973
 21
48.160044754699364
 31
0.0
  0
LINE
  5
1E9
  8
DATA
  6
CONTINUOUS
 62
     7
 10
62.724230434059848
 20
107.1413941462215
 30
0.0
 11
75.0
 21
107.1413941462215
 31
0.0
  0
LINE
  5
1EA
  8
DATA
  6
CONTINUOUS
 62
     7
 10
63.12721480422374
 20
101.7609605711727
 30
0.0
 11
75.0
 21
101.7609605711727
 31
0.0
  0
LINE
  5
1EB
  8
DATA
  6
CONTINUOUS
 62
     7
 10
82.0
 20
99.049045136667345
 30
0.0
 11
82.0
 21
104.8490451366673
 31
0.0
  0
LINE
  5
1EC
  8
DATA
  6
CONTINUOUS
 62
     7
 10
82.0
 20
85.098087379844486
 30
0.0
 11
82.0
 21
90.898087379844497
 31
0.0
  0
LINE
  5
1ED
  8
DATA
  6
CONTINUOUS
 62
     7
 10
82.0
 20
104.8490451366673
 30
0.0
 11
78.0
 21
104.8490451366673
 31
0.0
  0
LINE
  5
1EE
  8
DATA
  6
CONTINUOUS
 62
     7
 10
82.0
 20
99.049045136667345
 30
0.0
 11
78.0
 21
99.049045136667345
 31
0.0
  0
LINE
  5
1EF
  8
DATA
  6
CONTINUOUS
 62
     7
 10
82.0
 20
90.898087379844497
 30
0.0
 11
78.0
 21
90.898087379844497
 31
0.0
  0
LINE
  5
1F0
  8
DATA
  6
CONTINUOUS
 62
     7
 10
82.0
 20
85.098087379844486
 30
0.0
 11
78.0
 21
85.098087379844486
 31
0.0
  0
LINE
  5
1F1
  8
DATA
  6
CONTINUOUS
 62
     7
 10
82.395898122943663
 20
57.042540750528303
 30
0.0
 11
78.969701362069898
 21
56.802951385957662
 31
0.0
  0
LINE
  5
1F2
  8
DATA
  6
CONTINUOUS
 62
     7
 10
78.969701362069898
 20
70.269870252846914
 30
0.0
 11
94.212541970077879
 21
68.700491067393173
 31
0.0
  0
LINE
  5
1F3
  8
DATA
  6
CONTINUOUS
 62
     7
 10
95.007042334198445
 20
67.871911181587606
 30
0.0
 11
95.007730809383986
 21
67.834045046382386
 31
0.0
  0
LINE
  5
1F4
  8
DATA
  6
CONTINUOUS
 62
     7
 10
94.938539053237577
 20
68.172086362485771
 30
0.0
 11
95.007042334198445
 21
67.871911181587606
 31
0.0
  0
LINE
  5
1F5
  8
DATA
  6
CONTINUOUS
 62
     7
 10
94.767108732036135
 20
68.430953032251381
 30
0.0
 11
94.938539053237577
 21
68.172086362485771
 31
0.0
  0
LINE
  5
1F6
  8
DATA
  6
CONTINUOUS
 62
     7
 10
94.511684438197804
 20
68.615808619570743
 30
0.0
 11
94.767108732036135
 21
68.430953032251381
 31
0.0
  0
LINE
  5
1F7
  8
DATA
  6
CONTINUOUS
 62
     7
 10
94.212541970077879
 20
68.700491067393173
 30
0.0
 11
94.511684438197804
 21
68.615808619570743
 31
0.0
  0
LINE
  5
1F8
  8
DATA
  6
CONTINUOUS
 62
     7
 10
93.970198704766247
 20
58.51450069722744
 30
0.0
 11
82.395898122943663
 21
57.297965044365903
 31
0.0
  0
LINE
  5
1F9
  8
DATA
  6
CONTINUOUS
 62
     7
 10
93.973330156415344
 20
58.514825502052631
 30
0.0
 11
93.970198704766247
 21
58.51450069722744
 31
0.0
  0
POLYLINE
  5
1FA
  8
DATA
  6
CONTINUOUS
 62
     7
 66
     1
 10
0.0
 20
0.0
 30
0.0
 70
   128
  0
VERTEX
  5
7FA
  8
DATA
  6
CONTINUOUS
 62
     7
 10
94.197395515996106
 20
58.763687072750997
 30
0.0
  0
VERTEX
  5
7FB
  8
DATA
  6
CONTINUOUS
 62
     7
 10
94.197349506046109
 20
58.762216492240213
 30
0.0
  0
VERTEX
  5
7FC
  8
DATA
  6
CONTINUOUS
 62
     7
 10
94.197296339963003
 20
58.760748322388139
 30
0.0
  0
VERTEX
  5
7FD
  8
DATA
  6
CONTINUOUS
 62
     7
 10
94.197236017746775
 20
58.759282563194802
 30
0.0
  0
VERTEX
  5
7FE
  8
DATA
  6
CONTINUOUS
 62
     7
 10
94.19716853939741
 20
58.757819214660209
 30
0.0
  0
VERTEX
  5
7FF
  8
DATA
  6
CONTINUOUS
 62
     7
 10
94.197093904914894
 20
58.756358276784333
 30
0.0
  0
VERTEX
  5
800
  8
DATA
  6
CONTINUOUS
 62
     7
 10
94.197012114299312
 20
58.754899749567159
 30
0.0
  0
VERTEX
  5
801
  8
DATA
  6
CONTINUOUS
 62
     7
 10
94.196923167550594
 20
58.753443633008729
 30
0.0
  0
VERTEX
  5
802
  8
DATA
  6
CONTINUOUS
 62
     7
 10
94.196827064668796
 20
58.751989927109051
 30
0.0
  0
VERTEX
  5
803
  8
DATA
  6
CONTINUOUS
 62
     7
 10
94.196723805653832
 20
58.750538631868103
 30
0.0
  0
VERTEX
  5
804
  8
DATA
  6
CONTINUOUS
 62
     7
 10
94.196613390505775
 20
58.749089747285844
 30
0.0
  0
VERTEX
  5
805
  8
DATA
  6
CONTINUOUS
 62
     7
 10
94.196495819224566
 20
58.747643273362328
 30
0.0
  0
VERTEX
  5
806
  8
DATA
  6
CONTINUOUS
 62
     7
 10
94.196371091810263
 20
58.746199210097522
 30
0.0
  0
VERTEX
  5
807
  8
DATA
  6
CONTINUOUS
 62
     7
 10
94.196239208262796
 20
58.744757557491482
 30
0.0
  0
VERTEX
  5
808
  8
DATA
  6
CONTINUOUS
 62
     7
 10
94.196100168582291
 20
58.743318315544137
 30
0.0
  0
VERTEX
  5
809
  8
DATA
  6
CONTINUOUS
 62
     7
 10
94.195953972768592
 20
58.741881484255543
 30
0.0
  0
VERTEX
  5
80A
  8
DATA
  6
CONTINUOUS
 62
     7
 10
94.195800620821814
 20
58.740447063625652
 30
0.0
  0
VERTEX
  5
80B
  8
DATA
  6
CONTINUOUS
 62
     7
 10
94.195640112741927
 20
58.739015053654491
 30
0.0
  0
VERTEX
  5
80C
  8
DATA
  6
CONTINUOUS
 62
     7
 10
94.195472448528875
 20
58.73758545434206
 30
0.0
  0
VERTEX
  5
80D
  8
DATA
  6
CONTINUOUS
 62
     7
 10
94.195297628182729
 20
58.736158265688367
 30
0.0
  0
VERTEX
  5
80E
  8
DATA
  6
CONTINUOUS
 62
     7
 10
94.195115651703489
 20
58.734733487693411
 30
0.0
  0
VERTEX
  5
80F
  8
DATA
  6
CONTINUOUS
 62
     7
 10
94.194926519091084
 20
58.733311120357172
 30
0.0
  0
VERTEX
  5
810
  8
DATA
  6
CONTINUOUS
 62
     7
 10
94.19473023034557
 20
58.731891163679649
 30
0.0
  0
VERTEX
  5
811
  8
DATA
  6
CONTINUOUS
 62
     7
 10
94.194526785466948
 20
58.730473617660863
 30
0.0
  0
VERTEX
  5
812
  8
DATA
  6
CONTINUOUS
 62
     7
 10
94.194316184455204
 20
58.729058482300793
 30
0.0
  0
VERTEX
  5
813
  8
DATA
  6
CONTINUOUS
 62
     7
 10
94.194098427310351
 20
58.727645757599483
 30
0.0
  0
VERTEX
  5
814
  8
DATA
  6
CONTINUOUS
 62
     7
 10
94.193873514032347
 20
58.72623544355686
 30
0.0
  0
VERTEX
  5
815
  8
DATA
  6
CONTINUOUS
 62
     7
 10
94.193641444621264
 20
58.724827540172981
 30
0.0
  0
VERTEX
  5
816
  8
DATA
  6
CONTINUOUS
 62
     7
 10
94.193402219077058
 20
58.723422047447819
 30
0.0
  0
VERTEX
  5
817
  8
DATA
  6
CONTINUOUS
 62
     7
 10
94.193155837399715
 20
58.722018965381402
 30
0.0
  0
VERTEX
  5
818
  8
DATA
  6
CONTINUOUS
 62
     7
 10
94.192902299589235
 20
58.7206182939737
 30
0.0
  0
VERTEX
  5
819
  8
DATA
  6
CONTINUOUS
 62
     7
 10
94.192641605645662
 20
58.719220033224722
 30
0.0
  0
VERTEX
  5
81A
  8
DATA
  6
CONTINUOUS
 62
     7
 10
94.192373755568966
 20
58.717824183134503
 30
0.0
  0
VERTEX
  5
81B
  8
DATA
  6
CONTINUOUS
 62
     7
 10
94.192098749359147
 20
58.716430743702972
 30
0.0
  0
VERTEX
  5
81C
  8
DATA
  6
CONTINUOUS
 62
     7
 10
94.191816587016206
 20
58.715039714930178
 30
0.0
  0
VERTEX
  5
81D
  8
DATA
  6
CONTINUOUS
 62
     7
 10
94.191527268540156
 20
58.713651096816129
 30
0.0
  0
VERTEX
  5
81E
  8
DATA
  6
CONTINUOUS
 62
     7
 10
94.191230793930956
 20
58.71226488936081
 30
0.0
  0
VERTEX
  5
81F
  8
DATA
  6
CONTINUOUS
 62
     7
 10
94.190927163188704
 20
58.710881092564193
 30
0.0
  0
VERTEX
  5
820
  8
DATA
  6
CONTINUOUS
 62
     7
 10
94.190616376313287
 20
58.709499706426328
 30
0.0
  0
VERTEX
  5
821
  8
DATA
  6
CONTINUOUS
 62
     7
 10
94.190298433304704
 20
58.708120730947172
 30
0.0
  0
VERTEX
  5
822
  8
DATA
  6
CONTINUOUS
 62
     7
 10
94.189973334163071
 20
58.706744166126747
 30
0.0
  0
VERTEX
  5
823
  8
DATA
  6
CONTINUOUS
 62
     7
 10
94.189641078888314
 20
58.705370011965073
 30
0.0
  0
VERTEX
  5
824
  8
DATA
  6
CONTINUOUS
 62
     7
 10
94.189301667480393
 20
58.703998268462101
 30
0.0
  0
VERTEX
  5
825
  8
DATA
  6
CONTINUOUS
 62
     7
 10
94.188955099939406
 20
58.702628935617859
 30
0.0
  0
VERTEX
  5
826
  8
DATA
  6
CONTINUOUS
 62
     7
 10
94.188601376265296
 20
58.701262013432341
 30
0.0
  0
VERTEX
  5
827
  8
DATA
  6
CONTINUOUS
 62
     7
 10
94.188240496458022
 20
58.699897501905582
 30
0.0
  0
VERTEX
  5
828
  8
DATA
  6
CONTINUOUS
 62
     7
 10
94.187872460517625
 20
58.69853540103751
 30
0.0
  0
VERTEX
  5
829
  8
DATA
  6
CONTINUOUS
 62
     7
 10
94.187497268444147
 20
58.697175710828191
 30
0.0
  0
VERTEX
  5
82A
  8
DATA
  6
CONTINUOUS
 62
     7
 10
94.187114920237548
 20
58.69581843127758
 30
0.0
  0
VERTEX
  5
82B
  8
DATA
  6
CONTINUOUS
 62
     7
 10
94.186725415897811
 20
58.694463562385721
 30
0.0
  0
VERTEX
  5
82C
  8
DATA
  6
CONTINUOUS
 62
     7
 10
94.186328755424967
 20
58.693111104152571
 30
0.0
  0
VERTEX
  5
82D
  8
DATA
  6
CONTINUOUS
 62
     7
 10
94.185924938819014
 20
58.691761056578159
 30
0.0
  0
VERTEX
  5
82E
  8
DATA
  6
CONTINUOUS
 62
     7
 10
94.185513966079924
 20
58.690413419662448
 30
0.0
  0
VERTEX
  5
82F
  8
DATA
  6
CONTINUOUS
 62
     7
 10
94.185095837207712
 20
58.689068193405497
 30
0.0
  0
VERTEX
  5
830
  8
DATA
  6
CONTINUOUS
 62
     7
 10
94.184670552202419
 20
58.68772537780724
 30
0.0
  0
VERTEX
  5
831
  8
DATA
  6
CONTINUOUS
 62
     7
 10
94.184238111063934
 20
58.686384972867756
 30
0.0
  0
VERTEX
  5
832
  8
DATA
  6
CONTINUOUS
 62
     7
 10
94.183798513792382
 20
58.685046978586961
 30
0.0
  0
VERTEX
  5
833
  8
DATA
  6
CONTINUOUS
 62
     7
 10
94.183351760387694
 20
58.683711394964917
 30
0.0
  0
VERTEX
  5
834
  8
DATA
  6
CONTINUOUS
 62
     7
 10
94.182897850849855
 20
58.682378222001567
 30
0.0
  0
VERTEX
  5
835
  8
DATA
  6
CONTINUOUS
 62
     7
 10
94.182436785178979
 20
58.68104745969697
 30
0.0
  0
VERTEX
  5
836
  8
DATA
  6
CONTINUOUS
 62
     7
 10
94.181968563374923
 20
58.679719108051103
 30
0.0
  0
VERTEX
  5
837
  8
DATA
  6
CONTINUOUS
 62
     7
 10
94.181493185437773
 20
58.67839316706398
 30
0.0
  0
VERTEX
  5
838
  8
DATA
  6
CONTINUOUS
 62
     7
 10
94.181010651367487
 20
58.677069636735553
 30
0.0
  0
VERTEX
  5
839
  8
DATA
  6
CONTINUOUS
 62
     7
 10
94.180520961164078
 20
58.67574851706587
 30
0.0
  0
VERTEX
  5
83A
  8
DATA
  6
CONTINUOUS
 62
     7
 10
94.18002411482756
 20
58.674429808054889
 30
0.0
  0
VERTEX
  5
83B
  8
DATA
  6
CONTINUOUS
 62
     7
 10
94.18002411482756
 20
58.674429808054889
 30
0.0
  0
VERTEX
  5
83C
  8
DATA
  6
CONTINUOUS
 62
     7
 10
94.179519853366187
 20
58.673113979298279
 30
0.0
  0
VERTEX
  5
83D
  8
DATA
  6
CONTINUOUS
 62
     7
 10
94.179007917788184
 20
58.671801500391638
 30
0.0
  0
VERTEX
  5
83E
  8
DATA
  6
CONTINUOUS
 62
     7
 10
94.178488308093605
 20
58.670492371334973
 30
0.0
  0
VERTEX
  5
83F
  8
DATA
  6
CONTINUOUS
 62
     7
 10
94.177961024282411
 20
58.669186592128277
 30
0.0
  0
VERTEX
  5
840
  8
DATA
  6
CONTINUOUS
 62
     7
 10
94.177426066354613
 20
58.667884162771557
 30
0.0
  0
VERTEX
  5
841
  8
DATA
  6
CONTINUOUS
 62
     7
 10
94.176883434310227
 20
58.666585083264799
 30
0.0
  0
VERTEX
  5
842
  8
DATA
  6
CONTINUOUS
 62
     7
 10
94.176333128149224
 20
58.665289353608017
 30
0.0
  0
VERTEX
  5
843
  8
DATA
  6
CONTINUOUS
 62
     7
 10
94.175775147871633
 20
58.663996973801211
 30
0.0
  0
VERTEX
  5
844
  8
DATA
  6
CONTINUOUS
 62
     7
 10
94.175209493477396
 20
58.662707943844367
 30
0.0
  0
VERTEX
  5
845
  8
DATA
  6
CONTINUOUS
 62
     7
 10
94.174636164966586
 20
58.661422263737499
 30
0.0
  0
VERTEX
  5
846
  8
DATA
  6
CONTINUOUS
 62
     7
 10
94.174055162339158
 20
58.660139933480608
 30
0.0
  0
VERTEX
  5
847
  8
DATA
  6
CONTINUOUS
 62
     7
 10
94.173466485595156
 20
58.658860953073678
 30
0.0
  0
VERTEX
  5
848
  8
DATA
  6
CONTINUOUS
 62
     7
 10
94.172870134734481
 20
58.657585322516752
 30
0.0
  0
VERTEX
  5
849
  8
DATA
  6
CONTINUOUS
 62
     7
 10
94.172266109757274
 20
58.65631304180976
 30
0.0
  0
VERTEX
  5
84A
  8
DATA
  6
CONTINUOUS
 62
     7
 10
94.171654410663407
 20
58.655044110952758
 30
0.0
  0
VERTEX
  5
84B
  8
DATA
  6
CONTINUOUS
 62
     7
 10
94.171035037452981
 20
58.653778529945733
 30
0.0
  0
VERTEX
  5
84C
  8
DATA
  6
CONTINUOUS
 62
     7
 10
94.170407990125923
 20
58.652516298788662
 30
0.0
  0
VERTEX
  5
84D
  8
DATA
  6
CONTINUOUS
 62
     7
 10
94.169773268682292
 20
58.651257417481567
 30
0.0
  0
VERTEX
  5
84E
  8
DATA
  6
CONTINUOUS
 62
     7
 10
94.169130873122043
 20
58.650001886024462
 30
0.0
  0
VERTEX
  5
84F
  8
DATA
  6
CONTINUOUS
 62
     7
 10
94.168480803445135
 20
58.648749704417313
 30
0.0
  0
VERTEX
  5
850
  8
DATA
  6
CONTINUOUS
 62
     7
 10
94.167823059651724
 20
58.647500872660153
 30
0.0
  0
VERTEX
  5
851
  8
DATA
  6
CONTINUOUS
 62
     7
 10
94.167157641741625
 20
58.646255390752927
 30
0.0
  0
VERTEX
  5
852
  8
DATA
  6
CONTINUOUS
 62
     7
 10
94.166484549714951
 20
58.645013258695712
 30
0.0
  0
VERTEX
  5
853
  8
DATA
  6
CONTINUOUS
 62
     7
 10
94.165803783571675
 20
58.643774476488431
 30
0.0
  0
VERTEX
  5
854
  8
DATA
  6
CONTINUOUS
 62
     7
 10
94.165115343311811
 20
58.642539044131148
 30
0.0
  0
VERTEX
  5
855
  8
DATA
  6
CONTINUOUS
 62
     7
 10
94.164419228935316
 20
58.64130696162384
 30
0.0
  0
VERTEX
  5
856
  8
DATA
  6
CONTINUOUS
 62
     7
 10
94.163715440442218
 20
58.640078228966502
 30
0.0
  0
VERTEX
  5
857
  8
DATA
  6
CONTINUOUS
 62
     7
 10
94.163003977832545
 20
58.638852846159132
 30
0.0
  0
VERTEX
  5
858
  8
DATA
  6
CONTINUOUS
 62
     7
 10
94.162284841106228
 20
58.637630813201717
 30
0.0
  0
VERTEX
  5
859
  8
DATA
  6
CONTINUOUS
 62
     7
 10
94.161558030263365
 20
58.636412130094293
 30
0.0
  0
VERTEX
  5
85A
  8
DATA
  6
CONTINUOUS
 62
     7
 10
94.160823545303842
 20
58.635196796836837
 30
0.0
  0
VERTEX
  5
85B
  8
DATA
  6
CONTINUOUS
 62
     7
 10
94.160081386227716
 20
58.633984813429358
 30
0.0
  0
VERTEX
  5
85C
  8
DATA
  6
CONTINUOUS
 62
     7
 10
94.159331553034974
 20
58.632776179871847
 30
0.0
  0
VERTEX
  5
85D
  8
DATA
  6
CONTINUOUS
 62
     7
 10
94.158574045725715
 20
58.631570896164313
 30
0.0
  0
VERTEX
  5
85E
  8
DATA
  6
CONTINUOUS
 62
     7
 10
94.157808864299781
 20
58.630368962306719
 30
0.0
  0
VERTEX
  5
85F
  8
DATA
  6
CONTINUOUS
 62
     7
 10
94.157036008757231
 20
58.629170378299143
 30
0.0
  0
VERTEX
  5
860
  8
DATA
  6
CONTINUOUS
 62
     7
 10
94.156255479098135
 20
58.627975144141523
 30
0.0
  0
VERTEX
  5
861
  8
DATA
  6
CONTINUOUS
 62
     7
 10
94.155467275322366
 20
58.62678325983385
 30
0.0
  0
VERTEX
  5
862
  8
DATA
  6
CONTINUOUS
 62
     7
 10
94.154671397430036
 20
58.625594725376168
 30
0.0
  0
VERTEX
  5
863
  8
DATA
  6
CONTINUOUS
 62
     7
 10
94.15386784542109
 20
58.624409540768447
 30
0.0
  0
VERTEX
  5
864
  8
DATA
  6
CONTINUOUS
 62
     7
 10
94.153056619295555
 20
58.623227706010717
 30
0.0
  0
VERTEX
  5
865
  8
DATA
  6
CONTINUOUS
 62
     7
 10
94.152237719053403
 20
58.622049221102969
 30
0.0
  0
VERTEX
  5
866
  8
DATA
  6
CONTINUOUS
 62
     7
 10
94.151411144694649
 20
58.620874086045177
 30
0.0
  0
VERTEX
  5
867
  8
DATA
  6
CONTINUOUS
 62
     7
 10
94.150576896219278
 20
58.619702300837353
 30
0.0
  0
VERTEX
  5
868
  8
DATA
  6
CONTINUOUS
 62
     7
 10
94.149734973627318
 20
58.618533865479492
 30
0.0
  0
VERTEX
  5
869
  8
DATA
  6
CONTINUOUS
 62
     7
 10
94.148885376918784
 20
58.617368779971599
 30
0.0
  0
VERTEX
  5
86A
  8
DATA
  6
CONTINUOUS
 62
     7
 10
94.148028106093591
 20
58.616207044313697
 30
0.0
  0
VERTEX
  5
86B
  8
DATA
  6
CONTINUOUS
 62
     7
 10
94.147163161151795
 20
58.615048658505771
 30
0.0
  0
VERTEX
  5
86C
  8
DATA
  6
CONTINUOUS
 62
     7
 10
94.146290542093453
 20
58.61389362254782
 30
0.0
  0
VERTEX
  5
86D
  8
DATA
  6
CONTINUOUS
 62
     7
 10
94.145410248918438
 20
58.612741936439818
 30
0.0
  0
VERTEX
  5
86E
  8
DATA
  6
CONTINUOUS
 62
     7
 10
94.144522281626848
 20
58.611593600181791
 30
0.0
  0
VERTEX
  5
86F
  8
DATA
  6
CONTINUOUS
 62
     7
 10
94.143626640218699
 20
58.610448613773748
 30
0.0
  0
VERTEX
  5
870
  8
DATA
  6
CONTINUOUS
 62
     7
 10
94.142723324693875
 20
58.609306977215667
 30
0.0
  0
VERTEX
  5
871
  8
DATA
  6
CONTINUOUS
 62
     7
 10
94.141812335052435
 20
58.608168690507583
 30
0.0
  0
VERTEX
  5
872
  8
DATA
  6
CONTINUOUS
 62
     7
 10
94.140893671294464
 20
58.607033753649418
 30
0.0
  0
VERTEX
  5
873
  8
DATA
  6
CONTINUOUS
 62
     7
 10
94.139967333419875
 20
58.605902166641272
 30
0.0
  0
VERTEX
  5
874
  8
DATA
  6
CONTINUOUS
 62
     7
 10
94.139033321428627
 20
58.604773929483081
 30
0.0
  0
VERTEX
  5
875
  8
DATA
  6
CONTINUOUS
 62
     7
 10
94.138091635320819
 20
58.603649042174872
 30
0.0
  0
VERTEX
  5
876
  8
DATA
  6
CONTINUOUS
 62
     7
 10
94.137142275096409
 20
58.602527504716619
 30
0.0
  0
VERTEX
  5
877
  8
DATA
  6
CONTINUOUS
 62
     7
 10
94.136185240755367
 20
58.601409317108342
 30
0.0
  0
VERTEX
  5
878
  8
DATA
  6
CONTINUOUS
 62
     7
 10
94.135220532297765
 20
58.600294479350062
 30
0.0
  0
VERTEX
  5
879
  8
DATA
  6
CONTINUOUS
 62
     7
 10
94.134248149723504
 20
58.599182991441722
 30
0.0
  0
VERTEX
  5
87A
  8
DATA
  6
CONTINUOUS
 62
     7
 10
94.133268093032683
 20
58.598074853383359
 30
0.0
  0
VERTEX
  5
87B
  8
DATA
  6
CONTINUOUS
 62
     7
 10
94.132280362225231
 20
58.596970065174972
 30
0.0
  0
VERTEX
  5
87C
  8
DATA
  6
CONTINUOUS
 62
     7
 10
94.132280362225231
 20
58.596970065174972
 30
0.0
  0
VERTEX
  5
87D
  8
DATA
  6
CONTINUOUS
 62
     7
 10
94.131286716481398
 20
58.595870602022408
 30
0.0
  0
VERTEX
  5
87E
  8
DATA
  6
CONTINUOUS
 62
     7
 10
94.130288914981406
 20
58.594778439131538
 30
0.0
  0
VERTEX
  5
87F
  8
DATA
  6
CONTINUOUS
 62
     7
 10
94.129286957725185
 20
58.593693576502382
 30
0.0
  0
VERTEX
  5
880
  8
DATA
  6
CONTINUOUS
 62
     7
 10
94.128280844712862
 20
58.592616014134897
 30
0.0
  0
VERTEX
  5
881
  8
DATA
  6
CONTINUOUS
 62
     7
 10
94.127270575944365
 20
58.591545752029113
 30
0.0
  0
VERTEX
  5
882
  8
DATA
  6
CONTINUOUS
 62
     7
 10
94.126256151419639
 20
58.590482790185
 30
0.0
  0
VERTEX
  5
883
  8
DATA
  6
CONTINUOUS
 62
     7
 10
94.125237571138797
 20
58.589427128602608
 30
0.0
  0
VERTEX
  5
884
  8
DATA
  6
CONTINUOUS
 62
     7
 10
94.124214835101753
 20
58.588378767281888
 30
0.0
  0
VERTEX
  5
885
  8
DATA
  6
CONTINUOUS
 62
     7
 10
94.123187943308523
 20
58.587337706222847
 30
0.0
  0
VERTEX
  5
886
  8
DATA
  6
CONTINUOUS
 62
     7
 10
94.122156895759161
 20
58.586303945425513
 30
0.0
  0
VERTEX
  5
887
  8
DATA
  6
CONTINUOUS
 62
     7
 10
94.121121692453627
 20
58.585277484889872
 30
0.0
  0
VERTEX
  5
888
  8
DATA
  6
CONTINUOUS
 62
     7
 10
94.120082333391878
 20
58.584258324615909
 30
0.0
  0
VERTEX
  5
889
  8
DATA
  6
CONTINUOUS
 62
     7
 10
94.119038818573955
 20
58.583246464603647
 30
0.0
  0
VERTEX
  5
88A
  8
DATA
  6
CONTINUOUS
 62
     7
 10
94.117991147999902
 20
58.582241904853078
 30
0.0
  0
VERTEX
  5
88B
  8
DATA
  6
CONTINUOUS
 62
     7
 10
94.116939321669634
 20
58.581244645364187
 30
0.0
  0
VERTEX
  5
88C
  8
DATA
  6
CONTINUOUS
 62
     7
 10
94.11588333958322
 20
58.58025468613701
 30
0.0
  0
VERTEX
  5
88D
  8
DATA
  6
CONTINUOUS
 62
     7
 10
94.114823201740634
 20
58.579272027171498
 30
0.0
  0
VERTEX
  5
88E
  8
DATA
  6
CONTINUOUS
 62
     7
 10
94.113758908141875
 20
58.578296668467701
 30
0.0
  0
VERTEX
  5
88F
  8
DATA
  6
CONTINUOUS
 62
     7
 10
94.112690458786943
 20
58.577328610025603
 30
0.0
  0
VERTEX
  5
890
  8
DATA
  6
CONTINUOUS
 62
     7
 10
94.111617853675796
 20
58.576367851845163
 30
0.0
  0
VERTEX
  5
891
  8
DATA
  6
CONTINUOUS
 62
     7
 10
94.110541092808546
 20
58.575414393926422
 30
0.0
  0
VERTEX
  5
892
  8
DATA
  6
CONTINUOUS
 62
     7
 10
94.109460176185067
 20
58.574468236269368
 30
0.0
  0
VERTEX
  5
893
  8
DATA
  6
CONTINUOUS
 62
     7
 10
94.108375103805486
 20
58.573529378874028
 30
0.0
  0
VERTEX
  5
894
  8
DATA
  6
CONTINUOUS
 62
     7
 10
94.107285875669646
 20
58.572597821740359
 30
0.0
  0
VERTEX
  5
895
  8
DATA
  6
CONTINUOUS
 62
     7
 10
94.106192491777676
 20
58.571673564868398
 30
0.0
  0
VERTEX
  5
896
  8
DATA
  6
CONTINUOUS
 62
     7
 10
94.105094952129534
 20
58.570756608258108
 30
0.0
  0
VERTEX
  5
897
  8
DATA
  6
CONTINUOUS
 62
     7
 10
94.103993256725232
 20
58.56984695190954
 30
0.0
  0
VERTEX
  5
898
  8
DATA
  6
CONTINUOUS
 62
     7
 10
94.102887405564715
 20
58.568944595822629
 30
0.0
  0
VERTEX
  5
899
  8
DATA
  6
CONTINUOUS
 62
     7
 10
94.101777398648053
 20
58.568049539997418
 30
0.0
  0
VERTEX
  5
89A
  8
DATA
  6
CONTINUOUS
 62
     7
 10
94.100663235975233
 20
58.567161784433907
 30
0.0
  0
VERTEX
  5
89B
  8
DATA
  6
CONTINUOUS
 62
     7
 10
94.099544917546226
 20
58.566281329132082
 30
0.0
  0
VERTEX
  5
89C
  8
DATA
  6
CONTINUOUS
 62
     7
 10
94.098422443361059
 20
58.565408174091957
 30
0.0
  0
VERTEX
  5
89D
  8
DATA
  6
CONTINUOUS
 62
     7
 10
94.097295813419706
 20
58.564542319313517
 30
0.0
  0
VERTEX
  5
89E
  8
DATA
  6
CONTINUOUS
 62
     7
 10
94.096165027722193
 20
58.563683764796771
 30
0.0
  0
VERTEX
  5
89F
  8
DATA
  6
CONTINUOUS
 62
     7
 10
94.095030086268466
 20
58.562832510541718
 30
0.0
  0
VERTEX
  5
8A0
  8
DATA
  6
CONTINUOUS
 62
     7
 10
94.093890989058622
 20
58.56198855654835
 30
0.0
  0
VERTEX
  5
8A1
  8
DATA
  6
CONTINUOUS
 62
     7
 10
94.092747736092562
 20
58.561151902816661
 30
0.0
  0
VERTEX
  5
8A2
  8
DATA
  6
CONTINUOUS
 62
     7
 10
94.091600327370358
 20
58.560322549346672
 30
0.0
  0
VERTEX
  5
8A3
  8
DATA
  6
CONTINUOUS
 62
     7
 10
94.090448762891967
 20
58.559500496138376
 30
0.0
  0
VERTEX
  5
8A4
  8
DATA
  6
CONTINUOUS
 62
     7
 10
94.089293042657417
 20
58.558685743191781
 30
0.0
  0
VERTEX
  5
8A5
  8
DATA
  6
CONTINUOUS
 62
     7
 10
94.08813316666668
 20
58.557878290506864
 30
0.0
  0
VERTEX
  5
8A6
  8
DATA
  6
CONTINUOUS
 62
     7
 10
94.086969134919784
 20
58.557078138083611
 30
0.0
  0
VERTEX
  5
8A7
  8
DATA
  6
CONTINUOUS
 62
     7
 10
94.085800947416686
 20
58.556285285922101
 30
0.0
  0
VERTEX
  5
8A8
  8
DATA
  6
CONTINUOUS
 62
     7
 10
94.084628604157444
 20
58.555499734022249
 30
0.0
  0
VERTEX
  5
8A9
  8
DATA
  6
CONTINUOUS
 62
     7
 10
94.083452105142001
 20
58.554721482384082
 30
0.0
  0
VERTEX
  5
8AA
  8
DATA
  6
CONTINUOUS
 62
     7
 10
94.082271450370428
 20
58.553950531007608
 30
0.0
  0
VERTEX
  5
8AB
  8
DATA
  6
CONTINUOUS
 62
     7
 10
94.081086639842624
 20
58.553186879892849
 30
0.0
  0
VERTEX
  5
8AC
  8
DATA
  6
CONTINUOUS
 62
     7
 10
94.079897673558733
 20
58.552430529039782
 30
0.0
  0
VERTEX
  5
8AD
  8
DATA
  6
CONTINUOUS
 62
     7
 10
94.078704551518598
 20
58.551681478448401
 30
0.0
  0
VERTEX
  5
8AE
  8
DATA
  6
CONTINUOUS
 62
     7
 10
94.077507273722347
 20
58.550939728118678
 30
0.0
  0
VERTEX
  5
8AF
  8
DATA
  6
CONTINUOUS
 62
     7
 10
94.076305840169852
 20
58.550205278050697
 30
0.0
  0
VERTEX
  5
8B0
  8
DATA
  6
CONTINUOUS
 62
     7
 10
94.075100250861226
 20
58.549478128244381
 30
0.0
  0
VERTEX
  5
8B1
  8
DATA
  6
CONTINUOUS
 62
     7
 10
94.073890505796413
 20
58.548758278699779
 30
0.0
  0
VERTEX
  5
8B2
  8
DATA
  6
CONTINUOUS
 62
     7
 10
94.072676604975427
 20
58.548045729416842
 30
0.0
  0
VERTEX
  5
8B3
  8
DATA
  6
CONTINUOUS
 62
     7
 10
94.071458548398283
 20
58.54734048039559
 30
0.0
  0
VERTEX
  5
8B4
  8
DATA
  6
CONTINUOUS
 62
     7
 10
94.070236336064994
 20
58.546642531636039
 30
0.0
  0
VERTEX
  5
8B5
  8
DATA
  6
CONTINUOUS
 62
     7
 10
94.069009967975504
 20
58.545951883138173
 30
0.0
  0
VERTEX
  5
8B6
  8
DATA
  6
CONTINUOUS
 62
     7
 10
94.067779444129812
 20
58.545268534901993
 30
0.0
  0
VERTEX
  5
8B7
  8
DATA
  6
CONTINUOUS
 62
     7
 10
94.066544764527947
 20
58.544592486927513
 30
0.0
  0
VERTEX
  5
8B8
  8
DATA
  6
CONTINUOUS
 62
     7
 10
94.065305929169966
 20
58.543923739214733
 30
0.0
  0
VERTEX
  5
8B9
  8
DATA
  6
CONTINUOUS
 62
     7
 10
94.064062938055784
 20
58.543262291763646
 30
0.0
  0
VERTEX
  5
8BA
  8
DATA
  6
CONTINUOUS
 62
     7
 10
94.062815791185443
 20
58.542608144574253
 30
0.0
  0
VERTEX
  5
8BB
  8
DATA
  6
CONTINUOUS
 62
     7
 10
94.061564488558901
 20
58.541961297646537
 30
0.0
  0
VERTEX
  5
8BC
  8
DATA
  6
CONTINUOUS
 62
     7
 10
94.060309030176214
 20
58.541321750980501
 30
0.0
  0
VERTEX
  5
8BD
  8
DATA
  6
CONTINUOUS
 62
     7
 10
94.060309030176214
 20
58.541321750980501
 30
0.0
  0
VERTEX
  5
8BE
  8
DATA
  6
CONTINUOUS
 62
     7
 10
94.059049907842891
 20
58.540689321517902
 30
0.0
  0
VERTEX
  5
8BF
  8
DATA
  6
CONTINUOUS
 62
     7
 10
94.057787613364525
 20
58.540063826200502
 30
0.0
  0
VERTEX
  5
8C0
  8
DATA
  6
CONTINUOUS
 62
     7
 10
94.056522146741088
 20
58.539445265028249
 30
0.0
  0
VERTEX
  5
8C1
  8
DATA
  6
CONTINUOUS
 62
     7
 10
94.055253507972623
 20
58.538833638001222
 30
0.0
  0
VERTEX
  5
8C2
  8
DATA
  6
CONTINUOUS
 62
     7
 10
94.053981697059072
 20
58.538228945119322
 30
0.0
  0
VERTEX
  5
8C3
  8
DATA
  6
CONTINUOUS
 62
     7
 10
94.052706714000493
 20
58.53763118638264
 30
0.0
  0
VERTEX
  5
8C4
  8
DATA
  6
CONTINUOUS
 62
     7
 10
94.051428558796843
 20
58.537040361791099
 30
0.0
  0
VERTEX
  5
8C5
  8
DATA
  6
CONTINUOUS
 62
     7
 10
94.050147231448193
 20
58.536456471344749
 30
0.0
  0
VERTEX
  5
8C6
  8
DATA
  6
CONTINUOUS
 62
     7
 10
94.048862731954443
 20
58.535879515043582
 30
0.0
  0
VERTEX
  5
8C7
  8
DATA
  6
CONTINUOUS
 62
     7
 10
94.047575060315637
 20
58.535309492887592
 30
0.0
  0
VERTEX
  5
8C8
  8
DATA
  6
CONTINUOUS
 62
     7
 10
94.046284216531774
 20
58.534746404876792
 30
0.0
  0
VERTEX
  5
8C9
  8
DATA
  6
CONTINUOUS
 62
     7
 10
94.044990200602868
 20
58.534190251011147
 30
0.0
  0
VERTEX
  5
8CA
  8
DATA
  6
CONTINUOUS
 62
     7
 10
94.043693012528905
 20
58.533641031290699
 30
0.0
  0
VERTEX
  5
8CB
  8
DATA
  6
CONTINUOUS
 62
     7
 10
94.042392652309871
 20
58.533098745715421
 30
0.0
  0
VERTEX
  5
8CC
  8
DATA
  6
CONTINUOUS
 62
     7
 10
94.041089119945809
 20
58.53256339428529
 30
0.0
  0
VERTEX
  5
8CD
  8
DATA
  6
CONTINUOUS
 62
     7
 10
94.03978241543669
 20
58.532034977000379
 30
0.0
  0
VERTEX
  5
8CE
  8
DATA
  6
CONTINUOUS
 62
     7
 10
94.038472538782514
 20
58.531513493860629
 30
0.0
  0
VERTEX
  5
8CF
  8
DATA
  6
CONTINUOUS
 62
     7
 10
94.037159489983267
 20
58.530998944866063
 30
0.0
  0
VERTEX
  5
8D0
  8
DATA
  6
CONTINUOUS
 62
     7
 10
94.035843269039006
 20
58.530491330016673
 30
0.0
  0
VERTEX
  5
8D1
  8
DATA
  6
CONTINUOUS
 62
     7
 10
94.034523875949645
 20
58.529990649312438
 30
0.0
  0
VERTEX
  5
8D2
  8
DATA
  6
CONTINUOUS
 62
     7
 10
94.03320131071527
 20
58.529496902753408
 30
0.0
  0
VERTEX
  5
8D3
  8
DATA
  6
CONTINUOUS
 62
     7
 10
94.031875573335824
 20
58.52901009033954
 30
0.0
  0
VERTEX
  5
8D4
  8
DATA
  6
CONTINUOUS
 62
     7
 10
94.030546663811322
 20
58.528530212070848
 30
0.0
  0
VERTEX
  5
8D5
  8
DATA
  6
CONTINUOUS
 62
     7
 10
94.029214582141762
 20
58.528057267947361
 30
0.0
  0
VERTEX
  5
8D6
  8
DATA
  6
CONTINUOUS
 62
     7
 10
94.027879328327145
 20
58.527591257969029
 30
0.0
  0
VERTEX
  5
8D7
  8
DATA
  6
CONTINUOUS
 62
     7
 10
94.026540902367472
 20
58.527132182135873
 30
0.0
  0
VERTEX
  5
8D8
  8
DATA
  6
CONTINUOUS
 62
     7
 10
94.025199304262784
 20
58.5266800404479
 30
0.0
  0
VERTEX
  5
8D9
  8
DATA
  6
CONTINUOUS
 62
     7
 10
94.023854534012983
 20
58.526234832905111
 30
0.0
  0
VERTEX
  5
8DA
  8
DATA
  6
CONTINUOUS
 62
     7
 10
94.022506591618196
 20
58.525796559507491
 30
0.0
  0
VERTEX
  5
8DB
  8
DATA
  6
CONTINUOUS
 62
     7
 10
94.021155477078267
 20
58.52536522025504
 30
0.0
  0
VERTEX
  5
8DC
  8
DATA
  6
CONTINUOUS
 62
     7
 10
94.019801190393338
 20
58.524940815147772
 30
0.0
  0
VERTEX
  5
8DD
  8
DATA
  6
CONTINUOUS
 62
     7
 10
94.01844373156338
 20
58.524523344185702
 30
0.0
  0
VERTEX
  5
8DE
  8
DATA
  6
CONTINUOUS
 62
     7
 10
94.017083100588323
 20
58.524112807368788
 30
0.0
  0
VERTEX
  5
8DF
  8
DATA
  6
CONTINUOUS
 62
     7
 10
94.015719297468237
 20
58.523709204697063
 30
0.0
  0
VERTEX
  5
8E0
  8
DATA
  6
CONTINUOUS
 62
     7
 10
94.014352322203081
 20
58.523312536170501
 30
0.0
  0
VERTEX
  5
8E1
  8
DATA
  6
CONTINUOUS
 62
     7
 10
94.012982174792882
 20
58.522922801789122
 30
0.0
  0
VERTEX
  5
8E2
  8
DATA
  6
CONTINUOUS
 62
     7
 10
94.011608855237625
 20
58.522540001552919
 30
0.0
  0
VERTEX
  5
8E3
  8
DATA
  6
CONTINUOUS
 62
     7
 10
94.010232363537312
 20
58.5221641354619
 30
0.0
  0
VERTEX
  5
8E4
  8
DATA
  6
CONTINUOUS
 62
     7
 10
94.008852699691943
 20
58.521795203516056
 30
0.0
  0
VERTEX
  5
8E5
  8
DATA
  6
CONTINUOUS
 62
     7
 10
94.007469863701559
 20
58.52143320571539
 30
0.0
  0
VERTEX
  5
8E6
  8
DATA
  6
CONTINUOUS
 62
     7
 10
94.006083855566075
 20
58.521078142059899
 30
0.0
  0
VERTEX
  5
8E7
  8
DATA
  6
CONTINUOUS
 62
     7
 10
94.004694675285563
 20
58.520730012549592
 30
0.0
  0
VERTEX
  5
8E8
  8
DATA
  6
CONTINUOUS
 62
     7
 10
94.003302322859952
 20
58.520388817184461
 30
0.0
  0
VERTEX
  5
8E9
  8
DATA
  6
CONTINUOUS
 62
     7
 10
94.001906798289312
 20
58.520054555964492
 30
0.0
  0
VERTEX
  5
8EA
  8
DATA
  6
CONTINUOUS
 62
     7
 10
94.000508101573644
 20
58.5197272288897
 30
0.0
  0
VERTEX
  5
8EB
  8
DATA
  6
CONTINUOUS
 62
     7
 10
93.999106232712904
 20
58.519406835960112
 30
0.0
  0
VERTEX
  5
8EC
  8
DATA
  6
CONTINUOUS
 62
     7
 10
93.997701191707094
 20
58.519093377175679
 30
0.0
  0
VERTEX
  5
8ED
  8
DATA
  6
CONTINUOUS
 62
     7
 10
93.996292978556227
 20
58.518786852536437
 30
0.0
  0
VERTEX
  5
8EE
  8
DATA
  6
CONTINUOUS
 62
     7
 10
93.994881593260359
 20
58.51848726204237
 30
0.0
  0
VERTEX
  5
8EF
  8
DATA
  6
CONTINUOUS
 62
     7
 10
93.993467035819378
 20
58.518194605693473
 30
0.0
  0
VERTEX
  5
8F0
  8
DATA
  6
CONTINUOUS
 62
     7
 10
93.992049306233369
 20
58.517908883489767
 30
0.0
  0
VERTEX
  5
8F1
  8
DATA
  6
CONTINUOUS
 62
     7
 10
93.990628404502317
 20
58.517630095431223
 30
0.0
  0
VERTEX
  5
8F2
  8
DATA
  6
CONTINUOUS
 62
     7
 10
93.989204330626194
 20
58.517358241517861
 30
0.0
  0
VERTEX
  5
8F3
  8
DATA
  6
CONTINUOUS
 62
     7
 10
93.987777084605014
 20
58.517093321749677
 30
0.0
  0
VERTEX
  5
8F4
  8
DATA
  6
CONTINUOUS
 62
     7
 10
93.986346666438791
 20
58.516835336126682
 30
0.0
  0
VERTEX
  5
8F5
  8
DATA
  6
CONTINUOUS
 62
     7
 10
93.984913076127512
 20
58.51658428464885
 30
0.0
  0
VERTEX
  5
8F6
  8
DATA
  6
CONTINUOUS
 62
     7
 10
93.983476313671204
 20
58.516340167316208
 30
0.0
  0
VERTEX
  5
8F7
  8
DATA
  6
CONTINUOUS
 62
     7
 10
93.982036379069811
 20
58.516102984128722
 30
0.0
  0
VERTEX
  5
8F8
  8
DATA
  6
CONTINUOUS
 62
     7
 10
93.980593272323347
 20
58.515872735086418
 30
0.0
  0
VERTEX
  5
8F9
  8
DATA
  6
CONTINUOUS
 62
     7
 10
93.97914699343184
 20
58.515649420189298
 30
0.0
  0
VERTEX
  5
8FA
  8
DATA
  6
CONTINUOUS
 62
     7
 10
93.977697542395305
 20
58.515433039437369
 30
0.0
  0
VERTEX
  5
8FB
  8
DATA
  6
CONTINUOUS
 62
     7
 10
93.976244919213684
 20
58.515223592830608
 30
0.0
  0
VERTEX
  5
8FC
  8
DATA
  6
CONTINUOUS
 62
     7
 10
93.974789123887035
 20
58.515021080369017
 30
0.0
  0
VERTEX
  5
8FD
  8
DATA
  6
CONTINUOUS
 62
     7
 10
93.973330156415344
 20
58.514825502052631
 30
0.0
  0
VERTEX
  5
8FE
  8
DATA
  6
CONTINUOUS
 62
     7
 10
93.973330156415344
 20
58.514825502052631
 30
0.0
  0
SEQEND
  5
8FF
  8
DATA
  6
CONTINUOUS
 62
     7
  0
LINE
  5
301
  8
DATA
  6
CONTINUOUS
 62
     7
 10
94.197395515996106
 20
58.766826852730141
 30
0.0
 11
94.197395515996106
 21
58.763687072750997
 31
0.0
  0
LINE
  5
302
  8
DATA
  6
CONTINUOUS
 62
     7
 10
94.262456421030706
 20
64.117311757207716
 30
0.0
 11
94.181560586728764
 21
64.108361579795741
 31
0.0
  0
LINE
  5
303
  8
DATA
  6
CONTINUOUS
 62
     7
 10
94.555746850073589
 20
64.2181733718906
 30
0.0
 11
94.262456421030706
 21
64.117311757207716
 31
0.0
  0
LINE
  5
304
  8
DATA
  6
CONTINUOUS
 62
     7
 10
94.792238076308209
 20
64.407848285508734
 30
0.0
 11
94.555746850073589
 21
64.2181733718906
 31
0.0
  0
LINE
  5
305
  8
DATA
  6
CONTINUOUS
 62
     7
 10
94.951275844169956
 20
64.671534281573159
 30
0.0
 11
94.792238076308209
 21
64.407848285508734
 31
0.0
  0
LINE
  5
306
  8
DATA
  6
CONTINUOUS
 62
     7
 10
95.007730809383986
 20
64.977561501548763
 30
0.0
 11
94.951275844169956
 21
64.671534281573159
 31
0.0
  0
LINE
  5
307
  8
DATA
  6
CONTINUOUS
 62
     7
 10
78.0
 20
66.949698670547676
 30
0.0
 11
78.969701362069898
 21
66.949698670547676
 31
0.0
  0
LINE
  5
308
  8
DATA
  6
CONTINUOUS
 62
     7
 10
78.969701362069898
 20
59.955135022983981
 30
0.0
 11
78.0
 21
59.955135022983981
 31
0.0
  0
LINE
  5
309
  8
DATA
  6
CONTINUOUS
 62
     7
 10
82.395898122943663
 20
57.042540750528303
 30
0.0
 11
82.395898122943663
 21
68.583794523442961
 31
0.0
  0
LINE
  5
30A
  8
DATA
  6
CONTINUOUS
 62
     7
 10
79.869538429580373
 20
68.737668727412483
 30
0.0
 11
82.395898122943663
 21
68.583794523442961
 31
0.0
  0
LINE
  5
30B
  8
DATA
  6
CONTINUOUS
 62
     7
 10
78.969701362069898
 20
68.792746742256469
 30
0.0
 11
79.869538429580373
 21
68.737668727412483
 31
0.0
  0
LINE
  5
30C
  8
DATA
  6
CONTINUOUS
 62
     7
 10
78.969701362069898
 20
56.802951385957662
 30
0.0
 11
78.969701362069898
 21
68.792746742256469
 31
0.0
  0
LINE
  5
30D
  8
DATA
  6
CONTINUOUS
 62
     7
 10
84.018289897684724
 20
68.2120179232476
 30
0.0
 11
93.970198704766247
 21
67.297034401656134
 31
0.0
  0
LINE
  5
30E
  8
DATA
  6
CONTINUOUS
 62
     7
 10
82.395898122943663
 20
68.36107280091835
 30
0.0
 11
84.018289897684724
 21
68.2120179232476
 31
0.0
  0
LINE
  5
30F
  8
DATA
  6
CONTINUOUS
 62
     7
 10
93.943692410121614
 20
64.087018849043744
 30
0.0
 11
82.395898122943663
 21
64.087018849043744
 31
0.0
  0
LINE
  5
310
  8
DATA
  6
CONTINUOUS
 62
     7
 10
93.970198704766247
 20
64.088395799414812
 30
0.0
 11
93.943692410121614
 21
64.087018849043744
 31
0.0
  0
LINE
  5
311
  8
DATA
  6
CONTINUOUS
 62
     7
 10
93.943692410121614
 20
62.818159082080697
 30
0.0
 11
93.970198704766247
 21
62.816782131709623
 31
0.0
  0
LINE
  5
312
  8
DATA
  6
CONTINUOUS
 62
     7
 10
93.943692410121614
 20
62.818159082080697
 30
0.0
 11
82.395898122943663
 21
62.818159082080697
 31
0.0
  0
LINE
  5
313
  8
DATA
  6
CONTINUOUS
 62
     7
 10
85.348768193755376
 20
58.738255132530021
 30
0.0
 11
82.395898122943663
 21
58.468028622203043
 31
0.0
  0
LINE
  5
314
  8
DATA
  6
CONTINUOUS
 62
     7
 10
93.943692410121614
 20
59.526214982388332
 30
0.0
 11
85.348768193755376
 21
58.738255132530021
 31
0.0
  0
LINE
  5
315
  8
DATA
  6
CONTINUOUS
 62
     7
 10
93.970198704766247
 20
59.529657358316364
 30
0.0
 11
93.943692410121614
 21
59.526214982388332
 31
0.0
  0
LINE
  5
316
  8
DATA
  6
CONTINUOUS
 62
     7
 10
94.197395515996106
 20
64.338656529361259
 30
0.0
 11
94.197395515996106
 21
64.340721954917882
 31
0.0
  0
LINE
  5
317
  8
DATA
  6
CONTINUOUS
 62
     7
 10
94.193953140068388
 20
64.2990692061922
 30
0.0
 11
94.197395515996106
 21
64.338656529361259
 31
0.0
  0
LINE
  5
318
  8
DATA
  6
CONTINUOUS
 62
     7
 10
94.151611916156483
 20
64.195109453174766
 30
0.0
 11
94.193953140068388
 21
64.2990692061922
 31
0.0
  0
LINE
  5
319
  8
DATA
  6
CONTINUOUS
 62
     7
 10
94.090337624643723
 20
64.13349092406817
 30
0.0
 11
94.151611916156483
 21
64.195109453174766
 31
0.0
  0
LINE
  5
31A
  8
DATA
  6
CONTINUOUS
 62
     7
 10
94.036292322577694
 20
64.10457496627528
 30
0.0
 11
94.090337624643723
 21
64.13349092406817
 31
0.0
  0
LINE
  5
31B
  8
DATA
  6
CONTINUOUS
 62
     7
 10
93.970198704766247
 20
64.088395799414812
 30
0.0
 11
94.036292322577694
 21
64.10457496627528
 31
0.0
  0
LINE
  5
31C
  8
DATA
  6
CONTINUOUS
 62
     7
 10
93.996360761816604
 20
67.293592025728103
 30
0.0
 11
93.970198704766247
 21
67.297034401656134
 31
0.0
  0
LINE
  5
31D
  8
DATA
  6
CONTINUOUS
 62
     7
 10
94.075879645747506
 20
67.266053018306295
 30
0.0
 11
93.996360761816604
 21
67.293592025728103
 31
0.0
  0
LINE
  5
31E
  8
DATA
  6
CONTINUOUS
 62
     7
 10
94.140596313187942
 20
67.216138567354179
 30
0.0
 11
94.075879645747506
 21
67.266053018306295
 31
0.0
  0
LINE
  5
31F
  8
DATA
  6
CONTINUOUS
 62
     7
 10
94.182937537099875
 20
67.150044949541623
 30
0.0
 11
94.140596313187942
 21
67.216138567354179
 31
0.0
  0
LINE
  5
320
  8
DATA
  6
CONTINUOUS
 62
     7
 10
94.197395515996106
 20
67.075689629502648
 30
0.0
 11
94.182937537099875
 21
67.150044949541623
 31
0.0
  0
LINE
  5
321
  8
DATA
  6
CONTINUOUS
 62
     7
 10
94.197395515996106
 20
64.340721954917882
 30
0.0
 11
94.197395515996106
 21
67.075689629502648
 31
0.0
  0
LINE
  5
322
  8
DATA
  6
CONTINUOUS
 62
     7
 10
94.036292322577694
 20
62.800602964849531
 30
0.0
 11
93.970198704766247
 21
62.816782131709623
 31
0.0
  0
LINE
  5
323
  8
DATA
  6
CONTINUOUS
 62
     7
 10
94.090337624643723
 20
62.771342769463502
 30
0.0
 11
94.036292322577694
 21
62.800602964849531
 31
0.0
  0
LINE
  5
324
  8
DATA
  6
CONTINUOUS
 62
     7
 10
94.151611916156483
 20
62.709724240357282
 30
0.0
 11
94.090337624643723
 21
62.771342769463502
 31
0.0
  0
LINE
  5
325
  8
DATA
  6
CONTINUOUS
 62
     7
 10
94.193953140068388
 20
62.605764487339492
 30
0.0
 11
94.151611916156483
 21
62.709724240357282
 31
0.0
  0
LINE
  5
326
  8
DATA
  6
CONTINUOUS
 62
     7
 10
94.197395515996106
 20
62.566177164170767
 30
0.0
 11
94.193953140068388
 21
62.605764487339492
 31
0.0
  0
LINE
  5
327
  8
DATA
  6
CONTINUOUS
 62
     7
 10
94.197395515996106
 20
62.564111738614159
 30
0.0
 11
94.197395515996106
 21
62.566177164170767
 31
0.0
  0
LINE
  5
328
  8
DATA
  6
CONTINUOUS
 62
     7
 10
94.036292322577694
 20
59.553409752217732
 30
0.0
 11
93.970198704766247
 21
59.529657358316364
 31
0.0
  0
LINE
  5
329
  8
DATA
  6
CONTINUOUS
 62
     7
 10
94.090337624643723
 20
59.596783688906882
 30
0.0
 11
94.036292322577694
 21
59.553409752217732
 31
0.0
  0
LINE
  5
32A
  8
DATA
  6
CONTINUOUS
 62
     7
 10
94.151611916156483
 20
59.68938360136297
 30
0.0
 11
94.090337624643723
 21
59.596783688906882
 31
0.0
  0
LINE
  5
32B
  8
DATA
  6
CONTINUOUS
 62
     7
 10
94.193953140068388
 20
59.848077131631612
 30
0.0
 11
94.151611916156483
 21
59.68938360136297
 31
0.0
  0
LINE
  5
32C
  8
DATA
  6
CONTINUOUS
 62
     7
 10
94.197395515996106
 20
59.909007185552682
 30
0.0
 11
94.193953140068388
 21
59.848077131631612
 31
0.0
  0
LINE
  5
32D
  8
DATA
  6
CONTINUOUS
 62
     7
 10
94.197395515996106
 20
59.912449561480372
 30
0.0
 11
94.197395515996106
 21
59.909007185552682
 31
0.0
  0
LINE
  5
32E
  8
DATA
  6
CONTINUOUS
 62
     7
 10
94.197395515996106
 20
59.912449561480372
 30
0.0
 11
94.197395515996106
 21
62.564111738614159
 31
0.0
  0
LINE
  5
32F
  8
DATA
  6
CONTINUOUS
 62
     7
 10
94.197395515996106
 20
62.564111738614159
 30
0.0
 11
94.197395515996106
 21
64.340721954917882
 31
0.0
  0
LINE
  5
330
  8
DATA
  6
CONTINUOUS
 62
     7
 10
78.969701362069898
 20
70.168664400571643
 30
0.0
 11
78.969701362069898
 21
69.123903306504474
 31
0.0
  0
LINE
  5
331
  8
DATA
  6
CONTINUOUS
 62
     7
 10
78.969701362069898
 20
68.792746742256469
 30
0.0
 11
78.969701362069898
 21
69.123903306504474
 31
0.0
  0
LINE
  5
332
  8
DATA
  6
CONTINUOUS
 62
     7
 10
78.969701362069898
 20
70.269870252846914
 30
0.0
 11
78.969701362069898
 21
70.168664400571643
 31
0.0
  0
LINE
  5
333
  8
DATA
  6
CONTINUOUS
 62
     7
 10
82.395898122943663
 20
58.072843865698999
 30
0.0
 11
93.943692410121614
 21
59.156848045342628
 31
0.0
  0
LINE
  5
334
  8
DATA
  6
CONTINUOUS
 62
     7
 10
93.952986825126345
 20
59.157880758120939
 30
0.0
 11
93.943692410121614
 21
59.156848045342628
 31
0.0
  0
LINE
  5
335
  8
DATA
  6
CONTINUOUS
 62
     7
 10
93.961937002538363
 20
59.158224995713702
 30
0.0
 11
93.952986825126345
 21
59.157880758120939
 31
0.0
  0
LINE
  5
336
  8
DATA
  6
CONTINUOUS
 62
     7
 10
93.971231417543081
 20
59.15891347089925
 30
0.0
 11
93.961937002538363
 21
59.158224995713702
 31
0.0
  0
LINE
  5
337
  8
DATA
  6
CONTINUOUS
 62
     7
 10
95.007730809383986
 20
64.977561501548763
 30
0.0
 11
95.007730809383986
 21
67.834045046382386
 31
0.0
  0
LINE
  5
338
  8
DATA
  6
CONTINUOUS
 62
     7
 10
94.016670779789905
 20
59.162011609234149
 30
0.0
 11
93.971231417543081
 21
59.15891347089925
 31
0.0
  0
LINE
  5
339
  8
DATA
  6
CONTINUOUS
 62
     7
 10
94.059356241293173
 20
59.168552123496752
 30
0.0
 11
94.016670779789905
 21
59.162011609234149
 31
0.0
  0
LINE
  5
33A
  8
DATA
  6
CONTINUOUS
 62
     7
 10
94.098599326870215
 20
59.177502300909083
 30
0.0
 11
94.059356241293173
 21
59.168552123496752
 31
0.0
  0
LINE
  5
33B
  8
DATA
  6
CONTINUOUS
 62
     7
 10
94.132678848554235
 20
59.189206379063208
 30
0.0
 11
94.098599326870215
 21
59.177502300909083
 31
0.0
  0
LINE
  5
33C
  8
DATA
  6
CONTINUOUS
 62
     7
 10
94.160217855977109
 20
59.20263164518154
 30
0.0
 11
94.132678848554235
 21
59.189206379063208
 31
0.0
  0
LINE
  5
33D
  8
DATA
  6
CONTINUOUS
 62
     7
 10
94.180872111543238
 20
59.21777809926332
 30
0.0
 11
94.160217855977109
 21
59.20263164518154
 31
0.0
  0
LINE
  5
33E
  8
DATA
  6
CONTINUOUS
 62
     7
 10
94.193264664882847
 20
59.234301503716573
 30
0.0
 11
94.180872111543238
 21
59.21777809926332
 31
0.0
  0
LINE
  5
33F
  8
DATA
  6
CONTINUOUS
 62
     7
 10
94.197395515996106
 20
59.25116914576256
 30
0.0
 11
94.193264664882847
 21
59.234301503716573
 31
0.0
  0
LINE
  5
340
  8
DATA
  6
CONTINUOUS
 62
     7
 10
94.197395515996106
 20
59.25116914576256
 30
0.0
 11
94.197395515996106
 21
60.139302135117852
 31
0.0
  0
LINE
  5
341
  8
DATA
  6
CONTINUOUS
 62
     7
 10
85.348768193755376
 20
58.103825249048512
 30
0.0
 11
82.395898122943663
 21
57.833598738721498
 31
0.0
  0
LINE
  5
342
  8
DATA
  6
CONTINUOUS
 62
     7
 10
93.943692410121614
 20
58.891785098907178
 30
0.0
 11
85.348768193755376
 21
58.103825249048512
 31
0.0
  0
LINE
  5
343
  8
DATA
  6
CONTINUOUS
 62
     7
 10
93.943692410121614
 20
58.891785098907178
 30
0.0
 11
93.970198704766247
 21
58.893506286871002
 31
0.0
  0
LINE
  5
344
  8
DATA
  6
CONTINUOUS
 62
     7
 10
94.036292322577694
 20
58.901423751504659
 30
0.0
 11
93.970198704766247
 21
58.893506286871002
 31
0.0
  0
LINE
  5
345
  8
DATA
  6
CONTINUOUS
 62
     7
 10
94.090337624643723
 20
58.915881730401303
 30
0.0
 11
94.036292322577694
 21
58.901423751504659
 31
0.0
  0
LINE
  5
346
  8
DATA
  6
CONTINUOUS
 62
     7
 10
94.151611916156483
 20
58.946863113750801
 30
0.0
 11
94.090337624643723
 21
58.915881730401303
 31
0.0
  0
LINE
  5
347
  8
DATA
  6
CONTINUOUS
 62
     7
 10
94.193953140068388
 20
59.001252653408883
 30
0.0
 11
94.151611916156483
 21
58.946863113750801
 31
0.0
  0
LINE
  5
348
  8
DATA
  6
CONTINUOUS
 62
     7
 10
94.197395515996106
 20
59.022939621753643
 30
0.0
 11
94.193953140068388
 21
59.001252653408883
 31
0.0
  0
LINE
  5
349
  8
DATA
  6
CONTINUOUS
 62
     7
 10
94.197395515996106
 20
59.023972334531933
 30
0.0
 11
94.197395515996106
 21
59.022939621753643
 31
0.0
  0
LINE
  5
34A
  8
DATA
  6
CONTINUOUS
 62
     7
 10
94.197395515996106
 20
59.023972334531933
 30
0.0
 11
94.197395515996106
 21
59.25116914576256
 31
0.0
  0
LINE
  5
34B
  8
DATA
  6
CONTINUOUS
 62
     7
 10
94.197395515996106
 20
58.766826852730141
 30
0.0
 11
94.197395515996106
 21
59.023972334531933
 31
0.0
  0
LINE
  5
34C
  8
DATA
  6
CONTINUOUS
 62
     7
 10
94.197395515996106
 20
59.912449561480372
 30
0.0
 11
94.197395515996106
 21
60.139302135117852
 31
0.0
  0
LINE
  5
34D
  8
DATA
  6
CONTINUOUS
 62
     7
 10
93.970198704766247
 20
67.297034401656134
 30
0.0
 11
93.970198704766247
 21
64.088395799414812
 31
0.0
  0
LINE
  5
34E
  8
DATA
  6
CONTINUOUS
 62
     7
 10
93.970198704766247
 20
62.816782131709623
 30
0.0
 11
93.970198704766247
 21
59.529657358316364
 31
0.0
  0
LINE
  5
34F
  8
DATA
  6
CONTINUOUS
 62
     7
 10
93.971231417543081
 20
64.088395799414812
 30
0.0
 11
93.971231417543081
 21
62.816437894116859
 31
0.0
  0
LINE
  5
350
  8
DATA
  6
CONTINUOUS
 62
     7
 10
78.969701362069898
 20
69.123903306504474
 30
0.0
 11
94.134400036518045
 21
67.562441585684368
 31
0.0
  0
LINE
  5
351
  8
DATA
  6
CONTINUOUS
 62
     7
 10
94.222524860268194
 20
68.511160391367795
 30
0.0
 11
94.22459028582476
 21
68.597908264746451
 31
0.0
  0
LINE
  5
352
  8
DATA
  6
CONTINUOUS
 62
     7
 10
94.217705533969422
 20
68.402381312051261
 30
0.0
 11
94.222524860268194
 21
68.511160391367795
 31
0.0
  0
LINE
  5
353
  8
DATA
  6
CONTINUOUS
 62
     7
 10
94.209443831742917
 20
68.276046115503533
 30
0.0
 11
94.217705533969422
 21
68.402381312051261
 31
0.0
  0
LINE
  5
354
  8
DATA
  6
CONTINUOUS
 62
     7
 10
94.198083991181647
 20
68.136974128023056
 30
0.0
 11
94.209443831742917
 21
68.276046115503533
 31
0.0
  0
LINE
  5
355
  8
DATA
  6
CONTINUOUS
 62
     7
 10
94.184658725063628
 20
67.990328913501656
 30
0.0
 11
94.198083991181647
 21
68.136974128023056
 31
0.0
  0
LINE
  5
356
  8
DATA
  6
CONTINUOUS
 62
     7
 10
94.168823795794907
 20
67.841962511016419
 30
0.0
 11
94.184658725063628
 21
67.990328913501656
 31
0.0
  0
LINE
  5
357
  8
DATA
  6
CONTINUOUS
 62
     7
 10
94.151956153749197
 20
67.697382722051273
 30
0.0
 11
94.168823795794907
 21
67.841962511016419
 31
0.0
  0
LINE
  5
358
  8
DATA
  6
CONTINUOUS
 62
     7
 10
94.134400036518045
 20
67.562441585684368
 30
0.0
 11
94.151956153749197
 21
67.697382722051273
 31
0.0
  0
LINE
  5
359
  8
DATA
  6
CONTINUOUS
 62
     7
 10
94.22459028582476
 20
68.597908264746451
 30
0.0
 11
78.969701362069898
 21
70.168664400571643
 31
0.0
  0
LINE
  5
35A
  8
DATA
  6
CONTINUOUS
 62
     7
 10
94.244211828612563
 20
67.473284049155978
 30
0.0
 11
94.246621491761914
 21
67.453318268775064
 31
0.0
  0
LINE
  5
35B
  8
DATA
  6
CONTINUOUS
 62
     7
 10
94.238015551942709
 20
67.492217116758567
 30
0.0
 11
94.244211828612563
 21
67.473284049155978
 31
0.0
  0
LINE
  5
35C
  8
DATA
  6
CONTINUOUS
 62
     7
 10
94.228032661752479
 20
67.510117471582888
 30
0.0
 11
94.238015551942709
 21
67.492217116758567
 31
0.0
  0
LINE
  5
35D
  8
DATA
  6
CONTINUOUS
 62
     7
 10
94.214607395634516
 20
67.526296638442972
 30
0.0
 11
94.228032661752479
 21
67.510117471582888
 31
0.0
  0
LINE
  5
35E
  8
DATA
  6
CONTINUOUS
 62
     7
 10
94.197739753588905
 20
67.539721904561304
 30
0.0
 11
94.214607395634516
 21
67.526296638442972
 31
0.0
  0
LINE
  5
35F
  8
DATA
  6
CONTINUOUS
 62
     7
 10
94.178462448393859
 20
67.550737507529874
 30
0.0
 11
94.197739753588905
 21
67.539721904561304
 31
0.0
  0
LINE
  5
360
  8
DATA
  6
CONTINUOUS
 62
     7
 10
94.157119717640796
 20
67.558310734571151
 30
0.0
 11
94.178462448393859
 21
67.550737507529874
 31
0.0
  0
LINE
  5
361
  8
DATA
  6
CONTINUOUS
 62
     7
 10
94.134400036518045
 20
67.562441585684368
 30
0.0
 11
94.157119717640796
 21
67.558310734571151
 31
0.0
  0
LINE
  5
362
  8
DATA
  6
CONTINUOUS
 62
     7
 10
94.208411118964705
 20
64.51834855278878
 30
0.0
 11
94.197395515996106
 21
64.510086850562345
 31
0.0
  0
LINE
  5
363
  8
DATA
  6
CONTINUOUS
 62
     7
 10
94.218049771562221
 20
64.527642967793895
 30
0.0
 11
94.208411118964705
 21
64.51834855278878
 31
0.0
  0
LINE
  5
364
  8
DATA
  6
CONTINUOUS
 62
     7
 10
94.226311473788627
 20
64.537625857984168
 30
0.0
 11
94.218049771562221
 21
64.527642967793895
 31
0.0
  0
LINE
  5
365
  8
DATA
  6
CONTINUOUS
 62
     7
 10
94.233540463236778
 20
64.548641460952751
 30
0.0
 11
94.226311473788627
 21
64.537625857984168
 31
0.0
  0
LINE
  5
366
  8
DATA
  6
CONTINUOUS
 62
     7
 10
94.239048264721063
 20
64.560001301514461
 30
0.0
 11
94.233540463236778
 21
64.548641460952751
 31
0.0
  0
LINE
  5
367
  8
DATA
  6
CONTINUOUS
 62
     7
 10
94.243179115834309
 20
64.572049617261342
 30
0.0
 11
94.239048264721063
 21
64.560001301514461
 31
0.0
  0
LINE
  5
368
  8
DATA
  6
CONTINUOUS
 62
     7
 10
94.245588778983631
 20
64.584442170601363
 30
0.0
 11
94.243179115834309
 21
64.572049617261342
 31
0.0
  0
LINE
  5
369
  8
DATA
  6
CONTINUOUS
 62
     7
 10
94.246621491761914
 20
64.596834723941015
 30
0.0
 11
94.245588778983631
 21
64.584442170601363
 31
0.0
  0
LINE
  5
36A
  8
DATA
  6
CONTINUOUS
 62
     7
 10
94.246621491761914
 20
67.453318268775064
 30
0.0
 11
94.246621491761914
 21
64.596834723941015
 31
0.0
  0
LINE
  5
36B
  8
DATA
  6
CONTINUOUS
 62
     7
 10
94.217705533969422
 20
68.693606315537423
 30
0.0
 11
94.212541970077879
 21
68.700491067393173
 31
0.0
  0
LINE
  5
36C
  8
DATA
  6
CONTINUOUS
 62
     7
 10
94.222524860268194
 20
68.659526793853004
 30
0.0
 11
94.217705533969422
 21
68.693606315537423
 31
0.0
  0
LINE
  5
36D
  8
DATA
  6
CONTINUOUS
 62
     7
 10
94.22459028582476
 20
68.597908264746451
 30
0.0
 11
94.222524860268194
 21
68.659526793853004
 31
0.0
  0
LINE
  5
36E
  8
DATA
  6
CONTINUOUS
 62
     7
 10
93.971231417543081
 20
59.529657358316364
 30
0.0
 11
93.971231417543081
 21
59.15891347089925
 31
0.0
  0
LINE
  5
36F
  8
DATA
  6
CONTINUOUS
 62
     7
 10
94.993272830487683
 20
67.759689726343396
 30
0.0
 11
95.007730809383986
 21
67.834045046382386
 31
0.0
  0
LINE
  5
370
  8
DATA
  6
CONTINUOUS
 62
     7
 10
94.949898893798945
 20
67.688432544639298
 30
0.0
 11
94.993272830487683
 21
67.759689726343396
 31
0.0
  0
LINE
  5
371
  8
DATA
  6
CONTINUOUS
 62
     7
 10
94.879674424872789
 20
67.622338926826714
 30
0.0
 11
94.949898893798945
 21
67.688432544639298
 31
0.0
  0
LINE
  5
372
  8
DATA
  6
CONTINUOUS
 62
     7
 10
94.785009086860086
 20
67.564851248833719
 30
0.0
 11
94.879674424872789
 21
67.622338926826714
 31
0.0
  0
LINE
  5
373
  8
DATA
  6
CONTINUOUS
 62
     7
 10
94.669345255688484
 20
67.517346461031011
 30
0.0
 11
94.785009086860086
 21
67.564851248833719
 31
0.0
  0
LINE
  5
374
  8
DATA
  6
CONTINUOUS
 62
     7
 10
94.537846495248161
 20
67.48223422656794
 30
0.0
 11
94.669345255688484
 21
67.517346461031011
 31
0.0
  0
LINE
  5
375
  8
DATA
  6
CONTINUOUS
 62
     7
 10
94.394987894247933
 20
67.460547258223187
 30
0.0
 11
94.537846495248161
 21
67.48223422656794
 31
0.0
  0
LINE
  5
376
  8
DATA
  6
CONTINUOUS
 62
     7
 10
94.246621491761914
 20
67.453318268775064
 30
0.0
 11
94.394987894247933
 21
67.460547258223187
 31
0.0
  0
LINE
  5
377
  8
DATA
  6
CONTINUOUS
 62
     7
 10
94.381906865722712
 20
68.568992306953561
 30
0.0
 11
94.22459028582476
 21
68.597908264746451
 31
0.0
  0
LINE
  5
378
  8
DATA
  6
CONTINUOUS
 62
     7
 10
94.530961743392808
 20
68.515635480073783
 30
0.0
 11
94.381906865722712
 21
68.568992306953561
 31
0.0
  0
LINE
  5
379
  8
DATA
  6
CONTINUOUS
 62
     7
 10
94.666247117353535
 20
68.440247447256453
 30
0.0
 11
94.530961743392808
 21
68.515635480073783
 31
0.0
  0
LINE
  5
37A
  8
DATA
  6
CONTINUOUS
 62
     7
 10
94.78363213648899
 20
68.344893634058252
 30
0.0
 11
94.666247117353535
 21
68.440247447256453
 31
0.0
  0
LINE
  5
37B
  8
DATA
  6
CONTINUOUS
 62
     7
 10
94.879330187280004
 20
68.232672178814056
 30
0.0
 11
94.78363213648899
 21
68.344893634058252
 31
0.0
  0
LINE
  5
37C
  8
DATA
  6
CONTINUOUS
 62
     7
 10
94.949898893798945
 20
68.107369695044639
 30
0.0
 11
94.879330187280004
 21
68.232672178814056
 31
0.0
  0
LINE
  5
37D
  8
DATA
  6
CONTINUOUS
 62
     7
 10
94.993272830487683
 20
67.972772796270107
 30
0.0
 11
94.949898893798945
 21
68.107369695044639
 31
0.0
  0
LINE
  5
37E
  8
DATA
  6
CONTINUOUS
 62
     7
 10
95.007730809383986
 20
67.834045046382386
 30
0.0
 11
94.993272830487683
 21
67.972772796270107
 31
0.0
  0
LINE
  5
37F
  8
DATA
  6
CONTINUOUS
 62
     7
 10
94.993272830487683
 20
64.903206181509404
 30
0.0
 11
95.007730809383986
 21
64.977561501548763
 31
0.0
  0
LINE
  5
380
  8
DATA
  6
CONTINUOUS
 62
     7
 10
94.949898893798945
 20
64.831948999805292
 30
0.0
 11
94.993272830487683
 21
64.903206181509404
 31
0.0
  0
LINE
  5
381
  8
DATA
  6
CONTINUOUS
 62
     7
 10
94.879674424872789
 20
64.765855381993077
 30
0.0
 11
94.949898893798945
 21
64.831948999805292
 31
0.0
  0
LINE
  5
382
  8
DATA
  6
CONTINUOUS
 62
     7
 10
94.785009086860086
 20
64.708367703999713
 30
0.0
 11
94.879674424872789
 21
64.765855381993077
 31
0.0
  0
LINE
  5
383
  8
DATA
  6
CONTINUOUS
 62
     7
 10
94.669345255688484
 20
64.660862916196976
 30
0.0
 11
94.785009086860086
 21
64.708367703999713
 31
0.0
  0
LINE
  5
384
  8
DATA
  6
CONTINUOUS
 62
     7
 10
94.537846495248161
 20
64.625750681734274
 30
0.0
 11
94.669345255688484
 21
64.660862916196976
 31
0.0
  0
LINE
  5
385
  8
DATA
  6
CONTINUOUS
 62
     7
 10
94.394987894247933
 20
64.604063713389507
 30
0.0
 11
94.537846495248161
 21
64.625750681734274
 31
0.0
  0
LINE
  5
386
  8
DATA
  6
CONTINUOUS
 62
     7
 10
94.246621491761914
 20
64.596834723941015
 30
0.0
 11
94.394987894247933
 21
64.604063713389507
 31
0.0
  0
LINE
  5
387
  8
DATA
  6
CONTINUOUS
 62
     7
 10
93.943692410121614
 20
59.156848045342628
 30
0.0
 11
93.943692410121614
 21
58.891785098907178
 31
0.0
  0
LINE
  5
388
  8
DATA
  6
CONTINUOUS
 62
     7
 10
93.970198704766247
 20
58.893506286871002
 30
0.0
 11
93.970198704766247
 21
58.51450069722744
 31
0.0
  0
POLYLINE
  5
389
  8
DATA
  6
CONTINUOUS
 62
     7
 66
     1
 10
0.0
 20
0.0
 30
0.0
 70
     1
  0
VERTEX
  5
900
  8
DATA
  6
CONTINUOUS
 62
     7
 10
58.964693832407292
 20
72.952416846765857
 30
0.0
  0
VERTEX
  5
901
  8
DATA
  6
CONTINUOUS
 62
     7
 10
65.964693832407292
 20
72.952416846765857
 30
0.0
  0
VERTEX
  5
902
  8
DATA
  6
CONTINUOUS
 62
     7
 10
65.964693832407292
 20
53.952416846765857
 30
0.0
  0
VERTEX
  5
903
  8
DATA
  6
CONTINUOUS
 62
     7
 10
58.964693832407292
 20
53.952416846765857
 30
0.0
  0
SEQEND
  5
904
  8
DATA
  6
CONTINUOUS
 62
     7
  0
LINE
  5
390
  8
DATA
  6
CONTINUOUS
 62
     7
 10
65.964693832407292
 20
67.802416846765823
 30
0.0
 11
75.0
 21
67.802416846765823
 31
0.0
  0
LINE
  5
391
  8
DATA
  6
CONTINUOUS
 62
     7
 10
75.0
 20
59.102416846765841
 30
0.0
 11
65.964693832407292
 21
59.102416846765841
 31
0.0
  0
LINE
  5
392
  8
DATA
  6
CONTINUOUS
 62
     7
 10
71.029999999999973
 20
45.011766679057928
 30
0.0
 11
68.420000000000016
 21
45.011766679057928
 31
0.0
  0
LINE
  5
393
  8
DATA
  6
CONTINUOUS
 62
     7
 10
71.029999999999973
 20
41.011766679057928
 30
0.0
 11
68.420000000000016
 21
41.011766679057928
 31
0.0
  0
LINE
  5
394
  8
DATA
  6
CONTINUOUS
 62
     7
 10
71.029999999999973
 20
41.011766679057928
 30
0.0
 11
71.029999999999973
 21
45.011766679057928
 31
0.0
  0
LINE
  5
395
  8
DATA
  6
CONTINUOUS
 62
     7
 10
71.029999999999973
 20
38.761766679057942
 30
0.0
 11
71.029999999999973
 21
47.261766679057992
 31
0.0
  0
LINE
  5
396
  8
DATA
  6
CONTINUOUS
 62
     7
 10
71.029999999999973
 20
47.261766679057992
 30
0.0
 11
75.0
 21
47.261766679057992
 31
0.0
  0
LINE
  5
397
  8
DATA
  6
CONTINUOUS
 62
     7
 10
71.029999999999973
 20
38.761766679057942
 30
0.0
 11
75.0
 21
38.761766679057942
 31
0.0
  0
LINE
  5
398
  8
DATA
  6
CONTINUOUS
 62
     7
 10
75.0
 20
43.011766679057928
 30
0.0
 11
71.029999999999973
 21
43.011766679057928
 31
0.0
  0
LINE
  5
399
  8
DATA
  6
CONTINUOUS
 62
     7
 10
68.420000000000016
 20
45.011766679057928
 30
0.0
 11
68.420000000000016
 21
41.011766679057928
 31
0.0
  0
POLYLINE
  5
39A
  8
DATA
  6
CONTINUOUS
 62
     7
 66
     1
 10
0.0
 20
0.0
 30
0.0
  0
VERTEX
  5
905
  8
DATA
  6
CONTINUOUS
 62
     7
 10
67.531183795839354
 20
83.928087379844499
 30
0.0
  0
VERTEX
  5
906
  8
DATA
  6
CONTINUOUS
 62
     7
 10
58.964693832407292
 20
83.928087379844499
 30
0.0
  0
VERTEX
  5
907
  8
DATA
  6
CONTINUOUS
 62
     7
 10
58.964693832407292
 20
92.068087379844499
 30
0.0
  0
VERTEX
  5
908
  8
DATA
  6
CONTINUOUS
 62
     7
 10
67.531183795839354
 20
92.068087379844499
 30
0.0
  0
SEQEND
  5
909
  8
DATA
  6
CONTINUOUS
 62
     7
  0
LINE
  5
3A1
  8
DATA
  6
CONTINUOUS
 62
     7
 10
67.531183795839354
 20
83.928087379844499
 30
0.0
 11
67.531183795839354
 21
92.068087379844499
 31
0.0
  0
LINE
  5
3A2
  8
DATA
  6
CONTINUOUS
 62
     7
 10
75.0
 20
89.623087379844478
 30
0.0
 11
67.531183795839354
 21
89.623087379844478
 31
0.0
  0
LINE
  5
3A3
  8
DATA
  6
CONTINUOUS
 62
     7
 10
75.0
 20
86.373087379844492
 30
0.0
 11
67.531183795839354
 21
86.373087379844492
 31
0.0
  0
LINE
  5
3A4
  8
DATA
  6
CONTINUOUS
 62
     7
 10
58.964693832407292
 20
97.879045136667344
 30
0.0
 11
67.531183795839354
 21
97.879045136667344
 31
0.0
  0
LINE
  5
3A5
  8
DATA
  6
CONTINUOUS
 62
     7
 10
67.531183795839354
 20
97.879045136667344
 30
0.0
 11
67.531183795839354
 21
101.7609605711727
 31
0.0
  0
LINE
  5
3A6
  8
DATA
  6
CONTINUOUS
 62
     7
 10
115.0
 20
19.75
 30
0.0
 11
115.0
 21
130.25
 31
0.0
  0
LINE
  5
3A7
  8
DATA
  6
CONTINUOUS
 62
     7
 10
185.0
 20
19.75
 30
0.0
 11
185.0
 21
130.25
 31
0.0
  0
CIRCLE
  5
3A8
  8
DATA
  6
CONTINUOUS
 62
     7
 10
166.51378785643811
 20
104.43619405604819
 30
0.0
 40
3.3503691950977119
  0
POLYLINE
  5
3A9
  8
DATA
  6
CONTINUOUS
 62
     7
 66
     1
 10
0.0
 20
0.0
 30
0.0
  0
VERTEX
  5
90A
  8
DATA
  6
CONTINUOUS
 62
     7
 10
167.01378785643811
 20
104.93619405604829
 30
0.0
  0
VERTEX
  5
90B
  8
DATA
  6
CONTINUOUS
 62
     7
 10
167.01378785643811
 20
106.93619405604829
 30
0.0
  0
VERTEX
  5
90C
  8
DATA
  6
CONTINUOUS
 62
     7
 10
166.01378785643811
 20
106.93619405604829
 30
0.0
  0
VERTEX
  5
90D
  8
DATA
  6
CONTINUOUS
 62
     7
 10
166.01378785643811
 20
104.93619405604829
 30
0.0
  0
SEQEND
  5
90E
  8
DATA
  6
CONTINUOUS
 62
     7
  0
POLYLINE
  5
3B0
  8
DATA
  6
CONTINUOUS
 62
     7
 66
     1
 10
0.0
 20
0.0
 30
0.0
  0
VERTEX
  5
90F
  8
DATA
  6
CONTINUOUS
 62
     7
 10
167.01378785643811
 20
103.93619405604829
 30
0.0
  0
VERTEX
  5
910
  8
DATA
  6
CONTINUOUS
 62
     7
 10
167.01378785643811
 20
101.93619405604829
 30
0.0
  0
VERTEX
  5
911
  8
DATA
  6
CONTINUOUS
 62
     7
 10
166.01378785643811
 20
101.93619405604829
 30
0.0
  0
VERTEX
  5
912
  8
DATA
  6
CONTINUOUS
 62
     7
 10
166.01378785643811
 20
103.93619405604829
 30
0.0
  0
SEQEND
  5
913
  8
DATA
  6
CONTINUOUS
 62
     7
  0
POLYLINE
  5
3B7
  8
DATA
  6
CONTINUOUS
 62
     7
 66
     1
 10
0.0
 20
0.0
 30
0.0
  0
VERTEX
  5
914
  8
DATA
  6
CONTINUOUS
 62
     7
 10
166.01378785643811
 20
103.93619405604829
 30
0.0
  0
VERTEX
  5
915
  8
DATA
  6
CONTINUOUS
 62
     7
 10
164.01378785643811
 20
103.93619405604829
 30
0.0
  0
VERTEX
  5
916
  8
DATA
  6
CONTINUOUS
 62
     7
 10
164.01378785643811
 20
104.93619405604829
 30
0.0
  0
VERTEX
  5
917
  8
DATA
  6
CONTINUOUS
 62
     7
 10
166.01378785643811
 20
104.93619405604829
 30
0.0
  0
SEQEND
  5
918
  8
DATA
  6
CONTINUOUS
 62
     7
  0
POLYLINE
  5
3BE
  8
DATA
  6
CONTINUOUS
 62
     7
 66
     1
 10
0.0
 20
0.0
 30
0.0
  0
VERTEX
  5
919
  8
DATA
  6
CONTINUOUS
 62
     7
 10
167.01378785643811
 20
103.93619405604829
 30
0.0
  0
VERTEX
  5
91A
  8
DATA
  6
CONTINUOUS
 62
     7
 10
169.01378785643811
 20
103.93619405604829
 30
0.0
  0
VERTEX
  5
91B
  8
DATA
  6
CONTINUOUS
 62
     7
 10
169.01378785643811
 20
104.93619405604829
 30
0.0
  0
VERTEX
  5
91C
  8
DATA
  6
CONTINUOUS
 62
     7
 10
167.01378785643811
 20
104.93619405604829
 30
0.0
  0
SEQEND
  5
91D
  8
DATA
  6
CONTINUOUS
 62
     7
  0
LINE
  5
3C5
  8
DATA
  6
CONTINUOUS
 62
     7
 10
237.27576956594021
 20
107.1413941462215
 30
0.0
 11
238.88848970061511
 21
107.1413941462215
 31
0.0
  0
LINE
  5
3C6
  8
DATA
  6
CONTINUOUS
 62
     7
 10
241.03530616759281
 20
109.9084965451846
 30
0.0
 11
241.03530616759281
 21
40.113636135184322
 31
0.0
  0
LINE
  5
3C7
  8
DATA
  6
CONTINUOUS
 62
     7
 10
242.60881620416069
 20
109.9084965451846
 30
0.0
 11
242.60881620416069
 21
40.113636135184322
 31
0.0
  0
LINE
  5
3C8
  8
DATA
  6
CONTINUOUS
 62
     7
 10
237.27576956594021
 20
107.1413941462215
 30
0.0
 11
241.03530616759281
 21
107.1413941462215
 31
0.0
  0
LINE
  5
3C9
  8
DATA
  6
CONTINUOUS
 62
     7
 10
236.87278519577629
 20
101.7609605711727
 30
0.0
 11
241.03530616759281
 21
101.7609605711727
 31
0.0
  0
POLYLINE
  5
3CA
  8
DATA
  6
CONTINUOUS
 62
     7
 66
     1
 10
0.0
 20
0.0
 30
0.0
 70
     1
  0
VERTEX
  5
91E
  8
DATA
  6
CONTINUOUS
 62
     7
 10
242.60881620416069
 20
107.8011773586971
 30
0.0
  0
VERTEX
  5
91F
  8
DATA
  6
CONTINUOUS
 62
     7
 10
245.0
 20
107.8011773586971
 30
0.0
  0
VERTEX
  5
920
  8
DATA
  6
CONTINUOUS
 62
     7
 10
245.0
 20
101.1011773586971
 30
0.0
  0
VERTEX
  5
921
  8
DATA
  6
CONTINUOUS
 62
     7
 10
242.60881620416069
 20
101.1011773586971
 30
0.0
  0
SEQEND
  5
922
  8
DATA
  6
CONTINUOUS
 62
     7
  0
POLYLINE
  5
3D1
  8
DATA
  6
CONTINUOUS
 62
     7
 66
     1
 10
0.0
 20
0.0
 30
0.0
 70
   128
  0
VERTEX
  5
923
  8
DATA
  6
CONTINUOUS
 62
     7
 10
243.60881620416069
 20
48.819655848378581
 30
0.0
  0
VERTEX
  5
924
  8
DATA
  6
CONTINUOUS
 62
     7
 10
245.0
 20
48.819655848378581
 30
0.0
  0
VERTEX
  5
925
  8
DATA
  6
CONTINUOUS
 62
     7
 10
245.0
 20
42.119655848378599
 30
0.0
  0
VERTEX
  5
926
  8
DATA
  6
CONTINUOUS
 62
     7
 10
243.60881620416069
 20
42.119655848378599
 30
0.0
  0
SEQEND
  5
927
  8
DATA
  6
CONTINUOUS
 62
     7
  0
LINE
  5
3D7
  8
DATA
  6
CONTINUOUS
 62
     7
 10
245.0
 20
107.8011773586971
 30
0.0
 11
245.0
 21
101.1011773586971
 31
0.0
  0
LINE
  5
3D8
  8
DATA
  6
CONTINUOUS
 62
     7
 10
243.60881620416069
 20
48.819655848378581
 30
0.0
 11
242.60881620416069
 21
48.819655848378581
 31
0.0
  0
LINE
  5
3D9
  8
DATA
  6
CONTINUOUS
 62
     7
 10
243.60881620416069
 20
42.119655848378599
 30
0.0
 11
242.60881620416069
 21
42.119655848378599
 31
0.0
  0
LINE
  5
3DA
  8
DATA
  6
CONTINUOUS
 62
     7
 10
231.5426103092729
 20
48.160044754699364
 30
0.0
 11
241.03530616759281
 21
48.160044754699364
 31
0.0
  0
LINE
  5
3DB
  8
DATA
  6
CONTINUOUS
 62
     7
 10
231.5800000000001
 20
42.779266942057831
 30
0.0
 11
241.03530616759281
 21
42.779266942057831
 31
0.0
  0
LINE
  5
3DC
  8
DATA
  6
CONTINUOUS
 62
     7
 10
221.99999999999989
 20
17.75
 30
0.0
 11
221.99999999999989
 21
132.25
 31
0.0
  0
LINE
  5
3DD
  8
DATA
  6
CONTINUOUS
 62
     7
 10
225.0
 20
17.75
 30
0.0
 11
225.0
 21
132.25
 31
0.0
  0
LINE
  5
3DE
  8
DATA
  6
CONTINUOUS
 62
     7
 10
242.60881620416069
 20
109.9084965451846
 30
0.0
 11
242.60881620416069
 21
110.0
 31
0.0
  0
LINE
  5
3DF
  8
DATA
  6
CONTINUOUS
 62
     7
 10
241.03530616759281
 20
109.9084965451846
 30
0.0
 11
241.03530616759281
 21
110.0
 31
0.0
  0
LINE
  5
3E0
  8
DATA
  6
CONTINUOUS
 62
     7
 10
241.03530616759281
 20
110.0
 30
0.0
 11
242.60617010199871
 21
110.0
 31
0.0
  0
LINE
  5
3E1
  8
DATA
  6
CONTINUOUS
 62
     7
 10
242.60881620416069
 20
40.113636135184322
 30
0.0
 11
242.60881620416069
 21
40.0
 31
0.0
  0
LINE
  5
3E2
  8
DATA
  6
CONTINUOUS
 62
     7
 10
241.03530616759281
 20
40.113636135184322
 30
0.0
 11
241.03530616759281
 21
40.0
 31
0.0
  0
LINE
  5
3E3
  8
DATA
  6
CONTINUOUS
 62
     7
 10
241.03530616759281
 20
40.0
 30
0.0
 11
242.60881620416069
 21
40.0
 31
0.0
  0
LINE
  5
3E4
  8
DATA
  6
CONTINUOUS
 62
     7
 10
237.27576956594021
 20
107.1413941462215
 30
0.0
 11
225.0
 21
107.1413941462215
 31
0.0
  0
LINE
  5
3E5
  8
DATA
  6
CONTINUOUS
 62
     7
 10
236.87278519577629
 20
101.7609605711727
 30
0.0
 11
225.0
 21
101.7609605711727
 31
0.0
  0
LINE
  5
3E6
  8
DATA
  6
CONTINUOUS
 62
     7
 10
217.99999999999969
 20
99.049045136667345
 30
0.0
 11
217.99999999999969
 21
104.8490451366673
 31
0.0
  0
LINE
  5
3E7
  8
DATA
  6
CONTINUOUS
 62
     7
 10
217.99999999999969
 20
85.098087379844486
 30
0.0
 11
217.99999999999969
 21
90.898087379844497
 31
0.0
  0
LINE
  5
3E8
  8
DATA
  6
CONTINUOUS
 62
     7
 10
217.99999999999969
 20
104.8490451366673
 30
0.0
 11
221.99999999999989
 21
104.8490451366673
 31
0.0
  0
LINE
  5
3E9
  8
DATA
  6
CONTINUOUS
 62
     7
 10
217.99999999999969
 20
99.049045136667345
 30
0.0
 11
221.99999999999989
 21
99.049045136667345
 31
0.0
  0
LINE
  5
3EA
  8
DATA
  6
CONTINUOUS
 62
     7
 10
217.99999999999969
 20
90.898087379844497
 30
0.0
 11
221.99999999999989
 21
90.898087379844497
 31
0.0
  0
LINE
  5
3EB
  8
DATA
  6
CONTINUOUS
 62
     7
 10
217.99999999999969
 20
85.098087379844486
 30
0.0
 11
221.99999999999989
 21
85.098087379844486
 31
0.0
  0
LINE
  5
3EC
  8
DATA
  6
CONTINUOUS
 62
     7
 10
217.60410187705611
 20
57.042540750528303
 30
0.0
 11
221.03029863793
 21
56.802951385957662
 31
0.0
  0
LINE
  5
3ED
  8
DATA
  6
CONTINUOUS
 62
     7
 10
221.03029863793
 20
70.269870252846914
 30
0.0
 11
205.78745802992171
 21
68.700491067393173
 31
0.0
  0
LINE
  5
3EE
  8
DATA
  6
CONTINUOUS
 62
     7
 10
204.9929576658009
 20
67.871911181587606
 30
0.0
 11
204.9922691906155
 21
67.834045046382386
 31
0.0
  0
LINE
  5
3EF
  8
DATA
  6
CONTINUOUS
 62
     7
 10
205.0614609467618
 20
68.172086362485771
 30
0.0
 11
204.9929576658009
 21
67.871911181587606
 31
0.0
  0
LINE
  5
3F0
  8
DATA
  6
CONTINUOUS
 62
     7
 10
205.2328912679634
 20
68.430953032251381
 30
0.0
 11
205.0614609467618
 21
68.172086362485771
 31
0.0
  0
LINE
  5
3F1
  8
DATA
  6
CONTINUOUS
 62
     7
 10
205.4883155618017
 20
68.615808619570743
 30
0.0
 11
205.2328912679634
 21
68.430953032251381
 31
0.0
  0
LINE
  5
3F2
  8
DATA
  6
CONTINUOUS
 62
     7
 10
205.78745802992171
 20
68.700491067393173
 30
0.0
 11
205.4883155618017
 21
68.615808619570743
 31
0.0
  0
LINE
  5
3F3
  8
DATA
  6
CONTINUOUS
 62
     7
 10
206.0298012952332
 20
58.51450069722744
 30
0.0
 11
217.60410187705611
 21
57.297965044365903
 31
0.0
  0
LINE
  5
3F4
  8
DATA
  6
CONTINUOUS
 62
     7
 10
206.02666984358419
 20
58.514825502052631
 30
0.0
 11
206.0298012952332
 21
58.51450069722744
 31
0.0
  0
POLYLINE
  5
3F5
  8
DATA
  6
CONTINUOUS
 62
     7
 66
     1
 10
0.0
 20
0.0
 30
0.0
 70
   128
  0
VERTEX
  5
928
  8
DATA
  6
CONTINUOUS
 62
     7
 10
205.80260448400341
 20
58.763687072750997
 30
0.0
  0
VERTEX
  5
929
  8
DATA
  6
CONTINUOUS
 62
     7
 10
205.80265049395339
 20
58.762216492240213
 30
0.0
  0
VERTEX
  5
92A
  8
DATA
  6
CONTINUOUS
 62
     7
 10
205.80270366003651
 20
58.760748322388139
 30
0.0
  0
VERTEX
  5
92B
  8
DATA
  6
CONTINUOUS
 62
     7
 10
205.80276398225271
 20
58.759282563194802
 30
0.0
  0
VERTEX
  5
92C
  8
DATA
  6
CONTINUOUS
 62
     7
 10
205.80283146060211
 20
58.757819214660209
 30
0.0
  0
VERTEX
  5
92D
  8
DATA
  6
CONTINUOUS
 62
     7
 10
205.8029060950845
 20
58.756358276784333
 30
0.0
  0
VERTEX
  5
92E
  8
DATA
  6
CONTINUOUS
 62
     7
 10
205.80298788570019
 20
58.754899749567159
 30
0.0
  0
VERTEX
  5
92F
  8
DATA
  6
CONTINUOUS
 62
     7
 10
205.80307683244891
 20
58.753443633008729
 30
0.0
  0
VERTEX
  5
930
  8
DATA
  6
CONTINUOUS
 62
     7
 10
205.80317293533071
 20
58.751989927109051
 30
0.0
  0
VERTEX
  5
931
  8
DATA
  6
CONTINUOUS
 62
     7
 10
205.8032761943457
 20
58.750538631868103
 30
0.0
  0
VERTEX
  5
932
  8
DATA
  6
CONTINUOUS
 62
     7
 10
205.80338660949371
 20
58.749089747285844
 30
0.0
  0
VERTEX
  5
933
  8
DATA
  6
CONTINUOUS
 62
     7
 10
205.80350418077489
 20
58.747643273362328
 30
0.0
  0
VERTEX
  5
934
  8
DATA
  6
CONTINUOUS
 62
     7
 10
205.8036289081893
 20
58.746199210097522
 30
0.0
  0
VERTEX
  5
935
  8
DATA
  6
CONTINUOUS
 62
     7
 10
205.80376079173669
 20
58.744757557491482
 30
0.0
  0
VERTEX
  5
936
  8
DATA
  6
CONTINUOUS
 62
     7
 10
205.8038998314172
 20
58.743318315544137
 30
0.0
  0
VERTEX
  5
937
  8
DATA
  6
CONTINUOUS
 62
     7
 10
205.8040460272309
 20
58.741881484255543
 30
0.0
  0
VERTEX
  5
938
  8
DATA
  6
CONTINUOUS
 62
     7
 10
205.8041993791777
 20
58.740447063625652
 30
0.0
  0
VERTEX
  5
939
  8
DATA
  6
CONTINUOUS
 62
     7
 10
205.80435988725759
 20
58.739015053654491
 30
0.0
  0
VERTEX
  5
93A
  8
DATA
  6
CONTINUOUS
 62
     7
 10
205.80452755147061
 20
58.73758545434206
 30
0.0
  0
VERTEX
  5
93B
  8
DATA
  6
CONTINUOUS
 62
     7
 10
205.8047023718168
 20
58.736158265688367
 30
0.0
  0
VERTEX
  5
93C
  8
DATA
  6
CONTINUOUS
 62
     7
 10
205.80488434829601
 20
58.734733487693411
 30
0.0
  0
VERTEX
  5
93D
  8
DATA
  6
CONTINUOUS
 62
     7
 10
205.80507348090839
 20
58.733311120357172
 30
0.0
  0
VERTEX
  5
93E
  8
DATA
  6
CONTINUOUS
 62
     7
 10
205.80526976965399
 20
58.731891163679649
 30
0.0
  0
VERTEX
  5
93F
  8
DATA
  6
CONTINUOUS
 62
     7
 10
205.8054732145325
 20
58.730473617660863
 30
0.0
  0
VERTEX
  5
940
  8
DATA
  6
CONTINUOUS
 62
     7
 10
205.80568381554431
 20
58.729058482300793
 30
0.0
  0
VERTEX
  5
941
  8
DATA
  6
CONTINUOUS
 62
     7
 10
205.80590157268921
 20
58.727645757599483
 30
0.0
  0
VERTEX
  5
942
  8
DATA
  6
CONTINUOUS
 62
     7
 10
205.80612648596721
 20
58.72623544355686
 30
0.0
  0
VERTEX
  5
943
  8
DATA
  6
CONTINUOUS
 62
     7
 10
205.80635855537821
 20
58.724827540172981
 30
0.0
  0
VERTEX
  5
944
  8
DATA
  6
CONTINUOUS
 62
     7
 10
205.80659778092249
 20
58.723422047447819
 30
0.0
  0
VERTEX
  5
945
  8
DATA
  6
CONTINUOUS
 62
     7
 10
205.80684416259979
 20
58.722018965381402
 30
0.0
  0
VERTEX
  5
946
  8
DATA
  6
CONTINUOUS
 62
     7
 10
205.80709770041031
 20
58.7206182939737
 30
0.0
  0
VERTEX
  5
947
  8
DATA
  6
CONTINUOUS
 62
     7
 10
205.8073583943538
 20
58.719220033224722
 30
0.0
  0
VERTEX
  5
948
  8
DATA
  6
CONTINUOUS
 62
     7
 10
205.80762624443059
 20
58.717824183134503
 30
0.0
  0
VERTEX
  5
949
  8
DATA
  6
CONTINUOUS
 62
     7
 10
205.80790125064041
 20
58.716430743702972
 30
0.0
  0
VERTEX
  5
94A
  8
DATA
  6
CONTINUOUS
 62
     7
 10
205.80818341298331
 20
58.715039714930178
 30
0.0
  0
VERTEX
  5
94B
  8
DATA
  6
CONTINUOUS
 62
     7
 10
205.8084727314594
 20
58.713651096816129
 30
0.0
  0
VERTEX
  5
94C
  8
DATA
  6
CONTINUOUS
 62
     7
 10
205.8087692060686
 20
58.71226488936081
 30
0.0
  0
VERTEX
  5
94D
  8
DATA
  6
CONTINUOUS
 62
     7
 10
205.80907283681091
 20
58.710881092564193
 30
0.0
  0
VERTEX
  5
94E
  8
DATA
  6
CONTINUOUS
 62
     7
 10
205.8093836236863
 20
58.709499706426328
 30
0.0
  0
VERTEX
  5
94F
  8
DATA
  6
CONTINUOUS
 62
     7
 10
205.8097015666948
 20
58.708120730947172
 30
0.0
  0
VERTEX
  5
950
  8
DATA
  6
CONTINUOUS
 62
     7
 10
205.81002666583649
 20
58.706744166126747
 30
0.0
  0
VERTEX
  5
951
  8
DATA
  6
CONTINUOUS
 62
     7
 10
205.81035892111129
 20
58.705370011965073
 30
0.0
  0
VERTEX
  5
952
  8
DATA
  6
CONTINUOUS
 62
     7
 10
205.81069833251911
 20
58.703998268462101
 30
0.0
  0
VERTEX
  5
953
  8
DATA
  6
CONTINUOUS
 62
     7
 10
205.8110449000601
 20
58.702628935617859
 30
0.0
  0
VERTEX
  5
954
  8
DATA
  6
CONTINUOUS
 62
     7
 10
205.81139862373419
 20
58.701262013432341
 30
0.0
  0
VERTEX
  5
955
  8
DATA
  6
CONTINUOUS
 62
     7
 10
205.81175950354151
 20
58.699897501905582
 30
0.0
  0
VERTEX
  5
956
  8
DATA
  6
CONTINUOUS
 62
     7
 10
205.81212753948191
 20
58.69853540103751
 30
0.0
  0
VERTEX
  5
957
  8
DATA
  6
CONTINUOUS
 62
     7
 10
205.81250273155541
 20
58.697175710828191
 30
0.0
  0
VERTEX
  5
958
  8
DATA
  6
CONTINUOUS
 62
     7
 10
205.812885079762
 20
58.69581843127758
 30
0.0
  0
VERTEX
  5
959
  8
DATA
  6
CONTINUOUS
 62
     7
 10
205.81327458410169
 20
58.694463562385721
 30
0.0
  0
VERTEX
  5
95A
  8
DATA
  6
CONTINUOUS
 62
     7
 10
205.81367124457461
 20
58.693111104152571
 30
0.0
  0
VERTEX
  5
95B
  8
DATA
  6
CONTINUOUS
 62
     7
 10
205.81407506118049
 20
58.691761056578159
 30
0.0
  0
VERTEX
  5
95C
  8
DATA
  6
CONTINUOUS
 62
     7
 10
205.81448603391959
 20
58.690413419662448
 30
0.0
  0
VERTEX
  5
95D
  8
DATA
  6
CONTINUOUS
 62
     7
 10
205.81490416279189
 20
58.689068193405497
 30
0.0
  0
VERTEX
  5
95E
  8
DATA
  6
CONTINUOUS
 62
     7
 10
205.81532944779721
 20
58.68772537780724
 30
0.0
  0
VERTEX
  5
95F
  8
DATA
  6
CONTINUOUS
 62
     7
 10
205.81576188893561
 20
58.686384972867756
 30
0.0
  0
VERTEX
  5
960
  8
DATA
  6
CONTINUOUS
 62
     7
 10
205.81620148620709
 20
58.685046978586961
 30
0.0
  0
VERTEX
  5
961
  8
DATA
  6
CONTINUOUS
 62
     7
 10
205.81664823961179
 20
58.683711394964917
 30
0.0
  0
VERTEX
  5
962
  8
DATA
  6
CONTINUOUS
 62
     7
 10
205.81710214914969
 20
58.682378222001567
 30
0.0
  0
VERTEX
  5
963
  8
DATA
  6
CONTINUOUS
 62
     7
 10
205.8175632148205
 20
58.68104745969697
 30
0.0
  0
VERTEX
  5
964
  8
DATA
  6
CONTINUOUS
 62
     7
 10
205.81803143662461
 20
58.679719108051103
 30
0.0
  0
VERTEX
  5
965
  8
DATA
  6
CONTINUOUS
 62
     7
 10
205.8185068145618
 20
58.67839316706398
 30
0.0
  0
VERTEX
  5
966
  8
DATA
  6
CONTINUOUS
 62
     7
 10
205.81898934863199
 20
58.677069636735553
 30
0.0
  0
VERTEX
  5
967
  8
DATA
  6
CONTINUOUS
 62
     7
 10
205.81947903883551
 20
58.67574851706587
 30
0.0
  0
VERTEX
  5
968
  8
DATA
  6
CONTINUOUS
 62
     7
 10
205.819975885172
 20
58.674429808054889
 30
0.0
  0
VERTEX
  5
969
  8
DATA
  6
CONTINUOUS
 62
     7
 10
205.819975885172
 20
58.674429808054889
 30
0.0
  0
VERTEX
  5
96A
  8
DATA
  6
CONTINUOUS
 62
     7
 10
205.8204801466334
 20
58.673113979298279
 30
0.0
  0
VERTEX
  5
96B
  8
DATA
  6
CONTINUOUS
 62
     7
 10
205.82099208221121
 20
58.671801500391638
 30
0.0
  0
VERTEX
  5
96C
  8
DATA
  6
CONTINUOUS
 62
     7
 10
205.82151169190601
 20
58.670492371334973
 30
0.0
  0
VERTEX
  5
96D
  8
DATA
  6
CONTINUOUS
 62
     7
 10
205.82203897571719
 20
58.669186592128277
 30
0.0
  0
VERTEX
  5
96E
  8
DATA
  6
CONTINUOUS
 62
     7
 10
205.82257393364489
 20
58.667884162771557
 30
0.0
  0
VERTEX
  5
96F
  8
DATA
  6
CONTINUOUS
 62
     7
 10
205.8231165656893
 20
58.666585083264799
 30
0.0
  0
VERTEX
  5
970
  8
DATA
  6
CONTINUOUS
 62
     7
 10
205.82366687185029
 20
58.665289353608017
 30
0.0
  0
VERTEX
  5
971
  8
DATA
  6
CONTINUOUS
 62
     7
 10
205.82422485212791
 20
58.663996973801211
 30
0.0
  0
VERTEX
  5
972
  8
DATA
  6
CONTINUOUS
 62
     7
 10
205.82479050652219
 20
58.662707943844367
 30
0.0
  0
VERTEX
  5
973
  8
DATA
  6
CONTINUOUS
 62
     7
 10
205.82536383503299
 20
58.661422263737499
 30
0.0
  0
VERTEX
  5
974
  8
DATA
  6
CONTINUOUS
 62
     7
 10
205.82594483766039
 20
58.660139933480608
 30
0.0
  0
VERTEX
  5
975
  8
DATA
  6
CONTINUOUS
 62
     7
 10
205.82653351440439
 20
58.658860953073678
 30
0.0
  0
VERTEX
  5
976
  8
DATA
  6
CONTINUOUS
 62
     7
 10
205.82712986526511
 20
58.657585322516752
 30
0.0
  0
VERTEX
  5
977
  8
DATA
  6
CONTINUOUS
 62
     7
 10
205.8277338902422
 20
58.65631304180976
 30
0.0
  0
VERTEX
  5
978
  8
DATA
  6
CONTINUOUS
 62
     7
 10
205.8283455893361
 20
58.655044110952758
 30
0.0
  0
VERTEX
  5
979
  8
DATA
  6
CONTINUOUS
 62
     7
 10
205.82896496254659
 20
58.653778529945733
 30
0.0
  0
VERTEX
  5
97A
  8
DATA
  6
CONTINUOUS
 62
     7
 10
205.82959200987361
 20
58.652516298788662
 30
0.0
  0
VERTEX
  5
97B
  8
DATA
  6
CONTINUOUS
 62
     7
 10
205.83022673131731
 20
58.651257417481567
 30
0.0
  0
VERTEX
  5
97C
  8
DATA
  6
CONTINUOUS
 62
     7
 10
205.83086912687759
 20
58.650001886024462
 30
0.0
  0
VERTEX
  5
97D
  8
DATA
  6
CONTINUOUS
 62
     7
 10
205.83151919655441
 20
58.648749704417313
 30
0.0
  0
VERTEX
  5
97E
  8
DATA
  6
CONTINUOUS
 62
     7
 10
205.83217694034781
 20
58.647500872660153
 30
0.0
  0
VERTEX
  5
97F
  8
DATA
  6
CONTINUOUS
 62
     7
 10
205.83284235825789
 20
58.646255390752927
 30
0.0
  0
VERTEX
  5
980
  8
DATA
  6
CONTINUOUS
 62
     7
 10
205.83351545028461
 20
58.645013258695712
 30
0.0
  0
VERTEX
  5
981
  8
DATA
  6
CONTINUOUS
 62
     7
 10
205.8341962164279
 20
58.643774476488431
 30
0.0
  0
VERTEX
  5
982
  8
DATA
  6
CONTINUOUS
 62
     7
 10
205.83488465668771
 20
58.642539044131148
 30
0.0
  0
VERTEX
  5
983
  8
DATA
  6
CONTINUOUS
 62
     7
 10
205.8355807710642
 20
58.64130696162384
 30
0.0
  0
VERTEX
  5
984
  8
DATA
  6
CONTINUOUS
 62
     7
 10
205.8362845595573
 20
58.640078228966502
 30
0.0
  0
VERTEX
  5
985
  8
DATA
  6
CONTINUOUS
 62
     7
 10
205.836996022167
 20
58.638852846159132
 30
0.0
  0
VERTEX
  5
986
  8
DATA
  6
CONTINUOUS
 62
     7
 10
205.8377151588933
 20
58.637630813201717
 30
0.0
  0
VERTEX
  5
987
  8
DATA
  6
CONTINUOUS
 62
     7
 10
205.83844196973621
 20
58.636412130094293
 30
0.0
  0
VERTEX
  5
988
  8
DATA
  6
CONTINUOUS
 62
     7
 10
205.83917645469569
 20
58.635196796836837
 30
0.0
  0
VERTEX
  5
989
  8
DATA
  6
CONTINUOUS
 62
     7
 10
205.83991861377191
 20
58.633984813429358
 30
0.0
  0
VERTEX
  5
98A
  8
DATA
  6
CONTINUOUS
 62
     7
 10
205.8406684469646
 20
58.632776179871847
 30
0.0
  0
VERTEX
  5
98B
  8
DATA
  6
CONTINUOUS
 62
     7
 10
205.8414259542738
 20
58.631570896164313
 30
0.0
  0
VERTEX
  5
98C
  8
DATA
  6
CONTINUOUS
 62
     7
 10
205.84219113569981
 20
58.630368962306719
 30
0.0
  0
VERTEX
  5
98D
  8
DATA
  6
CONTINUOUS
 62
     7
 10
205.8429639912423
 20
58.629170378299143
 30
0.0
  0
VERTEX
  5
98E
  8
DATA
  6
CONTINUOUS
 62
     7
 10
205.84374452090151
 20
58.627975144141523
 30
0.0
  0
VERTEX
  5
98F
  8
DATA
  6
CONTINUOUS
 62
     7
 10
205.84453272467721
 20
58.62678325983385
 30
0.0
  0
VERTEX
  5
990
  8
DATA
  6
CONTINUOUS
 62
     7
 10
205.84532860256951
 20
58.625594725376168
 30
0.0
  0
VERTEX
  5
991
  8
DATA
  6
CONTINUOUS
 62
     7
 10
205.84613215457841
 20
58.624409540768447
 30
0.0
  0
VERTEX
  5
992
  8
DATA
  6
CONTINUOUS
 62
     7
 10
205.846943380704
 20
58.623227706010717
 30
0.0
  0
VERTEX
  5
993
  8
DATA
  6
CONTINUOUS
 62
     7
 10
205.84776228094611
 20
58.622049221102969
 30
0.0
  0
VERTEX
  5
994
  8
DATA
  6
CONTINUOUS
 62
     7
 10
205.84858885530491
 20
58.620874086045177
 30
0.0
  0
VERTEX
  5
995
  8
DATA
  6
CONTINUOUS
 62
     7
 10
205.84942310378031
 20
58.619702300837353
 30
0.0
  0
VERTEX
  5
996
  8
DATA
  6
CONTINUOUS
 62
     7
 10
205.85026502637231
 20
58.618533865479492
 30
0.0
  0
VERTEX
  5
997
  8
DATA
  6
CONTINUOUS
 62
     7
 10
205.8511146230808
 20
58.617368779971599
 30
0.0
  0
VERTEX
  5
998
  8
DATA
  6
CONTINUOUS
 62
     7
 10
205.85197189390601
 20
58.616207044313697
 30
0.0
  0
VERTEX
  5
999
  8
DATA
  6
CONTINUOUS
 62
     7
 10
205.85283683884771
 20
58.615048658505771
 30
0.0
  0
VERTEX
  5
99A
  8
DATA
  6
CONTINUOUS
 62
     7
 10
205.85370945790609
 20
58.61389362254782
 30
0.0
  0
VERTEX
  5
99B
  8
DATA
  6
CONTINUOUS
 62
     7
 10
205.85458975108111
 20
58.612741936439818
 30
0.0
  0
VERTEX
  5
99C
  8
DATA
  6
CONTINUOUS
 62
     7
 10
205.8554777183727
 20
58.611593600181791
 30
0.0
  0
VERTEX
  5
99D
  8
DATA
  6
CONTINUOUS
 62
     7
 10
205.85637335978089
 20
58.610448613773748
 30
0.0
  0
VERTEX
  5
99E
  8
DATA
  6
CONTINUOUS
 62
     7
 10
205.85727667530571
 20
58.609306977215667
 30
0.0
  0
VERTEX
  5
99F
  8
DATA
  6
CONTINUOUS
 62
     7
 10
205.85818766494711
 20
58.608168690507583
 30
0.0
  0
VERTEX
  5
9A0
  8
DATA
  6
CONTINUOUS
 62
     7
 10
205.85910632870511
 20
58.607033753649418
 30
0.0
  0
VERTEX
  5
9A1
  8
DATA
  6
CONTINUOUS
 62
     7
 10
205.86003266657971
 20
58.605902166641272
 30
0.0
  0
VERTEX
  5
9A2
  8
DATA
  6
CONTINUOUS
 62
     7
 10
205.86096667857089
 20
58.604773929483081
 30
0.0
  0
VERTEX
  5
9A3
  8
DATA
  6
CONTINUOUS
 62
     7
 10
205.8619083646787
 20
58.603649042174872
 30
0.0
  0
VERTEX
  5
9A4
  8
DATA
  6
CONTINUOUS
 62
     7
 10
205.86285772490319
 20
58.602527504716619
 30
0.0
  0
VERTEX
  5
9A5
  8
DATA
  6
CONTINUOUS
 62
     7
 10
205.86381475924421
 20
58.601409317108342
 30
0.0
  0
VERTEX
  5
9A6
  8
DATA
  6
CONTINUOUS
 62
     7
 10
205.86477946770179
 20
58.600294479350062
 30
0.0
  0
VERTEX
  5
9A7
  8
DATA
  6
CONTINUOUS
 62
     7
 10
205.8657518502761
 20
58.599182991441722
 30
0.0
  0
VERTEX
  5
9A8
  8
DATA
  6
CONTINUOUS
 62
     7
 10
205.86673190696689
 20
58.598074853383359
 30
0.0
  0
VERTEX
  5
9A9
  8
DATA
  6
CONTINUOUS
 62
     7
 10
205.8677196377744
 20
58.596970065174972
 30
0.0
  0
VERTEX
  5
9AA
  8
DATA
  6
CONTINUOUS
 62
     7
 10
205.8677196377744
 20
58.596970065174972
 30
0.0
  0
VERTEX
  5
9AB
  8
DATA
  6
CONTINUOUS
 62
     7
 10
205.8687132835181
 20
58.595870602022408
 30
0.0
  0
VERTEX
  5
9AC
  8
DATA
  6
CONTINUOUS
 62
     7
 10
205.8697110850182
 20
58.594778439131538
 30
0.0
  0
VERTEX
  5
9AD
  8
DATA
  6
CONTINUOUS
 62
     7
 10
205.87071304227439
 20
58.593693576502382
 30
0.0
  0
VERTEX
  5
9AE
  8
DATA
  6
CONTINUOUS
 62
     7
 10
205.87171915528671
 20
58.592616014134897
 30
0.0
  0
VERTEX
  5
9AF
  8
DATA
  6
CONTINUOUS
 62
     7
 10
205.87272942405519
 20
58.591545752029113
 30
0.0
  0
VERTEX
  5
9B0
  8
DATA
  6
CONTINUOUS
 62
     7
 10
205.87374384857989
 20
58.590482790185
 30
0.0
  0
VERTEX
  5
9B1
  8
DATA
  6
CONTINUOUS
 62
     7
 10
205.87476242886081
 20
58.589427128602608
 30
0.0
  0
VERTEX
  5
9B2
  8
DATA
  6
CONTINUOUS
 62
     7
 10
205.87578516489779
 20
58.588378767281888
 30
0.0
  0
VERTEX
  5
9B3
  8
DATA
  6
CONTINUOUS
 62
     7
 10
205.87681205669099
 20
58.587337706222847
 30
0.0
  0
VERTEX
  5
9B4
  8
DATA
  6
CONTINUOUS
 62
     7
 10
205.87784310424041
 20
58.586303945425513
 30
0.0
  0
VERTEX
  5
9B5
  8
DATA
  6
CONTINUOUS
 62
     7
 10
205.87887830754599
 20
58.585277484889872
 30
0.0
  0
VERTEX
  5
9B6
  8
DATA
  6
CONTINUOUS
 62
     7
 10
205.8799176666077
 20
58.584258324615909
 30
0.0
  0
VERTEX
  5
9B7
  8
DATA
  6
CONTINUOUS
 62
     7
 10
205.88096118142559
 20
58.583246464603647
 30
0.0
  0
VERTEX
  5
9B8
  8
DATA
  6
CONTINUOUS
 62
     7
 10
205.88200885199959
 20
58.582241904853078
 30
0.0
  0
VERTEX
  5
9B9
  8
DATA
  6
CONTINUOUS
 62
     7
 10
205.88306067832991
 20
58.581244645364187
 30
0.0
  0
VERTEX
  5
9BA
  8
DATA
  6
CONTINUOUS
 62
     7
 10
205.88411666041631
 20
58.58025468613701
 30
0.0
  0
VERTEX
  5
9BB
  8
DATA
  6
CONTINUOUS
 62
     7
 10
205.8851767982589
 20
58.579272027171498
 30
0.0
  0
VERTEX
  5
9BC
  8
DATA
  6
CONTINUOUS
 62
     7
 10
205.88624109185761
 20
58.578296668467701
 30
0.0
  0
VERTEX
  5
9BD
  8
DATA
  6
CONTINUOUS
 62
     7
 10
205.8873095412126
 20
58.577328610025603
 30
0.0
  0
VERTEX
  5
9BE
  8
DATA
  6
CONTINUOUS
 62
     7
 10
205.88838214632369
 20
58.576367851845163
 30
0.0
  0
VERTEX
  5
9BF
  8
DATA
  6
CONTINUOUS
 62
     7
 10
205.889458907191
 20
58.575414393926422
 30
0.0
  0
VERTEX
  5
9C0
  8
DATA
  6
CONTINUOUS
 62
     7
 10
205.89053982381441
 20
58.574468236269368
 30
0.0
  0
VERTEX
  5
9C1
  8
DATA
  6
CONTINUOUS
 62
     7
 10
205.89162489619409
 20
58.573529378874028
 30
0.0
  0
VERTEX
  5
9C2
  8
DATA
  6
CONTINUOUS
 62
     7
 10
205.8927141243299
 20
58.572597821740359
 30
0.0
  0
VERTEX
  5
9C3
  8
DATA
  6
CONTINUOUS
 62
     7
 10
205.89380750822181
 20
58.571673564868398
 30
0.0
  0
VERTEX
  5
9C4
  8
DATA
  6
CONTINUOUS
 62
     7
 10
205.89490504787
 20
58.570756608258108
 30
0.0
  0
VERTEX
  5
9C5
  8
DATA
  6
CONTINUOUS
 62
     7
 10
205.89600674327431
 20
58.56984695190954
 30
0.0
  0
VERTEX
  5
9C6
  8
DATA
  6
CONTINUOUS
 62
     7
 10
205.89711259443479
 20
58.568944595822629
 30
0.0
  0
VERTEX
  5
9C7
  8
DATA
  6
CONTINUOUS
 62
     7
 10
205.89822260135139
 20
58.568049539997418
 30
0.0
  0
VERTEX
  5
9C8
  8
DATA
  6
CONTINUOUS
 62
     7
 10
205.8993367640243
 20
58.567161784433907
 30
0.0
  0
VERTEX
  5
9C9
  8
DATA
  6
CONTINUOUS
 62
     7
 10
205.90045508245331
 20
58.566281329132082
 30
0.0
  0
VERTEX
  5
9CA
  8
DATA
  6
CONTINUOUS
 62
     7
 10
205.90157755663839
 20
58.565408174091957
 30
0.0
  0
VERTEX
  5
9CB
  8
DATA
  6
CONTINUOUS
 62
     7
 10
205.9027041865798
 20
58.564542319313517
 30
0.0
  0
VERTEX
  5
9CC
  8
DATA
  6
CONTINUOUS
 62
     7
 10
205.90383497227731
 20
58.563683764796771
 30
0.0
  0
VERTEX
  5
9CD
  8
DATA
  6
CONTINUOUS
 62
     7
 10
205.90496991373101
 20
58.562832510541718
 30
0.0
  0
VERTEX
  5
9CE
  8
DATA
  6
CONTINUOUS
 62
     7
 10
205.9061090109409
 20
58.56198855654835
 30
0.0
  0
VERTEX
  5
9CF
  8
DATA
  6
CONTINUOUS
 62
     7
 10
205.9072522639068
 20
58.561151902816661
 30
0.0
  0
VERTEX
  5
9D0
  8
DATA
  6
CONTINUOUS
 62
     7
 10
205.90839967262909
 20
58.560322549346672
 30
0.0
  0
VERTEX
  5
9D1
  8
DATA
  6
CONTINUOUS
 62
     7
 10
205.90955123710751
 20
58.559500496138376
 30
0.0
  0
VERTEX
  5
9D2
  8
DATA
  6
CONTINUOUS
 62
     7
 10
205.91070695734209
 20
58.558685743191781
 30
0.0
  0
VERTEX
  5
9D3
  8
DATA
  6
CONTINUOUS
 62
     7
 10
205.91186683333279
 20
58.557878290506864
 30
0.0
  0
VERTEX
  5
9D4
  8
DATA
  6
CONTINUOUS
 62
     7
 10
205.91303086507969
 20
58.557078138083611
 30
0.0
  0
VERTEX
  5
9D5
  8
DATA
  6
CONTINUOUS
 62
     7
 10
205.91419905258289
 20
58.556285285922101
 30
0.0
  0
VERTEX
  5
9D6
  8
DATA
  6
CONTINUOUS
 62
     7
 10
205.91537139584199
 20
58.555499734022249
 30
0.0
  0
VERTEX
  5
9D7
  8
DATA
  6
CONTINUOUS
 62
     7
 10
205.9165478948575
 20
58.554721482384082
 30
0.0
  0
VERTEX
  5
9D8
  8
DATA
  6
CONTINUOUS
 62
     7
 10
205.91772854962909
 20
58.553950531007608
 30
0.0
  0
VERTEX
  5
9D9
  8
DATA
  6
CONTINUOUS
 62
     7
 10
205.91891336015689
 20
58.553186879892849
 30
0.0
  0
VERTEX
  5
9DA
  8
DATA
  6
CONTINUOUS
 62
     7
 10
205.9201023264408
 20
58.552430529039782
 30
0.0
  0
VERTEX
  5
9DB
  8
DATA
  6
CONTINUOUS
 62
     7
 10
205.92129544848089
 20
58.551681478448401
 30
0.0
  0
VERTEX
  5
9DC
  8
DATA
  6
CONTINUOUS
 62
     7
 10
205.9224927262772
 20
58.550939728118678
 30
0.0
  0
VERTEX
  5
9DD
  8
DATA
  6
CONTINUOUS
 62
     7
 10
205.92369415982961
 20
58.550205278050697
 30
0.0
  0
VERTEX
  5
9DE
  8
DATA
  6
CONTINUOUS
 62
     7
 10
205.92489974913829
 20
58.549478128244381
 30
0.0
  0
VERTEX
  5
9DF
  8
DATA
  6
CONTINUOUS
 62
     7
 10
205.9261094942031
 20
58.548758278699779
 30
0.0
  0
VERTEX
  5
9E0
  8
DATA
  6
CONTINUOUS
 62
     7
 10
205.9273233950241
 20
58.548045729416842
 30
0.0
  0
VERTEX
  5
9E1
  8
DATA
  6
CONTINUOUS
 62
     7
 10
205.92854145160129
 20
58.54734048039559
 30
0.0
  0
VERTEX
  5
9E2
  8
DATA
  6
CONTINUOUS
 62
     7
 10
205.92976366393449
 20
58.546642531636039
 30
0.0
  0
VERTEX
  5
9E3
  8
DATA
  6
CONTINUOUS
 62
     7
 10
205.93099003202411
 20
58.545951883138173
 30
0.0
  0
VERTEX
  5
9E4
  8
DATA
  6
CONTINUOUS
 62
     7
 10
205.93222055586969
 20
58.545268534901993
 30
0.0
  0
VERTEX
  5
9E5
  8
DATA
  6
CONTINUOUS
 62
     7
 10
205.9334552354716
 20
58.544592486927513
 30
0.0
  0
VERTEX
  5
9E6
  8
DATA
  6
CONTINUOUS
 62
     7
 10
205.93469407082949
 20
58.543923739214733
 30
0.0
  0
VERTEX
  5
9E7
  8
DATA
  6
CONTINUOUS
 62
     7
 10
205.93593706194369
 20
58.543262291763646
 30
0.0
  0
VERTEX
  5
9E8
  8
DATA
  6
CONTINUOUS
 62
     7
 10
205.9371842088141
 20
58.542608144574253
 30
0.0
  0
VERTEX
  5
9E9
  8
DATA
  6
CONTINUOUS
 62
     7
 10
205.93843551144059
 20
58.541961297646537
 30
0.0
  0
VERTEX
  5
9EA
  8
DATA
  6
CONTINUOUS
 62
     7
 10
205.93969096982329
 20
58.541321750980501
 30
0.0
  0
VERTEX
  5
9EB
  8
DATA
  6
CONTINUOUS
 62
     7
 10
205.93969096982329
 20
58.541321750980501
 30
0.0
  0
VERTEX
  5
9EC
  8
DATA
  6
CONTINUOUS
 62
     7
 10
205.94095009215661
 20
58.540689321517902
 30
0.0
  0
VERTEX
  5
9ED
  8
DATA
  6
CONTINUOUS
 62
     7
 10
205.94221238663499
 20
58.540063826200502
 30
0.0
  0
VERTEX
  5
9EE
  8
DATA
  6
CONTINUOUS
 62
     7
 10
205.94347785325851
 20
58.539445265028249
 30
0.0
  0
VERTEX
  5
9EF
  8
DATA
  6
CONTINUOUS
 62
     7
 10
205.94474649202681
 20
58.538833638001222
 30
0.0
  0
VERTEX
  5
9F0
  8
DATA
  6
CONTINUOUS
 62
     7
 10
205.9460183029405
 20
58.538228945119322
 30
0.0
  0
VERTEX
  5
9F1
  8
DATA
  6
CONTINUOUS
 62
     7
 10
205.947293285999
 20
58.53763118638264
 30
0.0
  0
VERTEX
  5
9F2
  8
DATA
  6
CONTINUOUS
 62
     7
 10
205.9485714412026
 20
58.537040361791099
 30
0.0
  0
VERTEX
  5
9F3
  8
DATA
  6
CONTINUOUS
 62
     7
 10
205.9498527685513
 20
58.536456471344749
 30
0.0
  0
VERTEX
  5
9F4
  8
DATA
  6
CONTINUOUS
 62
     7
 10
205.9511372680451
 20
58.535879515043582
 30
0.0
  0
VERTEX
  5
9F5
  8
DATA
  6
CONTINUOUS
 62
     7
 10
205.95242493968391
 20
58.535309492887592
 30
0.0
  0
VERTEX
  5
9F6
  8
DATA
  6
CONTINUOUS
 62
     7
 10
205.95371578346769
 20
58.534746404876792
 30
0.0
  0
VERTEX
  5
9F7
  8
DATA
  6
CONTINUOUS
 62
     7
 10
205.95500979939661
 20
58.534190251011147
 30
0.0
  0
VERTEX
  5
9F8
  8
DATA
  6
CONTINUOUS
 62
     7
 10
205.95630698747061
 20
58.533641031290699
 30
0.0
  0
VERTEX
  5
9F9
  8
DATA
  6
CONTINUOUS
 62
     7
 10
205.95760734768959
 20
58.533098745715421
 30
0.0
  0
VERTEX
  5
9FA
  8
DATA
  6
CONTINUOUS
 62
     7
 10
205.95891088005371
 20
58.53256339428529
 30
0.0
  0
VERTEX
  5
9FB
  8
DATA
  6
CONTINUOUS
 62
     7
 10
205.9602175845628
 20
58.532034977000379
 30
0.0
  0
VERTEX
  5
9FC
  8
DATA
  6
CONTINUOUS
 62
     7
 10
205.961527461217
 20
58.531513493860629
 30
0.0
  0
VERTEX
  5
9FD
  8
DATA
  6
CONTINUOUS
 62
     7
 10
205.96284051001629
 20
58.530998944866063
 30
0.0
  0
VERTEX
  5
9FE
  8
DATA
  6
CONTINUOUS
 62
     7
 10
205.9641567309605
 20
58.530491330016673
 30
0.0
  0
VERTEX
  5
9FF
  8
DATA
  6
CONTINUOUS
 62
     7
 10
205.96547612404979
 20
58.529990649312438
 30
0.0
  0
VERTEX
  5
A00
  8
DATA
  6
CONTINUOUS
 62
     7
 10
205.9667986892843
 20
58.529496902753408
 30
0.0
  0
VERTEX
  5
A01
  8
DATA
  6
CONTINUOUS
 62
     7
 10
205.96812442666371
 20
58.52901009033954
 30
0.0
  0
VERTEX
  5
A02
  8
DATA
  6
CONTINUOUS
 62
     7
 10
205.9694533361882
 20
58.528530212070848
 30
0.0
  0
VERTEX
  5
A03
  8
DATA
  6
CONTINUOUS
 62
     7
 10
205.97078541785771
 20
58.528057267947361
 30
0.0
  0
VERTEX
  5
A04
  8
DATA
  6
CONTINUOUS
 62
     7
 10
205.97212067167229
 20
58.527591257969029
 30
0.0
  0
VERTEX
  5
A05
  8
DATA
  6
CONTINUOUS
 62
     7
 10
205.973459097632
 20
58.527132182135873
 30
0.0
  0
VERTEX
  5
A06
  8
DATA
  6
CONTINUOUS
 62
     7
 10
205.97480069573669
 20
58.5266800404479
 30
0.0
  0
VERTEX
  5
A07
  8
DATA
  6
CONTINUOUS
 62
     7
 10
205.97614546598649
 20
58.526234832905111
 30
0.0
  0
VERTEX
  5
A08
  8
DATA
  6
CONTINUOUS
 62
     7
 10
205.97749340838121
 20
58.525796559507491
 30
0.0
  0
VERTEX
  5
A09
  8
DATA
  6
CONTINUOUS
 62
     7
 10
205.97884452292121
 20
58.52536522025504
 30
0.0
  0
VERTEX
  5
A0A
  8
DATA
  6
CONTINUOUS
 62
     7
 10
205.98019880960609
 20
58.524940815147772
 30
0.0
  0
VERTEX
  5
A0B
  8
DATA
  6
CONTINUOUS
 62
     7
 10
205.98155626843609
 20
58.524523344185702
 30
0.0
  0
VERTEX
  5
A0C
  8
DATA
  6
CONTINUOUS
 62
     7
 10
205.98291689941109
 20
58.524112807368788
 30
0.0
  0
VERTEX
  5
A0D
  8
DATA
  6
CONTINUOUS
 62
     7
 10
205.98428070253121
 20
58.523709204697063
 30
0.0
  0
VERTEX
  5
A0E
  8
DATA
  6
CONTINUOUS
 62
     7
 10
205.98564767779641
 20
58.523312536170501
 30
0.0
  0
VERTEX
  5
A0F
  8
DATA
  6
CONTINUOUS
 62
     7
 10
205.98701782520661
 20
58.522922801789122
 30
0.0
  0
VERTEX
  5
A10
  8
DATA
  6
CONTINUOUS
 62
     7
 10
205.98839114476181
 20
58.522540001552919
 30
0.0
  0
VERTEX
  5
A11
  8
DATA
  6
CONTINUOUS
 62
     7
 10
205.98976763646209
 20
58.5221641354619
 30
0.0
  0
VERTEX
  5
A12
  8
DATA
  6
CONTINUOUS
 62
     7
 10
205.9911473003074
 20
58.521795203516056
 30
0.0
  0
VERTEX
  5
A13
  8
DATA
  6
CONTINUOUS
 62
     7
 10
205.992530136298
 20
58.52143320571539
 30
0.0
  0
VERTEX
  5
A14
  8
DATA
  6
CONTINUOUS
 62
     7
 10
205.9939161444334
 20
58.521078142059899
 30
0.0
  0
VERTEX
  5
A15
  8
DATA
  6
CONTINUOUS
 62
     7
 10
205.99530532471391
 20
58.520730012549592
 30
0.0
  0
VERTEX
  5
A16
  8
DATA
  6
CONTINUOUS
 62
     7
 10
205.99669767713951
 20
58.520388817184461
 30
0.0
  0
VERTEX
  5
A17
  8
DATA
  6
CONTINUOUS
 62
     7
 10
205.99809320171011
 20
58.520054555964492
 30
0.0
  0
VERTEX
  5
A18
  8
DATA
  6
CONTINUOUS
 62
     7
 10
205.99949189842579
 20
58.5197272288897
 30
0.0
  0
VERTEX
  5
A19
  8
DATA
  6
CONTINUOUS
 62
     7
 10
206.0008937672865
 20
58.519406835960112
 30
0.0
  0
VERTEX
  5
A1A
  8
DATA
  6
CONTINUOUS
 62
     7
 10
206.00229880829241
 20
58.519093377175679
 30
0.0
  0
VERTEX
  5
A1B
  8
DATA
  6
CONTINUOUS
 62
     7
 10
206.00370702144329
 20
58.518786852536437
 30
0.0
  0
VERTEX
  5
A1C
  8
DATA
  6
CONTINUOUS
 62
     7
 10
206.0051184067392
 20
58.51848726204237
 30
0.0
  0
VERTEX
  5
A1D
  8
DATA
  6
CONTINUOUS
 62
     7
 10
206.00653296418011
 20
58.518194605693473
 30
0.0
  0
VERTEX
  5
A1E
  8
DATA
  6
CONTINUOUS
 62
     7
 10
206.00795069376611
 20
58.517908883489767
 30
0.0
  0
VERTEX
  5
A1F
  8
DATA
  6
CONTINUOUS
 62
     7
 10
206.0093715954971
 20
58.517630095431223
 30
0.0
  0
VERTEX
  5
A20
  8
DATA
  6
CONTINUOUS
 62
     7
 10
206.01079566937329
 20
58.517358241517861
 30
0.0
  0
VERTEX
  5
A21
  8
DATA
  6
CONTINUOUS
 62
     7
 10
206.0122229153944
 20
58.517093321749677
 30
0.0
  0
VERTEX
  5
A22
  8
DATA
  6
CONTINUOUS
 62
     7
 10
206.01365333356071
 20
58.516835336126682
 30
0.0
  0
VERTEX
  5
A23
  8
DATA
  6
CONTINUOUS
 62
     7
 10
206.01508692387199
 20
58.51658428464885
 30
0.0
  0
VERTEX
  5
A24
  8
DATA
  6
CONTINUOUS
 62
     7
 10
206.0165236863283
 20
58.516340167316208
 30
0.0
  0
VERTEX
  5
A25
  8
DATA
  6
CONTINUOUS
 62
     7
 10
206.01796362092969
 20
58.516102984128722
 30
0.0
  0
VERTEX
  5
A26
  8
DATA
  6
CONTINUOUS
 62
     7
 10
206.01940672767611
 20
58.515872735086418
 30
0.0
  0
VERTEX
  5
A27
  8
DATA
  6
CONTINUOUS
 62
     7
 10
206.02085300656759
 20
58.515649420189298
 30
0.0
  0
VERTEX
  5
A28
  8
DATA
  6
CONTINUOUS
 62
     7
 10
206.02230245760421
 20
58.515433039437369
 30
0.0
  0
VERTEX
  5
A29
  8
DATA
  6
CONTINUOUS
 62
     7
 10
206.02375508078569
 20
58.515223592830608
 30
0.0
  0
VERTEX
  5
A2A
  8
DATA
  6
CONTINUOUS
 62
     7
 10
206.02521087611251
 20
58.515021080369017
 30
0.0
  0
VERTEX
  5
A2B
  8
DATA
  6
CONTINUOUS
 62
     7
 10
206.02666984358419
 20
58.514825502052631
 30
0.0
  0
VERTEX
  5
A2C
  8
DATA
  6
CONTINUOUS
 62
     7
 10
206.02666984358419
 20
58.514825502052631
 30
0.0
  0
SEQEND
  5
A2D
  8
DATA
  6
CONTINUOUS
 62
     7
  0
LINE
  5
4FC
  8
DATA
  6
CONTINUOUS
 62
     7
 10
205.80260448400341
 20
58.766826852730141
 30
0.0
 11
205.80260448400341
 21
58.763687072750997
 31
0.0
  0
LINE
  5
4FD
  8
DATA
  6
CONTINUOUS
 62
     7
 10
205.73754357896891
 20
64.117311757207716
 30
0.0
 11
205.8184394132706
 21
64.108361579795741
 31
0.0
  0
LINE
  5
4FE
  8
DATA
  6
CONTINUOUS
 62
     7
 10
205.44425314992591
 20
64.2181733718906
 30
0.0
 11
205.73754357896891
 21
64.117311757207716
 31
0.0
  0
LINE
  5
4FF
  8
DATA
  6
CONTINUOUS
 62
     7
 10
205.20776192369129
 20
64.407848285508734
 30
0.0
 11
205.44425314992591
 21
64.2181733718906
 31
0.0
  0
LINE
  5
500
  8
DATA
  6
CONTINUOUS
 62
     7
 10
205.04872415582949
 20
64.671534281573159
 30
0.0
 11
205.20776192369129
 21
64.407848285508734
 31
0.0
  0
LINE
  5
501
  8
DATA
  6
CONTINUOUS
 62
     7
 10
204.9922691906155
 20
64.977561501548763
 30
0.0
 11
205.04872415582949
 21
64.671534281573159
 31
0.0
  0
LINE
  5
502
  8
DATA
  6
CONTINUOUS
 62
     7
 10
221.99999999999989
 20
66.949698670547676
 30
0.0
 11
221.03029863793
 21
66.949698670547676
 31
0.0
  0
LINE
  5
503
  8
DATA
  6
CONTINUOUS
 62
     7
 10
221.03029863793
 20
59.955135022983981
 30
0.0
 11
221.99999999999989
 21
59.955135022983981
 31
0.0
  0
LINE
  5
504
  8
DATA
  6
CONTINUOUS
 62
     7
 10
217.60410187705611
 20
57.042540750528303
 30
0.0
 11
217.60410187705611
 21
68.583794523442961
 31
0.0
  0
LINE
  5
505
  8
DATA
  6
CONTINUOUS
 62
     7
 10
220.13046157041961
 20
68.737668727412483
 30
0.0
 11
217.60410187705611
 21
68.583794523442961
 31
0.0
  0
LINE
  5
506
  8
DATA
  6
CONTINUOUS
 62
     7
 10
221.03029863793
 20
68.792746742256469
 30
0.0
 11
220.13046157041961
 21
68.737668727412483
 31
0.0
  0
LINE
  5
507
  8
DATA
  6
CONTINUOUS
 62
     7
 10
221.03029863793
 20
56.802951385957662
 30
0.0
 11
221.03029863793
 21
68.792746742256469
 31
0.0
  0
LINE
  5
508
  8
DATA
  6
CONTINUOUS
 62
     7
 10
215.98171010231499
 20
68.2120179232476
 30
0.0
 11
206.0298012952332
 21
67.297034401656134
 31
0.0
  0
LINE
  5
509
  8
DATA
  6
CONTINUOUS
 62
     7
 10
217.60410187705611
 20
68.36107280091835
 30
0.0
 11
215.98171010231499
 21
68.2120179232476
 31
0.0
  0
LINE
  5
50A
  8
DATA
  6
CONTINUOUS
 62
     7
 10
206.0563075898778
 20
64.087018849043744
 30
0.0
 11
217.60410187705611
 21
64.087018849043744
 31
0.0
  0
LINE
  5
50B
  8
DATA
  6
CONTINUOUS
 62
     7
 10
206.0298012952332
 20
64.088395799414812
 30
0.0
 11
206.0563075898778
 21
64.087018849043744
 31
0.0
  0
LINE
  5
50C
  8
DATA
  6
CONTINUOUS
 62
     7
 10
206.0563075898778
 20
62.818159082080697
 30
0.0
 11
206.0298012952332
 21
62.816782131709623
 31
0.0
  0
LINE
  5
50D
  8
DATA
  6
CONTINUOUS
 62
     7
 10
206.0563075898778
 20
62.818159082080697
 30
0.0
 11
217.60410187705611
 21
62.818159082080697
 31
0.0
  0
LINE
  5
50E
  8
DATA
  6
CONTINUOUS
 62
     7
 10
214.6512318062442
 20
58.738255132530021
 30
0.0
 11
217.60410187705611
 21
58.468028622203043
 31
0.0
  0
LINE
  5
50F
  8
DATA
  6
CONTINUOUS
 62
     7
 10
206.0563075898778
 20
59.526214982388332
 30
0.0
 11
214.6512318062442
 21
58.738255132530021
 31
0.0
  0
LINE
  5
510
  8
DATA
  6
CONTINUOUS
 62
     7
 10
206.0298012952332
 20
59.529657358316364
 30
0.0
 11
206.0563075898778
 21
59.526214982388332
 31
0.0
  0
LINE
  5
511
  8
DATA
  6
CONTINUOUS
 62
     7
 10
205.80260448400341
 20
64.338656529361259
 30
0.0
 11
205.80260448400341
 21
64.340721954917882
 31
0.0
  0
LINE
  5
512
  8
DATA
  6
CONTINUOUS
 62
     7
 10
205.806046859931
 20
64.2990692061922
 30
0.0
 11
205.80260448400341
 21
64.338656529361259
 31
0.0
  0
LINE
  5
513
  8
DATA
  6
CONTINUOUS
 62
     7
 10
205.84838808384299
 20
64.195109453174766
 30
0.0
 11
205.806046859931
 21
64.2990692061922
 31
0.0
  0
LINE
  5
514
  8
DATA
  6
CONTINUOUS
 62
     7
 10
205.90966237535571
 20
64.13349092406817
 30
0.0
 11
205.84838808384299
 21
64.195109453174766
 31
0.0
  0
LINE
  5
515
  8
DATA
  6
CONTINUOUS
 62
     7
 10
205.96370767742181
 20
64.10457496627528
 30
0.0
 11
205.90966237535571
 21
64.13349092406817
 31
0.0
  0
LINE
  5
516
  8
DATA
  6
CONTINUOUS
 62
     7
 10
206.0298012952332
 20
64.088395799414812
 30
0.0
 11
205.96370767742181
 21
64.10457496627528
 31
0.0
  0
LINE
  5
517
  8
DATA
  6
CONTINUOUS
 62
     7
 10
206.0036392381829
 20
67.293592025728103
 30
0.0
 11
206.0298012952332
 21
67.297034401656134
 31
0.0
  0
LINE
  5
518
  8
DATA
  6
CONTINUOUS
 62
     7
 10
205.92412035425201
 20
67.266053018306295
 30
0.0
 11
206.0036392381829
 21
67.293592025728103
 31
0.0
  0
LINE
  5
519
  8
DATA
  6
CONTINUOUS
 62
     7
 10
205.8594036868117
 20
67.216138567354179
 30
0.0
 11
205.92412035425201
 21
67.266053018306295
 31
0.0
  0
LINE
  5
51A
  8
DATA
  6
CONTINUOUS
 62
     7
 10
205.81706246289971
 20
67.150044949541623
 30
0.0
 11
205.8594036868117
 21
67.216138567354179
 31
0.0
  0
LINE
  5
51B
  8
DATA
  6
CONTINUOUS
 62
     7
 10
205.80260448400341
 20
67.075689629502648
 30
0.0
 11
205.81706246289971
 21
67.150044949541623
 31
0.0
  0
LINE
  5
51C
  8
DATA
  6
CONTINUOUS
 62
     7
 10
205.80260448400341
 20
64.340721954917882
 30
0.0
 11
205.80260448400341
 21
67.075689629502648
 31
0.0
  0
LINE
  5
51D
  8
DATA
  6
CONTINUOUS
 62
     7
 10
205.96370767742181
 20
62.800602964849531
 30
0.0
 11
206.0298012952332
 21
62.816782131709623
 31
0.0
  0
LINE
  5
51E
  8
DATA
  6
CONTINUOUS
 62
     7
 10
205.90966237535571
 20
62.771342769463502
 30
0.0
 11
205.96370767742181
 21
62.800602964849531
 31
0.0
  0
LINE
  5
51F
  8
DATA
  6
CONTINUOUS
 62
     7
 10
205.84838808384299
 20
62.709724240357282
 30
0.0
 11
205.90966237535571
 21
62.771342769463502
 31
0.0
  0
LINE
  5
520
  8
DATA
  6
CONTINUOUS
 62
     7
 10
205.806046859931
 20
62.605764487339492
 30
0.0
 11
205.84838808384299
 21
62.709724240357282
 31
0.0
  0
LINE
  5
521
  8
DATA
  6
CONTINUOUS
 62
     7
 10
205.80260448400341
 20
62.566177164170767
 30
0.0
 11
205.806046859931
 21
62.605764487339492
 31
0.0
  0
LINE
  5
522
  8
DATA
  6
CONTINUOUS
 62
     7
 10
205.80260448400341
 20
62.564111738614159
 30
0.0
 11
205.80260448400341
 21
62.566177164170767
 31
0.0
  0
LINE
  5
523
  8
DATA
  6
CONTINUOUS
 62
     7
 10
205.96370767742181
 20
59.553409752217732
 30
0.0
 11
206.0298012952332
 21
59.529657358316364
 31
0.0
  0
LINE
  5
524
  8
DATA
  6
CONTINUOUS
 62
     7
 10
205.90966237535571
 20
59.596783688906882
 30
0.0
 11
205.96370767742181
 21
59.553409752217732
 31
0.0
  0
LINE
  5
525
  8
DATA
  6
CONTINUOUS
 62
     7
 10
205.84838808384299
 20
59.68938360136297
 30
0.0
 11
205.90966237535571
 21
59.596783688906882
 31
0.0
  0
LINE
  5
526
  8
DATA
  6
CONTINUOUS
 62
     7
 10
205.806046859931
 20
59.848077131631612
 30
0.0
 11
205.84838808384299
 21
59.68938360136297
 31
0.0
  0
LINE
  5
527
  8
DATA
  6
CONTINUOUS
 62
     7
 10
205.80260448400341
 20
59.909007185552682
 30
0.0
 11
205.806046859931
 21
59.848077131631612
 31
0.0
  0
LINE
  5
528
  8
DATA
  6
CONTINUOUS
 62
     7
 10
205.80260448400341
 20
59.912449561480372
 30
0.0
 11
205.80260448400341
 21
59.909007185552682
 31
0.0
  0
LINE
  5
529
  8
DATA
  6
CONTINUOUS
 62
     7
 10
205.80260448400341
 20
59.912449561480372
 30
0.0
 11
205.80260448400341
 21
62.564111738614159
 31
0.0
  0
LINE
  5
52A
  8
DATA
  6
CONTINUOUS
 62
     7
 10
205.80260448400341
 20
62.564111738614159
 30
0.0
 11
205.80260448400341
 21
64.340721954917882
 31
0.0
  0
LINE
  5
52B
  8
DATA
  6
CONTINUOUS
 62
     7
 10
221.03029863793
 20
70.168664400571643
 30
0.0
 11
221.03029863793
 21
69.123903306504474
 31
0.0
  0
LINE
  5
52C
  8
DATA
  6
CONTINUOUS
 62
     7
 10
221.03029863793
 20
68.792746742256469
 30
0.0
 11
221.03029863793
 21
69.123903306504474
 31
0.0
  0
LINE
  5
52D
  8
DATA
  6
CONTINUOUS
 62
     7
 10
221.03029863793
 20
70.269870252846914
 30
0.0
 11
221.03029863793
 21
70.168664400571643
 31
0.0
  0
LINE
  5
52E
  8
DATA
  6
CONTINUOUS
 62
     7
 10
217.60410187705611
 20
58.072843865698999
 30
0.0
 11
206.0563075898778
 21
59.156848045342628
 31
0.0
  0
LINE
  5
52F
  8
DATA
  6
CONTINUOUS
 62
     7
 10
206.0470131748732
 20
59.157880758120939
 30
0.0
 11
206.0563075898778
 21
59.156848045342628
 31
0.0
  0
LINE
  5
530
  8
DATA
  6
CONTINUOUS
 62
     7
 10
206.03806299746111
 20
59.158224995713702
 30
0.0
 11
206.0470131748732
 21
59.157880758120939
 31
0.0
  0
LINE
  5
531
  8
DATA
  6
CONTINUOUS
 62
     7
 10
206.02876858245639
 20
59.15891347089925
 30
0.0
 11
206.03806299746111
 21
59.158224995713702
 31
0.0
  0
LINE
  5
532
  8
DATA
  6
CONTINUOUS
 62
     7
 10
204.9922691906155
 20
64.977561501548763
 30
0.0
 11
204.9922691906155
 21
67.834045046382386
 31
0.0
  0
LINE
  5
533
  8
DATA
  6
CONTINUOUS
 62
     7
 10
205.9833292202095
 20
59.162011609234149
 30
0.0
 11
206.02876858245639
 21
59.15891347089925
 31
0.0
  0
LINE
  5
534
  8
DATA
  6
CONTINUOUS
 62
     7
 10
205.9406437587063
 20
59.168552123496752
 30
0.0
 11
205.9833292202095
 21
59.162011609234149
 31
0.0
  0
LINE
  5
535
  8
DATA
  6
CONTINUOUS
 62
     7
 10
205.9014006731293
 20
59.177502300909083
 30
0.0
 11
205.9406437587063
 21
59.168552123496752
 31
0.0
  0
LINE
  5
536
  8
DATA
  6
CONTINUOUS
 62
     7
 10
205.8673211514454
 20
59.189206379063208
 30
0.0
 11
205.9014006731293
 21
59.177502300909083
 31
0.0
  0
LINE
  5
537
  8
DATA
  6
CONTINUOUS
 62
     7
 10
205.83978214402239
 20
59.20263164518154
 30
0.0
 11
205.8673211514454
 21
59.189206379063208
 31
0.0
  0
LINE
  5
538
  8
DATA
  6
CONTINUOUS
 62
     7
 10
205.81912788845631
 20
59.21777809926332
 30
0.0
 11
205.83978214402239
 21
59.20263164518154
 31
0.0
  0
LINE
  5
539
  8
DATA
  6
CONTINUOUS
 62
     7
 10
205.8067353351166
 20
59.234301503716573
 30
0.0
 11
205.81912788845631
 21
59.21777809926332
 31
0.0
  0
LINE
  5
53A
  8
DATA
  6
CONTINUOUS
 62
     7
 10
205.80260448400341
 20
59.25116914576256
 30
0.0
 11
205.8067353351166
 21
59.234301503716573
 31
0.0
  0
LINE
  5
53B
  8
DATA
  6
CONTINUOUS
 62
     7
 10
205.80260448400341
 20
59.25116914576256
 30
0.0
 11
205.80260448400341
 21
60.139302135117852
 31
0.0
  0
LINE
  5
53C
  8
DATA
  6
CONTINUOUS
 62
     7
 10
214.6512318062442
 20
58.103825249048512
 30
0.0
 11
217.60410187705611
 21
57.833598738721498
 31
0.0
  0
LINE
  5
53D
  8
DATA
  6
CONTINUOUS
 62
     7
 10
206.0563075898778
 20
58.891785098907178
 30
0.0
 11
214.6512318062442
 21
58.103825249048512
 31
0.0
  0
LINE
  5
53E
  8
DATA
  6
CONTINUOUS
 62
     7
 10
206.0563075898778
 20
58.891785098907178
 30
0.0
 11
206.0298012952332
 21
58.893506286871002
 31
0.0
  0
LINE
  5
53F
  8
DATA
  6
CONTINUOUS
 62
     7
 10
205.96370767742181
 20
58.901423751504659
 30
0.0
 11
206.0298012952332
 21
58.893506286871002
 31
0.0
  0
LINE
  5
540
  8
DATA
  6
CONTINUOUS
 62
     7
 10
205.90966237535571
 20
58.915881730401303
 30
0.0
 11
205.96370767742181
 21
58.901423751504659
 31
0.0
  0
LINE
  5
541
  8
DATA
  6
CONTINUOUS
 62
     7
 10
205.84838808384299
 20
58.946863113750801
 30
0.0
 11
205.90966237535571
 21
58.915881730401303
 31
0.0
  0
LINE
  5
542
  8
DATA
  6
CONTINUOUS
 62
     7
 10
205.806046859931
 20
59.001252653408883
 30
0.0
 11
205.84838808384299
 21
58.946863113750801
 31
0.0
  0
LINE
  5
543
  8
DATA
  6
CONTINUOUS
 62
     7
 10
205.80260448400341
 20
59.022939621753643
 30
0.0
 11
205.806046859931
 21
59.001252653408883
 31
0.0
  0
LINE
  5
544
  8
DATA
  6
CONTINUOUS
 62
     7
 10
205.80260448400341
 20
59.023972334531933
 30
0.0
 11
205.80260448400341
 21
59.022939621753643
 31
0.0
  0
LINE
  5
545
  8
DATA
  6
CONTINUOUS
 62
     7
 10
205.80260448400341
 20
59.023972334531933
 30
0.0
 11
205.80260448400341
 21
59.25116914576256
 31
0.0
  0
LINE
  5
546
  8
DATA
  6
CONTINUOUS
 62
     7
 10
205.80260448400341
 20
58.766826852730141
 30
0.0
 11
205.80260448400341
 21
59.023972334531933
 31
0.0
  0
LINE
  5
547
  8
DATA
  6
CONTINUOUS
 62
     7
 10
205.80260448400341
 20
59.912449561480372
 30
0.0
 11
205.80260448400341
 21
60.139302135117852
 31
0.0
  0
LINE
  5
548
  8
DATA
  6
CONTINUOUS
 62
     7
 10
206.0298012952332
 20
67.297034401656134
 30
0.0
 11
206.0298012952332
 21
64.088395799414812
 31
0.0
  0
LINE
  5
549
  8
DATA
  6
CONTINUOUS
 62
     7
 10
206.0298012952332
 20
62.816782131709623
 30
0.0
 11
206.0298012952332
 21
59.529657358316364
 31
0.0
  0
LINE
  5
54A
  8
DATA
  6
CONTINUOUS
 62
     7
 10
206.02876858245639
 20
64.088395799414812
 30
0.0
 11
206.02876858245639
 21
62.816437894116859
 31
0.0
  0
LINE
  5
54B
  8
DATA
  6
CONTINUOUS
 62
     7
 10
221.03029863793
 20
69.123903306504474
 30
0.0
 11
205.8655999634814
 21
67.562441585684368
 31
0.0
  0
LINE
  5
54C
  8
DATA
  6
CONTINUOUS
 62
     7
 10
205.77747513973119
 20
68.511160391367795
 30
0.0
 11
205.7754097141746
 21
68.597908264746451
 31
0.0
  0
LINE
  5
54D
  8
DATA
  6
CONTINUOUS
 62
     7
 10
205.78229446603009
 20
68.402381312051261
 30
0.0
 11
205.77747513973119
 21
68.511160391367795
 31
0.0
  0
LINE
  5
54E
  8
DATA
  6
CONTINUOUS
 62
     7
 10
205.79055616825659
 20
68.276046115503533
 30
0.0
 11
205.78229446603009
 21
68.402381312051261
 31
0.0
  0
LINE
  5
54F
  8
DATA
  6
CONTINUOUS
 62
     7
 10
205.8019160088179
 20
68.136974128023056
 30
0.0
 11
205.79055616825659
 21
68.276046115503533
 31
0.0
  0
LINE
  5
550
  8
DATA
  6
CONTINUOUS
 62
     7
 10
205.81534127493589
 20
67.990328913501656
 30
0.0
 11
205.8019160088179
 21
68.136974128023056
 31
0.0
  0
LINE
  5
551
  8
DATA
  6
CONTINUOUS
 62
     7
 10
205.8311762042047
 20
67.841962511016419
 30
0.0
 11
205.81534127493589
 21
67.990328913501656
 31
0.0
  0
LINE
  5
552
  8
DATA
  6
CONTINUOUS
 62
     7
 10
205.84804384625031
 20
67.697382722051273
 30
0.0
 11
205.8311762042047
 21
67.841962511016419
 31
0.0
  0
LINE
  5
553
  8
DATA
  6
CONTINUOUS
 62
     7
 10
205.8655999634814
 20
67.562441585684368
 30
0.0
 11
205.84804384625031
 21
67.697382722051273
 31
0.0
  0
LINE
  5
554
  8
DATA
  6
CONTINUOUS
 62
     7
 10
205.7754097141746
 20
68.597908264746451
 30
0.0
 11
221.03029863793
 21
70.168664400571643
 31
0.0
  0
LINE
  5
555
  8
DATA
  6
CONTINUOUS
 62
     7
 10
205.75578817138691
 20
67.473284049155978
 30
0.0
 11
205.7533785082376
 21
67.453318268775064
 31
0.0
  0
LINE
  5
556
  8
DATA
  6
CONTINUOUS
 62
     7
 10
205.76198444805689
 20
67.492217116758567
 30
0.0
 11
205.75578817138691
 21
67.473284049155978
 31
0.0
  0
LINE
  5
557
  8
DATA
  6
CONTINUOUS
 62
     7
 10
205.77196733824709
 20
67.510117471582888
 30
0.0
 11
205.76198444805689
 21
67.492217116758567
 31
0.0
  0
LINE
  5
558
  8
DATA
  6
CONTINUOUS
 62
     7
 10
205.78539260436489
 20
67.526296638442972
 30
0.0
 11
205.77196733824709
 21
67.510117471582888
 31
0.0
  0
LINE
  5
559
  8
DATA
  6
CONTINUOUS
 62
     7
 10
205.8022602464105
 20
67.539721904561304
 30
0.0
 11
205.78539260436489
 21
67.526296638442972
 31
0.0
  0
LINE
  5
55A
  8
DATA
  6
CONTINUOUS
 62
     7
 10
205.82153755160559
 20
67.550737507529874
 30
0.0
 11
205.8022602464105
 21
67.539721904561304
 31
0.0
  0
LINE
  5
55B
  8
DATA
  6
CONTINUOUS
 62
     7
 10
205.84288028235869
 20
67.558310734571151
 30
0.0
 11
205.82153755160559
 21
67.550737507529874
 31
0.0
  0
LINE
  5
55C
  8
DATA
  6
CONTINUOUS
 62
     7
 10
205.8655999634814
 20
67.562441585684368
 30
0.0
 11
205.84288028235869
 21
67.558310734571151
 31
0.0
  0
LINE
  5
55D
  8
DATA
  6
CONTINUOUS
 62
     7
 10
205.79158888103481
 20
64.51834855278878
 30
0.0
 11
205.80260448400341
 21
64.510086850562345
 31
0.0
  0
LINE
  5
55E
  8
DATA
  6
CONTINUOUS
 62
     7
 10
205.78195022843741
 20
64.527642967793895
 30
0.0
 11
205.79158888103481
 21
64.51834855278878
 31
0.0
  0
LINE
  5
55F
  8
DATA
  6
CONTINUOUS
 62
     7
 10
205.77368852621089
 20
64.537625857984168
 30
0.0
 11
205.78195022843741
 21
64.527642967793895
 31
0.0
  0
LINE
  5
560
  8
DATA
  6
CONTINUOUS
 62
     7
 10
205.7664595367628
 20
64.548641460952751
 30
0.0
 11
205.77368852621089
 21
64.537625857984168
 31
0.0
  0
LINE
  5
561
  8
DATA
  6
CONTINUOUS
 62
     7
 10
205.7609517352785
 20
64.560001301514461
 30
0.0
 11
205.7664595367628
 21
64.548641460952751
 31
0.0
  0
LINE
  5
562
  8
DATA
  6
CONTINUOUS
 62
     7
 10
205.75682088416511
 20
64.572049617261342
 30
0.0
 11
205.7609517352785
 21
64.560001301514461
 31
0.0
  0
LINE
  5
563
  8
DATA
  6
CONTINUOUS
 62
     7
 10
205.754411221016
 20
64.584442170601363
 30
0.0
 11
205.75682088416511
 21
64.572049617261342
 31
0.0
  0
LINE
  5
564
  8
DATA
  6
CONTINUOUS
 62
     7
 10
205.7533785082376
 20
64.596834723941015
 30
0.0
 11
205.754411221016
 21
64.584442170601363
 31
0.0
  0
LINE
  5
565
  8
DATA
  6
CONTINUOUS
 62
     7
 10
205.7533785082376
 20
67.453318268775064
 30
0.0
 11
205.7533785082376
 21
64.596834723941015
 31
0.0
  0
LINE
  5
566
  8
DATA
  6
CONTINUOUS
 62
     7
 10
205.78229446603009
 20
68.693606315537423
 30
0.0
 11
205.78745802992171
 21
68.700491067393173
 31
0.0
  0
LINE
  5
567
  8
DATA
  6
CONTINUOUS
 62
     7
 10
205.77747513973119
 20
68.659526793853004
 30
0.0
 11
205.78229446603009
 21
68.693606315537423
 31
0.0
  0
LINE
  5
568
  8
DATA
  6
CONTINUOUS
 62
     7
 10
205.7754097141746
 20
68.597908264746451
 30
0.0
 11
205.77747513973119
 21
68.659526793853004
 31
0.0
  0
LINE
  5
569
  8
DATA
  6
CONTINUOUS
 62
     7
 10
206.02876858245639
 20
59.529657358316364
 30
0.0
 11
206.02876858245639
 21
59.15891347089925
 31
0.0
  0
LINE
  5
56A
  8
DATA
  6
CONTINUOUS
 62
     7
 10
205.00672716951181
 20
67.759689726343396
 30
0.0
 11
204.9922691906155
 21
67.834045046382386
 31
0.0
  0
LINE
  5
56B
  8
DATA
  6
CONTINUOUS
 62
     7
 10
205.0501011062006
 20
67.688432544639298
 30
0.0
 11
205.00672716951181
 21
67.759689726343396
 31
0.0
  0
LINE
  5
56C
  8
DATA
  6
CONTINUOUS
 62
     7
 10
205.12032557512671
 20
67.622338926826714
 30
0.0
 11
205.0501011062006
 21
67.688432544639298
 31
0.0
  0
LINE
  5
56D
  8
DATA
  6
CONTINUOUS
 62
     7
 10
205.21499091313939
 20
67.564851248833719
 30
0.0
 11
205.12032557512671
 21
67.622338926826714
 31
0.0
  0
LINE
  5
56E
  8
DATA
  6
CONTINUOUS
 62
     7
 10
205.330654744311
 20
67.517346461031011
 30
0.0
 11
205.21499091313939
 21
67.564851248833719
 31
0.0
  0
LINE
  5
56F
  8
DATA
  6
CONTINUOUS
 62
     7
 10
205.46215350475131
 20
67.48223422656794
 30
0.0
 11
205.330654744311
 21
67.517346461031011
 31
0.0
  0
LINE
  5
570
  8
DATA
  6
CONTINUOUS
 62
     7
 10
205.60501210575151
 20
67.460547258223187
 30
0.0
 11
205.46215350475131
 21
67.48223422656794
 31
0.0
  0
LINE
  5
571
  8
DATA
  6
CONTINUOUS
 62
     7
 10
205.7533785082376
 20
67.453318268775064
 30
0.0
 11
205.60501210575151
 21
67.460547258223187
 31
0.0
  0
LINE
  5
572
  8
DATA
  6
CONTINUOUS
 62
     7
 10
205.61809313427671
 20
68.568992306953561
 30
0.0
 11
205.7754097141746
 21
68.597908264746451
 31
0.0
  0
LINE
  5
573
  8
DATA
  6
CONTINUOUS
 62
     7
 10
205.46903825660661
 20
68.515635480073783
 30
0.0
 11
205.61809313427671
 21
68.568992306953561
 31
0.0
  0
LINE
  5
574
  8
DATA
  6
CONTINUOUS
 62
     7
 10
205.333752882646
 20
68.440247447256453
 30
0.0
 11
205.46903825660661
 21
68.515635480073783
 31
0.0
  0
LINE
  5
575
  8
DATA
  6
CONTINUOUS
 62
     7
 10
205.21636786351041
 20
68.344893634058252
 30
0.0
 11
205.333752882646
 21
68.440247447256453
 31
0.0
  0
LINE
  5
576
  8
DATA
  6
CONTINUOUS
 62
     7
 10
205.12066981271951
 20
68.232672178814056
 30
0.0
 11
205.21636786351041
 21
68.344893634058252
 31
0.0
  0
LINE
  5
577
  8
DATA
  6
CONTINUOUS
 62
     7
 10
205.0501011062006
 20
68.107369695044639
 30
0.0
 11
205.12066981271951
 21
68.232672178814056
 31
0.0
  0
LINE
  5
578
  8
DATA
  6
CONTINUOUS
 62
     7
 10
205.00672716951181
 20
67.972772796270107
 30
0.0
 11
205.0501011062006
 21
68.107369695044639
 31
0.0
  0
LINE
  5
579
  8
DATA
  6
CONTINUOUS
 62
     7
 10
204.9922691906155
 20
67.834045046382386
 30
0.0
 11
205.00672716951181
 21
67.972772796270107
 31
0.0
  0
LINE
  5
57A
  8
DATA
  6
CONTINUOUS
 62
     7
 10
205.00672716951181
 20
64.903206181509404
 30
0.0
 11
204.9922691906155
 21
64.977561501548763
 31
0.0
  0
LINE
  5
57B
  8
DATA
  6
CONTINUOUS
 62
     7
 10
205.0501011062006
 20
64.831948999805292
 30
0.0
 11
205.00672716951181
 21
64.903206181509404
 31
0.0
  0
LINE
  5
57C
  8
DATA
  6
CONTINUOUS
 62
     7
 10
205.12032557512671
 20
64.765855381993077
 30
0.0
 11
205.0501011062006
 21
64.831948999805292
 31
0.0
  0
LINE
  5
57D
  8
DATA
  6
CONTINUOUS
 62
     7
 10
205.21499091313939
 20
64.708367703999713
 30
0.0
 11
205.12032557512671
 21
64.765855381993077
 31
0.0
  0
LINE
  5
57E
  8
DATA
  6
CONTINUOUS
 62
     7
 10
205.330654744311
 20
64.660862916196976
 30
0.0
 11
205.21499091313939
 21
64.708367703999713
 31
0.0
  0
LINE
  5
57F
  8
DATA
  6
CONTINUOUS
 62
     7
 10
205.46215350475131
 20
64.625750681734274
 30
0.0
 11
205.330654744311
 21
64.660862916196976
 31
0.0
  0
LINE
  5
580
  8
DATA
  6
CONTINUOUS
 62
     7
 10
205.60501210575151
 20
64.604063713389507
 30
0.0
 11
205.46215350475131
 21
64.625750681734274
 31
0.0
  0
LINE
  5
581
  8
DATA
  6
CONTINUOUS
 62
     7
 10
205.7533785082376
 20
64.596834723941015
 30
0.0
 11
205.60501210575151
 21
64.604063713389507
 31
0.0
  0
LINE
  5
582
  8
DATA
  6
CONTINUOUS
 62
     7
 10
206.0563075898778
 20
59.156848045342628
 30
0.0
 11
206.0563075898778
 21
58.891785098907178
 31
0.0
  0
LINE
  5
583
  8
DATA
  6
CONTINUOUS
 62
     7
 10
206.0298012952332
 20
58.893506286871002
 30
0.0
 11
206.0298012952332
 21
58.51450069722744
 31
0.0
  0
LINE
  5
584
  8
DATA
  6
CONTINUOUS
 62
     7
 10
225.0
 20
89.623087379844478
 30
0.0
 11
231.20930178767409
 21
89.623087379844478
 31
0.0
  0
LINE
  5
585
  8
DATA
  6
CONTINUOUS
 62
     7
 10
225.0
 20
86.373087379844492
 30
0.0
 11
231.20930178767409
 21
86.373087379844492
 31
0.0
  0
LINE
  5
586
  8
DATA
  6
CONTINUOUS
 62
     7
 10
231.5426103092729
 20
48.160044754699364
 30
0.0
 11
225.0
 21
48.160044754699364
 31
0.0
  0
LINE
  5
587
  8
DATA
  6
CONTINUOUS
 62
     7
 10
231.5800000000001
 20
42.779266942057831
 30
0.0
 11
225.0
 21
42.779266942057831
 31
0.0
  0
POLYLINE
  5
588
  8
DATA
  6
CONTINUOUS
 62
     7
 66
     1
 10
0.0
 20
0.0
 30
0.0
 70
     1
  0
VERTEX
  5
A2E
  8
DATA
  6
CONTINUOUS
 62
     7
 10
232.03530616759281
 20
64.700000000000045
 30
0.0
  0
VERTEX
  5
A2F
  8
DATA
  6
CONTINUOUS
 62
     7
 10
241.03530616759281
 20
64.700000000000045
 30
0.0
  0
VERTEX
  5
A30
  8
DATA
  6
CONTINUOUS
 62
     7
 10
241.03530616759281
 20
51.0
 30
0.0
  0
VERTEX
  5
A31
  8
DATA
  6
CONTINUOUS
 62
     7
 10
232.03530616759281
 20
51.0
 30
0.0
  0
SEQEND
  5
A32
  8
DATA
  6
CONTINUOUS
 62
     7
  0
POLYLINE
  5
58F
  8
DATA
  6
CONTINUOUS
 62
     7
 66
     1
 10
0.0
 20
0.0
 30
0.0
 70
     1
  0
VERTEX
  5
A33
  8
DATA
  6
CONTINUOUS
 62
     7
 10
232.03530616759281
 20
80.192818423551884
 30
0.0
  0
VERTEX
  5
A34
  8
DATA
  6
CONTINUOUS
 62
     7
 10
241.03530616759281
 20
80.192818423551884
 30
0.0
  0
VERTEX
  5
A35
  8
DATA
  6
CONTINUOUS
 62
     7
 10
241.03530616759281
 20
66.492818423551853
 30
0.0
  0
VERTEX
  5
A36
  8
DATA
  6
CONTINUOUS
 62
     7
 10
232.03530616759281
 20
66.492818423551853
 30
0.0
  0
SEQEND
  5
A37
  8
DATA
  6
CONTINUOUS
 62
     7
  0
LINE
  5
596
  8
DATA
  6
CONTINUOUS
 62
     7
 10
225.0
 20
52.297849064107069
 30
0.0
 11
232.03530616759281
 21
52.297849064107069
 31
0.0
  0
LINE
  5
597
  8
DATA
  6
CONTINUOUS
 62
     7
 10
232.03530616759281
 20
73.342818423551876
 30
0.0
 11
225.0
 21
73.342818423551876
 31
0.0
  0
LINE
  5
598
  8
DATA
  6
CONTINUOUS
 62
     7
 10
243.60881620416069
 20
66.492818423551853
 30
0.0
 11
243.60881620416069
 21
80.192818423551884
 31
0.0
  0
LINE
  5
599
  8
DATA
  6
CONTINUOUS
 62
     7
 10
243.60881620416069
 20
51.0
 30
0.0
 11
243.60881620416069
 21
64.700000000000045
 31
0.0
  0
LINE
  5
59A
  8
DATA
  6
CONTINUOUS
 62
     7
 10
243.60881620416069
 20
80.192818423551884
 30
0.0
 11
242.60881620416069
 21
80.192818423551884
 31
0.0
  0
LINE
  5
59B
  8
DATA
  6
CONTINUOUS
 62
     7
 10
243.60881620416069
 20
66.492818423551853
 30
0.0
 11
242.60881620416069
 21
66.492818423551853
 31
0.0
  0
LINE
  5
59C
  8
DATA
  6
CONTINUOUS
 62
     7
 10
243.60881620416069
 20
64.700000000000045
 30
0.0
 11
242.60881620416069
 21
64.700000000000045
 31
0.0
  0
LINE
  5
59D
  8
DATA
  6
CONTINUOUS
 62
     7
 10
243.60881620416069
 20
51.0
 30
0.0
 11
242.60881620416069
 21
51.0
 31
0.0
  0
LINE
  5
59E
  8
DATA
  6
CONTINUOUS
 62
     7
 10
35.000000000000028
 20
172.0
 30
0.0
 11
-35.000000000000007
 21
172.0
 31
0.0
  0
LINE
  5
59F
  8
DATA
  6
CONTINUOUS
 62
     7
 10
35.000000000000028
 20
175.0
 30
0.0
 11
-35.000000000000007
 21
175.0
 31
0.0
  0
LINE
  5
5A0
  8
DATA
  6
CONTINUOUS
 62
     7
 10
-35.000000000000007
 20
172.0
 30
0.0
 11
-35.000000000000007
 21
175.0
 31
0.0
  0
LINE
  5
5A1
  8
DATA
  6
CONTINUOUS
 62
     7
 10
35.000000000000028
 20
172.0
 30
0.0
 11
35.000000000000028
 21
175.0
 31
0.0
  0
LINE
  5
5A2
  8
DATA
  6
CONTINUOUS
 62
     7
 10
-2.8594782748755558
 20
168.0
 30
0.0
 11
2.9405217251244551
 21
168.0
 31
0.0
  0
LINE
  5
5A3
  8
DATA
  6
CONTINUOUS
 62
     7
 10
-2.8594782748755558
 20
168.0
 30
0.0
 11
-2.8594782748755558
 21
172.0
 31
0.0
  0
LINE
  5
5A4
  8
DATA
  6
CONTINUOUS
 62
     7
 10
2.9405217251244551
 20
168.0
 30
0.0
 11
2.9405217251244551
 21
172.0
 31
0.0
  0
LINE
  5
5A5
  8
DATA
  6
CONTINUOUS
 62
     7
 10
-18.996715783206039
 20
167.6045906464152
 30
0.0
 11
-19.23630514777668
 21
171.03078740728901
 31
0.0
  0
LINE
  5
5A6
  8
DATA
  6
CONTINUOUS
 62
     7
 10
-17.524755836506898
 20
156.03029006459261
 30
0.0
 11
-18.741291489368422
 21
167.6045906464152
 31
0.0
  0
LINE
  5
5A7
  8
DATA
  6
CONTINUOUS
 62
     7
 10
-17.524431031681701
 20
156.02715861294351
 30
0.0
 11
-17.524755836506898
 21
156.03029006459261
 31
0.0
  0
POLYLINE
  5
5A8
  8
DATA
  6
CONTINUOUS
 62
     7
 66
     1
 10
0.0
 20
0.0
 30
0.0
 70
   128
  0
VERTEX
  5
A38
  8
DATA
  6
CONTINUOUS
 62
     7
 10
-17.275569460983348
 20
155.8030932533627
 30
0.0
  0
VERTEX
  5
A39
  8
DATA
  6
CONTINUOUS
 62
     7
 10
-17.277040041494139
 20
155.80313926331269
 30
0.0
  0
VERTEX
  5
A3A
  8
DATA
  6
CONTINUOUS
 62
     7
 10
-17.278508211346221
 20
155.80319242939581
 30
0.0
  0
VERTEX
  5
A3B
  8
DATA
  6
CONTINUOUS
 62
     7
 10
-17.279973970539551
 20
155.80325275161209
 30
0.0
  0
VERTEX
  5
A3C
  8
DATA
  6
CONTINUOUS
 62
     7
 10
-17.281437319074151
 20
155.80332022996151
 30
0.0
  0
VERTEX
  5
A3D
  8
DATA
  6
CONTINUOUS
 62
     7
 10
-17.28289825695003
 20
155.8033948644439
 30
0.0
  0
VERTEX
  5
A3E
  8
DATA
  6
CONTINUOUS
 62
     7
 10
-17.284356784167201
 20
155.80347665505951
 30
0.0
  0
VERTEX
  5
A3F
  8
DATA
  6
CONTINUOUS
 62
     7
 10
-17.28581290072561
 20
155.8035656018082
 30
0.0
  0
VERTEX
  5
A40
  8
DATA
  6
CONTINUOUS
 62
     7
 10
-17.287266606625298
 20
155.80366170469009
 30
0.0
  0
VERTEX
  5
A41
  8
DATA
  6
CONTINUOUS
 62
     7
 10
-17.288717901866271
 20
155.80376496370499
 30
0.0
  0
VERTEX
  5
A42
  8
DATA
  6
CONTINUOUS
 62
     7
 10
-17.29016678644853
 20
155.80387537885309
 30
0.0
  0
VERTEX
  5
A43
  8
DATA
  6
CONTINUOUS
 62
     7
 10
-17.291613260372031
 20
155.8039929501343
 30
0.0
  0
VERTEX
  5
A44
  8
DATA
  6
CONTINUOUS
 62
     7
 10
-17.29305732363683
 20
155.80411767754859
 30
0.0
  0
VERTEX
  5
A45
  8
DATA
  6
CONTINUOUS
 62
     7
 10
-17.294498976242881
 20
155.80424956109599
 30
0.0
  0
VERTEX
  5
A46
  8
DATA
  6
CONTINUOUS
 62
     7
 10
-17.295938218190209
 20
155.8043886007766
 30
0.0
  0
VERTEX
  5
A47
  8
DATA
  6
CONTINUOUS
 62
     7
 10
-17.297375049478809
 20
155.8045347965903
 30
0.0
  0
VERTEX
  5
A48
  8
DATA
  6
CONTINUOUS
 62
     7
 10
-17.298809470108711
 20
155.804688148537
 30
0.0
  0
VERTEX
  5
A49
  8
DATA
  6
CONTINUOUS
 62
     7
 10
-17.300241480079858
 20
155.80484865661691
 30
0.0
  0
VERTEX
  5
A4A
  8
DATA
  6
CONTINUOUS
 62
     7
 10
-17.301671079392289
 20
155.80501632082999
 30
0.0
  0
VERTEX
  5
A4B
  8
DATA
  6
CONTINUOUS
 62
     7
 10
-17.303098268045979
 20
155.8051911411761
 30
0.0
  0
VERTEX
  5
A4C
  8
DATA
  6
CONTINUOUS
 62
     7
 10
-17.304523046040948
 20
155.80537311765539
 30
0.0
  0
VERTEX
  5
A4D
  8
DATA
  6
CONTINUOUS
 62
     7
 10
-17.305945413377191
 20
155.8055622502678
 30
0.0
  0
VERTEX
  5
A4E
  8
DATA
  6
CONTINUOUS
 62
     7
 10
-17.307365370054711
 20
155.80575853901331
 30
0.0
  0
VERTEX
  5
A4F
  8
DATA
  6
CONTINUOUS
 62
     7
 10
-17.308782916073479
 20
155.8059619838919
 30
0.0
  0
VERTEX
  5
A50
  8
DATA
  6
CONTINUOUS
 62
     7
 10
-17.310198051433542
 20
155.80617258490361
 30
0.0
  0
VERTEX
  5
A51
  8
DATA
  6
CONTINUOUS
 62
     7
 10
-17.311610776134881
 20
155.8063903420485
 30
0.0
  0
VERTEX
  5
A52
  8
DATA
  6
CONTINUOUS
 62
     7
 10
-17.313021090177479
 20
155.80661525532651
 30
0.0
  0
VERTEX
  5
A53
  8
DATA
  6
CONTINUOUS
 62
     7
 10
-17.31442899356135
 20
155.80684732473759
 30
0.0
  0
VERTEX
  5
A54
  8
DATA
  6
CONTINUOUS
 62
     7
 10
-17.315834486286501
 20
155.80708655028181
 30
0.0
  0
VERTEX
  5
A55
  8
DATA
  6
CONTINUOUS
 62
     7
 10
-17.317237568352919
 20
155.80733293195911
 30
0.0
  0
VERTEX
  5
A56
  8
DATA
  6
CONTINUOUS
 62
     7
 10
-17.318638239760631
 20
155.8075864697696
 30
0.0
  0
VERTEX
  5
A57
  8
DATA
  6
CONTINUOUS
 62
     7
 10
-17.320036500509602
 20
155.80784716371321
 30
0.0
  0
VERTEX
  5
A58
  8
DATA
  6
CONTINUOUS
 62
     7
 10
-17.321432350599832
 20
155.80811501378989
 30
0.0
  0
VERTEX
  5
A59
  8
DATA
  6
CONTINUOUS
 62
     7
 10
-17.322825790031342
 20
155.80839001999971
 30
0.0
  0
VERTEX
  5
A5A
  8
DATA
  6
CONTINUOUS
 62
     7
 10
-17.324216818804139
 20
155.8086721823426
 30
0.0
  0
VERTEX
  5
A5B
  8
DATA
  6
CONTINUOUS
 62
     7
 10
-17.325605436918192
 20
155.8089615008187
 30
0.0
  0
VERTEX
  5
A5C
  8
DATA
  6
CONTINUOUS
 62
     7
 10
-17.326991644373521
 20
155.8092579754279
 30
0.0
  0
VERTEX
  5
A5D
  8
DATA
  6
CONTINUOUS
 62
     7
 10
-17.32837544117011
 20
155.80956160617021
 30
0.0
  0
VERTEX
  5
A5E
  8
DATA
  6
CONTINUOUS
 62
     7
 10
-17.329756827307989
 20
155.80987239304559
 30
0.0
  0
VERTEX
  5
A5F
  8
DATA
  6
CONTINUOUS
 62
     7
 10
-17.331135802787141
 20
155.81019033605409
 30
0.0
  0
VERTEX
  5
A60
  8
DATA
  6
CONTINUOUS
 62
     7
 10
-17.33251236760756
 20
155.81051543519581
 30
0.0
  0
VERTEX
  5
A61
  8
DATA
  6
CONTINUOUS
 62
     7
 10
-17.333886521769259
 20
155.81084769047061
 30
0.0
  0
VERTEX
  5
A62
  8
DATA
  6
CONTINUOUS
 62
     7
 10
-17.33525826527223
 20
155.8111871018784
 30
0.0
  0
VERTEX
  5
A63
  8
DATA
  6
CONTINUOUS
 62
     7
 10
-17.336627598116461
 20
155.81153366941939
 30
0.0
  0
VERTEX
  5
A64
  8
DATA
  6
CONTINUOUS
 62
     7
 10
-17.337994520301969
 20
155.8118873930936
 30
0.0
  0
VERTEX
  5
A65
  8
DATA
  6
CONTINUOUS
 62
     7
 10
-17.33935903182876
 20
155.8122482729008
 30
0.0
  0
VERTEX
  5
A66
  8
DATA
  6
CONTINUOUS
 62
     7
 10
-17.34072113269681
 20
155.8126163088412
 30
0.0
  0
VERTEX
  5
A67
  8
DATA
  6
CONTINUOUS
 62
     7
 10
-17.342080822906141
 20
155.81299150091471
 30
0.0
  0
VERTEX
  5
A68
  8
DATA
  6
CONTINUOUS
 62
     7
 10
-17.343438102456741
 20
155.81337384912129
 30
0.0
  0
VERTEX
  5
A69
  8
DATA
  6
CONTINUOUS
 62
     7
 10
-17.34479297134861
 20
155.81376335346101
 30
0.0
  0
VERTEX
  5
A6A
  8
DATA
  6
CONTINUOUS
 62
     7
 10
-17.34614542958176
 20
155.8141600139339
 30
0.0
  0
VERTEX
  5
A6B
  8
DATA
  6
CONTINUOUS
 62
     7
 10
-17.347495477156169
 20
155.81456383053981
 30
0.0
  0
VERTEX
  5
A6C
  8
DATA
  6
CONTINUOUS
 62
     7
 10
-17.348843114071869
 20
155.81497480327889
 30
0.0
  0
VERTEX
  5
A6D
  8
DATA
  6
CONTINUOUS
 62
     7
 10
-17.350188340328842
 20
155.8153929321511
 30
0.0
  0
VERTEX
  5
A6E
  8
DATA
  6
CONTINUOUS
 62
     7
 10
-17.35153115592707
 20
155.8158182171565
 30
0.0
  0
VERTEX
  5
A6F
  8
DATA
  6
CONTINUOUS
 62
     7
 10
-17.352871560866571
 20
155.8162506582949
 30
0.0
  0
VERTEX
  5
A70
  8
DATA
  6
CONTINUOUS
 62
     7
 10
-17.35420955514736
 20
155.8166902555665
 30
0.0
  0
VERTEX
  5
A71
  8
DATA
  6
CONTINUOUS
 62
     7
 10
-17.355545138769411
 20
155.81713700897109
 30
0.0
  0
VERTEX
  5
A72
  8
DATA
  6
CONTINUOUS
 62
     7
 10
-17.356878311732739
 20
155.8175909185089
 30
0.0
  0
VERTEX
  5
A73
  8
DATA
  6
CONTINUOUS
 62
     7
 10
-17.35820907403733
 20
155.8180519841799
 30
0.0
  0
VERTEX
  5
A74
  8
DATA
  6
CONTINUOUS
 62
     7
 10
-17.359537425683211
 20
155.8185202059839
 30
0.0
  0
VERTEX
  5
A75
  8
DATA
  6
CONTINUOUS
 62
     7
 10
-17.360863366670358
 20
155.81899558392109
 30
0.0
  0
VERTEX
  5
A76
  8
DATA
  6
CONTINUOUS
 62
     7
 10
-17.362186896998779
 20
155.81947811799131
 30
0.0
  0
VERTEX
  5
A77
  8
DATA
  6
CONTINUOUS
 62
     7
 10
-17.363508016668462
 20
155.8199678081948
 30
0.0
  0
VERTEX
  5
A78
  8
DATA
  6
CONTINUOUS
 62
     7
 10
-17.364826725679421
 20
155.82046465453129
 30
0.0
  0
VERTEX
  5
A79
  8
DATA
  6
CONTINUOUS
 62
     7
 10
-17.364826725679421
 20
155.82046465453129
 30
0.0
  0
VERTEX
  5
A7A
  8
DATA
  6
CONTINUOUS
 62
     7
 10
-17.366142554436021
 20
155.82096891599261
 30
0.0
  0
VERTEX
  5
A7B
  8
DATA
  6
CONTINUOUS
 62
     7
 10
-17.367455033342662
 20
155.8214808515707
 30
0.0
  0
VERTEX
  5
A7C
  8
DATA
  6
CONTINUOUS
 62
     7
 10
-17.36876416239933
 20
155.82200046126519
 30
0.0
  0
VERTEX
  5
A7D
  8
DATA
  6
CONTINUOUS
 62
     7
 10
-17.37006994160603
 20
155.8225277450764
 30
0.0
  0
VERTEX
  5
A7E
  8
DATA
  6
CONTINUOUS
 62
     7
 10
-17.37137237096276
 20
155.82306270300421
 30
0.0
  0
VERTEX
  5
A7F
  8
DATA
  6
CONTINUOUS
 62
     7
 10
-17.372671450469511
 20
155.8236053350486
 30
0.0
  0
VERTEX
  5
A80
  8
DATA
  6
CONTINUOUS
 62
     7
 10
-17.373967180126279
 20
155.82415564120959
 30
0.0
  0
VERTEX
  5
A81
  8
DATA
  6
CONTINUOUS
 62
     7
 10
-17.375259559933099
 20
155.82471362148721
 30
0.0
  0
VERTEX
  5
A82
  8
DATA
  6
CONTINUOUS
 62
     7
 10
-17.376548589889929
 20
155.8252792758814
 30
0.0
  0
VERTEX
  5
A83
  8
DATA
  6
CONTINUOUS
 62
     7
 10
-17.377834269996789
 20
155.82585260439231
 30
0.0
  0
VERTEX
  5
A84
  8
DATA
  6
CONTINUOUS
 62
     7
 10
-17.379116600253688
 20
155.82643360701971
 30
0.0
  0
VERTEX
  5
A85
  8
DATA
  6
CONTINUOUS
 62
     7
 10
-17.380395580660618
 20
155.82702228376371
 30
0.0
  0
VERTEX
  5
A86
  8
DATA
  6
CONTINUOUS
 62
     7
 10
-17.381671211217579
 20
155.82761863462429
 30
0.0
  0
VERTEX
  5
A87
  8
DATA
  6
CONTINUOUS
 62
     7
 10
-17.382943491924561
 20
155.82822265960161
 30
0.0
  0
VERTEX
  5
A88
  8
DATA
  6
CONTINUOUS
 62
     7
 10
-17.38421242278157
 20
155.82883435869539
 30
0.0
  0
VERTEX
  5
A89
  8
DATA
  6
CONTINUOUS
 62
     7
 10
-17.385478003788599
 20
155.82945373190589
 30
0.0
  0
VERTEX
  5
A8A
  8
DATA
  6
CONTINUOUS
 62
     7
 10
-17.386740234945659
 20
155.8300807792329
 30
0.0
  0
VERTEX
  5
A8B
  8
DATA
  6
CONTINUOUS
 62
     7
 10
-17.387999116252761
 20
155.8307155006766
 30
0.0
  0
VERTEX
  5
A8C
  8
DATA
  6
CONTINUOUS
 62
     7
 10
-17.389254647709869
 20
155.8313578962368
 30
0.0
  0
VERTEX
  5
A8D
  8
DATA
  6
CONTINUOUS
 62
     7
 10
-17.390506829317019
 20
155.8320079659137
 30
0.0
  0
VERTEX
  5
A8E
  8
DATA
  6
CONTINUOUS
 62
     7
 10
-17.391755661074178
 20
155.8326657097071
 30
0.0
  0
VERTEX
  5
A8F
  8
DATA
  6
CONTINUOUS
 62
     7
 10
-17.39300114298139
 20
155.83333112761721
 30
0.0
  0
VERTEX
  5
A90
  8
DATA
  6
CONTINUOUS
 62
     7
 10
-17.39424327503863
 20
155.8340042196439
 30
0.0
  0
VERTEX
  5
A91
  8
DATA
  6
CONTINUOUS
 62
     7
 10
-17.3954820572459
 20
155.83468498578719
 30
0.0
  0
VERTEX
  5
A92
  8
DATA
  6
CONTINUOUS
 62
     7
 10
-17.396717489603169
 20
155.835373426047
 30
0.0
  0
VERTEX
  5
A93
  8
DATA
  6
CONTINUOUS
 62
     7
 10
-17.397949572110491
 20
155.83606954042349
 30
0.0
  0
VERTEX
  5
A94
  8
DATA
  6
CONTINUOUS
 62
     7
 10
-17.39917830476783
 20
155.83677332891659
 30
0.0
  0
VERTEX
  5
A95
  8
DATA
  6
CONTINUOUS
 62
     7
 10
-17.400403687575199
 20
155.83748479152629
 30
0.0
  0
VERTEX
  5
A96
  8
DATA
  6
CONTINUOUS
 62
     7
 10
-17.4016257205326
 20
155.8382039282526
 30
0.0
  0
VERTEX
  5
A97
  8
DATA
  6
CONTINUOUS
 62
     7
 10
-17.402844403640032
 20
155.8389307390955
 30
0.0
  0
VERTEX
  5
A98
  8
DATA
  6
CONTINUOUS
 62
     7
 10
-17.404059736897491
 20
155.83966522405501
 30
0.0
  0
VERTEX
  5
A99
  8
DATA
  6
CONTINUOUS
 62
     7
 10
-17.405271720304981
 20
155.84040738313109
 30
0.0
  0
VERTEX
  5
A9A
  8
DATA
  6
CONTINUOUS
 62
     7
 10
-17.406480353862491
 20
155.84115721632389
 30
0.0
  0
VERTEX
  5
A9B
  8
DATA
  6
CONTINUOUS
 62
     7
 10
-17.407685637570019
 20
155.84191472363321
 30
0.0
  0
VERTEX
  5
A9C
  8
DATA
  6
CONTINUOUS
 62
     7
 10
-17.408887571427599
 20
155.8426799050591
 30
0.0
  0
VERTEX
  5
A9D
  8
DATA
  6
CONTINUOUS
 62
     7
 10
-17.410086155435192
 20
155.84345276060159
 30
0.0
  0
VERTEX
  5
A9E
  8
DATA
  6
CONTINUOUS
 62
     7
 10
-17.411281389592808
 20
155.84423329026069
 30
0.0
  0
VERTEX
  5
A9F
  8
DATA
  6
CONTINUOUS
 62
     7
 10
-17.412473273900471
 20
155.8450214940365
 30
0.0
  0
VERTEX
  5
AA0
  8
DATA
  6
CONTINUOUS
 62
     7
 10
-17.41366180835815
 20
155.8458173719288
 30
0.0
  0
VERTEX
  5
AA1
  8
DATA
  6
CONTINUOUS
 62
     7
 10
-17.41484699296587
 20
155.84662092393771
 30
0.0
  0
VERTEX
  5
AA2
  8
DATA
  6
CONTINUOUS
 62
     7
 10
-17.416028827723618
 20
155.8474321500633
 30
0.0
  0
VERTEX
  5
AA3
  8
DATA
  6
CONTINUOUS
 62
     7
 10
-17.41720731263139
 20
155.84825105030541
 30
0.0
  0
VERTEX
  5
AA4
  8
DATA
  6
CONTINUOUS
 62
     7
 10
-17.418382447689179
 20
155.8490776246642
 30
0.0
  0
VERTEX
  5
AA5
  8
DATA
  6
CONTINUOUS
 62
     7
 10
-17.419554232896999
 20
155.8499118731396
 30
0.0
  0
VERTEX
  5
AA6
  8
DATA
  6
CONTINUOUS
 62
     7
 10
-17.42072266825485
 20
155.85075379573161
 30
0.0
  0
VERTEX
  5
AA7
  8
DATA
  6
CONTINUOUS
 62
     7
 10
-17.421887753762729
 20
155.8516033924401
 30
0.0
  0
VERTEX
  5
AA8
  8
DATA
  6
CONTINUOUS
 62
     7
 10
-17.423049489420649
 20
155.85246066326519
 30
0.0
  0
VERTEX
  5
AA9
  8
DATA
  6
CONTINUOUS
 62
     7
 10
-17.424207875228571
 20
155.853325608207
 30
0.0
  0
VERTEX
  5
AAA
  8
DATA
  6
CONTINUOUS
 62
     7
 10
-17.425362911186522
 20
155.85419822726541
 30
0.0
  0
VERTEX
  5
AAB
  8
DATA
  6
CONTINUOUS
 62
     7
 10
-17.42651459729451
 20
155.8550785204404
 30
0.0
  0
VERTEX
  5
AAC
  8
DATA
  6
CONTINUOUS
 62
     7
 10
-17.42766293355254
 20
155.85596648773199
 30
0.0
  0
VERTEX
  5
AAD
  8
DATA
  6
CONTINUOUS
 62
     7
 10
-17.42880791996059
 20
155.85686212914021
 30
0.0
  0
VERTEX
  5
AAE
  8
DATA
  6
CONTINUOUS
 62
     7
 10
-17.429949556518661
 20
155.85776544466501
 30
0.0
  0
VERTEX
  5
AAF
  8
DATA
  6
CONTINUOUS
 62
     7
 10
-17.431087843226759
 20
155.8586764343064
 30
0.0
  0
VERTEX
  5
AB0
  8
DATA
  6
CONTINUOUS
 62
     7
 10
-17.432222780084899
 20
155.8595950980644
 30
0.0
  0
VERTEX
  5
AB1
  8
DATA
  6
CONTINUOUS
 62
     7
 10
-17.43335436709307
 20
155.86052143593901
 30
0.0
  0
VERTEX
  5
AB2
  8
DATA
  6
CONTINUOUS
 62
     7
 10
-17.434482604251269
 20
155.86145544793021
 30
0.0
  0
VERTEX
  5
AB3
  8
DATA
  6
CONTINUOUS
 62
     7
 10
-17.435607491559491
 20
155.86239713403799
 30
0.0
  0
VERTEX
  5
AB4
  8
DATA
  6
CONTINUOUS
 62
     7
 10
-17.436729029017741
 20
155.8633464942624
 30
0.0
  0
VERTEX
  5
AB5
  8
DATA
  6
CONTINUOUS
 62
     7
 10
-17.437847216626011
 20
155.8643035286035
 30
0.0
  0
VERTEX
  5
AB6
  8
DATA
  6
CONTINUOUS
 62
     7
 10
-17.438962054384302
 20
155.86526823706109
 30
0.0
  0
VERTEX
  5
AB7
  8
DATA
  6
CONTINUOUS
 62
     7
 10
-17.44007354229263
 20
155.86624061963531
 30
0.0
  0
VERTEX
  5
AB8
  8
DATA
  6
CONTINUOUS
 62
     7
 10
-17.44118168035099
 20
155.86722067632621
 30
0.0
  0
VERTEX
  5
AB9
  8
DATA
  6
CONTINUOUS
 62
     7
 10
-17.442286468559391
 20
155.86820840713361
 30
0.0
  0
VERTEX
  5
ABA
  8
DATA
  6
CONTINUOUS
 62
     7
 10
-17.442286468559391
 20
155.86820840713361
 30
0.0
  0
VERTEX
  5
ABB
  8
DATA
  6
CONTINUOUS
 62
     7
 10
-17.443385931711941
 20
155.8692020528774
 30
0.0
  0
VERTEX
  5
ABC
  8
DATA
  6
CONTINUOUS
 62
     7
 10
-17.444478094602811
 20
155.8701998543774
 30
0.0
  0
VERTEX
  5
ABD
  8
DATA
  6
CONTINUOUS
 62
     7
 10
-17.445562957231981
 20
155.8712018116336
 30
0.0
  0
VERTEX
  5
ABE
  8
DATA
  6
CONTINUOUS
 62
     7
 10
-17.446640519599448
 20
155.87220792464601
 30
0.0
  0
VERTEX
  5
ABF
  8
DATA
  6
CONTINUOUS
 62
     7
 10
-17.44771078170524
 20
155.87321819341449
 30
0.0
  0
VERTEX
  5
AC0
  8
DATA
  6
CONTINUOUS
 62
     7
 10
-17.448773743549349
 20
155.87423261793921
 30
0.0
  0
VERTEX
  5
AC1
  8
DATA
  6
CONTINUOUS
 62
     7
 10
-17.449829405131752
 20
155.8752511982201
 30
0.0
  0
VERTEX
  5
AC2
  8
DATA
  6
CONTINUOUS
 62
     7
 10
-17.450877766452479
 20
155.87627393425711
 30
0.0
  0
VERTEX
  5
AC3
  8
DATA
  6
CONTINUOUS
 62
     7
 10
-17.451918827511498
 20
155.87730082605029
 30
0.0
  0
VERTEX
  5
AC4
  8
DATA
  6
CONTINUOUS
 62
     7
 10
-17.452952588308829
 20
155.87833187359971
 30
0.0
  0
VERTEX
  5
AC5
  8
DATA
  6
CONTINUOUS
 62
     7
 10
-17.453979048844481
 20
155.87936707690531
 30
0.0
  0
VERTEX
  5
AC6
  8
DATA
  6
CONTINUOUS
 62
     7
 10
-17.454998209118429
 20
155.88040643596699
 30
0.0
  0
VERTEX
  5
AC7
  8
DATA
  6
CONTINUOUS
 62
     7
 10
-17.456010069130681
 20
155.88144995078491
 30
0.0
  0
VERTEX
  5
AC8
  8
DATA
  6
CONTINUOUS
 62
     7
 10
-17.45701462888125
 20
155.88249762135899
 30
0.0
  0
VERTEX
  5
AC9
  8
DATA
  6
CONTINUOUS
 62
     7
 10
-17.45801188837013
 20
155.88354944768921
 30
0.0
  0
VERTEX
  5
ACA
  8
DATA
  6
CONTINUOUS
 62
     7
 10
-17.459001847597321
 20
155.8846054297756
 30
0.0
  0
VERTEX
  5
ACB
  8
DATA
  6
CONTINUOUS
 62
     7
 10
-17.459984506562819
 20
155.88566556761819
 30
0.0
  0
VERTEX
  5
ACC
  8
DATA
  6
CONTINUOUS
 62
     7
 10
-17.460959865266631
 20
155.88672986121699
 30
0.0
  0
VERTEX
  5
ACD
  8
DATA
  6
CONTINUOUS
 62
     7
 10
-17.461927923708739
 20
155.88779831057201
 30
0.0
  0
VERTEX
  5
ACE
  8
DATA
  6
CONTINUOUS
 62
     7
 10
-17.462888681889162
 20
155.8888709156831
 30
0.0
  0
VERTEX
  5
ACF
  8
DATA
  6
CONTINUOUS
 62
     7
 10
-17.463842139807909
 20
155.88994767655029
 30
0.0
  0
VERTEX
  5
AD0
  8
DATA
  6
CONTINUOUS
 62
     7
 10
-17.464788297464949
 20
155.89102859317379
 30
0.0
  0
VERTEX
  5
AD1
  8
DATA
  6
CONTINUOUS
 62
     7
 10
-17.465727154860279
 20
155.89211366555341
 30
0.0
  0
VERTEX
  5
AD2
  8
DATA
  6
CONTINUOUS
 62
     7
 10
-17.466658711993961
 20
155.89320289368919
 30
0.0
  0
VERTEX
  5
AD3
  8
DATA
  6
CONTINUOUS
 62
     7
 10
-17.467582968865919
 20
155.89429627758119
 30
0.0
  0
VERTEX
  5
AD4
  8
DATA
  6
CONTINUOUS
 62
     7
 10
-17.468499925476209
 20
155.8953938172294
 30
0.0
  0
VERTEX
  5
AD5
  8
DATA
  6
CONTINUOUS
 62
     7
 10
-17.469409581824792
 20
155.89649551263361
 30
0.0
  0
VERTEX
  5
AD6
  8
DATA
  6
CONTINUOUS
 62
     7
 10
-17.470311937911699
 20
155.89760136379411
 30
0.0
  0
VERTEX
  5
AD7
  8
DATA
  6
CONTINUOUS
 62
     7
 10
-17.47120699373691
 20
155.8987113707108
 30
0.0
  0
VERTEX
  5
AD8
  8
DATA
  6
CONTINUOUS
 62
     7
 10
-17.472094749300439
 20
155.89982553338359
 30
0.0
  0
VERTEX
  5
AD9
  8
DATA
  6
CONTINUOUS
 62
     7
 10
-17.47297520460225
 20
155.9009438518126
 30
0.0
  0
VERTEX
  5
ADA
  8
DATA
  6
CONTINUOUS
 62
     7
 10
-17.473848359642378
 20
155.90206632599779
 30
0.0
  0
VERTEX
  5
ADB
  8
DATA
  6
CONTINUOUS
 62
     7
 10
-17.474714214420839
 20
155.9031929559392
 30
0.0
  0
VERTEX
  5
ADC
  8
DATA
  6
CONTINUOUS
 62
     7
 10
-17.475572768937589
 20
155.90432374163669
 30
0.0
  0
VERTEX
  5
ADD
  8
DATA
  6
CONTINUOUS
 62
     7
 10
-17.476424023192649
 20
155.90545868309039
 30
0.0
  0
VERTEX
  5
ADE
  8
DATA
  6
CONTINUOUS
 62
     7
 10
-17.47726797718601
 20
155.90659778030019
 30
0.0
  0
VERTEX
  5
ADF
  8
DATA
  6
CONTINUOUS
 62
     7
 10
-17.478104630917699
 20
155.90774103326629
 30
0.0
  0
VERTEX
  5
AE0
  8
DATA
  6
CONTINUOUS
 62
     7
 10
-17.47893398438768
 20
155.90888844198849
 30
0.0
  0
VERTEX
  5
AE1
  8
DATA
  6
CONTINUOUS
 62
     7
 10
-17.479756037595969
 20
155.91004000646689
 30
0.0
  0
VERTEX
  5
AE2
  8
DATA
  6
CONTINUOUS
 62
     7
 10
-17.480570790542579
 20
155.91119572670141
 30
0.0
  0
VERTEX
  5
AE3
  8
DATA
  6
CONTINUOUS
 62
     7
 10
-17.481378243227489
 20
155.9123556026922
 30
0.0
  0
VERTEX
  5
AE4
  8
DATA
  6
CONTINUOUS
 62
     7
 10
-17.48217839565072
 20
155.9135196344391
 30
0.0
  0
VERTEX
  5
AE5
  8
DATA
  6
CONTINUOUS
 62
     7
 10
-17.482971247812259
 20
155.91468782194221
 30
0.0
  0
VERTEX
  5
AE6
  8
DATA
  6
CONTINUOUS
 62
     7
 10
-17.48375679971209
 20
155.91586016520139
 30
0.0
  0
VERTEX
  5
AE7
  8
DATA
  6
CONTINUOUS
 62
     7
 10
-17.48453505135025
 20
155.91703666421691
 30
0.0
  0
VERTEX
  5
AE8
  8
DATA
  6
CONTINUOUS
 62
     7
 10
-17.485306002726709
 20
155.91821731898841
 30
0.0
  0
VERTEX
  5
AE9
  8
DATA
  6
CONTINUOUS
 62
     7
 10
-17.486069653841479
 20
155.91940212951619
 30
0.0
  0
VERTEX
  5
AEA
  8
DATA
  6
CONTINUOUS
 62
     7
 10
-17.48682600469456
 20
155.92059109580021
 30
0.0
  0
VERTEX
  5
AEB
  8
DATA
  6
CONTINUOUS
 62
     7
 10
-17.487575055285959
 20
155.9217842178403
 30
0.0
  0
VERTEX
  5
AEC
  8
DATA
  6
CONTINUOUS
 62
     7
 10
-17.48831680561565
 20
155.92298149563661
 30
0.0
  0
VERTEX
  5
AED
  8
DATA
  6
CONTINUOUS
 62
     7
 10
-17.489051255683659
 20
155.92418292918899
 30
0.0
  0
VERTEX
  5
AEE
  8
DATA
  6
CONTINUOUS
 62
     7
 10
-17.489778405489972
 20
155.9253885184977
 30
0.0
  0
VERTEX
  5
AEF
  8
DATA
  6
CONTINUOUS
 62
     7
 10
-17.490498255034581
 20
155.92659826356251
 30
0.0
  0
VERTEX
  5
AF0
  8
DATA
  6
CONTINUOUS
 62
     7
 10
-17.491210804317522
 20
155.9278121643834
 30
0.0
  0
VERTEX
  5
AF1
  8
DATA
  6
CONTINUOUS
 62
     7
 10
-17.49191605333877
 20
155.92903022096061
 30
0.0
  0
VERTEX
  5
AF2
  8
DATA
  6
CONTINUOUS
 62
     7
 10
-17.492614002098321
 20
155.9302524332939
 30
0.0
  0
VERTEX
  5
AF3
  8
DATA
  6
CONTINUOUS
 62
     7
 10
-17.49330465059619
 20
155.93147880138341
 30
0.0
  0
VERTEX
  5
AF4
  8
DATA
  6
CONTINUOUS
 62
     7
 10
-17.493987998832349
 20
155.9327093252291
 30
0.0
  0
VERTEX
  5
AF5
  8
DATA
  6
CONTINUOUS
 62
     7
 10
-17.494664046806811
 20
155.93394400483089
 30
0.0
  0
VERTEX
  5
AF6
  8
DATA
  6
CONTINUOUS
 62
     7
 10
-17.495332794519609
 20
155.9351828401889
 30
0.0
  0
VERTEX
  5
AF7
  8
DATA
  6
CONTINUOUS
 62
     7
 10
-17.495994241970699
 20
155.9364258313031
 30
0.0
  0
VERTEX
  5
AF8
  8
DATA
  6
CONTINUOUS
 62
     7
 10
-17.496648389160111
 20
155.9376729781734
 30
0.0
  0
VERTEX
  5
AF9
  8
DATA
  6
CONTINUOUS
 62
     7
 10
-17.497295236087819
 20
155.93892428079999
 30
0.0
  0
VERTEX
  5
AFA
  8
DATA
  6
CONTINUOUS
 62
     7
 10
-17.497934782753848
 20
155.9401797391827
 30
0.0
  0
VERTEX
  5
AFB
  8
DATA
  6
CONTINUOUS
 62
     7
 10
-17.497934782753848
 20
155.9401797391827
 30
0.0
  0
VERTEX
  5
AFC
  8
DATA
  6
CONTINUOUS
 62
     7
 10
-17.498567212216429
 20
155.94143886151599
 30
0.0
  0
VERTEX
  5
AFD
  8
DATA
  6
CONTINUOUS
 62
     7
 10
-17.499192707533851
 20
155.9427011559944
 30
0.0
  0
VERTEX
  5
AFE
  8
DATA
  6
CONTINUOUS
 62
     7
 10
-17.499811268706079
 20
155.94396662261781
 30
0.0
  0
VERTEX
  5
AFF
  8
DATA
  6
CONTINUOUS
 62
     7
 10
-17.500422895733141
 20
155.9452352613863
 30
0.0
  0
VERTEX
  5
B00
  8
DATA
  6
CONTINUOUS
 62
     7
 10
-17.50102758861501
 20
155.9465070722998
 30
0.0
  0
VERTEX
  5
B01
  8
DATA
  6
CONTINUOUS
 62
     7
 10
-17.50162534735172
 20
155.9477820553584
 30
0.0
  0
VERTEX
  5
B02
  8
DATA
  6
CONTINUOUS
 62
     7
 10
-17.502216171943228
 20
155.94906021056201
 30
0.0
  0
VERTEX
  5
B03
  8
DATA
  6
CONTINUOUS
 62
     7
 10
-17.502800062389579
 20
155.9503415379107
 30
0.0
  0
VERTEX
  5
B04
  8
DATA
  6
CONTINUOUS
 62
     7
 10
-17.503377018690749
 20
155.9516260374044
 30
0.0
  0
VERTEX
  5
B05
  8
DATA
  6
CONTINUOUS
 62
     7
 10
-17.503947040846739
 20
155.95291370904329
 30
0.0
  0
VERTEX
  5
B06
  8
DATA
  6
CONTINUOUS
 62
     7
 10
-17.50451012885754
 20
155.95420455282709
 30
0.0
  0
VERTEX
  5
B07
  8
DATA
  6
CONTINUOUS
 62
     7
 10
-17.505066282723192
 20
155.95549856875601
 30
0.0
  0
VERTEX
  5
B08
  8
DATA
  6
CONTINUOUS
 62
     7
 10
-17.505615502443661
 20
155.95679575682999
 30
0.0
  0
VERTEX
  5
B09
  8
DATA
  6
CONTINUOUS
 62
     7
 10
-17.506157788018939
 20
155.958096117049
 30
0.0
  0
VERTEX
  5
B0A
  8
DATA
  6
CONTINUOUS
 62
     7
 10
-17.506693139449041
 20
155.95939964941309
 30
0.0
  0
VERTEX
  5
B0B
  8
DATA
  6
CONTINUOUS
 62
     7
 10
-17.50722155673396
 20
155.96070635392221
 30
0.0
  0
VERTEX
  5
B0C
  8
DATA
  6
CONTINUOUS
 62
     7
 10
-17.507743039873709
 20
155.96201623057641
 30
0.0
  0
VERTEX
  5
B0D
  8
DATA
  6
CONTINUOUS
 62
     7
 10
-17.50825758886829
 20
155.96332927937561
 30
0.0
  0
VERTEX
  5
B0E
  8
DATA
  6
CONTINUOUS
 62
     7
 10
-17.50876520371768
 20
155.9646455003199
 30
0.0
  0
VERTEX
  5
B0F
  8
DATA
  6
CONTINUOUS
 62
     7
 10
-17.50926588442189
 20
155.96596489340919
 30
0.0
  0
VERTEX
  5
B10
  8
DATA
  6
CONTINUOUS
 62
     7
 10
-17.50975963098093
 20
155.9672874586436
 30
0.0
  0
VERTEX
  5
B11
  8
DATA
  6
CONTINUOUS
 62
     7
 10
-17.510246443394792
 20
155.96861319602311
 30
0.0
  0
VERTEX
  5
B12
  8
DATA
  6
CONTINUOUS
 62
     7
 10
-17.51072632166348
 20
155.96994210554749
 30
0.0
  0
VERTEX
  5
B13
  8
DATA
  6
CONTINUOUS
 62
     7
 10
-17.511199265786981
 20
155.97127418721709
 30
0.0
  0
VERTEX
  5
B14
  8
DATA
  6
CONTINUOUS
 62
     7
 10
-17.51166527576531
 20
155.97260944103169
 30
0.0
  0
VERTEX
  5
B15
  8
DATA
  6
CONTINUOUS
 62
     7
 10
-17.512124351598469
 20
155.97394786699141
 30
0.0
  0
VERTEX
  5
B16
  8
DATA
  6
CONTINUOUS
 62
     7
 10
-17.512576493286439
 20
155.9752894650961
 30
0.0
  0
VERTEX
  5
B17
  8
DATA
  6
CONTINUOUS
 62
     7
 10
-17.513021700829238
 20
155.9766342353459
 30
0.0
  0
VERTEX
  5
B18
  8
DATA
  6
CONTINUOUS
 62
     7
 10
-17.513459974226858
 20
155.9779821777407
 30
0.0
  0
VERTEX
  5
B19
  8
DATA
  6
CONTINUOUS
 62
     7
 10
-17.513891313479299
 20
155.97933329228059
 30
0.0
  0
VERTEX
  5
B1A
  8
DATA
  6
CONTINUOUS
 62
     7
 10
-17.514315718586559
 20
155.9806875789655
 30
0.0
  0
VERTEX
  5
B1B
  8
DATA
  6
CONTINUOUS
 62
     7
 10
-17.51473318954865
 20
155.9820450377955
 30
0.0
  0
VERTEX
  5
B1C
  8
DATA
  6
CONTINUOUS
 62
     7
 10
-17.515143726365562
 20
155.9834056687705
 30
0.0
  0
VERTEX
  5
B1D
  8
DATA
  6
CONTINUOUS
 62
     7
 10
-17.51554732903729
 20
155.98476947189059
 30
0.0
  0
VERTEX
  5
B1E
  8
DATA
  6
CONTINUOUS
 62
     7
 10
-17.515943997563841
 20
155.98613644715579
 30
0.0
  0
VERTEX
  5
B1F
  8
DATA
  6
CONTINUOUS
 62
     7
 10
-17.51633373194522
 20
155.98750659456601
 30
0.0
  0
VERTEX
  5
B20
  8
DATA
  6
CONTINUOUS
 62
     7
 10
-17.51671653218143
 20
155.98887991412121
 30
0.0
  0
VERTEX
  5
B21
  8
DATA
  6
CONTINUOUS
 62
     7
 10
-17.51709239827245
 20
155.99025640582161
 30
0.0
  0
VERTEX
  5
B22
  8
DATA
  6
CONTINUOUS
 62
     7
 10
-17.517461330218289
 20
155.9916360696669
 30
0.0
  0
VERTEX
  5
B23
  8
DATA
  6
CONTINUOUS
 62
     7
 10
-17.517823328018959
 20
155.99301890565729
 30
0.0
  0
VERTEX
  5
B24
  8
DATA
  6
CONTINUOUS
 62
     7
 10
-17.51817839167445
 20
155.99440491379281
 30
0.0
  0
VERTEX
  5
B25
  8
DATA
  6
CONTINUOUS
 62
     7
 10
-17.518526521184771
 20
155.9957940940734
 30
0.0
  0
VERTEX
  5
B26
  8
DATA
  6
CONTINUOUS
 62
     7
 10
-17.518867716549899
 20
155.99718644649889
 30
0.0
  0
VERTEX
  5
B27
  8
DATA
  6
CONTINUOUS
 62
     7
 10
-17.51920197776985
 20
155.99858197106951
 30
0.0
  0
VERTEX
  5
B28
  8
DATA
  6
CONTINUOUS
 62
     7
 10
-17.519529304844621
 20
155.9999806677852
 30
0.0
  0
VERTEX
  5
B29
  8
DATA
  6
CONTINUOUS
 62
     7
 10
-17.51984969777423
 20
156.00138253664599
 30
0.0
  0
VERTEX
  5
B2A
  8
DATA
  6
CONTINUOUS
 62
     7
 10
-17.520163156558649
 20
156.00278757765179
 30
0.0
  0
VERTEX
  5
B2B
  8
DATA
  6
CONTINUOUS
 62
     7
 10
-17.520469681197891
 20
156.0041957908025
 30
0.0
  0
VERTEX
  5
B2C
  8
DATA
  6
CONTINUOUS
 62
     7
 10
-17.520769271691961
 20
156.00560717609849
 30
0.0
  0
VERTEX
  5
B2D
  8
DATA
  6
CONTINUOUS
 62
     7
 10
-17.521061928040851
 20
156.0070217335394
 30
0.0
  0
VERTEX
  5
B2E
  8
DATA
  6
CONTINUOUS
 62
     7
 10
-17.521347650244561
 20
156.00843946312551
 30
0.0
  0
VERTEX
  5
B2F
  8
DATA
  6
CONTINUOUS
 62
     7
 10
-17.521626438303102
 20
156.00986036485651
 30
0.0
  0
VERTEX
  5
B30
  8
DATA
  6
CONTINUOUS
 62
     7
 10
-17.521898292216459
 20
156.01128443873259
 30
0.0
  0
VERTEX
  5
B31
  8
DATA
  6
CONTINUOUS
 62
     7
 10
-17.522163211984651
 20
156.0127116847539
 30
0.0
  0
VERTEX
  5
B32
  8
DATA
  6
CONTINUOUS
 62
     7
 10
-17.522421197607649
 20
156.01414210292009
 30
0.0
  0
VERTEX
  5
B33
  8
DATA
  6
CONTINUOUS
 62
     7
 10
-17.522672249085488
 20
156.01557569323131
 30
0.0
  0
VERTEX
  5
B34
  8
DATA
  6
CONTINUOUS
 62
     7
 10
-17.52291636641813
 20
156.01701245568771
 30
0.0
  0
VERTEX
  5
B35
  8
DATA
  6
CONTINUOUS
 62
     7
 10
-17.52315354960561
 20
156.0184523902891
 30
0.0
  0
VERTEX
  5
B36
  8
DATA
  6
CONTINUOUS
 62
     7
 10
-17.52338379864791
 20
156.01989549703549
 30
0.0
  0
VERTEX
  5
B37
  8
DATA
  6
CONTINUOUS
 62
     7
 10
-17.523607113545019
 20
156.021341775927
 30
0.0
  0
VERTEX
  5
B38
  8
DATA
  6
CONTINUOUS
 62
     7
 10
-17.523823494296959
 20
156.02279122696359
 30
0.0
  0
VERTEX
  5
B39
  8
DATA
  6
CONTINUOUS
 62
     7
 10
-17.524032940903719
 20
156.02424385014521
 30
0.0
  0
VERTEX
  5
B3A
  8
DATA
  6
CONTINUOUS
 62
     7
 10
-17.524235453365311
 20
156.0256996454718
 30
0.0
  0
VERTEX
  5
B3B
  8
DATA
  6
CONTINUOUS
 62
     7
 10
-17.524431031681701
 20
156.02715861294351
 30
0.0
  0
VERTEX
  5
B3C
  8
DATA
  6
CONTINUOUS
 62
     7
 10
-17.524431031681701
 20
156.02715861294351
 30
0.0
  0
SEQEND
  5
B3D
  8
DATA
  6
CONTINUOUS
 62
     7
  0
LINE
  5
6AF
  8
DATA
  6
CONTINUOUS
 62
     7
 10
-17.272429681004191
 20
155.8030932533627
 30
0.0
 11
-17.275569460983348
 21
155.8030932533627
 31
0.0
  0
LINE
  5
6B0
  8
DATA
  6
CONTINUOUS
 62
     7
 10
-9.7409363994371176
 20
172.00048876935881
 30
0.0
 11
-9.7409363994371176
 21
171.03078740728901
 31
0.0
  0
LINE
  5
6B1
  8
DATA
  6
CONTINUOUS
 62
     7
 10
-16.73550004700078
 20
171.03078740728901
 30
0.0
 11
-16.73550004700078
 21
172.00048876935881
 31
0.0
  0
LINE
  5
6B2
  8
DATA
  6
CONTINUOUS
 62
     7
 10
-18.996715783206039
 20
167.6045906464152
 30
0.0
 11
-14.01257480171429
 21
167.6045906464152
 31
0.0
  0
LINE
  5
6B3
  8
DATA
  6
CONTINUOUS
 62
     7
 10
-12.42092726869228
 20
167.6045906464152
 30
0.0
 11
-7.4554620102914271
 21
167.6045906464152
 31
0.0
  0
LINE
  5
6B4
  8
DATA
  6
CONTINUOUS
 62
     7
 10
-7.3015878063219182
 20
170.13095033977851
 30
0.0
 11
-7.4554620102914271
 21
167.6045906464152
 31
0.0
  0
LINE
  5
6B5
  8
DATA
  6
CONTINUOUS
 62
     7
 10
-7.2465097914779051
 20
171.03078740728901
 30
0.0
 11
-7.3015878063219182
 21
170.13095033977851
 31
0.0
  0
LINE
  5
6B6
  8
DATA
  6
CONTINUOUS
 62
     7
 10
-19.23630514777668
 20
171.03078740728901
 30
0.0
 11
-7.2465097914779051
 21
171.03078740728901
 31
0.0
  0
LINE
  5
6B7
  8
DATA
  6
CONTINUOUS
 62
     7
 10
-7.8272386104867717
 20
165.98219887167409
 30
0.0
 11
-8.7422221320782398
 21
156.03029006459261
 31
0.0
  0
LINE
  5
6B8
  8
DATA
  6
CONTINUOUS
 62
     7
 10
-7.678183732816052
 20
167.6045906464152
 30
0.0
 11
-7.8272386104867717
 21
165.98219887167409
 31
0.0
  0
LINE
  5
6B9
  8
DATA
  6
CONTINUOUS
 62
     7
 10
-8.7456645080062856
 20
156.00412800754231
 30
0.0
 11
-8.7422221320782398
 21
156.03029006459261
 31
0.0
  0
LINE
  5
6BA
  8
DATA
  6
CONTINUOUS
 62
     7
 10
-8.7732035154280936
 20
155.92460912361139
 30
0.0
 11
-8.7456645080062856
 21
156.00412800754231
 31
0.0
  0
LINE
  5
6BB
  8
DATA
  6
CONTINUOUS
 62
     7
 10
-8.8231179663801811
 20
155.85989245617091
 30
0.0
 11
-8.7732035154280936
 21
155.92460912361139
 31
0.0
  0
LINE
  5
6BC
  8
DATA
  6
CONTINUOUS
 62
     7
 10
-8.8892115841927932
 20
155.81755123225901
 30
0.0
 11
-8.8231179663801811
 21
155.85989245617091
 31
0.0
  0
LINE
  5
6BD
  8
DATA
  6
CONTINUOUS
 62
     7
 10
-8.9635669042317261
 20
155.8030932533627
 30
0.0
 11
-8.8892115841927932
 21
155.81755123225901
 31
0.0
  0
LINE
  5
6BE
  8
DATA
  6
CONTINUOUS
 62
     7
 10
-11.69853457881649
 20
155.8030932533627
 30
0.0
 11
-8.9635669042317261
 21
155.8030932533627
 31
0.0
  0
LINE
  5
6BF
  8
DATA
  6
CONTINUOUS
 62
     7
 10
-16.126806972253942
 20
155.8030932533627
 30
0.0
 11
-14.065513430713249
 21
155.8030932533627
 31
0.0
  0
LINE
  5
6C0
  8
DATA
  6
CONTINUOUS
 62
     7
 10
-16.788087387971778
 20
155.8030932533627
 30
0.0
 11
-15.899954398616529
 21
155.8030932533627
 31
0.0
  0
LINE
  5
6C1
  8
DATA
  6
CONTINUOUS
 62
     7
 10
-17.016316911980681
 20
155.8030932533627
 30
0.0
 11
-17.038003880325419
 21
155.80653562929041
 31
0.0
  0
LINE
  5
6C2
  8
DATA
  6
CONTINUOUS
 62
     7
 10
-17.015284199202402
 20
155.8030932533627
 30
0.0
 11
-17.016316911980681
 21
155.8030932533627
 31
0.0
  0
LINE
  5
6C3
  8
DATA
  6
CONTINUOUS
 62
     7
 10
-17.015284199202402
 20
155.8030932533627
 30
0.0
 11
-16.788087387971778
 21
155.8030932533627
 31
0.0
  0
LINE
  5
6C4
  8
DATA
  6
CONTINUOUS
 62
     7
 10
-17.272429681004191
 20
155.8030932533627
 30
0.0
 11
-17.015284199202402
 21
155.8030932533627
 31
0.0
  0
LINE
  5
6C5
  8
DATA
  6
CONTINUOUS
 62
     7
 10
-16.126806972253942
 20
155.8030932533627
 30
0.0
 11
-15.899954398616529
 21
155.8030932533627
 31
0.0
  0
LINE
  5
6C6
  8
DATA
  6
CONTINUOUS
 62
     7
 10
-8.7422221320782398
 20
156.03029006459261
 30
0.0
 11
-11.950860734319541
 21
156.03029006459261
 31
0.0
  0
LINE
  5
6C7
  8
DATA
  6
CONTINUOUS
 62
     7
 10
-17.14575024686334
 20
156.03029006459261
 30
0.0
 11
-17.524755836506898
 21
156.03029006459261
 31
0.0
  0
LINE
  5
6C8
  8
DATA
  6
CONTINUOUS
 62
     7
 10
21.600000000000001
 20
191.03579493695159
 30
0.0
 11
-21.600000000000001
 21
191.03579493695159
 31
0.0
  0
LINE
  5
6C9
  8
DATA
  6
CONTINUOUS
 62
     7
 10
21.600000000000001
 20
192.85930497351961
 30
0.0
 11
-21.600000000000001
 21
192.85930497351961
 31
0.0
  0
LINE
  5
6CA
  8
DATA
  6
CONTINUOUS
 62
     7
 10
-21.600000000000001
 20
191.03579493695159
 30
0.0
 11
-21.600000000000001
 21
192.85930497351961
 31
0.0
  0
LINE
  5
6CB
  8
DATA
  6
CONTINUOUS
 62
     7
 10
21.600000000000001
 20
191.03579493695159
 30
0.0
 11
21.600000000000001
 21
192.85930497351961
 31
0.0
  0
LINE
  5
6CC
  8
DATA
  6
CONTINUOUS
 62
     7
 10
-19.849999999999991
 20
192.85930497351961
 30
0.0
 11
-19.849999999999991
 21
195.0004887693589
 31
0.0
  0
LINE
  5
6CD
  8
DATA
  6
CONTINUOUS
 62
     7
 10
-13.15
 20
192.85930497351961
 30
0.0
 11
-13.15
 21
195.0004887693589
 31
0.0
  0
LINE
  5
6CE
  8
DATA
  6
CONTINUOUS
 62
     7
 10
13.15
 20
192.85930497351961
 30
0.0
 11
13.15
 21
195.0004887693589
 31
0.0
  0
LINE
  5
6CF
  8
DATA
  6
CONTINUOUS
 62
     7
 10
19.849999999999991
 20
192.85930497351961
 30
0.0
 11
19.849999999999991
 21
195.0004887693589
 31
0.0
  0
LINE
  5
6D0
  8
DATA
  6
CONTINUOUS
 62
     7
 10
-13.15
 20
195.0004887693589
 30
0.0
 11
-19.849999999999991
 21
195.0004887693589
 31
0.0
  0
LINE
  5
6D1
  8
DATA
  6
CONTINUOUS
 62
     7
 10
19.849999999999991
 20
195.0004887693589
 30
0.0
 11
13.15
 21
195.0004887693589
 31
0.0
  0
LINE
  5
6D2
  8
DATA
  6
CONTINUOUS
 62
     7
 10
-19.149999999999999
 20
175.0
 30
0.0
 11
-19.149999999999999
 21
191.03579493695159
 31
0.0
  0
LINE
  5
6D3
  8
DATA
  6
CONTINUOUS
 62
     7
 10
-13.85
 20
175.0
 30
0.0
 11
-13.85
 21
191.03579493695159
 31
0.0
  0
LINE
  5
6D4
  8
DATA
  6
CONTINUOUS
 62
     7
 10
13.85
 20
175.0
 30
0.0
 11
13.85
 21
191.03579493695159
 31
0.0
  0
LINE
  5
6D5
  8
DATA
  6
CONTINUOUS
 62
     7
 10
19.149999999999999
 20
175.0
 30
0.0
 11
19.149999999999999
 21
191.03579493695159
 31
0.0
  0
LINE
  5
6D6
  8
DATA
  6
CONTINUOUS
 62
     7
 10
-16.509599175418
 20
156.03029006459261
 30
0.0
 11
-17.15119626546382
 21
156.03029006459261
 31
0.0
  0
LINE
  5
6D7
  8
DATA
  6
CONTINUOUS
 62
     7
 10
-11.69853457881649
 20
155.8030932533627
 30
0.0
 11
-12.37599501562161
 21
155.8030932533627
 31
0.0
  0
ARC
  5
6D8
  8
DATA
  6
CONTINUOUS
 62
     7
 10
-13.23092726869177
 20
155.82770699933539
 30
0.0
 40
0.8349490393605084
 50
165.9582266278581
 51
14.041773372141821
  0
LINE
  5
6D9
  8
DATA
  6
CONTINUOUS
 62
     7
 10
-16.509599175418
 20
156.03029006459261
 30
0.0
 11
-14.01257480171429
 21
156.03029006459261
 31
0.0
  0
LINE
  5
6DA
  8
DATA
  6
CONTINUOUS
 62
     7
 10
-11.950860734319541
 20
156.03029006459261
 30
0.0
 11
-12.42092726869228
 21
156.03029006459261
 31
0.0
  0
LINE
  5
6DB
  8
DATA
  6
CONTINUOUS
 62
     7
 10
-14.01257480171429
 20
156.03029006459261
 30
0.0
 11
-14.01257480171429
 21
171.03078740728901
 31
0.0
  0
LINE
  5
6DC
  8
DATA
  6
CONTINUOUS
 62
     7
 10
-12.42092726869228
 20
156.03029006459261
 30
0.0
 11
-12.42092726869228
 21
171.03078740728901
 31
0.0
  0
LINE
  5
6DD
  8
DATA
  6
CONTINUOUS
 62
     7
 10
-7.8499999999999934
 20
183.03579493695159
 30
0.0
 11
-7.8499999999999934
 21
191.03579493695159
 31
0.0
  0
LINE
  5
6DE
  8
DATA
  6
CONTINUOUS
 62
     7
 10
0.6500000000000057
 20
183.03579493695159
 30
0.0
 11
0.6500000000000057
 21
191.03579493695159
 31
0.0
  0
LINE
  5
6DF
  8
DATA
  6
CONTINUOUS
 62
     7
 10
-7.8499999999999934
 20
183.03579493695159
 30
0.0
 11
0.6500000000000057
 21
183.03579493695159
 31
0.0
  0
LINE
  5
6E0
  8
DATA
  6
CONTINUOUS
 62
     7
 10
-5.5999999999999934
 20
175.0
 30
0.0
 11
-5.5999999999999934
 21
183.03579493695159
 31
0.0
  0
LINE
  5
6E1
  8
DATA
  6
CONTINUOUS
 62
     7
 10
-1.5999999999999941
 20
175.0
 30
0.0
 11
-1.5999999999999941
 21
183.03579493695159
 31
0.0
  0
LINE
  5
6E2
  8
DATA
  6
CONTINUOUS
 62
     7
 10
0.6500000000000057
 20
187.80000000000001
 30
0.0
 11
6.8674251982857006
 21
187.80000000000001
 31
0.0
  0
LINE
  5
6E3
  8
DATA
  6
CONTINUOUS
 62
     7
 10
2.9405217251244551
 20
175.0
 30
0.0
 11
6.8674251982857006
 21
187.80000000000001
 31
0.0
  0
LINE
  5
6E4
  8
DATA
  6
CONTINUOUS
 62
     7
 10
71.029999999999973
 20
48.160044754699364
 30
0.0
 11
75.0
 21
48.160044754699364
 31
0.0
  0
LINE
  5
6E5
  8
DATA
  6
CONTINUOUS
 62
     7
 10
-33.000000000000007
 20
132.25
 30
0.0
 11
33.000000000000043
 21
132.25
 31
0.0
  0
LINE
  5
6E6
  8
DATA
  6
CONTINUOUS
 62
     7
 10
78.0
 20
132.25
 30
0.0
 11
75.0
 21
132.25
 31
0.0
  0
LINE
  5
6E7
  8
DATA
  6
CONTINUOUS
 62
     7
 10
117.0
 20
132.25
 30
0.0
 11
183.0
 21
132.25
 31
0.0
  0
LINE
  5
6E8
  8
DATA
  6
CONTINUOUS
 62
     7
 10
221.99999999999989
 20
132.25
 30
0.0
 11
225.0
 21
132.25
 31
0.0
  0
ARC
  5
6E9
  8
DATA
  6
CONTINUOUS
 62
     7
 10
-33.000000000000007
 20
130.25
 30
0.0
 40
2.0
 50
90.0
 51
180.0
  0
ARC
  5
6EA
  8
DATA
  6
CONTINUOUS
 62
     7
 10
33.000000000000043
 20
130.25
 30
0.0
 40
2.0
 50
0.0
 51
90.0
  0
ARC
  5
6EB
  8
DATA
  6
CONTINUOUS
 62
     7
 10
117.0
 20
130.25
 30
0.0
 40
2.0
 50
90.0
 51
180.0
  0
ARC
  5
6EC
  8
DATA
  6
CONTINUOUS
 62
     7
 10
183.0
 20
130.25
 30
0.0
 40
2.0
 50
0.0
 51
90.0
  0
LINE
  5
6ED
  8
DATA
  6
CONTINUOUS
 62
     7
 10
33.000000000000043
 20
17.75
 30
0.0
 11
-33.000000000000007
 21
17.75
 31
0.0
  0
LINE
  5
6EE
  8
DATA
  6
CONTINUOUS
 62
     7
 10
78.0
 20
17.75
 30
0.0
 11
75.0
 21
17.75
 31
0.0
  0
LINE
  5
6EF
  8
DATA
  6
CONTINUOUS
 62
     7
 10
117.0
 20
17.75
 30
0.0
 11
183.0
 21
17.75
 31
0.0
  0
LINE
  5
6F0
  8
DATA
  6
CONTINUOUS
 62
     7
 10
221.99999999999989
 20
17.75
 30
0.0
 11
225.0
 21
17.75
 31
0.0
  0
ARC
  5
6F1
  8
DATA
  6
CONTINUOUS
 62
     7
 10
-33.000000000000007
 20
19.75
 30
0.0
 40
2.0
 50
180.0
 51
270.0
  0
ARC
  5
6F2
  8
DATA
  6
CONTINUOUS
 62
     7
 10
33.000000000000043
 20
19.75
 30
0.0
 40
2.0
 50
270.0
 51
0.0
  0
ARC
  5
6F3
  8
DATA
  6
CONTINUOUS
 62
     7
 10
117.0
 20
19.75
 30
0.0
 40
2.0
 50
180.0
 51
270.0
  0
ARC
  5
6F4
  8
DATA
  6
CONTINUOUS
 62
     7
 10
183.0
 20
19.75
 30
0.0
 40
2.0
 50
270.0
 51
0.0
  0
CIRCLE
  5
6F5
  8
DATA
  6
CONTINUOUS
 62
     7
 10
-0.0000000000000853
 20
116.65000000000001
 30
0.0
 40
3.5
  0
LINE
  5
6F6
  8
DATA
  6
CONTINUOUS
 62
     7
 10
-0.5000000000000853
 20
113.1858983848622
 30
0.0
 11
-0.5000000000000853
 21
120.1141016151378
 31
0.0
  0
LINE
  5
6F7
  8
DATA
  6
CONTINUOUS
 62
     7
 10
0.4999999999999147
 20
120.1141016151378
 30
0.0
 11
0.4999999999999147
 21
113.1858983848622
 31
0.0
  0
CIRCLE
  5
6F8
  8
DATA
  6
CONTINUOUS
 62
     7
 10
150.0
 20
116.65000000000001
 30
0.0
 40
1.990000000000008
  0
CIRCLE
  5
6F9
  8
DATA
  6
CONTINUOUS
 62
     7
 10
-0.0000000000000853
 20
33.349999999999987
 30
0.0
 40
3.5
  0
LINE
  5
6FA
  8
DATA
  6
CONTINUOUS
 62
     7
 10
-0.5000000000000853
 20
29.885898384862241
 30
0.0
 11
-0.5000000000000853
 21
36.814101615137758
 31
0.0
  0
LINE
  5
6FB
  8
DATA
  6
CONTINUOUS
 62
     7
 10
0.4999999999999147
 20
36.814101615137758
 30
0.0
 11
0.4999999999999147
 21
29.885898384862241
 31
0.0
  0
CIRCLE
  5
6FC
  8
DATA
  6
CONTINUOUS
 62
     7
 10
150.0
 20
33.349999999999987
 30
0.0
 40
1.990000000000008
  0
ENDSEC
  0
EOF
