  0
SECTION
  2
HEADER
  9
$ACADVER
  1
AC1009
  9
$INSBASE
 10
0.0
 20
0.0
 30
0.0
  9
$EXTMIN
 10
-2600.1647823492121
 20
-3886.234774186667
 30
-0.0015258207003583
  9
$EXTMAX
 10
2800.164807494923
 20
4142.6671577102534
 30
0.0000000349246037
  9
$LIMMIN
 10
0.0
 20
0.0
  9
$LIMMAX
 10
0.0
 20
0.0
  9
$ORTHOMODE
 70
     0
  9
$REGENMODE
 70
     1
  9
$FILLMODE
 70
     1
  9
$QTEXTMODE
 70
     0
  9
$MIRRTEXT
 70
     1
  9
$DRAGMODE
 70
     2
  9
$LTSCALE
 40
152.39999999999989
  9
$OSMODE
 70
   231
  9
$ATTMODE
 70
     1
  9
$TEXTSIZE
 40
0.0
  9
$TRACEWID
 40
1.0
  9
$TEXTSTYLE
  7
STANDARD
  9
$CLAYER
  8
DATA
  9
$CELTYPE
  6
BYLAYER
  9
$CECOLOR
 62
   256
  9
$DIMSCALE
 40
1.0
  9
$DIMASZ
 40
0.18
  9
$DIMEXO
 40
0.0625
  9
$DIMDLI
 40
0.38
  9
$DIMRND
 40
0.0
  9
$DIMDLE
 40
0.0
  9
$DIMEXE
 40
0.18
  9
$DIMTP
 40
0.0
  9
$DIMTM
 40
0.0
  9
$DIMTXT
 40
0.18
  9
$DIMCEN
 40
0.09
  9
$DIMTSZ
 40
0.0
  9
$DIMTOL
 70
     0
  9
$DIMLIM
 70
     0
  9
$DIMTIH
 70
     1
  9
$DIMTOH
 70
     1
  9
$DIMSE1
 70
     0
  9
$DIMSE2
 70
     0
  9
$DIMTAD
 70
     0
  9
$DIMZIN
 70
     0
  9
$DIMBLK
  1

  9
$DIMASO
 70
     1
  9
$DIMSHO
 70
     1
  9
$DIMPOST
  1

  9
$DIMAPOST
  1

  9
$DIMALT
 70
     0
  9
$DIMALTD
 70
     2
  9
$DIMALTF
 40
25.399999999999999
  9
$DIMLFAC
 40
1.0
  9
$DIMTOFL
 70
     0
  9
$DIMTVP
 40
0.0
  9
$DIMTIX
 70
     0
  9
$DIMSOXD
 70
     0
  9
$DIMSAH
 70
     0
  9
$DIMBLK1
  1

  9
$DIMBLK2
  1

  9
$DIMSTYLE
  2
STANDARD
  9
$DIMCLRD
 70
     0
  9
$DIMCLRE
 70
     0
  9
$DIMCLRT
 70
     0
  9
$DIMTFAC
 40
1.0
  9
$DIMGAP
 40
0.09
  9
$LUNITS
 70
     2
  9
$LUPREC
 70
     4
  9
$SKETCHINC
 40
0.1
  9
$FILLETRAD
 40
0.0
  9
$AUNITS
 70
     0
  9
$AUPREC
 70
     0
  9
$MENU
  1
acad
  9
$ELEVATION
 40
0.0
  9
$PELEVATION
 40
0.0
  9
$THICKNESS
 40
0.0
  9
$LIMCHECK
 70
     0
  9
$BLIPMODE
 70
     0
  9
$CHAMFERA
 40
0.0
  9
$CHAMFERB
 40
0.0
  9
$SKPOLY
 70
     0
  9
$TDCREATE
 40
2454435.6803472228
  9
$TDUPDATE
 40
2454435.6821725122
  9
$TDINDWG
 40
0.0003398611
  9
$TDUSRTIMER
 40
0.0003396875
  9
$USRTIMER
 70
     1
  9
$ANGBASE
 50
0.0
  9
$ANGDIR
 70
     0
  9
$PDMODE
 70
     1
  9
$PDSIZE
 40
-2.0
  9
$PLINEWID
 40
0.0
  9
$COORDS
 70
     1
  9
$SPLFRAME
 70
     0
  9
$SPLINETYPE
 70
     6
  9
$SPLINESEGS
 70
     8
  9
$ATTDIA
 70
     0
  9
$ATTREQ
 70
     1
  9
$HANDLING
 70
     1
  9
$HANDSEED
  5
BF6
  9
$SURFTAB1
 70
     6
  9
$SURFTAB2
 70
     6
  9
$SURFTYPE
 70
     6
  9
$SURFU
 70
     6
  9
$SURFV
 70
     6
  9
$UCSNAME
  2

  9
$UCSORG
 10
0.0
 20
0.0
 30
0.0
  9
$UCSXDIR
 10
1.0
 20
0.0
 30
0.0
  9
$UCSYDIR
 10
0.0
 20
1.0
 30
0.0
  9
$PUCSNAME
  2

  9
$PUCSORG
 10
0.0
 20
0.0
 30
0.0
  9
$PUCSXDIR
 10
1.0
 20
0.0
 30
0.0
  9
$PUCSYDIR
 10
0.0
 20
1.0
 30
0.0
  9
$USERI1
 70
     0
  9
$USERI2
 70
     0
  9
$USERI3
 70
     0
  9
$USERI4
 70
     0
  9
$USERI5
 70
     0
  9
$USERR1
 40
0.0
  9
$USERR2
 40
0.0
  9
$USERR3
 40
0.0
  9
$USERR4
 40
0.0
  9
$USERR5
 40
0.0
  9
$WORLDVIEW
 70
     1
  9
$SHADEDGE
 70
     3
  9
$SHADEDIF
 70
    70
  9
$TILEMODE
 70
     1
  9
$MAXACTVP
 70
    64
  9
$PLIMCHECK
 70
     0
  9
$PEXTMIN
 10
1.0000000000000000E+020
 20
1.0000000000000000E+020
 30
1.0000000000000000E+020
  9
$PEXTMAX
 10
-1.0000000000000000E+020
 20
-1.0000000000000000E+020
 30
-1.0000000000000000E+020
  9
$PLIMMIN
 10
0.0
 20
0.0
  9
$PLIMMAX
 10
12.0
 20
9.0
  9
$UNITMODE
 70
     0
  9
$VISRETAIN
 70
     0
  9
$PLINEGEN
 70
     1
  9
$PSLTSCALE
 70
     0
  0
ENDSEC
  0
SECTION
  2
TABLES
  0
TABLE
  2
VPORT
 70
     1
  0
VPORT
  2
*ACTIVE
 70
     0
 10
0.0
 20
0.0
 11
1.0
 21
1.0
 12
100.0000125728566
 22
128.2161917617936
 13
0.0
 23
0.0
 14
1.0
 24
1.0
 15
0.0
 25
0.0
 16
0.0
 26
0.0
 36
1.0
 17
0.0
 27
0.0
 37
0.0
 40
8095.5318234479328
 41
1.6703601108033239
 42
50.0
 43
0.0
 44
0.0
 50
0.0
 51
0.0
 71
     0
 72
  2000
 73
     1
 74
     1
 75
     0
 76
     0
 77
     0
 78
     0
  0
ENDTAB
  0
TABLE
  2
LTYPE
 70
    11
  0
LTYPE
  2
CONTINUOUS
 70
     0
  3
Solid line
 72
    65
 73
     0
 40
0.0
  0
LTYPE
  2
STYLE_01
 70
     0
  3

 72
    65
 73
     2
 40
0.4166412353515625
 49
0.208282470703125
 49
-0.2083587646484375
  0
LTYPE
  2
STYLE_06
 70
     0
  3

 72
    65
 73
     4
 40
1.0416412353515621
 49
0.625
 49
-0.208282470703125
 49
0.069427490234375
 49
-0.1389312744140625
  0
ENDTAB
  0
TABLE
  2
LAYER
 70
     8
  0
LAYER
  2
0
 70
     0
 62
     7
  6
CONTINUOUS
  0
LAYER
  2
DATA
 70
     0
 62
     7
  6
CONTINUOUS
  0
LAYER
  2
HIBINO-BASE
 70
     0
 62
     7
  6
CONTINUOUS
  0
LAYER
  2
SIDE10
 70
     0
 62
     7
  6
CONTINUOUS
  0
LAYER
  2
TOP-30
 70
     0
 62
     7
  6
CONTINUOUS
  0
LAYER
  2
TOP30
 70
     0
 62
     7
  6
CONTINUOUS
  0
LAYER
  2
SPEC
 70
     0
 62
     7
  6
CONTINUOUS
  0
LAYER
  2
DIMNSIONS
 70
     0
 62
     7
  6
CONTINUOUS
  0
ENDTAB
  0
TABLE
  2
STYLE
 70
     2
  0
STYLE
  2
STANDARD
 70
     0
 40
0.0
 41
1.0
 50
0.0
 71
     0
 42
0.0
  3
txt
  4
BIGFONT.SHX
  0
ENDTAB
  0
TABLE
  2
VIEW
 70
     0
  0
ENDTAB
  0
TABLE
  2
UCS
 70
     0
  0
ENDTAB
  0
TABLE
  2
APPID
 70
     1
  0
APPID
  2
ACAD
 70
     0
  0
ENDTAB
  0
TABLE
  2
DIMSTYLE
 70
     1
  0
DIMSTYLE
  2
STANDARD
 70
     0
  3

  4

  5

  6

  7

 40
1.0
 41
0.18
 42
0.0625
 43
0.38
 44
0.18
 45
0.0
 46
0.0
 47
0.0
 48
0.0
140
0.18
141
0.09
142
0.0
143
25.399999999999999
144
1.0
145
0.0
146
1.0
147
0.09
 71
     0
 72
     0
 73
     1
 74
     1
 75
     0
 76
     0
 77
     0
 78
     0
170
     0
171
     2
172
     0
173
     0
174
     0
175
     0
176
     0
177
     0
178
     0
  0
ENDTAB
  0
ENDSEC
  0
SECTION
  2
BLOCKS
  0
BLOCK
  8
0
  2
$MODEL_SPACE
 70
     0
 10
0.0
 20
0.0
 30
0.0
  3
$MODEL_SPACE
  1

  0
ENDBLK
  5
99E
  8
0
  0
BLOCK
 67
     1
  8
0
  2
$PAPER_SPACE
 70
     0
 10
0.0
 20
0.0
 30
0.0
  3
$PAPER_SPACE
  1

  0
ENDBLK
  5
99A
 67
     1
  8
0
  0
ENDSEC
  0
SECTION
  2
ENTITIES
  0
LINE
  5
2F
  8
HIBINO-BASE
  6
CONTINUOUS
 62
     7
 10
-2600.0
 20
4142.422634999999
 30
0.0
 11
2800.0
 21
4142.422634999999
 31
0.0
  0
LINE
  5
30
  8
HIBINO-BASE
  6
CONTINUOUS
 62
     7
 10
2800.0
 20
-3657.577365000001
 30
0.0
 11
-2600.0
 21
-3657.577365000001
 31
0.0
  0
LINE
  5
31
  8
HIBINO-BASE
  6
CONTINUOUS
 62
     7
 10
-2600.0
 20
-3657.577365000001
 30
0.0
 11
-2600.0
 21
4142.422634999999
 31
0.0
  0
TEXT
  5
32
  8
HIBINO-BASE
 62
     7
 10
-2384.48
 20
-3849.8376990000002
 30
0.0
 40
108.001325390625
  1
Hibino Corporation
 41
0.7
 11
-2384.48
 21
-3741.8363736093761
 31
0.0
 73
     3
  0
LINE
  5
33
  8
HIBINO-BASE
  6
CONTINUOUS
 62
     7
 10
2800.0
 20
4142.422634999999
 30
0.0
 11
2800.0
 21
-3657.577365000001
 31
0.0
  0
TEXT
  5
34
  8
HIBINO-BASE
 62
     7
 10
1602.0517
 20
-3849.8376990000002
 30
0.0
 40
108.001325390625
  1
ヒビノ株式会社
 41
0.7
 11
1602.0517
 21
-3741.8363736093761
 31
0.0
 73
     3
  0
TEXT
  5
35
  8
HIBINO-BASE
 62
     7
 10
828.36422669493822
 20
-3522.8600000000001
 30
0.0
 40
48.865234374999993
  1
'00.06.
 41
0.7
 11
828.36422669493822
 21
-3473.9947656250001
 31
0.0
 73
     3
  0
TEXT
  5
36
  8
HIBINO-BASE
 62
     7
 10
662.49999999999955
 20
-3597.0956649999889
 30
0.0
 40
48.865234374999993
  1
30
 41
0.7
 11
662.49999999999955
 21
-3548.2304306249889
 31
0.0
 73
     3
  0
LINE
  5
37
  8
HIBINO-BASE
  6
CONTINUOUS
 62
     7
 10
62.499999999999531
 20
-2982.5773650000001
 30
0.0
 11
2800.0
 21
-2982.5773650000001
 31
0.0
  0
LINE
  5
38
  8
HIBINO-BASE
  6
CONTINUOUS
 62
     7
 10
62.499999999999531
 20
-3357.5773650000001
 30
0.0
 11
2800.0
 21
-3357.5773650000001
 31
0.0
  0
TEXT
  5
39
  8
HIBINO-BASE
 62
     7
 10
1551.9999999999991
 20
-3431.1485650000131
 30
0.0
 40
48.865234374999993
  1
DRAWN
 41
0.7
 11
1551.9999999999991
 21
-3382.2833306250131
 31
0.0
 73
     3
  0
TEXT
  5
3A
  8
HIBINO-BASE
 62
     7
 10
2301.9999999999991
 20
-3431.1485650000131
 30
0.0
 40
48.865234374999993
  1
DRAWING NO.
 41
0.7
 11
2301.9999999999991
 21
-3382.2833306250131
 31
0.0
 73
     3
  0
TEXT
  5
3B
  8
HIBINO-BASE
 62
     7
 10
1926.9999999999991
 20
-3431.1485650000131
 30
0.0
 40
48.865234374999993
  1
CHECK
 41
0.7
 11
1926.9999999999991
 21
-3382.2833306250131
 31
0.0
 73
     3
  0
LINE
  5
3C
  8
HIBINO-BASE
  6
CONTINUOUS
 62
     7
 10
1524.9999999999991
 20
-3357.5773650000001
 30
0.0
 11
1524.9999999999991
 21
-3657.5773650000001
 31
0.0
  0
LINE
  5
3D
  8
HIBINO-BASE
  6
CONTINUOUS
 62
     7
 10
2275.0
 20
-3357.5773650000001
 30
0.0
 11
2275.0
 21
-3657.5773650000001
 31
0.0
  0
LINE
  5
3E
  8
HIBINO-BASE
  6
CONTINUOUS
 62
     7
 10
1899.9999999999991
 20
-3657.5773650000001
 30
0.0
 11
1899.9999999999991
 21
-3357.5773650000001
 31
0.0
  0
TEXT
  5
3F
  8
HIBINO-BASE
 62
     7
 10
1570.1743003310389
 20
-3571.6679650000069
 30
0.0
 40
48.865234374999993
  1
N.Sasaki
 41
0.7
 11
1570.1743003310389
 21
-3522.8027306250069
 31
0.0
 73
     3
  0
TEXT
  5
40
  8
HIBINO-BASE
 62
     7
 10
216.4999999999992
 20
-3598.2973649999958
 30
0.0
 40
97.730468749999986
  1
A4
 41
0.7
 11
216.4999999999992
 21
-3500.5668962499958
 31
0.0
 73
     3
  0
TEXT
  5
41
  8
HIBINO-BASE
 62
     7
 10
839.49999999999875
 20
-3431.1485650000131
 30
0.0
 40
48.865234374999993
  1
DATE
 41
0.7
 11
839.49999999999875
 21
-3382.2833306250131
 31
0.0
 73
     3
  0
TEXT
  5
42
  8
HIBINO-BASE
 62
     7
 10
539.49999999999875
 20
-3431.1485650000131
 30
0.0
 40
48.865234374999993
  1
SCALE
 41
0.7
 11
539.49999999999875
 21
-3382.2833306250131
 31
0.0
 73
     3
  0
LINE
  5
43
  8
HIBINO-BASE
  6
CONTINUOUS
 62
     7
 10
568.74999999999955
 20
-3620.0773650000001
 30
0.0
 11
681.24999999999955
 21
-3507.5773650000001
 31
0.0
  0
TEXT
  5
44
  8
HIBINO-BASE
 62
     7
 10
549.99999999999955
 20
-3540.845664999988
 30
0.0
 40
48.865234374999993
  1
1
 41
0.7
 11
549.99999999999955
 21
-3491.9804306249889
 31
0.0
 73
     3
  0
LINE
  5
45
  8
HIBINO-BASE
  6
CONTINUOUS
 62
     7
 10
512.49999999999955
 20
-3657.5773650000001
 30
0.0
 11
512.49999999999955
 21
-3357.5773650000001
 31
0.0
  0
LINE
  5
46
  8
HIBINO-BASE
  6
CONTINUOUS
 62
     7
 10
812.49999999999955
 20
-3657.5773650000001
 30
0.0
 11
812.49999999999955
 21
-3357.5773650000001
 31
0.0
  0
LINE
  5
47
  8
HIBINO-BASE
  6
CONTINUOUS
 62
     7
 10
1187.5
 20
-3657.5773650000001
 30
0.0
 11
1187.5
 21
-2982.5773650000001
 31
0.0
  0
TEXT
  5
48
  8
HIBINO-BASE
 62
     7
 10
1214.4999999999991
 20
-3057.8381650000042
 30
0.0
 40
48.865234374999993
  1
TITLE
 41
0.7
 11
1214.4999999999991
 21
-3008.9729306250042
 31
0.0
 73
     3
  0
TEXT
  5
49
  8
HIBINO-BASE
 62
     7
 10
1214.4999999999991
 20
-3431.1485650000131
 30
0.0
 40
48.865234374999993
  1
DESIGN
 41
0.7
 11
1214.4999999999991
 21
-3382.2833306250131
 31
0.0
 73
     3
  0
LINE
  5
4A
  8
HIBINO-BASE
  6
CONTINUOUS
 62
     7
 10
62.499999999999531
 20
-3657.5773650000001
 30
0.0
 11
62.499999999999531
 21
-2982.5773650000001
 31
0.0
  0
TEXT
  5
4B
  8
HIBINO-BASE
 62
     7
 10
89.499999999998849
 20
-3057.8381650000042
 30
0.0
 40
48.865234374999993
  1
NOTE
 41
0.7
 11
89.499999999998849
 21
-3008.9729306250042
 31
0.0
 73
     3
  0
TEXT
  5
4C
  8
HIBINO-BASE
 62
     7
 10
91.250000000000696
 20
-3436.1610150000079
 30
0.0
 40
48.865234374999993
  1
PAPER SIZE
 41
0.7
 11
91.250000000000696
 21
-3387.2957806250079
 31
0.0
 73
     3
  0
TEXT
  5
4D
  8
HIBINO-BASE
 62
     7
 10
828.36422669493822
 20
-3616.9004328346882
 30
0.0
 40
48.865234374999993
  1
'03.01.修正
 41
0.7
 11
828.36422669493822
 21
-3568.0351984596882
 31
0.0
 73
     3
  0
TEXT
  5
4E
  8
HIBINO-BASE
 62
     7
 10
1945.1743003310371
 20
-3571.6679650000119
 30
0.0
 40
48.865234374999993
  1
T.Taki
 41
0.7
 11
1945.1743003310371
 21
-3522.8027306250128
 31
0.0
 73
     3
  0
LINE
  5
4F
  8
SIDE10
  6
CONTINUOUS
 62
     7
 10
-375.0
 20
437.5
 30
0.0
 11
375.0000000000008
 21
437.5000000000008
 31
0.0
  0
LINE
  5
50
  8
SIDE10
  6
CONTINUOUS
 62
     7
 10
-374.99999999998357
 20
325.0
 30
0.0
 11
375.0
 21
325.0000000000008
 31
0.0
  0
LINE
  5
51
  8
SIDE10
  6
CONTINUOUS
 62
     7
 10
-374.99999999996732
 20
212.4999999999996
 30
0.0
 11
375.0000000000008
 21
212.4999999999996
 31
0.0
  0
LINE
  5
52
  8
SIDE10
  6
CONTINUOUS
 62
     7
 10
-374.99999999996732
 20
99.999999999998181
 30
0.0
 11
375.0000000000008
 21
99.999999999998181
 31
0.0
  0
LINE
  5
53
  8
SIDE10
  6
CONTINUOUS
 62
     7
 10
-374.99999999996732
 20
-12.50000000000227
 30
0.0
 11
375.0000000000008
 21
-12.50000000000227
 31
0.0
  0
TEXT
  5
54
  8
SIDE10
 62
     7
 10
-347.99999999998357
 20
347.1660156250008
 30
0.0
 40
61.998367309570327
  1
角度
 41
0.7
 11
-347.99999999998357
 21
409.16438293457111
 31
0.0
 73
     3
  0
LINE
  5
55
  8
SIDE10
  6
CONTINUOUS
 62
     7
 10
-375.0
 20
-12.50000000000227
 30
0.0
 11
-375.0
 21
437.5
 31
0.0
  0
LINE
  5
56
  8
SIDE10
  6
CONTINUOUS
 62
     7
 10
-632.99999999994361
 20
-375.00000000000051
 30
0.0
 11
-806.51941733560045
 21
-375.00000000000051
 31
0.0
  0
LINE
  5
57
  8
SIDE10
  6
CONTINUOUS
 62
     7
 10
-632.99999999994361
 20
-375.00000000000051
 30
0.0
 11
-708.01867675775623
 21
-395.1011938545077
 31
0.0
  0
LINE
  5
58
  8
SIDE10
  6
CONTINUOUS
 62
     7
 10
-632.99999999994361
 20
-375.00000000000051
 30
0.0
 11
-708.01867675775623
 21
-354.8988061454931
 31
0.0
  0
LINE
  5
59
  8
SIDE10
  6
CONTINUOUS
 62
     7
 10
-806.51941733560045
 20
-375.00000000000051
 30
0.0
 11
-731.50074057778795
 21
-354.8988061454931
 31
0.0
  0
LINE
  5
5A
  8
SIDE10
  6
CONTINUOUS
 62
     7
 10
-806.51941733560045
 20
-375.00000000000051
 30
0.0
 11
-731.50074057778795
 21
-395.1011938545077
 31
0.0
  0
LINE
  5
5B
  8
SIDE10
  6
CONTINUOUS
 62
     7
 10
-618.7499999999817
 20
-256.25000000001728
 30
0.0
 11
-431.2499999999817
 21
-68.75000000001728
 31
0.0
  0
LINE
  5
5C
  8
SIDE10
  6
CONTINUOUS
 62
     7
 10
-431.2499999999817
 20
-68.75000000001728
 30
0.0
 11
-480.55502809201198
 21
-154.14881372402439
 31
0.0
  0
LINE
  5
5D
  8
SIDE10
  6
CONTINUOUS
 62
     7
 10
-431.2499999999817
 20
-68.75000000001728
 30
0.0
 11
-516.64881372398895
 21
-118.05502809204739
 31
0.0
  0
TEXT
  5
5E
  8
SIDE10
 62
     7
 10
-347.99999999996732
 20
9.6660156249986002
 30
0.0
 40
61.998367309570327
  1
10°
 41
0.7
 11
-347.99999999996732
 21
71.664382934568934
 31
0.0
 73
     3
  0
TEXT
  5
5F
  8
SIDE10
 62
     7
 10
-347.99999999996732
 20
234.666015625
 30
0.0
 40
61.998367309570327
  1
0°
 41
0.7
 11
-347.99999999996732
 21
296.66438293457031
 31
0.0
 73
     3
  0
TEXT
  5
60
  8
SIDE10
 62
     7
 10
-347.99999999996732
 20
122.16601562499901
 30
0.0
 40
61.998367309570327
  1
5°
 41
0.7
 11
-347.99999999996732
 21
184.1643829345694
 31
0.0
 73
     3
  0
LINE
  5
61
  8
SIDE10
  6
CONTINUOUS
 62
     7
 10
-632.99999999994361
 20
-521.98000000000047
 30
0.0
 11
-632.99999999994361
 21
-325.0000000000004
 31
0.0
  0
LINE
  5
62
  8
SIDE10
  6
CONTINUOUS
 62
     7
 10
-806.51941733560045
 20
-544.85998430877544
 30
0.0
 11
-806.51941733560045
 21
-325.0000000000004
 31
0.0
  0
TEXT
  5
63
  8
SIDE10
 62
     7
 10
-745.17505005530063
 20
-330.07916666666671
 30
0.0
 40
81.442057291666686
  1
d
 41
0.7
 11
-745.17505005530063
 21
-248.63710937499999
 31
0.0
 73
     3
  0
LINE
  5
64
  8
SIDE10
  6
CONTINUOUS
 62
     7
 10
-62.500000000000021
 20
-12.50000000000227
 30
0.0
 11
-62.500000000000021
 21
437.5
 31
0.0
  0
TEXT
  5
65
  8
SIDE10
 62
     7
 10
2.0000000000181721
 20
347.1660156250008
 30
0.0
 40
61.998367309570327
  1
d(mm)
 41
0.7
 11
2.0000000000181761
 21
409.16438293457111
 31
0.0
 73
     3
  0
LINE
  5
66
  8
SIDE10
  6
CONTINUOUS
 62
     7
 10
375.0
 20
-12.50000000000227
 30
0.0
 11
375.0
 21
437.5
 31
0.0
  0
TEXT
  5
67
  8
SIDE10
 62
     7
 10
2.0000000000345421
 20
234.666015625
 30
0.0
 40
61.998367309570327
  1
0
 41
0.7
 11
2.0000000000345461
 21
296.66438293457031
 31
0.0
 73
     3
  0
TEXT
  5
68
  8
SIDE10
 62
     7
 10
2.0000000000345421
 20
122.16601562499901
 30
0.0
 40
61.998367309570327
  1
約87
 41
0.7
 11
2.0000000000345461
 21
184.1643829345694
 31
0.0
 73
     3
  0
TEXT
  5
69
  8
SIDE10
 62
     7
 10
2.0000000000345421
 20
9.6660156249986002
 30
0.0
 40
61.998367309570327
  1
約174
 41
0.7
 11
2.0000000000345461
 21
71.664382934568934
 31
0.0
 73
     3
  0
LINE
  5
6A
  8
SIDE10
  6
STYLE_01
 62
     7
 10
-461.25086190567657
 20
-980.84749071142323
 30
0.0
 11
-397.65434087584822
 21
-1226.756991367462
 31
0.0
  0
LINE
  5
6B
  8
SIDE10
  6
STYLE_01
 62
     7
 10
-618.08517784769435
 20
-1601.69472656172
 30
0.0
 11
-797.65614755848833
 21
-583.29715070977272
 31
0.0
  0
LINE
  5
6C
  8
SIDE10
  6
STYLE_01
 62
     7
 10
-806.51941733559988
 20
-584.85998430877578
 30
0.0
 11
-627.46939215780503
 21
-1600.303136901686
 31
0.0
  0
LINE
  5
6D
  8
SIDE10
  6
STYLE_01
 62
     7
 10
-618.97756972128889
 20
-1520.61795037554
 30
0.0
 11
-782.56283549242062
 21
-592.87980665038958
 31
0.0
  0
LINE
  5
6E
  8
SIDE10
  6
STYLE_01
 62
     7
 10
-488.09462090850371
 20
-666.94683740956123
 30
0.0
 11
-474.84938408483998
 21
-718.1623680806523
 31
0.0
  0
LINE
  5
6F
  8
SIDE10
  6
STYLE_01
 62
     7
 10
-426.21262992736553
 20
-732.49082368859024
 30
0.0
 11
-452.50253035308231
 21
-630.83532144888886
 31
0.0
  0
LINE
  5
70
  8
SIDE10
  6
STYLE_01
 62
     7
 10
-429.03364190890142
 20
-743.54939011467104
 30
0.0
 11
-460.33114241570621
 21
-622.53093506740686
 31
0.0
  0
LINE
  5
71
  8
SIDE10
  6
STYLE_01
 62
     7
 10
-440.16733977324913
 20
-746.42876016129594
 30
0.0
 11
-471.46484028005398
 21
-625.41030511403278
 31
0.0
  0
LINE
  5
72
  8
SIDE10
  6
STYLE_01
 62
     7
 10
-446.05965655511682
 20
-737.62361377170578
 30
0.0
 11
-472.34955698083382
 21
-635.96811153200451
 31
0.0
  0
LINE
  5
73
  8
SIDE10
  6
STYLE_01
 62
     7
 10
-419.06832593996961
 20
-716.18257667869875
 30
0.0
 11
-438.34758625216108
 21
-641.63520836958367
 31
0.0
  0
LINE
  5
74
  8
SIDE10
  6
STYLE_01
 62
     7
 10
-424.50164177615579
 20
-719.13707816359238
 30
0.0
 11
-444.53204210051172
 21
-641.68526693334297
 31
0.0
  0
LINE
  5
75
  8
SIDE10
  6
STYLE_01
 62
     7
 10
-482.86569152163401
 20
-655.21417383887001
 30
0.0
 11
-464.5879512256592
 21
-725.88895158647222
 31
0.0
  0
LINE
  5
76
  8
SIDE10
  6
STYLE_01
 62
     7
 10
-470.88091088811723
 20
-727.51642161282598
 30
0.0
 11
-489.15865118409209
 21
-656.84164386522389
 31
0.0
  0
LINE
  5
77
  8
SIDE10
  6
STYLE_01
 62
     7
 10
-410.09623048592238
 20
-700.95098112329015
 30
0.0
 11
-423.11599069675339
 21
-650.60730382362885
 31
0.0
  0
LINE
  5
78
  8
SIDE10
  6
STYLE_01
 62
     7
 10
-618.97756972128866
 20
-1520.6179503755411
 30
0.0
 11
-577.60405109489375
 21
-1549.5879999999991
 31
0.0
  0
ARC
  5
79
  8
SIDE10
  6
STYLE_01
 62
     7
 10
-624.29610549766255
 20
-1588.066194809295
 30
0.0
 40
8.7499999999993179
 50
136.86989764583089
 51
243.13010235416519
  0
ARC
  5
7A
  8
SIDE10
  6
STYLE_01
 62
     7
 10
-628.38187346998768
 20
-1564.89465318867
 30
0.0
 40
8.7499999999986962
 50
136.86989764583521
 51
243.13010235416519
  0
LINE
  5
7B
  8
SIDE10
  6
STYLE_01
 62
     7
 10
-618.08517784769435
 20
-1601.69472656172
 30
0.0
 11
-605.99999999994282
 21
-1599.5637836405001
 31
0.0
  0
LINE
  5
7C
  8
SIDE10
  6
STYLE_01
 62
     7
 10
-627.46939215780685
 20
-1600.3031369016869
 30
0.0
 11
-618.60612238069598
 21
-1598.7403033026851
 31
0.0
  0
LINE
  5
7D
  8
SIDE10
  6
STYLE_01
 62
     7
 10
-397.65434087584822
 20
-1226.756991367462
 30
0.0
 11
-333.71787070527898
 21
-1210.221895899708
 31
0.0
  0
LINE
  5
7E
  8
SIDE10
  6
STYLE_01
 62
     7
 10
-397.31439173510603
 20
-964.31239524366811
 30
0.0
 11
-281.75951302390939
 21
-1411.129957935691
 31
0.0
  0
LINE
  5
7F
  8
SIDE10
  6
STYLE_01
 62
     7
 10
-232.5776128927013
 20
-1398.4106537297259
 30
0.0
 11
-348.13249160389807
 21
-951.59309103770272
 31
0.0
  0
LINE
  5
80
  8
SIDE10
  6
STYLE_01
 62
     7
 10
-461.25086190567657
 20
-980.84749071142323
 30
0.0
 11
-348.13249160389807
 21
-951.59309103770272
 31
0.0
  0
ARC
  5
81
  8
SIDE10
  6
STYLE_01
 62
     7
 10
-257.16856295830547
 20
-1404.7703058327079
 30
0.0
 40
25.400000000000109
 50
194.5000000000006
 51
14.49999999999795
  0
CIRCLE
  5
82
  8
SIDE10
  6
STYLE_01
 62
     7
 10
-257.13100595769589
 20
-1404.9155279787651
 30
0.0
 40
8.7499999999999432
  0
LINE
  5
83
  8
SIDE10
  6
STYLE_01
 62
     7
 10
-255.87205666961071
 20
-1412.0553841881051
 30
0.0
 11
-250.31823445699851
 21
-1407.395174017877
 31
0.0
  0
LINE
  5
84
  8
SIDE10
  6
STYLE_01
 62
     7
 10
-251.5771837450836
 20
-1400.2553178085391
 30
0.0
 11
-258.38995524578121
 21
-1397.7756717694269
 31
0.0
  0
LINE
  5
85
  8
SIDE10
  6
STYLE_01
 62
     7
 10
-263.94377745839432
 20
-1402.435881939655
 30
0.0
 11
-262.684828170309
 21
-1409.575738148993
 31
0.0
  0
LINE
  5
86
  8
SIDE10
  6
STYLE_01
 62
     7
 10
-262.684828170309
 20
-1409.575738148993
 30
0.0
 11
-255.87205666961071
 21
-1412.0553841881051
 31
0.0
  0
LINE
  5
87
  8
SIDE10
  6
STYLE_01
 62
     7
 10
-258.38995524578121
 20
-1397.7756717694269
 30
0.0
 11
-263.94377745839432
 21
-1402.435881939655
 31
0.0
  0
LINE
  5
88
  8
SIDE10
  6
STYLE_01
 62
     7
 10
-250.31823445699851
 20
-1407.395174017877
 30
0.0
 11
-251.5771837450836
 21
-1400.2553178085391
 31
0.0
  0
CIRCLE
  5
89
  8
SIDE10
  6
STYLE_01
 62
     7
 10
-418.0765614679201
 20
-996.02081538699701
 30
0.0
 40
5.4999999999999352
  0
LINE
  5
8A
  8
SIDE10
  6
STYLE_01
 62
     7
 10
-421.52338860346282
 20
-996.62858400883101
 30
0.0
 11
-414.6297343323775
 21
-995.41304676516302
 31
0.0
  0
LINE
  5
8B
  8
SIDE10
  6
STYLE_01
 62
     7
 10
-417.46879284608582
 20
-999.46764252253956
 30
0.0
 11
-418.68433008975433
 21
-992.57398825145435
 31
0.0
  0
CIRCLE
  5
8C
  8
SIDE10
  6
STYLE_01
 62
     7
 10
-367.12423064284201
 20
-1193.038860203942
 30
0.0
 40
5.5000000000000471
  0
LINE
  5
8D
  8
SIDE10
  6
STYLE_01
 62
     7
 10
-370.57105777838461
 20
-1193.6466288257759
 30
0.0
 11
-363.67740350729918
 21
-1192.4310915821079
 31
0.0
  0
LINE
  5
8E
  8
SIDE10
  6
STYLE_01
 62
     7
 10
-366.51646202100761
 20
-1196.485687339484
 30
0.0
 11
-367.73199926467612
 21
-1189.5920330683989
 31
0.0
  0
ARC
  5
8F
  8
SIDE10
  6
STYLE_01
 62
     7
 10
-678.7441861978391
 20
-1279.2757846213051
 30
0.0
 40
8.7499999999987796
 50
136.86989764583569
 51
243.1301023541657
  0
ARC
  5
90
  8
SIDE10
  6
STYLE_01
 62
     7
 10
-683.17655593278653
 20
-1254.1385667256691
 30
0.0
 40
8.7499999999999822
 50
136.86989764583501
 51
243.1301023541605
  0
LINE
  5
91
  8
SIDE10
  6
STYLE_01
 62
     7
 10
-397.71603752732489
 20
-1229.617516339958
 30
0.0
 11
-483.48809502635629
 21
-897.95851274482879
 31
0.0
  0
LINE
  5
92
  8
SIDE10
  6
STYLE_01
 62
     7
 10
-248.37652307402161
 20
-1337.320800846486
 30
0.0
 11
-334.21806579176172
 21
-850.48922026336004
 31
0.0
  0
LINE
  5
93
  8
SIDE10
  6
STYLE_01
 62
     7
 10
-476.21656796707367
 20
-885.74947205580861
 30
0.0
 11
-334.21806579176172
 21
-850.48922026336004
 31
0.0
  0
LINE
  5
94
  8
SIDE10
  6
STYLE_01
 62
     7
 10
-501.27466045192148
 20
-724.99640922064179
 30
0.0
 11
-460.69809648889083
 21
-881.89601442511412
 31
0.0
  0
LINE
  5
95
  8
SIDE10
  6
STYLE_01
 62
     7
 10
-478.97766162388331
 20
-719.23001324535096
 30
0.0
 11
-438.34527030505609
 21
-876.34548912068669
 31
0.0
  0
LINE
  5
96
  8
SIDE10
  6
STYLE_01
 62
     7
 10
-367.0477703436556
 20
-1440.447814369031
 30
0.0
 11
-295.3483687000093
 21
-1422.6439466008701
 31
0.0
  0
LINE
  5
97
  8
SIDE10
  6
STYLE_01
 62
     7
 10
-512.99936385396836
 20
-728.0286236917683
 30
0.0
 11
-725.6163048119721
 21
-915.83963078871955
 31
0.0
  0
ARC
  5
98
  8
SIDE10
  6
STYLE_01
 62
     7
 10
-729.10649892568972
 20
-993.65691605393909
 30
0.0
 40
8.7500000000000657
 50
136.86989764583541
 51
243.1301023541605
  0
ARC
  5
99
  8
SIDE10
  6
STYLE_01
 62
     7
 10
-742.47740860604233
 20
-917.82671907199813
 30
0.0
 40
8.7499999999994422
 50
136.86989764583981
 51
243.13010235415919
  0
ARC
  5
9A
  8
SIDE10
  6
STYLE_01
 62
     7
 10
-768.8719316114159
 20
-768.13594061414267
 30
0.0
 40
8.7499999999994422
 50
136.86989764583981
 51
243.1301023541601
  0
ARC
  5
9B
  8
SIDE10
  6
STYLE_01
 62
     7
 10
-737.79394360618744
 20
-944.38796897849102
 30
0.0
 40
8.7499999999994422
 50
136.86989764583981
 51
243.1301023541638
  0
ARC
  5
9C
  8
SIDE10
  6
STYLE_01
 62
     7
 10
-733.10544280918054
 20
-970.97777830982068
 30
0.0
 40
8.749999999999277
 50
136.86989764583879
 51
243.13010235416041
  0
LINE
  5
9D
  8
SIDE10
  6
STYLE_01
 62
     7
 10
-512.99936385396836
 20
-728.0286236917683
 30
0.0
 11
-474.84938408483902
 21
-718.1623680806523
 31
0.0
  0
LINE
  5
9E
  8
SIDE10
  6
STYLE_01
 62
     7
 10
-464.5879512256592
 20
-725.88895158647222
 30
0.0
 11
-446.05965655511682
 21
-737.62361377170578
 31
0.0
  0
LINE
  5
9F
  8
SIDE10
  6
STYLE_01
 62
     7
 10
-431.53744194944522
 20
-733.86791371089009
 30
0.0
 11
-426.21262992736553
 21
-732.49082368859024
 31
0.0
  0
LINE
  5
A0
  8
SIDE10
  6
STYLE_01
 62
     7
 10
-446.05965655511682
 20
-737.62361377170578
 30
0.0
 11
-442.67113981379367
 21
-736.74728375751488
 31
0.0
  0
LINE
  5
A1
  8
SIDE10
  6
STYLE_01
 62
     7
 10
-440.16733977324913
 20
-746.42876016129594
 30
0.0
 11
-429.03364190890142
 21
-743.54939011467104
 31
0.0
  0
LINE
  5
A2
  8
SIDE10
  6
STYLE_01
 62
     7
 10
-422.19807599064973
 20
-704.080731173971
 30
0.0
 11
-410.09623048592238
 21
-700.95098112329015
 31
0.0
  0
LINE
  5
A3
  8
SIDE10
  6
STYLE_01
 62
     7
 10
-429.34237997804621
 20
-720.38897818386442
 30
0.0
 11
-424.50164177615579
 21
-719.13707816359238
 31
0.0
  0
LINE
  5
A4
  8
SIDE10
  6
STYLE_01
 62
     7
 10
-424.87721178223723
 20
-717.68485670302471
 30
0.0
 11
-419.06832593996961
 21
-716.18257667869875
 31
0.0
  0
LINE
  5
A5
  8
SIDE10
  6
STYLE_01
 62
     7
 10
-470.88091088811723
 20
-727.51642161282598
 30
0.0
 11
-464.5879512256592
 21
-725.88895158647222
 31
0.0
  0
LINE
  5
A6
  8
SIDE10
  6
STYLE_01
 62
     7
 10
-526.24460067762891
 20
-676.81309302067802
 30
0.0
 11
-777.71075811205094
 21
-620.39730488505745
 31
0.0
  0
ARC
  5
A7
  8
SIDE10
  6
STYLE_01
 62
     7
 10
-795.26645461678925
 20
-618.44516215628755
 30
0.0
 40
8.749999999999277
 50
136.86989764583879
 51
243.13010235416041
  0
LINE
  5
A8
  8
SIDE10
  6
STYLE_01
 62
     7
 10
-806.51941733560011
 20
-584.85998430877487
 30
0.0
 11
-797.65614755849015
 21
-583.29715070977363
 31
0.0
  0
LINE
  5
A9
  8
SIDE10
  6
STYLE_01
 62
     7
 10
-795.56229783218043
 20
-595.17196259559296
 30
0.0
 11
-782.56283549242062
 21
-592.87980665038958
 31
0.0
  0
LINE
  5
AA
  8
SIDE10
  6
STYLE_01
 62
     7
 10
-526.24460067762891
 20
-676.81309302067802
 30
0.0
 11
-488.09462090850371
 21
-666.94683740956123
 31
0.0
  0
LINE
  5
AB
  8
SIDE10
  6
STYLE_01
 62
     7
 10
-435.21783620148079
 20
-653.73705387430982
 30
0.0
 11
-423.11599069675339
 21
-650.60730382362885
 31
0.0
  0
LINE
  5
AC
  8
SIDE10
  6
STYLE_01
 62
     7
 10
-449.37278030240122
 20
-642.93716695361593
 30
0.0
 11
-444.53204210051172
 21
-641.68526693334297
 31
0.0
  0
LINE
  5
AD
  8
SIDE10
  6
STYLE_01
 62
     7
 10
-444.15647209442949
 20
-643.13748839390962
 30
0.0
 11
-438.3475862521608
 21
-641.63520836958367
 31
0.0
  0
LINE
  5
AE
  8
SIDE10
  6
STYLE_01
 62
     7
 10
-457.82734237516132
 20
-632.21241147118792
 30
0.0
 11
-452.50253035308231
 21
-630.83532144888886
 31
0.0
  0
LINE
  5
AF
  8
SIDE10
  6
STYLE_01
 62
     7
 10
-472.34955698083382
 20
-635.96811153200451
 30
0.0
 11
-468.96104023950983
 21
-635.09178151781362
 31
0.0
  0
LINE
  5
B0
  8
SIDE10
  6
STYLE_01
 62
     7
 10
-472.34955698083382
 20
-635.96811153200451
 30
0.0
 11
-482.86569152163401
 21
-655.21417383887001
 31
0.0
  0
LINE
  5
B1
  8
SIDE10
  6
STYLE_01
 62
     7
 10
-471.46484028005398
 20
-625.41030511403278
 30
0.0
 11
-460.33114241570621
 21
-622.53093506740686
 31
0.0
  0
LINE
  5
B2
  8
SIDE10
  6
STYLE_01
 62
     7
 10
-489.15865118409209
 20
-656.84164386522389
 30
0.0
 11
-482.86569152163401
 21
-655.21417383887001
 31
0.0
  0
LINE
  5
B3
  8
SIDE10
  6
STYLE_01
 62
     7
 10
-477.4659224318001
 20
-708.04496499115612
 30
0.0
 11
-476.01370097123362
 21
-707.66939498507406
 31
0.0
  0
LINE
  5
B4
  8
SIDE10
  6
STYLE_01
 62
     7
 10
-485.47808256154252
 20
-677.06424049905672
 30
0.0
 11
-484.02586110097587
 21
-676.68867049297546
 31
0.0
  0
LINE
  5
B5
  8
SIDE10
  6
STYLE_01
 62
     7
 10
-379.1391974129811
 20
-1433.246308059724
 30
0.0
 11
-433.49145085727298
 21
-1223.078124256155
 31
0.0
  0
LINE
  5
B6
  8
SIDE10
  6
STYLE_01
 62
     7
 10
-362.10165520388853
 20
-1439.2196314568189
 30
0.0
 11
-415.18136060029292
 21
-1233.9721104607529
 31
0.0
  0
LINE
  5
B7
  8
SIDE10
  6
STYLE_01
 62
     7
 10
-397.71603752732489
 20
-1229.617516339958
 30
0.0
 11
-415.18136060029292
 21
-1233.9721104607529
 31
0.0
  0
LINE
  5
B8
  8
SIDE10
  6
STYLE_01
 62
     7
 10
-416.026127784305
 20
-1218.7235301353601
 30
0.0
 11
-465.51760855345651
 21
-1027.352404421958
 31
0.0
  0
LINE
  5
B9
  8
SIDE10
  6
STYLE_01
 62
     7
 10
-416.026127784305
 20
-1218.7235301353601
 30
0.0
 11
-433.49145085727298
 21
-1223.078124256155
 31
0.0
  0
LINE
  5
BA
  8
SIDE10
  6
STYLE_01
 62
     7
 10
-450.96332875414492
 20
-1023.723614906776
 30
0.0
 11
-465.51760855345651
 21
-1027.352404421958
 31
0.0
  0
ARC
  5
BB
  8
SIDE10
  6
STYLE_01
 62
     7
 10
-454.64831898451598
 20
-545.41923712628613
 30
0.0
 40
521.13183692780467
 50
240.54364536450251
 51
269.91951471147519
  0
ARC
  5
BC
  8
SIDE10
  6
STYLE_01
 62
     7
 10
-384.76231670498191
 20
-1416.3406530299919
 30
0.0
 40
207.22226054452699
 50
99.180516099335705
 51
124.9770927306151
  0
ARC
  5
BD
  8
SIDE10
  6
STYLE_01
 62
     7
 10
-452.02609742784301
 20
-1137.8573583146931
 30
0.0
 40
120.2842346234858
 50
244.63584355564319
 51
282.8833662755298
  0
ARC
  5
BE
  8
SIDE10
  6
STYLE_01
 62
     7
 10
-180.2560305635788
 20
-1963.3325417609881
 30
0.0
 40
599.98136617589989
 50
110.2225664111056
 51
134.3375389639335
  0
ARC
  5
BF
  8
SIDE10
  6
STYLE_01
 62
     7
 10
-369.45771057354409
 20
-1430.742548371215
 30
0.0
 40
9.9999999999999716
 50
194.49976119344271
 51
283.9452158193335
  0
ARC
  5
C0
  8
SIDE10
  6
STYLE_01
 62
     7
 10
-473.80661301241457
 20
-895.45473439726629
 30
0.0
 40
9.9999999999999236
 50
103.9453027481598
 51
194.49987161917429
  0
LINE
  5
C1
  8
SIDE10
  6
STYLE_01
 62
     7
 10
-323.27823059874459
 20
-912.53210870312876
 30
0.0
 11
-305.5516910445258
 21
-909.40644150512435
 31
0.0
  0
LINE
  5
C2
  8
SIDE10
  6
STYLE_01
 62
     7
 10
-320.734284795924
 20
-926.95954228475784
 30
0.0
 11
-310.88620726580371
 21
-925.22306050808936
 31
0.0
  0
LINE
  5
C3
  8
SIDE10
  6
STYLE_01
 62
     7
 10
-322.9048870167598
 20
-914.6494453721059
 30
0.0
 11
-313.2565630014393
 21
-912.94818552958725
 31
0.0
  0
LINE
  5
C4
  8
SIDE10
  6
STYLE_01
 62
     7
 10
-320.36094121393938
 20
-929.07687895373431
 30
0.0
 11
-302.63440165972048
 21
-925.95121175572865
 31
0.0
  0
LINE
  5
C5
  8
SIDE10
  6
STYLE_01
 62
     7
 10
-302.63440165972139
 20
-925.95121175572956
 30
0.0
 11
-305.5516910445258
 21
-909.40644150512435
 31
0.0
  0
LINE
  5
C6
  8
SIDE10
  6
STYLE_01
 62
     7
 10
-310.88620726580371
 20
-925.22306050808936
 30
0.0
 11
-313.05680948664042
 21
-912.91296359543674
 31
0.0
  0
LINE
  5
C7
  8
TOP-30
  6
STYLE_06
 62
     7
 10
-1551.7419999999711
 20
291.10168951305241
 30
0.0
 11
-1270.992
 21
777.37495373796628
 31
0.0
  0
LINE
  5
C8
  8
TOP-30
  6
CONTINUOUS
 62
     7
 10
-1368.4919999999991
 20
191.00000000005639
 30
0.0
 11
-1368.4919999999991
 21
-185.0
 31
0.0
  0
LINE
  5
C9
  8
TOP-30
  6
CONTINUOUS
 62
     7
 10
-1881.257737936719
 20
421.3476895130525
 30
0.0
 11
-1881.257737936719
 21
-185.0
 31
0.0
  0
LINE
  5
CA
  8
TOP-30
  6
CONTINUOUS
 62
     7
 10
-1368.4919999999991
 20
-125.0
 30
0.0
 11
-1881.257737936719
 21
-125.0
 31
0.0
  0
LINE
  5
CB
  8
TOP-30
  6
CONTINUOUS
 62
     7
 10
-1368.4919999999991
 20
-125.0
 30
0.0
 11
-1443.510676757812
 21
-145.1011938545073
 31
0.0
  0
LINE
  5
CC
  8
TOP-30
  6
CONTINUOUS
 62
     7
 10
-1368.4919999999991
 20
-125.0
 30
0.0
 11
-1443.510676757812
 21
-104.8988061454927
 31
0.0
  0
LINE
  5
CD
  8
TOP-30
  6
CONTINUOUS
 62
     7
 10
-1881.257737936719
 20
-125.0
 30
0.0
 11
-1806.2390611789069
 21
-104.8988061454927
 31
0.0
  0
LINE
  5
CE
  8
TOP-30
  6
CONTINUOUS
 62
     7
 10
-1881.257737936719
 20
-125.0
 30
0.0
 11
-1806.2390611789069
 21
-145.1011938545073
 31
0.0
  0
TEXT
  5
CF
  8
TOP-30
 62
     7
 10
-1704.2498689683589
 20
-95.183333333333337
 30
0.0
 40
81.442057291666686
  1
513
 41
0.7
 11
-1704.2498689683589
 21
-13.74127604166665
 31
0.0
 73
     3
  0
LINE
  5
D0
  8
TOP-30
  6
CONTINUOUS
 62
     7
 10
-1240.992
 20
829.3364779650326
 30
0.0
 11
-1080.221500298622
 21
1107.799151806058
 31
0.0
  0
LINE
  5
D1
  8
TOP-30
  6
CONTINUOUS
 62
     7
 10
-1368.4919999999991
 20
872.49999999999989
 30
0.0
 11
-1368.4919999999991
 21
1185.040999402758
 31
0.0
  0
ARC
  5
D2
  8
TOP-30
  6
CONTINUOUS
 62
     7
 10
-1368.4919999999991
 20
608.50000000000136
 30
0.0
 40
516.54099940275637
 50
60.000000000000149
 51
90.0
  0
LINE
  5
D3
  8
TOP-30
  6
CONTINUOUS
 62
     7
 10
-1368.4919999999991
 20
1125.040999402758
 30
0.0
 11
-1293.473323242187
 21
1145.142193257265
 31
0.0
  0
LINE
  5
D4
  8
TOP-30
  6
CONTINUOUS
 62
     7
 10
-1368.4919999999991
 20
1125.040999402758
 30
0.0
 11
-1293.473323242187
 21
1104.9398055482509
 31
0.0
  0
LINE
  5
D5
  8
TOP-30
  6
CONTINUOUS
 62
     7
 10
-1110.221500298622
 20
1055.8376275789919
 30
0.0
 11
-1185.240177056434
 21
1075.938821433499
 31
0.0
  0
LINE
  5
D6
  8
TOP-30
  6
CONTINUOUS
 62
     7
 10
-1110.221500298622
 20
1055.8376275789919
 30
0.0
 11
-1165.138983201927
 21
1110.7551104822969
 31
0.0
  0
TEXT
  5
D7
  8
TOP-30
 62
     7
 10
-1268.2320336414671
 20
1170.8798208018691
 30
0.0
 40
81.442057291666686
  1
30°
 50
339.2149087705543
 41
0.7
 11
-1239.3312036859779
 21
1247.02146987636
 31
0.0
 73
     3
  0
LINE
  5
D8
  8
TOP-30
  6
STYLE_01
 62
     7
 10
-1508.6831546954729
 20
574.68179729569022
 30
0.0
 11
-1838.337324272577
 21
562.80002666121993
 31
0.0
  0
LINE
  5
D9
  8
TOP-30
  6
STYLE_01
 62
     7
 10
-1173.1466757273649
 20
178.75202666121999
 30
0.0
 11
-1327.683845304525
 21
470.1817972956901
 31
0.0
  0
LINE
  5
DA
  8
TOP-30
  6
STYLE_01
 62
     7
 10
-1399.967677062047
 20
501.08199050636608
 30
0.0
 11
-1280.139143850643
 21
159.9260593545861
 31
0.0
  0
LINE
  5
DB
  8
TOP-30
  6
STYLE_01
 62
     7
 10
-1799.754386121306
 20
459.92605935458602
 30
0.0
 11
-1445.7808865144209
 21
527.53225931613599
 31
0.0
  0
LINE
  5
DC
  8
TOP-30
  6
STYLE_01
 62
     7
 10
-1870.837324272577
 20
506.5083754152314
 30
0.0
 11
-1792.5407250946989
 21
461.30381280325162
 31
0.0
  0
LINE
  5
DD
  8
TOP-30
  6
STYLE_01
 62
     7
 10
-1870.1577379367191
 20
500.57345347706678
 30
0.0
 11
-1211.1262620632219
 21
120.0814534770667
 31
0.0
  0
LINE
  5
DE
  8
TOP-30
  6
STYLE_01
 62
     7
 10
-1876.7577379367201
 20
489.1419181471116
 30
0.0
 11
-1217.726262063223
 21
108.649918147112
 31
0.0
  0
LINE
  5
DF
  8
TOP-30
  6
STYLE_01
 62
     7
 10
-1881.257737936719
 20
481.34768951305239
 30
0.0
 11
-1222.2262620632221
 21
100.8556895130527
 31
0.0
  0
LINE
  5
E0
  8
TOP-30
  6
STYLE_01
 62
     7
 10
-1881.257737936719
 20
481.34768951305239
 30
0.0
 11
-1870.1577379367191
 21
500.57345347706678
 31
0.0
  0
LINE
  5
E1
  8
TOP-30
  6
STYLE_01
 62
     7
 10
-1870.837324272577
 20
506.5083754152314
 30
0.0
 11
-1838.337324272577
 21
562.80002666121993
 31
0.0
  0
LINE
  5
E2
  8
TOP-30
  6
STYLE_01
 62
     7
 10
-1878.1376197469931
 20
488.78389274327861
 30
0.0
 11
-1877.2577379367481
 21
488.27589274327829
 31
0.0
  0
LINE
  5
E3
  8
TOP-30
  6
STYLE_01
 62
     7
 10
-1878.1376197469931
 20
488.78389274327861
 30
0.0
 11
-1868.6376197469649
 21
505.23837541523193
 31
0.0
  0
LINE
  5
E4
  8
TOP-30
  6
STYLE_01
 62
     7
 10
-1282.5811414037439
 20
166.8785098834488
 30
0.0
 11
-1205.6466757273649
 21
122.4603754152316
 31
0.0
  0
LINE
  5
E5
  8
TOP-30
  6
STYLE_01
 62
     7
 10
-1205.6466757273649
 20
122.4603754152316
 30
0.0
 11
-1173.1466757273649
 21
178.75202666121999
 31
0.0
  0
LINE
  5
E6
  8
TOP-30
  6
STYLE_01
 62
     7
 10
-1222.2262620632221
 20
100.8556895130523
 30
0.0
 11
-1211.1262620632219
 21
120.0814534770667
 31
0.0
  0
LINE
  5
E7
  8
TOP-30
  6
STYLE_01
 62
     7
 10
-1217.346380253005
 20
107.27589274327789
 30
0.0
 11
-1207.8463802529759
 21
123.73037541523109
 31
0.0
  0
LINE
  5
E8
  8
TOP-30
  6
STYLE_01
 62
     7
 10
-1217.346380253005
 20
107.27589274327789
 30
0.0
 11
-1218.22626206325
 21
107.7838927432782
 31
0.0
  0
LINE
  5
E9
  8
TOP-30
  6
STYLE_01
 62
     7
 10
-1458.339830884458
 20
707.87899195826299
 30
0.0
 11
-1459.205856288243
 21
708.37899195826287
 31
0.0
  0
LINE
  5
EA
  8
TOP-30
  6
STYLE_01
 62
     7
 10
-1462.3398308844569
 20
700.95078872798831
 30
0.0
 11
-1463.2058562882421
 21
701.45078872798831
 31
0.0
  0
LINE
  5
EB
  8
TOP-30
  6
STYLE_01
 62
     7
 10
-1458.339830884458
 20
707.87899195826299
 30
0.0
 11
-1462.3398308844569
 21
700.95078872798831
 31
0.0
  0
LINE
  5
EC
  8
TOP-30
  6
STYLE_01
 62
     7
 10
-1465.2823290339761
 20
711.45423243184382
 30
0.0
 11
-1459.393356288243
 21
708.05423243184384
 31
0.0
  0
LINE
  5
ED
  8
TOP-30
  6
STYLE_01
 62
     7
 10
-1468.9073290339761
 20
705.17554825440754
 30
0.0
 11
-1463.0183562882421
 21
701.77554825440745
 31
0.0
  0
LINE
  5
EE
  8
TOP-30
  6
STYLE_01
 62
     7
 10
-1464.8308562882421
 20
698.6362061656879
 30
0.0
 11
-1470.7198290339761
 21
702.03620616568799
 31
0.0
  0
LINE
  5
EF
  8
TOP-30
  6
STYLE_01
 62
     7
 10
-1457.5808562882421
 20
711.19357452056317
 30
0.0
 11
-1463.469829033975
 21
714.59357452056258
 31
0.0
  0
LINE
  5
F0
  8
TOP-30
  6
STYLE_01
 62
     7
 10
-1462.7198290339761
 20
715.8926126262387
 30
0.0
 11
-1463.759059518517
 21
716.49261262623861
 31
0.0
  0
LINE
  5
F1
  8
TOP-30
  6
STYLE_01
 62
     7
 10
-1471.469829033975
 20
700.737168060013
 30
0.0
 11
-1472.5090595185161
 21
701.33716806001235
 31
0.0
  0
LINE
  5
F2
  8
TOP-30
  6
STYLE_01
 62
     7
 10
-1471.469829033975
 20
700.737168060013
 30
0.0
 11
-1462.7198290339761
 21
715.8926126262387
 31
0.0
  0
LINE
  5
F3
  8
TOP-30
  6
STYLE_01
 62
     7
 10
-1457.5808562882421
 20
711.19357452056317
 30
0.0
 11
-1464.8308562882421
 21
698.6362061656879
 31
0.0
  0
LINE
  5
F4
  8
TOP-30
  6
STYLE_01
 62
     7
 10
-1480.3388643639289
 20
711.77554825440643
 30
0.0
 11
-1476.181942425764
 21
709.37554825440691
 31
0.0
  0
LINE
  5
F5
  8
TOP-30
  6
STYLE_01
 62
     7
 10
-1476.7138643639289
 20
718.05423243184282
 30
0.0
 11
-1472.5569424257651
 21
715.6542324318433
 31
0.0
  0
LINE
  5
F6
  8
TOP-30
  6
STYLE_01
 62
     7
 10
-1469.994442425764
 20
720.09261262623932
 30
0.0
 11
-1468.9552119412231
 21
719.49261262623941
 31
0.0
  0
LINE
  5
F7
  8
TOP-30
  6
STYLE_01
 62
     7
 10
-1474.9013643639289
 20
721.19357452056215
 30
0.0
 11
-1470.744442425764
 21
718.79357452056229
 31
0.0
  0
LINE
  5
F8
  8
TOP-30
  6
STYLE_01
 62
     7
 10
-1482.1513643639289
 20
708.63620616568699
 30
0.0
 11
-1477.9944424257651
 21
706.23620616568735
 31
0.0
  0
LINE
  5
F9
  8
TOP-30
  6
STYLE_01
 62
     7
 10
-1478.744442425764
 20
704.93716806001146
 30
0.0
 11
-1477.7052119412231
 21
704.33716806001178
 31
0.0
  0
LINE
  5
FA
  8
TOP-30
  6
STYLE_01
 62
     7
 10
-1469.994442425764
 20
720.09261262623932
 30
0.0
 11
-1478.744442425764
 21
704.93716806001146
 31
0.0
  0
LINE
  5
FB
  8
TOP-30
  6
STYLE_01
 62
     7
 10
-1474.9013643639289
 20
721.19357452056215
 30
0.0
 11
-1482.1513643639289
 21
708.63620616568699
 31
0.0
  0
LINE
  5
FC
  8
TOP-30
  6
STYLE_01
 62
     7
 10
-1237.5033529194241
 20
580.37899195826196
 30
0.0
 11
-1236.63732751564
 21
579.87899195826196
 31
0.0
  0
LINE
  5
FD
  8
TOP-30
  6
STYLE_01
 62
     7
 10
-1241.5033529194229
 20
573.45078872798706
 30
0.0
 11
-1240.6373275156391
 21
572.95078872798706
 31
0.0
  0
LINE
  5
FE
  8
TOP-30
  6
STYLE_01
 62
     7
 10
-1237.5033529194241
 20
580.37899195826196
 30
0.0
 11
-1241.5033529194229
 21
573.45078872798706
 31
0.0
  0
LINE
  5
FF
  8
TOP-30
  6
STYLE_01
 62
     7
 10
-1230.9358547699051
 20
576.15423243184284
 30
0.0
 11
-1236.82482751564
 21
579.55423243184293
 31
0.0
  0
LINE
  5
100
  8
TOP-30
  6
STYLE_01
 62
     7
 10
-1234.5608547699051
 20
569.87554825440645
 30
0.0
 11
-1240.4498275156391
 21
573.27554825440654
 31
0.0
  0
LINE
  5
101
  8
TOP-30
  6
STYLE_01
 62
     7
 10
-1242.26232751564
 20
570.13620616568699
 30
0.0
 11
-1236.3733547699051
 21
566.73620616568678
 31
0.0
  0
LINE
  5
102
  8
TOP-30
  6
STYLE_01
 62
     7
 10
-1235.0123275156391
 20
582.69357452056238
 30
0.0
 11
-1229.123354769906
 21
579.29357452056252
 31
0.0
  0
LINE
  5
103
  8
TOP-30
  6
STYLE_01
 62
     7
 10
-1228.373354769906
 20
580.59261262623841
 30
0.0
 11
-1227.3341242853651
 21
579.99261262623838
 31
0.0
  0
LINE
  5
104
  8
TOP-30
  6
STYLE_01
 62
     7
 10
-1237.1233547699051
 20
565.43716806001191
 30
0.0
 11
-1236.0841242853651
 21
564.83716806001235
 31
0.0
  0
LINE
  5
105
  8
TOP-30
  6
STYLE_01
 62
     7
 10
-1237.1233547699051
 20
565.43716806001191
 30
0.0
 11
-1228.373354769906
 21
580.59261262623841
 31
0.0
  0
LINE
  5
106
  8
TOP-30
  6
STYLE_01
 62
     7
 10
-1235.0123275156391
 20
582.69357452056238
 30
0.0
 11
-1242.26232751564
 21
570.13620616568699
 31
0.0
  0
LINE
  5
107
  8
TOP-30
  6
STYLE_01
 62
     7
 10
-1223.129319439952
 20
563.27554825440745
 30
0.0
 11
-1227.286241378117
 21
565.67554825440698
 31
0.0
  0
LINE
  5
108
  8
TOP-30
  6
STYLE_01
 62
     7
 10
-1219.504319439953
 20
569.55423243184384
 30
0.0
 11
-1223.661241378117
 21
571.95423243184337
 31
0.0
  0
LINE
  5
109
  8
TOP-30
  6
STYLE_01
 62
     7
 10
-1221.098741378117
 20
576.39261262623961
 30
0.0
 11
-1222.137971862659
 21
576.99261262623986
 31
0.0
  0
LINE
  5
10A
  8
TOP-30
  6
STYLE_01
 62
     7
 10
-1217.691819439952
 20
572.69357452056329
 30
0.0
 11
-1221.848741378117
 21
575.0935745205627
 31
0.0
  0
LINE
  5
10B
  8
TOP-30
  6
STYLE_01
 62
     7
 10
-1224.941819439953
 20
560.13620616568778
 30
0.0
 11
-1229.098741378117
 21
562.53620616568753
 31
0.0
  0
LINE
  5
10C
  8
TOP-30
  6
STYLE_01
 62
     7
 10
-1229.848741378117
 20
561.23716806001175
 30
0.0
 11
-1230.887971862659
 21
561.83716806001223
 31
0.0
  0
LINE
  5
10D
  8
TOP-30
  6
STYLE_01
 62
     7
 10
-1221.098741378117
 20
576.39261262623961
 30
0.0
 11
-1229.848741378117
 21
561.23716806001175
 31
0.0
  0
LINE
  5
10E
  8
TOP-30
  6
STYLE_01
 62
     7
 10
-1217.691819439952
 20
572.69357452056329
 30
0.0
 11
-1224.941819439953
 21
560.13620616568778
 31
0.0
  0
LINE
  5
10F
  8
TOP-30
  6
STYLE_01
 62
     7
 10
-1261.0789066091129
 20
515.54493515115496
 30
0.0
 11
-1207.4314561720701
 21
608.46504500464619
 31
0.0
  0
LINE
  5
110
  8
TOP-30
  6
STYLE_01
 62
     7
 10
-1270.9314561720309
 20
498.47981872408991
 30
0.0
 11
-1262.5789066091129
 21
512.94685893980159
 31
0.0
  0
LINE
  5
111
  8
TOP-30
  6
STYLE_01
 62
     7
 10
-1263.676982820466
 20
517.04493515115507
 30
0.0
 11
-1210.0295323834241
 21
609.96504500464607
 31
0.0
  0
LINE
  5
112
  8
TOP-30
  6
STYLE_01
 62
     7
 10
-1273.529532383385
 20
499.97981872408991
 30
0.0
 11
-1265.176982820466
 21
514.4468589398017
 31
0.0
  0
LINE
  5
113
  8
TOP-30
  6
STYLE_01
 62
     7
 10
-1282.729541703723
 20
528.04493515115576
 30
0.0
 11
-1261.078906609114
 21
515.54493515115553
 31
0.0
  0
LINE
  5
114
  8
TOP-30
  6
STYLE_01
 62
     7
 10
-1281.6314654923699
 20
523.9468589398025
 30
0.0
 11
-1259.9808303977611
 21
511.4468589398021
 31
0.0
  0
LINE
  5
115
  8
TOP-30
  6
STYLE_01
 62
     7
 10
-1259.9808303977611
 20
511.44685893980142
 30
0.0
 11
-1216.5148377882881
 21
586.73216654082159
 31
0.0
  0
LINE
  5
116
  8
TOP-30
  6
STYLE_01
 62
     7
 10
-1219.112913999641
 20
588.23216654082148
 30
0.0
 11
-1216.5148377882881
 21
586.73216654082159
 31
0.0
  0
LINE
  5
117
  8
TOP-30
  6
STYLE_01
 62
     7
 10
-1502.6999942649711
 20
655.04493515115496
 30
0.0
 11
-1449.052543827929
 21
747.9650450046463
 31
0.0
  0
LINE
  5
118
  8
TOP-30
  6
STYLE_01
 62
     7
 10
-1512.552543827911
 20
637.97981872405217
 30
0.0
 11
-1504.1999942649711
 21
652.4468589398017
 31
0.0
  0
LINE
  5
119
  8
TOP-30
  6
STYLE_01
 62
     7
 10
-1500.1019180536171
 20
653.5449351511545
 30
0.0
 11
-1446.4544676165749
 21
746.46504500464573
 31
0.0
  0
LINE
  5
11A
  8
TOP-30
  6
STYLE_01
 62
     7
 10
-1509.9544676165569
 20
636.47981872405194
 30
0.0
 11
-1501.6019180536171
 21
650.94685893980125
 31
0.0
  0
LINE
  5
11B
  8
TOP-30
  6
STYLE_01
 62
     7
 10
-1506.7980704763249
 20
653.94685893980159
 30
0.0
 11
-1463.3320778668519
 21
729.23216654082159
 31
0.0
  0
LINE
  5
11C
  8
TOP-30
  6
STYLE_01
 62
     7
 10
-1506.7980704763249
 20
653.94685893980159
 30
0.0
 11
-1485.1474353817141
 21
641.44685893980238
 31
0.0
  0
LINE
  5
11D
  8
TOP-30
  6
STYLE_01
 62
     7
 10
-1502.6999942649711
 20
655.04493515115496
 30
0.0
 11
-1481.04935917036
 21
642.54493515115576
 31
0.0
  0
LINE
  5
11E
  8
TOP-30
  6
STYLE_01
 62
     7
 10
-1463.3320778668519
 20
729.23216654082159
 30
0.0
 11
-1460.7340016554981
 21
727.73216654082171
 31
0.0
  0
LINE
  5
11F
  8
TOP-30
  6
STYLE_01
 62
     7
 10
-1449.052543827918
 20
747.96504500466415
 30
0.0
 11
-1207.431456172081
 21
608.465045004628
 31
0.0
  0
LINE
  5
120
  8
TOP-30
  6
STYLE_01
 62
     7
 10
-1273.529532383385
 20
499.97981872408928
 30
0.0
 11
-1270.9314561720321
 21
498.47981872408923
 31
0.0
  0
LINE
  5
121
  8
TOP-30
  6
STYLE_01
 62
     7
 10
-1509.9544676165569
 20
636.47981872405194
 30
0.0
 11
-1512.552543827911
 21
637.97981872405194
 31
0.0
  0
LINE
  5
122
  8
TOP-30
  6
STYLE_01
 62
     7
 10
-1317.147752063592
 20
468.4308461022697
 30
0.0
 11
-1248.0820912666809
 21
588.05607966083755
 31
0.0
  0
LINE
  5
123
  8
TOP-30
  6
STYLE_01
 62
     7
 10
-1314.5496758522379
 20
466.93084610227061
 30
0.0
 11
-1281.6314654923699
 21
523.9468589398025
 31
0.0
  0
LINE
  5
124
  8
TOP-30
  6
STYLE_01
 62
     7
 10
-1314.549675852239
 20
466.9308461022697
 30
0.0
 11
-1317.147752063592
 21
468.4308461022697
 31
0.0
  0
ARC
  5
125
  8
TOP-30
  6
STYLE_01
 62
     7
 10
-1322.683845304525
 20
478.84205133353441
 30
0.0
 40
9.9999999999999343
 50
239.99999999999969
 51
330.00000000000011
  0
LINE
  5
126
  8
TOP-30
  6
STYLE_01
 62
     7
 10
-1395.2768952738129
 20
509.206662890806
 30
0.0
 11
-1327.683845304525
 21
470.1817972956901
 31
0.0
  0
ARC
  5
127
  8
TOP-30
  6
STYLE_01
 62
     7
 10
-1256.742345304526
 20
593.05607966083755
 30
0.0
 40
10.00000000000003
 50
330.00000000000011
 51
59.999999999999432
  0
LINE
  5
128
  8
TOP-30
  6
STYLE_01
 62
     7
 10
-1399.967677062047
 20
501.08199050636608
 30
0.0
 11
-1380.2651140551111
 21
535.20783067370166
 31
0.0
  0
LINE
  5
129
  8
TOP-30
  6
STYLE_01
 62
     7
 10
-1515.467569530229
 20
582.9308461022697
 30
0.0
 11
-1446.4019087333179
 21
702.55607966083755
 31
0.0
  0
LINE
  5
12A
  8
TOP-30
  6
STYLE_01
 62
     7
 10
-1518.065645741581
 20
584.43084610227061
 30
0.0
 11
-1485.1474353817141
 21
641.44685893980238
 31
0.0
  0
LINE
  5
12B
  8
TOP-30
  6
STYLE_01
 62
     7
 10
-1518.0656457415821
 20
584.4308461022697
 30
0.0
 11
-1515.467569530229
 21
582.9308461022697
 31
0.0
  0
ARC
  5
12C
  8
TOP-30
  6
STYLE_01
 62
     7
 10
-1503.6831546954741
 20
583.34205133353441
 30
0.0
 40
9.9999999999998366
 50
149.9999999999994
 51
239.99999999999949
  0
LINE
  5
12D
  8
TOP-30
  6
STYLE_01
 62
     7
 10
-1508.6831546954729
 20
574.68179729569022
 30
0.0
 11
-1441.0901047261871
 21
535.65693170057523
 31
0.0
  0
ARC
  5
12E
  8
TOP-30
  6
STYLE_01
 62
     7
 10
-1437.741654695473
 20
697.55607966083755
 30
0.0
 40
9.9999999999998366
 50
59.999999999999439
 51
149.9999999999994
  0
LINE
  5
12F
  8
TOP-30
  6
STYLE_01
 62
     7
 10
-1445.7808865144209
 20
527.53225931613599
 30
0.0
 11
-1426.078323507488
 21
561.65809948346987
 31
0.0
  0
LINE
  5
130
  8
TOP-30
  6
STYLE_01
 62
     7
 10
-1432.7416546954739
 20
706.21633369868175
 30
0.0
 11
-1251.7423453045251
 21
601.71633369868175
 31
0.0
  0
LINE
  5
131
  8
TOP-30
  6
STYLE_01
 62
     7
 10
-1426.078323507488
 20
561.65809948346987
 30
0.0
 11
-1380.2651140551111
 21
535.20783067370166
 31
0.0
  0
LINE
  5
132
  8
TOP-30
  6
STYLE_01
 62
     7
 10
-1417.723360255847
 20
556.83435920106649
 30
0.0
 11
-1416.973360255847
 21
558.13339730674306
 31
0.0
  0
LINE
  5
133
  8
TOP-30
  6
STYLE_01
 62
     7
 10
-1335.955385082616
 20
559.85507014320842
 30
0.0
 11
-1426.8880524799829
 21
612.35507014320899
 31
0.0
  0
LINE
  5
134
  8
TOP-30
  6
STYLE_01
 62
     7
 10
-1330.045131044772
 20
550.09193042239315
 30
0.0
 11
-1438.2983065178259
 21
612.59193042239269
 31
0.0
  0
LINE
  5
135
  8
TOP-30
  6
STYLE_01
 62
     7
 10
-1335.795131044772
 20
540.13263827887295
 30
0.0
 11
-1444.0483065178271
 21
602.63263827887351
 31
0.0
  0
LINE
  5
136
  8
TOP-30
  6
STYLE_01
 62
     7
 10
-1346.2053850826171
 20
542.10154936562867
 30
0.0
 11
-1437.1380524799829
 21
594.60154936562878
 31
0.0
  0
LINE
  5
137
  8
TOP-30
  6
STYLE_01
 62
     7
 10
-1342.5797407355981
 20
576.38134958483613
 30
0.0
 11
-1409.2636968270001
 21
614.88134958483715
 31
0.0
  0
LINE
  5
138
  8
TOP-30
  6
STYLE_01
 62
     7
 10
-1344.2807026299211
 20
570.43519716213041
 30
0.0
 11
-1413.5627349326769
 21
610.43519716213075
 31
0.0
  0
LINE
  5
139
  8
TOP-30
  6
STYLE_01
 62
     7
 10
-1430.7816460194319
 20
573.61116830886124
 30
0.0
 11
-1367.5617915431669
 21
537.11116830886067
 31
0.0
  0
LINE
  5
13A
  8
TOP-30
  6
STYLE_01
 62
     7
 10
-1370.8117915431681
 20
531.48200318426245
 30
0.0
 11
-1434.0316460194319
 21
567.98200318426245
 31
0.0
  0
LINE
  5
13B
  8
TOP-30
  6
STYLE_01
 62
     7
 10
-1347.1550582829029
 20
593.45666713214325
 30
0.0
 11
-1392.1883792796939
 21
619.45666713214348
 31
0.0
  0
LINE
  5
13C
  8
TOP-30
  6
STYLE_01
 62
     7
 10
-1367.5617915431669
 20
537.11116830886067
 30
0.0
 11
-1346.2053850826171
 21
542.10154936562867
 31
0.0
  0
LINE
  5
13D
  8
TOP-30
  6
STYLE_01
 62
     7
 10
-1338.705385082616
 20
555.09193042239315
 30
0.0
 11
-1335.955385082616
 21
559.85507014320842
 31
0.0
  0
LINE
  5
13E
  8
TOP-30
  6
STYLE_01
 62
     7
 10
-1346.2053850826171
 20
542.10154936562867
 30
0.0
 11
-1344.4553850826171
 21
545.1326382788734
 31
0.0
  0
LINE
  5
13F
  8
TOP-30
  6
STYLE_01
 62
     7
 10
-1335.795131044772
 20
540.13263827887295
 30
0.0
 11
-1330.045131044772
 21
550.09193042239315
 31
0.0
  0
LINE
  5
140
  8
TOP-30
  6
STYLE_01
 62
     7
 10
-1353.405058282905
 20
582.63134958483704
 30
0.0
 11
-1347.1550582829029
 21
593.45666713214325
 31
0.0
  0
LINE
  5
141
  8
TOP-30
  6
STYLE_01
 62
     7
 10
-1346.7807026299211
 20
566.10507014320808
 30
0.0
 11
-1344.2807026299211
 21
570.43519716213041
 31
0.0
  0
LINE
  5
142
  8
TOP-30
  6
STYLE_01
 62
     7
 10
-1345.5797407355981
 20
571.18519716213041
 30
0.0
 11
-1342.5797407355981
 21
576.38134958483613
 31
0.0
  0
LINE
  5
143
  8
TOP-30
  6
STYLE_01
 62
     7
 10
-1370.8117915431681
 20
531.48200318426245
 30
0.0
 11
-1367.5617915431669
 21
537.11116830886067
 31
0.0
  0
LINE
  5
144
  8
TOP-30
  6
STYLE_01
 62
     7
 10
-1398.438379279695
 20
608.63134958483715
 30
0.0
 11
-1392.1883792796939
 21
619.45666713214348
 31
0.0
  0
LINE
  5
145
  8
TOP-30
  6
STYLE_01
 62
     7
 10
-1416.062734932676
 20
606.1050701432082
 30
0.0
 11
-1413.5627349326769
 21
610.43519716213075
 31
0.0
  0
LINE
  5
146
  8
TOP-30
  6
STYLE_01
 62
     7
 10
-1412.2636968270001
 20
609.68519716213075
 30
0.0
 11
-1409.263696826999
 21
614.8813495848367
 31
0.0
  0
LINE
  5
147
  8
TOP-30
  6
STYLE_01
 62
     7
 10
-1429.638052479982
 20
607.59193042239258
 30
0.0
 11
-1426.8880524799829
 21
612.35507014320899
 31
0.0
  0
LINE
  5
148
  8
TOP-30
  6
STYLE_01
 62
     7
 10
-1437.1380524799829
 20
594.60154936562878
 30
0.0
 11
-1435.3880524799829
 21
597.63263827887351
 31
0.0
  0
LINE
  5
149
  8
TOP-30
  6
STYLE_01
 62
     7
 10
-1437.1380524799829
 20
594.60154936562878
 30
0.0
 11
-1430.7816460194319
 21
573.61116830886124
 31
0.0
  0
LINE
  5
14A
  8
TOP-30
  6
STYLE_01
 62
     7
 10
-1444.0483065178271
 20
602.63263827887351
 30
0.0
 11
-1438.2983065178271
 21
612.59193042239315
 31
0.0
  0
LINE
  5
14B
  8
TOP-30
  6
STYLE_01
 62
     7
 10
-1434.0316460194319
 20
567.98200318426245
 30
0.0
 11
-1430.7816460194319
 21
573.61116830886124
 31
0.0
  0
LINE
  5
14C
  8
TOP-30
  6
STYLE_01
 62
     7
 10
-1390.0105473347451
 20
540.83435920106649
 30
0.0
 11
-1389.2605473347451
 21
542.13339730674306
 31
0.0
  0
LINE
  5
14D
  8
TOP30
  6
CONTINUOUS
 62
     7
 10
-1344.900367258814
 20
749.71504500462743
 30
0.0
 11
-2060.0
 21
749.71504500462743
 31
0.0
  0
LINE
  5
14E
  8
TOP30
  6
CONTINUOUS
 62
     7
 10
-1808.983999999999
 20
242.0000000000573
 30
0.0
 11
-2060.0
 21
242.0000000000573
 31
0.0
  0
LINE
  5
14F
  8
TOP30
  6
CONTINUOUS
 62
     7
 10
-2000.0
 20
749.71504500462743
 30
0.0
 11
-2000.0
 21
242.0000000000573
 31
0.0
  0
LINE
  5
150
  8
TOP30
  6
CONTINUOUS
 62
     7
 10
-2000.0
 20
749.71504500462743
 30
0.0
 11
-1979.8988061454929
 21
674.69636824681493
 31
0.0
  0
LINE
  5
151
  8
TOP30
  6
CONTINUOUS
 62
     7
 10
-2000.0
 20
749.71504500462743
 30
0.0
 11
-2020.1011938545071
 21
674.69636824681493
 31
0.0
  0
LINE
  5
152
  8
TOP30
  6
CONTINUOUS
 62
     7
 10
-2000.0
 20
242.0000000000573
 30
0.0
 11
-2020.1011938545071
 21
317.0186767578698
 31
0.0
  0
LINE
  5
153
  8
TOP30
  6
CONTINUOUS
 62
     7
 10
-2000.0
 20
242.0000000000573
 30
0.0
 11
-1979.8988061454929
 21
317.0186767578698
 31
0.0
  0
TEXT
  5
154
  8
TOP30
 62
     7
 10
-2094.8166666666662
 20
228.125
 30
0.0
 40
81.442057291666686
  1
508(30°&-30°)
 50
90.0
 41
0.7
 11
-2176.2587239583331
 21
228.125
 31
0.0
 73
     3
  0
LINE
  5
155
  8
TOP30
  6
STYLE_06
 62
     7
 10
-1185.2420000000279
 20
291.10168951305241
 30
0.0
 11
-1465.992
 21
777.37495373796628
 31
0.0
  0
LINE
  5
156
  8
TOP30
  6
CONTINUOUS
 62
     7
 10
-1574.757737936776
 20
100.8556895130518
 30
0.0
 11
-2060.0
 21
100.8556895130518
 31
0.0
  0
LINE
  5
157
  8
TOP30
  6
CONTINUOUS
 62
     7
 10
-1808.983999999999
 20
242.0000000000573
 30
0.0
 11
-2060.0
 21
242.0000000000573
 31
0.0
  0
LINE
  5
158
  8
TOP30
  6
CONTINUOUS
 62
     7
 10
-2000.0
 20
242.0000000000573
 30
0.0
 11
-2000.0
 21
100.8556895130518
 31
0.0
  0
LINE
  5
159
  8
TOP30
  6
CONTINUOUS
 62
     7
 10
-2000.0
 20
100.8556895130518
 30
0.0
 11
-2000.0
 21
-137.89431048694789
 31
0.0
  0
LINE
  5
15A
  8
TOP30
  6
CONTINUOUS
 62
     7
 10
-2000.0
 20
100.8556895130518
 30
0.0
 11
-1979.8988061454929
 21
25.83701275523936
 31
0.0
  0
LINE
  5
15B
  8
TOP30
  6
CONTINUOUS
 62
     7
 10
-2000.0
 20
100.8556895130518
 30
0.0
 11
-2020.1011938545071
 21
25.83701275523936
 31
0.0
  0
LINE
  5
15C
  8
TOP30
  6
CONTINUOUS
 62
     7
 10
-2000.0
 20
242.0000000000573
 30
0.0
 11
-2000.0
 21
392.0000000000573
 31
0.0
  0
LINE
  5
15D
  8
TOP30
  6
CONTINUOUS
 62
     7
 10
-2000.0
 20
242.0000000000573
 30
0.0
 11
-2020.1011938545071
 21
317.0186767578698
 31
0.0
  0
LINE
  5
15E
  8
TOP30
  6
CONTINUOUS
 62
     7
 10
-2000.0
 20
242.0000000000573
 30
0.0
 11
-1979.8988061454929
 21
317.0186767578698
 31
0.0
  0
TEXT
  5
15F
  8
TOP30
 62
     7
 10
-2029.8166666666659
 20
-137.89431048694789
 30
0.0
 40
81.442057291666686
  1
141
 50
90.0
 41
0.7
 11
-2111.2587239583331
 21
-137.89431048694789
 31
0.0
 73
     3
  0
LINE
  5
160
  8
TOP30
  6
CONTINUOUS
 62
     7
 10
-1368.4919999999991
 20
191.00000000005639
 30
0.0
 11
-1368.4919999999991
 21
-185.0
 31
0.0
  0
LINE
  5
161
  8
TOP30
  6
CONTINUOUS
 62
     7
 10
-855.72626206327891
 20
421.3476895130525
 30
0.0
 11
-855.72626206327891
 21
-185.0
 31
0.0
  0
LINE
  5
162
  8
TOP30
  6
CONTINUOUS
 62
     7
 10
-1368.4919999999991
 20
-125.0
 30
0.0
 11
-855.72626206327891
 21
-125.0
 31
0.0
  0
LINE
  5
163
  8
TOP30
  6
CONTINUOUS
 62
     7
 10
-1368.4919999999991
 20
-125.0
 30
0.0
 11
-1293.473323242187
 21
-104.8988061454927
 31
0.0
  0
LINE
  5
164
  8
TOP30
  6
CONTINUOUS
 62
     7
 10
-1368.4919999999991
 20
-125.0
 30
0.0
 11
-1293.473323242187
 21
-145.1011938545073
 31
0.0
  0
LINE
  5
165
  8
TOP30
  6
CONTINUOUS
 62
     7
 10
-855.72626206327891
 20
-125.0
 30
0.0
 11
-930.74493882109141
 21
-145.1011938545073
 31
0.0
  0
LINE
  5
166
  8
TOP30
  6
CONTINUOUS
 62
     7
 10
-855.72626206327891
 20
-125.0
 30
0.0
 11
-930.74493882109141
 21
-104.8988061454927
 31
0.0
  0
TEXT
  5
167
  8
TOP30
 62
     7
 10
-1191.484131031639
 20
-95.183333333333337
 30
0.0
 40
81.442057291666686
  1
513
 41
0.7
 11
-1191.484131031639
 21
-13.74127604166665
 31
0.0
 73
     3
  0
LINE
  5
168
  8
TOP30
  6
CONTINUOUS
 62
     7
 10
-1495.992
 20
829.3364779650326
 30
0.0
 11
-1656.7624997013779
 21
1107.7991518060569
 31
0.0
  0
LINE
  5
169
  8
TOP30
  6
CONTINUOUS
 62
     7
 10
-1368.4919999999991
 20
872.49999999999989
 30
0.0
 11
-1368.4919999999991
 21
1185.040999402758
 31
0.0
  0
ARC
  5
16A
  8
TOP30
  6
CONTINUOUS
 62
     7
 10
-1368.4919999999991
 20
608.49999999999909
 30
0.0
 40
516.54099940275876
 50
90.0
 51
120.0
  0
LINE
  5
16B
  8
TOP30
  6
CONTINUOUS
 62
     7
 10
-1626.7624997013779
 20
1055.837627578991
 30
0.0
 11
-1570.8949387645771
 21
1109.7883040515089
 31
0.0
  0
LINE
  5
16C
  8
TOP30
  6
CONTINUOUS
 62
     7
 10
-1626.7624997013779
 20
1055.837627578991
 30
0.0
 11
-1551.4044344463739
 21
1074.6265034871469
 31
0.0
  0
LINE
  5
16D
  8
TOP30
  6
CONTINUOUS
 62
     7
 10
-1368.4919999999991
 20
1125.040999402758
 30
0.0
 11
-1443.850065255004
 21
1106.2521234946009
 31
0.0
  0
LINE
  5
16E
  8
TOP30
  6
CONTINUOUS
 62
     7
 10
-1368.4919999999991
 20
1125.040999402758
 30
0.0
 11
-1443.148436844956
 21
1146.4483881852429
 31
0.0
  0
TEXT
  5
16F
  8
TOP30
 62
     7
 10
-1584.9035089999791
 20
1137.1673646743361
 30
0.0
 40
81.442057291666686
  1
30°
 50
11.585169081460741
 41
0.7
 11
-1601.259057459795
 21
1216.9502245533711
 31
0.0
 73
     3
  0
LINE
  5
170
  8
TOP30
  6
STYLE_01
 62
     7
 10
-1409.3001546954731
 20
470.18179729568988
 30
0.0
 11
-1563.8373242726341
 21
178.75202666121979
 31
0.0
  0
LINE
  5
171
  8
TOP30
  6
STYLE_01
 62
     7
 10
-898.64667572742223
 20
562.80002666121959
 30
0.0
 11
-1228.300845304525
 21
574.68179729568988
 31
0.0
  0
LINE
  5
172
  8
TOP30
  6
STYLE_01
 62
     7
 10
-1291.203113485579
 20
527.53225931613406
 30
0.0
 11
-935.83914385070045
 21
460.72884759954712
 31
0.0
  0
LINE
  5
173
  8
TOP30
  6
STYLE_01
 62
     7
 10
-1455.454386121364
 20
160.72884759954721
 30
0.0
 11
-1337.0163229379541
 21
501.0819905063658
 31
0.0
  0
LINE
  5
174
  8
TOP30
  6
STYLE_01
 62
     7
 10
-1531.3373242726341
 20
122.4603754152313
 30
0.0
 11
-1453.040725094756
 21
167.66493802721101
 31
0.0
  0
LINE
  5
175
  8
TOP30
  6
STYLE_01
 62
     7
 10
-1525.8577379367771
 20
120.0814534770666
 30
0.0
 11
-866.82626206327973
 21
500.57345347706649
 31
0.0
  0
LINE
  5
176
  8
TOP30
  6
STYLE_01
 62
     7
 10
-1519.2577379367769
 20
108.64991814711119
 30
0.0
 11
-860.22626206327993
 21
489.1419181471108
 31
0.0
  0
LINE
  5
177
  8
TOP30
  6
STYLE_01
 62
     7
 10
-1514.7577379367769
 20
100.8556895130521
 30
0.0
 11
-855.7262620632805
 21
481.34768951305182
 31
0.0
  0
LINE
  5
178
  8
TOP30
  6
STYLE_01
 62
     7
 10
-1514.7577379367769
 20
100.8556895130521
 30
0.0
 11
-1525.8577379367771
 21
120.0814534770666
 31
0.0
  0
LINE
  5
179
  8
TOP30
  6
STYLE_01
 62
     7
 10
-1531.3373242726341
 20
122.4603754152313
 30
0.0
 11
-1563.8373242726341
 21
178.75202666121979
 31
0.0
  0
LINE
  5
17A
  8
TOP30
  6
STYLE_01
 62
     7
 10
-1519.637619746994
 20
107.27589274327779
 30
0.0
 11
-1518.757737936749
 21
107.783892743278
 31
0.0
  0
LINE
  5
17B
  8
TOP30
  6
STYLE_01
 62
     7
 10
-1519.637619746994
 20
107.27589274327779
 30
0.0
 11
-1529.137619747022
 21
123.7303754152308
 31
0.0
  0
LINE
  5
17C
  8
TOP30
  6
STYLE_01
 62
     7
 10
-943.08114140380064
 20
462.09024094701368
 30
0.0
 11
-866.14667572742223
 21
506.508375415231
 31
0.0
  0
LINE
  5
17D
  8
TOP30
  6
STYLE_01
 62
     7
 10
-866.14667572742223
 20
506.508375415231
 30
0.0
 11
-898.64667572742223
 21
562.80002666121959
 31
0.0
  0
LINE
  5
17E
  8
TOP30
  6
STYLE_01
 62
     7
 10
-855.72626206327959
 20
481.34768951305222
 30
0.0
 11
-866.82626206327973
 21
500.57345347706649
 31
0.0
  0
LINE
  5
17F
  8
TOP30
  6
STYLE_01
 62
     7
 10
-858.84638025300546
 20
488.78389274327822
 30
0.0
 11
-868.34638025303377
 21
505.23837541523142
 31
0.0
  0
LINE
  5
180
  8
TOP30
  6
STYLE_01
 62
     7
 10
-858.84638025300546
 20
488.78389274327822
 30
0.0
 11
-859.72626206325106
 21
488.27589274327812
 31
0.0
  0
LINE
  5
181
  8
TOP30
  6
STYLE_01
 62
     7
 10
-1499.480647080575
 20
580.37899195826185
 30
0.0
 11
-1500.346672484359
 21
579.87899195826185
 31
0.0
  0
LINE
  5
182
  8
TOP30
  6
STYLE_01
 62
     7
 10
-1495.480647080575
 20
573.45078872798706
 30
0.0
 11
-1496.346672484359
 21
572.95078872798706
 31
0.0
  0
LINE
  5
183
  8
TOP30
  6
STYLE_01
 62
     7
 10
-1499.480647080575
 20
580.37899195826185
 30
0.0
 11
-1495.480647080575
 21
573.45078872798706
 31
0.0
  0
LINE
  5
184
  8
TOP30
  6
STYLE_01
 62
     7
 10
-1506.048145230093
 20
576.15423243184239
 30
0.0
 11
-1500.159172484359
 21
579.55423243184237
 31
0.0
  0
LINE
  5
185
  8
TOP30
  6
STYLE_01
 62
     7
 10
-1502.423145230094
 20
569.875548254406
 30
0.0
 11
-1496.534172484359
 21
573.27554825440632
 31
0.0
  0
LINE
  5
186
  8
TOP30
  6
STYLE_01
 62
     7
 10
-1494.721672484359
 20
570.13620616568676
 30
0.0
 11
-1500.610645230093
 21
566.73620616568655
 31
0.0
  0
LINE
  5
187
  8
TOP30
  6
STYLE_01
 62
     7
 10
-1501.971672484359
 20
582.69357452056215
 30
0.0
 11
-1507.860645230093
 21
579.2935745205624
 31
0.0
  0
LINE
  5
188
  8
TOP30
  6
STYLE_01
 62
     7
 10
-1508.6106452300919
 20
580.59261262623841
 30
0.0
 11
-1509.6498757146339
 21
579.99261262623827
 31
0.0
  0
LINE
  5
189
  8
TOP30
  6
STYLE_01
 62
     7
 10
-1499.8606452300951
 20
565.43716806001157
 30
0.0
 11
-1500.8998757146339
 21
564.83716806001212
 31
0.0
  0
LINE
  5
18A
  8
TOP30
  6
STYLE_01
 62
     7
 10
-1499.8606452300951
 20
565.43716806001157
 30
0.0
 11
-1508.6106452300919
 21
580.59261262623841
 31
0.0
  0
LINE
  5
18B
  8
TOP30
  6
STYLE_01
 62
     7
 10
-1501.971672484359
 20
582.69357452056215
 30
0.0
 11
-1494.721672484359
 21
570.13620616568676
 31
0.0
  0
LINE
  5
18C
  8
TOP30
  6
STYLE_01
 62
     7
 10
-1513.8546805600461
 20
563.275548254407
 30
0.0
 11
-1509.697758621882
 21
565.67554825440675
 31
0.0
  0
LINE
  5
18D
  8
TOP30
  6
STYLE_01
 62
     7
 10
-1517.4796805600461
 20
569.55423243184339
 30
0.0
 11
-1513.3227586218809
 21
571.95423243184325
 31
0.0
  0
LINE
  5
18E
  8
TOP30
  6
STYLE_01
 62
     7
 10
-1515.885258621882
 20
576.39261262623927
 30
0.0
 11
-1514.84602813734
 21
576.99261262623929
 31
0.0
  0
LINE
  5
18F
  8
TOP30
  6
STYLE_01
 62
     7
 10
-1519.292180560047
 20
572.69357452056295
 30
0.0
 11
-1515.135258621882
 21
575.09357452056236
 31
0.0
  0
LINE
  5
190
  8
TOP30
  6
STYLE_01
 62
     7
 10
-1512.0421805600461
 20
560.13620616568755
 30
0.0
 11
-1507.8852586218809
 21
562.53620616568742
 31
0.0
  0
LINE
  5
191
  8
TOP30
  6
STYLE_01
 62
     7
 10
-1507.135258621882
 20
561.23716806001153
 30
0.0
 11
-1506.09602813734
 21
561.83716806001121
 31
0.0
  0
LINE
  5
192
  8
TOP30
  6
STYLE_01
 62
     7
 10
-1515.885258621882
 20
576.39261262623927
 30
0.0
 11
-1507.135258621882
 21
561.23716806001153
 31
0.0
  0
LINE
  5
193
  8
TOP30
  6
STYLE_01
 62
     7
 10
-1519.292180560047
 20
572.69357452056295
 30
0.0
 11
-1512.0421805600461
 21
560.13620616568755
 31
0.0
  0
LINE
  5
194
  8
TOP30
  6
STYLE_01
 62
     7
 10
-1278.644169115541
 20
707.87899195826265
 30
0.0
 11
-1277.7781437117569
 21
708.37899195826276
 31
0.0
  0
LINE
  5
195
  8
TOP30
  6
STYLE_01
 62
     7
 10
-1274.644169115541
 20
700.95078872798797
 30
0.0
 11
-1273.7781437117569
 21
701.45078872798797
 31
0.0
  0
LINE
  5
196
  8
TOP30
  6
STYLE_01
 62
     7
 10
-1278.644169115541
 20
707.87899195826265
 30
0.0
 11
-1274.644169115541
 21
700.95078872798797
 31
0.0
  0
LINE
  5
197
  8
TOP30
  6
STYLE_01
 62
     7
 10
-1271.701670966022
 20
711.45423243184359
 30
0.0
 11
-1277.5906437117569
 21
708.05423243184362
 31
0.0
  0
LINE
  5
198
  8
TOP30
  6
STYLE_01
 62
     7
 10
-1268.0766709660229
 20
705.1755482544072
 30
0.0
 11
-1273.9656437117569
 21
701.77554825440723
 31
0.0
  0
LINE
  5
199
  8
TOP30
  6
STYLE_01
 62
     7
 10
-1272.1531437117569
 20
698.63620616568755
 30
0.0
 11
-1266.264170966022
 21
702.03620616568787
 31
0.0
  0
LINE
  5
19A
  8
TOP30
  6
STYLE_01
 62
     7
 10
-1279.4031437117569
 20
711.19357452056295
 30
0.0
 11
-1273.514170966024
 21
714.59357452056258
 31
0.0
  0
LINE
  5
19B
  8
TOP30
  6
STYLE_01
 62
     7
 10
-1274.2641709660229
 20
715.89261262623859
 30
0.0
 11
-1273.224940481482
 21
716.49261262623861
 31
0.0
  0
LINE
  5
19C
  8
TOP30
  6
STYLE_01
 62
     7
 10
-1265.514170966024
 20
700.73716806001278
 30
0.0
 11
-1264.4749404814829
 21
701.33716806001235
 31
0.0
  0
LINE
  5
19D
  8
TOP30
  6
STYLE_01
 62
     7
 10
-1265.514170966024
 20
700.73716806001278
 30
0.0
 11
-1274.2641709660229
 21
715.89261262623859
 31
0.0
  0
LINE
  5
19E
  8
TOP30
  6
STYLE_01
 62
     7
 10
-1279.4031437117569
 20
711.19357452056295
 30
0.0
 11
-1272.1531437117569
 21
698.63620616568755
 31
0.0
  0
LINE
  5
19F
  8
TOP30
  6
STYLE_01
 62
     7
 10
-1256.6451356360701
 20
711.77554825440632
 30
0.0
 11
-1260.8020575742339
 21
709.37554825440645
 31
0.0
  0
LINE
  5
1A0
  8
TOP30
  6
STYLE_01
 62
     7
 10
-1260.270135636069
 20
718.05423243184237
 30
0.0
 11
-1264.4270575742339
 21
715.65423243184296
 31
0.0
  0
LINE
  5
1A1
  8
TOP30
  6
STYLE_01
 62
     7
 10
-1266.9895575742339
 20
720.0926126262392
 30
0.0
 11
-1268.0287880587759
 21
719.49261262623872
 31
0.0
  0
LINE
  5
1A2
  8
TOP30
  6
STYLE_01
 62
     7
 10
-1262.0826356360701
 20
721.19357452056215
 30
0.0
 11
-1266.2395575742339
 21
718.79357452056229
 31
0.0
  0
LINE
  5
1A3
  8
TOP30
  6
STYLE_01
 62
     7
 10
-1254.832635636069
 20
708.63620616568699
 30
0.0
 11
-1258.9895575742339
 21
706.23620616568724
 31
0.0
  0
LINE
  5
1A4
  8
TOP30
  6
STYLE_01
 62
     7
 10
-1258.2395575742339
 20
704.93716806001135
 30
0.0
 11
-1259.2787880587759
 21
704.33716806001098
 31
0.0
  0
LINE
  5
1A5
  8
TOP30
  6
STYLE_01
 62
     7
 10
-1266.9895575742339
 20
720.0926126262392
 30
0.0
 11
-1258.2395575742339
 21
704.93716806001135
 31
0.0
  0
LINE
  5
1A6
  8
TOP30
  6
STYLE_01
 62
     7
 10
-1262.0826356360701
 20
721.19357452056215
 30
0.0
 11
-1254.832635636069
 21
708.63620616568699
 31
0.0
  0
LINE
  5
1A7
  8
TOP30
  6
STYLE_01
 62
     7
 10
-1234.284005735027
 20
655.04493515115496
 30
0.0
 11
-1287.9314561720701
 21
747.96504500464573
 31
0.0
  0
LINE
  5
1A8
  8
TOP30
  6
STYLE_01
 62
     7
 10
-1224.4314561721101
 20
637.97981872408991
 30
0.0
 11
-1232.784005735027
 21
652.44685893980159
 31
0.0
  0
LINE
  5
1A9
  8
TOP30
  6
STYLE_01
 62
     7
 10
-1236.882081946381
 20
653.54493515115485
 30
0.0
 11
-1290.529532383423
 21
746.46504500464573
 31
0.0
  0
LINE
  5
1AA
  8
TOP30
  6
STYLE_01
 62
     7
 10
-1227.0295323834621
 20
636.47981872408991
 30
0.0
 11
-1235.3820819463799
 21
650.94685893980147
 31
0.0
  0
LINE
  5
1AB
  8
TOP30
  6
STYLE_01
 62
     7
 10
-1255.934640829639
 20
642.54493515115564
 30
0.0
 11
-1234.284005735029
 21
655.0449351511545
 31
0.0
  0
LINE
  5
1AC
  8
TOP30
  6
STYLE_01
 62
     7
 10
-1251.8365646182849
 20
641.44685893980238
 30
0.0
 11
-1230.185929523675
 21
653.94685893980113
 31
0.0
  0
LINE
  5
1AD
  8
TOP30
  6
STYLE_01
 62
     7
 10
-1230.1859295236741
 20
653.94685893980045
 30
0.0
 11
-1273.6519221331471
 21
729.23216654082034
 31
0.0
  0
LINE
  5
1AE
  8
TOP30
  6
STYLE_01
 62
     7
 10
-1276.2499983445009
 20
727.73216654082034
 30
0.0
 11
-1273.6519221331471
 21
729.23216654082034
 31
0.0
  0
LINE
  5
1AF
  8
TOP30
  6
STYLE_01
 62
     7
 10
-1475.9050933908859
 20
515.54493515115485
 30
0.0
 11
-1529.552543827928
 21
608.46504500464573
 31
0.0
  0
LINE
  5
1B0
  8
TOP30
  6
STYLE_01
 62
     7
 10
-1466.052543827946
 20
498.479818724052
 30
0.0
 11
-1474.4050933908859
 21
512.94685893980147
 31
0.0
  0
LINE
  5
1B1
  8
TOP30
  6
STYLE_01
 62
     7
 10
-1473.3070171795321
 20
517.04493515115519
 30
0.0
 11
-1526.954467616574
 21
609.96504500464607
 31
0.0
  0
LINE
  5
1B2
  8
TOP30
  6
STYLE_01
 62
     7
 10
-1463.454467616591
 20
499.97981872405251
 30
0.0
 11
-1471.8070171795321
 21
514.44685893980204
 31
0.0
  0
LINE
  5
1B3
  8
TOP30
  6
STYLE_01
 62
     7
 10
-1477.003169602239
 20
511.44685893980159
 30
0.0
 11
-1520.469162211712
 21
586.73216654082159
 31
0.0
  0
LINE
  5
1B4
  8
TOP30
  6
STYLE_01
 62
     7
 10
-1477.003169602239
 20
511.44685893980159
 30
0.0
 11
-1455.3525345076289
 21
523.94685893980238
 31
0.0
  0
LINE
  5
1B5
  8
TOP30
  6
STYLE_01
 62
     7
 10
-1475.9050933908859
 20
515.54493515115485
 30
0.0
 11
-1454.254458296276
 21
528.04493515115576
 31
0.0
  0
LINE
  5
1B6
  8
TOP30
  6
STYLE_01
 62
     7
 10
-1520.469162211712
 20
586.73216654082159
 30
0.0
 11
-1517.8710860003589
 21
588.23216654082148
 31
0.0
  0
LINE
  5
1B7
  8
TOP30
  6
STYLE_01
 62
     7
 10
-1529.552543827939
 20
608.46504500466403
 30
0.0
 11
-1287.9314561720589
 21
747.96504500462777
 31
0.0
  0
LINE
  5
1B8
  8
TOP30
  6
STYLE_01
 62
     7
 10
-1227.0295323834621
 20
636.47981872408923
 30
0.0
 11
-1224.4314561721089
 21
637.97981872408923
 31
0.0
  0
LINE
  5
1B9
  8
TOP30
  6
STYLE_01
 62
     7
 10
-1463.454467616591
 20
499.97981872405251
 30
0.0
 11
-1466.0525438279451
 21
498.47981872405239
 31
0.0
  0
LINE
  5
1BA
  8
TOP30
  6
STYLE_01
 62
     7
 10
-1221.5164304697701
 20
582.93084610226947
 30
0.0
 11
-1290.5820912666809
 21
702.55607966083721
 31
0.0
  0
LINE
  5
1BB
  8
TOP30
  6
STYLE_01
 62
     7
 10
-1218.9183542584169
 20
584.43084610227038
 30
0.0
 11
-1251.8365646182849
 21
641.44685893980238
 31
0.0
  0
LINE
  5
1BC
  8
TOP30
  6
STYLE_01
 62
     7
 10
-1218.9183542584169
 20
584.43084610226958
 30
0.0
 11
-1221.5164304697701
 21
582.93084610226947
 31
0.0
  0
ARC
  5
1BD
  8
TOP30
  6
STYLE_01
 62
     7
 10
-1233.300845304525
 20
583.34205133353396
 30
0.0
 40
9.9999999999999343
 50
300.00000000000028
 51
30.000000000000451
  0
LINE
  5
1BE
  8
TOP30
  6
STYLE_01
 62
     7
 10
-1295.8938952738131
 20
535.65693170057409
 30
0.0
 11
-1228.300845304525
 21
574.68179729568988
 31
0.0
  0
ARC
  5
1BF
  8
TOP30
  6
STYLE_01
 62
     7
 10
-1299.2423453045251
 20
697.5560796608371
 30
0.0
 40
10.00000000000003
 50
29.99999999999989
 51
119.9999999999998
  0
LINE
  5
1C0
  8
TOP30
  6
STYLE_01
 62
     7
 10
-1291.203113485579
 20
527.53225931613406
 30
0.0
 11
-1310.905676492511
 21
561.65809948347135
 31
0.0
  0
LINE
  5
1C1
  8
TOP30
  6
STYLE_01
 62
     7
 10
-1419.8362479364071
 20
468.43084610226958
 30
0.0
 11
-1488.9019087333179
 21
588.05607966083721
 31
0.0
  0
LINE
  5
1C2
  8
TOP30
  6
STYLE_01
 62
     7
 10
-1422.4343241477609
 20
466.93084610227032
 30
0.0
 11
-1455.3525345076289
 21
523.94685893980238
 31
0.0
  0
LINE
  5
1C3
  8
TOP30
  6
STYLE_01
 62
     7
 10
-1422.43432414776
 20
466.93084610226953
 30
0.0
 11
-1419.8362479364071
 21
468.43084610226958
 31
0.0
  0
ARC
  5
1C4
  8
TOP30
  6
STYLE_01
 62
     7
 10
-1414.3001546954731
 20
478.84205133353407
 30
0.0
 40
10.00000000000003
 50
210.0
 51
300.00000000000028
  0
LINE
  5
1C5
  8
TOP30
  6
STYLE_01
 62
     7
 10
-1409.3001546954731
 20
470.18179729568988
 30
0.0
 11
-1341.707104726187
 21
509.20666289080492
 31
0.0
  0
ARC
  5
1C6
  8
TOP30
  6
STYLE_01
 62
     7
 10
-1480.241654695473
 20
593.0560796608371
 30
0.0
 40
10.00000000000003
 50
119.9999999999998
 51
210.0000000000004
  0
LINE
  5
1C7
  8
TOP30
  6
STYLE_01
 62
     7
 10
-1337.0163229379541
 20
501.0819905063658
 30
0.0
 11
-1356.7188859448861
 21
535.20783067369985
 31
0.0
  0
LINE
  5
1C8
  8
TOP30
  6
STYLE_01
 62
     7
 10
-1485.241654695473
 20
601.71633369868164
 30
0.0
 11
-1304.2423453045251
 21
706.21633369868164
 31
0.0
  0
LINE
  5
1C9
  8
TOP30
  6
STYLE_01
 62
     7
 10
-1356.7188859448861
 20
535.20783067369985
 30
0.0
 11
-1310.905676492511
 21
561.65809948347135
 31
0.0
  0
LINE
  5
1CA
  8
TOP30
  6
STYLE_01
 62
     7
 10
-1348.363922693246
 20
540.03157095610493
 30
0.0
 11
-1349.113922693246
 21
541.3306090617815
 31
0.0
  0
LINE
  5
1CB
  8
TOP30
  6
STYLE_01
 62
     7
 10
-1310.095947520015
 20
612.35507014320922
 30
0.0
 11
-1401.0286149173819
 21
559.85507014320876
 31
0.0
  0
LINE
  5
1CC
  8
TOP30
  6
STYLE_01
 62
     7
 10
-1298.6856934821701
 20
612.59193042239383
 30
0.0
 11
-1406.9388689552241
 21
550.0919304223944
 31
0.0
  0
LINE
  5
1CD
  8
TOP30
  6
STYLE_01
 62
     7
 10
-1292.935693482171
 20
602.63263827887386
 30
0.0
 11
-1401.1888689552261
 21
540.13263827887306
 31
0.0
  0
LINE
  5
1CE
  8
TOP30
  6
STYLE_01
 62
     7
 10
-1299.8459475200159
 20
594.60154936562878
 30
0.0
 11
-1390.778614917383
 21
542.10154936562844
 31
0.0
  0
LINE
  5
1CF
  8
TOP30
  6
STYLE_01
 62
     7
 10
-1327.720303172996
 20
614.88134958483772
 30
0.0
 11
-1394.4042592643989
 21
576.38134958483795
 31
0.0
  0
LINE
  5
1D0
  8
TOP30
  6
STYLE_01
 62
     7
 10
-1323.4212650673201
 20
610.43519716213166
 30
0.0
 11
-1392.703297370075
 21
570.43519716213132
 31
0.0
  0
LINE
  5
1D1
  8
TOP30
  6
STYLE_01
 62
     7
 10
-1369.422208456831
 20
537.11116830886112
 30
0.0
 11
-1306.2023539805659
 21
573.61116830886158
 31
0.0
  0
LINE
  5
1D2
  8
TOP30
  6
STYLE_01
 62
     7
 10
-1302.9523539805671
 20
567.98200318426234
 30
0.0
 11
-1366.172208456831
 21
531.48200318426234
 31
0.0
  0
LINE
  5
1D3
  8
TOP30
  6
STYLE_01
 62
     7
 10
-1344.7956207203019
 20
619.45666713214473
 30
0.0
 11
-1389.828941717094
 21
593.45666713214428
 31
0.0
  0
LINE
  5
1D4
  8
TOP30
  6
STYLE_01
 62
     7
 10
-1306.2023539805659
 20
573.61116830886158
 30
0.0
 11
-1299.8459475200159
 21
594.60154936562878
 31
0.0
  0
LINE
  5
1D5
  8
TOP30
  6
STYLE_01
 62
     7
 10
-1307.345947520015
 20
607.59193042239383
 30
0.0
 11
-1310.095947520015
 21
612.35507014320922
 31
0.0
  0
LINE
  5
1D6
  8
TOP30
  6
STYLE_01
 62
     7
 10
-1299.8459475200159
 20
594.60154936562878
 30
0.0
 11
-1301.5959475200159
 21
597.6326382788734
 31
0.0
  0
LINE
  5
1D7
  8
TOP30
  6
STYLE_01
 62
     7
 10
-1292.935693482171
 20
602.63263827887386
 30
0.0
 11
-1298.6856934821701
 21
612.59193042239383
 31
0.0
  0
LINE
  5
1D8
  8
TOP30
  6
STYLE_01
 62
     7
 10
-1338.5456207203031
 20
608.63134958483693
 30
0.0
 11
-1344.7956207203019
 21
619.45666713214473
 31
0.0
  0
LINE
  5
1D9
  8
TOP30
  6
STYLE_01
 62
     7
 10
-1320.9212650673201
 20
606.10507014320979
 30
0.0
 11
-1323.4212650673201
 21
610.43519716213166
 31
0.0
  0
LINE
  5
1DA
  8
TOP30
  6
STYLE_01
 62
     7
 10
-1324.720303172996
 20
609.68519716213166
 30
0.0
 11
-1327.720303172996
 21
614.88134958483772
 31
0.0
  0
LINE
  5
1DB
  8
TOP30
  6
STYLE_01
 62
     7
 10
-1302.9523539805671
 20
567.98200318426234
 30
0.0
 11
-1306.2023539805659
 21
573.61116830886158
 31
0.0
  0
LINE
  5
1DC
  8
TOP30
  6
STYLE_01
 62
     7
 10
-1383.5789417170929
 20
582.63134958483795
 30
0.0
 11
-1389.828941717094
 21
593.45666713214428
 31
0.0
  0
LINE
  5
1DD
  8
TOP30
  6
STYLE_01
 62
     7
 10
-1390.203297370075
 20
566.10507014320945
 30
0.0
 11
-1392.703297370075
 21
570.43519716213132
 31
0.0
  0
LINE
  5
1DE
  8
TOP30
  6
STYLE_01
 62
     7
 10
-1391.4042592643989
 20
571.18519716213132
 30
0.0
 11
-1394.404259264398
 21
576.3813495848384
 31
0.0
  0
LINE
  5
1DF
  8
TOP30
  6
STYLE_01
 62
     7
 10
-1398.2786149173801
 20
555.0919304223944
 30
0.0
 11
-1401.0286149173819
 21
559.85507014320876
 31
0.0
  0
LINE
  5
1E0
  8
TOP30
  6
STYLE_01
 62
     7
 10
-1390.778614917383
 20
542.10154936562844
 30
0.0
 11
-1392.5286149173819
 21
545.13263827887317
 31
0.0
  0
LINE
  5
1E1
  8
TOP30
  6
STYLE_01
 62
     7
 10
-1390.778614917383
 20
542.10154936562844
 30
0.0
 11
-1369.422208456831
 21
537.11116830886112
 31
0.0
  0
LINE
  5
1E2
  8
TOP30
  6
STYLE_01
 62
     7
 10
-1401.1888689552261
 20
540.13263827887306
 30
0.0
 11
-1406.938868955225
 21
550.09193042239394
 31
0.0
  0
LINE
  5
1E3
  8
TOP30
  6
STYLE_01
 62
     7
 10
-1366.172208456831
 20
531.48200318426234
 30
0.0
 11
-1369.422208456831
 21
537.11116830886112
 31
0.0
  0
LINE
  5
1E4
  8
TOP30
  6
STYLE_01
 62
     7
 10
-1320.6511097721441
 20
556.03157095610493
 30
0.0
 11
-1321.4011097721441
 21
557.33060906178162
 31
0.0
  0
LINE
  5
1E5
  8
SPEC
  6
CONTINUOUS
 62
     7
 10
-2375.0
 20
3842.422634999999
 30
0.0
 11
2375.0
 21
3842.422634999999
 31
0.0
  0
LINE
  5
1E6
  8
SPEC
  6
CONTINUOUS
 62
     7
 10
-2375.0
 20
3729.922634999999
 30
0.0
 11
2375.0
 21
3729.922634999999
 31
0.0
  0
LINE
  5
1E7
  8
SPEC
  6
CONTINUOUS
 62
     7
 10
-2375.0
 20
3504.922634999999
 30
0.0
 11
2375.0
 21
3504.922634999999
 31
0.0
  0
LINE
  5
1E8
  8
SPEC
  6
CONTINUOUS
 62
     7
 10
-2375.0
 20
3617.422634999999
 30
0.0
 11
2375.0
 21
3617.422634999999
 31
0.0
  0
LINE
  5
1E9
  8
SPEC
  6
CONTINUOUS
 62
     7
 10
-2375.0
 20
2829.922634999999
 30
0.0
 11
2375.0
 21
2829.922634999999
 31
0.0
  0
LINE
  5
1EA
  8
SPEC
  6
CONTINUOUS
 62
     7
 10
-2375.0
 20
2717.422634999999
 30
0.0
 11
2375.0
 21
2717.422634999999
 31
0.0
  0
LINE
  5
1EB
  8
SPEC
  6
CONTINUOUS
 62
     7
 10
-2375.0
 20
2604.922634999999
 30
0.0
 11
2375.0
 21
2604.922634999999
 31
0.0
  0
LINE
  5
1EC
  8
SPEC
  6
CONTINUOUS
 62
     7
 10
-2375.0
 20
2267.422634999999
 30
0.0
 11
2375.0
 21
2267.422634999999
 31
0.0
  0
LINE
  5
1ED
  8
SPEC
  6
CONTINUOUS
 62
     7
 10
-2375.0
 20
2154.9226349999999
 30
0.0
 11
2375.0
 21
2154.9226349999999
 31
0.0
  0
LINE
  5
1EE
  8
SPEC
  6
CONTINUOUS
 62
     7
 10
-2375.0
 20
3842.422634999999
 30
0.0
 11
-2375.0
 21
1479.922634999999
 31
0.0
  0
TEXT
  5
1EF
  8
SPEC
 62
     7
 10
-2337.5
 20
3884.220734999999
 30
0.0
 40
73.2978515625
  1
仕様
 41
0.7
 11
-2337.5
 21
3957.518586562499
 31
0.0
 73
     3
  0
LINE
  5
1F0
  8
SPEC
  6
CONTINUOUS
 62
     7
 10
-1400.0
 20
3842.422634999999
 30
0.0
 11
-1400.0
 21
1479.922634999999
 31
0.0
  0
LINE
  5
1F1
  8
SPEC
  6
CONTINUOUS
 62
     7
 10
2375.0
 20
3842.422634999999
 30
0.0
 11
2375.0
 21
1479.922634999999
 31
0.0
  0
LINE
  5
1F2
  8
SPEC
  6
CONTINUOUS
 62
     7
 10
-2375.0
 20
3392.4226349999999
 30
0.0
 11
2375.0
 21
3392.4226349999999
 31
0.0
  0
LINE
  5
1F3
  8
SPEC
  6
CONTINUOUS
 62
     7
 10
-2375.0
 20
3167.422634999999
 30
0.0
 11
2375.0
 21
3167.422634999999
 31
0.0
  0
LINE
  5
1F4
  8
SPEC
  6
CONTINUOUS
 62
     7
 10
-2375.0
 20
3279.922634999999
 30
0.0
 11
2375.0
 21
3279.922634999999
 31
0.0
  0
LINE
  5
1F5
  8
SPEC
  6
CONTINUOUS
 62
     7
 10
-2375.0
 20
3054.922634999999
 30
0.0
 11
2375.0
 21
3054.922634999999
 31
0.0
  0
LINE
  5
1F6
  8
SPEC
  6
CONTINUOUS
 62
     7
 10
-2375.0
 20
2942.422634999999
 30
0.0
 11
2375.0
 21
2942.422634999999
 31
0.0
  0
LINE
  5
1F7
  8
SPEC
  6
CONTINUOUS
 62
     7
 10
-2375.0
 20
2379.922634999999
 30
0.0
 11
2375.0
 21
2379.922634999999
 31
0.0
  0
TEXT
  5
1F8
  8
SPEC
 62
     7
 10
539.95833333333348
 20
3753.560301666666
 30
0.0
 40
57.009440104166657
  1
Three-Way Cinema Loundspeaker System)
 41
0.7
 11
539.95833333333348
 21
3810.569741770832
 31
0.0
 73
     3
  0
TEXT
  5
1F9
  8
SPEC
 62
     7
 10
462.04166666666691
 20
3771.7636349999989
 30
0.0
 40
40.721028645833343
  1
TM
 41
0.7
 11
462.04166666666691
 21
3812.4846636458319
 31
0.0
 73
     3
  0
TEXT
  5
1FA
  8
SPEC
 62
     7
 10
-1373.0
 20
1976.0603016666651
 30
0.0
 40
57.009440104166657
  1
中域:SPユニットは裏側についているボックスを外し、そのボックスについているユニットを交換
 41
0.7
 11
-1373.0
 21
2033.069741770832
 31
0.0
 73
     3
  0
TEXT
  5
1FB
  8
SPEC
 62
     7
 10
-1373.0
 20
1728.560301666666
 30
0.0
 40
57.009440104166657
  1
低域:プッシュ式タ ーミナル,中域:4mmネジ式ターミナル,高域:ファストン端子
 41
0.7
 11
-1373.0
 21
1785.569741770832
 31
0.0
 73
     3
  0
TEXT
  5
1FC
  8
SPEC
 62
     7
 10
-1373.0
 20
1616.060301666666
 30
0.0
 40
57.009440104166657
  1
768(W)×1938(H)×463(D)mm　注) 角度をつけた時には、寸法は変わります。
 41
0.7
 11
-1373.0
 21
1673.069741770832
 31
0.0
 73
     3
  0
TEXT
  5
1FD
  8
SPEC
 62
     7
 10
-2348.0
 20
2291.060301666666
 30
0.0
 40
57.009440104166657
  1
外装色
 41
0.7
 11
-2348.0
 21
2348.069741770832
 31
0.0
 73
     3
  0
TEXT
  5
1FE
  8
SPEC
 62
     7
 10
-2348.0
 20
2178.5603016666651
 30
0.0
 40
57.009440104166657
  1
極性
 41
0.7
 11
-2348.0
 21
2235.569741770832
 31
0.0
 73
     3
  0
TEXT
  5
1FF
  8
SPEC
 62
     7
 10
-2348.0
 20
1728.560301666666
 30
0.0
 40
57.009440104166657
  1
コネクター
 41
0.7
 11
-2348.0
 21
1785.569741770832
 31
0.0
 73
     3
  0
TEXT
  5
200
  8
SPEC
 62
     7
 10
-2348.0
 20
1503.560301666666
 30
0.0
 40
57.009440104166657
  1
重量
 41
0.7
 11
-2348.0
 21
1560.569741770832
 31
0.0
 73
     3
  0
TEXT
  5
201
  8
SPEC
 62
     7
 10
-2348.0
 20
1616.060301666666
 30
0.0
 40
57.009440104166657
  1
寸法
 41
0.7
 11
-2348.0
 21
1673.069741770832
 31
0.0
 73
     3
  0
TEXT
  5
202
  8
SPEC
 62
     7
 10
-2348.0
 20
2066.060301666666
 30
0.0
 40
57.009440104166657
  1
メンテナンス
 41
0.7
 11
-2348.0
 21
2123.069741770832
 31
0.0
 73
     3
  0
TEXT
  5
203
  8
SPEC
 62
     7
 10
-2348.0
 20
3416.060301666666
 30
0.0
 40
57.009440104166657
  1
カバレージアングル(-6dB)
 41
0.7
 11
-2348.0
 21
3473.069741770832
 31
0.0
 73
     3
  0
TEXT
  5
204
  8
SPEC
 62
     7
 10
-2348.0
 20
2741.060301666666
 30
0.0
 40
57.009440104166657
  1
公称インピーダンス
 41
0.7
 11
-2348.0
 21
2798.069741770832
 31
0.0
 73
     3
  0
TEXT
  5
205
  8
SPEC
 62
     7
 10
-2348.0
 20
3191.060301666666
 30
0.0
 40
57.009440104166657
  1
中域ユニット
 41
0.7
 11
-2348.0
 21
3248.069741770832
 31
0.0
 73
     3
  0
TEXT
  5
206
  8
SPEC
 62
     7
 10
-2348.0
 20
3078.560301666666
 30
0.0
 40
57.009440104166657
  1
高域ユニット
 41
0.7
 11
-2348.0
 21
3135.569741770832
 31
0.0
 73
     3
  0
TEXT
  5
207
  8
SPEC
 62
     7
 10
-2348.0
 20
3303.560301666666
 30
0.0
 40
57.009440104166657
  1
低域ユニット
 41
0.7
 11
-2348.0
 21
3360.569741770832
 31
0.0
 73
     3
  0
TEXT
  5
208
  8
SPEC
 62
     7
 10
-2348.0
 20
2853.560301666666
 30
0.0
 40
57.009440104166657
  1
最大音圧(＠1m)
 41
0.7
 11
-2348.0
 21
2910.569741770832
 31
0.0
 73
     3
  0
TEXT
  5
209
  8
SPEC
 62
     7
 10
-2348.0
 20
2628.560301666666
 30
0.0
 40
57.009440104166657
  1
許容入力
 41
0.7
 11
-2348.0
 21
2685.569741770832
 31
0.0
 73
     3
  0
TEXT
  5
20A
  8
SPEC
 62
     7
 10
-2348.0
 20
2516.060301666666
 30
0.0
 40
57.009440104166657
  1
クロスオーバー
 41
0.7
 11
-2348.0
 21
2573.069741770832
 31
0.0
 73
     3
  0
TEXT
  5
20B
  8
SPEC
 62
     7
 10
-2348.0
 20
3753.560301666666
 30
0.0
 40
57.009440104166657
  1
形式
 41
0.7
 11
-2348.0
 21
3810.569741770832
 31
0.0
 73
     3
  0
TEXT
  5
20C
  8
SPEC
 62
     7
 10
-2348.0
 20
3641.060301666666
 30
0.0
 40
57.009440104166657
  1
周波数レンジ(-10dB)
 41
0.7
 11
-2348.0
 21
3698.069741770832
 31
0.0
 73
     3
  0
TEXT
  5
20D
  8
SPEC
 62
     7
 10
-2348.0
 20
3528.560301666666
 30
0.0
 40
57.009440104166657
  1
周波数特性(±3dB)
 41
0.7
 11
-2348.0
 21
3585.569741770832
 31
0.0
 73
     3
  0
TEXT
  5
20E
  8
SPEC
 62
     7
 10
-2348.0
 20
2966.0603016666651
 30
0.0
 40
57.009440104166657
  1
音圧レベル(2.83V@1m)
 41
0.7
 11
-2348.0
 21
3023.069741770832
 31
0.0
 73
     3
  0
TEXT
  5
20F
  8
SPEC
 62
     7
 10
-1373.0
 20
2291.060301666666
 30
0.0
 40
57.009440104166657
  1
黒
 41
0.7
 11
-1373.0
 21
2348.069741770832
 31
0.0
 73
     3
  0
TEXT
  5
210
  8
SPEC
 62
     7
 10
-1373.0
 20
2066.060301666666
 30
0.0
 40
57.009440104166657
  1
低域:SPユニットは前面側で交換
 41
0.7
 11
-1373.0
 21
2123.069741770832
 31
0.0
 73
     3
  0
TEXT
  5
211
  8
SPEC
 62
     7
 10
-1373.0
 20
2178.5603016666651
 30
0.0
 40
57.009440104166657
  1
正相(低域),正相(中域),正相(高域)
 41
0.7
 11
-1373.0
 21
2235.569741770832
 31
0.0
 73
     3
  0
TEXT
  5
212
  8
SPEC
 62
     7
 10
-1373.0
 20
1503.560301666666
 30
0.0
 40
57.009440104166657
  1
約96kg
 41
0.7
 11
-1373.0
 21
1560.569741770832
 31
0.0
 73
     3
  0
TEXT
  5
213
  8
SPEC
 62
     7
 10
-1373.0
 20
2741.060301666666
 30
0.0
 40
57.009440104166657
  1
BI-AMP駆動時 :4Ω(低域),4Ω(中高域)
 41
0.7
 11
-1373.0
 21
2798.069741770832
 31
0.0
 73
     3
  0
TEXT
  5
214
  8
SPEC
 62
     7
 10
-1373.0
 20
2628.560301666666
 30
0.0
 40
57.009440104166657
  1
BI-AMP駆動時:500W(低域),200W(中高域)
 41
0.7
 11
-1373.0
 21
2685.569741770832
 31
0.0
 73
     3
  0
TEXT
  5
215
  8
SPEC
 62
     7
 10
-1373.0
 20
2516.060301666666
 30
0.0
 40
57.009440104166657
  1
コントローラ:450Hz (低域/中域),2kHz (中域/高域 ネットワーク)
 41
0.7
 11
-1373.0
 21
2573.069741770832
 31
0.0
 73
     3
  0
TEXT
  5
216
  8
SPEC
 62
     7
 10
-1373.0
 20
3753.560301666666
 30
0.0
 40
57.009440104166657
  1
スクリーンアレー 3Way シネマ システム(ScreenArray
 41
0.7
 11
-1373.0
 21
3810.569741770832
 31
0.0
 73
     3
  0
TEXT
  5
217
  8
SPEC
 62
     7
 10
-1373.0
 20
3416.060301666666
 30
0.0
 40
57.009440104166657
  1
Hor.90°×Vor.20゜(up)30゜(down)
 41
0.7
 11
-1373.0
 21
3473.069741770832
 31
0.0
 73
     3
  0
TEXT
  5
218
  8
SPEC
 62
     7
 10
-1373.0
 20
3303.560301666666
 30
0.0
 40
57.009440104166657
  1
M115H-8A×2(口径:15インチ)
 41
0.7
 11
-1373.0
 21
3360.569741770832
 31
0.0
 73
     3
  0
TEXT
  5
219
  8
SPEC
 62
     7
 10
-1373.0
 20
3191.060301666666
 30
0.0
 40
57.009440104166657
  1
165H×2(口径:6.5インチ)
 41
0.7
 11
-1373.0
 21
3248.069741770832
 31
0.0
 73
     3
  0
TEXT
  5
21A
  8
SPEC
 62
     7
 10
-1373.0
 20
3078.560301666666
 30
0.0
 40
57.009440104166657
  1
2418H(ダイアフラム径:1.75インチ)
 41
0.7
 11
-1373.0
 21
3135.569741770832
 31
0.0
 73
     3
  0
TEXT
  5
21B
  8
SPEC
 62
     7
 10
-1373.0
 20
2853.560301666666
 30
0.0
 40
57.009440104166657
  1
123dB SPL(peak 129dB SPL)
 41
0.7
 11
-1373.0
 21
2910.569741770832
 31
0.0
 73
     3
  0
TEXT
  5
21C
  8
SPEC
 62
     7
 10
-1373.0
 20
2426.060301666666
 30
0.0
 40
57.009440104166657
  1
(推奨コントローラ:DSC260 , DSC280)
 41
0.7
 11
-1373.0
 21
2483.069741770832
 31
0.0
 73
     3
  0
TEXT
  5
21D
  8
SPEC
 62
     7
 10
-1373.0
 20
2966.0603016666651
 30
0.0
 40
57.009440104166657
  1
103dB SPL
 41
0.7
 11
-1373.0
 21
3023.069741770832
 31
0.0
 73
     3
  0
TEXT
  5
21E
  8
SPEC
 62
     7
 10
-1373.0
 20
3641.060301666666
 30
0.0
 40
57.009440104166657
  1
30Hz～20kHz
 41
0.7
 11
-1373.0
 21
3698.069741770832
 31
0.0
 73
     3
  0
TEXT
  5
21F
  8
SPEC
 62
     7
 10
-1373.0
 20
3528.560301666666
 30
0.0
 40
57.009440104166657
  1
40Hz～16kHz
 41
0.7
 11
-1373.0
 21
3585.569741770832
 31
0.0
 73
     3
  0
LINE
  5
220
  8
SPEC
  6
CONTINUOUS
 62
     7
 10
-2375.0
 20
1817.422634999999
 30
0.0
 11
2375.0
 21
1817.422634999999
 31
0.0
  0
LINE
  5
221
  8
SPEC
  6
CONTINUOUS
 62
     7
 10
-2375.0
 20
1704.922634999999
 30
0.0
 11
2375.0
 21
1704.922634999999
 31
0.0
  0
LINE
  5
222
  8
SPEC
  6
CONTINUOUS
 62
     7
 10
-2375.0
 20
1592.422634999999
 30
0.0
 11
2375.0
 21
1592.422634999999
 31
0.0
  0
LINE
  5
223
  8
SPEC
  6
CONTINUOUS
 62
     7
 10
-2375.0
 20
1479.922634999999
 30
0.0
 11
2375.0
 21
1479.922634999999
 31
0.0
  0
TEXT
  5
224
  8
SPEC
 62
     7
 10
-1373.0
 20
1886.0603016666651
 30
0.0
 40
57.009440104166657
  1
高域:SPユニットは裏面側で交換
 41
0.7
 11
-1373.0
 21
1943.069741770832
 31
0.0
 73
     3
  0
TEXT
  5
225
  8
DIMNSIONS
 62
     7
 10
-500.0
 20
-3289.4926650000002
 30
0.0
 40
73.2978515625
  1
(単位：mm)
 41
0.7
 11
-500.0
 21
-3216.1948134375002
 31
0.0
 73
     3
  0
LINE
  5
226
  8
DIMNSIONS
  6
CONTINUOUS
 62
     7
 10
-986.98399999999833
 20
-2560.0
 30
0.0
 11
-986.98399999999833
 21
-2747.5
 31
0.0
  0
LINE
  5
227
  8
DIMNSIONS
  6
CONTINUOUS
 62
     7
 10
-1750.0
 20
-2560.0
 30
0.0
 11
-1750.0
 21
-2747.5
 31
0.0
  0
LINE
  5
228
  8
DIMNSIONS
  6
CONTINUOUS
 62
     7
 10
-986.98399999999833
 20
-2687.5
 30
0.0
 11
-1750.0
 21
-2687.5
 31
0.0
  0
LINE
  5
229
  8
DIMNSIONS
  6
CONTINUOUS
 62
     7
 10
-986.98399999999833
 20
-2687.5
 30
0.0
 11
-1062.0026767578111
 21
-2707.601193854508
 31
0.0
  0
LINE
  5
22A
  8
DIMNSIONS
  6
CONTINUOUS
 62
     7
 10
-986.98399999999833
 20
-2687.5
 30
0.0
 11
-1062.0026767578111
 21
-2667.3988061454929
 31
0.0
  0
LINE
  5
22B
  8
DIMNSIONS
  6
CONTINUOUS
 62
     7
 10
-1750.0
 20
-2687.5
 30
0.0
 11
-1674.981323242187
 21
-2667.3988061454929
 31
0.0
  0
LINE
  5
22C
  8
DIMNSIONS
  6
CONTINUOUS
 62
     7
 10
-1750.0
 20
-2687.5
 30
0.0
 11
-1674.981323242187
 21
-2707.6011938545071
 31
0.0
  0
TEXT
  5
22D
  8
DIMNSIONS
 62
     7
 10
-1447.8669999999991
 20
-2657.6833333333329
 30
0.0
 40
81.442057291666686
  1
763
 41
0.7
 11
-1447.8669999999991
 21
-2576.2412760416669
 31
0.0
 73
     3
  0
LINE
  5
22E
  8
DIMNSIONS
  6
CONTINUOUS
 62
     7
 10
-984.44399999999962
 20
-1676.588
 30
0.0
 11
-984.44399999999962
 21
-2935.0
 31
0.0
  0
LINE
  5
22F
  8
DIMNSIONS
  6
CONTINUOUS
 62
     7
 10
-1752.5399999999991
 20
-1676.5879999999991
 30
0.0
 11
-1752.5399999999991
 21
-2935.0
 31
0.0
  0
LINE
  5
230
  8
DIMNSIONS
  6
CONTINUOUS
 62
     7
 10
-984.44399999999962
 20
-2875.0
 30
0.0
 11
-1752.5399999999991
 21
-2875.0
 31
0.0
  0
LINE
  5
231
  8
DIMNSIONS
  6
CONTINUOUS
 62
     7
 10
-984.44399999999962
 20
-2875.0
 30
0.0
 11
-1059.462676757812
 21
-2895.101193854508
 31
0.0
  0
LINE
  5
232
  8
DIMNSIONS
  6
CONTINUOUS
 62
     7
 10
-984.44399999999962
 20
-2875.0
 30
0.0
 11
-1059.462676757812
 21
-2854.8988061454938
 31
0.0
  0
LINE
  5
233
  8
DIMNSIONS
  6
CONTINUOUS
 62
     7
 10
-1752.5399999999991
 20
-2875.0
 30
0.0
 11
-1677.5213232421861
 21
-2854.8988061454938
 31
0.0
  0
LINE
  5
234
  8
DIMNSIONS
  6
CONTINUOUS
 62
     7
 10
-1752.5399999999991
 20
-2875.0
 30
0.0
 11
-1677.5213232421861
 21
-2895.1011938545071
 31
0.0
  0
TEXT
  5
235
  8
DIMNSIONS
 62
     7
 10
-1447.8669999999991
 20
-2845.1833333333329
 30
0.0
 40
81.442057291666686
  1
768
 41
0.7
 11
-1447.8669999999991
 21
-2763.7412760416669
 31
0.0
 73
     3
  0
LINE
  5
236
  8
DIMNSIONS
  6
CONTINUOUS
 62
     7
 10
-173.38799999999901
 20
-2560.0
 30
0.0
 11
-173.38799999999901
 21
-2747.5
 31
0.0
  0
LINE
  5
237
  8
DIMNSIONS
  6
CONTINUOUS
 62
     7
 10
-625.0
 20
-2560.0
 30
0.0
 11
-625.0
 21
-2747.5
 31
0.0
  0
LINE
  5
238
  8
DIMNSIONS
  6
CONTINUOUS
 62
     7
 10
-173.38799999999901
 20
-2687.5
 30
0.0
 11
-625.0
 21
-2687.5
 31
0.0
  0
LINE
  5
239
  8
DIMNSIONS
  6
CONTINUOUS
 62
     7
 10
-173.38799999999901
 20
-2687.5
 30
0.0
 11
-248.4066767578116
 21
-2707.601193854508
 31
0.0
  0
LINE
  5
23A
  8
DIMNSIONS
  6
CONTINUOUS
 62
     7
 10
-173.38799999999901
 20
-2687.5
 30
0.0
 11
-248.4066767578116
 21
-2667.3988061454929
 31
0.0
  0
LINE
  5
23B
  8
DIMNSIONS
  6
CONTINUOUS
 62
     7
 10
-625.0
 20
-2687.5
 30
0.0
 11
-549.9813232421875
 21
-2667.3988061454929
 31
0.0
  0
LINE
  5
23C
  8
DIMNSIONS
  6
CONTINUOUS
 62
     7
 10
-625.0
 20
-2687.5
 30
0.0
 11
-549.9813232421875
 21
-2707.6011938545071
 31
0.0
  0
TEXT
  5
23D
  8
DIMNSIONS
 62
     7
 10
-478.56899999999939
 20
-2657.6833333333329
 30
0.0
 40
81.442057291666686
  1
452
 41
0.7
 11
-478.56899999999939
 21
-2576.2412760416669
 31
0.0
 73
     3
  0
LINE
  5
23E
  8
DIMNSIONS
  6
CONTINUOUS
 62
     7
 10
-173.38799999999901
 20
-2560.0
 30
0.0
 11
-173.38799999999901
 21
-2935.0
 31
0.0
  0
LINE
  5
23F
  8
DIMNSIONS
  6
CONTINUOUS
 62
     7
 10
-636.49999999995043
 20
-1641.5879999999991
 30
0.0
 11
-636.49999999995043
 21
-2935.0
 31
0.0
  0
LINE
  5
240
  8
DIMNSIONS
  6
CONTINUOUS
 62
     7
 10
-173.38799999999901
 20
-2875.0
 30
0.0
 11
-636.49999999995043
 21
-2875.0
 31
0.0
  0
LINE
  5
241
  8
DIMNSIONS
  6
CONTINUOUS
 62
     7
 10
-173.38799999999901
 20
-2875.0
 30
0.0
 11
-248.4066767578116
 21
-2895.101193854508
 31
0.0
  0
LINE
  5
242
  8
DIMNSIONS
  6
CONTINUOUS
 62
     7
 10
-173.38799999999901
 20
-2875.0
 30
0.0
 11
-248.4066767578116
 21
-2854.8988061454938
 31
0.0
  0
LINE
  5
243
  8
DIMNSIONS
  6
CONTINUOUS
 62
     7
 10
-636.49999999995043
 20
-2875.0
 30
0.0
 11
-561.48132324213805
 21
-2854.8988061454938
 31
0.0
  0
LINE
  5
244
  8
DIMNSIONS
  6
CONTINUOUS
 62
     7
 10
-636.49999999995043
 20
-2875.0
 30
0.0
 11
-561.48132324213805
 21
-2895.1011938545071
 31
0.0
  0
TEXT
  5
245
  8
DIMNSIONS
 62
     7
 10
-484.31899999997472
 20
-2845.1833333333329
 30
0.0
 40
81.442057291666686
  1
463
 41
0.7
 11
-484.31899999997472
 21
-2763.7412760416669
 31
0.0
 73
     3
  0
LINE
  5
246
  8
DIMNSIONS
  6
CONTINUOUS
 62
     7
 10
-1812.5399999999991
 20
-1616.5880000000011
 30
0.0
 11
-1935.0
 21
-1616.5880000000011
 31
0.0
  0
LINE
  5
247
  8
DIMNSIONS
  6
CONTINUOUS
 62
     7
 10
-1810.0
 20
-2500.0
 30
0.0
 11
-1935.0
 21
-2500.0
 31
0.0
  0
LINE
  5
248
  8
DIMNSIONS
  6
CONTINUOUS
 62
     7
 10
-1875.0
 20
-1616.5880000000011
 30
0.0
 11
-1875.0
 21
-2500.0
 31
0.0
  0
LINE
  5
249
  8
DIMNSIONS
  6
CONTINUOUS
 62
     7
 10
-1875.0
 20
-1616.5880000000011
 30
0.0
 11
-1854.8988061454929
 21
-1691.6066767578129
 31
0.0
  0
LINE
  5
24A
  8
DIMNSIONS
  6
CONTINUOUS
 62
     7
 10
-1875.0
 20
-1616.5880000000011
 30
0.0
 11
-1895.1011938545071
 21
-1691.6066767578129
 31
0.0
  0
LINE
  5
24B
  8
DIMNSIONS
  6
CONTINUOUS
 62
     7
 10
-1875.0
 20
-2500.0
 30
0.0
 11
-1895.1011938545071
 21
-2424.981323242187
 31
0.0
  0
LINE
  5
24C
  8
DIMNSIONS
  6
CONTINUOUS
 62
     7
 10
-1875.0
 20
-2500.0
 30
0.0
 11
-1854.8988061454929
 21
-2424.981323242187
 31
0.0
  0
TEXT
  5
24D
  8
DIMNSIONS
 62
     7
 10
-1904.8166666666671
 20
-2137.6690000000008
 30
0.0
 40
81.442057291666686
  1
883
 50
90.0
 41
0.7
 11
-1986.2587239583329
 21
-2137.6690000000008
 31
0.0
 73
     3
  0
LINE
  5
24E
  8
DIMNSIONS
  6
CONTINUOUS
 62
     7
 10
-1808.983999999999
 20
-942.75999999999874
 30
0.0
 11
-2247.5
 21
-942.75999999999874
 31
0.0
  0
LINE
  5
24F
  8
DIMNSIONS
  6
CONTINUOUS
 62
     7
 10
-1810.0
 20
-2500.0
 30
0.0
 11
-2247.5
 21
-2500.0
 31
0.0
  0
LINE
  5
250
  8
DIMNSIONS
  6
CONTINUOUS
 62
     7
 10
-2187.5
 20
-942.75999999999874
 30
0.0
 11
-2187.5
 21
-2500.0
 31
0.0
  0
LINE
  5
251
  8
DIMNSIONS
  6
CONTINUOUS
 62
     7
 10
-2187.5
 20
-942.75999999999874
 30
0.0
 11
-2167.3988061454929
 21
-1017.778676757811
 31
0.0
  0
LINE
  5
252
  8
DIMNSIONS
  6
CONTINUOUS
 62
     7
 10
-2187.5
 20
-942.75999999999874
 30
0.0
 11
-2207.6011938545071
 21
-1017.778676757811
 31
0.0
  0
LINE
  5
253
  8
DIMNSIONS
  6
CONTINUOUS
 62
     7
 10
-2187.5
 20
-2500.0
 30
0.0
 11
-2207.6011938545071
 21
-2424.981323242187
 31
0.0
  0
LINE
  5
254
  8
DIMNSIONS
  6
CONTINUOUS
 62
     7
 10
-2187.5
 20
-2500.0
 30
0.0
 11
-2167.3988061454929
 21
-2424.981323242187
 31
0.0
  0
TEXT
  5
255
  8
DIMNSIONS
 62
     7
 10
-2217.3166666666671
 20
-1827.2133333333329
 30
0.0
 40
81.442057291666686
  1
1557
 50
90.0
 41
0.7
 11
-2298.758723958334
 21
-1827.2133333333329
 31
0.0
 73
     3
  0
LINE
  5
256
  8
DIMNSIONS
  6
CONTINUOUS
 62
     7
 10
-1808.983999999999
 20
-561.98000000000002
 30
0.0
 11
-2435.0
 21
-561.98000000000002
 31
0.0
  0
LINE
  5
257
  8
DIMNSIONS
  6
CONTINUOUS
 62
     7
 10
-1810.0
 20
-2500.0
 30
0.0
 11
-2435.0
 21
-2500.0
 31
0.0
  0
LINE
  5
258
  8
DIMNSIONS
  6
CONTINUOUS
 62
     7
 10
-2375.0
 20
-561.98000000000002
 30
0.0
 11
-2375.0
 21
-2500.0
 31
0.0
  0
LINE
  5
259
  8
DIMNSIONS
  6
CONTINUOUS
 62
     7
 10
-2375.0
 20
-561.98000000000002
 30
0.0
 11
-2354.8988061454929
 21
-636.99867675781252
 31
0.0
  0
LINE
  5
25A
  8
DIMNSIONS
  6
CONTINUOUS
 62
     7
 10
-2375.0
 20
-561.98000000000002
 30
0.0
 11
-2395.1011938545071
 21
-636.99867675781252
 31
0.0
  0
LINE
  5
25B
  8
DIMNSIONS
  6
CONTINUOUS
 62
     7
 10
-2375.0
 20
-2500.0
 30
0.0
 11
-2395.1011938545071
 21
-2424.981323242187
 31
0.0
  0
LINE
  5
25C
  8
DIMNSIONS
  6
CONTINUOUS
 62
     7
 10
-2375.0
 20
-2500.0
 30
0.0
 11
-2354.8988061454929
 21
-2424.981323242187
 31
0.0
  0
TEXT
  5
25D
  8
DIMNSIONS
 62
     7
 10
-2404.8166666666671
 20
-1636.823333333333
 30
0.0
 40
81.442057291666686
  1
1938
 50
90.0
 41
0.7
 11
-2486.258723958334
 21
-1636.823333333333
 31
0.0
 73
     3
  0
TEXT
  5
25E
  8
DIMNSIONS
 62
     7
 10
-2061.2883333333339
 20
-2202.9216666666671
 30
0.0
 40
57.009440104166657
  1
(シミュレーションポイント)
 50
90.0
 41
0.7
 11
-2118.2977734374999
 21
-2202.9216666666671
 31
0.0
 73
     3
  0
TEXT
  5
25F
  8
DATA
 62
     7
 10
1600.0
 20
-3106.1506650000001
 30
0.0
 40
73.2978515625
  1
JBL
 41
0.7
 11
1600.0
 21
-3032.852813437501
 31
0.0
 73
     3
  0
TEXT
  5
260
  8
DATA
 62
     7
 10
-2300.0
 20
-3530.4373650000002
 30
0.0
 40
48.865234374999993
  1
仕様および外観は予告なく変更されることがありますので、ご了承ください。
 41
0.7
 11
-2300.0
 21
-3481.5721306250002
 31
0.0
 73
     3
  0
TEXT
  5
261
  8
DATA
 62
     7
 10
1525.0
 20
-3210.4593650000011
 30
0.0
 40
48.865234375000007
  1
スクリーンアレー 3Way シネマ システム
 41
0.7
 11
1525.0
 21
-3161.5941306250011
 31
0.0
 73
     3
  0
TEXT
  5
262
  8
DATA
 62
     7
 10
1600.0
 20
-3323.650665000001
 30
0.0
 40
73.2978515625
  1
3632
 41
0.7
 11
1600.0
 21
-3250.3528134375001
 31
0.0
 73
     3
  0
LINE
  5
263
  8
DATA
  6
CONTINUOUS
 62
     7
 10
-1472.9919999999991
 20
509.11699999999911
 30
0.0
 11
-1752.5399999999991
 21
334.00000000005639
 31
0.0
  0
LINE
  5
264
  8
DATA
  6
CONTINUOUS
 62
     7
 10
-1750.0
 20
335.5911298954577
 30
0.0
 11
-1750.0
 21
701.61200000000008
 31
0.0
  0
LINE
  5
265
  8
DATA
  6
CONTINUOUS
 62
     7
 10
-984.44399999999962
 20
334.00000000005639
 30
0.0
 11
-1263.9919999999991
 21
509.11699999999911
 31
0.0
  0
LINE
  5
266
  8
DATA
  6
CONTINUOUS
 62
     7
 10
-1342.0417311902311
 20
499.73543642353172
 30
0.0
 11
-1067.6892117550381
 21
264.20000000005712
 31
0.0
  0
LINE
  5
267
  8
DATA
  6
CONTINUOUS
 62
     7
 10
-1667.6892117550369
 20
264.20000000005712
 30
0.0
 11
-1394.9422688097691
 21
499.73543642353252
 31
0.0
  0
LINE
  5
268
  8
DATA
  6
CONTINUOUS
 62
     7
 10
-986.98399999999833
 20
335.59112989545798
 30
0.0
 11
-986.98399999999833
 21
701.61200000000008
 31
0.0
  0
LINE
  5
269
  8
DATA
  6
CONTINUOUS
 62
     7
 10
-1750.0
 20
-2500.0
 30
0.0
 11
-986.98399999999833
 21
-2500.0
 31
0.0
  0
LINE
  5
26A
  8
DATA
  6
CONTINUOUS
 62
     7
 10
-1752.5399999999991
 20
-1616.5880000000011
 30
0.0
 11
-984.44399999999962
 21
-1616.588
 31
0.0
  0
LINE
  5
26B
  8
DATA
  6
CONTINUOUS
 62
     7
 10
-1749.5399999999991
 20
-1613.588
 30
0.0
 11
-987.44399999999985
 21
-1613.588
 31
0.0
  0
LINE
  5
26C
  8
DATA
  6
CONTINUOUS
 62
     7
 10
-1748.983999999999
 20
-1593.088
 30
0.0
 11
-988.0
 21
-1593.088
 31
0.0
  0
LINE
  5
26D
  8
DATA
  6
CONTINUOUS
 62
     7
 10
-1685.54
 20
-1596.088
 30
0.0
 11
-1749.54
 21
-1596.088
 31
0.0
  0
LINE
  5
26E
  8
DATA
  6
CONTINUOUS
 62
     7
 10
-1748.983999999999
 20
-942.98000000000002
 30
0.0
 11
-987.99999999999909
 21
-942.98000000000002
 31
0.0
  0
LINE
  5
26F
  8
DATA
  6
CONTINUOUS
 62
     7
 10
-1748.983999999999
 20
-942.53800000000069
 30
0.0
 11
-988.0
 21
-942.53800000000069
 31
0.0
  0
LINE
  5
270
  8
DATA
  6
CONTINUOUS
 62
     7
 10
-1748.983999999999
 20
-561.98000000000002
 30
0.0
 11
-987.99999999999909
 21
-561.98000000000002
 31
0.0
  0
LINE
  5
271
  8
DATA
  6
CONTINUOUS
 62
     7
 10
-1752.5399999999991
 20
269.00000000005639
 30
0.0
 11
-1662.130874776039
 21
269.00000000005639
 31
0.0
  0
LINE
  5
272
  8
DATA
  6
CONTINUOUS
 62
     7
 10
-1748.983999999999
 20
264.20000000005712
 30
0.0
 11
-987.99999999999909
 21
264.20000000005712
 31
0.0
  0
LINE
  5
273
  8
DATA
  6
CONTINUOUS
 62
     7
 10
-1748.983999999999
 20
251.00000000005639
 30
0.0
 11
-988.0
 21
251.00000000005639
 31
0.0
  0
LINE
  5
274
  8
DATA
  6
CONTINUOUS
 62
     7
 10
-1748.983999999999
 20
242.0000000000573
 30
0.0
 11
-988.0
 21
242.0000000000573
 31
0.0
  0
LINE
  5
275
  8
DATA
  6
CONTINUOUS
 62
     7
 10
-1750.0
 20
-2500.0
 30
0.0
 11
-1750.0
 21
-1616.588
 31
0.0
  0
LINE
  5
276
  8
DATA
  6
CONTINUOUS
 62
     7
 10
-1748.983999999999
 20
-1593.088
 30
0.0
 11
-1748.983999999999
 21
-561.98000000000002
 31
0.0
  0
LINE
  5
277
  8
DATA
  6
CONTINUOUS
 62
     7
 10
-1752.540000000002
 20
-1549.5880000000011
 30
0.0
 11
-1752.5399999999991
 21
-1616.5879999999991
 31
0.0
  0
LINE
  5
278
  8
DATA
  6
CONTINUOUS
 62
     7
 10
-1749.540000000002
 20
-1549.5880000000011
 30
0.0
 11
-1749.5399999999991
 21
-1613.588
 31
0.0
  0
LINE
  5
279
  8
DATA
  6
CONTINUOUS
 62
     7
 10
-1752.5399999999991
 20
-1549.5880000000011
 30
0.0
 11
-1749.540000000002
 21
-1549.5880000000011
 31
0.0
  0
LINE
  5
27A
  8
DATA
  6
CONTINUOUS
 62
     7
 10
-1748.983999999999
 20
242.0000000000573
 30
0.0
 11
-1748.983999999999
 21
264.20000000005712
 31
0.0
  0
LINE
  5
27B
  8
DATA
  6
CONTINUOUS
 62
     7
 10
-1752.5399999999991
 20
269.00000000005639
 30
0.0
 11
-1752.5399999999991
 21
334.00000000005639
 31
0.0
  0
LINE
  5
27C
  8
DATA
  6
CONTINUOUS
 62
     7
 10
-1750.0
 20
250.0
 30
0.0
 11
-1748.983999999999
 21
250.0
 31
0.0
  0
LINE
  5
27D
  8
DATA
  6
CONTINUOUS
 62
     7
 10
-1750.0
 20
250.0
 30
0.0
 11
-1750.0
 21
269.00000000005639
 31
0.0
  0
LINE
  5
27E
  8
DATA
  6
CONTINUOUS
 62
     7
 10
-1730.0
 20
-2480.0
 30
0.0
 11
-1730.0
 21
-1636.588
 31
0.0
  0
LINE
  5
27F
  8
DATA
  6
CONTINUOUS
 62
     7
 10
-1006.984
 20
-2480.0
 30
0.0
 11
-1006.984
 21
-1636.588
 31
0.0
  0
LINE
  5
280
  8
DATA
  6
CONTINUOUS
 62
     7
 10
-986.98399999999833
 20
-2500.0
 30
0.0
 11
-986.98399999999936
 21
-1616.588
 31
0.0
  0
LINE
  5
281
  8
DATA
  6
CONTINUOUS
 62
     7
 10
-1730.0
 20
-2480.0
 30
0.0
 11
-1006.984
 21
-2480.0
 31
0.0
  0
CIRCLE
  5
282
  8
DATA
  6
CONTINUOUS
 62
     7
 10
-1584.4999999999991
 20
-2058.2939999999999
 30
0.0
 40
67.5
  0
CIRCLE
  5
283
  8
DATA
  6
CONTINUOUS
 62
     7
 10
-1152.4839999999999
 20
-2058.2939999999999
 30
0.0
 40
67.5
  0
LINE
  5
284
  8
DATA
  6
CONTINUOUS
 62
     7
 10
-988.0
 20
-1593.088
 30
0.0
 11
-988.0
 21
-561.98000000000047
 31
0.0
  0
CIRCLE
  5
285
  8
DATA
  6
CONTINUOUS
 62
     7
 10
-1368.492
 20
-730.53800000000103
 30
0.0
 40
12.5
  0
LINE
  5
286
  8
DATA
  6
CONTINUOUS
 62
     7
 10
-1668.4919999999991
 20
-851.98000000000025
 30
0.0
 11
-1668.4919999999991
 21
-651.97999999999945
 31
0.0
  0
LINE
  5
287
  8
DATA
  6
CONTINUOUS
 62
     7
 10
-1068.4919999999991
 20
-851.98000000000025
 30
0.0
 11
-1068.4919999999991
 21
-651.98000000000002
 31
0.0
  0
LINE
  5
288
  8
DATA
  6
CONTINUOUS
 62
     7
 10
-1730.0
 20
-1636.588
 30
0.0
 11
-1006.984
 21
-1636.5879999999991
 31
0.0
  0
ARC
  5
289
  8
DATA
  6
CONTINUOUS
 62
     7
 10
-1368.492000000002
 20
-5743.0880000001771
 30
0.0
 40
4210.0000000001774
 50
86.050131978236138
 51
93.949868021763734
  0
CIRCLE
  5
28A
  8
DATA
  6
CONTINUOUS
 62
     7
 10
-1738.4919999999991
 20
-1558.059
 30
0.0
 40
7.0
  0
LINE
  5
28B
  8
DATA
  6
CONTINUOUS
 62
     7
 10
-1742.4919999999991
 20
-1558.059
 30
0.0
 11
-1734.4919999999991
 21
-1558.059
 31
0.0
  0
LINE
  5
28C
  8
DATA
  6
CONTINUOUS
 62
     7
 10
-1738.4919999999979
 20
-1562.059
 30
0.0
 11
-1738.4919999999979
 21
-1554.059
 31
0.0
  0
ARC
  5
28D
  8
DATA
  6
CONTINUOUS
 62
     7
 10
-1790.992
 20
-1422.7761944478609
 30
0.0
 40
100.0000000000005
 50
332.0471134108617
 51
0.0
  0
ARC
  5
28E
  8
DATA
  6
CONTINUOUS
 62
     7
 10
-1658.4919999999991
 20
-1493.0879999999991
 30
0.0
 40
49.999999999999893
 50
152.04711341086141
 51
270.0
  0
CIRCLE
  5
28F
  8
DATA
  6
CONTINUOUS
 62
     7
 10
-1700.992
 20
-1581.588
 30
0.0
 40
7.0
  0
LINE
  5
290
  8
DATA
  6
CONTINUOUS
 62
     7
 10
-1704.992
 20
-1581.588
 30
0.0
 11
-1696.992
 21
-1581.588
 31
0.0
  0
LINE
  5
291
  8
DATA
  6
CONTINUOUS
 62
     7
 10
-1700.9919999999991
 20
-1585.588
 30
0.0
 11
-1700.9919999999991
 21
-1577.588
 31
0.0
  0
LINE
  5
292
  8
DATA
  6
CONTINUOUS
 62
     7
 10
-1685.5399999999991
 20
-1596.0879999999991
 30
0.0
 11
-1685.5399999999991
 21
-1593.088
 31
0.0
  0
LINE
  5
293
  8
DATA
  6
CONTINUOUS
 62
     7
 10
-984.44399999999962
 20
-1549.5879999999991
 30
0.0
 11
-984.44399999999962
 21
-1616.588
 31
0.0
  0
LINE
  5
294
  8
DATA
  6
CONTINUOUS
 62
     7
 10
-987.44399999999985
 20
-1549.5879999999991
 30
0.0
 11
-987.44399999999985
 21
-1613.588
 31
0.0
  0
LINE
  5
295
  8
DATA
  6
CONTINUOUS
 62
     7
 10
-987.44399999999985
 20
-1549.5879999999991
 30
0.0
 11
-984.44399999999962
 21
-1549.5879999999991
 31
0.0
  0
ARC
  5
296
  8
DATA
  6
CONTINUOUS
 62
     7
 10
-945.99200000000019
 20
-1422.7761944478621
 30
0.0
 40
100.0
 50
180.0
 51
207.9528865891385
  0
ARC
  5
297
  8
DATA
  6
CONTINUOUS
 62
     7
 10
-1078.492
 20
-1493.0879999999991
 30
0.0
 40
50.0
 50
270.0
 51
27.952886589138611
  0
CIRCLE
  5
298
  8
DATA
  6
CONTINUOUS
 62
     7
 10
-1035.992
 20
-1581.588
 30
0.0
 40
7.0
  0
LINE
  5
299
  8
DATA
  6
CONTINUOUS
 62
     7
 10
-1031.9919999999991
 20
-1581.588
 30
0.0
 11
-1039.9919999999991
 21
-1581.588
 31
0.0
  0
LINE
  5
29A
  8
DATA
  6
CONTINUOUS
 62
     7
 10
-1035.992
 20
-1585.588
 30
0.0
 11
-1035.992
 21
-1577.588
 31
0.0
  0
CIRCLE
  5
29B
  8
DATA
  6
CONTINUOUS
 62
     7
 10
-998.49200000000133
 20
-1558.059
 30
0.0
 40
7.0
  0
LINE
  5
29C
  8
DATA
  6
CONTINUOUS
 62
     7
 10
-994.49200000000008
 20
-1558.059
 30
0.0
 11
-1002.492
 21
-1558.059
 31
0.0
  0
LINE
  5
29D
  8
DATA
  6
CONTINUOUS
 62
     7
 10
-998.49200000000133
 20
-1562.059
 30
0.0
 11
-998.49200000000133
 21
-1554.059
 31
0.0
  0
LINE
  5
29E
  8
DATA
  6
CONTINUOUS
 62
     7
 10
-1051.444
 20
-1596.0879999999991
 30
0.0
 11
-1051.444
 21
-1593.088
 31
0.0
  0
LINE
  5
29F
  8
DATA
  6
CONTINUOUS
 62
     7
 10
-1051.444
 20
-1596.088
 30
0.0
 11
-987.44399999999985
 21
-1596.088
 31
0.0
  0
CIRCLE
  5
2A0
  8
DATA
  6
CONTINUOUS
 62
     7
 10
-998.49200000000019
 20
-978.00899999999967
 30
0.0
 40
7.0
  0
LINE
  5
2A1
  8
DATA
  6
CONTINUOUS
 62
     7
 10
-994.49200000000008
 20
-978.00899999999967
 30
0.0
 11
-1002.492
 21
-978.00899999999967
 31
0.0
  0
LINE
  5
2A2
  8
DATA
  6
CONTINUOUS
 62
     7
 10
-998.49200000000133
 20
-982.00900000000001
 30
0.0
 11
-998.49200000000133
 21
-974.00900000000001
 31
0.0
  0
CIRCLE
  5
2A3
  8
DATA
  6
CONTINUOUS
 62
     7
 10
-1266.8252999999991
 20
-954.98000000000013
 30
0.0
 40
7.0
  0
LINE
  5
2A4
  8
DATA
  6
CONTINUOUS
 62
     7
 10
-1262.8252999999991
 20
-954.98000000000013
 30
0.0
 11
-1270.8252999999991
 21
-954.98000000000013
 31
0.0
  0
LINE
  5
2A5
  8
DATA
  6
CONTINUOUS
 62
     7
 10
-1266.8252999999991
 20
-958.98000000000002
 30
0.0
 11
-1266.8252999999991
 21
-950.98000000000002
 31
0.0
  0
CIRCLE
  5
2A6
  8
DATA
  6
CONTINUOUS
 62
     7
 10
-1063.492
 20
-954.98000000000013
 30
0.0
 40
7.0
  0
LINE
  5
2A7
  8
DATA
  6
CONTINUOUS
 62
     7
 10
-1059.4919999999991
 20
-954.98000000000013
 30
0.0
 11
-1067.4919999999991
 21
-954.98000000000013
 31
0.0
  0
LINE
  5
2A8
  8
DATA
  6
CONTINUOUS
 62
     7
 10
-1063.492
 20
-958.98000000000002
 30
0.0
 11
-1063.492
 21
-950.98000000000002
 31
0.0
  0
ARC
  5
2A9
  8
DATA
  6
CONTINUOUS
 62
     7
 10
-1078.492
 20
-1042.98
 30
0.0
 40
49.999999999999893
 50
332.0471134108613
 51
89.999999999999957
  0
ARC
  5
2AA
  8
DATA
  6
CONTINUOUS
 62
     7
 10
-945.99200000000019
 20
-1113.2918055521379
 30
0.0
 40
99.999999999999787
 50
152.04711341086141
 51
180.0
  0
CIRCLE
  5
2AB
  8
DATA
  6
CONTINUOUS
 62
     7
 10
-1470.158699999999
 20
-954.98000000000013
 30
0.0
 40
7.0
  0
LINE
  5
2AC
  8
DATA
  6
CONTINUOUS
 62
     7
 10
-1474.1587
 20
-954.98000000000013
 30
0.0
 11
-1466.1587
 21
-954.98000000000013
 31
0.0
  0
LINE
  5
2AD
  8
DATA
  6
CONTINUOUS
 62
     7
 10
-1470.158699999999
 20
-958.98000000000002
 30
0.0
 11
-1470.158699999999
 21
-950.98000000000002
 31
0.0
  0
CIRCLE
  5
2AE
  8
DATA
  6
CONTINUOUS
 62
     7
 10
-1673.4919999999991
 20
-954.98000000000013
 30
0.0
 40
7.0
  0
LINE
  5
2AF
  8
DATA
  6
CONTINUOUS
 62
     7
 10
-1677.4919999999991
 20
-954.98000000000013
 30
0.0
 11
-1669.4919999999991
 21
-954.98000000000013
 31
0.0
  0
LINE
  5
2B0
  8
DATA
  6
CONTINUOUS
 62
     7
 10
-1673.4919999999991
 20
-958.98000000000002
 30
0.0
 11
-1673.4919999999991
 21
-950.98000000000002
 31
0.0
  0
ARC
  5
2B1
  8
DATA
  6
CONTINUOUS
 62
     7
 10
-1790.992
 20
-1113.291805552137
 30
0.0
 40
100.0
 50
0.0
 51
27.95288658913837
  0
ARC
  5
2B2
  8
DATA
  6
CONTINUOUS
 62
     7
 10
-1658.4919999999991
 20
-1042.98
 30
0.0
 40
50.0
 50
90.0
 51
207.95288658913859
  0
CIRCLE
  5
2B3
  8
DATA
  6
CONTINUOUS
 62
     7
 10
-1738.4919999999991
 20
-978.00899999999967
 30
0.0
 40
7.0
  0
LINE
  5
2B4
  8
DATA
  6
CONTINUOUS
 62
     7
 10
-1742.4919999999991
 20
-978.00899999999967
 30
0.0
 11
-1734.4919999999991
 21
-978.00899999999967
 31
0.0
  0
LINE
  5
2B5
  8
DATA
  6
CONTINUOUS
 62
     7
 10
-1738.4919999999979
 20
-982.00900000000001
 30
0.0
 11
-1738.4919999999979
 21
-974.00900000000001
 31
0.0
  0
ARC
  5
2B6
  8
DATA
  6
CONTINUOUS
 62
     7
 10
-1368.492000000002
 20
3207.0200000001792
 30
0.0
 40
4210.0000000001792
 50
266.05013197823632
 51
273.94986802176379
  0
CIRCLE
  5
2B7
  8
DATA
  6
CONTINUOUS
 62
     7
 10
-1738.4919999999991
 20
-1268.0340000000001
 30
0.0
 40
7.0
  0
LINE
  5
2B8
  8
DATA
  6
CONTINUOUS
 62
     7
 10
-1742.4919999999991
 20
-1268.0340000000001
 30
0.0
 11
-1734.4919999999991
 21
-1268.0340000000001
 31
0.0
  0
LINE
  5
2B9
  8
DATA
  6
CONTINUOUS
 62
     7
 10
-1738.4919999999979
 20
-1272.0340000000001
 30
0.0
 11
-1738.4919999999979
 21
-1264.0340000000001
 31
0.0
  0
CIRCLE
  5
2BA
  8
DATA
  6
CONTINUOUS
 62
     7
 10
-998.49200000000133
 20
-1268.0340000000001
 30
0.0
 40
7.0
  0
LINE
  5
2BB
  8
DATA
  6
CONTINUOUS
 62
     7
 10
-994.49200000000008
 20
-1268.0340000000001
 30
0.0
 11
-1002.492
 21
-1268.0340000000001
 31
0.0
  0
LINE
  5
2BC
  8
DATA
  6
CONTINUOUS
 62
     7
 10
-998.49200000000133
 20
-1272.0340000000001
 30
0.0
 11
-998.49200000000133
 21
-1264.0340000000001
 31
0.0
  0
CIRCLE
  5
2BD
  8
DATA
  6
CONTINUOUS
 62
     7
 10
-1368.492
 20
-1173.0340000000001
 30
0.0
 40
70.0
  0
CIRCLE
  5
2BE
  8
DATA
  6
CONTINUOUS
 62
     7
 10
-1368.492
 20
-1173.0340000000001
 30
0.0
 40
55.0
  0
LINE
  5
2BF
  8
DATA
  6
CONTINUOUS
 62
     7
 10
-1458.4919999999991
 20
-1268.0340000000001
 30
0.0
 11
-1278.492
 21
-1268.0340000000001
 31
0.0
  0
LINE
  5
2C0
  8
DATA
  6
CONTINUOUS
 62
     7
 10
-1690.992
 20
-1113.291805552137
 30
0.0
 11
-1690.9919999999991
 21
-1422.7761944478621
 31
0.0
  0
LINE
  5
2C1
  8
DATA
  6
CONTINUOUS
 62
     7
 10
-1045.9919999999991
 20
-1422.7761944478621
 30
0.0
 11
-1045.9919999999991
 21
-1113.2918055521379
 31
0.0
  0
CIRCLE
  5
2C2
  8
DATA
  6
CONTINUOUS
 62
     7
 10
-998.49200000000019
 20
-749.00900000000001
 30
0.0
 40
7.0
  0
LINE
  5
2C3
  8
DATA
  6
CONTINUOUS
 62
     7
 10
-1118.4919999999991
 20
-901.98000000000002
 30
0.0
 11
-1618.4919999999991
 21
-901.98000000000002
 31
0.0
  0
CIRCLE
  5
2C4
  8
DATA
  6
CONTINUOUS
 62
     7
 10
-1368.4919999999991
 20
-927.97999999999956
 30
0.0
 40
7.0
  0
LINE
  5
2C5
  8
DATA
  6
CONTINUOUS
 62
     7
 10
-1710.492
 20
-942.98000000000002
 30
0.0
 11
-1710.492
 21
-942.53800000000069
 31
0.0
  0
LINE
  5
2C6
  8
DATA
  6
CONTINUOUS
 62
     7
 10
-1730.1839999999991
 20
-942.98000000000002
 30
0.0
 11
-1730.1839999999991
 21
-942.53800000000069
 31
0.0
  0
ARC
  5
2C7
  8
DATA
  6
CONTINUOUS
 62
     7
 10
-1618.4919999999991
 20
-851.98000000000025
 30
0.0
 40
50.0
 50
180.0
 51
270.0
  0
LINE
  5
2C8
  8
DATA
  6
CONTINUOUS
 62
     7
 10
-1673.4919999999991
 20
-931.98000000000002
 30
0.0
 11
-1673.4919999999991
 21
-923.98000000000002
 31
0.0
  0
LINE
  5
2C9
  8
DATA
  6
CONTINUOUS
 62
     7
 10
-1677.4919999999991
 20
-927.97999999999956
 30
0.0
 11
-1669.4919999999991
 21
-927.97999999999956
 31
0.0
  0
CIRCLE
  5
2CA
  8
DATA
  6
CONTINUOUS
 62
     7
 10
-1673.4919999999991
 20
-927.97999999999956
 30
0.0
 40
7.0
  0
LINE
  5
2CB
  8
DATA
  6
CONTINUOUS
 62
     7
 10
-1520.9919999999991
 20
-931.98000000000002
 30
0.0
 11
-1520.9919999999991
 21
-923.98000000000002
 31
0.0
  0
LINE
  5
2CC
  8
DATA
  6
CONTINUOUS
 62
     7
 10
-1524.9919999999991
 20
-927.97999999999956
 30
0.0
 11
-1516.9919999999991
 21
-927.97999999999956
 31
0.0
  0
CIRCLE
  5
2CD
  8
DATA
  6
CONTINUOUS
 62
     7
 10
-1520.9919999999991
 20
-927.97999999999956
 30
0.0
 40
7.0
  0
LINE
  5
2CE
  8
DATA
  6
CONTINUOUS
 62
     7
 10
-1738.4919999999979
 20
-905.00899999999967
 30
0.0
 11
-1738.4919999999979
 21
-897.00899999999945
 31
0.0
  0
LINE
  5
2CF
  8
DATA
  6
CONTINUOUS
 62
     7
 10
-1742.4919999999991
 20
-901.0089999999999
 30
0.0
 11
-1734.4919999999991
 21
-901.0089999999999
 31
0.0
  0
CIRCLE
  5
2D0
  8
DATA
  6
CONTINUOUS
 62
     7
 10
-1738.4919999999991
 20
-901.0089999999999
 30
0.0
 40
7.0
  0
LINE
  5
2D1
  8
DATA
  6
CONTINUOUS
 62
     7
 10
-1738.4919999999979
 20
-753.00899999999945
 30
0.0
 11
-1738.4919999999979
 21
-745.00899999999945
 31
0.0
  0
LINE
  5
2D2
  8
DATA
  6
CONTINUOUS
 62
     7
 10
-1742.4919999999991
 20
-749.00900000000001
 30
0.0
 11
-1734.4919999999991
 21
-749.00900000000001
 31
0.0
  0
CIRCLE
  5
2D3
  8
DATA
  6
CONTINUOUS
 62
     7
 10
-1738.4919999999991
 20
-749.00900000000001
 30
0.0
 40
7.0
  0
LINE
  5
2D4
  8
DATA
  6
CONTINUOUS
 62
     7
 10
-1026.492
 20
-942.98000000000002
 30
0.0
 11
-1026.492
 21
-942.53800000000069
 31
0.0
  0
LINE
  5
2D5
  8
DATA
  6
CONTINUOUS
 62
     7
 10
-1006.799999999999
 20
-942.97999999999956
 30
0.0
 11
-1006.799999999999
 21
-942.53800000000069
 31
0.0
  0
ARC
  5
2D6
  8
DATA
  6
CONTINUOUS
 62
     7
 10
-1118.4919999999991
 20
-851.98000000000025
 30
0.0
 40
50.0
 50
270.0
 51
0.0
  0
LINE
  5
2D7
  8
DATA
  6
CONTINUOUS
 62
     7
 10
-1063.492
 20
-931.98000000000002
 30
0.0
 11
-1063.492
 21
-923.98000000000002
 31
0.0
  0
LINE
  5
2D8
  8
DATA
  6
CONTINUOUS
 62
     7
 10
-1059.4919999999991
 20
-927.97999999999956
 30
0.0
 11
-1067.4919999999991
 21
-927.97999999999956
 31
0.0
  0
CIRCLE
  5
2D9
  8
DATA
  6
CONTINUOUS
 62
     7
 10
-1063.492
 20
-927.97999999999956
 30
0.0
 40
7.0
  0
LINE
  5
2DA
  8
DATA
  6
CONTINUOUS
 62
     7
 10
-1368.4919999999991
 20
-931.98000000000002
 30
0.0
 11
-1368.4919999999991
 21
-923.98000000000002
 31
0.0
  0
LINE
  5
2DB
  8
DATA
  6
CONTINUOUS
 62
     7
 10
-1372.4919999999991
 20
-927.97999999999956
 30
0.0
 11
-1364.4919999999991
 21
-927.97999999999956
 31
0.0
  0
LINE
  5
2DC
  8
DATA
  6
CONTINUOUS
 62
     7
 10
-1215.9919999999979
 20
-931.98000000000002
 30
0.0
 11
-1215.9919999999979
 21
-923.98000000000002
 31
0.0
  0
LINE
  5
2DD
  8
DATA
  6
CONTINUOUS
 62
     7
 10
-1219.9919999999991
 20
-927.97999999999956
 30
0.0
 11
-1211.9919999999979
 21
-927.97999999999956
 31
0.0
  0
CIRCLE
  5
2DE
  8
DATA
  6
CONTINUOUS
 62
     7
 10
-1215.9919999999991
 20
-927.97999999999956
 30
0.0
 40
7.0
  0
LINE
  5
2DF
  8
DATA
  6
CONTINUOUS
 62
     7
 10
-998.49200000000019
 20
-905.00899999999967
 30
0.0
 11
-998.49200000000019
 21
-897.00899999999945
 31
0.0
  0
LINE
  5
2E0
  8
DATA
  6
CONTINUOUS
 62
     7
 10
-994.49200000000008
 20
-901.0089999999999
 30
0.0
 11
-1002.492
 21
-901.0089999999999
 31
0.0
  0
CIRCLE
  5
2E1
  8
DATA
  6
CONTINUOUS
 62
     7
 10
-998.49200000000019
 20
-901.0089999999999
 30
0.0
 40
7.0
  0
LINE
  5
2E2
  8
DATA
  6
CONTINUOUS
 62
     7
 10
-998.49200000000019
 20
-753.00899999999945
 30
0.0
 11
-998.49200000000019
 21
-745.00899999999945
 31
0.0
  0
LINE
  5
2E3
  8
DATA
  6
CONTINUOUS
 62
     7
 10
-994.49200000000008
 20
-749.00900000000001
 30
0.0
 11
-1002.492
 21
-749.00900000000001
 31
0.0
  0
LINE
  5
2E4
  8
DATA
  6
CONTINUOUS
 62
     7
 10
-1618.4919999999991
 20
-601.97999999999945
 30
0.0
 11
-1118.4919999999991
 21
-601.98000000000002
 31
0.0
  0
ARC
  5
2E5
  8
DATA
  6
CONTINUOUS
 62
     7
 10
-1618.4919999999991
 20
-651.97999999999945
 30
0.0
 40
50.0
 50
90.0
 51
180.0
  0
LINE
  5
2E6
  8
DATA
  6
CONTINUOUS
 62
     7
 10
-1738.4919999999979
 20
-601.00900000000058
 30
0.0
 11
-1738.4919999999979
 21
-593.0089999999999
 31
0.0
  0
LINE
  5
2E7
  8
DATA
  6
CONTINUOUS
 62
     7
 10
-1742.4919999999991
 20
-597.00899999999967
 30
0.0
 11
-1734.4919999999991
 21
-597.00899999999967
 31
0.0
  0
CIRCLE
  5
2E8
  8
DATA
  6
CONTINUOUS
 62
     7
 10
-1738.4919999999991
 20
-597.00899999999967
 30
0.0
 40
7.0
  0
ARC
  5
2E9
  8
DATA
  6
CONTINUOUS
 62
     7
 10
-1118.4919999999991
 20
-651.98000000000002
 30
0.0
 40
50.0
 50
0.0
 51
90.0
  0
LINE
  5
2EA
  8
DATA
  6
CONTINUOUS
 62
     7
 10
-998.49200000000019
 20
-601.00900000000058
 30
0.0
 11
-998.49200000000019
 21
-593.0089999999999
 31
0.0
  0
LINE
  5
2EB
  8
DATA
  6
CONTINUOUS
 62
     7
 10
-994.49200000000008
 20
-597.00899999999967
 30
0.0
 11
-1002.492
 21
-597.00899999999967
 31
0.0
  0
CIRCLE
  5
2EC
  8
DATA
  6
CONTINUOUS
 62
     7
 10
-998.49200000000019
 20
-597.00899999999967
 30
0.0
 40
7.0
  0
LINE
  5
2ED
  8
DATA
  6
CONTINUOUS
 62
     7
 10
-1073.2802689364339
 20
269.00000000005639
 30
0.0
 11
-984.44399999999962
 21
269.00000000005639
 31
0.0
  0
LINE
  5
2EE
  8
DATA
  6
CONTINUOUS
 62
     7
 10
-984.44399999999962
 20
269.00000000005639
 30
0.0
 11
-984.44399999999962
 21
334.00000000005639
 31
0.0
  0
LINE
  5
2EF
  8
DATA
  6
CONTINUOUS
 62
     7
 10
-987.99999999999909
 20
242.0000000000573
 30
0.0
 11
-987.99999999999909
 21
264.20000000005712
 31
0.0
  0
LINE
  5
2F0
  8
DATA
  6
CONTINUOUS
 62
     7
 10
-986.98399999999833
 20
250.0
 30
0.0
 11
-986.98399999999833
 21
269.00000000005639
 31
0.0
  0
LINE
  5
2F1
  8
DATA
  6
CONTINUOUS
 62
     7
 10
-986.98399999999833
 20
250.0
 30
0.0
 11
-987.99999999999909
 21
250.0
 31
0.0
  0
LINE
  5
2F2
  8
DATA
  6
CONTINUOUS
 62
     7
 10
-1749.9999999999991
 20
701.61200000000008
 30
0.0
 11
-986.98399999999936
 21
701.61200000000008
 31
0.0
  0
LINE
  5
2F3
  8
DATA
  6
CONTINUOUS
 62
     7
 10
-1495.992
 20
649.64081619611625
 30
0.0
 11
-1496.992
 21
649.64081619611625
 31
0.0
  0
LINE
  5
2F4
  8
DATA
  6
CONTINUOUS
 62
     7
 10
-1495.992
 20
641.64081619611727
 30
0.0
 11
-1496.992
 21
641.64081619611727
 31
0.0
  0
LINE
  5
2F5
  8
DATA
  6
CONTINUOUS
 62
     7
 10
-1495.992
 20
649.64081619611625
 30
0.0
 11
-1495.992
 21
641.64081619611727
 31
0.0
  0
LINE
  5
2F6
  8
DATA
  6
CONTINUOUS
 62
     7
 10
-1503.7919999999999
 20
649.26581619611625
 30
0.0
 11
-1496.992
 21
649.26581619611625
 31
0.0
  0
LINE
  5
2F7
  8
DATA
  6
CONTINUOUS
 62
     7
 10
-1503.7919999999999
 20
642.01581619611727
 30
0.0
 11
-1496.992
 21
642.01581619611727
 31
0.0
  0
LINE
  5
2F8
  8
DATA
  6
CONTINUOUS
 62
     7
 10
-1496.992
 20
638.39081619611625
 30
0.0
 11
-1503.7919999999999
 21
638.39081619611625
 31
0.0
  0
LINE
  5
2F9
  8
DATA
  6
CONTINUOUS
 62
     7
 10
-1496.992
 20
652.89081619611716
 30
0.0
 11
-1503.791999999999
 21
652.89081619611716
 31
0.0
  0
LINE
  5
2FA
  8
DATA
  6
CONTINUOUS
 62
     7
 10
-1503.791999999999
 20
654.39081619611625
 30
0.0
 11
-1504.9919999999991
 21
654.39081619611625
 31
0.0
  0
LINE
  5
2FB
  8
DATA
  6
CONTINUOUS
 62
     7
 10
-1503.7919999999999
 20
636.89081619611795
 30
0.0
 11
-1504.9919999999991
 21
636.89081619611795
 31
0.0
  0
LINE
  5
2FC
  8
DATA
  6
CONTINUOUS
 62
     7
 10
-1503.7919999999999
 20
636.89081619611795
 30
0.0
 11
-1503.791999999999
 21
654.39081619611625
 31
0.0
  0
LINE
  5
2FD
  8
DATA
  6
CONTINUOUS
 62
     7
 10
-1496.992
 20
652.89081619611716
 30
0.0
 11
-1496.992
 21
638.39081619611625
 31
0.0
  0
LINE
  5
2FE
  8
DATA
  6
CONTINUOUS
 62
     7
 10
-1516.9919999999979
 20
642.01581619611727
 30
0.0
 11
-1512.1919999999991
 21
642.01581619611727
 31
0.0
  0
LINE
  5
2FF
  8
DATA
  6
CONTINUOUS
 62
     7
 10
-1516.9919999999979
 20
649.26581619611625
 30
0.0
 11
-1512.1919999999991
 21
649.26581619611625
 31
0.0
  0
LINE
  5
300
  8
DATA
  6
CONTINUOUS
 62
     7
 10
-1512.1919999999991
 20
654.39081619611716
 30
0.0
 11
-1510.9919999999991
 21
654.39081619611716
 31
0.0
  0
LINE
  5
301
  8
DATA
  6
CONTINUOUS
 62
     7
 10
-1516.9919999999979
 20
652.89081619611716
 30
0.0
 11
-1512.1919999999991
 21
652.89081619611716
 31
0.0
  0
LINE
  5
302
  8
DATA
  6
CONTINUOUS
 62
     7
 10
-1516.9919999999979
 20
638.39081619611625
 30
0.0
 11
-1512.1919999999991
 21
638.39081619611625
 31
0.0
  0
LINE
  5
303
  8
DATA
  6
CONTINUOUS
 62
     7
 10
-1512.1919999999991
 20
636.89081619611716
 30
0.0
 11
-1510.9919999999991
 21
636.89081619611716
 31
0.0
  0
LINE
  5
304
  8
DATA
  6
CONTINUOUS
 62
     7
 10
-1512.1919999999991
 20
654.39081619611716
 30
0.0
 11
-1512.1919999999991
 21
636.89081619611716
 31
0.0
  0
LINE
  5
305
  8
DATA
  6
CONTINUOUS
 62
     7
 10
-1516.9919999999979
 20
652.89081619611716
 30
0.0
 11
-1516.9919999999979
 21
638.39081619611625
 31
0.0
  0
LINE
  5
306
  8
DATA
  6
CONTINUOUS
 62
     7
 10
-1240.9919999999979
 20
649.64081619611625
 30
0.0
 11
-1239.9919999999979
 21
649.64081619611625
 31
0.0
  0
LINE
  5
307
  8
DATA
  6
CONTINUOUS
 62
     7
 10
-1240.9919999999979
 20
641.64081619611727
 30
0.0
 11
-1239.9919999999979
 21
641.64081619611727
 31
0.0
  0
LINE
  5
308
  8
DATA
  6
CONTINUOUS
 62
     7
 10
-1240.9919999999979
 20
649.64081619611625
 30
0.0
 11
-1240.9919999999979
 21
641.64081619611727
 31
0.0
  0
LINE
  5
309
  8
DATA
  6
CONTINUOUS
 62
     7
 10
-1233.191999999998
 20
649.26581619611625
 30
0.0
 11
-1239.9919999999979
 21
649.26581619611625
 31
0.0
  0
LINE
  5
30A
  8
DATA
  6
CONTINUOUS
 62
     7
 10
-1233.191999999998
 20
642.01581619611727
 30
0.0
 11
-1239.9919999999979
 21
642.01581619611727
 31
0.0
  0
LINE
  5
30B
  8
DATA
  6
CONTINUOUS
 62
     7
 10
-1239.9919999999979
 20
638.39081619611625
 30
0.0
 11
-1233.191999999998
 21
638.39081619611625
 31
0.0
  0
LINE
  5
30C
  8
DATA
  6
CONTINUOUS
 62
     7
 10
-1239.9919999999979
 20
652.89081619611716
 30
0.0
 11
-1233.1919999999991
 21
652.89081619611716
 31
0.0
  0
LINE
  5
30D
  8
DATA
  6
CONTINUOUS
 62
     7
 10
-1233.1919999999991
 20
654.39081619611625
 30
0.0
 11
-1231.9919999999991
 21
654.39081619611625
 31
0.0
  0
LINE
  5
30E
  8
DATA
  6
CONTINUOUS
 62
     7
 10
-1233.191999999998
 20
636.89081619611795
 30
0.0
 11
-1231.9919999999991
 21
636.89081619611795
 31
0.0
  0
LINE
  5
30F
  8
DATA
  6
CONTINUOUS
 62
     7
 10
-1233.191999999998
 20
636.89081619611795
 30
0.0
 11
-1233.1919999999991
 21
654.39081619611625
 31
0.0
  0
LINE
  5
310
  8
DATA
  6
CONTINUOUS
 62
     7
 10
-1239.9919999999979
 20
652.89081619611716
 30
0.0
 11
-1239.9919999999979
 21
638.39081619611625
 31
0.0
  0
LINE
  5
311
  8
DATA
  6
CONTINUOUS
 62
     7
 10
-1219.992
 20
642.01581619611727
 30
0.0
 11
-1224.791999999999
 21
642.01581619611727
 31
0.0
  0
LINE
  5
312
  8
DATA
  6
CONTINUOUS
 62
     7
 10
-1219.992
 20
649.26581619611625
 30
0.0
 11
-1224.791999999999
 21
649.26581619611625
 31
0.0
  0
LINE
  5
313
  8
DATA
  6
CONTINUOUS
 62
     7
 10
-1224.791999999999
 20
654.39081619611716
 30
0.0
 11
-1225.992
 21
654.39081619611716
 31
0.0
  0
LINE
  5
314
  8
DATA
  6
CONTINUOUS
 62
     7
 10
-1219.992
 20
652.89081619611716
 30
0.0
 11
-1224.791999999999
 21
652.89081619611716
 31
0.0
  0
LINE
  5
315
  8
DATA
  6
CONTINUOUS
 62
     7
 10
-1219.992
 20
638.39081619611625
 30
0.0
 11
-1224.791999999999
 21
638.39081619611625
 31
0.0
  0
LINE
  5
316
  8
DATA
  6
CONTINUOUS
 62
     7
 10
-1224.791999999999
 20
636.89081619611716
 30
0.0
 11
-1225.992
 21
636.89081619611716
 31
0.0
  0
LINE
  5
317
  8
DATA
  6
CONTINUOUS
 62
     7
 10
-1224.791999999999
 20
654.39081619611716
 30
0.0
 11
-1224.791999999999
 21
636.89081619611716
 31
0.0
  0
LINE
  5
318
  8
DATA
  6
CONTINUOUS
 62
     7
 10
-1219.992
 20
652.89081619611716
 30
0.0
 11
-1219.992
 21
638.39081619611625
 31
0.0
  0
LINE
  5
319
  8
DATA
  6
CONTINUOUS
 62
     7
 10
-1228.9919999999991
 20
581.70509912591376
 30
0.0
 11
-1228.9919999999991
 21
688.99999999999898
 31
0.0
  0
LINE
  5
31A
  8
DATA
  6
CONTINUOUS
 62
     7
 10
-1228.9919999999991
 20
562.00000000007719
 30
0.0
 11
-1228.9919999999991
 21
578.70509912591376
 31
0.0
  0
LINE
  5
31B
  8
DATA
  6
CONTINUOUS
 62
     7
 10
-1231.9919999999991
 20
581.70509912591376
 30
0.0
 11
-1231.9919999999991
 21
688.99999999999898
 31
0.0
  0
LINE
  5
31C
  8
DATA
  6
CONTINUOUS
 62
     7
 10
-1231.9919999999991
 20
562.00000000007719
 30
0.0
 11
-1231.9919999999991
 21
578.70509912591376
 31
0.0
  0
LINE
  5
31D
  8
DATA
  6
CONTINUOUS
 62
     7
 10
-1253.9919999999991
 20
581.70509912591467
 30
0.0
 11
-1228.992
 21
581.70509912591376
 31
0.0
  0
LINE
  5
31E
  8
DATA
  6
CONTINUOUS
 62
     7
 10
-1250.9919999999991
 20
578.70509912591478
 30
0.0
 11
-1225.992
 21
578.70509912591376
 31
0.0
  0
LINE
  5
31F
  8
DATA
  6
CONTINUOUS
 62
     7
 10
-1225.992
 20
578.70509912591285
 30
0.0
 11
-1225.992
 21
665.63708434485852
 31
0.0
  0
LINE
  5
320
  8
DATA
  6
CONTINUOUS
 62
     7
 10
-1228.992
 20
665.63708434485852
 30
0.0
 11
-1225.992
 21
665.63708434485852
 31
0.0
  0
LINE
  5
321
  8
DATA
  6
CONTINUOUS
 62
     7
 10
-1507.9919999999991
 20
581.70509912591376
 30
0.0
 11
-1507.9919999999991
 21
688.99999999999898
 31
0.0
  0
LINE
  5
322
  8
DATA
  6
CONTINUOUS
 62
     7
 10
-1507.9919999999991
 20
562.00000000003365
 30
0.0
 11
-1507.9919999999991
 21
578.70509912591376
 31
0.0
  0
LINE
  5
323
  8
DATA
  6
CONTINUOUS
 62
     7
 10
-1504.9919999999979
 20
581.70509912591376
 30
0.0
 11
-1504.9919999999979
 21
688.99999999999898
 31
0.0
  0
LINE
  5
324
  8
DATA
  6
CONTINUOUS
 62
     7
 10
-1504.9919999999979
 20
562.00000000003365
 30
0.0
 11
-1504.9919999999979
 21
578.70509912591376
 31
0.0
  0
LINE
  5
325
  8
DATA
  6
CONTINUOUS
 62
     7
 10
-1510.9919999999991
 20
578.70509912591376
 30
0.0
 11
-1510.9919999999991
 21
665.63708434485943
 31
0.0
  0
LINE
  5
326
  8
DATA
  6
CONTINUOUS
 62
     7
 10
-1510.9919999999991
 20
578.70509912591376
 30
0.0
 11
-1485.9919999999991
 21
578.70509912591478
 31
0.0
  0
LINE
  5
327
  8
DATA
  6
CONTINUOUS
 62
     7
 10
-1507.9919999999991
 20
581.70509912591376
 30
0.0
 11
-1482.9919999999991
 21
581.70509912591467
 31
0.0
  0
LINE
  5
328
  8
DATA
  6
CONTINUOUS
 62
     7
 10
-1510.9919999999991
 20
665.63708434485943
 30
0.0
 11
-1507.9919999999991
 21
665.63708434485943
 31
0.0
  0
LINE
  5
329
  8
DATA
  6
CONTINUOUS
 62
     7
 10
-1507.9919999999991
 20
689.00000000002001
 30
0.0
 11
-1228.9919999999991
 21
688.99999999997817
 31
0.0
  0
LINE
  5
32A
  8
DATA
  6
CONTINUOUS
 62
     7
 10
-1231.9919999999991
 20
562.00000000007628
 30
0.0
 11
-1228.9919999999991
 21
562.00000000007628
 31
0.0
  0
LINE
  5
32B
  8
DATA
  6
CONTINUOUS
 62
     7
 10
-1504.9919999999979
 20
562.00000000003365
 30
0.0
 11
-1507.9919999999979
 21
562.00000000003365
 31
0.0
  0
LINE
  5
32C
  8
DATA
  6
CONTINUOUS
 62
     7
 10
-1253.9919999999991
 20
512.86867840617742
 30
0.0
 11
-1253.9919999999991
 21
650.99999999999909
 31
0.0
  0
LINE
  5
32D
  8
DATA
  6
CONTINUOUS
 62
     7
 10
-1250.9919999999991
 20
512.86867840617833
 30
0.0
 11
-1250.9919999999991
 21
578.70509912591478
 31
0.0
  0
LINE
  5
32E
  8
DATA
  6
CONTINUOUS
 62
     7
 10
-1250.9919999999991
 20
512.86867840617742
 30
0.0
 11
-1253.9919999999991
 21
512.86867840617742
 31
0.0
  0
ARC
  5
32F
  8
DATA
  6
CONTINUOUS
 62
     7
 10
-1263.9919999999991
 20
519.11699999999917
 30
0.0
 40
10.0
 50
270.0
 51
0.0
  0
LINE
  5
330
  8
DATA
  6
CONTINUOUS
 62
     7
 10
-1342.0417311902311
 20
509.11699999999911
 30
0.0
 11
-1263.9919999999991
 21
509.11699999999911
 31
0.0
  0
ARC
  5
331
  8
DATA
  6
CONTINUOUS
 62
     7
 10
-1263.9919999999991
 20
650.99999999999909
 30
0.0
 40
10.0
 50
0.0
 51
90.0
  0
LINE
  5
332
  8
DATA
  6
CONTINUOUS
 62
     7
 10
-1342.0417311902311
 20
499.73543642353172
 30
0.0
 11
-1342.041731190229
 21
539.14056243739924
 31
0.0
  0
LINE
  5
333
  8
DATA
  6
CONTINUOUS
 62
     7
 10
-1482.9919999999991
 20
512.86867840617742
 30
0.0
 11
-1482.9919999999991
 21
650.99999999999909
 31
0.0
  0
LINE
  5
334
  8
DATA
  6
CONTINUOUS
 62
     7
 10
-1485.9919999999991
 20
512.86867840617833
 30
0.0
 11
-1485.9919999999991
 21
578.70509912591478
 31
0.0
  0
LINE
  5
335
  8
DATA
  6
CONTINUOUS
 62
     7
 10
-1485.9919999999991
 20
512.86867840617742
 30
0.0
 11
-1482.9919999999991
 21
512.86867840617742
 31
0.0
  0
ARC
  5
336
  8
DATA
  6
CONTINUOUS
 62
     7
 10
-1472.9919999999991
 20
519.11699999999917
 30
0.0
 40
10.0
 50
180.0
 51
270.0
  0
LINE
  5
337
  8
DATA
  6
CONTINUOUS
 62
     7
 10
-1472.9919999999991
 20
509.11699999999911
 30
0.0
 11
-1394.9422688097691
 21
509.11699999999911
 31
0.0
  0
ARC
  5
338
  8
DATA
  6
CONTINUOUS
 62
     7
 10
-1472.9919999999991
 20
650.99999999999909
 30
0.0
 40
10.0
 50
90.0
 51
180.0
  0
LINE
  5
339
  8
DATA
  6
CONTINUOUS
 62
     7
 10
-1394.9422688097691
 20
499.73543642353252
 30
0.0
 11
-1394.9422688097691
 21
539.14056243739742
 31
0.0
  0
LINE
  5
33A
  8
DATA
  6
CONTINUOUS
 62
     7
 10
-1472.9919999999991
 20
660.9999999999992
 30
0.0
 11
-1263.9919999999991
 21
660.9999999999992
 31
0.0
  0
LINE
  5
33B
  8
DATA
  6
CONTINUOUS
 62
     7
 10
-1394.9422688097691
 20
539.14056243739742
 30
0.0
 11
-1342.041731190229
 21
539.14056243739924
 31
0.0
  0
LINE
  5
33C
  8
DATA
  6
CONTINUOUS
 62
     7
 10
-1369.9919999999991
 20
671.0
 30
0.0
 11
-1369.9919999999991
 21
672.9999999999992
 31
0.0
  0
LINE
  5
33D
  8
DATA
  6
CONTINUOUS
 62
     7
 10
-1366.992
 20
673.0000000000008
 30
0.0
 11
-1366.992
 21
671.0
 31
0.0
  0
LINE
  5
33E
  8
DATA
  6
CONTINUOUS
 62
     7
 10
-1358.9919999999991
 20
673.0
 30
0.0
 11
-1366.992
 21
673.0
 31
0.0
  0
LINE
  5
33F
  8
DATA
  6
CONTINUOUS
 62
     7
 10
-1358.9919999999991
 20
671.0
 30
0.0
 11
-1358.9919999999991
 21
672.9999999999992
 31
0.0
  0
ARC
  5
340
  8
DATA
  6
CONTINUOUS
 62
     7
 10
-1362.9919999999991
 20
672.45000000000073
 30
0.0
 40
3.0499999999989731
 50
10.38885781545925
 51
169.61114218454281
  0
LINE
  5
341
  8
DATA
  6
CONTINUOUS
 62
     7
 10
-1367.492
 20
678.9999999999992
 30
0.0
 11
-1369.4919999999991
 21
678.9999999999992
 31
0.0
  0
LINE
  5
342
  8
DATA
  6
CONTINUOUS
 62
     7
 10
-1356.492
 20
678.9999999999992
 30
0.0
 11
-1358.4919999999991
 21
678.9999999999992
 31
0.0
  0
LINE
  5
343
  8
DATA
  6
CONTINUOUS
 62
     7
 10
-1358.4919999999991
 20
671.0
 30
0.0
 11
-1367.492
 21
671.0
 31
0.0
  0
LINE
  5
344
  8
DATA
  6
CONTINUOUS
 62
     7
 10
-1346.492
 20
671.0
 30
0.0
 11
-1356.492
 21
671.0
 31
0.0
  0
LINE
  5
345
  8
DATA
  6
CONTINUOUS
 62
     7
 10
-1369.4919999999991
 20
679.0
 30
0.0
 11
-1369.4919999999991
 21
660.9999999999992
 31
0.0
  0
LINE
  5
346
  8
DATA
  6
CONTINUOUS
 62
     7
 10
-1367.492
 20
679.0
 30
0.0
 11
-1367.492
 21
660.9999999999992
 31
0.0
  0
LINE
  5
347
  8
DATA
  6
CONTINUOUS
 62
     7
 10
-1358.4919999999991
 20
679.0
 30
0.0
 11
-1358.4919999999991
 21
660.9999999999992
 31
0.0
  0
LINE
  5
348
  8
DATA
  6
CONTINUOUS
 62
     7
 10
-1356.492
 20
679.0
 30
0.0
 11
-1356.492
 21
660.9999999999992
 31
0.0
  0
LINE
  5
349
  8
DATA
  6
CONTINUOUS
 62
     7
 10
-1346.492
 20
660.9999999999992
 30
0.0
 11
-1346.4920000000011
 21
670.99999999999909
 31
0.0
  0
LINE
  5
34A
  8
DATA
  6
CONTINUOUS
 62
     7
 10
-1377.992
 20
673.0000000000008
 30
0.0
 11
-1377.992
 21
671.0
 31
0.0
  0
LINE
  5
34B
  8
DATA
  6
CONTINUOUS
 62
     7
 10
-1378.492
 20
678.9999999999992
 30
0.0
 11
-1380.4919999999991
 21
678.9999999999992
 31
0.0
  0
LINE
  5
34C
  8
DATA
  6
CONTINUOUS
 62
     7
 10
-1380.4919999999991
 20
670.99999999999909
 30
0.0
 11
-1390.4919999999991
 21
670.99999999999909
 31
0.0
  0
LINE
  5
34D
  8
DATA
  6
CONTINUOUS
 62
     7
 10
-1380.4919999999991
 20
679.0
 30
0.0
 11
-1380.4919999999991
 21
660.9999999999992
 31
0.0
  0
LINE
  5
34E
  8
DATA
  6
CONTINUOUS
 62
     7
 10
-1378.492
 20
679.0
 30
0.0
 11
-1378.492
 21
660.9999999999992
 31
0.0
  0
LINE
  5
34F
  8
DATA
  6
CONTINUOUS
 62
     7
 10
-1390.4919999999991
 20
671.0
 30
0.0
 11
-1390.4919999999991
 21
661.15873712978271
 31
0.0
  0
LINE
  5
350
  8
DATA
  6
CONTINUOUS
 62
     7
 10
-1369.9919999999991
 20
673.0
 30
0.0
 11
-1377.992
 21
673.0
 31
0.0
  0
ARC
  5
351
  8
DATA
  6
CONTINUOUS
 62
     7
 10
-1373.992
 20
672.45000000000073
 30
0.0
 40
3.0499999999998679
 50
10.38885781545617
 51
169.61114218454171
  0
LINE
  5
352
  8
DATA
  6
CONTINUOUS
 62
     7
 10
-1369.4919999999991
 20
671.0
 30
0.0
 11
-1378.492
 21
671.0
 31
0.0
  0
LINE
  5
353
  8
DATA
  6
CONTINUOUS
 62
     7
 10
-1385.294788244961
 20
539.14056243739833
 30
0.0
 11
-1385.294788244961
 21
540.64056243739833
 31
0.0
  0
LINE
  5
354
  8
DATA
  6
CONTINUOUS
 62
     7
 10
-1315.9919999999979
 20
582.64056243739833
 30
0.0
 11
-1420.9919999999991
 21
582.64056243739833
 31
0.0
  0
LINE
  5
355
  8
DATA
  6
CONTINUOUS
 62
     7
 10
-1305.9919999999979
 20
577.14056243739753
 30
0.0
 11
-1430.991999999997
 21
577.14056243739753
 31
0.0
  0
LINE
  5
356
  8
DATA
  6
CONTINUOUS
 62
     7
 10
-1305.9919999999979
 20
565.64056243739833
 30
0.0
 11
-1430.9919999999991
 21
565.64056243739833
 31
0.0
  0
LINE
  5
357
  8
DATA
  6
CONTINUOUS
 62
     7
 10
-1315.9919999999991
 20
562.14056243739924
 30
0.0
 11
-1420.9919999999991
 21
562.14056243739924
 31
0.0
  0
LINE
  5
358
  8
DATA
  6
CONTINUOUS
 62
     7
 10
-1329.991999999997
 20
593.64056243739753
 30
0.0
 11
-1406.9919999999979
 21
593.64056243739833
 31
0.0
  0
LINE
  5
359
  8
DATA
  6
CONTINUOUS
 62
     7
 10
-1328.491999999997
 20
587.64056243739833
 30
0.0
 11
-1408.4919999999979
 21
587.64056243739833
 31
0.0
  0
LINE
  5
35A
  8
DATA
  6
CONTINUOUS
 62
     7
 10
-1404.9919999999991
 20
547.14056243739833
 30
0.0
 11
-1331.9919999999979
 21
547.14056243739833
 31
0.0
  0
LINE
  5
35B
  8
DATA
  6
CONTINUOUS
 62
     7
 10
-1331.9919999999991
 20
540.64056243739833
 30
0.0
 11
-1404.9919999999991
 21
540.64056243739833
 31
0.0
  0
LINE
  5
35C
  8
DATA
  6
CONTINUOUS
 62
     7
 10
-1342.491999999997
 20
606.14056243739924
 30
0.0
 11
-1394.4919999999979
 21
606.14056243739924
 31
0.0
  0
LINE
  5
35D
  8
DATA
  6
CONTINUOUS
 62
     7
 10
-1331.9919999999979
 20
547.14056243739833
 30
0.0
 11
-1315.9919999999991
 21
562.14056243739924
 31
0.0
  0
LINE
  5
35E
  8
DATA
  6
CONTINUOUS
 62
     7
 10
-1315.9919999999979
 20
577.14056243739753
 30
0.0
 11
-1315.9919999999979
 21
582.64056243739833
 31
0.0
  0
LINE
  5
35F
  8
DATA
  6
CONTINUOUS
 62
     7
 10
-1315.9919999999991
 20
562.14056243739924
 30
0.0
 11
-1315.9919999999991
 21
565.64056243739833
 31
0.0
  0
LINE
  5
360
  8
DATA
  6
CONTINUOUS
 62
     7
 10
-1305.9919999999979
 20
565.64056243739833
 30
0.0
 11
-1305.9919999999979
 21
577.14056243739753
 31
0.0
  0
LINE
  5
361
  8
DATA
  6
CONTINUOUS
 62
     7
 10
-1342.4919999999991
 20
593.64056243739753
 30
0.0
 11
-1342.491999999997
 21
606.14056243739924
 31
0.0
  0
LINE
  5
362
  8
DATA
  6
CONTINUOUS
 62
     7
 10
-1328.491999999997
 20
582.64056243739833
 30
0.0
 11
-1328.491999999997
 21
587.64056243739833
 31
0.0
  0
LINE
  5
363
  8
DATA
  6
CONTINUOUS
 62
     7
 10
-1329.991999999997
 20
587.64056243739833
 30
0.0
 11
-1329.991999999997
 21
593.64056243739753
 31
0.0
  0
LINE
  5
364
  8
DATA
  6
CONTINUOUS
 62
     7
 10
-1331.9919999999991
 20
540.64056243739833
 30
0.0
 11
-1331.9919999999979
 21
547.14056243739833
 31
0.0
  0
LINE
  5
365
  8
DATA
  6
CONTINUOUS
 62
     7
 10
-1394.4919999999979
 20
593.64056243739833
 30
0.0
 11
-1394.4919999999979
 21
606.14056243739924
 31
0.0
  0
LINE
  5
366
  8
DATA
  6
CONTINUOUS
 62
     7
 10
-1408.491999999997
 20
582.64056243739833
 30
0.0
 11
-1408.4919999999979
 21
587.64056243739833
 31
0.0
  0
LINE
  5
367
  8
DATA
  6
CONTINUOUS
 62
     7
 10
-1406.9919999999979
 20
587.64056243739833
 30
0.0
 11
-1406.991999999997
 21
593.64056243739833
 31
0.0
  0
LINE
  5
368
  8
DATA
  6
CONTINUOUS
 62
     7
 10
-1420.991999999997
 20
577.14056243739753
 30
0.0
 11
-1420.9919999999991
 21
582.64056243739833
 31
0.0
  0
LINE
  5
369
  8
DATA
  6
CONTINUOUS
 62
     7
 10
-1420.9919999999991
 20
562.14056243739924
 30
0.0
 11
-1420.9919999999991
 21
565.64056243739833
 31
0.0
  0
LINE
  5
36A
  8
DATA
  6
CONTINUOUS
 62
     7
 10
-1420.9919999999991
 20
562.14056243739924
 30
0.0
 11
-1404.9919999999991
 21
547.14056243739833
 31
0.0
  0
LINE
  5
36B
  8
DATA
  6
CONTINUOUS
 62
     7
 10
-1430.9919999999991
 20
565.64056243739833
 30
0.0
 11
-1430.9919999999979
 21
577.14056243739753
 31
0.0
  0
LINE
  5
36C
  8
DATA
  6
CONTINUOUS
 62
     7
 10
-1404.9919999999991
 20
540.64056243739833
 30
0.0
 11
-1404.9919999999991
 21
547.14056243739833
 31
0.0
  0
LINE
  5
36D
  8
DATA
  6
CONTINUOUS
 62
     7
 10
-1353.294788244961
 20
539.14056243739833
 30
0.0
 11
-1353.294788244961
 21
540.64056243739833
 31
0.0
  0
LINE
  5
36E
  8
DATA
  6
CONTINUOUS
 62
     7
 10
1849.999999999997
 20
-1489.999999999998
 30
0.0
 11
1150.000000000003
 21
-1490.0000000000009
 31
0.0
  0
LINE
  5
36F
  8
DATA
  6
CONTINUOUS
 62
     7
 10
1150.000000000003
 20
-1625.000000000003
 30
0.0
 11
1849.999999999997
 21
-1625.000000000003
 31
0.0
  0
LINE
  5
370
  8
DATA
  6
CONTINUOUS
 62
     7
 10
1849.999999999997
 20
-2000.0
 30
0.0
 11
1150.000000000003
 21
-2000.0
 31
0.0
  0
LINE
  5
371
  8
DATA
  6
CONTINUOUS
 62
     7
 10
1150.000000000003
 20
-1489.999999999998
 30
0.0
 11
1150.000000000003
 21
-2000.0
 31
0.0
  0
LINE
  5
372
  8
DATA
  6
CONTINUOUS
 62
   251
 10
1405.0000000000041
 20
-1580.0000000000009
 30
0.0
 11
1405.0000000000041
 21
-1535.0
 31
0.0
  0
LINE
  5
373
  8
DATA
  6
CONTINUOUS
 62
   251
 10
1382.5000000000041
 20
-1557.5000000000009
 30
0.0
 11
1427.5000000000041
 21
-1557.5000000000009
 31
0.0
  0
LINE
  5
374
  8
DATA
  6
CONTINUOUS
 62
     7
 10
1849.999999999997
 20
-1489.999999999998
 30
0.0
 11
1849.999999999997
 21
-2000.0
 31
0.0
  0
TEXT
  5
375
  8
DATA
 62
     7
 10
1887.5000000000009
 20
-1882.333984375
 30
0.0
 40
61.99836730957032
  1
プッシュ式ターミナル
 41
0.7
 11
1887.5000000000009
 21
-1820.335617065429
 31
0.0
 73
     3
  0
LINE
  5
376
  8
DATA
  6
CONTINUOUS
 62
   251
 10
1572.500000000003
 20
-1557.5
 30
0.0
 11
1617.500000000003
 21
-1557.5
 31
0.0
  0
TEXT
  5
377
  8
DATA
 62
     7
 10
1887.5000000000009
 20
-1757.333984375
 30
0.0
 40
61.99836730957032
  1
3639(低域)
 41
0.7
 11
1887.5000000000009
 21
-1695.335617065429
 31
0.0
 73
     3
  0
TEXT
  5
378
  8
DATA
 62
     7
 10
1875.0
 20
-1262.3339843750009
 30
0.0
 40
61.99836730957032
  1
4mmネジ式タ ーミナル
 41
0.7
 11
1875.0
 21
-1200.3356170654311
 31
0.0
 73
     3
  0
TEXT
  5
379
  8
DATA
 62
     7
 10
1875.0
 20
-1137.3339843750009
 30
0.0
 40
61.99836730957032
  1
3632-M/HF(中高域)
 41
0.7
 11
1875.0
 21
-1075.3356170654311
 31
0.0
 73
     3
  0
LINE
  5
37A
  8
DATA
  6
STYLE_06
 62
     7
 10
-1368.4919999999991
 20
251.00000000005639
 30
0.0
 11
-1368.4919999999991
 21
812.5
 31
0.0
  0
TEXT
  5
37B
  8
DATA
 62
     7
 10
1364.0452
 20
-837.50009600000033
 30
0.0
 40
54.000778124999997
  1
コネクターパネル拡大図
 41
0.7
 11
1364.0452
 21
-783.4993178750002
 31
0.0
 73
     3
  0
LINE
  5
37C
  8
DATA
  6
CONTINUOUS
 62
     7
 10
1225.0
 20
-875.0
 30
0.0
 11
2275.0
 21
-875.0
 31
0.0
  0
LINE
  5
37D
  8
DATA
  6
CONTINUOUS
 62
     7
 10
1347.5000000000009
 20
-1807.5000000000041
 30
0.0
 11
1347.5000000000009
 21
-1625.000000000003
 31
0.0
  0
LINE
  5
37E
  8
DATA
  6
CONTINUOUS
 62
     7
 10
1462.499999999992
 20
-1807.5000000000041
 30
0.0
 11
1462.499999999992
 21
-1625.000000000003
 31
0.0
  0
LINE
  5
37F
  8
DATA
  6
CONTINUOUS
 62
     7
 10
1537.5
 20
-1807.5000000000041
 30
0.0
 11
1537.5
 21
-1625.000000000003
 31
0.0
  0
LINE
  5
380
  8
DATA
  6
CONTINUOUS
 62
     7
 10
1652.499999999992
 20
-1807.5000000000041
 30
0.0
 11
1652.499999999992
 21
-1625.000000000003
 31
0.0
  0
POLYLINE
  5
381
  8
DATA
  6
CONTINUOUS
 62
     7
 66
     1
 10
0.0
 20
0.0
 30
0.0
 70
   128
  0
VERTEX
  5
9BE
  8
DATA
  6
CONTINUOUS
 62
     7
 10
1460.5741151793929
 20
-1815.269237886472
 30
0.0
  0
VERTEX
  5
9BF
  8
DATA
  6
CONTINUOUS
 62
     7
 10
1460.633828893313
 20
-1815.1519846545671
 30
0.0
  0
VERTEX
  5
9C0
  8
DATA
  6
CONTINUOUS
 62
     7
 10
1460.692602233785
 20
-1815.034599958849
 30
0.0
  0
VERTEX
  5
9C1
  8
DATA
  6
CONTINUOUS
 62
     7
 10
1460.75043520081
 20
-1814.917083799319
 30
0.0
  0
VERTEX
  5
9C2
  8
DATA
  6
CONTINUOUS
 62
     7
 10
1460.807327794387
 20
-1814.7994361759779
 30
0.0
  0
VERTEX
  5
9C3
  8
DATA
  6
CONTINUOUS
 62
     7
 10
1460.8632800145181
 20
-1814.681657088825
 30
0.0
  0
VERTEX
  5
9C4
  8
DATA
  6
CONTINUOUS
 62
     7
 10
1460.9182918611989
 20
-1814.56374653786
 30
0.0
  0
VERTEX
  5
9C5
  8
DATA
  6
CONTINUOUS
 62
     7
 10
1460.972363334434
 20
-1814.445704523084
 30
0.0
  0
VERTEX
  5
9C6
  8
DATA
  6
CONTINUOUS
 62
     7
 10
1461.0254944342209
 20
-1814.327531044496
 30
0.0
  0
VERTEX
  5
9C7
  8
DATA
  6
CONTINUOUS
 62
     7
 10
1461.0776851605599
 20
-1814.209226102096
 30
0.0
  0
VERTEX
  5
9C8
  8
DATA
  6
CONTINUOUS
 62
     7
 10
1461.128935513452
 20
-1814.090789695885
 30
0.0
  0
VERTEX
  5
9C9
  8
DATA
  6
CONTINUOUS
 62
     7
 10
1461.1792454928971
 20
-1813.972221825861
 30
0.0
  0
VERTEX
  5
9CA
  8
DATA
  6
CONTINUOUS
 62
     7
 10
1461.228615098893
 20
-1813.8535224920261
 30
0.0
  0
VERTEX
  5
9CB
  8
DATA
  6
CONTINUOUS
 62
     7
 10
1461.277044331443
 20
-1813.7346916943791
 30
0.0
  0
VERTEX
  5
9CC
  8
DATA
  6
CONTINUOUS
 62
     7
 10
1461.3245331905439
 20
-1813.61572943292
 30
0.0
  0
VERTEX
  5
9CD
  8
DATA
  6
CONTINUOUS
 62
     7
 10
1461.3710816761979
 20
-1813.4966357076501
 30
0.0
  0
VERTEX
  5
9CE
  8
DATA
  6
CONTINUOUS
 62
     7
 10
1461.4166897884049
 20
-1813.377410518568
 30
0.0
  0
VERTEX
  5
9CF
  8
DATA
  6
CONTINUOUS
 62
     7
 10
1461.461357527164
 20
-1813.258053865673
 30
0.0
  0
VERTEX
  5
9D0
  8
DATA
  6
CONTINUOUS
 62
     7
 10
1461.505084892475
 20
-1813.1385657489679
 30
0.0
  0
VERTEX
  5
9D1
  8
DATA
  6
CONTINUOUS
 62
     7
 10
1461.5478718843401
 20
-1813.0189461684511
 30
0.0
  0
VERTEX
  5
9D2
  8
DATA
  6
CONTINUOUS
 62
     7
 10
1461.5897185027561
 20
-1812.899195124121
 30
0.0
  0
VERTEX
  5
9D3
  8
DATA
  6
CONTINUOUS
 62
     7
 10
1461.6306247477239
 20
-1812.7793126159811
 30
0.0
  0
VERTEX
  5
9D4
  8
DATA
  6
CONTINUOUS
 62
     7
 10
1461.6705906192451
 20
-1812.659298644028
 30
0.0
  0
VERTEX
  5
9D5
  8
DATA
  6
CONTINUOUS
 62
     7
 10
1461.709616117319
 20
-1812.5391532082631
 30
0.0
  0
VERTEX
  5
9D6
  8
DATA
  6
CONTINUOUS
 62
     7
 10
1461.7477012419461
 20
-1812.418876308687
 30
0.0
  0
VERTEX
  5
9D7
  8
DATA
  6
CONTINUOUS
 62
     7
 10
1461.784845993124
 20
-1812.2984679452991
 30
0.0
  0
VERTEX
  5
9D8
  8
DATA
  6
CONTINUOUS
 62
     7
 10
1461.8210503708549
 20
-1812.1779281181
 30
0.0
  0
VERTEX
  5
9D9
  8
DATA
  6
CONTINUOUS
 62
     7
 10
1461.856314375138
 20
-1812.0572568270879
 30
0.0
  0
VERTEX
  5
9DA
  8
DATA
  6
CONTINUOUS
 62
     7
 10
1461.8906380059741
 20
-1811.936454072265
 30
0.0
  0
VERTEX
  5
9DB
  8
DATA
  6
CONTINUOUS
 62
     7
 10
1461.924021263362
 20
-1811.8155198536299
 30
0.0
  0
VERTEX
  5
9DC
  8
DATA
  6
CONTINUOUS
 62
     7
 10
1461.956464147303
 20
-1811.6944541711839
 30
0.0
  0
VERTEX
  5
9DD
  8
DATA
  6
CONTINUOUS
 62
     7
 10
1461.987966657797
 20
-1811.573257024924
 30
0.0
  0
VERTEX
  5
9DE
  8
DATA
  6
CONTINUOUS
 62
     7
 10
1462.018528794842
 20
-1811.451928414855
 30
0.0
  0
VERTEX
  5
9DF
  8
DATA
  6
CONTINUOUS
 62
     7
 10
1462.0481505584401
 20
-1811.3304683409731
 30
0.0
  0
VERTEX
  5
9E0
  8
DATA
  6
CONTINUOUS
 62
     7
 10
1462.076831948591
 20
-1811.2088768032791
 30
0.0
  0
VERTEX
  5
9E1
  8
DATA
  6
CONTINUOUS
 62
     7
 10
1462.104572965294
 20
-1811.0871538017741
 30
0.0
  0
VERTEX
  5
9E2
  8
DATA
  6
CONTINUOUS
 62
     7
 10
1462.131373608549
 20
-1810.9652993364559
 30
0.0
  0
VERTEX
  5
9E3
  8
DATA
  6
CONTINUOUS
 62
     7
 10
1462.1572338783569
 20
-1810.843313407328
 30
0.0
  0
VERTEX
  5
9E4
  8
DATA
  6
CONTINUOUS
 62
     7
 10
1462.1821537747171
 20
-1810.721196014387
 30
0.0
  0
VERTEX
  5
9E5
  8
DATA
  6
CONTINUOUS
 62
     7
 10
1462.20613329763
 20
-1810.5989471576349
 30
0.0
  0
VERTEX
  5
9E6
  8
DATA
  6
CONTINUOUS
 62
     7
 10
1462.2291724470949
 20
-1810.476566837071
 30
0.0
  0
VERTEX
  5
9E7
  8
DATA
  6
CONTINUOUS
 62
     7
 10
1462.251271223113
 20
-1810.3540550526941
 30
0.0
  0
VERTEX
  5
9E8
  8
DATA
  6
CONTINUOUS
 62
     7
 10
1462.2724296256829
 20
-1810.2314118045069
 30
0.0
  0
VERTEX
  5
9E9
  8
DATA
  6
CONTINUOUS
 62
     7
 10
1462.2926476548059
 20
-1810.1086370925079
 30
0.0
  0
VERTEX
  5
9EA
  8
DATA
  6
CONTINUOUS
 62
     7
 10
1462.3119253104801
 20
-1809.985730916696
 30
0.0
  0
VERTEX
  5
9EB
  8
DATA
  6
CONTINUOUS
 62
     7
 10
1462.330262592707
 20
-1809.862693277073
 30
0.0
  0
VERTEX
  5
9EC
  8
DATA
  6
CONTINUOUS
 62
     7
 10
1462.347659501487
 20
-1809.7395241736381
 30
0.0
  0
VERTEX
  5
9ED
  8
DATA
  6
CONTINUOUS
 62
     7
 10
1462.364116036819
 20
-1809.6162236063919
 30
0.0
  0
VERTEX
  5
9EE
  8
DATA
  6
CONTINUOUS
 62
     7
 10
1462.379632198704
 20
-1809.4927915753331
 30
0.0
  0
VERTEX
  5
9EF
  8
DATA
  6
CONTINUOUS
 62
     7
 10
1462.394207987141
 20
-1809.3692280804639
 30
0.0
  0
VERTEX
  5
9F0
  8
DATA
  6
CONTINUOUS
 62
     7
 10
1462.407843402131
 20
-1809.245533121782
 30
0.0
  0
VERTEX
  5
9F1
  8
DATA
  6
CONTINUOUS
 62
     7
 10
1462.420538443673
 20
-1809.1217066992881
 30
0.0
  0
VERTEX
  5
9F2
  8
DATA
  6
CONTINUOUS
 62
     7
 10
1462.432293111767
 20
-1808.997748812983
 30
0.0
  0
VERTEX
  5
9F3
  8
DATA
  6
CONTINUOUS
 62
     7
 10
1462.4431074064139
 20
-1808.873659462866
 30
0.0
  0
VERTEX
  5
9F4
  8
DATA
  6
CONTINUOUS
 62
     7
 10
1462.452981327614
 20
-1808.749438648937
 30
0.0
  0
VERTEX
  5
9F5
  8
DATA
  6
CONTINUOUS
 62
     7
 10
1462.4619148753659
 20
-1808.6250863711971
 30
0.0
  0
VERTEX
  5
9F6
  8
DATA
  6
CONTINUOUS
 62
     7
 10
1462.46990804967
 20
-1808.5006026296451
 30
0.0
  0
VERTEX
  5
9F7
  8
DATA
  6
CONTINUOUS
 62
     7
 10
1462.476960850526
 20
-1808.3759874242801
 30
0.0
  0
VERTEX
  5
9F8
  8
DATA
  6
CONTINUOUS
 62
     7
 10
1462.483073277936
 20
-1808.2512407551051
 30
0.0
  0
VERTEX
  5
9F9
  8
DATA
  6
CONTINUOUS
 62
     7
 10
1462.4882453318969
 20
-1808.1263626221171
 30
0.0
  0
VERTEX
  5
9FA
  8
DATA
  6
CONTINUOUS
 62
     7
 10
1462.492477012411
 20
-1808.0013530253179
 30
0.0
  0
VERTEX
  5
9FB
  8
DATA
  6
CONTINUOUS
 62
     7
 10
1462.495768319478
 20
-1807.876211964707
 30
0.0
  0
VERTEX
  5
9FC
  8
DATA
  6
CONTINUOUS
 62
     7
 10
1462.4981192530961
 20
-1807.7509394402839
 30
0.0
  0
VERTEX
  5
9FD
  8
DATA
  6
CONTINUOUS
 62
     7
 10
1462.4995298132681
 20
-1807.625535452049
 30
0.0
  0
VERTEX
  5
9FE
  8
DATA
  6
CONTINUOUS
 62
     7
 10
1462.499999999992
 20
-1807.5000000000041
 30
0.0
  0
VERTEX
  5
9FF
  8
DATA
  6
CONTINUOUS
 62
     7
 10
1462.499999999992
 20
-1807.5000000000041
 30
0.0
  0
VERTEX
  5
A00
  8
DATA
  6
CONTINUOUS
 62
     7
 10
1462.499999999992
 20
-1807.5000000000041
 30
0.0
  0
VERTEX
  5
A01
  8
DATA
  6
CONTINUOUS
 62
     7
 10
1462.499998163325
 20
-1807.4921501827721
 30
0.0
  0
VERTEX
  5
A02
  8
DATA
  6
CONTINUOUS
 62
     7
 10
1462.4999926533239
 20
-1807.4843008790699
 30
0.0
  0
VERTEX
  5
A03
  8
DATA
  6
CONTINUOUS
 62
     7
 10
1462.49998346999
 20
-1807.4764520889
 30
0.0
  0
VERTEX
  5
A04
  8
DATA
  6
CONTINUOUS
 62
     7
 10
1462.499970613321
 20
-1807.4686038122591
 30
0.0
  0
VERTEX
  5
A05
  8
DATA
  6
CONTINUOUS
 62
     7
 10
1462.4999540833189
 20
-1807.460756049149
 30
0.0
  0
VERTEX
  5
A06
  8
DATA
  6
CONTINUOUS
 62
     7
 10
1462.499933879983
 20
-1807.4529087995711
 30
0.0
  0
VERTEX
  5
A07
  8
DATA
  6
CONTINUOUS
 62
     7
 10
1462.499910003314
 20
-1807.4450620635209
 30
0.0
  0
VERTEX
  5
A08
  8
DATA
  6
CONTINUOUS
 62
     7
 10
1462.4998824533111
 20
-1807.4372158410031
 30
0.0
  0
VERTEX
  5
A09
  8
DATA
  6
CONTINUOUS
 62
     7
 10
1462.499851229974
 20
-1807.429370132015
 30
0.0
  0
VERTEX
  5
A0A
  8
DATA
  6
CONTINUOUS
 62
     7
 10
1462.499816333303
 20
-1807.421524936557
 30
0.0
  0
VERTEX
  5
A0B
  8
DATA
  6
CONTINUOUS
 62
     7
 10
1462.499777763298
 20
-1807.4136802546309
 30
0.0
  0
VERTEX
  5
A0C
  8
DATA
  6
CONTINUOUS
 62
     7
 10
1462.4997355199589
 20
-1807.405836086235
 30
0.0
  0
VERTEX
  5
A0D
  8
DATA
  6
CONTINUOUS
 62
     7
 10
1462.4996896032869
 20
-1807.3979924313701
 30
0.0
  0
VERTEX
  5
A0E
  8
DATA
  6
CONTINUOUS
 62
     7
 10
1462.4996400132809
 20
-1807.3901492900341
 30
0.0
  0
VERTEX
  5
A0F
  8
DATA
  6
CONTINUOUS
 62
     7
 10
1462.499586749941
 20
-1807.382306662229
 30
0.0
  0
VERTEX
  5
A10
  8
DATA
  6
CONTINUOUS
 62
     7
 10
1462.4995298132681
 20
-1807.374464547956
 30
0.0
  0
VERTEX
  5
A11
  8
DATA
  6
CONTINUOUS
 62
     7
 10
1462.499469203261
 20
-1807.3666229472119
 30
0.0
  0
VERTEX
  5
A12
  8
DATA
  6
CONTINUOUS
 62
     7
 10
1462.499404919919
 20
-1807.358781859999
 30
0.0
  0
VERTEX
  5
A13
  8
DATA
  6
CONTINUOUS
 62
     7
 10
1462.4993369632441
 20
-1807.350941286317
 30
0.0
  0
VERTEX
  5
A14
  8
DATA
  6
CONTINUOUS
 62
     7
 10
1462.4992653332361
 20
-1807.343101226164
 30
0.0
  0
VERTEX
  5
A15
  8
DATA
  6
CONTINUOUS
 62
     7
 10
1462.499190029893
 20
-1807.335261679543
 30
0.0
  0
VERTEX
  5
A16
  8
DATA
  6
CONTINUOUS
 62
     7
 10
1462.4991110532169
 20
-1807.3274226464521
 30
0.0
  0
VERTEX
  5
A17
  8
DATA
  6
CONTINUOUS
 62
     7
 10
1462.4990284032069
 20
-1807.3195841268921
 30
0.0
  0
VERTEX
  5
A18
  8
DATA
  6
CONTINUOUS
 62
     7
 10
1462.4989420798629
 20
-1807.311746120861
 30
0.0
  0
VERTEX
  5
A19
  8
DATA
  6
CONTINUOUS
 62
     7
 10
1462.4988520831851
 20
-1807.303908628362
 30
0.0
  0
VERTEX
  5
A1A
  8
DATA
  6
CONTINUOUS
 62
     7
 10
1462.4987584131741
 20
-1807.2960716493931
 30
0.0
  0
VERTEX
  5
A1B
  8
DATA
  6
CONTINUOUS
 62
     7
 10
1462.498661069829
 20
-1807.2882351839551
 30
0.0
  0
VERTEX
  5
A1C
  8
DATA
  6
CONTINUOUS
 62
     7
 10
1462.49856005315
 20
-1807.2803992320471
 30
0.0
  0
VERTEX
  5
A1D
  8
DATA
  6
CONTINUOUS
 62
     7
 10
1462.4984553631371
 20
-1807.272563793669
 30
0.0
  0
VERTEX
  5
A1E
  8
DATA
  6
CONTINUOUS
 62
     7
 10
1462.498346999791
 20
-1807.2647288688231
 30
0.0
  0
VERTEX
  5
A1F
  8
DATA
  6
CONTINUOUS
 62
     7
 10
1462.4982349631109
 20
-1807.256894457506
 30
0.0
  0
VERTEX
  5
A20
  8
DATA
  6
CONTINUOUS
 62
     7
 10
1462.4981192530961
 20
-1807.2490605597211
 30
0.0
  0
VERTEX
  5
A21
  8
DATA
  6
CONTINUOUS
 62
     7
 10
1462.497999869749
 20
-1807.2412271754649
 30
0.0
  0
VERTEX
  5
A22
  8
DATA
  6
CONTINUOUS
 62
     7
 10
1462.497876813067
 20
-1807.2333943047411
 30
0.0
  0
VERTEX
  5
A23
  8
DATA
  6
CONTINUOUS
 62
     7
 10
1462.4977500830521
 20
-1807.2255619475461
 30
0.0
  0
VERTEX
  5
A24
  8
DATA
  6
CONTINUOUS
 62
     7
 10
1462.4976196797029
 20
-1807.2177301038821
 30
0.0
  0
VERTEX
  5
A25
  8
DATA
  6
CONTINUOUS
 62
     7
 10
1462.4974856030201
 20
-1807.209898773749
 30
0.0
  0
VERTEX
  5
A26
  8
DATA
  6
CONTINUOUS
 62
     7
 10
1462.497347853003
 20
-1807.202067957146
 30
0.0
  0
VERTEX
  5
A27
  8
DATA
  6
CONTINUOUS
 62
     7
 10
1462.4972064296519
 20
-1807.194237654074
 30
0.0
  0
VERTEX
  5
A28
  8
DATA
  6
CONTINUOUS
 62
     7
 10
1462.4970613329681
 20
-1807.1864078645331
 30
0.0
  0
VERTEX
  5
A29
  8
DATA
  6
CONTINUOUS
 62
     7
 10
1462.49691256295
 20
-1807.1785785885211
 30
0.0
  0
VERTEX
  5
A2A
  8
DATA
  6
CONTINUOUS
 62
     7
 10
1462.4967601195981
 20
-1807.1707498260409
 30
0.0
  0
VERTEX
  5
A2B
  8
DATA
  6
CONTINUOUS
 62
     7
 10
1462.496604002913
 20
-1807.1629215770911
 30
0.0
  0
VERTEX
  5
A2C
  8
DATA
  6
CONTINUOUS
 62
     7
 10
1462.496444212893
 20
-1807.1550938416719
 30
0.0
  0
VERTEX
  5
A2D
  8
DATA
  6
CONTINUOUS
 62
     7
 10
1462.4962807495399
 20
-1807.1472666197819
 30
0.0
  0
VERTEX
  5
A2E
  8
DATA
  6
CONTINUOUS
 62
     7
 10
1462.4961136128529
 20
-1807.139439911424
 30
0.0
  0
VERTEX
  5
A2F
  8
DATA
  6
CONTINUOUS
 62
     7
 10
1462.4959428028319
 20
-1807.1316137165959
 30
0.0
  0
VERTEX
  5
A30
  8
DATA
  6
CONTINUOUS
 62
     7
 10
1462.495768319478
 20
-1807.123788035298
 30
0.0
  0
VERTEX
  5
A31
  8
DATA
  6
CONTINUOUS
 62
     7
 10
1462.4955901627891
 20
-1807.1159628675309
 30
0.0
  0
VERTEX
  5
A32
  8
DATA
  6
CONTINUOUS
 62
     7
 10
1462.495408332768
 20
-1807.108138213295
 30
0.0
  0
VERTEX
  5
A33
  8
DATA
  6
CONTINUOUS
 62
     7
 10
1462.4952228294119
 20
-1807.1003140725891
 30
0.0
  0
VERTEX
  5
A34
  8
DATA
  6
CONTINUOUS
 62
     7
 10
1462.495033652722
 20
-1807.092490445413
 30
0.0
  0
VERTEX
  5
A35
  8
DATA
  6
CONTINUOUS
 62
     7
 10
1462.4948408026989
 20
-1807.0846673317681
 30
0.0
  0
VERTEX
  5
A36
  8
DATA
  6
CONTINUOUS
 62
     7
 10
1462.4946442793409
 20
-1807.0768447316541
 30
0.0
  0
VERTEX
  5
A37
  8
DATA
  6
CONTINUOUS
 62
     7
 10
1462.4944440826509
 20
-1807.0690226450699
 30
0.0
  0
VERTEX
  5
A38
  8
DATA
  6
CONTINUOUS
 62
     7
 10
1462.494240212626
 20
-1807.061201072016
 30
0.0
  0
VERTEX
  5
A39
  8
DATA
  6
CONTINUOUS
 62
     7
 10
1462.494032669267
 20
-1807.0533800124931
 30
0.0
  0
VERTEX
  5
A3A
  8
DATA
  6
CONTINUOUS
 62
     7
 10
1462.493821452575
 20
-1807.0455594665009
 30
0.0
  0
VERTEX
  5
A3B
  8
DATA
  6
CONTINUOUS
 62
     7
 10
1462.4936065625491
 20
-1807.0377394340401
 30
0.0
  0
VERTEX
  5
A3C
  8
DATA
  6
CONTINUOUS
 62
     7
 10
1462.4933879991891
 20
-1807.0299199151079
 30
0.0
  0
VERTEX
  5
A3D
  8
DATA
  6
CONTINUOUS
 62
     7
 10
1462.493165762495
 20
-1807.0221009097079
 30
0.0
  0
VERTEX
  5
A3E
  8
DATA
  6
CONTINUOUS
 62
     7
 10
1462.4929398524671
 20
-1807.0142824178361
 30
0.0
  0
VERTEX
  5
A3F
  8
DATA
  6
CONTINUOUS
 62
     7
 10
1462.4927102691061
 20
-1807.006464439497
 30
0.0
  0
VERTEX
  5
A40
  8
DATA
  6
CONTINUOUS
 62
     7
 10
1462.492477012411
 20
-1806.998646974688
 30
0.0
  0
VERTEX
  5
A41
  8
DATA
  6
CONTINUOUS
 62
     7
 10
1462.492477012411
 20
-1806.998646974688
 30
0.0
  0
SEQEND
  5
A42
  8
DATA
  6
CONTINUOUS
 62
     7
  0
ARC
  5
407
  8
DATA
  6
CONTINUOUS
 62
     7
 10
1404.26778485771
 20
-1875.449935405853
 30
0.0
 40
97.95267216888341
 50
89.571698993607583
 51
110.52063133407231
  0
ARC
  5
408
  8
DATA
  6
CONTINUOUS
 62
     7
 10
1387.0302310830621
 20
-1829.106380990173
 30
0.0
 40
48.507375111131992
 50
110.6407832386802
 51
131.00468034343081
  0
ARC
  5
409
  8
DATA
  6
CONTINUOUS
 62
     7
 10
1368.366061415516
 20
-1808.73801766971
 30
0.0
 40
20.90275596055853
 50
129.02819262928961
 51
176.60452792918929
  0
ARC
  5
40A
  8
DATA
  6
CONTINUOUS
 62
     7
 10
1404.26778485771
 20
-1739.550064594154
 30
0.0
 40
97.952672168883964
 50
249.47936866592761
 51
270.42830100639242
  0
ARC
  5
40B
  8
DATA
  6
CONTINUOUS
 62
     7
 10
1387.0302310830621
 20
-1785.8936190098341
 30
0.0
 40
48.507375111133051
 50
228.99531965656931
 51
249.3592167613196
  0
ARC
  5
40C
  8
DATA
  6
CONTINUOUS
 62
     7
 10
1368.366061415516
 20
-1806.2619823302971
 30
0.0
 40
20.902755960556352
 50
183.395472070811
 51
230.97180737071011
  0
ARC
  5
40D
  8
DATA
  6
CONTINUOUS
 62
     7
 10
1405.7322151422829
 20
-1875.449935405853
 30
0.0
 40
97.952672168883964
 50
69.479368665927609
 51
90.428301006392445
  0
ARC
  5
40E
  8
DATA
  6
CONTINUOUS
 62
     7
 10
1422.9697689169309
 20
-1829.106380990173
 30
0.0
 40
48.507375111133051
 50
48.995319656569258
 51
69.359216761319644
  0
ARC
  5
40F
  8
DATA
  6
CONTINUOUS
 62
     7
 10
1441.6339385844769
 20
-1808.73801766971
 30
0.0
 40
20.902755960556352
 50
3.395472070810972
 51
50.971807370710152
  0
ARC
  5
410
  8
DATA
  6
CONTINUOUS
 62
     7
 10
1405.7322151422829
 20
-1739.550064594154
 30
0.0
 40
97.95267216888341
 50
269.57169899360758
 51
290.52063133407239
  0
ARC
  5
411
  8
DATA
  6
CONTINUOUS
 62
     7
 10
1422.9697689169309
 20
-1785.8936190098341
 30
0.0
 40
48.507375111131992
 50
290.64078323868029
 51
311.00468034343078
  0
ARC
  5
412
  8
DATA
  6
CONTINUOUS
 62
     7
 10
1441.6339385844769
 20
-1806.2619823302971
 30
0.0
 40
20.90275596055853
 50
309.02819262928961
 51
356.60452792918937
  0
POLYLINE
  5
413
  8
DATA
  6
CONTINUOUS
 62
     7
 66
     1
 10
0.0
 20
0.0
 30
0.0
 70
   128
  0
VERTEX
  5
A43
  8
DATA
  6
CONTINUOUS
 62
     7
 10
1650.5741151793929
 20
-1815.269237886472
 30
0.0
  0
VERTEX
  5
A44
  8
DATA
  6
CONTINUOUS
 62
     7
 10
1650.6338288933141
 20
-1815.1519846545671
 30
0.0
  0
VERTEX
  5
A45
  8
DATA
  6
CONTINUOUS
 62
     7
 10
1650.692602233785
 20
-1815.034599958849
 30
0.0
  0
VERTEX
  5
A46
  8
DATA
  6
CONTINUOUS
 62
     7
 10
1650.75043520081
 20
-1814.917083799319
 30
0.0
  0
VERTEX
  5
A47
  8
DATA
  6
CONTINUOUS
 62
     7
 10
1650.807327794387
 20
-1814.7994361759779
 30
0.0
  0
VERTEX
  5
A48
  8
DATA
  6
CONTINUOUS
 62
     7
 10
1650.8632800145169
 20
-1814.681657088825
 30
0.0
  0
VERTEX
  5
A49
  8
DATA
  6
CONTINUOUS
 62
     7
 10
1650.9182918611989
 20
-1814.56374653786
 30
0.0
  0
VERTEX
  5
A4A
  8
DATA
  6
CONTINUOUS
 62
     7
 10
1650.972363334434
 20
-1814.445704523084
 30
0.0
  0
VERTEX
  5
A4B
  8
DATA
  6
CONTINUOUS
 62
     7
 10
1651.0254944342209
 20
-1814.327531044496
 30
0.0
  0
VERTEX
  5
A4C
  8
DATA
  6
CONTINUOUS
 62
     7
 10
1651.0776851605599
 20
-1814.209226102096
 30
0.0
  0
VERTEX
  5
A4D
  8
DATA
  6
CONTINUOUS
 62
     7
 10
1651.128935513452
 20
-1814.090789695885
 30
0.0
  0
VERTEX
  5
A4E
  8
DATA
  6
CONTINUOUS
 62
     7
 10
1651.1792454928971
 20
-1813.972221825861
 30
0.0
  0
VERTEX
  5
A4F
  8
DATA
  6
CONTINUOUS
 62
     7
 10
1651.228615098893
 20
-1813.8535224920261
 30
0.0
  0
VERTEX
  5
A50
  8
DATA
  6
CONTINUOUS
 62
     7
 10
1651.277044331443
 20
-1813.7346916943791
 30
0.0
  0
VERTEX
  5
A51
  8
DATA
  6
CONTINUOUS
 62
     7
 10
1651.3245331905439
 20
-1813.61572943292
 30
0.0
  0
VERTEX
  5
A52
  8
DATA
  6
CONTINUOUS
 62
     7
 10
1651.3710816761979
 20
-1813.4966357076501
 30
0.0
  0
VERTEX
  5
A53
  8
DATA
  6
CONTINUOUS
 62
     7
 10
1651.4166897884049
 20
-1813.377410518568
 30
0.0
  0
VERTEX
  5
A54
  8
DATA
  6
CONTINUOUS
 62
     7
 10
1651.461357527164
 20
-1813.258053865673
 30
0.0
  0
VERTEX
  5
A55
  8
DATA
  6
CONTINUOUS
 62
     7
 10
1651.5050848924759
 20
-1813.1385657489679
 30
0.0
  0
VERTEX
  5
A56
  8
DATA
  6
CONTINUOUS
 62
     7
 10
1651.547871884339
 20
-1813.0189461684511
 30
0.0
  0
VERTEX
  5
A57
  8
DATA
  6
CONTINUOUS
 62
     7
 10
1651.5897185027561
 20
-1812.899195124121
 30
0.0
  0
VERTEX
  5
A58
  8
DATA
  6
CONTINUOUS
 62
     7
 10
1651.6306247477239
 20
-1812.7793126159811
 30
0.0
  0
VERTEX
  5
A59
  8
DATA
  6
CONTINUOUS
 62
     7
 10
1651.6705906192451
 20
-1812.659298644028
 30
0.0
  0
VERTEX
  5
A5A
  8
DATA
  6
CONTINUOUS
 62
     7
 10
1651.709616117319
 20
-1812.5391532082631
 30
0.0
  0
VERTEX
  5
A5B
  8
DATA
  6
CONTINUOUS
 62
     7
 10
1651.7477012419449
 20
-1812.418876308687
 30
0.0
  0
VERTEX
  5
A5C
  8
DATA
  6
CONTINUOUS
 62
     7
 10
1651.784845993124
 20
-1812.2984679452991
 30
0.0
  0
VERTEX
  5
A5D
  8
DATA
  6
CONTINUOUS
 62
     7
 10
1651.8210503708549
 20
-1812.1779281181
 30
0.0
  0
VERTEX
  5
A5E
  8
DATA
  6
CONTINUOUS
 62
     7
 10
1651.856314375138
 20
-1812.0572568270879
 30
0.0
  0
VERTEX
  5
A5F
  8
DATA
  6
CONTINUOUS
 62
     7
 10
1651.8906380059741
 20
-1811.936454072265
 30
0.0
  0
VERTEX
  5
A60
  8
DATA
  6
CONTINUOUS
 62
     7
 10
1651.924021263362
 20
-1811.8155198536299
 30
0.0
  0
VERTEX
  5
A61
  8
DATA
  6
CONTINUOUS
 62
     7
 10
1651.956464147303
 20
-1811.6944541711839
 30
0.0
  0
VERTEX
  5
A62
  8
DATA
  6
CONTINUOUS
 62
     7
 10
1651.987966657797
 20
-1811.573257024924
 30
0.0
  0
VERTEX
  5
A63
  8
DATA
  6
CONTINUOUS
 62
     7
 10
1652.018528794842
 20
-1811.451928414855
 30
0.0
  0
VERTEX
  5
A64
  8
DATA
  6
CONTINUOUS
 62
     7
 10
1652.048150558441
 20
-1811.3304683409731
 30
0.0
  0
VERTEX
  5
A65
  8
DATA
  6
CONTINUOUS
 62
     7
 10
1652.076831948591
 20
-1811.2088768032791
 30
0.0
  0
VERTEX
  5
A66
  8
DATA
  6
CONTINUOUS
 62
     7
 10
1652.104572965294
 20
-1811.0871538017741
 30
0.0
  0
VERTEX
  5
A67
  8
DATA
  6
CONTINUOUS
 62
     7
 10
1652.131373608549
 20
-1810.9652993364559
 30
0.0
  0
VERTEX
  5
A68
  8
DATA
  6
CONTINUOUS
 62
     7
 10
1652.1572338783569
 20
-1810.843313407328
 30
0.0
  0
VERTEX
  5
A69
  8
DATA
  6
CONTINUOUS
 62
     7
 10
1652.1821537747171
 20
-1810.721196014387
 30
0.0
  0
VERTEX
  5
A6A
  8
DATA
  6
CONTINUOUS
 62
     7
 10
1652.20613329763
 20
-1810.5989471576349
 30
0.0
  0
VERTEX
  5
A6B
  8
DATA
  6
CONTINUOUS
 62
     7
 10
1652.2291724470949
 20
-1810.476566837071
 30
0.0
  0
VERTEX
  5
A6C
  8
DATA
  6
CONTINUOUS
 62
     7
 10
1652.2512712231121
 20
-1810.3540550526941
 30
0.0
  0
VERTEX
  5
A6D
  8
DATA
  6
CONTINUOUS
 62
     7
 10
1652.272429625682
 20
-1810.2314118045069
 30
0.0
  0
VERTEX
  5
A6E
  8
DATA
  6
CONTINUOUS
 62
     7
 10
1652.2926476548059
 20
-1810.1086370925079
 30
0.0
  0
VERTEX
  5
A6F
  8
DATA
  6
CONTINUOUS
 62
     7
 10
1652.3119253104801
 20
-1809.985730916696
 30
0.0
  0
VERTEX
  5
A70
  8
DATA
  6
CONTINUOUS
 62
     7
 10
1652.330262592707
 20
-1809.862693277073
 30
0.0
  0
VERTEX
  5
A71
  8
DATA
  6
CONTINUOUS
 62
     7
 10
1652.347659501487
 20
-1809.7395241736381
 30
0.0
  0
VERTEX
  5
A72
  8
DATA
  6
CONTINUOUS
 62
     7
 10
1652.364116036819
 20
-1809.6162236063919
 30
0.0
  0
VERTEX
  5
A73
  8
DATA
  6
CONTINUOUS
 62
     7
 10
1652.379632198704
 20
-1809.4927915753331
 30
0.0
  0
VERTEX
  5
A74
  8
DATA
  6
CONTINUOUS
 62
     7
 10
1652.394207987141
 20
-1809.3692280804639
 30
0.0
  0
VERTEX
  5
A75
  8
DATA
  6
CONTINUOUS
 62
     7
 10
1652.407843402131
 20
-1809.245533121782
 30
0.0
  0
VERTEX
  5
A76
  8
DATA
  6
CONTINUOUS
 62
     7
 10
1652.420538443673
 20
-1809.1217066992881
 30
0.0
  0
VERTEX
  5
A77
  8
DATA
  6
CONTINUOUS
 62
     7
 10
1652.4322931117681
 20
-1808.997748812983
 30
0.0
  0
VERTEX
  5
A78
  8
DATA
  6
CONTINUOUS
 62
     7
 10
1652.443107406415
 20
-1808.873659462866
 30
0.0
  0
VERTEX
  5
A79
  8
DATA
  6
CONTINUOUS
 62
     7
 10
1652.452981327614
 20
-1808.749438648937
 30
0.0
  0
VERTEX
  5
A7A
  8
DATA
  6
CONTINUOUS
 62
     7
 10
1652.4619148753659
 20
-1808.6250863711971
 30
0.0
  0
VERTEX
  5
A7B
  8
DATA
  6
CONTINUOUS
 62
     7
 10
1652.46990804967
 20
-1808.5006026296451
 30
0.0
  0
VERTEX
  5
A7C
  8
DATA
  6
CONTINUOUS
 62
     7
 10
1652.4769608505269
 20
-1808.3759874242801
 30
0.0
  0
VERTEX
  5
A7D
  8
DATA
  6
CONTINUOUS
 62
     7
 10
1652.483073277936
 20
-1808.2512407551051
 30
0.0
  0
VERTEX
  5
A7E
  8
DATA
  6
CONTINUOUS
 62
     7
 10
1652.488245331898
 20
-1808.1263626221171
 30
0.0
  0
VERTEX
  5
A7F
  8
DATA
  6
CONTINUOUS
 62
     7
 10
1652.492477012411
 20
-1808.0013530253179
 30
0.0
  0
VERTEX
  5
A80
  8
DATA
  6
CONTINUOUS
 62
     7
 10
1652.495768319478
 20
-1807.876211964707
 30
0.0
  0
VERTEX
  5
A81
  8
DATA
  6
CONTINUOUS
 62
     7
 10
1652.4981192530961
 20
-1807.7509394402839
 30
0.0
  0
VERTEX
  5
A82
  8
DATA
  6
CONTINUOUS
 62
     7
 10
1652.4995298132681
 20
-1807.625535452049
 30
0.0
  0
VERTEX
  5
A83
  8
DATA
  6
CONTINUOUS
 62
     7
 10
1652.499999999992
 20
-1807.5000000000041
 30
0.0
  0
VERTEX
  5
A84
  8
DATA
  6
CONTINUOUS
 62
     7
 10
1652.499999999992
 20
-1807.5000000000041
 30
0.0
  0
VERTEX
  5
A85
  8
DATA
  6
CONTINUOUS
 62
     7
 10
1652.499999999992
 20
-1807.5000000000041
 30
0.0
  0
VERTEX
  5
A86
  8
DATA
  6
CONTINUOUS
 62
     7
 10
1652.499998163325
 20
-1807.4921501827721
 30
0.0
  0
VERTEX
  5
A87
  8
DATA
  6
CONTINUOUS
 62
     7
 10
1652.4999926533239
 20
-1807.4843008790699
 30
0.0
  0
VERTEX
  5
A88
  8
DATA
  6
CONTINUOUS
 62
     7
 10
1652.49998346999
 20
-1807.4764520889
 30
0.0
  0
VERTEX
  5
A89
  8
DATA
  6
CONTINUOUS
 62
     7
 10
1652.499970613321
 20
-1807.4686038122591
 30
0.0
  0
VERTEX
  5
A8A
  8
DATA
  6
CONTINUOUS
 62
     7
 10
1652.4999540833189
 20
-1807.460756049149
 30
0.0
  0
VERTEX
  5
A8B
  8
DATA
  6
CONTINUOUS
 62
     7
 10
1652.499933879983
 20
-1807.4529087995711
 30
0.0
  0
VERTEX
  5
A8C
  8
DATA
  6
CONTINUOUS
 62
     7
 10
1652.499910003314
 20
-1807.4450620635209
 30
0.0
  0
VERTEX
  5
A8D
  8
DATA
  6
CONTINUOUS
 62
     7
 10
1652.4998824533111
 20
-1807.4372158410031
 30
0.0
  0
VERTEX
  5
A8E
  8
DATA
  6
CONTINUOUS
 62
     7
 10
1652.499851229974
 20
-1807.429370132015
 30
0.0
  0
VERTEX
  5
A8F
  8
DATA
  6
CONTINUOUS
 62
     7
 10
1652.499816333303
 20
-1807.421524936557
 30
0.0
  0
VERTEX
  5
A90
  8
DATA
  6
CONTINUOUS
 62
     7
 10
1652.499777763298
 20
-1807.4136802546309
 30
0.0
  0
VERTEX
  5
A91
  8
DATA
  6
CONTINUOUS
 62
     7
 10
1652.49973551996
 20
-1807.405836086235
 30
0.0
  0
VERTEX
  5
A92
  8
DATA
  6
CONTINUOUS
 62
     7
 10
1652.4996896032869
 20
-1807.3979924313701
 30
0.0
  0
VERTEX
  5
A93
  8
DATA
  6
CONTINUOUS
 62
     7
 10
1652.499640013282
 20
-1807.3901492900341
 30
0.0
  0
VERTEX
  5
A94
  8
DATA
  6
CONTINUOUS
 62
     7
 10
1652.499586749941
 20
-1807.382306662229
 30
0.0
  0
VERTEX
  5
A95
  8
DATA
  6
CONTINUOUS
 62
     7
 10
1652.4995298132681
 20
-1807.374464547956
 30
0.0
  0
VERTEX
  5
A96
  8
DATA
  6
CONTINUOUS
 62
     7
 10
1652.499469203261
 20
-1807.3666229472119
 30
0.0
  0
VERTEX
  5
A97
  8
DATA
  6
CONTINUOUS
 62
     7
 10
1652.499404919919
 20
-1807.358781859999
 30
0.0
  0
VERTEX
  5
A98
  8
DATA
  6
CONTINUOUS
 62
     7
 10
1652.499336963245
 20
-1807.350941286317
 30
0.0
  0
VERTEX
  5
A99
  8
DATA
  6
CONTINUOUS
 62
     7
 10
1652.4992653332361
 20
-1807.343101226164
 30
0.0
  0
VERTEX
  5
A9A
  8
DATA
  6
CONTINUOUS
 62
     7
 10
1652.499190029893
 20
-1807.335261679543
 30
0.0
  0
VERTEX
  5
A9B
  8
DATA
  6
CONTINUOUS
 62
     7
 10
1652.4991110532169
 20
-1807.3274226464521
 30
0.0
  0
VERTEX
  5
A9C
  8
DATA
  6
CONTINUOUS
 62
     7
 10
1652.4990284032069
 20
-1807.3195841268921
 30
0.0
  0
VERTEX
  5
A9D
  8
DATA
  6
CONTINUOUS
 62
     7
 10
1652.4989420798629
 20
-1807.311746120861
 30
0.0
  0
VERTEX
  5
A9E
  8
DATA
  6
CONTINUOUS
 62
     7
 10
1652.4988520831851
 20
-1807.303908628362
 30
0.0
  0
VERTEX
  5
A9F
  8
DATA
  6
CONTINUOUS
 62
     7
 10
1652.4987584131741
 20
-1807.2960716493931
 30
0.0
  0
VERTEX
  5
AA0
  8
DATA
  6
CONTINUOUS
 62
     7
 10
1652.498661069829
 20
-1807.2882351839551
 30
0.0
  0
VERTEX
  5
AA1
  8
DATA
  6
CONTINUOUS
 62
     7
 10
1652.4985600531511
 20
-1807.2803992320471
 30
0.0
  0
VERTEX
  5
AA2
  8
DATA
  6
CONTINUOUS
 62
     7
 10
1652.498455363138
 20
-1807.272563793669
 30
0.0
  0
VERTEX
  5
AA3
  8
DATA
  6
CONTINUOUS
 62
     7
 10
1652.498346999791
 20
-1807.2647288688231
 30
0.0
  0
VERTEX
  5
AA4
  8
DATA
  6
CONTINUOUS
 62
     7
 10
1652.49823496311
 20
-1807.256894457506
 30
0.0
  0
VERTEX
  5
AA5
  8
DATA
  6
CONTINUOUS
 62
     7
 10
1652.4981192530961
 20
-1807.2490605597211
 30
0.0
  0
VERTEX
  5
AA6
  8
DATA
  6
CONTINUOUS
 62
     7
 10
1652.497999869749
 20
-1807.2412271754649
 30
0.0
  0
VERTEX
  5
AA7
  8
DATA
  6
CONTINUOUS
 62
     7
 10
1652.497876813067
 20
-1807.2333943047411
 30
0.0
  0
VERTEX
  5
AA8
  8
DATA
  6
CONTINUOUS
 62
     7
 10
1652.4977500830521
 20
-1807.2255619475461
 30
0.0
  0
VERTEX
  5
AA9
  8
DATA
  6
CONTINUOUS
 62
     7
 10
1652.497619679702
 20
-1807.2177301038821
 30
0.0
  0
VERTEX
  5
AAA
  8
DATA
  6
CONTINUOUS
 62
     7
 10
1652.4974856030201
 20
-1807.209898773749
 30
0.0
  0
VERTEX
  5
AAB
  8
DATA
  6
CONTINUOUS
 62
     7
 10
1652.497347853003
 20
-1807.202067957146
 30
0.0
  0
VERTEX
  5
AAC
  8
DATA
  6
CONTINUOUS
 62
     7
 10
1652.4972064296519
 20
-1807.194237654074
 30
0.0
  0
VERTEX
  5
AAD
  8
DATA
  6
CONTINUOUS
 62
     7
 10
1652.4970613329681
 20
-1807.1864078645331
 30
0.0
  0
VERTEX
  5
AAE
  8
DATA
  6
CONTINUOUS
 62
     7
 10
1652.49691256295
 20
-1807.1785785885211
 30
0.0
  0
VERTEX
  5
AAF
  8
DATA
  6
CONTINUOUS
 62
     7
 10
1652.4967601195981
 20
-1807.1707498260409
 30
0.0
  0
VERTEX
  5
AB0
  8
DATA
  6
CONTINUOUS
 62
     7
 10
1652.4966040029119
 20
-1807.1629215770911
 30
0.0
  0
VERTEX
  5
AB1
  8
DATA
  6
CONTINUOUS
 62
     7
 10
1652.496444212893
 20
-1807.1550938416719
 30
0.0
  0
VERTEX
  5
AB2
  8
DATA
  6
CONTINUOUS
 62
     7
 10
1652.4962807495399
 20
-1807.1472666197819
 30
0.0
  0
VERTEX
  5
AB3
  8
DATA
  6
CONTINUOUS
 62
     7
 10
1652.4961136128529
 20
-1807.139439911424
 30
0.0
  0
VERTEX
  5
AB4
  8
DATA
  6
CONTINUOUS
 62
     7
 10
1652.4959428028319
 20
-1807.1316137165959
 30
0.0
  0
VERTEX
  5
AB5
  8
DATA
  6
CONTINUOUS
 62
     7
 10
1652.495768319478
 20
-1807.123788035298
 30
0.0
  0
VERTEX
  5
AB6
  8
DATA
  6
CONTINUOUS
 62
     7
 10
1652.4955901627891
 20
-1807.1159628675309
 30
0.0
  0
VERTEX
  5
AB7
  8
DATA
  6
CONTINUOUS
 62
     7
 10
1652.495408332768
 20
-1807.108138213295
 30
0.0
  0
VERTEX
  5
AB8
  8
DATA
  6
CONTINUOUS
 62
     7
 10
1652.4952228294119
 20
-1807.1003140725891
 30
0.0
  0
VERTEX
  5
AB9
  8
DATA
  6
CONTINUOUS
 62
     7
 10
1652.495033652722
 20
-1807.092490445413
 30
0.0
  0
VERTEX
  5
ABA
  8
DATA
  6
CONTINUOUS
 62
     7
 10
1652.494840802698
 20
-1807.0846673317681
 30
0.0
  0
VERTEX
  5
ABB
  8
DATA
  6
CONTINUOUS
 62
     7
 10
1652.4946442793409
 20
-1807.0768447316541
 30
0.0
  0
VERTEX
  5
ABC
  8
DATA
  6
CONTINUOUS
 62
     7
 10
1652.4944440826509
 20
-1807.0690226450699
 30
0.0
  0
VERTEX
  5
ABD
  8
DATA
  6
CONTINUOUS
 62
     7
 10
1652.4942402126251
 20
-1807.061201072016
 30
0.0
  0
VERTEX
  5
ABE
  8
DATA
  6
CONTINUOUS
 62
     7
 10
1652.494032669267
 20
-1807.0533800124931
 30
0.0
  0
VERTEX
  5
ABF
  8
DATA
  6
CONTINUOUS
 62
     7
 10
1652.493821452575
 20
-1807.0455594665009
 30
0.0
  0
VERTEX
  5
AC0
  8
DATA
  6
CONTINUOUS
 62
     7
 10
1652.4936065625491
 20
-1807.0377394340401
 30
0.0
  0
VERTEX
  5
AC1
  8
DATA
  6
CONTINUOUS
 62
     7
 10
1652.4933879991891
 20
-1807.0299199151079
 30
0.0
  0
VERTEX
  5
AC2
  8
DATA
  6
CONTINUOUS
 62
     7
 10
1652.493165762495
 20
-1807.0221009097079
 30
0.0
  0
VERTEX
  5
AC3
  8
DATA
  6
CONTINUOUS
 62
     7
 10
1652.4929398524671
 20
-1807.0142824178361
 30
0.0
  0
VERTEX
  5
AC4
  8
DATA
  6
CONTINUOUS
 62
     7
 10
1652.4927102691061
 20
-1807.006464439497
 30
0.0
  0
VERTEX
  5
AC5
  8
DATA
  6
CONTINUOUS
 62
     7
 10
1652.492477012411
 20
-1806.998646974688
 30
0.0
  0
VERTEX
  5
AC6
  8
DATA
  6
CONTINUOUS
 62
     7
 10
1652.492477012411
 20
-1806.998646974688
 30
0.0
  0
SEQEND
  5
AC7
  8
DATA
  6
CONTINUOUS
 62
     7
  0
ARC
  5
499
  8
DATA
  6
CONTINUOUS
 62
     7
 10
1594.26778485771
 20
-1875.449935405853
 30
0.0
 40
97.95267216888341
 50
89.571698993607583
 51
110.52063133407231
  0
ARC
  5
49A
  8
DATA
  6
CONTINUOUS
 62
     7
 10
1577.0302310830609
 20
-1829.106380990173
 30
0.0
 40
48.507375111131992
 50
110.6407832386802
 51
131.00468034343081
  0
ARC
  5
49B
  8
DATA
  6
CONTINUOUS
 62
     7
 10
1558.366061415516
 20
-1808.73801766971
 30
0.0
 40
20.90275596055853
 50
129.02819262928961
 51
176.60452792918929
  0
ARC
  5
49C
  8
DATA
  6
CONTINUOUS
 62
     7
 10
1594.26778485771
 20
-1739.550064594154
 30
0.0
 40
97.952672168883964
 50
249.47936866592761
 51
270.42830100639242
  0
ARC
  5
49D
  8
DATA
  6
CONTINUOUS
 62
     7
 10
1577.0302310830609
 20
-1785.8936190098341
 30
0.0
 40
48.507375111133051
 50
228.99531965656931
 51
249.3592167613196
  0
ARC
  5
49E
  8
DATA
  6
CONTINUOUS
 62
     7
 10
1558.366061415516
 20
-1806.2619823302971
 30
0.0
 40
20.902755960556352
 50
183.395472070811
 51
230.97180737071011
  0
ARC
  5
49F
  8
DATA
  6
CONTINUOUS
 62
     7
 10
1595.7322151422829
 20
-1875.449935405853
 30
0.0
 40
97.952672168883964
 50
69.479368665927609
 51
90.428301006392445
  0
ARC
  5
4A0
  8
DATA
  6
CONTINUOUS
 62
     7
 10
1612.9697689169309
 20
-1829.106380990173
 30
0.0
 40
48.507375111133051
 50
48.995319656569258
 51
69.359216761319644
  0
ARC
  5
4A1
  8
DATA
  6
CONTINUOUS
 62
     7
 10
1631.633938584476
 20
-1808.73801766971
 30
0.0
 40
20.902755960556352
 50
3.395472070810972
 51
50.971807370710152
  0
ARC
  5
4A2
  8
DATA
  6
CONTINUOUS
 62
     7
 10
1595.7322151422829
 20
-1739.550064594154
 30
0.0
 40
97.95267216888341
 50
269.57169899360758
 51
290.52063133407239
  0
ARC
  5
4A3
  8
DATA
  6
CONTINUOUS
 62
     7
 10
1612.9697689169309
 20
-1785.8936190098341
 30
0.0
 40
48.507375111131992
 50
290.64078323868029
 51
311.00468034343078
  0
ARC
  5
4A4
  8
DATA
  6
CONTINUOUS
 62
     7
 10
1631.633938584476
 20
-1806.2619823302971
 30
0.0
 40
20.90275596055853
 50
309.02819262928961
 51
356.60452792918937
  0
LINE
  5
4A5
  8
DATA
  6
CONTINUOUS
 62
     7
 10
1280.0
 20
-1250.000000000002
 30
0.0
 11
1720.0
 21
-1249.999999999997
 31
0.0
  0
LINE
  5
4A6
  8
DATA
  6
CONTINUOUS
 62
     7
 10
1280.0
 20
-1082.0
 30
0.0
 11
1720.0
 21
-1082.0
 31
0.0
  0
LINE
  5
4A7
  8
DATA
  6
CONTINUOUS
 62
     7
 10
1720.0
 20
-1250.000000000002
 30
0.0
 11
1720.0
 21
-1083.587371297838
 31
0.0
  0
LINE
  5
4A8
  8
DATA
  6
CONTINUOUS
 62
     7
 10
1280.0
 20
-1250.000000000002
 30
0.0
 11
1280.0
 21
-1082.000000000005
 31
0.0
  0
LINE
  5
4A9
  8
DATA
  6
CONTINUOUS
 62
     7
 10
1490.0
 20
-1082.0
 30
0.0
 11
1490.0
 21
-1250.000000000002
 31
0.0
  0
LINE
  5
4AA
  8
DATA
  6
CONTINUOUS
 62
     7
 10
1510.0
 20
-1082.0
 30
0.0
 11
1510.0
 21
-1250.000000000002
 31
0.0
  0
LINE
  5
4AB
  8
DATA
  6
CONTINUOUS
 62
     7
 10
1380.0
 20
-1250.000000000002
 30
0.0
 11
1380.0
 21
-1082.0
 31
0.0
  0
LINE
  5
4AC
  8
DATA
  6
CONTINUOUS
 62
     7
 10
1400.0
 20
-1082.0
 30
0.0
 11
1400.0
 21
-1250.000000000002
 31
0.0
  0
LINE
  5
4AD
  8
DATA
  6
CONTINUOUS
 62
     7
 10
1600.0
 20
-1250.000000000002
 30
0.0
 11
1600.0
 21
-1082.0
 31
0.0
  0
LINE
  5
4AE
  8
DATA
  6
CONTINUOUS
 62
     7
 10
1620.0
 20
-1082.0
 30
0.0
 11
1620.0
 21
-1250.000000000002
 31
0.0
  0
LINE
  5
4AF
  8
DATA
  6
CONTINUOUS
 62
     7
 10
1390.0
 20
-995.00000000000216
 30
0.0
 11
1610.0
 21
-995.00000000000216
 31
0.0
  0
LINE
  5
4B0
  8
DATA
  6
CONTINUOUS
 62
     7
 10
1390.0
 20
-995.00000000000216
 30
0.0
 11
1390.0
 21
-1082.0
 31
0.0
  0
LINE
  5
4B1
  8
DATA
  6
CONTINUOUS
 62
     7
 10
1610.0
 20
-995.00000000000216
 30
0.0
 11
1610.0
 21
-1082.0
 31
0.0
  0
LINE
  5
4B2
  8
DATA
  6
CONTINUOUS
 62
     7
 10
1500.0
 20
-995.00000000000216
 30
0.0
 11
1500.0
 21
-1082.0
 31
0.0
  0
LINE
  5
4B3
  8
DATA
  6
CONTINUOUS
 62
     7
 10
1535.0
 20
-1028.5000000000009
 30
0.0
 11
1575.0
 21
-1028.5000000000009
 31
0.0
  0
LINE
  5
4B4
  8
DATA
  6
CONTINUOUS
 62
     7
 10
1555.0
 20
-1048.499999999997
 30
0.0
 11
1555.0
 21
-1008.500000000001
 31
0.0
  0
LINE
  5
4B5
  8
DATA
  6
CONTINUOUS
 62
     7
 10
1425.000000000018
 20
-1028.499999999997
 30
0.0
 11
1465.0
 21
-1028.499999999997
 31
0.0
  0
LINE
  5
4B6
  8
DATA
  6
CONTINUOUS
 62
     7
 10
1280.0
 20
-1103.5000000000059
 30
0.0
 11
1380.0
 21
-1103.5000000000059
 31
0.0
  0
LINE
  5
4B7
  8
DATA
  6
CONTINUOUS
 62
     7
 10
1400.0
 20
-1103.5000000000059
 30
0.0
 11
1490.0
 21
-1103.5000000000059
 31
0.0
  0
LINE
  5
4B8
  8
DATA
  6
CONTINUOUS
 62
     7
 10
1510.0
 20
-1103.5000000000059
 30
0.0
 11
1600.0
 21
-1103.5000000000059
 31
0.0
  0
LINE
  5
4B9
  8
DATA
  6
CONTINUOUS
 62
     7
 10
1620.0
 20
-1103.5000000000059
 30
0.0
 11
1720.0
 21
-1103.5000000000059
 31
0.0
  0
LINE
  5
4BA
  8
DATA
  6
CONTINUOUS
 62
     7
 10
1280.0
 20
-1228.5000000000059
 30
0.0
 11
1380.0
 21
-1228.5000000000059
 31
0.0
  0
LINE
  5
4BB
  8
DATA
  6
CONTINUOUS
 62
     7
 10
1400.0
 20
-1228.5000000000059
 30
0.0
 11
1490.0
 21
-1228.5000000000059
 31
0.0
  0
LINE
  5
4BC
  8
DATA
  6
CONTINUOUS
 62
     7
 10
1510.0
 20
-1228.5000000000059
 30
0.0
 11
1600.0
 21
-1228.5000000000059
 31
0.0
  0
LINE
  5
4BD
  8
DATA
  6
CONTINUOUS
 62
     7
 10
1620.0
 20
-1228.5000000000059
 30
0.0
 11
1720.0
 21
-1228.5000000000059
 31
0.0
  0
CIRCLE
  5
4BE
  8
DATA
  6
CONTINUOUS
 62
     7
 10
1335.0
 20
-1165.9999999999991
 30
0.0
 40
40.0
  0
LINE
  5
4BF
  8
DATA
  6
CONTINUOUS
 62
     7
 10
1310.0
 20
-1165.9999999999991
 30
0.0
 11
1360.0
 21
-1165.9999999999991
 31
0.0
  0
LINE
  5
4C0
  8
DATA
  6
CONTINUOUS
 62
     7
 10
1335.0
 20
-1191.0000000000009
 30
0.0
 11
1335.0
 21
-1141.0000000000009
 31
0.0
  0
CIRCLE
  5
4C1
  8
DATA
  6
CONTINUOUS
 62
     7
 10
1445.0
 20
-1165.9999999999991
 30
0.0
 40
27.5
  0
LINE
  5
4C2
  8
DATA
  6
CONTINUOUS
 62
     7
 10
1418.4370397770499
 20
-1173.1175237403179
 30
0.0
 11
1471.562960222948
 21
-1158.8824762596801
 31
0.0
  0
LINE
  5
4C3
  8
DATA
  6
CONTINUOUS
 62
     7
 10
1448.8822856765371
 20
-1180.4888873943351
 30
0.0
 11
1441.1177143234629
 21
-1151.511112605664
 31
0.0
  0
POLYLINE
  5
4C4
  8
DATA
  6
CONTINUOUS
 62
     7
 66
     1
 10
0.0
 20
0.0
 30
0.0
 70
     1
  0
VERTEX
  5
AC8
  8
DATA
  6
CONTINUOUS
 62
     7
 10
1405.0
 20
-1126.0000000000009
 30
0.0
  0
VERTEX
  5
AC9
  8
DATA
  6
CONTINUOUS
 62
     7
 10
1485.0
 20
-1126.0000000000009
 30
0.0
  0
VERTEX
  5
ACA
  8
DATA
  6
CONTINUOUS
 62
     7
 10
1485.0
 20
-1206.0000000000009
 30
0.0
  0
VERTEX
  5
ACB
  8
DATA
  6
CONTINUOUS
 62
     7
 10
1405.0
 20
-1206.0000000000009
 30
0.0
  0
SEQEND
  5
ACC
  8
DATA
  6
CONTINUOUS
 62
     7
  0
CIRCLE
  5
4CB
  8
DATA
  6
CONTINUOUS
 62
     7
 10
1555.0
 20
-1166.0000000000009
 30
0.0
 40
27.5
  0
LINE
  5
4CC
  8
DATA
  6
CONTINUOUS
 62
     7
 10
1528.4370397770499
 20
-1173.1175237403199
 30
0.0
 11
1581.5629602229469
 21
-1158.8824762596821
 31
0.0
  0
LINE
  5
4CD
  8
DATA
  6
CONTINUOUS
 62
     7
 10
1558.8822856765371
 20
-1180.4888873943371
 30
0.0
 11
1551.1177143234629
 21
-1151.511112605667
 31
0.0
  0
POLYLINE
  5
4CE
  8
DATA
  6
CONTINUOUS
 62
     7
 66
     1
 10
0.0
 20
0.0
 30
0.0
 70
     1
  0
VERTEX
  5
ACD
  8
DATA
  6
CONTINUOUS
 62
     7
 10
1515.0
 20
-1126.000000000003
 30
0.0
  0
VERTEX
  5
ACE
  8
DATA
  6
CONTINUOUS
 62
     7
 10
1595.0
 20
-1126.000000000003
 30
0.0
  0
VERTEX
  5
ACF
  8
DATA
  6
CONTINUOUS
 62
     7
 10
1595.0
 20
-1206.000000000003
 30
0.0
  0
VERTEX
  5
AD0
  8
DATA
  6
CONTINUOUS
 62
     7
 10
1515.0
 20
-1206.000000000003
 30
0.0
  0
SEQEND
  5
AD1
  8
DATA
  6
CONTINUOUS
 62
     7
  0
CIRCLE
  5
4D5
  8
DATA
  6
CONTINUOUS
 62
     7
 10
1665.0000000000091
 20
-1165.9999999999991
 30
0.0
 40
40.0
  0
LINE
  5
4D6
  8
DATA
  6
CONTINUOUS
 62
     7
 10
1640.0000000000091
 20
-1165.9999999999991
 30
0.0
 11
1690.0000000000091
 21
-1165.9999999999991
 31
0.0
  0
LINE
  5
4D7
  8
DATA
  6
CONTINUOUS
 62
     7
 10
1665.0000000000091
 20
-1191.0000000000009
 30
0.0
 11
1665.0000000000091
 21
-1141.0000000000009
 31
0.0
  0
LINE
  5
4D8
  8
DATA
  6
CONTINUOUS
 62
     7
 10
-361.73935860692148
 20
-1011.906821857399
 30
0.0
 11
-341.81074829204857
 21
-1265.123824625613
 31
0.0
  0
LINE
  5
4D9
  8
DATA
  6
CONTINUOUS
 62
     7
 10
-625.0
 20
-2500.0
 30
0.0
 11
-173.38799999999901
 21
-2500.0
 31
0.0
  0
LINE
  5
4DA
  8
DATA
  6
CONTINUOUS
 62
     7
 10
-625.0
 20
-1616.5879999999991
 30
0.0
 11
-173.38799999999901
 21
-1616.5879999999991
 31
0.0
  0
LINE
  5
4DB
  8
DATA
  6
CONTINUOUS
 62
     7
 10
-625.0
 20
-2500.0
 30
0.0
 11
-625.0
 21
-1616.5879999999991
 31
0.0
  0
LINE
  5
4DC
  8
DATA
  6
CONTINUOUS
 62
     7
 10
-488.0
 20
-2045.088
 30
0.0
 11
-488.0
 21
-1897.088
 31
0.0
  0
LINE
  5
4DD
  8
DATA
  6
CONTINUOUS
 62
     7
 10
-310.3879999999989
 20
-1897.088
 30
0.0
 11
-310.3879999999989
 21
-2045.088
 31
0.0
  0
LINE
  5
4DE
  8
DATA
  6
CONTINUOUS
 62
     7
 10
-488.0
 20
-1897.088
 30
0.0
 11
-310.3879999999989
 21
-1897.088
 31
0.0
  0
LINE
  5
4DF
  8
DATA
  6
CONTINUOUS
 62
     7
 10
-488.0
 20
-2045.088
 30
0.0
 11
-310.3879999999989
 21
-2045.088
 31
0.0
  0
LINE
  5
4E0
  8
DATA
  6
CONTINUOUS
 62
     7
 10
-623.99999999994179
 20
-1596.0879999999991
 30
0.0
 11
-623.99999999994179
 21
-561.97999999999956
 31
0.0
  0
LINE
  5
4E1
  8
DATA
  6
CONTINUOUS
 62
     7
 10
-632.99999999994361
 20
-561.98000000000047
 30
0.0
 11
-632.99999999994179
 21
-1593.0879999999991
 31
0.0
  0
LINE
  5
4E2
  8
DATA
  6
CONTINUOUS
 62
     7
 10
-610.79999999994277
 20
-1516.0879999999991
 30
0.0
 11
-610.79999999994277
 21
-574.03799999999956
 31
0.0
  0
LINE
  5
4E3
  8
DATA
  6
CONTINUOUS
 62
     7
 10
-333.66702417856959
 20
-698.11365497755639
 30
0.0
 11
-329.51649583342248
 21
-750.85111789427799
 31
0.0
  0
LINE
  5
4E4
  8
DATA
  6
CONTINUOUS
 62
     7
 10
-284.10675346289281
 20
-773.40757579274646
 30
0.0
 11
-292.344958514317
 21
-668.73125575076836
 31
0.0
  0
LINE
  5
4E5
  8
DATA
  6
CONTINUOUS
 62
     7
 10
-288.80520784114742
 20
-783.80827415658132
 30
0.0
 11
-298.61259480712761
 21
-659.19360743993991
 31
0.0
  0
LINE
  5
4E6
  8
DATA
  6
CONTINUOUS
 62
     7
 10
-300.2697571790776
 20
-784.71055375745073
 30
0.0
 11
-310.0771441450579
 21
-660.09588704080943
 31
0.0
  0
LINE
  5
4E7
  8
DATA
  6
CONTINUOUS
 62
     7
 10
-304.54355880442188
 20
-775.01598725516681
 30
0.0
 11
-312.78176385584618
 21
-670.33966721318836
 31
0.0
  0
LINE
  5
4E8
  8
DATA
  6
CONTINUOUS
 62
     7
 10
-274.2390901320195
 20
-758.58768306747686
 30
0.0
 11
-280.28044050306278
 21
-681.82504837002477
 31
0.0
  0
LINE
  5
4E9
  8
DATA
  6
CONTINUOUS
 62
     7
 10
-280.10290549082578
 20
-760.55381364244386
 30
0.0
 11
-286.3796331490538
 21
-680.80042694379335
 31
0.0
  0
LINE
  5
4EA
  8
DATA
  6
CONTINUOUS
 62
     7
 10
-326.48017833019719
 20
-687.46723098883558
 30
0.0
 11
-320.75266434206418
 21
-760.24219635135421
 31
0.0
  0
LINE
  5
4EB
  8
DATA
  6
CONTINUOUS
 62
     7
 10
-327.23262701132978
 20
-760.75218047358521
 30
0.0
 11
-332.96014099946291
 21
-687.97721511106636
 31
0.0
  0
LINE
  5
4EC
  8
DATA
  6
CONTINUOUS
 62
     7
 10
-262.75836215695199
 20
-745.14547769921421
 30
0.0
 11
-266.83823513480002
 21
-693.30577634509041
 31
0.0
  0
LINE
  5
4ED
  8
DATA
  6
CONTINUOUS
 62
     7
 10
-598.49999999994282
 20
-1549.5879999999991
 30
0.0
 11
-577.02064005238378
 21
-1549.5879999999991
 31
0.0
  0
ARC
  5
4EE
  8
DATA
  6
CONTINUOUS
 62
     7
 10
-598.49999999994282
 20
-1557.0879999999991
 30
0.0
 40
7.5
 50
90.0
 51
180.0
  0
LINE
  5
4EF
  8
DATA
  6
CONTINUOUS
 62
     7
 10
-605.99999999994282
 20
-1616.5879999999991
 30
0.0
 11
-605.99999999994282
 21
-1557.0879999999991
 31
0.0
  0
LINE
  5
4F0
  8
DATA
  6
CONTINUOUS
 62
     7
 10
-312.9999999999427
 20
-1590.5880000000011
 30
0.0
 11
-292.65043145931747
 21
-1396.9747884183089
 31
0.0
  0
LINE
  5
4F1
  8
DATA
  6
CONTINUOUS
 62
     7
 10
-312.9999999999427
 20
-1616.5879999999991
 30
0.0
 11
-312.9999999999427
 21
-1590.5879999999991
 31
0.0
  0
LINE
  5
4F2
  8
DATA
  6
CONTINUOUS
 62
     7
 10
-267.78738407511082
 20
-1374.5879999999991
 30
0.0
 11
-267.352193099874
 21
-1374.5879999999991
 31
0.0
  0
ARC
  5
4F3
  8
DATA
  6
CONTINUOUS
 62
     7
 10
-267.78738407511082
 20
-1399.5879999999991
 30
0.0
 40
25.0
 50
89.999999999997925
 51
174.00000000000111
  0
LINE
  5
4F4
  8
DATA
  6
CONTINUOUS
 62
     7
 10
-267.78738407511082
 20
-1374.5879999999991
 30
0.0
 11
-266.95152206613051
 21
-1374.5879999999991
 31
0.0
  0
ARC
  5
4F5
  8
DATA
  6
CONTINUOUS
 62
     7
 10
-231.21261592477089
 20
-1399.5879999999991
 30
0.0
 40
25.000000000000789
 50
5.9999999999986837
 51
51.240032234833031
  0
ARC
  5
4F6
  8
DATA
  6
CONTINUOUS
 62
     7
 10
-577.02064005238378
 20
-1557.0879999999991
 30
0.0
 40
7.4999999999996572
 50
25.00000000000237
 51
90.0
  0
LINE
  5
4F7
  8
DATA
  6
CONTINUOUS
 62
     7
 10
-185.99999999994259
 20
-1616.5879999999991
 30
0.0
 11
-185.99999999993901
 21
-1590.5879999999991
 31
0.0
  0
LINE
  5
4F8
  8
DATA
  6
CONTINUOUS
 62
     7
 10
-185.9999999999381
 20
-1590.5880000000011
 30
0.0
 11
-206.34956854056321
 21
-1396.9747884183089
 31
0.0
  0
LINE
  5
4F9
  8
DATA
  6
CONTINUOUS
 62
     7
 10
-542.39892297440917
 20
-1613.5879999999991
 30
0.0
 11
-312.9999999999427
 21
-1613.5879999999991
 31
0.0
  0
LINE
  5
4FA
  8
DATA
  6
CONTINUOUS
 62
     7
 10
-570.22333164960855
 20
-1553.918363036945
 30
0.0
 11
-540.9999999999427
 21
-1616.5879999999991
 31
0.0
  0
LINE
  5
4FB
  8
DATA
  6
CONTINUOUS
 62
     7
 10
-314.9999999999435
 20
-1613.5879999999991
 30
0.0
 11
-314.9999999999427
 21
-1616.5879999999991
 31
0.0
  0
LINE
  5
4FC
  8
DATA
  6
CONTINUOUS
 62
     7
 10
-538.99999999994361
 20
-1616.5879999999991
 30
0.0
 11
-538.99999999994361
 21
-1613.5879999999991
 31
0.0
  0
CIRCLE
  5
4FD
  8
DATA
  6
CONTINUOUS
 62
     7
 10
-220.4999999999354
 20
-1565.0879999999991
 30
0.0
 40
4.4999999999990896
  0
CIRCLE
  5
4FE
  8
DATA
  6
CONTINUOUS
 62
     7
 10
-222.36376334365369
 20
-1528.072868357398
 30
0.0
 40
4.5
  0
CIRCLE
  5
4FF
  8
DATA
  6
CONTINUOUS
 62
     7
 10
-227.02765117876879
 20
-1496.0353484297109
 30
0.0
 40
4.5
  0
LINE
  5
500
  8
DATA
  6
CONTINUOUS
 62
     7
 10
-610.79999999994277
 20
-1516.0879999999991
 30
0.0
 11
-577.29999999994016
 21
-1549.5879999999991
 31
0.0
  0
ARC
  5
501
  8
DATA
  6
CONTINUOUS
 62
     7
 10
-627.7499999999435
 20
-1581.5879999999991
 30
0.0
 40
8.7499999999989093
 50
126.8698976458345
 51
233.1301023541655
  0
ARC
  5
502
  8
DATA
  6
CONTINUOUS
 62
     7
 10
-627.7499999999435
 20
-1558.0589999999991
 30
0.0
 40
8.7499999999989093
 50
126.8698976458345
 51
233.1301023541655
  0
LINE
  5
503
  8
DATA
  6
CONTINUOUS
 62
     7
 10
-623.99999999994179
 20
-1596.0879999999991
 30
0.0
 11
-605.99999999994168
 21
-1596.0879999999991
 31
0.0
  0
LINE
  5
504
  8
DATA
  6
CONTINUOUS
 62
     7
 10
-632.99999999994361
 20
-1593.0879999999991
 30
0.0
 11
-623.99999999994282
 21
-1593.088
 31
0.0
  0
LINE
  5
505
  8
DATA
  6
CONTINUOUS
 62
     7
 10
-341.81074829204857
 20
-1265.123824625613
 30
0.0
 11
-275.97432757231388
 21
-1259.9423859437461
 31
0.0
  0
LINE
  5
506
  8
DATA
  6
CONTINUOUS
 62
     7
 10
-295.90293788718549
 20
-1006.725383175532
 30
0.0
 11
-259.69265294506289
 21
-1466.8206772053779
 31
0.0
  0
LINE
  5
507
  8
DATA
  6
CONTINUOUS
 62
     7
 10
-209.0492523914198
 20
-1462.834955142403
 30
0.0
 11
-245.25953733354251
 21
-1002.739661112559
 31
0.0
  0
LINE
  5
508
  8
DATA
  6
CONTINUOUS
 62
     7
 10
-361.73935860692148
 20
-1011.906821857399
 30
0.0
 11
-245.25953733354251
 21
-1002.739661112559
 31
0.0
  0
ARC
  5
509
  8
DATA
  6
CONTINUOUS
 62
     7
 10
-234.37095266824139
 20
-1464.8278161738899
 30
0.0
 40
25.400000000000048
 50
184.50000000000011
 51
4.5000000000001421
  0
CIRCLE
  5
50A
  8
DATA
  6
CONTINUOUS
 62
     7
 10
-234.359183803881
 20
-1464.9773537739511
 30
0.0
 40
8.75
  0
LINE
  5
50B
  8
DATA
  6
CONTINUOUS
 62
     7
 10
-234.359183803881
 20
-1472.2273537739511
 30
0.0
 11
-228.08049962644409
 21
-1468.6023537739511
 31
0.0
  0
LINE
  5
50C
  8
DATA
  6
CONTINUOUS
 62
     7
 10
-228.08049962644409
 20
-1461.3523537739511
 30
0.0
 11
-234.359183803881
 21
-1457.7273537739511
 31
0.0
  0
LINE
  5
50D
  8
DATA
  6
CONTINUOUS
 62
     7
 10
-240.63786798131869
 20
-1461.3523537739511
 30
0.0
 11
-240.63786798131869
 21
-1468.6023537739511
 31
0.0
  0
LINE
  5
50E
  8
DATA
  6
CONTINUOUS
 62
     7
 10
-240.63786798131869
 20
-1468.6023537739511
 30
0.0
 11
-234.359183803881
 21
-1472.2273537739511
 31
0.0
  0
LINE
  5
50F
  8
DATA
  6
CONTINUOUS
 62
     7
 10
-234.359183803881
 20
-1457.7273537739511
 30
0.0
 11
-240.63786798131869
 21
-1461.3523537739511
 31
0.0
  0
LINE
  5
510
  8
DATA
  6
CONTINUOUS
 62
     7
 10
-228.08049962644409
 20
-1468.6023537739511
 30
0.0
 11
-228.08049962644409
 21
-1461.3523537739511
 31
0.0
  0
CIRCLE
  5
511
  8
DATA
  6
CONTINUOUS
 62
     7
 10
-321.85579298400251
 20
-1034.3467682299361
 30
0.0
 40
5.5
  0
LINE
  5
512
  8
DATA
  6
CONTINUOUS
 62
     7
 10
-325.35579298400262
 20
-1034.3467682299361
 30
0.0
 11
-318.35579298400262
 21
-1034.3467682299361
 31
0.0
  0
LINE
  5
513
  8
DATA
  6
CONTINUOUS
 62
     7
 10
-321.85579298400251
 20
-1037.8467682299361
 30
0.0
 11
-321.85579298400251
 21
-1030.8467682299361
 31
0.0
  0
CIRCLE
  5
514
  8
DATA
  6
CONTINUOUS
 62
     7
 10
-305.88936700338672
 20
-1237.2194456446271
 30
0.0
 40
5.5
  0
LINE
  5
515
  8
DATA
  6
CONTINUOUS
 62
     7
 10
-309.38936700338672
 20
-1237.2194456446271
 30
0.0
 11
-302.38936700338672
 21
-1237.2194456446271
 31
0.0
  0
LINE
  5
516
  8
DATA
  6
CONTINUOUS
 62
     7
 10
-305.88936700338672
 20
-1240.719445644628
 30
0.0
 11
-305.88936700338672
 21
-1233.719445644628
 31
0.0
  0
ARC
  5
517
  8
DATA
  6
CONTINUOUS
 62
     7
 10
-627.7499999999435
 20
-1268.0340000000001
 30
0.0
 40
8.7499999999989093
 50
126.8698976458345
 51
233.1301023541655
  0
ARC
  5
518
  8
DATA
  6
CONTINUOUS
 62
     7
 10
-627.7499999999427
 20
-1242.509
 30
0.0
 40
8.7499999999994547
 50
126.8698976458393
 51
233.13010235416081
  0
LINE
  5
519
  8
DATA
  6
CONTINUOUS
 62
     7
 10
-342.36823258140231
 20
-1267.9301782851151
 30
0.0
 11
-369.24523821713319
 21
-926.41565870887803
 31
0.0
  0
LINE
  5
51A
  8
DATA
  6
CONTINUOUS
 62
     7
 10
-214.0
 20
-1381.457201533678
 30
0.0
 11
-214.0
 21
-905.58799999999985
 31
0.0
  0
LINE
  5
51B
  8
DATA
  6
CONTINUOUS
 62
     7
 10
-359.96410432620382
 20
-915.65478820418946
 30
0.0
 11
-214.0
 21
-905.58799999999985
 31
0.0
  0
LINE
  5
51C
  8
DATA
  6
CONTINUOUS
 62
     7
 10
-356.72703166527481
 20
-752.99263350785611
 30
0.0
 11
-344.01224740430888
 21
-914.55462754594055
 31
0.0
  0
LINE
  5
51D
  8
DATA
  6
CONTINUOUS
 62
     7
 10
-333.7674501977034
 20
-751.18567525838057
 30
0.0
 11
-321.03517227252638
 21
-912.96995472537844
 31
0.0
  0
LINE
  5
51E
  8
DATA
  6
CONTINUOUS
 62
     7
 10
-348.77618233719909
 20
-1480.882979062668
 30
0.0
 11
-301.1241259016212
 21
-1477.5966056161069
 31
0.0
  0
LINE
  5
51F
  8
DATA
  6
CONTINUOUS
 62
     7
 10
-368.80014899458541
 20
-753.94280844836601
 30
0.0
 11
-610.79999999994277
 21
-901.97999999999956
 31
0.0
  0
ARC
  5
520
  8
DATA
  6
CONTINUOUS
 62
     7
 10
-627.7499999999427
 20
-978.0089999999999
 30
0.0
 40
8.7499999999994547
 50
126.8698976458393
 51
233.13010235416081
  0
ARC
  5
521
  8
DATA
  6
CONTINUOUS
 62
     7
 10
-627.74999999994179
 20
-901.00899999999922
 30
0.0
 40
8.7499999999994547
 50
126.8698976458393
 51
233.13010235416081
  0
ARC
  5
522
  8
DATA
  6
CONTINUOUS
 62
     7
 10
-627.74999999994179
 20
-749.00899999999876
 30
0.0
 40
8.7499999999994547
 50
126.8698976458393
 51
233.13010235416081
  0
ARC
  5
523
  8
DATA
  6
CONTINUOUS
 62
     7
 10
-627.74999999994179
 20
-927.97999999999956
 30
0.0
 40
8.7499999999994547
 50
126.8698976458393
 51
233.13010235416081
  0
ARC
  5
524
  8
DATA
  6
CONTINUOUS
 62
     7
 10
-627.74999999994179
 20
-954.97999999999968
 30
0.0
 40
8.7499999999994547
 50
126.8698976458393
 51
233.13010235416081
  0
LINE
  5
525
  8
DATA
  6
CONTINUOUS
 62
     7
 10
-368.80014899458541
 20
-753.94280844836601
 30
0.0
 11
-329.51649583342157
 21
-750.85111789427799
 31
0.0
  0
LINE
  5
526
  8
DATA
  6
CONTINUOUS
 62
     7
 10
-320.75266434206418
 20
-760.24219635135421
 30
0.0
 11
-304.54355880442188
 21
-775.01598725516681
 31
0.0
  0
LINE
  5
527
  8
DATA
  6
CONTINUOUS
 62
     7
 10
-289.58979879842519
 20
-773.83910081925023
 30
0.0
 11
-284.10675346289281
 21
-773.40757579274646
 31
0.0
  0
LINE
  5
528
  8
DATA
  6
CONTINUOUS
 62
     7
 10
-304.54355880442188
 20
-775.01598725516681
 30
0.0
 11
-301.05434813635651
 21
-774.74138042011873
 31
0.0
  0
LINE
  5
529
  8
DATA
  6
CONTINUOUS
 62
     7
 10
-300.2697571790776
 20
-784.71055375745073
 30
0.0
 11
-288.80520784114742
 21
-783.80827415658132
 31
0.0
  0
LINE
  5
52A
  8
DATA
  6
CONTINUOUS
 62
     7
 10
-275.21982882861721
 20
-746.12621639581164
 30
0.0
 11
-262.75836215695199
 21
-745.14547769921421
 31
0.0
  0
LINE
  5
52B
  8
DATA
  6
CONTINUOUS
 62
     7
 10
-285.08749215949132
 20
-760.94610912108215
 30
0.0
 11
-280.10290549082578
 21
-760.55381364244386
 31
0.0
  0
LINE
  5
52C
  8
DATA
  6
CONTINUOUS
 62
     7
 10
-280.2205941344173
 20
-759.0584376418434
 30
0.0
 11
-274.2390901320195
 21
-758.58768306747686
 31
0.0
  0
LINE
  5
52D
  8
DATA
  6
CONTINUOUS
 62
     7
 10
-327.23262701132978
 20
-760.75218047358521
 30
0.0
 11
-320.75266434206418
 21
-760.24219635135421
 31
0.0
  0
LINE
  5
52E
  8
DATA
  6
CONTINUOUS
 62
     7
 10
-372.95067733972968
 20
-701.20534553164634
 30
0.0
 11
-610.79999999994277
 21
-601.97999999999945
 31
0.0
  0
ARC
  5
52F
  8
DATA
  6
CONTINUOUS
 62
     7
 10
-627.74999999994179
 20
-597.0089999999999
 30
0.0
 40
8.7499999999994547
 50
126.8698976458393
 51
233.13010235416081
  0
LINE
  5
530
  8
DATA
  6
CONTINUOUS
 62
     7
 10
-632.99999999994361
 20
-561.97999999999956
 30
0.0
 11
-623.99999999994361
 21
-561.98000000000047
 31
0.0
  0
LINE
  5
531
  8
DATA
  6
CONTINUOUS
 62
     7
 10
-623.99999999994179
 20
-574.03799999999956
 30
0.0
 11
-610.79999999994277
 21
-574.03799999999956
 31
0.0
  0
LINE
  5
532
  8
DATA
  6
CONTINUOUS
 62
     7
 10
-372.95067733972968
 20
-701.20534553164634
 30
0.0
 11
-333.66702417856959
 21
-698.11365497755753
 31
0.0
  0
LINE
  5
533
  8
DATA
  6
CONTINUOUS
 62
     7
 10
-279.29970180646518
 20
-694.28651504168931
 30
0.0
 11
-266.83823513480002
 21
-693.30577634509041
 31
0.0
  0
LINE
  5
534
  8
DATA
  6
CONTINUOUS
 62
     7
 10
-291.36421981771849
 20
-681.19272242243267
 30
0.0
 11
-286.3796331490538
 21
-680.80042694379335
 31
0.0
  0
LINE
  5
535
  8
DATA
  6
CONTINUOUS
 62
     7
 10
-286.26194450546149
 20
-682.29580294439245
 30
0.0
 11
-280.28044050306278
 21
-681.8250483700258
 31
0.0
  0
LINE
  5
536
  8
DATA
  6
CONTINUOUS
 62
     7
 10
-297.8280038498487
 20
-669.16278077727111
 30
0.0
 11
-292.344958514317
 21
-668.73125575076836
 31
0.0
  0
LINE
  5
537
  8
DATA
  6
CONTINUOUS
 62
     7
 10
-312.78176385584618
 20
-670.33966721318836
 30
0.0
 11
-309.2925531877799
 21
-670.06506037814142
 31
0.0
  0
LINE
  5
538
  8
DATA
  6
CONTINUOUS
 62
     7
 10
-312.78176385584618
 20
-670.33966721318836
 30
0.0
 11
-326.48017833019719
 21
-687.46723098883558
 31
0.0
  0
LINE
  5
539
  8
DATA
  6
CONTINUOUS
 62
     7
 10
-310.0771441450579
 20
-660.09588704080943
 30
0.0
 11
-298.61259480712761
 21
-659.19360743993991
 31
0.0
  0
LINE
  5
53A
  8
DATA
  6
CONTINUOUS
 62
     7
 10
-332.96014099946291
 20
-687.97721511106636
 30
0.0
 11
-326.48017833019719
 21
-687.46723098883558
 31
0.0
  0
LINE
  5
53B
  8
DATA
  6
CONTINUOUS
 62
     7
 10
-330.33641447435002
 20
-740.43306377564738
 30
0.0
 11
-328.84103847375081
 21
-740.31537513205501
 31
0.0
  0
LINE
  5
53C
  8
DATA
  6
CONTINUOUS
 62
     7
 10
-332.8471055376412
 20
-708.53170909618711
 30
0.0
 11
-331.35172953704199
 21
-708.41402045259565
 31
0.0
  0
LINE
  5
53D
  8
DATA
  6
CONTINUOUS
 62
     7
 10
-173.38799999999901
 20
-2500.0
 30
0.0
 11
-173.38799999999901
 21
-1616.5879999999991
 31
0.0
  0
LINE
  5
53E
  8
DATA
  6
CONTINUOUS
 62
     7
 10
138.49199999999931
 20
-2480.0
 30
0.0
 11
138.49199999999931
 21
-1636.5879999999991
 31
0.0
  0
LINE
  5
53F
  8
DATA
  6
CONTINUOUS
 62
     7
 10
861.50799999999981
 20
-2480.0
 30
0.0
 11
861.50799999999981
 21
-1636.5879999999991
 31
0.0
  0
LINE
  5
540
  8
DATA
  6
CONTINUOUS
 62
     7
 10
118.49199999999929
 20
-2500.0
 30
0.0
 11
118.49199999999929
 21
-1616.5879999999991
 31
0.0
  0
LINE
  5
541
  8
DATA
  6
CONTINUOUS
 62
     7
 10
881.50800000000072
 20
-2500.0
 30
0.0
 11
881.50800000000072
 21
-1616.5879999999991
 31
0.0
  0
LINE
  5
542
  8
DATA
  6
CONTINUOUS
 62
     7
 10
118.49199999999929
 20
-2500.0
 30
0.0
 11
881.50800000000072
 21
-2500.0
 31
0.0
  0
LINE
  5
543
  8
DATA
  6
CONTINUOUS
 62
     7
 10
138.49199999999931
 20
-2480.0
 30
0.0
 11
861.50799999999981
 21
-2480.0
 31
0.0
  0
TEXT
  5
544
  8
DATA
 62
     7
 10
484.5000000000008
 20
-2187.8222656250009
 30
0.0
 40
4.1332244873046884
  1
Model         3639
 41
0.7
 11
484.5000000000008
 21
-2183.6890411376962
 31
0.0
 73
     3
  0
CIRCLE
  5
545
  8
DATA
  6
CONTINUOUS
 62
     7
 10
500.0
 20
-2057.0
 30
0.0
 40
4.0
  0
LINE
  5
546
  8
DATA
  6
CONTINUOUS
 62
     7
 10
497.0
 20
-2057.0
 30
0.0
 11
502.99999999999909
 21
-2057.0
 31
0.0
  0
LINE
  5
547
  8
DATA
  6
CONTINUOUS
 62
     7
 10
500.0
 20
-2060.0
 30
0.0
 11
500.0
 21
-2054.0
 31
0.0
  0
LINE
  5
548
  8
DATA
  6
CONTINUOUS
 62
     7
 10
464.99999999999909
 20
-2233.25
 30
0.0
 11
464.99999999999909
 21
-2284.25
 31
0.0
  0
LINE
  5
549
  8
DATA
  6
CONTINUOUS
 62
     7
 10
484.75
 20
-2265.0
 30
0.0
 11
484.75
 21
-2246.75
 31
0.0
  0
LINE
  5
54A
  8
DATA
  6
CONTINUOUS
 62
     7
 10
496.24999999999909
 20
-2265.0
 30
0.0
 11
496.24999999999909
 21
-2246.75
 31
0.0
  0
LINE
  5
54B
  8
DATA
  6
CONTINUOUS
 62
     7
 10
503.75
 20
-2265.0
 30
0.0
 11
503.75
 21
-2246.75
 31
0.0
  0
LINE
  5
54C
  8
DATA
  6
CONTINUOUS
 62
     7
 10
515.24999999999909
 20
-2265.0
 30
0.0
 11
515.24999999999909
 21
-2246.75
 31
0.0
  0
LINE
  5
54D
  8
DATA
  6
CONTINUOUS
 62
     7
 10
534.9999999999992
 20
-2233.25
 30
0.0
 11
534.9999999999992
 21
-2284.25
 31
0.0
  0
LINE
  5
54E
  8
DATA
  6
CONTINUOUS
 62
     7
 10
453.7500000000008
 20
-2222.5
 30
0.0
 11
453.7500000000008
 21
-2295.0
 31
0.0
  0
LINE
  5
54F
  8
DATA
  6
CONTINUOUS
 62
     7
 10
546.2500000000008
 20
-2222.5
 30
0.0
 11
546.2499999999992
 21
-2295.0
 31
0.0
  0
LINE
  5
550
  8
DATA
  6
CONTINUOUS
 62
     7
 10
534.9999999999992
 20
-2284.25
 30
0.0
 11
464.99999999999909
 21
-2284.25
 31
0.0
  0
CIRCLE
  5
551
  8
DATA
  6
CONTINUOUS
 62
     7
 10
459.49999999999989
 20
-2290.25
 30
0.0
 40
3.0
  0
LINE
  5
552
  8
DATA
  6
CONTINUOUS
 62
     7
 10
461.24999999999909
 20
-2290.25
 30
0.0
 11
457.74999999999909
 21
-2290.25
 31
0.0
  0
LINE
  5
553
  8
DATA
  6
CONTINUOUS
 62
     7
 10
459.49999999999909
 20
-2288.5
 30
0.0
 11
459.49999999999909
 21
-2292.0
 31
0.0
  0
CIRCLE
  5
554
  8
DATA
  6
CONTINUOUS
 62
     7
 10
540.4999999999992
 20
-2290.25
 30
0.0
 40
3.0
  0
LINE
  5
555
  8
DATA
  6
CONTINUOUS
 62
     7
 10
542.25
 20
-2290.25
 30
0.0
 11
538.75
 21
-2290.25
 31
0.0
  0
LINE
  5
556
  8
DATA
  6
CONTINUOUS
 62
     7
 10
540.4999999999992
 20
-2288.5
 30
0.0
 11
540.4999999999992
 21
-2292.0
 31
0.0
  0
ARC
  5
557
  8
DATA
  6
CONTINUOUS
 62
     7
 10
456.7500000000008
 20
-2295.0
 30
0.0
 40
3.0
 50
180.0
 51
270.0
  0
LINE
  5
558
  8
DATA
  6
CONTINUOUS
 62
     7
 10
543.2499999999992
 20
-2298.0
 30
0.0
 11
456.7500000000008
 21
-2298.0
 31
0.0
  0
ARC
  5
559
  8
DATA
  6
CONTINUOUS
 62
     7
 10
543.2499999999992
 20
-2295.0
 30
0.0
 40
3.0
 50
270.0
 51
0.0
  0
LINE
  5
55A
  8
DATA
  6
CONTINUOUS
 62
     7
 10
464.99999999999909
 20
-2246.75
 30
0.0
 11
534.9999999999992
 21
-2246.75
 31
0.0
  0
LINE
  5
55B
  8
DATA
  6
CONTINUOUS
 62
     7
 10
534.9999999999992
 20
-2233.25
 30
0.0
 11
464.99999999999909
 21
-2233.25
 31
0.0
  0
CIRCLE
  5
55C
  8
DATA
  6
CONTINUOUS
 62
     7
 10
459.49999999999989
 20
-2227.25
 30
0.0
 40
3.0
  0
LINE
  5
55D
  8
DATA
  6
CONTINUOUS
 62
     7
 10
461.24999999999909
 20
-2227.25
 30
0.0
 11
457.74999999999909
 21
-2227.25
 31
0.0
  0
LINE
  5
55E
  8
DATA
  6
CONTINUOUS
 62
     7
 10
459.49999999999989
 20
-2225.5
 30
0.0
 11
459.49999999999909
 21
-2229.0
 31
0.0
  0
CIRCLE
  5
55F
  8
DATA
  6
CONTINUOUS
 62
     7
 10
540.4999999999992
 20
-2227.25
 30
0.0
 40
3.0
  0
LINE
  5
560
  8
DATA
  6
CONTINUOUS
 62
     7
 10
542.25
 20
-2227.25
 30
0.0
 11
538.75
 21
-2227.25
 31
0.0
  0
LINE
  5
561
  8
DATA
  6
CONTINUOUS
 62
     7
 10
540.4999999999992
 20
-2225.5
 30
0.0
 11
540.4999999999992
 21
-2229.0
 31
0.0
  0
ARC
  5
562
  8
DATA
  6
CONTINUOUS
 62
     7
 10
456.7500000000008
 20
-2222.5
 30
0.0
 40
3.0
 50
90.0
 51
180.0
  0
LINE
  5
563
  8
DATA
  6
CONTINUOUS
 62
     7
 10
543.2500000000008
 20
-2219.5
 30
0.0
 11
456.7500000000008
 21
-2219.5
 31
0.0
  0
ARC
  5
564
  8
DATA
  6
CONTINUOUS
 62
     7
 10
543.2500000000008
 20
-2222.5
 30
0.0
 40
3.0
 50
0.0
 51
90.0
  0
ARC
  5
565
  8
DATA
  6
CONTINUOUS
 62
     7
 10
455.5000000000008
 20
-2216.5
 30
0.0
 40
3.0
 50
180.0
 51
270.0
  0
ARC
  5
566
  8
DATA
  6
CONTINUOUS
 62
     7
 10
455.5000000000008
 20
-2172.5
 30
0.0
 40
3.0
 50
90.0
 51
180.0
  0
LINE
  5
567
  8
DATA
  6
CONTINUOUS
 62
     7
 10
455.5000000000008
 20
-2169.5000000000009
 30
0.0
 11
544.5000000000008
 21
-2169.5000000000009
 31
0.0
  0
ARC
  5
568
  8
DATA
  6
CONTINUOUS
 62
     7
 10
544.5000000000008
 20
-2172.5000000000009
 30
0.0
 40
3.0
 50
0.0
 51
90.0
  0
LINE
  5
569
  8
DATA
  6
CONTINUOUS
 62
     7
 10
547.50000000000068
 20
-2172.5000000000009
 30
0.0
 11
547.50000000000068
 21
-2216.5
 31
0.0
  0
ARC
  5
56A
  8
DATA
  6
CONTINUOUS
 62
     7
 10
544.5000000000008
 20
-2216.5
 30
0.0
 40
3.0
 50
270.0
 51
0.0
  0
LINE
  5
56B
  8
DATA
  6
CONTINUOUS
 62
     7
 10
452.5
 20
-2216.5
 30
0.0
 11
452.5000000000008
 21
-2172.5
 31
0.0
  0
LINE
  5
56C
  8
DATA
  6
CONTINUOUS
 62
   251
 10
488.24999999999909
 20
-2240.0
 30
0.0
 11
492.74999999999909
 21
-2240.0
 31
0.0
  0
LINE
  5
56D
  8
DATA
  6
CONTINUOUS
 62
   251
 10
490.50000000000051
 20
-2242.25
 30
0.0
 11
490.50000000000051
 21
-2237.75
 31
0.0
  0
LINE
  5
56E
  8
DATA
  6
CONTINUOUS
 62
   251
 10
507.24999999999909
 20
-2240.0
 30
0.0
 11
511.74999999999909
 21
-2240.0
 31
0.0
  0
LINE
  5
56F
  8
DATA
  6
CONTINUOUS
 62
     7
 10
138.49199999999931
 20
-1636.5879999999991
 30
0.0
 11
861.50799999999981
 21
-1636.5879999999991
 31
0.0
  0
LINE
  5
570
  8
DATA
  6
CONTINUOUS
 62
     7
 10
115.9520000000002
 20
-1616.5879999999991
 30
0.0
 11
884.04799999999966
 21
-1616.5879999999991
 31
0.0
  0
LINE
  5
571
  8
DATA
  6
CONTINUOUS
 62
     7
 10
363.49999999999909
 20
-1613.5879999999991
 30
0.0
 11
636.4999999999992
 21
-1613.5879999999991
 31
0.0
  0
LINE
  5
572
  8
DATA
  6
CONTINUOUS
 62
     7
 10
363.49999999999909
 20
-1593.088
 30
0.0
 11
636.4999999999992
 21
-1593.088
 31
0.0
  0
LINE
  5
573
  8
DATA
  6
CONTINUOUS
 62
     7
 10
749.9999999999992
 20
-901.97999999999956
 30
0.0
 11
250.0
 21
-901.97999999999956
 31
0.0
  0
LINE
  5
574
  8
DATA
  6
CONTINUOUS
 62
     7
 10
250.0
 20
-601.97999999999945
 30
0.0
 11
749.9999999999992
 21
-601.97999999999945
 31
0.0
  0
LINE
  5
575
  8
DATA
  6
CONTINUOUS
 62
     7
 10
119.5079999999998
 20
-561.97999999999956
 30
0.0
 11
880.49199999999928
 21
-561.97999999999956
 31
0.0
  0
LINE
  5
576
  8
DATA
  6
CONTINUOUS
 62
     7
 10
558.22670311072295
 20
-696.29251714430745
 30
0.0
 11
778.00612968970097
 21
-610.55951352526597
 31
0.0
  0
LINE
  5
577
  8
DATA
  6
CONTINUOUS
 62
     7
 10
553.35852921071364
 20
-751.55005563484519
 30
0.0
 11
781.57952713578845
 21
-890.74510629264478
 31
0.0
  0
LINE
  5
578
  8
DATA
  6
CONTINUOUS
 62
     7
 10
199.99999999999909
 20
-851.98000000000025
 30
0.0
 11
199.99999999999909
 21
-651.97999999999945
 31
0.0
  0
LINE
  5
579
  8
DATA
  6
CONTINUOUS
 62
     7
 10
119.5079999999989
 20
-561.97999999999956
 30
0.0
 11
119.5079999999998
 21
-1593.088
 31
0.0
  0
LINE
  5
57A
  8
DATA
  6
CONTINUOUS
 62
     7
 10
138.5079999999989
 20
-572.0089999999999
 30
0.0
 11
138.50799999999981
 21
-1593.088
 31
0.0
  0
LINE
  5
57B
  8
DATA
  6
CONTINUOUS
 62
     7
 10
123.0079999999988
 20
-572.0089999999999
 30
0.0
 11
123.0079999999988
 21
-1593.088
 31
0.0
  0
CIRCLE
  5
57C
  8
DATA
  6
CONTINUOUS
 62
     7
 10
499.9999999999992
 20
-719.00597229440871
 30
0.0
 40
26.000000000000909
  0
ARC
  5
57D
  8
DATA
  6
CONTINUOUS
 62
     7
 10
499.9999999999992
 20
-719.00597229440871
 30
0.0
 40
39.999999999999879
 50
104.0863508126381
 51
255.91364918736181
  0
ARC
  5
57E
  8
DATA
  6
CONTINUOUS
 62
     7
 10
499.9999999999992
 20
-719.00597229440871
 30
0.0
 40
39.999999999999879
 50
284.08635081263827
 51
75.913649187361884
  0
ARC
  5
57F
  8
DATA
  6
CONTINUOUS
 62
     7
 10
499.9999999999992
 20
-719.00597229440871
 30
0.0
 40
38.500000000000149
 50
280.47123073975592
 51
79.528769260244118
  0
ARC
  5
580
  8
DATA
  6
CONTINUOUS
 62
     7
 10
499.9999999999992
 20
-719.00597229440871
 30
0.0
 40
38.500000000000149
 50
100.4712307397559
 51
259.52876926024408
  0
ARC
  5
581
  8
DATA
  6
CONTINUOUS
 62
     7
 10
499.9999999999992
 20
-719.00597229440871
 30
0.0
 40
52.49999999999914
 50
98.764931532314364
 51
261.23506846768561
  0
ARC
  5
582
  8
DATA
  6
CONTINUOUS
 62
     7
 10
499.9999999999992
 20
-719.00597229440871
 30
0.0
 40
52.49999999999914
 50
278.76493153231439
 51
81.23506846768565
  0
ARC
  5
583
  8
DATA
  6
CONTINUOUS
 62
     7
 10
499.9999999999992
 20
-719.00597229440871
 30
0.0
 40
62.499999999999929
 50
95.103651411354434
 51
264.89634858864548
  0
ARC
  5
584
  8
DATA
  6
CONTINUOUS
 62
     7
 10
499.9999999999992
 20
-719.00597229440871
 30
0.0
 40
62.499999999999929
 50
275.10365141135441
 51
84.896348588645566
  0
LINE
  5
585
  8
DATA
  6
CONTINUOUS
 62
     7
 10
115.9519999999965
 20
-1549.5880000000011
 30
0.0
 11
115.9520000000002
 21
-1616.5879999999991
 31
0.0
  0
LINE
  5
586
  8
DATA
  6
CONTINUOUS
 62
     7
 10
118.9519999999975
 20
-1549.5880000000011
 30
0.0
 11
118.9520000000002
 21
-1613.5879999999991
 31
0.0
  0
LINE
  5
587
  8
DATA
  6
CONTINUOUS
 62
     7
 10
115.9520000000002
 20
-1549.5880000000011
 30
0.0
 11
118.9519999999975
 21
-1549.5880000000011
 31
0.0
  0
ARC
  5
588
  8
DATA
  6
CONTINUOUS
 62
     7
 10
77.499999999999062
 20
-1422.7761944478609
 30
0.0
 40
99.999999999999787
 50
332.0471134108613
 51
0.0
  0
ARC
  5
589
  8
DATA
  6
CONTINUOUS
 62
     7
 10
209.99999999999909
 20
-1493.0879999999991
 30
0.0
 40
49.999999999998877
 50
152.04711341086141
 51
270.0
  0
LINE
  5
58A
  8
DATA
  6
CONTINUOUS
 62
     7
 10
182.9520000000002
 20
-1596.0879999999991
 30
0.0
 11
182.9520000000002
 21
-1593.088
 31
0.0
  0
LINE
  5
58B
  8
DATA
  6
CONTINUOUS
 62
     7
 10
182.95199999999929
 20
-1596.0879999999991
 30
0.0
 11
118.95199999999841
 21
-1596.0879999999991
 31
0.0
  0
LINE
  5
58C
  8
DATA
  6
CONTINUOUS
 62
     7
 10
360.49999999999909
 20
-1616.5879999999991
 30
0.0
 11
360.5
 21
-1374.5879999999991
 31
0.0
  0
LINE
  5
58D
  8
DATA
  6
CONTINUOUS
 62
     7
 10
363.49999999999909
 20
-1613.5879999999991
 30
0.0
 11
363.49999999999909
 21
-1374.5879999999991
 31
0.0
  0
LINE
  5
58E
  8
DATA
  6
CONTINUOUS
 62
     7
 10
118.9520000000002
 20
-1613.5879999999991
 30
0.0
 11
360.49999999999909
 21
-1613.5879999999991
 31
0.0
  0
ARC
  5
58F
  8
DATA
  6
CONTINUOUS
 62
     7
 10
499.99999999999631
 20
-5743.0880000001771
 30
0.0
 40
4210.0000000001774
 50
91.898865695840342
 51
93.949868021763734
  0
LINE
  5
590
  8
DATA
  6
CONTINUOUS
 62
     7
 10
119.5079999999998
 20
-1593.088
 30
0.0
 11
360.49999999999909
 21
-1593.088
 31
0.0
  0
ARC
  5
591
  8
DATA
  6
CONTINUOUS
 62
     7
 10
77.499999999999062
 20
-1113.291805552137
 30
0.0
 40
100.0
 50
0.0
 51
27.952886589138132
  0
ARC
  5
592
  8
DATA
  6
CONTINUOUS
 62
     7
 10
250.0
 20
-851.98000000000025
 30
0.0
 40
50.0
 50
180.0
 51
270.0
  0
ARC
  5
593
  8
DATA
  6
CONTINUOUS
 62
     7
 10
209.99999999999909
 20
-1042.98
 30
0.0
 40
50.0
 50
90.0
 51
207.9528865891385
  0
LINE
  5
594
  8
DATA
  6
CONTINUOUS
 62
     7
 10
138.30799999999999
 20
-942.97999999999956
 30
0.0
 11
138.30799999999999
 21
-942.53800000000035
 31
0.0
  0
LINE
  5
595
  8
DATA
  6
CONTINUOUS
 62
     7
 10
177.5
 20
-1113.291805552137
 30
0.0
 11
177.5
 21
-1422.7761944478609
 31
0.0
  0
LINE
  5
596
  8
DATA
  6
CONTINUOUS
 62
     7
 10
119.5079999999998
 20
-942.97999999999956
 30
0.0
 11
385.49999999999909
 21
-942.97999999999956
 31
0.0
  0
LINE
  5
597
  8
DATA
  6
CONTINUOUS
 62
     7
 10
119.5079999999998
 20
-942.53800000000035
 30
0.0
 11
385.49999999999909
 21
-942.53800000000035
 31
0.0
  0
ARC
  5
598
  8
DATA
  6
CONTINUOUS
 62
     7
 10
499.99999999999631
 20
3207.0200000001792
 30
0.0
 40
4210.0000000001792
 50
266.05013197823632
 51
268.44152594038121
  0
LINE
  5
599
  8
DATA
  6
CONTINUOUS
 62
     7
 10
360.5
 20
-1374.5879999999991
 30
0.0
 11
363.49999999999909
 21
-1374.5879999999991
 31
0.0
  0
LINE
  5
59A
  8
DATA
  6
CONTINUOUS
 62
     7
 10
357.5
 20
-1490.22781617389
 30
0.0
 11
357.5
 21
-1002.739661112559
 31
0.0
  0
LINE
  5
59B
  8
DATA
  6
CONTINUOUS
 62
     7
 10
360.5
 20
-1490.22781617389
 30
0.0
 11
360.5
 21
-1002.739661112559
 31
0.0
  0
LINE
  5
59C
  8
DATA
  6
CONTINUOUS
 62
     7
 10
357.5
 20
-1002.739661112559
 30
0.0
 11
385.49999999999909
 21
-1002.739661112559
 31
0.0
  0
LINE
  5
59D
  8
DATA
  6
CONTINUOUS
 62
     7
 10
360.5
 20
-1265.123824625613
 30
0.0
 11
385.49999999999909
 21
-1265.123824625613
 31
0.0
  0
LINE
  5
59E
  8
DATA
  6
CONTINUOUS
 62
     7
 10
357.5
 20
-1490.22781617389
 30
0.0
 11
360.49999999999909
 21
-1490.22781617389
 31
0.0
  0
LINE
  5
59F
  8
DATA
  6
CONTINUOUS
 62
     7
 10
351.5
 20
-1472.2273537739511
 30
0.0
 11
351.5
 21
-1457.7273537739511
 31
0.0
  0
LINE
  5
5A0
  8
DATA
  6
CONTINUOUS
 62
     7
 10
356.30000000000013
 20
-1473.7273537739511
 30
0.0
 11
356.30000000000013
 21
-1456.2273537739511
 31
0.0
  0
LINE
  5
5A1
  8
DATA
  6
CONTINUOUS
 62
     7
 10
356.30000000000013
 20
-1456.2273537739511
 30
0.0
 11
357.5
 21
-1456.2273537739511
 31
0.0
  0
LINE
  5
5A2
  8
DATA
  6
CONTINUOUS
 62
     7
 10
351.5
 20
-1457.7273537739511
 30
0.0
 11
356.30000000000013
 21
-1457.7273537739511
 31
0.0
  0
LINE
  5
5A3
  8
DATA
  6
CONTINUOUS
 62
     7
 10
351.5
 20
-1472.2273537739511
 30
0.0
 11
356.30000000000013
 21
-1472.2273537739511
 31
0.0
  0
LINE
  5
5A4
  8
DATA
  6
CONTINUOUS
 62
     7
 10
356.30000000000013
 20
-1473.7273537739511
 30
0.0
 11
357.5
 21
-1473.7273537739511
 31
0.0
  0
LINE
  5
5A5
  8
DATA
  6
CONTINUOUS
 62
     7
 10
351.5
 20
-1468.6023537739511
 30
0.0
 11
356.30000000000013
 21
-1468.6023537739511
 31
0.0
  0
LINE
  5
5A6
  8
DATA
  6
CONTINUOUS
 62
     7
 10
351.5
 20
-1461.3523537739511
 30
0.0
 11
356.30000000000013
 21
-1461.3523537739511
 31
0.0
  0
LINE
  5
5A7
  8
DATA
  6
CONTINUOUS
 62
     7
 10
371.49999999999909
 20
-1472.2273537739511
 30
0.0
 11
371.49999999999909
 21
-1457.7273537739511
 31
0.0
  0
LINE
  5
5A8
  8
DATA
  6
CONTINUOUS
 62
     7
 10
364.699999999998
 20
-1456.2273537739511
 30
0.0
 11
364.69999999999891
 21
-1473.7273537739511
 31
0.0
  0
LINE
  5
5A9
  8
DATA
  6
CONTINUOUS
 62
     7
 10
364.699999999998
 20
-1456.2273537739511
 30
0.0
 11
363.49999999999909
 21
-1456.2273537739511
 31
0.0
  0
LINE
  5
5AA
  8
DATA
  6
CONTINUOUS
 62
     7
 10
364.69999999999891
 20
-1473.7273537739511
 30
0.0
 11
363.49999999999909
 21
-1473.7273537739511
 31
0.0
  0
LINE
  5
5AB
  8
DATA
  6
CONTINUOUS
 62
     7
 10
371.49999999999909
 20
-1472.2273537739511
 30
0.0
 11
364.69999999999891
 21
-1472.2273537739511
 31
0.0
  0
LINE
  5
5AC
  8
DATA
  6
CONTINUOUS
 62
     7
 10
371.49999999999909
 20
-1457.7273537739511
 30
0.0
 11
364.699999999998
 21
-1457.7273537739511
 31
0.0
  0
LINE
  5
5AD
  8
DATA
  6
CONTINUOUS
 62
     7
 10
364.699999999998
 20
-1461.3523537739511
 30
0.0
 11
371.49999999999909
 21
-1461.3523537739511
 31
0.0
  0
LINE
  5
5AE
  8
DATA
  6
CONTINUOUS
 62
     7
 10
364.699999999998
 20
-1468.6023537739511
 30
0.0
 11
371.49999999999909
 21
-1468.6023537739511
 31
0.0
  0
LINE
  5
5AF
  8
DATA
  6
CONTINUOUS
 62
     7
 10
372.4999999999992
 20
-1468.9773537739511
 30
0.0
 11
372.4999999999992
 21
-1460.9773537739511
 31
0.0
  0
LINE
  5
5B0
  8
DATA
  6
CONTINUOUS
 62
     7
 10
372.4999999999992
 20
-1460.9773537739511
 30
0.0
 11
371.49999999999909
 21
-1460.9773537739511
 31
0.0
  0
LINE
  5
5B1
  8
DATA
  6
CONTINUOUS
 62
     7
 10
372.4999999999992
 20
-1468.9773537739511
 30
0.0
 11
371.49999999999909
 21
-1468.9773537739511
 31
0.0
  0
LINE
  5
5B2
  8
DATA
  6
CONTINUOUS
 62
     7
 10
385.49999999999909
 20
-915.58799999999985
 30
0.0
 11
385.49999999999909
 21
-1470.882979062668
 31
0.0
  0
LINE
  5
5B3
  8
DATA
  6
CONTINUOUS
 62
     7
 10
156.99999999999909
 20
-959.97999999999956
 30
0.0
 11
156.99999999999909
 21
-922.97999999999968
 31
0.0
  0
CIRCLE
  5
5B4
  8
DATA
  6
CONTINUOUS
 62
     7
 10
130.00000000000091
 20
-749.00900000000001
 30
0.0
 40
2.5
  0
LINE
  5
5B5
  8
DATA
  6
CONTINUOUS
 62
     7
 10
127.1132486540518
 20
-744.00900000000001
 30
0.0
 11
132.88675134594811
 21
-744.00900000000001
 31
0.0
  0
LINE
  5
5B6
  8
DATA
  6
CONTINUOUS
 62
     7
 10
124.2264973081046
 20
-749.00900000000001
 30
0.0
 11
127.1132486540518
 21
-744.00900000000001
 31
0.0
  0
LINE
  5
5B7
  8
DATA
  6
CONTINUOUS
 62
     7
 10
127.1132486540518
 20
-754.00900000000001
 30
0.0
 11
124.2264973081046
 21
-749.00900000000001
 31
0.0
  0
LINE
  5
5B8
  8
DATA
  6
CONTINUOUS
 62
     7
 10
127.1132486540518
 20
-754.00900000000001
 30
0.0
 11
132.88675134594811
 21
-754.00900000000001
 31
0.0
  0
LINE
  5
5B9
  8
DATA
  6
CONTINUOUS
 62
     7
 10
132.88675134594811
 20
-754.00900000000001
 30
0.0
 11
135.77350269189719
 21
-749.00900000000001
 31
0.0
  0
LINE
  5
5BA
  8
DATA
  6
CONTINUOUS
 62
     7
 10
135.77350269189719
 20
-749.00900000000001
 30
0.0
 11
132.88675134594811
 21
-744.00900000000001
 31
0.0
  0
CIRCLE
  5
5BB
  8
DATA
  6
CONTINUOUS
 62
     7
 10
130.00000000000091
 20
-901.0089999999999
 30
0.0
 40
2.5
  0
LINE
  5
5BC
  8
DATA
  6
CONTINUOUS
 62
     7
 10
127.1132486540518
 20
-896.00900000000001
 30
0.0
 11
132.88675134594811
 21
-896.00900000000001
 31
0.0
  0
LINE
  5
5BD
  8
DATA
  6
CONTINUOUS
 62
     7
 10
124.2264973081046
 20
-901.0089999999999
 30
0.0
 11
127.1132486540518
 21
-896.00900000000001
 31
0.0
  0
LINE
  5
5BE
  8
DATA
  6
CONTINUOUS
 62
     7
 10
127.1132486540518
 20
-906.00900000000001
 30
0.0
 11
124.2264973081046
 21
-901.0089999999999
 31
0.0
  0
LINE
  5
5BF
  8
DATA
  6
CONTINUOUS
 62
     7
 10
127.1132486540518
 20
-906.00900000000001
 30
0.0
 11
132.88675134594811
 21
-906.00900000000001
 31
0.0
  0
LINE
  5
5C0
  8
DATA
  6
CONTINUOUS
 62
     7
 10
132.88675134594811
 20
-906.00900000000001
 30
0.0
 11
135.77350269189719
 21
-901.0089999999999
 31
0.0
  0
LINE
  5
5C1
  8
DATA
  6
CONTINUOUS
 62
     7
 10
135.77350269189719
 20
-901.0089999999999
 30
0.0
 11
132.88675134594811
 21
-896.00900000000001
 31
0.0
  0
CIRCLE
  5
5C2
  8
DATA
  6
CONTINUOUS
 62
     7
 10
195.0
 20
-927.97999999999956
 30
0.0
 40
2.5
  0
LINE
  5
5C3
  8
DATA
  6
CONTINUOUS
 62
     7
 10
192.1132486540528
 20
-922.97999999999968
 30
0.0
 11
197.88675134594899
 21
-922.97999999999968
 31
0.0
  0
LINE
  5
5C4
  8
DATA
  6
CONTINUOUS
 62
     7
 10
189.2264973081046
 20
-927.97999999999956
 30
0.0
 11
192.1132486540528
 21
-922.97999999999968
 31
0.0
  0
LINE
  5
5C5
  8
DATA
  6
CONTINUOUS
 62
     7
 10
192.1132486540528
 20
-932.97999999999956
 30
0.0
 11
189.2264973081046
 21
-927.97999999999956
 31
0.0
  0
LINE
  5
5C6
  8
DATA
  6
CONTINUOUS
 62
     7
 10
192.1132486540528
 20
-932.97999999999956
 30
0.0
 11
197.8867513459472
 21
-932.97999999999956
 31
0.0
  0
LINE
  5
5C7
  8
DATA
  6
CONTINUOUS
 62
     7
 10
197.8867513459472
 20
-932.97999999999956
 30
0.0
 11
200.77350269189631
 21
-927.97999999999956
 31
0.0
  0
LINE
  5
5C8
  8
DATA
  6
CONTINUOUS
 62
     7
 10
200.77350269189631
 20
-927.97999999999956
 30
0.0
 11
197.88675134594899
 21
-922.97999999999968
 31
0.0
  0
CIRCLE
  5
5C9
  8
DATA
  6
CONTINUOUS
 62
     7
 10
347.5
 20
-927.97999999999956
 30
0.0
 40
2.5
  0
LINE
  5
5CA
  8
DATA
  6
CONTINUOUS
 62
     7
 10
344.61324865405282
 20
-922.97999999999968
 30
0.0
 11
350.38675134594911
 21
-922.97999999999968
 31
0.0
  0
LINE
  5
5CB
  8
DATA
  6
CONTINUOUS
 62
     7
 10
341.7264973081036
 20
-927.97999999999956
 30
0.0
 11
344.61324865405282
 21
-922.97999999999968
 31
0.0
  0
LINE
  5
5CC
  8
DATA
  6
CONTINUOUS
 62
     7
 10
344.61324865405282
 20
-932.97999999999956
 30
0.0
 11
341.7264973081036
 21
-927.97999999999956
 31
0.0
  0
LINE
  5
5CD
  8
DATA
  6
CONTINUOUS
 62
     7
 10
344.61324865405282
 20
-932.97999999999956
 30
0.0
 11
350.38675134594729
 21
-932.97999999999956
 31
0.0
  0
LINE
  5
5CE
  8
DATA
  6
CONTINUOUS
 62
     7
 10
350.38675134594729
 20
-932.97999999999956
 30
0.0
 11
353.27350269189628
 21
-927.97999999999956
 31
0.0
  0
LINE
  5
5CF
  8
DATA
  6
CONTINUOUS
 62
     7
 10
353.27350269189628
 20
-927.97999999999956
 30
0.0
 11
350.38675134594911
 21
-922.97999999999968
 31
0.0
  0
CIRCLE
  5
5D0
  8
DATA
  6
CONTINUOUS
 62
     7
 10
195.0
 20
-954.97999999999968
 30
0.0
 40
2.5
  0
LINE
  5
5D1
  8
DATA
  6
CONTINUOUS
 62
     7
 10
192.1132486540528
 20
-949.97999999999956
 30
0.0
 11
197.88675134594899
 21
-949.97999999999956
 31
0.0
  0
LINE
  5
5D2
  8
DATA
  6
CONTINUOUS
 62
     7
 10
189.2264973081046
 20
-954.97999999999968
 30
0.0
 11
192.1132486540528
 21
-949.97999999999956
 31
0.0
  0
LINE
  5
5D3
  8
DATA
  6
CONTINUOUS
 62
     7
 10
192.1132486540528
 20
-959.97999999999956
 30
0.0
 11
189.2264973081046
 21
-954.97999999999968
 31
0.0
  0
LINE
  5
5D4
  8
DATA
  6
CONTINUOUS
 62
     7
 10
192.1132486540528
 20
-959.97999999999956
 30
0.0
 11
197.8867513459472
 21
-959.97999999999956
 31
0.0
  0
LINE
  5
5D5
  8
DATA
  6
CONTINUOUS
 62
     7
 10
197.8867513459472
 20
-959.97999999999956
 30
0.0
 11
200.77350269189631
 21
-954.97999999999968
 31
0.0
  0
LINE
  5
5D6
  8
DATA
  6
CONTINUOUS
 62
     7
 10
200.77350269189631
 20
-954.97999999999968
 30
0.0
 11
197.88675134594899
 21
-949.97999999999956
 31
0.0
  0
CIRCLE
  5
5D7
  8
DATA
  6
CONTINUOUS
 62
     7
 10
130.00000000000091
 20
-978.0089999999999
 30
0.0
 40
2.5
  0
LINE
  5
5D8
  8
DATA
  6
CONTINUOUS
 62
     7
 10
127.1132486540518
 20
-973.00900000000001
 30
0.0
 11
132.88675134594811
 21
-973.00900000000001
 31
0.0
  0
LINE
  5
5D9
  8
DATA
  6
CONTINUOUS
 62
     7
 10
124.2264973081046
 20
-978.0089999999999
 30
0.0
 11
127.1132486540518
 21
-973.00900000000001
 31
0.0
  0
LINE
  5
5DA
  8
DATA
  6
CONTINUOUS
 62
     7
 10
127.1132486540518
 20
-983.00900000000001
 30
0.0
 11
124.2264973081046
 21
-978.0089999999999
 31
0.0
  0
LINE
  5
5DB
  8
DATA
  6
CONTINUOUS
 62
     7
 10
127.1132486540518
 20
-983.00900000000001
 30
0.0
 11
132.88675134594811
 21
-983.00900000000001
 31
0.0
  0
LINE
  5
5DC
  8
DATA
  6
CONTINUOUS
 62
     7
 10
132.88675134594811
 20
-983.00900000000001
 30
0.0
 11
135.77350269189719
 21
-978.0089999999999
 31
0.0
  0
LINE
  5
5DD
  8
DATA
  6
CONTINUOUS
 62
     7
 10
135.77350269189719
 20
-978.0089999999999
 30
0.0
 11
132.88675134594811
 21
-973.00900000000001
 31
0.0
  0
CIRCLE
  5
5DE
  8
DATA
  6
CONTINUOUS
 62
     7
 10
130.00000000000091
 20
-1268.0340000000001
 30
0.0
 40
2.5
  0
LINE
  5
5DF
  8
DATA
  6
CONTINUOUS
 62
     7
 10
127.1132486540518
 20
-1263.033999999999
 30
0.0
 11
132.88675134594811
 21
-1263.033999999999
 31
0.0
  0
LINE
  5
5E0
  8
DATA
  6
CONTINUOUS
 62
     7
 10
124.2264973081046
 20
-1268.0340000000001
 30
0.0
 11
127.1132486540518
 21
-1263.033999999999
 31
0.0
  0
LINE
  5
5E1
  8
DATA
  6
CONTINUOUS
 62
     7
 10
127.1132486540518
 20
-1273.033999999999
 30
0.0
 11
124.2264973081046
 21
-1268.0340000000001
 31
0.0
  0
LINE
  5
5E2
  8
DATA
  6
CONTINUOUS
 62
     7
 10
127.1132486540518
 20
-1273.033999999999
 30
0.0
 11
132.88675134594811
 21
-1273.033999999999
 31
0.0
  0
LINE
  5
5E3
  8
DATA
  6
CONTINUOUS
 62
     7
 10
132.88675134594811
 20
-1273.033999999999
 30
0.0
 11
135.77350269189719
 21
-1268.0340000000001
 31
0.0
  0
LINE
  5
5E4
  8
DATA
  6
CONTINUOUS
 62
     7
 10
135.77350269189719
 20
-1268.0340000000001
 30
0.0
 11
132.88675134594811
 21
-1263.033999999999
 31
0.0
  0
CIRCLE
  5
5E5
  8
DATA
  6
CONTINUOUS
 62
     7
 10
130.00000000000091
 20
-1558.059
 30
0.0
 40
2.5
  0
LINE
  5
5E6
  8
DATA
  6
CONTINUOUS
 62
     7
 10
127.1132486540518
 20
-1553.059
 30
0.0
 11
132.88675134594811
 21
-1553.059
 31
0.0
  0
LINE
  5
5E7
  8
DATA
  6
CONTINUOUS
 62
     7
 10
124.2264973081046
 20
-1558.059
 30
0.0
 11
127.1132486540518
 21
-1553.059
 31
0.0
  0
LINE
  5
5E8
  8
DATA
  6
CONTINUOUS
 62
     7
 10
127.1132486540518
 20
-1563.0589999999991
 30
0.0
 11
124.2264973081046
 21
-1558.059
 31
0.0
  0
LINE
  5
5E9
  8
DATA
  6
CONTINUOUS
 62
     7
 10
127.1132486540518
 20
-1563.0589999999991
 30
0.0
 11
132.88675134594811
 21
-1563.0589999999991
 31
0.0
  0
LINE
  5
5EA
  8
DATA
  6
CONTINUOUS
 62
     7
 10
132.88675134594811
 20
-1563.0589999999991
 30
0.0
 11
135.77350269189719
 21
-1558.059
 31
0.0
  0
LINE
  5
5EB
  8
DATA
  6
CONTINUOUS
 62
     7
 10
135.77350269189719
 20
-1558.059
 30
0.0
 11
132.88675134594811
 21
-1553.059
 31
0.0
  0
CIRCLE
  5
5EC
  8
DATA
  6
CONTINUOUS
 62
     7
 10
167.49999999999909
 20
-1581.5879999999991
 30
0.0
 40
2.5
  0
LINE
  5
5ED
  8
DATA
  6
CONTINUOUS
 62
     7
 10
164.61324865405089
 20
-1576.5879999999991
 30
0.0
 11
170.3867513459472
 21
-1576.5879999999991
 31
0.0
  0
LINE
  5
5EE
  8
DATA
  6
CONTINUOUS
 62
     7
 10
161.72649730810281
 20
-1581.5879999999991
 30
0.0
 11
164.61324865405089
 21
-1576.5879999999991
 31
0.0
  0
LINE
  5
5EF
  8
DATA
  6
CONTINUOUS
 62
     7
 10
164.61324865405089
 20
-1586.5879999999991
 30
0.0
 11
161.72649730810281
 21
-1581.5879999999991
 31
0.0
  0
LINE
  5
5F0
  8
DATA
  6
CONTINUOUS
 62
     7
 10
164.61324865405089
 20
-1586.5879999999991
 30
0.0
 11
170.3867513459472
 21
-1586.5879999999991
 31
0.0
  0
LINE
  5
5F1
  8
DATA
  6
CONTINUOUS
 62
     7
 10
170.3867513459472
 20
-1586.5879999999991
 30
0.0
 11
173.2735026918954
 21
-1581.5879999999991
 31
0.0
  0
LINE
  5
5F2
  8
DATA
  6
CONTINUOUS
 62
     7
 10
173.2735026918954
 20
-1581.5879999999991
 30
0.0
 11
170.3867513459472
 21
-1576.5879999999991
 31
0.0
  0
LINE
  5
5F3
  8
DATA
  6
CONTINUOUS
 62
     7
 10
156.99999999999909
 20
-922.97999999999968
 30
0.0
 11
385.49999999999909
 21
-922.97999999999968
 31
0.0
  0
LINE
  5
5F4
  8
DATA
  6
CONTINUOUS
 62
     7
 10
156.99999999999909
 20
-959.97999999999956
 30
0.0
 11
385.49999999999909
 21
-959.97999999999956
 31
0.0
  0
LINE
  5
5F5
  8
DATA
  6
CONTINUOUS
 62
     7
 10
492.74999999999909
 20
-769.0059722944078
 30
0.0
 11
507.24999999999909
 21
-769.0059722944078
 31
0.0
  0
LINE
  5
5F6
  8
DATA
  6
CONTINUOUS
 62
     7
 10
492.74999999999909
 20
-769.0059722944078
 30
0.0
 11
493.2684693255004
 21
-744.11944467037222
 31
0.0
  0
LINE
  5
5F7
  8
DATA
  6
CONTINUOUS
 62
     7
 10
506.73153067449761
 20
-744.11944467037222
 30
0.0
 11
507.24999999999909
 21
-769.0059722944078
 31
0.0
  0
LINE
  5
5F8
  8
DATA
  6
CONTINUOUS
 62
     7
 10
489.99999999999909
 20
-770.5059722944078
 30
0.0
 11
509.99999999999909
 21
-770.5059722944078
 31
0.0
  0
LINE
  5
5F9
  8
DATA
  6
CONTINUOUS
 62
     7
 10
489.99999999999909
 20
-770.5059722944078
 30
0.0
 11
490.26464164789371
 21
-757.80317319545441
 31
0.0
  0
LINE
  5
5FA
  8
DATA
  6
CONTINUOUS
 62
     7
 10
509.7353583521043
 20
-757.80317319545441
 30
0.0
 11
509.99999999999909
 21
-770.5059722944078
 31
0.0
  0
ARC
  5
5FB
  8
DATA
  6
CONTINUOUS
 62
     7
 10
499.9999999999992
 20
-775.5059722944078
 30
0.0
 40
8.0
 50
180.0
 51
0.0
  0
LINE
  5
5FC
  8
DATA
  6
CONTINUOUS
 62
     7
 10
507.99999999999909
 20
-770.5059722944078
 30
0.0
 11
507.99999999999909
 21
-775.5059722944078
 31
0.0
  0
LINE
  5
5FD
  8
DATA
  6
CONTINUOUS
 62
     7
 10
491.99999999999909
 20
-770.5059722944078
 30
0.0
 11
491.99999999999909
 21
-775.5059722944078
 31
0.0
  0
CIRCLE
  5
5FE
  8
DATA
  6
CONTINUOUS
 62
     7
 10
517.0
 20
-748.45083602307943
 30
0.0
 40
3.0
  0
LINE
  5
5FF
  8
DATA
  6
CONTINUOUS
 62
     7
 10
515.4999999999992
 20
-748.45083602307943
 30
0.0
 11
518.4999999999992
 21
-748.45083602307943
 31
0.0
  0
LINE
  5
600
  8
DATA
  6
CONTINUOUS
 62
     7
 10
517.0
 20
-749.95083602308011
 30
0.0
 11
517.0
 21
-746.95083602308011
 31
0.0
  0
LINE
  5
601
  8
DATA
  6
CONTINUOUS
 62
     7
 10
495.99999999999909
 20
-779.00597229440871
 30
0.0
 11
503.99999999999909
 21
-779.00597229440871
 31
0.0
  0
LINE
  5
602
  8
DATA
  6
CONTINUOUS
 62
     7
 10
218.42047286421169
 20
-890.74510629264478
 30
0.0
 11
446.64147078928448
 21
-751.55005563484519
 31
0.0
  0
ARC
  5
603
  8
DATA
  6
CONTINUOUS
 62
     7
 10
250.0
 20
-651.97999999999945
 30
0.0
 40
50.0
 50
90.0
 51
180.0
  0
LINE
  5
604
  8
DATA
  6
CONTINUOUS
 62
     7
 10
119.5079999999998
 20
-572.0089999999999
 30
0.0
 11
138.5079999999989
 21
-572.0089999999999
 31
0.0
  0
CIRCLE
  5
605
  8
DATA
  6
CONTINUOUS
 62
     7
 10
130.00000000000091
 20
-597.0089999999999
 30
0.0
 40
2.5
  0
LINE
  5
606
  8
DATA
  6
CONTINUOUS
 62
     7
 10
127.1132486540518
 20
-592.00900000000001
 30
0.0
 11
132.88675134594811
 21
-592.00900000000001
 31
0.0
  0
LINE
  5
607
  8
DATA
  6
CONTINUOUS
 62
     7
 10
124.2264973081046
 20
-597.0089999999999
 30
0.0
 11
127.1132486540518
 21
-592.00900000000001
 31
0.0
  0
LINE
  5
608
  8
DATA
  6
CONTINUOUS
 62
     7
 10
127.1132486540518
 20
-602.00900000000001
 30
0.0
 11
124.2264973081046
 21
-597.0089999999999
 31
0.0
  0
LINE
  5
609
  8
DATA
  6
CONTINUOUS
 62
     7
 10
127.1132486540518
 20
-602.00900000000001
 30
0.0
 11
132.88675134594811
 21
-602.00900000000001
 31
0.0
  0
LINE
  5
60A
  8
DATA
  6
CONTINUOUS
 62
     7
 10
132.88675134594811
 20
-602.00900000000001
 30
0.0
 11
135.77350269189719
 21
-597.0089999999999
 31
0.0
  0
LINE
  5
60B
  8
DATA
  6
CONTINUOUS
 62
     7
 10
135.77350269189719
 20
-597.0089999999999
 30
0.0
 11
132.88675134594811
 21
-592.00900000000001
 31
0.0
  0
CIRCLE
  5
60C
  8
DATA
  6
CONTINUOUS
 62
     7
 10
499.9999999999992
 20
-719.00597229440871
 30
0.0
 40
19.25
  0
LINE
  5
60D
  8
DATA
  6
CONTINUOUS
 62
     7
 10
492.74999999999909
 20
-669.00597229440871
 30
0.0
 11
507.24999999999909
 21
-669.00597229440871
 31
0.0
  0
LINE
  5
60E
  8
DATA
  6
CONTINUOUS
 62
     7
 10
492.74999999999909
 20
-669.00597229440871
 30
0.0
 11
493.2684693255004
 21
-693.89249991844554
 31
0.0
  0
LINE
  5
60F
  8
DATA
  6
CONTINUOUS
 62
     7
 10
506.73153067449761
 20
-693.89249991844463
 30
0.0
 11
507.24999999999909
 21
-669.00597229440871
 31
0.0
  0
LINE
  5
610
  8
DATA
  6
CONTINUOUS
 62
     7
 10
489.99999999999909
 20
-667.50597229440859
 30
0.0
 11
509.99999999999909
 21
-667.50597229440859
 31
0.0
  0
LINE
  5
611
  8
DATA
  6
CONTINUOUS
 62
     7
 10
489.99999999999909
 20
-667.50597229440859
 30
0.0
 11
490.26464164789371
 21
-680.20877139336335
 31
0.0
  0
LINE
  5
612
  8
DATA
  6
CONTINUOUS
 62
     7
 10
509.7353583521043
 20
-680.20877139336335
 30
0.0
 11
509.99999999999909
 21
-667.50597229440859
 31
0.0
  0
ARC
  5
613
  8
DATA
  6
CONTINUOUS
 62
     7
 10
499.9999999999992
 20
-662.50597229440871
 30
0.0
 40
8.0
 50
0.0
 51
180.0
  0
LINE
  5
614
  8
DATA
  6
CONTINUOUS
 62
     7
 10
491.99999999999909
 20
-667.50597229440859
 30
0.0
 11
491.99999999999909
 21
-662.50597229440871
 31
0.0
  0
LINE
  5
615
  8
DATA
  6
CONTINUOUS
 62
     7
 10
507.99999999999909
 20
-667.50597229440859
 30
0.0
 11
507.99999999999909
 21
-662.50597229440871
 31
0.0
  0
CIRCLE
  5
616
  8
DATA
  6
CONTINUOUS
 62
     7
 10
466.0
 20
-719.00597229440871
 30
0.0
 40
3.0
  0
LINE
  5
617
  8
DATA
  6
CONTINUOUS
 62
     7
 10
464.49999999999909
 20
-719.00597229440871
 30
0.0
 11
467.49999999999909
 21
-719.00597229440871
 31
0.0
  0
LINE
  5
618
  8
DATA
  6
CONTINUOUS
 62
     7
 10
466.0
 20
-720.50597229440962
 30
0.0
 11
466.0
 21
-717.50597229440962
 31
0.0
  0
CIRCLE
  5
619
  8
DATA
  6
CONTINUOUS
 62
     7
 10
517.0
 20
-689.56110856573832
 30
0.0
 40
3.0
  0
LINE
  5
61A
  8
DATA
  6
CONTINUOUS
 62
     7
 10
515.4999999999992
 20
-689.56110856573832
 30
0.0
 11
518.4999999999992
 21
-689.56110856573832
 31
0.0
  0
LINE
  5
61B
  8
DATA
  6
CONTINUOUS
 62
     7
 10
517.0
 20
-688.06110856573741
 30
0.0
 11
517.0
 21
-691.0611085657373
 31
0.0
  0
LINE
  5
61C
  8
DATA
  6
CONTINUOUS
 62
     7
 10
495.99999999999909
 20
-659.00597229440859
 30
0.0
 11
503.99999999999909
 21
-659.00597229440859
 31
0.0
  0
LINE
  5
61D
  8
DATA
  6
CONTINUOUS
 62
     7
 10
221.99387031029889
 20
-610.55951352526597
 30
0.0
 11
441.773296889275
 21
-696.29251714430745
 31
0.0
  0
LINE
  5
61E
  8
DATA
  6
CONTINUOUS
 62
     7
 10
800.00000000000102
 20
-851.98000000000025
 30
0.0
 11
800.00000000000102
 21
-651.97999999999945
 31
0.0
  0
LINE
  5
61F
  8
DATA
  6
CONTINUOUS
 62
     7
 10
880.49199999999928
 20
-1593.088
 30
0.0
 11
880.49199999999928
 21
-561.97999999999956
 31
0.0
  0
LINE
  5
620
  8
DATA
  6
CONTINUOUS
 62
     7
 10
876.99199999999928
 20
-1593.088
 30
0.0
 11
876.9920000000011
 21
-572.0089999999999
 31
0.0
  0
LINE
  5
621
  8
DATA
  6
CONTINUOUS
 62
     7
 10
861.49199999999939
 20
-1593.088
 30
0.0
 11
861.49199999999939
 21
-572.0089999999999
 31
0.0
  0
LINE
  5
622
  8
DATA
  6
CONTINUOUS
 62
     7
 10
817.04799999999955
 20
-1596.0879999999991
 30
0.0
 11
881.04799999999955
 21
-1596.0879999999991
 31
0.0
  0
ARC
  5
623
  8
DATA
  6
CONTINUOUS
 62
     7
 10
922.4999999999992
 20
-1422.7761944478621
 30
0.0
 40
100.0
 50
180.0
 51
207.9528865891381
  0
ARC
  5
624
  8
DATA
  6
CONTINUOUS
 62
     7
 10
789.9999999999992
 20
-1493.0879999999991
 30
0.0
 40
50.0
 50
270.0
 51
27.95288658913827
  0
LINE
  5
625
  8
DATA
  6
CONTINUOUS
 62
     7
 10
817.04799999999955
 20
-1596.0879999999991
 30
0.0
 11
817.04799999999955
 21
-1593.088
 31
0.0
  0
LINE
  5
626
  8
DATA
  6
CONTINUOUS
 62
     7
 10
884.04799999999966
 20
-1549.5879999999991
 30
0.0
 11
884.04799999999966
 21
-1616.5879999999991
 31
0.0
  0
LINE
  5
627
  8
DATA
  6
CONTINUOUS
 62
     7
 10
881.04799999999955
 20
-1549.5879999999991
 30
0.0
 11
881.04799999999955
 21
-1613.5879999999991
 31
0.0
  0
LINE
  5
628
  8
DATA
  6
CONTINUOUS
 62
     7
 10
881.04799999999955
 20
-1549.5879999999991
 30
0.0
 11
884.04799999999966
 21
-1549.5879999999991
 31
0.0
  0
LINE
  5
629
  8
DATA
  6
CONTINUOUS
 62
     7
 10
639.5
 20
-1616.5879999999991
 30
0.0
 11
639.5
 21
-1374.5879999999991
 31
0.0
  0
LINE
  5
62A
  8
DATA
  6
CONTINUOUS
 62
     7
 10
636.4999999999992
 20
-1613.5879999999991
 30
0.0
 11
636.5
 21
-1374.5879999999991
 31
0.0
  0
LINE
  5
62B
  8
DATA
  6
CONTINUOUS
 62
     7
 10
639.5
 20
-1613.5879999999991
 30
0.0
 11
881.04799999999955
 21
-1613.5879999999991
 31
0.0
  0
ARC
  5
62C
  8
DATA
  6
CONTINUOUS
 62
     7
 10
499.99999999999631
 20
-5743.0880000001771
 30
0.0
 40
4210.0000000001774
 50
86.050131978236138
 51
88.101134304159558
  0
LINE
  5
62D
  8
DATA
  6
CONTINUOUS
 62
     7
 10
639.5
 20
-1593.088
 30
0.0
 11
880.49199999999928
 21
-1593.088
 31
0.0
  0
LINE
  5
62E
  8
DATA
  6
CONTINUOUS
 62
     7
 10
861.69200000000001
 20
-942.97999999999956
 30
0.0
 11
861.69200000000001
 21
-942.53800000000035
 31
0.0
  0
ARC
  5
62F
  8
DATA
  6
CONTINUOUS
 62
     7
 10
922.4999999999992
 20
-1113.2918055521379
 30
0.0
 40
99.999999999999787
 50
152.04711341086141
 51
180.0
  0
ARC
  5
630
  8
DATA
  6
CONTINUOUS
 62
     7
 10
789.9999999999992
 20
-1042.9800000000009
 30
0.0
 40
49.99999999999968
 50
332.04711341086181
 51
89.999999999999957
  0
ARC
  5
631
  8
DATA
  6
CONTINUOUS
 62
     7
 10
749.9999999999992
 20
-851.98000000000025
 30
0.0
 40
50.0
 50
270.0
 51
0.0
  0
LINE
  5
632
  8
DATA
  6
CONTINUOUS
 62
     7
 10
822.4999999999992
 20
-1422.7761944478621
 30
0.0
 11
822.4999999999992
 21
-1113.2918055521379
 31
0.0
  0
LINE
  5
633
  8
DATA
  6
CONTINUOUS
 62
     7
 10
614.5
 20
-942.97999999999956
 30
0.0
 11
880.49199999999928
 21
-942.97999999999956
 31
0.0
  0
LINE
  5
634
  8
DATA
  6
CONTINUOUS
 62
     7
 10
614.5
 20
-942.53800000000035
 30
0.0
 11
880.49199999999928
 21
-942.53800000000035
 31
0.0
  0
ARC
  5
635
  8
DATA
  6
CONTINUOUS
 62
     7
 10
499.99999999999631
 20
3207.0200000001792
 30
0.0
 40
4210.0000000001774
 50
271.5584740596189
 51
273.94986802176379
  0
LINE
  5
636
  8
DATA
  6
CONTINUOUS
 62
     7
 10
636.5
 20
-1374.5879999999991
 30
0.0
 11
639.5000000000008
 21
-1374.5879999999991
 31
0.0
  0
LINE
  5
637
  8
DATA
  6
CONTINUOUS
 62
     7
 10
642.49999999999989
 20
-1490.22781617389
 30
0.0
 11
642.49999999999989
 21
-1002.739661112559
 31
0.0
  0
LINE
  5
638
  8
DATA
  6
CONTINUOUS
 62
     7
 10
639.5
 20
-1490.22781617389
 30
0.0
 11
639.5
 21
-1002.739661112559
 31
0.0
  0
LINE
  5
639
  8
DATA
  6
CONTINUOUS
 62
     7
 10
642.49999999999989
 20
-1002.739661112559
 30
0.0
 11
614.5000000000008
 21
-1002.739661112559
 31
0.0
  0
LINE
  5
63A
  8
DATA
  6
CONTINUOUS
 62
     7
 10
639.5
 20
-1265.123824625613
 30
0.0
 11
614.5000000000008
 21
-1265.123824625613
 31
0.0
  0
LINE
  5
63B
  8
DATA
  6
CONTINUOUS
 62
     7
 10
642.49999999999989
 20
-1490.22781617389
 30
0.0
 11
639.5000000000008
 21
-1490.22781617389
 31
0.0
  0
LINE
  5
63C
  8
DATA
  6
CONTINUOUS
 62
     7
 10
648.5
 20
-1472.2273537739511
 30
0.0
 11
648.5
 21
-1457.7273537739511
 31
0.0
  0
LINE
  5
63D
  8
DATA
  6
CONTINUOUS
 62
     7
 10
643.70000000000073
 20
-1473.7273537739511
 30
0.0
 11
643.70000000000073
 21
-1456.2273537739511
 31
0.0
  0
LINE
  5
63E
  8
DATA
  6
CONTINUOUS
 62
     7
 10
643.69999999999982
 20
-1456.2273537739511
 30
0.0
 11
642.49999999999989
 21
-1456.2273537739511
 31
0.0
  0
LINE
  5
63F
  8
DATA
  6
CONTINUOUS
 62
     7
 10
648.5
 20
-1457.7273537739511
 30
0.0
 11
643.70000000000073
 21
-1457.7273537739511
 31
0.0
  0
LINE
  5
640
  8
DATA
  6
CONTINUOUS
 62
     7
 10
648.5
 20
-1472.2273537739511
 30
0.0
 11
643.70000000000073
 21
-1472.2273537739511
 31
0.0
  0
LINE
  5
641
  8
DATA
  6
CONTINUOUS
 62
     7
 10
643.70000000000073
 20
-1473.7273537739511
 30
0.0
 11
642.49999999999989
 21
-1473.7273537739511
 31
0.0
  0
LINE
  5
642
  8
DATA
  6
CONTINUOUS
 62
     7
 10
648.5
 20
-1468.6023537739511
 30
0.0
 11
643.69999999999982
 21
-1468.6023537739511
 31
0.0
  0
LINE
  5
643
  8
DATA
  6
CONTINUOUS
 62
     7
 10
648.5
 20
-1461.3523537739511
 30
0.0
 11
643.69999999999982
 21
-1461.3523537739511
 31
0.0
  0
LINE
  5
644
  8
DATA
  6
CONTINUOUS
 62
     7
 10
628.5000000000008
 20
-1472.2273537739511
 30
0.0
 11
628.5000000000008
 21
-1457.7273537739511
 31
0.0
  0
LINE
  5
645
  8
DATA
  6
CONTINUOUS
 62
     7
 10
635.300000000002
 20
-1456.2273537739511
 30
0.0
 11
635.30000000000086
 21
-1473.7273537739511
 31
0.0
  0
LINE
  5
646
  8
DATA
  6
CONTINUOUS
 62
     7
 10
635.300000000002
 20
-1456.2273537739511
 30
0.0
 11
636.5000000000008
 21
-1456.2273537739511
 31
0.0
  0
LINE
  5
647
  8
DATA
  6
CONTINUOUS
 62
     7
 10
635.30000000000086
 20
-1473.7273537739511
 30
0.0
 11
636.5000000000008
 21
-1473.7273537739511
 31
0.0
  0
LINE
  5
648
  8
DATA
  6
CONTINUOUS
 62
     7
 10
628.5000000000008
 20
-1472.2273537739511
 30
0.0
 11
635.30000000000086
 21
-1472.2273537739511
 31
0.0
  0
LINE
  5
649
  8
DATA
  6
CONTINUOUS
 62
     7
 10
628.5000000000008
 20
-1457.7273537739511
 30
0.0
 11
635.300000000002
 21
-1457.7273537739511
 31
0.0
  0
LINE
  5
64A
  8
DATA
  6
CONTINUOUS
 62
     7
 10
635.300000000002
 20
-1461.3523537739511
 30
0.0
 11
628.5000000000008
 21
-1461.3523537739511
 31
0.0
  0
LINE
  5
64B
  8
DATA
  6
CONTINUOUS
 62
     7
 10
635.300000000002
 20
-1468.6023537739511
 30
0.0
 11
628.5000000000008
 21
-1468.6023537739511
 31
0.0
  0
LINE
  5
64C
  8
DATA
  6
CONTINUOUS
 62
     7
 10
627.5000000000008
 20
-1468.9773537739511
 30
0.0
 11
627.5000000000008
 21
-1460.9773537739511
 31
0.0
  0
LINE
  5
64D
  8
DATA
  6
CONTINUOUS
 62
     7
 10
627.5000000000008
 20
-1460.9773537739511
 30
0.0
 11
628.5000000000008
 21
-1460.9773537739511
 31
0.0
  0
LINE
  5
64E
  8
DATA
  6
CONTINUOUS
 62
     7
 10
627.5000000000008
 20
-1468.9773537739511
 30
0.0
 11
628.5000000000008
 21
-1468.9773537739511
 31
0.0
  0
LINE
  5
64F
  8
DATA
  6
CONTINUOUS
 62
     7
 10
614.5
 20
-1470.882979062668
 30
0.0
 11
614.5
 21
-915.58799999999985
 31
0.0
  0
LINE
  5
650
  8
DATA
  6
CONTINUOUS
 62
     7
 10
843.0
 20
-922.97999999999968
 30
0.0
 11
843.0
 21
-959.97999999999956
 31
0.0
  0
CIRCLE
  5
651
  8
DATA
  6
CONTINUOUS
 62
     7
 10
869.9999999999992
 20
-749.00900000000001
 30
0.0
 40
2.5
  0
LINE
  5
652
  8
DATA
  6
CONTINUOUS
 62
     7
 10
867.11324865405095
 20
-744.00900000000001
 30
0.0
 11
872.88675134594735
 21
-744.00900000000001
 31
0.0
  0
LINE
  5
653
  8
DATA
  6
CONTINUOUS
 62
     7
 10
864.22649730810258
 20
-749.00900000000001
 30
0.0
 11
867.11324865405095
 21
-744.00900000000001
 31
0.0
  0
LINE
  5
654
  8
DATA
  6
CONTINUOUS
 62
     7
 10
867.11324865405095
 20
-754.00900000000001
 30
0.0
 11
864.22649730810258
 21
-749.00900000000001
 31
0.0
  0
LINE
  5
655
  8
DATA
  6
CONTINUOUS
 62
     7
 10
867.11324865405095
 20
-754.00900000000001
 30
0.0
 11
872.88675134594735
 21
-754.00900000000001
 31
0.0
  0
LINE
  5
656
  8
DATA
  6
CONTINUOUS
 62
     7
 10
872.88675134594735
 20
-754.00900000000001
 30
0.0
 11
875.77350269189537
 21
-749.00900000000001
 31
0.0
  0
LINE
  5
657
  8
DATA
  6
CONTINUOUS
 62
     7
 10
875.77350269189537
 20
-749.00900000000001
 30
0.0
 11
872.88675134594735
 21
-744.00900000000001
 31
0.0
  0
CIRCLE
  5
658
  8
DATA
  6
CONTINUOUS
 62
     7
 10
869.9999999999992
 20
-901.0089999999999
 30
0.0
 40
2.5
  0
LINE
  5
659
  8
DATA
  6
CONTINUOUS
 62
     7
 10
867.11324865405095
 20
-896.00900000000001
 30
0.0
 11
872.88675134594735
 21
-896.00900000000001
 31
0.0
  0
LINE
  5
65A
  8
DATA
  6
CONTINUOUS
 62
     7
 10
864.22649730810258
 20
-901.0089999999999
 30
0.0
 11
867.11324865405095
 21
-896.00900000000001
 31
0.0
  0
LINE
  5
65B
  8
DATA
  6
CONTINUOUS
 62
     7
 10
867.11324865405095
 20
-906.00900000000001
 30
0.0
 11
864.22649730810258
 21
-901.0089999999999
 31
0.0
  0
LINE
  5
65C
  8
DATA
  6
CONTINUOUS
 62
     7
 10
867.11324865405095
 20
-906.00900000000001
 30
0.0
 11
872.88675134594735
 21
-906.00900000000001
 31
0.0
  0
LINE
  5
65D
  8
DATA
  6
CONTINUOUS
 62
     7
 10
872.88675134594735
 20
-906.00900000000001
 30
0.0
 11
875.77350269189537
 21
-901.0089999999999
 31
0.0
  0
LINE
  5
65E
  8
DATA
  6
CONTINUOUS
 62
     7
 10
875.77350269189537
 20
-901.0089999999999
 30
0.0
 11
872.88675134594735
 21
-896.00900000000001
 31
0.0
  0
CIRCLE
  5
65F
  8
DATA
  6
CONTINUOUS
 62
     7
 10
804.99999999999909
 20
-927.97999999999956
 30
0.0
 40
2.5
  0
LINE
  5
660
  8
DATA
  6
CONTINUOUS
 62
     7
 10
802.11324865405084
 20
-922.97999999999968
 30
0.0
 11
807.88675134594723
 21
-922.97999999999968
 31
0.0
  0
LINE
  5
661
  8
DATA
  6
CONTINUOUS
 62
     7
 10
799.22649730810258
 20
-927.97999999999956
 30
0.0
 11
802.11324865405084
 21
-922.97999999999968
 31
0.0
  0
LINE
  5
662
  8
DATA
  6
CONTINUOUS
 62
     7
 10
802.11324865405084
 20
-932.97999999999956
 30
0.0
 11
799.22649730810258
 21
-927.97999999999956
 31
0.0
  0
LINE
  5
663
  8
DATA
  6
CONTINUOUS
 62
     7
 10
802.11324865405084
 20
-932.97999999999956
 30
0.0
 11
807.88675134594723
 21
-932.97999999999956
 31
0.0
  0
LINE
  5
664
  8
DATA
  6
CONTINUOUS
 62
     7
 10
807.88675134594723
 20
-932.97999999999956
 30
0.0
 11
810.77350269189549
 21
-927.97999999999956
 31
0.0
  0
LINE
  5
665
  8
DATA
  6
CONTINUOUS
 62
     7
 10
810.77350269189549
 20
-927.97999999999956
 30
0.0
 11
807.88675134594723
 21
-922.97999999999968
 31
0.0
  0
CIRCLE
  5
666
  8
DATA
  6
CONTINUOUS
 62
     7
 10
652.5
 20
-927.97999999999956
 30
0.0
 40
2.5
  0
LINE
  5
667
  8
DATA
  6
CONTINUOUS
 62
     7
 10
649.61324865405277
 20
-922.97999999999968
 30
0.0
 11
655.38675134594905
 21
-922.97999999999968
 31
0.0
  0
LINE
  5
668
  8
DATA
  6
CONTINUOUS
 62
     7
 10
646.7264973081036
 20
-927.97999999999956
 30
0.0
 11
649.61324865405277
 21
-922.97999999999968
 31
0.0
  0
LINE
  5
669
  8
DATA
  6
CONTINUOUS
 62
     7
 10
649.61324865405277
 20
-932.97999999999956
 30
0.0
 11
646.7264973081036
 21
-927.97999999999956
 31
0.0
  0
LINE
  5
66A
  8
DATA
  6
CONTINUOUS
 62
     7
 10
649.61324865405277
 20
-932.97999999999956
 30
0.0
 11
655.38675134594723
 21
-932.97999999999956
 31
0.0
  0
LINE
  5
66B
  8
DATA
  6
CONTINUOUS
 62
     7
 10
655.38675134594723
 20
-932.97999999999956
 30
0.0
 11
658.27350269189617
 21
-927.97999999999956
 31
0.0
  0
LINE
  5
66C
  8
DATA
  6
CONTINUOUS
 62
     7
 10
658.27350269189617
 20
-927.97999999999956
 30
0.0
 11
655.38675134594905
 21
-922.97999999999968
 31
0.0
  0
CIRCLE
  5
66D
  8
DATA
  6
CONTINUOUS
 62
     7
 10
804.99999999999909
 20
-954.97999999999968
 30
0.0
 40
2.5
  0
LINE
  5
66E
  8
DATA
  6
CONTINUOUS
 62
     7
 10
802.11324865405084
 20
-949.97999999999956
 30
0.0
 11
807.88675134594723
 21
-949.97999999999956
 31
0.0
  0
LINE
  5
66F
  8
DATA
  6
CONTINUOUS
 62
     7
 10
799.22649730810258
 20
-954.97999999999968
 30
0.0
 11
802.11324865405084
 21
-949.97999999999956
 31
0.0
  0
LINE
  5
670
  8
DATA
  6
CONTINUOUS
 62
     7
 10
802.11324865405084
 20
-959.97999999999956
 30
0.0
 11
799.22649730810258
 21
-954.97999999999968
 31
0.0
  0
LINE
  5
671
  8
DATA
  6
CONTINUOUS
 62
     7
 10
802.11324865405084
 20
-959.97999999999956
 30
0.0
 11
807.88675134594723
 21
-959.97999999999956
 31
0.0
  0
LINE
  5
672
  8
DATA
  6
CONTINUOUS
 62
     7
 10
807.88675134594723
 20
-959.97999999999956
 30
0.0
 11
810.77350269189549
 21
-954.97999999999968
 31
0.0
  0
LINE
  5
673
  8
DATA
  6
CONTINUOUS
 62
     7
 10
810.77350269189549
 20
-954.97999999999968
 30
0.0
 11
807.88675134594723
 21
-949.97999999999956
 31
0.0
  0
CIRCLE
  5
674
  8
DATA
  6
CONTINUOUS
 62
     7
 10
869.9999999999992
 20
-978.0089999999999
 30
0.0
 40
2.5
  0
LINE
  5
675
  8
DATA
  6
CONTINUOUS
 62
     7
 10
867.11324865405095
 20
-973.00900000000001
 30
0.0
 11
872.88675134594735
 21
-973.00900000000001
 31
0.0
  0
LINE
  5
676
  8
DATA
  6
CONTINUOUS
 62
     7
 10
864.22649730810258
 20
-978.0089999999999
 30
0.0
 11
867.11324865405095
 21
-973.00900000000001
 31
0.0
  0
LINE
  5
677
  8
DATA
  6
CONTINUOUS
 62
     7
 10
867.11324865405095
 20
-983.00900000000001
 30
0.0
 11
864.22649730810258
 21
-978.0089999999999
 31
0.0
  0
LINE
  5
678
  8
DATA
  6
CONTINUOUS
 62
     7
 10
867.11324865405095
 20
-983.00900000000001
 30
0.0
 11
872.88675134594735
 21
-983.00900000000001
 31
0.0
  0
LINE
  5
679
  8
DATA
  6
CONTINUOUS
 62
     7
 10
872.88675134594735
 20
-983.00900000000001
 30
0.0
 11
875.77350269189537
 21
-978.0089999999999
 31
0.0
  0
LINE
  5
67A
  8
DATA
  6
CONTINUOUS
 62
     7
 10
875.77350269189537
 20
-978.0089999999999
 30
0.0
 11
872.88675134594735
 21
-973.00900000000001
 31
0.0
  0
CIRCLE
  5
67B
  8
DATA
  6
CONTINUOUS
 62
     7
 10
869.9999999999992
 20
-1268.0340000000001
 30
0.0
 40
2.5
  0
LINE
  5
67C
  8
DATA
  6
CONTINUOUS
 62
     7
 10
867.11324865405095
 20
-1263.033999999999
 30
0.0
 11
872.88675134594735
 21
-1263.033999999999
 31
0.0
  0
LINE
  5
67D
  8
DATA
  6
CONTINUOUS
 62
     7
 10
864.22649730810258
 20
-1268.0340000000001
 30
0.0
 11
867.11324865405095
 21
-1263.033999999999
 31
0.0
  0
LINE
  5
67E
  8
DATA
  6
CONTINUOUS
 62
     7
 10
867.11324865405095
 20
-1273.033999999999
 30
0.0
 11
864.22649730810258
 21
-1268.0340000000001
 31
0.0
  0
LINE
  5
67F
  8
DATA
  6
CONTINUOUS
 62
     7
 10
867.11324865405095
 20
-1273.033999999999
 30
0.0
 11
872.88675134594735
 21
-1273.033999999999
 31
0.0
  0
LINE
  5
680
  8
DATA
  6
CONTINUOUS
 62
     7
 10
872.88675134594735
 20
-1273.033999999999
 30
0.0
 11
875.77350269189537
 21
-1268.0340000000001
 31
0.0
  0
LINE
  5
681
  8
DATA
  6
CONTINUOUS
 62
     7
 10
875.77350269189537
 20
-1268.0340000000001
 30
0.0
 11
872.88675134594735
 21
-1263.033999999999
 31
0.0
  0
CIRCLE
  5
682
  8
DATA
  6
CONTINUOUS
 62
     7
 10
869.99999999999807
 20
-1558.059
 30
0.0
 40
2.5
  0
LINE
  5
683
  8
DATA
  6
CONTINUOUS
 62
     7
 10
867.11324865405095
 20
-1553.059
 30
0.0
 11
872.88675134594735
 21
-1553.059
 31
0.0
  0
LINE
  5
684
  8
DATA
  6
CONTINUOUS
 62
     7
 10
864.22649730810167
 20
-1558.059
 30
0.0
 11
867.11324865405095
 21
-1553.059
 31
0.0
  0
LINE
  5
685
  8
DATA
  6
CONTINUOUS
 62
     7
 10
867.11324865405095
 20
-1563.0589999999991
 30
0.0
 11
864.22649730810167
 21
-1558.059
 31
0.0
  0
LINE
  5
686
  8
DATA
  6
CONTINUOUS
 62
     7
 10
867.11324865405095
 20
-1563.0589999999991
 30
0.0
 11
872.88675134594735
 21
-1563.0589999999991
 31
0.0
  0
LINE
  5
687
  8
DATA
  6
CONTINUOUS
 62
     7
 10
872.88675134594735
 20
-1563.0589999999991
 30
0.0
 11
875.77350269189344
 21
-1558.059
 31
0.0
  0
LINE
  5
688
  8
DATA
  6
CONTINUOUS
 62
     7
 10
875.77350269189344
 20
-1558.059
 30
0.0
 11
872.88675134594735
 21
-1553.059
 31
0.0
  0
CIRCLE
  5
689
  8
DATA
  6
CONTINUOUS
 62
     7
 10
832.4999999999992
 20
-1581.5879999999991
 30
0.0
 40
2.5
  0
LINE
  5
68A
  8
DATA
  6
CONTINUOUS
 62
     7
 10
829.61324865405174
 20
-1576.5879999999991
 30
0.0
 11
835.38675134594826
 21
-1576.5879999999991
 31
0.0
  0
LINE
  5
68B
  8
DATA
  6
CONTINUOUS
 62
     7
 10
826.72649730810258
 20
-1581.5879999999991
 30
0.0
 11
829.61324865405174
 21
-1576.5879999999991
 31
0.0
  0
LINE
  5
68C
  8
DATA
  6
CONTINUOUS
 62
     7
 10
829.61324865405174
 20
-1586.5879999999991
 30
0.0
 11
826.72649730810258
 21
-1581.5879999999991
 31
0.0
  0
LINE
  5
68D
  8
DATA
  6
CONTINUOUS
 62
     7
 10
829.61324865405174
 20
-1586.5879999999991
 30
0.0
 11
835.38675134594735
 21
-1586.5879999999991
 31
0.0
  0
LINE
  5
68E
  8
DATA
  6
CONTINUOUS
 62
     7
 10
835.38675134594735
 20
-1586.5879999999991
 30
0.0
 11
838.27350269189537
 21
-1581.5879999999991
 31
0.0
  0
LINE
  5
68F
  8
DATA
  6
CONTINUOUS
 62
     7
 10
838.27350269189537
 20
-1581.5879999999991
 30
0.0
 11
835.38675134594826
 21
-1576.5879999999991
 31
0.0
  0
LINE
  5
690
  8
DATA
  6
CONTINUOUS
 62
     7
 10
614.5
 20
-922.97999999999968
 30
0.0
 11
843.0
 21
-922.97999999999968
 31
0.0
  0
LINE
  5
691
  8
DATA
  6
CONTINUOUS
 62
     7
 10
614.5
 20
-959.97999999999956
 30
0.0
 11
843.0
 21
-959.97999999999956
 31
0.0
  0
ARC
  5
692
  8
DATA
  6
CONTINUOUS
 62
     7
 10
749.9999999999992
 20
-651.97999999999945
 30
0.0
 40
50.0
 50
0.0
 51
90.0
  0
LINE
  5
693
  8
DATA
  6
CONTINUOUS
 62
     7
 10
861.49199999999939
 20
-572.0089999999999
 30
0.0
 11
880.49199999999928
 21
-572.0089999999999
 31
0.0
  0
CIRCLE
  5
694
  8
DATA
  6
CONTINUOUS
 62
     7
 10
869.9999999999992
 20
-597.0089999999999
 30
0.0
 40
2.5
  0
LINE
  5
695
  8
DATA
  6
CONTINUOUS
 62
     7
 10
867.11324865405095
 20
-592.00900000000001
 30
0.0
 11
872.88675134594735
 21
-592.00900000000001
 31
0.0
  0
LINE
  5
696
  8
DATA
  6
CONTINUOUS
 62
     7
 10
864.22649730810258
 20
-597.0089999999999
 30
0.0
 11
867.11324865405095
 21
-592.00900000000001
 31
0.0
  0
LINE
  5
697
  8
DATA
  6
CONTINUOUS
 62
     7
 10
867.11324865405095
 20
-602.00900000000001
 30
0.0
 11
864.22649730810258
 21
-597.0089999999999
 31
0.0
  0
LINE
  5
698
  8
DATA
  6
CONTINUOUS
 62
     7
 10
867.11324865405095
 20
-602.00900000000001
 30
0.0
 11
872.88675134594735
 21
-602.00900000000001
 31
0.0
  0
LINE
  5
699
  8
DATA
  6
CONTINUOUS
 62
     7
 10
872.88675134594735
 20
-602.00900000000001
 30
0.0
 11
875.77350269189537
 21
-597.0089999999999
 31
0.0
  0
LINE
  5
69A
  8
DATA
  6
CONTINUOUS
 62
     7
 10
875.77350269189537
 20
-597.0089999999999
 30
0.0
 11
872.88675134594735
 21
-592.00900000000001
 31
0.0
  0
POLYLINE
  5
69B
  8
DATA
  6
CONTINUOUS
 62
     7
 66
     1
 10
0.0
 20
0.0
 30
0.0
 70
   128
  0
VERTEX
  5
AD2
  8
DATA
  6
CONTINUOUS
 62
     7
 10
496.05741151793922
 20
-2265.7769237886469
 30
0.0
  0
VERTEX
  5
AD3
  8
DATA
  6
CONTINUOUS
 62
     7
 10
496.06338288933131
 20
-2265.7651984654572
 30
0.0
  0
VERTEX
  5
AD4
  8
DATA
  6
CONTINUOUS
 62
     7
 10
496.06926022337848
 20
-2265.7534599958849
 30
0.0
  0
VERTEX
  5
AD5
  8
DATA
  6
CONTINUOUS
 62
     7
 10
496.0750435200809
 20
-2265.741708379931
 30
0.0
  0
VERTEX
  5
AD6
  8
DATA
  6
CONTINUOUS
 62
     7
 10
496.08073277943862
 20
-2265.7299436175972
 30
0.0
  0
VERTEX
  5
AD7
  8
DATA
  6
CONTINUOUS
 62
     7
 10
496.0863280014517
 20
-2265.7181657088809
 30
0.0
  0
VERTEX
  5
AD8
  8
DATA
  6
CONTINUOUS
 62
     7
 10
496.09182918611992
 20
-2265.7063746537851
 30
0.0
  0
VERTEX
  5
AD9
  8
DATA
  6
CONTINUOUS
 62
     7
 10
496.09723633344322
 20
-2265.6945704523082
 30
0.0
  0
VERTEX
  5
ADA
  8
DATA
  6
CONTINUOUS
 62
     7
 10
496.10254944342199
 20
-2265.6827531044491
 30
0.0
  0
VERTEX
  5
ADB
  8
DATA
  6
CONTINUOUS
 62
     7
 10
496.1077685160559
 20
-2265.6709226102089
 30
0.0
  0
VERTEX
  5
ADC
  8
DATA
  6
CONTINUOUS
 62
     7
 10
496.11289355134522
 20
-2265.6590789695879
 30
0.0
  0
VERTEX
  5
ADD
  8
DATA
  6
CONTINUOUS
 62
     7
 10
496.11792454928963
 20
-2265.6472221825861
 30
0.0
  0
VERTEX
  5
ADE
  8
DATA
  6
CONTINUOUS
 62
     7
 10
496.12286150988922
 20
-2265.6353522492009
 30
0.0
  0
VERTEX
  5
ADF
  8
DATA
  6
CONTINUOUS
 62
     7
 10
496.12770443314412
 20
-2265.6234691694372
 30
0.0
  0
VERTEX
  5
AE0
  8
DATA
  6
CONTINUOUS
 62
     7
 10
496.13245331905438
 20
-2265.6115729432918
 30
0.0
  0
VERTEX
  5
AE1
  8
DATA
  6
CONTINUOUS
 62
     7
 10
496.13710816761977
 20
-2265.5996635707638
 30
0.0
  0
VERTEX
  5
AE2
  8
DATA
  6
CONTINUOUS
 62
     7
 10
496.14166897884041
 20
-2265.5877410518569
 30
0.0
  0
VERTEX
  5
AE3
  8
DATA
  6
CONTINUOUS
 62
     7
 10
496.1461357527163
 20
-2265.5758053865679
 30
0.0
  0
VERTEX
  5
AE4
  8
DATA
  6
CONTINUOUS
 62
     7
 10
496.1505084892475
 20
-2265.5638565748968
 30
0.0
  0
VERTEX
  5
AE5
  8
DATA
  6
CONTINUOUS
 62
     7
 10
496.15478718843377
 20
-2265.5518946168449
 30
0.0
  0
VERTEX
  5
AE6
  8
DATA
  6
CONTINUOUS
 62
     7
 10
496.15897185027552
 20
-2265.5399195124119
 30
0.0
  0
VERTEX
  5
AE7
  8
DATA
  6
CONTINUOUS
 62
     7
 10
496.16306247477229
 20
-2265.527931261598
 30
0.0
  0
VERTEX
  5
AE8
  8
DATA
  6
CONTINUOUS
 62
     7
 10
496.16705906192448
 20
-2265.5159298644021
 30
0.0
  0
VERTEX
  5
AE9
  8
DATA
  6
CONTINUOUS
 62
     7
 10
496.17096161173191
 20
-2265.5039153208259
 30
0.0
  0
VERTEX
  5
AEA
  8
DATA
  6
CONTINUOUS
 62
     7
 10
496.17477012419448
 20
-2265.4918876308689
 30
0.0
  0
VERTEX
  5
AEB
  8
DATA
  6
CONTINUOUS
 62
     7
 10
496.1784845993123
 20
-2265.4798467945302
 30
0.0
  0
VERTEX
  5
AEC
  8
DATA
  6
CONTINUOUS
 62
     7
 10
496.18210503708542
 20
-2265.4677928118099
 30
0.0
  0
VERTEX
  5
AED
  8
DATA
  6
CONTINUOUS
 62
     7
 10
496.18563143751362
 20
-2265.4557256827088
 30
0.0
  0
VERTEX
  5
AEE
  8
DATA
  6
CONTINUOUS
 62
     7
 10
496.18906380059741
 20
-2265.443645407227
 30
0.0
  0
VERTEX
  5
AEF
  8
DATA
  6
CONTINUOUS
 62
     7
 10
496.19240212633622
 20
-2265.4315519853631
 30
0.0
  0
VERTEX
  5
AF0
  8
DATA
  6
CONTINUOUS
 62
     7
 10
496.19564641473022
 20
-2265.4194454171179
 30
0.0
  0
VERTEX
  5
AF1
  8
DATA
  6
CONTINUOUS
 62
     7
 10
496.19879666577958
 20
-2265.4073257024929
 30
0.0
  0
VERTEX
  5
AF2
  8
DATA
  6
CONTINUOUS
 62
     7
 10
496.20185287948419
 20
-2265.3951928414849
 30
0.0
  0
VERTEX
  5
AF3
  8
DATA
  6
CONTINUOUS
 62
     7
 10
496.20481505584388
 20
-2265.3830468340971
 30
0.0
  0
VERTEX
  5
AF4
  8
DATA
  6
CONTINUOUS
 62
     7
 10
496.20768319485887
 20
-2265.370887680328
 30
0.0
  0
VERTEX
  5
AF5
  8
DATA
  6
CONTINUOUS
 62
     7
 10
496.21045729652923
 20
-2265.3587153801768
 30
0.0
  0
VERTEX
  5
AF6
  8
DATA
  6
CONTINUOUS
 62
     7
 10
496.21313736085472
 20
-2265.3465299336449
 30
0.0
  0
VERTEX
  5
AF7
  8
DATA
  6
CONTINUOUS
 62
     7
 10
496.21572338783562
 20
-2265.3343313407322
 30
0.0
  0
VERTEX
  5
AF8
  8
DATA
  6
CONTINUOUS
 62
     7
 10
496.21821537747172
 20
-2265.3221196014392
 30
0.0
  0
VERTEX
  5
AF9
  8
DATA
  6
CONTINUOUS
 62
     7
 10
496.2206133297629
 20
-2265.3098947157632
 30
0.0
  0
VERTEX
  5
AFA
  8
DATA
  6
CONTINUOUS
 62
     7
 10
496.22291724470938
 20
-2265.2976566837069
 30
0.0
  0
VERTEX
  5
AFB
  8
DATA
  6
CONTINUOUS
 62
     7
 10
496.22512712231111
 20
-2265.285405505269
 30
0.0
  0
VERTEX
  5
AFC
  8
DATA
  6
CONTINUOUS
 62
     7
 10
496.2272429625682
 20
-2265.2731411804511
 30
0.0
  0
VERTEX
  5
AFD
  8
DATA
  6
CONTINUOUS
 62
     7
 10
496.22926476548048
 20
-2265.2608637092512
 30
0.0
  0
VERTEX
  5
AFE
  8
DATA
  6
CONTINUOUS
 62
     7
 10
496.2311925310479
 20
-2265.2485730916701
 30
0.0
  0
VERTEX
  5
AFF
  8
DATA
  6
CONTINUOUS
 62
     7
 10
496.23302625927062
 20
-2265.2362693277069
 30
0.0
  0
VERTEX
  5
B00
  8
DATA
  6
CONTINUOUS
 62
     7
 10
496.2347659501487
 20
-2265.2239524173642
 30
0.0
  0
VERTEX
  5
B01
  8
DATA
  6
CONTINUOUS
 62
     7
 10
496.23641160368197
 20
-2265.211622360639
 30
0.0
  0
VERTEX
  5
B02
  8
DATA
  6
CONTINUOUS
 62
     7
 10
496.23796321987032
 20
-2265.1992791575331
 30
0.0
  0
VERTEX
  5
B03
  8
DATA
  6
CONTINUOUS
 62
     7
 10
496.23942079871409
 20
-2265.186922808045
 30
0.0
  0
VERTEX
  5
B04
  8
DATA
  6
CONTINUOUS
 62
     7
 10
496.24078434021311
 20
-2265.1745533121771
 30
0.0
  0
VERTEX
  5
B05
  8
DATA
  6
CONTINUOUS
 62
     7
 10
496.24205384436721
 20
-2265.1621706699279
 30
0.0
  0
VERTEX
  5
B06
  8
DATA
  6
CONTINUOUS
 62
     7
 10
496.24322931117672
 20
-2265.1497748812972
 30
0.0
  0
VERTEX
  5
B07
  8
DATA
  6
CONTINUOUS
 62
     7
 10
496.24431074064131
 20
-2265.1373659462852
 30
0.0
  0
VERTEX
  5
B08
  8
DATA
  6
CONTINUOUS
 62
     7
 10
496.24529813276109
 20
-2265.1249438648929
 30
0.0
  0
VERTEX
  5
B09
  8
DATA
  6
CONTINUOUS
 62
     7
 10
496.24619148753652
 20
-2265.1125086371189
 30
0.0
  0
VERTEX
  5
B0A
  8
DATA
  6
CONTINUOUS
 62
     7
 10
496.2469908049668
 20
-2265.1000602629638
 30
0.0
  0
VERTEX
  5
B0B
  8
DATA
  6
CONTINUOUS
 62
     7
 10
496.2476960850525
 20
-2265.087598742427
 30
0.0
  0
VERTEX
  5
B0C
  8
DATA
  6
CONTINUOUS
 62
     7
 10
496.2483073277935
 20
-2265.0751240755098
 30
0.0
  0
VERTEX
  5
B0D
  8
DATA
  6
CONTINUOUS
 62
     7
 10
496.24882453318958
 20
-2265.0626362622111
 30
0.0
  0
VERTEX
  5
B0E
  8
DATA
  6
CONTINUOUS
 62
     7
 10
496.24924770124107
 20
-2265.0501353025311
 30
0.0
  0
VERTEX
  5
B0F
  8
DATA
  6
CONTINUOUS
 62
     7
 10
496.24957683194771
 20
-2265.037621196469
 30
0.0
  0
VERTEX
  5
B10
  8
DATA
  6
CONTINUOUS
 62
     7
 10
496.24981192530959
 20
-2265.025093944028
 30
0.0
  0
VERTEX
  5
B11
  8
DATA
  6
CONTINUOUS
 62
     7
 10
496.24995298132683
 20
-2265.0125535452048
 30
0.0
  0
VERTEX
  5
B12
  8
DATA
  6
CONTINUOUS
 62
     7
 10
496.24999999999909
 20
-2265.0
 30
0.0
  0
VERTEX
  5
B13
  8
DATA
  6
CONTINUOUS
 62
     7
 10
496.24999999999909
 20
-2265.0
 30
0.0
  0
VERTEX
  5
B14
  8
DATA
  6
CONTINUOUS
 62
     7
 10
496.24999999999909
 20
-2265.0
 30
0.0
  0
VERTEX
  5
B15
  8
DATA
  6
CONTINUOUS
 62
     7
 10
496.24999981633232
 20
-2264.999215018277
 30
0.0
  0
VERTEX
  5
B16
  8
DATA
  6
CONTINUOUS
 62
     7
 10
496.24999926533241
 20
-2264.9984300879059
 30
0.0
  0
VERTEX
  5
B17
  8
DATA
  6
CONTINUOUS
 62
     7
 10
496.24999834699889
 20
-2264.997645208889
 30
0.0
  0
VERTEX
  5
B18
  8
DATA
  6
CONTINUOUS
 62
     7
 10
496.24999706133201
 20
-2264.9968603812249
 30
0.0
  0
VERTEX
  5
B19
  8
DATA
  6
CONTINUOUS
 62
     7
 10
496.24999540833193
 20
-2264.9960756049149
 30
0.0
  0
VERTEX
  5
B1A
  8
DATA
  6
CONTINUOUS
 62
     7
 10
496.2499933879983
 20
-2264.9952908799569
 30
0.0
  0
VERTEX
  5
B1B
  8
DATA
  6
CONTINUOUS
 62
     7
 10
496.24999100033119
 20
-2264.9945062063521
 30
0.0
  0
VERTEX
  5
B1C
  8
DATA
  6
CONTINUOUS
 62
     7
 10
496.24998824533088
 20
-2264.9937215841001
 30
0.0
  0
VERTEX
  5
B1D
  8
DATA
  6
CONTINUOUS
 62
     7
 10
496.2499851229972
 20
-2264.9929370132008
 30
0.0
  0
VERTEX
  5
B1E
  8
DATA
  6
CONTINUOUS
 62
     7
 10
496.24998163333021
 20
-2264.9921524936558
 30
0.0
  0
VERTEX
  5
B1F
  8
DATA
  6
CONTINUOUS
 62
     7
 10
496.24997777632962
 20
-2264.9913680254631
 30
0.0
  0
VERTEX
  5
B20
  8
DATA
  6
CONTINUOUS
 62
     7
 10
496.24997355199588
 20
-2264.9905836086232
 30
0.0
  0
VERTEX
  5
B21
  8
DATA
  6
CONTINUOUS
 62
     7
 10
496.24996896032872
 20
-2264.989799243137
 30
0.0
  0
VERTEX
  5
B22
  8
DATA
  6
CONTINUOUS
 62
     7
 10
496.24996400132801
 20
-2264.9890149290031
 30
0.0
  0
VERTEX
  5
B23
  8
DATA
  6
CONTINUOUS
 62
     7
 10
496.2499586749941
 20
-2264.9882306662221
 30
0.0
  0
VERTEX
  5
B24
  8
DATA
  6
CONTINUOUS
 62
     7
 10
496.24995298132683
 20
-2264.9874464547952
 30
0.0
  0
VERTEX
  5
B25
  8
DATA
  6
CONTINUOUS
 62
     7
 10
496.24994692032601
 20
-2264.9866622947211
 30
0.0
  0
VERTEX
  5
B26
  8
DATA
  6
CONTINUOUS
 62
     7
 10
496.24994049199188
 20
-2264.9858781859989
 30
0.0
  0
VERTEX
  5
B27
  8
DATA
  6
CONTINUOUS
 62
     7
 10
496.24993369632438
 20
-2264.9850941286322
 30
0.0
  0
VERTEX
  5
B28
  8
DATA
  6
CONTINUOUS
 62
     7
 10
496.24992653332339
 20
-2264.9843101226161
 30
0.0
  0
VERTEX
  5
B29
  8
DATA
  6
CONTINUOUS
 62
     7
 10
496.2499190029892
 20
-2264.9835261679541
 30
0.0
  0
VERTEX
  5
B2A
  8
DATA
  6
CONTINUOUS
 62
     7
 10
496.24991110532159
 20
-2264.9827422646449
 30
0.0
  0
VERTEX
  5
B2B
  8
DATA
  6
CONTINUOUS
 62
     7
 10
496.24990284032071
 20
-2264.981958412689
 30
0.0
  0
VERTEX
  5
B2C
  8
DATA
  6
CONTINUOUS
 62
     7
 10
496.24989420798619
 20
-2264.9811746120849
 30
0.0
  0
VERTEX
  5
B2D
  8
DATA
  6
CONTINUOUS
 62
     7
 10
496.2498852083184
 20
-2264.980390862836
 30
0.0
  0
VERTEX
  5
B2E
  8
DATA
  6
CONTINUOUS
 62
     7
 10
496.24987584131742
 20
-2264.9796071649389
 30
0.0
  0
VERTEX
  5
B2F
  8
DATA
  6
CONTINUOUS
 62
     7
 10
496.24986610698289
 20
-2264.9788235183951
 30
0.0
  0
VERTEX
  5
B30
  8
DATA
  6
CONTINUOUS
 62
     7
 10
496.24985600531483
 20
-2264.9780399232041
 30
0.0
  0
VERTEX
  5
B31
  8
DATA
  6
CONTINUOUS
 62
     7
 10
496.24984553631373
 20
-2264.9772563793672
 30
0.0
  0
VERTEX
  5
B32
  8
DATA
  6
CONTINUOUS
 62
     7
 10
496.24983469997898
 20
-2264.9764728868809
 30
0.0
  0
VERTEX
  5
B33
  8
DATA
  6
CONTINUOUS
 62
     7
 10
496.24982349631102
 20
-2264.975689445751
 30
0.0
  0
VERTEX
  5
B34
  8
DATA
  6
CONTINUOUS
 62
     7
 10
496.24981192530959
 20
-2264.974906055972
 30
0.0
  0
VERTEX
  5
B35
  8
DATA
  6
CONTINUOUS
 62
     7
 10
496.24979998697478
 20
-2264.9741227175459
 30
0.0
  0
VERTEX
  5
B36
  8
DATA
  6
CONTINUOUS
 62
     7
 10
496.2497876813066
 20
-2264.9733394304731
 30
0.0
  0
VERTEX
  5
B37
  8
DATA
  6
CONTINUOUS
 62
     7
 10
496.24977500830522
 20
-2264.9725561947539
 30
0.0
  0
VERTEX
  5
B38
  8
DATA
  6
CONTINUOUS
 62
     7
 10
496.24976196797019
 20
-2264.971773010388
 30
0.0
  0
VERTEX
  5
B39
  8
DATA
  6
CONTINUOUS
 62
     7
 10
496.2497485603019
 20
-2264.9709898773749
 30
0.0
  0
VERTEX
  5
B3A
  8
DATA
  6
CONTINUOUS
 62
     7
 10
496.24973478530018
 20
-2264.9702067957141
 30
0.0
  0
VERTEX
  5
B3B
  8
DATA
  6
CONTINUOUS
 62
     7
 10
496.24972064296509
 20
-2264.9694237654071
 30
0.0
  0
VERTEX
  5
B3C
  8
DATA
  6
CONTINUOUS
 62
     7
 10
496.24970613329668
 20
-2264.9686407864529
 30
0.0
  0
VERTEX
  5
B3D
  8
DATA
  6
CONTINUOUS
 62
     7
 10
496.24969125629491
 20
-2264.9678578588519
 30
0.0
  0
VERTEX
  5
B3E
  8
DATA
  6
CONTINUOUS
 62
     7
 10
496.24967601195982
 20
-2264.9670749826041
 30
0.0
  0
VERTEX
  5
B3F
  8
DATA
  6
CONTINUOUS
 62
     7
 10
496.24966040029119
 20
-2264.9662921577092
 30
0.0
  0
VERTEX
  5
B40
  8
DATA
  6
CONTINUOUS
 62
     7
 10
496.24964442128919
 20
-2264.9655093841661
 30
0.0
  0
VERTEX
  5
B41
  8
DATA
  6
CONTINUOUS
 62
     7
 10
496.24962807495388
 20
-2264.9647266619781
 30
0.0
  0
VERTEX
  5
B42
  8
DATA
  6
CONTINUOUS
 62
     7
 10
496.24961136128519
 20
-2264.9639439911412
 30
0.0
  0
VERTEX
  5
B43
  8
DATA
  6
CONTINUOUS
 62
     7
 10
496.24959428028308
 20
-2264.9631613716592
 30
0.0
  0
VERTEX
  5
B44
  8
DATA
  6
CONTINUOUS
 62
     7
 10
496.24957683194771
 20
-2264.9623788035292
 30
0.0
  0
VERTEX
  5
B45
  8
DATA
  6
CONTINUOUS
 62
     7
 10
496.24955901627879
 20
-2264.961596286752
 30
0.0
  0
VERTEX
  5
B46
  8
DATA
  6
CONTINUOUS
 62
     7
 10
496.24954083327668
 20
-2264.9608138213289
 30
0.0
  0
VERTEX
  5
B47
  8
DATA
  6
CONTINUOUS
 62
     7
 10
496.24952228294097
 20
-2264.9600314072591
 30
0.0
  0
VERTEX
  5
B48
  8
DATA
  6
CONTINUOUS
 62
     7
 10
496.24950336527212
 20
-2264.9592490445398
 30
0.0
  0
VERTEX
  5
B49
  8
DATA
  6
CONTINUOUS
 62
     7
 10
496.24948408026978
 20
-2264.958466733176
 30
0.0
  0
VERTEX
  5
B4A
  8
DATA
  6
CONTINUOUS
 62
     7
 10
496.24946442793402
 20
-2264.957684473165
 30
0.0
  0
VERTEX
  5
B4B
  8
DATA
  6
CONTINUOUS
 62
     7
 10
496.24944440826488
 20
-2264.956902264506
 30
0.0
  0
VERTEX
  5
B4C
  8
DATA
  6
CONTINUOUS
 62
     7
 10
496.24942402126248
 20
-2264.9561201072011
 30
0.0
  0
VERTEX
  5
B4D
  8
DATA
  6
CONTINUOUS
 62
     7
 10
496.24940326692649
 20
-2264.9553380012489
 30
0.0
  0
VERTEX
  5
B4E
  8
DATA
  6
CONTINUOUS
 62
     7
 10
496.24938214525741
 20
-2264.9545559466492
 30
0.0
  0
VERTEX
  5
B4F
  8
DATA
  6
CONTINUOUS
 62
     7
 10
496.24936065625479
 20
-2264.9537739434031
 30
0.0
  0
VERTEX
  5
B50
  8
DATA
  6
CONTINUOUS
 62
     7
 10
496.24933879991869
 20
-2264.952991991509
 30
0.0
  0
VERTEX
  5
B51
  8
DATA
  6
CONTINUOUS
 62
     7
 10
496.24931657624938
 20
-2264.9522100909699
 30
0.0
  0
VERTEX
  5
B52
  8
DATA
  6
CONTINUOUS
 62
     7
 10
496.24929398524671
 20
-2264.9514282417831
 30
0.0
  0
VERTEX
  5
B53
  8
DATA
  6
CONTINUOUS
 62
     7
 10
496.24927102691049
 20
-2264.9506464439492
 30
0.0
  0
VERTEX
  5
B54
  8
DATA
  6
CONTINUOUS
 62
     7
 10
496.24924770124107
 20
-2264.949864697468
 30
0.0
  0
VERTEX
  5
B55
  8
DATA
  6
CONTINUOUS
 62
     7
 10
496.24924770124107
 20
-2264.949864697468
 30
0.0
  0
SEQEND
  5
B56
  8
DATA
  6
CONTINUOUS
 62
     7
  0
ARC
  5
721
  8
DATA
  6
CONTINUOUS
 62
     7
 10
490.4267784857708
 20
-2271.794993540585
 30
0.0
 40
9.7952672168883392
 50
89.571698993607583
 51
110.5206313340705
  0
ARC
  5
722
  8
DATA
  6
CONTINUOUS
 62
     7
 10
488.70302310830601
 20
-2267.160638099017
 30
0.0
 40
4.850737511113544
 50
110.64078323867579
 51
131.0046803434272
  0
ARC
  5
723
  8
DATA
  6
CONTINUOUS
 62
     7
 10
486.83660614155161
 20
-2265.1238017669712
 30
0.0
 40
2.0902755960560619
 50
129.0281926292769
 51
176.60452792917721
  0
ARC
  5
724
  8
DATA
  6
CONTINUOUS
 62
     7
 10
490.4267784857708
 20
-2258.205006459415
 30
0.0
 40
9.7952672168887425
 50
249.4793686659298
 51
270.42830100639242
  0
ARC
  5
725
  8
DATA
  6
CONTINUOUS
 62
     7
 10
488.70302310830601
 20
-2262.839361900983
 30
0.0
 40
4.8507375111131532
 50
228.9953196565713
 51
249.35921676132349
  0
ARC
  5
726
  8
DATA
  6
CONTINUOUS
 62
     7
 10
486.83660614155161
 20
-2264.8761982330288
 30
0.0
 40
2.0902755960556609
 50
183.3954720708233
 51
230.97180737072
  0
ARC
  5
727
  8
DATA
  6
CONTINUOUS
 62
     7
 10
490.57322151422829
 20
-2271.794993540585
 30
0.0
 40
9.7952672168887425
 50
69.479368665929783
 51
90.428301006393767
  0
ARC
  5
728
  8
DATA
  6
CONTINUOUS
 62
     7
 10
492.29697689169319
 20
-2267.160638099017
 30
0.0
 40
4.8507375111131532
 50
48.99531965657129
 51
69.359216761323509
  0
ARC
  5
729
  8
DATA
  6
CONTINUOUS
 62
     7
 10
494.16339385844771
 20
-2265.1238017669712
 30
0.0
 40
2.090275596055434
 50
3.3954720708237831
 51
50.971807370723702
  0
ARC
  5
72A
  8
DATA
  6
CONTINUOUS
 62
     7
 10
490.57322151422829
 20
-2258.205006459415
 30
0.0
 40
9.7952672168883428
 50
269.57169899360628
 51
290.52063133407052
  0
ARC
  5
72B
  8
DATA
  6
CONTINUOUS
 62
     7
 10
492.29697689169319
 20
-2262.839361900983
 30
0.0
 40
4.850737511113544
 50
290.64078323867579
 51
311.0046803434272
  0
ARC
  5
72C
  8
DATA
  6
CONTINUOUS
 62
     7
 10
494.16339385844771
 20
-2264.8761982330288
 30
0.0
 40
2.0902755960560619
 50
309.02819262927687
 51
356.60452792917732
  0
POLYLINE
  5
72D
  8
DATA
  6
CONTINUOUS
 62
     7
 66
     1
 10
0.0
 20
0.0
 30
0.0
 70
   128
  0
VERTEX
  5
B57
  8
DATA
  6
CONTINUOUS
 62
     7
 10
515.05741151793916
 20
-2265.7769237886469
 30
0.0
  0
VERTEX
  5
B58
  8
DATA
  6
CONTINUOUS
 62
     7
 10
515.06338288933125
 20
-2265.7651984654572
 30
0.0
  0
VERTEX
  5
B59
  8
DATA
  6
CONTINUOUS
 62
     7
 10
515.06926022337836
 20
-2265.7534599958849
 30
0.0
  0
VERTEX
  5
B5A
  8
DATA
  6
CONTINUOUS
 62
     7
 10
515.07504352008095
 20
-2265.741708379931
 30
0.0
  0
VERTEX
  5
B5B
  8
DATA
  6
CONTINUOUS
 62
     7
 10
515.08073277943856
 20
-2265.7299436175972
 30
0.0
  0
VERTEX
  5
B5C
  8
DATA
  6
CONTINUOUS
 62
     7
 10
515.08632800145165
 20
-2265.7181657088809
 30
0.0
  0
VERTEX
  5
B5D
  8
DATA
  6
CONTINUOUS
 62
     7
 10
515.09182918611987
 20
-2265.7063746537851
 30
0.0
  0
VERTEX
  5
B5E
  8
DATA
  6
CONTINUOUS
 62
     7
 10
515.09723633344322
 20
-2265.6945704523082
 30
0.0
  0
VERTEX
  5
B5F
  8
DATA
  6
CONTINUOUS
 62
     7
 10
515.10254944342205
 20
-2265.6827531044491
 30
0.0
  0
VERTEX
  5
B60
  8
DATA
  6
CONTINUOUS
 62
     7
 10
515.10776851605601
 20
-2265.6709226102089
 30
0.0
  0
VERTEX
  5
B61
  8
DATA
  6
CONTINUOUS
 62
     7
 10
515.11289355134522
 20
-2265.6590789695879
 30
0.0
  0
VERTEX
  5
B62
  8
DATA
  6
CONTINUOUS
 62
     7
 10
515.11792454928968
 20
-2265.6472221825861
 30
0.0
  0
VERTEX
  5
B63
  8
DATA
  6
CONTINUOUS
 62
     7
 10
515.12286150988928
 20
-2265.6353522492009
 30
0.0
  0
VERTEX
  5
B64
  8
DATA
  6
CONTINUOUS
 62
     7
 10
515.12770443314412
 20
-2265.6234691694372
 30
0.0
  0
VERTEX
  5
B65
  8
DATA
  6
CONTINUOUS
 62
     7
 10
515.13245331905443
 20
-2265.6115729432918
 30
0.0
  0
VERTEX
  5
B66
  8
DATA
  6
CONTINUOUS
 62
     7
 10
515.13710816761966
 20
-2265.5996635707638
 30
0.0
  0
VERTEX
  5
B67
  8
DATA
  6
CONTINUOUS
 62
     7
 10
515.14166897884036
 20
-2265.5877410518569
 30
0.0
  0
VERTEX
  5
B68
  8
DATA
  6
CONTINUOUS
 62
     7
 10
515.14613575271619
 20
-2265.5758053865679
 30
0.0
  0
VERTEX
  5
B69
  8
DATA
  6
CONTINUOUS
 62
     7
 10
515.1505084892475
 20
-2265.5638565748968
 30
0.0
  0
VERTEX
  5
B6A
  8
DATA
  6
CONTINUOUS
 62
     7
 10
515.15478718843372
 20
-2265.5518946168449
 30
0.0
  0
VERTEX
  5
B6B
  8
DATA
  6
CONTINUOUS
 62
     7
 10
515.15897185027552
 20
-2265.5399195124119
 30
0.0
  0
VERTEX
  5
B6C
  8
DATA
  6
CONTINUOUS
 62
     7
 10
515.16306247477235
 20
-2265.527931261598
 30
0.0
  0
VERTEX
  5
B6D
  8
DATA
  6
CONTINUOUS
 62
     7
 10
515.16705906192453
 20
-2265.5159298644021
 30
0.0
  0
VERTEX
  5
B6E
  8
DATA
  6
CONTINUOUS
 62
     7
 10
515.17096161173197
 20
-2265.5039153208259
 30
0.0
  0
VERTEX
  5
B6F
  8
DATA
  6
CONTINUOUS
 62
     7
 10
515.17477012419431
 20
-2265.4918876308689
 30
0.0
  0
VERTEX
  5
B70
  8
DATA
  6
CONTINUOUS
 62
     7
 10
515.17848459931236
 20
-2265.4798467945302
 30
0.0
  0
VERTEX
  5
B71
  8
DATA
  6
CONTINUOUS
 62
     7
 10
515.18210503708542
 20
-2265.4677928118099
 30
0.0
  0
VERTEX
  5
B72
  8
DATA
  6
CONTINUOUS
 62
     7
 10
515.18563143751362
 20
-2265.4557256827088
 30
0.0
  0
VERTEX
  5
B73
  8
DATA
  6
CONTINUOUS
 62
     7
 10
515.1890638005973
 20
-2265.443645407227
 30
0.0
  0
VERTEX
  5
B74
  8
DATA
  6
CONTINUOUS
 62
     7
 10
515.19240212633611
 20
-2265.4315519853631
 30
0.0
  0
VERTEX
  5
B75
  8
DATA
  6
CONTINUOUS
 62
     7
 10
515.19564641473028
 20
-2265.4194454171179
 30
0.0
  0
VERTEX
  5
B76
  8
DATA
  6
CONTINUOUS
 62
     7
 10
515.1987966657797
 20
-2265.4073257024929
 30
0.0
  0
VERTEX
  5
B77
  8
DATA
  6
CONTINUOUS
 62
     7
 10
515.20185287948414
 20
-2265.3951928414849
 30
0.0
  0
VERTEX
  5
B78
  8
DATA
  6
CONTINUOUS
 62
     7
 10
515.20481505584394
 20
-2265.3830468340971
 30
0.0
  0
VERTEX
  5
B79
  8
DATA
  6
CONTINUOUS
 62
     7
 10
515.20768319485899
 20
-2265.370887680328
 30
0.0
  0
VERTEX
  5
B7A
  8
DATA
  6
CONTINUOUS
 62
     7
 10
515.21045729652917
 20
-2265.3587153801768
 30
0.0
  0
VERTEX
  5
B7B
  8
DATA
  6
CONTINUOUS
 62
     7
 10
515.21313736085483
 20
-2265.3465299336449
 30
0.0
  0
VERTEX
  5
B7C
  8
DATA
  6
CONTINUOUS
 62
     7
 10
515.21572338783562
 20
-2265.3343313407322
 30
0.0
  0
VERTEX
  5
B7D
  8
DATA
  6
CONTINUOUS
 62
     7
 10
515.21821537747155
 20
-2265.3221196014392
 30
0.0
  0
VERTEX
  5
B7E
  8
DATA
  6
CONTINUOUS
 62
     7
 10
515.22061332976295
 20
-2265.3098947157632
 30
0.0
  0
VERTEX
  5
B7F
  8
DATA
  6
CONTINUOUS
 62
     7
 10
515.22291724470938
 20
-2265.2976566837069
 30
0.0
  0
VERTEX
  5
B80
  8
DATA
  6
CONTINUOUS
 62
     7
 10
515.22512712231116
 20
-2265.285405505269
 30
0.0
  0
VERTEX
  5
B81
  8
DATA
  6
CONTINUOUS
 62
     7
 10
515.22724296256808
 20
-2265.2731411804511
 30
0.0
  0
VERTEX
  5
B82
  8
DATA
  6
CONTINUOUS
 62
     7
 10
515.22926476548037
 20
-2265.2608637092512
 30
0.0
  0
VERTEX
  5
B83
  8
DATA
  6
CONTINUOUS
 62
     7
 10
515.23119253104778
 20
-2265.2485730916701
 30
0.0
  0
VERTEX
  5
B84
  8
DATA
  6
CONTINUOUS
 62
     7
 10
515.23302625927056
 20
-2265.2362693277069
 30
0.0
  0
VERTEX
  5
B85
  8
DATA
  6
CONTINUOUS
 62
     7
 10
515.23476595014859
 20
-2265.2239524173642
 30
0.0
  0
VERTEX
  5
B86
  8
DATA
  6
CONTINUOUS
 62
     7
 10
515.23641160368174
 20
-2265.211622360639
 30
0.0
  0
VERTEX
  5
B87
  8
DATA
  6
CONTINUOUS
 62
     7
 10
515.23796321987027
 20
-2265.1992791575331
 30
0.0
  0
VERTEX
  5
B88
  8
DATA
  6
CONTINUOUS
 62
     7
 10
515.23942079871404
 20
-2265.186922808045
 30
0.0
  0
VERTEX
  5
B89
  8
DATA
  6
CONTINUOUS
 62
     7
 10
515.24078434021305
 20
-2265.1745533121771
 30
0.0
  0
VERTEX
  5
B8A
  8
DATA
  6
CONTINUOUS
 62
     7
 10
515.24205384436721
 20
-2265.1621706699279
 30
0.0
  0
VERTEX
  5
B8B
  8
DATA
  6
CONTINUOUS
 62
     7
 10
515.24322931117661
 20
-2265.1497748812972
 30
0.0
  0
VERTEX
  5
B8C
  8
DATA
  6
CONTINUOUS
 62
     7
 10
515.24431074064125
 20
-2265.1373659462852
 30
0.0
  0
VERTEX
  5
B8D
  8
DATA
  6
CONTINUOUS
 62
     7
 10
515.24529813276115
 20
-2265.1249438648929
 30
0.0
  0
VERTEX
  5
B8E
  8
DATA
  6
CONTINUOUS
 62
     7
 10
515.24619148753652
 20
-2265.1125086371189
 30
0.0
  0
VERTEX
  5
B8F
  8
DATA
  6
CONTINUOUS
 62
     7
 10
515.24699080496691
 20
-2265.1000602629638
 30
0.0
  0
VERTEX
  5
B90
  8
DATA
  6
CONTINUOUS
 62
     7
 10
515.24769608505255
 20
-2265.087598742427
 30
0.0
  0
VERTEX
  5
B91
  8
DATA
  6
CONTINUOUS
 62
     7
 10
515.24830732779344
 20
-2265.0751240755098
 30
0.0
  0
VERTEX
  5
B92
  8
DATA
  6
CONTINUOUS
 62
     7
 10
515.24882453318958
 20
-2265.0626362622111
 30
0.0
  0
VERTEX
  5
B93
  8
DATA
  6
CONTINUOUS
 62
     7
 10
515.24924770124096
 20
-2265.0501353025311
 30
0.0
  0
VERTEX
  5
B94
  8
DATA
  6
CONTINUOUS
 62
     7
 10
515.24957683194771
 20
-2265.037621196469
 30
0.0
  0
VERTEX
  5
B95
  8
DATA
  6
CONTINUOUS
 62
     7
 10
515.24981192530947
 20
-2265.025093944028
 30
0.0
  0
VERTEX
  5
B96
  8
DATA
  6
CONTINUOUS
 62
     7
 10
515.24995298132671
 20
-2265.0125535452048
 30
0.0
  0
VERTEX
  5
B97
  8
DATA
  6
CONTINUOUS
 62
     7
 10
515.24999999999909
 20
-2265.0
 30
0.0
  0
VERTEX
  5
B98
  8
DATA
  6
CONTINUOUS
 62
     7
 10
515.24999999999909
 20
-2265.0
 30
0.0
  0
VERTEX
  5
B99
  8
DATA
  6
CONTINUOUS
 62
     7
 10
515.24999999999909
 20
-2265.0
 30
0.0
  0
VERTEX
  5
B9A
  8
DATA
  6
CONTINUOUS
 62
     7
 10
515.24999981633243
 20
-2264.999215018277
 30
0.0
  0
VERTEX
  5
B9B
  8
DATA
  6
CONTINUOUS
 62
     7
 10
515.24999926533235
 20
-2264.9984300879059
 30
0.0
  0
VERTEX
  5
B9C
  8
DATA
  6
CONTINUOUS
 62
     7
 10
515.24999834699895
 20
-2264.997645208889
 30
0.0
  0
VERTEX
  5
B9D
  8
DATA
  6
CONTINUOUS
 62
     7
 10
515.24999706133201
 20
-2264.9968603812249
 30
0.0
  0
VERTEX
  5
B9E
  8
DATA
  6
CONTINUOUS
 62
     7
 10
515.24999540833176
 20
-2264.9960756049149
 30
0.0
  0
VERTEX
  5
B9F
  8
DATA
  6
CONTINUOUS
 62
     7
 10
515.24999338799819
 20
-2264.9952908799569
 30
0.0
  0
VERTEX
  5
BA0
  8
DATA
  6
CONTINUOUS
 62
     7
 10
515.24999100033131
 20
-2264.9945062063521
 30
0.0
  0
VERTEX
  5
BA1
  8
DATA
  6
CONTINUOUS
 62
     7
 10
515.249988245331
 20
-2264.9937215841001
 30
0.0
  0
VERTEX
  5
BA2
  8
DATA
  6
CONTINUOUS
 62
     7
 10
515.24998512299715
 20
-2264.9929370132008
 30
0.0
  0
VERTEX
  5
BA3
  8
DATA
  6
CONTINUOUS
 62
     7
 10
515.24998163333021
 20
-2264.9921524936558
 30
0.0
  0
VERTEX
  5
BA4
  8
DATA
  6
CONTINUOUS
 62
     7
 10
515.24997777632962
 20
-2264.9913680254631
 30
0.0
  0
VERTEX
  5
BA5
  8
DATA
  6
CONTINUOUS
 62
     7
 10
515.24997355199582
 20
-2264.9905836086232
 30
0.0
  0
VERTEX
  5
BA6
  8
DATA
  6
CONTINUOUS
 62
     7
 10
515.2499689603286
 20
-2264.989799243137
 30
0.0
  0
VERTEX
  5
BA7
  8
DATA
  6
CONTINUOUS
 62
     7
 10
515.24996400132807
 20
-2264.9890149290031
 30
0.0
  0
VERTEX
  5
BA8
  8
DATA
  6
CONTINUOUS
 62
     7
 10
515.24995867499399
 20
-2264.9882306662221
 30
0.0
  0
VERTEX
  5
BA9
  8
DATA
  6
CONTINUOUS
 62
     7
 10
515.24995298132671
 20
-2264.9874464547952
 30
0.0
  0
VERTEX
  5
BAA
  8
DATA
  6
CONTINUOUS
 62
     7
 10
515.2499469203259
 20
-2264.9866622947211
 30
0.0
  0
VERTEX
  5
BAB
  8
DATA
  6
CONTINUOUS
 62
     7
 10
515.24994049199199
 20
-2264.9858781859989
 30
0.0
  0
VERTEX
  5
BAC
  8
DATA
  6
CONTINUOUS
 62
     7
 10
515.24993369632432
 20
-2264.9850941286322
 30
0.0
  0
VERTEX
  5
BAD
  8
DATA
  6
CONTINUOUS
 62
     7
 10
515.24992653332345
 20
-2264.9843101226161
 30
0.0
  0
VERTEX
  5
BAE
  8
DATA
  6
CONTINUOUS
 62
     7
 10
515.24991900298915
 20
-2264.9835261679541
 30
0.0
  0
VERTEX
  5
BAF
  8
DATA
  6
CONTINUOUS
 62
     7
 10
515.24991110532164
 20
-2264.9827422646449
 30
0.0
  0
VERTEX
  5
BB0
  8
DATA
  6
CONTINUOUS
 62
     7
 10
515.24990284032049
 20
-2264.981958412689
 30
0.0
  0
VERTEX
  5
BB1
  8
DATA
  6
CONTINUOUS
 62
     7
 10
515.24989420798624
 20
-2264.9811746120849
 30
0.0
  0
VERTEX
  5
BB2
  8
DATA
  6
CONTINUOUS
 62
     7
 10
515.24988520831835
 20
-2264.980390862836
 30
0.0
  0
VERTEX
  5
BB3
  8
DATA
  6
CONTINUOUS
 62
     7
 10
515.24987584131725
 20
-2264.9796071649389
 30
0.0
  0
VERTEX
  5
BB4
  8
DATA
  6
CONTINUOUS
 62
     7
 10
515.24986610698284
 20
-2264.9788235183951
 30
0.0
  0
VERTEX
  5
BB5
  8
DATA
  6
CONTINUOUS
 62
     7
 10
515.24985600531488
 20
-2264.9780399232041
 30
0.0
  0
VERTEX
  5
BB6
  8
DATA
  6
CONTINUOUS
 62
     7
 10
515.24984553631361
 20
-2264.9772563793672
 30
0.0
  0
VERTEX
  5
BB7
  8
DATA
  6
CONTINUOUS
 62
     7
 10
515.24983469997915
 20
-2264.9764728868809
 30
0.0
  0
VERTEX
  5
BB8
  8
DATA
  6
CONTINUOUS
 62
     7
 10
515.24982349631102
 20
-2264.975689445751
 30
0.0
  0
VERTEX
  5
BB9
  8
DATA
  6
CONTINUOUS
 62
     7
 10
515.24981192530947
 20
-2264.974906055972
 30
0.0
  0
VERTEX
  5
BBA
  8
DATA
  6
CONTINUOUS
 62
     7
 10
515.24979998697484
 20
-2264.9741227175459
 30
0.0
  0
VERTEX
  5
BBB
  8
DATA
  6
CONTINUOUS
 62
     7
 10
515.24978768130654
 20
-2264.9733394304731
 30
0.0
  0
VERTEX
  5
BBC
  8
DATA
  6
CONTINUOUS
 62
     7
 10
515.24977500830505
 20
-2264.9725561947539
 30
0.0
  0
VERTEX
  5
BBD
  8
DATA
  6
CONTINUOUS
 62
     7
 10
515.2497619679699
 20
-2264.971773010388
 30
0.0
  0
VERTEX
  5
BBE
  8
DATA
  6
CONTINUOUS
 62
     7
 10
515.2497485603019
 20
-2264.9709898773749
 30
0.0
  0
VERTEX
  5
BBF
  8
DATA
  6
CONTINUOUS
 62
     7
 10
515.24973478530023
 20
-2264.9702067957141
 30
0.0
  0
VERTEX
  5
BC0
  8
DATA
  6
CONTINUOUS
 62
     7
 10
515.24972064296514
 20
-2264.9694237654071
 30
0.0
  0
VERTEX
  5
BC1
  8
DATA
  6
CONTINUOUS
 62
     7
 10
515.24970613329685
 20
-2264.9686407864529
 30
0.0
  0
VERTEX
  5
BC2
  8
DATA
  6
CONTINUOUS
 62
     7
 10
515.2496912562948
 20
-2264.9678578588519
 30
0.0
  0
VERTEX
  5
BC3
  8
DATA
  6
CONTINUOUS
 62
     7
 10
515.24967601195965
 20
-2264.9670749826041
 30
0.0
  0
VERTEX
  5
BC4
  8
DATA
  6
CONTINUOUS
 62
     7
 10
515.24966040029108
 20
-2264.9662921577092
 30
0.0
  0
VERTEX
  5
BC5
  8
DATA
  6
CONTINUOUS
 62
     7
 10
515.24964442128919
 20
-2264.9655093841661
 30
0.0
  0
VERTEX
  5
BC6
  8
DATA
  6
CONTINUOUS
 62
     7
 10
515.24962807495376
 20
-2264.9647266619781
 30
0.0
  0
VERTEX
  5
BC7
  8
DATA
  6
CONTINUOUS
 62
     7
 10
515.24961136128525
 20
-2264.9639439911412
 30
0.0
  0
VERTEX
  5
BC8
  8
DATA
  6
CONTINUOUS
 62
     7
 10
515.24959428028319
 20
-2264.9631613716592
 30
0.0
  0
VERTEX
  5
BC9
  8
DATA
  6
CONTINUOUS
 62
     7
 10
515.24957683194771
 20
-2264.9623788035292
 30
0.0
  0
VERTEX
  5
BCA
  8
DATA
  6
CONTINUOUS
 62
     7
 10
515.24955901627879
 20
-2264.961596286752
 30
0.0
  0
VERTEX
  5
BCB
  8
DATA
  6
CONTINUOUS
 62
     7
 10
515.24954083327668
 20
-2264.9608138213289
 30
0.0
  0
VERTEX
  5
BCC
  8
DATA
  6
CONTINUOUS
 62
     7
 10
515.24952228294092
 20
-2264.9600314072591
 30
0.0
  0
VERTEX
  5
BCD
  8
DATA
  6
CONTINUOUS
 62
     7
 10
515.24950336527195
 20
-2264.9592490445398
 30
0.0
  0
VERTEX
  5
BCE
  8
DATA
  6
CONTINUOUS
 62
     7
 10
515.24948408026967
 20
-2264.958466733176
 30
0.0
  0
VERTEX
  5
BCF
  8
DATA
  6
CONTINUOUS
 62
     7
 10
515.24946442793396
 20
-2264.957684473165
 30
0.0
  0
VERTEX
  5
BD0
  8
DATA
  6
CONTINUOUS
 62
     7
 10
515.24944440826494
 20
-2264.956902264506
 30
0.0
  0
VERTEX
  5
BD1
  8
DATA
  6
CONTINUOUS
 62
     7
 10
515.24942402126237
 20
-2264.9561201072011
 30
0.0
  0
VERTEX
  5
BD2
  8
DATA
  6
CONTINUOUS
 62
     7
 10
515.24940326692661
 20
-2264.9553380012489
 30
0.0
  0
VERTEX
  5
BD3
  8
DATA
  6
CONTINUOUS
 62
     7
 10
515.24938214525741
 20
-2264.9545559466492
 30
0.0
  0
VERTEX
  5
BD4
  8
DATA
  6
CONTINUOUS
 62
     7
 10
515.24936065625479
 20
-2264.9537739434031
 30
0.0
  0
VERTEX
  5
BD5
  8
DATA
  6
CONTINUOUS
 62
     7
 10
515.24933879991875
 20
-2264.952991991509
 30
0.0
  0
VERTEX
  5
BD6
  8
DATA
  6
CONTINUOUS
 62
     7
 10
515.2493165762495
 20
-2264.9522100909699
 30
0.0
  0
VERTEX
  5
BD7
  8
DATA
  6
CONTINUOUS
 62
     7
 10
515.24929398524671
 20
-2264.9514282417831
 30
0.0
  0
VERTEX
  5
BD8
  8
DATA
  6
CONTINUOUS
 62
     7
 10
515.24927102691061
 20
-2264.9506464439492
 30
0.0
  0
VERTEX
  5
BD9
  8
DATA
  6
CONTINUOUS
 62
     7
 10
515.24924770124096
 20
-2264.949864697468
 30
0.0
  0
VERTEX
  5
BDA
  8
DATA
  6
CONTINUOUS
 62
     7
 10
515.24924770124096
 20
-2264.949864697468
 30
0.0
  0
SEQEND
  5
BDB
  8
DATA
  6
CONTINUOUS
 62
     7
  0
ARC
  5
7B3
  8
DATA
  6
CONTINUOUS
 62
     7
 10
509.4267784857708
 20
-2271.794993540585
 30
0.0
 40
9.7952672168883392
 50
89.571698993607583
 51
110.5206313340705
  0
ARC
  5
7B4
  8
DATA
  6
CONTINUOUS
 62
     7
 10
507.70302310830601
 20
-2267.160638099017
 30
0.0
 40
4.850737511113544
 50
110.64078323867579
 51
131.0046803434272
  0
ARC
  5
7B5
  8
DATA
  6
CONTINUOUS
 62
     7
 10
505.83660614155161
 20
-2265.1238017669712
 30
0.0
 40
2.0902755960560619
 50
129.0281926292769
 51
176.60452792917721
  0
ARC
  5
7B6
  8
DATA
  6
CONTINUOUS
 62
     7
 10
509.4267784857708
 20
-2258.205006459415
 30
0.0
 40
9.7952672168887425
 50
249.4793686659298
 51
270.42830100639242
  0
ARC
  5
7B7
  8
DATA
  6
CONTINUOUS
 62
     7
 10
507.70302310830601
 20
-2262.839361900983
 30
0.0
 40
4.8507375111131532
 50
228.9953196565713
 51
249.35921676132349
  0
ARC
  5
7B8
  8
DATA
  6
CONTINUOUS
 62
     7
 10
505.83660614155161
 20
-2264.8761982330288
 30
0.0
 40
2.0902755960556609
 50
183.3954720708233
 51
230.97180737072
  0
ARC
  5
7B9
  8
DATA
  6
CONTINUOUS
 62
     7
 10
509.57322151422829
 20
-2271.794993540585
 30
0.0
 40
9.7952672168887425
 50
69.479368665929783
 51
90.428301006393767
  0
ARC
  5
7BA
  8
DATA
  6
CONTINUOUS
 62
     7
 10
511.29697689169319
 20
-2267.160638099017
 30
0.0
 40
4.8507375111131532
 50
48.99531965657129
 51
69.359216761323509
  0
ARC
  5
7BB
  8
DATA
  6
CONTINUOUS
 62
     7
 10
513.16339385844765
 20
-2265.1238017669712
 30
0.0
 40
2.090275596055434
 50
3.3954720708237831
 51
50.971807370723702
  0
ARC
  5
7BC
  8
DATA
  6
CONTINUOUS
 62
     7
 10
509.57322151422829
 20
-2258.205006459415
 30
0.0
 40
9.7952672168883428
 50
269.57169899360628
 51
290.52063133407052
  0
ARC
  5
7BD
  8
DATA
  6
CONTINUOUS
 62
     7
 10
511.29697689169319
 20
-2262.839361900983
 30
0.0
 40
4.850737511113544
 50
290.64078323867579
 51
311.0046803434272
  0
ARC
  5
7BE
  8
DATA
  6
CONTINUOUS
 62
     7
 10
513.16339385844765
 20
-2264.8761982330288
 30
0.0
 40
2.0902755960560619
 50
309.02819262927687
 51
356.60452792917732
  0
ARC
  5
7BF
  8
DATA
  6
CONTINUOUS
 62
     7
 10
-392.51780665506072
 20
-1992.0961607472641
 30
0.0
 40
1.912698688911399
 50
307.64190249756109
 51
354.26701928932221
  0
LINE
  5
7C0
  8
DATA
  6
CONTINUOUS
 62
     7
 10
-441.6477948365
 20
-1961.9551250184991
 30
0.0
 11
-432.68103483649998
 21
-1940.5898450184991
 31
0.0
  0
LINE
  5
7C1
  8
DATA
  6
CONTINUOUS
 62
     7
 10
-441.6477948365
 20
-1961.9551250184991
 30
0.0
 11
-450.50391483649958
 21
-1940.5898450184991
 31
0.0
  0
LINE
  5
7C2
  8
DATA
  6
CONTINUOUS
 62
     7
 10
-373.67739483649979
 20
-2000.5898450185
 30
0.0
 11
-373.67739483649979
 21
-1940.5898450184991
 31
0.0
  0
LINE
  5
7C3
  8
DATA
  6
CONTINUOUS
 62
     7
 10
-362.16447483650001
 20
-1940.5898450184991
 30
0.0
 11
-362.16447483650001
 21
-1991.4016850185001
 31
0.0
  0
LINE
  5
7C4
  8
DATA
  6
CONTINUOUS
 62
     7
 10
-428.47437483649992
 20
-1940.5898450184991
 30
0.0
 11
-428.47437483649992
 21
-1991.4016850185001
 31
0.0
  0
LINE
  5
7C5
  8
DATA
  6
CONTINUOUS
 62
     7
 10
-417.40425483650012
 20
-1940.5898450184991
 30
0.0
 11
-417.40425483650012
 21
-1991.4016850185001
 31
0.0
  0
LINE
  5
7C6
  8
DATA
  6
CONTINUOUS
 62
     7
 10
-411.64779483650011
 20
-1940.5898450184991
 30
0.0
 11
-411.64779483650011
 21
-2000.5898450185
 31
0.0
  0
LINE
  5
7C7
  8
DATA
  6
CONTINUOUS
 62
     7
 10
-401.5739748364997
 20
-1946.2355450184989
 30
0.0
 11
-401.5739748364997
 21
-1965.4975850184981
 31
0.0
  0
LINE
  5
7C8
  8
DATA
  6
CONTINUOUS
 62
     7
 10
-379.9824948365
 20
-1964.3830250184999
 30
0.0
 11
-379.9824948365
 21
-1950.3315650184991
 31
0.0
  0
LINE
  5
7C9
  8
DATA
  6
CONTINUOUS
 62
     7
 10
-390.61467483649977
 20
-1948.8924050184969
 30
0.0
 11
-390.61467483649977
 21
-1962.840785018499
 31
0.0
  0
ARC
  5
7CA
  8
DATA
  6
CONTINUOUS
 62
     7
 10
-430.69581483650001
 20
-1985.1830450184989
 30
0.0
 40
15.47312055100749
 50
264.69085622153619
 51
323.99119915423819
  0
LINE
  5
7CB
  8
DATA
  6
CONTINUOUS
 62
     7
 10
-436.88763483650001
 20
-1981.7706050185
 30
0.0
 11
-436.88763483650001
 21
-1991.4015650185011
 31
0.0
  0
LINE
  5
7CC
  8
DATA
  6
CONTINUOUS
 62
     7
 10
-436.88763483650001
 20
-1981.7706050185
 30
0.0
 11
-446.8507548364999
 21
-1981.7706050185
 31
0.0
  0
LINE
  5
7CD
  8
DATA
  6
CONTINUOUS
 62
     7
 10
-446.8507548364999
 20
-1981.7706050185
 30
0.0
 11
-446.8507548364999
 21
-1991.4015650185011
 31
0.0
  0
ARC
  5
7CE
  8
DATA
  6
CONTINUOUS
 62
     7
 10
-432.65991483649992
 20
-1991.5314050185
 30
0.0
 40
4.1875729574534892
 50
269.71184879275029
 51
1.7759870057134881
  0
ARC
  5
7CF
  8
DATA
  6
CONTINUOUS
 62
     7
 10
-432.70209483649978
 20
-1991.5314050185
 30
0.0
 40
4.1875515447575982
 50
178.2240129942985
 51
270.28815120724931
  0
ARC
  5
7D0
  8
DATA
  6
CONTINUOUS
 62
     7
 10
-433.55919483649973
 20
-1985.1830450184989
 30
0.0
 40
15.47309542167975
 50
216.00880084575661
 51
275.30914377846312
  0
ARC
  5
7D1
  8
DATA
  6
CONTINUOUS
 62
     7
 10
-439.85811483649991
 20
-1991.0623850184991
 30
0.0
 40
7.000801249057357
 50
182.77699545001551
 51
207.35960666716531
  0
CIRCLE
  5
7D2
  8
DATA
  6
CONTINUOUS
 62
     7
 10
-441.03891483649971
 20
-1970.2577450184999
 30
0.0
 40
5.701079999999819
  0
LINE
  5
7D3
  8
DATA
  6
CONTINUOUS
 62
     7
 10
-343.67739483649979
 20
-2000.589785018499
 30
0.0
 11
-373.67739483649979
 21
-2000.589785018499
 31
0.0
  0
LINE
  5
7D4
  8
DATA
  6
CONTINUOUS
 62
     7
 10
-343.67739483649979
 20
-2000.589785018499
 30
0.0
 11
-343.67739483649979
 21
-1981.7705450184981
 31
0.0
  0
LINE
  5
7D5
  8
DATA
  6
CONTINUOUS
 62
     7
 10
-343.67739483649979
 20
-1981.7706050185
 30
0.0
 11
-353.75115483649989
 21
-1981.7706050185
 31
0.0
  0
LINE
  5
7D6
  8
DATA
  6
CONTINUOUS
 62
     7
 10
-353.75115483649989
 20
-1981.7706050185
 30
0.0
 11
-353.75115483649989
 21
-1991.4015650185011
 31
0.0
  0
LINE
  5
7D7
  8
DATA
  6
CONTINUOUS
 62
     7
 10
-411.64779483650011
 20
-2000.589785018499
 30
0.0
 11
-390.61467483649977
 21
-2000.589725018501
 31
0.0
  0
LINE
  5
7D8
  8
DATA
  6
CONTINUOUS
 62
     7
 10
-401.5740348365
 20
-1994.9440250185
 30
0.0
 11
-396.14967483649991
 21
-1994.9440250185
 31
0.0
  0
LINE
  5
7D9
  8
DATA
  6
CONTINUOUS
 62
     7
 10
-401.5739748364997
 20
-1994.9440250185
 30
0.0
 11
-401.5739748364997
 21
-1971.2539850185001
 31
0.0
  0
LINE
  5
7DA
  8
DATA
  6
CONTINUOUS
 62
     7
 10
-401.5740348365
 20
-1971.2539850185001
 30
0.0
 11
-396.14967483649991
 21
-1971.2539850185001
 31
0.0
  0
LINE
  5
7DB
  8
DATA
  6
CONTINUOUS
 62
     7
 10
-390.61467483649977
 20
-1992.287225018501
 30
0.0
 11
-390.61467483649977
 21
-1973.9107850184989
 31
0.0
  0
ARC
  5
7DC
  8
DATA
  6
CONTINUOUS
 62
     7
 10
-424.39689483649988
 20
-1991.0623850184991
 30
0.0
 40
7.0007912871913627
 50
332.64039333283807
 51
357.22300454999839
  0
ARC
  5
7DD
  8
DATA
  6
CONTINUOUS
 62
     7
 10
-357.93675483650009
 20
-1991.5314050185
 30
0.0
 40
4.1875729574534892
 50
269.71184879275029
 51
1.7759870057134881
  0
ARC
  5
7DE
  8
DATA
  6
CONTINUOUS
 62
     7
 10
-357.97887483649981
 20
-1991.5314050185
 30
0.0
 40
4.187551544757711
 50
178.2240129942985
 51
270.28815120724772
  0
LINE
  5
7DF
  8
DATA
  6
CONTINUOUS
 62
     7
 10
-379.9873548365
 20
-1990.9587650184999
 30
0.0
 11
-379.9873548365
 21
-1975.017845018499
 31
0.0
  0
LINE
  5
7E0
  8
DATA
  6
CONTINUOUS
 62
     7
 10
-401.5740348365
 20
-1965.4975850184981
 30
0.0
 11
-396.14967483649991
 21
-1965.4975850184981
 31
0.0
  0
ARC
  5
7E1
  8
DATA
  6
CONTINUOUS
 62
     7
 10
-391.37739483650012
 20
-1989.1995650184999
 30
0.0
 40
11.415668470309541
 50
273.83098160911612
 51
351.13514730980739
  0
LINE
  5
7E2
  8
DATA
  6
CONTINUOUS
 62
     7
 10
-428.47437483649992
 20
-1940.5898450184991
 30
0.0
 11
-417.40425483650012
 21
-1940.5898450184991
 31
0.0
  0
LINE
  5
7E3
  8
DATA
  6
CONTINUOUS
 62
     7
 10
-450.50391483649958
 20
-1940.5898450184991
 30
0.0
 11
-432.68103483649998
 21
-1940.5898450184991
 31
0.0
  0
LINE
  5
7E4
  8
DATA
  6
CONTINUOUS
 62
     7
 10
-373.67739483649979
 20
-1940.5898450184991
 30
0.0
 11
-362.16447483650001
 21
-1940.5898450184991
 31
0.0
  0
LINE
  5
7E5
  8
DATA
  6
CONTINUOUS
 62
     7
 10
-411.64779483650011
 20
-1940.5898450184991
 30
0.0
 11
-390.49905406761968
 21
-1940.589893580941
 31
0.0
  0
LINE
  5
7E6
  8
DATA
  6
CONTINUOUS
 62
     7
 10
-401.5740348365
 20
-1946.235605018499
 30
0.0
 11
-396.14967483649991
 21
-1946.235605018499
 31
0.0
  0
ARC
  5
7E7
  8
DATA
  6
CONTINUOUS
 62
     7
 10
-391.26357483649991
 20
-1951.9626050184979
 30
0.0
 40
11.39837959746885
 50
8.2269238590078295
 51
86.154126692152104
  0
ARC
  5
7E8
  8
DATA
  6
CONTINUOUS
 62
     7
 10
-396.08562206088061
 20
-1984.4218972549779
 30
0.0
 40
10.52232272028964
 50
269.65121993761761
 51
282.82648280687312
  0
ARC
  5
7E9
  8
DATA
  6
CONTINUOUS
 62
     7
 10
-394.90379867169969
 20
-1988.870526885861
 30
0.0
 40
5.924627422160734
 50
281.2331036226538
 51
306.86200889405859
  0
ARC
  5
7EA
  8
DATA
  6
CONTINUOUS
 62
     7
 10
-392.51780665506072
 20
-1974.1018492897349
 30
0.0
 40
1.912698688910889
 50
5.7329807106244797
 51
52.35809750241696
  0
ARC
  5
7EB
  8
DATA
  6
CONTINUOUS
 62
     7
 10
-396.08562206088061
 20
-1981.7761127820211
 30
0.0
 40
10.522322720289781
 50
77.173517193126656
 51
90.348780062382417
  0
ARC
  5
7EC
  8
DATA
  6
CONTINUOUS
 62
     7
 10
-394.90379867169969
 20
-1977.3274831511369
 30
0.0
 40
5.9246274221586006
 50
53.137991105932549
 51
78.766896377343613
  0
ARC
  5
7ED
  8
DATA
  6
CONTINUOUS
 62
     7
 10
-385.79343483649978
 20
-1975.4103050184999
 30
0.0
 40
5.8193289834824471
 50
3.86700635983129
 51
88.361634567900438
  0
ARC
  5
7EE
  8
DATA
  6
CONTINUOUS
 62
     7
 10
-385.7987748365
 20
-1963.7707850184979
 30
0.0
 40
5.8251116396873757
 50
271.6892821046473
 51
356.07828298265252
  0
ARC
  5
7EF
  8
DATA
  6
CONTINUOUS
 62
     7
 10
-392.51780665506072
 20
-1962.6497207472639
 30
0.0
 40
1.9126986889099591
 50
307.6419024975944
 51
354.2670192893728
  0
ARC
  5
7F0
  8
DATA
  6
CONTINUOUS
 62
     7
 10
-396.08562206088061
 20
-1954.9754572549771
 30
0.0
 40
10.52232272028964
 50
269.65121993761761
 51
282.82648280687312
  0
ARC
  5
7F1
  8
DATA
  6
CONTINUOUS
 62
     7
 10
-394.90379867169969
 20
-1959.424086885861
 30
0.0
 40
5.9246274221589523
 50
281.23310362265721
 51
306.86200889406439
  0
ARC
  5
7F2
  8
DATA
  6
CONTINUOUS
 62
     7
 10
-392.51780665506072
 20
-1949.0834692897349
 30
0.0
 40
1.9126986889110711
 50
5.7329807106786959
 51
52.358097502433367
  0
ARC
  5
7F3
  8
DATA
  6
CONTINUOUS
 62
     7
 10
-396.08562206088061
 20
-1956.75773278202
 30
0.0
 40
10.522322720289781
 50
77.173517193126656
 51
90.348780062382417
  0
ARC
  5
7F4
  8
DATA
  6
CONTINUOUS
 62
     7
 10
-394.90379867169969
 20
-1952.3091031511369
 30
0.0
 40
5.9246274221600572
 50
53.137991105943101
 51
78.766896377345972
  0
LINE
  5
7F5
  8
DATA
  6
CONTINUOUS
 62
     7
 10
-359.43338501298479
 20
-1471.691225539915
 30
0.0
 11
-376.46458347754952
 21
-1255.277798930972
 31
0.0
  0
LINE
  5
7F6
  8
DATA
  6
CONTINUOUS
 62
     7
 10
-343.69193807571821
 20
-1480.5323388891561
 30
0.0
 11
-360.32438548607922
 21
-1269.185794812508
 31
0.0
  0
LINE
  5
7F7
  8
DATA
  6
CONTINUOUS
 62
     7
 10
-342.36823258140231
 20
-1267.9301782851151
 30
0.0
 11
-360.32438548607922
 21
-1269.185794812508
 31
0.0
  0
LINE
  5
7F8
  8
DATA
  6
CONTINUOUS
 62
     7
 10
-358.50843057287261
 20
-1254.022182403578
 30
0.0
 11
-374.01677730418618
 21
-1056.964308652744
 31
0.0
  0
LINE
  5
7F9
  8
DATA
  6
CONTINUOUS
 62
     7
 10
-358.50843057287261
 20
-1254.022182403578
 30
0.0
 11
-376.46458347754952
 21
-1255.277798930972
 31
0.0
  0
LINE
  5
7FA
  8
DATA
  6
CONTINUOUS
 62
     7
 10
-359.05347703186692
 20
-1055.9179727685489
 30
0.0
 11
-374.01677730418618
 21
-1056.964308652744
 31
0.0
  0
ARC
  5
7FB
  8
DATA
  6
CONTINUOUS
 62
     7
 10
-279.62580040881357
 20
-584.24022139241777
 30
0.0
 40
521.1318369278049
 50
230.54364536450259
 51
259.91951471147519
  0
ARC
  5
7FC
  8
DATA
  6
CONTINUOUS
 62
     7
 10
-362.03544029968089
 20
-1454.065960979025
 30
0.0
 40
207.2222605445271
 50
89.180516099335705
 51
114.9770927306151
  0
ARC
  5
7FD
  8
DATA
  6
CONTINUOUS
 62
     7
 10
-379.91921641447328
 20
-1168.1332203135021
 30
0.0
 40
120.2842346234857
 50
234.63584355564299
 51
272.8833662755298
  0
ARC
  5
7FE
  8
DATA
  6
CONTINUOUS
 62
     7
 10
-255.62020884462379
 20
-2028.259957745988
 30
0.0
 40
599.98136617590001
 50
100.2225664111056
 51
124.3375389639336
  0
ARC
  5
7FF
  8
DATA
  6
CONTINUOUS
 62
     7
 10
-349.4642084055958
 20
-1470.906676133766
 30
0.0
 40
9.999999999999984
 50
184.49976119344001
 51
273.94521581933401
  0
ARC
  5
800
  8
DATA
  6
CONTINUOUS
 62
     7
 10
-359.27606312181888
 20
-925.63109008921026
 30
0.0
 40
10.00000000000005
 50
93.945302748159335
 51
184.49987161917491
  0
LINE
  5
801
  8
DATA
  6
CONTINUOUS
 62
     7
 10
395.4999999999992
 20
-1472.230209930756
 30
0.0
 11
604.49999999999989
 21
-1472.230209930756
 31
0.0
  0
LINE
  5
802
  8
DATA
  6
CONTINUOUS
 62
     7
 10
395.4999999999992
 20
-1480.882979062668
 30
0.0
 11
604.49999999999989
 21
-1480.882979062668
 31
0.0
  0
LINE
  5
803
  8
DATA
  6
CONTINUOUS
 62
     7
 10
395.4999999999992
 20
-905.58799999999985
 30
0.0
 11
604.49999999999989
 21
-905.58799999999985
 31
0.0
  0
ARC
  5
804
  8
DATA
  6
CONTINUOUS
 62
     7
 10
604.49999999999989
 20
-915.58799999999985
 30
0.0
 40
10.0
 50
0.0
 51
90.0
  0
ARC
  5
805
  8
DATA
  6
CONTINUOUS
 62
     7
 10
395.4999999999992
 20
-915.58799999999985
 30
0.0
 40
10.0
 50
90.0
 51
180.0
  0
ARC
  5
806
  8
DATA
  6
CONTINUOUS
 62
     7
 10
395.4999999999992
 20
-1462.230209930756
 30
0.0
 40
10.0
 50
180.0
 51
270.0
  0
ARC
  5
807
  8
DATA
  6
CONTINUOUS
 62
     7
 10
604.49999999999989
 20
-1462.230209930756
 30
0.0
 40
10.0
 50
270.0
 51
0.0
  0
ARC
  5
808
  8
DATA
  6
CONTINUOUS
 62
     7
 10
604.49999999999989
 20
-1470.882979062668
 30
0.0
 40
10.0
 50
270.0
 51
0.0
  0
ARC
  5
809
  8
DATA
  6
CONTINUOUS
 62
     7
 10
395.4999999999992
 20
-1470.882979062668
 30
0.0
 40
10.0
 50
180.0
 51
270.0
  0
LINE
  5
80A
  8
DATA
  6
CONTINUOUS
 62
     7
 10
-213.99999999999949
 20
-968.58799999999974
 30
0.0
 11
-196.0000000000004
 21
-968.58799999999974
 31
0.0
  0
LINE
  5
80B
  8
DATA
  6
CONTINUOUS
 62
     7
 10
-213.99999999999949
 20
-983.23800000000142
 30
0.0
 11
-204.00000000000131
 21
-983.23800000000142
 31
0.0
  0
LINE
  5
80C
  8
DATA
  6
CONTINUOUS
 62
     7
 10
-213.99999999999849
 20
-970.73800000000142
 30
0.0
 11
-204.2028350347459
 21
-970.73800000000142
 31
0.0
  0
LINE
  5
80D
  8
DATA
  6
CONTINUOUS
 62
     7
 10
-213.99999999999849
 20
-985.38800000000003
 30
0.0
 11
-195.9999999999994
 21
-985.38800000000003
 31
0.0
  0
LINE
  5
80E
  8
DATA
  6
CONTINUOUS
 62
     7
 10
-196.0000000000004
 20
-985.38800000000003
 30
0.0
 11
-196.0000000000004
 21
-968.58799999999974
 31
0.0
  0
LINE
  5
80F
  8
DATA
  6
CONTINUOUS
 62
     7
 10
-204.00000000000131
 20
-983.23800000000142
 30
0.0
 11
-204.00000000000131
 21
-970.73800000000142
 31
0.0
  0
TEXT
  5
810
  8
DATA
 62
     7
 10
489.75000000000227
 20
-1003.472018005526
 30
0.0
 40
2.8932571411132808
  1
MODEL:      3632-M/HF
 41
0.7
 11
489.75000000000227
 21
-1000.5787608644119
 31
0.0
 73
     3
  0
CIRCLE
  5
811
  8
DATA
  6
CONTINUOUS
 62
     7
 10
411.0000000000004
 20
-943.6380000000006
 30
0.0
 40
4.0
  0
LINE
  5
812
  8
DATA
  6
CONTINUOUS
 62
     7
 10
408.50000000000051
 20
-943.6380000000006
 30
0.0
 11
413.4999999999996
 21
-943.6380000000006
 31
0.0
  0
LINE
  5
813
  8
DATA
  6
CONTINUOUS
 62
     7
 10
411.0000000000004
 20
-946.13800000000072
 30
0.0
 11
411.0000000000004
 21
-941.1380000000006
 31
0.0
  0
CIRCLE
  5
814
  8
DATA
  6
CONTINUOUS
 62
     7
 10
470.33332999999988
 20
-943.6380000000006
 30
0.0
 40
4.0
  0
LINE
  5
815
  8
DATA
  6
CONTINUOUS
 62
     7
 10
467.83333000000079
 20
-943.6380000000006
 30
0.0
 11
472.83332999999988
 21
-943.6380000000006
 31
0.0
  0
LINE
  5
816
  8
DATA
  6
CONTINUOUS
 62
     7
 10
470.33332999999988
 20
-946.13800000000072
 30
0.0
 11
470.33332999999988
 21
-941.1380000000006
 31
0.0
  0
CIRCLE
  5
817
  8
DATA
  6
CONTINUOUS
 62
     7
 10
529.66666000000032
 20
-943.6380000000006
 30
0.0
 40
4.0
  0
LINE
  5
818
  8
DATA
  6
CONTINUOUS
 62
     7
 10
527.16666000000032
 20
-943.6380000000006
 30
0.0
 11
532.16666000000032
 21
-943.6380000000006
 31
0.0
  0
LINE
  5
819
  8
DATA
  6
CONTINUOUS
 62
     7
 10
529.66666000000032
 20
-946.13800000000072
 30
0.0
 11
529.66666000000032
 21
-941.1380000000006
 31
0.0
  0
CIRCLE
  5
81A
  8
DATA
  6
CONTINUOUS
 62
     7
 10
589.00000000000045
 20
-943.6380000000006
 30
0.0
 40
4.0
  0
LINE
  5
81B
  8
DATA
  6
CONTINUOUS
 62
     7
 10
586.50000000000045
 20
-943.6380000000006
 30
0.0
 11
591.49999999999955
 21
-943.6380000000006
 31
0.0
  0
LINE
  5
81C
  8
DATA
  6
CONTINUOUS
 62
     7
 10
589.00000000000045
 20
-946.13800000000072
 30
0.0
 11
589.00000000000045
 21
-941.1380000000006
 31
0.0
  0
CIRCLE
  5
81D
  8
DATA
  6
CONTINUOUS
 62
     7
 10
411.0000000000004
 20
-1034.6380000000011
 30
0.0
 40
4.0
  0
LINE
  5
81E
  8
DATA
  6
CONTINUOUS
 62
     7
 10
408.50000000000051
 20
-1034.6380000000011
 30
0.0
 11
413.4999999999996
 21
-1034.6380000000011
 31
0.0
  0
LINE
  5
81F
  8
DATA
  6
CONTINUOUS
 62
     7
 10
411.0000000000004
 20
-1037.1380000000011
 30
0.0
 11
411.0000000000004
 21
-1032.1380000000011
 31
0.0
  0
CIRCLE
  5
820
  8
DATA
  6
CONTINUOUS
 62
     7
 10
470.33332999999988
 20
-1034.6380000000011
 30
0.0
 40
4.0
  0
LINE
  5
821
  8
DATA
  6
CONTINUOUS
 62
     7
 10
467.83333000000079
 20
-1034.6380000000011
 30
0.0
 11
472.83332999999988
 21
-1034.6380000000011
 31
0.0
  0
LINE
  5
822
  8
DATA
  6
CONTINUOUS
 62
     7
 10
470.33332999999988
 20
-1037.1380000000011
 30
0.0
 11
470.33332999999988
 21
-1032.1380000000011
 31
0.0
  0
CIRCLE
  5
823
  8
DATA
  6
CONTINUOUS
 62
     7
 10
529.66666000000032
 20
-1034.6380000000011
 30
0.0
 40
4.0
  0
LINE
  5
824
  8
DATA
  6
CONTINUOUS
 62
     7
 10
527.16666000000032
 20
-1034.6380000000011
 30
0.0
 11
532.16666000000032
 21
-1034.6380000000011
 31
0.0
  0
LINE
  5
825
  8
DATA
  6
CONTINUOUS
 62
     7
 10
529.66666000000032
 20
-1037.1380000000011
 30
0.0
 11
529.66666000000032
 21
-1032.1380000000011
 31
0.0
  0
CIRCLE
  5
826
  8
DATA
  6
CONTINUOUS
 62
     7
 10
589.00000000000045
 20
-1034.6380000000011
 30
0.0
 40
4.0
  0
LINE
  5
827
  8
DATA
  6
CONTINUOUS
 62
     7
 10
586.50000000000045
 20
-1034.6380000000011
 30
0.0
 11
591.49999999999955
 21
-1034.6380000000011
 31
0.0
  0
LINE
  5
828
  8
DATA
  6
CONTINUOUS
 62
     7
 10
589.00000000000045
 20
-1037.1380000000011
 30
0.0
 11
589.00000000000045
 21
-1032.1380000000011
 31
0.0
  0
CIRCLE
  5
829
  8
DATA
  6
CONTINUOUS
 62
     7
 10
406.99999999999949
 20
-989.1380000000006
 30
0.0
 40
4.0
  0
LINE
  5
82A
  8
DATA
  6
CONTINUOUS
 62
     7
 10
404.50000000000051
 20
-989.1380000000006
 30
0.0
 11
409.4999999999996
 21
-989.1380000000006
 31
0.0
  0
LINE
  5
82B
  8
DATA
  6
CONTINUOUS
 62
     7
 10
406.99999999999949
 20
-991.63800000000072
 30
0.0
 11
406.99999999999949
 21
-986.6380000000006
 31
0.0
  0
CIRCLE
  5
82C
  8
DATA
  6
CONTINUOUS
 62
     7
 10
593.00000000000045
 20
-989.1380000000006
 30
0.0
 40
4.0
  0
LINE
  5
82D
  8
DATA
  6
CONTINUOUS
 62
     7
 10
590.49999999999955
 20
-989.1380000000006
 30
0.0
 11
595.50000000000045
 21
-989.1380000000006
 31
0.0
  0
LINE
  5
82E
  8
DATA
  6
CONTINUOUS
 62
     7
 10
593.00000000000045
 20
-991.63800000000072
 30
0.0
 11
593.00000000000045
 21
-986.6380000000006
 31
0.0
  0
ARC
  5
82F
  8
DATA
  6
CONTINUOUS
 62
     7
 10
406.49999999999949
 20
-943.38800000000072
 30
0.0
 40
5.0
 50
90.0
 51
180.0
  0
LINE
  5
830
  8
DATA
  6
CONTINUOUS
 62
     7
 10
401.50000000000051
 20
-1034.8880000000011
 30
0.0
 11
401.4999999999996
 21
-943.38800000000072
 31
0.0
  0
ARC
  5
831
  8
DATA
  6
CONTINUOUS
 62
     7
 10
406.49999999999949
 20
-1034.8880000000011
 30
0.0
 40
5.0
 50
180.0
 51
270.0
  0
ARC
  5
832
  8
DATA
  6
CONTINUOUS
 62
     7
 10
593.49999999999955
 20
-943.38800000000072
 30
0.0
 40
5.0
 50
0.0
 51
90.0
  0
LINE
  5
833
  8
DATA
  6
CONTINUOUS
 62
     7
 10
598.50000000000045
 20
-1034.8880000000011
 30
0.0
 11
598.50000000000045
 21
-943.38800000000072
 31
0.0
  0
ARC
  5
834
  8
DATA
  6
CONTINUOUS
 62
     7
 10
593.49999999999955
 20
-1034.8880000000011
 30
0.0
 40
5.0
 50
270.0
 51
0.0
  0
LINE
  5
835
  8
DATA
  6
CONTINUOUS
 62
     7
 10
406.49999999999949
 20
-938.3880000000006
 30
0.0
 11
593.49999999999955
 21
-938.3880000000006
 31
0.0
  0
LINE
  5
836
  8
DATA
  6
CONTINUOUS
 62
     7
 10
406.49999999999949
 20
-1039.8880000000011
 30
0.0
 11
593.49999999999955
 21
-1039.8880000000011
 31
0.0
  0
LINE
  5
837
  8
DATA
  6
CONTINUOUS
 62
     7
 10
461.75000000000051
 20
-1024.8880000000011
 30
0.0
 11
461.75000000000051
 21
-949.88799999999992
 31
0.0
  0
LINE
  5
838
  8
DATA
  6
CONTINUOUS
 62
     7
 10
461.75000000000051
 20
-949.88799999999992
 30
0.0
 11
538.25000000000045
 21
-949.88799999999992
 31
0.0
  0
LINE
  5
839
  8
DATA
  6
CONTINUOUS
 62
     7
 10
538.25000000000045
 20
-949.88799999999992
 30
0.0
 11
538.25000000000045
 21
-1024.8880000000011
 31
0.0
  0
LINE
  5
83A
  8
DATA
  6
CONTINUOUS
 62
     7
 10
538.25000000000045
 20
-1024.8880000000011
 30
0.0
 11
461.75000000000051
 21
-1024.8880000000011
 31
0.0
  0
LINE
  5
83B
  8
DATA
  6
CONTINUOUS
 62
     7
 10
466.25000000000131
 20
-1008.888
 30
0.0
 11
466.25000000000131
 21
-991.88799999999992
 31
0.0
  0
LINE
  5
83C
  8
DATA
  6
CONTINUOUS
 62
     7
 10
466.25000000000131
 20
-991.88799999999992
 30
0.0
 11
487.25000000000131
 21
-991.88799999999992
 31
0.0
  0
LINE
  5
83D
  8
DATA
  6
CONTINUOUS
 62
     7
 10
487.25000000000131
 20
-991.88799999999992
 30
0.0
 11
487.25000000000131
 21
-1008.888
 31
0.0
  0
LINE
  5
83E
  8
DATA
  6
CONTINUOUS
 62
     7
 10
487.25000000000131
 20
-1008.888
 30
0.0
 11
466.25000000000131
 21
-1008.888
 31
0.0
  0
LINE
  5
83F
  8
DATA
  6
CONTINUOUS
 62
     7
 10
487.25000000000131
 20
-1014.388
 30
0.0
 11
466.25000000000131
 21
-1014.388
 31
0.0
  0
LINE
  5
840
  8
DATA
  6
CONTINUOUS
 62
     7
 10
487.25000000000131
 20
-1010.388
 30
0.0
 11
466.25000000000131
 21
-1010.388
 31
0.0
  0
LINE
  5
841
  8
DATA
  6
CONTINUOUS
 62
     7
 10
466.25000000000131
 20
-1010.388
 30
0.0
 11
466.25000000000131
 21
-1014.388
 31
0.0
  0
LINE
  5
842
  8
DATA
  6
CONTINUOUS
 62
     7
 10
487.25000000000131
 20
-1014.388
 30
0.0
 11
487.25000000000131
 21
-1010.388
 31
0.0
  0
ARC
  5
843
  8
DATA
  6
CONTINUOUS
 62
     7
 10
477.52888922357801
 20
-1002.838952087181
 30
0.0
 40
0.2231481803729556
 50
307.64190249757291
 51
354.26701928950172
  0
LINE
  5
844
  8
DATA
  6
CONTINUOUS
 62
     7
 10
471.79705726907667
 20
-999.32249791882509
 30
0.0
 11
472.84317926907659
 21
-996.82988191882566
 31
0.0
  0
LINE
  5
845
  8
DATA
  6
CONTINUOUS
 62
     7
 10
471.79705726907667
 20
-999.32249791882509
 30
0.0
 11
470.76384326907669
 21
-996.82988191882566
 31
0.0
  0
LINE
  5
846
  8
DATA
  6
CONTINUOUS
 62
     7
 10
479.72693726907659
 20
-1003.829881918825
 30
0.0
 11
479.72693726907659
 21
-996.82988191882566
 31
0.0
  0
LINE
  5
847
  8
DATA
  6
CONTINUOUS
 62
     7
 10
481.07011126907668
 20
-996.82988191882566
 30
0.0
 11
481.07011126907668
 21
-1002.757929918826
 31
0.0
  0
LINE
  5
848
  8
DATA
  6
CONTINUOUS
 62
     7
 10
473.33395626907668
 20
-996.82988191882566
 30
0.0
 11
473.33395626907668
 21
-1002.757929918826
 31
0.0
  0
LINE
  5
849
  8
DATA
  6
CONTINUOUS
 62
     7
 10
474.62547026907669
 20
-996.82988191882566
 30
0.0
 11
474.62547026907669
 21
-1002.757929918826
 31
0.0
  0
LINE
  5
84A
  8
DATA
  6
CONTINUOUS
 62
     7
 10
475.29705726907679
 20
-996.82988191882566
 30
0.0
 11
475.29705726907679
 21
-1003.829881918825
 31
0.0
  0
LINE
  5
84B
  8
DATA
  6
CONTINUOUS
 62
     7
 10
476.47233626907678
 20
-997.48854691882468
 30
0.0
 11
476.47233626907678
 21
-999.73578491882563
 31
0.0
  0
LINE
  5
84C
  8
DATA
  6
CONTINUOUS
 62
     7
 10
478.99134226907682
 20
-999.60575291882583
 30
0.0
 11
478.99134226907682
 21
-997.96641591882508
 31
0.0
  0
LINE
  5
84D
  8
DATA
  6
CONTINUOUS
 62
     7
 10
477.75092126907651
 20
-997.79851391882573
 30
0.0
 11
477.75092126907651
 21
-999.42582491882524
 31
0.0
  0
ARC
  5
84E
  8
DATA
  6
CONTINUOUS
 62
     7
 10
473.07478826907658
 20
-1002.032421918825
 30
0.0
 40
1.8051973976176381
 50
264.69085622153398
 51
323.99119915425388
  0
LINE
  5
84F
  8
DATA
  6
CONTINUOUS
 62
     7
 10
472.35240926907647
 20
-1001.634303918825
 30
0.0
 11
472.35240926907647
 21
-1002.757915918825
 31
0.0
  0
LINE
  5
850
  8
DATA
  6
CONTINUOUS
 62
     7
 10
472.35240926907647
 20
-1001.634303918825
 30
0.0
 11
471.19004526907651
 21
-1001.634303918825
 31
0.0
  0
LINE
  5
851
  8
DATA
  6
CONTINUOUS
 62
     7
 10
471.19004526907651
 20
-1001.634303918825
 30
0.0
 11
471.19004526907651
 21
-1002.757915918825
 31
0.0
  0
ARC
  5
852
  8
DATA
  6
CONTINUOUS
 62
     7
 10
472.84564326907662
 20
-1002.773063918825
 30
0.0
 40
0.4885501783703612
 50
269.71184879277212
 51
1.7759870055968461
  0
ARC
  5
853
  8
DATA
  6
CONTINUOUS
 62
     7
 10
472.84072226907671
 20
-1002.773063918825
 30
0.0
 40
0.4885476802217529
 50
178.22401299433051
 51
270.28815120726301
  0
ARC
  5
854
  8
DATA
  6
CONTINUOUS
 62
     7
 10
472.74072726907661
 20
-1002.032421918825
 30
0.0
 40
1.8051944658626311
 50
216.0088008457567
 51
275.30914377846472
  0
ARC
  5
855
  8
DATA
  6
CONTINUOUS
 62
     7
 10
472.00585326907662
 20
-1002.718344918825
 30
0.0
 40
0.81676014572331
 50
182.7769954500113
 51
207.35960666714661
  0
CIRCLE
  5
856
  8
DATA
  6
CONTINUOUS
 62
     7
 10
471.86809326907678
 20
-1000.291136918825
 30
0.0
 40
0.6651259999998729
  0
LINE
  5
857
  8
DATA
  6
CONTINUOUS
 62
     7
 10
483.22693726907659
 20
-1003.829874918825
 30
0.0
 11
479.72693726907659
 21
-1003.829874918825
 31
0.0
  0
LINE
  5
858
  8
DATA
  6
CONTINUOUS
 62
     7
 10
483.22693726907659
 20
-1003.829874918825
 30
0.0
 11
483.22693726907659
 21
-1001.634296918825
 31
0.0
  0
LINE
  5
859
  8
DATA
  6
CONTINUOUS
 62
     7
 10
483.22693726907659
 20
-1001.634303918825
 30
0.0
 11
482.05166526907669
 21
-1001.634303918825
 31
0.0
  0
LINE
  5
85A
  8
DATA
  6
CONTINUOUS
 62
     7
 10
482.05166526907669
 20
-1001.634303918825
 30
0.0
 11
482.05166526907669
 21
-1002.757915918825
 31
0.0
  0
LINE
  5
85B
  8
DATA
  6
CONTINUOUS
 62
     7
 10
475.29705726907679
 20
-1003.829874918825
 30
0.0
 11
477.75092126907651
 21
-1003.829867918825
 31
0.0
  0
LINE
  5
85C
  8
DATA
  6
CONTINUOUS
 62
     7
 10
476.47232926907668
 20
-1003.171202918825
 30
0.0
 11
477.10517126907672
 21
-1003.171202918825
 31
0.0
  0
LINE
  5
85D
  8
DATA
  6
CONTINUOUS
 62
     7
 10
476.47233626907678
 20
-1003.171202918825
 30
0.0
 11
476.47233626907678
 21
-1000.407364918824
 31
0.0
  0
LINE
  5
85E
  8
DATA
  6
CONTINUOUS
 62
     7
 10
476.47232926907668
 20
-1000.407364918824
 30
0.0
 11
477.10517126907672
 21
-1000.407364918824
 31
0.0
  0
LINE
  5
85F
  8
DATA
  6
CONTINUOUS
 62
     7
 10
477.75092126907651
 20
-1002.861242918825
 30
0.0
 11
477.75092126907651
 21
-1000.7173249188251
 31
0.0
  0
ARC
  5
860
  8
DATA
  6
CONTINUOUS
 62
     7
 10
473.80966226907663
 20
-1002.718344918825
 30
0.0
 40
0.816758983505735
 50
332.6403933328312
 51
357.22300454997088
  0
ARC
  5
861
  8
DATA
  6
CONTINUOUS
 62
     7
 10
481.56334526907682
 20
-1002.773063918825
 30
0.0
 40
0.4885501783703623
 50
269.7118487927454
 51
1.7759870055968461
  0
ARC
  5
862
  8
DATA
  6
CONTINUOUS
 62
     7
 10
481.55843126907672
 20
-1002.773063918825
 30
0.0
 40
0.4885476802217529
 50
178.22401299433051
 51
270.28815120723641
  0
LINE
  5
863
  8
DATA
  6
CONTINUOUS
 62
     7
 10
478.99077526907672
 20
-1002.706255918825
 30
0.0
 11
478.99077526907672
 21
-1000.846481918824
 31
0.0
  0
LINE
  5
864
  8
DATA
  6
CONTINUOUS
 62
     7
 10
476.47232926907668
 20
-999.73578491882563
 30
0.0
 11
477.10517126907672
 21
-999.73578491882563
 31
0.0
  0
ARC
  5
865
  8
DATA
  6
CONTINUOUS
 62
     7
 10
477.66193726907647
 20
-1002.501015918825
 30
0.0
 40
1.3318279882023221
 50
273.83098160911521
 51
351.1351473097701
  0
LINE
  5
866
  8
DATA
  6
CONTINUOUS
 62
     7
 10
473.33395626907668
 20
-996.82988191882566
 30
0.0
 11
474.62547026907669
 21
-996.82988191882566
 31
0.0
  0
LINE
  5
867
  8
DATA
  6
CONTINUOUS
 62
     7
 10
470.76384326907669
 20
-996.82988191882566
 30
0.0
 11
472.84317926907659
 21
-996.82988191882566
 31
0.0
  0
LINE
  5
868
  8
DATA
  6
CONTINUOUS
 62
     7
 10
479.72693726907659
 20
-996.82988191882566
 30
0.0
 11
481.07011126907668
 21
-996.82988191882566
 31
0.0
  0
LINE
  5
869
  8
DATA
  6
CONTINUOUS
 62
     7
 10
475.29705726907679
 20
-996.82988191882566
 30
0.0
 11
477.76441035877951
 21
-996.82988758444299
 31
0.0
  0
LINE
  5
86A
  8
DATA
  6
CONTINUOUS
 62
     7
 10
476.47232926907668
 20
-997.48855391882512
 30
0.0
 11
477.10517126907672
 21
-997.48855391882512
 31
0.0
  0
ARC
  5
86B
  8
DATA
  6
CONTINUOUS
 62
     7
 10
477.67521626907683
 20
-998.15670391882475
 30
0.0
 40
1.3298109530379709
 50
8.2269238590068863
 51
86.154126692159295
  0
ARC
  5
86C
  8
DATA
  6
CONTINUOUS
 62
     7
 10
477.11264409289902
 20
-1001.943621346414
 30
0.0
 40
1.227604317367853
 50
269.65121993761301
 51
282.82648280686368
  0
ARC
  5
86D
  8
DATA
  6
CONTINUOUS
 62
     7
 10
477.25052348830309
 20
-1002.462628136683
 30
0.0
 40
0.6912065325859885
 50
281.2331036226463
 51
306.8620088940317
  0
ARC
  5
86E
  8
DATA
  6
CONTINUOUS
 62
     7
 10
477.52888922357801
 20
-1000.7396157504691
 30
0.0
 40
0.2231481803726342
 50
5.7329807105071184
 51
52.358097502426169
  0
ARC
  5
86F
  8
DATA
  6
CONTINUOUS
 62
     7
 10
477.11264409289902
 20
-1001.634946491236
 30
0.0
 40
1.227604317367559
 50
77.173517193136533
 51
90.348780062387036
  0
ARC
  5
870
  8
DATA
  6
CONTINUOUS
 62
     7
 10
477.25052348830309
 20
-1001.115939700966
 30
0.0
 40
0.6912065325854109
 50
53.137991105926901
 51
78.766896377338114
  0
ARC
  5
871
  8
DATA
  6
CONTINUOUS
 62
     7
 10
478.31339926907663
 20
-1000.892268918825
 30
0.0
 40
0.6789217147397876
 50
3.8670063598995661
 51
88.361634567898776
  0
ARC
  5
872
  8
DATA
  6
CONTINUOUS
 62
     7
 10
478.31277626907672
 20
-999.5343249188254
 30
0.0
 40
0.6795963579634334
 50
271.6892821046394
 51
356.07828298272108
  0
ARC
  5
873
  8
DATA
  6
CONTINUOUS
 62
     7
 10
477.52888922357801
 20
-999.40353408718158
 30
0.0
 40
0.2231481803729556
 50
307.64190249757291
 51
354.26701928950172
  0
ARC
  5
874
  8
DATA
  6
CONTINUOUS
 62
     7
 10
477.11264409289902
 20
-998.50820334641412
 30
0.0
 40
1.227604317367853
 50
269.65121993761301
 51
282.82648280686368
  0
ARC
  5
875
  8
DATA
  6
CONTINUOUS
 62
     7
 10
477.25052348830309
 20
-999.0272101366844
 30
0.0
 40
0.6912065325850965
 50
281.23310362266091
 51
306.86200889410333
  0
ARC
  5
876
  8
DATA
  6
CONTINUOUS
 62
     7
 10
477.52888922357801
 20
-997.82080475046951
 30
0.0
 40
0.2231481803726342
 50
5.7329807105071184
 51
52.358097502426169
  0
ARC
  5
877
  8
DATA
  6
CONTINUOUS
 62
     7
 10
477.11264409289902
 20
-998.71613549123595
 30
0.0
 40
1.227604317366672
 50
77.173517193127097
 51
90.348780062387263
  0
ARC
  5
878
  8
DATA
  6
CONTINUOUS
 62
     7
 10
477.25052348830309
 20
-998.19712870096635
 30
0.0
 40
0.6912065325854109
 50
53.137991105926901
 51
78.766896377338114
  0
TEXT
  5
879
  8
DATA
 62
     7
 10
489.75000000000227
 20
-1007.5491328125011
 30
0.0
 40
2.0666122436523442
  1
Nominal Impedance:    4 Ohms
 41
0.7
 11
489.75000000000227
 21
-1005.482520568848
 31
0.0
 73
     3
  0
CIRCLE
  5
87A
  8
DATA
  6
CONTINUOUS
 62
     7
 10
420.50000000000051
 20
-968.63799999999992
 30
0.0
 40
3.0
  0
CIRCLE
  5
87B
  8
DATA
  6
CONTINUOUS
 62
     7
 10
420.50000000000051
 20
-986.63800000000015
 30
0.0
 40
3.0
  0
CIRCLE
  5
87C
  8
DATA
  6
CONTINUOUS
 62
     7
 10
579.50000000000057
 20
-968.63799999999992
 30
0.0
 40
3.0
  0
CIRCLE
  5
87D
  8
DATA
  6
CONTINUOUS
 62
     7
 10
579.50000000000057
 20
-986.63800000000015
 30
0.0
 40
3.0
  0
CIRCLE
  5
87E
  8
DATA
  6
CONTINUOUS
 62
     7
 10
436.50000000000051
 20
-957.1380000000006
 30
0.0
 40
3.0
  0
CIRCLE
  5
87F
  8
DATA
  6
CONTINUOUS
 62
     7
 10
444.50000000000051
 20
-957.1380000000006
 30
0.0
 40
3.0
  0
CIRCLE
  5
880
  8
DATA
  6
CONTINUOUS
 62
     7
 10
452.5000000000004
 20
-957.1380000000006
 30
0.0
 40
3.0
  0
CIRCLE
  5
881
  8
DATA
  6
CONTINUOUS
 62
     7
 10
436.50000000000051
 20
-1021.138
 30
0.0
 40
3.0
  0
CIRCLE
  5
882
  8
DATA
  6
CONTINUOUS
 62
     7
 10
444.50000000000051
 20
-1021.138
 30
0.0
 40
3.0
  0
CIRCLE
  5
883
  8
DATA
  6
CONTINUOUS
 62
     7
 10
452.5000000000004
 20
-1021.138
 30
0.0
 40
3.0
  0
CIRCLE
  5
884
  8
DATA
  6
CONTINUOUS
 62
     7
 10
436.50000000000051
 20
-1008.338000000001
 30
0.0
 40
3.0
  0
CIRCLE
  5
885
  8
DATA
  6
CONTINUOUS
 62
     7
 10
444.50000000000051
 20
-1008.338000000001
 30
0.0
 40
3.0
  0
CIRCLE
  5
886
  8
DATA
  6
CONTINUOUS
 62
     7
 10
452.5000000000004
 20
-1008.338000000001
 30
0.0
 40
3.0
  0
CIRCLE
  5
887
  8
DATA
  6
CONTINUOUS
 62
     7
 10
436.50000000000051
 20
-995.53800000000035
 30
0.0
 40
3.0
  0
CIRCLE
  5
888
  8
DATA
  6
CONTINUOUS
 62
     7
 10
444.50000000000051
 20
-995.53800000000035
 30
0.0
 40
3.0
  0
CIRCLE
  5
889
  8
DATA
  6
CONTINUOUS
 62
     7
 10
452.5000000000004
 20
-995.53800000000035
 30
0.0
 40
3.0
  0
CIRCLE
  5
88A
  8
DATA
  6
CONTINUOUS
 62
     7
 10
436.50000000000051
 20
-982.73800000000028
 30
0.0
 40
3.0
  0
CIRCLE
  5
88B
  8
DATA
  6
CONTINUOUS
 62
     7
 10
444.50000000000051
 20
-982.73800000000028
 30
0.0
 40
3.0
  0
CIRCLE
  5
88C
  8
DATA
  6
CONTINUOUS
 62
     7
 10
452.5000000000004
 20
-982.73800000000028
 30
0.0
 40
3.0
  0
CIRCLE
  5
88D
  8
DATA
  6
CONTINUOUS
 62
     7
 10
436.50000000000051
 20
-969.93799999999987
 30
0.0
 40
3.0
  0
CIRCLE
  5
88E
  8
DATA
  6
CONTINUOUS
 62
     7
 10
444.50000000000051
 20
-969.93799999999987
 30
0.0
 40
3.0
  0
CIRCLE
  5
88F
  8
DATA
  6
CONTINUOUS
 62
     7
 10
452.5000000000004
 20
-969.93799999999987
 30
0.0
 40
3.0
  0
CIRCLE
  5
890
  8
DATA
  6
CONTINUOUS
 62
     7
 10
440.50000000000051
 20
-963.53800000000035
 30
0.0
 40
3.0
  0
CIRCLE
  5
891
  8
DATA
  6
CONTINUOUS
 62
     7
 10
448.50000000000051
 20
-963.53800000000035
 30
0.0
 40
3.0
  0
CIRCLE
  5
892
  8
DATA
  6
CONTINUOUS
 62
     7
 10
440.50000000000051
 20
-976.33800000000065
 30
0.0
 40
3.0
  0
CIRCLE
  5
893
  8
DATA
  6
CONTINUOUS
 62
     7
 10
448.50000000000051
 20
-976.33800000000065
 30
0.0
 40
3.0
  0
CIRCLE
  5
894
  8
DATA
  6
CONTINUOUS
 62
     7
 10
440.50000000000051
 20
-989.1380000000006
 30
0.0
 40
3.0
  0
CIRCLE
  5
895
  8
DATA
  6
CONTINUOUS
 62
     7
 10
448.50000000000051
 20
-989.1380000000006
 30
0.0
 40
3.0
  0
CIRCLE
  5
896
  8
DATA
  6
CONTINUOUS
 62
     7
 10
440.50000000000051
 20
-1001.938
 30
0.0
 40
3.0
  0
CIRCLE
  5
897
  8
DATA
  6
CONTINUOUS
 62
     7
 10
448.50000000000051
 20
-1001.938
 30
0.0
 40
3.0
  0
CIRCLE
  5
898
  8
DATA
  6
CONTINUOUS
 62
     7
 10
440.50000000000051
 20
-1014.7380000000001
 30
0.0
 40
3.0
  0
CIRCLE
  5
899
  8
DATA
  6
CONTINUOUS
 62
     7
 10
448.50000000000051
 20
-1014.7380000000001
 30
0.0
 40
3.0
  0
CIRCLE
  5
89A
  8
DATA
  6
CONTINUOUS
 62
     7
 10
547.50000000000045
 20
-957.1380000000006
 30
0.0
 40
3.0
  0
CIRCLE
  5
89B
  8
DATA
  6
CONTINUOUS
 62
     7
 10
555.50000000000045
 20
-957.1380000000006
 30
0.0
 40
3.0
  0
CIRCLE
  5
89C
  8
DATA
  6
CONTINUOUS
 62
     7
 10
563.50000000000057
 20
-957.1380000000006
 30
0.0
 40
3.0
  0
CIRCLE
  5
89D
  8
DATA
  6
CONTINUOUS
 62
     7
 10
547.50000000000045
 20
-1021.138
 30
0.0
 40
3.0
  0
CIRCLE
  5
89E
  8
DATA
  6
CONTINUOUS
 62
     7
 10
555.50000000000045
 20
-1021.138
 30
0.0
 40
3.0
  0
CIRCLE
  5
89F
  8
DATA
  6
CONTINUOUS
 62
     7
 10
563.50000000000057
 20
-1021.138
 30
0.0
 40
3.0
  0
CIRCLE
  5
8A0
  8
DATA
  6
CONTINUOUS
 62
     7
 10
547.50000000000045
 20
-1008.338000000001
 30
0.0
 40
3.0
  0
CIRCLE
  5
8A1
  8
DATA
  6
CONTINUOUS
 62
     7
 10
555.50000000000045
 20
-1008.338000000001
 30
0.0
 40
3.0
  0
CIRCLE
  5
8A2
  8
DATA
  6
CONTINUOUS
 62
     7
 10
563.50000000000057
 20
-1008.338000000001
 30
0.0
 40
3.0
  0
CIRCLE
  5
8A3
  8
DATA
  6
CONTINUOUS
 62
     7
 10
547.50000000000045
 20
-995.53800000000035
 30
0.0
 40
3.0
  0
CIRCLE
  5
8A4
  8
DATA
  6
CONTINUOUS
 62
     7
 10
555.50000000000045
 20
-995.53800000000035
 30
0.0
 40
3.0
  0
CIRCLE
  5
8A5
  8
DATA
  6
CONTINUOUS
 62
     7
 10
563.50000000000057
 20
-995.53800000000035
 30
0.0
 40
3.0
  0
CIRCLE
  5
8A6
  8
DATA
  6
CONTINUOUS
 62
     7
 10
547.50000000000045
 20
-982.73800000000028
 30
0.0
 40
3.0
  0
CIRCLE
  5
8A7
  8
DATA
  6
CONTINUOUS
 62
     7
 10
555.50000000000045
 20
-982.73800000000028
 30
0.0
 40
3.0
  0
CIRCLE
  5
8A8
  8
DATA
  6
CONTINUOUS
 62
     7
 10
563.50000000000057
 20
-982.73800000000028
 30
0.0
 40
3.0
  0
CIRCLE
  5
8A9
  8
DATA
  6
CONTINUOUS
 62
     7
 10
547.50000000000045
 20
-969.93799999999987
 30
0.0
 40
3.0
  0
CIRCLE
  5
8AA
  8
DATA
  6
CONTINUOUS
 62
     7
 10
555.50000000000045
 20
-969.93799999999987
 30
0.0
 40
3.0
  0
CIRCLE
  5
8AB
  8
DATA
  6
CONTINUOUS
 62
     7
 10
563.50000000000057
 20
-969.93799999999987
 30
0.0
 40
3.0
  0
CIRCLE
  5
8AC
  8
DATA
  6
CONTINUOUS
 62
     7
 10
551.50000000000045
 20
-963.53800000000035
 30
0.0
 40
3.0
  0
CIRCLE
  5
8AD
  8
DATA
  6
CONTINUOUS
 62
     7
 10
559.50000000000045
 20
-963.53800000000035
 30
0.0
 40
3.0
  0
CIRCLE
  5
8AE
  8
DATA
  6
CONTINUOUS
 62
     7
 10
551.50000000000045
 20
-976.33800000000065
 30
0.0
 40
3.0
  0
CIRCLE
  5
8AF
  8
DATA
  6
CONTINUOUS
 62
     7
 10
559.50000000000045
 20
-976.33800000000065
 30
0.0
 40
3.0
  0
CIRCLE
  5
8B0
  8
DATA
  6
CONTINUOUS
 62
     7
 10
551.50000000000045
 20
-989.1380000000006
 30
0.0
 40
3.0
  0
CIRCLE
  5
8B1
  8
DATA
  6
CONTINUOUS
 62
     7
 10
559.50000000000045
 20
-989.1380000000006
 30
0.0
 40
3.0
  0
CIRCLE
  5
8B2
  8
DATA
  6
CONTINUOUS
 62
     7
 10
551.50000000000045
 20
-1001.938
 30
0.0
 40
3.0
  0
CIRCLE
  5
8B3
  8
DATA
  6
CONTINUOUS
 62
     7
 10
559.50000000000045
 20
-1001.938
 30
0.0
 40
3.0
  0
CIRCLE
  5
8B4
  8
DATA
  6
CONTINUOUS
 62
     7
 10
551.50000000000045
 20
-1014.7380000000001
 30
0.0
 40
3.0
  0
CIRCLE
  5
8B5
  8
DATA
  6
CONTINUOUS
 62
     7
 10
559.50000000000045
 20
-1014.7380000000001
 30
0.0
 40
3.0
  0
LINE
  5
8B6
  8
DATA
  6
CONTINUOUS
 62
     7
 10
-588.99999999994282
 20
-1557.838
 30
0.0
 11
-595.27868417737966
 21
-1561.4629999999991
 31
0.0
  0
LINE
  5
8B7
  8
DATA
  6
CONTINUOUS
 62
     7
 10
-582.72131582250574
 20
-1561.4629999999991
 30
0.0
 11
-588.99999999994282
 21
-1557.838
 31
0.0
  0
LINE
  5
8B8
  8
DATA
  6
CONTINUOUS
 62
     7
 10
-582.72131582250574
 20
-1568.7129999999991
 30
0.0
 11
-582.72131582250574
 21
-1561.4629999999991
 31
0.0
  0
LINE
  5
8B9
  8
DATA
  6
CONTINUOUS
 62
     7
 10
-588.99999999994282
 20
-1572.3380000000011
 30
0.0
 11
-582.72131582250574
 21
-1568.7129999999991
 31
0.0
  0
LINE
  5
8BA
  8
DATA
  6
CONTINUOUS
 62
     7
 10
-595.27868417737966
 20
-1568.7129999999991
 30
0.0
 11
-588.99999999994282
 21
-1572.3380000000011
 31
0.0
  0
LINE
  5
8BB
  8
DATA
  6
CONTINUOUS
 62
     7
 10
-595.27868417737966
 20
-1561.4629999999991
 30
0.0
 11
-595.27868417737966
 21
-1568.7129999999991
 31
0.0
  0
LINE
  5
8BC
  8
DATA
  6
CONTINUOUS
 62
     7
 10
478.00000000000051
 20
-985.38800000000106
 30
0.0
 11
522.00000000000045
 21
-985.38800000000049
 31
0.0
  0
LINE
  5
8BD
  8
DATA
  6
CONTINUOUS
 62
     7
 10
478.00000000000051
 20
-968.58800000000076
 30
0.0
 11
522.00000000000045
 21
-968.58800000000076
 31
0.0
  0
LINE
  5
8BE
  8
DATA
  6
CONTINUOUS
 62
     7
 10
522.00000000000045
 20
-985.38800000000106
 30
0.0
 11
522.00000000000045
 21
-968.74673712978472
 31
0.0
  0
LINE
  5
8BF
  8
DATA
  6
CONTINUOUS
 62
     7
 10
478.00000000000051
 20
-985.38800000000106
 30
0.0
 11
478.00000000000051
 21
-968.5880000000011
 31
0.0
  0
LINE
  5
8C0
  8
DATA
  6
CONTINUOUS
 62
     7
 10
499.00000000000051
 20
-968.58800000000076
 30
0.0
 11
499.00000000000051
 21
-985.38800000000106
 31
0.0
  0
LINE
  5
8C1
  8
DATA
  6
CONTINUOUS
 62
     7
 10
501.00000000000051
 20
-968.58800000000076
 30
0.0
 11
501.00000000000051
 21
-985.38800000000106
 31
0.0
  0
LINE
  5
8C2
  8
DATA
  6
CONTINUOUS
 62
     7
 10
488.00000000000051
 20
-985.38800000000106
 30
0.0
 11
488.00000000000051
 21
-968.58800000000076
 31
0.0
  0
LINE
  5
8C3
  8
DATA
  6
CONTINUOUS
 62
     7
 10
490.0000000000004
 20
-968.58800000000076
 30
0.0
 11
490.0000000000004
 21
-985.38800000000106
 31
0.0
  0
LINE
  5
8C4
  8
DATA
  6
CONTINUOUS
 62
     7
 10
510.0000000000004
 20
-985.38800000000106
 30
0.0
 11
510.0000000000004
 21
-968.58800000000076
 31
0.0
  0
LINE
  5
8C5
  8
DATA
  6
CONTINUOUS
 62
     7
 10
512.00000000000045
 20
-968.58800000000076
 30
0.0
 11
512.00000000000045
 21
-985.38800000000106
 31
0.0
  0
LINE
  5
8C6
  8
DATA
  6
CONTINUOUS
 62
     7
 10
489.00000000000051
 20
-959.88800000000106
 30
0.0
 11
511.00000000000051
 21
-959.88800000000106
 31
0.0
  0
LINE
  5
8C7
  8
DATA
  6
CONTINUOUS
 62
     7
 10
489.00000000000051
 20
-959.88800000000106
 30
0.0
 11
489.00000000000051
 21
-968.58800000000076
 31
0.0
  0
LINE
  5
8C8
  8
DATA
  6
CONTINUOUS
 62
     7
 10
511.00000000000051
 20
-959.88800000000106
 30
0.0
 11
511.00000000000051
 21
-968.58800000000076
 31
0.0
  0
LINE
  5
8C9
  8
DATA
  6
CONTINUOUS
 62
     7
 10
500.00000000000051
 20
-959.88800000000106
 30
0.0
 11
500.00000000000051
 21
-968.58800000000076
 31
0.0
  0
LINE
  5
8CA
  8
DATA
  6
CONTINUOUS
 62
     7
 10
503.50000000000051
 20
-963.23800000000085
 30
0.0
 11
507.50000000000051
 21
-963.23800000000085
 31
0.0
  0
LINE
  5
8CB
  8
DATA
  6
CONTINUOUS
 62
     7
 10
505.50000000000051
 20
-965.23800000000017
 30
0.0
 11
505.50000000000051
 21
-961.23800000000074
 31
0.0
  0
LINE
  5
8CC
  8
DATA
  6
CONTINUOUS
 62
     7
 10
492.50000000000222
 20
-963.23800000000028
 30
0.0
 11
496.50000000000051
 21
-963.23800000000028
 31
0.0
  0
LINE
  5
8CD
  8
DATA
  6
CONTINUOUS
 62
     7
 10
478.00000000000051
 20
-970.73800000000142
 30
0.0
 11
488.00000000000051
 21
-970.73800000000142
 31
0.0
  0
LINE
  5
8CE
  8
DATA
  6
CONTINUOUS
 62
     7
 10
490.0000000000004
 20
-970.73800000000142
 30
0.0
 11
499.00000000000051
 21
-970.73800000000142
 31
0.0
  0
LINE
  5
8CF
  8
DATA
  6
CONTINUOUS
 62
     7
 10
501.00000000000051
 20
-970.73800000000142
 30
0.0
 11
510.0000000000004
 21
-970.73800000000142
 31
0.0
  0
LINE
  5
8D0
  8
DATA
  6
CONTINUOUS
 62
     7
 10
512.00000000000045
 20
-970.73800000000142
 30
0.0
 11
522.00000000000045
 21
-970.73800000000142
 31
0.0
  0
LINE
  5
8D1
  8
DATA
  6
CONTINUOUS
 62
     7
 10
478.00000000000051
 20
-983.23800000000142
 30
0.0
 11
488.00000000000051
 21
-983.23800000000142
 31
0.0
  0
LINE
  5
8D2
  8
DATA
  6
CONTINUOUS
 62
     7
 10
490.0000000000004
 20
-983.23800000000142
 30
0.0
 11
499.00000000000051
 21
-983.23800000000142
 31
0.0
  0
LINE
  5
8D3
  8
DATA
  6
CONTINUOUS
 62
     7
 10
501.00000000000051
 20
-983.23800000000142
 30
0.0
 11
510.0000000000004
 21
-983.23800000000142
 31
0.0
  0
LINE
  5
8D4
  8
DATA
  6
CONTINUOUS
 62
     7
 10
512.00000000000045
 20
-983.23800000000142
 30
0.0
 11
522.00000000000045
 21
-983.23800000000142
 31
0.0
  0
CIRCLE
  5
8D5
  8
DATA
  6
CONTINUOUS
 62
     7
 10
483.50000000000051
 20
-976.98800000000074
 30
0.0
 40
4.0
  0
LINE
  5
8D6
  8
DATA
  6
CONTINUOUS
 62
     7
 10
481.0000000000004
 20
-976.98800000000074
 30
0.0
 11
486.00000000000051
 21
-976.98800000000074
 31
0.0
  0
LINE
  5
8D7
  8
DATA
  6
CONTINUOUS
 62
     7
 10
483.50000000000051
 20
-979.48800000000085
 30
0.0
 11
483.50000000000051
 21
-974.48800000000074
 31
0.0
  0
CIRCLE
  5
8D8
  8
DATA
  6
CONTINUOUS
 62
     7
 10
494.50000000000051
 20
-976.98800000000074
 30
0.0
 40
2.75
  0
LINE
  5
8D9
  8
DATA
  6
CONTINUOUS
 62
     7
 10
491.8437039777055
 20
-977.69975237403276
 30
0.0
 11
497.15629602229512
 21
-976.27624762596884
 31
0.0
  0
LINE
  5
8DA
  8
DATA
  6
CONTINUOUS
 62
     7
 10
494.8882285676541
 20
-978.43688873943449
 30
0.0
 11
494.11177143234681
 21
-975.53911126056732
 31
0.0
  0
POLYLINE
  5
8DB
  8
DATA
  6
CONTINUOUS
 62
     7
 66
     1
 10
0.0
 20
0.0
 30
0.0
 70
     1
  0
VERTEX
  5
BDC
  8
DATA
  6
CONTINUOUS
 62
     7
 10
490.50000000000051
 20
-972.98800000000062
 30
0.0
  0
VERTEX
  5
BDD
  8
DATA
  6
CONTINUOUS
 62
     7
 10
498.50000000000051
 20
-972.98800000000062
 30
0.0
  0
VERTEX
  5
BDE
  8
DATA
  6
CONTINUOUS
 62
     7
 10
498.50000000000051
 20
-980.98800000000062
 30
0.0
  0
VERTEX
  5
BDF
  8
DATA
  6
CONTINUOUS
 62
     7
 10
490.50000000000051
 20
-980.98800000000062
 30
0.0
  0
SEQEND
  5
BE0
  8
DATA
  6
CONTINUOUS
 62
     7
  0
CIRCLE
  5
8E2
  8
DATA
  6
CONTINUOUS
 62
     7
 10
505.50000000000051
 20
-976.98800000000074
 30
0.0
 40
2.75
  0
LINE
  5
8E3
  8
DATA
  6
CONTINUOUS
 62
     7
 10
502.8437039777055
 20
-977.69975237403276
 30
0.0
 11
508.15629602229512
 21
-976.27624762596895
 31
0.0
  0
LINE
  5
8E4
  8
DATA
  6
CONTINUOUS
 62
     7
 10
505.88822856765398
 20
-978.43688873943449
 30
0.0
 11
505.11177143234681
 21
-975.53911126056767
 31
0.0
  0
POLYLINE
  5
8E5
  8
DATA
  6
CONTINUOUS
 62
     7
 66
     1
 10
0.0
 20
0.0
 30
0.0
 70
     1
  0
VERTEX
  5
BE1
  8
DATA
  6
CONTINUOUS
 62
     7
 10
501.50000000000051
 20
-972.98800000000153
 30
0.0
  0
VERTEX
  5
BE2
  8
DATA
  6
CONTINUOUS
 62
     7
 10
509.50000000000051
 20
-972.98800000000153
 30
0.0
  0
VERTEX
  5
BE3
  8
DATA
  6
CONTINUOUS
 62
     7
 10
509.50000000000051
 20
-980.98800000000153
 30
0.0
  0
VERTEX
  5
BE4
  8
DATA
  6
CONTINUOUS
 62
     7
 10
501.50000000000051
 20
-980.98800000000153
 30
0.0
  0
SEQEND
  5
BE5
  8
DATA
  6
CONTINUOUS
 62
     7
  0
CIRCLE
  5
8EC
  8
DATA
  6
CONTINUOUS
 62
     7
 10
516.50000000000125
 20
-976.98800000000074
 30
0.0
 40
4.0
  0
LINE
  5
8ED
  8
DATA
  6
CONTINUOUS
 62
     7
 10
514.00000000000125
 20
-976.98800000000074
 30
0.0
 11
519.00000000000125
 21
-976.98800000000074
 31
0.0
  0
LINE
  5
8EE
  8
DATA
  6
CONTINUOUS
 62
     7
 10
516.50000000000125
 20
-979.48800000000085
 30
0.0
 11
516.50000000000125
 21
-974.48800000000074
 31
0.0
  0
CIRCLE
  5
8EF
  8
DATA
  6
CONTINUOUS
 62
     7
 10
-1368.492
 20
-1173.0340000000001
 30
0.0
 40
63.0
  0
CIRCLE
  5
8F0
  8
DATA
  6
CONTINUOUS
 62
     7
 10
-1368.492
 20
-1173.0340000000001
 30
0.0
 40
24.0
  0
CIRCLE
  5
8F1
  8
DATA
  6
CONTINUOUS
 62
     7
 10
-1368.492
 20
-1363.0340000000001
 30
0.0
 40
70.0
  0
CIRCLE
  5
8F2
  8
DATA
  6
CONTINUOUS
 62
     7
 10
-1368.492
 20
-1363.0340000000001
 30
0.0
 40
55.0
  0
CIRCLE
  5
8F3
  8
DATA
  6
CONTINUOUS
 62
     7
 10
-1368.492
 20
-1363.0340000000001
 30
0.0
 40
63.0
  0
CIRCLE
  5
8F4
  8
DATA
  6
CONTINUOUS
 62
     7
 10
-1368.492
 20
-1363.0340000000001
 30
0.0
 40
24.0
  0
CIRCLE
  5
8F5
  8
DATA
  6
CONTINUOUS
 62
     7
 10
-1368.492
 20
-2264.7500000000009
 30
0.0
 40
192.5
  0
CIRCLE
  5
8F6
  8
DATA
  6
CONTINUOUS
 62
     7
 10
-1368.492
 20
-2264.7500000000009
 30
0.0
 40
191.0
  0
CIRCLE
  5
8F7
  8
DATA
  6
CONTINUOUS
 62
     7
 10
-1368.492
 20
-2264.7500000000009
 30
0.0
 40
177.5
  0
CIRCLE
  5
8F8
  8
DATA
  6
CONTINUOUS
 62
     7
 10
-1368.492
 20
-2264.7500000000009
 30
0.0
 40
172.0
  0
CIRCLE
  5
8F9
  8
DATA
  6
CONTINUOUS
 62
     7
 10
-1368.492
 20
-2264.7500000000009
 30
0.0
 40
162.0
  0
CIRCLE
  5
8FA
  8
DATA
  6
CONTINUOUS
 62
     7
 10
-1368.492
 20
-2264.7500000000009
 30
0.0
 40
153.0
  0
CIRCLE
  5
8FB
  8
DATA
  6
CONTINUOUS
 62
     7
 10
-1368.492
 20
-2264.7500000000009
 30
0.0
 40
55.0
  0
CIRCLE
  5
8FC
  8
DATA
  6
CONTINUOUS
 62
     7
 10
-1553.492
 20
-2264.7500000000009
 30
0.0
 40
4.0
  0
ARC
  5
8FD
  8
DATA
  6
CONTINUOUS
 62
     7
 10
-1554.4919999999991
 20
-2264.7500000000009
 30
0.0
 40
5.0
 50
270.0
 51
90.0
  0
LINE
  5
8FE
  8
DATA
  6
CONTINUOUS
 62
     7
 10
-1554.4919999999991
 20
-2269.7500000000009
 30
0.0
 11
-1559.4265437578019
 21
-2269.7500000000009
 31
0.0
  0
LINE
  5
8FF
  8
DATA
  6
CONTINUOUS
 62
     7
 10
-1555.9919999999991
 20
-2264.7500000000009
 30
0.0
 11
-1550.992
 21
-2264.7500000000009
 31
0.0
  0
LINE
  5
900
  8
DATA
  6
CONTINUOUS
 62
     7
 10
-1553.492
 20
-2267.2500000000009
 30
0.0
 11
-1553.492
 21
-2262.2500000000009
 31
0.0
  0
CIRCLE
  5
901
  8
DATA
  6
CONTINUOUS
 62
     7
 10
-1499.3067545195111
 20
-2133.9352454804889
 30
0.0
 40
4.0
  0
LINE
  5
902
  8
DATA
  6
CONTINUOUS
 62
     7
 10
-1499.3067545195111
 20
-2136.4352454804889
 30
0.0
 11
-1499.3067545195111
 21
-2131.4352454804889
 31
0.0
  0
LINE
  5
903
  8
DATA
  6
CONTINUOUS
 62
     7
 10
-1501.8067545195111
 20
-2133.9352454804889
 30
0.0
 11
-1496.8067545195111
 21
-2133.9352454804889
 31
0.0
  0
LINE
  5
904
  8
DATA
  6
CONTINUOUS
 62
     7
 10
-1503.5493952066299
 20
-2136.763672605236
 30
0.0
 11
-1507.038644559834
 21
-2133.2744232520322
 31
0.0
  0
ARC
  5
905
  8
DATA
  6
CONTINUOUS
 62
     7
 10
-1500.013861300698
 20
-2133.2281386993031
 30
0.0
 40
4.9999999999998792
 50
225.00000000000369
 51
45.000000000003681
  0
LINE
  5
906
  8
DATA
  6
CONTINUOUS
 62
     7
 10
-1496.4783273947651
 20
-2129.6926047933689
 30
0.0
 11
-1499.9675767479689
 21
-2126.203355440166
 31
0.0
  0
LINE
  5
907
  8
DATA
  6
CONTINUOUS
 62
     7
 10
-1554.492
 20
-2259.7500000000009
 30
0.0
 11
-1559.4265437578019
 21
-2259.7500000000009
 31
0.0
  0
CIRCLE
  5
908
  8
DATA
  6
CONTINUOUS
 62
     7
 10
-1368.492
 20
-2079.7500000000009
 30
0.0
 40
4.0
  0
LINE
  5
909
  8
DATA
  6
CONTINUOUS
 62
     7
 10
-1368.492
 20
-2077.2500000000009
 30
0.0
 11
-1368.492
 21
-2082.2500000000009
 31
0.0
  0
LINE
  5
90A
  8
DATA
  6
CONTINUOUS
 62
     7
 10
-1370.992
 20
-2079.7500000000009
 30
0.0
 11
-1365.992
 21
-2079.7500000000009
 31
0.0
  0
LINE
  5
90B
  8
DATA
  6
CONTINUOUS
 62
     7
 10
-1373.492
 20
-2078.7500000000009
 30
0.0
 11
-1373.492
 21
-2073.8154562421992
 31
0.0
  0
ARC
  5
90C
  8
DATA
  6
CONTINUOUS
 62
     7
 10
-1368.492
 20
-2078.7500000000009
 30
0.0
 40
5.0
 50
180.0
 51
0.0
  0
LINE
  5
90D
  8
DATA
  6
CONTINUOUS
 62
     7
 10
-1363.492
 20
-2078.7500000000009
 30
0.0
 11
-1363.492
 21
-2073.8154562421992
 31
0.0
  0
CIRCLE
  5
90E
  8
DATA
  6
CONTINUOUS
 62
     7
 10
-1368.492
 20
-2264.7500000000009
 30
0.0
 40
140.0
  0
CIRCLE
  5
90F
  8
DATA
  6
CONTINUOUS
 62
     7
 10
-1368.492
 20
-2449.7500000000009
 30
0.0
 40
4.0
  0
ARC
  5
910
  8
DATA
  6
CONTINUOUS
 62
     7
 10
-1368.4919999999991
 20
-2450.75
 30
0.0
 40
5.0
 50
0.0
 51
180.0
  0
LINE
  5
911
  8
DATA
  6
CONTINUOUS
 62
     7
 10
-1363.4919999999991
 20
-2450.75
 30
0.0
 11
-1363.4919999999991
 21
-2455.6845437578031
 31
0.0
  0
LINE
  5
912
  8
DATA
  6
CONTINUOUS
 62
     7
 10
-1368.492
 20
-2452.25
 30
0.0
 11
-1368.492
 21
-2447.25
 31
0.0
  0
LINE
  5
913
  8
DATA
  6
CONTINUOUS
 62
     7
 10
-1365.9919999999991
 20
-2449.7500000000009
 30
0.0
 11
-1370.9919999999991
 21
-2449.7500000000009
 31
0.0
  0
CIRCLE
  5
914
  8
DATA
  6
CONTINUOUS
 62
     7
 10
-1499.3067545195111
 20
-2395.564754519512
 30
0.0
 40
4.0
  0
LINE
  5
915
  8
DATA
  6
CONTINUOUS
 62
     7
 10
-1496.8067545195111
 20
-2395.564754519512
 30
0.0
 11
-1501.8067545195111
 21
-2395.564754519512
 31
0.0
  0
LINE
  5
916
  8
DATA
  6
CONTINUOUS
 62
     7
 10
-1499.3067545195111
 20
-2398.0647545195111
 30
0.0
 11
-1499.3067545195111
 21
-2393.0647545195111
 31
0.0
  0
LINE
  5
917
  8
DATA
  6
CONTINUOUS
 62
     7
 10
-1496.4783273947639
 20
-2399.8073952066302
 30
0.0
 11
-1499.9675767479689
 21
-2403.296644559834
 31
0.0
  0
ARC
  5
918
  8
DATA
  6
CONTINUOUS
 62
     7
 10
-1500.013861300698
 20
-2396.2718613006982
 30
0.0
 40
4.9999999999998792
 50
315.00000000000369
 51
135.00000000000369
  0
LINE
  5
919
  8
DATA
  6
CONTINUOUS
 62
     7
 10
-1503.5493952066311
 20
-2392.7363273947649
 30
0.0
 11
-1507.038644559834
 21
-2396.2255767479692
 31
0.0
  0
LINE
  5
91A
  8
DATA
  6
CONTINUOUS
 62
     7
 10
-1373.4919999999991
 20
-2450.7500000000009
 30
0.0
 11
-1373.4919999999991
 21
-2455.6845437578031
 31
0.0
  0
CIRCLE
  5
91B
  8
DATA
  6
CONTINUOUS
 62
     7
 10
-1183.492
 20
-2264.7500000000009
 30
0.0
 40
4.0
  0
ARC
  5
91C
  8
DATA
  6
CONTINUOUS
 62
     7
 10
-1182.4920000000011
 20
-2264.7500000000009
 30
0.0
 40
5.0
 50
90.0
 51
270.0
  0
LINE
  5
91D
  8
DATA
  6
CONTINUOUS
 62
     7
 10
-1182.4920000000011
 20
-2269.7500000000009
 30
0.0
 11
-1177.557456242198
 21
-2269.7500000000009
 31
0.0
  0
LINE
  5
91E
  8
DATA
  6
CONTINUOUS
 62
     7
 10
-1180.9920000000011
 20
-2264.7500000000009
 30
0.0
 11
-1185.992
 21
-2264.7500000000009
 31
0.0
  0
LINE
  5
91F
  8
DATA
  6
CONTINUOUS
 62
     7
 10
-1183.492
 20
-2267.2500000000009
 30
0.0
 11
-1183.492
 21
-2262.2500000000009
 31
0.0
  0
CIRCLE
  5
920
  8
DATA
  6
CONTINUOUS
 62
     7
 10
-1237.677245480488
 20
-2133.9352454804889
 30
0.0
 40
4.0
  0
LINE
  5
921
  8
DATA
  6
CONTINUOUS
 62
     7
 10
-1237.677245480488
 20
-2136.4352454804889
 30
0.0
 11
-1237.677245480488
 21
-2131.4352454804889
 31
0.0
  0
LINE
  5
922
  8
DATA
  6
CONTINUOUS
 62
     7
 10
-1235.1772454804891
 20
-2133.9352454804889
 30
0.0
 11
-1240.1772454804891
 21
-2133.9352454804889
 31
0.0
  0
LINE
  5
923
  8
DATA
  6
CONTINUOUS
 62
     7
 10
-1233.43460479337
 20
-2136.763672605236
 30
0.0
 11
-1229.9453554401659
 21
-2133.2744232520322
 31
0.0
  0
ARC
  5
924
  8
DATA
  6
CONTINUOUS
 62
     7
 10
-1236.9701386993031
 20
-2133.2281386993031
 30
0.0
 40
4.9999999999998792
 50
134.99999999999631
 51
314.99999999999619
  0
LINE
  5
925
  8
DATA
  6
CONTINUOUS
 62
     7
 10
-1240.5056726052351
 20
-2129.6926047933689
 30
0.0
 11
-1237.016423252031
 21
-2126.203355440166
 31
0.0
  0
LINE
  5
926
  8
DATA
  6
CONTINUOUS
 62
     7
 10
-1182.492
 20
-2259.7500000000009
 30
0.0
 11
-1177.557456242198
 21
-2259.7500000000009
 31
0.0
  0
CIRCLE
  5
927
  8
DATA
  6
CONTINUOUS
 62
     7
 10
-1237.6772454804891
 20
-2395.564754519512
 30
0.0
 40
4.0
  0
LINE
  5
928
  8
DATA
  6
CONTINUOUS
 62
     7
 10
-1240.1772454804891
 20
-2395.564754519512
 30
0.0
 11
-1235.1772454804891
 21
-2395.564754519512
 31
0.0
  0
LINE
  5
929
  8
DATA
  6
CONTINUOUS
 62
     7
 10
-1237.6772454804891
 20
-2398.0647545195111
 30
0.0
 11
-1237.6772454804891
 21
-2393.0647545195111
 31
0.0
  0
LINE
  5
92A
  8
DATA
  6
CONTINUOUS
 62
     7
 10
-1240.505672605236
 20
-2399.8073952066302
 30
0.0
 11
-1237.016423252031
 21
-2403.296644559834
 31
0.0
  0
ARC
  5
92B
  8
DATA
  6
CONTINUOUS
 62
     7
 10
-1236.970138699302
 20
-2396.2718613006982
 30
0.0
 40
4.9999999999998792
 50
44.999999999996319
 51
224.99999999999631
  0
LINE
  5
92C
  8
DATA
  6
CONTINUOUS
 62
     7
 10
-1233.4346047933691
 20
-2392.7363273947649
 30
0.0
 11
-1229.9453554401659
 21
-2396.2255767479692
 31
0.0
  0
CIRCLE
  5
92D
  8
DATA
  6
CONTINUOUS
 62
     7
 10
-1368.492
 20
-1851.838
 30
0.0
 40
192.5
  0
CIRCLE
  5
92E
  8
DATA
  6
CONTINUOUS
 62
     7
 10
-1368.492
 20
-1851.838
 30
0.0
 40
191.0
  0
CIRCLE
  5
92F
  8
DATA
  6
CONTINUOUS
 62
     7
 10
-1368.492
 20
-1851.838
 30
0.0
 40
177.5
  0
CIRCLE
  5
930
  8
DATA
  6
CONTINUOUS
 62
     7
 10
-1368.492
 20
-1851.838
 30
0.0
 40
172.0
  0
CIRCLE
  5
931
  8
DATA
  6
CONTINUOUS
 62
     7
 10
-1368.492
 20
-1851.838
 30
0.0
 40
162.0
  0
CIRCLE
  5
932
  8
DATA
  6
CONTINUOUS
 62
     7
 10
-1368.492
 20
-1851.838
 30
0.0
 40
153.0
  0
CIRCLE
  5
933
  8
DATA
  6
CONTINUOUS
 62
     7
 10
-1368.492
 20
-1851.838
 30
0.0
 40
55.0
  0
CIRCLE
  5
934
  8
DATA
  6
CONTINUOUS
 62
     7
 10
-1553.492
 20
-1851.838
 30
0.0
 40
4.0
  0
ARC
  5
935
  8
DATA
  6
CONTINUOUS
 62
     7
 10
-1554.4919999999991
 20
-1851.838
 30
0.0
 40
5.0
 50
270.0
 51
90.0
  0
LINE
  5
936
  8
DATA
  6
CONTINUOUS
 62
     7
 10
-1554.4919999999991
 20
-1856.8380000000011
 30
0.0
 11
-1559.4265437578019
 21
-1856.8380000000011
 31
0.0
  0
LINE
  5
937
  8
DATA
  6
CONTINUOUS
 62
     7
 10
-1555.9919999999991
 20
-1851.838
 30
0.0
 11
-1550.992
 21
-1851.838
 31
0.0
  0
LINE
  5
938
  8
DATA
  6
CONTINUOUS
 62
     7
 10
-1553.492
 20
-1854.338
 30
0.0
 11
-1553.492
 21
-1849.338
 31
0.0
  0
CIRCLE
  5
939
  8
DATA
  6
CONTINUOUS
 62
     7
 10
-1499.3067545195111
 20
-1721.0232454804891
 30
0.0
 40
4.0
  0
LINE
  5
93A
  8
DATA
  6
CONTINUOUS
 62
     7
 10
-1499.3067545195111
 20
-1723.523245480488
 30
0.0
 11
-1499.3067545195111
 21
-1718.523245480488
 31
0.0
  0
LINE
  5
93B
  8
DATA
  6
CONTINUOUS
 62
     7
 10
-1501.8067545195111
 20
-1721.0232454804891
 30
0.0
 11
-1496.8067545195111
 21
-1721.0232454804891
 31
0.0
  0
LINE
  5
93C
  8
DATA
  6
CONTINUOUS
 62
     7
 10
-1503.5493952066299
 20
-1723.8516726052351
 30
0.0
 11
-1507.038644559834
 21
-1720.3624232520301
 31
0.0
  0
ARC
  5
93D
  8
DATA
  6
CONTINUOUS
 62
     7
 10
-1500.013861300698
 20
-1720.316138699302
 30
0.0
 40
4.9999999999998792
 50
225.00000000000369
 51
45.000000000003681
  0
LINE
  5
93E
  8
DATA
  6
CONTINUOUS
 62
     7
 10
-1496.4783273947651
 20
-1716.7806047933691
 30
0.0
 11
-1499.9675767479689
 21
-1713.291355440165
 31
0.0
  0
LINE
  5
93F
  8
DATA
  6
CONTINUOUS
 62
     7
 10
-1554.492
 20
-1846.838
 30
0.0
 11
-1559.4265437578019
 21
-1846.838
 31
0.0
  0
CIRCLE
  5
940
  8
DATA
  6
CONTINUOUS
 62
     7
 10
-1368.492
 20
-1666.838
 30
0.0
 40
4.0
  0
LINE
  5
941
  8
DATA
  6
CONTINUOUS
 62
     7
 10
-1368.492
 20
-1664.3379999999991
 30
0.0
 11
-1368.492
 21
-1669.3379999999991
 31
0.0
  0
LINE
  5
942
  8
DATA
  6
CONTINUOUS
 62
     7
 10
-1370.992
 20
-1666.8379999999991
 30
0.0
 11
-1365.992
 21
-1666.8379999999991
 31
0.0
  0
LINE
  5
943
  8
DATA
  6
CONTINUOUS
 62
     7
 10
-1373.492
 20
-1665.838
 30
0.0
 11
-1373.492
 21
-1660.9034562421971
 31
0.0
  0
ARC
  5
944
  8
DATA
  6
CONTINUOUS
 62
     7
 10
-1368.492
 20
-1665.838
 30
0.0
 40
5.0
 50
180.0
 51
0.0
  0
LINE
  5
945
  8
DATA
  6
CONTINUOUS
 62
     7
 10
-1363.492
 20
-1665.838
 30
0.0
 11
-1363.492
 21
-1660.9034562421971
 31
0.0
  0
CIRCLE
  5
946
  8
DATA
  6
CONTINUOUS
 62
     7
 10
-1368.492
 20
-1851.838
 30
0.0
 40
140.0
  0
CIRCLE
  5
947
  8
DATA
  6
CONTINUOUS
 62
     7
 10
-1368.492
 20
-2036.838
 30
0.0
 40
4.0
  0
ARC
  5
948
  8
DATA
  6
CONTINUOUS
 62
     7
 10
-1368.4919999999991
 20
-2037.8379999999991
 30
0.0
 40
5.0
 50
0.0
 51
180.0
  0
LINE
  5
949
  8
DATA
  6
CONTINUOUS
 62
     7
 10
-1363.4919999999991
 20
-2037.8379999999991
 30
0.0
 11
-1363.4919999999991
 21
-2042.7725437578019
 31
0.0
  0
LINE
  5
94A
  8
DATA
  6
CONTINUOUS
 62
     7
 10
-1368.492
 20
-2039.3379999999991
 30
0.0
 11
-1368.492
 21
-2034.338
 31
0.0
  0
LINE
  5
94B
  8
DATA
  6
CONTINUOUS
 62
     7
 10
-1365.9919999999991
 20
-2036.838
 30
0.0
 11
-1370.9919999999991
 21
-2036.838
 31
0.0
  0
CIRCLE
  5
94C
  8
DATA
  6
CONTINUOUS
 62
     7
 10
-1499.3067545195111
 20
-1982.6527545195111
 30
0.0
 40
4.0
  0
LINE
  5
94D
  8
DATA
  6
CONTINUOUS
 62
     7
 10
-1496.8067545195111
 20
-1982.6527545195111
 30
0.0
 11
-1501.8067545195111
 21
-1982.6527545195111
 31
0.0
  0
LINE
  5
94E
  8
DATA
  6
CONTINUOUS
 62
     7
 10
-1499.3067545195111
 20
-1985.1527545195111
 30
0.0
 11
-1499.3067545195111
 21
-1980.1527545195111
 31
0.0
  0
LINE
  5
94F
  8
DATA
  6
CONTINUOUS
 62
     7
 10
-1496.4783273947639
 20
-1986.895395206629
 30
0.0
 11
-1499.9675767479689
 21
-1990.3846445598331
 31
0.0
  0
ARC
  5
950
  8
DATA
  6
CONTINUOUS
 62
     7
 10
-1500.013861300698
 20
-1983.359861300697
 30
0.0
 40
4.9999999999998792
 50
315.00000000000369
 51
135.00000000000369
  0
LINE
  5
951
  8
DATA
  6
CONTINUOUS
 62
     7
 10
-1503.5493952066311
 20
-1979.8243273947651
 30
0.0
 11
-1507.038644559834
 21
-1983.313576747968
 31
0.0
  0
LINE
  5
952
  8
DATA
  6
CONTINUOUS
 62
     7
 10
-1373.4919999999991
 20
-2037.838
 30
0.0
 11
-1373.4919999999991
 21
-2042.7725437578019
 31
0.0
  0
CIRCLE
  5
953
  8
DATA
  6
CONTINUOUS
 62
     7
 10
-1183.492
 20
-1851.838
 30
0.0
 40
4.0
  0
ARC
  5
954
  8
DATA
  6
CONTINUOUS
 62
     7
 10
-1182.4920000000011
 20
-1851.838
 30
0.0
 40
5.0
 50
90.0
 51
270.0
  0
LINE
  5
955
  8
DATA
  6
CONTINUOUS
 62
     7
 10
-1182.4920000000011
 20
-1856.8380000000011
 30
0.0
 11
-1177.557456242198
 21
-1856.8380000000011
 31
0.0
  0
LINE
  5
956
  8
DATA
  6
CONTINUOUS
 62
     7
 10
-1180.9920000000011
 20
-1851.838
 30
0.0
 11
-1185.992
 21
-1851.838
 31
0.0
  0
LINE
  5
957
  8
DATA
  6
CONTINUOUS
 62
     7
 10
-1183.492
 20
-1854.338
 30
0.0
 11
-1183.492
 21
-1849.338
 31
0.0
  0
CIRCLE
  5
958
  8
DATA
  6
CONTINUOUS
 62
     7
 10
-1237.677245480488
 20
-1721.0232454804891
 30
0.0
 40
4.0
  0
LINE
  5
959
  8
DATA
  6
CONTINUOUS
 62
     7
 10
-1237.677245480488
 20
-1723.523245480488
 30
0.0
 11
-1237.677245480488
 21
-1718.523245480488
 31
0.0
  0
LINE
  5
95A
  8
DATA
  6
CONTINUOUS
 62
     7
 10
-1235.1772454804891
 20
-1721.0232454804891
 30
0.0
 11
-1240.1772454804891
 21
-1721.0232454804891
 31
0.0
  0
LINE
  5
95B
  8
DATA
  6
CONTINUOUS
 62
     7
 10
-1233.43460479337
 20
-1723.8516726052351
 30
0.0
 11
-1229.9453554401659
 21
-1720.3624232520301
 31
0.0
  0
ARC
  5
95C
  8
DATA
  6
CONTINUOUS
 62
     7
 10
-1236.9701386993031
 20
-1720.316138699302
 30
0.0
 40
4.9999999999998792
 50
134.99999999999631
 51
314.99999999999619
  0
LINE
  5
95D
  8
DATA
  6
CONTINUOUS
 62
     7
 10
-1240.5056726052351
 20
-1716.7806047933691
 30
0.0
 11
-1237.016423252031
 21
-1713.291355440165
 31
0.0
  0
LINE
  5
95E
  8
DATA
  6
CONTINUOUS
 62
     7
 10
-1182.492
 20
-1846.838
 30
0.0
 11
-1177.557456242198
 21
-1846.838
 31
0.0
  0
CIRCLE
  5
95F
  8
DATA
  6
CONTINUOUS
 62
     7
 10
-1237.6772454804891
 20
-1982.6527545195111
 30
0.0
 40
4.0
  0
LINE
  5
960
  8
DATA
  6
CONTINUOUS
 62
     7
 10
-1240.1772454804891
 20
-1982.6527545195111
 30
0.0
 11
-1235.1772454804891
 21
-1982.6527545195111
 31
0.0
  0
LINE
  5
961
  8
DATA
  6
CONTINUOUS
 62
     7
 10
-1237.6772454804891
 20
-1985.1527545195111
 30
0.0
 11
-1237.6772454804891
 21
-1980.1527545195111
 31
0.0
  0
LINE
  5
962
  8
DATA
  6
CONTINUOUS
 62
     7
 10
-1240.505672605236
 20
-1986.895395206629
 30
0.0
 11
-1237.016423252031
 21
-1990.3846445598331
 31
0.0
  0
ARC
  5
963
  8
DATA
  6
CONTINUOUS
 62
     7
 10
-1236.970138699302
 20
-1983.359861300697
 30
0.0
 40
4.9999999999998792
 50
44.999999999996319
 51
224.99999999999631
  0
LINE
  5
964
  8
DATA
  6
CONTINUOUS
 62
     7
 10
-1233.4346047933691
 20
-1979.8243273947651
 30
0.0
 11
-1229.9453554401659
 21
-1983.313576747968
 31
0.0
  0
ENDSEC
  0
EOF
