  0
SECTION
  2
HEADER
  9
$ACADVER
  1
AC1009
  9
$INSBASE
 10
0.0
 20
0.0
 30
0.0
  9
$EXTMIN
 10
-3500.2197097989501
 20
-5217.3555983393917
 30
-0.0015258207003583
  9
$EXTMAX
 10
3700.219743326561
 20
5478.0668152803337
 30
0.0000000349246037
  9
$LIMMIN
 10
0.0
 20
0.0
  9
$LIMMAX
 10
0.0
 20
0.0
  9
$ORTHOMODE
 70
     0
  9
$REGENMODE
 70
     1
  9
$FILLMODE
 70
     1
  9
$QTEXTMODE
 70
     0
  9
$MIRRTEXT
 70
     1
  9
$DRAGMODE
 70
     2
  9
$LTSCALE
 40
203.19999999999999
  9
$OSMODE
 70
   167
  9
$ATTMODE
 70
     1
  9
$TEXTSIZE
 40
0.0
  9
$TRACEWID
 40
1.0
  9
$TEXTSTYLE
  7
STANDARD
  9
$CLAYER
  8
0
  9
$CELTYPE
  6
CONTINUOUS
  9
$CECOLOR
 62
   256
  9
$DIMSCALE
 40
1.0
  9
$DIMASZ
 40
0.18
  9
$DIMEXO
 40
0.0625
  9
$DIMDLI
 40
0.38
  9
$DIMRND
 40
0.0
  9
$DIMDLE
 40
0.0
  9
$DIMEXE
 40
0.18
  9
$DIMTP
 40
0.0
  9
$DIMTM
 40
0.0
  9
$DIMTXT
 40
0.18
  9
$DIMCEN
 40
0.09
  9
$DIMTSZ
 40
0.0
  9
$DIMTOL
 70
     0
  9
$DIMLIM
 70
     0
  9
$DIMTIH
 70
     1
  9
$DIMTOH
 70
     1
  9
$DIMSE1
 70
     0
  9
$DIMSE2
 70
     0
  9
$DIMTAD
 70
     0
  9
$DIMZIN
 70
     0
  9
$DIMBLK
  1

  9
$DIMASO
 70
     1
  9
$DIMSHO
 70
     1
  9
$DIMPOST
  1

  9
$DIMAPOST
  1

  9
$DIMALT
 70
     0
  9
$DIMALTD
 70
     2
  9
$DIMALTF
 40
25.399999999999999
  9
$DIMLFAC
 40
1.0
  9
$DIMTOFL
 70
     0
  9
$DIMTVP
 40
0.0
  9
$DIMTIX
 70
     0
  9
$DIMSOXD
 70
     0
  9
$DIMSAH
 70
     0
  9
$DIMBLK1
  1

  9
$DIMBLK2
  1

  9
$DIMSTYLE
  2
STANDARD
  9
$DIMCLRD
 70
     0
  9
$DIMCLRE
 70
     0
  9
$DIMCLRT
 70
     0
  9
$DIMTFAC
 40
1.0
  9
$DIMGAP
 40
0.09
  9
$LUNITS
 70
     2
  9
$LUPREC
 70
     4
  9
$SKETCHINC
 40
0.1
  9
$FILLETRAD
 40
0.0
  9
$AUNITS
 70
     0
  9
$AUPREC
 70
     0
  9
$MENU
  1
acad
  9
$ELEVATION
 40
0.0
  9
$PELEVATION
 40
0.0
  9
$THICKNESS
 40
0.0
  9
$LIMCHECK
 70
     0
  9
$BLIPMODE
 70
     0
  9
$CHAMFERA
 40
0.0
  9
$CHAMFERB
 40
0.0
  9
$SKPOLY
 70
     0
  9
$TDCREATE
 40
2452707.6140625002
  9
$TDUPDATE
 40
2452707.6144203702
  9
$TDINDWG
 40
0.0002828704
  9
$TDUSRTIMER
 40
0.0002828704
  9
$USRTIMER
 70
     1
  9
$ANGBASE
 50
0.0
  9
$ANGDIR
 70
     0
  9
$PDMODE
 70
     1
  9
$PDSIZE
 40
-2.0
  9
$PLINEWID
 40
0.0
  9
$COORDS
 70
     0
  9
$SPLFRAME
 70
     0
  9
$SPLINETYPE
 70
     6
  9
$SPLINESEGS
 70
     8
  9
$ATTDIA
 70
     0
  9
$ATTREQ
 70
     1
  9
$HANDLING
 70
     1
  9
$HANDSEED
  5
5BC
  9
$SURFTAB1
 70
     6
  9
$SURFTAB2
 70
     6
  9
$SURFTYPE
 70
     6
  9
$SURFU
 70
     6
  9
$SURFV
 70
     6
  9
$UCSNAME
  2

  9
$UCSORG
 10
0.0
 20
0.0
 30
0.0
  9
$UCSXDIR
 10
1.0
 20
0.0
 30
0.0
  9
$UCSYDIR
 10
0.0
 20
1.0
 30
0.0
  9
$PUCSNAME
  2

  9
$PUCSORG
 10
0.0
 20
0.0
 30
0.0
  9
$PUCSXDIR
 10
1.0
 20
0.0
 30
0.0
  9
$PUCSYDIR
 10
0.0
 20
1.0
 30
0.0
  9
$USERI1
 70
     0
  9
$USERI2
 70
     0
  9
$USERI3
 70
     0
  9
$USERI4
 70
     0
  9
$USERI5
 70
     0
  9
$USERR1
 40
0.0
  9
$USERR2
 40
0.0
  9
$USERR3
 40
0.0
  9
$USERR4
 40
0.0
  9
$USERR5
 40
0.0
  9
$WORLDVIEW
 70
     1
  9
$SHADEDGE
 70
     3
  9
$SHADEDIF
 70
    70
  9
$TILEMODE
 70
     1
  9
$MAXACTVP
 70
    16
  9
$PLIMCHECK
 70
     0
  9
$PEXTMIN
 10
1.0000000000000000E+020
 20
1.0000000000000000E+020
 30
1.0000000000000000E+020
  9
$PEXTMAX
 10
-1.0000000000000000E+020
 20
-1.0000000000000000E+020
 30
-1.0000000000000000E+020
  9
$PLIMMIN
 10
0.0
 20
0.0
  9
$PLIMMAX
 10
12.0
 20
9.0
  9
$UNITMODE
 70
     0
  9
$VISRETAIN
 70
     0
  9
$PLINEGEN
 70
     1
  9
$PSLTSCALE
 70
     0
  0
ENDSEC
  0
SECTION
  2
TABLES
  0
TABLE
  2
VPORT
 70
     2
  0
VPORT
  2
*ACTIVE
 70
     0
 10
0.0
 20
0.0
 11
1.0
 21
1.0
 12
100.00001676380541
 22
130.35560847047049
 13
0.0
 23
0.0
 14
1.0
 24
1.0
 15
0.0
 25
0.0
 16
0.0
 26
0.0
 36
1.0
 17
0.0
 27
0.0
 37
0.0
 40
10810.426955701651
 41
1.7037701974865349
 42
50.0
 43
0.0
 44
0.0
 50
0.0
 51
0.0
 71
     0
 72
   100
 73
     1
 74
     1
 75
     0
 76
     0
 77
     0
 78
     0
  0
ENDTAB
  0
TABLE
  2
LTYPE
 70
    12
  0
LTYPE
  2
CONTINUOUS
 70
     0
  3
Solid line
 72
    65
 73
     0
 40
0.0
  0
LTYPE
  2
STYLE_01
 70
     0
  3

 72
    65
 73
     2
 40
0.4166412353515625
 49
0.208282470703125
 49
-0.2083587646484375
  0
LTYPE
  2
STYLE_02
 70
     0
  3

 72
    65
 73
     2
 40
0.694427490234375
 49
0.4860687255859375
 49
-0.2083587646484375
  0
LTYPE
  2
STYLE_03
 70
     0
  3

 72
    65
 73
     2
 40
1.25
 49
1.0416412353515621
 49
-0.2083587646484375
  0
LTYPE
  2
STYLE_04
 70
     0
  3

 72
    65
 73
     2
 40
1.5277099609375
 49
1.319427490234375
 49
-0.208282470703125
  0
LTYPE
  2
STYLE_05
 70
     0
  3

 72
    65
 73
     2
 40
0.208282470703125
 49
0.069427490234375
 49
-0.13885498046875
  0
LTYPE
  2
STYLE_06
 70
     0
  3

 72
    65
 73
     4
 40
1.0416412353515621
 49
0.625
 49
-0.208282470703125
 49
0.069427490234375
 49
-0.1389312744140625
  0
LTYPE
  2
STYLE_07
 70
     0
  3

 72
    65
 73
     6
 40
1.875
 49
0.625
 49
-0.208282470703125
 49
0.625
 49
-0.2083587646484375
 49
0.069427490234375
 49
-0.1389312744140625
  0
LTYPE
  2
STYLE_08
 70
     0
  3

 72
    65
 73
     6
 40
1.25
 49
0.625
 49
-0.208282470703125
 49
0.069427490234375
 49
-0.1389312744140625
 49
0.069427490234375
 49
-0.1389312744140625
  0
LTYPE
  2
STYLE_09
 70
     0
  3

 72
    65
 73
     4
 40
5.0
 49
3.75
 49
-0.2777862548828125
 49
0.694427490234375
 49
-0.2777862548828125
  0
LTYPE
  2
STYLE_10
 70
     0
  3

 72
    65
 73
     6
 40
5.9375
 49
3.75
 49
-0.2777862548828125
 49
0.694427490234375
 49
-0.2777862548828125
 49
0.625
 49
-0.3125
  0
LTYPE
  2
STYLE_11
 70
     0
  3

 72
    65
 73
     2
 40
0.375
 49
0.25
 49
-0.125
  0
ENDTAB
  0
TABLE
  2
LAYER
 70
     5
  0
LAYER
  2
0
 70
     0
 62
     7
  6
CONTINUOUS
  0
LAYER
  2
HIBINO-BASE
 70
     0
 62
     7
  6
CONTINUOUS
  0
LAYER
  2
SPEC
 70
     0
 62
     7
  6
CONTINUOUS
  0
LAYER
  2
DIMNSIONS
 70
     0
 62
     7
  6
CONTINUOUS
  0
LAYER
  2
DATA
 70
     0
 62
     7
  6
CONTINUOUS
  0
ENDTAB
  0
TABLE
  2
STYLE
 70
     2
  0
STYLE
  2
STANDARD
 70
     0
 40
0.0
 41
1.0
 50
0.0
 71
     0
 42
0.0
  3
txt
  4
BIGFONT.SHX
  0
ENDTAB
  0
TABLE
  2
VIEW
 70
     0
  0
ENDTAB
  0
TABLE
  2
UCS
 70
     0
  0
ENDTAB
  0
TABLE
  2
APPID
 70
     1
  0
APPID
  2
ACAD
 70
     0
  0
ENDTAB
  0
TABLE
  2
DIMSTYLE
 70
     1
  0
DIMSTYLE
  2
STANDARD
 70
     0
  3

  4

  5

  6

  7

 40
1.0
 41
0.18
 42
0.0625
 43
0.38
 44
0.18
 45
0.0
 46
0.0
 47
0.0
 48
0.0
140
0.18
141
0.09
142
0.0
143
25.399999999999999
144
1.0
145
0.0
146
1.0
147
0.09
 71
     0
 72
     0
 73
     1
 74
     1
 75
     0
 76
     0
 77
     0
 78
     0
170
     0
171
     2
172
     0
173
     0
174
     0
175
     0
176
     0
177
     0
178
     0
  0
ENDTAB
  0
ENDSEC
  0
SECTION
  2
BLOCKS
  0
BLOCK
  8
0
  2
$MODEL_SPACE
 70
     0
 10
0.0
 20
0.0
 30
0.0
  3
$MODEL_SPACE
  1

  0
ENDBLK
  5
59D
  8
0
  0
BLOCK
 67
     1
  8
0
  2
$PAPER_SPACE
 70
     0
 10
0.0
 20
0.0
 30
0.0
  3
$PAPER_SPACE
  1

  0
ENDBLK
  5
599
 67
     1
  8
0
  0
ENDSEC
  0
SECTION
  2
ENTITIES
  0
LINE
  5
2D
  8
HIBINO-BASE
  6
CONTINUOUS
 62
     7
 10
-3499.9999999999991
 20
5477.740785
 30
0.0
 11
3700.0
 21
5477.740785
 31
0.0
  0
LINE
  5
2E
  8
HIBINO-BASE
  6
CONTINUOUS
 62
     7
 10
3700.0
 20
-4922.259215
 30
0.0
 11
-3499.9999999999991
 21
-4922.259215
 31
0.0
  0
LINE
  5
2F
  8
HIBINO-BASE
  6
CONTINUOUS
 62
     7
 10
-3499.9999999999991
 20
-4922.259215
 30
0.0
 11
-3499.9999999999991
 21
5477.740785
 31
0.0
  0
TEXT
  5
30
  8
HIBINO-BASE
 62
     7
 10
-3212.639999999999
 20
-5167.3785749999979
 30
0.0
 40
149.70335999999989
  1
Hibino Corporation
 41
0.85
 11
-3212.639999999999
 21
-5017.6752149999984
 31
0.0
 73
     3
  0
LINE
  5
31
  8
HIBINO-BASE
  6
CONTINUOUS
 62
     7
 10
3700.0
 20
5477.740785
 30
0.0
 11
3700.0
 21
-4922.259215
 31
0.0
  0
LINE
  5
32
  8
HIBINO-BASE
  6
CONTINUOUS
 62
     7
 10
50.000000000000561
 20
-4022.259215
 30
0.0
 11
3700.0
 21
-4022.259215
 31
0.0
  0
TEXT
  5
33
  8
HIBINO-BASE
 62
     7
 10
2102.7355999999991
 20
-5167.3785749999979
 30
0.0
 40
149.70335999999989
  1
ヒビノ株式会社
 41
0.85
 11
2102.7355999999991
 21
-5017.6752149999984
 31
0.0
 73
     3
  0
LINE
  5
34
  8
HIBINO-BASE
  6
CONTINUOUS
 62
     7
 10
50.000000000000561
 20
-4522.259215
 30
0.0
 11
3700.0
 21
-4522.259215
 31
0.0
  0
TEXT
  5
35
  8
HIBINO-BASE
 62
     7
 10
2036.0
 20
-4615.274148333333
 30
0.0
 40
67.733333333333334
  1
DRAWN
 41
0.85
 11
2036.0
 21
-4547.5408150000003
 31
0.0
 73
     3
  0
TEXT
  5
36
  8
HIBINO-BASE
 62
     7
 10
3035.9999999999991
 20
-4615.274148333333
 30
0.0
 40
67.733333333333334
  1
DRAWING NO.
 41
0.85
 11
3035.9999999999991
 21
-4547.5408150000003
 31
0.0
 73
     3
  0
TEXT
  5
37
  8
HIBINO-BASE
 62
     7
 10
2535.9999999999991
 20
-4615.274148333333
 30
0.0
 40
67.733333333333334
  1
CHECK
 41
0.85
 11
2535.9999999999991
 21
-4547.5408150000003
 31
0.0
 73
     3
  0
LINE
  5
38
  8
HIBINO-BASE
  6
CONTINUOUS
 62
     7
 10
2000.0
 20
-4522.259215
 30
0.0
 11
2000.0
 21
-4922.259215
 31
0.0
  0
LINE
  5
39
  8
HIBINO-BASE
  6
CONTINUOUS
 62
     7
 10
3000.0
 20
-4522.259215
 30
0.0
 11
3000.0
 21
-4922.259215
 31
0.0
  0
LINE
  5
3A
  8
HIBINO-BASE
  6
CONTINUOUS
 62
     7
 10
2500.0
 20
-4922.259215
 30
0.0
 11
2500.0
 21
-4522.259215
 31
0.0
  0
TEXT
  5
3B
  8
HIBINO-BASE
 62
     7
 10
2060.2324004413849
 20
-4802.6333483333328
 30
0.0
 40
67.733333333333334
  1
N.Sasaki
 41
0.85
 11
2060.2324004413849
 21
-4734.9000150000002
 31
0.0
 73
     3
  0
TEXT
  5
3C
  8
HIBINO-BASE
 62
     7
 10
255.33333333333391
 20
-4833.0592150000002
 30
0.0
 40
135.46666666666661
  1
A4
 41
0.85
 11
255.33333333333391
 21
-4697.592548333334
 31
0.0
 73
     3
  0
TEXT
  5
3D
  8
HIBINO-BASE
 62
     7
 10
1086.0
 20
-4615.274148333333
 30
0.0
 40
67.733333333333334
  1
DATE
 41
0.85
 11
1086.0
 21
-4547.5408150000003
 31
0.0
 73
     3
  0
TEXT
  5
3E
  8
HIBINO-BASE
 62
     7
 10
686.00000000000045
 20
-4615.274148333333
 30
0.0
 40
67.733333333333334
  1
SCALE
 41
0.85
 11
686.00000000000045
 21
-4547.5408150000003
 31
0.0
 73
     3
  0
LINE
  5
3F
  8
HIBINO-BASE
  6
CONTINUOUS
 62
     7
 10
725.00000000000034
 20
-4872.259215
 30
0.0
 11
875.00000000000045
 21
-4722.259215
 31
0.0
  0
TEXT
  5
40
  8
HIBINO-BASE
 62
     7
 10
700.00000000000045
 20
-4761.5369483333334
 30
0.0
 40
67.733333333333334
  1
1
 41
0.85
 11
700.00000000000045
 21
-4693.8036149999998
 31
0.0
 73
     3
  0
LINE
  5
41
  8
HIBINO-BASE
  6
CONTINUOUS
 62
     7
 10
650.00000000000057
 20
-4922.259215
 30
0.0
 11
650.00000000000057
 21
-4522.259215
 31
0.0
  0
LINE
  5
42
  8
HIBINO-BASE
  6
CONTINUOUS
 62
     7
 10
1050.0
 20
-4922.259215
 30
0.0
 11
1050.0
 21
-4522.259215
 31
0.0
  0
TEXT
  5
43
  8
HIBINO-BASE
 62
     7
 10
1067.880027770175
 20
-4734.3767973757258
 30
0.0
 40
67.733333333333334
  1
'00.01.
 41
0.85
 11
1067.880027770175
 21
-4666.6434640423922
 31
0.0
 73
     3
  0
TEXT
  5
44
  8
HIBINO-BASE
 62
     7
 10
850.00000000000045
 20
-4836.5369483333334
 30
0.0
 40
67.733333333333334
  1
40
 41
0.85
 11
850.00000000000045
 21
-4768.8036149999998
 31
0.0
 73
     3
  0
LINE
  5
45
  8
HIBINO-BASE
  6
CONTINUOUS
 62
     7
 10
1550.0
 20
-4922.259215
 30
0.0
 11
1550.0
 21
-4022.259215
 31
0.0
  0
TEXT
  5
46
  8
HIBINO-BASE
 62
     7
 10
1586.0
 20
-4117.526948333335
 30
0.0
 40
67.733333333333334
  1
TITLE
 41
0.85
 11
1586.0
 21
-4049.793615000001
 31
0.0
 73
     3
  0
TEXT
  5
47
  8
HIBINO-BASE
 62
     7
 10
1586.0
 20
-4615.274148333333
 30
0.0
 40
67.733333333333334
  1
DESIGN
 41
0.85
 11
1586.0
 21
-4547.5408150000003
 31
0.0
 73
     3
  0
LINE
  5
48
  8
HIBINO-BASE
  6
CONTINUOUS
 62
     7
 10
50.000000000000561
 20
-4922.259215
 30
0.0
 11
50.000000000000561
 21
-4022.259215
 31
0.0
  0
TEXT
  5
49
  8
HIBINO-BASE
 62
     7
 10
86.000000000000554
 20
-4117.526948333335
 30
0.0
 40
67.733333333333334
  1
NOTE
 41
0.85
 11
86.000000000000554
 21
-4049.793615000001
 31
0.0
 73
     3
  0
TEXT
  5
4A
  8
HIBINO-BASE
 62
     7
 10
88.333333333333968
 20
-4621.9574149999989
 30
0.0
 40
67.733333333333334
  1
PAPER SIZE
 41
0.85
 11
88.333333333333968
 21
-4554.2240816666663
 31
0.0
 73
     3
  0
TEXT
  5
4B
  8
HIBINO-BASE
 62
     7
 10
1067.880027770175
 20
-4861.1510521139326
 30
0.0
 40
67.733333333333334
  1
'03.03.修正
 41
0.85
 11
1067.880027770175
 21
-4793.417718780599
 31
0.0
 73
     3
  0
LINE
  5
4C
  8
SPEC
  6
CONTINUOUS
 62
     7
 10
-3199.9999999999991
 20
5077.7407849999991
 30
0.0
 11
2700.0
 21
5077.7407849999991
 31
0.0
  0
LINE
  5
4D
  8
SPEC
  6
CONTINUOUS
 62
     7
 10
-3199.9999999999991
 20
4927.7407849999991
 30
0.0
 11
2700.0
 21
4927.7407849999991
 31
0.0
  0
LINE
  5
4E
  8
SPEC
  6
CONTINUOUS
 62
     7
 10
-3199.9999999999991
 20
4627.7407849999991
 30
0.0
 11
2700.0
 21
4627.7407849999991
 31
0.0
  0
LINE
  5
4F
  8
SPEC
  6
CONTINUOUS
 62
     7
 10
-3199.9999999999991
 20
4777.7407849999981
 30
0.0
 11
2700.0
 21
4777.7407849999981
 31
0.0
  0
LINE
  5
50
  8
SPEC
  6
CONTINUOUS
 62
     7
 10
-3199.9999999999991
 20
5077.7407849999991
 30
0.0
 11
-3199.9999999999991
 21
2077.7392150000001
 31
0.0
  0
TEXT
  5
51
  8
SPEC
 62
     7
 10
-3149.9999999999991
 20
5141.0915849999992
 30
0.0
 40
101.59999999999999
  1
仕様
 41
0.85
 11
-3149.9999999999991
 21
5242.6915849999996
 31
0.0
 73
     3
  0
LINE
  5
52
  8
SPEC
  6
CONTINUOUS
 62
     7
 10
-1900.0
 20
5077.7407849999991
 30
0.0
 11
-1900.0
 21
2077.7407849999991
 31
0.0
  0
LINE
  5
53
  8
SPEC
  6
CONTINUOUS
 62
     7
 10
2700.0
 20
5077.7407849999991
 30
0.0
 11
2700.0
 21
2077.7392150000001
 31
0.0
  0
LINE
  5
54
  8
SPEC
  6
CONTINUOUS
 62
     7
 10
-3199.9999999999982
 20
4477.740785
 30
0.0
 11
2700.0
 21
4477.740785
 31
0.0
  0
LINE
  5
55
  8
SPEC
  6
CONTINUOUS
 62
     7
 10
1100.0
 20
4027.7399999999998
 30
0.0
 11
1100.0
 21
4477.740785
 31
0.0
  0
TEXT
  5
56
  8
SPEC
 62
     7
 10
-1864.0
 20
4965.1843405555564
 30
0.0
 40
79.022222222222226
  1
2WAY映画用スピーカシステム(Cinema Loudspeaker Systems)
 41
0.85
 11
-1864.0
 21
5044.2065627777774
 31
0.0
 73
     3
  0
TEXT
  5
57
  8
SPEC
 62
     7
 10
-3164.0
 20
4965.1843405555564
 30
0.0
 40
79.022222222222226
  1
形式
 41
0.85
 11
-3164.0
 21
5044.2065627777774
 31
0.0
 73
     3
  0
TEXT
  5
58
  8
SPEC
 62
     7
 10
-3164.0
 20
4665.1843405555546
 30
0.0
 40
79.022222222222226
  1
周波数特性 (±3dB)
 41
0.85
 11
-3164.0
 21
4744.2065627777774
 31
0.0
 73
     3
  0
TEXT
  5
59
  8
SPEC
 62
     7
 10
-3164.0
 20
4815.1843405555546
 30
0.0
 40
79.022222222222226
  1
周波数レンジ (-10dB)
 41
0.85
 11
-3164.0
 21
4894.2065627777774
 31
0.0
 73
     3
  0
TEXT
  5
5A
  8
SPEC
 62
     7
 10
-3164.0
 20
4515.1843405555546
 30
0.0
 40
79.022222222222226
  1
公称カバレージ
 41
0.85
 11
-3164.0
 21
4594.2065627777774
 31
0.0
 73
     3
  0
TEXT
  5
5B
  8
SPEC
 62
     7
 10
-3164.0
 20
4365.1843405555546
 30
0.0
 40
79.022222222222226
  1
低域ユニット
 41
0.85
 11
-3164.0
 21
4444.2065627777774
 31
0.0
 73
     3
  0
TEXT
  5
5C
  8
SPEC
 62
     7
 10
-1864.0
 20
4365.1843405555546
 30
0.0
 40
79.022222222222226
  1
4675C-4LF:2226H×2 (口径:15インチ)
 41
0.85
 11
-1864.0
 21
4444.2065627777774
 31
0.0
 73
     3
  0
TEXT
  5
5D
  8
SPEC
 62
     7
 10
-1864.0
 20
4515.1843405555546
 30
0.0
 40
79.022222222222226
  1
90゜×40゜
 41
0.85
 11
-1864.0
 21
4594.2065627777774
 31
0.0
 73
     3
  0
TEXT
  5
5E
  8
SPEC
 62
     7
 10
-1864.0
 20
4815.1843405555546
 30
0.0
 40
79.022222222222226
  1
35Hz～20kHz
 41
0.85
 11
-1864.0
 21
4894.2065627777774
 31
0.0
 73
     3
  0
TEXT
  5
5F
  8
SPEC
 62
     7
 10
-1864.0
 20
4665.1843405555546
 30
0.0
 40
79.022222222222226
  1
40Hz～12kHz
 41
0.85
 11
-1864.0
 21
4744.2065627777774
 31
0.0
 73
     3
  0
TEXT
  5
60
  8
SPEC
 62
     7
 10
1136.0
 20
4365.1843405555546
 30
0.0
 40
79.022222222222226
  1
振動板交換パーツ:C8R2226
 41
0.85
 11
1136.0
 21
4444.2065627777774
 31
0.0
 73
     3
  0
LINE
  5
61
  8
SPEC
  6
CONTINUOUS
 62
     7
 10
-3199.9999999999982
 20
3577.7399999999998
 30
0.0
 11
2700.0
 21
3577.7399999999998
 31
0.0
  0
LINE
  5
62
  8
SPEC
  6
CONTINUOUS
 62
     7
 10
-3199.9999999999982
 20
3427.7399999999998
 30
0.0
 11
2700.0
 21
3427.7399999999998
 31
0.0
  0
LINE
  5
63
  8
SPEC
  6
CONTINUOUS
 62
     7
 10
-3199.9999999999982
 20
3127.7399999999998
 30
0.0
 11
2700.0
 21
3127.7399999999998
 31
0.0
  0
LINE
  5
64
  8
SPEC
  6
CONTINUOUS
 62
     7
 10
-3199.9999999999982
 20
2827.7400000000011
 30
0.0
 11
2700.0
 21
2827.7400000000011
 31
0.0
  0
LINE
  5
65
  8
SPEC
  6
CONTINUOUS
 62
     7
 10
-3199.9999999999982
 20
2677.7399999999998
 30
0.0
 11
2700.0
 21
2677.7399999999998
 31
0.0
  0
LINE
  5
66
  8
SPEC
  6
CONTINUOUS
 62
     7
 10
-3199.9999999999982
 20
4027.7399999999998
 30
0.0
 11
2700.0
 21
4027.7399999999998
 31
0.0
  0
LINE
  5
67
  8
SPEC
  6
CONTINUOUS
 62
     7
 10
-3199.9999999999982
 20
4177.7399999999998
 30
0.0
 11
2700.0
 21
4177.7399999999998
 31
0.0
  0
LINE
  5
68
  8
SPEC
  6
CONTINUOUS
 62
     7
 10
-3199.9999999999982
 20
3877.7399999999998
 30
0.0
 11
2700.0
 21
3877.7399999999998
 31
0.0
  0
LINE
  5
69
  8
SPEC
  6
CONTINUOUS
 62
     7
 10
-3199.9999999999982
 20
2977.7399999999998
 30
0.0
 11
2700.0
 21
2977.7399999999998
 31
0.0
  0
TEXT
  5
6A
  8
SPEC
 62
     7
 10
-1863.9999999999991
 20
2715.1835555555549
 30
0.0
 40
79.022222222222226
  1
SPユニットは低域は前面側で、高域は裏面側で交換
 41
0.85
 11
-1863.9999999999991
 21
2794.2057777777768
 31
0.0
 73
     3
  0
TEXT
  5
6B
  8
SPEC
 62
     7
 10
-3164.0
 20
2565.1835555555549
 30
0.0
 40
79.022222222222226
  1
コネクター
 41
0.85
 11
-3164.0
 21
2644.2057777777768
 31
0.0
 73
     3
  0
TEXT
  5
6C
  8
SPEC
 62
     7
 10
-3164.0
 20
2715.1835555555549
 30
0.0
 40
79.022222222222226
  1
メンテナンス
 41
0.85
 11
-3164.0
 21
2794.2057777777768
 31
0.0
 73
     3
  0
TEXT
  5
6D
  8
SPEC
 62
     7
 10
-3164.0
 20
2865.1835555555549
 30
0.0
 40
79.022222222222226
  1
極性
 41
0.85
 11
-3164.0
 21
2944.2057777777768
 31
0.0
 73
     3
  0
TEXT
  5
6E
  8
SPEC
 62
     7
 10
-3164.0
 20
3915.1835555555549
 30
0.0
 40
79.022222222222226
  1
音圧レベル (1W/1m)
 41
0.85
 11
-3164.0
 21
3994.2057777777768
 31
0.0
 73
     3
  0
TEXT
  5
6F
  8
SPEC
 62
     7
 10
-3164.0
 20
4065.1835555555549
 30
0.0
 40
79.022222222222226
  1
高域ユニット
 41
0.85
 11
-3164.0
 21
4144.2057777777773
 31
0.0
 73
     3
  0
TEXT
  5
70
  8
SPEC
 62
     7
 10
-3164.0
 20
3765.1835555555549
 30
0.0
 40
79.022222222222226
  1
公称インピーダンス
 41
0.85
 11
-3164.0
 21
3844.2057777777768
 31
0.0
 73
     3
  0
TEXT
  5
71
  8
SPEC
 62
     7
 10
-3164.0
 20
3465.1835555555549
 30
0.0
 40
79.022222222222226
  1
許容入力
 41
0.85
 11
-3164.0
 21
3544.2057777777782
 31
0.0
 73
     3
  0
TEXT
  5
72
  8
SPEC
 62
     7
 10
-3164.0
 20
3315.1835555555549
 30
0.0
 40
79.022222222222226
  1
クロスオーバー
 41
0.85
 11
-3164.0
 21
3394.2057777777768
 31
0.0
 73
     3
  0
TEXT
  5
73
  8
SPEC
 62
     7
 10
-3164.0
 20
3015.1835555555549
 30
0.0
 40
79.022222222222226
  1
仕上げ
 41
0.85
 11
-3164.0
 21
3094.2057777777768
 31
0.0
 73
     3
  0
TEXT
  5
74
  8
SPEC
 62
     7
 10
-1863.9999999999991
 20
2865.1835555555549
 30
0.0
 40
79.022222222222226
  1
正相(低域),正相(高域)
 41
0.85
 11
-1863.9999999999991
 21
2944.2057777777768
 31
0.0
 73
     3
  0
TEXT
  5
75
  8
SPEC
 62
     7
 10
-1863.9999999999991
 20
3185.1835555555549
 30
0.0
 40
79.022222222222226
  1
(推奨コントローラ:DSC260,DSC280)
 41
0.85
 11
-1863.9999999999991
 21
3264.2057777777768
 31
0.0
 73
     3
  0
TEXT
  5
76
  8
SPEC
 62
     7
 10
-1863.9999999999991
 20
4065.1835555555549
 30
0.0
 40
79.022222222222226
  1
2446H(ダイアフラム径:4インチ)
 41
0.85
 11
-1863.9999999999991
 21
4144.2057777777773
 31
0.0
 73
     3
  0
TEXT
  5
77
  8
SPEC
 62
     7
 10
-1863.9999999999991
 20
3765.1835555555549
 30
0.0
 40
79.022222222222226
  1
4675C-4LF:4Ω(低域),8Ω(高域)
 41
0.85
 11
-1863.9999999999991
 21
3844.2057777777768
 31
0.0
 73
     3
  0
TEXT
  5
78
  8
SPEC
 62
     7
 10
-1863.9999999999991
 20
3635.1835555555549
 30
0.0
 40
79.022222222222226
  1
4675C-8LF:8Ω(低域),8Ω(高域)
 41
0.85
 11
-1863.9999999999991
 21
3714.2057777777768
 31
0.0
 73
     3
  0
TEXT
  5
79
  8
SPEC
 62
     7
 10
-1863.9999999999991
 20
3465.1835555555549
 30
0.0
 40
79.022222222222226
  1
(AES):1200W(低域),100W(高域)
 41
0.85
 11
-1863.9999999999991
 21
3544.2057777777782
 31
0.0
 73
     3
  0
TEXT
  5
7A
  8
SPEC
 62
     7
 10
-1863.9999999999991
 20
3915.1835555555549
 30
0.0
 40
79.022222222222226
  1
100dB SPL(低域),113dB SPL(高域)
 41
0.85
 11
-1863.9999999999991
 21
3994.2057777777768
 31
0.0
 73
     3
  0
TEXT
  5
7B
  8
SPEC
 62
     7
 10
-1863.9999999999991
 20
3015.1835555555549
 30
0.0
 40
79.022222222222226
  1
黒
 41
0.85
 11
-1863.9999999999991
 21
3094.2057777777768
 31
0.0
 73
     3
  0
TEXT
  5
7C
  8
SPEC
 62
     7
 10
-1863.9999999999991
 20
3315.1835555555549
 30
0.0
 40
79.022222222222226
  1
コントローラー:500Hz～630Hz
 41
0.85
 11
-1863.9999999999991
 21
3394.2057777777768
 31
0.0
 73
     3
  0
TEXT
  5
7D
  8
SPEC
 62
     7
 10
1136.0
 20
4065.1835555555549
 30
0.0
 40
79.022222222222226
  1
振動板交換パーツ:D8R2450
 41
0.85
 11
1136.0
 21
4144.2057777777773
 31
0.0
 73
     3
  0
LINE
  5
7E
  8
SPEC
  6
CONTINUOUS
 62
     7
 10
-3199.9999999999982
 20
2227.7392150000001
 30
0.0
 11
2700.0
 21
2227.7392150000001
 31
0.0
  0
LINE
  5
7F
  8
SPEC
  6
CONTINUOUS
 62
     7
 10
-3199.9999999999982
 20
2377.7392150000001
 30
0.0
 11
2700.0
 21
2377.7392150000001
 31
0.0
  0
TEXT
  5
80
  8
SPEC
 62
     7
 10
-3164.0
 20
2115.1827705555538
 30
0.0
 40
79.022222222222226
  1
重量
 41
0.85
 11
-3164.0
 21
2194.2049927777762
 31
0.0
 73
     3
  0
TEXT
  5
81
  8
SPEC
 62
     7
 10
-3164.0
 20
2265.1827705555538
 30
0.0
 40
79.022222222222226
  1
寸法
 41
0.85
 11
-3164.0
 21
2344.2049927777771
 31
0.0
 73
     3
  0
TEXT
  5
82
  8
SPEC
 62
     7
 10
-1863.9999999999991
 20
2265.1827705555538
 30
0.0
 40
79.022222222222226
  1
796(W)×1790(H)×948(D)mm
 41
0.85
 11
-1863.9999999999991
 21
2344.2049927777771
 31
0.0
 73
     3
  0
TEXT
  5
83
  8
SPEC
 62
     7
 10
-1863.9999999999991
 20
2115.1827705555538
 30
0.0
 40
79.022222222222226
  1
約110kg
 41
0.85
 11
-1863.9999999999991
 21
2194.2049927777762
 31
0.0
 73
     3
  0
LINE
  5
84
  8
SPEC
  6
CONTINUOUS
 62
     7
 10
-3199.9999999999991
 20
2077.7392150000001
 30
0.0
 11
2700.0
 21
2077.7392150000001
 31
0.0
  0
TEXT
  5
85
  8
SPEC
 62
     7
 10
-1863.9999999999991
 20
2435.1835555555549
 30
0.0
 40
79.022222222222226
  1
低域:ネジ式タ ーミナル
 41
0.85
 11
-1863.9999999999991
 21
2514.2057777777768
 31
0.0
 73
     3
  0
TEXT
  5
86
  8
SPEC
 62
     7
 10
-1863.9999999999991
 20
2565.1835555555549
 30
0.0
 40
79.022222222222226
  1
高域:プッシュ式タ ーミナル
 41
0.85
 11
-1863.9999999999991
 21
2644.2057777777768
 31
0.0
 73
     3
  0
LINE
  5
87
  8
SPEC
  6
CONTINUOUS
 62
     7
 10
-1900.0
 20
4327.7399999999998
 30
0.0
 11
2700.0
 21
4327.7399999999998
 31
0.0
  0
TEXT
  5
88
  8
SPEC
 62
     7
 10
-1864.0
 20
4215.1877777777781
 30
0.0
 40
79.022222222222226
  1
4675C-8LF:2226J×2 (口径:15インチ)
 41
0.85
 11
-1864.0
 21
4294.21
 31
0.0
 73
     3
  0
TEXT
  5
89
  8
SPEC
 62
     7
 10
1136.0
 20
4215.1877777777781
 30
0.0
 40
79.022222222222226
  1
振動板交換パーツ:C16R2226
 41
0.85
 11
1136.0
 21
4294.21
 31
0.0
 73
     3
  0
TEXT
  5
8A
  8
DIMNSIONS
 62
     7
 10
-700.0
 20
-4423.8596150000003
 30
0.0
 40
101.59999999999999
  1
(単位：mm)
 41
0.85
 11
-700.0
 21
-4322.2596149999999
 31
0.0
 73
     3
  0
LINE
  5
8B
  8
DIMNSIONS
  6
CONTINUOUS
 62
     7
 10
-2080.0
 20
-2008.384
 30
0.0
 11
-2455.0
 21
-2008.384
 31
0.0
  0
LINE
  5
8C
  8
DIMNSIONS
  6
CONTINUOUS
 62
     7
 10
-2080.0
 20
-3000.0
 30
0.0
 11
-2455.0
 21
-3000.0
 31
0.0
  0
LINE
  5
8E
  8
DIMNSIONS
 62
     7
 10
-2375.0
 20
-2008.384
 30
0.0
 11
-2348.19840819399
 21
-2108.40890234375
 31
0.0
  0
LINE
  5
8F
  8
DIMNSIONS
 62
     7
 10
-2375.0
 20
-2008.384
 30
0.0
 11
-2401.8015918060091
 21
-2108.40890234375
 31
0.0
  0
LINE
  5
90
  8
DIMNSIONS
 62
     7
 10
-2375.0
 20
-3000.0
 30
0.0
 11
-2401.8015918060091
 21
-2899.97509765625
 31
0.0
  0
LINE
  5
91
  8
DIMNSIONS
 62
     7
 10
-2375.0
 20
-3000.0
 30
0.0
 11
-2348.19840819399
 21
-2899.97509765625
 31
0.0
  0
LINE
  5
8D
  8
DIMNSIONS
  6
CONTINUOUS
 62
     7
 10
-2375.0
 20
-2008.384
 30
0.0
 11
-2375.0
 21
-3000.0
 31
0.0
  0
TEXT
  5
92
  8
DIMNSIONS
 62
     7
 10
-2423.2222222222222
 20
-2610.025333333333
 30
0.0
 40
112.8888888888889
  1
992
 50
90.0
 41
0.85
 11
-2536.1111111111109
 21
-2610.025333333333
 31
0.0
 73
     3
  0
LINE
  5
93
  8
DIMNSIONS
  6
CONTINUOUS
 62
     7
 10
-2120.0
 20
-3000.0
 30
0.0
 11
-2642.5
 21
-3000.0
 31
0.0
  0
LINE
  5
94
  8
DIMNSIONS
  6
CONTINUOUS
 62
     7
 10
-2152.8879999999999
 20
-1605.3839999999971
 30
0.0
 11
-2642.5
 21
-1605.3839999999971
 31
0.0
  0
LINE
  5
96
  8
DIMNSIONS
 62
     7
 10
-2562.5
 20
-3000.0
 30
0.0
 11
-2589.3015918060091
 21
-2899.97509765625
 31
0.0
  0
LINE
  5
97
  8
DIMNSIONS
 62
     7
 10
-2562.5
 20
-3000.0
 30
0.0
 11
-2535.69840819399
 21
-2899.97509765625
 31
0.0
  0
LINE
  5
98
  8
DIMNSIONS
 62
     7
 10
-2562.5
 20
-1605.3839999999971
 30
0.0
 11
-2535.69840819399
 21
-1705.4089023437471
 31
0.0
  0
LINE
  5
99
  8
DIMNSIONS
 62
     7
 10
-2562.5
 20
-1605.3839999999971
 30
0.0
 11
-2589.3015918060091
 21
-1705.4089023437471
 31
0.0
  0
LINE
  5
95
  8
DIMNSIONS
  6
CONTINUOUS
 62
     7
 10
-2562.5
 20
-3000.0
 30
0.0
 11
-2562.5
 21
-1605.3839999999971
 31
0.0
  0
TEXT
  5
9A
  8
DIMNSIONS
 62
     7
 10
-2610.7222222222222
 20
-2584.9142222222208
 30
0.0
 40
112.8888888888889
  1
1395(HF)
 50
90.0
 41
0.85
 11
-2723.6111111111109
 21
-2584.9142222222208
 31
0.0
 73
     3
  0
LINE
  5
9B
  8
DIMNSIONS
  6
CONTINUOUS
 62
     7
 10
-2152.8879999999999
 20
-1210.3839999999971
 30
0.0
 11
-2830.0
 21
-1210.3839999999971
 31
0.0
  0
LINE
  5
9C
  8
DIMNSIONS
  6
CONTINUOUS
 62
     7
 10
-2080.0
 20
-3000.0
 30
0.0
 11
-2830.0
 21
-3000.0
 31
0.0
  0
LINE
  5
9E
  8
DIMNSIONS
 62
     7
 10
-2750.0
 20
-1210.3839999999971
 30
0.0
 11
-2723.19840819399
 21
-1310.4089023437471
 31
0.0
  0
LINE
  5
9F
  8
DIMNSIONS
 62
     7
 10
-2750.0
 20
-1210.3839999999971
 30
0.0
 11
-2776.8015918060091
 21
-1310.4089023437471
 31
0.0
  0
LINE
  5
A0
  8
DIMNSIONS
 62
     7
 10
-2750.0
 20
-3000.0
 30
0.0
 11
-2776.8015918060091
 21
-2899.97509765625
 31
0.0
  0
LINE
  5
A1
  8
DIMNSIONS
 62
     7
 10
-2750.0
 20
-3000.0
 30
0.0
 11
-2723.19840819399
 21
-2899.97509765625
 31
0.0
  0
LINE
  5
9D
  8
DIMNSIONS
  6
CONTINUOUS
 62
     7
 10
-2750.0
 20
-1210.3839999999971
 30
0.0
 11
-2750.0
 21
-3000.0
 31
0.0
  0
TEXT
  5
A2
  8
DIMNSIONS
 62
     7
 10
-2798.2222222222222
 20
-2246.30311111111
 30
0.0
 40
112.8888888888889
  1
1790
 50
90.0
 41
0.85
 11
-2911.1111111111109
 21
-2246.30311111111
 31
0.0
 73
     3
  0
LINE
  5
A3
  8
DIMNSIONS
  6
CONTINUOUS
 62
     7
 10
-2000.0
 20
-3080.0
 30
0.0
 11
-2000.0
 21
-3330.0
 31
0.0
  0
LINE
  5
A4
  8
DIMNSIONS
  6
CONTINUOUS
 62
     7
 10
-1350.7760000000001
 20
-3080.0
 30
0.0
 11
-1350.7760000000001
 21
-3330.0
 31
0.0
  0
LINE
  5
A6
  8
DIMNSIONS
 62
     7
 10
-2000.0
 20
-3250.0
 30
0.0
 11
-1899.9750976562491
 21
-3223.19840819399
 31
0.0
  0
LINE
  5
A7
  8
DIMNSIONS
 62
     7
 10
-2000.0
 20
-3250.0
 30
0.0
 11
-1899.9750976562491
 21
-3276.8015918060091
 31
0.0
  0
LINE
  5
A8
  8
DIMNSIONS
 62
     7
 10
-1350.7760000000001
 20
-3250.0
 30
0.0
 11
-1450.8009023437501
 21
-3276.8015918060091
 31
0.0
  0
LINE
  5
A9
  8
DIMNSIONS
 62
     7
 10
-1350.7760000000001
 20
-3250.0
 30
0.0
 11
-1450.8009023437501
 21
-3223.19840819399
 31
0.0
  0
LINE
  5
A5
  8
DIMNSIONS
  6
CONTINUOUS
 62
     7
 10
-2000.0
 20
-3250.0
 30
0.0
 11
-1350.7760000000001
 21
-3250.0
 31
0.0
  0
TEXT
  5
AA
  8
DIMNSIONS
 62
     7
 10
-1781.221333333333
 20
-3201.7777777777778
 30
0.0
 40
112.8888888888889
  1
649
 41
0.85
 11
-1781.221333333333
 21
-3088.8888888888891
 31
0.0
 73
     3
  0
LINE
  5
AB
  8
DIMNSIONS
  6
CONTINUOUS
 62
     7
 10
-1277.454699999997
 20
-2049.3173000000002
 30
0.0
 11
-1277.454699999997
 21
-3580.0
 31
0.0
  0
LINE
  5
AC
  8
DIMNSIONS
  6
CONTINUOUS
 62
     7
 10
-2073.3213000000001
 20
-2049.3173000000002
 30
0.0
 11
-2073.3213000000001
 21
-3580.0
 31
0.0
  0
LINE
  5
AE
  8
DIMNSIONS
 62
     7
 10
-1277.454699999997
 20
-3500.0
 30
0.0
 11
-1377.479602343747
 21
-3526.8015918060091
 31
0.0
  0
LINE
  5
AF
  8
DIMNSIONS
 62
     7
 10
-1277.454699999997
 20
-3500.0
 30
0.0
 11
-1377.479602343747
 21
-3473.19840819399
 31
0.0
  0
LINE
  5
B0
  8
DIMNSIONS
 62
     7
 10
-2073.3213000000001
 20
-3500.0
 30
0.0
 11
-1973.2963976562501
 21
-3473.19840819399
 31
0.0
  0
LINE
  5
B1
  8
DIMNSIONS
 62
     7
 10
-2073.3213000000001
 20
-3500.0
 30
0.0
 11
-1973.2963976562501
 21
-3526.8015918060091
 31
0.0
  0
LINE
  5
AD
  8
DIMNSIONS
  6
CONTINUOUS
 62
     7
 10
-1277.454699999997
 20
-3500.0
 30
0.0
 11
-2073.3213000000001
 21
-3500.0
 31
0.0
  0
TEXT
  5
B2
  8
DIMNSIONS
 62
     7
 10
-1781.221333333332
 20
-3451.7777777777778
 30
0.0
 40
112.8888888888889
  1
796
 41
0.85
 11
-1781.221333333332
 21
-3338.8888888888891
 31
0.0
 73
     3
  0
LINE
  5
B3
  8
DIMNSIONS
  6
CONTINUOUS
 62
     7
 10
-2080.0
 20
-148.89599999999959
 30
0.0
 11
-2455.0
 21
-148.89599999999959
 31
0.0
  0
LINE
  5
B4
  8
DIMNSIONS
  6
CONTINUOUS
 62
     7
 10
-2080.0
 20
-600.0
 30
0.0
 11
-2455.0
 21
-600.0
 31
0.0
  0
LINE
  5
B6
  8
DIMNSIONS
 62
     7
 10
-2375.0
 20
-148.89599999999959
 30
0.0
 11
-2348.19840819399
 21
-248.9209023437497
 31
0.0
  0
LINE
  5
B7
  8
DIMNSIONS
 62
     7
 10
-2375.0
 20
-148.89599999999959
 30
0.0
 11
-2401.8015918060091
 21
-248.9209023437497
 31
0.0
  0
LINE
  5
B8
  8
DIMNSIONS
 62
     7
 10
-2375.0
 20
-600.0
 30
0.0
 11
-2401.8015918060091
 21
-499.97509765624989
 31
0.0
  0
LINE
  5
B9
  8
DIMNSIONS
 62
     7
 10
-2375.0
 20
-600.0
 30
0.0
 11
-2348.19840819399
 21
-499.97509765624989
 31
0.0
  0
LINE
  5
B5
  8
DIMNSIONS
  6
CONTINUOUS
 62
     7
 10
-2375.0
 20
-148.89599999999959
 30
0.0
 11
-2375.0
 21
-600.0
 31
0.0
  0
TEXT
  5
BA
  8
DIMNSIONS
 62
     7
 10
-2423.2222222222222
 20
-480.28133333333318
 30
0.0
 40
112.8888888888889
  1
451
 50
90.0
 41
0.85
 11
-2536.1111111111109
 21
-480.28133333333318
 31
0.0
 73
     3
  0
LINE
  5
BB
  8
DIMNSIONS
  6
CONTINUOUS
 62
     7
 10
-1826.6349999999991
 20
128.16180000000091
 30
0.0
 11
-2830.0
 21
128.16180000000091
 31
0.0
  0
LINE
  5
BC
  8
DIMNSIONS
  6
CONTINUOUS
 62
     7
 10
-2152.8879999999999
 20
-819.35000000000025
 30
0.0
 11
-2830.0
 21
-819.35000000000025
 31
0.0
  0
LINE
  5
BE
  8
DIMNSIONS
 62
     7
 10
-2750.0
 20
128.16180000000091
 30
0.0
 11
-2723.19840819399
 21
28.13689765625098
 31
0.0
  0
LINE
  5
BF
  8
DIMNSIONS
 62
     7
 10
-2750.0
 20
128.16180000000091
 30
0.0
 11
-2776.8015918060091
 21
28.136897656250991
 31
0.0
  0
LINE
  5
C0
  8
DIMNSIONS
 62
     7
 10
-2750.0
 20
-819.35000000000025
 30
0.0
 11
-2776.8015918060091
 21
-719.32509765625014
 31
0.0
  0
LINE
  5
C1
  8
DIMNSIONS
 62
     7
 10
-2750.0
 20
-819.35000000000025
 30
0.0
 11
-2723.19840819399
 21
-719.32509765625014
 31
0.0
  0
LINE
  5
BD
  8
DIMNSIONS
  6
CONTINUOUS
 62
     7
 10
-2750.0
 20
128.16180000000091
 30
0.0
 11
-2750.0
 21
-819.35000000000025
 31
0.0
  0
TEXT
  5
C2
  8
DIMNSIONS
 62
     7
 10
-2798.2222222222222
 20
-451.42743333333289
 30
0.0
 40
112.8888888888889
  1
948
 50
90.0
 41
0.85
 11
-2911.1111111111109
 21
-451.42743333333289
 31
0.0
 73
     3
  0
LINE
  5
C3
  8
DIMNSIONS
  6
CONTINUOUS
 62
     7
 10
-750.0
 20
-3080.0
 30
0.0
 11
-750.0
 21
-3330.0
 31
0.0
  0
LINE
  5
C4
  8
DIMNSIONS
  6
CONTINUOUS
 62
     7
 10
-298.89599999999882
 20
-3080.0
 30
0.0
 11
-298.89599999999882
 21
-3330.0
 31
0.0
  0
LINE
  5
C6
  8
DIMNSIONS
 62
     7
 10
-750.0
 20
-3250.0
 30
0.0
 11
-649.97509765624989
 21
-3223.19840819399
 31
0.0
  0
LINE
  5
C7
  8
DIMNSIONS
 62
     7
 10
-750.0
 20
-3250.0
 30
0.0
 11
-649.97509765624989
 21
-3276.8015918060091
 31
0.0
  0
LINE
  5
C8
  8
DIMNSIONS
 62
     7
 10
-298.89599999999882
 20
-3250.0
 30
0.0
 11
-398.92090234374871
 21
-3276.8015918060091
 31
0.0
  0
LINE
  5
C9
  8
DIMNSIONS
 62
     7
 10
-298.89599999999882
 20
-3250.0
 30
0.0
 11
-398.92090234374871
 21
-3223.19840819399
 31
0.0
  0
LINE
  5
C5
  8
DIMNSIONS
  6
CONTINUOUS
 62
     7
 10
-750.0
 20
-3250.0
 30
0.0
 11
-298.89599999999882
 21
-3250.0
 31
0.0
  0
TEXT
  5
CA
  8
DIMNSIONS
 62
     7
 10
-630.28133333333267
 20
-3201.7777777777778
 30
0.0
 40
112.8888888888889
  1
451
 41
0.85
 11
-630.28133333333267
 21
-3088.8888888888891
 31
0.0
 73
     3
  0
LINE
  5
CB
  8
DIMNSIONS
  6
CONTINUOUS
 62
     7
 10
-969.34999999999889
 20
-1685.3839999999991
 30
0.0
 11
-969.34999999999889
 21
-3330.0
 31
0.0
  0
LINE
  5
CC
  8
DIMNSIONS
  6
CONTINUOUS
 62
     7
 10
-750.0
 20
-3080.0
 30
0.0
 11
-750.0
 21
-3330.0
 31
0.0
  0
LINE
  5
CE
  8
DIMNSIONS
 62
     7
 10
-969.34999999999889
 20
-3250.0
 30
0.0
 11
-869.32509765624877
 21
-3223.19840819399
 31
0.0
  0
LINE
  5
CF
  8
DIMNSIONS
 62
     7
 10
-969.34999999999889
 20
-3250.0
 30
0.0
 11
-869.32509765624877
 21
-3276.8015918060091
 31
0.0
  0
LINE
  5
D0
  8
DIMNSIONS
 62
     7
 10
-750.0
 20
-3250.0
 30
0.0
 11
-850.02490234375
 21
-3276.8015918060091
 31
0.0
  0
LINE
  5
D1
  8
DIMNSIONS
 62
     7
 10
-750.0
 20
-3250.0
 30
0.0
 11
-850.02490234375
 21
-3223.19840819399
 31
0.0
  0
LINE
  5
CD
  8
DIMNSIONS
  6
CONTINUOUS
 62
     7
 10
-969.34999999999889
 20
-3250.0
 30
0.0
 11
-750.0
 21
-3250.0
 31
0.0
  0
TEXT
  5
D2
  8
DIMNSIONS
 62
     7
 10
-965.50833333333276
 20
-3201.7777777777778
 30
0.0
 40
112.8888888888889
  1
219
 41
0.85
 11
-965.50833333333276
 21
-3088.8888888888891
 31
0.0
 73
     3
  0
LINE
  5
D3
  8
DIMNSIONS
  6
CONTINUOUS
 62
     7
 10
-969.34999999999889
 20
-1685.3839999999991
 30
0.0
 11
-969.34999999999889
 21
-3580.0
 31
0.0
  0
LINE
  5
D4
  8
DIMNSIONS
  6
CONTINUOUS
 62
     7
 10
-21.838199999998331
 20
-1756.6309999999989
 30
0.0
 11
-21.838199999998331
 21
-3580.0
 31
0.0
  0
LINE
  5
D6
  8
DIMNSIONS
 62
     7
 10
-969.34999999999889
 20
-3500.0
 30
0.0
 11
-869.32509765624877
 21
-3473.19840819399
 31
0.0
  0
LINE
  5
D7
  8
DIMNSIONS
 62
     7
 10
-969.34999999999889
 20
-3500.0
 30
0.0
 11
-869.32509765624877
 21
-3526.8015918060091
 31
0.0
  0
LINE
  5
D8
  8
DIMNSIONS
 62
     7
 10
-21.838199999998331
 20
-3500.0
 30
0.0
 11
-121.8631023437483
 21
-3526.8015918060091
 31
0.0
  0
LINE
  5
D9
  8
DIMNSIONS
 62
     7
 10
-21.838199999998331
 20
-3500.0
 30
0.0
 11
-121.8631023437483
 21
-3473.19840819399
 31
0.0
  0
LINE
  5
D5
  8
DIMNSIONS
  6
CONTINUOUS
 62
     7
 10
-969.34999999999889
 20
-3500.0
 30
0.0
 11
-21.838199999998331
 21
-3500.0
 31
0.0
  0
TEXT
  5
DA
  8
DIMNSIONS
 62
     7
 10
-601.42743333333203
 20
-3451.7777777777778
 30
0.0
 40
112.8888888888889
  1
948
 41
0.85
 11
-601.42743333333203
 21
-3338.8888888888891
 31
0.0
 73
     3
  0
LINE
  5
DB
  8
DATA
  6
CONTINUOUS
 62
     7
 10
-114.34499999999839
 20
-1672.135199999999
 30
0.0
 11
-105.81069999999821
 21
-1701.2816999999991
 31
0.0
  0
LINE
  5
DC
  8
DATA
  6
CONTINUOUS
 62
     7
 10
-114.34499999999839
 20
-1538.632799999999
 30
0.0
 11
-105.81069999999821
 21
-1509.4862999999989
 31
0.0
  0
LINE
  5
DD
  8
DATA
  6
CONTINUOUS
 62
     7
 10
-153.54999999999831
 20
-1664.883499999999
 30
0.0
 11
-114.34499999999839
 21
-1672.135199999999
 31
0.0
  0
LINE
  5
DE
  8
DATA
  6
CONTINUOUS
 62
     7
 10
-154.34999999999849
 20
-1664.883499999999
 30
0.0
 11
-153.54999999999831
 21
-1664.883499999999
 31
0.0
  0
LINE
  5
DF
  8
DATA
  6
CONTINUOUS
 62
     7
 10
-153.54999999999831
 20
-1545.884499999999
 30
0.0
 11
-114.34499999999839
 21
-1538.632799999999
 31
0.0
  0
LINE
  5
E0
  8
DATA
  6
CONTINUOUS
 62
     7
 10
-154.34999999999849
 20
-1545.884499999999
 30
0.0
 11
-153.54999999999831
 21
-1545.884499999999
 31
0.0
  0
LINE
  5
E1
  8
DATA
  6
CONTINUOUS
 62
     7
 10
-114.34499999999839
 20
-1538.632799999999
 30
0.0
 11
-114.34499999999839
 21
-1672.135199999999
 31
0.0
  0
LINE
  5
E2
  8
DATA
  6
CONTINUOUS
 62
     7
 10
-153.54999999999831
 20
-1545.884499999999
 30
0.0
 11
-153.54999999999831
 21
-1664.883499999999
 31
0.0
  0
LINE
  5
E3
  8
DATA
  6
CONTINUOUS
 62
     7
 10
-51.838199999998331
 20
-1585.714809344573
 30
0.0
 11
-51.838199999998331
 21
-1535.9183486269681
 31
0.0
  0
LINE
  5
E4
  8
DATA
  6
CONTINUOUS
 62
     7
 10
-51.838199999998331
 20
-1535.9183486269681
 30
0.0
 11
-25.838199999998331
 21
-1545.7753498879499
 31
0.0
  0
LINE
  5
E5
  8
DATA
  6
CONTINUOUS
 62
     7
 10
-54.838199999998338
 20
-1701.2817
 30
0.0
 11
-54.838199999998338
 21
-1509.4862999999989
 31
0.0
  0
LINE
  5
E6
  8
DATA
  6
CONTINUOUS
 62
     7
 10
-55.838199999998338
 20
-1703.6339999999991
 30
0.0
 11
-55.838199999998338
 21
-1507.1339999999991
 31
0.0
  0
LINE
  5
E7
  8
DATA
  6
CONTINUOUS
 62
     7
 10
-61.838199999998331
 20
-1489.1339999999991
 30
0.0
 11
-61.838199999998331
 21
-1721.6339999999991
 31
0.0
  0
LINE
  5
E8
  8
DATA
  6
CONTINUOUS
 62
     7
 10
-98.838299999998554
 20
-1489.1339999999991
 30
0.0
 11
-98.838299999998554
 21
-1721.6339999999991
 31
0.0
  0
LINE
  5
E9
  8
DATA
  6
CONTINUOUS
 62
     7
 10
-21.838199999998331
 20
-1534.136999999999
 30
0.0
 11
-21.838199999998331
 21
-1676.6309999999989
 31
0.0
  0
LINE
  5
EA
  8
DATA
  6
CONTINUOUS
 62
     7
 10
-105.81069999999821
 20
-1509.4862999999989
 30
0.0
 11
-105.81069999999821
 21
-1701.2816999999991
 31
0.0
  0
LINE
  5
EB
  8
DATA
  6
CONTINUOUS
 62
     7
 10
-25.838199999998331
 20
-1596.8708487112319
 30
0.0
 11
-25.838199999998331
 21
-1545.7753498879499
 31
0.0
  0
LINE
  5
EC
  8
DATA
  6
CONTINUOUS
 62
     7
 10
-51.838199999998331
 20
-1545.7753498879499
 30
0.0
 11
-25.838199999998331
 21
-1545.7753498879499
 31
0.0
  0
LINE
  5
ED
  8
DATA
  6
CONTINUOUS
 62
     7
 10
-51.838199999998331
 20
-1585.714809344573
 30
0.0
 11
-25.838199999998331
 21
-1596.8708487112319
 31
0.0
  0
LINE
  5
EE
  8
DATA
  6
CONTINUOUS
 62
     7
 10
-25.838199999998331
 20
-1679.6189636363631
 30
0.0
 11
-25.838199999998331
 21
-1675.097078392093
 31
0.0
  0
LINE
  5
EF
  8
DATA
  6
CONTINUOUS
 62
     7
 10
-25.838199999998331
 20
-1679.6189636363631
 30
0.0
 11
-21.838199999998331
 21
-1676.6309999999989
 31
0.0
  0
LINE
  5
F0
  8
DATA
  6
CONTINUOUS
 62
     7
 10
-31.891667571341721
 20
-1679.6189636363631
 30
0.0
 11
-25.838199999998331
 21
-1679.6189636363631
 31
0.0
  0
LINE
  5
F1
  8
DATA
  6
CONTINUOUS
 62
     7
 10
-51.838199999998331
 20
-1694.518842028456
 30
0.0
 11
-25.838199999998331
 21
-1675.097078392093
 31
0.0
  0
LINE
  5
F2
  8
DATA
  6
CONTINUOUS
 62
     7
 10
-46.33819999999924
 20
-1698.0485837675869
 30
0.0
 11
-46.338199999998331
 21
-1690.410392028456
 31
0.0
  0
LINE
  5
F3
  8
DATA
  6
CONTINUOUS
 62
     7
 10
-42.507084753425282
 20
-1687.5485837675869
 30
0.0
 11
-35.838199999999247
 21
-1687.5485837675869
 31
0.0
  0
LINE
  5
F4
  8
DATA
  6
CONTINUOUS
 62
     7
 10
-51.838199999998331
 20
-1699.0407272727271
 30
0.0
 11
-51.838199999998331
 21
-1694.518842028456
 31
0.0
  0
LINE
  5
F5
  8
DATA
  6
CONTINUOUS
 62
     7
 10
-54.838199999998338
 20
-1701.2817
 30
0.0
 11
-51.838199999998331
 21
-1699.0407272727271
 31
0.0
  0
LINE
  5
F6
  8
DATA
  6
CONTINUOUS
 62
     7
 10
-51.838199999998331
 20
-1697.0485837675869
 30
0.0
 11
-46.338199999998331
 21
-1697.0485837675869
 31
0.0
  0
LINE
  5
F7
  8
DATA
  6
CONTINUOUS
 62
     7
 10
-29.838199999999251
 20
-1687.7985837675869
 30
0.0
 11
-29.838199999998331
 21
-1697.7985837675869
 31
0.0
  0
LINE
  5
F8
  8
DATA
  6
CONTINUOUS
 62
     7
 10
-30.838199999998331
 20
-1697.7985837675869
 30
0.0
 11
-29.838199999998331
 21
-1697.7985837675869
 31
0.0
  0
LINE
  5
F9
  8
DATA
  6
CONTINUOUS
 62
     7
 10
-30.838199999998331
 20
-1687.7985837675869
 30
0.0
 11
-29.838199999999251
 21
-1687.7985837675869
 31
0.0
  0
LINE
  5
FA
  8
DATA
  6
CONTINUOUS
 62
     7
 10
-35.838199999999247
 20
-1686.7985837675869
 30
0.0
 11
-30.838199999998331
 21
-1686.7985837675869
 31
0.0
  0
LINE
  5
FB
  8
DATA
  6
CONTINUOUS
 62
     7
 10
-46.33819999999924
 20
-1698.0485837675869
 30
0.0
 11
-35.838199999999247
 21
-1698.0485837675869
 31
0.0
  0
LINE
  5
FC
  8
DATA
  6
CONTINUOUS
 62
     7
 10
-35.838199999999247
 20
-1698.7985837675869
 30
0.0
 11
-30.838199999998331
 21
-1698.7985837675869
 31
0.0
  0
LINE
  5
FD
  8
DATA
  6
CONTINUOUS
 62
     7
 10
-30.838199999998331
 20
-1698.7985837675869
 30
0.0
 11
-30.838199999998331
 21
-1686.798583767586
 31
0.0
  0
LINE
  5
FE
  8
DATA
  6
CONTINUOUS
 62
     7
 10
-35.838199999999247
 20
-1686.7985837675869
 30
0.0
 11
-35.838199999998338
 21
-1698.7985837675869
 31
0.0
  0
LINE
  5
FF
  8
DATA
  6
CONTINUOUS
 62
     7
 10
-51.838199999998331
 20
-1699.0407272727271
 30
0.0
 11
-51.838199999998331
 21
-1694.469486887607
 31
0.0
  0
LINE
  5
100
  8
DATA
  6
CONTINUOUS
 62
     7
 10
-105.81069999999821
 20
-1701.2816999999991
 30
0.0
 11
-98.838299999998554
 21
-1701.2816999999991
 31
0.0
  0
LINE
  5
101
  8
DATA
  6
CONTINUOUS
 62
     7
 10
-54.838199999998338
 20
-1701.2817
 30
0.0
 11
-55.838199999998338
 21
-1701.2817
 31
0.0
  0
LINE
  5
102
  8
DATA
  6
CONTINUOUS
 62
     7
 10
-61.838199999998331
 20
-1721.6339999999991
 30
0.0
 11
-55.838199999998338
 21
-1703.6339999999991
 31
0.0
  0
LINE
  5
103
  8
DATA
  6
CONTINUOUS
 62
     7
 10
-98.838299999998554
 20
-1721.6339999999991
 30
0.0
 11
-61.838199999998331
 21
-1721.6339999999991
 31
0.0
  0
LINE
  5
104
  8
DATA
  6
CONTINUOUS
 62
     7
 10
-105.81069999999821
 20
-1509.4862999999989
 30
0.0
 11
-98.838299999998554
 21
-1509.4862999999989
 31
0.0
  0
LINE
  5
105
  8
DATA
  6
CONTINUOUS
 62
     7
 10
-54.838199999998338
 20
-1509.4862999999989
 30
0.0
 11
-55.838199999998338
 21
-1509.4862999999989
 31
0.0
  0
LINE
  5
106
  8
DATA
  6
CONTINUOUS
 62
     7
 10
-61.838199999998331
 20
-1489.1339999999991
 30
0.0
 11
-55.838199999998338
 21
-1507.1339999999991
 31
0.0
  0
LINE
  5
107
  8
DATA
  6
CONTINUOUS
 62
     7
 10
-98.838299999998554
 20
-1489.1339999999991
 30
0.0
 11
-61.838199999998331
 21
-1489.1339999999991
 31
0.0
  0
LINE
  5
108
  8
DATA
  6
CONTINUOUS
 62
     7
 10
-54.838199999998338
 20
-1509.4862999999989
 30
0.0
 11
-21.838199999998331
 21
-1534.136999999999
 31
0.0
  0
TEXT
  5
109
  8
DATA
 62
     7
 10
2099.9999999999991
 20
-4179.4036150000002
 30
0.0
 40
101.59999999999999
  1
JBL
 41
0.85
 11
2099.9999999999991
 21
-4077.8036149999989
 31
0.0
 73
     3
  0
TEXT
  5
10A
  8
DATA
 62
     7
 10
-3099.9999999999991
 20
-4747.6592150000006
 30
0.0
 40
67.733333333333334
  1
仕様および外観は予告なく変更されることがありますので、ご了承ください。
 41
0.85
 11
-3099.9999999999991
 21
-4679.925881666667
 31
0.0
 73
     3
  0
TEXT
  5
10B
  8
DATA
 62
     7
 10
2000.0
 20
-4321.0218150000001
 30
0.0
 40
67.733333333333334
  1
2WAY映画用スピーカシステム
 41
0.85
 11
2000.0
 21
-4253.2884816666656
 31
0.0
 73
     3
  0
TEXT
  5
10C
  8
DATA
 62
     7
 10
2099.9999999999991
 20
-4469.4036150000002
 30
0.0
 40
101.59999999999999
  1
4675C-4(8)LF
 41
0.85
 11
2099.9999999999991
 21
-4367.8036149999989
 31
0.0
 73
     3
  0
LINE
  5
10D
  8
DATA
  6
CONTINUOUS
 62
     7
 10
899.22400000000016
 20
-3000.0
 30
0.0
 11
250.0
 21
-3000.0
 31
0.0
  0
LINE
  5
10E
  8
DATA
  6
CONTINUOUS
 62
     7
 10
250.0
 20
-2008.384
 30
0.0
 11
899.22400000000016
 21
-2008.384
 31
0.0
  0
LINE
  5
10F
  8
DATA
  6
CONTINUOUS
 62
     7
 10
880.22400000000005
 20
-2981.0
 30
0.0
 11
269.0
 21
-2981.0
 31
0.0
  0
LINE
  5
110
  8
DATA
  6
CONTINUOUS
 62
     7
 10
269.0
 20
-2027.384
 30
0.0
 11
880.22400000000005
 21
-2027.384
 31
0.0
  0
LINE
  5
111
  8
DATA
  6
CONTINUOUS
 62
     7
 10
-1350.7760000000001
 20
-3000.0
 30
0.0
 11
-2000.0
 21
-3000.0
 31
0.0
  0
LINE
  5
112
  8
DATA
  6
CONTINUOUS
 62
     7
 10
-2000.0
 20
-2008.384
 30
0.0
 11
-1350.7760000000001
 21
-2008.384
 31
0.0
  0
LINE
  5
113
  8
DATA
  6
CONTINUOUS
 62
     7
 10
-1369.7760000000001
 20
-2981.0
 30
0.0
 11
-1981.0
 21
-2981.0
 31
0.0
  0
LINE
  5
114
  8
DATA
  6
CONTINUOUS
 62
     7
 10
-1981.0
 20
-2027.384
 30
0.0
 11
-1369.7760000000001
 21
-2027.384
 31
0.0
  0
LINE
  5
115
  8
DATA
  6
CONTINUOUS
 62
     7
 10
-1590.018031905312
 20
-603.60000000000036
 30
0.0
 11
-1481.8879999999999
 21
-603.60000000000036
 31
0.0
  0
LINE
  5
116
  8
DATA
  6
CONTINUOUS
 62
     7
 10
-1350.7760000000001
 20
-600.0
 30
0.0
 11
-1592.7563341105831
 21
-600.0
 31
0.0
  0
LINE
  5
117
  8
DATA
  6
CONTINUOUS
 62
     7
 10
-1653.8879999999999
 20
-148.89599999999959
 30
0.0
 11
-1350.7760000000001
 21
-148.89599999999959
 31
0.0
  0
CIRCLE
  5
118
  8
DATA
  6
CONTINUOUS
 62
     7
 10
-1675.387999999999
 20
-2303.384
 30
0.0
 40
143.80088099999909
  0
CIRCLE
  5
119
  8
DATA
  6
CONTINUOUS
 62
     7
 10
-1675.387999999999
 20
-2303.384
 30
0.0
 40
159.7396859999989
  0
CIRCLE
  5
11A
  8
DATA
  6
CONTINUOUS
 62
     7
 10
-1675.387999999999
 20
-2303.384
 30
0.0
 40
164.0071899999993
  0
CIRCLE
  5
11B
  8
DATA
  6
CONTINUOUS
 62
     7
 10
-1675.387999999999
 20
-2303.384
 30
0.0
 40
160.7559899999996
  0
CIRCLE
  5
11C
  8
DATA
  6
CONTINUOUS
 62
     7
 10
-1675.387999999999
 20
-2303.384
 30
0.0
 40
177.012091999999
  0
CIRCLE
  5
11D
  8
DATA
  6
CONTINUOUS
 62
     7
 10
-1675.387999999999
 20
-2303.384
 30
0.0
 40
173.7608919999993
  0
CIRCLE
  5
11E
  8
DATA
  6
CONTINUOUS
 62
     7
 10
-1675.387999999999
 20
-2303.384
 30
0.0
 40
192.2631659999997
  0
CIRCLE
  5
11F
  8
DATA
  6
CONTINUOUS
 62
     7
 10
-1675.387999999999
 20
-2303.384
 30
0.0
 40
178.1042919999999
  0
CIRCLE
  5
120
  8
DATA
  6
CONTINUOUS
 62
     7
 10
-1675.387999999999
 20
-2303.384
 30
0.0
 40
135.01623999999899
  0
CIRCLE
  5
121
  8
DATA
  6
CONTINUOUS
 62
     7
 10
-1675.387999999999
 20
-2303.384
 30
0.0
 40
139.40861099999981
  0
CIRCLE
  5
122
  8
DATA
  6
CONTINUOUS
 62
     7
 10
-1675.387999999999
 20
-2303.384
 30
0.0
 40
130.62396999999959
  0
CIRCLE
  5
123
  8
DATA
  6
CONTINUOUS
 62
     7
 10
-1675.387999999999
 20
-2303.384
 30
0.0
 40
126.2315989999997
  0
CIRCLE
  5
124
  8
DATA
  6
CONTINUOUS
 62
     7
 10
-1675.387999999999
 20
-2303.384
 30
0.0
 40
121.8393299999998
  0
CIRCLE
  5
125
  8
DATA
  6
CONTINUOUS
 62
     7
 10
-1675.387999999999
 20
-2303.384
 30
0.0
 40
117.4469579999995
  0
CIRCLE
  5
126
  8
DATA
  6
CONTINUOUS
 62
     7
 10
-1675.387999999999
 20
-2303.384
 30
0.0
 40
113.0546889999995
  0
CIRCLE
  5
127
  8
DATA
  6
CONTINUOUS
 62
     7
 10
-1675.387999999999
 20
-2705.0
 30
0.0
 40
143.80088099999909
  0
CIRCLE
  5
128
  8
DATA
  6
CONTINUOUS
 62
     7
 10
-1675.387999999999
 20
-2705.0
 30
0.0
 40
159.7396859999989
  0
CIRCLE
  5
129
  8
DATA
  6
CONTINUOUS
 62
     7
 10
-1675.387999999999
 20
-2705.0
 30
0.0
 40
164.0071899999993
  0
CIRCLE
  5
12A
  8
DATA
  6
CONTINUOUS
 62
     7
 10
-1675.387999999999
 20
-2705.0
 30
0.0
 40
160.7559899999996
  0
CIRCLE
  5
12B
  8
DATA
  6
CONTINUOUS
 62
     7
 10
-1675.387999999999
 20
-2705.0
 30
0.0
 40
177.012091999999
  0
CIRCLE
  5
12C
  8
DATA
  6
CONTINUOUS
 62
     7
 10
-1675.387999999999
 20
-2705.0
 30
0.0
 40
173.7608919999993
  0
CIRCLE
  5
12D
  8
DATA
  6
CONTINUOUS
 62
     7
 10
-1675.387999999999
 20
-2705.0
 30
0.0
 40
192.2631659999997
  0
CIRCLE
  5
12E
  8
DATA
  6
CONTINUOUS
 62
     7
 10
-1675.387999999999
 20
-2705.0
 30
0.0
 40
178.1042919999999
  0
CIRCLE
  5
12F
  8
DATA
  6
CONTINUOUS
 62
     7
 10
-1675.387999999999
 20
-2705.0
 30
0.0
 40
135.01623999999899
  0
CIRCLE
  5
130
  8
DATA
  6
CONTINUOUS
 62
     7
 10
-1675.387999999999
 20
-2705.0
 30
0.0
 40
139.40861099999981
  0
CIRCLE
  5
131
  8
DATA
  6
CONTINUOUS
 62
     7
 10
-1675.387999999999
 20
-2705.0
 30
0.0
 40
130.62396999999959
  0
CIRCLE
  5
132
  8
DATA
  6
CONTINUOUS
 62
     7
 10
-1675.387999999999
 20
-2705.0
 30
0.0
 40
126.2315989999997
  0
CIRCLE
  5
133
  8
DATA
  6
CONTINUOUS
 62
     7
 10
-1675.387999999999
 20
-2705.0
 30
0.0
 40
121.8393299999998
  0
CIRCLE
  5
134
  8
DATA
  6
CONTINUOUS
 62
     7
 10
-1675.387999999999
 20
-2705.0
 30
0.0
 40
117.4469579999995
  0
CIRCLE
  5
135
  8
DATA
  6
CONTINUOUS
 62
     7
 10
-1675.387999999999
 20
-2705.0
 30
0.0
 40
113.0546889999995
  0
LINE
  5
136
  8
DATA
  6
CONTINUOUS
 62
     7
 10
-2000.0
 20
-3000.0
 30
0.0
 11
-2000.0
 21
-2008.384
 31
0.0
  0
LINE
  5
137
  8
DATA
  6
CONTINUOUS
 62
     7
 10
-1981.0
 20
-2981.0
 30
0.0
 11
-1981.0
 21
-2027.384
 31
0.0
  0
CIRCLE
  5
138
  8
DATA
  6
CONTINUOUS
 62
     7
 10
-1675.387999999999
 20
-2303.384
 30
0.0
 40
91.093035999999287
  0
CIRCLE
  5
139
  8
DATA
  6
CONTINUOUS
 62
     7
 10
-1675.387999999999
 20
-2303.384
 30
0.0
 40
104.26994599999939
  0
CIRCLE
  5
13A
  8
DATA
  6
CONTINUOUS
 62
     7
 10
-1675.387999999999
 20
-2303.384
 30
0.0
 40
108.6623179999997
  0
CIRCLE
  5
13B
  8
DATA
  6
CONTINUOUS
 62
     7
 10
-1675.387999999999
 20
-2303.384
 30
0.0
 40
99.877676999999494
  0
CIRCLE
  5
13C
  8
DATA
  6
CONTINUOUS
 62
     7
 10
-1675.387999999999
 20
-2303.384
 30
0.0
 40
95.485305999999582
  0
CIRCLE
  5
13D
  8
DATA
  6
CONTINUOUS
 62
     7
 10
-1675.387999999999
 20
-2303.384
 30
0.0
 40
54.147821999998989
  0
CIRCLE
  5
13E
  8
DATA
  6
CONTINUOUS
 62
     7
 10
-1871.0
 20
-2504.192
 30
0.0
 40
67.5
  0
LINE
  5
13F
  8
DATA
  6
CONTINUOUS
 62
     7
 10
-1795.2533430000001
 20
-2429.1820720000001
 30
0.0
 11
-1795.2533430000001
 21
-2415.3244420000001
 31
0.0
  0
CIRCLE
  5
140
  8
DATA
  6
CONTINUOUS
 62
     7
 10
-1746.150774
 20
-2474.2204379999998
 30
0.0
 40
3.2512000000006078
  0
CIRCLE
  5
141
  8
DATA
  6
CONTINUOUS
 62
     7
 10
-1746.150774
 20
-2474.2204379999998
 30
0.0
 40
3.962400000000343
  0
CIRCLE
  5
142
  8
DATA
  6
CONTINUOUS
 62
     7
 10
-1746.150774
 20
-2474.2204379999998
 30
0.0
 40
2.921000000000276
  0
CIRCLE
  5
143
  8
DATA
  6
CONTINUOUS
 62
     7
 10
-1846.2244370000001
 20
-2374.1467739999989
 30
0.0
 40
3.2511999999996979
  0
CIRCLE
  5
144
  8
DATA
  6
CONTINUOUS
 62
     7
 10
-1846.2244370000001
 20
-2374.1467739999989
 30
0.0
 40
3.962400000000343
  0
CIRCLE
  5
145
  8
DATA
  6
CONTINUOUS
 62
     7
 10
-1846.2244370000001
 20
-2374.1467739999989
 30
0.0
 40
2.921000000000276
  0
CIRCLE
  5
146
  8
DATA
  6
CONTINUOUS
 62
     7
 10
-1604.625225
 20
-2474.2204379999998
 30
0.0
 40
3.2511999999996979
  0
CIRCLE
  5
147
  8
DATA
  6
CONTINUOUS
 62
     7
 10
-1604.625225
 20
-2474.2204379999998
 30
0.0
 40
3.962400000000343
  0
CIRCLE
  5
148
  8
DATA
  6
CONTINUOUS
 62
     7
 10
-1604.625225
 20
-2474.2204379999998
 30
0.0
 40
2.921000000000276
  0
CIRCLE
  5
149
  8
DATA
  6
CONTINUOUS
 62
     7
 10
-1675.387999999999
 20
-2705.0
 30
0.0
 40
91.093035999999287
  0
CIRCLE
  5
14A
  8
DATA
  6
CONTINUOUS
 62
     7
 10
-1675.387999999999
 20
-2705.0
 30
0.0
 40
104.26994599999939
  0
CIRCLE
  5
14B
  8
DATA
  6
CONTINUOUS
 62
     7
 10
-1675.387999999999
 20
-2705.0
 30
0.0
 40
108.6623179999997
  0
CIRCLE
  5
14C
  8
DATA
  6
CONTINUOUS
 62
     7
 10
-1675.387999999999
 20
-2705.0
 30
0.0
 40
99.877676999999494
  0
CIRCLE
  5
14D
  8
DATA
  6
CONTINUOUS
 62
     7
 10
-1675.387999999999
 20
-2705.0
 30
0.0
 40
95.485305999999582
  0
CIRCLE
  5
14E
  8
DATA
  6
CONTINUOUS
 62
     7
 10
-1675.387999999999
 20
-2705.0
 30
0.0
 40
54.147821999998989
  0
LINE
  5
14F
  8
DATA
  6
CONTINUOUS
 62
     7
 10
-1795.2533430000001
 20
-2830.798072
 30
0.0
 11
-1795.2533430000001
 21
-2816.9404420000001
 31
0.0
  0
CIRCLE
  5
150
  8
DATA
  6
CONTINUOUS
 62
     7
 10
-1746.150774
 20
-2875.8364379999989
 30
0.0
 40
3.2512000000006078
  0
CIRCLE
  5
151
  8
DATA
  6
CONTINUOUS
 62
     7
 10
-1746.150774
 20
-2875.8364379999989
 30
0.0
 40
3.962400000000343
  0
CIRCLE
  5
152
  8
DATA
  6
CONTINUOUS
 62
     7
 10
-1746.150774
 20
-2875.8364379999989
 30
0.0
 40
2.921000000000276
  0
CIRCLE
  5
153
  8
DATA
  6
CONTINUOUS
 62
     7
 10
-1846.2244370000001
 20
-2775.7627739999989
 30
0.0
 40
3.2511999999996979
  0
CIRCLE
  5
154
  8
DATA
  6
CONTINUOUS
 62
     7
 10
-1846.2244370000001
 20
-2775.7627739999989
 30
0.0
 40
3.962400000000343
  0
CIRCLE
  5
155
  8
DATA
  6
CONTINUOUS
 62
     7
 10
-1846.2244370000001
 20
-2775.7627739999989
 30
0.0
 40
2.921000000000276
  0
CIRCLE
  5
156
  8
DATA
  6
CONTINUOUS
 62
     7
 10
-1604.625225
 20
-2875.8364379999989
 30
0.0
 40
3.2511999999996979
  0
CIRCLE
  5
157
  8
DATA
  6
CONTINUOUS
 62
     7
 10
-1604.625225
 20
-2875.8364379999989
 30
0.0
 40
3.962400000000343
  0
CIRCLE
  5
158
  8
DATA
  6
CONTINUOUS
 62
     7
 10
-1604.625225
 20
-2875.8364379999989
 30
0.0
 40
2.921000000000276
  0
LINE
  5
159
  8
DATA
  6
CONTINUOUS
 62
     7
 10
-1795.2533430000001
 20
-2593.059557999999
 30
0.0
 11
-1795.2533430000001
 21
-2579.202029999999
 31
0.0
  0
CIRCLE
  5
15A
  8
DATA
  6
CONTINUOUS
 62
     7
 10
-1846.2244370000001
 20
-2634.2372259999988
 30
0.0
 40
3.2511999999996979
  0
CIRCLE
  5
15B
  8
DATA
  6
CONTINUOUS
 62
     7
 10
-1846.2244370000001
 20
-2634.2372259999988
 30
0.0
 40
3.962400000000343
  0
CIRCLE
  5
15C
  8
DATA
  6
CONTINUOUS
 62
     7
 10
-1846.2244370000001
 20
-2634.2372259999988
 30
0.0
 40
2.921000000000276
  0
CIRCLE
  5
15D
  8
DATA
  6
CONTINUOUS
 62
     7
 10
-1746.150774
 20
-2534.1635619999988
 30
0.0
 40
3.2512000000006078
  0
CIRCLE
  5
15E
  8
DATA
  6
CONTINUOUS
 62
     7
 10
-1746.150774
 20
-2534.1635619999988
 30
0.0
 40
3.962400000000343
  0
CIRCLE
  5
15F
  8
DATA
  6
CONTINUOUS
 62
     7
 10
-1746.150774
 20
-2534.1635619999988
 30
0.0
 40
2.921000000000276
  0
CIRCLE
  5
160
  8
DATA
  6
CONTINUOUS
 62
     7
 10
-1604.625225
 20
-2534.1635619999988
 30
0.0
 40
3.2511999999996979
  0
CIRCLE
  5
161
  8
DATA
  6
CONTINUOUS
 62
     7
 10
-1604.625225
 20
-2534.1635619999988
 30
0.0
 40
3.962400000000343
  0
CIRCLE
  5
162
  8
DATA
  6
CONTINUOUS
 62
     7
 10
-1604.625225
 20
-2534.1635619999988
 30
0.0
 40
2.921000000000276
  0
LINE
  5
163
  8
DATA
  6
CONTINUOUS
 62
     7
 10
-1795.2533430000001
 20
-2191.443557999999
 30
0.0
 11
-1795.2533430000001
 21
-2177.586029999999
 31
0.0
  0
CIRCLE
  5
164
  8
DATA
  6
CONTINUOUS
 62
     7
 10
-1846.2244370000001
 20
-2232.6212260000002
 30
0.0
 40
3.2511999999996979
  0
CIRCLE
  5
165
  8
DATA
  6
CONTINUOUS
 62
     7
 10
-1846.2244370000001
 20
-2232.6212260000002
 30
0.0
 40
3.962400000000343
  0
CIRCLE
  5
166
  8
DATA
  6
CONTINUOUS
 62
     7
 10
-1846.2244370000001
 20
-2232.6212260000002
 30
0.0
 40
2.921000000000276
  0
CIRCLE
  5
167
  8
DATA
  6
CONTINUOUS
 62
     7
 10
-1746.150774
 20
-2132.5475620000002
 30
0.0
 40
3.2512000000006078
  0
CIRCLE
  5
168
  8
DATA
  6
CONTINUOUS
 62
     7
 10
-1746.150774
 20
-2132.5475620000002
 30
0.0
 40
3.962400000000343
  0
CIRCLE
  5
169
  8
DATA
  6
CONTINUOUS
 62
     7
 10
-1746.150774
 20
-2132.5475620000002
 30
0.0
 40
2.921000000000276
  0
CIRCLE
  5
16A
  8
DATA
  6
CONTINUOUS
 62
     7
 10
-1604.625225
 20
-2132.5475620000002
 30
0.0
 40
3.2511999999996979
  0
CIRCLE
  5
16B
  8
DATA
  6
CONTINUOUS
 62
     7
 10
-1604.625225
 20
-2132.5475620000002
 30
0.0
 40
3.962400000000343
  0
CIRCLE
  5
16C
  8
DATA
  6
CONTINUOUS
 62
     7
 10
-1604.625225
 20
-2132.5475620000002
 30
0.0
 40
2.921000000000276
  0
LINE
  5
16D
  8
DATA
  6
CONTINUOUS
 62
     7
 10
-1868.8879999999999
 20
-600.0
 30
0.0
 11
-1868.8879999999999
 21
-603.60000000000036
 31
0.0
  0
LINE
  5
16E
  8
DATA
  6
CONTINUOUS
 62
     7
 10
-1868.8879999999999
 20
-603.60000000000036
 30
0.0
 11
-1760.7579680946881
 21
-603.60000000000036
 31
0.0
  0
LINE
  5
16F
  8
DATA
  6
CONTINUOUS
 62
     7
 10
-2000.0
 20
-148.89599999999959
 30
0.0
 11
-1696.887999999999
 21
-148.89599999999959
 31
0.0
  0
LINE
  5
170
  8
DATA
  6
CONTINUOUS
 62
     7
 10
-2000.0
 20
-600.0
 30
0.0
 11
-2000.0
 21
-148.89599999999959
 31
0.0
  0
LINE
  5
171
  8
DATA
  6
CONTINUOUS
 62
     7
 10
-1758.0196658894181
 20
-600.0
 30
0.0
 11
-2000.0
 21
-600.0
 31
0.0
  0
LINE
  5
172
  8
DATA
  6
CONTINUOUS
 62
     7
 10
-750.0
 20
-3000.0
 30
0.0
 11
-750.0
 21
-2008.384
 31
0.0
  0
LINE
  5
173
  8
DATA
  6
CONTINUOUS
 62
     7
 10
-298.89599999999882
 20
-2008.384
 30
0.0
 11
-298.89599999999882
 21
-3000.0
 31
0.0
  0
LINE
  5
174
  8
DATA
  6
CONTINUOUS
 62
     7
 10
-614.44800000000043
 20
-2440.384
 30
0.0
 11
-614.44800000000043
 21
-2293.384
 31
0.0
  0
LINE
  5
175
  8
DATA
  6
CONTINUOUS
 62
     7
 10
-434.44800000000032
 20
-2293.384
 30
0.0
 11
-434.44800000000032
 21
-2440.384
 31
0.0
  0
LINE
  5
176
  8
DATA
  6
CONTINUOUS
 62
     7
 10
250.0
 20
-3000.0
 30
0.0
 11
250.0
 21
-2008.384
 31
0.0
  0
LINE
  5
177
  8
DATA
  6
CONTINUOUS
 62
     7
 10
269.0
 20
-2981.0
 30
0.0
 11
269.0
 21
-2027.384
 31
0.0
  0
LINE
  5
178
  8
DATA
  6
CONTINUOUS
 62
     7
 10
-753.60000000000025
 20
-2496.884
 30
0.0
 11
-753.60000000000025
 21
-2109.884
 31
0.0
  0
LINE
  5
179
  8
DATA
  6
CONTINUOUS
 62
     7
 10
-1369.7760000000001
 20
-2027.384
 30
0.0
 11
-1369.7760000000001
 21
-2981.0
 31
0.0
  0
LINE
  5
17A
  8
DATA
  6
CONTINUOUS
 62
     7
 10
-1350.7760000000001
 20
-2008.384
 30
0.0
 11
-1350.7760000000001
 21
-3000.0
 31
0.0
  0
LINE
  5
17B
  8
DATA
  6
CONTINUOUS
 62
     7
 10
-298.89599999999882
 20
-3000.0
 30
0.0
 11
-750.0
 21
-3000.0
 31
0.0
  0
LINE
  5
17C
  8
DATA
  6
CONTINUOUS
 62
     7
 10
-434.44800000000032
 20
-2440.384
 30
0.0
 11
-614.44800000000043
 21
-2440.384
 31
0.0
  0
LINE
  5
17D
  8
DATA
  6
CONTINUOUS
 62
     7
 10
-753.60000000000025
 20
-2898.4999999999982
 30
0.0
 11
-753.60000000000025
 21
-2511.4999999999991
 31
0.0
  0
LINE
  5
17E
  8
DATA
  6
CONTINUOUS
 62
     7
 10
-753.60000000000025
 20
-2898.4999999999982
 30
0.0
 11
-750.0
 21
-2898.4999999999982
 31
0.0
  0
LINE
  5
17F
  8
DATA
  6
CONTINUOUS
 62
     7
 10
-753.60000000000025
 20
-2496.8839999999991
 30
0.0
 11
-750.0
 21
-2496.884
 31
0.0
  0
LINE
  5
180
  8
DATA
  6
CONTINUOUS
 62
     7
 10
-753.60000000000025
 20
-2511.4999999999991
 30
0.0
 11
-750.0
 21
-2511.4999999999991
 31
0.0
  0
CIRCLE
  5
181
  8
DATA
  6
CONTINUOUS
 62
     7
 10
-1479.7760000000001
 20
-2504.192
 30
0.0
 40
67.5
  0
LINE
  5
182
  8
DATA
  6
CONTINUOUS
 62
     7
 10
-1555.5220469999999
 20
-2429.181462
 30
0.0
 11
-1555.5220469999999
 21
-2415.323832
 31
0.0
  0
CIRCLE
  5
183
  8
DATA
  6
CONTINUOUS
 62
     7
 10
-1504.5515620000001
 20
-2374.1467739999989
 30
0.0
 40
3.962399999999433
  0
CIRCLE
  5
184
  8
DATA
  6
CONTINUOUS
 62
     7
 10
-1504.5515620000001
 20
-2374.1467739999989
 30
0.0
 40
2.9209999999993661
  0
CIRCLE
  5
185
  8
DATA
  6
CONTINUOUS
 62
     7
 10
-1504.5515620000001
 20
-2374.1467739999989
 30
0.0
 40
3.2511999999996979
  0
LINE
  5
186
  8
DATA
  6
CONTINUOUS
 62
     7
 10
-1555.5220469999999
 20
-2830.7974619999991
 30
0.0
 11
-1555.5220469999999
 21
-2816.939832
 31
0.0
  0
CIRCLE
  5
187
  8
DATA
  6
CONTINUOUS
 62
     7
 10
-1504.5515620000001
 20
-2775.7627739999989
 30
0.0
 40
3.962399999999433
  0
CIRCLE
  5
188
  8
DATA
  6
CONTINUOUS
 62
     7
 10
-1504.5515620000001
 20
-2775.7627739999989
 30
0.0
 40
2.9209999999993661
  0
CIRCLE
  5
189
  8
DATA
  6
CONTINUOUS
 62
     7
 10
-1504.5515620000001
 20
-2775.7627739999989
 30
0.0
 40
3.2511999999996979
  0
CIRCLE
  5
18A
  8
DATA
  6
CONTINUOUS
 62
     7
 10
-1504.5515620000001
 20
-2634.2372259999988
 30
0.0
 40
3.2511999999996979
  0
CIRCLE
  5
18B
  8
DATA
  6
CONTINUOUS
 62
     7
 10
-1504.5515620000001
 20
-2634.2372259999988
 30
0.0
 40
3.962399999999433
  0
CIRCLE
  5
18C
  8
DATA
  6
CONTINUOUS
 62
     7
 10
-1504.5515620000001
 20
-2634.2372259999988
 30
0.0
 40
2.9209999999993661
  0
LINE
  5
18D
  8
DATA
  6
CONTINUOUS
 62
     7
 10
-1555.5220469999999
 20
-2593.060230999999
 30
0.0
 11
-1555.5220469999999
 21
-2579.2025399999989
 31
0.0
  0
LINE
  5
18E
  8
DATA
  6
CONTINUOUS
 62
     7
 10
-750.0
 20
-2008.384
 30
0.0
 11
-298.89599999999882
 21
-2008.384
 31
0.0
  0
LINE
  5
18F
  8
DATA
  6
CONTINUOUS
 62
     7
 10
-614.44800000000043
 20
-2293.384
 30
0.0
 11
-434.44800000000032
 21
-2293.384
 31
0.0
  0
LINE
  5
190
  8
DATA
  6
CONTINUOUS
 62
     7
 10
-753.60000000000025
 20
-2109.884
 30
0.0
 11
-750.0
 21
-2109.884
 31
0.0
  0
CIRCLE
  5
191
  8
DATA
  6
CONTINUOUS
 62
     7
 10
-1504.5515620000001
 20
-2232.6212260000002
 30
0.0
 40
3.2511999999996979
  0
CIRCLE
  5
192
  8
DATA
  6
CONTINUOUS
 62
     7
 10
-1504.5515620000001
 20
-2232.6212260000002
 30
0.0
 40
3.962399999999433
  0
CIRCLE
  5
193
  8
DATA
  6
CONTINUOUS
 62
     7
 10
-1504.5515620000001
 20
-2232.6212260000002
 30
0.0
 40
2.9209999999993661
  0
LINE
  5
194
  8
DATA
  6
CONTINUOUS
 62
     7
 10
-1555.5220469999999
 20
-2191.444230999999
 30
0.0
 11
-1555.5220469999999
 21
-2177.5865399999989
 31
0.0
  0
LINE
  5
195
  8
DATA
  6
CONTINUOUS
 62
     7
 10
-1481.8879999999999
 20
-603.59999999999945
 30
0.0
 11
-1481.8879999999999
 21
-600.0
 31
0.0
  0
LINE
  5
196
  8
DATA
  6
CONTINUOUS
 62
     7
 10
-1350.7760000000001
 20
-148.89599999999959
 30
0.0
 11
-1350.7760000000001
 21
-600.0
 31
0.0
  0
LINE
  5
197
  8
DATA
  6
CONTINUOUS
 62
     7
 10
1250.0
 20
-1125.0
 30
0.0
 11
2750.0
 21
-1125.0
 31
0.0
  0
TEXT
  5
198
  8
DATA
 62
     7
 10
1301.5
 20
-1038.099999999999
 30
0.0
 40
101.59999999999999
  1
コネクターパネル拡大図
 41
0.85
 11
1301.5
 21
-936.5
 31
0.0
 73
     3
  0
ARC
  5
199
  8
DATA
  6
CONTINUOUS
 62
     7
 10
1999.999999999998
 20
-706.12029090909164
 30
0.0
 40
749.25381818181904
 50
252.12315186638079
 51
258.54161072422608
  0
ARC
  5
19A
  8
DATA
  6
CONTINUOUS
 62
     7
 10
1999.999999999998
 20
-706.12029090909164
 30
0.0
 40
593.87970909090916
 50
246.58507945289779
 51
293.41492054710221
  0
TEXT
  5
19B
  8
DATA
 62
     7
 10
1793.7145428539959
 20
-1749.9999999999991
 30
0.0
 40
85.9375
  1
BLK
 41
0.85
 11
1793.7145428539959
 21
-1664.0624999999991
 31
0.0
 73
     3
  0
LINE
  5
19C
  8
DATA
  6
CONTINUOUS
 62
     7
 10
880.22400000000005
 20
-2027.384
 30
0.0
 11
880.22400000000005
 21
-2981.0
 31
0.0
  0
LINE
  5
19D
  8
DATA
  6
CONTINUOUS
 62
     7
 10
899.22400000000016
 20
-2008.384
 30
0.0
 11
899.22400000000016
 21
-3000.0
 31
0.0
  0
LINE
  5
19E
  8
DATA
  6
CONTINUOUS
 62
     7
 10
1764.0
 20
-1251.0947021156151
 30
0.0
 11
1770.0
 21
-1419.199027136749
 31
0.0
  0
TEXT
  5
19F
  8
DATA
 62
     7
 10
2499.9999999999982
 20
-2750.0
 30
0.0
 40
68.75
  1
4mmネジ式タ ーミナル
 41
0.85
 11
2499.9999999999982
 21
-2681.25
 31
0.0
 73
     3
  0
TEXT
  5
1A0
  8
DATA
 62
     7
 10
2499.9999999999982
 20
-2600.0
 30
0.0
 40
68.75
  1
4675C-8LF:2226J(低域)
 41
0.85
 11
2499.9999999999982
 21
-2531.25
 31
0.0
 73
     3
  0
TEXT
  5
1A1
  8
DATA
 62
     7
 10
2499.9999999999982
 20
-1549.9999999999991
 30
0.0
 40
68.75
  1
プッシュ式ターミナル
 41
0.85
 11
2499.9999999999982
 21
-1481.2499999999991
 31
0.0
 73
     3
  0
TEXT
  5
1A2
  8
DATA
 62
     7
 10
2499.9999999999982
 20
-1400.0
 30
0.0
 40
68.75
  1
2446H (高域)
 41
0.85
 11
2499.9999999999982
 21
-1331.25
 31
0.0
 73
     3
  0
LINE
  5
1A3
  8
DATA
  6
CONTINUOUS
 62
     7
 10
2230.0000000000009
 20
-1419.199027136749
 30
0.0
 11
2236.0000000000009
 21
-1251.0947021156151
 31
0.0
  0
ARC
  5
1A4
  8
DATA
  6
CONTINUOUS
 62
     7
 10
1999.999999999998
 20
-706.12029090909164
 30
0.0
 40
749.25381818181881
 50
281.45838927577398
 51
287.87684813361881
  0
CIRCLE
  5
1A5
  8
DATA
  6
CONTINUOUS
 62
     7
 10
1883.999999999998
 20
-1405.436961049794
 30
0.0
 40
40.0
  0
CIRCLE
  5
1A6
  8
DATA
  6
CONTINUOUS
 62
     7
 10
1883.999999999998
 20
-1405.436961049794
 30
0.0
 40
48.0
  0
LINE
  5
1A7
  8
DATA
  6
CONTINUOUS
 62
     7
 10
1987.9999999999959
 20
-1399.374109090907
 30
0.0
 11
2011.999999999998
 21
-1399.374109090907
 31
0.0
  0
LINE
  5
1A8
  8
DATA
  6
CONTINUOUS
 62
     7
 10
1987.9999999999959
 20
-1399.374109090907
 30
0.0
 11
2011.999999999998
 21
-1399.374109090907
 31
0.0
  0
CIRCLE
  5
1A9
  8
DATA
  6
CONTINUOUS
 62
     7
 10
1999.999999999998
 20
-1399.374109090907
 30
0.0
 40
24.0
  0
LINE
  5
1AA
  8
DATA
  6
CONTINUOUS
 62
     7
 10
1999.999999999998
 20
-1411.374109090907
 30
0.0
 11
1999.999999999998
 21
-1387.374109090907
 31
0.0
  0
CIRCLE
  5
1AB
  8
DATA
  6
CONTINUOUS
 62
     7
 10
2115.9999999999982
 20
-1405.436961049794
 30
0.0
 40
40.0
  0
CIRCLE
  5
1AC
  8
DATA
  6
CONTINUOUS
 62
     7
 10
2115.9999999999982
 20
-1405.436961049794
 30
0.0
 40
48.0
  0
ARC
  5
1AD
  8
DATA
  6
CONTINUOUS
 62
     7
 10
1999.999999999998
 20
-706.12029090909164
 30
0.0
 40
749.25381818181825
 50
262.6218875173459
 51
277.37811248265388
  0
LINE
  5
1AE
  8
DATA
  6
CONTINUOUS
 62
     7
 10
1883.999999999998
 20
-1500.0
 30
0.0
 11
1883.999999999998
 21
-1650.0
 31
0.0
  0
LINE
  5
1AF
  8
DATA
  6
CONTINUOUS
 62
     7
 10
1870.6671999999969
 20
-1580.0
 30
0.0
 11
1883.999999999998
 21
-1500.0
 31
0.0
  0
LINE
  5
1B0
  8
DATA
  6
CONTINUOUS
 62
     7
 10
1897.3327999999981
 20
-1580.0
 30
0.0
 11
1883.999999999998
 21
-1500.0
 31
0.0
  0
LINE
  5
1B1
  8
DATA
  6
CONTINUOUS
 62
     7
 10
2115.9999999999982
 20
-1500.0
 30
0.0
 11
2115.9999999999982
 21
-1650.0
 31
0.0
  0
LINE
  5
1B2
  8
DATA
  6
CONTINUOUS
 62
     7
 10
2102.667199999998
 20
-1580.0
 30
0.0
 11
2115.9999999999982
 21
-1500.0
 31
0.0
  0
LINE
  5
1B3
  8
DATA
  6
CONTINUOUS
 62
     7
 10
2129.332799999996
 20
-1580.0
 30
0.0
 11
2115.9999999999982
 21
-1500.0
 31
0.0
  0
TEXT
  5
1B4
  8
DATA
 62
     7
 10
2023.793575680676
 20
-1749.9999999999991
 30
0.0
 40
85.9375
  1
RED
 41
0.85
 11
2023.793575680676
 21
-1664.0624999999991
 31
0.0
 73
     3
  0
ARC
  5
1B5
  8
DATA
  6
CONTINUOUS
 62
     7
 10
-517.77180665506046
 20
-2387.8921607472639
 30
0.0
 40
1.9126986889106801
 50
307.64190249757769
 51
354.26701928934739
  0
LINE
  5
1B6
  8
DATA
  6
CONTINUOUS
 62
     7
 10
-566.90179483649956
 20
-2357.7511250185012
 30
0.0
 11
-557.93503483649965
 21
-2336.3858450185012
 31
0.0
  0
LINE
  5
1B7
  8
DATA
  6
CONTINUOUS
 62
     7
 10
-566.90179483649956
 20
-2357.7511250185012
 30
0.0
 11
-575.75791483650005
 21
-2336.3858450185012
 31
0.0
  0
LINE
  5
1B8
  8
DATA
  6
CONTINUOUS
 62
     7
 10
-498.93139483649981
 20
-2396.3858450185012
 30
0.0
 11
-498.93139483649981
 21
-2336.3858450185012
 31
0.0
  0
LINE
  5
1B9
  8
DATA
  6
CONTINUOUS
 62
     7
 10
-487.4184748364998
 20
-2336.3858450185012
 30
0.0
 11
-487.4184748364998
 21
-2387.197685018501
 31
0.0
  0
LINE
  5
1BA
  8
DATA
  6
CONTINUOUS
 62
     7
 10
-553.72837483649971
 20
-2336.3858450185012
 30
0.0
 11
-553.72837483649971
 21
-2387.197685018501
 31
0.0
  0
LINE
  5
1BB
  8
DATA
  6
CONTINUOUS
 62
     7
 10
-542.65825483649985
 20
-2336.3858450185012
 30
0.0
 11
-542.65825483649985
 21
-2387.197685018501
 31
0.0
  0
LINE
  5
1BC
  8
DATA
  6
CONTINUOUS
 62
     7
 10
-536.90179483649956
 20
-2336.3858450185012
 30
0.0
 11
-536.90179483649956
 21
-2396.3858450185012
 31
0.0
  0
LINE
  5
1BD
  8
DATA
  6
CONTINUOUS
 62
     7
 10
-526.82797483649995
 20
-2342.0315450184989
 30
0.0
 11
-526.82797483649995
 21
-2361.2935850184999
 31
0.0
  0
LINE
  5
1BE
  8
DATA
  6
CONTINUOUS
 62
     7
 10
-505.23649483649962
 20
-2360.1790250185009
 30
0.0
 11
-505.23649483649962
 21
-2346.1275650184998
 31
0.0
  0
LINE
  5
1BF
  8
DATA
  6
CONTINUOUS
 62
     7
 10
-515.86867483649996
 20
-2344.688405018499
 30
0.0
 11
-515.86867483649996
 21
-2358.6367850185011
 31
0.0
  0
ARC
  5
1C0
  8
DATA
  6
CONTINUOUS
 62
     7
 10
-555.94981483649963
 20
-2380.9790450185001
 30
0.0
 40
15.47312055100755
 50
264.69085622153369
 51
323.99119915423501
  0
LINE
  5
1C1
  8
DATA
  6
CONTINUOUS
 62
     7
 10
-562.14163483649963
 20
-2377.5666050185
 30
0.0
 11
-562.14163483649963
 21
-2387.1975650185009
 31
0.0
  0
LINE
  5
1C2
  8
DATA
  6
CONTINUOUS
 62
     7
 10
-562.14163483649963
 20
-2377.5666050185
 30
0.0
 11
-572.10475483649975
 21
-2377.5666050185
 31
0.0
  0
LINE
  5
1C3
  8
DATA
  6
CONTINUOUS
 62
     7
 10
-572.10475483649975
 20
-2377.5666050185
 30
0.0
 11
-572.10475483649975
 21
-2387.1975650185009
 31
0.0
  0
ARC
  5
1C4
  8
DATA
  6
CONTINUOUS
 62
     7
 10
-557.91391483649977
 20
-2387.3274050185
 30
0.0
 40
4.1875729574543987
 50
269.71184879275029
 51
1.7759870057006419
  0
ARC
  5
1C5
  8
DATA
  6
CONTINUOUS
 62
     7
 10
-557.95609483649969
 20
-2387.3274050185
 30
0.0
 40
4.1875515447573699
 50
178.22401299429831
 51
270.288151207243
  0
ARC
  5
1C6
  8
DATA
  6
CONTINUOUS
 62
     7
 10
-558.81319483650009
 20
-2380.9790450185001
 30
0.0
 40
15.47309542167938
 50
216.00880084575761
 51
275.30914377846568
  0
ARC
  5
1C7
  8
DATA
  6
CONTINUOUS
 62
     7
 10
-565.11211483649981
 20
-2386.8583850185
 30
0.0
 40
7.0008012490573126
 50
182.77699545000809
 51
207.3596066671611
  0
CIRCLE
  5
1C8
  8
DATA
  6
CONTINUOUS
 62
     7
 10
-566.29291483650013
 20
-2366.0537450185011
 30
0.0
 40
5.7010800000002737
  0
LINE
  5
1C9
  8
DATA
  6
CONTINUOUS
 62
     7
 10
-468.93139483649981
 20
-2396.3857850184991
 30
0.0
 11
-498.93139483649981
 21
-2396.3857850184991
 31
0.0
  0
LINE
  5
1CA
  8
DATA
  6
CONTINUOUS
 62
     7
 10
-468.93139483649981
 20
-2396.3857850184991
 30
0.0
 11
-468.93139483649981
 21
-2377.5665450185002
 31
0.0
  0
LINE
  5
1CB
  8
DATA
  6
CONTINUOUS
 62
     7
 10
-468.93139483649981
 20
-2377.5666050185
 30
0.0
 11
-479.00515483650008
 21
-2377.5666050185
 31
0.0
  0
LINE
  5
1CC
  8
DATA
  6
CONTINUOUS
 62
     7
 10
-479.00515483650008
 20
-2377.5666050185
 30
0.0
 11
-479.00515483650008
 21
-2387.1975650185009
 31
0.0
  0
LINE
  5
1CD
  8
DATA
  6
CONTINUOUS
 62
     7
 10
-536.90179483649956
 20
-2396.3857850184991
 30
0.0
 11
-515.86867483649996
 21
-2396.385725018501
 31
0.0
  0
LINE
  5
1CE
  8
DATA
  6
CONTINUOUS
 62
     7
 10
-526.8280348364998
 20
-2390.7400250185001
 30
0.0
 11
-521.40367483650016
 21
-2390.7400250185001
 31
0.0
  0
LINE
  5
1CF
  8
DATA
  6
CONTINUOUS
 62
     7
 10
-526.82797483649995
 20
-2390.7400250185001
 30
0.0
 11
-526.82797483649995
 21
-2367.049985018501
 31
0.0
  0
LINE
  5
1D0
  8
DATA
  6
CONTINUOUS
 62
     7
 10
-526.8280348364998
 20
-2367.049985018501
 30
0.0
 11
-521.40367483650016
 21
-2367.049985018501
 31
0.0
  0
LINE
  5
1D1
  8
DATA
  6
CONTINUOUS
 62
     7
 10
-515.86867483649996
 20
-2388.0832250185022
 30
0.0
 11
-515.86867483649996
 21
-2369.7067850184999
 31
0.0
  0
ARC
  5
1D2
  8
DATA
  6
CONTINUOUS
 62
     7
 10
-549.6508948364999
 20
-2386.8583850185
 30
0.0
 40
7.0007912871909452
 50
332.64039333284489
 51
357.22300455000573
  0
ARC
  5
1D3
  8
DATA
  6
CONTINUOUS
 62
     7
 10
-483.19075483649988
 20
-2387.3274050185
 30
0.0
 40
4.1875729574543987
 50
269.71184879275029
 51
1.7759870057006419
  0
ARC
  5
1D4
  8
DATA
  6
CONTINUOUS
 62
     7
 10
-483.23287483650012
 20
-2387.3274050185
 30
0.0
 40
4.1875515447573699
 50
178.22401299429831
 51
270.28815120725238
  0
LINE
  5
1D5
  8
DATA
  6
CONTINUOUS
 62
     7
 10
-505.24135483649962
 20
-2386.7547650185011
 30
0.0
 11
-505.24135483649962
 21
-2370.8138450185002
 31
0.0
  0
LINE
  5
1D6
  8
DATA
  6
CONTINUOUS
 62
     7
 10
-526.8280348364998
 20
-2361.2935850184999
 30
0.0
 11
-521.40367483650016
 21
-2361.2935850184999
 31
0.0
  0
ARC
  5
1D7
  8
DATA
  6
CONTINUOUS
 62
     7
 10
-516.63139483650002
 20
-2384.9955650185011
 30
0.0
 40
11.415668470309511
 50
273.83098160911442
 51
351.13514730980268
  0
LINE
  5
1D8
  8
DATA
  6
CONTINUOUS
 62
     7
 10
-553.72837483649971
 20
-2336.3858450185012
 30
0.0
 11
-542.65825483649985
 21
-2336.3858450185012
 31
0.0
  0
LINE
  5
1D9
  8
DATA
  6
CONTINUOUS
 62
     7
 10
-575.75791483650005
 20
-2336.3858450185012
 30
0.0
 11
-557.93503483649965
 21
-2336.3858450185012
 31
0.0
  0
LINE
  5
1DA
  8
DATA
  6
CONTINUOUS
 62
     7
 10
-498.93139483649981
 20
-2336.3858450185012
 30
0.0
 11
-487.4184748364998
 21
-2336.3858450185012
 31
0.0
  0
LINE
  5
1DB
  8
DATA
  6
CONTINUOUS
 62
     7
 10
-536.90179483649956
 20
-2336.3858450185012
 30
0.0
 11
-515.75305406762004
 21
-2336.3858935809421
 31
0.0
  0
LINE
  5
1DC
  8
DATA
  6
CONTINUOUS
 62
     7
 10
-526.8280348364998
 20
-2342.0316050185011
 30
0.0
 11
-521.40367483650016
 21
-2342.0316050185011
 31
0.0
  0
ARC
  5
1DD
  8
DATA
  6
CONTINUOUS
 62
     7
 10
-516.51757483649953
 20
-2347.7586050184991
 30
0.0
 40
11.398379597468979
 50
8.2269238590123557
 51
86.154126692155486
  0
ARC
  5
1DE
  8
DATA
  6
CONTINUOUS
 62
     7
 10
-521.33962206088006
 20
-2380.21789725498
 30
0.0
 40
10.52232272028964
 50
269.6512199376138
 51
282.82648280687329
  0
ARC
  5
1DF
  8
DATA
  6
CONTINUOUS
 62
     7
 10
-520.15779867169999
 20
-2384.6665268858628
 30
0.0
 40
5.9246274221599764
 50
281.23310362266187
 51
306.86200889406388
  0
ARC
  5
1E0
  8
DATA
  6
CONTINUOUS
 62
     7
 10
-517.77180665506046
 20
-2369.8978492897359
 30
0.0
 40
1.912698688910641
 50
5.7329807106526083
 51
52.358097502422339
  0
ARC
  5
1E1
  8
DATA
  6
CONTINUOUS
 62
     7
 10
-521.33962206088006
 20
-2377.572112782022
 30
0.0
 40
10.52232272028977
 50
77.173517193126656
 51
90.348780062386126
  0
ARC
  5
1E2
  8
DATA
  6
CONTINUOUS
 62
     7
 10
-520.15779867169999
 20
-2373.1234831511379
 30
0.0
 40
5.9246274221595341
 50
53.1379911059352
 51
78.766896377338313
  0
ARC
  5
1E3
  8
DATA
  6
CONTINUOUS
 62
     7
 10
-511.04743483649997
 20
-2371.2063050185011
 30
0.0
 40
5.8193289834831283
 50
3.8670063598308371
 51
88.361634567897383
  0
ARC
  5
1E4
  8
DATA
  6
CONTINUOUS
 62
     7
 10
-511.05277483649962
 20
-2359.5667850185
 30
0.0
 40
5.825111639687365
 50
271.68928210464378
 51
356.07828298265252
  0
ARC
  5
1E5
  8
DATA
  6
CONTINUOUS
 62
     7
 10
-517.77180665506046
 20
-2358.4457207472651
 30
0.0
 40
1.9126986889106801
 50
307.64190249757769
 51
354.26701928934739
  0
ARC
  5
1E6
  8
DATA
  6
CONTINUOUS
 62
     7
 10
-521.33962206088006
 20
-2350.7714572549789
 30
0.0
 40
10.52232272028964
 50
269.6512199376138
 51
282.82648280687329
  0
ARC
  5
1E7
  8
DATA
  6
CONTINUOUS
 62
     7
 10
-520.15779867169999
 20
-2355.2200868858622
 30
0.0
 40
5.9246274221599764
 50
281.23310362266187
 51
306.86200889406388
  0
ARC
  5
1E8
  8
DATA
  6
CONTINUOUS
 62
     7
 10
-517.77180665506046
 20
-2344.8794692897359
 30
0.0
 40
1.912698688910641
 50
5.7329807106526083
 51
52.358097502422339
  0
ARC
  5
1E9
  8
DATA
  6
CONTINUOUS
 62
     7
 10
-521.33962206088006
 20
-2352.5537327820211
 30
0.0
 40
10.52232272028977
 50
77.173517193126656
 51
90.348780062386126
  0
ARC
  5
1EA
  8
DATA
  6
CONTINUOUS
 62
     7
 10
-520.15779867169999
 20
-2348.1051031511388
 30
0.0
 40
5.9246274221595341
 50
53.1379911059352
 51
78.766896377338313
  0
LINE
  5
1EB
  8
DATA
  6
CONTINUOUS
 62
     7
 10
530.61101607715375
 20
-2635.0012573592621
 30
0.0
 11
618.61101607715375
 21
-2635.0012573592612
 31
0.0
  0
LINE
  5
1EC
  8
DATA
  6
CONTINUOUS
 62
     7
 10
618.61101607715375
 20
-2775.0012573592621
 30
0.0
 11
530.61101607715375
 21
-2775.0012573592621
 31
0.0
  0
LINE
  5
1ED
  8
DATA
  6
CONTINUOUS
 62
     7
 10
620.61101607715545
 20
-2674.5012573592621
 30
0.0
 11
528.61101607715375
 21
-2674.5012573592621
 31
0.0
  0
LINE
  5
1EE
  8
DATA
  6
CONTINUOUS
 62
     7
 10
528.61101607715375
 20
-2643.0012573592612
 30
0.0
 11
620.61101607715545
 21
-2643.0012573592612
 31
0.0
  0
LINE
  5
1EF
  8
DATA
  6
CONTINUOUS
 62
     7
 10
591.61101607715545
 20
-2678.0012573592612
 30
0.0
 11
601.61101607715375
 21
-2678.0012573592612
 31
0.0
  0
LINE
  5
1F0
  8
DATA
  6
CONTINUOUS
 62
     7
 10
591.61101607715545
 20
-2705.0012573592621
 30
0.0
 11
601.61101607715375
 21
-2705.0012573592621
 31
0.0
  0
TEXT
  5
1F1
  8
DATA
 62
     7
 10
565.1268181139792
 20
-2673.5012573592612
 30
0.0
 40
6.015625
  1
+
 41
0.85
 11
565.1268181139792
 21
-2667.4856323592612
 31
0.0
 73
     3
  0
TEXT
  5
1F2
  8
DATA
 62
     7
 10
580.62681811397727
 20
-2673.5012573592612
 30
0.0
 40
6.015625
  1
-
 41
0.85
 11
580.62681811397727
 21
-2667.4856323592612
 31
0.0
 73
     3
  0
ARC
  5
1F3
  8
DATA
  6
CONTINUOUS
 62
     7
 10
530.61101607715375
 20
-2765.0012573592621
 30
0.0
 40
10.0
 50
180.0
 51
270.0
  0
ARC
  5
1F4
  8
DATA
  6
CONTINUOUS
 62
     7
 10
530.61101607715375
 20
-2645.0012573592621
 30
0.0
 40
10.0
 50
90.0
 51
180.0
  0
CIRCLE
  5
1F5
  8
DATA
  6
CONTINUOUS
 62
     7
 10
518.85801607715507
 20
-2633.7542573592659
 30
0.0
 40
4.0
  0
LINE
  5
1F6
  8
DATA
  6
CONTINUOUS
 62
     7
 10
516.85801607715325
 20
-2633.7542573592659
 30
0.0
 11
520.85801607715325
 21
-2633.7542573592659
 31
0.0
  0
LINE
  5
1F7
  8
DATA
  6
CONTINUOUS
 62
     7
 10
518.85801607715507
 20
-2635.754257359265
 30
0.0
 11
518.85801607715507
 21
-2631.7542573592668
 31
0.0
  0
CIRCLE
  5
1F8
  8
DATA
  6
CONTINUOUS
 62
     7
 10
518.85801607715507
 20
-2776.2482573592579
 30
0.0
 40
4.0
  0
LINE
  5
1F9
  8
DATA
  6
CONTINUOUS
 62
     7
 10
516.85801607715325
 20
-2776.2482573592579
 30
0.0
 11
520.85801607715325
 21
-2776.2482573592579
 31
0.0
  0
LINE
  5
1FA
  8
DATA
  6
CONTINUOUS
 62
     7
 10
518.85801607715507
 20
-2778.2482573592579
 30
0.0
 11
518.85801607715507
 21
-2774.2482573592579
 31
0.0
  0
LINE
  5
1FB
  8
DATA
  6
CONTINUOUS
 62
     7
 10
520.61101607715557
 20
-2765.0012573592621
 30
0.0
 11
520.61101607715557
 21
-2645.0012573592621
 31
0.0
  0
LINE
  5
1FC
  8
DATA
  6
CONTINUOUS
 62
     7
 10
573.11101607715375
 20
-2708.0012573592621
 30
0.0
 11
573.11101607715375
 21
-2675.0012573592612
 31
0.0
  0
LINE
  5
1FD
  8
DATA
  6
CONTINUOUS
 62
     7
 10
576.11101607715375
 20
-2708.0012573592621
 30
0.0
 11
576.11101607715375
 21
-2675.0012573592612
 31
0.0
  0
LINE
  5
1FE
  8
DATA
  6
CONTINUOUS
 62
     7
 10
573.11101607715375
 20
-2675.0012573592612
 30
0.0
 11
576.11101607715375
 21
-2675.0012573592612
 31
0.0
  0
LINE
  5
1FF
  8
DATA
  6
CONTINUOUS
 62
     7
 10
573.11101607715375
 20
-2708.0012573592621
 30
0.0
 11
576.11101607715375
 21
-2708.0012573592621
 31
0.0
  0
LINE
  5
200
  8
DATA
  6
CONTINUOUS
 62
     7
 10
547.61101607715375
 20
-2705.0012573592621
 30
0.0
 11
547.61101607715375
 21
-2678.0012573592612
 31
0.0
  0
LINE
  5
201
  8
DATA
  6
CONTINUOUS
 62
     7
 10
557.61101607715375
 20
-2708.0012573592621
 30
0.0
 11
557.61101607715375
 21
-2675.0012573592612
 31
0.0
  0
LINE
  5
202
  8
DATA
  6
CONTINUOUS
 62
     7
 10
560.61101607715375
 20
-2708.0012573592621
 30
0.0
 11
560.61101607715375
 21
-2675.0012573592612
 31
0.0
  0
LINE
  5
203
  8
DATA
  6
CONTINUOUS
 62
     7
 10
557.61101607715375
 20
-2675.0012573592612
 30
0.0
 11
560.61101607715375
 21
-2675.0012573592612
 31
0.0
  0
LINE
  5
204
  8
DATA
  6
CONTINUOUS
 62
     7
 10
557.61101607715375
 20
-2708.0012573592621
 30
0.0
 11
560.61101607715375
 21
-2708.0012573592621
 31
0.0
  0
LINE
  5
205
  8
DATA
  6
CONTINUOUS
 62
     7
 10
591.61101607715545
 20
-2675.0012573592612
 30
0.0
 11
591.61101607715545
 21
-2708.0012573592621
 31
0.0
  0
LINE
  5
206
  8
DATA
  6
CONTINUOUS
 62
     7
 10
588.61101607715375
 20
-2675.0012573592612
 30
0.0
 11
588.61101607715375
 21
-2708.0012573592621
 31
0.0
  0
LINE
  5
207
  8
DATA
  6
CONTINUOUS
 62
     7
 10
588.61101607715375
 20
-2675.0012573592612
 30
0.0
 11
591.61101607715545
 21
-2675.0012573592612
 31
0.0
  0
LINE
  5
208
  8
DATA
  6
CONTINUOUS
 62
     7
 10
588.61101607715375
 20
-2708.0012573592621
 30
0.0
 11
591.61101607715545
 21
-2708.0012573592621
 31
0.0
  0
LINE
  5
209
  8
DATA
  6
CONTINUOUS
 62
     7
 10
547.61101607715375
 20
-2678.0012573592612
 30
0.0
 11
557.61101607715375
 21
-2678.0012573592612
 31
0.0
  0
LINE
  5
20A
  8
DATA
  6
CONTINUOUS
 62
     7
 10
560.61101607715375
 20
-2678.0012573592612
 30
0.0
 11
573.11101607715375
 21
-2678.0012573592612
 31
0.0
  0
LINE
  5
20B
  8
DATA
  6
CONTINUOUS
 62
     7
 10
576.11101607715375
 20
-2678.0012573592612
 30
0.0
 11
588.61101607715375
 21
-2678.0012573592612
 31
0.0
  0
LINE
  5
20C
  8
DATA
  6
CONTINUOUS
 62
     7
 10
547.61101607715375
 20
-2705.0012573592621
 30
0.0
 11
557.61101607715375
 21
-2705.0012573592621
 31
0.0
  0
CIRCLE
  5
20D
  8
DATA
  6
CONTINUOUS
 62
     7
 10
552.61101607715375
 20
-2685.0012573592621
 30
0.0
 40
2.5
  0
CIRCLE
  5
20E
  8
DATA
  6
CONTINUOUS
 62
     7
 10
552.61101607715375
 20
-2698.0012573592612
 30
0.0
 40
2.5
  0
CIRCLE
  5
20F
  8
DATA
  6
CONTINUOUS
 62
     7
 10
596.61101607715375
 20
-2685.0012573592621
 30
0.0
 40
2.5
  0
CIRCLE
  5
210
  8
DATA
  6
CONTINUOUS
 62
     7
 10
596.61101607715375
 20
-2698.0012573592612
 30
0.0
 40
2.5
  0
LINE
  5
211
  8
DATA
  6
CONTINUOUS
 62
     7
 10
564.23301607715325
 20
-2690.797257359261
 30
0.0
 11
562.64901607715433
 21
-2686.585257359261
 31
0.0
  0
ARC
  5
212
  8
DATA
  6
CONTINUOUS
 62
     7
 10
562.36101607715375
 20
-2691.5012573592612
 30
0.0
 40
2.0000000000013518
 50
339.39030706246302
 51
20.609692937512481
  0
LINE
  5
213
  8
DATA
  6
CONTINUOUS
 62
     7
 10
569.48901607715618
 20
-2690.797257359261
 30
0.0
 11
571.07301607715522
 21
-2686.585257359261
 31
0.0
  0
ARC
  5
214
  8
DATA
  6
CONTINUOUS
 62
     7
 10
571.36101607715375
 20
-2691.5012573592612
 30
0.0
 40
1.9999999999993301
 50
159.39030706246911
 51
200.6096929375552
  0
ARC
  5
215
  8
DATA
  6
CONTINUOUS
 62
     7
 10
566.86101607715375
 20
-2685.0012573592621
 30
0.0
 40
4.4999999999995044
 50
339.39030706246768
 51
200.6096929375239
  0
CIRCLE
  5
216
  8
DATA
  6
CONTINUOUS
 62
     7
 10
566.86101607715375
 20
-2685.0012573592621
 30
0.0
 40
2.0
  0
CIRCLE
  5
217
  8
DATA
  6
CONTINUOUS
 62
     7
 10
566.86101607715375
 20
-2698.0012573592612
 30
0.0
 40
4.5
  0
LINE
  5
218
  8
DATA
  6
CONTINUOUS
 62
     7
 10
563.34518502639253
 20
-2700.8099816288359
 30
0.0
 11
569.66974034673035
 21
-2694.4854263084999
 31
0.0
  0
LINE
  5
219
  8
DATA
  6
CONTINUOUS
 62
     7
 10
564.05229180757919
 20
-2701.5170884100239
 30
0.0
 11
570.37684712791531
 21
-2695.1925330896861
 31
0.0
  0
LINE
  5
21A
  8
DATA
  6
CONTINUOUS
 62
     7
 10
562.86101607715375
 20
-2720.0012573592612
 30
0.0
 11
570.86101607715545
 21
-2720.0012573592612
 31
0.0
  0
LINE
  5
21B
  8
DATA
  6
CONTINUOUS
 62
     7
 10
563.36101607715557
 20
-2715.0012573592612
 30
0.0
 11
570.36101607715545
 21
-2715.0012573592612
 31
0.0
  0
LINE
  5
21C
  8
DATA
  6
CONTINUOUS
 62
     7
 10
563.61101607715375
 20
-2714.201257359261
 30
0.0
 11
570.11101607715386
 21
-2714.201257359261
 31
0.0
  0
LINE
  5
21D
  8
DATA
  6
CONTINUOUS
 62
     7
 10
563.61101607715375
 20
-2705.5012573592612
 30
0.0
 11
570.11101607715545
 21
-2705.5012573592612
 31
0.0
  0
LINE
  5
21E
  8
DATA
  6
CONTINUOUS
 62
     7
 10
569.36101607715545
 20
-2705.5012573592612
 30
0.0
 11
569.36101607715545
 21
-2703.0012573592612
 31
0.0
  0
LINE
  5
21F
  8
DATA
  6
CONTINUOUS
 62
     7
 10
564.36101607715375
 20
-2703.0012573592612
 30
0.0
 11
564.36101607715545
 21
-2705.5012573592612
 31
0.0
  0
LINE
  5
220
  8
DATA
  6
CONTINUOUS
 62
     7
 10
563.61101607715375
 20
-2705.5012573592612
 30
0.0
 11
563.61101607715375
 21
-2714.201257359261
 31
0.0
  0
LINE
  5
221
  8
DATA
  6
CONTINUOUS
 62
     7
 10
570.11101607715386
 20
-2714.201257359261
 30
0.0
 11
570.11101607715545
 21
-2705.5012573592612
 31
0.0
  0
LINE
  5
222
  8
DATA
  6
CONTINUOUS
 62
     7
 10
563.61101607715375
 20
-2714.201257359261
 30
0.0
 11
563.36101607715557
 21
-2715.0012573592612
 31
0.0
  0
LINE
  5
223
  8
DATA
  6
CONTINUOUS
 62
     7
 10
563.36101607715557
 20
-2715.0012573592612
 30
0.0
 11
562.86101607715375
 21
-2720.0012573592612
 31
0.0
  0
LINE
  5
224
  8
DATA
  6
CONTINUOUS
 62
     7
 10
570.86101607715545
 20
-2720.0012573592612
 30
0.0
 11
570.36101607715545
 21
-2715.0012573592612
 31
0.0
  0
LINE
  5
225
  8
DATA
  6
CONTINUOUS
 62
     7
 10
570.36101607715545
 20
-2715.0012573592612
 30
0.0
 11
570.11101607715386
 21
-2714.201257359261
 31
0.0
  0
LINE
  5
226
  8
DATA
  6
CONTINUOUS
 62
     7
 10
560.61101607715375
 20
-2705.0012573592621
 30
0.0
 11
564.36101607715545
 21
-2705.0012573592621
 31
0.0
  0
LINE
  5
227
  8
DATA
  6
CONTINUOUS
 62
     7
 10
569.36101607715545
 20
-2705.0012573592621
 30
0.0
 11
573.11101607715375
 21
-2705.0012573592621
 31
0.0
  0
LINE
  5
228
  8
DATA
  6
CONTINUOUS
 62
     7
 10
564.86101607715545
 20
-2693.9701284851121
 30
0.0
 11
564.86101607715545
 21
-2693.0012573592612
 31
0.0
  0
LINE
  5
229
  8
DATA
  6
CONTINUOUS
 62
     7
 10
568.86101607715375
 20
-2693.9701284851121
 30
0.0
 11
568.86101607715375
 21
-2693.0012573592612
 31
0.0
  0
LINE
  5
22A
  8
DATA
  6
CONTINUOUS
 62
     7
 10
561.86101607715375
 20
-2703.0012573592612
 30
0.0
 11
561.86101607715375
 21
-2693.0012573592612
 31
0.0
  0
LINE
  5
22B
  8
DATA
  6
CONTINUOUS
 62
     7
 10
571.86101607715386
 20
-2693.0012573592612
 30
0.0
 11
571.86101607715386
 21
-2703.0012573592612
 31
0.0
  0
LINE
  5
22C
  8
DATA
  6
CONTINUOUS
 62
     7
 10
571.86101607715386
 20
-2703.0012573592612
 30
0.0
 11
561.86101607715375
 21
-2703.0012573592612
 31
0.0
  0
LINE
  5
22D
  8
DATA
  6
CONTINUOUS
 62
     7
 10
568.86101607715375
 20
-2693.0012573592612
 30
0.0
 11
571.86101607715386
 21
-2693.0012573592612
 31
0.0
  0
LINE
  5
22E
  8
DATA
  6
CONTINUOUS
 62
     7
 10
561.86101607715375
 20
-2693.0012573592612
 30
0.0
 11
564.86101607715545
 21
-2693.0012573592612
 31
0.0
  0
LINE
  5
22F
  8
DATA
  6
CONTINUOUS
 62
     7
 10
568.86101607715375
 20
-2693.8012573592609
 30
0.0
 11
571.86101607715386
 21
-2693.8012573592609
 31
0.0
  0
LINE
  5
230
  8
DATA
  6
CONTINUOUS
 62
     7
 10
561.86101607715375
 20
-2693.8012573592609
 30
0.0
 11
564.86101607715545
 21
-2693.8012573592609
 31
0.0
  0
LINE
  5
231
  8
DATA
  6
CONTINUOUS
 62
     7
 10
564.23301607715325
 20
-2692.20525735926
 30
0.0
 11
563.93366564980238
 21
-2693.0012573592612
 31
0.0
  0
LINE
  5
232
  8
DATA
  6
CONTINUOUS
 62
     7
 10
569.48901607715618
 20
-2692.20525735926
 30
0.0
 11
569.78836650450535
 21
-2693.0012573592612
 31
0.0
  0
LINE
  5
233
  8
DATA
  6
CONTINUOUS
 62
     7
 10
579.73301607715325
 20
-2690.797257359261
 30
0.0
 11
578.14901607715444
 21
-2686.585257359261
 31
0.0
  0
ARC
  5
234
  8
DATA
  6
CONTINUOUS
 62
     7
 10
577.86101607715375
 20
-2691.5012573592612
 30
0.0
 40
1.9999999999996501
 50
339.39030706244472
 51
20.609692937530781
  0
LINE
  5
235
  8
DATA
  6
CONTINUOUS
 62
     7
 10
584.98901607715436
 20
-2690.797257359261
 30
0.0
 11
586.57301607715522
 21
-2686.585257359261
 31
0.0
  0
ARC
  5
236
  8
DATA
  6
CONTINUOUS
 62
     7
 10
586.86101607715375
 20
-2691.5012573592612
 30
0.0
 40
2.000000000001033
 50
159.39030706248749
 51
200.60969293753681
  0
ARC
  5
237
  8
DATA
  6
CONTINUOUS
 62
     7
 10
582.36101607715375
 20
-2685.0012573592621
 30
0.0
 40
4.4999999999995044
 50
339.39030706246768
 51
200.6096929375239
  0
CIRCLE
  5
238
  8
DATA
  6
CONTINUOUS
 62
     7
 10
582.36101607715375
 20
-2685.0012573592621
 30
0.0
 40
2.0
  0
CIRCLE
  5
239
  8
DATA
  6
CONTINUOUS
 62
     7
 10
582.36101607715375
 20
-2698.0012573592612
 30
0.0
 40
4.5
  0
LINE
  5
23A
  8
DATA
  6
CONTINUOUS
 62
     7
 10
578.84518502639253
 20
-2700.8099816288359
 30
0.0
 11
585.16974034672853
 21
-2694.4854263084999
 31
0.0
  0
LINE
  5
23B
  8
DATA
  6
CONTINUOUS
 62
     7
 10
579.55229180757931
 20
-2701.5170884100239
 30
0.0
 11
585.87684712791531
 21
-2695.1925330896861
 31
0.0
  0
LINE
  5
23C
  8
DATA
  6
CONTINUOUS
 62
     7
 10
578.36101607715375
 20
-2720.0012573592612
 30
0.0
 11
586.36101607715545
 21
-2720.0012573592612
 31
0.0
  0
LINE
  5
23D
  8
DATA
  6
CONTINUOUS
 62
     7
 10
578.86101607715375
 20
-2715.0012573592612
 30
0.0
 11
585.86101607715375
 21
-2715.0012573592612
 31
0.0
  0
LINE
  5
23E
  8
DATA
  6
CONTINUOUS
 62
     7
 10
579.11101607715375
 20
-2714.201257359261
 30
0.0
 11
585.61101607715204
 21
-2714.201257359261
 31
0.0
  0
LINE
  5
23F
  8
DATA
  6
CONTINUOUS
 62
     7
 10
579.11101607715375
 20
-2705.5012573592612
 30
0.0
 11
585.61101607715375
 21
-2705.5012573592612
 31
0.0
  0
LINE
  5
240
  8
DATA
  6
CONTINUOUS
 62
     7
 10
584.86101607715386
 20
-2705.5012573592612
 30
0.0
 11
584.86101607715386
 21
-2703.0012573592612
 31
0.0
  0
LINE
  5
241
  8
DATA
  6
CONTINUOUS
 62
     7
 10
579.86101607715375
 20
-2703.0012573592612
 30
0.0
 11
579.86101607715557
 21
-2705.5012573592612
 31
0.0
  0
LINE
  5
242
  8
DATA
  6
CONTINUOUS
 62
     7
 10
579.11101607715375
 20
-2705.5012573592612
 30
0.0
 11
579.11101607715375
 21
-2714.201257359261
 31
0.0
  0
LINE
  5
243
  8
DATA
  6
CONTINUOUS
 62
     7
 10
585.61101607715204
 20
-2714.201257359261
 30
0.0
 11
585.61101607715375
 21
-2705.5012573592612
 31
0.0
  0
LINE
  5
244
  8
DATA
  6
CONTINUOUS
 62
     7
 10
579.11101607715375
 20
-2714.201257359261
 30
0.0
 11
578.86101607715375
 21
-2715.0012573592612
 31
0.0
  0
LINE
  5
245
  8
DATA
  6
CONTINUOUS
 62
     7
 10
578.86101607715375
 20
-2715.0012573592612
 30
0.0
 11
578.36101607715375
 21
-2720.0012573592612
 31
0.0
  0
LINE
  5
246
  8
DATA
  6
CONTINUOUS
 62
     7
 10
586.36101607715545
 20
-2720.0012573592612
 30
0.0
 11
585.86101607715375
 21
-2715.0012573592612
 31
0.0
  0
LINE
  5
247
  8
DATA
  6
CONTINUOUS
 62
     7
 10
585.86101607715375
 20
-2715.0012573592612
 30
0.0
 11
585.61101607715204
 21
-2714.201257359261
 31
0.0
  0
LINE
  5
248
  8
DATA
  6
CONTINUOUS
 62
     7
 10
576.11101607715375
 20
-2705.0012573592621
 30
0.0
 11
579.86101607715557
 21
-2705.0012573592621
 31
0.0
  0
LINE
  5
249
  8
DATA
  6
CONTINUOUS
 62
     7
 10
584.86101607715386
 20
-2705.0012573592621
 30
0.0
 11
588.61101607715375
 21
-2705.0012573592621
 31
0.0
  0
LINE
  5
24A
  8
DATA
  6
CONTINUOUS
 62
     7
 10
580.36101607715386
 20
-2693.9701284851121
 30
0.0
 11
580.36101607715386
 21
-2693.0012573592612
 31
0.0
  0
LINE
  5
24B
  8
DATA
  6
CONTINUOUS
 62
     7
 10
584.36101607715386
 20
-2693.9701284851121
 30
0.0
 11
584.36101607715386
 21
-2693.0012573592612
 31
0.0
  0
LINE
  5
24C
  8
DATA
  6
CONTINUOUS
 62
     7
 10
577.36101607715375
 20
-2703.0012573592612
 30
0.0
 11
577.36101607715375
 21
-2693.0012573592612
 31
0.0
  0
LINE
  5
24D
  8
DATA
  6
CONTINUOUS
 62
     7
 10
587.36101607715375
 20
-2693.0012573592612
 30
0.0
 11
587.36101607715375
 21
-2703.0012573592612
 31
0.0
  0
LINE
  5
24E
  8
DATA
  6
CONTINUOUS
 62
     7
 10
587.36101607715375
 20
-2703.0012573592612
 30
0.0
 11
577.36101607715375
 21
-2703.0012573592612
 31
0.0
  0
LINE
  5
24F
  8
DATA
  6
CONTINUOUS
 62
     7
 10
584.36101607715386
 20
-2693.0012573592612
 30
0.0
 11
587.36101607715375
 21
-2693.0012573592612
 31
0.0
  0
LINE
  5
250
  8
DATA
  6
CONTINUOUS
 62
     7
 10
577.36101607715375
 20
-2693.0012573592612
 30
0.0
 11
580.36101607715386
 21
-2693.0012573592612
 31
0.0
  0
LINE
  5
251
  8
DATA
  6
CONTINUOUS
 62
     7
 10
584.36101607715386
 20
-2693.8012573592609
 30
0.0
 11
587.36101607715375
 21
-2693.8012573592609
 31
0.0
  0
LINE
  5
252
  8
DATA
  6
CONTINUOUS
 62
     7
 10
577.36101607715375
 20
-2693.8012573592609
 30
0.0
 11
580.36101607715386
 21
-2693.8012573592609
 31
0.0
  0
LINE
  5
253
  8
DATA
  6
CONTINUOUS
 62
     7
 10
579.73301607715325
 20
-2692.20525735926
 30
0.0
 11
579.43366564980238
 21
-2693.0012573592612
 31
0.0
  0
LINE
  5
254
  8
DATA
  6
CONTINUOUS
 62
     7
 10
584.98901607715436
 20
-2692.20525735926
 30
0.0
 11
585.28836650450353
 21
-2693.0012573592612
 31
0.0
  0
ARC
  5
255
  8
DATA
  6
CONTINUOUS
 62
     7
 10
528.61101607715375
 20
-2647.0012573592621
 30
0.0
 40
4.0
 50
90.0
 51
180.0
  0
LINE
  5
256
  8
DATA
  6
CONTINUOUS
 62
     7
 10
524.61101607715375
 20
-2670.5012573592621
 30
0.0
 11
524.61101607715375
 21
-2647.0012573592621
 31
0.0
  0
ARC
  5
257
  8
DATA
  6
CONTINUOUS
 62
     7
 10
528.61101607715375
 20
-2670.5012573592621
 30
0.0
 40
4.0
 50
180.0
 51
270.0
  0
LINE
  5
258
  8
DATA
  6
CONTINUOUS
 62
     7
 10
601.61101607715375
 20
-2705.0012573592621
 30
0.0
 11
601.61101607715375
 21
-2678.0012573592612
 31
0.0
  0
ARC
  5
259
  8
DATA
  6
CONTINUOUS
 62
     7
 10
618.61101607715375
 20
-2645.0012573592612
 30
0.0
 40
10.0
 50
0.0
 51
90.0
  0
LINE
  5
25A
  8
DATA
  6
CONTINUOUS
 62
     7
 10
628.61101607715386
 20
-2645.0012573592612
 30
0.0
 11
628.61101607715386
 21
-2765.0012573592621
 31
0.0
  0
ARC
  5
25B
  8
DATA
  6
CONTINUOUS
 62
     7
 10
618.61101607715375
 20
-2765.0012573592621
 30
0.0
 40
10.0
 50
270.0
 51
0.0
  0
CIRCLE
  5
25C
  8
DATA
  6
CONTINUOUS
 62
     7
 10
630.36401607715447
 20
-2633.7542573592659
 30
0.0
 40
4.0
  0
LINE
  5
25D
  8
DATA
  6
CONTINUOUS
 62
     7
 10
628.36401607715436
 20
-2633.7542573592659
 30
0.0
 11
632.36401607715266
 21
-2633.7542573592659
 31
0.0
  0
LINE
  5
25E
  8
DATA
  6
CONTINUOUS
 62
     7
 10
630.36401607715447
 20
-2635.754257359265
 30
0.0
 11
630.36401607715447
 21
-2631.7542573592668
 31
0.0
  0
CIRCLE
  5
25F
  8
DATA
  6
CONTINUOUS
 62
     7
 10
630.36401607715447
 20
-2776.2482573592579
 30
0.0
 40
4.0
  0
LINE
  5
260
  8
DATA
  6
CONTINUOUS
 62
     7
 10
628.36401607715436
 20
-2776.2482573592579
 30
0.0
 11
632.36401607715266
 21
-2776.2482573592579
 31
0.0
  0
LINE
  5
261
  8
DATA
  6
CONTINUOUS
 62
     7
 10
630.36401607715447
 20
-2778.2482573592579
 30
0.0
 11
630.36401607715447
 21
-2774.2482573592579
 31
0.0
  0
ARC
  5
262
  8
DATA
  6
CONTINUOUS
 62
     7
 10
620.61101607715545
 20
-2670.5012573592621
 30
0.0
 40
4.0
 50
270.0
 51
0.0
  0
LINE
  5
263
  8
DATA
  6
CONTINUOUS
 62
     7
 10
624.61101607715386
 20
-2647.0012573592621
 30
0.0
 11
624.61101607715386
 21
-2670.5012573592621
 31
0.0
  0
ARC
  5
264
  8
DATA
  6
CONTINUOUS
 62
     7
 10
620.61101607715545
 20
-2647.0012573592621
 30
0.0
 40
4.0
 50
0.0
 51
90.0
  0
LINE
  5
265
  8
DATA
  6
CONTINUOUS
 62
     7
 10
1648.0
 20
-2000.0000000000041
 30
0.0
 11
2352.0
 21
-1999.999999999997
 31
0.0
  0
LINE
  5
266
  8
DATA
  6
CONTINUOUS
 62
     7
 10
2352.0
 20
-3120.0000000000041
 30
0.0
 11
1648.0
 21
-3120.0000000000041
 31
0.0
  0
LINE
  5
267
  8
DATA
  6
CONTINUOUS
 62
     7
 10
2368.0000000000141
 20
-2315.9999999999982
 30
0.0
 11
1632.0
 21
-2315.9999999999982
 31
0.0
  0
LINE
  5
268
  8
DATA
  6
CONTINUOUS
 62
     7
 10
1632.0
 20
-2063.9999999999968
 30
0.0
 11
2368.0000000000141
 21
-2063.9999999999968
 31
0.0
  0
LINE
  5
269
  8
DATA
  6
CONTINUOUS
 62
     7
 10
2136.0000000000141
 20
-2343.9999999999968
 30
0.0
 11
2216.0
 21
-2343.9999999999968
 31
0.0
  0
LINE
  5
26A
  8
DATA
  6
CONTINUOUS
 62
     7
 10
2136.0000000000141
 20
-2559.9999999999968
 30
0.0
 11
2216.0
 21
-2559.9999999999968
 31
0.0
  0
TEXT
  5
26B
  8
DATA
 62
     7
 10
1924.126416294602
 20
-2307.9999999999968
 30
0.0
 40
48.125
  1
+
 41
0.85
 11
1924.126416294602
 21
-2259.8749999999968
 31
0.0
 73
     3
  0
TEXT
  5
26C
  8
DATA
 62
     7
 10
2048.1264162945881
 20
-2307.9999999999968
 30
0.0
 40
48.125
  1
-
 41
0.85
 11
2048.1264162945881
 21
-2259.8749999999968
 31
0.0
 73
     3
  0
ARC
  5
26D
  8
DATA
  6
CONTINUOUS
 62
     7
 10
1648.0
 20
-3040.000000000005
 30
0.0
 40
80.0
 50
180.0
 51
270.0
  0
ARC
  5
26E
  8
DATA
  6
CONTINUOUS
 62
     7
 10
1648.0
 20
-2080.0000000000041
 30
0.0
 40
80.0
 50
90.0
 51
180.0
  0
CIRCLE
  5
26F
  8
DATA
  6
CONTINUOUS
 62
     7
 10
1553.976000000009
 20
-1990.024000000031
 30
0.0
 40
32.0
  0
LINE
  5
270
  8
DATA
  6
CONTINUOUS
 62
     7
 10
1537.9759999999951
 20
-1990.024000000031
 30
0.0
 11
1569.9759999999951
 21
-1990.024000000031
 31
0.0
  0
LINE
  5
271
  8
DATA
  6
CONTINUOUS
 62
     7
 10
1553.976000000009
 20
-2006.0240000000319
 30
0.0
 11
1553.976000000009
 21
-1974.024000000039
 31
0.0
  0
CIRCLE
  5
272
  8
DATA
  6
CONTINUOUS
 62
     7
 10
1553.976000000009
 20
-3129.9759999999701
 30
0.0
 40
32.0
  0
LINE
  5
273
  8
DATA
  6
CONTINUOUS
 62
     7
 10
1537.9759999999951
 20
-3129.9759999999701
 30
0.0
 11
1569.9759999999951
 21
-3129.9759999999701
 31
0.0
  0
LINE
  5
274
  8
DATA
  6
CONTINUOUS
 62
     7
 10
1553.976000000009
 20
-3145.9759999999701
 30
0.0
 11
1553.976000000009
 21
-3113.9759999999701
 31
0.0
  0
LINE
  5
275
  8
DATA
  6
CONTINUOUS
 62
     7
 10
1568.0000000000141
 20
-3040.000000000005
 30
0.0
 11
1568.0000000000141
 21
-2080.0000000000041
 31
0.0
  0
LINE
  5
276
  8
DATA
  6
CONTINUOUS
 62
     7
 10
1988.0
 20
-2583.9999999999968
 30
0.0
 11
1988.0
 21
-2319.9999999999982
 31
0.0
  0
LINE
  5
277
  8
DATA
  6
CONTINUOUS
 62
     7
 10
2012.0
 20
-2583.9999999999968
 30
0.0
 11
2012.0
 21
-2319.9999999999982
 31
0.0
  0
LINE
  5
278
  8
DATA
  6
CONTINUOUS
 62
     7
 10
1988.0
 20
-2319.9999999999982
 30
0.0
 11
2012.0
 21
-2319.9999999999982
 31
0.0
  0
LINE
  5
279
  8
DATA
  6
CONTINUOUS
 62
     7
 10
1988.0
 20
-2583.9999999999968
 30
0.0
 11
2012.0
 21
-2583.9999999999968
 31
0.0
  0
LINE
  5
27A
  8
DATA
  6
CONTINUOUS
 62
     7
 10
1784.0
 20
-2560.000000000005
 30
0.0
 11
1784.0
 21
-2343.9999999999968
 31
0.0
  0
LINE
  5
27B
  8
DATA
  6
CONTINUOUS
 62
     7
 10
1864.0
 20
-2583.9999999999968
 30
0.0
 11
1864.0
 21
-2319.9999999999982
 31
0.0
  0
LINE
  5
27C
  8
DATA
  6
CONTINUOUS
 62
     7
 10
1888.0
 20
-2583.9999999999968
 30
0.0
 11
1888.0
 21
-2319.9999999999982
 31
0.0
  0
LINE
  5
27D
  8
DATA
  6
CONTINUOUS
 62
     7
 10
1864.0
 20
-2319.9999999999982
 30
0.0
 11
1888.0
 21
-2319.9999999999982
 31
0.0
  0
LINE
  5
27E
  8
DATA
  6
CONTINUOUS
 62
     7
 10
1864.0
 20
-2583.9999999999968
 30
0.0
 11
1888.0
 21
-2583.9999999999968
 31
0.0
  0
LINE
  5
27F
  8
DATA
  6
CONTINUOUS
 62
     7
 10
2136.0000000000141
 20
-2319.9999999999982
 30
0.0
 11
2136.0000000000141
 21
-2583.9999999999968
 31
0.0
  0
LINE
  5
280
  8
DATA
  6
CONTINUOUS
 62
     7
 10
2112.0
 20
-2319.9999999999982
 30
0.0
 11
2112.0
 21
-2583.9999999999968
 31
0.0
  0
LINE
  5
281
  8
DATA
  6
CONTINUOUS
 62
     7
 10
2112.0
 20
-2319.9999999999982
 30
0.0
 11
2136.0000000000141
 21
-2319.9999999999982
 31
0.0
  0
LINE
  5
282
  8
DATA
  6
CONTINUOUS
 62
     7
 10
2112.0
 20
-2583.9999999999968
 30
0.0
 11
2136.0000000000141
 21
-2583.9999999999968
 31
0.0
  0
LINE
  5
283
  8
DATA
  6
CONTINUOUS
 62
     7
 10
1784.0
 20
-2343.9999999999968
 30
0.0
 11
1864.0
 21
-2343.9999999999968
 31
0.0
  0
LINE
  5
284
  8
DATA
  6
CONTINUOUS
 62
     7
 10
1888.0
 20
-2343.9999999999968
 30
0.0
 11
1988.0
 21
-2343.9999999999968
 31
0.0
  0
LINE
  5
285
  8
DATA
  6
CONTINUOUS
 62
     7
 10
2012.0
 20
-2343.9999999999968
 30
0.0
 11
2112.0
 21
-2343.9999999999968
 31
0.0
  0
LINE
  5
286
  8
DATA
  6
CONTINUOUS
 62
     7
 10
1784.0
 20
-2559.9999999999968
 30
0.0
 11
1864.0
 21
-2559.9999999999968
 31
0.0
  0
CIRCLE
  5
287
  8
DATA
  6
CONTINUOUS
 62
     7
 10
1824.0
 20
-2399.9999999999982
 30
0.0
 40
20.0
  0
CIRCLE
  5
288
  8
DATA
  6
CONTINUOUS
 62
     7
 10
1824.0
 20
-2503.9999999999968
 30
0.0
 40
20.0
  0
CIRCLE
  5
289
  8
DATA
  6
CONTINUOUS
 62
     7
 10
2176.0
 20
-2399.9999999999982
 30
0.0
 40
20.0
  0
CIRCLE
  5
28A
  8
DATA
  6
CONTINUOUS
 62
     7
 10
2176.0
 20
-2503.9999999999968
 30
0.0
 40
20.0
  0
LINE
  5
28B
  8
DATA
  6
CONTINUOUS
 62
     7
 10
1916.9759999999951
 20
-2446.3679999999999
 30
0.0
 11
1904.304000000004
 21
-2412.6719999999968
 31
0.0
  0
ARC
  5
28C
  8
DATA
  6
CONTINUOUS
 62
     7
 10
1902.0
 20
-2451.9999999999982
 30
0.0
 40
16.000000000010822
 50
339.39030706246302
 51
20.609692937512129
  0
LINE
  5
28D
  8
DATA
  6
CONTINUOUS
 62
     7
 10
1959.024000000019
 20
-2446.3679999999999
 30
0.0
 11
1971.6960000000099
 21
-2412.6719999999968
 31
0.0
  0
ARC
  5
28E
  8
DATA
  6
CONTINUOUS
 62
     7
 10
1974.0
 20
-2451.9999999999982
 30
0.0
 40
15.999999999994641
 50
159.39030706246911
 51
200.60969293755551
  0
ARC
  5
28F
  8
DATA
  6
CONTINUOUS
 62
     7
 10
1938.0
 20
-2399.9999999999982
 30
0.0
 40
35.999999999996028
 50
339.39030706246768
 51
200.60969293752359
  0
CIRCLE
  5
290
  8
DATA
  6
CONTINUOUS
 62
     7
 10
1938.0
 20
-2399.9999999999982
 30
0.0
 40
16.0
  0
CIRCLE
  5
291
  8
DATA
  6
CONTINUOUS
 62
     7
 10
1938.0
 20
-2503.9999999999968
 30
0.0
 40
36.0
  0
LINE
  5
292
  8
DATA
  6
CONTINUOUS
 62
     7
 10
1909.8733515939091
 20
-2526.4697941565951
 30
0.0
 11
1960.4697941566119
 21
-2475.873351593907
 31
0.0
  0
LINE
  5
293
  8
DATA
  6
CONTINUOUS
 62
     7
 10
1915.530205843402
 20
-2532.1266484060948
 30
0.0
 11
1966.12664840609
 21
-2481.5302058433931
 31
0.0
  0
LINE
  5
294
  8
DATA
  6
CONTINUOUS
 62
     7
 10
1906.0
 20
-2679.9999999999968
 30
0.0
 11
1970.0000000000141
 21
-2679.9999999999968
 31
0.0
  0
LINE
  5
295
  8
DATA
  6
CONTINUOUS
 62
     7
 10
1910.0000000000141
 20
-2639.9999999999968
 30
0.0
 11
1966.0000000000141
 21
-2639.9999999999968
 31
0.0
  0
LINE
  5
296
  8
DATA
  6
CONTINUOUS
 62
     7
 10
1912.0
 20
-2633.5999999999958
 30
0.0
 11
1964.0
 21
-2633.5999999999958
 31
0.0
  0
LINE
  5
297
  8
DATA
  6
CONTINUOUS
 62
     7
 10
1912.0
 20
-2563.9999999999982
 30
0.0
 11
1964.0000000000141
 21
-2563.9999999999982
 31
0.0
  0
LINE
  5
298
  8
DATA
  6
CONTINUOUS
 62
     7
 10
1958.0000000000141
 20
-2563.9999999999982
 30
0.0
 11
1958.0000000000141
 21
-2543.9999999999968
 31
0.0
  0
LINE
  5
299
  8
DATA
  6
CONTINUOUS
 62
     7
 10
1918.0
 20
-2543.9999999999968
 30
0.0
 11
1918.0000000000141
 21
-2563.9999999999982
 31
0.0
  0
LINE
  5
29A
  8
DATA
  6
CONTINUOUS
 62
     7
 10
1912.0
 20
-2563.9999999999982
 30
0.0
 11
1912.0
 21
-2633.5999999999958
 31
0.0
  0
LINE
  5
29B
  8
DATA
  6
CONTINUOUS
 62
     7
 10
1964.0
 20
-2633.5999999999958
 30
0.0
 11
1964.0000000000141
 21
-2563.9999999999982
 31
0.0
  0
LINE
  5
29C
  8
DATA
  6
CONTINUOUS
 62
     7
 10
1912.0
 20
-2633.5999999999958
 30
0.0
 11
1910.0000000000141
 21
-2639.9999999999968
 31
0.0
  0
LINE
  5
29D
  8
DATA
  6
CONTINUOUS
 62
     7
 10
1910.0000000000141
 20
-2639.9999999999968
 30
0.0
 11
1906.0
 21
-2679.9999999999968
 31
0.0
  0
LINE
  5
29E
  8
DATA
  6
CONTINUOUS
 62
     7
 10
1970.0000000000141
 20
-2679.9999999999968
 30
0.0
 11
1966.0000000000141
 21
-2639.9999999999968
 31
0.0
  0
LINE
  5
29F
  8
DATA
  6
CONTINUOUS
 62
     7
 10
1966.0000000000141
 20
-2639.9999999999968
 30
0.0
 11
1964.0
 21
-2633.5999999999958
 31
0.0
  0
LINE
  5
2A0
  8
DATA
  6
CONTINUOUS
 62
     7
 10
1888.0
 20
-2559.9999999999968
 30
0.0
 11
1918.0000000000141
 21
-2559.9999999999968
 31
0.0
  0
LINE
  5
2A1
  8
DATA
  6
CONTINUOUS
 62
     7
 10
1958.0000000000141
 20
-2559.9999999999968
 30
0.0
 11
1988.0
 21
-2559.9999999999968
 31
0.0
  0
LINE
  5
2A2
  8
DATA
  6
CONTINUOUS
 62
     7
 10
1922.0000000000141
 20
-2471.7509690068009
 30
0.0
 11
1922.0000000000141
 21
-2463.9999999999982
 31
0.0
  0
LINE
  5
2A3
  8
DATA
  6
CONTINUOUS
 62
     7
 10
1954.0
 20
-2471.7509690068009
 30
0.0
 11
1954.0
 21
-2463.9999999999982
 31
0.0
  0
LINE
  5
2A4
  8
DATA
  6
CONTINUOUS
 62
     7
 10
1898.0
 20
-2543.9999999999968
 30
0.0
 11
1898.0
 21
-2463.9999999999982
 31
0.0
  0
LINE
  5
2A5
  8
DATA
  6
CONTINUOUS
 62
     7
 10
1978.0
 20
-2463.9999999999982
 30
0.0
 11
1978.0
 21
-2543.9999999999968
 31
0.0
  0
LINE
  5
2A6
  8
DATA
  6
CONTINUOUS
 62
     7
 10
1978.0
 20
-2543.9999999999968
 30
0.0
 11
1898.0
 21
-2543.9999999999968
 31
0.0
  0
LINE
  5
2A7
  8
DATA
  6
CONTINUOUS
 62
     7
 10
1954.0
 20
-2463.9999999999982
 30
0.0
 11
1978.0
 21
-2463.9999999999982
 31
0.0
  0
LINE
  5
2A8
  8
DATA
  6
CONTINUOUS
 62
     7
 10
1898.0
 20
-2463.9999999999982
 30
0.0
 11
1922.0000000000141
 21
-2463.9999999999982
 31
0.0
  0
LINE
  5
2A9
  8
DATA
  6
CONTINUOUS
 62
     7
 10
1954.0
 20
-2470.3999999999992
 30
0.0
 11
1978.0
 21
-2470.3999999999992
 31
0.0
  0
LINE
  5
2AA
  8
DATA
  6
CONTINUOUS
 62
     7
 10
1898.0
 20
-2470.3999999999992
 30
0.0
 11
1922.0000000000141
 21
-2470.3999999999992
 31
0.0
  0
LINE
  5
2AB
  8
DATA
  6
CONTINUOUS
 62
     7
 10
1916.9759999999951
 20
-2457.6319999999951
 30
0.0
 11
1914.5811965811879
 21
-2463.9999999999982
 31
0.0
  0
LINE
  5
2AC
  8
DATA
  6
CONTINUOUS
 62
     7
 10
1959.024000000019
 20
-2457.6319999999951
 30
0.0
 11
1961.418803418811
 21
-2463.9999999999982
 31
0.0
  0
LINE
  5
2AD
  8
DATA
  6
CONTINUOUS
 62
     7
 10
2040.9759999999951
 20
-2446.3679999999999
 30
0.0
 11
2028.304000000003
 21
-2412.6719999999968
 31
0.0
  0
ARC
  5
2AE
  8
DATA
  6
CONTINUOUS
 62
     7
 10
2026.0
 20
-2451.9999999999982
 30
0.0
 40
15.9999999999972
 50
339.39030706244472
 51
20.609692937530379
  0
LINE
  5
2AF
  8
DATA
  6
CONTINUOUS
 62
     7
 10
2083.024000000004
 20
-2446.3679999999999
 30
0.0
 11
2095.6960000000099
 21
-2412.6719999999968
 31
0.0
  0
ARC
  5
2B0
  8
DATA
  6
CONTINUOUS
 62
     7
 10
2098.0
 20
-2451.9999999999982
 30
0.0
 40
16.00000000000826
 50
159.39030706248749
 51
200.6096929375372
  0
ARC
  5
2B1
  8
DATA
  6
CONTINUOUS
 62
     7
 10
2062.0
 20
-2399.9999999999982
 30
0.0
 40
35.999999999996028
 50
339.39030706246768
 51
200.60969293752359
  0
CIRCLE
  5
2B2
  8
DATA
  6
CONTINUOUS
 62
     7
 10
2062.0
 20
-2399.9999999999982
 30
0.0
 40
16.0
  0
CIRCLE
  5
2B3
  8
DATA
  6
CONTINUOUS
 62
     7
 10
2062.0
 20
-2503.9999999999968
 30
0.0
 40
36.0
  0
LINE
  5
2B4
  8
DATA
  6
CONTINUOUS
 62
     7
 10
2033.8733515939091
 20
-2526.4697941565951
 30
0.0
 11
2084.4697941565969
 21
-2475.873351593907
 31
0.0
  0
LINE
  5
2B5
  8
DATA
  6
CONTINUOUS
 62
     7
 10
2039.530205843402
 20
-2532.1266484060948
 30
0.0
 11
2090.1266484060902
 21
-2481.5302058433931
 31
0.0
  0
LINE
  5
2B6
  8
DATA
  6
CONTINUOUS
 62
     7
 10
2030.0
 20
-2679.9999999999968
 30
0.0
 11
2094.0000000000141
 21
-2679.9999999999968
 31
0.0
  0
LINE
  5
2B7
  8
DATA
  6
CONTINUOUS
 62
     7
 10
2034.0
 20
-2639.9999999999968
 30
0.0
 11
2090.0
 21
-2639.9999999999968
 31
0.0
  0
LINE
  5
2B8
  8
DATA
  6
CONTINUOUS
 62
     7
 10
2036.0
 20
-2633.5999999999958
 30
0.0
 11
2087.999999999985
 21
-2633.5999999999958
 31
0.0
  0
LINE
  5
2B9
  8
DATA
  6
CONTINUOUS
 62
     7
 10
2036.0
 20
-2563.9999999999982
 30
0.0
 11
2088.0
 21
-2563.9999999999982
 31
0.0
  0
LINE
  5
2BA
  8
DATA
  6
CONTINUOUS
 62
     7
 10
2082.0
 20
-2563.9999999999982
 30
0.0
 11
2082.0
 21
-2543.9999999999968
 31
0.0
  0
LINE
  5
2BB
  8
DATA
  6
CONTINUOUS
 62
     7
 10
2042.0
 20
-2543.9999999999968
 30
0.0
 11
2042.0000000000141
 21
-2563.9999999999982
 31
0.0
  0
LINE
  5
2BC
  8
DATA
  6
CONTINUOUS
 62
     7
 10
2036.0
 20
-2563.9999999999982
 30
0.0
 11
2036.0
 21
-2633.5999999999958
 31
0.0
  0
LINE
  5
2BD
  8
DATA
  6
CONTINUOUS
 62
     7
 10
2087.999999999985
 20
-2633.5999999999958
 30
0.0
 11
2088.0
 21
-2563.9999999999982
 31
0.0
  0
LINE
  5
2BE
  8
DATA
  6
CONTINUOUS
 62
     7
 10
2036.0
 20
-2633.5999999999958
 30
0.0
 11
2034.0
 21
-2639.9999999999968
 31
0.0
  0
LINE
  5
2BF
  8
DATA
  6
CONTINUOUS
 62
     7
 10
2034.0
 20
-2639.9999999999968
 30
0.0
 11
2030.0
 21
-2679.9999999999968
 31
0.0
  0
LINE
  5
2C0
  8
DATA
  6
CONTINUOUS
 62
     7
 10
2094.0000000000141
 20
-2679.9999999999968
 30
0.0
 11
2090.0
 21
-2639.9999999999968
 31
0.0
  0
LINE
  5
2C1
  8
DATA
  6
CONTINUOUS
 62
     7
 10
2090.0
 20
-2639.9999999999968
 30
0.0
 11
2087.999999999985
 21
-2633.5999999999958
 31
0.0
  0
LINE
  5
2C2
  8
DATA
  6
CONTINUOUS
 62
     7
 10
2012.0
 20
-2559.9999999999968
 30
0.0
 11
2042.0000000000141
 21
-2559.9999999999968
 31
0.0
  0
LINE
  5
2C3
  8
DATA
  6
CONTINUOUS
 62
     7
 10
2082.0
 20
-2559.9999999999968
 30
0.0
 11
2112.0
 21
-2559.9999999999968
 31
0.0
  0
LINE
  5
2C4
  8
DATA
  6
CONTINUOUS
 62
     7
 10
2046.0
 20
-2471.7509690068009
 30
0.0
 11
2046.0
 21
-2463.9999999999982
 31
0.0
  0
LINE
  5
2C5
  8
DATA
  6
CONTINUOUS
 62
     7
 10
2078.0
 20
-2471.7509690068009
 30
0.0
 11
2078.0
 21
-2463.9999999999982
 31
0.0
  0
LINE
  5
2C6
  8
DATA
  6
CONTINUOUS
 62
     7
 10
2022.0
 20
-2543.9999999999968
 30
0.0
 11
2022.0
 21
-2463.9999999999982
 31
0.0
  0
LINE
  5
2C7
  8
DATA
  6
CONTINUOUS
 62
     7
 10
2102.0
 20
-2463.9999999999982
 30
0.0
 11
2102.0
 21
-2543.9999999999968
 31
0.0
  0
LINE
  5
2C8
  8
DATA
  6
CONTINUOUS
 62
     7
 10
2102.0
 20
-2543.9999999999968
 30
0.0
 11
2022.0
 21
-2543.9999999999968
 31
0.0
  0
LINE
  5
2C9
  8
DATA
  6
CONTINUOUS
 62
     7
 10
2078.0
 20
-2463.9999999999982
 30
0.0
 11
2102.0
 21
-2463.9999999999982
 31
0.0
  0
LINE
  5
2CA
  8
DATA
  6
CONTINUOUS
 62
     7
 10
2022.0
 20
-2463.9999999999982
 30
0.0
 11
2046.0
 21
-2463.9999999999982
 31
0.0
  0
LINE
  5
2CB
  8
DATA
  6
CONTINUOUS
 62
     7
 10
2078.0
 20
-2470.3999999999992
 30
0.0
 11
2102.0
 21
-2470.3999999999992
 31
0.0
  0
LINE
  5
2CC
  8
DATA
  6
CONTINUOUS
 62
     7
 10
2022.0
 20
-2470.3999999999992
 30
0.0
 11
2046.0
 21
-2470.3999999999992
 31
0.0
  0
LINE
  5
2CD
  8
DATA
  6
CONTINUOUS
 62
     7
 10
2040.9759999999951
 20
-2457.6319999999951
 30
0.0
 11
2038.5811965811879
 21
-2463.9999999999982
 31
0.0
  0
LINE
  5
2CE
  8
DATA
  6
CONTINUOUS
 62
     7
 10
2083.024000000004
 20
-2457.6319999999951
 30
0.0
 11
2085.4188034187969
 21
-2463.9999999999982
 31
0.0
  0
ARC
  5
2CF
  8
DATA
  6
CONTINUOUS
 62
     7
 10
1632.0
 20
-2096.0000000000041
 30
0.0
 40
32.0
 50
90.0
 51
180.0
  0
LINE
  5
2D0
  8
DATA
  6
CONTINUOUS
 62
     7
 10
1600.0
 20
-2283.9999999999982
 30
0.0
 11
1600.0
 21
-2096.0000000000041
 31
0.0
  0
ARC
  5
2D1
  8
DATA
  6
CONTINUOUS
 62
     7
 10
1632.0
 20
-2283.9999999999982
 30
0.0
 40
32.0
 50
180.0
 51
270.0
  0
LINE
  5
2D2
  8
DATA
  6
CONTINUOUS
 62
     7
 10
2216.0
 20
-2559.9999999999968
 30
0.0
 11
2216.0
 21
-2343.9999999999968
 31
0.0
  0
ARC
  5
2D3
  8
DATA
  6
CONTINUOUS
 62
     7
 10
2352.0
 20
-2079.9999999999968
 30
0.0
 40
80.0
 50
0.0
 51
90.0
  0
LINE
  5
2D4
  8
DATA
  6
CONTINUOUS
 62
     7
 10
2432.0
 20
-2079.9999999999968
 30
0.0
 11
2432.0
 21
-3040.000000000005
 31
0.0
  0
ARC
  5
2D5
  8
DATA
  6
CONTINUOUS
 62
     7
 10
2352.0
 20
-3040.000000000005
 30
0.0
 40
80.0
 50
270.0
 51
0.0
  0
CIRCLE
  5
2D6
  8
DATA
  6
CONTINUOUS
 62
     7
 10
2446.024000000004
 20
-1990.024000000031
 30
0.0
 40
32.0
  0
LINE
  5
2D7
  8
DATA
  6
CONTINUOUS
 62
     7
 10
2430.024000000004
 20
-1990.024000000031
 30
0.0
 11
2462.0239999999899
 21
-1990.024000000031
 31
0.0
  0
LINE
  5
2D8
  8
DATA
  6
CONTINUOUS
 62
     7
 10
2446.024000000004
 20
-2006.0240000000319
 30
0.0
 11
2446.024000000004
 21
-1974.024000000039
 31
0.0
  0
CIRCLE
  5
2D9
  8
DATA
  6
CONTINUOUS
 62
     7
 10
2446.024000000004
 20
-3129.9759999999701
 30
0.0
 40
32.0
  0
LINE
  5
2DA
  8
DATA
  6
CONTINUOUS
 62
     7
 10
2430.024000000004
 20
-3129.9759999999701
 30
0.0
 11
2462.0239999999899
 21
-3129.9759999999701
 31
0.0
  0
LINE
  5
2DB
  8
DATA
  6
CONTINUOUS
 62
     7
 10
2446.024000000004
 20
-3145.9759999999701
 30
0.0
 11
2446.024000000004
 21
-3113.9759999999701
 31
0.0
  0
ARC
  5
2DC
  8
DATA
  6
CONTINUOUS
 62
     7
 10
2368.0000000000141
 20
-2283.9999999999982
 30
0.0
 40
32.0
 50
270.0
 51
0.0
  0
LINE
  5
2DD
  8
DATA
  6
CONTINUOUS
 62
     7
 10
2400.0
 20
-2096.0000000000041
 30
0.0
 11
2400.0
 21
-2283.9999999999982
 31
0.0
  0
ARC
  5
2DE
  8
DATA
  6
CONTINUOUS
 62
     7
 10
2368.0000000000141
 20
-2096.0000000000041
 30
0.0
 40
32.0
 50
0.0
 51
90.0
  0
TEXT
  5
2DF
  8
DATA
 62
     7
 10
2499.9999999999982
 20
-2450.0
 30
0.0
 40
68.75
  1
4675C-4LF:2226H(低域)
 41
0.85
 11
2499.9999999999982
 21
-2381.25
 31
0.0
 73
     3
  0
LINE
  5
2E0
  8
DATA
  6
CONTINUOUS
 62
     7
 10
-1277.887999999999
 20
-819.34999999999934
 30
0.0
 11
-2072.8879999999999
 21
-819.34999999999934
 31
0.0
  0
LINE
  5
2E1
  8
DATA
  6
CONTINUOUS
 62
     7
 10
-1725.3879999999999
 20
-308.35000000000031
 30
0.0
 11
-1679.1379999999999
 21
-308.35000000000031
 31
0.0
  0
LINE
  5
2E2
  8
DATA
  6
CONTINUOUS
 62
     7
 10
-1693.7879999999991
 20
-141.35000000000221
 30
0.0
 11
-1684.2879999999991
 21
-141.35000000000221
 31
0.0
  0
LINE
  5
2E3
  8
DATA
  6
CONTINUOUS
 62
     7
 10
-1693.7879999999991
 20
-158.35000000000119
 30
0.0
 11
-1684.2879999999991
 21
-158.35000000000119
 31
0.0
  0
LINE
  5
2E4
  8
DATA
  6
CONTINUOUS
 62
     7
 10
-1693.7879999999991
 20
-249.85000000000309
 30
0.0
 11
-1684.2879999999991
 21
-249.8500000000021
 31
0.0
  0
LINE
  5
2E5
  8
DATA
  6
CONTINUOUS
 62
     7
 10
-1693.7879999999991
 20
-266.85000000000298
 30
0.0
 11
-1684.2879999999991
 21
-266.85000000000218
 31
0.0
  0
LINE
  5
2E6
  8
DATA
  6
CONTINUOUS
 62
     7
 10
-1740.2879999999991
 20
-4.3499999999994543
 30
0.0
 11
-1610.4880000000001
 21
-4.3499999999985439
 31
0.0
  0
LINE
  5
2E7
  8
DATA
  6
CONTINUOUS
 62
     7
 10
-1693.7879999999991
 20
-30.850000000003089
 30
0.0
 11
-1684.2879999999991
 21
-30.850000000003998
 31
0.0
  0
LINE
  5
2E8
  8
DATA
  6
CONTINUOUS
 62
     7
 10
-1693.7879999999991
 20
-47.85000000000128
 30
0.0
 11
-1684.2879999999991
 21
-47.85000000000128
 31
0.0
  0
LINE
  5
2E9
  8
DATA
  6
CONTINUOUS
 62
     7
 10
-1740.2880000000009
 20
-9.1499999999996344
 30
0.0
 11
-1684.2879999999991
 21
-9.1499999999996344
 31
0.0
  0
LINE
  5
2EA
  8
DATA
  6
CONTINUOUS
 62
     7
 10
-1730.3879999999999
 20
-304.35000000000122
 30
0.0
 11
-1620.3879999999999
 21
-304.35000000000122
 31
0.0
  0
ARC
  5
2EB
  8
DATA
  6
CONTINUOUS
 62
     7
 10
-2251.223028050475
 20
-227.69147089763371
 30
0.0
 40
617.95080491034207
 50
286.77361881104048
 51
335.5612733151923
  0
LINE
  5
2EC
  8
DATA
  6
CONTINUOUS
 62
     7
 10
-1725.3879999999999
 20
-308.35000000000031
 30
0.0
 11
-1725.387999999999
 21
-304.35000000000122
 31
0.0
  0
LINE
  5
2ED
  8
DATA
  6
CONTINUOUS
 62
     7
 10
-1688.6379999999999
 20
-483.349999999999
 30
0.0
 11
-1688.6379999999999
 21
-308.35000000000031
 31
0.0
  0
LINE
  5
2EE
  8
DATA
  6
CONTINUOUS
 62
     7
 10
-1691.6379999999999
 20
-489.851333712459
 30
0.0
 11
-1691.6379999999999
 21
-308.35000000000031
 31
0.0
  0
LINE
  5
2EF
  8
DATA
  6
CONTINUOUS
 62
     7
 10
-1725.3879999999999
 20
-308.35000000000031
 30
0.0
 11
-1700.6379999999999
 21
-331.8499999999994
 31
0.0
  0
LINE
  5
2F0
  8
DATA
  6
CONTINUOUS
 62
     7
 10
-1700.6379999999999
 20
-508.2611131898762
 30
0.0
 11
-1700.6379999999999
 21
-331.8499999999994
 31
0.0
  0
ARC
  5
2F1
  8
DATA
  6
CONTINUOUS
 62
     7
 10
-2285.9970974474681
 20
-127.80561532554189
 30
0.0
 40
589.18084270019642
 50
359.10584190298567
 51
11.618302416433661
  0
LINE
  5
2F2
  8
DATA
  6
CONTINUOUS
 62
     7
 10
-1730.3879999999999
 20
-304.35000000000122
 30
0.0
 11
-1730.3879999999999
 21
-300.24999999999989
 31
0.0
  0
LINE
  5
2F3
  8
DATA
  6
CONTINUOUS
 62
     7
 10
-1702.138000000002
 20
-277.75000000000182
 30
0.0
 11
-1702.1380000000031
 21
-157.75
 31
0.0
  0
LINE
  5
2F4
  8
DATA
  6
CONTINUOUS
 62
     7
 10
-1693.7879999999991
 20
-158.35000000000119
 30
0.0
 11
-1693.7879999999991
 21
-141.35000000000221
 31
0.0
  0
LINE
  5
2F5
  8
DATA
  6
CONTINUOUS
 62
     7
 10
-1693.7879999999991
 20
-266.85000000000298
 30
0.0
 11
-1693.7879999999991
 21
-249.85000000000309
 31
0.0
  0
LINE
  5
2F6
  8
DATA
  6
CONTINUOUS
 62
     7
 10
-1696.887999999999
 20
-300.24999999999989
 30
0.0
 11
-1696.887999999999
 21
-137.0
 31
0.0
  0
LINE
  5
2F7
  8
DATA
  6
CONTINUOUS
 62
     7
 10
-1702.138000000002
 20
-277.74999999999989
 30
0.0
 11
-1696.887999999999
 21
-277.74999999999989
 31
0.0
  0
LINE
  5
2F8
  8
DATA
  6
CONTINUOUS
 62
     7
 10
-1702.138000000002
 20
-157.75
 30
0.0
 11
-1696.887999999999
 21
-157.75
 31
0.0
  0
LINE
  5
2F9
  8
DATA
  6
CONTINUOUS
 62
     7
 10
-1701.0380000000021
 20
-116.25
 30
0.0
 11
-1701.0380000000021
 21
-112.7500000000027
 31
0.0
  0
LINE
  5
2FA
  8
DATA
  6
CONTINUOUS
 62
     7
 10
-1701.0380000000009
 20
-112.7500000000018
 30
0.0
 11
-1697.008647771175
 21
-112.7500000000018
 31
0.0
  0
LINE
  5
2FB
  8
DATA
  6
CONTINUOUS
 62
     7
 10
-1701.0380000000021
 20
-116.25
 30
0.0
 11
-1696.929585901159
 21
-116.25
 31
0.0
  0
LINE
  5
2FC
  8
DATA
  6
CONTINUOUS
 62
     7
 10
-1693.7879999999991
 20
-47.85000000000128
 30
0.0
 11
-1693.7879999999991
 21
-30.850000000003998
 31
0.0
  0
LINE
  5
2FD
  8
DATA
  6
CONTINUOUS
 62
     7
 10
-1704.788000000003
 20
-46.25
 30
0.0
 11
-1704.788000000003
 21
-42.750000000000902
 31
0.0
  0
LINE
  5
2FE
  8
DATA
  6
CONTINUOUS
 62
     7
 10
-1702.138000000002
 20
-81.25
 30
0.0
 11
-1702.138000000002
 21
-77.750000000000895
 31
0.0
  0
LINE
  5
2FF
  8
DATA
  6
CONTINUOUS
 62
     7
 10
-1704.788000000003
 20
-42.750000000000902
 30
0.0
 11
-1702.9880000000039
 21
-42.750000000000902
 31
0.0
  0
LINE
  5
300
  8
DATA
  6
CONTINUOUS
 62
     7
 10
-1704.788000000003
 20
-46.25
 30
0.0
 11
-1702.4881026463711
 21
-46.25
 31
0.0
  0
LINE
  5
301
  8
DATA
  6
CONTINUOUS
 62
     7
 10
-1702.138000000002
 20
-77.750000000000895
 30
0.0
 11
-1698.946417540448
 21
-77.750000000000895
 31
0.0
  0
LINE
  5
302
  8
DATA
  6
CONTINUOUS
 62
     7
 10
-1702.138000000002
 20
-81.25
 30
0.0
 11
-1698.6584897546199
 21
-81.25
 31
0.0
  0
LINE
  5
303
  8
DATA
  6
CONTINUOUS
 62
     7
 10
-1740.2880000000009
 20
-9.1499999999996344
 30
0.0
 11
-1740.2879999999991
 21
-4.3499999999994543
 31
0.0
  0
ARC
  5
304
  8
DATA
  6
CONTINUOUS
 62
     7
 10
-1099.552971949523
 20
-227.69147089763459
 30
0.0
 40
617.95080491034173
 50
204.43872668480759
 51
253.22638118895921
  0
LINE
  5
305
  8
DATA
  6
CONTINUOUS
 62
     7
 10
-1675.387999999999
 20
-304.35000000000122
 30
0.0
 11
-1675.387999999999
 21
-819.34999999999934
 31
0.0
  0
LINE
  5
306
  8
DATA
  6
CONTINUOUS
 62
     7
 10
-1679.1379999999999
 20
-819.34999999999934
 30
0.0
 11
-1679.1379999999999
 21
-304.35000000000122
 31
0.0
  0
LINE
  5
307
  8
DATA
  6
CONTINUOUS
 62
     7
 10
-1671.6379999999999
 20
-819.34999999999934
 30
0.0
 11
-1671.6379999999999
 21
-304.35000000000122
 31
0.0
  0
LINE
  5
308
  8
DATA
  6
CONTINUOUS
 62
     7
 10
-1625.3879999999999
 20
-304.35000000000122
 30
0.0
 11
-1625.3879999999999
 21
-308.35000000000031
 31
0.0
  0
LINE
  5
309
  8
DATA
  6
CONTINUOUS
 62
     7
 10
-1679.1379999999999
 20
-696.513627982054
 30
0.0
 11
-1671.6379999999999
 21
-696.51362798205582
 31
0.0
  0
LINE
  5
30A
  8
DATA
  6
CONTINUOUS
 62
     7
 10
-1671.6379999999999
 20
-308.35000000000031
 30
0.0
 11
-1625.3879999999999
 21
-308.35000000000031
 31
0.0
  0
LINE
  5
30B
  8
DATA
  6
CONTINUOUS
 62
     7
 10
-1671.6379999999999
 20
-330.14646348067242
 30
0.0
 11
-1662.137999999999
 21
-330.14646348067339
 31
0.0
  0
LINE
  5
30C
  8
DATA
  6
CONTINUOUS
 62
     7
 10
-1671.6379999999999
 20
-347.14646348067163
 30
0.0
 11
-1662.137999999999
 21
-347.14646348067163
 31
0.0
  0
LINE
  5
30D
  8
DATA
  6
CONTINUOUS
 62
     7
 10
-1662.137999999999
 20
-347.14646348067163
 30
0.0
 11
-1662.137999999999
 21
-330.14646348067339
 31
0.0
  0
LINE
  5
30E
  8
DATA
  6
CONTINUOUS
 62
     7
 10
-1671.6379999999999
 20
-449.59332708189282
 30
0.0
 11
-1662.137999999999
 21
-449.59332708189368
 31
0.0
  0
LINE
  5
30F
  8
DATA
  6
CONTINUOUS
 62
     7
 10
-1671.6379999999999
 20
-466.59332708189191
 30
0.0
 11
-1662.137999999999
 21
-466.59332708189191
 31
0.0
  0
LINE
  5
310
  8
DATA
  6
CONTINUOUS
 62
     7
 10
-1662.137999999999
 20
-466.59332708189191
 30
0.0
 11
-1662.137999999999
 21
-449.59332708189368
 31
0.0
  0
LINE
  5
311
  8
DATA
  6
CONTINUOUS
 62
     7
 10
-1671.6379999999999
 20
-577.01100265258322
 30
0.0
 11
-1662.137999999999
 21
-577.01100265258401
 31
0.0
  0
LINE
  5
312
  8
DATA
  6
CONTINUOUS
 62
     7
 10
-1671.6379999999999
 20
-594.01100265258208
 30
0.0
 11
-1662.137999999999
 21
-594.01100265258208
 31
0.0
  0
LINE
  5
313
  8
DATA
  6
CONTINUOUS
 62
     7
 10
-1662.137999999999
 20
-594.01100265258208
 30
0.0
 11
-1662.137999999999
 21
-577.01100265258401
 31
0.0
  0
LINE
  5
314
  8
DATA
  6
CONTINUOUS
 62
     7
 10
-1671.6379999999999
 20
-668.31511732692115
 30
0.0
 11
-1662.1379999999999
 21
-668.31511732692286
 31
0.0
  0
LINE
  5
315
  8
DATA
  6
CONTINUOUS
 62
     7
 10
-1671.6379999999999
 20
-685.31511732692115
 30
0.0
 11
-1662.1379999999999
 21
-685.31511732692115
 31
0.0
  0
LINE
  5
316
  8
DATA
  6
CONTINUOUS
 62
     7
 10
-1662.1379999999999
 20
-685.31511732692115
 30
0.0
 11
-1662.1379999999999
 21
-668.31511732692286
 31
0.0
  0
LINE
  5
317
  8
DATA
  6
CONTINUOUS
 62
     7
 10
-1679.1379999999999
 20
-346.64646348067163
 30
0.0
 11
-1680.338
 21
-346.64646348067163
 31
0.0
  0
ARC
  5
318
  8
DATA
  6
CONTINUOUS
 62
     7
 10
-1675.088000000015
 20
-338.64646348072711
 30
0.0
 40
8.7499999999467022
 50
126.8698976455474
 51
233.13010235401421
  0
LINE
  5
319
  8
DATA
  6
CONTINUOUS
 62
     7
 10
-1680.338
 20
-330.64646348067163
 30
0.0
 11
-1679.1379999999999
 21
-330.64646348067163
 31
0.0
  0
LINE
  5
31A
  8
DATA
  6
CONTINUOUS
 62
     7
 10
-1680.338
 20
-346.64646348067163
 30
0.0
 11
-1680.338
 21
-330.64646348067163
 31
0.0
  0
LINE
  5
31B
  8
DATA
  6
CONTINUOUS
 62
     7
 10
-1679.1379999999999
 20
-466.09332708189191
 30
0.0
 11
-1680.3379999999991
 21
-466.09332708189191
 31
0.0
  0
ARC
  5
31C
  8
DATA
  6
CONTINUOUS
 62
     7
 10
-1675.088000000015
 20
-458.09332708194819
 30
0.0
 40
8.7499999999467022
 50
126.8698976455474
 51
233.13010235401899
  0
LINE
  5
31D
  8
DATA
  6
CONTINUOUS
 62
     7
 10
-1680.3379999999991
 20
-450.09332708189282
 30
0.0
 11
-1679.1379999999999
 21
-450.09332708189282
 31
0.0
  0
LINE
  5
31E
  8
DATA
  6
CONTINUOUS
 62
     7
 10
-1680.3379999999991
 20
-466.09332708189191
 30
0.0
 11
-1680.3379999999991
 21
-450.09332708189282
 31
0.0
  0
LINE
  5
31F
  8
DATA
  6
CONTINUOUS
 62
     7
 10
-1679.1379999999999
 20
-593.51100265258196
 30
0.0
 11
-1680.338
 21
-593.51100265258196
 31
0.0
  0
ARC
  5
320
  8
DATA
  6
CONTINUOUS
 62
     7
 10
-1675.088000000015
 20
-585.51100265263756
 30
0.0
 40
8.7499999999467022
 50
126.8698976455474
 51
233.13010235401421
  0
LINE
  5
321
  8
DATA
  6
CONTINUOUS
 62
     7
 10
-1680.338
 20
-577.51100265258208
 30
0.0
 11
-1679.1379999999999
 21
-577.51100265258208
 31
0.0
  0
LINE
  5
322
  8
DATA
  6
CONTINUOUS
 62
     7
 10
-1680.338
 20
-593.51100265258196
 30
0.0
 11
-1680.338
 21
-577.51100265258208
 31
0.0
  0
LINE
  5
323
  8
DATA
  6
CONTINUOUS
 62
     7
 10
-1679.1379999999999
 20
-684.81511732692115
 30
0.0
 11
-1680.338
 21
-684.81511732692115
 31
0.0
  0
ARC
  5
324
  8
DATA
  6
CONTINUOUS
 62
     7
 10
-1675.088000000015
 20
-676.81511732697663
 30
0.0
 40
8.7499999999467022
 50
126.8698976455474
 51
233.13010235401421
  0
LINE
  5
325
  8
DATA
  6
CONTINUOUS
 62
     7
 10
-1680.338
 20
-668.81511732692115
 30
0.0
 11
-1679.1379999999999
 21
-668.81511732692115
 31
0.0
  0
LINE
  5
326
  8
DATA
  6
CONTINUOUS
 62
     7
 10
-1680.338
 20
-684.81511732692115
 30
0.0
 11
-1680.338
 21
-668.81511732692115
 31
0.0
  0
LINE
  5
327
  8
DATA
  6
CONTINUOUS
 62
     7
 10
-1662.137999999999
 20
-308.35000000000031
 30
0.0
 11
-1662.137999999999
 21
-483.349999999999
 31
0.0
  0
LINE
  5
328
  8
DATA
  6
CONTINUOUS
 62
     7
 10
-1659.1379999999999
 20
-308.35000000000031
 30
0.0
 11
-1659.137999999999
 21
-489.85133371246002
 31
0.0
  0
LINE
  5
329
  8
DATA
  6
CONTINUOUS
 62
     7
 10
-1650.1379999999999
 20
-331.8499999999994
 30
0.0
 11
-1625.3879999999999
 21
-308.35000000000031
 31
0.0
  0
LINE
  5
32A
  8
DATA
  6
CONTINUOUS
 62
     7
 10
-1650.1379999999999
 20
-331.84999999999849
 30
0.0
 11
-1650.137999999999
 21
-508.2611131898762
 31
0.0
  0
ARC
  5
32B
  8
DATA
  6
CONTINUOUS
 62
     7
 10
-1064.778902552531
 20
-127.80561532554189
 30
0.0
 40
589.18084270019676
 50
168.38169758356639
 51
180.89415809701401
  0
LINE
  5
32C
  8
DATA
  6
CONTINUOUS
 62
     7
 10
-1675.387999999999
 20
-304.35000000000122
 30
0.0
 11
-1675.387999999999
 21
-4.3499999999994543
 31
0.0
  0
LINE
  5
32D
  8
DATA
  6
CONTINUOUS
 62
     7
 10
-1666.488000000008
 20
-4.3499999999985439
 30
0.0
 11
-1666.4880000000001
 21
-304.35000000000122
 31
0.0
  0
LINE
  5
32E
  8
DATA
  6
CONTINUOUS
 62
     7
 10
-1684.2879999999991
 20
-304.35000000000122
 30
0.0
 11
-1684.2879999999991
 21
-4.3499999999985439
 31
0.0
  0
LINE
  5
32F
  8
DATA
  6
CONTINUOUS
 62
     7
 10
-1610.488000000001
 20
-9.1499999999987267
 30
0.0
 11
-1610.4880000000001
 21
-4.3499999999985439
 31
0.0
  0
LINE
  5
330
  8
DATA
  6
CONTINUOUS
 62
     7
 10
-1684.2879999999991
 20
-253.35000000000119
 30
0.0
 11
-1666.4880000000021
 21
-253.35000000000119
 31
0.0
  0
LINE
  5
331
  8
DATA
  6
CONTINUOUS
 62
     7
 10
-1653.8879999999999
 20
-300.24999999999989
 30
0.0
 11
-1653.8879999999999
 21
-137.0
 31
0.0
  0
LINE
  5
332
  8
DATA
  6
CONTINUOUS
 62
     7
 10
-1648.637999999997
 20
-277.75000000000182
 30
0.0
 11
-1648.637999999997
 21
-157.75
 31
0.0
  0
LINE
  5
333
  8
DATA
  6
CONTINUOUS
 62
     7
 10
-1648.637999999997
 20
-277.74999999999989
 30
0.0
 11
-1653.8879999999999
 21
-277.74999999999989
 31
0.0
  0
LINE
  5
334
  8
DATA
  6
CONTINUOUS
 62
     7
 10
-1648.637999999997
 20
-157.75
 30
0.0
 11
-1653.8879999999999
 21
-157.75
 31
0.0
  0
LINE
  5
335
  8
DATA
  6
CONTINUOUS
 62
     7
 10
-1649.7379999999971
 20
-116.25
 30
0.0
 11
-1649.7379999999971
 21
-112.7500000000027
 31
0.0
  0
LINE
  5
336
  8
DATA
  6
CONTINUOUS
 62
     7
 10
-1649.737999999998
 20
-112.7500000000018
 30
0.0
 11
-1653.7673522288239
 21
-112.7500000000018
 31
0.0
  0
LINE
  5
337
  8
DATA
  6
CONTINUOUS
 62
     7
 10
-1649.7379999999971
 20
-116.25
 30
0.0
 11
-1653.8464140988399
 21
-116.25
 31
0.0
  0
LINE
  5
338
  8
DATA
  6
CONTINUOUS
 62
     7
 10
-1666.487999999996
 20
-141.85000000000119
 30
0.0
 11
-1665.2879999999959
 21
-141.85000000000119
 31
0.0
  0
ARC
  5
339
  8
DATA
  6
CONTINUOUS
 62
     7
 10
-1670.537999999982
 20
-149.8499999999467
 30
0.0
 40
8.7499999999467022
 50
306.86989764554738
 51
53.130102354014262
  0
LINE
  5
33A
  8
DATA
  6
CONTINUOUS
 62
     7
 10
-1665.2879999999959
 20
-157.8500000000021
 30
0.0
 11
-1666.487999999996
 21
-157.8500000000021
 31
0.0
  0
LINE
  5
33B
  8
DATA
  6
CONTINUOUS
 62
     7
 10
-1665.2879999999959
 20
-141.85000000000119
 30
0.0
 11
-1665.2879999999959
 21
-157.8500000000021
 31
0.0
  0
LINE
  5
33C
  8
DATA
  6
CONTINUOUS
 62
     7
 10
-1666.487999999996
 20
-250.35000000000301
 30
0.0
 11
-1665.2879999999959
 21
-250.35000000000301
 31
0.0
  0
ARC
  5
33D
  8
DATA
  6
CONTINUOUS
 62
     7
 10
-1670.537999999982
 20
-258.34999999994659
 30
0.0
 40
8.7499999999467022
 50
306.86989764554738
 51
53.130102354014262
  0
LINE
  5
33E
  8
DATA
  6
CONTINUOUS
 62
     7
 10
-1665.2879999999959
 20
-266.35000000000309
 30
0.0
 11
-1666.487999999996
 21
-266.35000000000309
 31
0.0
  0
LINE
  5
33F
  8
DATA
  6
CONTINUOUS
 62
     7
 10
-1665.2879999999959
 20
-250.35000000000301
 30
0.0
 11
-1665.2879999999959
 21
-266.35000000000309
 31
0.0
  0
LINE
  5
340
  8
DATA
  6
CONTINUOUS
 62
     7
 10
-1620.3879999999999
 20
-304.35000000000122
 30
0.0
 11
-1620.3879999999999
 21
-300.24999999999989
 31
0.0
  0
LINE
  5
341
  8
DATA
  6
CONTINUOUS
 62
     7
 10
-1666.488000000008
 20
-9.1499999999987267
 30
0.0
 11
-1610.488000000001
 21
-9.1499999999987267
 31
0.0
  0
LINE
  5
342
  8
DATA
  6
CONTINUOUS
 62
     7
 10
-1684.2879999999991
 20
-37.234273434310133
 30
0.0
 11
-1666.4880000000071
 21
-37.234273434310133
 31
0.0
  0
LINE
  5
343
  8
DATA
  6
CONTINUOUS
 62
     7
 10
-1645.987999999996
 20
-46.25
 30
0.0
 11
-1645.987999999996
 21
-42.750000000000902
 31
0.0
  0
LINE
  5
344
  8
DATA
  6
CONTINUOUS
 62
     7
 10
-1648.637999999997
 20
-81.25
 30
0.0
 11
-1648.637999999997
 21
-77.750000000000895
 31
0.0
  0
LINE
  5
345
  8
DATA
  6
CONTINUOUS
 62
     7
 10
-1645.987999999996
 20
-42.750000000000902
 30
0.0
 11
-1647.7879999999959
 21
-42.750000000000902
 31
0.0
  0
LINE
  5
346
  8
DATA
  6
CONTINUOUS
 62
     7
 10
-1645.987999999996
 20
-46.25
 30
0.0
 11
-1648.2878973536281
 21
-46.25
 31
0.0
  0
LINE
  5
347
  8
DATA
  6
CONTINUOUS
 62
     7
 10
-1648.6379999999981
 20
-77.750000000000895
 30
0.0
 11
-1651.8295824595509
 21
-77.750000000000895
 31
0.0
  0
LINE
  5
348
  8
DATA
  6
CONTINUOUS
 62
     7
 10
-1648.637999999997
 20
-81.25
 30
0.0
 11
-1652.117510245379
 21
-81.25
 31
0.0
  0
LINE
  5
349
  8
DATA
  6
CONTINUOUS
 62
     7
 10
-1666.487999999996
 20
-31.350000000003082
 30
0.0
 11
-1665.2879999999959
 21
-31.350000000003082
 31
0.0
  0
ARC
  5
34A
  8
DATA
  6
CONTINUOUS
 62
     7
 10
-1670.537999999982
 20
-39.349999999946697
 30
0.0
 40
8.7499999999467022
 50
306.86989764554738
 51
53.130102354014262
  0
LINE
  5
34B
  8
DATA
  6
CONTINUOUS
 62
     7
 10
-1665.2879999999959
 20
-47.350000000003092
 30
0.0
 11
-1666.487999999996
 21
-47.350000000003092
 31
0.0
  0
LINE
  5
34C
  8
DATA
  6
CONTINUOUS
 62
     7
 10
-1665.2879999999959
 20
-31.350000000003082
 30
0.0
 11
-1665.2879999999959
 21
-47.350000000003092
 31
0.0
  0
LINE
  5
34D
  8
DATA
  6
CONTINUOUS
 62
     7
 10
-1591.887999999999
 20
-173.24999999999989
 30
0.0
 11
-1648.637999999997
 21
-173.24999999999989
 31
0.0
  0
LINE
  5
34E
  8
DATA
  6
CONTINUOUS
 62
     7
 10
-1591.887999999999
 20
-377.24999999999972
 30
0.0
 11
-1591.887999999999
 21
-173.24999999999989
 31
0.0
  0
LINE
  5
34F
  8
DATA
  6
CONTINUOUS
 62
     7
 10
-1650.1379999999999
 20
-377.24999999999972
 30
0.0
 11
-1591.887999999999
 21
-377.24999999999972
 31
0.0
  0
LINE
  5
350
  8
DATA
  6
CONTINUOUS
 62
     7
 10
-1758.887999999999
 20
-173.24999999999989
 30
0.0
 11
-1702.138000000002
 21
-173.24999999999989
 31
0.0
  0
LINE
  5
351
  8
DATA
  6
CONTINUOUS
 62
     7
 10
-1758.887999999999
 20
-377.24999999999972
 30
0.0
 11
-1758.887999999999
 21
-173.24999999999989
 31
0.0
  0
LINE
  5
352
  8
DATA
  6
CONTINUOUS
 62
     7
 10
-1700.6379999999999
 20
-377.24999999999972
 30
0.0
 11
-1758.887999999999
 21
-377.24999999999972
 31
0.0
  0
ARC
  5
353
  8
DATA
  6
CONTINUOUS
 62
     7
 10
-1675.387999999999
 20
-275.24999999999989
 30
0.0
 40
75.000000000000369
 50
45.482688100373203
 51
69.104374845644614
  0
ARC
  5
354
  8
DATA
  6
CONTINUOUS
 62
     7
 10
-1675.387999999999
 20
-275.24999999999989
 30
0.0
 40
75.000000000000341
 50
110.8956251543561
 51
134.51731189962669
  0
ARC
  5
355
  8
DATA
  6
CONTINUOUS
 62
     7
 10
-1675.387999999999
 20
-275.24999999999989
 30
0.0
 40
74.99999999999973
 50
225.48268810037271
 51
250.32608100566989
  0
ARC
  5
356
  8
DATA
  6
CONTINUOUS
 62
     7
 10
-1675.387999999999
 20
-275.24999999999989
 30
0.0
 40
74.999999999999815
 50
289.67391899432999
 51
314.51731189962737
  0
ARC
  5
357
  8
DATA
  6
CONTINUOUS
 62
     7
 10
-1675.387999999999
 20
-275.24999999999989
 30
0.0
 40
64.999999999999616
 50
45.674660220445453
 51
65.698484749136384
  0
ARC
  5
358
  8
DATA
  6
CONTINUOUS
 62
     7
 10
-1675.387999999999
 20
-275.24999999999989
 30
0.0
 40
65.0
 50
114.3015152508644
 51
134.3253397800303
  0
ARC
  5
359
  8
DATA
  6
CONTINUOUS
 62
     7
 10
-1675.387999999999
 20
-275.24999999999989
 30
0.0
 40
65.00000000000027
 50
225.67466022044491
 51
247.14119435027089
  0
ARC
  5
35A
  8
DATA
  6
CONTINUOUS
 62
     7
 10
-1675.387999999999
 20
-275.24999999999989
 30
0.0
 40
64.999999999999915
 50
292.85880564972922
 51
314.3253397795545
  0
ARC
  5
35B
  8
DATA
  6
CONTINUOUS
 62
     7
 10
-1724.3879999999999
 20
-225.2620539011395
 30
0.0
 40
4.9999999999998996
 50
135.76522700395421
 51
315.76522701010828
  0
ARC
  5
35C
  8
DATA
  6
CONTINUOUS
 62
     7
 10
-1626.3879999999999
 20
-225.2620539011395
 30
0.0
 40
5.0000000000006493
 50
224.23477298988439
 51
44.23477299605301
  0
ARC
  5
35D
  8
DATA
  6
CONTINUOUS
 62
     7
 10
-1724.3879999999999
 20
-325.23794609885948
 30
0.0
 40
4.9999999999993641
 50
44.234772989884213
 51
224.23477299605321
  0
ARC
  5
35E
  8
DATA
  6
CONTINUOUS
 62
     7
 10
-1626.3879999999999
 20
-325.23794609885948
 30
0.0
 40
4.9999999999998828
 50
315.76522700393951
 51
135.765227010123
  0
LINE
  5
35F
  8
DATA
  6
CONTINUOUS
 62
     7
 10
-1748.887999999999
 20
-246.24999999999989
 30
0.0
 11
-1748.887999999999
 21
-202.24999999999989
 31
0.0
  0
LINE
  5
360
  8
DATA
  6
CONTINUOUS
 62
     7
 10
-1741.887999999999
 20
-202.24999999999989
 30
0.0
 11
-1741.887999999999
 21
-246.24999999999989
 31
0.0
  0
LINE
  5
361
  8
DATA
  6
CONTINUOUS
 62
     7
 10
-1748.887999999999
 20
-348.24999999999989
 30
0.0
 11
-1748.887999999999
 21
-304.24999999999989
 31
0.0
  0
LINE
  5
362
  8
DATA
  6
CONTINUOUS
 62
     7
 10
-1741.887999999999
 20
-304.24999999999989
 30
0.0
 11
-1741.887999999999
 21
-348.24999999999989
 31
0.0
  0
ARC
  5
363
  8
DATA
  6
CONTINUOUS
 62
     7
 10
-1745.387999999999
 20
-202.24999999999989
 30
0.0
 40
3.5
 50
0.0
 51
180.0
  0
ARC
  5
364
  8
DATA
  6
CONTINUOUS
 62
     7
 10
-1745.387999999999
 20
-246.24999999999989
 30
0.0
 40
3.5
 50
180.0
 51
0.0
  0
ARC
  5
365
  8
DATA
  6
CONTINUOUS
 62
     7
 10
-1745.387999999999
 20
-304.24999999999989
 30
0.0
 40
3.5
 50
0.0
 51
180.0
  0
ARC
  5
366
  8
DATA
  6
CONTINUOUS
 62
     7
 10
-1745.387999999999
 20
-348.24999999999989
 30
0.0
 40
3.5
 50
180.0
 51
0.0
  0
LINE
  5
367
  8
DATA
  6
CONTINUOUS
 62
     7
 10
-1601.887999999999
 20
-246.24999999999989
 30
0.0
 11
-1601.887999999999
 21
-202.24999999999989
 31
0.0
  0
LINE
  5
368
  8
DATA
  6
CONTINUOUS
 62
     7
 10
-1608.8879999999999
 20
-202.24999999999989
 30
0.0
 11
-1608.8879999999999
 21
-246.24999999999989
 31
0.0
  0
LINE
  5
369
  8
DATA
  6
CONTINUOUS
 62
     7
 10
-1601.887999999999
 20
-348.24999999999989
 30
0.0
 11
-1601.887999999999
 21
-304.24999999999989
 31
0.0
  0
LINE
  5
36A
  8
DATA
  6
CONTINUOUS
 62
     7
 10
-1608.8879999999999
 20
-304.24999999999989
 30
0.0
 11
-1608.8879999999999
 21
-348.24999999999989
 31
0.0
  0
ARC
  5
36B
  8
DATA
  6
CONTINUOUS
 62
     7
 10
-1605.3879999999999
 20
-202.24999999999989
 30
0.0
 40
3.5
 50
0.0
 51
180.0
  0
ARC
  5
36C
  8
DATA
  6
CONTINUOUS
 62
     7
 10
-1605.3879999999999
 20
-246.24999999999989
 30
0.0
 40
3.5
 50
180.0
 51
0.0
  0
ARC
  5
36D
  8
DATA
  6
CONTINUOUS
 62
     7
 10
-1605.3879999999999
 20
-304.24999999999989
 30
0.0
 40
3.5
 50
0.0
 51
180.0
  0
ARC
  5
36E
  8
DATA
  6
CONTINUOUS
 62
     7
 10
-1605.3879999999999
 20
-348.24999999999989
 30
0.0
 40
3.5
 50
180.0
 51
0.0
  0
LINE
  5
36F
  8
DATA
  6
CONTINUOUS
 62
     7
 10
-1755.887999999999
 20
-377.24999999999972
 30
0.0
 11
-1755.887999999999
 21
-173.24999999999989
 31
0.0
  0
LINE
  5
370
  8
DATA
  6
CONTINUOUS
 62
     7
 10
-1594.8879999999999
 20
-173.24999999999989
 30
0.0
 11
-1594.8879999999999
 21
-377.24999999999972
 31
0.0
  0
LINE
  5
371
  8
DATA
  6
CONTINUOUS
 62
     7
 10
-1749.8879999999999
 20
-300.24999999999989
 30
0.0
 11
-1600.887999999999
 21
-300.24999999999989
 31
0.0
  0
LINE
  5
372
  8
DATA
  6
CONTINUOUS
 62
     7
 10
-1749.8879999999999
 20
-297.25
 30
0.0
 11
-1684.2879999999991
 21
-297.25
 31
0.0
  0
LINE
  5
373
  8
DATA
  6
CONTINUOUS
 62
     7
 10
-1666.488000000008
 20
-297.25
 30
0.0
 11
-1600.887999999999
 21
-297.25
 31
0.0
  0
LINE
  5
374
  8
DATA
  6
CONTINUOUS
 62
     7
 10
-1752.8879999999999
 20
-294.24999999999989
 30
0.0
 11
-1752.8879999999999
 21
-249.25
 31
0.0
  0
LINE
  5
375
  8
DATA
  6
CONTINUOUS
 62
     7
 10
-1597.8879999999999
 20
-294.24999999999989
 30
0.0
 11
-1597.8879999999999
 21
-249.25
 31
0.0
  0
LINE
  5
376
  8
DATA
  6
CONTINUOUS
 62
     7
 10
-1752.8879999999999
 20
-249.25
 30
0.0
 11
-1755.887999999999
 21
-249.25
 31
0.0
  0
LINE
  5
377
  8
DATA
  6
CONTINUOUS
 62
     7
 10
-1597.8879999999999
 20
-249.25
 30
0.0
 11
-1594.8879999999999
 21
-249.25
 31
0.0
  0
LINE
  5
378
  8
DATA
  6
CONTINUOUS
 62
     7
 10
-1760.3879999999999
 20
-265.87779557933391
 30
0.0
 11
-1758.887999999999
 21
-265.87779557933391
 31
0.0
  0
LINE
  5
379
  8
DATA
  6
CONTINUOUS
 62
     7
 10
-1760.3879999999999
 20
-283.37779557933391
 30
0.0
 11
-1758.887999999999
 21
-283.37779557933391
 31
0.0
  0
LINE
  5
37A
  8
DATA
  6
CONTINUOUS
 62
     7
 10
-1760.3879999999999
 20
-283.37779557933391
 30
0.0
 11
-1760.3879999999999
 21
-265.87779557933391
 31
0.0
  0
LINE
  5
37B
  8
DATA
  6
CONTINUOUS
 62
     7
 10
-1765.3879999999999
 20
-267.37779557933379
 30
0.0
 11
-1760.3879999999999
 21
-267.37779557933379
 31
0.0
  0
LINE
  5
37C
  8
DATA
  6
CONTINUOUS
 62
     7
 10
-1765.3879999999999
 20
-281.87779557933391
 30
0.0
 11
-1760.3879999999999
 21
-281.87779557933391
 31
0.0
  0
LINE
  5
37D
  8
DATA
  6
CONTINUOUS
 62
     7
 10
-1765.3879999999999
 20
-281.87779557933391
 30
0.0
 11
-1765.3879999999999
 21
-267.37779557933379
 31
0.0
  0
LINE
  5
37E
  8
DATA
  6
CONTINUOUS
 62
     7
 10
-1765.3879999999999
 20
-271.00279557933391
 30
0.0
 11
-1760.3879999999999
 21
-271.00279557933391
 31
0.0
  0
LINE
  5
37F
  8
DATA
  6
CONTINUOUS
 62
     7
 10
-1765.3879999999999
 20
-278.25279557933391
 30
0.0
 11
-1760.3879999999999
 21
-278.25279557933391
 31
0.0
  0
LINE
  5
380
  8
DATA
  6
CONTINUOUS
 62
     7
 10
-1590.387999999999
 20
-265.87779557933391
 30
0.0
 11
-1591.887999999999
 21
-265.87779557933391
 31
0.0
  0
LINE
  5
381
  8
DATA
  6
CONTINUOUS
 62
     7
 10
-1590.387999999999
 20
-283.37779557933391
 30
0.0
 11
-1591.887999999999
 21
-283.37779557933391
 31
0.0
  0
LINE
  5
382
  8
DATA
  6
CONTINUOUS
 62
     7
 10
-1590.387999999999
 20
-283.37779557933391
 30
0.0
 11
-1590.387999999999
 21
-265.87779557933391
 31
0.0
  0
LINE
  5
383
  8
DATA
  6
CONTINUOUS
 62
     7
 10
-1585.3879999999999
 20
-267.37779557933379
 30
0.0
 11
-1590.387999999999
 21
-267.37779557933379
 31
0.0
  0
LINE
  5
384
  8
DATA
  6
CONTINUOUS
 62
     7
 10
-1585.3879999999999
 20
-281.87779557933391
 30
0.0
 11
-1590.387999999999
 21
-281.87779557933391
 31
0.0
  0
LINE
  5
385
  8
DATA
  6
CONTINUOUS
 62
     7
 10
-1585.3879999999999
 20
-281.87779557933391
 30
0.0
 11
-1585.3879999999999
 21
-267.37779557933379
 31
0.0
  0
LINE
  5
386
  8
DATA
  6
CONTINUOUS
 62
     7
 10
-1585.3879999999999
 20
-271.00279557933391
 30
0.0
 11
-1590.387999999999
 21
-271.00279557933391
 31
0.0
  0
LINE
  5
387
  8
DATA
  6
CONTINUOUS
 62
     7
 10
-1585.3879999999999
 20
-278.25279557933391
 30
0.0
 11
-1590.387999999999
 21
-278.25279557933391
 31
0.0
  0
LINE
  5
388
  8
DATA
  6
CONTINUOUS
 62
     7
 10
-1606.8879999999999
 20
-281.87779557933391
 30
0.0
 11
-1606.8879999999999
 21
-267.37779557933379
 31
0.0
  0
LINE
  5
389
  8
DATA
  6
CONTINUOUS
 62
     7
 10
-1599.3879999999999
 20
-265.87779557933391
 30
0.0
 11
-1597.8879999999999
 21
-265.87779557933391
 31
0.0
  0
LINE
  5
38A
  8
DATA
  6
CONTINUOUS
 62
     7
 10
-1597.8879999999999
 20
-283.37779557933391
 30
0.0
 11
-1599.3879999999999
 21
-283.37779557933391
 31
0.0
  0
LINE
  5
38B
  8
DATA
  6
CONTINUOUS
 62
     7
 10
-1599.3879999999999
 20
-283.37779557933391
 30
0.0
 11
-1599.3879999999999
 21
-265.87779557933391
 31
0.0
  0
LINE
  5
38C
  8
DATA
  6
CONTINUOUS
 62
     7
 10
-1601.3879999999999
 20
-281.87779557933391
 30
0.0
 11
-1601.3879999999999
 21
-267.37779557933379
 31
0.0
  0
LINE
  5
38D
  8
DATA
  6
CONTINUOUS
 62
     7
 10
-1599.3879999999999
 20
-267.37779557933379
 30
0.0
 11
-1606.8879999999999
 21
-267.37779557933379
 31
0.0
  0
LINE
  5
38E
  8
DATA
  6
CONTINUOUS
 62
     7
 10
-1599.3879999999999
 20
-281.87779557933391
 30
0.0
 11
-1606.8879999999999
 21
-281.87779557933391
 31
0.0
  0
LINE
  5
38F
  8
DATA
  6
CONTINUOUS
 62
     7
 10
-1601.3879999999999
 20
-271.00279557933391
 30
0.0
 11
-1606.8879999999999
 21
-271.00279557933391
 31
0.0
  0
LINE
  5
390
  8
DATA
  6
CONTINUOUS
 62
     7
 10
-1601.3879999999999
 20
-278.25279557933391
 30
0.0
 11
-1606.8879999999999
 21
-278.25279557933391
 31
0.0
  0
LINE
  5
391
  8
DATA
  6
CONTINUOUS
 62
     7
 10
-1743.8879999999999
 20
-281.87779557933391
 30
0.0
 11
-1743.8879999999999
 21
-267.37779557933379
 31
0.0
  0
LINE
  5
392
  8
DATA
  6
CONTINUOUS
 62
     7
 10
-1735.3879999999999
 20
-278.37779557933391
 30
0.0
 11
-1735.3879999999999
 21
-270.87779557933391
 31
0.0
  0
LINE
  5
393
  8
DATA
  6
CONTINUOUS
 62
     7
 10
-1751.3879999999999
 20
-265.87779557933391
 30
0.0
 11
-1752.8879999999999
 21
-265.87779557933391
 31
0.0
  0
LINE
  5
394
  8
DATA
  6
CONTINUOUS
 62
     7
 10
-1752.8879999999999
 20
-283.37779557933391
 30
0.0
 11
-1751.3879999999999
 21
-283.37779557933391
 31
0.0
  0
LINE
  5
395
  8
DATA
  6
CONTINUOUS
 62
     7
 10
-1751.3879999999999
 20
-283.37779557933391
 30
0.0
 11
-1751.3879999999999
 21
-265.87779557933391
 31
0.0
  0
LINE
  5
396
  8
DATA
  6
CONTINUOUS
 62
     7
 10
-1749.3879999999999
 20
-281.87779557933391
 30
0.0
 11
-1749.3879999999999
 21
-267.37779557933379
 31
0.0
  0
LINE
  5
397
  8
DATA
  6
CONTINUOUS
 62
     7
 10
-1751.3879999999999
 20
-267.37779557933379
 30
0.0
 11
-1743.8879999999999
 21
-267.37779557933379
 31
0.0
  0
LINE
  5
398
  8
DATA
  6
CONTINUOUS
 62
     7
 10
-1751.3879999999999
 20
-281.87779557933391
 30
0.0
 11
-1743.8879999999999
 21
-281.87779557933391
 31
0.0
  0
LINE
  5
399
  8
DATA
  6
CONTINUOUS
 62
     7
 10
-1749.3879999999999
 20
-271.00279557933391
 30
0.0
 11
-1743.8879999999999
 21
-271.00279557933391
 31
0.0
  0
LINE
  5
39A
  8
DATA
  6
CONTINUOUS
 62
     7
 10
-1749.3879999999999
 20
-278.25279557933391
 30
0.0
 11
-1743.8879999999999
 21
-278.25279557933391
 31
0.0
  0
LINE
  5
39B
  8
DATA
  6
CONTINUOUS
 62
     7
 10
-1743.8879999999999
 20
-270.87779557933391
 30
0.0
 11
-1735.3879999999999
 21
-270.87779557933391
 31
0.0
  0
LINE
  5
39C
  8
DATA
  6
CONTINUOUS
 62
     7
 10
-1743.8879999999999
 20
-278.37779557933391
 30
0.0
 11
-1735.3879999999999
 21
-278.37779557933391
 31
0.0
  0
LINE
  5
39D
  8
DATA
  6
CONTINUOUS
 62
     7
 10
-1735.3879999999999
 20
-278.37779557933391
 30
0.0
 11
-1737.3976189432331
 21
-270.87779557933391
 31
0.0
  0
LINE
  5
39E
  8
DATA
  6
CONTINUOUS
 62
     7
 10
-1737.3879999999999
 20
-278.37779557933391
 30
0.0
 11
-1739.3976189432331
 21
-270.87779557933391
 31
0.0
  0
LINE
  5
39F
  8
DATA
  6
CONTINUOUS
 62
     7
 10
-1739.387999999999
 20
-278.37779557933391
 30
0.0
 11
-1741.3976189432331
 21
-270.87779557933391
 31
0.0
  0
LINE
  5
3A0
  8
DATA
  6
CONTINUOUS
 62
     7
 10
-1741.387999999999
 20
-278.37779557933391
 30
0.0
 11
-1743.3976189432331
 21
-270.87779557933391
 31
0.0
  0
LINE
  5
3A1
  8
DATA
  6
CONTINUOUS
 62
     7
 10
-1743.387999999999
 20
-278.37779557933391
 30
0.0
 11
-1743.8879999999999
 21
-276.5117701755488
 31
0.0
  0
LINE
  5
3A2
  8
DATA
  6
CONTINUOUS
 62
     7
 10
-1615.3879999999999
 20
-270.87779557933391
 30
0.0
 11
-1615.3879999999999
 21
-278.37779557933391
 31
0.0
  0
LINE
  5
3A3
  8
DATA
  6
CONTINUOUS
 62
     7
 10
-1606.8879999999999
 20
-278.37779557933391
 30
0.0
 11
-1615.3879999999999
 21
-278.37779557933391
 31
0.0
  0
LINE
  5
3A4
  8
DATA
  6
CONTINUOUS
 62
     7
 10
-1606.8879999999999
 20
-270.87779557933391
 30
0.0
 11
-1615.3879999999999
 21
-270.87779557933391
 31
0.0
  0
LINE
  5
3A5
  8
DATA
  6
CONTINUOUS
 62
     7
 10
-1615.3879999999999
 20
-270.87779557933391
 30
0.0
 11
-1613.378381056767
 21
-278.37779557933391
 31
0.0
  0
LINE
  5
3A6
  8
DATA
  6
CONTINUOUS
 62
     7
 10
-1613.387999999999
 20
-270.87779557933391
 30
0.0
 11
-1611.378381056767
 21
-278.37779557933391
 31
0.0
  0
LINE
  5
3A7
  8
DATA
  6
CONTINUOUS
 62
     7
 10
-1611.387999999999
 20
-270.87779557933391
 30
0.0
 11
-1609.378381056767
 21
-278.37779557933391
 31
0.0
  0
LINE
  5
3A8
  8
DATA
  6
CONTINUOUS
 62
     7
 10
-1609.3879999999999
 20
-270.87779557933391
 30
0.0
 11
-1607.378381056767
 21
-278.37779557933391
 31
0.0
  0
LINE
  5
3A9
  8
DATA
  6
CONTINUOUS
 62
     7
 10
-1607.3879999999999
 20
-270.87779557933391
 30
0.0
 11
-1606.8879999999999
 21
-272.74382098311878
 31
0.0
  0
ARC
  5
3AA
  8
DATA
  6
CONTINUOUS
 62
     7
 10
-1749.8879999999999
 20
-294.24999999999989
 30
0.0
 40
3.0
 50
180.0
 51
270.0
  0
ARC
  5
3AB
  8
DATA
  6
CONTINUOUS
 62
     7
 10
-1600.887999999999
 20
-294.24999999999989
 30
0.0
 40
3.0
 50
270.0
 51
0.0
  0
ARC
  5
3AC
  8
DATA
  6
CONTINUOUS
 62
     7
 10
-1749.8879999999999
 20
-294.24999999999989
 30
0.0
 40
6.0
 50
180.0
 51
270.0
  0
ARC
  5
3AD
  8
DATA
  6
CONTINUOUS
 62
     7
 10
-1600.887999999999
 20
-294.24999999999989
 30
0.0
 40
6.0
 50
270.0
 51
0.0
  0
LINE
  5
3AE
  8
DATA
  6
CONTINUOUS
 62
     7
 10
-2072.8879999999999
 20
-1210.3839999999959
 30
0.0
 11
-1277.8879999999999
 21
-1210.3839999999959
 31
0.0
  0
LINE
  5
3AF
  8
DATA
  6
CONTINUOUS
 62
     7
 10
-1277.8879999999999
 20
-2000.3839999999991
 30
0.0
 11
-2072.8879999999999
 21
-2000.3839999999991
 31
0.0
  0
ARC
  5
3B0
  8
DATA
  6
CONTINUOUS
 62
     7
 10
-2248.434919566459
 20
-1160.7440969766139
 30
0.0
 40
857.79478182044897
 50
281.80895775498459
 51
311.02504303848298
  0
ARC
  5
3B1
  8
DATA
  6
CONTINUOUS
 62
     7
 10
-2248.434919566459
 20
-2050.023903023382
 30
0.0
 40
857.79478182044897
 50
48.974956961516959
 51
78.191042245015325
  0
LINE
  5
3B2
  8
DATA
  6
CONTINUOUS
 62
     7
 10
-2072.8879999999999
 20
-2000.3839999999991
 30
0.0
 11
-2072.8879999999999
 21
-1210.3839999999959
 31
0.0
  0
LINE
  5
3B3
  8
DATA
  6
CONTINUOUS
 62
     7
 10
-1277.8879999999999
 20
-1210.3839999999959
 30
0.0
 11
-1277.8879999999999
 21
-2000.3839999999991
 31
0.0
  0
ARC
  5
3B4
  8
DATA
  6
CONTINUOUS
 62
     7
 10
-1102.341080433541
 20
-2050.023903023382
 30
0.0
 40
857.79478182044954
 50
101.8089577549847
 51
131.02504303848309
  0
LINE
  5
3B5
  8
DATA
  6
CONTINUOUS
 62
     7
 10
-1675.3879999999999
 20
-1480.383999999998
 30
0.0
 11
-1675.3879999999999
 21
-1210.3839999999959
 31
0.0
  0
LINE
  5
3B6
  8
DATA
  6
CONTINUOUS
 62
     7
 10
-1685.3879999999999
 20
-1807.883999999998
 30
0.0
 11
-1685.3879999999999
 21
-1402.883999999998
 31
0.0
  0
LINE
  5
3B7
  8
DATA
  6
CONTINUOUS
 62
     7
 10
-1665.3880000000011
 20
-1807.8839999999991
 30
0.0
 11
-1665.3879999999999
 21
-1402.883999999998
 31
0.0
  0
LINE
  5
3B8
  8
DATA
  6
CONTINUOUS
 62
     7
 10
-1675.3880000000011
 20
-1730.3839999999991
 30
0.0
 11
-1675.3879999999999
 21
-2000.3839999999991
 31
0.0
  0
ARC
  5
3B9
  8
DATA
  6
CONTINUOUS
 62
     7
 10
-1102.341080433541
 20
-1160.7440969766139
 30
0.0
 40
857.79478182044897
 50
228.97495696151691
 51
258.1910422450153
  0
LINE
  5
3BA
  8
DATA
  6
CONTINUOUS
 62
     7
 10
-1685.3879999999999
 20
-1730.3839999999991
 30
0.0
 11
-1665.3879999999999
 21
-1730.3839999999991
 31
0.0
  0
LINE
  5
3BB
  8
DATA
  6
CONTINUOUS
 62
     7
 10
-1685.3879999999999
 20
-1480.383999999998
 30
0.0
 11
-1665.3879999999999
 21
-1480.383999999998
 31
0.0
  0
LINE
  5
3BC
  8
DATA
  6
CONTINUOUS
 62
     7
 10
-1758.8879999999999
 20
-2002.384
 30
0.0
 11
-1758.8879999999999
 21
-2000.3839999999991
 31
0.0
  0
LINE
  5
3BD
  8
DATA
  6
CONTINUOUS
 62
     7
 10
-1591.8879999999999
 20
-2000.3839999999991
 30
0.0
 11
-1591.8879999999999
 21
-2002.384
 31
0.0
  0
LINE
  5
3BE
  8
DATA
  6
CONTINUOUS
 62
     7
 10
-1755.8879999999999
 20
-2002.384
 30
0.0
 11
-1755.8879999999999
 21
-2000.3839999999991
 31
0.0
  0
LINE
  5
3BF
  8
DATA
  6
CONTINUOUS
 62
     7
 10
-1594.8879999999999
 20
-2000.3839999999991
 30
0.0
 11
-1594.8879999999999
 21
-2002.384
 31
0.0
  0
LINE
  5
3C0
  8
DATA
  6
CONTINUOUS
 62
     7
 10
-1597.8879999999999
 20
-2005.384
 30
0.0
 11
-1752.8879999999999
 21
-2005.384
 31
0.0
  0
ARC
  5
3C1
  8
DATA
  6
CONTINUOUS
 62
     7
 10
-1597.8879999999999
 20
-2002.384
 30
0.0
 40
6.0
 50
270.0
 51
0.0
  0
ARC
  5
3C2
  8
DATA
  6
CONTINUOUS
 62
     7
 10
-1752.8879999999999
 20
-2002.384
 30
0.0
 40
6.0
 50
180.0
 51
270.0
  0
ARC
  5
3C3
  8
DATA
  6
CONTINUOUS
 62
     7
 10
-1752.8879999999999
 20
-2002.384
 30
0.0
 40
3.0
 50
180.0
 51
270.0
  0
ARC
  5
3C4
  8
DATA
  6
CONTINUOUS
 62
     7
 10
-1597.8879999999999
 20
-2002.384
 30
0.0
 40
3.0
 50
270.0
 51
0.0
  0
LINE
  5
3C5
  8
DATA
  6
CONTINUOUS
 62
     7
 10
-323.24999999999812
 20
-1650.384
 30
0.0
 11
-323.24999999999812
 21
-2008.384
 31
0.0
  0
LINE
  5
3C6
  8
DATA
  6
CONTINUOUS
 62
     7
 10
-527.24999999999818
 20
-2008.384
 30
0.0
 11
-527.24999999999818
 21
-1650.384
 31
0.0
  0
ARC
  5
3C7
  8
DATA
  6
CONTINUOUS
 62
     7
 10
-425.24999999999812
 20
-1650.384
 30
0.0
 40
102.0
 50
0.0
 51
180.0
  0
CIRCLE
  5
3C8
  8
DATA
  6
CONTINUOUS
 62
     7
 10
-425.24999999999812
 20
-1575.384
 30
0.0
 40
8.75
  0
CIRCLE
  5
3C9
  8
DATA
  6
CONTINUOUS
 62
     7
 10
-425.24999999999812
 20
-1575.384
 30
0.0
 40
6.2786841774377526
  0
LINE
  5
3CA
  8
DATA
  6
CONTINUOUS
 62
     7
 10
-431.52868417743588
 20
-1579.009
 30
0.0
 11
-425.24999999999812
 21
-1582.634
 31
0.0
  0
LINE
  5
3CB
  8
DATA
  6
CONTINUOUS
 62
     7
 10
-431.52868417743588
 20
-1571.7589999999991
 30
0.0
 11
-431.52868417743588
 21
-1579.009
 31
0.0
  0
LINE
  5
3CC
  8
DATA
  6
CONTINUOUS
 62
     7
 10
-425.24999999999909
 20
-1568.1339999999991
 30
0.0
 11
-431.52868417743588
 21
-1571.7589999999991
 31
0.0
  0
LINE
  5
3CD
  8
DATA
  6
CONTINUOUS
 62
     7
 10
-418.97131582256128
 20
-1571.759
 30
0.0
 11
-425.24999999999909
 21
-1568.1339999999991
 31
0.0
  0
LINE
  5
3CE
  8
DATA
  6
CONTINUOUS
 62
     7
 10
-418.97131582256128
 20
-1579.009
 30
0.0
 11
-418.97131582256128
 21
-1571.759
 31
0.0
  0
LINE
  5
3CF
  8
DATA
  6
CONTINUOUS
 62
     7
 10
-425.24999999999812
 20
-1582.634
 30
0.0
 11
-418.97131582256128
 21
-1579.009
 31
0.0
  0
ARC
  5
3D0
  8
DATA
  6
CONTINUOUS
 62
     7
 10
-425.24999999999812
 20
-1575.384
 30
0.0
 40
228.0864350964348
 50
250.48276446718199
 51
268.18409500451958
  0
ARC
  5
3D1
  8
DATA
  6
CONTINUOUS
 62
     7
 10
-425.24999999999812
 20
-1575.384
 30
0.0
 40
228.0864350964342
 50
271.81590499548008
 51
289.51723553281761
  0
ARC
  5
3D2
  8
DATA
  6
CONTINUOUS
 62
     7
 10
-425.24999999999812
 20
-1575.384
 30
0.0
 40
217.9999999999994
 50
250.48273745519299
 51
268.14137772660717
  0
ARC
  5
3D3
  8
DATA
  6
CONTINUOUS
 62
     7
 10
-425.24999999999812
 20
-1575.384
 30
0.0
 40
217.9999999999992
 50
271.85862227339271
 51
289.51603065630292
  0
ARC
  5
3D4
  8
DATA
  6
CONTINUOUS
 62
     7
 10
-499.74999999999812
 20
-1785.57141577323
 30
0.0
 40
4.9999999999999796
 50
70.456498158247769
 51
250.4564981582414
  0
ARC
  5
3D5
  8
DATA
  6
CONTINUOUS
 62
     7
 10
-350.74999999999818
 20
-1785.57141577323
 30
0.0
 40
5.0000000000008367
 50
289.54350184174882
 51
109.5435018417522
  0
LINE
  5
3D6
  8
DATA
  6
CONTINUOUS
 62
     7
 10
-399.24999999999812
 20
-1801.983695222654
 30
0.0
 11
-399.24999999999812
 21
-1791.8279881354979
 31
0.0
  0
LINE
  5
3D7
  8
DATA
  6
CONTINUOUS
 62
     7
 10
-399.24999999999812
 20
-1551.7533759524949
 30
0.0
 11
-399.24999999999812
 21
-1416.884
 31
0.0
  0
LINE
  5
3D8
  8
DATA
  6
CONTINUOUS
 62
     7
 10
-450.24999999999812
 20
-1802.096200542891
 30
0.0
 11
-450.24999999999812
 21
-1791.945769479287
 31
0.0
  0
LINE
  5
3D9
  8
DATA
  6
CONTINUOUS
 62
     7
 10
-450.24999999999812
 20
-1551.4951735331031
 30
0.0
 11
-450.24999999999812
 21
-1416.884
 31
0.0
  0
LINE
  5
3DA
  8
DATA
  6
CONTINUOUS
 62
     7
 10
-399.24999999999812
 20
-1416.884
 30
0.0
 11
-450.24999999999812
 21
-1416.884
 31
0.0
  0
CIRCLE
  5
3DB
  8
DATA
  6
CONTINUOUS
 62
     7
 10
-425.24999999999812
 20
-1798.4239999999991
 30
0.0
 40
8.75
  0
CIRCLE
  5
3DC
  8
DATA
  6
CONTINUOUS
 62
     7
 10
-425.24999999999812
 20
-1798.4239999999991
 30
0.0
 40
6.2786841774377526
  0
LINE
  5
3DD
  8
DATA
  6
CONTINUOUS
 62
     7
 10
-431.52868417743588
 20
-1802.049
 30
0.0
 11
-425.24999999999812
 21
-1805.674
 31
0.0
  0
LINE
  5
3DE
  8
DATA
  6
CONTINUOUS
 62
     7
 10
-431.52868417743588
 20
-1794.7989999999991
 30
0.0
 11
-431.52868417743588
 21
-1802.049
 31
0.0
  0
LINE
  5
3DF
  8
DATA
  6
CONTINUOUS
 62
     7
 10
-425.24999999999909
 20
-1791.1739999999991
 30
0.0
 11
-431.52868417743588
 21
-1794.7989999999991
 31
0.0
  0
LINE
  5
3E0
  8
DATA
  6
CONTINUOUS
 62
     7
 10
-418.97131582256128
 20
-1794.799
 30
0.0
 11
-425.24999999999909
 21
-1791.1739999999991
 31
0.0
  0
LINE
  5
3E1
  8
DATA
  6
CONTINUOUS
 62
     7
 10
-418.97131582256128
 20
-1802.049
 30
0.0
 11
-418.97131582256128
 21
-1794.799
 31
0.0
  0
LINE
  5
3E2
  8
DATA
  6
CONTINUOUS
 62
     7
 10
-425.24999999999812
 20
-1805.674
 30
0.0
 11
-418.97131582256128
 21
-1802.049
 31
0.0
  0
LINE
  5
3E3
  8
DATA
  6
CONTINUOUS
 62
     7
 10
-458.3499999999994
 20
-1445.3839999999991
 30
0.0
 11
-458.34999999999849
 21
-1553.9040020729681
 31
0.0
  0
LINE
  5
3E4
  8
DATA
  6
CONTINUOUS
 62
     7
 10
-454.3499999999994
 20
-1435.8839999999991
 30
0.0
 11
-454.3499999999994
 21
-1552.623118252749
 31
0.0
  0
LINE
  5
3E5
  8
DATA
  6
CONTINUOUS
 62
     7
 10
-481.84999999999849
 20
-1533.884
 30
0.0
 11
-481.84999999999849
 21
-1535.8839999999991
 31
0.0
  0
LINE
  5
3E6
  8
DATA
  6
CONTINUOUS
 62
     7
 10
-311.74999999999898
 20
-1651.883999999998
 30
0.0
 11
-323.24999999999812
 21
-1651.883999999998
 31
0.0
  0
LINE
  5
3E7
  8
DATA
  6
CONTINUOUS
 62
     7
 10
-307.74999999999812
 20
-1655.8839999999991
 30
0.0
 11
-323.24999999999812
 21
-1655.8839999999991
 31
0.0
  0
LINE
  5
3E8
  8
DATA
  6
CONTINUOUS
 62
     7
 10
-380.17506239605052
 20
-1558.883999999998
 30
0.0
 11
-311.74999999999898
 21
-1558.883999999998
 31
0.0
  0
LINE
  5
3E9
  8
DATA
  6
CONTINUOUS
 62
     7
 10
-389.42054284530792
 20
-1554.8839999999991
 30
0.0
 11
-307.74999999999812
 21
-1554.8839999999991
 31
0.0
  0
LINE
  5
3EA
  8
DATA
  6
CONTINUOUS
 62
     7
 10
-311.74999999999898
 20
-1558.883999999998
 30
0.0
 11
-311.74999999999898
 21
-1651.883999999998
 31
0.0
  0
LINE
  5
3EB
  8
DATA
  6
CONTINUOUS
 62
     7
 10
-307.74999999999812
 20
-1554.8839999999991
 30
0.0
 11
-307.74999999999812
 21
-1655.8839999999991
 31
0.0
  0
CIRCLE
  5
3EC
  8
DATA
  6
CONTINUOUS
 62
     7
 10
-299.84999999999837
 20
-1693.199767489871
 30
0.0
 40
3.25
  0
LINE
  5
3ED
  8
DATA
  6
CONTINUOUS
 62
     7
 10
-458.35000000000031
 20
-1445.383999999998
 30
0.0
 11
-454.3499999999994
 21
-1445.383999999998
 31
0.0
  0
CIRCLE
  5
3EE
  8
DATA
  6
CONTINUOUS
 62
     7
 10
-488.64646348067072
 20
-1449.082335058627
 30
0.0
 40
8.5
  0
CIRCLE
  5
3EF
  8
DATA
  6
CONTINUOUS
 62
     7
 10
-488.64646348067072
 20
-1449.082335058627
 30
0.0
 40
5.0
  0
CIRCLE
  5
3F0
  8
DATA
  6
CONTINUOUS
 62
     7
 10
-488.64646348067072
 20
-1449.082335058627
 30
0.0
 40
3.25
  0
LINE
  5
3F1
  8
DATA
  6
CONTINUOUS
 62
     7
 10
-450.24999999999812
 20
-1445.1339999999991
 30
0.0
 11
-454.3499999999994
 21
-1445.1339999999991
 31
0.0
  0
ARC
  5
3F2
  8
DATA
  6
CONTINUOUS
 62
     7
 10
-388.34999999999849
 20
-1452.880886926853
 30
0.0
 40
15.000000000000099
 50
223.39232799573441
 51
249.99999999999969
  0
ARC
  5
3F3
  8
DATA
  6
CONTINUOUS
 62
     7
 10
-446.8499999999994
 20
-1435.8839999999991
 30
0.0
 40
7.4999999999998002
 50
116.95774913927291
 51
180.0
  0
LINE
  5
3F4
  8
DATA
  6
CONTINUOUS
 62
     7
 10
-299.84999999999837
 20
-1521.0682325101279
 30
0.0
 11
-299.84999999999837
 21
-1514.068232510127
 31
0.0
  0
ARC
  5
3F5
  8
DATA
  6
CONTINUOUS
 62
     7
 10
-118.28313832577621
 20
-2766.183017125682
 30
0.0
 40
1083.5464401896779
 50
112.174805858922
 51
135.02871001559089
  0
ARC
  5
3F6
  8
DATA
  6
CONTINUOUS
 62
     7
 10
-140.74825991157829
 20
-2742.3651043214022
 30
0.0
 40
1021.319400845955
 50
112.2366997851949
 51
133.7119322747763
  0
CIRCLE
  5
3F7
  8
DATA
  6
CONTINUOUS
 62
     7
 10
-826.81511732692081
 20
-1963.182152289525
 30
0.0
 40
8.0
  0
ARC
  5
3F8
  8
DATA
  6
CONTINUOUS
 62
     7
 10
-118.28313832577621
 20
-444.58498287431598
 30
0.0
 40
1083.5464401896791
 50
224.971289984409
 51
251.7088299672032
  0
ARC
  5
3F9
  8
DATA
  6
CONTINUOUS
 62
     7
 10
-140.74825991157829
 20
-468.40289567859708
 30
0.0
 40
1021.319400845955
 50
226.28806772522361
 51
252.1181294180808
  0
CIRCLE
  5
3FA
  8
DATA
  6
CONTINUOUS
 62
     7
 10
-826.81511732692081
 20
-1247.585847710473
 30
0.0
 40
8.5
  0
CIRCLE
  5
3FB
  8
DATA
  6
CONTINUOUS
 62
     7
 10
-826.81511732692081
 20
-1247.585847710473
 30
0.0
 40
5.0
  0
CIRCLE
  5
3FC
  8
DATA
  6
CONTINUOUS
 62
     7
 10
-826.81511732692081
 20
-1247.585847710473
 30
0.0
 40
3.25
  0
ARC
  5
3FD
  8
DATA
  6
CONTINUOUS
 62
     7
 10
45.806250000010529
 20
-1605.3839999999991
 30
0.0
 40
1015.156250000009
 50
157.10132402299999
 51
202.89867597699981
  0
ARC
  5
3FE
  8
DATA
  6
CONTINUOUS
 62
     7
 10
50.306250000011453
 20
-1605.3839999999991
 30
0.0
 40
1015.156250000009
 50
157.10132402299999
 51
202.89867597699981
  0
LINE
  5
3FF
  8
DATA
  6
CONTINUOUS
 62
     7
 10
-889.34999999999945
 20
-2000.384
 30
0.0
 11
-846.51362798205435
 21
-2004.131696938151
 31
0.0
  0
LINE
  5
400
  8
DATA
  6
CONTINUOUS
 62
     7
 10
-889.34999999999945
 20
-1210.3839999999991
 30
0.0
 11
-846.51362798205435
 21
-1206.6363030618479
 31
0.0
  0
LINE
  5
401
  8
DATA
  6
CONTINUOUS
 62
     7
 10
-323.24999999999812
 20
-1718.229984235275
 30
0.0
 11
-207.2593696152216
 21
-1676.012847321444
 31
0.0
  0
ARC
  5
402
  8
DATA
  6
CONTINUOUS
 62
     7
 10
-61.788356164364828
 20
-1605.3839999999959
 30
0.0
 40
608.06164383563237
 50
186.75284814963089
 51
199.95294527927729
  0
LINE
  5
403
  8
DATA
  6
CONTINUOUS
 62
     7
 10
-323.24999999999812
 20
-1691.6255399233789
 30
0.0
 11
-266.24999999999898
 21
-1670.8792365702061
 31
0.0
  0
LINE
  5
404
  8
DATA
  6
CONTINUOUS
 62
     7
 10
-830.31511732692081
 20
-1963.182152289525
 30
0.0
 11
-823.31511732692081
 21
-1963.182152289525
 31
0.0
  0
LINE
  5
405
  8
DATA
  6
CONTINUOUS
 62
     7
 10
-826.81511732692081
 20
-1966.6821522895259
 30
0.0
 11
-826.81511732692081
 21
-1959.6821522895259
 31
0.0
  0
CIRCLE
  5
406
  8
DATA
  6
CONTINUOUS
 62
     7
 10
-608.09332708189129
 20
-1813.1977201149159
 30
0.0
 40
8.0
  0
LINE
  5
407
  8
DATA
  6
CONTINUOUS
 62
     7
 10
-611.59332708189243
 20
-1813.1977201149159
 30
0.0
 11
-604.59332708189129
 21
-1813.1977201149159
 31
0.0
  0
LINE
  5
408
  8
DATA
  6
CONTINUOUS
 62
     7
 10
-608.09332708189129
 20
-1816.6977201149159
 30
0.0
 11
-608.09332708189129
 21
-1809.6977201149159
 31
0.0
  0
CIRCLE
  5
409
  8
DATA
  6
CONTINUOUS
 62
     7
 10
-735.51100265258174
 20
-1890.242844185793
 30
0.0
 40
8.0
  0
LINE
  5
40A
  8
DATA
  6
CONTINUOUS
 62
     7
 10
-739.01100265258253
 20
-1890.242844185793
 30
0.0
 11
-732.01100265258174
 21
-1890.242844185793
 31
0.0
  0
LINE
  5
40B
  8
DATA
  6
CONTINUOUS
 62
     7
 10
-735.51100265258174
 20
-1893.742844185793
 30
0.0
 11
-735.51100265258174
 21
-1886.742844185793
 31
0.0
  0
LINE
  5
40C
  8
DATA
  6
CONTINUOUS
 62
     7
 10
-393.4803021498837
 20
-1466.976276238641
 30
0.0
 11
-207.25936961529439
 21
-1534.755152678526
 31
0.0
  0
LINE
  5
40D
  8
DATA
  6
CONTINUOUS
 62
     7
 10
-262.74999999999812
 20
-1669.6053407502729
 30
0.0
 11
-231.25
 21
-1658.14027837089
 31
0.0
  0
LINE
  5
40E
  8
DATA
  6
CONTINUOUS
 62
     7
 10
-262.74999999999812
 20
-1541.1626592497221
 30
0.0
 11
-231.2499999999981
 21
-1552.6277216291089
 31
0.0
  0
ARC
  5
40F
  8
DATA
  6
CONTINUOUS
 62
     7
 10
-61.788356164364828
 20
-1605.3839999999959
 30
0.0
 40
608.06164383563305
 50
160.047054720723
 51
173.24715185036951
  0
LINE
  5
410
  8
DATA
  6
CONTINUOUS
 62
     7
 10
-399.24999999999812
 20
-1491.4807222723859
 30
0.0
 11
-266.24999999999812
 21
-1539.8887634297901
 31
0.0
  0
CIRCLE
  5
411
  8
DATA
  6
CONTINUOUS
 62
     7
 10
-299.84999999999837
 20
-1517.568232510127
 30
0.0
 40
8.0
  0
LINE
  5
412
  8
DATA
  6
CONTINUOUS
 62
     7
 10
-678.34999999999945
 20
-1535.8839999999991
 30
0.0
 11
-458.35000000000031
 21
-1535.8839999999991
 31
0.0
  0
LINE
  5
413
  8
DATA
  6
CONTINUOUS
 62
     7
 10
-678.34999999999945
 20
-1533.884
 30
0.0
 11
-458.3499999999994
 21
-1533.884
 31
0.0
  0
LINE
  5
414
  8
DATA
  6
CONTINUOUS
 62
     7
 10
-678.34999999999945
 20
-1674.884
 30
0.0
 11
-527.24999999999818
 21
-1674.8839999999991
 31
0.0
  0
LINE
  5
415
  8
DATA
  6
CONTINUOUS
 62
     7
 10
-678.34999999999764
 20
-1676.884
 30
0.0
 11
-527.24999999999818
 21
-1676.884
 31
0.0
  0
LINE
  5
416
  8
DATA
  6
CONTINUOUS
 62
     7
 10
-678.34999999999945
 20
-1676.884
 30
0.0
 11
-678.34999999999945
 21
-1674.884
 31
0.0
  0
LINE
  5
417
  8
DATA
  6
CONTINUOUS
 62
     7
 10
-678.34999999999945
 20
-1535.8839999999991
 30
0.0
 11
-678.34999999999945
 21
-1533.884
 31
0.0
  0
ARC
  5
418
  8
DATA
  6
CONTINUOUS
 62
     7
 10
-61.788356164364828
 20
-1605.3839999999959
 30
0.0
 40
608.06164383563282
 50
173.43688536180159
 51
186.56311463819881
  0
LINE
  5
419
  8
DATA
  6
CONTINUOUS
 62
     7
 10
-266.24999999999812
 20
-1671.879236570205
 30
0.0
 11
-266.24999999999812
 21
-1538.888763429791
 31
0.0
  0
LINE
  5
41A
  8
DATA
  6
CONTINUOUS
 62
     7
 10
-262.74999999999909
 20
-1671.879236570205
 30
0.0
 11
-262.74999999999909
 21
-1538.8887634297921
 31
0.0
  0
LINE
  5
41B
  8
DATA
  6
CONTINUOUS
 62
     7
 10
-266.24999999999812
 20
-1671.879236570205
 30
0.0
 11
-262.74999999999812
 21
-1671.879236570205
 31
0.0
  0
CIRCLE
  5
41C
  8
DATA
  6
CONTINUOUS
 62
     7
 10
-299.84999999999837
 20
-1693.199767489871
 30
0.0
 40
8.5
  0
CIRCLE
  5
41D
  8
DATA
  6
CONTINUOUS
 62
     7
 10
-299.84999999999837
 20
-1693.199767489871
 30
0.0
 40
5.0
  0
LINE
  5
41E
  8
DATA
  6
CONTINUOUS
 62
     7
 10
-266.24999999999898
 20
-1538.8887634297921
 30
0.0
 11
-262.74999999999909
 21
-1538.8887634297921
 31
0.0
  0
CIRCLE
  5
41F
  8
DATA
  6
CONTINUOUS
 62
     7
 10
-608.09332708189129
 20
-1397.570279885083
 30
0.0
 40
8.5
  0
CIRCLE
  5
420
  8
DATA
  6
CONTINUOUS
 62
     7
 10
-608.09332708189129
 20
-1397.570279885083
 30
0.0
 40
5.0
  0
CIRCLE
  5
421
  8
DATA
  6
CONTINUOUS
 62
     7
 10
-608.09332708189129
 20
-1397.570279885083
 30
0.0
 40
3.25
  0
CIRCLE
  5
422
  8
DATA
  6
CONTINUOUS
 62
     7
 10
-735.51100265258174
 20
-1320.5251558142049
 30
0.0
 40
8.5
  0
CIRCLE
  5
423
  8
DATA
  6
CONTINUOUS
 62
     7
 10
-735.51100265258174
 20
-1320.5251558142049
 30
0.0
 40
5.0
  0
CIRCLE
  5
424
  8
DATA
  6
CONTINUOUS
 62
     7
 10
-735.51100265258174
 20
-1320.5251558142049
 30
0.0
 40
3.25
  0
LINE
  5
425
  8
DATA
  6
CONTINUOUS
 62
     7
 10
-303.34999999999837
 20
-1517.568232510127
 30
0.0
 11
-296.34999999999849
 21
-1517.568232510127
 31
0.0
  0
ARC
  5
426
  8
DATA
  6
CONTINUOUS
 62
     7
 10
-170.84999999999849
 20
-1524.3839999999991
 30
0.0
 40
16.5
 50
0.0
 51
173.21005348490431
  0
CIRCLE
  5
427
  8
DATA
  6
CONTINUOUS
 62
     7
 10
-170.84999999999849
 20
-1523.3839999999991
 30
0.0
 40
5.0
  0
LINE
  5
428
  8
DATA
  6
CONTINUOUS
 62
     7
 10
-189.3499999999994
 20
-1561.2869433965409
 30
0.0
 11
-189.3499999999994
 21
-1554.2869433965409
 31
0.0
  0
LINE
  5
429
  8
DATA
  6
CONTINUOUS
 62
     7
 10
-154.34999999999849
 20
-1686.384
 30
0.0
 11
-154.34999999999849
 21
-1524.3839999999991
 31
0.0
  0
LINE
  5
42A
  8
DATA
  6
CONTINUOUS
 62
     7
 10
-159.14999999999961
 20
-1665.3839999999991
 30
0.0
 11
-159.14999999999779
 21
-1545.384
 31
0.0
  0
LINE
  5
42B
  8
DATA
  6
CONTINUOUS
 62
     7
 10
-227.74999999999901
 20
-1551.6277216291101
 30
0.0
 11
-227.74999999999901
 21
-1659.1402783708891
 31
0.0
  0
LINE
  5
42C
  8
DATA
  6
CONTINUOUS
 62
     7
 10
-192.74999999999901
 20
-1646.4013201715709
 30
0.0
 11
-192.74999999999901
 21
-1564.3666798284271
 31
0.0
  0
LINE
  5
42D
  8
DATA
  6
CONTINUOUS
 62
     7
 10
-231.25
 20
-1659.140278370887
 30
0.0
 11
-231.2499999999981
 21
-1551.6277216291101
 31
0.0
  0
LINE
  5
42E
  8
DATA
  6
CONTINUOUS
 62
     7
 10
-196.2499999999981
 20
-1646.4013201715709
 30
0.0
 11
-196.2499999999981
 21
-1564.3666798284271
 31
0.0
  0
LINE
  5
42F
  8
DATA
  6
CONTINUOUS
 62
     7
 10
-192.75
 20
-1566.640575648358
 30
0.0
 11
-159.14999999999779
 21
-1578.8699755197031
 31
0.0
  0
ARC
  5
430
  8
DATA
  6
CONTINUOUS
 62
     7
 10
-170.84999999999849
 20
-1686.384
 30
0.0
 40
16.50000000000005
 50
186.7899465150638
 51
0.0
  0
ARC
  5
431
  8
DATA
  6
CONTINUOUS
 62
     7
 10
-202.12906746533639
 20
-1690.1082366332321
 30
0.0
 40
14.9999999999996
 50
6.7899465150629803
 51
110.0000000000002
  0
LINE
  5
432
  8
DATA
  6
CONTINUOUS
 62
     7
 10
-159.14999999999961
 20
-1665.3839999999991
 30
0.0
 11
-154.34999999999849
 21
-1665.3839999999991
 31
0.0
  0
LINE
  5
433
  8
DATA
  6
CONTINUOUS
 62
     7
 10
-231.2499999999981
 20
-1659.140278370887
 30
0.0
 11
-227.74999999999901
 21
-1659.140278370887
 31
0.0
  0
LINE
  5
434
  8
DATA
  6
CONTINUOUS
 62
     7
 10
-196.2499999999981
 20
-1646.4013201715709
 30
0.0
 11
-192.74999999999901
 21
-1646.4013201715709
 31
0.0
  0
LINE
  5
435
  8
DATA
  6
CONTINUOUS
 62
     7
 10
-227.74999999999901
 20
-1656.866382550957
 30
0.0
 11
-196.2499999999981
 21
-1645.40132017157
 31
0.0
  0
LINE
  5
436
  8
DATA
  6
CONTINUOUS
 62
     7
 10
-192.74999999999901
 20
-1644.12742435164
 30
0.0
 11
-159.14999999999779
 21
-1631.898024480294
 31
0.0
  0
CIRCLE
  5
437
  8
DATA
  6
CONTINUOUS
 62
     7
 10
-170.84999999999849
 20
-1687.384
 30
0.0
 40
5.0
  0
CIRCLE
  5
438
  8
DATA
  6
CONTINUOUS
 62
     7
 10
-189.3499999999994
 20
-1652.981056603455
 30
0.0
 40
5.0
  0
CIRCLE
  5
439
  8
DATA
  6
CONTINUOUS
 62
     7
 10
-189.3499999999994
 20
-1652.981056603455
 30
0.0
 40
3.25
  0
ARC
  5
43A
  8
DATA
  6
CONTINUOUS
 62
     7
 10
-189.3499999999994
 20
-1652.981056603455
 30
0.0
 40
8.4999999999996341
 50
129.27770264575179
 51
113.57817847819381
  0
ARC
  5
43B
  8
DATA
  6
CONTINUOUS
 62
     7
 10
-202.12906746540921
 20
-1520.6597633667379
 30
0.0
 40
14.999999999999931
 50
249.9999999999992
 51
353.21005348490428
  0
LINE
  5
43C
  8
DATA
  6
CONTINUOUS
 62
     7
 10
-159.14999999999779
 20
-1545.384
 30
0.0
 11
-154.34999999999849
 21
-1545.384
 31
0.0
  0
LINE
  5
43D
  8
DATA
  6
CONTINUOUS
 62
     7
 10
-231.2499999999981
 20
-1551.6277216291101
 30
0.0
 11
-227.74999999999901
 21
-1551.6277216291101
 31
0.0
  0
LINE
  5
43E
  8
DATA
  6
CONTINUOUS
 62
     7
 10
-196.2499999999981
 20
-1564.3666798284271
 30
0.0
 11
-192.7499999999981
 21
-1564.3666798284271
 31
0.0
  0
LINE
  5
43F
  8
DATA
  6
CONTINUOUS
 62
     7
 10
-227.74999999999901
 20
-1553.90161744904
 30
0.0
 11
-196.2499999999981
 21
-1565.3666798284271
 31
0.0
  0
CIRCLE
  5
440
  8
DATA
  6
CONTINUOUS
 62
     7
 10
-189.3499999999994
 20
-1557.7869433965409
 30
0.0
 40
8.0
  0
LINE
  5
441
  8
DATA
  6
CONTINUOUS
 62
     7
 10
-192.85000000000039
 20
-1557.7869433965409
 30
0.0
 11
-185.85000000000039
 21
-1557.7869433965409
 31
0.0
  0
LINE
  5
442
  8
DATA
  6
CONTINUOUS
 62
     7
 10
177.11200000000099
 20
-2000.383999999998
 30
0.0
 11
491.11200000000008
 21
-2000.383999999998
 31
0.0
  0
LINE
  5
443
  8
DATA
  6
CONTINUOUS
 62
     7
 10
494.11200000000002
 20
-2000.383999999998
 30
0.0
 11
655.11200000000008
 21
-2000.383999999998
 31
0.0
  0
LINE
  5
444
  8
DATA
  6
CONTINUOUS
 62
     7
 10
658.11200000000019
 20
-2000.383999999998
 30
0.0
 11
972.11200000000019
 21
-2000.383999999998
 31
0.0
  0
LINE
  5
445
  8
DATA
  6
CONTINUOUS
 62
     7
 10
177.11200000000099
 20
-1210.3839999999959
 30
0.0
 11
972.11200000000019
 21
-1210.3839999999959
 31
0.0
  0
ARC
  5
446
  8
DATA
  6
CONTINUOUS
 62
     7
 10
1147.658919566459
 20
-2050.0239030233811
 30
0.0
 40
857.79478182044954
 50
101.8089577549847
 51
130.4739843494668
  0
ARC
  5
447
  8
DATA
  6
CONTINUOUS
 62
     7
 10
1147.658919566459
 20
-1160.7440969766139
 30
0.0
 40
857.7947818204492
 50
230.57822990003689
 51
234.95627876294949
  0
ARC
  5
448
  8
DATA
  6
CONTINUOUS
 62
     7
 10
1147.658919566459
 20
-1160.7440969766139
 30
0.0
 40
857.79478182044954
 50
235.2006670627857
 51
258.19104224501518
  0
ARC
  5
449
  8
DATA
  6
CONTINUOUS
 62
     7
 10
1.5650804335418651
 20
-1160.7440969766139
 30
0.0
 40
857.7947818204492
 50
281.80895775498448
 51
304.79933293721558
  0
ARC
  5
44A
  8
DATA
  6
CONTINUOUS
 62
     7
 10
1.5650804335418651
 20
-1160.7440969766139
 30
0.0
 40
857.79478182044829
 50
305.0437212370523
 51
309.42177009996311
  0
LINE
  5
44B
  8
DATA
  6
CONTINUOUS
 62
     7
 10
177.11200000000099
 20
-2000.383999999998
 30
0.0
 11
177.11200000000099
 21
-1210.3839999999959
 31
0.0
  0
LINE
  5
44C
  8
DATA
  6
CONTINUOUS
 62
     7
 10
574.61200000000019
 20
-2000.383999999998
 30
0.0
 11
574.61200000000019
 21
-1823.384
 31
0.0
  0
LINE
  5
44D
  8
DATA
  6
CONTINUOUS
 62
     7
 10
574.61200000000019
 20
-1797.884
 30
0.0
 11
574.61200000000019
 21
-1782.3840000000009
 31
0.0
  0
LINE
  5
44E
  8
DATA
  6
CONTINUOUS
 62
     7
 10
578.36200000000053
 20
-2000.383999999998
 30
0.0
 11
578.36200000000088
 21
-1823.384
 31
0.0
  0
LINE
  5
44F
  8
DATA
  6
CONTINUOUS
 62
     7
 10
578.36200000000088
 20
-1797.612146066127
 30
0.0
 11
578.36200000000088
 21
-1782.384
 31
0.0
  0
LINE
  5
450
  8
DATA
  6
CONTINUOUS
 62
     7
 10
570.86200000000088
 20
-2000.383999999998
 30
0.0
 11
570.86200000000088
 21
-1823.384
 31
0.0
  0
LINE
  5
451
  8
DATA
  6
CONTINUOUS
 62
     7
 10
570.86200000000088
 20
-1797.6121460661279
 30
0.0
 11
570.86200000000088
 21
-1782.384
 31
0.0
  0
LINE
  5
452
  8
DATA
  6
CONTINUOUS
 62
     7
 10
578.36200000000008
 20
-1954.6821522895209
 30
0.0
 11
587.86199999999963
 21
-1954.682152289522
 31
0.0
  0
LINE
  5
453
  8
DATA
  6
CONTINUOUS
 62
     7
 10
578.36200000000008
 20
-1971.68215228952
 30
0.0
 11
587.86199999999963
 21
-1971.68215228952
 31
0.0
  0
LINE
  5
454
  8
DATA
  6
CONTINUOUS
 62
     7
 10
587.86199999999963
 20
-1971.68215228952
 30
0.0
 11
587.86199999999963
 21
-1954.682152289522
 31
0.0
  0
LINE
  5
455
  8
DATA
  6
CONTINUOUS
 62
     7
 10
570.86199999999963
 20
-1971.1821522895209
 30
0.0
 11
569.66199999999981
 21
-1971.1821522895209
 31
0.0
  0
ARC
  5
456
  8
DATA
  6
CONTINUOUS
 62
     7
 10
574.91199999998526
 20
-1963.1821522895771
 30
0.0
 40
8.7499999999467022
 50
126.8698976455474
 51
233.1301023540166
  0
LINE
  5
457
  8
DATA
  6
CONTINUOUS
 62
     7
 10
569.66199999999981
 20
-1955.18215228952
 30
0.0
 11
570.86199999999963
 21
-1955.18215228952
 31
0.0
  0
LINE
  5
458
  8
DATA
  6
CONTINUOUS
 62
     7
 10
569.66199999999981
 20
-1971.1821522895209
 30
0.0
 11
569.66199999999981
 21
-1955.18215228952
 31
0.0
  0
LINE
  5
459
  8
DATA
  6
CONTINUOUS
 62
     7
 10
578.36200000000008
 20
-1881.742844185788
 30
0.0
 11
587.86199999999963
 21
-1881.7428441857901
 31
0.0
  0
LINE
  5
45A
  8
DATA
  6
CONTINUOUS
 62
     7
 10
578.36200000000008
 20
-1898.742844185788
 30
0.0
 11
587.86199999999963
 21
-1898.742844185788
 31
0.0
  0
LINE
  5
45B
  8
DATA
  6
CONTINUOUS
 62
     7
 10
587.86199999999963
 20
-1898.742844185788
 30
0.0
 11
587.86199999999963
 21
-1881.7428441857901
 31
0.0
  0
LINE
  5
45C
  8
DATA
  6
CONTINUOUS
 62
     7
 10
570.86199999999963
 20
-1898.242844185788
 30
0.0
 11
569.66199999999981
 21
-1898.242844185788
 31
0.0
  0
ARC
  5
45D
  8
DATA
  6
CONTINUOUS
 62
     7
 10
574.91199999998526
 20
-1890.242844185844
 30
0.0
 40
8.7499999999467022
 50
126.8698976455474
 51
233.1301023540166
  0
LINE
  5
45E
  8
DATA
  6
CONTINUOUS
 62
     7
 10
569.66199999999981
 20
-1882.242844185789
 30
0.0
 11
570.86199999999963
 21
-1882.242844185789
 31
0.0
  0
LINE
  5
45F
  8
DATA
  6
CONTINUOUS
 62
     7
 10
569.66199999999981
 20
-1898.242844185788
 30
0.0
 11
569.66199999999981
 21
-1882.242844185789
 31
0.0
  0
ARC
  5
460
  8
DATA
  6
CONTINUOUS
 62
     7
 10
1.5650804335418651
 20
-2050.0239030233811
 30
0.0
 40
857.79478182044875
 50
49.526015650533139
 51
78.191042245015325
  0
LINE
  5
461
  8
DATA
  6
CONTINUOUS
 62
     7
 10
578.36200000000008
 20
-1406.0702798850809
 30
0.0
 11
587.86199999999963
 21
-1406.070279885078
 31
0.0
  0
LINE
  5
462
  8
DATA
  6
CONTINUOUS
 62
     7
 10
578.36200000000008
 20
-1389.0702798850789
 30
0.0
 11
587.86199999999963
 21
-1389.0702798850789
 31
0.0
  0
LINE
  5
463
  8
DATA
  6
CONTINUOUS
 62
     7
 10
587.86199999999963
 20
-1389.0702798850789
 30
0.0
 11
587.86199999999963
 21
-1406.070279885078
 31
0.0
  0
LINE
  5
464
  8
DATA
  6
CONTINUOUS
 62
     7
 10
570.86199999999963
 20
-1389.5702798850809
 30
0.0
 11
569.66199999999981
 21
-1389.5702798850809
 31
0.0
  0
ARC
  5
465
  8
DATA
  6
CONTINUOUS
 62
     7
 10
574.91199999998526
 20
-1397.5702798850241
 30
0.0
 40
8.7499999999466134
 50
126.8698976459834
 51
233.1301023544525
  0
LINE
  5
466
  8
DATA
  6
CONTINUOUS
 62
     7
 10
569.66199999999981
 20
-1405.5702798850809
 30
0.0
 11
570.86199999999963
 21
-1405.5702798850809
 31
0.0
  0
LINE
  5
467
  8
DATA
  6
CONTINUOUS
 62
     7
 10
569.66199999999981
 20
-1389.5702798850809
 30
0.0
 11
569.66199999999981
 21
-1405.5702798850809
 31
0.0
  0
LINE
  5
468
  8
DATA
  6
CONTINUOUS
 62
     7
 10
578.36199999999963
 20
-1329.0251558142029
 30
0.0
 11
587.86199999999963
 21
-1329.0251558142011
 31
0.0
  0
LINE
  5
469
  8
DATA
  6
CONTINUOUS
 62
     7
 10
578.36199999999963
 20
-1312.0251558142029
 30
0.0
 11
587.86199999999963
 21
-1312.0251558142029
 31
0.0
  0
LINE
  5
46A
  8
DATA
  6
CONTINUOUS
 62
     7
 10
587.86199999999963
 20
-1312.0251558142029
 30
0.0
 11
587.86199999999963
 21
-1329.0251558142011
 31
0.0
  0
LINE
  5
46B
  8
DATA
  6
CONTINUOUS
 62
     7
 10
570.86199999999917
 20
-1312.525155814204
 30
0.0
 11
569.66199999999981
 21
-1312.525155814204
 31
0.0
  0
ARC
  5
46C
  8
DATA
  6
CONTINUOUS
 62
     7
 10
574.91199999998457
 20
-1320.525155814147
 30
0.0
 40
8.7499999999466134
 50
126.8698976459834
 51
233.1301023544525
  0
LINE
  5
46D
  8
DATA
  6
CONTINUOUS
 62
     7
 10
569.66199999999981
 20
-1328.525155814204
 30
0.0
 11
570.86199999999917
 21
-1328.525155814204
 31
0.0
  0
LINE
  5
46E
  8
DATA
  6
CONTINUOUS
 62
     7
 10
569.66199999999981
 20
-1312.525155814204
 30
0.0
 11
569.66199999999981
 21
-1328.525155814204
 31
0.0
  0
LINE
  5
46F
  8
DATA
  6
CONTINUOUS
 62
     7
 10
578.36200000000053
 20
-1256.0858477104709
 30
0.0
 11
587.86200000000019
 21
-1256.085847710468
 31
0.0
  0
LINE
  5
470
  8
DATA
  6
CONTINUOUS
 62
     7
 10
578.36200000000053
 20
-1239.0858477104709
 30
0.0
 11
587.86200000000019
 21
-1239.0858477104709
 31
0.0
  0
LINE
  5
471
  8
DATA
  6
CONTINUOUS
 62
     7
 10
587.86200000000019
 20
-1239.0858477104709
 30
0.0
 11
587.86200000000019
 21
-1256.085847710468
 31
0.0
  0
LINE
  5
472
  8
DATA
  6
CONTINUOUS
 62
     7
 10
570.86200000000053
 20
-1239.5858477104709
 30
0.0
 11
569.66200000000015
 21
-1239.5858477104709
 31
0.0
  0
ARC
  5
473
  8
DATA
  6
CONTINUOUS
 62
     7
 10
574.91199999998526
 20
-1247.585847710415
 30
0.0
 40
8.7499999999466134
 50
126.8698976459834
 51
233.1301023544525
  0
LINE
  5
474
  8
DATA
  6
CONTINUOUS
 62
     7
 10
569.66200000000015
 20
-1255.5858477104709
 30
0.0
 11
570.86200000000053
 21
-1255.5858477104709
 31
0.0
  0
LINE
  5
475
  8
DATA
  6
CONTINUOUS
 62
     7
 10
569.66200000000015
 20
-1239.5858477104709
 30
0.0
 11
569.66200000000015
 21
-1255.5858477104709
 31
0.0
  0
LINE
  5
476
  8
DATA
  6
CONTINUOUS
 62
     7
 10
574.61200000000019
 20
-1428.3839999999991
 30
0.0
 11
574.61200000000019
 21
-1210.3839999999959
 31
0.0
  0
LINE
  5
477
  8
DATA
  6
CONTINUOUS
 62
     7
 10
578.36200000000008
 20
-1428.383999999998
 30
0.0
 11
578.36200000000053
 21
-1210.3839999999959
 31
0.0
  0
LINE
  5
478
  8
DATA
  6
CONTINUOUS
 62
     7
 10
570.86200000000053
 20
-1428.3839999999971
 30
0.0
 11
570.86200000000053
 21
-1210.3839999999959
 31
0.0
  0
LINE
  5
479
  8
DATA
  6
CONTINUOUS
 62
     7
 10
590.86200000000053
 20
-1397.4987478916471
 30
0.0
 11
590.86200000000144
 21
-1445.133999999998
 31
0.0
  0
LINE
  5
47A
  8
DATA
  6
CONTINUOUS
 62
     7
 10
558.36200000000053
 20
-1397.4987478916471
 30
0.0
 11
558.36200000000144
 21
-1445.1339999999971
 31
0.0
  0
LINE
  5
47B
  8
DATA
  6
CONTINUOUS
 62
     7
 10
590.86200000000088
 20
-1792.180243494794
 30
0.0
 11
590.86200000000144
 21
-1765.6339999999991
 31
0.0
  0
LINE
  5
47C
  8
DATA
  6
CONTINUOUS
 62
     7
 10
558.36200000000076
 20
-1792.180243494794
 30
0.0
 11
558.36200000000144
 21
-1765.6339999999991
 31
0.0
  0
LINE
  5
47D
  8
DATA
  6
CONTINUOUS
 62
     7
 10
574.61200000000019
 20
-1428.383999999998
 30
0.0
 11
574.61200000000031
 21
-1489.1339999999991
 31
0.0
  0
LINE
  5
47E
  8
DATA
  6
CONTINUOUS
 62
     7
 10
574.61200000000065
 20
-1721.6339999999991
 30
0.0
 11
574.61200000000099
 21
-1782.384
 31
0.0
  0
LINE
  5
47F
  8
DATA
  6
CONTINUOUS
 62
     7
 10
583.51200000000165
 20
-1765.6339999999991
 30
0.0
 11
600.61200000000008
 21
-1765.6339999999991
 31
0.0
  0
LINE
  5
480
  8
DATA
  6
CONTINUOUS
 62
     7
 10
565.71200000000135
 20
-1782.384
 30
0.0
 11
583.51200000000085
 21
-1782.384
 31
0.0
  0
LINE
  5
481
  8
DATA
  6
CONTINUOUS
 62
     7
 10
548.61199999999997
 20
-1765.6339999999991
 30
0.0
 11
565.71200000000135
 21
-1765.6339999999991
 31
0.0
  0
LINE
  5
482
  8
DATA
  6
CONTINUOUS
 62
     7
 10
583.51200000000085
 20
-1782.384
 30
0.0
 11
583.51200000000279
 21
-1721.292811140481
 31
0.0
  0
LINE
  5
483
  8
DATA
  6
CONTINUOUS
 62
     7
 10
565.71200000000135
 20
-1782.384
 30
0.0
 11
565.71200000000135
 21
-1721.292811140481
 31
0.0
  0
LINE
  5
484
  8
DATA
  6
CONTINUOUS
 62
     7
 10
593.0119999999996
 20
-1724.190537907753
 30
0.0
 11
593.0119999999996
 21
-1741.1905379077521
 31
0.0
  0
LINE
  5
485
  8
DATA
  6
CONTINUOUS
 62
     7
 10
593.0119999999996
 20
-1741.1905379077521
 30
0.0
 11
583.51200000000006
 21
-1741.1905379077521
 31
0.0
  0
LINE
  5
486
  8
DATA
  6
CONTINUOUS
 62
     7
 10
593.0119999999996
 20
-1724.190537907753
 30
0.0
 11
583.51200000000006
 21
-1724.190537907753
 31
0.0
  0
ARC
  5
487
  8
DATA
  6
CONTINUOUS
 62
     7
 10
569.76199999998607
 20
-1732.690537907808
 30
0.0
 40
8.7499999999467022
 50
126.8698976455474
 51
233.1301023540166
  0
LINE
  5
488
  8
DATA
  6
CONTINUOUS
 62
     7
 10
564.51200000000097
 20
-1740.6905379077521
 30
0.0
 11
564.51200000000097
 21
-1724.6905379077521
 31
0.0
  0
LINE
  5
489
  8
DATA
  6
CONTINUOUS
 62
     7
 10
564.51200000000097
 20
-1724.6905379077521
 30
0.0
 11
565.71200000000135
 21
-1724.6905379077521
 31
0.0
  0
LINE
  5
48A
  8
DATA
  6
CONTINUOUS
 62
     7
 10
565.71200000000135
 20
-1740.6905379077521
 30
0.0
 11
564.51200000000097
 21
-1740.6905379077521
 31
0.0
  0
ARC
  5
48B
  8
DATA
  6
CONTINUOUS
 62
     7
 10
565.71199999999942
 20
-1725.2497596751909
 30
0.0
 40
12.5999999999999
 50
180.0
 51
254.7132511732124
  0
LINE
  5
48C
  8
DATA
  6
CONTINUOUS
 62
     7
 10
553.11200000000076
 20
-1725.2497596751909
 30
0.0
 11
553.11200000000076
 21
-1719.6285294095071
 31
0.0
  0
LINE
  5
48D
  8
DATA
  6
CONTINUOUS
 62
     7
 10
596.11200000000008
 20
-1725.249759675185
 30
0.0
 11
596.11200000000008
 21
-1719.6285294095071
 31
0.0
  0
ARC
  5
48E
  8
DATA
  6
CONTINUOUS
 62
     7
 10
583.51200000000006
 20
-1725.249759675185
 30
0.0
 40
12.59999999999965
 50
318.93529956533382
 51
0.0
  0
LINE
  5
48F
  8
DATA
  6
CONTINUOUS
 62
     7
 10
583.51200000000165
 20
-1445.133999999998
 30
0.0
 11
600.61200000000008
 21
-1445.133999999998
 31
0.0
  0
LINE
  5
490
  8
DATA
  6
CONTINUOUS
 62
     7
 10
565.71200000000135
 20
-1428.383999999998
 30
0.0
 11
583.51200000000085
 21
-1428.383999999998
 31
0.0
  0
LINE
  5
491
  8
DATA
  6
CONTINUOUS
 62
     7
 10
548.61199999999997
 20
-1445.133999999998
 30
0.0
 11
565.71200000000135
 21
-1445.133999999998
 31
0.0
  0
LINE
  5
492
  8
DATA
  6
CONTINUOUS
 62
     7
 10
565.71200000000135
 20
-1489.475188859516
 30
0.0
 11
565.71200000000135
 21
-1428.383999999998
 31
0.0
  0
LINE
  5
493
  8
DATA
  6
CONTINUOUS
 62
     7
 10
583.51200000000085
 20
-1428.383999999998
 30
0.0
 11
583.51200000000279
 21
-1489.475188859516
 31
0.0
  0
LINE
  5
494
  8
DATA
  6
CONTINUOUS
 62
     7
 10
556.21200000000169
 20
-1486.5774620922441
 30
0.0
 11
556.21200000000169
 21
-1469.577462092245
 31
0.0
  0
LINE
  5
495
  8
DATA
  6
CONTINUOUS
 62
     7
 10
556.21200000000169
 20
-1469.577462092245
 30
0.0
 11
565.71200000000135
 21
-1469.577462092245
 31
0.0
  0
LINE
  5
496
  8
DATA
  6
CONTINUOUS
 62
     7
 10
556.21200000000169
 20
-1486.5774620922441
 30
0.0
 11
565.71200000000135
 21
-1486.5774620922441
 31
0.0
  0
LINE
  5
497
  8
DATA
  6
CONTINUOUS
 62
     7
 10
583.51200000000381
 20
-1470.0774620922441
 30
0.0
 11
584.71200000000363
 21
-1470.0774620922441
 31
0.0
  0
ARC
  5
498
  8
DATA
  6
CONTINUOUS
 62
     7
 10
579.46200000001818
 20
-1478.077462092187
 30
0.0
 40
8.7499999999467022
 50
306.86989764554738
 51
53.130102354016657
  0
LINE
  5
499
  8
DATA
  6
CONTINUOUS
 62
     7
 10
584.71200000000363
 20
-1486.0774620922441
 30
0.0
 11
583.51200000000381
 21
-1486.0774620922441
 31
0.0
  0
LINE
  5
49A
  8
DATA
  6
CONTINUOUS
 62
     7
 10
584.71200000000363
 20
-1470.0774620922441
 30
0.0
 11
584.71200000000363
 21
-1486.0774620922441
 31
0.0
  0
ARC
  5
49B
  8
DATA
  6
CONTINUOUS
 62
     7
 10
583.51200000000006
 20
-1485.5182403248109
 30
0.0
 40
12.5999999999999
 50
0.0
 51
74.71325117316529
  0
ARC
  5
49C
  8
DATA
  6
CONTINUOUS
 62
     7
 10
565.71200000000067
 20
-1485.5182403248109
 30
0.0
 40
12.6000000000002
 50
138.9352995653278
 51
180.0
  0
LINE
  5
49D
  8
DATA
  6
CONTINUOUS
 62
     7
 10
553.11200000000076
 20
-1491.13947059049
 30
0.0
 11
553.11200000000076
 21
-1485.5182403248109
 31
0.0
  0
LINE
  5
49E
  8
DATA
  6
CONTINUOUS
 62
     7
 10
596.11200000000008
 20
-1491.13947059049
 30
0.0
 11
596.11200000000008
 21
-1485.5182403248109
 31
0.0
  0
LINE
  5
49F
  8
DATA
  6
CONTINUOUS
 62
     7
 10
972.11200000000019
 20
-1210.3839999999959
 30
0.0
 11
972.11200000000019
 21
-2000.383999999998
 31
0.0
  0
CIRCLE
  5
4A0
  8
DATA
  6
CONTINUOUS
 62
     7
 10
574.61200000000019
 20
-1605.3839999999991
 30
0.0
 40
98.250000000000014
  0
CIRCLE
  5
4A1
  8
DATA
  6
CONTINUOUS
 62
     7
 10
574.61200000000019
 20
-1605.3839999999991
 30
0.0
 40
95.897699999999503
  0
CIRCLE
  5
4A2
  8
DATA
  6
CONTINUOUS
 62
     7
 10
574.61200000000019
 20
-1605.3839999999991
 30
0.0
 40
116.25
  0
ARC
  5
4A3
  8
DATA
  6
CONTINUOUS
 62
     7
 10
574.61200000000019
 20
-1605.3839999999991
 30
0.0
 40
74.234963636363872
 50
246.5850794528979
 51
293.41492054710199
  0
TEXT
  5
4A4
  8
DATA
 62
     7
 10
548.41145714753452
 20
-1605.5983749999971
 30
0.0
 40
4.4800000000000004
  1
Professional Series
 41
0.85
 11
548.41145714753452
 21
-1601.1183749999971
 31
0.0
 73
     3
  0
LINE
  5
4A5
  8
DATA
  6
CONTINUOUS
 62
     7
 10
604.11200000000019
 20
-1623.633999999998
 30
0.0
 11
545.11200000000008
 21
-1623.633999999998
 31
0.0
  0
LINE
  5
4A6
  8
DATA
  6
CONTINUOUS
 62
     7
 10
545.11200000000008
 20
-1570.633999999998
 30
0.0
 11
604.11200000000019
 21
-1570.633999999998
 31
0.0
  0
CIRCLE
  5
4A7
  8
DATA
  6
CONTINUOUS
 62
     7
 10
574.61200000000019
 20
-1605.3839999999991
 30
0.0
 40
51.75
  0
CIRCLE
  5
4A8
  8
DATA
  6
CONTINUOUS
 62
     7
 10
574.61200000000019
 20
-1605.3839999999991
 30
0.0
 40
71.246999999999375
  0
ARC
  5
4A9
  8
DATA
  6
CONTINUOUS
 62
     7
 10
574.61200000000019
 20
-1605.3839999999991
 30
0.0
 40
93.656727272727622
 50
262.62188751734499
 51
277.37811248265382
  0
LINE
  5
4AA
  8
DATA
  6
CONTINUOUS
 62
     7
 10
586.61200000000019
 20
-1590.6339999999991
 30
0.0
 11
562.61200000000008
 21
-1590.6339999999991
 31
0.0
  0
CIRCLE
  5
4AB
  8
DATA
  6
CONTINUOUS
 62
     7
 10
589.11200000000008
 20
-1692.798583767586
 30
0.0
 40
6.0
  0
CIRCLE
  5
4AC
  8
DATA
  6
CONTINUOUS
 62
     7
 10
589.11200000000008
 20
-1692.798583767586
 30
0.0
 40
5.0
  0
TEXT
  5
4AD
  8
DATA
 62
     7
 10
579.61200000000008
 20
-1638.633999999998
 30
0.0
 40
2.578125
  1
8 OHMS
 41
0.85
 11
579.61200000000008
 21
-1636.055874999998
 31
0.0
 73
     3
  0
TEXT
  5
4AE
  8
DATA
 62
     7
 10
579.61200000000008
 20
-1634.1339999999991
 30
0.0
 40
2.578125
  1
2446H
 41
0.85
 11
579.61200000000008
 21
-1631.5558749999991
 31
0.0
 73
     3
  0
TEXT
  5
4AF
  8
DATA
 62
     7
 10
554.20458411372692
 20
-1638.633999999998
 30
0.0
 40
2.578125
  1
IMPEDANCE
 41
0.85
 11
554.20458411372692
 21
-1636.055874999998
 31
0.0
 73
     3
  0
TEXT
  5
4B0
  8
DATA
 62
     7
 10
554.20458411372692
 20
-1643.1339999999971
 30
0.0
 40
2.578125
  1
SERIAL No.
 41
0.85
 11
554.20458411372692
 21
-1640.5558749999971
 31
0.0
 73
     3
  0
TEXT
  5
4B1
  8
DATA
 62
     7
 10
554.20458411372692
 20
-1634.1339999999991
 30
0.0
 40
2.578125
  1
MODEL No.
 41
0.85
 11
554.20458411372692
 21
-1631.5558749999991
 31
0.0
 73
     3
  0
ARC
  5
4B2
  8
DATA
  6
CONTINUOUS
 62
     7
 10
574.61200000000019
 20
-1605.3839999999991
 30
0.0
 40
93.656727272727224
 50
252.12315186638091
 51
258.54161072422642
  0
ARC
  5
4B3
  8
DATA
  6
CONTINUOUS
 62
     7
 10
574.61200000000019
 20
-1605.3839999999991
 30
0.0
 40
93.656727272727224
 50
132.1231518663806
 51
167.87684813361889
  0
LINE
  5
4B4
  8
DATA
  6
CONTINUOUS
 62
     7
 10
530.3667894353357
 20
-1545.7753498879499
 30
0.0
 11
511.79396244104203
 21
-1535.9183486269669
 31
0.0
  0
ARC
  5
4B5
  8
DATA
  6
CONTINUOUS
 62
     7
 10
574.61200000000019
 20
-1605.3839999999991
 30
0.0
 40
74.23496363636427
 50
126.5850794528985
 51
173.41492054710201
  0
LINE
  5
4B6
  8
DATA
  6
CONTINUOUS
 62
     7
 10
483.04396244104367
 20
-1585.7148093445719
 30
0.0
 11
500.86678943533383
 21
-1596.8708487112319
 31
0.0
  0
LINE
  5
4B7
  8
DATA
  6
CONTINUOUS
 62
     7
 10
498.2660346673228
 20
-1561.305636363634
 30
0.0
 11
500.86411087867509
 21
-1562.805636363634
 31
0.0
  0
CIRCLE
  5
4B8
  8
DATA
  6
CONTINUOUS
 62
     7
 10
499.56507277299801
 20
-1562.055636363634
 30
0.0
 40
3.0
  0
LINE
  5
4B9
  8
DATA
  6
CONTINUOUS
 62
     7
 10
500.31507277299801
 20
-1560.7565982579581
 30
0.0
 11
498.81507277299801
 21
-1563.354674469311
 31
0.0
  0
LINE
  5
4BA
  8
DATA
  6
CONTINUOUS
 62
     7
 10
500.31507277299801
 20
-1560.7565982579581
 30
0.0
 11
498.81507277299801
 21
-1563.354674469311
 31
0.0
  0
LINE
  5
4BB
  8
DATA
  6
CONTINUOUS
 62
     7
 10
545.11200000000008
 20
-1673.505801400813
 30
0.0
 11
545.86199999999997
 21
-1694.518842028456
 31
0.0
  0
LINE
  5
4BC
  8
DATA
  6
CONTINUOUS
 62
     7
 10
545.11200000000008
 20
-1623.633999999998
 30
0.0
 11
545.11200000000008
 21
-1570.633999999998
 31
0.0
  0
LINE
  5
4BD
  8
DATA
  6
CONTINUOUS
 62
     7
 10
574.61200000000019
 20
-1693.5407272727259
 30
0.0
 11
574.61200000000019
 21
-1690.540727272725
 31
0.0
  0
CIRCLE
  5
4BE
  8
DATA
  6
CONTINUOUS
 62
     7
 10
574.61200000000019
 20
-1692.040727272725
 30
0.0
 40
3.0
  0
LINE
  5
4BF
  8
DATA
  6
CONTINUOUS
 62
     7
 10
573.11200000000019
 20
-1692.040727272725
 30
0.0
 11
576.11200000000008
 21
-1692.040727272725
 31
0.0
  0
LINE
  5
4C0
  8
DATA
  6
CONTINUOUS
 62
     7
 10
573.11200000000019
 20
-1692.040727272725
 30
0.0
 11
576.11200000000008
 21
-1692.040727272725
 31
0.0
  0
CIRCLE
  5
4C1
  8
DATA
  6
CONTINUOUS
 62
     7
 10
560.11199999999997
 20
-1692.798583767586
 30
0.0
 40
6.0
  0
CIRCLE
  5
4C2
  8
DATA
  6
CONTINUOUS
 62
     7
 10
560.11199999999997
 20
-1692.798583767586
 30
0.0
 40
5.0
  0
LINE
  5
4C3
  8
DATA
  6
CONTINUOUS
 62
     7
 10
562.61200000000008
 20
-1590.6339999999991
 30
0.0
 11
562.61200000000008
 21
-1570.633999999998
 31
0.0
  0
ARC
  5
4C4
  8
DATA
  6
CONTINUOUS
 62
     7
 10
574.61200000000019
 20
-1605.3839999999991
 30
0.0
 40
93.656727272726883
 50
12.123151866381059
 51
47.876848133619163
  0
LINE
  5
4C5
  8
DATA
  6
CONTINUOUS
 62
     7
 10
637.43003755895643
 20
-1535.9183486269669
 30
0.0
 11
618.85721056466446
 21
-1545.7753498879499
 31
0.0
  0
ARC
  5
4C6
  8
DATA
  6
CONTINUOUS
 62
     7
 10
574.61200000000019
 20
-1605.3839999999991
 30
0.0
 40
93.656727272727267
 50
281.45838927577358
 51
287.87684813361898
  0
LINE
  5
4C7
  8
DATA
  6
CONTINUOUS
 62
     7
 10
648.35721056466446
 20
-1596.8708487112319
 30
0.0
 11
666.18003755895643
 21
-1585.7148093445719
 31
0.0
  0
ARC
  5
4C8
  8
DATA
  6
CONTINUOUS
 62
     7
 10
574.61200000000019
 20
-1605.3839999999991
 30
0.0
 40
74.234963636362906
 50
6.5850794528977721
 51
53.414920547102611
  0
LINE
  5
4C9
  8
DATA
  6
CONTINUOUS
 62
     7
 10
650.95796533267708
 20
-1561.305636363634
 30
0.0
 11
648.35988912132325
 21
-1562.805636363634
 31
0.0
  0
CIRCLE
  5
4CA
  8
DATA
  6
CONTINUOUS
 62
     7
 10
649.65892722700198
 20
-1562.055636363634
 30
0.0
 40
3.0
  0
LINE
  5
4CB
  8
DATA
  6
CONTINUOUS
 62
     7
 10
650.4089272270021
 20
-1563.354674469311
 30
0.0
 11
648.9089272270021
 21
-1560.7565982579581
 31
0.0
  0
LINE
  5
4CC
  8
DATA
  6
CONTINUOUS
 62
     7
 10
650.4089272270021
 20
-1563.354674469311
 30
0.0
 11
648.9089272270021
 21
-1560.7565982579581
 31
0.0
  0
LINE
  5
4CD
  8
DATA
  6
CONTINUOUS
 62
     7
 10
603.36200000000008
 20
-1694.518842028456
 30
0.0
 11
604.11200000000019
 21
-1673.505801400813
 31
0.0
  0
LINE
  5
4CE
  8
DATA
  6
CONTINUOUS
 62
     7
 10
604.11200000000019
 20
-1570.633999999998
 30
0.0
 11
604.11200000000019
 21
-1623.633999999998
 31
0.0
  0
LINE
  5
4CF
  8
DATA
  6
CONTINUOUS
 62
     7
 10
586.61200000000019
 20
-1570.633999999998
 30
0.0
 11
586.61200000000019
 21
-1590.6339999999991
 31
0.0
  0
LINE
  5
4D0
  8
DATA
  6
CONTINUOUS
 62
     7
 10
491.11200000000008
 20
-2002.384
 30
0.0
 11
491.11200000000008
 21
-1686.265471920334
 31
0.0
  0
LINE
  5
4D1
  8
DATA
  6
CONTINUOUS
 62
     7
 10
658.11200000000019
 20
-1686.265471920334
 30
0.0
 11
658.11200000000019
 21
-2002.384
 31
0.0
  0
LINE
  5
4D2
  8
DATA
  6
CONTINUOUS
 62
     7
 10
494.11200000000002
 20
-2002.384
 30
0.0
 11
494.11200000000002
 21
-1689.251827562181
 31
0.0
  0
LINE
  5
4D3
  8
DATA
  6
CONTINUOUS
 62
     7
 10
494.11200000000002
 20
-1521.5161724378161
 30
0.0
 11
494.11200000000002
 21
-1416.884
 31
0.0
  0
LINE
  5
4D4
  8
DATA
  6
CONTINUOUS
 62
     7
 10
655.11200000000008
 20
-1416.884
 30
0.0
 11
655.11200000000008
 21
-1521.5161724378161
 31
0.0
  0
LINE
  5
4D5
  8
DATA
  6
CONTINUOUS
 62
     7
 10
655.11200000000008
 20
-1689.251827562181
 30
0.0
 11
655.11200000000008
 21
-2002.384
 31
0.0
  0
LINE
  5
4D6
  8
DATA
  6
CONTINUOUS
 62
     7
 10
652.11200000000019
 20
-2005.384
 30
0.0
 11
497.11200000000002
 21
-2005.384
 31
0.0
  0
LINE
  5
4D7
  8
DATA
  6
CONTINUOUS
 62
     7
 10
655.11200000000008
 20
-1823.384
 30
0.0
 11
494.11200000000002
 21
-1823.384
 31
0.0
  0
LINE
  5
4D8
  8
DATA
  6
CONTINUOUS
 62
     7
 10
655.11200000000008
 20
-1416.884
 30
0.0
 11
600.61200000000008
 21
-1416.884
 31
0.0
  0
LINE
  5
4D9
  8
DATA
  6
CONTINUOUS
 62
     7
 10
548.61199999999997
 20
-1416.884
 30
0.0
 11
494.11200000000002
 21
-1416.884
 31
0.0
  0
LINE
  5
4DA
  8
DATA
  6
CONTINUOUS
 62
     7
 10
548.61199999999997
 20
-1416.884
 30
0.0
 11
548.61199999999997
 21
-1492.078825802171
 31
0.0
  0
LINE
  5
4DB
  8
DATA
  6
CONTINUOUS
 62
     7
 10
548.61199999999997
 20
-1718.6891741978261
 30
0.0
 11
548.61199999999997
 21
-1771.884
 31
0.0
  0
LINE
  5
4DC
  8
DATA
  6
CONTINUOUS
 62
     7
 10
600.61200000000008
 20
-1416.884
 30
0.0
 11
600.61200000000008
 21
-1492.078825802171
 31
0.0
  0
LINE
  5
4DD
  8
DATA
  6
CONTINUOUS
 62
     7
 10
600.61200000000008
 20
-1718.6891741978261
 30
0.0
 11
600.61200000000008
 21
-1771.884
 31
0.0
  0
ARC
  5
4DE
  8
DATA
  6
CONTINUOUS
 62
     7
 10
574.61200000000019
 20
-1771.884
 30
0.0
 40
26.0
 50
180.0
 51
0.0
  0
CIRCLE
  5
4DF
  8
DATA
  6
CONTINUOUS
 62
     7
 10
537.11200000000008
 20
-1457.384
 30
0.0
 40
3.5
  0
CIRCLE
  5
4E0
  8
DATA
  6
CONTINUOUS
 62
     7
 10
537.11200000000008
 20
-1752.384
 30
0.0
 40
3.4999999999996212
  0
CIRCLE
  5
4E1
  8
DATA
  6
CONTINUOUS
 62
     7
 10
612.11200000000019
 20
-1457.384
 30
0.0
 40
3.5
  0
CIRCLE
  5
4E2
  8
DATA
  6
CONTINUOUS
 62
     7
 10
612.11200000000019
 20
-1752.384
 30
0.0
 40
3.4999999999996212
  0
LINE
  5
4E3
  8
DATA
  6
CONTINUOUS
 62
     7
 10
489.61200000000002
 20
-1789.674
 30
0.0
 11
491.11200000000008
 21
-1789.674
 31
0.0
  0
LINE
  5
4E4
  8
DATA
  6
CONTINUOUS
 62
     7
 10
489.61200000000002
 20
-1807.174
 30
0.0
 11
491.11200000000008
 21
-1807.174
 31
0.0
  0
LINE
  5
4E5
  8
DATA
  6
CONTINUOUS
 62
     7
 10
489.61200000000002
 20
-1807.174
 30
0.0
 11
489.61200000000002
 21
-1789.674
 31
0.0
  0
LINE
  5
4E6
  8
DATA
  6
CONTINUOUS
 62
     7
 10
484.61200000000002
 20
-1791.174
 30
0.0
 11
489.61200000000002
 21
-1791.174
 31
0.0
  0
LINE
  5
4E7
  8
DATA
  6
CONTINUOUS
 62
     7
 10
484.61200000000002
 20
-1805.674
 30
0.0
 11
489.61200000000002
 21
-1805.674
 31
0.0
  0
LINE
  5
4E8
  8
DATA
  6
CONTINUOUS
 62
     7
 10
484.61200000000002
 20
-1805.674
 30
0.0
 11
484.61200000000002
 21
-1791.174
 31
0.0
  0
LINE
  5
4E9
  8
DATA
  6
CONTINUOUS
 62
     7
 10
484.61200000000002
 20
-1794.799
 30
0.0
 11
489.61200000000002
 21
-1794.799
 31
0.0
  0
LINE
  5
4EA
  8
DATA
  6
CONTINUOUS
 62
     7
 10
484.61200000000002
 20
-1802.049
 30
0.0
 11
489.61200000000002
 21
-1802.049
 31
0.0
  0
LINE
  5
4EB
  8
DATA
  6
CONTINUOUS
 62
     7
 10
659.61200000000008
 20
-1789.674
 30
0.0
 11
658.11200000000019
 21
-1789.674
 31
0.0
  0
LINE
  5
4EC
  8
DATA
  6
CONTINUOUS
 62
     7
 10
659.61200000000008
 20
-1807.174
 30
0.0
 11
658.11200000000019
 21
-1807.174
 31
0.0
  0
LINE
  5
4ED
  8
DATA
  6
CONTINUOUS
 62
     7
 10
659.61200000000008
 20
-1807.174
 30
0.0
 11
659.61200000000008
 21
-1789.674
 31
0.0
  0
LINE
  5
4EE
  8
DATA
  6
CONTINUOUS
 62
     7
 10
664.61200000000019
 20
-1791.174
 30
0.0
 11
659.61200000000008
 21
-1791.174
 31
0.0
  0
LINE
  5
4EF
  8
DATA
  6
CONTINUOUS
 62
     7
 10
664.61200000000019
 20
-1805.674
 30
0.0
 11
659.61200000000008
 21
-1805.674
 31
0.0
  0
LINE
  5
4F0
  8
DATA
  6
CONTINUOUS
 62
     7
 10
664.61200000000019
 20
-1805.674
 30
0.0
 11
664.61200000000019
 21
-1791.174
 31
0.0
  0
LINE
  5
4F1
  8
DATA
  6
CONTINUOUS
 62
     7
 10
664.61200000000019
 20
-1794.799
 30
0.0
 11
659.61200000000008
 21
-1794.799
 31
0.0
  0
LINE
  5
4F2
  8
DATA
  6
CONTINUOUS
 62
     7
 10
664.61200000000019
 20
-1802.049
 30
0.0
 11
659.61200000000008
 21
-1802.049
 31
0.0
  0
ARC
  5
4F3
  8
DATA
  6
CONTINUOUS
 62
     7
 10
652.11200000000019
 20
-2002.384
 30
0.0
 40
6.0
 50
270.0
 51
0.0
  0
ARC
  5
4F4
  8
DATA
  6
CONTINUOUS
 62
     7
 10
497.11200000000002
 20
-2002.384
 30
0.0
 40
6.0
 50
180.0
 51
270.0
  0
ARC
  5
4F5
  8
DATA
  6
CONTINUOUS
 62
     7
 10
497.11200000000002
 20
-2002.384
 30
0.0
 40
3.0
 50
180.0
 51
270.0
  0
ARC
  5
4F6
  8
DATA
  6
CONTINUOUS
 62
     7
 10
652.11200000000019
 20
-2002.384
 30
0.0
 40
3.0
 50
270.0
 51
0.0
  0
LINE
  5
4F7
  8
DATA
  6
CONTINUOUS
 62
     7
 10
506.11200000000002
 20
-1805.674
 30
0.0
 11
506.11200000000002
 21
-1791.174
 31
0.0
  0
LINE
  5
4F8
  8
DATA
  6
CONTINUOUS
 62
     7
 10
514.61199999999997
 20
-1802.174
 30
0.0
 11
514.61199999999997
 21
-1794.674
 31
0.0
  0
LINE
  5
4F9
  8
DATA
  6
CONTINUOUS
 62
     7
 10
498.61200000000002
 20
-1789.674
 30
0.0
 11
497.11200000000002
 21
-1789.674
 31
0.0
  0
LINE
  5
4FA
  8
DATA
  6
CONTINUOUS
 62
     7
 10
497.11200000000002
 20
-1807.174
 30
0.0
 11
498.61200000000002
 21
-1807.174
 31
0.0
  0
LINE
  5
4FB
  8
DATA
  6
CONTINUOUS
 62
     7
 10
498.61200000000002
 20
-1807.174
 30
0.0
 11
498.61200000000002
 21
-1789.674
 31
0.0
  0
LINE
  5
4FC
  8
DATA
  6
CONTINUOUS
 62
     7
 10
500.61200000000008
 20
-1805.674
 30
0.0
 11
500.61200000000008
 21
-1791.174
 31
0.0
  0
LINE
  5
4FD
  8
DATA
  6
CONTINUOUS
 62
     7
 10
498.61200000000002
 20
-1791.174
 30
0.0
 11
506.11200000000002
 21
-1791.174
 31
0.0
  0
LINE
  5
4FE
  8
DATA
  6
CONTINUOUS
 62
     7
 10
498.61200000000002
 20
-1805.674
 30
0.0
 11
506.11200000000002
 21
-1805.674
 31
0.0
  0
LINE
  5
4FF
  8
DATA
  6
CONTINUOUS
 62
     7
 10
500.61200000000008
 20
-1794.799
 30
0.0
 11
506.11200000000002
 21
-1794.799
 31
0.0
  0
LINE
  5
500
  8
DATA
  6
CONTINUOUS
 62
     7
 10
500.61200000000008
 20
-1802.049
 30
0.0
 11
506.11200000000002
 21
-1802.049
 31
0.0
  0
LINE
  5
501
  8
DATA
  6
CONTINUOUS
 62
     7
 10
506.11200000000002
 20
-1794.674
 30
0.0
 11
514.61199999999997
 21
-1794.674
 31
0.0
  0
LINE
  5
502
  8
DATA
  6
CONTINUOUS
 62
     7
 10
506.11200000000002
 20
-1802.174
 30
0.0
 11
514.61199999999997
 21
-1802.174
 31
0.0
  0
LINE
  5
503
  8
DATA
  6
CONTINUOUS
 62
     7
 10
514.61199999999997
 20
-1802.174
 30
0.0
 11
512.60238105676763
 21
-1794.674
 31
0.0
  0
LINE
  5
504
  8
DATA
  6
CONTINUOUS
 62
     7
 10
512.61200000000008
 20
-1802.174
 30
0.0
 11
510.60238105676763
 21
-1794.674
 31
0.0
  0
LINE
  5
505
  8
DATA
  6
CONTINUOUS
 62
     7
 10
510.61200000000002
 20
-1802.174
 30
0.0
 11
508.60238105676763
 21
-1794.674
 31
0.0
  0
LINE
  5
506
  8
DATA
  6
CONTINUOUS
 62
     7
 10
508.61200000000008
 20
-1802.174
 30
0.0
 11
506.60238105676763
 21
-1794.674
 31
0.0
  0
LINE
  5
507
  8
DATA
  6
CONTINUOUS
 62
     7
 10
506.61200000000002
 20
-1802.174
 30
0.0
 11
506.11200000000002
 21
-1800.307974596215
 31
0.0
  0
LINE
  5
508
  8
DATA
  6
CONTINUOUS
 62
     7
 10
643.11200000000008
 20
-1805.674
 30
0.0
 11
643.11200000000008
 21
-1791.174
 31
0.0
  0
LINE
  5
509
  8
DATA
  6
CONTINUOUS
 62
     7
 10
650.61200000000008
 20
-1789.674
 30
0.0
 11
652.11200000000019
 21
-1789.674
 31
0.0
  0
LINE
  5
50A
  8
DATA
  6
CONTINUOUS
 62
     7
 10
648.61200000000019
 20
-1805.674
 30
0.0
 11
648.61200000000019
 21
-1791.174
 31
0.0
  0
LINE
  5
50B
  8
DATA
  6
CONTINUOUS
 62
     7
 10
650.61200000000008
 20
-1791.174
 30
0.0
 11
643.11200000000008
 21
-1791.174
 31
0.0
  0
LINE
  5
50C
  8
DATA
  6
CONTINUOUS
 62
     7
 10
650.61200000000008
 20
-1805.674
 30
0.0
 11
643.11200000000008
 21
-1805.674
 31
0.0
  0
LINE
  5
50D
  8
DATA
  6
CONTINUOUS
 62
     7
 10
648.61200000000019
 20
-1794.799
 30
0.0
 11
643.11200000000008
 21
-1794.799
 31
0.0
  0
LINE
  5
50E
  8
DATA
  6
CONTINUOUS
 62
     7
 10
648.61200000000019
 20
-1802.049
 30
0.0
 11
643.11200000000008
 21
-1802.049
 31
0.0
  0
LINE
  5
50F
  8
DATA
  6
CONTINUOUS
 62
     7
 10
634.61200000000008
 20
-1794.674
 30
0.0
 11
634.61200000000008
 21
-1802.174
 31
0.0
  0
LINE
  5
510
  8
DATA
  6
CONTINUOUS
 62
     7
 10
643.11200000000008
 20
-1802.174
 30
0.0
 11
634.61200000000008
 21
-1802.174
 31
0.0
  0
LINE
  5
511
  8
DATA
  6
CONTINUOUS
 62
     7
 10
643.11200000000008
 20
-1794.674
 30
0.0
 11
634.61200000000008
 21
-1794.674
 31
0.0
  0
LINE
  5
512
  8
DATA
  6
CONTINUOUS
 62
     7
 10
634.61200000000008
 20
-1794.674
 30
0.0
 11
636.62161894323253
 21
-1802.174
 31
0.0
  0
LINE
  5
513
  8
DATA
  6
CONTINUOUS
 62
     7
 10
636.61200000000019
 20
-1794.674
 30
0.0
 11
638.62161894323253
 21
-1802.174
 31
0.0
  0
LINE
  5
514
  8
DATA
  6
CONTINUOUS
 62
     7
 10
638.61200000000008
 20
-1794.674
 30
0.0
 11
640.62161894323253
 21
-1802.174
 31
0.0
  0
LINE
  5
515
  8
DATA
  6
CONTINUOUS
 62
     7
 10
640.61200000000019
 20
-1794.674
 30
0.0
 11
642.62161894323253
 21
-1802.174
 31
0.0
  0
LINE
  5
516
  8
DATA
  6
CONTINUOUS
 62
     7
 10
642.61200000000008
 20
-1794.674
 30
0.0
 11
643.11200000000008
 21
-1796.540025403785
 31
0.0
  0
LINE
  5
517
  8
DATA
  6
CONTINUOUS
 62
     7
 10
652.11200000000019
 20
-1416.884
 30
0.0
 11
652.11200000000019
 21
-1518.7363658718821
 31
0.0
  0
LINE
  5
518
  8
DATA
  6
CONTINUOUS
 62
     7
 10
652.11200000000019
 20
-1692.0316341281159
 30
0.0
 11
652.11200000000019
 21
-1823.384
 31
0.0
  0
LINE
  5
519
  8
DATA
  6
CONTINUOUS
 62
     7
 10
497.11200000000002
 20
-1823.384
 30
0.0
 11
497.11200000000002
 21
-1692.0316341281159
 31
0.0
  0
LINE
  5
51A
  8
DATA
  6
CONTINUOUS
 62
     7
 10
497.11200000000002
 20
-1518.7363658718821
 30
0.0
 11
497.11200000000002
 21
-1416.884
 31
0.0
  0
LINE
  5
51B
  8
DATA
  6
CONTINUOUS
 62
     7
 10
650.61200000000008
 20
-1807.174
 30
0.0
 11
652.11200000000019
 21
-1807.174
 31
0.0
  0
LINE
  5
51C
  8
DATA
  6
CONTINUOUS
 62
     7
 10
650.61200000000008
 20
-1789.674
 30
0.0
 11
650.61200000000008
 21
-1807.174
 31
0.0
  0
ARC
  5
51D
  8
DATA
  6
CONTINUOUS
 62
     7
 10
575.54837385129076
 20
-1583.620909263725
 30
0.0
 40
0.271921996939979
 50
307.64190249758531
 51
354.26701928939701
  0
LINE
  5
51E
  8
DATA
  6
CONTINUOUS
 62
     7
 10
568.56372719816295
 20
-1579.3358586842851
 30
0.0
 11
569.83850157816289
 21
-1576.2984280442849
 31
0.0
  0
LINE
  5
51F
  8
DATA
  6
CONTINUOUS
 62
     7
 10
568.56372719816295
 20
-1579.3358586842851
 30
0.0
 11
567.30468213816278
 21
-1576.2984280442849
 31
0.0
  0
LINE
  5
520
  8
DATA
  6
CONTINUOUS
 62
     7
 10
578.22685239816281
 20
-1584.8284280442849
 30
0.0
 11
578.22685239816281
 21
-1576.2984280442849
 31
0.0
  0
LINE
  5
521
  8
DATA
  6
CONTINUOUS
 62
     7
 10
579.86360585816283
 20
-1576.2984280442849
 30
0.0
 11
579.86360585816283
 21
-1583.522177964285
 31
0.0
  0
LINE
  5
522
  8
DATA
  6
CONTINUOUS
 62
     7
 10
570.43654840816282
 20
-1576.2984280442849
 30
0.0
 11
570.43654840816282
 21
-1583.522177964285
 31
0.0
  0
LINE
  5
523
  8
DATA
  6
CONTINUOUS
 62
     7
 10
572.01035046816276
 20
-1576.2984280442849
 30
0.0
 11
572.01035046816276
 21
-1583.522177964285
 31
0.0
  0
LINE
  5
524
  8
DATA
  6
CONTINUOUS
 62
     7
 10
572.82872719816282
 20
-1576.2984280442849
 30
0.0
 11
572.82872719816282
 21
-1584.8284280442849
 31
0.0
  0
LINE
  5
525
  8
DATA
  6
CONTINUOUS
 62
     7
 10
574.26088860816287
 20
-1577.101058394285
 30
0.0
 11
574.26088860816287
 21
-1579.8394784142849
 31
0.0
  0
LINE
  5
526
  8
DATA
  6
CONTINUOUS
 62
     7
 10
577.33047734816284
 20
-1579.6810251342849
 30
0.0
 11
577.33047734816284
 21
-1577.683375904285
 31
0.0
  0
LINE
  5
527
  8
DATA
  6
CONTINUOUS
 62
     7
 10
575.81893575816275
 20
-1577.4787753242849
 30
0.0
 11
575.81893575816275
 21
-1579.4617700142851
 31
0.0
  0
ARC
  5
528
  8
DATA
  6
CONTINUOUS
 62
     7
 10
570.12073368816289
 20
-1582.638094644285
 30
0.0
 40
2.1997619716682322
 50
264.69085622153329
 51
323.99119915424137
  0
LINE
  5
529
  8
DATA
  6
CONTINUOUS
 62
     7
 10
569.24046327816268
 20
-1582.152959424285
 30
0.0
 11
569.24046327816268
 21
-1583.5221609042851
 31
0.0
  0
LINE
  5
52A
  8
DATA
  6
CONTINUOUS
 62
     7
 10
569.24046327816268
 20
-1582.152959424285
 30
0.0
 11
567.82403971816268
 21
-1582.152959424285
 31
0.0
  0
LINE
  5
52B
  8
DATA
  6
CONTINUOUS
 62
     7
 10
567.82403971816268
 20
-1582.152959424285
 30
0.0
 11
567.82403971816268
 21
-1583.5221609042851
 31
0.0
  0
ARC
  5
52C
  8
DATA
  6
CONTINUOUS
 62
     7
 10
569.8415041381628
 20
-1583.5406198242849
 30
0.0
 40
0.5953332887848603
 50
269.71184879275393
 51
1.7759870056718221
  0
ARC
  5
52D
  8
DATA
  6
CONTINUOUS
 62
     7
 10
569.83550754816281
 20
-1583.5406198242849
 30
0.0
 40
0.5953302446130256
 50
178.2240129943138
 51
270.28815120724681
  0
ARC
  5
52E
  8
DATA
  6
CONTINUOUS
 62
     7
 10
569.71365649816289
 20
-1582.638094644285
 30
0.0
 40
2.1997583991154959
 50
216.0088008457588
 51
275.30914377846568
  0
ARC
  5
52F
  8
DATA
  6
CONTINUOUS
 62
     7
 10
568.81816003816289
 20
-1583.473940814285
 30
0.0
 40
0.9952805775743275
 50
182.7769954499984
 51
207.35960666715039
  0
CIRCLE
  5
530
  8
DATA
  6
CONTINUOUS
 62
     7
 10
568.6502896381628
 20
-1580.5162144942849
 30
0.0
 40
0.8105035400001273
  0
LINE
  5
531
  8
DATA
  6
CONTINUOUS
 62
     7
 10
582.49185239816279
 20
-1584.8284195142851
 30
0.0
 11
578.22685239816281
 21
-1584.8284195142851
 31
0.0
  0
LINE
  5
532
  8
DATA
  6
CONTINUOUS
 62
     7
 10
582.49185239816279
 20
-1584.8284195142851
 30
0.0
 11
582.49185239816279
 21
-1582.1529508942849
 31
0.0
  0
LINE
  5
533
  8
DATA
  6
CONTINUOUS
 62
     7
 10
582.49185239816279
 20
-1582.152959424285
 30
0.0
 11
581.0596995181628
 21
-1582.152959424285
 31
0.0
  0
LINE
  5
534
  8
DATA
  6
CONTINUOUS
 62
     7
 10
581.0596995181628
 20
-1582.152959424285
 30
0.0
 11
581.0596995181628
 21
-1583.5221609042851
 31
0.0
  0
LINE
  5
535
  8
DATA
  6
CONTINUOUS
 62
     7
 10
572.82872719816282
 20
-1584.8284195142851
 30
0.0
 11
575.81893575816275
 21
-1584.828410984285
 31
0.0
  0
LINE
  5
536
  8
DATA
  6
CONTINUOUS
 62
     7
 10
574.26088007816281
 20
-1584.025780634285
 30
0.0
 11
575.03204325816284
 21
-1584.025780634285
 31
0.0
  0
LINE
  5
537
  8
DATA
  6
CONTINUOUS
 62
     7
 10
574.26088860816287
 20
-1584.025780634285
 30
0.0
 11
574.26088860816287
 21
-1580.6578466142851
 31
0.0
  0
LINE
  5
538
  8
DATA
  6
CONTINUOUS
 62
     7
 10
574.26088007816281
 20
-1580.6578466142851
 30
0.0
 11
575.03204325816284
 21
-1580.6578466142851
 31
0.0
  0
LINE
  5
539
  8
DATA
  6
CONTINUOUS
 62
     7
 10
575.81893575816275
 20
-1583.6480722342851
 30
0.0
 11
575.81893575816275
 21
-1581.0355550142849
 31
0.0
  0
ARC
  5
53A
  8
DATA
  6
CONTINUOUS
 62
     7
 10
571.01623014816289
 20
-1583.473940814285
 30
0.0
 40
0.995279161328926
 50
332.64039333284973
 51
357.22300455001061
  0
ARC
  5
53B
  8
DATA
  6
CONTINUOUS
 62
     7
 10
580.46464671816284
 20
-1583.5406198242849
 30
0.0
 40
0.5953332887848603
 50
269.71184879275393
 51
1.775987005671481
  0
ARC
  5
53C
  8
DATA
  6
CONTINUOUS
 62
     7
 10
580.45865865816279
 20
-1583.5406198242849
 30
0.0
 40
0.5953302446130256
 50
178.2240129943138
 51
270.28815120724681
  0
LINE
  5
53D
  8
DATA
  6
CONTINUOUS
 62
     7
 10
577.32978641816271
 20
-1583.4592095042849
 30
0.0
 11
577.32978641816271
 21
-1581.192942044285
 31
0.0
  0
LINE
  5
53E
  8
DATA
  6
CONTINUOUS
 62
     7
 10
574.26088007816281
 20
-1579.8394784142849
 30
0.0
 11
575.03204325816284
 21
-1579.8394784142849
 31
0.0
  0
ARC
  5
53F
  8
DATA
  6
CONTINUOUS
 62
     7
 10
575.71050239816282
 20
-1583.209109904285
 30
0.0
 40
1.6229275341955689
 50
273.83098160911658
 51
351.13514730980211
  0
LINE
  5
540
  8
DATA
  6
CONTINUOUS
 62
     7
 10
570.43654840816282
 20
-1576.2984280442849
 30
0.0
 11
572.01035046816276
 21
-1576.2984280442849
 31
0.0
  0
LINE
  5
541
  8
DATA
  6
CONTINUOUS
 62
     7
 10
567.30468213816278
 20
-1576.2984280442849
 30
0.0
 11
569.83850157816289
 21
-1576.2984280442849
 31
0.0
  0
LINE
  5
542
  8
DATA
  6
CONTINUOUS
 62
     7
 10
578.22685239816281
 20
-1576.2984280442849
 30
0.0
 11
579.86360585816283
 21
-1576.2984280442849
 31
0.0
  0
LINE
  5
543
  8
DATA
  6
CONTINUOUS
 62
     7
 10
572.82872719816282
 20
-1576.2984280442849
 30
0.0
 11
575.83537317747187
 21
-1576.2984349482449
 31
0.0
  0
LINE
  5
544
  8
DATA
  6
CONTINUOUS
 62
     7
 10
574.26088007816281
 20
-1577.1010669242851
 30
0.0
 11
575.03204325816284
 21
-1577.1010669242851
 31
0.0
  0
ARC
  5
545
  8
DATA
  6
CONTINUOUS
 62
     7
 10
575.72668380816299
 20
-1577.9152554242851
 30
0.0
 40
1.6204696327735111
 50
8.2269238590201734
 51
86.154126692157277
  0
ARC
  5
546
  8
DATA
  6
CONTINUOUS
 62
     7
 10
575.04114942776346
 20
-1582.529884803904
 30
0.0
 40
1.4959235467349039
 50
269.651219937615
 51
282.82648280687221
  0
ARC
  5
547
  8
DATA
  6
CONTINUOUS
 62
     7
 10
575.20916531959188
 20
-1583.1623316497621
 30
0.0
 40
0.842284531850427
 50
281.23310362265738
 51
306.86200889406422
  0
ARC
  5
548
  8
DATA
  6
CONTINUOUS
 62
     7
 10
575.54837385129076
 20
-1581.062717984845
 30
0.0
 40
0.2719219969400784
 50
5.7329807106029396
 51
52.35809750244384
  0
ARC
  5
549
  8
DATA
  6
CONTINUOUS
 62
     7
 10
575.04114942776346
 20
-1582.153742444666
 30
0.0
 40
1.49592354673453
 50
77.173517193125804
 51
90.348780062385003
  0
ARC
  5
54A
  8
DATA
  6
CONTINUOUS
 62
     7
 10
575.20916531959188
 20
-1581.5212955988079
 30
0.0
 40
0.8422845318503405
 50
53.137991105941957
 51
78.766896377342547
  0
ARC
  5
54B
  8
DATA
  6
CONTINUOUS
 62
     7
 10
576.50435537816281
 20
-1581.2487367742849
 30
0.0
 40
0.8273146038185686
 50
3.8670063598294009
 51
88.361634567891528
  0
ARC
  5
54C
  8
DATA
  6
CONTINUOUS
 62
     7
 10
576.50359620816278
 20
-1579.593985014285
 30
0.0
 40
0.8281367047752105
 50
271.68928210464742
 51
356.07828298266651
  0
ARC
  5
54D
  8
DATA
  6
CONTINUOUS
 62
     7
 10
575.54837385129076
 20
-1579.434607043725
 30
0.0
 40
0.2719219969401591
 50
307.64190249755598
 51
354.26701928939701
  0
ARC
  5
54E
  8
DATA
  6
CONTINUOUS
 62
     7
 10
575.04114942776346
 20
-1578.343582583904
 30
0.0
 40
1.4959235467346761
 50
269.651219937615
 51
282.82648280687221
  0
ARC
  5
54F
  8
DATA
  6
CONTINUOUS
 62
     7
 10
575.20916531959188
 20
-1578.9760294297621
 30
0.0
 40
0.8422845318502041
 50
281.23310362266039
 51
306.86200889406717
  0
ARC
  5
550
  8
DATA
  6
CONTINUOUS
 62
     7
 10
575.54837385129076
 20
-1577.505938294845
 30
0.0
 40
0.2719219969400784
 50
5.7329807106029396
 51
52.358097502414601
  0
ARC
  5
551
  8
DATA
  6
CONTINUOUS
 62
     7
 10
575.04114942776346
 20
-1578.596962754666
 30
0.0
 40
1.495923546734752
 50
77.173517193127736
 51
90.348780062385046
  0
ARC
  5
552
  8
DATA
  6
CONTINUOUS
 62
     7
 10
575.20916531959188
 20
-1577.9645159088079
 30
0.0
 40
0.8422845318503405
 50
53.137991105941957
 51
78.766896377339549
  0
LINE
  5
553
  8
DATA
  6
CONTINUOUS
 62
     7
 10
-1671.6379999999999
 20
-330.14646348067242
 30
0.0
 11
-1662.137999999999
 21
-330.14646348067339
 31
0.0
  0
LINE
  5
554
  8
DATA
  6
CONTINUOUS
 62
     7
 10
-1671.6379999999999
 20
-347.14646348067163
 30
0.0
 11
-1662.137999999999
 21
-347.14646348067163
 31
0.0
  0
LINE
  5
555
  8
DATA
  6
CONTINUOUS
 62
     7
 10
-1662.137999999999
 20
-347.14646348067163
 30
0.0
 11
-1662.137999999999
 21
-330.14646348067339
 31
0.0
  0
LINE
  5
556
  8
DATA
  6
CONTINUOUS
 62
     7
 10
-1662.137999999999
 20
-466.59332708189191
 30
0.0
 11
-1662.137999999999
 21
-449.59332708189368
 31
0.0
  0
LINE
  5
557
  8
DATA
  6
CONTINUOUS
 62
     7
 10
-1679.1379999999999
 20
-346.64646348067163
 30
0.0
 11
-1680.338
 21
-346.64646348067163
 31
0.0
  0
ARC
  5
558
  8
DATA
  6
CONTINUOUS
 62
     7
 10
-1675.088000000015
 20
-338.64646348072711
 30
0.0
 40
8.7499999999467022
 50
126.8698976455474
 51
233.13010235401421
  0
LINE
  5
559
  8
DATA
  6
CONTINUOUS
 62
     7
 10
-1680.338
 20
-330.64646348067163
 30
0.0
 11
-1679.1379999999999
 21
-330.64646348067163
 31
0.0
  0
LINE
  5
55A
  8
DATA
  6
CONTINUOUS
 62
     7
 10
-1680.338
 20
-346.64646348067163
 30
0.0
 11
-1680.338
 21
-330.64646348067163
 31
0.0
  0
LINE
  5
55B
  8
DATA
  6
CONTINUOUS
 62
     7
 10
-1650.1379999999999
 20
-331.8499999999994
 30
0.0
 11
-1625.3879999999999
 21
-308.35000000000031
 31
0.0
  0
LINE
  5
55C
  8
DATA
  6
CONTINUOUS
 62
     7
 10
-1791.6379999999999
 20
51.161700000001019
 30
0.0
 11
-1791.6379999999999
 21
88.161800000000994
 31
0.0
  0
LINE
  5
55D
  8
DATA
  6
CONTINUOUS
 62
     7
 10
-1559.137999999999
 20
51.161700000001019
 30
0.0
 11
-1559.137999999999
 21
88.161800000000994
 31
0.0
  0
LINE
  5
55E
  8
DATA
  6
CONTINUOUS
 62
     7
 10
-1579.490299999999
 20
95.161800000000895
 30
0.0
 11
-1771.2856999999999
 21
95.161800000000895
 31
0.0
  0
LINE
  5
55F
  8
DATA
  6
CONTINUOUS
 62
     7
 10
-1577.137999999999
 20
94.161800000000994
 30
0.0
 11
-1773.6379999999999
 21
94.161800000000994
 31
0.0
  0
LINE
  5
560
  8
DATA
  6
CONTINUOUS
 62
     7
 10
-1791.6379999999999
 20
88.161800000000767
 30
0.0
 11
-1559.137999999999
 21
88.161800000001207
 31
0.0
  0
LINE
  5
561
  8
DATA
  6
CONTINUOUS
 62
     7
 10
-1746.635
 20
128.16180000000091
 30
0.0
 11
-1604.1409999999989
 21
128.16180000000091
 31
0.0
  0
LINE
  5
562
  8
DATA
  6
CONTINUOUS
 62
     7
 10
-1581.731272727272
 20
98.161800000000653
 30
0.0
 11
-1612.5699624410429
 21
98.161800000000554
 31
0.0
  0
LINE
  5
563
  8
DATA
  6
CONTINUOUS
 62
     7
 10
-1601.153036363635
 20
124.1618000000008
 30
0.0
 11
-1631.142789435334
 21
124.16180000000089
 31
0.0
  0
LINE
  5
564
  8
DATA
  6
CONTINUOUS
 62
     7
 10
-1601.642789435334
 20
124.16180000000089
 30
0.0
 11
-1601.642789435334
 21
98.161800000000881
 31
0.0
  0
LINE
  5
565
  8
DATA
  6
CONTINUOUS
 62
     7
 10
-1612.5699624410429
 20
98.161800000000881
 30
0.0
 11
-1631.142789435334
 21
124.16180000000089
 31
0.0
  0
LINE
  5
566
  8
DATA
  6
CONTINUOUS
 62
     7
 10
-1579.490299999999
 20
95.161800000000895
 30
0.0
 11
-1604.1409999999989
 21
128.16180000000091
 31
0.0
  0
LINE
  5
567
  8
DATA
  6
CONTINUOUS
 62
     7
 10
-1579.490299999999
 20
95.161800000000895
 30
0.0
 11
-1579.490299999999
 21
94.161800000000994
 31
0.0
  0
LINE
  5
568
  8
DATA
  6
CONTINUOUS
 62
     7
 10
-1559.137999999999
 20
88.161800000000994
 30
0.0
 11
-1577.137999999999
 21
94.161800000000994
 31
0.0
  0
LINE
  5
569
  8
DATA
  6
CONTINUOUS
 62
     7
 10
-1791.6379999999999
 20
88.161800000000994
 30
0.0
 11
-1773.6379999999999
 21
94.161800000000994
 31
0.0
  0
LINE
  5
56A
  8
DATA
  6
CONTINUOUS
 62
     7
 10
-1769.0447272727281
 20
98.161800000000653
 30
0.0
 11
-1738.206037558956
 21
98.161800000000554
 31
0.0
  0
LINE
  5
56B
  8
DATA
  6
CONTINUOUS
 62
     7
 10
-1749.6229636363639
 20
124.1618000000008
 30
0.0
 11
-1719.633210564665
 21
124.16180000000089
 31
0.0
  0
LINE
  5
56C
  8
DATA
  6
CONTINUOUS
 62
     7
 10
-1749.133210564665
 20
124.16180000000089
 30
0.0
 11
-1749.133210564665
 21
98.161800000000881
 31
0.0
  0
LINE
  5
56D
  8
DATA
  6
CONTINUOUS
 62
     7
 10
-1738.206037558957
 20
98.161800000000881
 30
0.0
 11
-1719.633210564665
 21
124.16180000000089
 31
0.0
  0
LINE
  5
56E
  8
DATA
  6
CONTINUOUS
 62
     7
 10
-1771.2856999999999
 20
95.161800000000895
 30
0.0
 11
-1771.2856999999999
 21
94.161800000000994
 31
0.0
  0
LINE
  5
56F
  8
DATA
  6
CONTINUOUS
 62
     7
 10
-1771.2856999999999
 20
95.161800000000895
 30
0.0
 11
-1746.635
 21
128.16180000000091
 31
0.0
  0
LINE
  5
570
  8
DATA
  6
CONTINUOUS
 62
     7
 10
-1734.8874999999989
 20
-3.549999999999045
 30
0.0
 11
-1615.8885
 21
-3.549999999999045
 31
0.0
  0
LINE
  5
571
  8
DATA
  6
CONTINUOUS
 62
     7
 10
-1742.1391999999989
 20
35.655000000000882
 30
0.0
 11
-1608.6368
 21
35.655000000000882
 31
0.0
  0
LINE
  5
572
  8
DATA
  6
CONTINUOUS
 62
     7
 10
-1791.6379999999999
 20
51.161700000001019
 30
0.0
 11
-1559.137999999999
 21
51.16170000000114
 31
0.0
  0
LINE
  5
573
  8
DATA
  6
CONTINUOUS
 62
     7
 10
-1771.2856999999999
 20
44.189300000001147
 30
0.0
 11
-1579.4902999999999
 21
44.189300000001147
 31
0.0
  0
LINE
  5
574
  8
DATA
  6
CONTINUOUS
 62
     7
 10
-1615.8885
 20
-4.3499999999990004
 30
0.0
 11
-1615.8885
 21
-3.549999999999045
 31
0.0
  0
LINE
  5
575
  8
DATA
  6
CONTINUOUS
 62
     7
 10
-1579.490299999999
 20
44.189300000001147
 30
0.0
 11
-1579.490299999999
 21
51.16170000000114
 31
0.0
  0
LINE
  5
576
  8
DATA
  6
CONTINUOUS
 62
     7
 10
-1608.6368
 20
35.655000000000882
 30
0.0
 11
-1579.490299999999
 21
44.189300000001147
 31
0.0
  0
LINE
  5
577
  8
DATA
  6
CONTINUOUS
 62
     7
 10
-1615.8885
 20
-3.549999999999045
 30
0.0
 11
-1608.6368
 21
35.655000000000882
 31
0.0
  0
LINE
  5
578
  8
DATA
  6
CONTINUOUS
 62
     7
 10
-1771.2856999999999
 20
44.189300000001147
 30
0.0
 11
-1771.2856999999999
 21
51.161700000001019
 31
0.0
  0
LINE
  5
579
  8
DATA
  6
CONTINUOUS
 62
     7
 10
-1734.8874999999989
 20
-3.549999999999045
 30
0.0
 11
-1742.1391999999989
 21
35.655000000000882
 31
0.0
  0
LINE
  5
57A
  8
DATA
  6
CONTINUOUS
 62
     7
 10
-1734.8874999999989
 20
-4.3499999999990004
 30
0.0
 11
-1734.8874999999989
 21
-3.549999999999045
 31
0.0
  0
LINE
  5
57B
  8
DATA
  6
CONTINUOUS
 62
     7
 10
-1742.1391999999989
 20
35.655000000000882
 30
0.0
 11
-1771.2856999999999
 21
44.189300000001147
 31
0.0
  0
ENDSEC
  0
EOF
