  0
SECTION
  2
HEADER
  9
$ACADVER
  1
AC1009
  9
$INSBASE
 10
0.0
 20
0.0
 30
0.0
  9
$EXTMIN
 10
-3500.2197097989501
 20
-5217.3555983393917
 30
-0.0015258207003583
  9
$EXTMAX
 10
3700.219743326561
 20
5478.0668152803337
 30
0.0000000349246037
  9
$LIMMIN
 10
0.0
 20
0.0
  9
$LIMMAX
 10
0.0
 20
0.0
  9
$ORTHOMODE
 70
     0
  9
$REGENMODE
 70
     1
  9
$FILLMODE
 70
     1
  9
$QTEXTMODE
 70
     0
  9
$MIRRTEXT
 70
     1
  9
$DRAGMODE
 70
     2
  9
$LTSCALE
 40
203.19999999999999
  9
$OSMODE
 70
   167
  9
$ATTMODE
 70
     1
  9
$TEXTSIZE
 40
0.0
  9
$TRACEWID
 40
1.0
  9
$TEXTSTYLE
  7
STANDARD
  9
$CLAYER
  8
0
  9
$CELTYPE
  6
CONTINUOUS
  9
$CECOLOR
 62
   256
  9
$DIMSCALE
 40
1.0
  9
$DIMASZ
 40
0.18
  9
$DIMEXO
 40
0.0625
  9
$DIMDLI
 40
0.38
  9
$DIMRND
 40
0.0
  9
$DIMDLE
 40
0.0
  9
$DIMEXE
 40
0.18
  9
$DIMTP
 40
0.0
  9
$DIMTM
 40
0.0
  9
$DIMTXT
 40
0.18
  9
$DIMCEN
 40
0.09
  9
$DIMTSZ
 40
0.0
  9
$DIMTOL
 70
     0
  9
$DIMLIM
 70
     0
  9
$DIMTIH
 70
     1
  9
$DIMTOH
 70
     1
  9
$DIMSE1
 70
     0
  9
$DIMSE2
 70
     0
  9
$DIMTAD
 70
     0
  9
$DIMZIN
 70
     0
  9
$DIMBLK
  1

  9
$DIMASO
 70
     1
  9
$DIMSHO
 70
     1
  9
$DIMPOST
  1

  9
$DIMAPOST
  1

  9
$DIMALT
 70
     0
  9
$DIMALTD
 70
     2
  9
$DIMALTF
 40
25.399999999999999
  9
$DIMLFAC
 40
1.0
  9
$DIMTOFL
 70
     0
  9
$DIMTVP
 40
0.0
  9
$DIMTIX
 70
     0
  9
$DIMSOXD
 70
     0
  9
$DIMSAH
 70
     0
  9
$DIMBLK1
  1

  9
$DIMBLK2
  1

  9
$DIMSTYLE
  2
STANDARD
  9
$DIMCLRD
 70
     0
  9
$DIMCLRE
 70
     0
  9
$DIMCLRT
 70
     0
  9
$DIMTFAC
 40
1.0
  9
$DIMGAP
 40
0.09
  9
$LUNITS
 70
     2
  9
$LUPREC
 70
     4
  9
$SKETCHINC
 40
0.1
  9
$FILLETRAD
 40
0.0
  9
$AUNITS
 70
     0
  9
$AUPREC
 70
     0
  9
$MENU
  1
acad
  9
$ELEVATION
 40
0.0
  9
$PELEVATION
 40
0.0
  9
$THICKNESS
 40
0.0
  9
$LIMCHECK
 70
     0
  9
$BLIPMODE
 70
     0
  9
$CHAMFERA
 40
0.0
  9
$CHAMFERB
 40
0.0
  9
$SKPOLY
 70
     0
  9
$TDCREATE
 40
2452707.642280092
  9
$TDUPDATE
 40
2452707.6452041669
  9
$TDINDWG
 40
0.000287963
  9
$TDUSRTIMER
 40
0.000287963
  9
$USRTIMER
 70
     1
  9
$ANGBASE
 50
0.0
  9
$ANGDIR
 70
     0
  9
$PDMODE
 70
     1
  9
$PDSIZE
 40
-2.0
  9
$PLINEWID
 40
0.0
  9
$COORDS
 70
     0
  9
$SPLFRAME
 70
     0
  9
$SPLINETYPE
 70
     6
  9
$SPLINESEGS
 70
     8
  9
$ATTDIA
 70
     0
  9
$ATTREQ
 70
     1
  9
$HANDLING
 70
     1
  9
$HANDSEED
  5
783
  9
$SURFTAB1
 70
     6
  9
$SURFTAB2
 70
     6
  9
$SURFTYPE
 70
     6
  9
$SURFU
 70
     6
  9
$SURFV
 70
     6
  9
$UCSNAME
  2

  9
$UCSORG
 10
0.0
 20
0.0
 30
0.0
  9
$UCSXDIR
 10
1.0
 20
0.0
 30
0.0
  9
$UCSYDIR
 10
0.0
 20
1.0
 30
0.0
  9
$PUCSNAME
  2

  9
$PUCSORG
 10
0.0
 20
0.0
 30
0.0
  9
$PUCSXDIR
 10
1.0
 20
0.0
 30
0.0
  9
$PUCSYDIR
 10
0.0
 20
1.0
 30
0.0
  9
$USERI1
 70
     0
  9
$USERI2
 70
     0
  9
$USERI3
 70
     0
  9
$USERI4
 70
     0
  9
$USERI5
 70
     0
  9
$USERR1
 40
0.0
  9
$USERR2
 40
0.0
  9
$USERR3
 40
0.0
  9
$USERR4
 40
0.0
  9
$USERR5
 40
0.0
  9
$WORLDVIEW
 70
     1
  9
$SHADEDGE
 70
     3
  9
$SHADEDIF
 70
    70
  9
$TILEMODE
 70
     1
  9
$MAXACTVP
 70
    16
  9
$PLIMCHECK
 70
     0
  9
$PEXTMIN
 10
1.0000000000000000E+020
 20
1.0000000000000000E+020
 30
1.0000000000000000E+020
  9
$PEXTMAX
 10
-1.0000000000000000E+020
 20
-1.0000000000000000E+020
 30
-1.0000000000000000E+020
  9
$PLIMMIN
 10
0.0
 20
0.0
  9
$PLIMMAX
 10
12.0
 20
9.0
  9
$UNITMODE
 70
     0
  9
$VISRETAIN
 70
     0
  9
$PLINEGEN
 70
     1
  9
$PSLTSCALE
 70
     0
  0
ENDSEC
  0
SECTION
  2
TABLES
  0
TABLE
  2
VPORT
 70
     2
  0
VPORT
  2
*ACTIVE
 70
     0
 10
0.0
 20
0.0
 11
1.0
 21
1.0
 12
100.00001676380541
 22
130.35560847047049
 13
0.0
 23
0.0
 14
1.0
 24
1.0
 15
0.0
 25
0.0
 16
0.0
 26
0.0
 36
1.0
 17
0.0
 27
0.0
 37
0.0
 40
10810.426955701651
 41
1.7037701974865349
 42
50.0
 43
0.0
 44
0.0
 50
0.0
 51
0.0
 71
     0
 72
   100
 73
     1
 74
     1
 75
     0
 76
     0
 77
     0
 78
     0
  0
ENDTAB
  0
TABLE
  2
LTYPE
 70
    11
  0
LTYPE
  2
CONTINUOUS
 70
     0
  3
Solid line
 72
    65
 73
     0
 40
0.0
  0
LTYPE
  2
STYLE_01
 70
     0
  3

 72
    65
 73
     2
 40
0.4166412353515625
 49
0.208282470703125
 49
-0.2083587646484375
  0
LTYPE
  2
STYLE_02
 70
     0
  3

 72
    65
 73
     2
 40
0.694427490234375
 49
0.4860687255859375
 49
-0.2083587646484375
  0
LTYPE
  2
STYLE_03
 70
     0
  3

 72
    65
 73
     2
 40
1.25
 49
1.0416412353515621
 49
-0.2083587646484375
  0
LTYPE
  2
STYLE_04
 70
     0
  3

 72
    65
 73
     2
 40
1.5277099609375
 49
1.319427490234375
 49
-0.208282470703125
  0
LTYPE
  2
STYLE_05
 70
     0
  3

 72
    65
 73
     2
 40
0.208282470703125
 49
0.069427490234375
 49
-0.13885498046875
  0
LTYPE
  2
STYLE_06
 70
     0
  3

 72
    65
 73
     4
 40
1.0416412353515621
 49
0.625
 49
-0.208282470703125
 49
0.069427490234375
 49
-0.1389312744140625
  0
LTYPE
  2
STYLE_07
 70
     0
  3

 72
    65
 73
     6
 40
1.875
 49
0.625
 49
-0.208282470703125
 49
0.625
 49
-0.2083587646484375
 49
0.069427490234375
 49
-0.1389312744140625
  0
LTYPE
  2
STYLE_08
 70
     0
  3

 72
    65
 73
     6
 40
1.25
 49
0.625
 49
-0.208282470703125
 49
0.069427490234375
 49
-0.1389312744140625
 49
0.069427490234375
 49
-0.1389312744140625
  0
LTYPE
  2
STYLE_09
 70
     0
  3

 72
    65
 73
     4
 40
5.0
 49
3.75
 49
-0.2777862548828125
 49
0.694427490234375
 49
-0.2777862548828125
  0
LTYPE
  2
STYLE_10
 70
     0
  3

 72
    65
 73
     6
 40
5.9375
 49
3.75
 49
-0.2777862548828125
 49
0.694427490234375
 49
-0.2777862548828125
 49
0.625
 49
-0.3125
  0
ENDTAB
  0
TABLE
  2
LAYER
 70
     6
  0
LAYER
  2
0
 70
     0
 62
     7
  6
CONTINUOUS
  0
LAYER
  2
HIBINO-BASE
 70
     0
 62
     7
  6
CONTINUOUS
  0
LAYER
  2
PATTERN_FILL
 70
     0
 62
     7
  6
CONTINUOUS
  0
LAYER
  2
SPEC
 70
     0
 62
     7
  6
CONTINUOUS
  0
LAYER
  2
DIMNSIONS
 70
     0
 62
     7
  6
CONTINUOUS
  0
LAYER
  2
DATA
 70
     0
 62
     7
  6
CONTINUOUS
  0
ENDTAB
  0
TABLE
  2
STYLE
 70
     2
  0
STYLE
  2
STANDARD
 70
     0
 40
0.0
 41
1.0
 50
0.0
 71
     0
 42
0.0
  3
txt
  4
BIGFONT.SHX
  0
ENDTAB
  0
TABLE
  2
VIEW
 70
     0
  0
ENDTAB
  0
TABLE
  2
UCS
 70
     0
  0
ENDTAB
  0
TABLE
  2
APPID
 70
     1
  0
APPID
  2
ACAD
 70
     0
  0
ENDTAB
  0
TABLE
  2
DIMSTYLE
 70
     1
  0
DIMSTYLE
  2
STANDARD
 70
     0
  3

  4

  5

  6

  7

 40
1.0
 41
0.18
 42
0.0625
 43
0.38
 44
0.18
 45
0.0
 46
0.0
 47
0.0
 48
0.0
140
0.18
141
0.09
142
0.0
143
25.399999999999999
144
1.0
145
0.0
146
1.0
147
0.09
 71
     0
 72
     0
 73
     1
 74
     1
 75
     0
 76
     0
 77
     0
 78
     0
170
     0
171
     2
172
     0
173
     0
174
     0
175
     0
176
     0
177
     0
178
     0
  0
ENDTAB
  0
ENDSEC
  0
SECTION
  2
BLOCKS
  0
BLOCK
  8
0
  2
$MODEL_SPACE
 70
     0
 10
0.0
 20
0.0
 30
0.0
  3
$MODEL_SPACE
  1

  0
ENDBLK
  5
75C
  8
0
  0
BLOCK
 67
     1
  8
0
  2
$PAPER_SPACE
 70
     0
 10
0.0
 20
0.0
 30
0.0
  3
$PAPER_SPACE
  1

  0
ENDBLK
  5
758
 67
     1
  8
0
  0
BLOCK
  8
PATTERN_FILL
  2
*U0
 70
     1
 10
0.0
 20
0.0
 30
0.0
  3
*U0
  1

  0
LINE
  5
36
  8
PATTERN_FILL
  6
CONTINUOUS
 62
     7
 10
278.7168302665969
 20
1110.271905029688
 30
0.0
 11
292.39479497030749
 21
1123.9498697333991
 31
0.0
  0
LINE
  5
37
  8
PATTERN_FILL
  6
CONTINUOUS
 62
     7
 10
280.2144062373751
 20
1106.112626750974
 30
0.0
 11
296.55407324902149
 21
1122.45229376262
 31
0.0
  0
LINE
  5
38
  8
PATTERN_FILL
  6
CONTINUOUS
 62
     7
 10
281.87126048686753
 20
1102.112626750974
 30
0.0
 11
300.55407324902149
 21
1120.795439513128
 31
0.0
  0
LINE
  5
39
  8
PATTERN_FILL
  6
CONTINUOUS
 62
     7
 10
284.6666999999963
 20
1099.25121201461
 30
0.0
 11
303.41548798538503
 21
1117.9999999999991
 31
0.0
  0
LINE
  5
3A
  8
PATTERN_FILL
  6
CONTINUOUS
 62
     7
 10
288.6666999999963
 20
1097.594357765118
 30
0.0
 11
305.0723422348774
 21
1113.9999999999991
 31
0.0
  0
LINE
  5
3B
  8
PATTERN_FILL
  6
CONTINUOUS
 62
     7
 10
292.66669999999681
 20
1095.9375035156261
 30
0.0
 11
306.72919648436942
 21
1109.9999999999991
 31
0.0
  0
LINE
  5
3C
  8
PATTERN_FILL
  6
CONTINUOUS
 62
     7
 10
302.32355424948958
 20
1099.9375035156261
 30
0.0
 11
302.72919648436931
 21
1100.343145750506
 31
0.0
  0
ENDBLK
  5
3D
  8
PATTERN_FILL
  0
BLOCK
  8
PATTERN_FILL
  2
*U1
 70
     1
 10
0.0
 20
0.0
 30
0.0
  3
*U1
  1

  0
LINE
  5
3F
  8
PATTERN_FILL
  6
CONTINUOUS
 62
     7
 10
149.28221334895309
 20
819.68423360250631
 30
0.0
 11
149.64924139748749
 21
820.05126165104082
 31
0.0
  0
LINE
  5
40
  8
PATTERN_FILL
  6
CONTINUOUS
 62
     7
 10
145.28221334895329
 20
810.02737935301423
 30
0.0
 11
159.30609564697971
 21
824.0512616510407
 31
0.0
  0
LINE
  5
41
  8
PATTERN_FILL
  6
CONTINUOUS
 62
     7
 10
146.92307307876061
 20
806.0113848333292
 30
0.0
 11
163.32209016666479
 21
822.41040192123307
 31
0.0
  0
LINE
  5
42
  8
PATTERN_FILL
  6
CONTINUOUS
 62
     7
 10
148.57992732825301
 20
802.01138483332932
 30
0.0
 11
167.32209016666491
 21
820.75354767174122
 31
0.0
  0
LINE
  5
43
  8
PATTERN_FILL
  6
CONTINUOUS
 62
     7
 10
151.43471691763949
 20
799.20932017322343
 30
0.0
 11
170.12415482677059
 21
817.89875808235445
 31
0.0
  0
LINE
  5
44
  8
PATTERN_FILL
  6
CONTINUOUS
 62
     7
 10
155.43471691763961
 20
797.55246592373089
 30
0.0
 11
171.78100907626299
 21
813.89875808235445
 31
0.0
  0
LINE
  5
45
  8
PATTERN_FILL
  6
CONTINUOUS
 62
     7
 10
159.57800067666909
 20
796.03889543326818
 30
0.0
 11
173.29457956672579
 21
809.75547432332462
 31
0.0
  0
LINE
  5
46
  8
PATTERN_FILL
  6
CONTINUOUS
 62
     7
 10
169.23485492616149
 20
800.03889543326795
 30
0.0
 11
169.29457956672579
 21
800.09862007383242
 31
0.0
  0
ENDBLK
  5
47
  8
PATTERN_FILL
  0
BLOCK
  8
PATTERN_FILL
  2
*U2
 70
     1
 10
0.0
 20
0.0
 30
0.0
  3
*U2
  1

  0
LINE
  5
49
  8
PATTERN_FILL
  6
CONTINUOUS
 62
     7
 10
888.55309645164164
 20
1113.644014030061
 30
0.0
 11
884.7835180214438
 21
1099.5757558054479
 31
0.0
  0
LINE
  5
4A
  8
PATTERN_FILL
  6
CONTINUOUS
 62
     7
 10
886.03859133269384
 20
1119.7145663908809
 30
0.0
 11
880.12541936304694
 21
1097.646308166268
 31
0.0
  0
LINE
  5
4B
  8
PATTERN_FILL
  6
CONTINUOUS
 62
     7
 10
882.35696313866799
 20
1121.4293561368249
 30
0.0
 11
875.57375047797984
 21
1096.114061848592
 31
0.0
  0
LINE
  5
4C
  8
PATTERN_FILL
  6
CONTINUOUS
 62
     7
 10
878.62955652835547
 20
1122.9732985072951
 30
0.0
 11
871.84634386766709
 21
1097.6580042190619
 31
0.0
  0
LINE
  5
4D
  8
PATTERN_FILL
  6
CONTINUOUS
 62
     7
 10
874.62802894115862
 20
1123.4942074646131
 30
0.0
 11
868.11893725735445
 21
1099.201946589533
 31
0.0
  0
LINE
  5
4E
  8
PATTERN_FILL
  6
CONTINUOUS
 62
     7
 10
869.96993028276211
 20
1121.5647598254329
 30
0.0
 11
864.93325245666165
 21
1102.767622277071
 31
0.0
  0
LINE
  5
4F
  8
PATTERN_FILL
  6
CONTINUOUS
 62
     7
 10
864.18197776140448
 20
1115.4186401645561
 30
0.0
 11
862.41874733771374
 21
1108.8381746378909
 31
0.0
  0
ENDBLK
  5
50
  8
PATTERN_FILL
  0
BLOCK
  8
PATTERN_FILL
  2
*U3
 70
     1
 10
0.0
 20
0.0
 30
0.0
  3
*U3
  1

  0
LINE
  5
52
  8
PATTERN_FILL
  6
CONTINUOUS
 62
     7
 10
1112.0501302665939
 20
1110.2719050296751
 30
0.0
 11
1125.7280949703149
 21
1123.9498697333961
 31
0.0
  0
LINE
  5
53
  8
PATTERN_FILL
  6
CONTINUOUS
 62
     7
 10
1113.5477062373759
 20
1106.112626750964
 30
0.0
 11
1129.887373249026
 21
1122.4522937626141
 31
0.0
  0
LINE
  5
54
  8
PATTERN_FILL
  6
CONTINUOUS
 62
     7
 10
1115.2045604868681
 20
1102.112626750964
 30
0.0
 11
1133.887373249026
 21
1120.795439513121
 31
0.0
  0
LINE
  5
55
  8
PATTERN_FILL
  6
CONTINUOUS
 62
     7
 10
1117.999999999998
 20
1099.2512120146009
 30
0.0
 11
1136.7487879853891
 21
1117.999999999992
 31
0.0
  0
LINE
  5
56
  8
PATTERN_FILL
  6
CONTINUOUS
 62
     7
 10
1121.999999999998
 20
1097.594357765109
 30
0.0
 11
1138.405642234881
 21
1113.999999999992
 31
0.0
  0
LINE
  5
57
  8
PATTERN_FILL
  6
CONTINUOUS
 62
     7
 10
1125.9999999999991
 20
1095.937503515617
 30
0.0
 11
1140.062496484373
 21
1109.999999999992
 31
0.0
  0
LINE
  5
58
  8
PATTERN_FILL
  6
CONTINUOUS
 62
     7
 10
1135.6568542494911
 20
1099.937503515617
 30
0.0
 11
1136.062496484373
 21
1100.3431457504989
 31
0.0
  0
ENDBLK
  5
59
  8
PATTERN_FILL
  0
BLOCK
  8
PATTERN_FILL
  2
*U4
 70
     1
 10
0.0
 20
0.0
 30
0.0
  3
*U4
  1

  0
LINE
  5
5B
  8
PATTERN_FILL
  6
CONTINUOUS
 62
     7
 10
1113.993816891106
 20
914.96436713958553
 30
0.0
 11
1121.0356203604081
 21
922.00617060888703
 31
0.0
  0
LINE
  5
5C
  8
PATTERN_FILL
  6
CONTINUOUS
 62
     7
 10
1112.7426048764969
 20
908.05630087548343
 30
0.0
 11
1127.9436866245101
 21
923.25738262349614
 31
0.0
  0
LINE
  5
5D
  8
PATTERN_FILL
  6
CONTINUOUS
 62
     7
 10
1114.39945912599
 20
904.05630087548354
 30
0.0
 11
1131.9436866245101
 21
921.60052837400406
 31
0.0
  0
LINE
  5
5E
  8
PATTERN_FILL
  6
CONTINUOUS
 62
     7
 10
1116.0563133754829
 20
900.05630087548354
 30
0.0
 11
1135.9436866245101
 21
919.94367412451152
 31
0.0
  0
LINE
  5
5F
  8
PATTERN_FILL
  6
CONTINUOUS
 62
     7
 10
1120.056313375482
 20
898.39944662599135
 30
0.0
 11
1137.600540874002
 21
915.94367412451095
 31
0.0
  0
LINE
  5
60
  8
PATTERN_FILL
  6
CONTINUOUS
 62
     7
 10
1124.0563133754829
 20
896.74259237649903
 30
0.0
 11
1139.257395123494
 21
911.94367412451095
 31
0.0
  0
LINE
  5
61
  8
PATTERN_FILL
  6
CONTINUOUS
 62
     7
 10
1130.964379639584
 20
897.99380439110826
 30
0.0
 11
1138.0061831088849
 21
905.03560786040919
 31
0.0
  0
ENDBLK
  5
62
  8
PATTERN_FILL
  0
BLOCK
  8
PATTERN_FILL
  2
*U5
 70
     1
 10
0.0
 20
0.0
 30
0.0
  3
*U5
  1

  0
LINE
  5
64
  8
PATTERN_FILL
  6
CONTINUOUS
 62
     7
 10
1313.993816891109
 20
914.96436713958553
 30
0.0
 11
1321.0356203604099
 21
922.00617060888658
 31
0.0
  0
LINE
  5
65
  8
PATTERN_FILL
  6
CONTINUOUS
 62
     7
 10
1312.7426048764989
 20
908.05630087548343
 30
0.0
 11
1327.9436866245121
 21
923.25738262349591
 31
0.0
  0
LINE
  5
66
  8
PATTERN_FILL
  6
CONTINUOUS
 62
     7
 10
1314.3994591259921
 20
904.05630087548388
 30
0.0
 11
1331.9436866245121
 21
921.60052837400349
 31
0.0
  0
LINE
  5
67
  8
PATTERN_FILL
  6
CONTINUOUS
 62
     7
 10
1316.056313375484
 20
900.05630087548354
 30
0.0
 11
1335.9436866245121
 21
919.94367412451129
 31
0.0
  0
LINE
  5
68
  8
PATTERN_FILL
  6
CONTINUOUS
 62
     7
 10
1320.056313375484
 20
898.39944662599089
 30
0.0
 11
1337.6005408740041
 21
915.94367412451095
 31
0.0
  0
LINE
  5
69
  8
PATTERN_FILL
  6
CONTINUOUS
 62
     7
 10
1324.056313375484
 20
896.74259237649858
 30
0.0
 11
1339.257395123497
 21
911.94367412451129
 31
0.0
  0
LINE
  5
6A
  8
PATTERN_FILL
  6
CONTINUOUS
 62
     7
 10
1330.964379639586
 20
897.99380439110826
 30
0.0
 11
1338.0061831088869
 21
905.03560786040885
 31
0.0
  0
ENDBLK
  5
6B
  8
PATTERN_FILL
  0
BLOCK
  8
PATTERN_FILL
  2
*U6
 70
     1
 10
0.0
 20
0.0
 30
0.0
  3
*U6
  1

  0
LINE
  5
6D
  8
PATTERN_FILL
  6
CONTINUOUS
 62
     7
 10
1313.993816891109
 20
1114.9643796395769
 30
0.0
 11
1321.0356203604099
 21
1122.0061831088781
 31
0.0
  0
LINE
  5
6E
  8
PATTERN_FILL
  6
CONTINUOUS
 62
     7
 10
1312.7426048764989
 20
1108.0563133754749
 30
0.0
 11
1327.9436866245121
 21
1123.257395123487
 31
0.0
  0
LINE
  5
6F
  8
PATTERN_FILL
  6
CONTINUOUS
 62
     7
 10
1314.3994591259921
 20
1104.0563133754749
 30
0.0
 11
1331.9436866245121
 21
1121.600540873995
 31
0.0
  0
LINE
  5
70
  8
PATTERN_FILL
  6
CONTINUOUS
 62
     7
 10
1316.056313375484
 20
1100.0563133754749
 30
0.0
 11
1335.9436866245121
 21
1119.9436866245021
 31
0.0
  0
LINE
  5
71
  8
PATTERN_FILL
  6
CONTINUOUS
 62
     7
 10
1320.056313375484
 20
1098.399459125982
 30
0.0
 11
1337.6005408740041
 21
1115.9436866245021
 31
0.0
  0
LINE
  5
72
  8
PATTERN_FILL
  6
CONTINUOUS
 62
     7
 10
1324.056313375484
 20
1096.7426048764901
 30
0.0
 11
1339.257395123497
 21
1111.9436866245021
 31
0.0
  0
LINE
  5
73
  8
PATTERN_FILL
  6
CONTINUOUS
 62
     7
 10
1330.964379639586
 20
1097.9938168911001
 30
0.0
 11
1338.0061831088869
 21
1105.035620360401
 31
0.0
  0
ENDBLK
  5
74
  8
PATTERN_FILL
  0
BLOCK
  8
PATTERN_FILL
  2
*U7
 70
     1
 10
0.0
 20
0.0
 30
0.0
  3
*U7
  1

  0
LINE
  5
76
  8
PATTERN_FILL
  6
CONTINUOUS
 62
     7
 10
1412.378593201965
 20
1111.06488470298
 30
0.0
 11
1424.935115297006
 21
1123.6214067980211
 31
0.0
  0
LINE
  5
77
  8
PATTERN_FILL
  6
CONTINUOUS
 62
     7
 10
1413.411652434809
 20
1106.4410896863319
 30
0.0
 11
1429.5589103136549
 21
1122.5883475651781
 31
0.0
  0
LINE
  5
78
  8
PATTERN_FILL
  6
CONTINUOUS
 62
     7
 10
1415.0685066843009
 20
1102.441089686331
 30
0.0
 11
1433.5589103136549
 21
1120.931493315685
 31
0.0
  0
LINE
  5
79
  8
PATTERN_FILL
  6
CONTINUOUS
 62
     7
 10
1417.671537064627
 20
1099.3872658171649
 30
0.0
 11
1436.6127341828219
 21
1118.3284629353591
 31
0.0
  0
LINE
  5
7A
  8
PATTERN_FILL
  6
CONTINUOUS
 62
     7
 10
1421.671537064627
 20
1097.7304115676729
 30
0.0
 11
1438.2695884323141
 21
1114.3284629353591
 31
0.0
  0
LINE
  5
7B
  8
PATTERN_FILL
  6
CONTINUOUS
 62
     7
 10
1425.671537064627
 20
1096.073557318181
 30
0.0
 11
1439.9264426818061
 21
1110.3284629353591
 31
0.0
  0
LINE
  5
7C
  8
PATTERN_FILL
  6
CONTINUOUS
 62
     7
 10
1434.8638745761821
 20
1099.609040580242
 30
0.0
 11
1436.390959419743
 21
1101.1361254238041
 31
0.0
  0
ENDBLK
  5
7D
  8
PATTERN_FILL
  0
ENDSEC
  0
SECTION
  2
ENTITIES
  0
LINE
  5
7E
  8
HIBINO-BASE
 62
     7
 10
-3499.9999999999991
 20
5477.740785
 30
0.0
 11
3700.0
 21
5477.740785
 31
0.0
  0
LINE
  5
7F
  8
HIBINO-BASE
 62
     7
 10
3700.0
 20
-4922.259215
 30
0.0
 11
-3499.9999999999991
 21
-4922.259215
 31
0.0
  0
LINE
  5
80
  8
HIBINO-BASE
 62
     7
 10
-3499.9999999999991
 20
-4922.259215
 30
0.0
 11
-3499.9999999999991
 21
5477.740785
 31
0.0
  0
TEXT
  5
81
  8
HIBINO-BASE
 62
     7
 10
-3212.639999999999
 20
-5167.3785749999979
 30
0.0
 40
149.70335999999989
  1
Hibino Corporation
 41
0.85
 11
-3212.639999999999
 21
-5017.6752149999984
 31
0.0
 73
     3
  0
LINE
  5
82
  8
HIBINO-BASE
 62
     7
 10
3700.0
 20
5477.740785
 30
0.0
 11
3700.0
 21
-4922.259215
 31
0.0
  0
LINE
  5
83
  8
HIBINO-BASE
 62
     7
 10
50.000000000000561
 20
-4022.259215
 30
0.0
 11
3700.0
 21
-4022.259215
 31
0.0
  0
TEXT
  5
84
  8
HIBINO-BASE
 62
     7
 10
2102.7355999999991
 20
-5167.3785749999979
 30
0.0
 40
149.70335999999989
  1
ヒビノ株式会社
 41
0.85
 11
2102.7355999999991
 21
-5017.6752149999984
 31
0.0
 73
     3
  0
LINE
  5
85
  8
HIBINO-BASE
 62
     7
 10
50.000000000000561
 20
-4522.259215
 30
0.0
 11
3700.0
 21
-4522.259215
 31
0.0
  0
TEXT
  5
86
  8
HIBINO-BASE
 62
     7
 10
2036.0
 20
-4615.274148333333
 30
0.0
 40
67.733333333333334
  1
DRAWN
 41
0.85
 11
2036.0
 21
-4547.5408150000003
 31
0.0
 73
     3
  0
TEXT
  5
87
  8
HIBINO-BASE
 62
     7
 10
3035.9999999999991
 20
-4615.274148333333
 30
0.0
 40
67.733333333333334
  1
DRAWING NO.
 41
0.85
 11
3035.9999999999991
 21
-4547.5408150000003
 31
0.0
 73
     3
  0
TEXT
  5
88
  8
HIBINO-BASE
 62
     7
 10
2535.9999999999991
 20
-4615.274148333333
 30
0.0
 40
67.733333333333334
  1
CHECK
 41
0.85
 11
2535.9999999999991
 21
-4547.5408150000003
 31
0.0
 73
     3
  0
LINE
  5
89
  8
HIBINO-BASE
 62
     7
 10
2000.0
 20
-4522.259215
 30
0.0
 11
2000.0
 21
-4922.259215
 31
0.0
  0
LINE
  5
8A
  8
HIBINO-BASE
 62
     7
 10
3000.0
 20
-4522.259215
 30
0.0
 11
3000.0
 21
-4922.259215
 31
0.0
  0
LINE
  5
8B
  8
HIBINO-BASE
 62
     7
 10
2500.0
 20
-4922.259215
 30
0.0
 11
2500.0
 21
-4522.259215
 31
0.0
  0
TEXT
  5
8C
  8
HIBINO-BASE
 62
     7
 10
2060.2324004413849
 20
-4802.6333483333328
 30
0.0
 40
67.733333333333334
  1
N.Sasaki
 41
0.85
 11
2060.2324004413849
 21
-4734.9000150000002
 31
0.0
 73
     3
  0
TEXT
  5
8D
  8
HIBINO-BASE
 62
     7
 10
255.33333333333391
 20
-4833.0592150000002
 30
0.0
 40
135.46666666666661
  1
A4
 41
0.85
 11
255.33333333333391
 21
-4697.592548333334
 31
0.0
 73
     3
  0
TEXT
  5
8E
  8
HIBINO-BASE
 62
     7
 10
1086.0
 20
-4615.274148333333
 30
0.0
 40
67.733333333333334
  1
DATE
 41
0.85
 11
1086.0
 21
-4547.5408150000003
 31
0.0
 73
     3
  0
TEXT
  5
8F
  8
HIBINO-BASE
 62
     7
 10
686.00000000000045
 20
-4615.274148333333
 30
0.0
 40
67.733333333333334
  1
SCALE
 41
0.85
 11
686.00000000000045
 21
-4547.5408150000003
 31
0.0
 73
     3
  0
LINE
  5
90
  8
HIBINO-BASE
 62
     7
 10
725.00000000000034
 20
-4872.259215
 30
0.0
 11
875.00000000000045
 21
-4722.259215
 31
0.0
  0
TEXT
  5
91
  8
HIBINO-BASE
 62
     7
 10
700.00000000000045
 20
-4761.5369483333334
 30
0.0
 40
67.733333333333334
  1
1
 41
0.85
 11
700.00000000000045
 21
-4693.8036149999998
 31
0.0
 73
     3
  0
LINE
  5
92
  8
HIBINO-BASE
 62
     7
 10
650.00000000000057
 20
-4922.259215
 30
0.0
 11
650.00000000000057
 21
-4522.259215
 31
0.0
  0
LINE
  5
93
  8
HIBINO-BASE
 62
     7
 10
1050.0
 20
-4922.259215
 30
0.0
 11
1050.0
 21
-4522.259215
 31
0.0
  0
TEXT
  5
94
  8
HIBINO-BASE
 62
     7
 10
1067.880027770175
 20
-4734.3767973757258
 30
0.0
 40
67.733333333333334
  1
'99.02.
 41
0.85
 11
1067.880027770175
 21
-4666.6434640423931
 31
0.0
 73
     3
  0
TEXT
  5
95
  8
HIBINO-BASE
 62
     7
 10
850.00000000000045
 20
-4836.5369483333334
 30
0.0
 40
67.733333333333334
  1
40
 41
0.85
 11
850.00000000000045
 21
-4768.8036149999998
 31
0.0
 73
     3
  0
LINE
  5
96
  8
HIBINO-BASE
 62
     7
 10
1550.0
 20
-4922.259215
 30
0.0
 11
1550.0
 21
-4022.259215
 31
0.0
  0
TEXT
  5
97
  8
HIBINO-BASE
 62
     7
 10
1586.0
 20
-4117.526948333335
 30
0.0
 40
67.733333333333334
  1
TITLE
 41
0.85
 11
1586.0
 21
-4049.793615000001
 31
0.0
 73
     3
  0
TEXT
  5
98
  8
HIBINO-BASE
 62
     7
 10
1586.0
 20
-4615.274148333333
 30
0.0
 40
67.733333333333334
  1
DESIGN
 41
0.85
 11
1586.0
 21
-4547.5408150000003
 31
0.0
 73
     3
  0
LINE
  5
99
  8
HIBINO-BASE
 62
     7
 10
50.000000000000561
 20
-4922.259215
 30
0.0
 11
50.000000000000561
 21
-4022.259215
 31
0.0
  0
TEXT
  5
9A
  8
HIBINO-BASE
 62
     7
 10
86.000000000000554
 20
-4117.526948333335
 30
0.0
 40
67.733333333333334
  1
NOTE
 41
0.85
 11
86.000000000000554
 21
-4049.793615000001
 31
0.0
 73
     3
  0
TEXT
  5
9B
  8
HIBINO-BASE
 62
     7
 10
88.333333333333968
 20
-4621.9574149999989
 30
0.0
 40
67.733333333333334
  1
PAPER SIZE
 41
0.85
 11
88.333333333333968
 21
-4554.2240816666663
 31
0.0
 73
     3
  0
TEXT
  5
9C
  8
HIBINO-BASE
 62
     7
 10
1067.880027770175
 20
-4861.1510521139344
 30
0.0
 40
67.733333333333334
  1
'03.03.修正
 41
0.85
 11
1067.880027770175
 21
-4793.4177187805999
 31
0.0
 73
     3
  0
INSERT
  5
9D
  8
PATTERN_FILL
 62
     7
  2
*U0
 10
100.0
 20
140.0
 30
0.0
  0
INSERT
  5
9E
  8
PATTERN_FILL
 62
     7
  2
*U1
 10
100.0
 20
140.0
 30
0.0
  0
INSERT
  5
9F
  8
PATTERN_FILL
 62
     7
  2
*U2
 10
100.0
 20
140.0
 30
0.0
  0
INSERT
  5
A0
  8
PATTERN_FILL
 62
     7
  2
*U3
 10
100.0
 20
140.0
 30
0.0
  0
INSERT
  5
A1
  8
PATTERN_FILL
 62
     7
  2
*U4
 10
100.0
 20
140.0
 30
0.0
  0
INSERT
  5
A2
  8
PATTERN_FILL
 62
     7
  2
*U5
 10
100.0
 20
140.0
 30
0.0
  0
INSERT
  5
A3
  8
PATTERN_FILL
 62
     7
  2
*U6
 10
100.0
 20
140.0
 30
0.0
  0
INSERT
  5
A4
  8
PATTERN_FILL
 62
     7
  2
*U7
 10
100.0
 20
140.0
 30
0.0
  0
LINE
  5
A5
  8
SPEC
 62
     7
 10
-3199.9999999999991
 20
5077.7407849999991
 30
0.0
 11
2700.0
 21
5077.7407849999991
 31
0.0
  0
LINE
  5
A6
  8
SPEC
 62
     7
 10
-3199.9999999999991
 20
4927.7407849999991
 30
0.0
 11
2700.0
 21
4927.7407849999991
 31
0.0
  0
LINE
  5
A7
  8
SPEC
 62
     7
 10
-3199.9999999999991
 20
4627.7407849999991
 30
0.0
 11
2700.0
 21
4627.7407849999991
 31
0.0
  0
LINE
  5
A8
  8
SPEC
 62
     7
 10
-3199.9999999999991
 20
4777.7407849999981
 30
0.0
 11
2700.0
 21
4777.7407849999981
 31
0.0
  0
LINE
  5
A9
  8
SPEC
 62
     7
 10
-3199.9999999999991
 20
3727.740785
 30
0.0
 11
2700.0
 21
3727.740785
 31
0.0
  0
LINE
  5
AA
  8
SPEC
 62
     7
 10
-3199.9999999999991
 20
3577.7407849999991
 30
0.0
 11
2700.0
 21
3577.7407849999991
 31
0.0
  0
LINE
  5
AB
  8
SPEC
 62
     7
 10
-3199.9999999999991
 20
3277.7407849999991
 30
0.0
 11
2700.0
 21
3277.7407849999991
 31
0.0
  0
LINE
  5
AC
  8
SPEC
 62
     7
 10
-3199.9999999999991
 20
3427.7407849999991
 30
0.0
 11
2700.0
 21
3427.7407849999991
 31
0.0
  0
LINE
  5
AD
  8
SPEC
 62
     7
 10
-3199.9999999999991
 20
2977.7407849999991
 30
0.0
 11
2700.0
 21
2977.7407849999991
 31
0.0
  0
LINE
  5
AE
  8
SPEC
 62
     7
 10
-3199.9999999999991
 20
2677.740785
 30
0.0
 11
2700.0
 21
2677.740785
 31
0.0
  0
LINE
  5
AF
  8
SPEC
 62
     7
 10
-3199.9999999999991
 20
2827.7407849999991
 30
0.0
 11
2700.0
 21
2827.7407849999991
 31
0.0
  0
LINE
  5
B0
  8
SPEC
 62
     7
 10
-3199.9999999999991
 20
5077.7407849999991
 30
0.0
 11
-3199.9999999999991
 21
2677.740785
 31
0.0
  0
TEXT
  5
B1
  8
SPEC
 62
     7
 10
-3149.9999999999991
 20
5141.0915849999992
 30
0.0
 40
101.59999999999999
  1
仕様
 41
0.85
 11
-3149.9999999999991
 21
5242.6915849999996
 31
0.0
 73
     3
  0
LINE
  5
B2
  8
SPEC
 62
     7
 10
-1900.0
 20
5077.7407849999991
 30
0.0
 11
-1900.0
 21
2677.740785
 31
0.0
  0
LINE
  5
B3
  8
SPEC
 62
     7
 10
2700.0
 20
5077.7407849999991
 30
0.0
 11
2700.0
 21
2677.740785
 31
0.0
  0
LINE
  5
B4
  8
SPEC
 62
     7
 10
-3199.9999999999982
 20
4477.740785
 30
0.0
 11
2700.0
 21
4477.740785
 31
0.0
  0
LINE
  5
B5
  8
SPEC
 62
     7
 10
1100.0
 20
4177.740785
 30
0.0
 11
1100.0
 21
4477.740785
 31
0.0
  0
LINE
  5
B6
  8
SPEC
 62
     7
 10
-3199.9999999999991
 20
4177.740785
 30
0.0
 11
2700.0
 21
4177.740785
 31
0.0
  0
LINE
  5
B7
  8
SPEC
 62
     7
 10
-3199.9999999999991
 20
4327.7407849999981
 30
0.0
 11
2700.0
 21
4327.7407849999981
 31
0.0
  0
LINE
  5
B8
  8
SPEC
 62
     7
 10
-3199.9999999999991
 20
4027.740785
 30
0.0
 11
2700.0
 21
4027.740785
 31
0.0
  0
LINE
  5
B9
  8
SPEC
 62
     7
 10
-3199.9999999999991
 20
3877.740785
 30
0.0
 11
2700.0
 21
3877.740785
 31
0.0
  0
LINE
  5
BA
  8
SPEC
 62
     7
 10
-3199.9999999999991
 20
3127.7407849999991
 30
0.0
 11
2700.0
 21
3127.7407849999991
 31
0.0
  0
TEXT
  5
BB
  8
SPEC
 62
     7
 10
-1864.0
 20
4965.1843405555564
 30
0.0
 40
79.022222222222226
  1
2WAY映画用スピーカシステム(Cinema Loudspeaker Systems)
 41
0.85
 11
-1864.0
 21
5044.2065627777774
 31
0.0
 73
     3
  0
TEXT
  5
BC
  8
SPEC
 62
     7
 10
-1864.0
 20
3165.1843405555542
 30
0.0
 40
79.022222222222226
  1
SPユニットは低域は前面側で、高域は裏面側で交換
 41
0.85
 11
-1864.0
 21
3244.2065627777761
 31
0.0
 73
     3
  0
TEXT
  5
BD
  8
SPEC
 62
     7
 10
-1864.0
 20
3015.1843405555542
 30
0.0
 40
79.022222222222226
  1
プッシュ式ターミナル
 41
0.85
 11
-1864.0
 21
3094.2065627777761
 31
0.0
 73
     3
  0
TEXT
  5
BE
  8
SPEC
 62
     7
 10
-1864.0
 20
2715.1843405555542
 30
0.0
 40
79.022222222222226
  1
約110kg
 41
0.85
 11
-1864.0
 21
2794.2065627777761
 31
0.0
 73
     3
  0
TEXT
  5
BF
  8
SPEC
 62
     7
 10
-1864.0
 20
3315.1843405555528
 30
0.0
 40
79.022222222222226
  1
ネットワーク:正相(低域),正相(高域)
 41
0.85
 11
-1864.0
 21
3394.2065627777761
 31
0.0
 73
     3
  0
TEXT
  5
C0
  8
SPEC
 62
     7
 10
-1864.0
 20
4365.1843405555546
 30
0.0
 40
79.022222222222226
  1
2035HPL×2(口径:15インチ)
 41
0.85
 11
-1864.0
 21
4444.2065627777774
 31
0.0
 73
     3
  0
TEXT
  5
C1
  8
SPEC
 62
     7
 10
-1864.0
 20
4215.1843405555546
 30
0.0
 40
79.022222222222226
  1
2446H(ダイアフラム径:4インチ)
 41
0.85
 11
-1864.0
 21
4294.2065627777774
 31
0.0
 73
     3
  0
TEXT
  5
C2
  8
SPEC
 62
     7
 10
-1864.0
 20
3465.1843405555542
 30
0.0
 40
79.022222222222226
  1
黒
 41
0.85
 11
-1864.0
 21
3544.2065627777761
 31
0.0
 73
     3
  0
TEXT
  5
C3
  8
SPEC
 62
     7
 10
-1864.0
 20
3615.1843405555542
 30
0.0
 40
79.022222222222226
  1
(ネットワーク):630Hz
 41
0.85
 11
-1864.0
 21
3694.206562777777
 31
0.0
 73
     3
  0
TEXT
  5
C4
  8
SPEC
 62
     7
 10
-1864.0
 20
4515.1843405555546
 30
0.0
 40
79.022222222222226
  1
90゜×40゜
 41
0.85
 11
-1864.0
 21
4594.2065627777774
 31
0.0
 73
     3
  0
TEXT
  5
C5
  8
SPEC
 62
     7
 10
-1864.0
 20
4065.1843405555551
 30
0.0
 40
79.022222222222226
  1
100dB SPL
 41
0.85
 11
-1864.0
 21
4144.2065627777774
 31
0.0
 73
     3
  0
TEXT
  5
C6
  8
SPEC
 62
     7
 10
-1864.0
 20
3915.1843405555542
 30
0.0
 40
79.022222222222226
  1
4Ω
 41
0.85
 11
-1864.0
 21
3994.206562777777
 31
0.0
 73
     3
  0
TEXT
  5
C7
  8
SPEC
 62
     7
 10
-1864.0
 20
3765.1843405555542
 30
0.0
 40
79.022222222222226
  1
(IEC):600W
 41
0.85
 11
-1864.0
 21
3844.206562777777
 31
0.0
 73
     3
  0
TEXT
  5
C8
  8
SPEC
 62
     7
 10
-1864.0
 20
4815.1843405555546
 30
0.0
 40
79.022222222222226
  1
35Hz～20kHz
 41
0.85
 11
-1864.0
 21
4894.2065627777774
 31
0.0
 73
     3
  0
TEXT
  5
C9
  8
SPEC
 62
     7
 10
-1864.0
 20
4665.1843405555546
 30
0.0
 40
79.022222222222226
  1
40Hz～16kHz
 41
0.85
 11
-1864.0
 21
4744.2065627777774
 31
0.0
 73
     3
  0
TEXT
  5
CA
  8
SPEC
 62
     7
 10
-3164.0
 20
3315.1843405555528
 30
0.0
 40
79.022222222222226
  1
極性
 41
0.85
 11
-3164.0
 21
3394.2065627777761
 31
0.0
 73
     3
  0
TEXT
  5
CB
  8
SPEC
 62
     7
 10
-3164.0
 20
3015.1843405555542
 30
0.0
 40
79.022222222222226
  1
コネクター
 41
0.85
 11
-3164.0
 21
3094.2065627777761
 31
0.0
 73
     3
  0
TEXT
  5
CC
  8
SPEC
 62
     7
 10
-3164.0
 20
3165.1843405555542
 30
0.0
 40
79.022222222222226
  1
メンテナンス
 41
0.85
 11
-3164.0
 21
3244.2065627777761
 31
0.0
 73
     3
  0
TEXT
  5
CD
  8
SPEC
 62
     7
 10
-3164.0
 20
2715.1843405555542
 30
0.0
 40
79.022222222222226
  1
重量
 41
0.85
 11
-3164.0
 21
2794.2065627777761
 31
0.0
 73
     3
  0
TEXT
  5
CE
  8
SPEC
 62
     7
 10
-3164.0
 20
2865.1843405555542
 30
0.0
 40
79.022222222222226
  1
寸法
 41
0.85
 11
-3164.0
 21
2944.2065627777761
 31
0.0
 73
     3
  0
TEXT
  5
CF
  8
SPEC
 62
     7
 10
-3164.0
 20
4665.1843405555546
 30
0.0
 40
79.022222222222226
  1
周波数特性 (±3dB)
 41
0.85
 11
-3164.0
 21
4744.2065627777774
 31
0.0
 73
     3
  0
TEXT
  5
D0
  8
SPEC
 62
     7
 10
-3164.0
 20
4815.1843405555546
 30
0.0
 40
79.022222222222226
  1
周波数レンジ (-10dB)
 41
0.85
 11
-3164.0
 21
4894.2065627777774
 31
0.0
 73
     3
  0
TEXT
  5
D1
  8
SPEC
 62
     7
 10
-3164.0
 20
4515.1843405555546
 30
0.0
 40
79.022222222222226
  1
公称カバレージ
 41
0.85
 11
-3164.0
 21
4594.2065627777774
 31
0.0
 73
     3
  0
TEXT
  5
D2
  8
SPEC
 62
     7
 10
-3164.0
 20
4365.1843405555546
 30
0.0
 40
79.022222222222226
  1
低域ユニット
 41
0.85
 11
-3164.0
 21
4444.2065627777774
 31
0.0
 73
     3
  0
TEXT
  5
D3
  8
SPEC
 62
     7
 10
-3164.0
 20
4065.1843405555551
 30
0.0
 40
79.022222222222226
  1
音圧レベル (1W/1m)
 41
0.85
 11
-3164.0
 21
4144.2065627777774
 31
0.0
 73
     3
  0
TEXT
  5
D4
  8
SPEC
 62
     7
 10
-3164.0
 20
4215.1843405555546
 30
0.0
 40
79.022222222222226
  1
高域ユニット
 41
0.85
 11
-3164.0
 21
4294.2065627777774
 31
0.0
 73
     3
  0
TEXT
  5
D5
  8
SPEC
 62
     7
 10
-3164.0
 20
3915.1843405555542
 30
0.0
 40
79.022222222222226
  1
公称インピーダンス
 41
0.85
 11
-3164.0
 21
3994.206562777777
 31
0.0
 73
     3
  0
TEXT
  5
D6
  8
SPEC
 62
     7
 10
-3164.0
 20
3765.1843405555542
 30
0.0
 40
79.022222222222226
  1
許容入力
 41
0.85
 11
-3164.0
 21
3844.206562777777
 31
0.0
 73
     3
  0
TEXT
  5
D7
  8
SPEC
 62
     7
 10
-3164.0
 20
3615.1843405555542
 30
0.0
 40
79.022222222222226
  1
クロスオーバー
 41
0.85
 11
-3164.0
 21
3694.206562777777
 31
0.0
 73
     3
  0
TEXT
  5
D8
  8
SPEC
 62
     7
 10
-3164.0
 20
3465.1843405555542
 30
0.0
 40
79.022222222222226
  1
仕上げ
 41
0.85
 11
-3164.0
 21
3544.2065627777761
 31
0.0
 73
     3
  0
TEXT
  5
D9
  8
SPEC
 62
     7
 10
-3164.0
 20
4965.1843405555564
 30
0.0
 40
79.022222222222226
  1
形式
 41
0.85
 11
-3164.0
 21
5044.2065627777774
 31
0.0
 73
     3
  0
TEXT
  5
DA
  8
SPEC
 62
     7
 10
1136.0
 20
4215.1843405555546
 30
0.0
 40
79.022222222222226
  1
振動板交換パーツ : D8R2450
 41
0.85
 11
1136.0
 21
4294.2065627777774
 31
0.0
 73
     3
  0
TEXT
  5
DB
  8
SPEC
 62
     7
 10
1136.0
 20
4365.1843405555546
 30
0.0
 40
79.022222222222226
  1
振動板交換パーツ : C8R2035
 41
0.85
 11
1136.0
 21
4444.2065627777774
 31
0.0
 73
     3
  0
LINE
  5
DC
  8
SPEC
 62
     7
 10
105.99999999999631
 20
293.99998749999492
 30
0.0
 11
-254.00000000000179
 21
293.99998749999492
 31
0.0
  0
LINE
  5
DD
  8
SPEC
 62
     7
 10
-254.00000000000179
 20
749.99998749999759
 30
0.0
 11
105.99999999999631
 21
749.99998749999759
 31
0.0
  0
LINE
  5
DE
  8
SPEC
 62
     7
 10
-148.0
 20
950.00007499999822
 30
0.0
 11
525.99999999999818
 21
950.00007499999822
 31
0.0
  0
LINE
  5
DF
  8
SPEC
 62
     7
 10
77.999999999998153
 20
447.99998749999838
 30
0.0
 11
-226.00000000000361
 21
447.99998749999838
 31
0.0
  0
LINE
  5
E0
  8
SPEC
 62
     7
 10
77.999999999998153
 20
391.99998749999389
 30
0.0
 11
-226.00000000000361
 21
391.99998749999389
 31
0.0
  0
LINE
  5
E1
  8
SPEC
 62
     7
 10
-226.00000000000361
 20
579.99998749999565
 30
0.0
 11
77.999999999998153
 21
579.99998749999565
 31
0.0
  0
LINE
  5
E2
  8
SPEC
 62
     7
 10
-226.00000000000361
 20
651.99998749999941
 30
0.0
 11
77.999999999998153
 21
651.99998749999941
 31
0.0
  0
LINE
  5
E3
  8
SPEC
 62
     7
 10
46.000000000001812
 20
503.9999874999956
 30
0.0
 11
-45.999999999998209
 21
503.9999874999956
 31
0.0
  0
LINE
  5
E4
  8
SPEC
 62
     7
 10
46.000000000001812
 20
475.99998749999759
 30
0.0
 11
-45.999999999998209
 21
475.99998749999759
 31
0.0
  0
LINE
  5
E5
  8
SPEC
 62
     7
 10
-60.000000000000021
 20
639.99998749999838
 30
0.0
 11
59.999999999996341
 21
639.99998749999838
 31
0.0
  0
LINE
  5
E6
  8
SPEC
 62
     7
 10
59.999999999996341
 20
591.99998749999656
 30
0.0
 11
-60.000000000000021
 21
591.99998749999656
 31
0.0
  0
TEXT
  5
E7
  8
SPEC
 62
     7
 10
-19.999999999998181
 20
149.99998749999929
 30
0.0
 40
85.9375
  1
RED (+)
 41
0.85
 11
-19.999999999998181
 21
235.93748749999929
 31
0.0
 73
     3
  0
LINE
  5
E8
  8
SPEC
 62
     7
 10
0.0
 20
1250.0
 30
0.0
 11
525.99999999999818
 21
1250.0
 31
0.0
  0
LINE
  5
E9
  8
SPEC
 62
     7
 10
-266.00000000000182
 20
345.99998749999492
 30
0.0
 11
-233.9999999999981
 21
345.99998749999492
 31
0.0
  0
CIRCLE
  5
EA
  8
SPEC
 62
     7
 10
-249.99999999999639
 20
345.99998749999492
 30
0.0
 40
24.0
  0
LINE
  5
EB
  8
SPEC
 62
     7
 10
-266.00000000000182
 20
697.99998749999838
 30
0.0
 11
-233.9999999999981
 21
697.99998749999838
 31
0.0
  0
CIRCLE
  5
EC
  8
SPEC
 62
     7
 10
-249.99999999999639
 20
697.99998749999838
 30
0.0
 40
24.0
  0
TEXT
  5
ED
  8
SPEC
 62
     7
 10
-426.22876886195451
 20
149.99998749999929
 30
0.0
 40
85.9375
  1
BLK (-)
 41
0.85
 11
-426.22876886195451
 21
235.93748749999929
 31
0.0
 73
     3
  0
LINE
  5
EE
  8
SPEC
 62
     7
 10
-301.99999999999812
 20
341.9999874999985
 30
0.0
 11
-301.99999999999812
 21
701.99998749999747
 31
0.0
  0
ARC
  5
EF
  8
SPEC
 62
     7
 10
-254.00000000000179
 20
341.9999874999985
 30
0.0
 40
48.0
 50
180.0
 51
270.0
  0
LINE
  5
F0
  8
SPEC
 62
     7
 10
-249.99999999999639
 20
329.9999874999985
 30
0.0
 11
-249.99999999999639
 21
361.99998749999492
 31
0.0
  0
ARC
  5
F1
  8
SPEC
 62
     7
 10
-254.00000000000179
 20
701.99998749999747
 30
0.0
 40
48.0
 50
90.0
 51
180.0
  0
LINE
  5
F2
  8
SPEC
 62
     7
 10
-249.99999999999639
 20
681.99998749999486
 30
0.0
 11
-249.99999999999639
 21
713.99998749999838
 31
0.0
  0
LINE
  5
F3
  8
SPEC
 62
     7
 10
-0.000000000001819
 20
749.99998749999759
 30
0.0
 11
-0.000000000001819
 21
1249.9999999999991
 31
0.0
  0
TEXT
  5
F4
  8
SPEC
 62
     7
 10
-146.39055371580071
 20
321.99998749999389
 30
0.0
 40
44.6875
  1
INPUT
 41
0.85
 11
-146.39055371580071
 21
366.68748749999389
 31
0.0
 73
     3
  0
CIRCLE
  5
F5
  8
SPEC
 62
     7
 10
-148.0
 20
419.99998750000032
 30
0.0
 40
18.0
  0
LINE
  5
F6
  8
SPEC
 62
     7
 10
-160.0
 20
419.99998750000032
 30
0.0
 11
-136.0
 21
419.99998750000032
 31
0.0
  0
LINE
  5
F7
  8
SPEC
 62
     7
 10
-102.0
 20
503.9999874999956
 30
0.0
 11
-194.0
 21
503.9999874999956
 31
0.0
  0
LINE
  5
F8
  8
SPEC
 62
     7
 10
-102.0
 20
475.99998749999759
 30
0.0
 11
-194.0
 21
475.99998749999759
 31
0.0
  0
LINE
  5
F9
  8
SPEC
 62
     7
 10
-208.00000000000179
 20
639.99998749999838
 30
0.0
 11
-87.999999999998167
 21
639.99998749999838
 31
0.0
  0
LINE
  5
FA
  8
SPEC
 62
     7
 10
-87.999999999998167
 20
591.99998749999656
 30
0.0
 11
-208.00000000000179
 21
591.99998749999656
 31
0.0
  0
LINE
  5
FB
  8
SPEC
 62
     7
 10
-194.0
 20
579.99998749999565
 30
0.0
 11
-194.0
 21
447.99998749999838
 31
0.0
  0
LINE
  5
FC
  8
SPEC
 62
     7
 10
-226.00000000000361
 20
391.99998749999389
 30
0.0
 11
-226.00000000000361
 21
651.99998749999941
 31
0.0
  0
LINE
  5
FD
  8
SPEC
 62
     7
 10
-208.00000000000179
 20
591.99998749999656
 30
0.0
 11
-208.00000000000179
 21
639.99998749999838
 31
0.0
  0
LINE
  5
FE
  8
SPEC
 62
     7
 10
-148.0
 20
749.99998749999759
 30
0.0
 11
-148.0
 21
950.00007499999822
 31
0.0
  0
LINE
  5
FF
  8
SPEC
 62
     7
 10
-45.999999999998209
 20
579.99998749999565
 30
0.0
 11
-45.999999999998209
 21
447.99998749999838
 31
0.0
  0
LINE
  5
100
  8
SPEC
 62
     7
 10
-102.0
 20
579.99998749999565
 30
0.0
 11
-102.0
 21
447.99998749999838
 31
0.0
  0
LINE
  5
101
  8
SPEC
 62
     7
 10
-60.000000000000021
 20
591.99998749999656
 30
0.0
 11
-60.000000000000021
 21
639.99998749999838
 31
0.0
  0
LINE
  5
102
  8
SPEC
 62
     7
 10
-87.999999999998167
 20
639.99998749999838
 30
0.0
 11
-87.999999999998167
 21
591.99998749999656
 31
0.0
  0
LINE
  5
103
  8
SPEC
 62
     7
 10
0.000000000001819
 20
431.99998749999293
 30
0.0
 11
0.000000000001819
 21
407.99998749999941
 31
0.0
  0
CIRCLE
  5
104
  8
SPEC
 62
     7
 10
0.000000000001819
 20
419.99998750000032
 30
0.0
 40
18.0
  0
LINE
  5
105
  8
SPEC
 62
     7
 10
-11.999999999998179
 20
419.99998750000032
 30
0.0
 11
12.000000000001821
 21
419.99998750000032
 31
0.0
  0
LINE
  5
106
  8
SPEC
 62
     7
 10
2151.9999999999982
 20
1399.999987499996
 30
0.0
 11
2151.9999999999968
 21
1299.9999874999969
 31
0.0
  0
LINE
  5
107
  8
SPEC
 62
     7
 10
2299.9999999999959
 20
1299.9999874999969
 30
0.0
 11
2299.9999999999959
 21
1399.999987499998
 31
0.0
  0
LINE
  5
108
  8
SPEC
 62
     7
 10
1725.999999999998
 20
49.999987500003051
 30
0.0
 11
2752.3615502233979
 21
49.999987499995768
 31
0.0
  0
LINE
  5
109
  8
SPEC
 62
     7
 10
1825.9999999999959
 20
-125.0
 30
0.0
 11
2699.638449776603
 21
-125.0
 31
0.0
  0
LINE
  5
10A
  8
SPEC
 62
     7
 10
975.99988749999648
 20
699.99999999999909
 30
0.0
 11
2300.0
 21
700.00000000000159
 31
0.0
  0
LINE
  5
10B
  8
SPEC
 62
     7
 10
975.99988749999454
 20
400.00007499999811
 30
0.0
 11
2151.9999999999968
 21
400.00007499999981
 31
0.0
  0
TEXT
  5
10C
  8
SPEC
 62
     7
 10
1875.0
 20
84.864514897329613
 30
0.0
 40
68.749982812499994
  1
L.F.+
 41
0.85
 11
1875.0
 21
153.61449770982949
 31
0.0
 73
     3
  0
TEXT
  5
10D
  8
SPEC
 62
     7
 10
1875.0
 20
-92.061009778245719
 30
0.0
 40
68.749982812499994
  1
L.F.-
 41
0.85
 11
1875.0
 21
-23.311026965745722
 31
0.0
 73
     3
  0
TEXT
  5
10E
  8
SPEC
 62
     7
 10
1875.0
 20
734.86452114733095
 30
0.0
 40
68.749982812499994
  1
H.F.+
 41
0.85
 11
1875.0
 21
803.61450395983093
 31
0.0
 73
     3
  0
TEXT
  5
10F
  8
SPEC
 62
     7
 10
1875.0
 20
434.86460864733323
 30
0.0
 40
68.749982812499994
  1
H.F.-
 41
0.85
 11
1875.0
 21
503.61459145983321
 31
0.0
 73
     3
  0
TEXT
  5
110
  8
SPEC
 62
     7
 10
2089.3161803381622
 20
871.99998750000111
 30
0.0
 40
44.6875
  1
HF OUTPUT
 41
0.85
 11
2089.3161803381622
 21
916.68748750000111
 31
0.0
 73
     3
  0
LINE
  5
111
  8
SPEC
 62
     7
 10
2377.9999999999968
 20
941.99998750000123
 30
0.0
 11
2073.9999999999941
 21
941.99998750000123
 31
0.0
  0
LINE
  5
112
  8
SPEC
 62
     7
 10
2045.9999999999941
 20
843.99998750000213
 30
0.0
 11
2405.9999999999941
 21
843.99998750000213
 31
0.0
  0
LINE
  5
113
  8
SPEC
 62
     7
 10
2377.9999999999968
 20
997.99998749999816
 30
0.0
 11
2073.9999999999941
 21
997.99998749999816
 31
0.0
  0
LINE
  5
114
  8
SPEC
 62
     7
 10
2197.9999999999959
 20
1053.999987500001
 30
0.0
 11
2105.9999999999982
 21
1053.999987500001
 31
0.0
  0
LINE
  5
115
  8
SPEC
 62
     7
 10
2197.9999999999959
 20
1025.999987500003
 30
0.0
 11
2105.9999999999982
 21
1025.999987500003
 31
0.0
  0
LINE
  5
116
  8
SPEC
 62
     7
 10
2073.9999999999941
 20
1129.999987500003
 30
0.0
 11
2377.9999999999968
 21
1129.999987500003
 31
0.0
  0
LINE
  5
117
  8
SPEC
 62
     7
 10
2073.9999999999941
 20
1201.999987499999
 30
0.0
 11
2377.9999999999968
 21
1201.999987499999
 31
0.0
  0
LINE
  5
118
  8
SPEC
 62
     7
 10
2045.9999999999941
 20
1299.9999874999969
 30
0.0
 11
2405.9999999999941
 21
1299.9999874999969
 31
0.0
  0
LINE
  5
119
  8
SPEC
 62
     7
 10
2091.9999999999941
 20
1189.999987499998
 30
0.0
 11
2212.0
 21
1189.999987499998
 31
0.0
  0
LINE
  5
11A
  8
SPEC
 62
     7
 10
2212.0
 20
1141.999987500003
 30
0.0
 11
2091.9999999999941
 21
1141.999987500003
 31
0.0
  0
LINE
  5
11B
  8
SPEC
 62
     7
 10
525.99999999999818
 20
900.00008749999574
 30
0.0
 11
1625.9998874999919
 21
900.00008749999802
 31
0.0
  0
LINE
  5
11C
  8
SPEC
 62
     7
 10
525.99999999999818
 20
950.00007499999822
 30
0.0
 11
1625.9998874999919
 21
950.00007499999822
 31
0.0
  0
LINE
  5
11D
  8
SPEC
 62
     7
 10
975.99999999999636
 20
1049.9999874999969
 30
0.0
 11
1262.6666949999919
 21
1049.9999874999969
 31
0.0
  0
LINE
  5
11E
  8
SPEC
 62
     7
 10
525.99999999999818
 20
1299.9999874999969
 30
0.0
 11
1625.9998874999919
 21
1299.9999875000001
 31
0.0
  0
LINE
  5
11F
  8
SPEC
 62
     7
 10
525.99999999999818
 20
1250.0
 30
0.0
 11
1625.9998874999919
 21
1250.0
 31
0.0
  0
ARC
  5
120
  8
SPEC
 62
     7
 10
1063.4999999999959
 20
1121.874987499999
 30
0.0
 40
46.874999999999453
 50
36.869897645843132
 51
143.13010235415771
  0
LINE
  5
121
  8
SPEC
 62
     7
 10
975.99999999999636
 20
1049.9999874999969
 30
0.0
 11
975.99999999999636
 21
1134.999987499996
 31
0.0
  0
LINE
  5
122
  8
SPEC
 62
     7
 10
525.99999999999818
 20
900.00008749999665
 30
0.0
 11
525.99999999999818
 21
1299.9999874999969
 31
0.0
  0
LINE
  5
123
  8
SPEC
 62
     7
 10
392.66669999999601
 20
700.0
 30
0.0
 11
392.66669999999601
 21
1250.0
 31
0.0
  0
LINE
  5
124
  8
SPEC
 62
     7
 10
525.99999999999818
 20
700.0
 30
0.0
 11
975.99988749999454
 21
700.0000000000008
 31
0.0
  0
LINE
  5
125
  8
SPEC
 62
     7
 10
525.99999999999818
 20
400.00007499999907
 30
0.0
 11
975.99988749999454
 21
400.00007499999907
 31
0.0
  0
LINE
  5
126
  8
SPEC
 62
     7
 10
525.99999999999625
 20
350.00008749999961
 30
0.0
 11
975.99988749999454
 21
350.00008749999682
 31
0.0
  0
LINE
  5
127
  8
SPEC
 62
     7
 10
525.99999999999818
 20
749.99998749999759
 30
0.0
 11
975.99988749999454
 21
749.99998749999759
 31
0.0
  0
TEXT
  5
128
  8
SPEC
 62
     7
 10
574.47241152623565
 20
467.8646538671855
 30
0.0
 40
60.156250000000021
  1
フィルター
 41
0.85
 11
574.47241152623565
 21
528.02090386718555
 31
0.0
 73
     3
  0
TEXT
  5
129
  8
SPEC
 62
     7
 10
588.30554518427141
 20
573.33337749999839
 30
0.0
 40
60.156250000000021
  1
ハイパス
 41
0.85
 11
588.30554518427141
 21
633.48962749999839
 31
0.0
 73
     3
  0
TEXT
  5
12A
  8
SPEC
 62
     7
 10
552.71959702346078
 20
1034.531303867182
 30
0.0
 40
60.156250000000021
  1
フィルター
 41
0.85
 11
552.71959702346078
 21
1094.687553867182
 31
0.0
 73
     3
  0
LINE
  5
12B
  8
SPEC
 62
     7
 10
525.99999999999625
 20
749.99998749999759
 30
0.0
 11
525.99999999999818
 21
350.00008749999961
 31
0.0
  0
CIRCLE
  5
12C
  8
SPEC
 62
     7
 10
259.33339999999589
 20
950.00007499999822
 30
0.0
 40
14.062496484373691
  0
LINE
  5
12D
  8
SPEC
 62
     7
 10
259.3333999999976
 20
400.00007499999532
 30
0.0
 11
525.99999999999818
 21
400.00007499999907
 31
0.0
  0
LINE
  5
12E
  8
SPEC
 62
     7
 10
46.000000000001812
 20
579.99998749999565
 30
0.0
 11
46.000000000001812
 21
447.99998749999838
 31
0.0
  0
LINE
  5
12F
  8
SPEC
 62
     7
 10
77.999999999998153
 20
651.99998749999941
 30
0.0
 11
77.999999999998153
 21
391.99998749999389
 31
0.0
  0
LINE
  5
130
  8
SPEC
 62
     7
 10
153.9999999999981
 20
701.99998749999668
 30
0.0
 11
153.9999999999981
 21
341.99998749999662
 31
0.0
  0
ARC
  5
131
  8
SPEC
 62
     7
 10
105.99999999999631
 20
341.99998749999662
 30
0.0
 40
48.0
 50
270.0
 51
0.0
  0
LINE
  5
132
  8
SPEC
 62
     7
 10
101.9999999999981
 20
329.99998749999571
 30
0.0
 11
101.9999999999981
 21
361.99998749999293
 31
0.0
  0
LINE
  5
133
  8
SPEC
 62
     7
 10
85.999999999999986
 20
345.99998749999492
 30
0.0
 11
117.99999999999631
 21
345.99998749999492
 31
0.0
  0
CIRCLE
  5
134
  8
SPEC
 62
     7
 10
101.9999999999981
 20
345.99998749999492
 30
0.0
 40
24.0
  0
ARC
  5
135
  8
SPEC
 62
     7
 10
105.99999999999631
 20
701.99998749999668
 30
0.0
 40
48.0
 50
0.0
 51
90.0
  0
LINE
  5
136
  8
SPEC
 62
     7
 10
101.9999999999981
 20
681.99998749999293
 30
0.0
 11
101.9999999999981
 21
713.99998749999679
 31
0.0
  0
LINE
  5
137
  8
SPEC
 62
     7
 10
85.999999999999986
 20
697.99998749999838
 30
0.0
 11
117.99999999999631
 21
697.99998749999838
 31
0.0
  0
CIRCLE
  5
138
  8
SPEC
 62
     7
 10
101.9999999999981
 20
697.99998749999838
 30
0.0
 40
24.0
  0
LINE
  5
139
  8
SPEC
 62
     7
 10
59.999999999996341
 20
639.99998749999838
 30
0.0
 11
59.999999999996341
 21
591.99998749999656
 31
0.0
  0
LINE
  5
13A
  8
SPEC
 62
     7
 10
259.33339999999589
 20
400.00007499999532
 30
0.0
 11
259.33339999999589
 21
950.00007499999822
 31
0.0
  0
LINE
  5
13B
  8
SPEC
 62
     7
 10
392.66669999999601
 20
700.0
 30
0.0
 11
525.99999999999818
 21
700.0
 31
0.0
  0
LINE
  5
13C
  8
SPEC
 62
     7
 10
975.99988749999454
 20
350.00008749999682
 30
0.0
 11
975.99988749999454
 21
749.99998749999759
 31
0.0
  0
TEXT
  5
13D
  8
SPEC
 62
     7
 10
566.55273068149836
 20
1140.000027499995
 30
0.0
 40
60.156250000000021
  1
ローパス
 41
0.85
 11
566.55273068149836
 21
1200.156277499995
 31
0.0
 73
     3
  0
CIRCLE
  5
13E
  8
SPEC
 62
     7
 10
392.66669999999601
 20
1250.0
 30
0.0
 40
14.062496484373691
  0
CIRCLE
  5
13F
  8
SPEC
 62
     7
 10
975.99999999999818
 20
1249.999999999992
 30
0.0
 40
14.06249648437551
  0
LINE
  5
140
  8
SPEC
 62
     7
 10
1009.333324999997
 20
1134.9999874999969
 30
0.0
 11
942.66667499999664
 21
1134.9999874999969
 31
0.0
  0
LINE
  5
141
  8
SPEC
 62
     7
 10
1009.333324999997
 20
1164.999987499998
 30
0.0
 11
942.66667499999664
 21
1164.999987499998
 31
0.0
  0
LINE
  5
142
  8
SPEC
 62
     7
 10
975.99999999999636
 20
1164.999987499998
 30
0.0
 11
975.99999999999818
 21
1249.999999999992
 31
0.0
  0
LINE
  5
143
  8
SPEC
 62
     7
 10
1125.999999999998
 20
-355.00001250000321
 30
0.0
 11
1726.0
 21
-355.00001250000321
 31
0.0
  0
TEXT
  5
144
  8
SPEC
 62
     7
 10
1254.6891217466091
 20
-305.00001250000332
 30
0.0
 40
103.125
  1
接続図
 41
0.85
 11
1254.6891217466091
 21
-201.87501250000321
 31
0.0
 73
     3
  0
LINE
  5
145
  8
SPEC
 62
     7
 10
1725.999999999998
 20
49.999987500003051
 30
0.0
 11
1725.999999999998
 21
1249.999987499998
 31
0.0
  0
LINE
  5
146
  8
SPEC
 62
     7
 10
2073.9999999999941
 20
941.99998750000123
 30
0.0
 11
2073.9999999999941
 21
1201.999987499999
 31
0.0
  0
LINE
  5
147
  8
SPEC
 62
     7
 10
1998.0
 20
891.99998750000395
 30
0.0
 11
1998.0
 21
1251.999987500003
 31
0.0
  0
LINE
  5
148
  8
SPEC
 62
     7
 10
2105.9999999999982
 20
1129.999987500003
 30
0.0
 11
2105.9999999999982
 21
997.99998749999816
 31
0.0
  0
LINE
  5
149
  8
SPEC
 62
     7
 10
1625.9998874999919
 20
900.00008749999881
 30
0.0
 11
1625.9998874999919
 21
1299.9999874999969
 31
0.0
  0
LINE
  5
14A
  8
SPEC
 62
     7
 10
1225.9999999999959
 20
1049.9999874999969
 30
0.0
 11
1225.9999999999959
 21
1134.999987499996
 31
0.0
  0
LINE
  5
14B
  8
SPEC
 62
     7
 10
1425.999999999998
 20
1049.9999874999969
 30
0.0
 11
1425.999999999998
 21
1134.999987499996
 31
0.0
  0
LINE
  5
14C
  8
SPEC
 62
     7
 10
1525.999999999998
 20
1049.9999874999969
 30
0.0
 11
1525.999999999998
 21
1134.999987499996
 31
0.0
  0
LINE
  5
14D
  8
SPEC
 62
     7
 10
1825.9999999999959
 20
-125.0
 30
0.0
 11
1825.9999999999959
 21
950.0000750000072
 31
0.0
  0
LINE
  5
14E
  8
SPEC
 62
     7
 10
1625.9998874999919
 20
950.00007500000515
 30
0.0
 11
1825.9999999999959
 21
950.00007500000788
 31
0.0
  0
LINE
  5
14F
  8
SPEC
 62
     7
 10
1288.529256811496
 20
1054.5602549376049
 30
0.0
 11
1369.96926358627
 21
1084.201993282061
 31
0.0
  0
CIRCLE
  5
150
  8
SPEC
 62
     7
 10
1276.0000249999921
 20
1049.9999874999969
 30
0.0
 40
13.33333000000129
  0
CIRCLE
  5
151
  8
SPEC
 62
     7
 10
1375.9999999999941
 20
1049.9999874999969
 30
0.0
 40
13.33333000000129
  0
LINE
  5
152
  8
SPEC
 62
     7
 10
1389.3333299999949
 20
1049.9999874999969
 30
0.0
 11
1525.999999999998
 21
1049.999987499999
 31
0.0
  0
CIRCLE
  5
153
  8
SPEC
 62
     7
 10
1425.999999999998
 20
1049.9999874999969
 30
0.0
 40
14.06249648437551
  0
CIRCLE
  5
154
  8
SPEC
 62
     7
 10
1225.9999999999959
 20
1049.9999874999969
 30
0.0
 40
14.06249648437551
  0
ARC
  5
155
  8
SPEC
 62
     7
 10
2045.9999999999941
 20
891.99998750000395
 30
0.0
 40
48.0
 50
180.0
 51
270.0
  0
LINE
  5
156
  8
SPEC
 62
     7
 10
2050.0
 20
879.99998750000304
 30
0.0
 11
2050.0
 21
911.99998750000032
 31
0.0
  0
LINE
  5
157
  8
SPEC
 62
     7
 10
2033.9999999999941
 20
895.99998750000111
 30
0.0
 11
2065.9999999999982
 21
895.99998750000111
 31
0.0
  0
CIRCLE
  5
158
  8
SPEC
 62
     7
 10
2050.0
 20
895.99998750000111
 30
0.0
 40
24.0
  0
LINE
  5
159
  8
SPEC
 62
     7
 10
1625.9998874999919
 20
1250.0000000000041
 30
0.0
 11
1725.999999999998
 21
1250.000000000007
 31
0.0
  0
CIRCLE
  5
15A
  8
SPEC
 62
     7
 10
1225.999999999998
 20
1249.999999999992
 30
0.0
 40
14.06249648437551
  0
CIRCLE
  5
15B
  8
SPEC
 62
     7
 10
1425.999999999998
 20
1249.9999999999891
 30
0.0
 40
14.06249648437551
  0
LINE
  5
15C
  8
SPEC
 62
     7
 10
1259.3333249999971
 20
1134.9999874999969
 30
0.0
 11
1192.666674999994
 21
1134.9999874999969
 31
0.0
  0
LINE
  5
15D
  8
SPEC
 62
     7
 10
1259.3333249999971
 20
1164.999987499998
 30
0.0
 11
1192.666674999994
 21
1164.999987499998
 31
0.0
  0
LINE
  5
15E
  8
SPEC
 62
     7
 10
1225.9999999999959
 20
1164.999987499998
 30
0.0
 11
1225.999999999998
 21
1249.999999999992
 31
0.0
  0
LINE
  5
15F
  8
SPEC
 62
     7
 10
1459.3333249999989
 20
1134.9999874999969
 30
0.0
 11
1392.6666749999961
 21
1134.9999874999969
 31
0.0
  0
LINE
  5
160
  8
SPEC
 62
     7
 10
1459.3333249999989
 20
1164.999987499998
 30
0.0
 11
1392.6666749999961
 21
1164.999987499998
 31
0.0
  0
LINE
  5
161
  8
SPEC
 62
     7
 10
1425.999999999998
 20
1164.999987499998
 30
0.0
 11
1425.999999999998
 21
1249.9999999999891
 31
0.0
  0
CIRCLE
  5
162
  8
SPEC
 62
     7
 10
1525.999999999998
 20
1249.9999999999891
 30
0.0
 40
14.06249648437551
  0
LINE
  5
163
  8
SPEC
 62
     7
 10
1559.3333249999989
 20
1134.9999874999969
 30
0.0
 11
1492.6666749999961
 21
1134.9999874999969
 31
0.0
  0
LINE
  5
164
  8
SPEC
 62
     7
 10
1559.3333249999989
 20
1164.999987499998
 30
0.0
 11
1492.6666749999961
 21
1164.999987499998
 31
0.0
  0
LINE
  5
165
  8
SPEC
 62
     7
 10
1525.999999999998
 20
1164.999987499998
 30
0.0
 11
1525.999999999998
 21
1249.9999999999891
 31
0.0
  0
ARC
  5
166
  8
SPEC
 62
     7
 10
1138.499999999998
 20
1178.1249874999969
 30
0.0
 40
46.874999999999453
 50
216.86989764584311
 51
323.13010235415771
  0
ARC
  5
167
  8
SPEC
 62
     7
 10
2045.9999999999941
 20
1251.999987500003
 30
0.0
 40
48.0
 50
90.0
 51
180.0
  0
LINE
  5
168
  8
SPEC
 62
     7
 10
2050.0
 20
1231.9999875000001
 30
0.0
 11
2050.0
 21
1263.999987500004
 31
0.0
  0
LINE
  5
169
  8
SPEC
 62
     7
 10
2033.9999999999941
 20
1247.9999874999969
 30
0.0
 11
2065.9999999999982
 21
1247.9999874999969
 31
0.0
  0
CIRCLE
  5
16A
  8
SPEC
 62
     7
 10
2050.0
 20
1247.9999874999969
 30
0.0
 40
24.0
  0
LINE
  5
16B
  8
SPEC
 62
     7
 10
2091.9999999999941
 20
1141.999987500003
 30
0.0
 11
2091.9999999999941
 21
1189.999987499998
 31
0.0
  0
TEXT
  5
16C
  8
SPEC
 62
     7
 10
3025.9999999999982
 20
496.58589276087707
 30
0.0
 40
64.453108886718752
  1
Driver
 41
0.85
 11
3025.9999999999982
 21
561.0390016475958
 31
0.0
 73
     3
  0
TEXT
  5
16D
  8
SPEC
 62
     7
 10
3025.9999999999982
 20
416.60244432849692
 30
0.0
 40
64.453108886718752
  1
Low Freq
 41
0.85
 11
3025.9999999999982
 21
481.05555321521558
 31
0.0
 73
     3
  0
LINE
  5
16E
  8
SPEC
 62
     7
 10
2254.0
 20
1129.999987500003
 30
0.0
 11
2254.0
 21
997.99998749999816
 31
0.0
  0
LINE
  5
16F
  8
SPEC
 62
     7
 10
2197.9999999999959
 20
1129.999987500003
 30
0.0
 11
2197.9999999999959
 21
997.99998749999816
 31
0.0
  0
LINE
  5
170
  8
SPEC
 62
     7
 10
2377.9999999999968
 20
1201.999987499999
 30
0.0
 11
2377.9999999999968
 21
941.99998750000123
 31
0.0
  0
LINE
  5
171
  8
SPEC
 62
     7
 10
2453.9999999999968
 20
1251.999987500003
 30
0.0
 11
2453.9999999999968
 21
891.99998750000395
 31
0.0
  0
LINE
  5
172
  8
SPEC
 62
     7
 10
2346.0
 20
1129.999987500003
 30
0.0
 11
2346.0
 21
997.99998749999816
 31
0.0
  0
CIRCLE
  5
173
  8
SPEC
 62
     7
 10
2725.9999999999991
 20
449.9999874999985
 30
0.0
 40
239.97440272499981
  0
CIRCLE
  5
174
  8
SPEC
 62
     7
 10
2725.9999999999991
 20
449.9999874999985
 30
0.0
 40
215.97696245249961
  0
LINE
  5
175
  8
SPEC
 62
     7
 10
2871.1493567419911
 20
487.77385418410358
 30
0.0
 11
2919.1752125813
 21
515.50159498099129
 31
0.0
  0
LINE
  5
176
  8
SPEC
 62
     7
 10
2871.149356741993
 20
412.22612081589892
 30
0.0
 11
2919.1752125813032
 21
384.49838001901031
 31
0.0
  0
TEXT
  5
177
  8
SPEC
 62
     7
 10
2775.9999999999959
 20
74.999987499998554
 30
0.0
 40
64.453108886718752
  1
GRN
 41
0.85
 11
2775.9999999999959
 21
139.45309638671731
 31
0.0
 73
     3
  0
CIRCLE
  5
178
  8
SPEC
 62
     7
 10
2725.9999999999991
 20
449.9999874999985
 30
0.0
 40
149.98400170312379
  0
CIRCLE
  5
179
  8
SPEC
 62
     7
 10
2725.9999999999991
 20
449.9999874999985
 30
0.0
 40
119.98720136249899
  0
CIRCLE
  5
17A
  8
SPEC
 62
     7
 10
2725.9999999999991
 20
449.9999874999985
 30
0.0
 40
105.0
  0
CIRCLE
  5
17B
  8
SPEC
 62
     7
 10
2725.9999999999991
 20
449.9999874999985
 30
0.0
 40
134.97440272499981
  0
ARC
  5
17C
  8
SPEC
 62
     7
 10
2725.9999999999991
 20
449.9999874999985
 30
0.0
 40
203.9782423162506
 50
161.26929483577391
 51
198.73070516422641
  0
LINE
  5
17D
  8
SPEC
 62
     7
 10
2532.8247874186891
 20
515.50159498098765
 30
0.0
 11
2580.8506432580011
 21
487.77385418409898
 31
0.0
  0
ARC
  5
17E
  8
SPEC
 62
     7
 10
2725.9999999999991
 20
449.9999874999985
 30
0.0
 40
203.97824231625069
 50
221.26929483577399
 51
258.73070516422752
  0
ARC
  5
17F
  8
SPEC
 62
     7
 10
2725.9999999999991
 20
449.9999874999985
 30
0.0
 40
203.97824231624989
 50
281.2692948357751
 51
318.73070516422712
  0
CIRCLE
  5
180
  8
SPEC
 62
     7
 10
2564.7968488958591
 20
288.79683639585971
 30
0.0
 40
5.9993600681245871
  0
CIRCLE
  5
181
  8
SPEC
 62
     7
 10
2725.9999999999991
 20
222.0243049112477
 30
0.0
 40
5.9993600681245871
  0
CIRCLE
  5
182
  8
SPEC
 62
     7
 10
2887.2031511041341
 20
288.79683639585971
 30
0.0
 40
5.9993600681245871
  0
LINE
  5
183
  8
SPEC
 62
     7
 10
2686.138449776603
 20
305.4100238764085
 30
0.0
 11
2686.1384497766039
 21
249.95454228263119
 31
0.0
  0
LINE
  5
184
  8
SPEC
 62
     7
 10
2765.8615502233988
 20
249.95454228263219
 30
0.0
 11
2765.8615502233988
 21
305.41002387641117
 31
0.0
  0
LINE
  5
185
  8
SPEC
 62
     7
 10
2686.138449776603
 20
287.6822830795191
 30
0.0
 11
2765.8615502233988
 21
287.68228307952171
 31
0.0
  0
LINE
  5
186
  8
SPEC
 62
     7
 10
2686.138449776603
 20
267.68228307951898
 30
0.0
 11
2765.8615502233988
 21
267.68228307952171
 31
0.0
  0
LINE
  5
187
  8
SPEC
 62
     7
 10
2713.138449776603
 20
267.6822830795208
 30
0.0
 11
2713.138449776603
 21
287.6822830795208
 31
0.0
  0
LINE
  5
188
  8
SPEC
 62
     7
 10
2738.8615502233988
 20
267.68228307952171
 30
0.0
 11
2738.8615502233988
 21
287.6822830795208
 31
0.0
  0
LINE
  5
189
  8
SPEC
 62
     7
 10
2831.2878065185951
 20
343.18389056051359
 30
0.0
 11
2879.313662357908
 21
315.45614976362589
 31
0.0
  0
LINE
  5
18A
  8
SPEC
 62
     7
 10
2572.6863376420888
 20
315.45614976362322
 30
0.0
 11
2620.7121934814022
 21
343.18389056051001
 31
0.0
  0
LINE
  5
18B
  8
SPEC
 62
     7
 10
2532.8247874186909
 20
384.4983800190065
 30
0.0
 11
2580.8506432580011
 21
412.22612081589432
 31
0.0
  0
TEXT
  5
18C
  8
SPEC
 62
     7
 10
2756.3811279585489
 20
399.99998749999759
 30
0.0
 40
85.9375
  1
+
 41
0.85
 11
2756.3811279585489
 21
485.93748749999759
 31
0.0
 73
     3
  0
TEXT
  5
18D
  8
SPEC
 62
     7
 10
2643.6580275117558
 20
399.99998749999759
 30
0.0
 40
85.9375
  1
-
 41
0.85
 11
2643.6580275117558
 21
485.93748749999759
 31
0.0
 73
     3
  0
CIRCLE
  5
18E
  8
SPEC
 62
     7
 10
2498.0243174112452
 20
449.9999874999985
 30
0.0
 40
5.9993600681245871
  0
LINE
  5
18F
  8
SPEC
 62
     7
 10
2752.3615502233979
 20
49.999987499996678
 30
0.0
 11
2752.3615502233979
 21
267.68228307951898
 31
0.0
  0
LINE
  5
190
  8
SPEC
 62
     7
 10
2699.638449776603
 20
267.68228307951898
 30
0.0
 11
2699.638449776603
 21
-125.0
 31
0.0
  0
CIRCLE
  5
191
  8
SPEC
 62
     7
 10
2564.7968488958591
 20
611.20313860413808
 30
0.0
 40
5.9993600681245871
  0
CIRCLE
  5
192
  8
SPEC
 62
     7
 10
2887.2031511041341
 20
611.20313860413808
 30
0.0
 40
5.9993600681245871
  0
CIRCLE
  5
193
  8
SPEC
 62
     7
 10
2725.9999999999991
 20
677.97567008874739
 30
0.0
 40
5.9993600681245871
  0
ARC
  5
194
  8
SPEC
 62
     7
 10
2725.9999999999991
 20
449.9999874999985
 30
0.0
 40
203.97824231624921
 50
41.269294835774389
 51
78.73070516422645
  0
ARC
  5
195
  8
SPEC
 62
     7
 10
2725.9999999999991
 20
449.9999874999985
 30
0.0
 40
203.9782423162504
 50
101.2692948357745
 51
138.73070516422661
  0
LINE
  5
196
  8
SPEC
 62
     7
 10
2572.6863376420888
 20
584.54382523637105
 30
0.0
 11
2620.712193481399
 21
556.81608443948335
 31
0.0
  0
LINE
  5
197
  8
SPEC
 62
     7
 10
2686.1384497765971
 20
594.58995112358571
 30
0.0
 11
2686.1384497765971
 21
650.04543271736475
 31
0.0
  0
LINE
  5
198
  8
SPEC
 62
     7
 10
2765.8615502233929
 20
594.58995112358753
 30
0.0
 11
2765.8615502233929
 21
650.04543271736475
 31
0.0
  0
LINE
  5
199
  8
SPEC
 62
     7
 10
2831.2878065185919
 20
556.81608443948596
 30
0.0
 11
2879.313662357903
 21
584.54382523637366
 31
0.0
  0
TEXT
  5
19A
  8
SPEC
 62
     7
 10
2357.1448911492621
 20
76.666647499999357
 30
0.0
 40
64.453108886718752
  1
GRN/BLK
 41
0.85
 11
2357.1448911492621
 21
141.11975638671811
 31
0.0
 73
     3
  0
CIRCLE
  5
19B
  8
SPEC
 62
     7
 10
2151.9999999999968
 20
969.99998750000032
 30
0.0
 40
18.0
  0
LINE
  5
19C
  8
SPEC
 62
     7
 10
2139.9999999999968
 20
969.99998750000032
 30
0.0
 11
2163.9999999999982
 21
969.99998750000032
 31
0.0
  0
LINE
  5
19D
  8
SPEC
 62
     7
 10
2151.9999999999941
 20
400.00007499999981
 30
0.0
 11
2151.9999999999968
 21
843.99998750000213
 31
0.0
  0
LINE
  5
19E
  8
SPEC
 62
     7
 10
2346.0
 20
1053.999987500001
 30
0.0
 11
2254.0
 21
1053.999987500001
 31
0.0
  0
LINE
  5
19F
  8
SPEC
 62
     7
 10
2346.0
 20
1025.999987500003
 30
0.0
 11
2254.0
 21
1025.999987500003
 31
0.0
  0
LINE
  5
1A0
  8
SPEC
 62
     7
 10
2300.0
 20
981.99998750000043
 30
0.0
 11
2300.0
 21
957.99998749999952
 31
0.0
  0
CIRCLE
  5
1A1
  8
SPEC
 62
     7
 10
2300.0
 20
969.99998750000032
 30
0.0
 40
18.0
  0
ARC
  5
1A2
  8
SPEC
 62
     7
 10
2405.9999999999941
 20
891.99998750000395
 30
0.0
 40
48.0
 50
270.0
 51
0.0
  0
LINE
  5
1A3
  8
SPEC
 62
     7
 10
2401.9999999999982
 20
879.99998750000304
 30
0.0
 11
2401.9999999999982
 21
911.99998750000032
 31
0.0
  0
LINE
  5
1A4
  8
SPEC
 62
     7
 10
2386.0
 20
895.99998750000111
 30
0.0
 11
2417.9999999999941
 21
895.99998750000111
 31
0.0
  0
CIRCLE
  5
1A5
  8
SPEC
 62
     7
 10
2401.9999999999982
 20
895.99998750000111
 30
0.0
 40
24.0
  0
LINE
  5
1A6
  8
SPEC
 62
     7
 10
2288.0
 20
969.99998750000032
 30
0.0
 11
2312.0
 21
969.99998750000032
 31
0.0
  0
LINE
  5
1A7
  8
SPEC
 62
     7
 10
2300.0
 20
700.00000000000273
 30
0.0
 11
2300.0
 21
843.99998750000123
 31
0.0
  0
ARC
  5
1A8
  8
SPEC
 62
     7
 10
2725.9999999999991
 20
449.9999874999985
 30
0.0
 40
203.97824231624969
 50
341.26929483577482
 51
18.730705164227171
  0
CIRCLE
  5
1A9
  8
SPEC
 62
     7
 10
2953.9756825887448
 20
449.9999874999985
 30
0.0
 40
5.9993600681245871
  0
TEXT
  5
1AA
  8
SPEC
 62
     7
 10
3025.9999999999982
 20
336.61899589612591
 30
0.0
 40
64.453108886718752
  1
2035H
 41
0.85
 11
3025.9999999999982
 21
401.07210478284469
 31
0.0
 73
     3
  0
LINE
  5
1AB
  8
SPEC
 62
     7
 10
2239.9999999999982
 20
1189.999987499998
 30
0.0
 11
2359.9999999999941
 21
1189.999987499998
 31
0.0
  0
LINE
  5
1AC
  8
SPEC
 62
     7
 10
2359.9999999999941
 20
1141.999987500003
 30
0.0
 11
2239.9999999999982
 21
1141.999987500003
 31
0.0
  0
LINE
  5
1AD
  8
SPEC
 62
     7
 10
2239.9999999999982
 20
1141.999987500003
 30
0.0
 11
2239.9999999999982
 21
1189.999987499998
 31
0.0
  0
LINE
  5
1AE
  8
SPEC
 62
     7
 10
2212.0
 20
1189.999987499998
 30
0.0
 11
2212.0
 21
1141.999987500003
 31
0.0
  0
ARC
  5
1AF
  8
SPEC
 62
     7
 10
2405.9999999999941
 20
1251.999987500003
 30
0.0
 40
48.0
 50
0.0
 51
90.0
  0
LINE
  5
1B0
  8
SPEC
 62
     7
 10
2401.9999999999982
 20
1231.9999875000001
 30
0.0
 11
2401.9999999999982
 21
1263.999987500004
 31
0.0
  0
LINE
  5
1B1
  8
SPEC
 62
     7
 10
2386.0
 20
1247.9999874999969
 30
0.0
 11
2417.9999999999941
 21
1247.9999874999969
 31
0.0
  0
CIRCLE
  5
1B2
  8
SPEC
 62
     7
 10
2401.9999999999982
 20
1247.9999874999969
 30
0.0
 40
24.0
  0
LINE
  5
1B3
  8
SPEC
 62
     7
 10
2359.9999999999941
 20
1189.999987499998
 30
0.0
 11
2359.9999999999941
 21
1141.999987500003
 31
0.0
  0
TEXT
  5
1B4
  8
SPEC
 62
     7
 10
1899.2578769985
 20
1449.9999874999969
 30
0.0
 40
85.9375
  1
BLK (-)
 41
0.85
 11
1899.2578769985
 21
1535.9374874999969
 31
0.0
 73
     3
  0
TEXT
  5
1B5
  8
SPEC
 62
     7
 10
1684.7070864988409
 20
1699.999987499998
 30
0.0
 40
85.9375
  1
外部配線
 41
0.85
 11
1684.7070864988409
 21
1785.937487499998
 31
0.0
 73
     3
  0
TEXT
  5
1B6
  8
SPEC
 62
     7
 10
3025.9999999999959
 20
2199.9994000000002
 30
0.0
 40
64.453108886718752
  1
High Freq
 41
0.85
 11
3025.9999999999959
 21
2264.452508886719
 31
0.0
 73
     3
  0
TEXT
  5
1B7
  8
SPEC
 62
     7
 10
3025.9999999999959
 20
2279.982848432378
 30
0.0
 40
64.453108886718752
  1
Driver
 41
0.85
 11
3025.9999999999959
 21
2344.4359573190968
 31
0.0
 73
     3
  0
ARC
  5
1B8
  8
SPEC
 62
     7
 10
2725.9999999999991
 20
2249.999987499998
 30
0.0
 40
149.9840017031247
 50
343.36181524457191
 51
196.6381847554278
  0
ARC
  5
1B9
  8
SPEC
 62
     7
 10
2725.9999999999991
 20
2249.999987499998
 30
0.0
 40
149.9840017031251
 50
231.84357457642511
 51
308.15642542357477
  0
ARC
  5
1BA
  8
SPEC
 62
     7
 10
2725.9999999999991
 20
2249.999987499998
 30
0.0
 40
119.9872013624999
 50
339.02818108530118
 51
200.97181891469879
  0
TEXT
  5
1BB
  8
SPEC
 62
     7
 10
2565.380814098678
 20
2139.5627208209389
 30
0.0
 40
64.453125000000014
  1
BLK
 41
0.85
 11
2565.380814098678
 21
2204.0158458209389
 31
0.0
 73
     3
  0
TEXT
  5
1BC
  8
SPEC
 62
     7
 10
2749.4400037174441
 20
2139.5627208209389
 30
0.0
 40
64.453125000000014
  1
RED
 41
0.85
 11
2749.4400037174441
 21
2204.0158458209389
 31
0.0
 73
     3
  0
CIRCLE
  5
1BD
  8
SPEC
 62
     7
 10
2749.4400037174441
 20
2117.065120565469
 30
0.0
 40
7.499200085156188
  0
CIRCLE
  5
1BE
  8
SPEC
 62
     7
 10
2702.5599962825509
 20
2117.065120565469
 30
0.0
 40
7.499200085156188
  0
CIRCLE
  5
1BF
  8
SPEC
 62
     7
 10
2725.9999999999991
 20
2249.999987499998
 30
0.0
 40
44.995200510937131
  0
ARC
  5
1C0
  8
SPEC
 62
     7
 10
2725.9999999999991
 20
2249.999987499998
 30
0.0
 40
119.9872013625001
 50
259.39170962435799
 51
280.6082903756419
  0
LINE
  5
1C1
  8
SPEC
 62
     7
 10
2702.5599962825409
 20
1899.999987499999
 30
0.0
 11
2702.5599962825509
 21
2109.5659204803142
 31
0.0
  0
LINE
  5
1C2
  8
SPEC
 62
     7
 10
2749.4400037174441
 20
1849.999987499999
 30
0.0
 11
2749.4400037174441
 21
2109.5659204803142
 31
0.0
  0
LINE
  5
1C3
  8
SPEC
 62
     7
 10
2171.9991999999979
 20
1679.999987499998
 30
0.0
 11
2151.9999999999968
 21
1799.999987499998
 31
0.0
  0
LINE
  5
1C4
  8
SPEC
 62
     7
 10
2132.0007999999962
 20
1679.999987499998
 30
0.0
 11
2151.9999999999968
 21
1799.999987499998
 31
0.0
  0
LINE
  5
1C5
  8
SPEC
 62
     7
 10
2151.9999999999968
 20
1899.9999874999969
 30
0.0
 11
2151.9999999999968
 21
1599.9999874999969
 31
0.0
  0
TEXT
  5
1C6
  8
SPEC
 62
     7
 10
2267.2499385394331
 20
1449.9999874999969
 30
0.0
 40
85.9375
  1
RED (+)
 41
0.85
 11
2267.2499385394331
 21
1535.9374874999969
 31
0.0
 73
     3
  0
LINE
  5
1C7
  8
SPEC
 62
     7
 10
2319.999199999997
 20
1679.999987499998
 30
0.0
 11
2299.9999999999959
 21
1799.999987499998
 31
0.0
  0
LINE
  5
1C8
  8
SPEC
 62
     7
 10
2280.0007999999962
 20
1679.999987499998
 30
0.0
 11
2299.9999999999959
 21
1799.999987499998
 31
0.0
  0
LINE
  5
1C9
  8
SPEC
 62
     7
 10
2299.9999999999959
 20
1599.999987499998
 30
0.0
 11
2299.9999999999982
 21
1849.999987499999
 31
0.0
  0
LINE
  5
1CA
  8
SPEC
 62
     7
 10
2299.9999999999982
 20
1849.999987499999
 30
0.0
 11
2749.4400037174441
 21
1849.9999874999969
 31
0.0
  0
LINE
  5
1CB
  8
SPEC
 62
     7
 10
2163.309544953866
 20
1899.999987499998
 30
0.0
 11
2702.5599962825381
 21
1899.999987499999
 31
0.0
  0
TEXT
  5
1CC
  8
SPEC
 62
     7
 10
3025.9999999999959
 20
2120.0159515676301
 30
0.0
 40
64.453108886718752
  1
2446H
 41
0.85
 11
3025.9999999999959
 21
2184.469060454348
 31
0.0
 73
     3
  0
TEXT
  5
1CD
  8
SPEC
 62
     7
 10
-1864.0
 20
2865.1843405555542
 30
0.0
 40
79.022222222222226
  1
796(W)×1790(H)×948(D)mm
 41
0.85
 11
-1864.0
 21
2944.2065627777761
 31
0.0
 73
     3
  0
TEXT
  5
1CE
  8
DIMNSIONS
 62
     7
 10
-700.0
 20
-4423.8596150000003
 30
0.0
 40
101.59999999999999
  1
(単位：mm)
 41
0.85
 11
-700.0
 21
-4322.2596149999999
 31
0.0
 73
     3
  0
LINE
  5
1CF
  8
DIMNSIONS
 62
     7
 10
-2080.0
 20
-2008.384
 30
0.0
 11
-2455.0
 21
-2008.384
 31
0.0
  0
LINE
  5
1D0
  8
DIMNSIONS
 62
     7
 10
-2080.0
 20
-3000.0
 30
0.0
 11
-2455.0
 21
-3000.0
 31
0.0
  0
LINE
  5
1D2
  8
DIMNSIONS
 62
     7
 10
-2375.0
 20
-2008.384
 30
0.0
 11
-2348.19840819399
 21
-2108.40890234375
 31
0.0
  0
LINE
  5
1D3
  8
DIMNSIONS
 62
     7
 10
-2375.0
 20
-2008.384
 30
0.0
 11
-2401.8015918060091
 21
-2108.40890234375
 31
0.0
  0
LINE
  5
1D4
  8
DIMNSIONS
 62
     7
 10
-2375.0
 20
-3000.0
 30
0.0
 11
-2401.8015918060091
 21
-2899.97509765625
 31
0.0
  0
LINE
  5
1D5
  8
DIMNSIONS
 62
     7
 10
-2375.0
 20
-3000.0
 30
0.0
 11
-2348.19840819399
 21
-2899.97509765625
 31
0.0
  0
LINE
  5
1D1
  8
DIMNSIONS
 62
     7
 10
-2375.0
 20
-2008.384
 30
0.0
 11
-2375.0
 21
-3000.0
 31
0.0
  0
TEXT
  5
1D6
  8
DIMNSIONS
 62
     7
 10
-2423.2222222222222
 20
-2610.025333333333
 30
0.0
 40
112.8888888888889
  1
992
 50
90.0
 41
0.85
 11
-2536.1111111111109
 21
-2610.025333333333
 31
0.0
 73
     3
  0
LINE
  5
1D7
  8
DIMNSIONS
 62
     7
 10
-2120.0
 20
-3000.0
 30
0.0
 11
-2642.5
 21
-3000.0
 31
0.0
  0
LINE
  5
1D8
  8
DIMNSIONS
 62
     7
 10
-2152.8879999999999
 20
-1605.3839999999971
 30
0.0
 11
-2642.5
 21
-1605.3839999999971
 31
0.0
  0
LINE
  5
1DA
  8
DIMNSIONS
 62
     7
 10
-2562.5
 20
-3000.0
 30
0.0
 11
-2589.3015918060091
 21
-2899.97509765625
 31
0.0
  0
LINE
  5
1DB
  8
DIMNSIONS
 62
     7
 10
-2562.5
 20
-3000.0
 30
0.0
 11
-2535.69840819399
 21
-2899.97509765625
 31
0.0
  0
LINE
  5
1DC
  8
DIMNSIONS
 62
     7
 10
-2562.5
 20
-1605.3839999999971
 30
0.0
 11
-2535.69840819399
 21
-1705.4089023437471
 31
0.0
  0
LINE
  5
1DD
  8
DIMNSIONS
 62
     7
 10
-2562.5
 20
-1605.3839999999971
 30
0.0
 11
-2589.3015918060091
 21
-1705.4089023437471
 31
0.0
  0
LINE
  5
1D9
  8
DIMNSIONS
 62
     7
 10
-2562.5
 20
-3000.0
 30
0.0
 11
-2562.5
 21
-1605.3839999999971
 31
0.0
  0
TEXT
  5
1DE
  8
DIMNSIONS
 62
     7
 10
-2610.7222222222222
 20
-2584.9142222222208
 30
0.0
 40
112.8888888888889
  1
1395(HF)
 50
90.0
 41
0.85
 11
-2723.6111111111109
 21
-2584.9142222222208
 31
0.0
 73
     3
  0
LINE
  5
1DF
  8
DIMNSIONS
 62
     7
 10
-2152.8879999999999
 20
-1210.3839999999971
 30
0.0
 11
-2830.0
 21
-1210.3839999999971
 31
0.0
  0
LINE
  5
1E0
  8
DIMNSIONS
 62
     7
 10
-2080.0
 20
-3000.0
 30
0.0
 11
-2830.0
 21
-3000.0
 31
0.0
  0
LINE
  5
1E2
  8
DIMNSIONS
 62
     7
 10
-2750.0
 20
-1210.3839999999971
 30
0.0
 11
-2723.19840819399
 21
-1310.4089023437471
 31
0.0
  0
LINE
  5
1E3
  8
DIMNSIONS
 62
     7
 10
-2750.0
 20
-1210.3839999999971
 30
0.0
 11
-2776.8015918060091
 21
-1310.4089023437471
 31
0.0
  0
LINE
  5
1E4
  8
DIMNSIONS
 62
     7
 10
-2750.0
 20
-3000.0
 30
0.0
 11
-2776.8015918060091
 21
-2899.97509765625
 31
0.0
  0
LINE
  5
1E5
  8
DIMNSIONS
 62
     7
 10
-2750.0
 20
-3000.0
 30
0.0
 11
-2723.19840819399
 21
-2899.97509765625
 31
0.0
  0
LINE
  5
1E1
  8
DIMNSIONS
 62
     7
 10
-2750.0
 20
-1210.3839999999971
 30
0.0
 11
-2750.0
 21
-3000.0
 31
0.0
  0
TEXT
  5
1E6
  8
DIMNSIONS
 62
     7
 10
-2798.2222222222222
 20
-2246.30311111111
 30
0.0
 40
112.8888888888889
  1
1790
 50
90.0
 41
0.85
 11
-2911.1111111111109
 21
-2246.30311111111
 31
0.0
 73
     3
  0
LINE
  5
1E7
  8
DIMNSIONS
 62
     7
 10
-2000.0
 20
-3080.0
 30
0.0
 11
-2000.0
 21
-3330.0
 31
0.0
  0
LINE
  5
1E8
  8
DIMNSIONS
 62
     7
 10
-1350.7760000000001
 20
-3080.0
 30
0.0
 11
-1350.7760000000001
 21
-3330.0
 31
0.0
  0
LINE
  5
1EA
  8
DIMNSIONS
 62
     7
 10
-2000.0
 20
-3250.0
 30
0.0
 11
-1899.9750976562491
 21
-3223.19840819399
 31
0.0
  0
LINE
  5
1EB
  8
DIMNSIONS
 62
     7
 10
-2000.0
 20
-3250.0
 30
0.0
 11
-1899.9750976562491
 21
-3276.8015918060091
 31
0.0
  0
LINE
  5
1EC
  8
DIMNSIONS
 62
     7
 10
-1350.7760000000001
 20
-3250.0
 30
0.0
 11
-1450.8009023437501
 21
-3276.8015918060091
 31
0.0
  0
LINE
  5
1ED
  8
DIMNSIONS
 62
     7
 10
-1350.7760000000001
 20
-3250.0
 30
0.0
 11
-1450.8009023437501
 21
-3223.19840819399
 31
0.0
  0
LINE
  5
1E9
  8
DIMNSIONS
 62
     7
 10
-2000.0
 20
-3250.0
 30
0.0
 11
-1350.7760000000001
 21
-3250.0
 31
0.0
  0
TEXT
  5
1EE
  8
DIMNSIONS
 62
     7
 10
-1781.221333333333
 20
-3201.7777777777778
 30
0.0
 40
112.8888888888889
  1
649
 41
0.85
 11
-1781.221333333333
 21
-3088.8888888888891
 31
0.0
 73
     3
  0
LINE
  5
1EF
  8
DIMNSIONS
 62
     7
 10
-1277.454699999997
 20
-2049.3173000000002
 30
0.0
 11
-1277.454699999997
 21
-3580.0
 31
0.0
  0
LINE
  5
1F0
  8
DIMNSIONS
 62
     7
 10
-2073.3213000000001
 20
-2049.3173000000002
 30
0.0
 11
-2073.3213000000001
 21
-3580.0
 31
0.0
  0
LINE
  5
1F2
  8
DIMNSIONS
 62
     7
 10
-1277.454699999997
 20
-3500.0
 30
0.0
 11
-1377.479602343747
 21
-3526.8015918060091
 31
0.0
  0
LINE
  5
1F3
  8
DIMNSIONS
 62
     7
 10
-1277.454699999997
 20
-3500.0
 30
0.0
 11
-1377.479602343747
 21
-3473.19840819399
 31
0.0
  0
LINE
  5
1F4
  8
DIMNSIONS
 62
     7
 10
-2073.3213000000001
 20
-3500.0
 30
0.0
 11
-1973.2963976562501
 21
-3473.19840819399
 31
0.0
  0
LINE
  5
1F5
  8
DIMNSIONS
 62
     7
 10
-2073.3213000000001
 20
-3500.0
 30
0.0
 11
-1973.2963976562501
 21
-3526.8015918060091
 31
0.0
  0
LINE
  5
1F1
  8
DIMNSIONS
 62
     7
 10
-1277.454699999997
 20
-3500.0
 30
0.0
 11
-2073.3213000000001
 21
-3500.0
 31
0.0
  0
TEXT
  5
1F6
  8
DIMNSIONS
 62
     7
 10
-1781.221333333332
 20
-3451.7777777777778
 30
0.0
 40
112.8888888888889
  1
796
 41
0.85
 11
-1781.221333333332
 21
-3338.8888888888891
 31
0.0
 73
     3
  0
LINE
  5
1F7
  8
DIMNSIONS
 62
     7
 10
-2080.0
 20
-148.89599999999959
 30
0.0
 11
-2455.0
 21
-148.89599999999959
 31
0.0
  0
LINE
  5
1F8
  8
DIMNSIONS
 62
     7
 10
-2080.0
 20
-600.0
 30
0.0
 11
-2455.0
 21
-600.0
 31
0.0
  0
LINE
  5
1FA
  8
DIMNSIONS
 62
     7
 10
-2375.0
 20
-148.89599999999959
 30
0.0
 11
-2348.19840819399
 21
-248.9209023437497
 31
0.0
  0
LINE
  5
1FB
  8
DIMNSIONS
 62
     7
 10
-2375.0
 20
-148.89599999999959
 30
0.0
 11
-2401.8015918060091
 21
-248.9209023437497
 31
0.0
  0
LINE
  5
1FC
  8
DIMNSIONS
 62
     7
 10
-2375.0
 20
-600.0
 30
0.0
 11
-2401.8015918060091
 21
-499.97509765624989
 31
0.0
  0
LINE
  5
1FD
  8
DIMNSIONS
 62
     7
 10
-2375.0
 20
-600.0
 30
0.0
 11
-2348.19840819399
 21
-499.97509765624989
 31
0.0
  0
LINE
  5
1F9
  8
DIMNSIONS
 62
     7
 10
-2375.0
 20
-148.89599999999959
 30
0.0
 11
-2375.0
 21
-600.0
 31
0.0
  0
TEXT
  5
1FE
  8
DIMNSIONS
 62
     7
 10
-2423.2222222222222
 20
-480.28133333333318
 30
0.0
 40
112.8888888888889
  1
451
 50
90.0
 41
0.85
 11
-2536.1111111111109
 21
-480.28133333333318
 31
0.0
 73
     3
  0
LINE
  5
1FF
  8
DIMNSIONS
 62
     7
 10
-1826.6349999999991
 20
128.16180000000091
 30
0.0
 11
-2830.0
 21
128.16180000000091
 31
0.0
  0
LINE
  5
200
  8
DIMNSIONS
 62
     7
 10
-2152.8879999999999
 20
-819.35000000000025
 30
0.0
 11
-2830.0
 21
-819.35000000000025
 31
0.0
  0
LINE
  5
202
  8
DIMNSIONS
 62
     7
 10
-2750.0
 20
128.16180000000091
 30
0.0
 11
-2723.19840819399
 21
28.13689765625098
 31
0.0
  0
LINE
  5
203
  8
DIMNSIONS
 62
     7
 10
-2750.0
 20
128.16180000000091
 30
0.0
 11
-2776.8015918060091
 21
28.136897656250991
 31
0.0
  0
LINE
  5
204
  8
DIMNSIONS
 62
     7
 10
-2750.0
 20
-819.35000000000025
 30
0.0
 11
-2776.8015918060091
 21
-719.32509765625014
 31
0.0
  0
LINE
  5
205
  8
DIMNSIONS
 62
     7
 10
-2750.0
 20
-819.35000000000025
 30
0.0
 11
-2723.19840819399
 21
-719.32509765625014
 31
0.0
  0
LINE
  5
201
  8
DIMNSIONS
 62
     7
 10
-2750.0
 20
128.16180000000091
 30
0.0
 11
-2750.0
 21
-819.35000000000025
 31
0.0
  0
TEXT
  5
206
  8
DIMNSIONS
 62
     7
 10
-2798.2222222222222
 20
-451.42743333333289
 30
0.0
 40
112.8888888888889
  1
948
 50
90.0
 41
0.85
 11
-2911.1111111111109
 21
-451.42743333333289
 31
0.0
 73
     3
  0
LINE
  5
207
  8
DIMNSIONS
 62
     7
 10
-750.0
 20
-3080.0
 30
0.0
 11
-750.0
 21
-3330.0
 31
0.0
  0
LINE
  5
208
  8
DIMNSIONS
 62
     7
 10
-298.89599999999882
 20
-3080.0
 30
0.0
 11
-298.89599999999882
 21
-3330.0
 31
0.0
  0
LINE
  5
20A
  8
DIMNSIONS
 62
     7
 10
-750.0
 20
-3250.0
 30
0.0
 11
-649.97509765624989
 21
-3223.19840819399
 31
0.0
  0
LINE
  5
20B
  8
DIMNSIONS
 62
     7
 10
-750.0
 20
-3250.0
 30
0.0
 11
-649.97509765624989
 21
-3276.8015918060091
 31
0.0
  0
LINE
  5
20C
  8
DIMNSIONS
 62
     7
 10
-298.89599999999882
 20
-3250.0
 30
0.0
 11
-398.92090234374871
 21
-3276.8015918060091
 31
0.0
  0
LINE
  5
20D
  8
DIMNSIONS
 62
     7
 10
-298.89599999999882
 20
-3250.0
 30
0.0
 11
-398.92090234374871
 21
-3223.19840819399
 31
0.0
  0
LINE
  5
209
  8
DIMNSIONS
 62
     7
 10
-750.0
 20
-3250.0
 30
0.0
 11
-298.89599999999882
 21
-3250.0
 31
0.0
  0
TEXT
  5
20E
  8
DIMNSIONS
 62
     7
 10
-630.28133333333267
 20
-3201.7777777777778
 30
0.0
 40
112.8888888888889
  1
451
 41
0.85
 11
-630.28133333333267
 21
-3088.8888888888891
 31
0.0
 73
     3
  0
LINE
  5
20F
  8
DIMNSIONS
 62
     7
 10
-969.34999999999889
 20
-1685.3839999999991
 30
0.0
 11
-969.34999999999889
 21
-3330.0
 31
0.0
  0
LINE
  5
210
  8
DIMNSIONS
 62
     7
 10
-750.0
 20
-3080.0
 30
0.0
 11
-750.0
 21
-3330.0
 31
0.0
  0
LINE
  5
212
  8
DIMNSIONS
 62
     7
 10
-969.34999999999889
 20
-3250.0
 30
0.0
 11
-869.32509765624877
 21
-3223.19840819399
 31
0.0
  0
LINE
  5
213
  8
DIMNSIONS
 62
     7
 10
-969.34999999999889
 20
-3250.0
 30
0.0
 11
-869.32509765624877
 21
-3276.8015918060091
 31
0.0
  0
LINE
  5
214
  8
DIMNSIONS
 62
     7
 10
-750.0
 20
-3250.0
 30
0.0
 11
-850.02490234375
 21
-3276.8015918060091
 31
0.0
  0
LINE
  5
215
  8
DIMNSIONS
 62
     7
 10
-750.0
 20
-3250.0
 30
0.0
 11
-850.02490234375
 21
-3223.19840819399
 31
0.0
  0
LINE
  5
211
  8
DIMNSIONS
 62
     7
 10
-969.34999999999889
 20
-3250.0
 30
0.0
 11
-750.0
 21
-3250.0
 31
0.0
  0
TEXT
  5
216
  8
DIMNSIONS
 62
     7
 10
-965.50833333333276
 20
-3201.7777777777778
 30
0.0
 40
112.8888888888889
  1
219
 41
0.85
 11
-965.50833333333276
 21
-3088.8888888888891
 31
0.0
 73
     3
  0
LINE
  5
217
  8
DIMNSIONS
 62
     7
 10
-969.34999999999889
 20
-1685.3839999999991
 30
0.0
 11
-969.34999999999889
 21
-3580.0
 31
0.0
  0
LINE
  5
218
  8
DIMNSIONS
 62
     7
 10
-21.838199999998331
 20
-1756.6309999999989
 30
0.0
 11
-21.838199999998331
 21
-3580.0
 31
0.0
  0
LINE
  5
21A
  8
DIMNSIONS
 62
     7
 10
-969.34999999999889
 20
-3500.0
 30
0.0
 11
-869.32509765624877
 21
-3473.19840819399
 31
0.0
  0
LINE
  5
21B
  8
DIMNSIONS
 62
     7
 10
-969.34999999999889
 20
-3500.0
 30
0.0
 11
-869.32509765624877
 21
-3526.8015918060091
 31
0.0
  0
LINE
  5
21C
  8
DIMNSIONS
 62
     7
 10
-21.838199999998331
 20
-3500.0
 30
0.0
 11
-121.8631023437483
 21
-3526.8015918060091
 31
0.0
  0
LINE
  5
21D
  8
DIMNSIONS
 62
     7
 10
-21.838199999998331
 20
-3500.0
 30
0.0
 11
-121.8631023437483
 21
-3473.19840819399
 31
0.0
  0
LINE
  5
219
  8
DIMNSIONS
 62
     7
 10
-969.34999999999889
 20
-3500.0
 30
0.0
 11
-21.838199999998331
 21
-3500.0
 31
0.0
  0
TEXT
  5
21E
  8
DIMNSIONS
 62
     7
 10
-601.42743333333203
 20
-3451.7777777777778
 30
0.0
 40
112.8888888888889
  1
948
 41
0.85
 11
-601.42743333333203
 21
-3338.8888888888891
 31
0.0
 73
     3
  0
TEXT
  5
21F
  8
DATA
 62
     7
 10
2099.9999999999991
 20
-4179.4036150000002
 30
0.0
 40
101.59999999999999
  1
JBL
 41
0.85
 11
2099.9999999999991
 21
-4077.8036149999989
 31
0.0
 73
     3
  0
TEXT
  5
220
  8
DATA
 62
     7
 10
-3099.9999999999991
 20
-4747.6592150000006
 30
0.0
 40
67.733333333333334
  1
仕様および外観は予告なく変更されることがありますので、ご了承ください。
 41
0.85
 11
-3099.9999999999991
 21
-4679.925881666667
 31
0.0
 73
     3
  0
LINE
  5
221
  8
DATA
 62
     7
 10
899.22400000000016
 20
-3000.0
 30
0.0
 11
250.0
 21
-3000.0
 31
0.0
  0
LINE
  5
222
  8
DATA
 62
     7
 10
250.0
 20
-2008.384
 30
0.0
 11
899.22400000000016
 21
-2008.384
 31
0.0
  0
LINE
  5
223
  8
DATA
 62
     7
 10
880.22400000000005
 20
-2981.0
 30
0.0
 11
269.0
 21
-2981.0
 31
0.0
  0
LINE
  5
224
  8
DATA
 62
     7
 10
269.0
 20
-2027.384
 30
0.0
 11
880.22400000000005
 21
-2027.384
 31
0.0
  0
LINE
  5
225
  8
DATA
 62
     7
 10
-2000.0
 20
-3000.0
 30
0.0
 11
-2000.0
 21
-2008.384
 31
0.0
  0
LINE
  5
226
  8
DATA
 62
     7
 10
-1981.0
 20
-2981.0
 30
0.0
 11
-1981.0
 21
-2027.384
 31
0.0
  0
LINE
  5
227
  8
DATA
 62
     7
 10
-1369.7760000000001
 20
-2027.384
 30
0.0
 11
-1369.7760000000001
 21
-2981.0
 31
0.0
  0
LINE
  5
228
  8
DATA
 62
     7
 10
-1350.7760000000001
 20
-2008.384
 30
0.0
 11
-1350.7760000000001
 21
-3000.0
 31
0.0
  0
LINE
  5
229
  8
DATA
 62
     7
 10
-1350.7760000000001
 20
-3000.0
 30
0.0
 11
-2000.0
 21
-3000.0
 31
0.0
  0
CIRCLE
  5
22A
  8
DATA
 62
     7
 10
-1675.387999999999
 20
-2303.384
 30
0.0
 40
193.5
  0
CIRCLE
  5
22B
  8
DATA
 62
     7
 10
-1675.387999999999
 20
-2303.384
 30
0.0
 40
190.0
  0
CIRCLE
  5
22C
  8
DATA
 62
     7
 10
-1675.387999999999
 20
-2303.3838999999998
 30
0.0
 40
180.0
  0
CIRCLE
  5
22D
  8
DATA
 62
     7
 10
-1675.387999999999
 20
-2303.3838999999998
 30
0.0
 40
176.25
  0
CIRCLE
  5
22E
  8
DATA
 62
     7
 10
-1675.387999999999
 20
-2303.384
 30
0.0
 40
169.74999999999989
  0
CIRCLE
  5
22F
  8
DATA
 62
     7
 10
-1675.387999999999
 20
-2303.3838999999998
 30
0.0
 40
163.0
  0
CIRCLE
  5
230
  8
DATA
 62
     7
 10
-1675.387999999999
 20
-2303.384
 30
0.0
 40
151.0
  0
CIRCLE
  5
231
  8
DATA
 62
     7
 10
-1675.387999999999
 20
-2303.3838999999998
 30
0.0
 40
145.30780000000041
  0
CIRCLE
  5
232
  8
DATA
 62
     7
 10
-1675.387999999999
 20
-2303.384
 30
0.0
 40
139.61559999999909
  0
CIRCLE
  5
233
  8
DATA
 62
     7
 10
-1675.387999999999
 20
-2303.3838999999998
 30
0.0
 40
133.9233999999997
  0
CIRCLE
  5
234
  8
DATA
 62
     7
 10
-1675.387999999999
 20
-2303.3838999999998
 30
0.0
 40
128.23120000000009
  0
CIRCLE
  5
235
  8
DATA
 62
     7
 10
-1675.387999999999
 20
-2303.3838999999998
 30
0.0
 40
122.53899999999879
  0
CIRCLE
  5
236
  8
DATA
 62
     7
 10
-1675.387999999999
 20
-2303.3838999999998
 30
0.0
 40
116.84679999999931
  0
CIRCLE
  5
237
  8
DATA
 62
     7
 10
-1675.387999999999
 20
-2303.384
 30
0.0
 40
111.1545999999998
  0
CIRCLE
  5
238
  8
DATA
 62
     7
 10
-1675.387999999999
 20
-2705.0
 30
0.0
 40
193.5
  0
CIRCLE
  5
239
  8
DATA
 62
     7
 10
-1675.387999999999
 20
-2705.0
 30
0.0
 40
190.0
  0
CIRCLE
  5
23A
  8
DATA
 62
     7
 10
-1675.387999999999
 20
-2704.9998999999998
 30
0.0
 40
180.0
  0
CIRCLE
  5
23B
  8
DATA
 62
     7
 10
-1675.387999999999
 20
-2704.9998999999998
 30
0.0
 40
176.25
  0
CIRCLE
  5
23C
  8
DATA
 62
     7
 10
-1675.387999999999
 20
-2705.0
 30
0.0
 40
169.74999999999989
  0
CIRCLE
  5
23D
  8
DATA
 62
     7
 10
-1675.387999999999
 20
-2704.9998999999998
 30
0.0
 40
163.0
  0
CIRCLE
  5
23E
  8
DATA
 62
     7
 10
-1675.387999999999
 20
-2705.0
 30
0.0
 40
151.0
  0
CIRCLE
  5
23F
  8
DATA
 62
     7
 10
-1675.387999999999
 20
-2704.9998999999998
 30
0.0
 40
145.30780000000041
  0
CIRCLE
  5
240
  8
DATA
 62
     7
 10
-1675.387999999999
 20
-2705.0
 30
0.0
 40
139.61559999999909
  0
CIRCLE
  5
241
  8
DATA
 62
     7
 10
-1675.387999999999
 20
-2704.9998999999998
 30
0.0
 40
133.9233999999997
  0
CIRCLE
  5
242
  8
DATA
 62
     7
 10
-1675.387999999999
 20
-2704.9998999999998
 30
0.0
 40
128.23120000000009
  0
CIRCLE
  5
243
  8
DATA
 62
     7
 10
-1675.387999999999
 20
-2704.9998999999998
 30
0.0
 40
122.53899999999879
  0
CIRCLE
  5
244
  8
DATA
 62
     7
 10
-1675.387999999999
 20
-2704.9998999999998
 30
0.0
 40
116.84679999999931
  0
CIRCLE
  5
245
  8
DATA
 62
     7
 10
-1675.387999999999
 20
-2705.0
 30
0.0
 40
111.1545999999998
  0
LINE
  5
246
  8
DATA
 62
     7
 10
-1369.7760000000001
 20
-2981.0
 30
0.0
 11
-1981.0
 21
-2981.0
 31
0.0
  0
CIRCLE
  5
247
  8
DATA
 62
     7
 10
-1675.387999999999
 20
-2303.384
 30
0.0
 40
56.5
  0
CIRCLE
  5
248
  8
DATA
 62
     7
 10
-1675.387999999999
 20
-2303.3838999999998
 30
0.0
 40
77.0
  0
CIRCLE
  5
249
  8
DATA
 62
     7
 10
-1675.387999999999
 20
-2303.3838999999998
 30
0.0
 40
105.4623999999985
  0
CIRCLE
  5
24A
  8
DATA
 62
     7
 10
-1675.387999999999
 20
-2303.3838999999998
 30
0.0
 40
99.770199999999008
  0
CIRCLE
  5
24B
  8
DATA
 62
     7
 10
-1675.387999999999
 20
-2303.3838999999998
 30
0.0
 40
94.077999999999506
  0
CIRCLE
  5
24C
  8
DATA
 62
     7
 10
-1675.387999999999
 20
-2303.3838999999998
 30
0.0
 40
88.385800000000017
  0
CIRCLE
  5
24D
  8
DATA
 62
     7
 10
-1675.387999999999
 20
-2303.3838999999998
 30
0.0
 40
82.693600000000515
  0
CIRCLE
  5
24E
  8
DATA
 62
     7
 10
-1675.387999999999
 20
-2705.0
 30
0.0
 40
56.5
  0
CIRCLE
  5
24F
  8
DATA
 62
     7
 10
-1846.3056999999999
 20
-2775.7964000000011
 30
0.0
 40
3.5
  0
LINE
  5
250
  8
DATA
 62
     7
 10
-1848.3056999999999
 20
-2775.7964000000011
 30
0.0
 11
-1844.305699999999
 21
-2775.7964000000011
 31
0.0
  0
LINE
  5
251
  8
DATA
 62
     7
 10
-1846.3056999999999
 20
-2777.7964000000002
 30
0.0
 11
-1846.3056999999999
 21
-2773.7964000000002
 31
0.0
  0
LINE
  5
252
  8
DATA
 62
     7
 10
-1850.8173999999999
 20
-2773.8768
 30
0.0
 11
-1847.6451
 21
-2772.5628000000002
 31
0.0
  0
LINE
  5
253
  8
DATA
 62
     7
 10
-1848.1386
 20
-2780.3440000000001
 30
0.0
 11
-1844.9664
 21
-2779.0300000000002
 31
0.0
  0
ARC
  5
254
  8
DATA
 62
     7
 10
-1851.3914
 20
-2772.491
 30
0.0
 40
1.5000999999999061
 50
200.9807449999976
 51
292.49939499998521
  0
ARC
  5
255
  8
DATA
 62
     7
 10
-1847.5646000000011
 20
-2781.7298000000001
 30
0.0
 40
1.5000000000000651
 50
112.4993950000067
 51
204.0206639999966
  0
CIRCLE
  5
256
  8
DATA
 62
     7
 10
-1746.1846
 20
-2875.9177
 30
0.0
 40
3.5
  0
LINE
  5
257
  8
DATA
 62
     7
 10
-1747.5988
 20
-2877.3319000000001
 30
0.0
 11
-1744.7704000000001
 21
-2874.5035000000012
 31
0.0
  0
LINE
  5
258
  8
DATA
 62
     7
 10
-1744.7704000000001
 20
-2877.3319000000001
 30
0.0
 11
-1747.5988
 21
-2874.5035000000012
 31
0.0
  0
LINE
  5
259
  8
DATA
 62
     7
 10
-1750.7320999999999
 20
-2877.7505999999998
 30
0.0
 11
-1749.4182000000001
 21
-2874.5783000000001
 31
0.0
  0
LINE
  5
25A
  8
DATA
 62
     7
 10
-1744.2648999999999
 20
-2880.4294
 30
0.0
 11
-1742.951
 21
-2877.2570999999989
 31
0.0
  0
ARC
  5
25B
  8
DATA
 62
     7
 10
-1752.1179999999999
 20
-2877.1765
 30
0.0
 40
1.5001000000002891
 50
245.9808909999912
 51
337.49853799999562
  0
ARC
  5
25C
  8
DATA
 62
     7
 10
-1742.8791000000001
 20
-2881.0034000000001
 30
0.0
 40
1.5000000000000651
 50
157.5006049999933
 51
249.01788699999079
  0
CIRCLE
  5
25D
  8
DATA
 62
     7
 10
-1604.5916999999999
 20
-2875.9178999999999
 30
0.0
 40
3.5
  0
LINE
  5
25E
  8
DATA
 62
     7
 10
-1604.5916
 20
-2877.9178000000002
 30
0.0
 11
-1604.5916999999999
 21
-2873.9178999999999
 31
0.0
  0
LINE
  5
25F
  8
DATA
 62
     7
 10
-1602.5916999999999
 20
-2875.9178999999999
 30
0.0
 11
-1606.5916
 21
-2875.9178000000002
 31
0.0
  0
LINE
  5
260
  8
DATA
 62
     7
 10
-1606.511199999999
 20
-2880.4294
 30
0.0
 11
-1607.8252999999991
 21
-2877.2573000000002
 31
0.0
  0
LINE
  5
261
  8
DATA
 62
     7
 10
-1600.0440000000001
 20
-2877.7505999999998
 30
0.0
 11
-1601.3580999999999
 21
-2874.5785000000001
 31
0.0
  0
ARC
  5
262
  8
DATA
 62
     7
 10
-1607.897100000001
 20
-2881.0034999999998
 30
0.0
 40
1.5001000000004929
 50
290.97937800002632
 51
22.501462000004331
  0
ARC
  5
263
  8
DATA
 62
     7
 10
-1598.6582000000001
 20
-2877.1765999999998
 30
0.0
 40
1.5000000000009051
 50
202.4993949999934
 51
294.01717499998688
  0
CIRCLE
  5
264
  8
DATA
 62
     7
 10
-1846.3058000000001
 20
-2634.2033999999999
 30
0.0
 40
3.5
  0
LINE
  5
265
  8
DATA
 62
     7
 10
-1847.72
 20
-2632.7894000000001
 30
0.0
 11
-1844.8915
 21
-2635.6176999999998
 31
0.0
  0
LINE
  5
266
  8
DATA
 62
     7
 10
-1847.72
 20
-2635.6176
 30
0.0
 11
-1844.8915999999999
 21
-2632.7894000000001
 31
0.0
  0
LINE
  5
267
  8
DATA
 62
     7
 10
-1848.1386
 20
-2629.6559999999999
 30
0.0
 11
-1844.9664
 21
-2630.9697999999999
 31
0.0
  0
LINE
  5
268
  8
DATA
 62
     7
 10
-1850.8173999999999
 20
-2636.1232
 30
0.0
 11
-1847.645199999999
 21
-2637.4369999999999
 31
0.0
  0
ARC
  5
269
  8
DATA
 62
     7
 10
-1847.5645
 20
-2628.2701000000002
 30
0.0
 40
1.500199999999777
 50
155.9789569999943
 51
247.49853800001199
  0
ARC
  5
26A
  8
DATA
 62
     7
 10
-1851.3914
 20
-2637.509
 30
0.0
 40
1.5000000000000651
 50
67.5006049999933
 51
159.0178869999971
  0
CIRCLE
  5
26B
  8
DATA
 62
     7
 10
-1604.5915000000009
 20
-2534.0823999999989
 30
0.0
 40
3.5
  0
LINE
  5
26C
  8
DATA
 62
     7
 10
-1603.1773000000001
 20
-2532.6682000000001
 30
0.0
 11
-1606.0056999999999
 21
-2535.496599999999
 31
0.0
  0
LINE
  5
26D
  8
DATA
 62
     7
 10
-1606.0056999999999
 20
-2532.6682000000001
 30
0.0
 11
-1603.1773000000001
 21
-2535.496599999999
 31
0.0
  0
LINE
  5
26E
  8
DATA
 62
     7
 10
-1600.0440000000001
 20
-2532.2494999999999
 30
0.0
 11
-1601.3579
 21
-2535.4218000000001
 31
0.0
  0
LINE
  5
26F
  8
DATA
 62
     7
 10
-1606.511199999999
 20
-2529.5707000000002
 30
0.0
 11
-1607.8251000000009
 21
-2532.7429999999999
 31
0.0
  0
ARC
  5
270
  8
DATA
 62
     7
 10
-1598.658099999999
 20
-2532.8236000000002
 30
0.0
 40
1.500099999999549
 50
65.980891000054655
 51
157.49853799999559
  0
ARC
  5
271
  8
DATA
 62
     7
 10
-1607.896999999999
 20
-2528.9967000000001
 30
0.0
 40
1.4999999999992251
 50
337.50060499998
 51
69.017887000055737
  0
CIRCLE
  5
272
  8
DATA
 62
     7
 10
-1746.1844000000001
 20
-2534.0821999999998
 30
0.0
 40
3.5
  0
LINE
  5
273
  8
DATA
 62
     7
 10
-1746.1845000000001
 20
-2532.0823
 30
0.0
 11
-1746.1844000000001
 21
-2536.0821999999998
 31
0.0
  0
LINE
  5
274
  8
DATA
 62
     7
 10
-1748.184400000001
 20
-2534.0821999999998
 30
0.0
 11
-1744.1845000000001
 21
-2534.0823
 31
0.0
  0
LINE
  5
275
  8
DATA
 62
     7
 10
-1744.2648999999999
 20
-2529.5707000000002
 30
0.0
 11
-1742.9508000000001
 21
-2532.7428
 31
0.0
  0
LINE
  5
276
  8
DATA
 62
     7
 10
-1750.7320999999999
 20
-2532.2494999999999
 30
0.0
 11
-1749.4179999999999
 21
-2535.4216000000001
 31
0.0
  0
ARC
  5
277
  8
DATA
 62
     7
 10
-1742.8789999999999
 20
-2528.996599999999
 30
0.0
 40
1.5001000000004929
 50
110.9793780000263
 51
202.50146199999099
  0
ARC
  5
278
  8
DATA
 62
     7
 10
-1752.1179
 20
-2532.8235000000009
 30
0.0
 40
1.5000000000000651
 50
22.4993950000067
 51
114.0171750000186
  0
CIRCLE
  5
279
  8
DATA
 62
     7
 10
-1675.387999999999
 20
-2704.9998999999998
 30
0.0
 40
77.0
  0
CIRCLE
  5
27A
  8
DATA
 62
     7
 10
-1675.387999999999
 20
-2704.9998999999998
 30
0.0
 40
105.4623999999985
  0
CIRCLE
  5
27B
  8
DATA
 62
     7
 10
-1675.387999999999
 20
-2704.9998999999998
 30
0.0
 40
99.770199999999008
  0
CIRCLE
  5
27C
  8
DATA
 62
     7
 10
-1675.387999999999
 20
-2704.9998999999998
 30
0.0
 40
94.077999999999506
  0
CIRCLE
  5
27D
  8
DATA
 62
     7
 10
-1675.387999999999
 20
-2704.9998999999998
 30
0.0
 40
88.385800000000017
  0
CIRCLE
  5
27E
  8
DATA
 62
     7
 10
-1675.387999999999
 20
-2704.9998999999998
 30
0.0
 40
82.693600000000515
  0
CIRCLE
  5
27F
  8
DATA
 62
     7
 10
-1871.0
 20
-2504.192
 30
0.0
 40
67.5
  0
CIRCLE
  5
280
  8
DATA
 62
     7
 10
-1846.3056999999999
 20
-2374.1804000000002
 30
0.0
 40
3.5
  0
LINE
  5
281
  8
DATA
 62
     7
 10
-1848.3056999999999
 20
-2374.1804000000002
 30
0.0
 11
-1844.305699999999
 21
-2374.1804000000002
 31
0.0
  0
LINE
  5
282
  8
DATA
 62
     7
 10
-1846.3056999999999
 20
-2376.1804000000002
 30
0.0
 11
-1846.3056999999999
 21
-2372.1804000000002
 31
0.0
  0
LINE
  5
283
  8
DATA
 62
     7
 10
-1850.8173999999999
 20
-2372.2608
 30
0.0
 11
-1847.6451
 21
-2370.9468000000002
 31
0.0
  0
LINE
  5
284
  8
DATA
 62
     7
 10
-1848.1386
 20
-2378.7280000000001
 30
0.0
 11
-1844.9664
 21
-2377.4140000000002
 31
0.0
  0
ARC
  5
285
  8
DATA
 62
     7
 10
-1851.3914
 20
-2370.875
 30
0.0
 40
1.5000999999999061
 50
200.9807449999976
 51
292.49939499998521
  0
ARC
  5
286
  8
DATA
 62
     7
 10
-1847.5646000000011
 20
-2380.1138000000001
 30
0.0
 40
1.5000000000000651
 50
112.4993950000067
 51
204.0206639999966
  0
CIRCLE
  5
287
  8
DATA
 62
     7
 10
-1746.1846
 20
-2474.3017
 30
0.0
 40
3.5
  0
LINE
  5
288
  8
DATA
 62
     7
 10
-1747.5988
 20
-2475.7159000000011
 30
0.0
 11
-1744.7704000000001
 21
-2472.8875000000012
 31
0.0
  0
LINE
  5
289
  8
DATA
 62
     7
 10
-1744.7704000000001
 20
-2475.7159000000011
 30
0.0
 11
-1747.5988
 21
-2472.8875000000012
 31
0.0
  0
LINE
  5
28A
  8
DATA
 62
     7
 10
-1750.7320999999999
 20
-2476.1345999999999
 30
0.0
 11
-1749.4182000000001
 21
-2472.9623000000011
 31
0.0
  0
LINE
  5
28B
  8
DATA
 62
     7
 10
-1744.2648999999999
 20
-2478.8134
 30
0.0
 11
-1742.951
 21
-2475.6410999999998
 31
0.0
  0
ARC
  5
28C
  8
DATA
 62
     7
 10
-1752.1179999999999
 20
-2475.5605
 30
0.0
 40
1.5001000000002891
 50
245.9808909999912
 51
337.49853799999562
  0
ARC
  5
28D
  8
DATA
 62
     7
 10
-1742.8791000000001
 20
-2479.3874000000001
 30
0.0
 40
1.5000000000000651
 50
157.5006049999933
 51
249.01788699999079
  0
CIRCLE
  5
28E
  8
DATA
 62
     7
 10
-1604.5916999999999
 20
-2474.3018999999999
 30
0.0
 40
3.5
  0
LINE
  5
28F
  8
DATA
 62
     7
 10
-1604.5916
 20
-2476.3018000000002
 30
0.0
 11
-1604.5916999999999
 21
-2472.3018999999999
 31
0.0
  0
LINE
  5
290
  8
DATA
 62
     7
 10
-1602.5916999999999
 20
-2474.3018999999999
 30
0.0
 11
-1606.5916
 21
-2474.3018000000002
 31
0.0
  0
LINE
  5
291
  8
DATA
 62
     7
 10
-1606.511199999999
 20
-2478.8134
 30
0.0
 11
-1607.8252999999991
 21
-2475.6412999999989
 31
0.0
  0
LINE
  5
292
  8
DATA
 62
     7
 10
-1600.0440000000001
 20
-2476.1345999999999
 30
0.0
 11
-1601.3580999999999
 21
-2472.9625000000001
 31
0.0
  0
ARC
  5
293
  8
DATA
 62
     7
 10
-1607.897100000001
 20
-2479.3874999999998
 30
0.0
 40
1.5001000000004929
 50
290.97937800002632
 51
22.501462000004331
  0
ARC
  5
294
  8
DATA
 62
     7
 10
-1598.6582000000001
 20
-2475.5605999999998
 30
0.0
 40
1.5000000000009051
 50
202.4993949999934
 51
294.01717499998688
  0
CIRCLE
  5
295
  8
DATA
 62
     7
 10
-1846.3058000000001
 20
-2232.5874000000008
 30
0.0
 40
3.5
  0
LINE
  5
296
  8
DATA
 62
     7
 10
-1847.72
 20
-2231.1734000000001
 30
0.0
 11
-1844.8915
 21
-2234.0016999999998
 31
0.0
  0
LINE
  5
297
  8
DATA
 62
     7
 10
-1847.72
 20
-2234.0016000000001
 30
0.0
 11
-1844.8915999999999
 21
-2231.1734000000001
 31
0.0
  0
LINE
  5
298
  8
DATA
 62
     7
 10
-1848.1386
 20
-2228.04
 30
0.0
 11
-1844.9664
 21
-2229.353799999999
 31
0.0
  0
LINE
  5
299
  8
DATA
 62
     7
 10
-1850.8173999999999
 20
-2234.5072
 30
0.0
 11
-1847.645199999999
 21
-2235.8209999999999
 31
0.0
  0
ARC
  5
29A
  8
DATA
 62
     7
 10
-1847.5645
 20
-2226.6541000000002
 30
0.0
 40
1.500199999999777
 50
155.9789569999943
 51
247.49853800001199
  0
ARC
  5
29B
  8
DATA
 62
     7
 10
-1851.3914
 20
-2235.893
 30
0.0
 40
1.5000000000000651
 50
67.5006049999933
 51
159.0178869999971
  0
CIRCLE
  5
29C
  8
DATA
 62
     7
 10
-1604.5915000000009
 20
-2132.4663999999989
 30
0.0
 40
3.5
  0
LINE
  5
29D
  8
DATA
 62
     7
 10
-1603.1773000000001
 20
-2131.0522000000001
 30
0.0
 11
-1606.0056999999999
 21
-2133.8806
 31
0.0
  0
LINE
  5
29E
  8
DATA
 62
     7
 10
-1606.0056999999999
 20
-2131.0522000000001
 30
0.0
 11
-1603.1773000000001
 21
-2133.8806
 31
0.0
  0
LINE
  5
29F
  8
DATA
 62
     7
 10
-1600.0440000000001
 20
-2130.6334999999999
 30
0.0
 11
-1601.3579
 21
-2133.8058000000001
 31
0.0
  0
LINE
  5
2A0
  8
DATA
 62
     7
 10
-1606.511199999999
 20
-2127.9546999999989
 30
0.0
 11
-1607.8251000000009
 21
-2131.127
 31
0.0
  0
ARC
  5
2A1
  8
DATA
 62
     7
 10
-1598.658099999999
 20
-2131.2076000000011
 30
0.0
 40
1.500099999999549
 50
65.980891000054655
 51
157.49853799999559
  0
ARC
  5
2A2
  8
DATA
 62
     7
 10
-1607.896999999999
 20
-2127.3807000000002
 30
0.0
 40
1.4999999999992251
 50
337.50060499998
 51
69.017887000055737
  0
CIRCLE
  5
2A3
  8
DATA
 62
     7
 10
-1746.1844000000001
 20
-2132.4661999999998
 30
0.0
 40
3.5
  0
LINE
  5
2A4
  8
DATA
 62
     7
 10
-1746.1845000000001
 20
-2130.4663
 30
0.0
 11
-1746.1844000000001
 21
-2134.4661999999989
 31
0.0
  0
LINE
  5
2A5
  8
DATA
 62
     7
 10
-1748.184400000001
 20
-2132.4661999999998
 30
0.0
 11
-1744.1845000000001
 21
-2132.4663
 31
0.0
  0
LINE
  5
2A6
  8
DATA
 62
     7
 10
-1744.2648999999999
 20
-2127.9546999999989
 30
0.0
 11
-1742.9508000000001
 21
-2131.1268
 31
0.0
  0
LINE
  5
2A7
  8
DATA
 62
     7
 10
-1750.7320999999999
 20
-2130.6334999999999
 30
0.0
 11
-1749.4179999999999
 21
-2133.8056000000001
 31
0.0
  0
ARC
  5
2A8
  8
DATA
 62
     7
 10
-1742.8789999999999
 20
-2127.380599999999
 30
0.0
 40
1.5001000000004929
 50
110.9793780000263
 51
202.50146199999099
  0
ARC
  5
2A9
  8
DATA
 62
     7
 10
-1752.1179
 20
-2131.2074999999991
 30
0.0
 40
1.5000000000000651
 50
22.4993950000067
 51
114.0171750000186
  0
CIRCLE
  5
2AA
  8
DATA
 62
     7
 10
-1504.4703
 20
-2775.7966000000001
 30
0.0
 40
3.5
  0
LINE
  5
2AB
  8
DATA
 62
     7
 10
-1503.0561
 20
-2777.210599999999
 30
0.0
 11
-1505.8846000000001
 21
-2774.3823000000011
 31
0.0
  0
LINE
  5
2AC
  8
DATA
 62
     7
 10
-1503.0561
 20
-2774.3824
 30
0.0
 11
-1505.884499999999
 21
-2777.210599999999
 31
0.0
  0
LINE
  5
2AD
  8
DATA
 62
     7
 10
-1502.6374999999989
 20
-2780.3440000000001
 30
0.0
 11
-1505.8097
 21
-2779.0302000000001
 31
0.0
  0
LINE
  5
2AE
  8
DATA
 62
     7
 10
-1499.9586999999999
 20
-2773.8768
 30
0.0
 11
-1503.130900000001
 21
-2772.5630000000001
 31
0.0
  0
ARC
  5
2AF
  8
DATA
 62
     7
 10
-1503.211600000001
 20
-2781.7298999999998
 30
0.0
 40
1.5002000000014379
 50
335.97895700002272
 51
67.498537999980044
  0
ARC
  5
2B0
  8
DATA
 62
     7
 10
-1499.384700000001
 20
-2772.491
 30
0.0
 40
1.4999999999993689
 50
247.5006050000575
 51
339.01788700002191
  0
CIRCLE
  5
2B1
  8
DATA
 62
     7
 10
-1504.4703
 20
-2634.2037
 30
0.0
 40
3.5
  0
LINE
  5
2B2
  8
DATA
 62
     7
 10
-1502.4703
 20
-2634.2037
 30
0.0
 11
-1506.4703
 21
-2634.2037
 31
0.0
  0
LINE
  5
2B3
  8
DATA
 62
     7
 10
-1504.4703
 20
-2632.2037
 30
0.0
 11
-1504.4703
 21
-2636.2037
 31
0.0
  0
LINE
  5
2B4
  8
DATA
 62
     7
 10
-1499.9585999999999
 20
-2636.1233000000002
 30
0.0
 11
-1503.130900000001
 21
-2637.4373000000001
 31
0.0
  0
LINE
  5
2B5
  8
DATA
 62
     7
 10
-1502.6374000000001
 20
-2629.6561000000011
 30
0.0
 11
-1505.8095999999989
 21
-2630.9701
 31
0.0
  0
ARC
  5
2B6
  8
DATA
 62
     7
 10
-1499.3846000000001
 20
-2637.5091000000011
 30
0.0
 40
1.5000999999990581
 50
20.980745000010149
 51
112.4993950000172
  0
ARC
  5
2B7
  8
DATA
 62
     7
 10
-1503.211399999999
 20
-2628.2703000000001
 30
0.0
 40
1.4999999999993689
 50
292.49939499994252
 51
24.020664000024912
  0
CIRCLE
  5
2B8
  8
DATA
 62
     7
 10
-1479.7760000000001
 20
-2504.192
 30
0.0
 40
67.5
  0
CIRCLE
  5
2B9
  8
DATA
 62
     7
 10
-1504.4703
 20
-2374.180600000001
 30
0.0
 40
3.5
  0
LINE
  5
2BA
  8
DATA
 62
     7
 10
-1503.0561
 20
-2375.594599999999
 30
0.0
 11
-1505.8846000000001
 21
-2372.7662999999989
 31
0.0
  0
LINE
  5
2BB
  8
DATA
 62
     7
 10
-1503.0561
 20
-2372.7664
 30
0.0
 11
-1505.884499999999
 21
-2375.594599999999
 31
0.0
  0
LINE
  5
2BC
  8
DATA
 62
     7
 10
-1502.6374999999989
 20
-2378.7280000000001
 30
0.0
 11
-1505.8097
 21
-2377.4142000000002
 31
0.0
  0
LINE
  5
2BD
  8
DATA
 62
     7
 10
-1499.9586999999999
 20
-2372.2608
 30
0.0
 11
-1503.130900000001
 21
-2370.9470000000001
 31
0.0
  0
ARC
  5
2BE
  8
DATA
 62
     7
 10
-1503.211600000001
 20
-2380.1138999999998
 30
0.0
 40
1.5002000000014379
 50
335.97895700002272
 51
67.498537999980044
  0
ARC
  5
2BF
  8
DATA
 62
     7
 10
-1499.384700000001
 20
-2370.875
 30
0.0
 40
1.4999999999993689
 50
247.5006050000575
 51
339.01788700002191
  0
CIRCLE
  5
2C0
  8
DATA
 62
     7
 10
-1504.4703
 20
-2232.5877
 30
0.0
 40
3.5
  0
LINE
  5
2C1
  8
DATA
 62
     7
 10
-1502.4703
 20
-2232.5877
 30
0.0
 11
-1506.4703
 21
-2232.5877
 31
0.0
  0
LINE
  5
2C2
  8
DATA
 62
     7
 10
-1504.4703
 20
-2230.5877
 30
0.0
 11
-1504.4703
 21
-2234.5877
 31
0.0
  0
LINE
  5
2C3
  8
DATA
 62
     7
 10
-1499.9585999999999
 20
-2234.5073000000002
 30
0.0
 11
-1503.130900000001
 21
-2235.8213000000001
 31
0.0
  0
LINE
  5
2C4
  8
DATA
 62
     7
 10
-1502.6374000000001
 20
-2228.0401000000002
 30
0.0
 11
-1505.8095999999989
 21
-2229.3541
 31
0.0
  0
ARC
  5
2C5
  8
DATA
 62
     7
 10
-1499.3846000000001
 20
-2235.8930999999989
 30
0.0
 40
1.5000999999990581
 50
20.980745000010149
 51
112.4993950000172
  0
ARC
  5
2C6
  8
DATA
 62
     7
 10
-1503.211399999999
 20
-2226.6543000000001
 30
0.0
 40
1.4999999999993689
 50
292.49939499994252
 51
24.020664000024912
  0
LINE
  5
2C7
  8
DATA
 62
     7
 10
-1345.7760000000001
 20
-2059.384
 30
0.0
 11
-1345.7760000000001
 21
-2236.384
 31
0.0
  0
LINE
  5
2C8
  8
DATA
 62
     7
 10
-1350.7760000000001
 20
-2059.384
 30
0.0
 11
-1345.7760000000001
 21
-2059.384
 31
0.0
  0
LINE
  5
2C9
  8
DATA
 62
     7
 10
-1350.7760000000001
 20
-2236.384
 30
0.0
 11
-1345.7760000000001
 21
-2236.384
 31
0.0
  0
LINE
  5
2CA
  8
DATA
 62
     7
 10
-2000.0
 20
-600.0
 30
0.0
 11
-2000.0
 21
-148.89599999999959
 31
0.0
  0
LINE
  5
2CB
  8
DATA
 62
     7
 10
-1350.7760000000001
 20
-148.89599999999959
 30
0.0
 11
-1350.7760000000001
 21
-600.0
 31
0.0
  0
LINE
  5
2CC
  8
DATA
 62
     7
 10
-2000.0
 20
-2008.384
 30
0.0
 11
-1350.7760000000001
 21
-2008.384
 31
0.0
  0
LINE
  5
2CD
  8
DATA
 62
     7
 10
-1981.0
 20
-2027.384
 30
0.0
 11
-1369.7760000000001
 21
-2027.384
 31
0.0
  0
LINE
  5
2CE
  8
DATA
 62
     7
 10
-1590.018031905312
 20
-603.60000000000036
 30
0.0
 11
-1481.8880000000011
 21
-603.60000000000036
 31
0.0
  0
LINE
  5
2CF
  8
DATA
 62
     7
 10
-1350.7760000000001
 20
-600.0
 30
0.0
 11
-1592.756334110582
 21
-600.0
 31
0.0
  0
LINE
  5
2D0
  8
DATA
 62
     7
 10
-1868.8879999999999
 20
-600.0
 30
0.0
 11
-1868.8879999999999
 21
-603.60000000000036
 31
0.0
  0
LINE
  5
2D1
  8
DATA
 62
     7
 10
-1868.8879999999999
 20
-603.60000000000036
 30
0.0
 11
-1760.757968094686
 21
-603.60000000000036
 31
0.0
  0
LINE
  5
2D2
  8
DATA
 62
     7
 10
-1758.0196658894149
 20
-600.0
 30
0.0
 11
-2000.0
 21
-600.0
 31
0.0
  0
LINE
  5
2D3
  8
DATA
 62
     7
 10
-1481.8879999999999
 20
-603.59999999999945
 30
0.0
 11
-1481.8879999999999
 21
-600.0
 31
0.0
  0
LINE
  5
2D4
  8
DATA
 62
     7
 10
-1653.8879999999999
 20
-148.89599999999959
 30
0.0
 11
-1350.7760000000001
 21
-148.89599999999959
 31
0.0
  0
LINE
  5
2D5
  8
DATA
 62
     7
 10
-2000.0
 20
-148.89599999999959
 30
0.0
 11
-1696.887999999999
 21
-148.89599999999959
 31
0.0
  0
LINE
  5
2D6
  8
DATA
 62
     7
 10
-1350.7760000000001
 20
-198.8959999999997
 30
0.0
 11
-1345.7760000000001
 21
-198.8959999999997
 31
0.0
  0
LINE
  5
2D7
  8
DATA
 62
     7
 10
-1350.7760000000001
 20
-349.89600000000058
 30
0.0
 11
-1345.7760000000001
 21
-349.89600000000058
 31
0.0
  0
LINE
  5
2D8
  8
DATA
 62
     7
 10
-1345.7760000000001
 20
-349.89600000000058
 30
0.0
 11
-1345.7760000000001
 21
-198.8959999999997
 31
0.0
  0
LINE
  5
2D9
  8
DATA
 62
     7
 10
-750.0
 20
-3000.0
 30
0.0
 11
-750.0
 21
-2008.384
 31
0.0
  0
LINE
  5
2DA
  8
DATA
 62
     7
 10
-298.89599999999882
 20
-2008.384
 30
0.0
 11
-298.89599999999882
 21
-3000.0
 31
0.0
  0
LINE
  5
2DB
  8
DATA
 62
     7
 10
250.0
 20
-3000.0
 30
0.0
 11
250.0
 21
-2008.384
 31
0.0
  0
LINE
  5
2DC
  8
DATA
 62
     7
 10
269.0
 20
-2981.0
 30
0.0
 11
269.0
 21
-2027.384
 31
0.0
  0
TEXT
  5
2DD
  8
DATA
 62
     7
 10
-393.90297012663711
 20
-2140.884
 30
0.0
 40
4.296875
  1
SELECTOR
 41
0.85
 11
-393.90297012663711
 21
-2136.587125
 31
0.0
 73
     3
  0
LINE
  5
2DE
  8
DATA
 62
     7
 10
-614.44800000000043
 20
-2440.384
 30
0.0
 11
-614.44800000000043
 21
-2293.384
 31
0.0
  0
LINE
  5
2DF
  8
DATA
 62
     7
 10
-434.44800000000032
 20
-2293.384
 30
0.0
 11
-434.44800000000032
 21
-2440.384
 31
0.0
  0
LINE
  5
2E0
  8
DATA
 62
     7
 10
-753.60000000000025
 20
-2496.884
 30
0.0
 11
-753.60000000000025
 21
-2109.884
 31
0.0
  0
LINE
  5
2E1
  8
DATA
 62
     7
 10
-298.89599999999882
 20
-3000.0
 30
0.0
 11
-750.0
 21
-3000.0
 31
0.0
  0
LINE
  5
2E2
  8
DATA
 62
     7
 10
-434.44800000000032
 20
-2440.384
 30
0.0
 11
-614.44800000000043
 21
-2440.384
 31
0.0
  0
LINE
  5
2E3
  8
DATA
 62
     7
 10
-753.60000000000025
 20
-2898.4999999999982
 30
0.0
 11
-753.60000000000025
 21
-2511.4999999999991
 31
0.0
  0
LINE
  5
2E4
  8
DATA
 62
     7
 10
-753.60000000000025
 20
-2898.4999999999982
 30
0.0
 11
-750.0
 21
-2898.4999999999982
 31
0.0
  0
LINE
  5
2E5
  8
DATA
 62
     7
 10
-753.60000000000025
 20
-2496.8839999999991
 30
0.0
 11
-750.0
 21
-2496.884
 31
0.0
  0
LINE
  5
2E6
  8
DATA
 62
     7
 10
-753.60000000000025
 20
-2511.4999999999991
 30
0.0
 11
-750.0
 21
-2511.4999999999991
 31
0.0
  0
LINE
  5
2E7
  8
DATA
 62
     7
 10
-614.44800000000043
 20
-2293.384
 30
0.0
 11
-434.44800000000032
 21
-2293.384
 31
0.0
  0
LINE
  5
2E8
  8
DATA
 62
     7
 10
-353.89600000000058
 20
-2236.384
 30
0.0
 11
-494.89600000000053
 21
-2236.384
 31
0.0
  0
LINE
  5
2E9
  8
DATA
 62
     7
 10
-494.89600000000053
 20
-2059.384
 30
0.0
 11
-353.89600000000058
 21
-2059.384
 31
0.0
  0
LINE
  5
2EA
  8
DATA
 62
     7
 10
-368.39600000000058
 20
-2218.884
 30
0.0
 11
-480.39600000000058
 21
-2218.884
 31
0.0
  0
LINE
  5
2EB
  8
DATA
 62
     7
 10
-480.39600000000058
 20
-2076.884
 30
0.0
 11
-368.39600000000058
 21
-2076.884
 31
0.0
  0
LINE
  5
2EC
  8
DATA
 62
     7
 10
-479.39600000000053
 20
-2080.384
 30
0.0
 11
-369.39600000000053
 21
-2080.384
 31
0.0
  0
LINE
  5
2ED
  8
DATA
 62
     7
 10
-479.39600000000053
 20
-2215.3839999999991
 30
0.0
 11
-369.39600000000053
 21
-2215.3839999999991
 31
0.0
  0
LINE
  5
2EE
  8
DATA
 62
     7
 10
-753.60000000000025
 20
-2109.884
 30
0.0
 11
-750.0
 21
-2109.884
 31
0.0
  0
LINE
  5
2EF
  8
DATA
 62
     7
 10
-499.89600000000053
 20
-2231.3839999999991
 30
0.0
 11
-499.89600000000053
 21
-2064.3839999999991
 31
0.0
  0
LINE
  5
2F0
  8
DATA
 62
     7
 10
-483.39600000000053
 20
-2215.884
 30
0.0
 11
-483.39600000000053
 21
-2079.884
 31
0.0
  0
CIRCLE
  5
2F1
  8
DATA
 62
     7
 10
-494.39599999999882
 20
-2065.384
 30
0.0
 40
4.0
  0
LINE
  5
2F2
  8
DATA
 62
     7
 10
-496.39600000000058
 20
-2065.384
 30
0.0
 11
-492.39599999999871
 21
-2065.384
 31
0.0
  0
LINE
  5
2F3
  8
DATA
 62
     7
 10
-494.39599999999882
 20
-2067.384
 30
0.0
 11
-494.39599999999882
 21
-2063.384
 31
0.0
  0
CIRCLE
  5
2F4
  8
DATA
 62
     7
 10
-494.39599999999882
 20
-2147.884
 30
0.0
 40
4.0
  0
LINE
  5
2F5
  8
DATA
 62
     7
 10
-496.39600000000058
 20
-2147.884
 30
0.0
 11
-492.39599999999871
 21
-2147.884
 31
0.0
  0
LINE
  5
2F6
  8
DATA
 62
     7
 10
-494.39599999999882
 20
-2149.884
 30
0.0
 11
-494.39599999999882
 21
-2145.884
 31
0.0
  0
CIRCLE
  5
2F7
  8
DATA
 62
     7
 10
-494.39599999999882
 20
-2230.384
 30
0.0
 40
4.0
  0
LINE
  5
2F8
  8
DATA
 62
     7
 10
-496.39600000000058
 20
-2230.384
 30
0.0
 11
-492.39599999999871
 21
-2230.384
 31
0.0
  0
LINE
  5
2F9
  8
DATA
 62
     7
 10
-494.39599999999882
 20
-2232.384
 30
0.0
 11
-494.39599999999882
 21
-2228.384
 31
0.0
  0
ARC
  5
2FA
  8
DATA
 62
     7
 10
-480.39600000000058
 20
-2079.884
 30
0.0
 40
3.0
 50
90.0
 51
180.0
  0
ARC
  5
2FB
  8
DATA
 62
     7
 10
-480.39600000000058
 20
-2215.884
 30
0.0
 40
3.0
 50
180.0
 51
270.0
  0
ARC
  5
2FC
  8
DATA
 62
     7
 10
-494.89600000000053
 20
-2064.3839999999991
 30
0.0
 40
5.0
 50
90.0
 51
180.0
  0
ARC
  5
2FD
  8
DATA
 62
     7
 10
-494.89600000000053
 20
-2231.3839999999991
 30
0.0
 40
5.0
 50
180.0
 51
270.0
  0
LINE
  5
2FE
  8
DATA
 62
     7
 10
-479.39600000000053
 20
-2215.3839999999991
 30
0.0
 11
-479.39600000000053
 21
-2080.384
 31
0.0
  0
LINE
  5
2FF
  8
DATA
 62
     7
 10
-452.89599999999882
 20
-2135.384
 30
0.0
 11
-452.89599999999882
 21
-2090.3839999999991
 31
0.0
  0
LINE
  5
300
  8
DATA
 62
     7
 10
-401.89600000000058
 20
-2141.3839999999991
 30
0.0
 11
-446.89600000000058
 21
-2141.3839999999991
 31
0.0
  0
LINE
  5
301
  8
DATA
 62
     7
 10
-395.89599999999871
 20
-2090.3839999999991
 30
0.0
 11
-395.89599999999871
 21
-2135.384
 31
0.0
  0
LINE
  5
302
  8
DATA
 62
     7
 10
-446.89600000000058
 20
-2084.384
 30
0.0
 11
-401.89600000000058
 21
-2084.384
 31
0.0
  0
LINE
  5
303
  8
DATA
 62
     7
 10
-443.39600000000058
 20
-2129.134
 30
0.0
 11
-443.39600000000058
 21
-2096.634
 31
0.0
  0
LINE
  5
304
  8
DATA
 62
     7
 10
-405.39600000000058
 20
-2129.134
 30
0.0
 11
-443.39600000000058
 21
-2129.134
 31
0.0
  0
LINE
  5
305
  8
DATA
 62
     7
 10
-405.39600000000058
 20
-2096.634
 30
0.0
 11
-405.39600000000058
 21
-2129.134
 31
0.0
  0
LINE
  5
306
  8
DATA
 62
     7
 10
-443.39600000000058
 20
-2096.634
 30
0.0
 11
-405.39600000000058
 21
-2096.634
 31
0.0
  0
LINE
  5
307
  8
DATA
 62
     7
 10
-443.39600000000058
 20
-2105.634
 30
0.0
 11
-405.39600000000058
 21
-2105.634
 31
0.0
  0
LINE
  5
308
  8
DATA
 62
     7
 10
-405.39600000000058
 20
-2122.134
 30
0.0
 11
-443.39600000000058
 21
-2122.134
 31
0.0
  0
LINE
  5
309
  8
DATA
 62
     7
 10
-441.14600000000058
 20
-2104.134
 30
0.0
 11
-441.14600000000058
 21
-2098.134
 31
0.0
  0
LINE
  5
30A
  8
DATA
 62
     7
 10
-426.14599999999882
 20
-2104.134
 30
0.0
 11
-441.14600000000058
 21
-2104.134
 31
0.0
  0
LINE
  5
30B
  8
DATA
 62
     7
 10
-426.14599999999882
 20
-2098.134
 30
0.0
 11
-426.14599999999882
 21
-2104.134
 31
0.0
  0
LINE
  5
30C
  8
DATA
 62
     7
 10
-441.14600000000058
 20
-2098.134
 30
0.0
 11
-426.14599999999882
 21
-2098.134
 31
0.0
  0
LINE
  5
30D
  8
DATA
 62
     7
 10
-435.14599999999871
 20
-2125.634
 30
0.0
 11
-432.14599999999871
 21
-2125.634
 31
0.0
  0
LINE
  5
30E
  8
DATA
 62
     7
 10
-422.64599999999871
 20
-2104.134
 30
0.0
 11
-422.64599999999871
 21
-2098.134
 31
0.0
  0
LINE
  5
30F
  8
DATA
 62
     7
 10
-407.64600000000058
 20
-2104.134
 30
0.0
 11
-422.64599999999871
 21
-2104.134
 31
0.0
  0
LINE
  5
310
  8
DATA
 62
     7
 10
-407.64600000000058
 20
-2098.134
 30
0.0
 11
-407.64600000000058
 21
-2104.134
 31
0.0
  0
LINE
  5
311
  8
DATA
 62
     7
 10
-422.64599999999871
 20
-2098.134
 30
0.0
 11
-407.64600000000058
 21
-2098.134
 31
0.0
  0
LINE
  5
312
  8
DATA
 62
     7
 10
-427.89600000000053
 20
-2118.634
 30
0.0
 11
-439.39600000000058
 21
-2118.634
 31
0.0
  0
LINE
  5
313
  8
DATA
 62
     7
 10
-427.89600000000053
 20
-2115.134
 30
0.0
 11
-439.39600000000058
 21
-2115.134
 31
0.0
  0
LINE
  5
314
  8
DATA
 62
     7
 10
-439.39600000000058
 20
-2105.634
 30
0.0
 11
-439.39600000000058
 21
-2122.134
 31
0.0
  0
LINE
  5
315
  8
DATA
 62
     7
 10
-427.89600000000053
 20
-2105.634
 30
0.0
 11
-427.89600000000053
 21
-2122.134
 31
0.0
  0
LINE
  5
316
  8
DATA
 62
     7
 10
-409.39599999999871
 20
-2118.634
 30
0.0
 11
-420.89599999999871
 21
-2118.634
 31
0.0
  0
LINE
  5
317
  8
DATA
 62
     7
 10
-409.39599999999871
 20
-2115.134
 30
0.0
 11
-420.89599999999871
 21
-2115.134
 31
0.0
  0
LINE
  5
318
  8
DATA
 62
     7
 10
-420.89599999999871
 20
-2105.634
 30
0.0
 11
-420.89599999999871
 21
-2122.134
 31
0.0
  0
LINE
  5
319
  8
DATA
 62
     7
 10
-409.39599999999871
 20
-2105.634
 30
0.0
 11
-409.39599999999871
 21
-2122.134
 31
0.0
  0
CIRCLE
  5
31A
  8
DATA
 62
     7
 10
-433.64599999999871
 20
-2125.634
 30
0.0
 40
2.25
  0
LINE
  5
31B
  8
DATA
 62
     7
 10
-416.64599999999871
 20
-2125.634
 30
0.0
 11
-413.64599999999882
 21
-2125.634
 31
0.0
  0
CIRCLE
  5
31C
  8
DATA
 62
     7
 10
-415.14599999999871
 20
-2125.634
 30
0.0
 40
2.25
  0
LINE
  5
31D
  8
DATA
 62
     7
 10
-415.14599999999871
 20
-2124.134
 30
0.0
 11
-415.14599999999871
 21
-2127.134
 31
0.0
  0
CIRCLE
  5
31E
  8
DATA
 62
     7
 10
-446.39599999999871
 20
-2090.884
 30
0.0
 40
3.0
  0
LINE
  5
31F
  8
DATA
 62
     7
 10
-448.39600000000053
 20
-2090.884
 30
0.0
 11
-444.39599999999882
 21
-2090.884
 31
0.0
  0
LINE
  5
320
  8
DATA
 62
     7
 10
-446.39599999999871
 20
-2092.884
 30
0.0
 11
-446.39599999999871
 21
-2088.884
 31
0.0
  0
CIRCLE
  5
321
  8
DATA
 62
     7
 10
-402.39599999999871
 20
-2090.884
 30
0.0
 40
3.0
  0
LINE
  5
322
  8
DATA
 62
     7
 10
-404.39599999999871
 20
-2090.884
 30
0.0
 11
-400.39600000000053
 21
-2090.884
 31
0.0
  0
LINE
  5
323
  8
DATA
 62
     7
 10
-402.39599999999871
 20
-2092.884
 30
0.0
 11
-402.39599999999871
 21
-2088.884
 31
0.0
  0
CIRCLE
  5
324
  8
DATA
 62
     7
 10
-402.39599999999871
 20
-2134.884
 30
0.0
 40
3.0
  0
LINE
  5
325
  8
DATA
 62
     7
 10
-404.39599999999871
 20
-2134.884
 30
0.0
 11
-400.39600000000053
 21
-2134.884
 31
0.0
  0
LINE
  5
326
  8
DATA
 62
     7
 10
-402.39599999999871
 20
-2136.884
 30
0.0
 11
-402.39599999999871
 21
-2132.884
 31
0.0
  0
CIRCLE
  5
327
  8
DATA
 62
     7
 10
-446.39599999999871
 20
-2134.884
 30
0.0
 40
3.0
  0
LINE
  5
328
  8
DATA
 62
     7
 10
-448.39600000000053
 20
-2134.884
 30
0.0
 11
-444.39599999999882
 21
-2134.884
 31
0.0
  0
LINE
  5
329
  8
DATA
 62
     7
 10
-446.39599999999871
 20
-2136.884
 30
0.0
 11
-446.39599999999871
 21
-2132.884
 31
0.0
  0
ARC
  5
32A
  8
DATA
 62
     7
 10
-446.89600000000058
 20
-2090.3839999999991
 30
0.0
 40
6.0
 50
90.0
 51
180.0
  0
ARC
  5
32B
  8
DATA
 62
     7
 10
-446.89600000000058
 20
-2135.384
 30
0.0
 40
6.0
 50
180.0
 51
270.0
  0
ARC
  5
32C
  8
DATA
 62
     7
 10
-401.89600000000058
 20
-2135.384
 30
0.0
 40
6.0
 50
270.0
 51
0.0
  0
ARC
  5
32D
  8
DATA
 62
     7
 10
-401.89600000000058
 20
-2090.3839999999991
 30
0.0
 40
6.0
 50
0.0
 51
90.0
  0
LINE
  5
32E
  8
DATA
 62
     7
 10
-452.89599999999882
 20
-2205.384
 30
0.0
 11
-452.89599999999882
 21
-2160.384
 31
0.0
  0
LINE
  5
32F
  8
DATA
 62
     7
 10
-401.89600000000058
 20
-2211.384
 30
0.0
 11
-446.89600000000058
 21
-2211.384
 31
0.0
  0
LINE
  5
330
  8
DATA
 62
     7
 10
-395.89599999999871
 20
-2160.384
 30
0.0
 11
-395.89599999999871
 21
-2205.384
 31
0.0
  0
LINE
  5
331
  8
DATA
 62
     7
 10
-446.89600000000058
 20
-2154.3839999999991
 30
0.0
 11
-401.89600000000058
 21
-2154.3839999999991
 31
0.0
  0
LINE
  5
332
  8
DATA
 62
     7
 10
-443.39600000000058
 20
-2199.134
 30
0.0
 11
-443.39600000000058
 21
-2166.634
 31
0.0
  0
LINE
  5
333
  8
DATA
 62
     7
 10
-405.39600000000058
 20
-2199.134
 30
0.0
 11
-443.39600000000058
 21
-2199.134
 31
0.0
  0
LINE
  5
334
  8
DATA
 62
     7
 10
-405.39600000000058
 20
-2166.634
 30
0.0
 11
-405.39600000000058
 21
-2199.134
 31
0.0
  0
LINE
  5
335
  8
DATA
 62
     7
 10
-443.39600000000058
 20
-2166.634
 30
0.0
 11
-405.39600000000058
 21
-2166.634
 31
0.0
  0
LINE
  5
336
  8
DATA
 62
     7
 10
-443.39600000000058
 20
-2175.634
 30
0.0
 11
-405.39600000000058
 21
-2175.634
 31
0.0
  0
LINE
  5
337
  8
DATA
 62
     7
 10
-405.39600000000058
 20
-2192.134
 30
0.0
 11
-443.39600000000058
 21
-2192.134
 31
0.0
  0
LINE
  5
338
  8
DATA
 62
     7
 10
-441.14600000000058
 20
-2174.134
 30
0.0
 11
-441.14600000000058
 21
-2168.134
 31
0.0
  0
LINE
  5
339
  8
DATA
 62
     7
 10
-426.14599999999882
 20
-2174.134
 30
0.0
 11
-441.14600000000058
 21
-2174.134
 31
0.0
  0
LINE
  5
33A
  8
DATA
 62
     7
 10
-426.14599999999882
 20
-2168.134
 30
0.0
 11
-426.14599999999882
 21
-2174.134
 31
0.0
  0
LINE
  5
33B
  8
DATA
 62
     7
 10
-441.14600000000058
 20
-2168.134
 30
0.0
 11
-426.14599999999882
 21
-2168.134
 31
0.0
  0
LINE
  5
33C
  8
DATA
 62
     7
 10
-435.14599999999871
 20
-2195.634
 30
0.0
 11
-432.14599999999871
 21
-2195.634
 31
0.0
  0
LINE
  5
33D
  8
DATA
 62
     7
 10
-422.64599999999871
 20
-2174.134
 30
0.0
 11
-422.64599999999871
 21
-2168.134
 31
0.0
  0
LINE
  5
33E
  8
DATA
 62
     7
 10
-407.64600000000058
 20
-2174.134
 30
0.0
 11
-422.64599999999871
 21
-2174.134
 31
0.0
  0
LINE
  5
33F
  8
DATA
 62
     7
 10
-407.64600000000058
 20
-2168.134
 30
0.0
 11
-407.64600000000058
 21
-2174.134
 31
0.0
  0
LINE
  5
340
  8
DATA
 62
     7
 10
-422.64599999999871
 20
-2168.134
 30
0.0
 11
-407.64600000000058
 21
-2168.134
 31
0.0
  0
LINE
  5
341
  8
DATA
 62
     7
 10
-427.89600000000053
 20
-2188.6339999999991
 30
0.0
 11
-439.39600000000058
 21
-2188.6339999999991
 31
0.0
  0
LINE
  5
342
  8
DATA
 62
     7
 10
-427.89600000000053
 20
-2185.134
 30
0.0
 11
-439.39600000000058
 21
-2185.134
 31
0.0
  0
LINE
  5
343
  8
DATA
 62
     7
 10
-439.39600000000058
 20
-2175.634
 30
0.0
 11
-439.39600000000058
 21
-2192.134
 31
0.0
  0
LINE
  5
344
  8
DATA
 62
     7
 10
-427.89600000000053
 20
-2175.634
 30
0.0
 11
-427.89600000000053
 21
-2192.134
 31
0.0
  0
LINE
  5
345
  8
DATA
 62
     7
 10
-409.39599999999871
 20
-2188.6339999999991
 30
0.0
 11
-420.89599999999871
 21
-2188.6339999999991
 31
0.0
  0
LINE
  5
346
  8
DATA
 62
     7
 10
-409.39599999999871
 20
-2185.134
 30
0.0
 11
-420.89599999999871
 21
-2185.134
 31
0.0
  0
LINE
  5
347
  8
DATA
 62
     7
 10
-420.89599999999871
 20
-2175.634
 30
0.0
 11
-420.89599999999871
 21
-2192.134
 31
0.0
  0
LINE
  5
348
  8
DATA
 62
     7
 10
-409.39599999999871
 20
-2175.634
 30
0.0
 11
-409.39599999999871
 21
-2192.134
 31
0.0
  0
CIRCLE
  5
349
  8
DATA
 62
     7
 10
-433.64599999999871
 20
-2195.634
 30
0.0
 40
2.25
  0
LINE
  5
34A
  8
DATA
 62
     7
 10
-416.64599999999871
 20
-2195.634
 30
0.0
 11
-413.64599999999882
 21
-2195.634
 31
0.0
  0
CIRCLE
  5
34B
  8
DATA
 62
     7
 10
-415.14599999999871
 20
-2195.634
 30
0.0
 40
2.25
  0
LINE
  5
34C
  8
DATA
 62
     7
 10
-415.14599999999871
 20
-2194.134
 30
0.0
 11
-415.14599999999871
 21
-2197.134
 31
0.0
  0
CIRCLE
  5
34D
  8
DATA
 62
     7
 10
-446.39599999999871
 20
-2160.884
 30
0.0
 40
3.0
  0
LINE
  5
34E
  8
DATA
 62
     7
 10
-448.39600000000053
 20
-2160.884
 30
0.0
 11
-444.39599999999882
 21
-2160.884
 31
0.0
  0
LINE
  5
34F
  8
DATA
 62
     7
 10
-446.39599999999871
 20
-2162.884
 30
0.0
 11
-446.39599999999871
 21
-2158.884
 31
0.0
  0
CIRCLE
  5
350
  8
DATA
 62
     7
 10
-402.39599999999871
 20
-2160.884
 30
0.0
 40
3.0
  0
LINE
  5
351
  8
DATA
 62
     7
 10
-404.39599999999871
 20
-2160.884
 30
0.0
 11
-400.39600000000053
 21
-2160.884
 31
0.0
  0
LINE
  5
352
  8
DATA
 62
     7
 10
-402.39599999999871
 20
-2162.884
 30
0.0
 11
-402.39599999999871
 21
-2158.884
 31
0.0
  0
CIRCLE
  5
353
  8
DATA
 62
     7
 10
-402.39599999999871
 20
-2204.884
 30
0.0
 40
3.0
  0
LINE
  5
354
  8
DATA
 62
     7
 10
-404.39599999999871
 20
-2204.884
 30
0.0
 11
-400.39600000000053
 21
-2204.884
 31
0.0
  0
LINE
  5
355
  8
DATA
 62
     7
 10
-402.39599999999871
 20
-2206.884
 30
0.0
 11
-402.39599999999871
 21
-2202.884
 31
0.0
  0
CIRCLE
  5
356
  8
DATA
 62
     7
 10
-446.39599999999871
 20
-2204.884
 30
0.0
 40
3.0
  0
LINE
  5
357
  8
DATA
 62
     7
 10
-448.39600000000053
 20
-2204.884
 30
0.0
 11
-444.39599999999882
 21
-2204.884
 31
0.0
  0
LINE
  5
358
  8
DATA
 62
     7
 10
-446.39599999999871
 20
-2206.884
 30
0.0
 11
-446.39599999999871
 21
-2202.884
 31
0.0
  0
ARC
  5
359
  8
DATA
 62
     7
 10
-446.89600000000058
 20
-2160.384
 30
0.0
 40
6.0
 50
90.0
 51
180.0
  0
ARC
  5
35A
  8
DATA
 62
     7
 10
-446.89600000000058
 20
-2205.384
 30
0.0
 40
6.0
 50
180.0
 51
270.0
  0
ARC
  5
35B
  8
DATA
 62
     7
 10
-401.89600000000058
 20
-2205.384
 30
0.0
 40
6.0
 50
270.0
 51
0.0
  0
ARC
  5
35C
  8
DATA
 62
     7
 10
-401.89600000000058
 20
-2160.384
 30
0.0
 40
6.0
 50
0.0
 51
90.0
  0
TEXT
  5
35D
  8
DATA
 62
     7
 10
-441.4814774577298
 20
-2137.884
 30
0.0
 40
5.5859375
  1
HF OUTPUT
 41
0.85
 11
-441.4814774577298
 21
-2132.2980624999991
 31
0.0
 73
     3
  0
TEXT
  5
35E
  8
DATA
 62
     7
 10
-433.4448192144755
 20
-2207.8839999999991
 30
0.0
 40
5.5859375
  1
INPUT
 41
0.85
 11
-433.4448192144755
 21
-2202.2980625
 31
0.0
 73
     3
  0
LINE
  5
35F
  8
DATA
 62
     7
 10
-348.89599999999871
 20
-2064.3839999999991
 30
0.0
 11
-348.89599999999871
 21
-2231.3839999999991
 31
0.0
  0
LINE
  5
360
  8
DATA
 62
     7
 10
-365.39599999999871
 20
-2079.884
 30
0.0
 11
-365.39599999999871
 21
-2215.884
 31
0.0
  0
CIRCLE
  5
361
  8
DATA
 62
     7
 10
-354.39599999999871
 20
-2147.884
 30
0.0
 40
4.0
  0
LINE
  5
362
  8
DATA
 62
     7
 10
-356.39599999999871
 20
-2147.884
 30
0.0
 11
-352.39600000000053
 21
-2147.884
 31
0.0
  0
LINE
  5
363
  8
DATA
 62
     7
 10
-354.39599999999871
 20
-2149.884
 30
0.0
 11
-354.39599999999871
 21
-2145.884
 31
0.0
  0
CIRCLE
  5
364
  8
DATA
 62
     7
 10
-354.39599999999871
 20
-2065.384
 30
0.0
 40
4.0
  0
LINE
  5
365
  8
DATA
 62
     7
 10
-356.39599999999871
 20
-2065.384
 30
0.0
 11
-352.39600000000053
 21
-2065.384
 31
0.0
  0
LINE
  5
366
  8
DATA
 62
     7
 10
-354.39599999999871
 20
-2067.384
 30
0.0
 11
-354.39599999999871
 21
-2063.384
 31
0.0
  0
CIRCLE
  5
367
  8
DATA
 62
     7
 10
-354.39599999999871
 20
-2230.384
 30
0.0
 40
4.0
  0
LINE
  5
368
  8
DATA
 62
     7
 10
-356.39599999999871
 20
-2230.384
 30
0.0
 11
-352.39600000000053
 21
-2230.384
 31
0.0
  0
LINE
  5
369
  8
DATA
 62
     7
 10
-354.39599999999871
 20
-2232.384
 30
0.0
 11
-354.39599999999871
 21
-2228.384
 31
0.0
  0
ARC
  5
36A
  8
DATA
 62
     7
 10
-368.39600000000058
 20
-2215.884
 30
0.0
 40
3.0
 50
270.0
 51
0.0
  0
ARC
  5
36B
  8
DATA
 62
     7
 10
-368.39600000000058
 20
-2079.884
 30
0.0
 40
3.0
 50
0.0
 51
90.0
  0
ARC
  5
36C
  8
DATA
 62
     7
 10
-353.89600000000058
 20
-2231.3839999999991
 30
0.0
 40
5.0
 50
270.0
 51
0.0
  0
ARC
  5
36D
  8
DATA
 62
     7
 10
-353.89600000000058
 20
-2064.3839999999991
 30
0.0
 40
5.0
 50
0.0
 51
90.0
  0
LINE
  5
36E
  8
DATA
 62
     7
 10
-369.39600000000053
 20
-2080.384
 30
0.0
 11
-369.39600000000053
 21
-2215.3839999999991
 31
0.0
  0
CIRCLE
  5
36F
  8
DATA
 62
     7
 10
-381.39600000000058
 20
-2113.3839999999991
 30
0.0
 40
3.0
  0
CIRCLE
  5
370
  8
DATA
 62
     7
 10
-381.39600000000058
 20
-2113.3839999999991
 30
0.0
 40
7.25
  0
LINE
  5
371
  8
DATA
 62
     7
 10
-387.89600000000058
 20
-2113.3839999999991
 30
0.0
 11
-384.64599999999871
 21
-2119.0131651246002
 31
0.0
  0
LINE
  5
372
  8
DATA
 62
     7
 10
-384.64599999999871
 20
-2119.0131651246002
 30
0.0
 11
-378.14600000000053
 21
-2119.0131651245979
 31
0.0
  0
LINE
  5
373
  8
DATA
 62
     7
 10
-378.14600000000053
 20
-2119.0131651245979
 30
0.0
 11
-374.89600000000058
 21
-2113.3839999999991
 31
0.0
  0
LINE
  5
374
  8
DATA
 62
     7
 10
-374.89600000000058
 20
-2113.3839999999991
 30
0.0
 11
-378.14599999999871
 21
-2107.7548348754021
 31
0.0
  0
LINE
  5
375
  8
DATA
 62
     7
 10
-378.14599999999871
 20
-2107.7548348754021
 30
0.0
 11
-384.64600000000053
 21
-2107.7548348753999
 31
0.0
  0
LINE
  5
376
  8
DATA
 62
     7
 10
-384.64600000000053
 20
-2107.7548348753999
 30
0.0
 11
-387.89600000000058
 21
-2113.3839999999991
 31
0.0
  0
TEXT
  5
377
  8
DATA
 62
     7
 10
-386.3988938429174
 20
-2096.884
 30
0.0
 40
6.015625
  1
2380
 41
0.85
 11
-386.3988938429174
 21
-2090.868375
 31
0.0
 73
     3
  0
LINE
  5
378
  8
DATA
 62
     7
 10
-387.8988938429174
 20
-2098.384
 30
0.0
 11
-387.8988938429174
 21
-2090.384
 31
0.0
  0
LINE
  5
379
  8
DATA
 62
     7
 10
-370.89600000000058
 20
-2098.384
 30
0.0
 11
-370.89600000000058
 21
-2090.384
 31
0.0
  0
LINE
  5
37A
  8
DATA
 62
     7
 10
-387.8988938429174
 20
-2098.384
 30
0.0
 11
-370.89600000000058
 21
-2098.384
 31
0.0
  0
LINE
  5
37B
  8
DATA
 62
     7
 10
-387.8988938429174
 20
-2090.384
 30
0.0
 11
-370.89600000000058
 21
-2090.384
 31
0.0
  0
LINE
  5
37C
  8
DATA
 62
     7
 10
-389.8988938429174
 20
-2094.384
 30
0.0
 11
-387.8988938429174
 21
-2094.384
 31
0.0
  0
LINE
  5
37D
  8
DATA
 62
     7
 10
-389.8988938429174
 20
-2094.384
 30
0.0
 11
-389.8988938429174
 21
-2100.3839999999991
 31
0.0
  0
LINE
  5
37E
  8
DATA
 62
     7
 10
-377.77099999999871
 20
-2107.1053158225618
 30
0.0
 11
-376.64599999999871
 21
-2105.1567586640472
 31
0.0
  0
LINE
  5
37F
  8
DATA
 62
     7
 10
-376.64599999999871
 20
-2105.1567586640472
 30
0.0
 11
-376.64599999999871
 21
-2100.384
 31
0.0
  0
LINE
  5
380
  8
DATA
 62
     7
 10
-389.8988938429174
 20
-2100.3839999999991
 30
0.0
 11
-376.64599999999871
 21
-2100.384
 31
0.0
  0
LINE
  5
381
  8
DATA
 62
     7
 10
-386.14600000000053
 20
-2105.1567586640472
 30
0.0
 11
-385.02100000000053
 21
-2107.1053158225618
 31
0.0
  0
LINE
  5
382
  8
DATA
 62
     7
 10
-389.8988938429174
 20
-2105.1567586640472
 30
0.0
 11
-386.14600000000053
 21
-2105.1567586640472
 31
0.0
  0
LINE
  5
383
  8
DATA
 62
     7
 10
-387.8988938429174
 20
-2130.384
 30
0.0
 11
-387.8988938429174
 21
-2122.384
 31
0.0
  0
LINE
  5
384
  8
DATA
 62
     7
 10
-370.89600000000058
 20
-2130.384
 30
0.0
 11
-370.89600000000058
 21
-2122.384
 31
0.0
  0
LINE
  5
385
  8
DATA
 62
     7
 10
-387.8988938429174
 20
-2130.384
 30
0.0
 11
-370.89600000000058
 21
-2130.384
 31
0.0
  0
LINE
  5
386
  8
DATA
 62
     7
 10
-387.8988938429174
 20
-2122.384
 30
0.0
 11
-370.89600000000058
 21
-2122.384
 31
0.0
  0
LINE
  5
387
  8
DATA
 62
     7
 10
-389.8988938429174
 20
-2126.384
 30
0.0
 11
-387.8988938429174
 21
-2126.384
 31
0.0
  0
LINE
  5
388
  8
DATA
 62
     7
 10
-389.8988938429174
 20
-2105.1567586640472
 30
0.0
 11
-389.8988938429174
 21
-2126.384
 31
0.0
  0
TEXT
  5
389
  8
DATA
 62
     7
 10
-386.3988938429174
 20
-2128.884
 30
0.0
 40
6.015625
  1
2360
 41
0.85
 11
-386.3988938429174
 21
-2122.868375
 31
0.0
 73
     3
  0
LINE
  5
38A
  8
DATA
 62
     7
 10
-383.30803264766649
 20
-2115.6957376914902
 30
0.0
 11
-380.34999275611688
 21
-2110.5722623085089
 31
0.0
  0
LINE
  5
38B
  8
DATA
 62
     7
 10
-382.44200724388247
 20
-2116.1957376914888
 30
0.0
 11
-379.4839673523328
 21
-2111.0722623085089
 31
0.0
  0
TEXT
  5
38C
  8
DATA
 62
     7
 10
-390.61774710107409
 20
-2145.884
 30
0.0
 40
4.296875
  1
SWITCH
 41
0.85
 11
-390.61774710107409
 21
-2141.587125
 31
0.0
 73
     3
  0
TEXT
  5
38D
  8
DATA
 62
     7
 10
-388.4949876076335
 20
-2135.884
 30
0.0
 40
4.296875
  1
HORN
 41
0.85
 11
-388.4949876076335
 21
-2131.587125
 31
0.0
 73
     3
  0
LINE
  5
38E
  8
DATA
 62
     7
 10
245.0
 20
-2059.384
 30
0.0
 11
245.0
 21
-2236.384
 31
0.0
  0
LINE
  5
38F
  8
DATA
 62
     7
 10
250.0
 20
-2059.384
 30
0.0
 11
245.0
 21
-2059.3839999999991
 31
0.0
  0
LINE
  5
390
  8
DATA
 62
     7
 10
250.0
 20
-2236.384
 30
0.0
 11
245.0
 21
-2236.384
 31
0.0
  0
LINE
  5
391
  8
DATA
 62
     7
 10
-750.0
 20
-2008.384
 30
0.0
 11
-298.89599999999882
 21
-2008.384
 31
0.0
  0
LINE
  5
392
  8
DATA
 62
     7
 10
1375.0
 20
-1125.0
 30
0.0
 11
2875.0
 21
-1125.0
 31
0.0
  0
TEXT
  5
393
  8
DATA
 62
     7
 10
1416.015625
 20
-1038.671875
 30
0.0
 40
103.125
  1
コネクターパネル拡大図
 41
0.85
 11
1416.015625
 21
-935.546875
 31
0.0
 73
     3
  0
ARC
  5
394
  8
DATA
 62
     7
 10
2125.0
 20
-706.12029090909164
 30
0.0
 40
593.87970909090916
 50
246.58507945289779
 51
293.41492054710221
  0
LINE
  5
395
  8
DATA
 62
     7
 10
1685.000000000002
 20
-3280.0000000000009
 30
0.0
 11
2564.9999999999968
 21
-3280.0000000000009
 31
0.0
  0
LINE
  5
396
  8
DATA
 62
     7
 10
2304.9999999999991
 20
-3248.0000000000009
 30
0.0
 11
1944.9999999999991
 21
-3248.0000000000009
 31
0.0
  0
LINE
  5
397
  8
DATA
 62
     7
 10
2304.9999999999991
 20
-2687.9999999999991
 30
0.0
 11
1944.9999999999991
 21
-2687.9999999999991
 31
0.0
  0
LINE
  5
398
  8
DATA
 62
     7
 10
1944.9999999999991
 20
-2232.0000000000032
 30
0.0
 11
2304.9999999999991
 21
-2232.0000000000032
 31
0.0
  0
LINE
  5
399
  8
DATA
 62
     7
 10
1944.9999999999991
 20
-2791.9999999999982
 30
0.0
 11
2304.9999999999991
 21
-2791.9999999999982
 31
0.0
  0
LINE
  5
39A
  8
DATA
 62
     7
 10
1685.000000000002
 20
-2199.9999999999991
 30
0.0
 11
2564.9999999999968
 21
-2199.9999999999991
 31
0.0
  0
LINE
  5
39B
  8
DATA
 62
     7
 10
2277.0000000000009
 20
-3150.0000000000032
 30
0.0
 11
1972.9999999999991
 21
-3150.0000000000032
 31
0.0
  0
LINE
  5
39C
  8
DATA
 62
     7
 10
2277.0000000000009
 20
-3093.9999999999982
 30
0.0
 11
1972.9999999999991
 21
-3093.9999999999982
 31
0.0
  0
LINE
  5
39D
  8
DATA
 62
     7
 10
2245.0000000000041
 20
-3065.9999999999991
 30
0.0
 11
2153.0000000000041
 21
-3065.9999999999991
 31
0.0
  0
LINE
  5
39E
  8
DATA
 62
     7
 10
2245.0000000000041
 20
-3038.0000000000009
 30
0.0
 11
2153.0000000000041
 21
-3038.0000000000009
 31
0.0
  0
LINE
  5
39F
  8
DATA
 62
     7
 10
2277.0000000000009
 20
-2590.0
 30
0.0
 11
1972.9999999999991
 21
-2590.0
 31
0.0
  0
LINE
  5
3A0
  8
DATA
 62
     7
 10
1972.9999999999991
 20
-2330.0000000000018
 30
0.0
 11
2277.0000000000009
 21
-2330.0000000000018
 31
0.0
  0
LINE
  5
3A1
  8
DATA
 62
     7
 10
1972.9999999999991
 20
-2401.9999999999968
 30
0.0
 11
2277.0000000000009
 21
-2401.9999999999968
 31
0.0
  0
LINE
  5
3A2
  8
DATA
 62
     7
 10
2277.0000000000009
 20
-2534.0000000000032
 30
0.0
 11
1972.9999999999991
 21
-2534.0000000000032
 31
0.0
  0
LINE
  5
3A3
  8
DATA
 62
     7
 10
2258.9999999999991
 20
-2389.9999999999968
 30
0.0
 11
2139.0000000000018
 21
-2389.9999999999968
 31
0.0
  0
LINE
  5
3A4
  8
DATA
 62
     7
 10
2139.0000000000018
 20
-2342.0000000000032
 30
0.0
 11
2258.9999999999991
 21
-2342.0000000000032
 31
0.0
  0
LINE
  5
3A5
  8
DATA
 62
     7
 10
2245.0000000000041
 20
-2505.9999999999968
 30
0.0
 11
2153.0000000000041
 21
-2505.9999999999968
 31
0.0
  0
LINE
  5
3A6
  8
DATA
 62
     7
 10
2245.0000000000041
 20
-2477.9999999999982
 30
0.0
 11
2153.0000000000041
 21
-2477.9999999999982
 31
0.0
  0
LINE
  5
3A7
  8
DATA
 62
     7
 10
1972.9999999999991
 20
-2889.9999999999968
 30
0.0
 11
2277.0000000000009
 21
-2889.9999999999968
 31
0.0
  0
LINE
  5
3A8
  8
DATA
 62
     7
 10
1972.9999999999991
 20
-2962.0
 30
0.0
 11
2277.0000000000009
 21
-2962.0
 31
0.0
  0
LINE
  5
3A9
  8
DATA
 62
     7
 10
2258.9999999999991
 20
-2950.0
 30
0.0
 11
2139.0000000000018
 21
-2950.0
 31
0.0
  0
LINE
  5
3AA
  8
DATA
 62
     7
 10
2139.0000000000018
 20
-2901.9999999999968
 30
0.0
 11
2258.9999999999991
 21
-2901.9999999999968
 31
0.0
  0
CIRCLE
  5
3AB
  8
DATA
 62
     7
 10
2241.0
 20
-1405.436961049794
 30
0.0
 40
40.0
  0
CIRCLE
  5
3AC
  8
DATA
 62
     7
 10
2241.0
 20
-1405.436961049794
 30
0.0
 40
48.0
  0
TEXT
  5
3AD
  8
DATA
 62
     7
 10
2148.7935756806792
 20
-1749.9999999999991
 30
0.0
 40
85.9375
  1
RED
 41
0.85
 11
2148.7935756806792
 21
-1664.0624999999991
 31
0.0
 73
     3
  0
LINE
  5
3AE
  8
DATA
 62
     7
 10
880.22400000000005
 20
-2027.384
 30
0.0
 11
880.22400000000005
 21
-2981.0
 31
0.0
  0
LINE
  5
3AF
  8
DATA
 62
     7
 10
899.22400000000016
 20
-2008.384
 30
0.0
 11
899.22400000000016
 21
-3000.0
 31
0.0
  0
LINE
  5
3B0
  8
DATA
 62
     7
 10
2085.0016000000001
 20
-2139.9999999999991
 30
0.0
 11
2125.0
 21
-1899.9999999999991
 31
0.0
  0
LINE
  5
3B1
  8
DATA
 62
     7
 10
2125.0
 20
-1899.9999999999991
 30
0.0
 11
2164.9983999999972
 21
-2139.9999999999991
 31
0.0
  0
LINE
  5
3B2
  8
DATA
 62
     7
 10
2124.999999999995
 20
-1899.9999999999791
 30
0.0
 11
2124.9999999999968
 21
-2281.0000000000032
 31
0.0
  0
CIRCLE
  5
3B3
  8
DATA
 62
     7
 10
1949.0000000000041
 20
-3196.0000000000009
 30
0.0
 40
24.0
  0
LINE
  5
3B4
  8
DATA
 62
     7
 10
1932.9999999999991
 20
-3196.0000000000009
 30
0.0
 11
1965.000000000002
 21
-3196.0000000000009
 31
0.0
  0
CIRCLE
  5
3B5
  8
DATA
 62
     7
 10
1949.0000000000041
 20
-2284.0000000000032
 30
0.0
 40
24.0
  0
LINE
  5
3B6
  8
DATA
 62
     7
 10
1932.9999999999991
 20
-2284.0000000000032
 30
0.0
 11
1965.000000000002
 21
-2284.0000000000032
 31
0.0
  0
CIRCLE
  5
3B7
  8
DATA
 62
     7
 10
1949.0000000000041
 20
-2636.0
 30
0.0
 40
24.0
  0
LINE
  5
3B8
  8
DATA
 62
     7
 10
1932.9999999999991
 20
-2636.0
 30
0.0
 11
1965.000000000002
 21
-2636.0
 31
0.0
  0
CIRCLE
  5
3B9
  8
DATA
 62
     7
 10
1949.0000000000041
 20
-2843.9999999999991
 30
0.0
 40
24.0
  0
LINE
  5
3BA
  8
DATA
 62
     7
 10
1932.9999999999991
 20
-2843.9999999999991
 30
0.0
 11
1965.000000000002
 21
-2843.9999999999991
 31
0.0
  0
LINE
  5
3BB
  8
DATA
 62
     7
 10
1685.000000000002
 20
-3280.0000000000009
 30
0.0
 11
1685.000000000002
 21
-2199.9999999999991
 31
0.0
  0
LINE
  5
3BC
  8
DATA
 62
     7
 10
1897.0000000000041
 20
-2639.9999999999968
 30
0.0
 11
1897.0000000000041
 21
-2279.9999999999982
 31
0.0
  0
LINE
  5
3BD
  8
DATA
 62
     7
 10
1897.0000000000041
 20
-3200.0
 30
0.0
 11
1897.0000000000041
 21
-2840.0
 31
0.0
  0
LINE
  5
3BE
  8
DATA
 62
     7
 10
1949.0000000000041
 20
-3212.0
 30
0.0
 11
1949.0000000000041
 21
-3180.0000000000041
 31
0.0
  0
ARC
  5
3BF
  8
DATA
 62
     7
 10
1944.9999999999991
 20
-3200.0
 30
0.0
 40
48.0
 50
180.0
 51
270.0
  0
LINE
  5
3C0
  8
DATA
 62
     7
 10
1949.0000000000041
 20
-2651.9999999999982
 30
0.0
 11
1949.0000000000041
 21
-2620.0000000000009
 31
0.0
  0
ARC
  5
3C1
  8
DATA
 62
     7
 10
1944.9999999999991
 20
-2639.9999999999968
 30
0.0
 40
48.0
 50
180.0
 51
270.0
  0
LINE
  5
3C2
  8
DATA
 62
     7
 10
1949.0000000000041
 20
-2860.0000000000032
 30
0.0
 11
1949.0000000000041
 21
-2828.0
 31
0.0
  0
ARC
  5
3C3
  8
DATA
 62
     7
 10
1944.9999999999991
 20
-2840.0
 30
0.0
 40
48.0
 50
90.0
 51
180.0
  0
LINE
  5
3C4
  8
DATA
 62
     7
 10
1949.0000000000041
 20
-2300.0000000000009
 30
0.0
 11
1949.0000000000041
 21
-2267.9999999999982
 31
0.0
  0
ARC
  5
3C5
  8
DATA
 62
     7
 10
1944.9999999999991
 20
-2279.9999999999982
 30
0.0
 40
48.0
 50
90.0
 51
180.0
  0
LINE
  5
3C6
  8
DATA
 62
     7
 10
1972.9999999999991
 20
-3150.0000000000032
 30
0.0
 11
1972.9999999999991
 21
-2889.9999999999968
 31
0.0
  0
LINE
  5
3C7
  8
DATA
 62
     7
 10
2005.000000000003
 20
-2962.0
 30
0.0
 11
2005.000000000003
 21
-3093.9999999999982
 31
0.0
  0
LINE
  5
3C8
  8
DATA
 62
     7
 10
2097.0
 20
-2962.0
 30
0.0
 11
2097.0
 21
-3093.9999999999982
 31
0.0
  0
LINE
  5
3C9
  8
DATA
 62
     7
 10
2153.0000000000041
 20
-2962.0
 30
0.0
 11
2153.0000000000041
 21
-3093.9999999999982
 31
0.0
  0
LINE
  5
3CA
  8
DATA
 62
     7
 10
2039.0000000000009
 20
-3121.9999999999968
 30
0.0
 11
2063.0000000000018
 21
-3121.9999999999968
 31
0.0
  0
LINE
  5
3CB
  8
DATA
 62
     7
 10
2097.0
 20
-3065.9999999999991
 30
0.0
 11
2005.000000000003
 21
-3065.9999999999991
 31
0.0
  0
LINE
  5
3CC
  8
DATA
 62
     7
 10
2097.0
 20
-3038.0000000000009
 30
0.0
 11
2005.000000000003
 21
-3038.0000000000009
 31
0.0
  0
CIRCLE
  5
3CD
  8
DATA
 62
     7
 10
2051.0
 20
-3121.9999999999968
 30
0.0
 40
18.0
  0
LINE
  5
3CE
  8
DATA
 62
     7
 10
2187.0000000000041
 20
-3121.9999999999968
 30
0.0
 11
2211.0000000000041
 21
-3121.9999999999968
 31
0.0
  0
CIRCLE
  5
3CF
  8
DATA
 62
     7
 10
2199.0000000000041
 20
-3121.9999999999968
 30
0.0
 40
18.0
  0
LINE
  5
3D0
  8
DATA
 62
     7
 10
2199.0000000000041
 20
-3110.0000000000041
 30
0.0
 11
2199.0000000000041
 21
-3133.9999999999959
 31
0.0
  0
TEXT
  5
3D1
  8
DATA
 62
     7
 10
2052.609446284207
 20
-3219.9999999999991
 30
0.0
 40
44.6875
  1
INPUT
 41
0.85
 11
2052.609446284207
 21
-3175.3124999999991
 31
0.0
 73
     3
  0
LINE
  5
3D2
  8
DATA
 62
     7
 10
1972.9999999999991
 20
-2590.0
 30
0.0
 11
1972.9999999999991
 21
-2330.0000000000018
 31
0.0
  0
LINE
  5
3D3
  8
DATA
 62
     7
 10
1990.9999999999991
 20
-2389.9999999999968
 30
0.0
 11
1990.9999999999991
 21
-2342.0000000000032
 31
0.0
  0
LINE
  5
3D4
  8
DATA
 62
     7
 10
2111.0000000000041
 20
-2389.9999999999968
 30
0.0
 11
1990.9999999999991
 21
-2389.9999999999968
 31
0.0
  0
LINE
  5
3D5
  8
DATA
 62
     7
 10
2111.0000000000041
 20
-2342.0000000000032
 30
0.0
 11
2111.0000000000041
 21
-2389.9999999999968
 31
0.0
  0
LINE
  5
3D6
  8
DATA
 62
     7
 10
1990.9999999999991
 20
-2342.0000000000032
 30
0.0
 11
2111.0000000000041
 21
-2342.0000000000032
 31
0.0
  0
LINE
  5
3D7
  8
DATA
 62
     7
 10
2039.0000000000009
 20
-2562.0000000000009
 30
0.0
 11
2063.0000000000018
 21
-2562.0000000000009
 31
0.0
  0
LINE
  5
3D8
  8
DATA
 62
     7
 10
2139.0000000000018
 20
-2389.9999999999968
 30
0.0
 11
2139.0000000000018
 21
-2342.0000000000032
 31
0.0
  0
LINE
  5
3D9
  8
DATA
 62
     7
 10
2097.0
 20
-2505.9999999999968
 30
0.0
 11
2005.000000000003
 21
-2505.9999999999968
 31
0.0
  0
LINE
  5
3DA
  8
DATA
 62
     7
 10
2097.0
 20
-2477.9999999999982
 30
0.0
 11
2005.000000000003
 21
-2477.9999999999982
 31
0.0
  0
LINE
  5
3DB
  8
DATA
 62
     7
 10
2005.000000000003
 20
-2401.9999999999968
 30
0.0
 11
2005.000000000003
 21
-2534.0000000000032
 31
0.0
  0
LINE
  5
3DC
  8
DATA
 62
     7
 10
2097.0
 20
-2401.9999999999968
 30
0.0
 11
2097.0
 21
-2534.0000000000032
 31
0.0
  0
LINE
  5
3DD
  8
DATA
 62
     7
 10
2153.0000000000041
 20
-2401.9999999999968
 30
0.0
 11
2153.0000000000041
 21
-2534.0000000000032
 31
0.0
  0
CIRCLE
  5
3DE
  8
DATA
 62
     7
 10
2051.0
 20
-2562.0000000000009
 30
0.0
 40
18.0
  0
LINE
  5
3DF
  8
DATA
 62
     7
 10
2187.0000000000041
 20
-2562.0000000000009
 30
0.0
 11
2211.0000000000041
 21
-2562.0000000000009
 31
0.0
  0
CIRCLE
  5
3E0
  8
DATA
 62
     7
 10
2199.0000000000041
 20
-2562.0000000000009
 30
0.0
 40
18.0
  0
LINE
  5
3E1
  8
DATA
 62
     7
 10
2199.0000000000041
 20
-2550.0000000000009
 30
0.0
 11
2199.0000000000041
 21
-2574.0000000000009
 31
0.0
  0
LINE
  5
3E2
  8
DATA
 62
     7
 10
1990.9999999999991
 20
-2950.0
 30
0.0
 11
1990.9999999999991
 21
-2901.9999999999968
 31
0.0
  0
LINE
  5
3E3
  8
DATA
 62
     7
 10
2111.0000000000041
 20
-2950.0
 30
0.0
 11
1990.9999999999991
 21
-2950.0
 31
0.0
  0
LINE
  5
3E4
  8
DATA
 62
     7
 10
2111.0000000000041
 20
-2901.9999999999968
 30
0.0
 11
2111.0000000000041
 21
-2950.0
 31
0.0
  0
LINE
  5
3E5
  8
DATA
 62
     7
 10
1990.9999999999991
 20
-2901.9999999999968
 30
0.0
 11
2111.0000000000041
 21
-2901.9999999999968
 31
0.0
  0
LINE
  5
3E6
  8
DATA
 62
     7
 10
2139.0000000000018
 20
-2950.0
 30
0.0
 11
2139.0000000000018
 21
-2901.9999999999968
 31
0.0
  0
TEXT
  5
3E7
  8
DATA
 62
     7
 10
1988.3161803381599
 20
-2660.0
 30
0.0
 40
44.6875
  1
HF OUTPUT
 41
0.85
 11
1988.3161803381599
 21
-2615.3125
 31
0.0
 73
     3
  0
ARC
  5
3E8
  8
DATA
 62
     7
 10
2125.0
 20
-706.12029090909164
 30
0.0
 40
749.25381818181904
 50
252.12315186638079
 51
258.54161072422608
  0
TEXT
  5
3E9
  8
DATA
 62
     7
 10
1918.7145428539991
 20
-1749.9999999999991
 30
0.0
 40
85.9375
  1
BLK
 41
0.85
 11
1918.7145428539991
 21
-1664.0624999999991
 31
0.0
 73
     3
  0
LINE
  5
3EA
  8
DATA
 62
     7
 10
1889.000000000002
 20
-1251.0947021156151
 30
0.0
 11
1895.000000000002
 21
-1419.199027136749
 31
0.0
  0
CIRCLE
  5
3EB
  8
DATA
 62
     7
 10
2009.0
 20
-1405.436961049794
 30
0.0
 40
40.0
  0
CIRCLE
  5
3EC
  8
DATA
 62
     7
 10
2009.0
 20
-1405.436961049794
 30
0.0
 40
48.0
  0
LINE
  5
3ED
  8
DATA
 62
     7
 10
2112.9999999999991
 20
-1399.374109090907
 30
0.0
 11
2137.0
 21
-1399.374109090907
 31
0.0
  0
LINE
  5
3EE
  8
DATA
 62
     7
 10
2112.9999999999991
 20
-1399.374109090907
 30
0.0
 11
2137.0
 21
-1399.374109090907
 31
0.0
  0
CIRCLE
  5
3EF
  8
DATA
 62
     7
 10
2125.0
 20
-1399.374109090907
 30
0.0
 40
24.0
  0
LINE
  5
3F0
  8
DATA
 62
     7
 10
2125.0
 20
-1411.374109090907
 30
0.0
 11
2125.0
 21
-1387.374109090907
 31
0.0
  0
ARC
  5
3F1
  8
DATA
 62
     7
 10
2125.0
 20
-706.12029090909164
 30
0.0
 40
749.25381818181825
 50
262.6218875173459
 51
277.37811248265388
  0
LINE
  5
3F2
  8
DATA
 62
     7
 10
2009.0
 20
-1500.0
 30
0.0
 11
2009.0
 21
-1650.0
 31
0.0
  0
LINE
  5
3F3
  8
DATA
 62
     7
 10
1995.6672000000001
 20
-1580.0
 30
0.0
 11
2009.0
 21
-1500.0
 31
0.0
  0
LINE
  5
3F4
  8
DATA
 62
     7
 10
2022.3327999999999
 20
-1580.0
 30
0.0
 11
2009.0
 21
-1500.0
 31
0.0
  0
TEXT
  5
3F5
  8
DATA
 62
     7
 10
2274.9999999999991
 20
-2100.0
 30
0.0
 40
68.75
  1
2446H (高域)へ外部配線
 41
0.85
 11
2274.9999999999991
 21
-2031.25
 31
0.0
 73
     3
  0
TEXT
  5
3F6
  8
DATA
 62
     7
 10
2625.0000000000009
 20
-3050.0
 30
0.0
 40
68.75
  1
プッシュ式ターミナル
 41
0.85
 11
2625.0000000000009
 21
-2981.25
 31
0.0
 73
     3
  0
LINE
  5
3F7
  8
DATA
 62
     7
 10
2564.9999999999968
 20
-2199.9999999999991
 30
0.0
 11
2564.9999999999968
 21
-3280.0000000000009
 31
0.0
  0
CIRCLE
  5
3F8
  8
DATA
 62
     7
 10
2301.0000000000009
 20
-2284.0000000000032
 30
0.0
 40
24.0
  0
TEXT
  5
3F9
  8
DATA
 62
     7
 10
2428.97684925667
 20
-2332.0000000000009
 30
0.0
 40
48.125
  1
2380
 41
0.85
 11
2428.97684925667
 21
-2283.875
 31
0.0
 73
     3
  0
LINE
  5
3FA
  8
DATA
 62
     7
 10
2353.0000000000009
 20
-2279.9999999999982
 30
0.0
 11
2353.0000000000009
 21
-2639.9999999999968
 31
0.0
  0
LINE
  5
3FB
  8
DATA
 62
     7
 10
2416.97684925667
 20
-2344.0000000000009
 30
0.0
 11
2416.97684925667
 21
-2280.0000000000009
 31
0.0
  0
LINE
  5
3FC
  8
DATA
 62
     7
 10
2552.9999999999968
 20
-2344.0000000000009
 30
0.0
 11
2552.9999999999968
 21
-2280.0000000000009
 31
0.0
  0
TEXT
  5
3FD
  8
DATA
 62
     7
 10
2625.0000000000009
 20
-2900.0
 30
0.0
 40
68.75
  1
2035H (低域)
 41
0.85
 11
2625.0000000000009
 21
-2831.25
 31
0.0
 73
     3
  0
LINE
  5
3FE
  8
DATA
 62
     7
 10
2353.0000000000009
 20
-2840.0
 30
0.0
 11
2353.0000000000009
 21
-3200.0
 31
0.0
  0
LINE
  5
3FF
  8
DATA
 62
     7
 10
2277.0000000000009
 20
-2889.9999999999968
 30
0.0
 11
2277.0000000000009
 21
-3150.0000000000032
 31
0.0
  0
LINE
  5
400
  8
DATA
 62
     7
 10
2245.0000000000041
 20
-2962.0
 30
0.0
 11
2245.0000000000041
 21
-3093.9999999999982
 31
0.0
  0
CIRCLE
  5
401
  8
DATA
 62
     7
 10
2301.0000000000009
 20
-3196.0000000000009
 30
0.0
 40
24.0
  0
LINE
  5
402
  8
DATA
 62
     7
 10
2285.0000000000032
 20
-3196.0000000000009
 30
0.0
 11
2316.9999999999991
 21
-3196.0000000000009
 31
0.0
  0
LINE
  5
403
  8
DATA
 62
     7
 10
2301.0000000000009
 20
-3212.0
 30
0.0
 11
2301.0000000000009
 21
-3180.0000000000041
 31
0.0
  0
ARC
  5
404
  8
DATA
 62
     7
 10
2304.9999999999991
 20
-3200.0
 30
0.0
 40
48.0
 50
270.0
 51
0.0
  0
LINE
  5
405
  8
DATA
 62
     7
 10
2277.0000000000009
 20
-2330.0000000000018
 30
0.0
 11
2277.0000000000009
 21
-2590.0
 31
0.0
  0
LINE
  5
406
  8
DATA
 62
     7
 10
2258.9999999999991
 20
-2342.0000000000032
 30
0.0
 11
2258.9999999999991
 21
-2389.9999999999968
 31
0.0
  0
LINE
  5
407
  8
DATA
 62
     7
 10
2245.0000000000041
 20
-2401.9999999999968
 30
0.0
 11
2245.0000000000041
 21
-2534.0000000000032
 31
0.0
  0
CIRCLE
  5
408
  8
DATA
 62
     7
 10
2301.0000000000009
 20
-2636.0
 30
0.0
 40
24.0
  0
LINE
  5
409
  8
DATA
 62
     7
 10
2285.0000000000032
 20
-2636.0
 30
0.0
 11
2316.9999999999991
 21
-2636.0
 31
0.0
  0
LINE
  5
40A
  8
DATA
 62
     7
 10
2301.0000000000009
 20
-2651.9999999999982
 30
0.0
 11
2301.0000000000009
 21
-2620.0000000000009
 31
0.0
  0
ARC
  5
40B
  8
DATA
 62
     7
 10
2304.9999999999991
 20
-2639.9999999999968
 30
0.0
 40
48.0
 50
270.0
 51
0.0
  0
LINE
  5
40C
  8
DATA
 62
     7
 10
2258.9999999999991
 20
-2901.9999999999968
 30
0.0
 11
2258.9999999999991
 21
-2950.0
 31
0.0
  0
CIRCLE
  5
40D
  8
DATA
 62
     7
 10
2301.0000000000009
 20
-2843.9999999999991
 30
0.0
 40
24.0
  0
LINE
  5
40E
  8
DATA
 62
     7
 10
2285.0000000000032
 20
-2843.9999999999991
 30
0.0
 11
2316.9999999999991
 21
-2843.9999999999991
 31
0.0
  0
LINE
  5
40F
  8
DATA
 62
     7
 10
2301.0000000000009
 20
-2860.0000000000032
 30
0.0
 11
2301.0000000000009
 21
-2828.0
 31
0.0
  0
ARC
  5
410
  8
DATA
 62
     7
 10
2304.9999999999991
 20
-2840.0
 30
0.0
 40
48.0
 50
0.0
 51
90.0
  0
CIRCLE
  5
411
  8
DATA
 62
     7
 10
2468.9999999999941
 20
-2463.9999999999991
 30
0.0
 40
24.0
  0
CIRCLE
  5
412
  8
DATA
 62
     7
 10
2468.9999999999941
 20
-2463.9999999999991
 30
0.0
 40
58.0
  0
LINE
  5
413
  8
DATA
 62
     7
 10
2417.0000000000009
 20
-2463.9999999999991
 30
0.0
 11
2443.0000000000041
 21
-2509.033320996793
 31
0.0
  0
LINE
  5
414
  8
DATA
 62
     7
 10
2443.0000000000041
 20
-2509.033320996793
 30
0.0
 11
2494.9999999999959
 21
-2509.0333209967862
 31
0.0
  0
LINE
  5
415
  8
DATA
 62
     7
 10
2494.9999999999959
 20
-2509.0333209967862
 30
0.0
 11
2521.0
 21
-2463.9999999999991
 31
0.0
  0
LINE
  5
416
  8
DATA
 62
     7
 10
2521.0
 20
-2463.9999999999991
 30
0.0
 11
2495.0000000000041
 21
-2418.966679003212
 31
0.0
  0
LINE
  5
417
  8
DATA
 62
     7
 10
2495.0000000000041
 20
-2418.966679003212
 30
0.0
 11
2442.9999999999959
 21
-2418.9666790032052
 31
0.0
  0
LINE
  5
418
  8
DATA
 62
     7
 10
2442.9999999999959
 20
-2418.9666790032052
 30
0.0
 11
2417.0000000000009
 21
-2463.9999999999991
 31
0.0
  0
LINE
  5
419
  8
DATA
 62
     7
 10
2416.97684925667
 20
-2343.9999999999982
 30
0.0
 11
2552.9999999999968
 21
-2344.0000000000009
 31
0.0
  0
LINE
  5
41A
  8
DATA
 62
     7
 10
2400.9768492566641
 20
-2311.9999999999982
 30
0.0
 11
2416.97684925667
 21
-2311.9999999999982
 31
0.0
  0
LINE
  5
41B
  8
DATA
 62
     7
 10
2400.9768492566641
 20
-2311.9999999999982
 30
0.0
 11
2400.9768492566641
 21
-2359.9999999999932
 31
0.0
  0
LINE
  5
41C
  8
DATA
 62
     7
 10
2498.0000000000041
 20
-2413.770526580503
 30
0.0
 11
2507.000000000005
 21
-2398.1820693123841
 31
0.0
  0
LINE
  5
41D
  8
DATA
 62
     7
 10
2507.000000000005
 20
-2398.1820693123759
 30
0.0
 11
2507.000000000005
 21
-2360.0
 31
0.0
  0
LINE
  5
41E
  8
DATA
 62
     7
 10
2400.9768492566641
 20
-2359.9999999999932
 30
0.0
 11
2507.000000000005
 21
-2360.0
 31
0.0
  0
LINE
  5
41F
  8
DATA
 62
     7
 10
2430.9999999999968
 20
-2398.1820693123759
 30
0.0
 11
2439.9999999999968
 21
-2413.7705265804998
 31
0.0
  0
LINE
  5
420
  8
DATA
 62
     7
 10
2400.9768492566641
 20
-2398.1820693123759
 30
0.0
 11
2430.9999999999968
 21
-2398.1820693123759
 31
0.0
  0
LINE
  5
421
  8
DATA
 62
     7
 10
2416.97684925667
 20
-2600.0000000000009
 30
0.0
 11
2416.97684925667
 21
-2536.0000000000009
 31
0.0
  0
LINE
  5
422
  8
DATA
 62
     7
 10
2552.9999999999968
 20
-2600.0000000000009
 30
0.0
 11
2552.9999999999968
 21
-2536.0000000000009
 31
0.0
  0
LINE
  5
423
  8
DATA
 62
     7
 10
2416.97684925667
 20
-2599.9999999999982
 30
0.0
 11
2552.9999999999968
 21
-2600.0000000000009
 31
0.0
  0
LINE
  5
424
  8
DATA
 62
     7
 10
2416.97684925667
 20
-2536.0000000000009
 30
0.0
 11
2552.9999999999968
 21
-2536.0000000000009
 31
0.0
  0
LINE
  5
425
  8
DATA
 62
     7
 10
2400.9768492566641
 20
-2567.9999999999982
 30
0.0
 11
2416.97684925667
 21
-2567.9999999999982
 31
0.0
  0
LINE
  5
426
  8
DATA
 62
     7
 10
2400.9768492566641
 20
-2398.1820693123759
 30
0.0
 11
2400.9768492566641
 21
-2567.9999999999982
 31
0.0
  0
TEXT
  5
427
  8
DATA
 62
     7
 10
2428.97684925667
 20
-2588.0
 30
0.0
 40
48.125
  1
2360
 41
0.85
 11
2428.97684925667
 21
-2539.8750000000009
 31
0.0
 73
     3
  0
LINE
  5
428
  8
DATA
 62
     7
 10
2453.7037388186591
 20
-2482.4939015319169
 30
0.0
 11
2477.3680579510678
 21
-2441.506098468079
 31
0.0
  0
LINE
  5
429
  8
DATA
 62
     7
 10
2460.6319420489331
 20
-2486.4939015319151
 30
0.0
 11
2484.2962611813409
 21
-2445.5060984680772
 31
0.0
  0
TEXT
  5
42A
  8
DATA
 62
     7
 10
2395.226023191412
 20
-2724.0000000000041
 30
0.0
 40
34.375
  1
SWITCH
 41
0.85
 11
2395.226023191412
 21
-2689.6250000000041
 31
0.0
 73
     3
  0
TEXT
  5
42B
  8
DATA
 62
     7
 10
2368.944238986905
 20
-2684.000000000005
 30
0.0
 40
34.375
  1
SELECTOR
 41
0.85
 11
2368.944238986905
 21
-2649.625000000005
 31
0.0
 73
     3
  0
TEXT
  5
42C
  8
DATA
 62
     7
 10
2412.2080991389371
 20
-2644.0000000000018
 30
0.0
 40
34.375
  1
HORN
 41
0.85
 11
2412.2080991389371
 21
-2609.6250000000018
 31
0.0
 73
     3
  0
LINE
  5
42D
  8
DATA
 62
     7
 10
2301.0000000000009
 20
-2300.0000000000009
 30
0.0
 11
2301.0000000000009
 21
-2267.9999999999982
 31
0.0
  0
ARC
  5
42E
  8
DATA
 62
     7
 10
2304.9999999999991
 20
-2279.9999999999982
 30
0.0
 40
48.0
 50
0.0
 51
90.0
  0
LINE
  5
42F
  8
DATA
 62
     7
 10
2285.0000000000032
 20
-2284.0000000000032
 30
0.0
 11
2316.9999999999991
 21
-2284.0000000000032
 31
0.0
  0
LINE
  5
430
  8
DATA
 62
     7
 10
2416.97684925667
 20
-2280.0000000000009
 30
0.0
 11
2552.9999999999968
 21
-2280.0000000000009
 31
0.0
  0
TEXT
  5
431
  8
DATA
 62
     7
 10
2625.0000000000009
 20
-1549.9999999999991
 30
0.0
 40
68.75
  1
プッシュ式ターミナル
 41
0.85
 11
2625.0000000000009
 21
-1481.2499999999991
 31
0.0
 73
     3
  0
TEXT
  5
432
  8
DATA
 62
     7
 10
2625.0000000000009
 20
-1400.0
 30
0.0
 40
68.75
  1
2446H (高域)
 41
0.85
 11
2625.0000000000009
 21
-1331.25
 31
0.0
 73
     3
  0
LINE
  5
433
  8
DATA
 62
     7
 10
2355.0000000000041
 20
-1419.199027136749
 30
0.0
 11
2361.0000000000041
 21
-1251.0947021156151
 31
0.0
  0
ARC
  5
434
  8
DATA
 62
     7
 10
2125.0
 20
-706.12029090909164
 30
0.0
 40
749.25381818181881
 50
281.45838927577398
 51
287.87684813361881
  0
LINE
  5
435
  8
DATA
 62
     7
 10
2241.0
 20
-1500.0
 30
0.0
 11
2241.0
 21
-1650.0
 31
0.0
  0
LINE
  5
436
  8
DATA
 62
     7
 10
2227.6671999999999
 20
-1580.0
 30
0.0
 11
2241.0
 21
-1500.0
 31
0.0
  0
LINE
  5
437
  8
DATA
 62
     7
 10
2254.3327999999992
 20
-1580.0
 30
0.0
 11
2241.0
 21
-1500.0
 31
0.0
  0
TEXT
  5
438
  8
DATA
 62
     7
 10
2000.0
 20
-4321.0218150000001
 30
0.0
 40
67.733333333333334
  1
2WAY映画用スピーカシステム
 41
0.85
 11
2000.0
 21
-4253.2884816666656
 31
0.0
 73
     3
  0
TEXT
  5
439
  8
DATA
 62
     7
 10
2099.9999999999991
 20
-4469.4036150000002
 30
0.0
 40
101.59999999999999
  1
4675C
 41
0.85
 11
2099.9999999999991
 21
-4367.8036149999989
 31
0.0
 73
     3
  0
LINE
  5
43A
  8
DATA
 62
     7
 10
-2072.8879999999999
 20
-1210.3839999999959
 30
0.0
 11
-1277.8879999999999
 21
-1210.3839999999959
 31
0.0
  0
LINE
  5
43B
  8
DATA
 62
     7
 10
-1277.8879999999999
 20
-2000.3839999999991
 30
0.0
 11
-2072.8879999999999
 21
-2000.3839999999991
 31
0.0
  0
ARC
  5
43C
  8
DATA
 62
     7
 10
-2248.434919566459
 20
-1160.7440969766139
 30
0.0
 40
857.79478182044954
 50
281.80895775498459
 51
311.02504303848292
  0
ARC
  5
43D
  8
DATA
 62
     7
 10
-2248.434919566459
 20
-2050.023903023382
 30
0.0
 40
857.79478182044829
 50
48.974956961517002
 51
78.191042245015325
  0
LINE
  5
43E
  8
DATA
 62
     7
 10
-2072.8879999999999
 20
-2000.3839999999991
 30
0.0
 11
-2072.8879999999999
 21
-1210.3839999999959
 31
0.0
  0
LINE
  5
43F
  8
DATA
 62
     7
 10
-1277.8879999999999
 20
-1210.3839999999959
 30
0.0
 11
-1277.8879999999999
 21
-2000.3839999999991
 31
0.0
  0
ARC
  5
440
  8
DATA
 62
     7
 10
-1102.341080433541
 20
-2050.023903023382
 30
0.0
 40
857.79478182044954
 50
101.8089577549847
 51
131.02504303848309
  0
LINE
  5
441
  8
DATA
 62
     7
 10
-1675.3879999999999
 20
-1480.383999999998
 30
0.0
 11
-1675.3879999999999
 21
-1210.3839999999959
 31
0.0
  0
LINE
  5
442
  8
DATA
 62
     7
 10
-1685.3879999999999
 20
-1807.8839999999991
 30
0.0
 11
-1685.3879999999999
 21
-1402.883999999998
 31
0.0
  0
LINE
  5
443
  8
DATA
 62
     7
 10
-1665.388000000002
 20
-1807.8839999999991
 30
0.0
 11
-1665.3879999999999
 21
-1402.883999999998
 31
0.0
  0
LINE
  5
444
  8
DATA
 62
     7
 10
-1675.388000000002
 20
-1730.3839999999991
 30
0.0
 11
-1675.3879999999999
 21
-2000.3839999999991
 31
0.0
  0
ARC
  5
445
  8
DATA
 62
     7
 10
-1102.341080433541
 20
-1160.7440969766139
 30
0.0
 40
857.79478182044954
 50
228.9749569615168
 51
258.1910422450153
  0
LINE
  5
446
  8
DATA
 62
     7
 10
-1685.3879999999999
 20
-1730.3839999999991
 30
0.0
 11
-1665.3879999999999
 21
-1730.3839999999991
 31
0.0
  0
LINE
  5
447
  8
DATA
 62
     7
 10
-1685.3879999999999
 20
-1480.383999999998
 30
0.0
 11
-1665.3879999999999
 21
-1480.383999999998
 31
0.0
  0
LINE
  5
448
  8
DATA
 62
     7
 10
-1758.8879999999999
 20
-2002.384
 30
0.0
 11
-1758.8879999999999
 21
-2000.3839999999991
 31
0.0
  0
LINE
  5
449
  8
DATA
 62
     7
 10
-1597.8879999999999
 20
-2008.384
 30
0.0
 11
-1752.8879999999999
 21
-2008.384
 31
0.0
  0
LINE
  5
44A
  8
DATA
 62
     7
 10
-1591.8879999999999
 20
-2000.3839999999991
 30
0.0
 11
-1591.8879999999999
 21
-2002.384
 31
0.0
  0
LINE
  5
44B
  8
DATA
 62
     7
 10
-1755.8879999999999
 20
-2002.384
 30
0.0
 11
-1755.8879999999999
 21
-2000.3839999999991
 31
0.0
  0
LINE
  5
44C
  8
DATA
 62
     7
 10
-1594.8879999999999
 20
-2000.3839999999991
 30
0.0
 11
-1594.8879999999999
 21
-2002.384
 31
0.0
  0
LINE
  5
44D
  8
DATA
 62
     7
 10
-1597.8879999999999
 20
-2005.384
 30
0.0
 11
-1752.8879999999999
 21
-2005.384
 31
0.0
  0
ARC
  5
44E
  8
DATA
 62
     7
 10
-1597.8879999999999
 20
-2002.384
 30
0.0
 40
6.0
 50
270.0
 51
0.0
  0
ARC
  5
44F
  8
DATA
 62
     7
 10
-1752.8879999999999
 20
-2002.384
 30
0.0
 40
6.0
 50
180.0
 51
270.0
  0
ARC
  5
450
  8
DATA
 62
     7
 10
-1752.8879999999999
 20
-2002.384
 30
0.0
 40
3.0
 50
180.0
 51
270.0
  0
ARC
  5
451
  8
DATA
 62
     7
 10
-1597.8879999999999
 20
-2002.384
 30
0.0
 40
3.0
 50
270.0
 51
0.0
  0
LINE
  5
452
  8
DATA
 62
     7
 10
-114.34499999999839
 20
-1672.135199999999
 30
0.0
 11
-105.81069999999821
 21
-1701.2816999999991
 31
0.0
  0
LINE
  5
453
  8
DATA
 62
     7
 10
-114.34499999999839
 20
-1538.6328000000001
 30
0.0
 11
-105.81069999999821
 21
-1509.4862999999989
 31
0.0
  0
LINE
  5
454
  8
DATA
 62
     7
 10
-153.54999999999831
 20
-1664.8834999999999
 30
0.0
 11
-114.34499999999839
 21
-1672.135199999999
 31
0.0
  0
LINE
  5
455
  8
DATA
 62
     7
 10
-154.34999999999849
 20
-1664.8834999999999
 30
0.0
 11
-153.54999999999831
 21
-1664.8834999999999
 31
0.0
  0
LINE
  5
456
  8
DATA
 62
     7
 10
-153.54999999999831
 20
-1545.884499999999
 30
0.0
 11
-114.34499999999839
 21
-1538.6328000000001
 31
0.0
  0
LINE
  5
457
  8
DATA
 62
     7
 10
-154.34999999999849
 20
-1545.884499999999
 30
0.0
 11
-153.54999999999831
 21
-1545.884499999999
 31
0.0
  0
LINE
  5
458
  8
DATA
 62
     7
 10
-114.34499999999839
 20
-1538.6328000000001
 30
0.0
 11
-114.34499999999839
 21
-1672.135199999999
 31
0.0
  0
LINE
  5
459
  8
DATA
 62
     7
 10
-153.54999999999831
 20
-1545.884499999999
 30
0.0
 11
-153.54999999999831
 21
-1664.8834999999999
 31
0.0
  0
LINE
  5
45A
  8
DATA
 62
     7
 10
-51.838199999998331
 20
-1585.714809344574
 30
0.0
 11
-51.838199999998331
 21
-1535.9183486269681
 31
0.0
  0
LINE
  5
45B
  8
DATA
 62
     7
 10
-51.838199999998331
 20
-1535.9183486269681
 30
0.0
 11
-25.838199999998331
 21
-1545.7753498879511
 31
0.0
  0
LINE
  5
45C
  8
DATA
 62
     7
 10
-54.838199999998338
 20
-1701.2817
 30
0.0
 11
-54.838199999998338
 21
-1509.4862999999989
 31
0.0
  0
LINE
  5
45D
  8
DATA
 62
     7
 10
-55.838199999998338
 20
-1703.634
 30
0.0
 11
-55.838199999998338
 21
-1507.134
 31
0.0
  0
LINE
  5
45E
  8
DATA
 62
     7
 10
-61.838199999998331
 20
-1489.1339999999991
 30
0.0
 11
-61.838199999998331
 21
-1721.6339999999991
 31
0.0
  0
LINE
  5
45F
  8
DATA
 62
     7
 10
-98.838299999998554
 20
-1489.1339999999991
 30
0.0
 11
-98.838299999998554
 21
-1721.6339999999991
 31
0.0
  0
LINE
  5
460
  8
DATA
 62
     7
 10
-21.838199999998331
 20
-1534.136999999999
 30
0.0
 11
-21.838199999998331
 21
-1676.6310000000001
 31
0.0
  0
LINE
  5
461
  8
DATA
 62
     7
 10
-105.81069999999821
 20
-1509.4862999999989
 30
0.0
 11
-105.81069999999821
 21
-1701.2816999999991
 31
0.0
  0
LINE
  5
462
  8
DATA
 62
     7
 10
-25.838199999998331
 20
-1596.8708487112319
 30
0.0
 11
-25.838199999998331
 21
-1545.7753498879499
 31
0.0
  0
LINE
  5
463
  8
DATA
 62
     7
 10
-51.838199999998331
 20
-1545.7753498879499
 30
0.0
 11
-25.838199999998331
 21
-1545.7753498879499
 31
0.0
  0
LINE
  5
464
  8
DATA
 62
     7
 10
-51.838199999998331
 20
-1585.714809344574
 30
0.0
 11
-25.838199999998331
 21
-1596.8708487112319
 31
0.0
  0
LINE
  5
465
  8
DATA
 62
     7
 10
-25.838199999998331
 20
-1679.6189636363631
 30
0.0
 11
-25.838199999998331
 21
-1675.097078392093
 31
0.0
  0
LINE
  5
466
  8
DATA
 62
     7
 10
-25.838199999998331
 20
-1679.6189636363631
 30
0.0
 11
-21.838199999998331
 21
-1676.6310000000001
 31
0.0
  0
LINE
  5
467
  8
DATA
 62
     7
 10
-31.891667571341721
 20
-1679.6189636363631
 30
0.0
 11
-25.838199999998331
 21
-1679.6189636363631
 31
0.0
  0
LINE
  5
468
  8
DATA
 62
     7
 10
-51.838199999998331
 20
-1694.5188420284569
 30
0.0
 11
-25.838199999998331
 21
-1675.097078392093
 31
0.0
  0
LINE
  5
469
  8
DATA
 62
     7
 10
-46.33819999999924
 20
-1698.0485837675881
 30
0.0
 11
-46.338199999998331
 21
-1690.410392028456
 31
0.0
  0
LINE
  5
46A
  8
DATA
 62
     7
 10
-42.507084753425282
 20
-1687.5485837675869
 30
0.0
 11
-35.838199999999247
 21
-1687.5485837675869
 31
0.0
  0
LINE
  5
46B
  8
DATA
 62
     7
 10
-51.838199999998331
 20
-1699.0407272727271
 30
0.0
 11
-51.838199999998331
 21
-1694.5188420284569
 31
0.0
  0
LINE
  5
46C
  8
DATA
 62
     7
 10
-54.838199999998338
 20
-1701.2817
 30
0.0
 11
-51.838199999998331
 21
-1699.0407272727271
 31
0.0
  0
LINE
  5
46D
  8
DATA
 62
     7
 10
-51.838199999998331
 20
-1697.0485837675869
 30
0.0
 11
-46.338199999998331
 21
-1697.0485837675869
 31
0.0
  0
LINE
  5
46E
  8
DATA
 62
     7
 10
-29.838199999999251
 20
-1687.7985837675869
 30
0.0
 11
-29.838199999998331
 21
-1697.7985837675869
 31
0.0
  0
LINE
  5
46F
  8
DATA
 62
     7
 10
-30.838199999998331
 20
-1697.7985837675869
 30
0.0
 11
-29.838199999998331
 21
-1697.7985837675869
 31
0.0
  0
LINE
  5
470
  8
DATA
 62
     7
 10
-30.838199999998331
 20
-1687.7985837675869
 30
0.0
 11
-29.838199999999251
 21
-1687.7985837675869
 31
0.0
  0
LINE
  5
471
  8
DATA
 62
     7
 10
-35.838199999999247
 20
-1686.7985837675869
 30
0.0
 11
-30.838199999998331
 21
-1686.7985837675869
 31
0.0
  0
LINE
  5
472
  8
DATA
 62
     7
 10
-46.33819999999924
 20
-1698.0485837675881
 30
0.0
 11
-35.838199999999247
 21
-1698.0485837675881
 31
0.0
  0
LINE
  5
473
  8
DATA
 62
     7
 10
-35.838199999999247
 20
-1698.7985837675869
 30
0.0
 11
-30.838199999998331
 21
-1698.7985837675869
 31
0.0
  0
LINE
  5
474
  8
DATA
 62
     7
 10
-30.838199999998331
 20
-1698.7985837675869
 30
0.0
 11
-30.838199999998331
 21
-1686.798583767586
 31
0.0
  0
LINE
  5
475
  8
DATA
 62
     7
 10
-35.838199999999247
 20
-1686.7985837675869
 30
0.0
 11
-35.838199999998338
 21
-1698.7985837675869
 31
0.0
  0
LINE
  5
476
  8
DATA
 62
     7
 10
-51.838199999998331
 20
-1699.0407272727271
 30
0.0
 11
-51.838199999998331
 21
-1694.469486887607
 31
0.0
  0
LINE
  5
477
  8
DATA
 62
     7
 10
-105.81069999999821
 20
-1701.2816999999991
 30
0.0
 11
-98.838299999998554
 21
-1701.2816999999991
 31
0.0
  0
LINE
  5
478
  8
DATA
 62
     7
 10
-54.838199999998338
 20
-1701.2817
 30
0.0
 11
-55.838199999998338
 21
-1701.2817
 31
0.0
  0
LINE
  5
479
  8
DATA
 62
     7
 10
-61.838199999998331
 20
-1721.6339999999991
 30
0.0
 11
-55.838199999998338
 21
-1703.634
 31
0.0
  0
LINE
  5
47A
  8
DATA
 62
     7
 10
-98.838299999998554
 20
-1721.6339999999991
 30
0.0
 11
-61.838199999998331
 21
-1721.6339999999991
 31
0.0
  0
LINE
  5
47B
  8
DATA
 62
     7
 10
-105.81069999999821
 20
-1509.4862999999989
 30
0.0
 11
-98.838299999998554
 21
-1509.4862999999989
 31
0.0
  0
LINE
  5
47C
  8
DATA
 62
     7
 10
-54.838199999998338
 20
-1509.4862999999989
 30
0.0
 11
-55.838199999998338
 21
-1509.4862999999989
 31
0.0
  0
LINE
  5
47D
  8
DATA
 62
     7
 10
-61.838199999998331
 20
-1489.1339999999991
 30
0.0
 11
-55.838199999998338
 21
-1507.134
 31
0.0
  0
LINE
  5
47E
  8
DATA
 62
     7
 10
-98.838299999998554
 20
-1489.1339999999991
 30
0.0
 11
-61.838199999998331
 21
-1489.1339999999991
 31
0.0
  0
LINE
  5
47F
  8
DATA
 62
     7
 10
-54.838199999998338
 20
-1509.4862999999989
 30
0.0
 11
-21.838199999998331
 21
-1534.136999999999
 31
0.0
  0
LINE
  5
480
  8
DATA
 62
     7
 10
-323.24999999999812
 20
-1650.384
 30
0.0
 11
-323.24999999999812
 21
-2008.384
 31
0.0
  0
LINE
  5
481
  8
DATA
 62
     7
 10
-527.24999999999818
 20
-2008.384
 30
0.0
 11
-527.24999999999818
 21
-1650.384
 31
0.0
  0
ARC
  5
482
  8
DATA
 62
     7
 10
-425.24999999999812
 20
-1650.384
 30
0.0
 40
102.0
 50
0.0
 51
180.0
  0
CIRCLE
  5
483
  8
DATA
 62
     7
 10
-425.24999999999812
 20
-1575.384
 30
0.0
 40
8.75
  0
CIRCLE
  5
484
  8
DATA
 62
     7
 10
-425.24999999999812
 20
-1575.384
 30
0.0
 40
6.2786841774377526
  0
LINE
  5
485
  8
DATA
 62
     7
 10
-431.52868417743588
 20
-1579.009
 30
0.0
 11
-425.24999999999812
 21
-1582.634
 31
0.0
  0
LINE
  5
486
  8
DATA
 62
     7
 10
-431.52868417743588
 20
-1571.7589999999991
 30
0.0
 11
-431.52868417743588
 21
-1579.009
 31
0.0
  0
LINE
  5
487
  8
DATA
 62
     7
 10
-425.24999999999909
 20
-1568.1339999999991
 30
0.0
 11
-431.52868417743588
 21
-1571.7589999999991
 31
0.0
  0
LINE
  5
488
  8
DATA
 62
     7
 10
-418.97131582256128
 20
-1571.759
 30
0.0
 11
-425.24999999999909
 21
-1568.1339999999991
 31
0.0
  0
LINE
  5
489
  8
DATA
 62
     7
 10
-418.97131582256128
 20
-1579.009
 30
0.0
 11
-418.97131582256128
 21
-1571.759
 31
0.0
  0
LINE
  5
48A
  8
DATA
 62
     7
 10
-425.24999999999812
 20
-1582.634
 30
0.0
 11
-418.97131582256128
 21
-1579.009
 31
0.0
  0
ARC
  5
48B
  8
DATA
 62
     7
 10
-425.24999999999812
 20
-1575.384
 30
0.0
 40
228.0864350964348
 50
250.48276446718199
 51
268.18409500451958
  0
ARC
  5
48C
  8
DATA
 62
     7
 10
-425.24999999999812
 20
-1575.384
 30
0.0
 40
228.0864350964342
 50
271.81590499548008
 51
289.51723553281761
  0
ARC
  5
48D
  8
DATA
 62
     7
 10
-425.24999999999812
 20
-1575.384
 30
0.0
 40
217.9999999999994
 50
250.48273745519299
 51
268.14137772660717
  0
ARC
  5
48E
  8
DATA
 62
     7
 10
-425.24999999999812
 20
-1575.384
 30
0.0
 40
217.9999999999992
 50
271.85862227339271
 51
289.51603065630292
  0
ARC
  5
48F
  8
DATA
 62
     7
 10
-499.74999999999812
 20
-1785.57141577323
 30
0.0
 40
4.9999999999999796
 50
70.456498158247769
 51
250.4564981582414
  0
ARC
  5
490
  8
DATA
 62
     7
 10
-350.74999999999818
 20
-1785.57141577323
 30
0.0
 40
5.0000000000008367
 50
289.54350184174882
 51
109.5435018417522
  0
LINE
  5
491
  8
DATA
 62
     7
 10
-399.24999999999812
 20
-1801.983695222654
 30
0.0
 11
-399.24999999999812
 21
-1791.8279881354979
 31
0.0
  0
LINE
  5
492
  8
DATA
 62
     7
 10
-399.24999999999812
 20
-1551.7533759524949
 30
0.0
 11
-399.24999999999812
 21
-1416.884
 31
0.0
  0
LINE
  5
493
  8
DATA
 62
     7
 10
-450.24999999999812
 20
-1802.096200542891
 30
0.0
 11
-450.24999999999812
 21
-1791.945769479287
 31
0.0
  0
LINE
  5
494
  8
DATA
 62
     7
 10
-450.24999999999812
 20
-1551.4951735331031
 30
0.0
 11
-450.24999999999812
 21
-1416.884
 31
0.0
  0
LINE
  5
495
  8
DATA
 62
     7
 10
-399.24999999999812
 20
-1416.884
 30
0.0
 11
-450.24999999999812
 21
-1416.884
 31
0.0
  0
CIRCLE
  5
496
  8
DATA
 62
     7
 10
-425.24999999999812
 20
-1798.4239999999991
 30
0.0
 40
8.75
  0
CIRCLE
  5
497
  8
DATA
 62
     7
 10
-425.24999999999812
 20
-1798.4239999999991
 30
0.0
 40
6.2786841774377526
  0
LINE
  5
498
  8
DATA
 62
     7
 10
-431.52868417743588
 20
-1802.049
 30
0.0
 11
-425.24999999999812
 21
-1805.674
 31
0.0
  0
LINE
  5
499
  8
DATA
 62
     7
 10
-431.52868417743588
 20
-1794.7989999999991
 30
0.0
 11
-431.52868417743588
 21
-1802.049
 31
0.0
  0
LINE
  5
49A
  8
DATA
 62
     7
 10
-425.24999999999909
 20
-1791.1739999999991
 30
0.0
 11
-431.52868417743588
 21
-1794.7989999999991
 31
0.0
  0
LINE
  5
49B
  8
DATA
 62
     7
 10
-418.97131582256128
 20
-1794.799
 30
0.0
 11
-425.24999999999909
 21
-1791.1739999999991
 31
0.0
  0
LINE
  5
49C
  8
DATA
 62
     7
 10
-418.97131582256128
 20
-1802.049
 30
0.0
 11
-418.97131582256128
 21
-1794.799
 31
0.0
  0
LINE
  5
49D
  8
DATA
 62
     7
 10
-425.24999999999812
 20
-1805.674
 30
0.0
 11
-418.97131582256128
 21
-1802.049
 31
0.0
  0
LINE
  5
49E
  8
DATA
 62
     7
 10
-458.3499999999994
 20
-1445.3839999999991
 30
0.0
 11
-458.34999999999849
 21
-1553.904002072969
 31
0.0
  0
LINE
  5
49F
  8
DATA
 62
     7
 10
-454.3499999999994
 20
-1435.8839999999991
 30
0.0
 11
-454.3499999999994
 21
-1552.623118252749
 31
0.0
  0
LINE
  5
4A0
  8
DATA
 62
     7
 10
-481.84999999999849
 20
-1533.884
 30
0.0
 11
-481.84999999999849
 21
-1535.8839999999991
 31
0.0
  0
LINE
  5
4A1
  8
DATA
 62
     7
 10
-311.74999999999898
 20
-1651.883999999998
 30
0.0
 11
-323.24999999999812
 21
-1651.883999999998
 31
0.0
  0
LINE
  5
4A2
  8
DATA
 62
     7
 10
-307.74999999999812
 20
-1655.8839999999991
 30
0.0
 11
-323.24999999999812
 21
-1655.8839999999991
 31
0.0
  0
LINE
  5
4A3
  8
DATA
 62
     7
 10
-380.17506239605052
 20
-1558.883999999998
 30
0.0
 11
-311.74999999999898
 21
-1558.883999999998
 31
0.0
  0
LINE
  5
4A4
  8
DATA
 62
     7
 10
-389.42054284530792
 20
-1554.8839999999991
 30
0.0
 11
-307.74999999999812
 21
-1554.8839999999991
 31
0.0
  0
LINE
  5
4A5
  8
DATA
 62
     7
 10
-311.74999999999898
 20
-1558.883999999998
 30
0.0
 11
-311.74999999999898
 21
-1651.883999999998
 31
0.0
  0
LINE
  5
4A6
  8
DATA
 62
     7
 10
-307.74999999999812
 20
-1554.8839999999991
 30
0.0
 11
-307.74999999999812
 21
-1655.8839999999991
 31
0.0
  0
CIRCLE
  5
4A7
  8
DATA
 62
     7
 10
-299.84999999999837
 20
-1693.199767489871
 30
0.0
 40
3.25
  0
LINE
  5
4A8
  8
DATA
 62
     7
 10
-458.35000000000031
 20
-1445.383999999998
 30
0.0
 11
-454.3499999999994
 21
-1445.383999999998
 31
0.0
  0
CIRCLE
  5
4A9
  8
DATA
 62
     7
 10
-488.64646348067072
 20
-1449.082335058627
 30
0.0
 40
8.5
  0
CIRCLE
  5
4AA
  8
DATA
 62
     7
 10
-488.64646348067072
 20
-1449.082335058627
 30
0.0
 40
5.0
  0
CIRCLE
  5
4AB
  8
DATA
 62
     7
 10
-488.64646348067072
 20
-1449.082335058627
 30
0.0
 40
3.25
  0
LINE
  5
4AC
  8
DATA
 62
     7
 10
-450.24999999999812
 20
-1445.1339999999991
 30
0.0
 11
-454.3499999999994
 21
-1445.1339999999991
 31
0.0
  0
ARC
  5
4AD
  8
DATA
 62
     7
 10
-388.34999999999849
 20
-1452.880886926853
 30
0.0
 40
15.000000000000099
 50
223.39232799573441
 51
250.0000000000004
  0
ARC
  5
4AE
  8
DATA
 62
     7
 10
-446.8499999999994
 20
-1435.8839999999991
 30
0.0
 40
7.4999999999998002
 50
116.95774913927291
 51
180.0
  0
LINE
  5
4AF
  8
DATA
 62
     7
 10
-299.84999999999837
 20
-1521.0682325101279
 30
0.0
 11
-299.84999999999837
 21
-1514.068232510127
 31
0.0
  0
ARC
  5
4B0
  8
DATA
 62
     7
 10
-118.28313832577621
 20
-2766.183017125682
 30
0.0
 40
1083.5464401896779
 50
112.174805858922
 51
135.02871001559089
  0
ARC
  5
4B1
  8
DATA
 62
     7
 10
-140.74825991157829
 20
-2742.3651043214022
 30
0.0
 40
1021.319400845955
 50
112.2366997851949
 51
133.7119322747763
  0
CIRCLE
  5
4B2
  8
DATA
 62
     7
 10
-826.81511732692081
 20
-1963.1821522895259
 30
0.0
 40
8.0
  0
ARC
  5
4B3
  8
DATA
 62
     7
 10
-118.28313832577621
 20
-444.58498287431621
 30
0.0
 40
1083.5464401896779
 50
224.971289984409
 51
251.7088299672032
  0
ARC
  5
4B4
  8
DATA
 62
     7
 10
-140.74825991157829
 20
-468.40289567859742
 30
0.0
 40
1021.319400845955
 50
226.28806772522361
 51
252.1181294180808
  0
CIRCLE
  5
4B5
  8
DATA
 62
     7
 10
-826.81511732692081
 20
-1247.585847710473
 30
0.0
 40
8.5
  0
CIRCLE
  5
4B6
  8
DATA
 62
     7
 10
-826.81511732692081
 20
-1247.585847710473
 30
0.0
 40
5.0
  0
CIRCLE
  5
4B7
  8
DATA
 62
     7
 10
-826.81511732692081
 20
-1247.585847710473
 30
0.0
 40
3.25
  0
ARC
  5
4B8
  8
DATA
 62
     7
 10
45.806250000010529
 20
-1605.3839999999991
 30
0.0
 40
1015.156250000009
 50
157.10132402299999
 51
202.89867597699981
  0
ARC
  5
4B9
  8
DATA
 62
     7
 10
50.306250000011453
 20
-1605.3839999999991
 30
0.0
 40
1015.156250000009
 50
157.10132402299999
 51
202.89867597699981
  0
LINE
  5
4BA
  8
DATA
 62
     7
 10
-889.34999999999945
 20
-2000.384
 30
0.0
 11
-846.51362798205435
 21
-2004.131696938151
 31
0.0
  0
LINE
  5
4BB
  8
DATA
 62
     7
 10
-889.34999999999945
 20
-1210.3839999999991
 30
0.0
 11
-846.51362798205435
 21
-1206.6363030618479
 31
0.0
  0
LINE
  5
4BC
  8
DATA
 62
     7
 10
-323.24999999999812
 20
-1718.229984235275
 30
0.0
 11
-207.2593696152216
 21
-1676.012847321444
 31
0.0
  0
ARC
  5
4BD
  8
DATA
 62
     7
 10
-61.788356164364828
 20
-1605.3839999999959
 30
0.0
 40
608.06164383563237
 50
186.75284814963089
 51
199.95294527927729
  0
LINE
  5
4BE
  8
DATA
 62
     7
 10
-323.24999999999812
 20
-1691.6255399233789
 30
0.0
 11
-266.24999999999898
 21
-1670.8792365702061
 31
0.0
  0
LINE
  5
4BF
  8
DATA
 62
     7
 10
-830.31511732692081
 20
-1963.1821522895259
 30
0.0
 11
-823.31511732692081
 21
-1963.1821522895259
 31
0.0
  0
LINE
  5
4C0
  8
DATA
 62
     7
 10
-826.81511732692081
 20
-1966.6821522895259
 30
0.0
 11
-826.81511732692081
 21
-1959.682152289527
 31
0.0
  0
CIRCLE
  5
4C1
  8
DATA
 62
     7
 10
-608.09332708189129
 20
-1813.1977201149159
 30
0.0
 40
8.0
  0
LINE
  5
4C2
  8
DATA
 62
     7
 10
-611.59332708189243
 20
-1813.1977201149159
 30
0.0
 11
-604.59332708189129
 21
-1813.1977201149159
 31
0.0
  0
LINE
  5
4C3
  8
DATA
 62
     7
 10
-608.09332708189129
 20
-1816.6977201149159
 30
0.0
 11
-608.09332708189129
 21
-1809.697720114917
 31
0.0
  0
CIRCLE
  5
4C4
  8
DATA
 62
     7
 10
-735.51100265258174
 20
-1890.242844185793
 30
0.0
 40
8.0
  0
LINE
  5
4C5
  8
DATA
 62
     7
 10
-739.01100265258253
 20
-1890.242844185793
 30
0.0
 11
-732.01100265258174
 21
-1890.242844185793
 31
0.0
  0
LINE
  5
4C6
  8
DATA
 62
     7
 10
-735.51100265258174
 20
-1893.742844185793
 30
0.0
 11
-735.51100265258174
 21
-1886.742844185793
 31
0.0
  0
LINE
  5
4C7
  8
DATA
 62
     7
 10
-393.4803021498837
 20
-1466.976276238641
 30
0.0
 11
-207.25936961529439
 21
-1534.755152678526
 31
0.0
  0
LINE
  5
4C8
  8
DATA
 62
     7
 10
-262.74999999999812
 20
-1669.6053407502741
 30
0.0
 11
-231.25
 21
-1658.14027837089
 31
0.0
  0
LINE
  5
4C9
  8
DATA
 62
     7
 10
-262.74999999999812
 20
-1541.1626592497221
 30
0.0
 11
-231.2499999999981
 21
-1552.6277216291089
 31
0.0
  0
ARC
  5
4CA
  8
DATA
 62
     7
 10
-61.788356164364828
 20
-1605.3839999999959
 30
0.0
 40
608.06164383563305
 50
160.047054720723
 51
173.24715185036951
  0
LINE
  5
4CB
  8
DATA
 62
     7
 10
-399.24999999999812
 20
-1491.4807222723859
 30
0.0
 11
-266.24999999999812
 21
-1539.8887634297901
 31
0.0
  0
CIRCLE
  5
4CC
  8
DATA
 62
     7
 10
-299.84999999999837
 20
-1517.568232510127
 30
0.0
 40
8.0
  0
LINE
  5
4CD
  8
DATA
 62
     7
 10
-678.34999999999945
 20
-1535.8839999999991
 30
0.0
 11
-458.35000000000031
 21
-1535.8839999999991
 31
0.0
  0
LINE
  5
4CE
  8
DATA
 62
     7
 10
-678.34999999999945
 20
-1533.884
 30
0.0
 11
-458.3499999999994
 21
-1533.884
 31
0.0
  0
LINE
  5
4CF
  8
DATA
 62
     7
 10
-678.34999999999945
 20
-1674.884
 30
0.0
 11
-527.24999999999818
 21
-1674.8839999999991
 31
0.0
  0
LINE
  5
4D0
  8
DATA
 62
     7
 10
-678.34999999999764
 20
-1676.884
 30
0.0
 11
-527.24999999999818
 21
-1676.884
 31
0.0
  0
LINE
  5
4D1
  8
DATA
 62
     7
 10
-678.34999999999945
 20
-1676.884
 30
0.0
 11
-678.34999999999945
 21
-1674.884
 31
0.0
  0
LINE
  5
4D2
  8
DATA
 62
     7
 10
-678.34999999999945
 20
-1535.8839999999991
 30
0.0
 11
-678.34999999999945
 21
-1533.884
 31
0.0
  0
ARC
  5
4D3
  8
DATA
 62
     7
 10
-61.788356164364828
 20
-1605.3839999999959
 30
0.0
 40
608.06164383563282
 50
173.43688536180159
 51
186.56311463819881
  0
LINE
  5
4D4
  8
DATA
 62
     7
 10
-266.24999999999812
 20
-1671.879236570205
 30
0.0
 11
-266.24999999999812
 21
-1538.888763429791
 31
0.0
  0
LINE
  5
4D5
  8
DATA
 62
     7
 10
-262.74999999999909
 20
-1671.879236570205
 30
0.0
 11
-262.74999999999909
 21
-1538.8887634297921
 31
0.0
  0
LINE
  5
4D6
  8
DATA
 62
     7
 10
-266.24999999999812
 20
-1671.879236570205
 30
0.0
 11
-262.74999999999812
 21
-1671.879236570205
 31
0.0
  0
CIRCLE
  5
4D7
  8
DATA
 62
     7
 10
-299.84999999999837
 20
-1693.199767489871
 30
0.0
 40
8.5
  0
CIRCLE
  5
4D8
  8
DATA
 62
     7
 10
-299.84999999999837
 20
-1693.199767489871
 30
0.0
 40
5.0
  0
LINE
  5
4D9
  8
DATA
 62
     7
 10
-266.24999999999898
 20
-1538.8887634297921
 30
0.0
 11
-262.74999999999909
 21
-1538.8887634297921
 31
0.0
  0
CIRCLE
  5
4DA
  8
DATA
 62
     7
 10
-608.09332708189129
 20
-1397.570279885083
 30
0.0
 40
8.5
  0
CIRCLE
  5
4DB
  8
DATA
 62
     7
 10
-608.09332708189129
 20
-1397.570279885083
 30
0.0
 40
5.0
  0
CIRCLE
  5
4DC
  8
DATA
 62
     7
 10
-608.09332708189129
 20
-1397.570279885083
 30
0.0
 40
3.25
  0
CIRCLE
  5
4DD
  8
DATA
 62
     7
 10
-735.51100265258174
 20
-1320.5251558142049
 30
0.0
 40
8.5
  0
CIRCLE
  5
4DE
  8
DATA
 62
     7
 10
-735.51100265258174
 20
-1320.5251558142049
 30
0.0
 40
5.0
  0
CIRCLE
  5
4DF
  8
DATA
 62
     7
 10
-735.51100265258174
 20
-1320.5251558142049
 30
0.0
 40
3.25
  0
LINE
  5
4E0
  8
DATA
 62
     7
 10
-303.34999999999837
 20
-1517.568232510127
 30
0.0
 11
-296.34999999999849
 21
-1517.568232510127
 31
0.0
  0
ARC
  5
4E1
  8
DATA
 62
     7
 10
-170.84999999999849
 20
-1524.3839999999991
 30
0.0
 40
16.5
 50
0.0
 51
173.21005348490431
  0
CIRCLE
  5
4E2
  8
DATA
 62
     7
 10
-170.84999999999849
 20
-1523.3839999999991
 30
0.0
 40
5.0
  0
LINE
  5
4E3
  8
DATA
 62
     7
 10
-189.3499999999994
 20
-1561.2869433965409
 30
0.0
 11
-189.3499999999994
 21
-1554.2869433965409
 31
0.0
  0
LINE
  5
4E4
  8
DATA
 62
     7
 10
-154.34999999999849
 20
-1686.384
 30
0.0
 11
-154.34999999999849
 21
-1524.3839999999991
 31
0.0
  0
LINE
  5
4E5
  8
DATA
 62
     7
 10
-159.14999999999961
 20
-1665.3839999999991
 30
0.0
 11
-159.14999999999779
 21
-1545.384
 31
0.0
  0
LINE
  5
4E6
  8
DATA
 62
     7
 10
-227.74999999999901
 20
-1551.6277216291101
 30
0.0
 11
-227.74999999999901
 21
-1659.1402783708891
 31
0.0
  0
LINE
  5
4E7
  8
DATA
 62
     7
 10
-192.74999999999901
 20
-1646.4013201715709
 30
0.0
 11
-192.74999999999901
 21
-1564.3666798284271
 31
0.0
  0
LINE
  5
4E8
  8
DATA
 62
     7
 10
-231.25
 20
-1659.140278370887
 30
0.0
 11
-231.2499999999981
 21
-1551.6277216291101
 31
0.0
  0
LINE
  5
4E9
  8
DATA
 62
     7
 10
-196.2499999999981
 20
-1646.4013201715709
 30
0.0
 11
-196.2499999999981
 21
-1564.3666798284271
 31
0.0
  0
LINE
  5
4EA
  8
DATA
 62
     7
 10
-192.75
 20
-1566.640575648358
 30
0.0
 11
-159.14999999999779
 21
-1578.8699755197031
 31
0.0
  0
ARC
  5
4EB
  8
DATA
 62
     7
 10
-170.84999999999849
 20
-1686.384
 30
0.0
 40
16.50000000000005
 50
186.7899465150638
 51
0.0
  0
ARC
  5
4EC
  8
DATA
 62
     7
 10
-202.12906746533639
 20
-1690.1082366332321
 30
0.0
 40
14.999999999999551
 50
6.7899465150612563
 51
110.0000000000008
  0
LINE
  5
4ED
  8
DATA
 62
     7
 10
-159.14999999999961
 20
-1665.3839999999991
 30
0.0
 11
-154.34999999999849
 21
-1665.3839999999991
 31
0.0
  0
LINE
  5
4EE
  8
DATA
 62
     7
 10
-231.2499999999981
 20
-1659.140278370887
 30
0.0
 11
-227.74999999999901
 21
-1659.140278370887
 31
0.0
  0
LINE
  5
4EF
  8
DATA
 62
     7
 10
-196.2499999999981
 20
-1646.4013201715709
 30
0.0
 11
-192.74999999999901
 21
-1646.4013201715709
 31
0.0
  0
LINE
  5
4F0
  8
DATA
 62
     7
 10
-227.74999999999901
 20
-1656.866382550957
 30
0.0
 11
-196.2499999999981
 21
-1645.40132017157
 31
0.0
  0
LINE
  5
4F1
  8
DATA
 62
     7
 10
-192.74999999999901
 20
-1644.12742435164
 30
0.0
 11
-159.14999999999779
 21
-1631.898024480294
 31
0.0
  0
CIRCLE
  5
4F2
  8
DATA
 62
     7
 10
-170.84999999999849
 20
-1687.384
 30
0.0
 40
5.0
  0
CIRCLE
  5
4F3
  8
DATA
 62
     7
 10
-189.3499999999994
 20
-1652.981056603455
 30
0.0
 40
5.0
  0
CIRCLE
  5
4F4
  8
DATA
 62
     7
 10
-189.3499999999994
 20
-1652.981056603455
 30
0.0
 40
3.25
  0
ARC
  5
4F5
  8
DATA
 62
     7
 10
-189.3499999999994
 20
-1652.981056603455
 30
0.0
 40
8.4999999999996341
 50
129.27770264575179
 51
113.57817847819381
  0
ARC
  5
4F6
  8
DATA
 62
     7
 10
-202.12906746540921
 20
-1520.6597633667379
 30
0.0
 40
14.999999999999931
 50
249.9999999999992
 51
353.21005348490428
  0
LINE
  5
4F7
  8
DATA
 62
     7
 10
-159.14999999999779
 20
-1545.384
 30
0.0
 11
-154.34999999999849
 21
-1545.384
 31
0.0
  0
LINE
  5
4F8
  8
DATA
 62
     7
 10
-231.2499999999981
 20
-1551.6277216291101
 30
0.0
 11
-227.74999999999901
 21
-1551.6277216291101
 31
0.0
  0
LINE
  5
4F9
  8
DATA
 62
     7
 10
-196.2499999999981
 20
-1564.3666798284271
 30
0.0
 11
-192.7499999999981
 21
-1564.3666798284271
 31
0.0
  0
LINE
  5
4FA
  8
DATA
 62
     7
 10
-227.74999999999901
 20
-1553.90161744904
 30
0.0
 11
-196.2499999999981
 21
-1565.3666798284271
 31
0.0
  0
CIRCLE
  5
4FB
  8
DATA
 62
     7
 10
-189.3499999999994
 20
-1557.7869433965409
 30
0.0
 40
8.0
  0
LINE
  5
4FC
  8
DATA
 62
     7
 10
-192.85000000000039
 20
-1557.7869433965409
 30
0.0
 11
-185.85000000000039
 21
-1557.7869433965409
 31
0.0
  0
LINE
  5
4FD
  8
DATA
 62
     7
 10
177.11200000000099
 20
-2000.383999999998
 30
0.0
 11
491.11200000000008
 21
-2000.383999999998
 31
0.0
  0
LINE
  5
4FE
  8
DATA
 62
     7
 10
494.11200000000002
 20
-2000.383999999998
 30
0.0
 11
655.11200000000008
 21
-2000.383999999998
 31
0.0
  0
LINE
  5
4FF
  8
DATA
 62
     7
 10
658.11200000000019
 20
-2000.383999999998
 30
0.0
 11
972.11199999999985
 21
-2000.383999999998
 31
0.0
  0
LINE
  5
500
  8
DATA
 62
     7
 10
177.11200000000099
 20
-1210.3839999999959
 30
0.0
 11
972.11199999999985
 21
-1210.3839999999959
 31
0.0
  0
ARC
  5
501
  8
DATA
 62
     7
 10
1147.658919566459
 20
-2050.0239030233811
 30
0.0
 40
857.79478182044954
 50
101.8089577549847
 51
130.47398434946689
  0
ARC
  5
502
  8
DATA
 62
     7
 10
1147.658919566459
 20
-1160.7440969766139
 30
0.0
 40
857.79478182044988
 50
230.57822990003689
 51
234.95627876294949
  0
ARC
  5
503
  8
DATA
 62
     7
 10
1147.658919566459
 20
-1160.7440969766139
 30
0.0
 40
857.79478182044988
 50
235.2006670627857
 51
258.19104224501518
  0
ARC
  5
504
  8
DATA
 62
     7
 10
1.5650804335418651
 20
-1160.7440969766139
 30
0.0
 40
857.7947818204492
 50
281.80895775498448
 51
304.79933293721558
  0
ARC
  5
505
  8
DATA
 62
     7
 10
1.5650804335418651
 20
-1160.7440969766139
 30
0.0
 40
857.79478182044829
 50
305.0437212370523
 51
309.42177009996311
  0
LINE
  5
506
  8
DATA
 62
     7
 10
177.11200000000099
 20
-2000.383999999998
 30
0.0
 11
177.11200000000099
 21
-1210.3839999999959
 31
0.0
  0
LINE
  5
507
  8
DATA
 62
     7
 10
574.61200000000019
 20
-2000.383999999998
 30
0.0
 11
574.61200000000019
 21
-1823.384
 31
0.0
  0
LINE
  5
508
  8
DATA
 62
     7
 10
574.61200000000019
 20
-1797.884
 30
0.0
 11
574.61200000000019
 21
-1782.3840000000021
 31
0.0
  0
LINE
  5
509
  8
DATA
 62
     7
 10
578.36200000000008
 20
-2000.383999999998
 30
0.0
 11
578.36200000000088
 21
-1823.384
 31
0.0
  0
LINE
  5
50A
  8
DATA
 62
     7
 10
578.36200000000088
 20
-1797.612146066127
 30
0.0
 11
578.36200000000088
 21
-1782.384
 31
0.0
  0
LINE
  5
50B
  8
DATA
 62
     7
 10
570.86200000000088
 20
-2000.383999999998
 30
0.0
 11
570.86200000000088
 21
-1823.384
 31
0.0
  0
LINE
  5
50C
  8
DATA
 62
     7
 10
570.86200000000088
 20
-1797.6121460661279
 30
0.0
 11
570.86200000000088
 21
-1782.384
 31
0.0
  0
LINE
  5
50D
  8
DATA
 62
     7
 10
578.36200000000008
 20
-1954.6821522895209
 30
0.0
 11
587.86200000000019
 21
-1954.682152289522
 31
0.0
  0
LINE
  5
50E
  8
DATA
 62
     7
 10
578.36200000000008
 20
-1971.68215228952
 30
0.0
 11
587.86200000000019
 21
-1971.68215228952
 31
0.0
  0
LINE
  5
50F
  8
DATA
 62
     7
 10
587.86200000000019
 20
-1971.68215228952
 30
0.0
 11
587.86200000000019
 21
-1954.682152289522
 31
0.0
  0
LINE
  5
510
  8
DATA
 62
     7
 10
570.86200000000019
 20
-1971.1821522895209
 30
0.0
 11
569.66199999999935
 21
-1971.1821522895209
 31
0.0
  0
ARC
  5
511
  8
DATA
 62
     7
 10
574.91199999998457
 20
-1963.1821522895771
 30
0.0
 40
8.7499999999461586
 50
126.86989764554259
 51
233.13010235401899
  0
LINE
  5
512
  8
DATA
 62
     7
 10
569.66199999999935
 20
-1955.1821522895209
 30
0.0
 11
570.86200000000019
 21
-1955.1821522895209
 31
0.0
  0
LINE
  5
513
  8
DATA
 62
     7
 10
569.66199999999935
 20
-1971.1821522895209
 30
0.0
 11
569.66199999999935
 21
-1955.1821522895209
 31
0.0
  0
LINE
  5
514
  8
DATA
 62
     7
 10
578.36200000000008
 20
-1881.742844185788
 30
0.0
 11
587.86200000000019
 21
-1881.7428441857901
 31
0.0
  0
LINE
  5
515
  8
DATA
 62
     7
 10
578.36200000000008
 20
-1898.742844185788
 30
0.0
 11
587.86200000000019
 21
-1898.742844185788
 31
0.0
  0
LINE
  5
516
  8
DATA
 62
     7
 10
587.86200000000019
 20
-1898.742844185788
 30
0.0
 11
587.86200000000019
 21
-1881.7428441857901
 31
0.0
  0
LINE
  5
517
  8
DATA
 62
     7
 10
570.86200000000019
 20
-1898.242844185788
 30
0.0
 11
569.66199999999935
 21
-1898.242844185788
 31
0.0
  0
ARC
  5
518
  8
DATA
 62
     7
 10
574.91199999998457
 20
-1890.242844185844
 30
0.0
 40
8.7499999999461586
 50
126.86989764554259
 51
233.13010235401899
  0
LINE
  5
519
  8
DATA
 62
     7
 10
569.66199999999935
 20
-1882.242844185789
 30
0.0
 11
570.86200000000019
 21
-1882.242844185789
 31
0.0
  0
LINE
  5
51A
  8
DATA
 62
     7
 10
569.66199999999935
 20
-1898.242844185788
 30
0.0
 11
569.66199999999935
 21
-1882.242844185789
 31
0.0
  0
ARC
  5
51B
  8
DATA
 62
     7
 10
1.5650804335418651
 20
-2050.0239030233811
 30
0.0
 40
857.79478182044829
 50
49.526015650533182
 51
78.191042245015325
  0
LINE
  5
51C
  8
DATA
 62
     7
 10
578.36200000000008
 20
-1406.0702798850809
 30
0.0
 11
587.86200000000019
 21
-1406.070279885078
 31
0.0
  0
LINE
  5
51D
  8
DATA
 62
     7
 10
578.36200000000008
 20
-1389.0702798850789
 30
0.0
 11
587.86200000000019
 21
-1389.0702798850789
 31
0.0
  0
LINE
  5
51E
  8
DATA
 62
     7
 10
587.86200000000019
 20
-1389.0702798850789
 30
0.0
 11
587.86200000000019
 21
-1406.070279885078
 31
0.0
  0
LINE
  5
51F
  8
DATA
 62
     7
 10
570.86200000000019
 20
-1389.5702798850809
 30
0.0
 11
569.66199999999935
 21
-1389.5702798850809
 31
0.0
  0
ARC
  5
520
  8
DATA
 62
     7
 10
574.91199999998457
 20
-1397.5702798850241
 30
0.0
 40
8.7499999999463398
 50
126.869897645981
 51
233.13010235445731
  0
LINE
  5
521
  8
DATA
 62
     7
 10
569.66199999999935
 20
-1405.5702798850809
 30
0.0
 11
570.86200000000019
 21
-1405.5702798850809
 31
0.0
  0
LINE
  5
522
  8
DATA
 62
     7
 10
569.66199999999935
 20
-1389.5702798850809
 30
0.0
 11
569.66199999999935
 21
-1405.5702798850809
 31
0.0
  0
LINE
  5
523
  8
DATA
 62
     7
 10
578.36200000000008
 20
-1329.0251558142029
 30
0.0
 11
587.86200000000019
 21
-1329.0251558142011
 31
0.0
  0
LINE
  5
524
  8
DATA
 62
     7
 10
578.36200000000008
 20
-1312.0251558142029
 30
0.0
 11
587.86200000000019
 21
-1312.0251558142029
 31
0.0
  0
LINE
  5
525
  8
DATA
 62
     7
 10
587.86200000000019
 20
-1312.0251558142029
 30
0.0
 11
587.86200000000019
 21
-1329.0251558142011
 31
0.0
  0
LINE
  5
526
  8
DATA
 62
     7
 10
570.86199999999917
 20
-1312.525155814204
 30
0.0
 11
569.66199999999935
 21
-1312.525155814204
 31
0.0
  0
ARC
  5
527
  8
DATA
 62
     7
 10
574.91199999998457
 20
-1320.525155814147
 30
0.0
 40
8.7499999999468852
 50
126.8698976459857
 51
233.1301023544525
  0
LINE
  5
528
  8
DATA
 62
     7
 10
569.66199999999935
 20
-1328.525155814204
 30
0.0
 11
570.86199999999917
 21
-1328.525155814204
 31
0.0
  0
LINE
  5
529
  8
DATA
 62
     7
 10
569.66199999999935
 20
-1312.525155814204
 30
0.0
 11
569.66199999999935
 21
-1328.525155814204
 31
0.0
  0
LINE
  5
52A
  8
DATA
 62
     7
 10
578.36200000000008
 20
-1256.0858477104709
 30
0.0
 11
587.86200000000019
 21
-1256.085847710468
 31
0.0
  0
LINE
  5
52B
  8
DATA
 62
     7
 10
578.36200000000008
 20
-1239.0858477104709
 30
0.0
 11
587.86200000000019
 21
-1239.0858477104709
 31
0.0
  0
LINE
  5
52C
  8
DATA
 62
     7
 10
587.86200000000019
 20
-1239.0858477104709
 30
0.0
 11
587.86200000000019
 21
-1256.085847710468
 31
0.0
  0
LINE
  5
52D
  8
DATA
 62
     7
 10
570.86200000000019
 20
-1239.5858477104709
 30
0.0
 11
569.66200000000015
 21
-1239.5858477104709
 31
0.0
  0
ARC
  5
52E
  8
DATA
 62
     7
 10
574.91199999998457
 20
-1247.585847710415
 30
0.0
 40
8.7499999999463398
 50
126.869897645981
 51
233.13010235445731
  0
LINE
  5
52F
  8
DATA
 62
     7
 10
569.66200000000015
 20
-1255.5858477104709
 30
0.0
 11
570.86200000000019
 21
-1255.5858477104709
 31
0.0
  0
LINE
  5
530
  8
DATA
 62
     7
 10
569.66200000000015
 20
-1239.5858477104709
 30
0.0
 11
569.66200000000015
 21
-1255.5858477104709
 31
0.0
  0
LINE
  5
531
  8
DATA
 62
     7
 10
574.61200000000019
 20
-1428.3839999999991
 30
0.0
 11
574.61200000000019
 21
-1210.3839999999959
 31
0.0
  0
LINE
  5
532
  8
DATA
 62
     7
 10
578.36200000000008
 20
-1428.383999999998
 30
0.0
 11
578.36200000000008
 21
-1210.3839999999959
 31
0.0
  0
LINE
  5
533
  8
DATA
 62
     7
 10
570.86200000000019
 20
-1428.3839999999971
 30
0.0
 11
570.86200000000019
 21
-1210.3839999999959
 31
0.0
  0
LINE
  5
534
  8
DATA
 62
     7
 10
590.86200000000008
 20
-1397.4987478916471
 30
0.0
 11
590.8620000000019
 21
-1445.133999999998
 31
0.0
  0
LINE
  5
535
  8
DATA
 62
     7
 10
558.36199999999997
 20
-1397.4987478916471
 30
0.0
 11
558.3620000000019
 21
-1445.1339999999971
 31
0.0
  0
LINE
  5
536
  8
DATA
 62
     7
 10
590.86200000000088
 20
-1792.180243494794
 30
0.0
 11
590.8620000000019
 21
-1765.634
 31
0.0
  0
LINE
  5
537
  8
DATA
 62
     7
 10
558.36200000000076
 20
-1792.180243494794
 30
0.0
 11
558.3620000000019
 21
-1765.6339999999991
 31
0.0
  0
LINE
  5
538
  8
DATA
 62
     7
 10
574.61200000000019
 20
-1428.383999999998
 30
0.0
 11
574.61200000000019
 21
-1489.1339999999991
 31
0.0
  0
LINE
  5
539
  8
DATA
 62
     7
 10
574.61200000000099
 20
-1721.6339999999991
 30
0.0
 11
574.61200000000099
 21
-1782.384
 31
0.0
  0
LINE
  5
53A
  8
DATA
 62
     7
 10
583.51200000000165
 20
-1765.634
 30
0.0
 11
600.61200000000008
 21
-1765.634
 31
0.0
  0
LINE
  5
53B
  8
DATA
 62
     7
 10
565.71200000000135
 20
-1782.384
 30
0.0
 11
583.51200000000165
 21
-1782.384
 31
0.0
  0
LINE
  5
53C
  8
DATA
 62
     7
 10
548.61199999999997
 20
-1765.634
 30
0.0
 11
565.71200000000135
 21
-1765.634
 31
0.0
  0
LINE
  5
53D
  8
DATA
 62
     7
 10
583.51200000000165
 20
-1782.384
 30
0.0
 11
583.51200000000233
 21
-1721.292811140481
 31
0.0
  0
LINE
  5
53E
  8
DATA
 62
     7
 10
565.71200000000135
 20
-1782.384
 30
0.0
 11
565.71200000000135
 21
-1721.292811140481
 31
0.0
  0
LINE
  5
53F
  8
DATA
 62
     7
 10
593.0119999999996
 20
-1724.190537907753
 30
0.0
 11
593.0119999999996
 21
-1741.1905379077521
 31
0.0
  0
LINE
  5
540
  8
DATA
 62
     7
 10
593.0119999999996
 20
-1741.1905379077521
 30
0.0
 11
583.5119999999996
 21
-1741.1905379077521
 31
0.0
  0
LINE
  5
541
  8
DATA
 62
     7
 10
593.0119999999996
 20
-1724.190537907753
 30
0.0
 11
583.5119999999996
 21
-1724.190537907753
 31
0.0
  0
ARC
  5
542
  8
DATA
 62
     7
 10
569.76199999998607
 20
-1732.690537907808
 30
0.0
 40
8.7499999999467022
 50
126.8698976455474
 51
233.13010235401899
  0
LINE
  5
543
  8
DATA
 62
     7
 10
564.51200000000165
 20
-1740.6905379077521
 30
0.0
 11
564.51200000000165
 21
-1724.6905379077521
 31
0.0
  0
LINE
  5
544
  8
DATA
 62
     7
 10
564.51200000000165
 20
-1724.6905379077521
 30
0.0
 11
565.71200000000135
 21
-1724.6905379077521
 31
0.0
  0
LINE
  5
545
  8
DATA
 62
     7
 10
565.71200000000135
 20
-1740.6905379077521
 30
0.0
 11
564.51200000000165
 21
-1740.6905379077521
 31
0.0
  0
ARC
  5
546
  8
DATA
 62
     7
 10
565.71199999999942
 20
-1725.2497596751909
 30
0.0
 40
12.599999999999451
 50
180.0
 51
254.7132511732124
  0
LINE
  5
547
  8
DATA
 62
     7
 10
553.11200000000076
 20
-1725.2497596751909
 30
0.0
 11
553.11200000000076
 21
-1719.6285294095071
 31
0.0
  0
LINE
  5
548
  8
DATA
 62
     7
 10
596.11200000000008
 20
-1725.249759675185
 30
0.0
 11
596.11200000000008
 21
-1719.6285294095071
 31
0.0
  0
ARC
  5
549
  8
DATA
 62
     7
 10
583.5119999999996
 20
-1725.249759675185
 30
0.0
 40
12.599999999999691
 50
318.93529956533672
 51
0.0
  0
LINE
  5
54A
  8
DATA
 62
     7
 10
583.51200000000165
 20
-1445.133999999998
 30
0.0
 11
600.61200000000008
 21
-1445.133999999998
 31
0.0
  0
LINE
  5
54B
  8
DATA
 62
     7
 10
565.71200000000135
 20
-1428.383999999998
 30
0.0
 11
583.51200000000165
 21
-1428.383999999998
 31
0.0
  0
LINE
  5
54C
  8
DATA
 62
     7
 10
548.61199999999997
 20
-1445.133999999998
 30
0.0
 11
565.71200000000135
 21
-1445.133999999998
 31
0.0
  0
LINE
  5
54D
  8
DATA
 62
     7
 10
565.71200000000135
 20
-1489.475188859516
 30
0.0
 11
565.71200000000135
 21
-1428.383999999998
 31
0.0
  0
LINE
  5
54E
  8
DATA
 62
     7
 10
583.51200000000165
 20
-1428.383999999998
 30
0.0
 11
583.51200000000233
 21
-1489.475188859516
 31
0.0
  0
LINE
  5
54F
  8
DATA
 62
     7
 10
556.21200000000215
 20
-1486.5774620922441
 30
0.0
 11
556.21200000000215
 21
-1469.577462092245
 31
0.0
  0
LINE
  5
550
  8
DATA
 62
     7
 10
556.21200000000215
 20
-1469.577462092245
 30
0.0
 11
565.71200000000135
 21
-1469.577462092245
 31
0.0
  0
LINE
  5
551
  8
DATA
 62
     7
 10
556.21200000000215
 20
-1486.5774620922441
 30
0.0
 11
565.71200000000135
 21
-1486.5774620922441
 31
0.0
  0
LINE
  5
552
  8
DATA
 62
     7
 10
583.51200000000335
 20
-1470.0774620922441
 30
0.0
 11
584.71200000000408
 21
-1470.0774620922441
 31
0.0
  0
ARC
  5
553
  8
DATA
 62
     7
 10
579.46200000001829
 20
-1478.077462092187
 30
0.0
 40
8.7499999999461586
 50
306.86989764554261
 51
53.130102354019023
  0
LINE
  5
554
  8
DATA
 62
     7
 10
584.71200000000408
 20
-1486.0774620922441
 30
0.0
 11
583.51200000000335
 21
-1486.0774620922441
 31
0.0
  0
LINE
  5
555
  8
DATA
 62
     7
 10
584.71200000000408
 20
-1470.0774620922441
 30
0.0
 11
584.71200000000408
 21
-1486.0774620922441
 31
0.0
  0
ARC
  5
556
  8
DATA
 62
     7
 10
583.5119999999996
 20
-1485.5182403248109
 30
0.0
 40
12.60000000000036
 50
0.0
 51
74.71325117316529
  0
ARC
  5
557
  8
DATA
 62
     7
 10
565.71200000000044
 20
-1485.5182403248109
 30
0.0
 40
12.59999999999952
 50
138.93529956532501
 51
180.0
  0
LINE
  5
558
  8
DATA
 62
     7
 10
553.11200000000076
 20
-1491.1394705904911
 30
0.0
 11
553.11200000000076
 21
-1485.5182403248109
 31
0.0
  0
LINE
  5
559
  8
DATA
 62
     7
 10
596.11200000000008
 20
-1491.1394705904911
 30
0.0
 11
596.11200000000008
 21
-1485.5182403248109
 31
0.0
  0
LINE
  5
55A
  8
DATA
 62
     7
 10
972.11199999999985
 20
-1210.3839999999959
 30
0.0
 11
972.11199999999985
 21
-2000.383999999998
 31
0.0
  0
CIRCLE
  5
55B
  8
DATA
 62
     7
 10
574.61200000000019
 20
-1605.3839999999991
 30
0.0
 40
98.250000000000014
  0
CIRCLE
  5
55C
  8
DATA
 62
     7
 10
574.61200000000019
 20
-1605.3839999999991
 30
0.0
 40
95.897699999999503
  0
CIRCLE
  5
55D
  8
DATA
 62
     7
 10
574.61200000000019
 20
-1605.3839999999991
 30
0.0
 40
116.25
  0
ARC
  5
55E
  8
DATA
 62
     7
 10
574.61200000000019
 20
-1605.3839999999991
 30
0.0
 40
74.234963636363872
 50
246.5850794528979
 51
293.41492054710199
  0
TEXT
  5
55F
  8
DATA
 62
     7
 10
548.41145714753475
 20
-1605.598374999998
 30
0.0
 40
4.4800000000000004
  1
Professional Series
 41
0.85
 11
548.41145714753475
 21
-1601.118374999998
 31
0.0
 73
     3
  0
LINE
  5
560
  8
DATA
 62
     7
 10
604.11200000000019
 20
-1623.6339999999991
 30
0.0
 11
545.11200000000008
 21
-1623.6339999999991
 31
0.0
  0
LINE
  5
561
  8
DATA
 62
     7
 10
545.11200000000008
 20
-1570.633999999998
 30
0.0
 11
604.11200000000019
 21
-1570.633999999998
 31
0.0
  0
CIRCLE
  5
562
  8
DATA
 62
     7
 10
574.61200000000019
 20
-1605.3839999999991
 30
0.0
 40
51.75
  0
CIRCLE
  5
563
  8
DATA
 62
     7
 10
574.61200000000019
 20
-1605.3839999999991
 30
0.0
 40
71.246999999999375
  0
ARC
  5
564
  8
DATA
 62
     7
 10
574.61200000000019
 20
-1605.3839999999991
 30
0.0
 40
93.656727272727622
 50
262.62188751734499
 51
277.37811248265382
  0
LINE
  5
565
  8
DATA
 62
     7
 10
586.61200000000019
 20
-1590.634
 30
0.0
 11
562.61200000000008
 21
-1590.634
 31
0.0
  0
CIRCLE
  5
566
  8
DATA
 62
     7
 10
589.11200000000008
 20
-1692.798583767586
 30
0.0
 40
6.0
  0
CIRCLE
  5
567
  8
DATA
 62
     7
 10
589.11200000000008
 20
-1692.798583767586
 30
0.0
 40
5.0
  0
TEXT
  5
568
  8
DATA
 62
     7
 10
579.61200000000008
 20
-1638.633999999998
 30
0.0
 40
2.578125
  1
8 OHMS
 41
0.85
 11
579.61200000000008
 21
-1636.055874999998
 31
0.0
 73
     3
  0
TEXT
  5
569
  8
DATA
 62
     7
 10
579.61200000000008
 20
-1634.1339999999991
 30
0.0
 40
2.578125
  1
2446H
 41
0.85
 11
579.61200000000008
 21
-1631.5558749999991
 31
0.0
 73
     3
  0
TEXT
  5
56A
  8
DATA
 62
     7
 10
554.20458411372692
 20
-1638.633999999998
 30
0.0
 40
2.578125
  1
IMPEDANCE
 41
0.85
 11
554.20458411372692
 21
-1636.055874999998
 31
0.0
 73
     3
  0
TEXT
  5
56B
  8
DATA
 62
     7
 10
554.20458411372692
 20
-1643.133999999998
 30
0.0
 40
2.578125
  1
SERIAL No.
 41
0.85
 11
554.20458411372692
 21
-1640.555874999998
 31
0.0
 73
     3
  0
TEXT
  5
56C
  8
DATA
 62
     7
 10
554.20458411372692
 20
-1634.1339999999991
 30
0.0
 40
2.578125
  1
MODEL No.
 41
0.85
 11
554.20458411372692
 21
-1631.5558749999991
 31
0.0
 73
     3
  0
ARC
  5
56D
  8
DATA
 62
     7
 10
574.61200000000019
 20
-1605.3839999999991
 30
0.0
 40
93.656727272727636
 50
252.12315186638091
 51
258.54161072422642
  0
ARC
  5
56E
  8
DATA
 62
     7
 10
574.61200000000019
 20
-1605.3839999999991
 30
0.0
 40
93.656727272727224
 50
132.1231518663806
 51
167.87684813361889
  0
LINE
  5
56F
  8
DATA
 62
     7
 10
530.3667894353357
 20
-1545.7753498879511
 30
0.0
 11
511.79396244104203
 21
-1535.9183486269669
 31
0.0
  0
ARC
  5
570
  8
DATA
 62
     7
 10
574.61200000000019
 20
-1605.3839999999991
 30
0.0
 40
74.23496363636427
 50
126.5850794528985
 51
173.41492054710201
  0
LINE
  5
571
  8
DATA
 62
     7
 10
483.04396244104367
 20
-1585.714809344573
 30
0.0
 11
500.86678943533383
 21
-1596.8708487112319
 31
0.0
  0
LINE
  5
572
  8
DATA
 62
     7
 10
498.2660346673228
 20
-1561.305636363634
 30
0.0
 11
500.86411087867509
 21
-1562.8056363636349
 31
0.0
  0
CIRCLE
  5
573
  8
DATA
 62
     7
 10
499.56507277299801
 20
-1562.0556363636349
 30
0.0
 40
3.0
  0
LINE
  5
574
  8
DATA
 62
     7
 10
500.31507277299801
 20
-1560.756598257959
 30
0.0
 11
498.81507277299801
 21
-1563.354674469311
 31
0.0
  0
LINE
  5
575
  8
DATA
 62
     7
 10
500.31507277299801
 20
-1560.756598257959
 30
0.0
 11
498.81507277299801
 21
-1563.354674469311
 31
0.0
  0
LINE
  5
576
  8
DATA
 62
     7
 10
545.11200000000008
 20
-1673.5058014008141
 30
0.0
 11
545.86199999999997
 21
-1694.518842028456
 31
0.0
  0
LINE
  5
577
  8
DATA
 62
     7
 10
545.11200000000008
 20
-1623.6339999999991
 30
0.0
 11
545.11200000000008
 21
-1570.633999999998
 31
0.0
  0
LINE
  5
578
  8
DATA
 62
     7
 10
574.61200000000019
 20
-1693.5407272727259
 30
0.0
 11
574.61200000000019
 21
-1690.5407272727259
 31
0.0
  0
CIRCLE
  5
579
  8
DATA
 62
     7
 10
574.61200000000019
 20
-1692.0407272727259
 30
0.0
 40
3.0
  0
LINE
  5
57A
  8
DATA
 62
     7
 10
573.11200000000019
 20
-1692.0407272727259
 30
0.0
 11
576.11200000000008
 21
-1692.0407272727259
 31
0.0
  0
LINE
  5
57B
  8
DATA
 62
     7
 10
573.11200000000019
 20
-1692.0407272727259
 30
0.0
 11
576.11200000000008
 21
-1692.0407272727259
 31
0.0
  0
CIRCLE
  5
57C
  8
DATA
 62
     7
 10
560.11199999999997
 20
-1692.798583767586
 30
0.0
 40
6.0
  0
CIRCLE
  5
57D
  8
DATA
 62
     7
 10
560.11199999999997
 20
-1692.798583767586
 30
0.0
 40
5.0
  0
LINE
  5
57E
  8
DATA
 62
     7
 10
562.61200000000008
 20
-1590.634
 30
0.0
 11
562.61200000000008
 21
-1570.633999999998
 31
0.0
  0
ARC
  5
57F
  8
DATA
 62
     7
 10
574.61200000000019
 20
-1605.3839999999991
 30
0.0
 40
93.656727272726883
 50
12.123151866381059
 51
47.876848133618992
  0
LINE
  5
580
  8
DATA
 62
     7
 10
637.43003755895643
 20
-1535.9183486269669
 30
0.0
 11
618.85721056466446
 21
-1545.7753498879511
 31
0.0
  0
ARC
  5
581
  8
DATA
 62
     7
 10
574.61200000000019
 20
-1605.3839999999991
 30
0.0
 40
93.656727272727267
 50
281.45838927577358
 51
287.87684813361892
  0
LINE
  5
582
  8
DATA
 62
     7
 10
648.35721056466446
 20
-1596.8708487112319
 30
0.0
 11
666.18003755895643
 21
-1585.714809344573
 31
0.0
  0
ARC
  5
583
  8
DATA
 62
     7
 10
574.61200000000019
 20
-1605.3839999999991
 30
0.0
 40
74.234963636362835
 50
6.5850794528974239
 51
53.414920547102611
  0
LINE
  5
584
  8
DATA
 62
     7
 10
650.95796533267708
 20
-1561.305636363634
 30
0.0
 11
648.35988912132325
 21
-1562.8056363636349
 31
0.0
  0
CIRCLE
  5
585
  8
DATA
 62
     7
 10
649.65892722700198
 20
-1562.0556363636349
 30
0.0
 40
3.0
  0
LINE
  5
586
  8
DATA
 62
     7
 10
650.4089272270021
 20
-1563.354674469311
 30
0.0
 11
648.9089272270021
 21
-1560.756598257959
 31
0.0
  0
LINE
  5
587
  8
DATA
 62
     7
 10
650.4089272270021
 20
-1563.354674469311
 30
0.0
 11
648.9089272270021
 21
-1560.756598257959
 31
0.0
  0
LINE
  5
588
  8
DATA
 62
     7
 10
603.36200000000008
 20
-1694.518842028456
 30
0.0
 11
604.11200000000019
 21
-1673.5058014008141
 31
0.0
  0
LINE
  5
589
  8
DATA
 62
     7
 10
604.11200000000019
 20
-1570.633999999998
 30
0.0
 11
604.11200000000019
 21
-1623.6339999999991
 31
0.0
  0
LINE
  5
58A
  8
DATA
 62
     7
 10
586.61200000000019
 20
-1570.633999999998
 30
0.0
 11
586.61200000000019
 21
-1590.634
 31
0.0
  0
LINE
  5
58B
  8
DATA
 62
     7
 10
491.11200000000008
 20
-2002.384
 30
0.0
 11
491.11200000000008
 21
-1686.265471920334
 31
0.0
  0
LINE
  5
58C
  8
DATA
 62
     7
 10
658.11200000000019
 20
-1686.265471920334
 30
0.0
 11
658.11200000000019
 21
-2002.384
 31
0.0
  0
LINE
  5
58D
  8
DATA
 62
     7
 10
494.11200000000002
 20
-2002.384
 30
0.0
 11
494.11200000000002
 21
-1689.251827562181
 31
0.0
  0
LINE
  5
58E
  8
DATA
 62
     7
 10
494.11200000000002
 20
-1521.516172437817
 30
0.0
 11
494.11200000000002
 21
-1416.884
 31
0.0
  0
LINE
  5
58F
  8
DATA
 62
     7
 10
655.11200000000008
 20
-1416.884
 30
0.0
 11
655.11200000000008
 21
-1521.516172437817
 31
0.0
  0
LINE
  5
590
  8
DATA
 62
     7
 10
655.11200000000008
 20
-1689.251827562181
 30
0.0
 11
655.11200000000008
 21
-2002.384
 31
0.0
  0
LINE
  5
591
  8
DATA
 62
     7
 10
652.11200000000019
 20
-2005.384
 30
0.0
 11
497.11200000000002
 21
-2005.384
 31
0.0
  0
LINE
  5
592
  8
DATA
 62
     7
 10
655.11200000000008
 20
-1823.384
 30
0.0
 11
494.11200000000002
 21
-1823.384
 31
0.0
  0
LINE
  5
593
  8
DATA
 62
     7
 10
655.11200000000008
 20
-1416.884
 30
0.0
 11
600.61200000000008
 21
-1416.884
 31
0.0
  0
LINE
  5
594
  8
DATA
 62
     7
 10
548.61199999999997
 20
-1416.884
 30
0.0
 11
494.11200000000002
 21
-1416.884
 31
0.0
  0
LINE
  5
595
  8
DATA
 62
     7
 10
548.61199999999997
 20
-1416.884
 30
0.0
 11
548.61199999999997
 21
-1492.078825802171
 31
0.0
  0
LINE
  5
596
  8
DATA
 62
     7
 10
548.61199999999997
 20
-1718.689174197827
 30
0.0
 11
548.61199999999997
 21
-1771.884
 31
0.0
  0
LINE
  5
597
  8
DATA
 62
     7
 10
600.61200000000008
 20
-1416.884
 30
0.0
 11
600.61200000000008
 21
-1492.078825802171
 31
0.0
  0
LINE
  5
598
  8
DATA
 62
     7
 10
600.61200000000008
 20
-1718.689174197827
 30
0.0
 11
600.61200000000008
 21
-1771.884
 31
0.0
  0
ARC
  5
599
  8
DATA
 62
     7
 10
574.61200000000019
 20
-1771.884
 30
0.0
 40
26.0
 50
180.0
 51
0.0
  0
CIRCLE
  5
59A
  8
DATA
 62
     7
 10
537.11200000000008
 20
-1457.384
 30
0.0
 40
3.5
  0
CIRCLE
  5
59B
  8
DATA
 62
     7
 10
537.11200000000008
 20
-1752.384
 30
0.0
 40
3.4999999999996212
  0
CIRCLE
  5
59C
  8
DATA
 62
     7
 10
612.11200000000019
 20
-1457.384
 30
0.0
 40
3.5
  0
CIRCLE
  5
59D
  8
DATA
 62
     7
 10
612.11200000000019
 20
-1752.384
 30
0.0
 40
3.4999999999996212
  0
LINE
  5
59E
  8
DATA
 62
     7
 10
489.61200000000002
 20
-1789.674
 30
0.0
 11
491.11200000000008
 21
-1789.674
 31
0.0
  0
LINE
  5
59F
  8
DATA
 62
     7
 10
489.61200000000002
 20
-1807.174
 30
0.0
 11
491.11200000000008
 21
-1807.174
 31
0.0
  0
LINE
  5
5A0
  8
DATA
 62
     7
 10
489.61200000000002
 20
-1807.174
 30
0.0
 11
489.61200000000002
 21
-1789.674
 31
0.0
  0
LINE
  5
5A1
  8
DATA
 62
     7
 10
484.61200000000002
 20
-1791.174
 30
0.0
 11
489.61200000000002
 21
-1791.174
 31
0.0
  0
LINE
  5
5A2
  8
DATA
 62
     7
 10
484.61200000000002
 20
-1805.674
 30
0.0
 11
489.61200000000002
 21
-1805.674
 31
0.0
  0
LINE
  5
5A3
  8
DATA
 62
     7
 10
484.61200000000002
 20
-1805.674
 30
0.0
 11
484.61200000000002
 21
-1791.174
 31
0.0
  0
LINE
  5
5A4
  8
DATA
 62
     7
 10
484.61200000000002
 20
-1794.799
 30
0.0
 11
489.61200000000002
 21
-1794.799
 31
0.0
  0
LINE
  5
5A5
  8
DATA
 62
     7
 10
484.61200000000002
 20
-1802.049
 30
0.0
 11
489.61200000000002
 21
-1802.049
 31
0.0
  0
LINE
  5
5A6
  8
DATA
 62
     7
 10
659.61200000000008
 20
-1789.674
 30
0.0
 11
658.11200000000019
 21
-1789.674
 31
0.0
  0
LINE
  5
5A7
  8
DATA
 62
     7
 10
659.61200000000008
 20
-1807.174
 30
0.0
 11
658.11200000000019
 21
-1807.174
 31
0.0
  0
LINE
  5
5A8
  8
DATA
 62
     7
 10
659.61200000000008
 20
-1807.174
 30
0.0
 11
659.61200000000008
 21
-1789.674
 31
0.0
  0
LINE
  5
5A9
  8
DATA
 62
     7
 10
664.61200000000019
 20
-1791.174
 30
0.0
 11
659.61200000000008
 21
-1791.174
 31
0.0
  0
LINE
  5
5AA
  8
DATA
 62
     7
 10
664.61200000000019
 20
-1805.674
 30
0.0
 11
659.61200000000008
 21
-1805.674
 31
0.0
  0
LINE
  5
5AB
  8
DATA
 62
     7
 10
664.61200000000019
 20
-1805.674
 30
0.0
 11
664.61200000000019
 21
-1791.174
 31
0.0
  0
LINE
  5
5AC
  8
DATA
 62
     7
 10
664.61200000000019
 20
-1794.799
 30
0.0
 11
659.61200000000008
 21
-1794.799
 31
0.0
  0
LINE
  5
5AD
  8
DATA
 62
     7
 10
664.61200000000019
 20
-1802.049
 30
0.0
 11
659.61200000000008
 21
-1802.049
 31
0.0
  0
ARC
  5
5AE
  8
DATA
 62
     7
 10
652.11200000000019
 20
-2002.384
 30
0.0
 40
6.0
 50
270.0
 51
0.0
  0
ARC
  5
5AF
  8
DATA
 62
     7
 10
497.11200000000002
 20
-2002.384
 30
0.0
 40
6.0
 50
180.0
 51
270.0
  0
ARC
  5
5B0
  8
DATA
 62
     7
 10
497.11200000000002
 20
-2002.384
 30
0.0
 40
3.0
 50
180.0
 51
270.0
  0
ARC
  5
5B1
  8
DATA
 62
     7
 10
652.11200000000019
 20
-2002.384
 30
0.0
 40
3.0
 50
270.0
 51
0.0
  0
LINE
  5
5B2
  8
DATA
 62
     7
 10
506.11200000000002
 20
-1805.674
 30
0.0
 11
506.11200000000002
 21
-1791.174
 31
0.0
  0
LINE
  5
5B3
  8
DATA
 62
     7
 10
514.61199999999997
 20
-1802.174
 30
0.0
 11
514.61199999999997
 21
-1794.674
 31
0.0
  0
LINE
  5
5B4
  8
DATA
 62
     7
 10
498.61200000000002
 20
-1789.674
 30
0.0
 11
497.11200000000002
 21
-1789.674
 31
0.0
  0
LINE
  5
5B5
  8
DATA
 62
     7
 10
497.11200000000002
 20
-1807.174
 30
0.0
 11
498.61200000000002
 21
-1807.174
 31
0.0
  0
LINE
  5
5B6
  8
DATA
 62
     7
 10
498.61200000000002
 20
-1807.174
 30
0.0
 11
498.61200000000002
 21
-1789.674
 31
0.0
  0
LINE
  5
5B7
  8
DATA
 62
     7
 10
500.61200000000008
 20
-1805.674
 30
0.0
 11
500.61200000000008
 21
-1791.174
 31
0.0
  0
LINE
  5
5B8
  8
DATA
 62
     7
 10
498.61200000000002
 20
-1791.174
 30
0.0
 11
506.11200000000002
 21
-1791.174
 31
0.0
  0
LINE
  5
5B9
  8
DATA
 62
     7
 10
498.61200000000002
 20
-1805.674
 30
0.0
 11
506.11200000000002
 21
-1805.674
 31
0.0
  0
LINE
  5
5BA
  8
DATA
 62
     7
 10
500.61200000000008
 20
-1794.799
 30
0.0
 11
506.11200000000002
 21
-1794.799
 31
0.0
  0
LINE
  5
5BB
  8
DATA
 62
     7
 10
500.61200000000008
 20
-1802.049
 30
0.0
 11
506.11200000000002
 21
-1802.049
 31
0.0
  0
LINE
  5
5BC
  8
DATA
 62
     7
 10
506.11200000000002
 20
-1794.674
 30
0.0
 11
514.61199999999997
 21
-1794.674
 31
0.0
  0
LINE
  5
5BD
  8
DATA
 62
     7
 10
506.11200000000002
 20
-1802.174
 30
0.0
 11
514.61199999999997
 21
-1802.174
 31
0.0
  0
LINE
  5
5BE
  8
DATA
 62
     7
 10
514.61199999999997
 20
-1802.174
 30
0.0
 11
512.60238105676763
 21
-1794.674
 31
0.0
  0
LINE
  5
5BF
  8
DATA
 62
     7
 10
512.61200000000008
 20
-1802.174
 30
0.0
 11
510.60238105676763
 21
-1794.674
 31
0.0
  0
LINE
  5
5C0
  8
DATA
 62
     7
 10
510.61200000000002
 20
-1802.174
 30
0.0
 11
508.60238105676763
 21
-1794.674
 31
0.0
  0
LINE
  5
5C1
  8
DATA
 62
     7
 10
508.61200000000008
 20
-1802.174
 30
0.0
 11
506.60238105676763
 21
-1794.674
 31
0.0
  0
LINE
  5
5C2
  8
DATA
 62
     7
 10
506.61200000000002
 20
-1802.174
 30
0.0
 11
506.11200000000002
 21
-1800.307974596215
 31
0.0
  0
LINE
  5
5C3
  8
DATA
 62
     7
 10
643.11200000000008
 20
-1805.674
 30
0.0
 11
643.11200000000008
 21
-1791.174
 31
0.0
  0
LINE
  5
5C4
  8
DATA
 62
     7
 10
650.61200000000008
 20
-1789.674
 30
0.0
 11
652.11200000000019
 21
-1789.674
 31
0.0
  0
LINE
  5
5C5
  8
DATA
 62
     7
 10
648.61200000000019
 20
-1805.674
 30
0.0
 11
648.61200000000019
 21
-1791.174
 31
0.0
  0
LINE
  5
5C6
  8
DATA
 62
     7
 10
650.61200000000008
 20
-1791.174
 30
0.0
 11
643.11200000000008
 21
-1791.174
 31
0.0
  0
LINE
  5
5C7
  8
DATA
 62
     7
 10
650.61200000000008
 20
-1805.674
 30
0.0
 11
643.11200000000008
 21
-1805.674
 31
0.0
  0
LINE
  5
5C8
  8
DATA
 62
     7
 10
648.61200000000019
 20
-1794.799
 30
0.0
 11
643.11200000000008
 21
-1794.799
 31
0.0
  0
LINE
  5
5C9
  8
DATA
 62
     7
 10
648.61200000000019
 20
-1802.049
 30
0.0
 11
643.11200000000008
 21
-1802.049
 31
0.0
  0
LINE
  5
5CA
  8
DATA
 62
     7
 10
634.61200000000008
 20
-1794.674
 30
0.0
 11
634.61200000000008
 21
-1802.174
 31
0.0
  0
LINE
  5
5CB
  8
DATA
 62
     7
 10
643.11200000000008
 20
-1802.174
 30
0.0
 11
634.61200000000008
 21
-1802.174
 31
0.0
  0
LINE
  5
5CC
  8
DATA
 62
     7
 10
643.11200000000008
 20
-1794.674
 30
0.0
 11
634.61200000000008
 21
-1794.674
 31
0.0
  0
LINE
  5
5CD
  8
DATA
 62
     7
 10
634.61200000000008
 20
-1794.674
 30
0.0
 11
636.62161894323253
 21
-1802.174
 31
0.0
  0
LINE
  5
5CE
  8
DATA
 62
     7
 10
636.61200000000019
 20
-1794.674
 30
0.0
 11
638.62161894323253
 21
-1802.174
 31
0.0
  0
LINE
  5
5CF
  8
DATA
 62
     7
 10
638.61200000000008
 20
-1794.674
 30
0.0
 11
640.62161894323253
 21
-1802.174
 31
0.0
  0
LINE
  5
5D0
  8
DATA
 62
     7
 10
640.61200000000019
 20
-1794.674
 30
0.0
 11
642.62161894323253
 21
-1802.174
 31
0.0
  0
LINE
  5
5D1
  8
DATA
 62
     7
 10
642.61200000000008
 20
-1794.674
 30
0.0
 11
643.11200000000008
 21
-1796.540025403785
 31
0.0
  0
LINE
  5
5D2
  8
DATA
 62
     7
 10
652.11200000000019
 20
-1416.884
 30
0.0
 11
652.11200000000019
 21
-1518.7363658718821
 31
0.0
  0
LINE
  5
5D3
  8
DATA
 62
     7
 10
652.11200000000019
 20
-1692.0316341281159
 30
0.0
 11
652.11200000000019
 21
-1823.384
 31
0.0
  0
LINE
  5
5D4
  8
DATA
 62
     7
 10
497.11200000000002
 20
-1823.384
 30
0.0
 11
497.11200000000002
 21
-1692.0316341281159
 31
0.0
  0
LINE
  5
5D5
  8
DATA
 62
     7
 10
497.11200000000002
 20
-1518.7363658718821
 30
0.0
 11
497.11200000000002
 21
-1416.884
 31
0.0
  0
LINE
  5
5D6
  8
DATA
 62
     7
 10
650.61200000000008
 20
-1807.174
 30
0.0
 11
652.11200000000019
 21
-1807.174
 31
0.0
  0
LINE
  5
5D7
  8
DATA
 62
     7
 10
650.61200000000008
 20
-1789.674
 30
0.0
 11
650.61200000000008
 21
-1807.174
 31
0.0
  0
ARC
  5
5D8
  8
DATA
 62
     7
 10
575.54837385129133
 20
-1583.620909263725
 30
0.0
 40
0.2719219969396319
 50
307.64190249749061
 51
354.26701928944459
  0
LINE
  5
5D9
  8
DATA
 62
     7
 10
568.56372719816306
 20
-1579.335858684286
 30
0.0
 11
569.83850157816323
 21
-1576.2984280442849
 31
0.0
  0
LINE
  5
5DA
  8
DATA
 62
     7
 10
568.56372719816306
 20
-1579.335858684286
 30
0.0
 11
567.30468213816312
 21
-1576.2984280442849
 31
0.0
  0
LINE
  5
5DB
  8
DATA
 62
     7
 10
578.22685239816281
 20
-1584.8284280442849
 30
0.0
 11
578.22685239816281
 21
-1576.2984280442849
 31
0.0
  0
LINE
  5
5DC
  8
DATA
 62
     7
 10
579.86360585816317
 20
-1576.2984280442849
 30
0.0
 11
579.86360585816317
 21
-1583.522177964285
 31
0.0
  0
LINE
  5
5DD
  8
DATA
 62
     7
 10
570.43654840816282
 20
-1576.2984280442849
 30
0.0
 11
570.43654840816282
 21
-1583.522177964285
 31
0.0
  0
LINE
  5
5DE
  8
DATA
 62
     7
 10
572.01035046816276
 20
-1576.2984280442849
 30
0.0
 11
572.01035046816276
 21
-1583.522177964285
 31
0.0
  0
LINE
  5
5DF
  8
DATA
 62
     7
 10
572.8287271981626
 20
-1576.2984280442849
 30
0.0
 11
572.8287271981626
 21
-1584.8284280442849
 31
0.0
  0
LINE
  5
5E0
  8
DATA
 62
     7
 10
574.26088860816253
 20
-1577.101058394285
 30
0.0
 11
574.26088860816253
 21
-1579.8394784142849
 31
0.0
  0
LINE
  5
5E1
  8
DATA
 62
     7
 10
577.33047734816319
 20
-1579.6810251342849
 30
0.0
 11
577.33047734816319
 21
-1577.683375904285
 31
0.0
  0
LINE
  5
5E2
  8
DATA
 62
     7
 10
575.81893575816321
 20
-1577.4787753242849
 30
0.0
 11
575.81893575816321
 21
-1579.4617700142851
 31
0.0
  0
ARC
  5
5E3
  8
DATA
 62
     7
 10
570.12073368816255
 20
-1582.638094644286
 30
0.0
 40
2.199761971668158
 50
264.69085622155387
 51
323.99119915425968
  0
LINE
  5
5E4
  8
DATA
 62
     7
 10
569.24046327816257
 20
-1582.152959424285
 30
0.0
 11
569.24046327816257
 21
-1583.5221609042851
 31
0.0
  0
LINE
  5
5E5
  8
DATA
 62
     7
 10
569.24046327816257
 20
-1582.152959424285
 30
0.0
 11
567.82403971816245
 21
-1582.152959424285
 31
0.0
  0
LINE
  5
5E6
  8
DATA
 62
     7
 10
567.82403971816245
 20
-1582.152959424285
 30
0.0
 11
567.82403971816245
 21
-1583.5221609042851
 31
0.0
  0
ARC
  5
5E7
  8
DATA
 62
     7
 10
569.84150413816326
 20
-1583.5406198242849
 30
0.0
 40
0.5953332887850881
 50
269.71184879274313
 51
1.7759870056495399
  0
ARC
  5
5E8
  8
DATA
 62
     7
 10
569.83550754816315
 20
-1583.5406198242849
 30
0.0
 40
0.5953302446134801
 50
178.22401299431519
 51
270.28815120718087
  0
ARC
  5
5E9
  8
DATA
 62
     7
 10
569.71365649816289
 20
-1582.638094644286
 30
0.0
 40
2.1997583991152698
 50
216.00880084575559
 51
275.30914377846341
  0
ARC
  5
5EA
  8
DATA
 62
     7
 10
568.81816003816311
 20
-1583.473940814285
 30
0.0
 40
0.9952805775749871
 50
182.77699544997051
 51
207.3596066671268
  0
CIRCLE
  5
5EB
  8
DATA
 62
     7
 10
568.65028963816246
 20
-1580.5162144942849
 30
0.0
 40
0.8105035400003544
  0
LINE
  5
5EC
  8
DATA
 62
     7
 10
582.49185239816325
 20
-1584.828419514286
 30
0.0
 11
578.22685239816281
 21
-1584.828419514286
 31
0.0
  0
LINE
  5
5ED
  8
DATA
 62
     7
 10
582.49185239816325
 20
-1584.828419514286
 30
0.0
 11
582.49185239816325
 21
-1582.1529508942849
 31
0.0
  0
LINE
  5
5EE
  8
DATA
 62
     7
 10
582.49185239816325
 20
-1582.152959424285
 30
0.0
 11
581.05969951816326
 21
-1582.152959424285
 31
0.0
  0
LINE
  5
5EF
  8
DATA
 62
     7
 10
581.05969951816326
 20
-1582.152959424285
 30
0.0
 11
581.05969951816326
 21
-1583.5221609042851
 31
0.0
  0
LINE
  5
5F0
  8
DATA
 62
     7
 10
572.8287271981626
 20
-1584.828419514286
 30
0.0
 11
575.81893575816321
 21
-1584.828410984285
 31
0.0
  0
LINE
  5
5F1
  8
DATA
 62
     7
 10
574.26088007816281
 20
-1584.025780634285
 30
0.0
 11
575.03204325816284
 21
-1584.025780634285
 31
0.0
  0
LINE
  5
5F2
  8
DATA
 62
     7
 10
574.26088860816253
 20
-1584.025780634285
 30
0.0
 11
574.26088860816253
 21
-1580.6578466142851
 31
0.0
  0
LINE
  5
5F3
  8
DATA
 62
     7
 10
574.26088007816281
 20
-1580.6578466142851
 30
0.0
 11
575.03204325816284
 21
-1580.6578466142851
 31
0.0
  0
LINE
  5
5F4
  8
DATA
 62
     7
 10
575.81893575816321
 20
-1583.6480722342851
 30
0.0
 11
575.81893575816321
 21
-1581.035555014286
 31
0.0
  0
ARC
  5
5F5
  8
DATA
 62
     7
 10
571.01623014816323
 20
-1583.473940814285
 30
0.0
 40
0.9952791613280103
 50
332.640393332852
 51
357.22300455000908
  0
ARC
  5
5F6
  8
DATA
 62
     7
 10
580.46464671816284
 20
-1583.5406198242849
 30
0.0
 40
0.5953332887850881
 50
269.71184879274313
 51
1.7759870056495399
  0
ARC
  5
5F7
  8
DATA
 62
     7
 10
580.45865865816245
 20
-1583.5406198242849
 30
0.0
 40
0.5953302446125712
 50
178.22401299431249
 51
270.28815120726853
  0
LINE
  5
5F8
  8
DATA
 62
     7
 10
577.32978641816305
 20
-1583.4592095042849
 30
0.0
 11
577.32978641816305
 21
-1581.192942044285
 31
0.0
  0
LINE
  5
5F9
  8
DATA
 62
     7
 10
574.26088007816281
 20
-1579.8394784142849
 30
0.0
 11
575.03204325816284
 21
-1579.8394784142849
 31
0.0
  0
ARC
  5
5FA
  8
DATA
 62
     7
 10
575.71050239816304
 20
-1583.209109904285
 30
0.0
 40
1.622927534195804
 50
273.83098160911999
 51
351.13514730979227
  0
LINE
  5
5FB
  8
DATA
 62
     7
 10
570.43654840816282
 20
-1576.2984280442849
 30
0.0
 11
572.01035046816276
 21
-1576.2984280442849
 31
0.0
  0
LINE
  5
5FC
  8
DATA
 62
     7
 10
567.30468213816312
 20
-1576.2984280442849
 30
0.0
 11
569.83850157816323
 21
-1576.2984280442849
 31
0.0
  0
LINE
  5
5FD
  8
DATA
 62
     7
 10
578.22685239816281
 20
-1576.2984280442849
 30
0.0
 11
579.86360585816317
 21
-1576.2984280442849
 31
0.0
  0
LINE
  5
5FE
  8
DATA
 62
     7
 10
572.8287271981626
 20
-1576.2984280442849
 30
0.0
 11
575.83537317747243
 21
-1576.298434948246
 31
0.0
  0
LINE
  5
5FF
  8
DATA
 62
     7
 10
574.26088007816281
 20
-1577.101066924286
 30
0.0
 11
575.03204325816284
 21
-1577.101066924286
 31
0.0
  0
ARC
  5
600
  8
DATA
 62
     7
 10
575.72668380816322
 20
-1577.9152554242851
 30
0.0
 40
1.6204696327734791
 50
8.2269238590122171
 51
86.154126692152715
  0
ARC
  5
601
  8
DATA
 62
     7
 10
575.04114942776323
 20
-1582.529884803904
 30
0.0
 40
1.495923546735356
 50
269.65121993762818
 51
282.82648280687448
  0
ARC
  5
602
  8
DATA
 62
     7
 10
575.2091653195921
 20
-1583.1623316497621
 30
0.0
 40
0.8422845318501597
 50
281.23310362264522
 51
306.86200889403949
  0
ARC
  5
603
  8
DATA
 62
     7
 10
575.54837385129133
 20
-1581.062717984845
 30
0.0
 40
0.2719219969400556
 50
5.7329807105552719
 51
52.358097502509409
  0
ARC
  5
604
  8
DATA
 62
     7
 10
575.04114942776323
 20
-1582.153742444666
 30
0.0
 40
1.4959235467345551
 50
77.173517193121555
 51
90.348780062371915
  0
ARC
  5
605
  8
DATA
 62
     7
 10
575.2091653195921
 20
-1581.5212955988079
 30
0.0
 40
0.8422845318501359
 50
53.137991105960502
 51
78.766896377354712
  0
ARC
  5
606
  8
DATA
 62
     7
 10
576.50435537816259
 20
-1581.248736774286
 30
0.0
 40
0.8273146038191512
 50
3.8670063598424571
 51
88.361634567852207
  0
ARC
  5
607
  8
DATA
 62
     7
 10
576.50359620816278
 20
-1579.5939850142861
 30
0.0
 40
0.8281367047752039
 50
271.68928210463167
 51
356.07828298268402
  0
ARC
  5
608
  8
DATA
 62
     7
 10
575.54837385129133
 20
-1579.434607043725
 30
0.0
 40
0.271921996939992
 50
307.641902497432
 51
354.26701928934932
  0
ARC
  5
609
  8
DATA
 62
     7
 10
575.04114942776323
 20
-1578.3435825839049
 30
0.0
 40
1.4959235467344469
 50
269.6512199376279
 51
282.82648280687448
  0
ARC
  5
60A
  8
DATA
 62
     7
 10
575.2091653195921
 20
-1578.9760294297621
 30
0.0
 40
0.8422845318501597
 50
281.23310362264522
 51
306.86200889405802
  0
ARC
  5
60B
  8
DATA
 62
     7
 10
575.54837385129133
 20
-1577.5059382948459
 30
0.0
 40
0.2719219969401011
 50
5.7329807106506108
 51
52.358097502509409
  0
ARC
  5
60C
  8
DATA
 62
     7
 10
575.04114942776323
 20
-1578.596962754666
 30
0.0
 40
1.4959235467349989
 50
77.173517193125434
 51
90.348780062372043
  0
ARC
  5
60D
  8
DATA
 62
     7
 10
575.2091653195921
 20
-1577.9645159088091
 30
0.0
 40
0.8422845318501359
 50
53.137991105960502
 51
78.766896377354712
  0
LINE
  5
60E
  8
DATA
 62
     7
 10
-1277.887999999999
 20
-819.34999999999934
 30
0.0
 11
-2072.8879999999999
 21
-819.34999999999934
 31
0.0
  0
LINE
  5
60F
  8
DATA
 62
     7
 10
-1725.3879999999999
 20
-308.35000000000031
 30
0.0
 11
-1679.1379999999999
 21
-308.35000000000031
 31
0.0
  0
LINE
  5
610
  8
DATA
 62
     7
 10
-1693.7879999999991
 20
-141.35000000000221
 30
0.0
 11
-1684.2879999999991
 21
-141.35000000000221
 31
0.0
  0
LINE
  5
611
  8
DATA
 62
     7
 10
-1693.7879999999991
 20
-158.35000000000119
 30
0.0
 11
-1684.2879999999991
 21
-158.35000000000119
 31
0.0
  0
LINE
  5
612
  8
DATA
 62
     7
 10
-1693.7879999999991
 20
-249.85000000000309
 30
0.0
 11
-1684.2879999999991
 21
-249.8500000000021
 31
0.0
  0
LINE
  5
613
  8
DATA
 62
     7
 10
-1693.7879999999991
 20
-266.85000000000298
 30
0.0
 11
-1684.2879999999991
 21
-266.85000000000218
 31
0.0
  0
LINE
  5
614
  8
DATA
 62
     7
 10
-1740.2879999999991
 20
-4.3499999999994543
 30
0.0
 11
-1610.4880000000001
 21
-4.3499999999985439
 31
0.0
  0
LINE
  5
615
  8
DATA
 62
     7
 10
-1693.7879999999991
 20
-30.850000000003089
 30
0.0
 11
-1684.2879999999991
 21
-30.850000000003998
 31
0.0
  0
LINE
  5
616
  8
DATA
 62
     7
 10
-1693.7879999999991
 20
-47.85000000000128
 30
0.0
 11
-1684.2879999999991
 21
-47.85000000000128
 31
0.0
  0
LINE
  5
617
  8
DATA
 62
     7
 10
-1740.2880000000009
 20
-9.1499999999996344
 30
0.0
 11
-1684.2879999999991
 21
-9.1499999999996344
 31
0.0
  0
LINE
  5
618
  8
DATA
 62
     7
 10
-1730.3879999999999
 20
-304.35000000000122
 30
0.0
 11
-1620.3879999999999
 21
-304.35000000000122
 31
0.0
  0
ARC
  5
619
  8
DATA
 62
     7
 10
-2251.223028050475
 20
-227.69147089763371
 30
0.0
 40
617.95080491034207
 50
286.77361881104048
 51
335.5612733151923
  0
LINE
  5
61A
  8
DATA
 62
     7
 10
-1725.3879999999999
 20
-308.35000000000031
 30
0.0
 11
-1725.387999999999
 21
-304.35000000000122
 31
0.0
  0
LINE
  5
61B
  8
DATA
 62
     7
 10
-1688.6379999999999
 20
-483.349999999999
 30
0.0
 11
-1688.6379999999999
 21
-308.35000000000031
 31
0.0
  0
LINE
  5
61C
  8
DATA
 62
     7
 10
-1691.6379999999999
 20
-489.851333712459
 30
0.0
 11
-1691.6379999999999
 21
-308.35000000000031
 31
0.0
  0
LINE
  5
61D
  8
DATA
 62
     7
 10
-1725.3879999999999
 20
-308.35000000000031
 30
0.0
 11
-1700.6379999999999
 21
-331.8499999999994
 31
0.0
  0
LINE
  5
61E
  8
DATA
 62
     7
 10
-1700.6379999999999
 20
-508.2611131898762
 30
0.0
 11
-1700.6379999999999
 21
-331.8499999999994
 31
0.0
  0
ARC
  5
61F
  8
DATA
 62
     7
 10
-2285.9970974474681
 20
-127.80561532554189
 30
0.0
 40
589.18084270019642
 50
359.10584190298567
 51
11.618302416433661
  0
LINE
  5
620
  8
DATA
 62
     7
 10
-1730.3879999999999
 20
-304.35000000000122
 30
0.0
 11
-1730.3879999999999
 21
-300.24999999999989
 31
0.0
  0
LINE
  5
621
  8
DATA
 62
     7
 10
-1702.138000000002
 20
-277.75000000000182
 30
0.0
 11
-1702.1380000000031
 21
-157.75
 31
0.0
  0
LINE
  5
622
  8
DATA
 62
     7
 10
-1693.7879999999991
 20
-158.35000000000119
 30
0.0
 11
-1693.7879999999991
 21
-141.35000000000221
 31
0.0
  0
LINE
  5
623
  8
DATA
 62
     7
 10
-1693.7879999999991
 20
-266.85000000000298
 30
0.0
 11
-1693.7879999999991
 21
-249.85000000000309
 31
0.0
  0
LINE
  5
624
  8
DATA
 62
     7
 10
-1696.887999999999
 20
-300.24999999999989
 30
0.0
 11
-1696.887999999999
 21
-137.0
 31
0.0
  0
LINE
  5
625
  8
DATA
 62
     7
 10
-1702.138000000002
 20
-277.74999999999989
 30
0.0
 11
-1696.887999999999
 21
-277.74999999999989
 31
0.0
  0
LINE
  5
626
  8
DATA
 62
     7
 10
-1702.138000000002
 20
-157.75
 30
0.0
 11
-1696.887999999999
 21
-157.75
 31
0.0
  0
LINE
  5
627
  8
DATA
 62
     7
 10
-1701.0380000000021
 20
-116.25
 30
0.0
 11
-1701.0380000000021
 21
-112.7500000000027
 31
0.0
  0
LINE
  5
628
  8
DATA
 62
     7
 10
-1701.0380000000009
 20
-112.7500000000018
 30
0.0
 11
-1697.008647771175
 21
-112.7500000000018
 31
0.0
  0
LINE
  5
629
  8
DATA
 62
     7
 10
-1701.0380000000021
 20
-116.25
 30
0.0
 11
-1696.929585901159
 21
-116.25
 31
0.0
  0
LINE
  5
62A
  8
DATA
 62
     7
 10
-1693.7879999999991
 20
-47.85000000000128
 30
0.0
 11
-1693.7879999999991
 21
-30.850000000003998
 31
0.0
  0
LINE
  5
62B
  8
DATA
 62
     7
 10
-1704.788000000003
 20
-46.25
 30
0.0
 11
-1704.788000000003
 21
-42.750000000000902
 31
0.0
  0
LINE
  5
62C
  8
DATA
 62
     7
 10
-1702.138000000002
 20
-81.25
 30
0.0
 11
-1702.138000000002
 21
-77.750000000000895
 31
0.0
  0
LINE
  5
62D
  8
DATA
 62
     7
 10
-1704.788000000003
 20
-42.750000000000902
 30
0.0
 11
-1702.9880000000039
 21
-42.750000000000902
 31
0.0
  0
LINE
  5
62E
  8
DATA
 62
     7
 10
-1704.788000000003
 20
-46.25
 30
0.0
 11
-1702.4881026463711
 21
-46.25
 31
0.0
  0
LINE
  5
62F
  8
DATA
 62
     7
 10
-1702.138000000002
 20
-77.750000000000895
 30
0.0
 11
-1698.946417540448
 21
-77.750000000000895
 31
0.0
  0
LINE
  5
630
  8
DATA
 62
     7
 10
-1702.138000000002
 20
-81.25
 30
0.0
 11
-1698.6584897546199
 21
-81.25
 31
0.0
  0
LINE
  5
631
  8
DATA
 62
     7
 10
-1740.2880000000009
 20
-9.1499999999996344
 30
0.0
 11
-1740.2879999999991
 21
-4.3499999999994543
 31
0.0
  0
ARC
  5
632
  8
DATA
 62
     7
 10
-1099.552971949523
 20
-227.69147089763459
 30
0.0
 40
617.95080491034173
 50
204.43872668480759
 51
253.22638118895921
  0
LINE
  5
633
  8
DATA
 62
     7
 10
-1675.387999999999
 20
-304.35000000000122
 30
0.0
 11
-1675.387999999999
 21
-819.34999999999934
 31
0.0
  0
LINE
  5
634
  8
DATA
 62
     7
 10
-1679.1379999999999
 20
-819.34999999999934
 30
0.0
 11
-1679.1379999999999
 21
-304.35000000000122
 31
0.0
  0
LINE
  5
635
  8
DATA
 62
     7
 10
-1671.6379999999999
 20
-819.34999999999934
 30
0.0
 11
-1671.6379999999999
 21
-304.35000000000122
 31
0.0
  0
LINE
  5
636
  8
DATA
 62
     7
 10
-1625.3879999999999
 20
-304.35000000000122
 30
0.0
 11
-1625.3879999999999
 21
-308.35000000000031
 31
0.0
  0
LINE
  5
637
  8
DATA
 62
     7
 10
-1679.1379999999999
 20
-696.513627982054
 30
0.0
 11
-1671.6379999999999
 21
-696.51362798205582
 31
0.0
  0
LINE
  5
638
  8
DATA
 62
     7
 10
-1671.6379999999999
 20
-308.35000000000031
 30
0.0
 11
-1625.3879999999999
 21
-308.35000000000031
 31
0.0
  0
LINE
  5
639
  8
DATA
 62
     7
 10
-1671.6379999999999
 20
-330.14646348067242
 30
0.0
 11
-1662.137999999999
 21
-330.14646348067339
 31
0.0
  0
LINE
  5
63A
  8
DATA
 62
     7
 10
-1671.6379999999999
 20
-347.14646348067163
 30
0.0
 11
-1662.137999999999
 21
-347.14646348067163
 31
0.0
  0
LINE
  5
63B
  8
DATA
 62
     7
 10
-1662.137999999999
 20
-347.14646348067163
 30
0.0
 11
-1662.137999999999
 21
-330.14646348067339
 31
0.0
  0
LINE
  5
63C
  8
DATA
 62
     7
 10
-1671.6379999999999
 20
-449.59332708189282
 30
0.0
 11
-1662.137999999999
 21
-449.59332708189368
 31
0.0
  0
LINE
  5
63D
  8
DATA
 62
     7
 10
-1671.6379999999999
 20
-466.59332708189191
 30
0.0
 11
-1662.137999999999
 21
-466.59332708189191
 31
0.0
  0
LINE
  5
63E
  8
DATA
 62
     7
 10
-1662.137999999999
 20
-466.59332708189191
 30
0.0
 11
-1662.137999999999
 21
-449.59332708189368
 31
0.0
  0
LINE
  5
63F
  8
DATA
 62
     7
 10
-1671.6379999999999
 20
-577.01100265258322
 30
0.0
 11
-1662.137999999999
 21
-577.01100265258401
 31
0.0
  0
LINE
  5
640
  8
DATA
 62
     7
 10
-1671.6379999999999
 20
-594.01100265258208
 30
0.0
 11
-1662.137999999999
 21
-594.01100265258208
 31
0.0
  0
LINE
  5
641
  8
DATA
 62
     7
 10
-1662.137999999999
 20
-594.01100265258208
 30
0.0
 11
-1662.137999999999
 21
-577.01100265258401
 31
0.0
  0
LINE
  5
642
  8
DATA
 62
     7
 10
-1671.6379999999999
 20
-668.31511732692115
 30
0.0
 11
-1662.1379999999999
 21
-668.31511732692286
 31
0.0
  0
LINE
  5
643
  8
DATA
 62
     7
 10
-1671.6379999999999
 20
-685.31511732692115
 30
0.0
 11
-1662.1379999999999
 21
-685.31511732692115
 31
0.0
  0
LINE
  5
644
  8
DATA
 62
     7
 10
-1662.1379999999999
 20
-685.31511732692115
 30
0.0
 11
-1662.1379999999999
 21
-668.31511732692286
 31
0.0
  0
LINE
  5
645
  8
DATA
 62
     7
 10
-1679.1379999999999
 20
-346.64646348067163
 30
0.0
 11
-1680.338
 21
-346.64646348067163
 31
0.0
  0
ARC
  5
646
  8
DATA
 62
     7
 10
-1675.088000000015
 20
-338.64646348072711
 30
0.0
 40
8.7499999999467022
 50
126.8698976455474
 51
233.13010235401421
  0
LINE
  5
647
  8
DATA
 62
     7
 10
-1680.338
 20
-330.64646348067163
 30
0.0
 11
-1679.1379999999999
 21
-330.64646348067163
 31
0.0
  0
LINE
  5
648
  8
DATA
 62
     7
 10
-1680.338
 20
-346.64646348067163
 30
0.0
 11
-1680.338
 21
-330.64646348067163
 31
0.0
  0
LINE
  5
649
  8
DATA
 62
     7
 10
-1679.1379999999999
 20
-466.09332708189191
 30
0.0
 11
-1680.3379999999991
 21
-466.09332708189191
 31
0.0
  0
ARC
  5
64A
  8
DATA
 62
     7
 10
-1675.088000000015
 20
-458.09332708194819
 30
0.0
 40
8.7499999999467022
 50
126.8698976455474
 51
233.13010235401899
  0
LINE
  5
64B
  8
DATA
 62
     7
 10
-1680.3379999999991
 20
-450.09332708189282
 30
0.0
 11
-1679.1379999999999
 21
-450.09332708189282
 31
0.0
  0
LINE
  5
64C
  8
DATA
 62
     7
 10
-1680.3379999999991
 20
-466.09332708189191
 30
0.0
 11
-1680.3379999999991
 21
-450.09332708189282
 31
0.0
  0
LINE
  5
64D
  8
DATA
 62
     7
 10
-1679.1379999999999
 20
-593.51100265258196
 30
0.0
 11
-1680.338
 21
-593.51100265258196
 31
0.0
  0
ARC
  5
64E
  8
DATA
 62
     7
 10
-1675.088000000015
 20
-585.51100265263756
 30
0.0
 40
8.7499999999467022
 50
126.8698976455474
 51
233.13010235401421
  0
LINE
  5
64F
  8
DATA
 62
     7
 10
-1680.338
 20
-577.51100265258208
 30
0.0
 11
-1679.1379999999999
 21
-577.51100265258208
 31
0.0
  0
LINE
  5
650
  8
DATA
 62
     7
 10
-1680.338
 20
-593.51100265258196
 30
0.0
 11
-1680.338
 21
-577.51100265258208
 31
0.0
  0
LINE
  5
651
  8
DATA
 62
     7
 10
-1679.1379999999999
 20
-684.81511732692115
 30
0.0
 11
-1680.338
 21
-684.81511732692115
 31
0.0
  0
ARC
  5
652
  8
DATA
 62
     7
 10
-1675.088000000015
 20
-676.81511732697663
 30
0.0
 40
8.7499999999467022
 50
126.8698976455474
 51
233.13010235401421
  0
LINE
  5
653
  8
DATA
 62
     7
 10
-1680.338
 20
-668.81511732692115
 30
0.0
 11
-1679.1379999999999
 21
-668.81511732692115
 31
0.0
  0
LINE
  5
654
  8
DATA
 62
     7
 10
-1680.338
 20
-684.81511732692115
 30
0.0
 11
-1680.338
 21
-668.81511732692115
 31
0.0
  0
LINE
  5
655
  8
DATA
 62
     7
 10
-1662.137999999999
 20
-308.35000000000031
 30
0.0
 11
-1662.137999999999
 21
-483.349999999999
 31
0.0
  0
LINE
  5
656
  8
DATA
 62
     7
 10
-1659.1379999999999
 20
-308.35000000000031
 30
0.0
 11
-1659.137999999999
 21
-489.85133371246002
 31
0.0
  0
LINE
  5
657
  8
DATA
 62
     7
 10
-1650.1379999999999
 20
-331.8499999999994
 30
0.0
 11
-1625.3879999999999
 21
-308.35000000000031
 31
0.0
  0
LINE
  5
658
  8
DATA
 62
     7
 10
-1650.1379999999999
 20
-331.84999999999849
 30
0.0
 11
-1650.137999999999
 21
-508.2611131898762
 31
0.0
  0
ARC
  5
659
  8
DATA
 62
     7
 10
-1064.778902552531
 20
-127.80561532554189
 30
0.0
 40
589.18084270019676
 50
168.38169758356639
 51
180.89415809701401
  0
LINE
  5
65A
  8
DATA
 62
     7
 10
-1675.387999999999
 20
-304.35000000000122
 30
0.0
 11
-1675.387999999999
 21
-4.3499999999994543
 31
0.0
  0
LINE
  5
65B
  8
DATA
 62
     7
 10
-1666.488000000008
 20
-4.3499999999985439
 30
0.0
 11
-1666.4880000000001
 21
-304.35000000000122
 31
0.0
  0
LINE
  5
65C
  8
DATA
 62
     7
 10
-1684.2879999999991
 20
-304.35000000000122
 30
0.0
 11
-1684.2879999999991
 21
-4.3499999999985439
 31
0.0
  0
LINE
  5
65D
  8
DATA
 62
     7
 10
-1610.488000000001
 20
-9.1499999999987267
 30
0.0
 11
-1610.4880000000001
 21
-4.3499999999985439
 31
0.0
  0
LINE
  5
65E
  8
DATA
 62
     7
 10
-1684.2879999999991
 20
-253.35000000000119
 30
0.0
 11
-1666.4880000000021
 21
-253.35000000000119
 31
0.0
  0
LINE
  5
65F
  8
DATA
 62
     7
 10
-1653.8879999999999
 20
-300.24999999999989
 30
0.0
 11
-1653.8879999999999
 21
-137.0
 31
0.0
  0
LINE
  5
660
  8
DATA
 62
     7
 10
-1648.637999999997
 20
-277.75000000000182
 30
0.0
 11
-1648.637999999997
 21
-157.75
 31
0.0
  0
LINE
  5
661
  8
DATA
 62
     7
 10
-1648.637999999997
 20
-277.74999999999989
 30
0.0
 11
-1653.8879999999999
 21
-277.74999999999989
 31
0.0
  0
LINE
  5
662
  8
DATA
 62
     7
 10
-1648.637999999997
 20
-157.75
 30
0.0
 11
-1653.8879999999999
 21
-157.75
 31
0.0
  0
LINE
  5
663
  8
DATA
 62
     7
 10
-1649.7379999999971
 20
-116.25
 30
0.0
 11
-1649.7379999999971
 21
-112.7500000000027
 31
0.0
  0
LINE
  5
664
  8
DATA
 62
     7
 10
-1649.737999999998
 20
-112.7500000000018
 30
0.0
 11
-1653.7673522288239
 21
-112.7500000000018
 31
0.0
  0
LINE
  5
665
  8
DATA
 62
     7
 10
-1649.7379999999971
 20
-116.25
 30
0.0
 11
-1653.8464140988399
 21
-116.25
 31
0.0
  0
LINE
  5
666
  8
DATA
 62
     7
 10
-1666.487999999996
 20
-141.85000000000119
 30
0.0
 11
-1665.2879999999959
 21
-141.85000000000119
 31
0.0
  0
ARC
  5
667
  8
DATA
 62
     7
 10
-1670.537999999982
 20
-149.8499999999467
 30
0.0
 40
8.7499999999467022
 50
306.86989764554738
 51
53.130102354014262
  0
LINE
  5
668
  8
DATA
 62
     7
 10
-1665.2879999999959
 20
-157.8500000000021
 30
0.0
 11
-1666.487999999996
 21
-157.8500000000021
 31
0.0
  0
LINE
  5
669
  8
DATA
 62
     7
 10
-1665.2879999999959
 20
-141.85000000000119
 30
0.0
 11
-1665.2879999999959
 21
-157.8500000000021
 31
0.0
  0
LINE
  5
66A
  8
DATA
 62
     7
 10
-1666.487999999996
 20
-250.35000000000301
 30
0.0
 11
-1665.2879999999959
 21
-250.35000000000301
 31
0.0
  0
ARC
  5
66B
  8
DATA
 62
     7
 10
-1670.537999999982
 20
-258.34999999994659
 30
0.0
 40
8.7499999999467022
 50
306.86989764554738
 51
53.130102354014262
  0
LINE
  5
66C
  8
DATA
 62
     7
 10
-1665.2879999999959
 20
-266.35000000000309
 30
0.0
 11
-1666.487999999996
 21
-266.35000000000309
 31
0.0
  0
LINE
  5
66D
  8
DATA
 62
     7
 10
-1665.2879999999959
 20
-250.35000000000301
 30
0.0
 11
-1665.2879999999959
 21
-266.35000000000309
 31
0.0
  0
LINE
  5
66E
  8
DATA
 62
     7
 10
-1620.3879999999999
 20
-304.35000000000122
 30
0.0
 11
-1620.3879999999999
 21
-300.24999999999989
 31
0.0
  0
LINE
  5
66F
  8
DATA
 62
     7
 10
-1666.488000000008
 20
-9.1499999999987267
 30
0.0
 11
-1610.488000000001
 21
-9.1499999999987267
 31
0.0
  0
LINE
  5
670
  8
DATA
 62
     7
 10
-1684.2879999999991
 20
-37.234273434310133
 30
0.0
 11
-1666.4880000000071
 21
-37.234273434310133
 31
0.0
  0
LINE
  5
671
  8
DATA
 62
     7
 10
-1645.987999999996
 20
-46.25
 30
0.0
 11
-1645.987999999996
 21
-42.750000000000902
 31
0.0
  0
LINE
  5
672
  8
DATA
 62
     7
 10
-1648.637999999997
 20
-81.25
 30
0.0
 11
-1648.637999999997
 21
-77.750000000000895
 31
0.0
  0
LINE
  5
673
  8
DATA
 62
     7
 10
-1645.987999999996
 20
-42.750000000000902
 30
0.0
 11
-1647.7879999999959
 21
-42.750000000000902
 31
0.0
  0
LINE
  5
674
  8
DATA
 62
     7
 10
-1645.987999999996
 20
-46.25
 30
0.0
 11
-1648.2878973536281
 21
-46.25
 31
0.0
  0
LINE
  5
675
  8
DATA
 62
     7
 10
-1648.6379999999981
 20
-77.750000000000895
 30
0.0
 11
-1651.8295824595509
 21
-77.750000000000895
 31
0.0
  0
LINE
  5
676
  8
DATA
 62
     7
 10
-1648.637999999997
 20
-81.25
 30
0.0
 11
-1652.117510245379
 21
-81.25
 31
0.0
  0
LINE
  5
677
  8
DATA
 62
     7
 10
-1666.487999999996
 20
-31.350000000003082
 30
0.0
 11
-1665.2879999999959
 21
-31.350000000003082
 31
0.0
  0
ARC
  5
678
  8
DATA
 62
     7
 10
-1670.537999999982
 20
-39.349999999946697
 30
0.0
 40
8.7499999999467022
 50
306.86989764554738
 51
53.130102354014262
  0
LINE
  5
679
  8
DATA
 62
     7
 10
-1665.2879999999959
 20
-47.350000000003092
 30
0.0
 11
-1666.487999999996
 21
-47.350000000003092
 31
0.0
  0
LINE
  5
67A
  8
DATA
 62
     7
 10
-1665.2879999999959
 20
-31.350000000003082
 30
0.0
 11
-1665.2879999999959
 21
-47.350000000003092
 31
0.0
  0
LINE
  5
67B
  8
DATA
 62
     7
 10
-1591.887999999999
 20
-173.24999999999989
 30
0.0
 11
-1648.637999999997
 21
-173.24999999999989
 31
0.0
  0
LINE
  5
67C
  8
DATA
 62
     7
 10
-1591.887999999999
 20
-377.24999999999972
 30
0.0
 11
-1591.887999999999
 21
-173.24999999999989
 31
0.0
  0
LINE
  5
67D
  8
DATA
 62
     7
 10
-1650.1379999999999
 20
-377.24999999999972
 30
0.0
 11
-1591.887999999999
 21
-377.24999999999972
 31
0.0
  0
LINE
  5
67E
  8
DATA
 62
     7
 10
-1758.887999999999
 20
-173.24999999999989
 30
0.0
 11
-1702.138000000002
 21
-173.24999999999989
 31
0.0
  0
LINE
  5
67F
  8
DATA
 62
     7
 10
-1758.887999999999
 20
-377.24999999999972
 30
0.0
 11
-1758.887999999999
 21
-173.24999999999989
 31
0.0
  0
LINE
  5
680
  8
DATA
 62
     7
 10
-1700.6379999999999
 20
-377.24999999999972
 30
0.0
 11
-1758.887999999999
 21
-377.24999999999972
 31
0.0
  0
ARC
  5
681
  8
DATA
 62
     7
 10
-1675.387999999999
 20
-275.24999999999989
 30
0.0
 40
75.000000000000369
 50
45.482688100373203
 51
69.104374845644614
  0
ARC
  5
682
  8
DATA
 62
     7
 10
-1675.387999999999
 20
-275.24999999999989
 30
0.0
 40
75.000000000000341
 50
110.8956251543561
 51
134.51731189962669
  0
ARC
  5
683
  8
DATA
 62
     7
 10
-1675.387999999999
 20
-275.24999999999989
 30
0.0
 40
74.99999999999973
 50
225.48268810037271
 51
250.32608100566989
  0
ARC
  5
684
  8
DATA
 62
     7
 10
-1675.387999999999
 20
-275.24999999999989
 30
0.0
 40
74.999999999999815
 50
289.67391899432999
 51
314.51731189962737
  0
ARC
  5
685
  8
DATA
 62
     7
 10
-1675.387999999999
 20
-275.24999999999989
 30
0.0
 40
64.999999999999616
 50
45.674660220445453
 51
65.698484749136384
  0
ARC
  5
686
  8
DATA
 62
     7
 10
-1675.387999999999
 20
-275.24999999999989
 30
0.0
 40
65.0
 50
114.3015152508644
 51
134.3253397800303
  0
ARC
  5
687
  8
DATA
 62
     7
 10
-1675.387999999999
 20
-275.24999999999989
 30
0.0
 40
65.00000000000027
 50
225.67466022044491
 51
247.14119435027089
  0
ARC
  5
688
  8
DATA
 62
     7
 10
-1675.387999999999
 20
-275.24999999999989
 30
0.0
 40
64.999999999999915
 50
292.85880564972922
 51
314.3253397795545
  0
ARC
  5
689
  8
DATA
 62
     7
 10
-1724.3879999999999
 20
-225.2620539011395
 30
0.0
 40
4.9999999999998996
 50
135.76522700395421
 51
315.76522701010828
  0
ARC
  5
68A
  8
DATA
 62
     7
 10
-1626.3879999999999
 20
-225.2620539011395
 30
0.0
 40
5.0000000000006493
 50
224.23477298988439
 51
44.23477299605301
  0
ARC
  5
68B
  8
DATA
 62
     7
 10
-1724.3879999999999
 20
-325.23794609885948
 30
0.0
 40
4.9999999999993641
 50
44.234772989884213
 51
224.23477299605321
  0
ARC
  5
68C
  8
DATA
 62
     7
 10
-1626.3879999999999
 20
-325.23794609885948
 30
0.0
 40
4.9999999999998828
 50
315.76522700393951
 51
135.765227010123
  0
LINE
  5
68D
  8
DATA
 62
     7
 10
-1748.887999999999
 20
-246.24999999999989
 30
0.0
 11
-1748.887999999999
 21
-202.24999999999989
 31
0.0
  0
LINE
  5
68E
  8
DATA
 62
     7
 10
-1741.887999999999
 20
-202.24999999999989
 30
0.0
 11
-1741.887999999999
 21
-246.24999999999989
 31
0.0
  0
LINE
  5
68F
  8
DATA
 62
     7
 10
-1748.887999999999
 20
-348.24999999999989
 30
0.0
 11
-1748.887999999999
 21
-304.24999999999989
 31
0.0
  0
LINE
  5
690
  8
DATA
 62
     7
 10
-1741.887999999999
 20
-304.24999999999989
 30
0.0
 11
-1741.887999999999
 21
-348.24999999999989
 31
0.0
  0
ARC
  5
691
  8
DATA
 62
     7
 10
-1745.387999999999
 20
-202.24999999999989
 30
0.0
 40
3.5
 50
0.0
 51
180.0
  0
ARC
  5
692
  8
DATA
 62
     7
 10
-1745.387999999999
 20
-246.24999999999989
 30
0.0
 40
3.5
 50
180.0
 51
0.0
  0
ARC
  5
693
  8
DATA
 62
     7
 10
-1745.387999999999
 20
-304.24999999999989
 30
0.0
 40
3.5
 50
0.0
 51
180.0
  0
ARC
  5
694
  8
DATA
 62
     7
 10
-1745.387999999999
 20
-348.24999999999989
 30
0.0
 40
3.5
 50
180.0
 51
0.0
  0
LINE
  5
695
  8
DATA
 62
     7
 10
-1601.887999999999
 20
-246.24999999999989
 30
0.0
 11
-1601.887999999999
 21
-202.24999999999989
 31
0.0
  0
LINE
  5
696
  8
DATA
 62
     7
 10
-1608.8879999999999
 20
-202.24999999999989
 30
0.0
 11
-1608.8879999999999
 21
-246.24999999999989
 31
0.0
  0
LINE
  5
697
  8
DATA
 62
     7
 10
-1601.887999999999
 20
-348.24999999999989
 30
0.0
 11
-1601.887999999999
 21
-304.24999999999989
 31
0.0
  0
LINE
  5
698
  8
DATA
 62
     7
 10
-1608.8879999999999
 20
-304.24999999999989
 30
0.0
 11
-1608.8879999999999
 21
-348.24999999999989
 31
0.0
  0
ARC
  5
699
  8
DATA
 62
     7
 10
-1605.3879999999999
 20
-202.24999999999989
 30
0.0
 40
3.5
 50
0.0
 51
180.0
  0
ARC
  5
69A
  8
DATA
 62
     7
 10
-1605.3879999999999
 20
-246.24999999999989
 30
0.0
 40
3.5
 50
180.0
 51
0.0
  0
ARC
  5
69B
  8
DATA
 62
     7
 10
-1605.3879999999999
 20
-304.24999999999989
 30
0.0
 40
3.5
 50
0.0
 51
180.0
  0
ARC
  5
69C
  8
DATA
 62
     7
 10
-1605.3879999999999
 20
-348.24999999999989
 30
0.0
 40
3.5
 50
180.0
 51
0.0
  0
LINE
  5
69D
  8
DATA
 62
     7
 10
-1755.887999999999
 20
-377.24999999999972
 30
0.0
 11
-1755.887999999999
 21
-173.24999999999989
 31
0.0
  0
LINE
  5
69E
  8
DATA
 62
     7
 10
-1594.8879999999999
 20
-173.24999999999989
 30
0.0
 11
-1594.8879999999999
 21
-377.24999999999972
 31
0.0
  0
LINE
  5
69F
  8
DATA
 62
     7
 10
-1749.8879999999999
 20
-300.24999999999989
 30
0.0
 11
-1600.887999999999
 21
-300.24999999999989
 31
0.0
  0
LINE
  5
6A0
  8
DATA
 62
     7
 10
-1749.8879999999999
 20
-297.25
 30
0.0
 11
-1684.2879999999991
 21
-297.25
 31
0.0
  0
LINE
  5
6A1
  8
DATA
 62
     7
 10
-1666.488000000008
 20
-297.25
 30
0.0
 11
-1600.887999999999
 21
-297.25
 31
0.0
  0
LINE
  5
6A2
  8
DATA
 62
     7
 10
-1752.8879999999999
 20
-294.24999999999989
 30
0.0
 11
-1752.8879999999999
 21
-249.25
 31
0.0
  0
LINE
  5
6A3
  8
DATA
 62
     7
 10
-1597.8879999999999
 20
-294.24999999999989
 30
0.0
 11
-1597.8879999999999
 21
-249.25
 31
0.0
  0
LINE
  5
6A4
  8
DATA
 62
     7
 10
-1752.8879999999999
 20
-249.25
 30
0.0
 11
-1755.887999999999
 21
-249.25
 31
0.0
  0
LINE
  5
6A5
  8
DATA
 62
     7
 10
-1597.8879999999999
 20
-249.25
 30
0.0
 11
-1594.8879999999999
 21
-249.25
 31
0.0
  0
LINE
  5
6A6
  8
DATA
 62
     7
 10
-1760.3879999999999
 20
-265.87779557933391
 30
0.0
 11
-1758.887999999999
 21
-265.87779557933391
 31
0.0
  0
LINE
  5
6A7
  8
DATA
 62
     7
 10
-1760.3879999999999
 20
-283.37779557933391
 30
0.0
 11
-1758.887999999999
 21
-283.37779557933391
 31
0.0
  0
LINE
  5
6A8
  8
DATA
 62
     7
 10
-1760.3879999999999
 20
-283.37779557933391
 30
0.0
 11
-1760.3879999999999
 21
-265.87779557933391
 31
0.0
  0
LINE
  5
6A9
  8
DATA
 62
     7
 10
-1765.3879999999999
 20
-267.37779557933379
 30
0.0
 11
-1760.3879999999999
 21
-267.37779557933379
 31
0.0
  0
LINE
  5
6AA
  8
DATA
 62
     7
 10
-1765.3879999999999
 20
-281.87779557933391
 30
0.0
 11
-1760.3879999999999
 21
-281.87779557933391
 31
0.0
  0
LINE
  5
6AB
  8
DATA
 62
     7
 10
-1765.3879999999999
 20
-281.87779557933391
 30
0.0
 11
-1765.3879999999999
 21
-267.37779557933379
 31
0.0
  0
LINE
  5
6AC
  8
DATA
 62
     7
 10
-1765.3879999999999
 20
-271.00279557933391
 30
0.0
 11
-1760.3879999999999
 21
-271.00279557933391
 31
0.0
  0
LINE
  5
6AD
  8
DATA
 62
     7
 10
-1765.3879999999999
 20
-278.25279557933391
 30
0.0
 11
-1760.3879999999999
 21
-278.25279557933391
 31
0.0
  0
LINE
  5
6AE
  8
DATA
 62
     7
 10
-1590.387999999999
 20
-265.87779557933391
 30
0.0
 11
-1591.887999999999
 21
-265.87779557933391
 31
0.0
  0
LINE
  5
6AF
  8
DATA
 62
     7
 10
-1590.387999999999
 20
-283.37779557933391
 30
0.0
 11
-1591.887999999999
 21
-283.37779557933391
 31
0.0
  0
LINE
  5
6B0
  8
DATA
 62
     7
 10
-1590.387999999999
 20
-283.37779557933391
 30
0.0
 11
-1590.387999999999
 21
-265.87779557933391
 31
0.0
  0
LINE
  5
6B1
  8
DATA
 62
     7
 10
-1585.3879999999999
 20
-267.37779557933379
 30
0.0
 11
-1590.387999999999
 21
-267.37779557933379
 31
0.0
  0
LINE
  5
6B2
  8
DATA
 62
     7
 10
-1585.3879999999999
 20
-281.87779557933391
 30
0.0
 11
-1590.387999999999
 21
-281.87779557933391
 31
0.0
  0
LINE
  5
6B3
  8
DATA
 62
     7
 10
-1585.3879999999999
 20
-281.87779557933391
 30
0.0
 11
-1585.3879999999999
 21
-267.37779557933379
 31
0.0
  0
LINE
  5
6B4
  8
DATA
 62
     7
 10
-1585.3879999999999
 20
-271.00279557933391
 30
0.0
 11
-1590.387999999999
 21
-271.00279557933391
 31
0.0
  0
LINE
  5
6B5
  8
DATA
 62
     7
 10
-1585.3879999999999
 20
-278.25279557933391
 30
0.0
 11
-1590.387999999999
 21
-278.25279557933391
 31
0.0
  0
LINE
  5
6B6
  8
DATA
 62
     7
 10
-1606.8879999999999
 20
-281.87779557933391
 30
0.0
 11
-1606.8879999999999
 21
-267.37779557933379
 31
0.0
  0
LINE
  5
6B7
  8
DATA
 62
     7
 10
-1599.3879999999999
 20
-265.87779557933391
 30
0.0
 11
-1597.8879999999999
 21
-265.87779557933391
 31
0.0
  0
LINE
  5
6B8
  8
DATA
 62
     7
 10
-1597.8879999999999
 20
-283.37779557933391
 30
0.0
 11
-1599.3879999999999
 21
-283.37779557933391
 31
0.0
  0
LINE
  5
6B9
  8
DATA
 62
     7
 10
-1599.3879999999999
 20
-283.37779557933391
 30
0.0
 11
-1599.3879999999999
 21
-265.87779557933391
 31
0.0
  0
LINE
  5
6BA
  8
DATA
 62
     7
 10
-1601.3879999999999
 20
-281.87779557933391
 30
0.0
 11
-1601.3879999999999
 21
-267.37779557933379
 31
0.0
  0
LINE
  5
6BB
  8
DATA
 62
     7
 10
-1599.3879999999999
 20
-267.37779557933379
 30
0.0
 11
-1606.8879999999999
 21
-267.37779557933379
 31
0.0
  0
LINE
  5
6BC
  8
DATA
 62
     7
 10
-1599.3879999999999
 20
-281.87779557933391
 30
0.0
 11
-1606.8879999999999
 21
-281.87779557933391
 31
0.0
  0
LINE
  5
6BD
  8
DATA
 62
     7
 10
-1601.3879999999999
 20
-271.00279557933391
 30
0.0
 11
-1606.8879999999999
 21
-271.00279557933391
 31
0.0
  0
LINE
  5
6BE
  8
DATA
 62
     7
 10
-1601.3879999999999
 20
-278.25279557933391
 30
0.0
 11
-1606.8879999999999
 21
-278.25279557933391
 31
0.0
  0
LINE
  5
6BF
  8
DATA
 62
     7
 10
-1743.8879999999999
 20
-281.87779557933391
 30
0.0
 11
-1743.8879999999999
 21
-267.37779557933379
 31
0.0
  0
LINE
  5
6C0
  8
DATA
 62
     7
 10
-1735.3879999999999
 20
-278.37779557933391
 30
0.0
 11
-1735.3879999999999
 21
-270.87779557933391
 31
0.0
  0
LINE
  5
6C1
  8
DATA
 62
     7
 10
-1751.3879999999999
 20
-265.87779557933391
 30
0.0
 11
-1752.8879999999999
 21
-265.87779557933391
 31
0.0
  0
LINE
  5
6C2
  8
DATA
 62
     7
 10
-1752.8879999999999
 20
-283.37779557933391
 30
0.0
 11
-1751.3879999999999
 21
-283.37779557933391
 31
0.0
  0
LINE
  5
6C3
  8
DATA
 62
     7
 10
-1751.3879999999999
 20
-283.37779557933391
 30
0.0
 11
-1751.3879999999999
 21
-265.87779557933391
 31
0.0
  0
LINE
  5
6C4
  8
DATA
 62
     7
 10
-1749.3879999999999
 20
-281.87779557933391
 30
0.0
 11
-1749.3879999999999
 21
-267.37779557933379
 31
0.0
  0
LINE
  5
6C5
  8
DATA
 62
     7
 10
-1751.3879999999999
 20
-267.37779557933379
 30
0.0
 11
-1743.8879999999999
 21
-267.37779557933379
 31
0.0
  0
LINE
  5
6C6
  8
DATA
 62
     7
 10
-1751.3879999999999
 20
-281.87779557933391
 30
0.0
 11
-1743.8879999999999
 21
-281.87779557933391
 31
0.0
  0
LINE
  5
6C7
  8
DATA
 62
     7
 10
-1749.3879999999999
 20
-271.00279557933391
 30
0.0
 11
-1743.8879999999999
 21
-271.00279557933391
 31
0.0
  0
LINE
  5
6C8
  8
DATA
 62
     7
 10
-1749.3879999999999
 20
-278.25279557933391
 30
0.0
 11
-1743.8879999999999
 21
-278.25279557933391
 31
0.0
  0
LINE
  5
6C9
  8
DATA
 62
     7
 10
-1743.8879999999999
 20
-270.87779557933391
 30
0.0
 11
-1735.3879999999999
 21
-270.87779557933391
 31
0.0
  0
LINE
  5
6CA
  8
DATA
 62
     7
 10
-1743.8879999999999
 20
-278.37779557933391
 30
0.0
 11
-1735.3879999999999
 21
-278.37779557933391
 31
0.0
  0
LINE
  5
6CB
  8
DATA
 62
     7
 10
-1735.3879999999999
 20
-278.37779557933391
 30
0.0
 11
-1737.3976189432331
 21
-270.87779557933391
 31
0.0
  0
LINE
  5
6CC
  8
DATA
 62
     7
 10
-1737.3879999999999
 20
-278.37779557933391
 30
0.0
 11
-1739.3976189432331
 21
-270.87779557933391
 31
0.0
  0
LINE
  5
6CD
  8
DATA
 62
     7
 10
-1739.387999999999
 20
-278.37779557933391
 30
0.0
 11
-1741.3976189432331
 21
-270.87779557933391
 31
0.0
  0
LINE
  5
6CE
  8
DATA
 62
     7
 10
-1741.387999999999
 20
-278.37779557933391
 30
0.0
 11
-1743.3976189432331
 21
-270.87779557933391
 31
0.0
  0
LINE
  5
6CF
  8
DATA
 62
     7
 10
-1743.387999999999
 20
-278.37779557933391
 30
0.0
 11
-1743.8879999999999
 21
-276.5117701755488
 31
0.0
  0
LINE
  5
6D0
  8
DATA
 62
     7
 10
-1615.3879999999999
 20
-270.87779557933391
 30
0.0
 11
-1615.3879999999999
 21
-278.37779557933391
 31
0.0
  0
LINE
  5
6D1
  8
DATA
 62
     7
 10
-1606.8879999999999
 20
-278.37779557933391
 30
0.0
 11
-1615.3879999999999
 21
-278.37779557933391
 31
0.0
  0
LINE
  5
6D2
  8
DATA
 62
     7
 10
-1606.8879999999999
 20
-270.87779557933391
 30
0.0
 11
-1615.3879999999999
 21
-270.87779557933391
 31
0.0
  0
LINE
  5
6D3
  8
DATA
 62
     7
 10
-1615.3879999999999
 20
-270.87779557933391
 30
0.0
 11
-1613.378381056767
 21
-278.37779557933391
 31
0.0
  0
LINE
  5
6D4
  8
DATA
 62
     7
 10
-1613.387999999999
 20
-270.87779557933391
 30
0.0
 11
-1611.378381056767
 21
-278.37779557933391
 31
0.0
  0
LINE
  5
6D5
  8
DATA
 62
     7
 10
-1611.387999999999
 20
-270.87779557933391
 30
0.0
 11
-1609.378381056767
 21
-278.37779557933391
 31
0.0
  0
LINE
  5
6D6
  8
DATA
 62
     7
 10
-1609.3879999999999
 20
-270.87779557933391
 30
0.0
 11
-1607.378381056767
 21
-278.37779557933391
 31
0.0
  0
LINE
  5
6D7
  8
DATA
 62
     7
 10
-1607.3879999999999
 20
-270.87779557933391
 30
0.0
 11
-1606.8879999999999
 21
-272.74382098311878
 31
0.0
  0
ARC
  5
6D8
  8
DATA
 62
     7
 10
-1749.8879999999999
 20
-294.24999999999989
 30
0.0
 40
3.0
 50
180.0
 51
270.0
  0
ARC
  5
6D9
  8
DATA
 62
     7
 10
-1600.887999999999
 20
-294.24999999999989
 30
0.0
 40
3.0
 50
270.0
 51
0.0
  0
ARC
  5
6DA
  8
DATA
 62
     7
 10
-1749.8879999999999
 20
-294.24999999999989
 30
0.0
 40
6.0
 50
180.0
 51
270.0
  0
ARC
  5
6DB
  8
DATA
 62
     7
 10
-1600.887999999999
 20
-294.24999999999989
 30
0.0
 40
6.0
 50
270.0
 51
0.0
  0
LINE
  5
6DC
  8
DATA
 62
     7
 10
-1671.6379999999999
 20
-330.14646348067242
 30
0.0
 11
-1662.137999999999
 21
-330.14646348067339
 31
0.0
  0
LINE
  5
6DD
  8
DATA
 62
     7
 10
-1671.6379999999999
 20
-347.14646348067163
 30
0.0
 11
-1662.137999999999
 21
-347.14646348067163
 31
0.0
  0
LINE
  5
6DE
  8
DATA
 62
     7
 10
-1662.137999999999
 20
-347.14646348067163
 30
0.0
 11
-1662.137999999999
 21
-330.14646348067339
 31
0.0
  0
LINE
  5
6DF
  8
DATA
 62
     7
 10
-1662.137999999999
 20
-466.59332708189191
 30
0.0
 11
-1662.137999999999
 21
-449.59332708189368
 31
0.0
  0
LINE
  5
6E0
  8
DATA
 62
     7
 10
-1679.1379999999999
 20
-346.64646348067163
 30
0.0
 11
-1680.338
 21
-346.64646348067163
 31
0.0
  0
ARC
  5
6E1
  8
DATA
 62
     7
 10
-1675.088000000015
 20
-338.64646348072711
 30
0.0
 40
8.7499999999467022
 50
126.8698976455474
 51
233.13010235401421
  0
LINE
  5
6E2
  8
DATA
 62
     7
 10
-1680.338
 20
-330.64646348067163
 30
0.0
 11
-1679.1379999999999
 21
-330.64646348067163
 31
0.0
  0
LINE
  5
6E3
  8
DATA
 62
     7
 10
-1680.338
 20
-346.64646348067163
 30
0.0
 11
-1680.338
 21
-330.64646348067163
 31
0.0
  0
LINE
  5
6E4
  8
DATA
 62
     7
 10
-1650.1379999999999
 20
-331.8499999999994
 30
0.0
 11
-1625.3879999999999
 21
-308.35000000000031
 31
0.0
  0
LINE
  5
6E5
  8
DATA
 62
     7
 10
-1791.6379999999999
 20
51.161700000001019
 30
0.0
 11
-1791.6379999999999
 21
88.161800000000994
 31
0.0
  0
LINE
  5
6E6
  8
DATA
 62
     7
 10
-1559.137999999999
 20
51.161700000001019
 30
0.0
 11
-1559.137999999999
 21
88.161800000000994
 31
0.0
  0
LINE
  5
6E7
  8
DATA
 62
     7
 10
-1579.490299999999
 20
95.161800000000994
 30
0.0
 11
-1771.2856999999999
 21
95.161800000000994
 31
0.0
  0
LINE
  5
6E8
  8
DATA
 62
     7
 10
-1577.137999999999
 20
94.161800000000994
 30
0.0
 11
-1773.6379999999999
 21
94.161800000000994
 31
0.0
  0
LINE
  5
6E9
  8
DATA
 62
     7
 10
-1791.6379999999999
 20
88.161800000000767
 30
0.0
 11
-1559.137999999999
 21
88.161800000001207
 31
0.0
  0
LINE
  5
6EA
  8
DATA
 62
     7
 10
-1746.635
 20
128.16180000000091
 30
0.0
 11
-1604.1409999999989
 21
128.16180000000091
 31
0.0
  0
LINE
  5
6EB
  8
DATA
 62
     7
 10
-1581.731272727272
 20
98.161800000000554
 30
0.0
 11
-1612.5699624410429
 21
98.161800000000554
 31
0.0
  0
LINE
  5
6EC
  8
DATA
 62
     7
 10
-1601.153036363635
 20
124.16180000000089
 30
0.0
 11
-1631.142789435334
 21
124.16180000000089
 31
0.0
  0
LINE
  5
6ED
  8
DATA
 62
     7
 10
-1601.642789435334
 20
124.16180000000089
 30
0.0
 11
-1601.642789435334
 21
98.161800000000994
 31
0.0
  0
LINE
  5
6EE
  8
DATA
 62
     7
 10
-1612.5699624410429
 20
98.161800000000994
 30
0.0
 11
-1631.142789435334
 21
124.16180000000089
 31
0.0
  0
LINE
  5
6EF
  8
DATA
 62
     7
 10
-1579.490299999999
 20
95.161800000000994
 30
0.0
 11
-1604.1409999999989
 21
128.16180000000091
 31
0.0
  0
LINE
  5
6F0
  8
DATA
 62
     7
 10
-1579.490299999999
 20
95.161800000000994
 30
0.0
 11
-1579.490299999999
 21
94.161800000000994
 31
0.0
  0
LINE
  5
6F1
  8
DATA
 62
     7
 10
-1559.137999999999
 20
88.161800000000994
 30
0.0
 11
-1577.137999999999
 21
94.161800000000994
 31
0.0
  0
LINE
  5
6F2
  8
DATA
 62
     7
 10
-1791.6379999999999
 20
88.161800000000994
 30
0.0
 11
-1773.6379999999999
 21
94.161800000000994
 31
0.0
  0
LINE
  5
6F3
  8
DATA
 62
     7
 10
-1769.0447272727281
 20
98.161800000000554
 30
0.0
 11
-1738.206037558956
 21
98.161800000000554
 31
0.0
  0
LINE
  5
6F4
  8
DATA
 62
     7
 10
-1749.6229636363639
 20
124.16180000000089
 30
0.0
 11
-1719.633210564665
 21
124.16180000000089
 31
0.0
  0
LINE
  5
6F5
  8
DATA
 62
     7
 10
-1749.133210564665
 20
124.16180000000089
 30
0.0
 11
-1749.133210564665
 21
98.161800000000994
 31
0.0
  0
LINE
  5
6F6
  8
DATA
 62
     7
 10
-1738.206037558957
 20
98.161800000000994
 30
0.0
 11
-1719.633210564665
 21
124.16180000000089
 31
0.0
  0
LINE
  5
6F7
  8
DATA
 62
     7
 10
-1771.2856999999999
 20
95.161800000000994
 30
0.0
 11
-1771.2856999999999
 21
94.161800000000994
 31
0.0
  0
LINE
  5
6F8
  8
DATA
 62
     7
 10
-1771.2856999999999
 20
95.161800000000994
 30
0.0
 11
-1746.635
 21
128.16180000000091
 31
0.0
  0
LINE
  5
6F9
  8
DATA
 62
     7
 10
-1734.8874999999989
 20
-3.549999999999045
 30
0.0
 11
-1615.8885
 21
-3.549999999999045
 31
0.0
  0
LINE
  5
6FA
  8
DATA
 62
     7
 10
-1742.1391999999989
 20
35.655000000000882
 30
0.0
 11
-1608.6368
 21
35.655000000000882
 31
0.0
  0
LINE
  5
6FB
  8
DATA
 62
     7
 10
-1791.6379999999999
 20
51.161700000001019
 30
0.0
 11
-1559.137999999999
 21
51.16170000000124
 31
0.0
  0
LINE
  5
6FC
  8
DATA
 62
     7
 10
-1771.2856999999999
 20
44.189300000001147
 30
0.0
 11
-1579.4902999999999
 21
44.189300000001147
 31
0.0
  0
LINE
  5
6FD
  8
DATA
 62
     7
 10
-1615.8885
 20
-4.3499999999990004
 30
0.0
 11
-1615.8885
 21
-3.549999999999045
 31
0.0
  0
LINE
  5
6FE
  8
DATA
 62
     7
 10
-1579.490299999999
 20
44.189300000001147
 30
0.0
 11
-1579.490299999999
 21
51.16170000000124
 31
0.0
  0
LINE
  5
6FF
  8
DATA
 62
     7
 10
-1608.6368
 20
35.655000000000882
 30
0.0
 11
-1579.490299999999
 21
44.189300000001147
 31
0.0
  0
LINE
  5
700
  8
DATA
 62
     7
 10
-1615.8885
 20
-3.549999999999045
 30
0.0
 11
-1608.6368
 21
35.655000000000882
 31
0.0
  0
LINE
  5
701
  8
DATA
 62
     7
 10
-1771.2856999999999
 20
44.189300000001147
 30
0.0
 11
-1771.2856999999999
 21
51.161700000001019
 31
0.0
  0
LINE
  5
702
  8
DATA
 62
     7
 10
-1734.8874999999989
 20
-3.549999999999045
 30
0.0
 11
-1742.1391999999989
 21
35.655000000000882
 31
0.0
  0
LINE
  5
703
  8
DATA
 62
     7
 10
-1734.8874999999989
 20
-4.3499999999990004
 30
0.0
 11
-1734.8874999999989
 21
-3.549999999999045
 31
0.0
  0
LINE
  5
704
  8
DATA
 62
     7
 10
-1742.1391999999989
 20
35.655000000000882
 30
0.0
 11
-1771.2856999999999
 21
44.189300000001147
 31
0.0
  0
ARC
  5
705
  8
DATA
 62
     7
 10
-517.77180665506046
 20
-2387.8921607472639
 30
0.0
 40
1.9126986889106801
 50
307.64190249757769
 51
354.26701928934739
  0
LINE
  5
706
  8
DATA
 62
     7
 10
-566.90179483649956
 20
-2357.7511250185012
 30
0.0
 11
-557.93503483649965
 21
-2336.3858450185012
 31
0.0
  0
LINE
  5
707
  8
DATA
 62
     7
 10
-566.90179483649956
 20
-2357.7511250185012
 30
0.0
 11
-575.75791483650005
 21
-2336.3858450185012
 31
0.0
  0
LINE
  5
708
  8
DATA
 62
     7
 10
-498.93139483649981
 20
-2396.3858450185012
 30
0.0
 11
-498.93139483649981
 21
-2336.3858450185012
 31
0.0
  0
LINE
  5
709
  8
DATA
 62
     7
 10
-487.4184748364998
 20
-2336.3858450185012
 30
0.0
 11
-487.4184748364998
 21
-2387.197685018501
 31
0.0
  0
LINE
  5
70A
  8
DATA
 62
     7
 10
-553.72837483649971
 20
-2336.3858450185012
 30
0.0
 11
-553.72837483649971
 21
-2387.197685018501
 31
0.0
  0
LINE
  5
70B
  8
DATA
 62
     7
 10
-542.65825483649985
 20
-2336.3858450185012
 30
0.0
 11
-542.65825483649985
 21
-2387.197685018501
 31
0.0
  0
LINE
  5
70C
  8
DATA
 62
     7
 10
-536.90179483649956
 20
-2336.3858450185012
 30
0.0
 11
-536.90179483649956
 21
-2396.3858450185012
 31
0.0
  0
LINE
  5
70D
  8
DATA
 62
     7
 10
-526.82797483649995
 20
-2342.0315450184989
 30
0.0
 11
-526.82797483649995
 21
-2361.2935850184999
 31
0.0
  0
LINE
  5
70E
  8
DATA
 62
     7
 10
-505.23649483649962
 20
-2360.1790250185009
 30
0.0
 11
-505.23649483649962
 21
-2346.1275650184998
 31
0.0
  0
LINE
  5
70F
  8
DATA
 62
     7
 10
-515.86867483649996
 20
-2344.688405018499
 30
0.0
 11
-515.86867483649996
 21
-2358.6367850185011
 31
0.0
  0
ARC
  5
710
  8
DATA
 62
     7
 10
-555.94981483649963
 20
-2380.9790450185001
 30
0.0
 40
15.47312055100755
 50
264.69085622153369
 51
323.99119915423501
  0
LINE
  5
711
  8
DATA
 62
     7
 10
-562.14163483649963
 20
-2377.5666050185
 30
0.0
 11
-562.14163483649963
 21
-2387.1975650185009
 31
0.0
  0
LINE
  5
712
  8
DATA
 62
     7
 10
-562.14163483649963
 20
-2377.5666050185
 30
0.0
 11
-572.10475483649975
 21
-2377.5666050185
 31
0.0
  0
LINE
  5
713
  8
DATA
 62
     7
 10
-572.10475483649975
 20
-2377.5666050185
 30
0.0
 11
-572.10475483649975
 21
-2387.1975650185009
 31
0.0
  0
ARC
  5
714
  8
DATA
 62
     7
 10
-557.91391483649977
 20
-2387.3274050185
 30
0.0
 40
4.1875729574543987
 50
269.71184879275029
 51
1.7759870057005851
  0
ARC
  5
715
  8
DATA
 62
     7
 10
-557.95609483649969
 20
-2387.3274050185
 30
0.0
 40
4.1875515447573699
 50
178.22401299429831
 51
270.288151207243
  0
ARC
  5
716
  8
DATA
 62
     7
 10
-558.81319483650009
 20
-2380.9790450185001
 30
0.0
 40
15.47309542167938
 50
216.00880084575761
 51
275.30914377846568
  0
ARC
  5
717
  8
DATA
 62
     7
 10
-565.11211483649981
 20
-2386.8583850185
 30
0.0
 40
7.0008012490573126
 50
182.77699545000809
 51
207.3596066671611
  0
CIRCLE
  5
718
  8
DATA
 62
     7
 10
-566.29291483650013
 20
-2366.0537450185011
 30
0.0
 40
5.7010800000002737
  0
LINE
  5
719
  8
DATA
 62
     7
 10
-468.93139483649981
 20
-2396.3857850184991
 30
0.0
 11
-498.93139483649981
 21
-2396.3857850184991
 31
0.0
  0
LINE
  5
71A
  8
DATA
 62
     7
 10
-468.93139483649981
 20
-2396.3857850184991
 30
0.0
 11
-468.93139483649981
 21
-2377.5665450185002
 31
0.0
  0
LINE
  5
71B
  8
DATA
 62
     7
 10
-468.93139483649981
 20
-2377.5666050185
 30
0.0
 11
-479.00515483650008
 21
-2377.5666050185
 31
0.0
  0
LINE
  5
71C
  8
DATA
 62
     7
 10
-479.00515483650008
 20
-2377.5666050185
 30
0.0
 11
-479.00515483650008
 21
-2387.1975650185009
 31
0.0
  0
LINE
  5
71D
  8
DATA
 62
     7
 10
-536.90179483649956
 20
-2396.3857850184991
 30
0.0
 11
-515.86867483649996
 21
-2396.385725018501
 31
0.0
  0
LINE
  5
71E
  8
DATA
 62
     7
 10
-526.8280348364998
 20
-2390.7400250185001
 30
0.0
 11
-521.40367483650016
 21
-2390.7400250185001
 31
0.0
  0
LINE
  5
71F
  8
DATA
 62
     7
 10
-526.82797483649995
 20
-2390.7400250185001
 30
0.0
 11
-526.82797483649995
 21
-2367.049985018501
 31
0.0
  0
LINE
  5
720
  8
DATA
 62
     7
 10
-526.8280348364998
 20
-2367.049985018501
 30
0.0
 11
-521.40367483650016
 21
-2367.049985018501
 31
0.0
  0
LINE
  5
721
  8
DATA
 62
     7
 10
-515.86867483649996
 20
-2388.0832250185022
 30
0.0
 11
-515.86867483649996
 21
-2369.7067850184999
 31
0.0
  0
ARC
  5
722
  8
DATA
 62
     7
 10
-549.6508948364999
 20
-2386.8583850185
 30
0.0
 40
7.0007912871909452
 50
332.64039333284489
 51
357.22300455000573
  0
ARC
  5
723
  8
DATA
 62
     7
 10
-483.19075483649988
 20
-2387.3274050185
 30
0.0
 40
4.1875729574543987
 50
269.71184879275029
 51
1.7759870057005851
  0
ARC
  5
724
  8
DATA
 62
     7
 10
-483.23287483650012
 20
-2387.3274050185
 30
0.0
 40
4.1875515447573699
 50
178.22401299429831
 51
270.28815120725238
  0
LINE
  5
725
  8
DATA
 62
     7
 10
-505.24135483649962
 20
-2386.7547650185011
 30
0.0
 11
-505.24135483649962
 21
-2370.8138450185002
 31
0.0
  0
LINE
  5
726
  8
DATA
 62
     7
 10
-526.8280348364998
 20
-2361.2935850184999
 30
0.0
 11
-521.40367483650016
 21
-2361.2935850184999
 31
0.0
  0
ARC
  5
727
  8
DATA
 62
     7
 10
-516.63139483650002
 20
-2384.9955650185011
 30
0.0
 40
11.415668470309511
 50
273.83098160911442
 51
351.13514730980268
  0
LINE
  5
728
  8
DATA
 62
     7
 10
-553.72837483649971
 20
-2336.3858450185012
 30
0.0
 11
-542.65825483649985
 21
-2336.3858450185012
 31
0.0
  0
LINE
  5
729
  8
DATA
 62
     7
 10
-575.75791483650005
 20
-2336.3858450185012
 30
0.0
 11
-557.93503483649965
 21
-2336.3858450185012
 31
0.0
  0
LINE
  5
72A
  8
DATA
 62
     7
 10
-498.93139483649981
 20
-2336.3858450185012
 30
0.0
 11
-487.4184748364998
 21
-2336.3858450185012
 31
0.0
  0
LINE
  5
72B
  8
DATA
 62
     7
 10
-536.90179483649956
 20
-2336.3858450185012
 30
0.0
 11
-515.75305406762004
 21
-2336.3858935809421
 31
0.0
  0
LINE
  5
72C
  8
DATA
 62
     7
 10
-526.8280348364998
 20
-2342.0316050185011
 30
0.0
 11
-521.40367483650016
 21
-2342.0316050185011
 31
0.0
  0
ARC
  5
72D
  8
DATA
 62
     7
 10
-516.51757483649953
 20
-2347.7586050184991
 30
0.0
 40
11.398379597468979
 50
8.2269238590123557
 51
86.154126692155486
  0
ARC
  5
72E
  8
DATA
 62
     7
 10
-521.33962206088006
 20
-2380.21789725498
 30
0.0
 40
10.52232272028964
 50
269.6512199376138
 51
282.82648280687329
  0
ARC
  5
72F
  8
DATA
 62
     7
 10
-520.15779867169999
 20
-2384.6665268858628
 30
0.0
 40
5.9246274221599764
 50
281.23310362266187
 51
306.86200889406388
  0
ARC
  5
730
  8
DATA
 62
     7
 10
-517.77180665506046
 20
-2369.8978492897359
 30
0.0
 40
1.912698688910641
 50
5.7329807106526083
 51
52.358097502422339
  0
ARC
  5
731
  8
DATA
 62
     7
 10
-521.33962206088006
 20
-2377.572112782022
 30
0.0
 40
10.52232272028977
 50
77.173517193126656
 51
90.348780062386126
  0
ARC
  5
732
  8
DATA
 62
     7
 10
-520.15779867169999
 20
-2373.1234831511379
 30
0.0
 40
5.9246274221595341
 50
53.1379911059352
 51
78.766896377338313
  0
ARC
  5
733
  8
DATA
 62
     7
 10
-511.04743483649997
 20
-2371.2063050185011
 30
0.0
 40
5.8193289834831283
 50
3.8670063598308371
 51
88.361634567897383
  0
ARC
  5
734
  8
DATA
 62
     7
 10
-511.05277483649962
 20
-2359.5667850185
 30
0.0
 40
5.825111639687365
 50
271.68928210464378
 51
356.07828298265252
  0
ARC
  5
735
  8
DATA
 62
     7
 10
-517.77180665506046
 20
-2358.4457207472651
 30
0.0
 40
1.9126986889106801
 50
307.64190249757769
 51
354.26701928934739
  0
ARC
  5
736
  8
DATA
 62
     7
 10
-521.33962206088006
 20
-2350.7714572549789
 30
0.0
 40
10.52232272028964
 50
269.6512199376138
 51
282.82648280687329
  0
ARC
  5
737
  8
DATA
 62
     7
 10
-520.15779867169999
 20
-2355.2200868858622
 30
0.0
 40
5.9246274221599764
 50
281.23310362266187
 51
306.86200889406388
  0
ARC
  5
738
  8
DATA
 62
     7
 10
-517.77180665506046
 20
-2344.8794692897359
 30
0.0
 40
1.912698688910641
 50
5.7329807106526083
 51
52.358097502422339
  0
ARC
  5
739
  8
DATA
 62
     7
 10
-521.33962206088006
 20
-2352.5537327820211
 30
0.0
 40
10.52232272028977
 50
77.173517193126656
 51
90.348780062386126
  0
ARC
  5
73A
  8
DATA
 62
     7
 10
-520.15779867169999
 20
-2348.1051031511388
 30
0.0
 40
5.9246274221595341
 50
53.1379911059352
 51
78.766896377338313
  0
ENDSEC
  0
EOF
