  0
SECTION
  2
HEADER
  9
$ACADVER
  1
AC1009
  9
$INSBASE
 10
0.0
 20
0.0
 30
0.0
  9
$EXTMIN
 10
149.94507516960761
 20
37.573251660882313
 30
-0.0015258207003583
  9
$EXTMAX
 10
2850.086981733431
 20
4050.1236056211901
 30
0.0000000349246037
  9
$LIMMIN
 10
0.0
 20
0.0
  9
$LIMMAX
 10
0.0
 20
0.0
  9
$ORTHOMODE
 70
     0
  9
$REGENMODE
 70
     1
  9
$FILLMODE
 70
     1
  9
$QTEXTMODE
 70
     0
  9
$MIRRTEXT
 70
     1
  9
$DRAGMODE
 70
     2
  9
$LTSCALE
 40
76.200000000000003
  9
$OSMODE
 70
   231
  9
$ATTMODE
 70
     1
  9
$TEXTSIZE
 40
0.0
  9
$TRACEWID
 40
1.0
  9
$TEXTSTYLE
  7
STANDARD
  9
$CLAYER
  8
DATA
  9
$CELTYPE
  6
BYLAYER
  9
$CECOLOR
 62
   256
  9
$DIMSCALE
 40
1.0
  9
$DIMASZ
 40
0.18
  9
$DIMEXO
 40
0.0625
  9
$DIMDLI
 40
0.38
  9
$DIMRND
 40
0.0
  9
$DIMDLE
 40
0.0
  9
$DIMEXE
 40
0.18
  9
$DIMTP
 40
0.0
  9
$DIMTM
 40
0.0
  9
$DIMTXT
 40
0.18
  9
$DIMCEN
 40
0.09
  9
$DIMTSZ
 40
0.0
  9
$DIMTOL
 70
     0
  9
$DIMLIM
 70
     0
  9
$DIMTIH
 70
     1
  9
$DIMTOH
 70
     1
  9
$DIMSE1
 70
     0
  9
$DIMSE2
 70
     0
  9
$DIMTAD
 70
     0
  9
$DIMZIN
 70
     0
  9
$DIMBLK
  1

  9
$DIMASO
 70
     1
  9
$DIMSHO
 70
     1
  9
$DIMPOST
  1

  9
$DIMAPOST
  1

  9
$DIMALT
 70
     0
  9
$DIMALTD
 70
     2
  9
$DIMALTF
 40
25.399999999999999
  9
$DIMLFAC
 40
1.0
  9
$DIMTOFL
 70
     0
  9
$DIMTVP
 40
0.0
  9
$DIMTIX
 70
     0
  9
$DIMSOXD
 70
     0
  9
$DIMSAH
 70
     0
  9
$DIMBLK1
  1

  9
$DIMBLK2
  1

  9
$DIMSTYLE
  2
STANDARD
  9
$DIMCLRD
 70
     0
  9
$DIMCLRE
 70
     0
  9
$DIMCLRT
 70
     0
  9
$DIMTFAC
 40
1.0
  9
$DIMGAP
 40
0.09
  9
$LUNITS
 70
     2
  9
$LUPREC
 70
     4
  9
$SKETCHINC
 40
0.1
  9
$FILLETRAD
 40
0.0
  9
$AUNITS
 70
     0
  9
$AUPREC
 70
     0
  9
$MENU
  1
acad
  9
$ELEVATION
 40
0.0
  9
$PELEVATION
 40
0.0
  9
$THICKNESS
 40
0.0
  9
$LIMCHECK
 70
     0
  9
$BLIPMODE
 70
     0
  9
$CHAMFERA
 40
0.0
  9
$CHAMFERB
 40
0.0
  9
$SKPOLY
 70
     0
  9
$TDCREATE
 40
2455012.4957986111
  9
$TDUPDATE
 40
2455012.4965602658
  9
$TDINDWG
 40
0.0002634259
  9
$TDUSRTIMER
 40
0.0002634259
  9
$USRTIMER
 70
     1
  9
$ANGBASE
 50
0.0
  9
$ANGDIR
 70
     0
  9
$PDMODE
 70
     1
  9
$PDSIZE
 40
-2.0
  9
$PLINEWID
 40
0.0
  9
$COORDS
 70
     1
  9
$SPLFRAME
 70
     0
  9
$SPLINETYPE
 70
     6
  9
$SPLINESEGS
 70
     8
  9
$ATTDIA
 70
     0
  9
$ATTREQ
 70
     1
  9
$HANDLING
 70
     1
  9
$HANDSEED
  5
56F
  9
$SURFTAB1
 70
     6
  9
$SURFTAB2
 70
     6
  9
$SURFTYPE
 70
     6
  9
$SURFU
 70
     6
  9
$SURFV
 70
     6
  9
$UCSNAME
  2

  9
$UCSORG
 10
0.0
 20
0.0
 30
0.0
  9
$UCSXDIR
 10
1.0
 20
0.0
 30
0.0
  9
$UCSYDIR
 10
0.0
 20
1.0
 30
0.0
  9
$PUCSNAME
  2

  9
$PUCSORG
 10
0.0
 20
0.0
 30
0.0
  9
$PUCSXDIR
 10
1.0
 20
0.0
 30
0.0
  9
$PUCSYDIR
 10
0.0
 20
1.0
 30
0.0
  9
$USERI1
 70
     0
  9
$USERI2
 70
     0
  9
$USERI3
 70
     0
  9
$USERI4
 70
     0
  9
$USERI5
 70
     0
  9
$USERR1
 40
0.0
  9
$USERR2
 40
0.0
  9
$USERR3
 40
0.0
  9
$USERR4
 40
0.0
  9
$USERR5
 40
0.0
  9
$WORLDVIEW
 70
     1
  9
$SHADEDGE
 70
     3
  9
$SHADEDIF
 70
    70
  9
$TILEMODE
 70
     1
  9
$MAXACTVP
 70
    64
  9
$PLIMCHECK
 70
     0
  9
$PEXTMIN
 10
1.0000000000000000E+020
 20
1.0000000000000000E+020
 30
1.0000000000000000E+020
  9
$PEXTMAX
 10
-1.0000000000000000E+020
 20
-1.0000000000000000E+020
 30
-1.0000000000000000E+020
  9
$PLIMMIN
 10
0.0
 20
0.0
  9
$PLIMMAX
 10
12.0
 20
9.0
  9
$UNITMODE
 70
     0
  9
$VISRETAIN
 70
     0
  9
$PLINEGEN
 70
     1
  9
$PSLTSCALE
 70
     0
  0
ENDSEC
  0
SECTION
  2
TABLES
  0
TABLE
  2
VPORT
 70
     1
  0
VPORT
  2
*ACTIVE
 70
     0
 10
0.0
 20
0.0
 11
1.0
 21
1.0
 12
1500.01602845152
 22
2043.8484286410369
 13
0.0
 23
0.0
 14
1.0
 24
1.0
 15
0.0
 25
0.0
 16
0.0
 26
0.0
 36
1.0
 17
0.0
 27
0.0
 37
0.0
 40
4042.0906019649242
 41
1.9619164619164611
 42
50.0
 43
0.0
 44
0.0
 50
0.0
 51
0.0
 71
     0
 72
  2000
 73
     1
 74
     1
 75
     0
 76
     0
 77
     0
 78
     0
  0
ENDTAB
  0
TABLE
  2
LTYPE
 70
    12
  0
LTYPE
  2
CONTINUOUS
 70
     0
  3
Solid line
 72
    65
 73
     0
 40
0.0
  0
LTYPE
  2
STYLE_11
 70
     0
  3

 72
    65
 73
     2
 40
0.1875
 49
0.125
 49
-0.0625
  0
ENDTAB
  0
TABLE
  2
LAYER
 70
     5
  0
LAYER
  2
0
 70
     0
 62
     7
  6
CONTINUOUS
  0
LAYER
  2
DATA
 70
     0
 62
     7
  6
CONTINUOUS
  0
LAYER
  2
HIBINO-BASE
 70
     0
 62
     7
  6
CONTINUOUS
  0
LAYER
  2
SPEC
 70
     0
 62
     7
  6
CONTINUOUS
  0
LAYER
  2
DIMNSIONS
 70
     0
 62
     7
  6
CONTINUOUS
  0
ENDTAB
  0
TABLE
  2
STYLE
 70
     3
  0
STYLE
  2
STANDARD
 70
     0
 40
0.0
 41
1.0
 50
0.0
 71
     0
 42
0.0
  3
txt
  4
BIGFONT.SHX
  0
ENDTAB
  0
TABLE
  2
VIEW
 70
     0
  0
ENDTAB
  0
TABLE
  2
UCS
 70
     0
  0
ENDTAB
  0
TABLE
  2
APPID
 70
     3
  0
APPID
  2
ACAD
 70
     0
  0
APPID
  2
ACADANNOTATIVE
 70
     0
  0
APPID
  2
ACAD_MLEADERVER
 70
     0
  0
ENDTAB
  0
TABLE
  2
DIMSTYLE
 70
     2
  0
DIMSTYLE
  2
STANDARD
 70
     0
  3

  4

  5

  6

  7

 40
1.0
 41
0.18
 42
0.0625
 43
0.38
 44
0.18
 45
0.0
 46
0.0
 47
0.0
 48
0.0
140
0.18
141
0.09
142
0.0
143
25.399999999999999
144
1.0
145
0.0
146
1.0
147
0.09
 71
     0
 72
     0
 73
     1
 74
     1
 75
     0
 76
     0
 77
     0
 78
     0
170
     0
171
     2
172
     0
173
     0
174
     0
175
     0
176
     0
177
     0
178
     0
  0
ENDTAB
  0
ENDSEC
  0
SECTION
  2
BLOCKS
  0
BLOCK
  8
0
  2
$MODEL_SPACE
 70
     0
 10
0.0
 20
0.0
 30
0.0
  3
$MODEL_SPACE
  1

  0
ENDBLK
  5
50F
  8
0
  0
BLOCK
 67
     1
  8
0
  2
$PAPER_SPACE
 70
     0
 10
0.0
 20
0.0
 30
0.0
  3
$PAPER_SPACE
  1

  0
ENDBLK
  5
50B
 67
     1
  8
0
  0
ENDSEC
  0
SECTION
  2
ENTITIES
  0
LINE
  5
2D
  8
HIBINO-BASE
  6
CONTINUOUS
 62
     7
 10
150.0
 20
4050.0
 30
0.0
 11
2850.0
 21
4050.0
 31
0.0
  0
LINE
  5
2E
  8
HIBINO-BASE
  6
CONTINUOUS
 62
     7
 10
2850.0
 20
150.0
 30
0.0
 11
150.0
 21
150.0
 31
0.0
  0
LINE
  5
2F
  8
HIBINO-BASE
  6
CONTINUOUS
 62
     7
 10
150.0
 20
150.0
 30
0.0
 11
150.0
 21
4050.0
 31
0.0
  0
TEXT
  5
30
  8
HIBINO-BASE
 62
     7
 10
280.0
 20
55.433224302451592
 30
0.0
 40
52.937337239583343
  1
Hibino Corporation
 41
0.7
 11
280.0
 21
108.37056154203491
 31
0.0
 73
     3
  0
LINE
  5
31
  8
HIBINO-BASE
  6
CONTINUOUS
 62
     7
 10
2850.0
 20
4050.0
 30
0.0
 11
2850.0
 21
150.0
 31
0.0
  0
LINE
  5
32
  8
HIBINO-BASE
  6
CONTINUOUS
 62
     7
 10
1500.0
 20
487.50000000000011
 30
0.0
 11
2850.0
 21
487.50000000000011
 31
0.0
  0
LINE
  5
33
  8
HIBINO-BASE
  6
CONTINUOUS
 62
     7
 10
1500.0
 20
150.0
 30
0.0
 11
1500.0
 21
487.50000000000011
 31
0.0
  0
TEXT
  5
34
  8
HIBINO-BASE
 62
     7
 10
1518.25
 20
449.63483426625919
 30
0.0
 40
24.4326171875
  1
NOTE
 41
0.7
 11
1518.25
 21
474.0674514537593
 31
0.0
 73
     3
  0
LINE
  5
35
  8
HIBINO-BASE
  6
CONTINUOUS
 62
     7
 10
2025.0
 20
150.0
 30
0.0
 11
2025.0
 21
487.50000000000011
 31
0.0
  0
TEXT
  5
36
  8
HIBINO-BASE
 62
     7
 10
2041.3125
 20
449.80381117499041
 30
0.0
 40
24.4326171875
  1
TITLE
 41
0.7
 11
2041.3125
 21
474.23642836249041
 31
0.0
 73
     3
  0
TEXT
  5
37
  8
HIBINO-BASE
 62
     7
 10
2344.229166666667
 20
57.0092116283951
 30
0.0
 40
52.937337239583343
  1
ヒビノ株式会社
 41
0.7
 11
2344.229166666667
 21
109.94654886797839
 31
0.0
 73
     3
  0
LINE
  5
38
  8
HIBINO-BASE
  6
CONTINUOUS
 62
     7
 10
1500.0
 20
300.00000000000028
 30
0.0
 11
2850.0
 21
300.00000000000028
 31
0.0
  0
TEXT
  5
39
  8
HIBINO-BASE
 62
     7
 10
2223.8105737370188
 20
263.56335453377551
 30
0.0
 40
24.4326171875
  1
DRAWN
 41
0.7
 11
2223.8105737370188
 21
287.99597172127551
 31
0.0
 73
     3
  0
TEXT
  5
3A
  8
HIBINO-BASE
 62
     7
 10
1848.973091990209
 20
263.02985948583893
 30
0.0
 40
24.4326171875
  1
DATE
 41
0.7
 11
1848.973091990209
 21
287.46247667333881
 31
0.0
 73
     3
  0
TEXT
  5
3B
  8
HIBINO-BASE
 62
     7
 10
1699.6506149426341
 20
263.3811868219388
 30
0.0
 40
24.4326171875
  1
SCALE
 41
0.7
 11
1699.6506149426341
 21
287.8138040094388
 31
0.0
 73
     3
  0
TEXT
  5
3C
  8
HIBINO-BASE
 62
     7
 10
2041.379521263596
 20
263.12264653760212
 30
0.0
 40
24.4326171875
  1
DESIGN
 41
0.7
 11
2041.379521263596
 21
287.55526372510212
 31
0.0
 73
     3
  0
TEXT
  5
3D
  8
HIBINO-BASE
 62
     7
 10
2595.1911934298441
 20
263.85754493266148
 30
0.0
 40
24.4326171875
  1
DRAWING NO.
 41
0.7
 11
2595.1911934298441
 21
288.29016212016148
 31
0.0
 73
     3
  0
TEXT
  5
3E
  8
HIBINO-BASE
 62
     7
 10
2413.5538318165868
 20
263.18461640514079
 30
0.0
 40
24.4326171875
  1
CHECK
 41
0.7
 11
2413.5538318165868
 21
287.61723359264079
 31
0.0
 73
     3
  0
LINE
  5
3F
  8
HIBINO-BASE
  6
CONTINUOUS
 62
     7
 10
1715.625
 20
168.75
 30
0.0
 11
1771.8749999999991
 21
225.00000000000031
 31
0.0
  0
LINE
  5
40
  8
HIBINO-BASE
  6
CONTINUOUS
 62
     7
 10
1687.5
 20
150.0
 30
0.0
 11
1687.5
 21
300.00000000000028
 31
0.0
  0
LINE
  5
41
  8
HIBINO-BASE
  6
CONTINUOUS
 62
     7
 10
1837.5
 20
150.0
 30
0.0
 11
1837.5
 21
300.00000000000028
 31
0.0
  0
LINE
  5
42
  8
HIBINO-BASE
  6
CONTINUOUS
 62
     7
 10
2212.5
 20
300.00000000000028
 30
0.0
 11
2212.5
 21
150.0
 31
0.0
  0
LINE
  5
43
  8
HIBINO-BASE
  6
CONTINUOUS
 62
     7
 10
2587.5
 20
300.00000000000028
 30
0.0
 11
2587.5
 21
150.0
 31
0.0
  0
LINE
  5
44
  8
HIBINO-BASE
  6
CONTINUOUS
 62
     7
 10
2400.0
 20
150.0
 30
0.0
 11
2400.0
 21
300.00000000000028
 31
0.0
  0
TEXT
  5
45
  8
HIBINO-BASE
 62
     7
 10
1853.414718145224
 20
189.2610209541499
 30
0.0
 40
24.4326171875
  1
'09.03.
 41
0.7
 11
1853.414718145224
 21
213.6936381416499
 31
0.0
 73
     3
  0
TEXT
  5
46
  8
HIBINO-BASE
 62
     7
 10
2236.7700256048402
 20
189.9582789002591
 30
0.0
 40
24.4326171875
  1
N.Sasaki
 41
0.7
 11
2236.7700256048402
 21
214.3908960877591
 31
0.0
 73
     3
  0
TEXT
  5
47
  8
HIBINO-BASE
 62
     7
 10
1559.9416746797731
 20
176.18666025618199
 30
0.0
 40
48.865234375000007
  1
A4
 41
0.7
 11
1559.9416746797731
 21
225.05189463118199
 31
0.0
 73
     3
  0
TEXT
  5
48
  8
HIBINO-BASE
 62
     7
 10
1512.374309437552
 20
263.58200297177632
 30
0.0
 40
24.4326171875
  1
PAPER SIZE
 41
0.7
 11
1512.374309437552
 21
288.01462015927632
 31
0.0
 73
     3
  0
TEXT
  5
49
  8
HIBINO-BASE
 62
     7
 10
1753.0
 20
168.69499999999991
 30
0.0
 40
24.4326171875
  1
15
 41
0.7
 11
1753.0
 21
193.12761718749999
 31
0.0
 73
     3
  0
TEXT
  5
4A
  8
HIBINO-BASE
 62
     7
 10
1713.1329988778971
 20
204.96478451951589
 30
0.0
 40
24.4326171875
  1
1
 41
0.7
 11
1713.1329988778971
 21
229.39740170701589
 31
0.0
 73
     3
  0
TEXT
  5
4B
  8
SPEC
 62
     7
 10
272.375
 20
3916.6962613092351
 30
0.0
 40
36.64892578125
  1
仕様
 41
0.7
 11
272.375
 21
3953.3451870904851
 31
0.0
 73
     3
  0
LINE
  5
4C
  8
SPEC
  6
CONTINUOUS
 62
     7
 10
262.47250882577708
 20
3900.0000000020809
 30
0.0
 11
2474.972508825786
 21
3900.0000000020809
 31
0.0
  0
LINE
  5
4D
  8
SPEC
  6
CONTINUOUS
 62
     7
 10
262.47250882577708
 20
3618.7500000020809
 30
0.0
 11
2474.972508825786
 21
3618.7500000020809
 31
0.0
  0
LINE
  5
4E
  8
SPEC
  6
CONTINUOUS
 62
     7
 10
262.47250882577708
 20
3675.0000000020809
 30
0.0
 11
2474.972508825786
 21
3675.0000000020809
 31
0.0
  0
LINE
  5
4F
  8
SPEC
  6
CONTINUOUS
 62
     7
 10
262.47250882577708
 20
3731.2500000020809
 30
0.0
 11
2474.972508825786
 21
3731.2500000020809
 31
0.0
  0
LINE
  5
50
  8
SPEC
  6
CONTINUOUS
 62
     7
 10
262.47250882577708
 20
3787.5000000020809
 30
0.0
 11
2474.972508825786
 21
3787.5000000020809
 31
0.0
  0
LINE
  5
51
  8
SPEC
  6
CONTINUOUS
 62
     7
 10
262.47250882577708
 20
3843.7500000020809
 30
0.0
 11
2474.972508825786
 21
3843.7500000020809
 31
0.0
  0
LINE
  5
52
  8
SPEC
  6
CONTINUOUS
 62
     7
 10
262.47250882577708
 20
3900.0000000020809
 30
0.0
 11
262.47250882577708
 21
3000.0000000020818
 31
0.0
  0
LINE
  5
53
  8
SPEC
  6
CONTINUOUS
 62
     7
 10
2474.972508825786
 20
3000.0000000020818
 30
0.0
 11
2474.972508825786
 21
3900.0000000020809
 31
0.0
  0
LINE
  5
54
  8
SPEC
  6
CONTINUOUS
 62
     7
 10
749.97250882578567
 20
3900.0000000020809
 30
0.0
 11
749.97250882578567
 21
3000.0000000020818
 31
0.0
  0
TEXT
  5
55
  8
SPEC
 62
     7
 10
275.97250882577708
 20
3855.5688333354128
 30
0.0
 40
28.504720052083329
  1
形式
 41
0.7
 11
275.97250882577708
 21
3884.0735533874972
 31
0.0
 73
     3
  0
TEXT
  5
56
  8
SPEC
 62
     7
 10
275.97250882577708
 20
3799.3188333354128
 30
0.0
 40
28.504720052083329
  1
周波数レンジ(-10dB)
 41
0.7
 11
275.97250882577708
 21
3827.8235533874972
 31
0.0
 73
     3
  0
TEXT
  5
57
  8
SPEC
 62
     7
 10
275.97250882577708
 20
3743.0688333354142
 30
0.0
 40
28.504720052083329
  1
公称カバレージ(-6dB)
 41
0.7
 11
275.97250882577708
 21
3771.5735533874972
 31
0.0
 73
     3
  0
TEXT
  5
58
  8
SPEC
 62
     7
 10
275.97250882577708
 20
3630.5688333354128
 30
0.0
 40
28.504720052083329
  1
高域ユニット
 41
0.7
 11
275.97250882577708
 21
3659.0735533874972
 31
0.0
 73
     3
  0
TEXT
  5
59
  8
SPEC
 62
     7
 10
275.97250882577708
 20
3574.3188333354128
 30
0.0
 40
28.504720052083329
  1
音圧レベル(1W/1m)
 41
0.7
 11
275.97250882577708
 21
3602.8235533874972
 31
0.0
 73
     3
  0
TEXT
  5
5A
  8
SPEC
 62
     7
 10
275.97250882577708
 20
3686.8188333354142
 30
0.0
 40
28.504720052083329
  1
低域ユニット
 41
0.7
 11
275.97250882577708
 21
3715.3235533874972
 31
0.0
 73
     3
  0
TEXT
  5
5B
  8
SPEC
 62
     7
 10
763.47250882577714
 20
3855.5688333354128
 30
0.0
 40
28.504720052083329
  1
2ウェイ・サラウンド・システム(Very High Power Cinema Surround Speaker)
 41
0.7
 11
763.47250882577714
 21
3884.0735533874972
 31
0.0
 73
     3
  0
TEXT
  5
5C
  8
SPEC
 62
     7
 10
763.47250882577714
 20
3630.5688333354128
 30
0.0
 40
28.504720052083329
  1
25mm
 41
0.7
 11
763.47250882577714
 21
3659.0735533874972
 31
0.0
 73
     3
  0
TEXT
  5
5D
  8
SPEC
 62
     7
 10
763.47250882577714
 20
3743.0688333354142
 30
0.0
 40
28.504720052083329
  1
100゜\U+00D780゜(400Hz～12kHz)
 41
0.7
 11
763.47250882577714
 21
3771.5735533874972
 31
0.0
 73
     3
  0
TEXT
  5
5E
  8
SPEC
 62
     7
 10
763.47250882577714
 20
3574.3188333354128
 30
0.0
 40
28.504720052083329
  1
99dB SPL(半空間における数値/壁取付け)
 41
0.7
 11
763.47250882577714
 21
3602.8235533874972
 31
0.0
 73
     3
  0
TEXT
  5
5F
  8
SPEC
 62
     7
 10
763.47250882577714
 20
3799.3188333354128
 30
0.0
 40
28.504720052083329
  1
60Hz～19kHz
 41
0.7
 11
763.47250882577714
 21
3827.8235533874972
 31
0.0
 73
     3
  0
LINE
  5
60
  8
SPEC
  6
CONTINUOUS
 62
     7
 10
262.47250882577708
 20
3562.5000000020809
 30
0.0
 11
2474.972508825786
 21
3562.5000000020809
 31
0.0
  0
LINE
  5
61
  8
SPEC
  6
CONTINUOUS
 62
     7
 10
262.47250882577708
 20
3450.0000000020809
 30
0.0
 11
2474.972508825786
 21
3450.0000000020809
 31
0.0
  0
LINE
  5
62
  8
SPEC
  6
CONTINUOUS
 62
     7
 10
262.47250882577708
 20
3506.2500000020809
 30
0.0
 11
2474.972508825786
 21
3506.2500000020809
 31
0.0
  0
LINE
  5
63
  8
SPEC
  6
CONTINUOUS
 62
     7
 10
262.47250882577708
 20
3393.7500000020809
 30
0.0
 11
2474.972508825786
 21
3393.7500000020809
 31
0.0
  0
LINE
  5
64
  8
SPEC
  6
CONTINUOUS
 62
     7
 10
262.47250882577708
 20
3225.0000000020809
 30
0.0
 11
2474.972508825786
 21
3225.0000000020809
 31
0.0
  0
LINE
  5
65
  8
SPEC
  6
CONTINUOUS
 62
     7
 10
262.47250882577708
 20
3168.7500000020818
 30
0.0
 11
2474.972508825786
 21
3168.7500000020818
 31
0.0
  0
LINE
  5
66
  8
SPEC
  6
CONTINUOUS
 62
     7
 10
262.47250882577708
 20
3112.5000000020818
 30
0.0
 11
2474.972508825786
 21
3112.5000000020818
 31
0.0
  0
LINE
  5
67
  8
SPEC
  6
CONTINUOUS
 62
     7
 10
262.47250882577708
 20
3056.2500000020818
 30
0.0
 11
2474.972508825786
 21
3056.2500000020818
 31
0.0
  0
LINE
  5
68
  8
SPEC
  6
CONTINUOUS
 62
     7
 10
262.47250882577708
 20
3281.2500000020809
 30
0.0
 11
2474.972508825786
 21
3281.2500000020809
 31
0.0
  0
LINE
  5
69
  8
SPEC
  6
CONTINUOUS
 62
     7
 10
262.47250882577708
 20
3337.5000000020809
 30
0.0
 11
2474.972508825786
 21
3337.5000000020809
 31
0.0
  0
TEXT
  5
6A
  8
SPEC
 62
     7
 10
763.47250882577714
 20
3124.3188333354142
 30
0.0
 40
28.504720052083329
  1
バインディング・ポスト(ダブルバナナプラグ対応), 圧着端子(スタ ッド径8)
 41
0.7
 11
763.47250882577714
 21
3152.8235533874972
 31
0.0
 73
     3
  0
TEXT
  5
6B
  8
SPEC
 62
     7
 10
763.47250882577714
 20
3180.5688333354142
 30
0.0
 40
28.504720052083329
  1
SPユニットは前面側で交換（グリルは裏側よりネジ4ヶ所取付け）
 41
0.7
 11
763.47250882577714
 21
3209.0735533874972
 31
0.0
 73
     3
  0
TEXT
  5
6C
  8
SPEC
 62
     7
 10
275.97250882577708
 20
3180.5688333354142
 30
0.0
 40
28.504720052083329
  1
メンテナンス
 41
0.7
 11
275.97250882577708
 21
3209.0735533874972
 31
0.0
 73
     3
  0
TEXT
  5
6D
  8
SPEC
 62
     7
 10
275.97250882577708
 20
3124.3188333354142
 30
0.0
 40
28.504720052083329
  1
コネクター
 41
0.7
 11
275.97250882577708
 21
3152.8235533874972
 31
0.0
 73
     3
  0
TEXT
  5
6E
  8
SPEC
 62
     7
 10
275.97250882577708
 20
3068.0688333354142
 30
0.0
 40
28.504720052083329
  1
寸法
 41
0.7
 11
275.97250882577708
 21
3096.5735533874981
 31
0.0
 73
     3
  0
TEXT
  5
6F
  8
SPEC
 62
     7
 10
275.97250882577708
 20
3011.8188333354142
 30
0.0
 40
28.504720052083329
  1
重量
 41
0.7
 11
275.97250882577708
 21
3040.3235533874981
 31
0.0
 73
     3
  0
TEXT
  5
70
  8
SPEC
 62
     7
 10
275.97250882577708
 20
3518.0688333354128
 30
0.0
 40
28.504720052083329
  1
公称インピーダンス
 41
0.7
 11
275.97250882577708
 21
3546.5735533874972
 31
0.0
 73
     3
  0
TEXT
  5
71
  8
SPEC
 62
     7
 10
275.97250882577708
 20
3461.8188333354142
 30
0.0
 40
28.504720052083329
  1
許容入力
 41
0.7
 11
275.97250882577708
 21
3490.3235533874972
 31
0.0
 73
     3
  0
TEXT
  5
72
  8
SPEC
 62
     7
 10
275.97250882577708
 20
3405.5688333354142
 30
0.0
 40
28.504720052083329
  1
クロスオーバー
 41
0.7
 11
275.97250882577708
 21
3434.0735533874972
 31
0.0
 73
     3
  0
TEXT
  5
73
  8
SPEC
 62
     7
 10
275.97250882577708
 20
3236.8188333354128
 30
0.0
 40
28.504720052083329
  1
極性
 41
0.7
 11
275.97250882577708
 21
3265.3235533874972
 31
0.0
 73
     3
  0
TEXT
  5
74
  8
SPEC
 62
     7
 10
275.97250882577708
 20
3349.3188333354128
 30
0.0
 40
28.504720052083329
  1
高域特性
 41
0.7
 11
275.97250882577708
 21
3377.8235533874972
 31
0.0
 73
     3
  0
TEXT
  5
75
  8
SPEC
 62
     7
 10
275.97250882577708
 20
3293.0688333354128
 30
0.0
 40
28.504720052083329
  1
外装色
 41
0.7
 11
275.97250882577708
 21
3321.5735533874972
 31
0.0
 73
     3
  0
TEXT
  5
76
  8
SPEC
 62
     7
 10
763.47250882577714
 20
3011.8188333354142
 30
0.0
 40
28.504720052083329
  1
約10.0kg
 41
0.7
 11
763.47250882577714
 21
3040.3235533874981
 31
0.0
 73
     3
  0
TEXT
  5
77
  8
SPEC
 62
     7
 10
763.47250882577714
 20
3349.3188333354128
 30
0.0
 40
28.504720052083329
  1
ISO2969 Cureve X surround contour
 41
0.7
 11
763.47250882577714
 21
3377.8235533874972
 31
0.0
 73
     3
  0
TEXT
  5
78
  8
SPEC
 62
     7
 10
763.47250882577714
 20
3461.8188333354142
 30
0.0
 40
28.504720052083329
  1
350W(Pink noise),1400W(Peak)
 41
0.7
 11
763.47250882577714
 21
3490.3235533874972
 31
0.0
 73
     3
  0
TEXT
  5
79
  8
SPEC
 62
     7
 10
763.47250882577714
 20
3405.5688333354142
 30
0.0
 40
28.504720052083329
  1
(ネットワーク):1.4kHz
 41
0.7
 11
763.47250882577714
 21
3434.0735533874972
 31
0.0
 73
     3
  0
TEXT
  5
7A
  8
SPEC
 62
     7
 10
763.47250882577714
 20
3236.8188333354128
 30
0.0
 40
28.504720052083329
  1
正相(低域),逆相(高域)
 41
0.7
 11
763.47250882577714
 21
3265.3235533874972
 31
0.0
 73
     3
  0
TEXT
  5
7B
  8
SPEC
 62
     7
 10
763.47250882577714
 20
3518.0688333354128
 30
0.0
 40
28.504720052083329
  1
8\U+03A9
 41
0.7
 11
763.47250882577714
 21
3546.5735533874972
 31
0.0
 73
     3
  0
TEXT
  5
7C
  8
SPEC
 62
     7
 10
763.47250882577714
 20
3293.0688333354128
 30
0.0
 40
28.504720052083329
  1
黒
 41
0.7
 11
763.47250882577714
 21
3321.5735533874972
 31
0.0
 73
     3
  0
LINE
  5
7D
  8
SPEC
  6
CONTINUOUS
 62
     7
 10
262.47250882577708
 20
3000.0000000020818
 30
0.0
 11
2474.972508825786
 21
3000.0000000020818
 31
0.0
  0
TEXT
  5
7E
  8
SPEC
 62
     7
 10
763.47250882577714
 20
3068.0688333354142
 30
0.0
 40
28.504720052083329
  1
475(W)\U+00D7453(H)\U+00D7260(D)mm(突起は含まず) 
 41
0.7
 11
763.47250882577714
 21
3096.5735533874981
 31
0.0
 73
     3
  0
TEXT
  5
7F
  8
SPEC
 62
     7
 10
763.47250882577714
 20
3686.8188333354142
 30
0.0
 40
28.504720052083329
  1
250mm
 41
0.7
 11
763.47250882577714
 21
3715.3235533874972
 31
0.0
 73
     3
  0
TEXT
  5
80
  8
DIMNSIONS
 62
     7
 10
1211.8918659172459
 20
328.83124330744522
 30
0.0
 40
36.64892578125
  1
(単位：mm)
 41
0.7
 11
1211.8918659172459
 21
365.48016908869522
 31
0.0
 73
     3
  0
LINE
  5
81
  8
DIMNSIONS
  6
CONTINUOUS
 62
     7
 10
518.5857303396848
 20
2260.289976749596
 30
0.0
 11
369.99999999991678
 21
2260.289976749596
 31
0.0
  0
LINE
  5
82
  8
DIMNSIONS
  6
CONTINUOUS
 62
     7
 10
494.99999999991678
 20
2000.000000000213
 30
0.0
 11
369.99999999991678
 21
2000.000000000213
 31
0.0
  0
LINE
  5
83
  8
DIMNSIONS
  6
CONTINUOUS
 62
     7
 10
399.99999999991689
 20
2260.289976749596
 30
0.0
 11
399.99999999991689
 21
2000.000000000213
 31
0.0
  0
LINE
  5
84
  8
DIMNSIONS
  6
CONTINUOUS
 62
     7
 10
399.99999999991689
 20
2260.289976749596
 30
0.0
 11
410.0505969271702
 21
2222.7806383706888
 31
0.0
  0
LINE
  5
85
  8
DIMNSIONS
  6
CONTINUOUS
 62
     7
 10
399.99999999991689
 20
2260.289976749596
 30
0.0
 11
389.94940307266302
 21
2222.7806383706888
 31
0.0
  0
LINE
  5
86
  8
DIMNSIONS
  6
CONTINUOUS
 62
     7
 10
399.99999999991689
 20
2000.000000000213
 30
0.0
 11
389.94940307266302
 21
2037.5093383791179
 31
0.0
  0
LINE
  5
87
  8
DIMNSIONS
  6
CONTINUOUS
 62
     7
 10
399.99999999991689
 20
2000.000000000213
 30
0.0
 11
410.0505969271702
 21
2037.5093383791179
 31
0.0
  0
TEXT
  5
88
  8
DIMNSIONS
 62
     7
 10
385.09166666658359
 20
2090.4574883749042
 30
0.0
 40
40.721028645833343
  1
260
 50
90.0
 41
0.7
 11
344.37063802075028
 21
2090.4574883749042
 31
0.0
 73
     3
  0
LINE
  5
89
  8
DIMNSIONS
  6
CONTINUOUS
 62
     7
 10
500.67197058651391
 20
1753.0042657749909
 30
0.0
 11
370.0
 21
1753.0042657749909
 31
0.0
  0
LINE
  5
8A
  8
DIMNSIONS
  6
CONTINUOUS
 62
     7
 10
498.9393398490451
 20
1300.000000000211
 30
0.0
 11
370.0
 21
1300.000000000211
 31
0.0
  0
LINE
  5
8B
  8
DIMNSIONS
  6
CONTINUOUS
 62
     7
 10
400.0
 20
1753.0042657749909
 30
0.0
 11
400.0
 21
1300.000000000211
 31
0.0
  0
LINE
  5
8C
  8
DIMNSIONS
  6
CONTINUOUS
 62
     7
 10
400.0
 20
1753.0042657749909
 30
0.0
 11
410.05059692725359
 21
1715.4949273960849
 31
0.0
  0
LINE
  5
8D
  8
DIMNSIONS
  6
CONTINUOUS
 62
     7
 10
400.0
 20
1753.0042657749909
 30
0.0
 11
389.94940307274629
 21
1715.4949273960849
 31
0.0
  0
LINE
  5
8E
  8
DIMNSIONS
  6
CONTINUOUS
 62
     7
 10
400.0
 20
1300.000000000211
 30
0.0
 11
389.94940307274629
 21
1337.509338379117
 31
0.0
  0
LINE
  5
8F
  8
DIMNSIONS
  6
CONTINUOUS
 62
     7
 10
400.0
 20
1300.000000000211
 30
0.0
 11
410.05059692725359
 21
1337.509338379117
 31
0.0
  0
TEXT
  5
90
  8
DIMNSIONS
 62
     7
 10
385.09166666666681
 20
1510.3125
 30
0.0
 40
40.721028645833343
  1
453
 50
90.0
 41
0.7
 11
344.37063802083338
 21
1510.3125
 31
0.0
 73
     3
  0
LINE
  5
91
  8
DIMNSIONS
  6
CONTINUOUS
 62
     7
 10
1049.999999999917
 20
1670.4672883232849
 30
0.0
 11
1049.999999999917
 21
1170.000000000213
 31
0.0
  0
LINE
  5
92
  8
DIMNSIONS
  6
CONTINUOUS
 62
     7
 10
1310.2899767493011
 20
1328.1082641628161
 30
0.0
 11
1310.2899767493011
 21
1170.000000000213
 31
0.0
  0
LINE
  5
93
  8
DIMNSIONS
  6
CONTINUOUS
 62
     7
 10
1049.999999999917
 20
1200.000000000213
 30
0.0
 11
1310.2899767493011
 21
1200.000000000213
 31
0.0
  0
LINE
  5
94
  8
DIMNSIONS
  6
CONTINUOUS
 62
     7
 10
1049.999999999917
 20
1200.000000000213
 30
0.0
 11
1087.5093383788239
 21
1210.050596927467
 31
0.0
  0
LINE
  5
95
  8
DIMNSIONS
  6
CONTINUOUS
 62
     7
 10
1049.999999999917
 20
1200.000000000213
 30
0.0
 11
1087.5093383788239
 21
1189.9494030729591
 31
0.0
  0
LINE
  5
96
  8
DIMNSIONS
  6
CONTINUOUS
 62
     7
 10
1310.2899767493011
 20
1200.000000000213
 30
0.0
 11
1272.7806383703939
 21
1189.9494030729591
 31
0.0
  0
LINE
  5
97
  8
DIMNSIONS
  6
CONTINUOUS
 62
     7
 10
1310.2899767493011
 20
1200.000000000213
 30
0.0
 11
1272.7806383703939
 21
1210.050596927467
 31
0.0
  0
TEXT
  5
98
  8
DIMNSIONS
 62
     7
 10
1140.4574883746079
 20
1214.908333333547
 30
0.0
 40
40.721028645833343
  1
260
 41
0.7
 11
1140.4574883746079
 21
1255.6293619793801
 31
0.0
 73
     3
  0
LINE
  5
99
  8
DIMNSIONS
  6
CONTINUOUS
 62
     7
 10
1049.9999999999179
 20
1655.2672883232849
 30
0.0
 11
1049.9999999999311
 21
1337.055361582753
 31
0.0
  0
ARC
  5
9A
  8
DIMNSIONS
  6
CONTINUOUS
 62
     7
 10
1049.999999999915
 20
1695.4963015695339
 30
0.0
 40
328.44093998678142
 50
270.0000000000025
 51
289.99999999999972
  0
LINE
  5
9B
  8
DIMNSIONS
  6
CONTINUOUS
 62
     7
 10
1162.333417368211
 20
1386.862773899968
 30
0.0
 11
1130.139795465313
 21
1365.147901738459
 31
0.0
  0
LINE
  5
9C
  8
DIMNSIONS
  6
CONTINUOUS
 62
     7
 10
1162.333417368211
 20
1386.862773899968
 30
0.0
 11
1123.595486879716
 21
1384.1539539196181
 31
0.0
  0
LINE
  5
9D
  8
DIMNSIONS
  6
CONTINUOUS
 62
     7
 10
1049.99999999993
 20
1367.055361582753
 30
0.0
 11
1087.509338378836
 21
1377.1059585100061
 31
0.0
  0
LINE
  5
9E
  8
DIMNSIONS
  6
CONTINUOUS
 62
     7
 10
1049.99999999993
 20
1367.055361582753
 30
0.0
 11
1087.509338378836
 21
1357.004764655499
 31
0.0
  0
TEXT
  5
9F
  8
DIMNSIONS
 62
     7
 10
1096.493237714551
 20
1295.747536542588
 30
0.0
 40
40.721028645833343
  1
20\U+00B0
 50
14.189658786104969
 41
0.7
 11
1086.5111938897539
 21
1335.226150690688
 31
0.0
 73
     3
  0
LINE
  5
A0
  8
DIMNSIONS
  6
CONTINUOUS
 62
     7
 10
1286.134449152773
 20
1718.1739150641499
 30
0.0
 11
1443.117341865825
 21
1775.311015300706
 31
0.0
  0
LINE
  5
A1
  8
DIMNSIONS
  6
CONTINUOUS
 62
     7
 10
1329.571007355135
 20
1598.83295222434
 30
0.0
 11
1486.5539000681849
 21
1655.9700524608961
 31
0.0
  0
LINE
  5
A2
  8
DIMNSIONS
  6
CONTINUOUS
 62
     7
 10
1414.926563242248
 20
1765.050411000936
 30
0.0
 11
1458.3631214446079
 21
1645.709448161125
 31
0.0
  0
LINE
  5
A3
  8
DIMNSIONS
  6
CONTINUOUS
 62
     7
 10
1414.926563242248
 20
1765.050411000936
 30
0.0
 11
1437.7517484917939
 21
1733.6342386920551
 31
0.0
  0
LINE
  5
A4
  8
DIMNSIONS
  6
CONTINUOUS
 62
     7
 10
1414.926563242248
 20
1765.050411000936
 30
0.0
 11
1418.9856673600009
 21
1726.4306150670029
 31
0.0
  0
LINE
  5
A5
  8
DIMNSIONS
  6
CONTINUOUS
 62
     7
 10
1458.3631214446079
 20
1645.709448161125
 30
0.0
 11
1436.08970038917
 21
1677.519190044778
 31
0.0
  0
LINE
  5
A6
  8
DIMNSIONS
  6
CONTINUOUS
 62
     7
 10
1458.3631214446079
 20
1645.709448161125
 30
0.0
 11
1454.9786439232371
 21
1684.3942032479131
 31
0.0
  0
TEXT
  5
A7
  8
DIMNSIONS
 62
     7
 10
1437.0801687267401
 20
1747.7729307718851
 30
0.0
 40
40.721028645833343
  1
127
 50
290.00000000000023
 41
0.7
 11
1475.3454188560411
 21
1761.7003428257019
 31
0.0
 73
     3
  0
LINE
  5
A8
  8
DIMNSIONS
  6
CONTINUOUS
 62
     7
 10
1743.5999999999151
 20
1740.5999999999999
 30
0.0
 11
1743.5999999999151
 21
1880.0
 31
0.0
  0
LINE
  5
A9
  8
DIMNSIONS
  6
CONTINUOUS
 62
     7
 10
1813.5999999999151
 20
1740.5999999999999
 30
0.0
 11
1813.5999999999151
 21
1880.0
 31
0.0
  0
LINE
  5
AA
  8
DIMNSIONS
  6
CONTINUOUS
 62
     7
 10
1813.5999999999151
 20
1850.0
 30
0.0
 11
1743.5999999999151
 21
1850.0
 31
0.0
  0
LINE
  5
AB
  8
DIMNSIONS
  6
CONTINUOUS
 62
     7
 10
1743.5999999999151
 20
1850.0
 30
0.0
 11
1668.5999999999151
 21
1850.0
 31
0.0
  0
LINE
  5
AC
  8
DIMNSIONS
  6
CONTINUOUS
 62
     7
 10
1743.5999999999151
 20
1850.0
 30
0.0
 11
1706.0906616210091
 21
1839.9494030727469
 31
0.0
  0
LINE
  5
AD
  8
DIMNSIONS
  6
CONTINUOUS
 62
     7
 10
1743.5999999999151
 20
1850.0
 30
0.0
 11
1706.0906616210091
 21
1860.0505969272531
 31
0.0
  0
LINE
  5
AE
  8
DIMNSIONS
  6
CONTINUOUS
 62
     7
 10
1813.5999999999151
 20
1850.0
 30
0.0
 11
1888.5999999999151
 21
1850.0
 31
0.0
  0
LINE
  5
AF
  8
DIMNSIONS
  6
CONTINUOUS
 62
     7
 10
1813.5999999999151
 20
1850.0
 30
0.0
 11
1851.1093383788209
 21
1860.0505969272531
 31
0.0
  0
LINE
  5
B0
  8
DIMNSIONS
  6
CONTINUOUS
 62
     7
 10
1813.5999999999151
 20
1850.0
 30
0.0
 11
1851.1093383788209
 21
1839.9494030727469
 31
0.0
  0
TEXT
  5
B1
  8
DIMNSIONS
 62
     7
 10
1752.1416666665809
 20
1864.908333333334
 30
0.0
 40
40.721028645833343
  1
70
 41
0.7
 11
1752.1416666665809
 21
1905.629361979167
 31
0.0
 73
     3
  0
LINE
  5
B2
  8
DIMNSIONS
  6
CONTINUOUS
 62
     7
 10
499.99999999979639
 20
1299.8634999999999
 30
0.0
 11
499.99999999979639
 21
1170.0
 31
0.0
  0
LINE
  5
B3
  8
DIMNSIONS
  6
CONTINUOUS
 62
     7
 10
957.199999999797
 20
1299.8634999999999
 30
0.0
 11
957.199999999797
 21
1170.0
 31
0.0
  0
LINE
  5
B4
  8
DIMNSIONS
  6
CONTINUOUS
 62
     7
 10
499.99999999979639
 20
1200.0
 30
0.0
 11
957.199999999797
 21
1200.0
 31
0.0
  0
LINE
  5
B5
  8
DIMNSIONS
  6
CONTINUOUS
 62
     7
 10
499.99999999979639
 20
1200.0
 30
0.0
 11
537.50933837870241
 21
1210.0505969272531
 31
0.0
  0
LINE
  5
B6
  8
DIMNSIONS
  6
CONTINUOUS
 62
     7
 10
499.99999999979639
 20
1200.0
 30
0.0
 11
537.50933837870241
 21
1189.949403072746
 31
0.0
  0
LINE
  5
B7
  8
DIMNSIONS
  6
CONTINUOUS
 62
     7
 10
957.199999999797
 20
1200.0
 30
0.0
 11
919.69066162089075
 21
1189.949403072746
 31
0.0
  0
LINE
  5
B8
  8
DIMNSIONS
  6
CONTINUOUS
 62
     7
 10
957.199999999797
 20
1200.0
 30
0.0
 11
919.69066162089075
 21
1210.0505969272531
 31
0.0
  0
TEXT
  5
B9
  8
DIMNSIONS
 62
     7
 10
688.91249999979675
 20
1214.9083333333331
 30
0.0
 40
40.721028645833343
  1
457
 41
0.7
 11
688.91249999979675
 21
1255.629361979167
 31
0.0
 73
     3
  0
TEXT
  5
BA
  8
DATA
 62
     7
 10
287.38113357727252
 20
214.38294687050421
 30
0.0
 40
24.4326171875
  1
仕様および外観は予告なく変更されることがありますので、ご了承ください。
 41
0.7
 11
287.38113357727252
 21
238.81556405800421
 31
0.0
 73
     3
  0
TEXT
  5
BB
  8
DATA
 62
     7
 10
2267.0523607047289
 20
431.304506640809
 30
0.0
 40
36.64892578125
  1
JBL
 41
0.7
 11
2267.0523607047289
 21
467.953432422059
 31
0.0
 73
     3
  0
TEXT
  5
BC
  8
DATA
 62
     7
 10
2229.5523607047289
 20
379.1501816408088
 30
0.0
 40
24.4326171875
  1
2ウェイ・サラウンド・システム
 41
0.7
 11
2229.5523607047289
 21
403.58279882830868
 31
0.0
 73
     3
  0
TEXT
  5
BD
  8
DATA
 62
     7
 10
2267.0523607047289
 20
322.554506640809
 30
0.0
 40
36.64892578125
  1
8350
 41
0.7
 11
2267.0523607047289
 21
359.203432422059
 31
0.0
 73
     3
  0
TEXT
  5
BE
  8
DATA
 62
     7
 10
2112.4999999999168
 20
1264.8945312502119
 30
0.0
 40
31.412506103515629
  1
グリル取付ビス(4ヶ所)
 41
0.7
 11
2112.4999999999168
 21
1296.3070373537271
 31
0.0
 73
     3
  0
LINE
  5
BF
  8
DATA
  6
CONTINUOUS
 62
     7
 10
1699.999999999915
 20
1250.000000000211
 30
0.0
 11
2549.9999999999141
 21
1250.000000000211
 31
0.0
  0
LINE
  5
C0
  8
DATA
  6
CONTINUOUS
 62
     7
 10
1603.1307758237449
 20
1745.0787041199831
 30
0.0
 11
1699.999999999915
 21
1250.000000000211
 31
0.0
  0
LINE
  5
C1
  8
DATA
  6
CONTINUOUS
 62
     7
 10
1603.1307758237449
 20
1745.0787041199831
 30
0.0
 11
1625.5147901669179
 21
1701.1476024146939
 31
0.0
  0
LINE
  5
C2
  8
DATA
  6
CONTINUOUS
 62
     7
 10
1603.1307758237449
 20
1745.0787041199831
 30
0.0
 11
1600.550350030963
 21
1695.841246855377
 31
0.0
  0
LINE
  5
C3
  8
DATA
  6
CONTINUOUS
 62
     7
 10
1955.979806158872
 20
1745.163427696272
 30
0.0
 11
2099.9999999999168
 21
1250.000000000211
 31
0.0
  0
LINE
  5
C4
  8
DATA
  6
CONTINUOUS
 62
     7
 10
1955.979806158872
 20
1745.163427696272
 30
0.0
 11
1982.107490368398
 21
1703.3503924918871
 31
0.0
  0
LINE
  5
C5
  8
DATA
  6
CONTINUOUS
 62
     7
 10
1955.979806158872
 20
1745.163427696272
 30
0.0
 11
1957.700526824186
 21
1695.888434895179
 31
0.0
  0
LINE
  5
C6
  8
DATA
  6
CONTINUOUS
 62
     7
 10
1605.566270646314
 20
1320.6047902144869
 30
0.0
 11
1699.999999999915
 21
1250.000000000211
 31
0.0
  0
LINE
  5
C7
  8
DATA
  6
CONTINUOUS
 62
     7
 10
1605.566270646314
 20
1320.6047902144869
 30
0.0
 11
1651.5964798009279
 21
1302.935448394873
 31
0.0
  0
LINE
  5
C8
  8
DATA
  6
CONTINUOUS
 62
     7
 10
1605.566270646314
 20
1320.6047902144869
 30
0.0
 11
1636.5949302059139
 21
1282.287586753243
 31
0.0
  0
LINE
  5
C9
  8
DATA
  6
CONTINUOUS
 62
     7
 10
1958.436134201477
 20
1321.2026545503879
 30
0.0
 11
2099.9999999999168
 21
1250.000000000211
 31
0.0
  0
LINE
  5
CA
  8
DATA
  6
CONTINUOUS
 62
     7
 10
1958.436134201477
 20
1321.2026545503879
 30
0.0
 11
2006.835290057265
 21
1311.7948116731361
 31
0.0
  0
LINE
  5
CB
  8
DATA
  6
CONTINUOUS
 62
     7
 10
1958.436134201477
 20
1321.2026545503879
 30
0.0
 11
1995.6471112556851
 21
1288.8556456959809
 31
0.0
  0
TEXT
  5
CC
  8
DATA
 62
     7
 10
1360.7284106653201
 20
1937.3932840359359
 30
0.0
 40
31.412506103515629
  1
（長さ1インチ）
 41
0.7
 11
1360.7284106653201
 21
1968.805790139452
 31
0.0
 73
     3
  0
TEXT
  5
CD
  8
DATA
 62
     7
 10
1368.999999999915
 20
1985.3046875002119
 30
0.0
 40
31.412506103515629
  1
4ヶ所-1/4インチネジ
 41
0.7
 11
1368.999999999915
 21
2016.717193603728
 31
0.0
 73
     3
  0
LINE
  5
CE
  8
DATA
  6
CONTINUOUS
 62
     7
 10
1299.999999999915
 20
2000.0000000002119
 30
0.0
 11
1349.999999999915
 21
2000.0000000002119
 31
0.0
  0
LINE
  5
CF
  8
DATA
  6
CONTINUOUS
 62
     7
 10
1258.652997950544
 20
1712.8396821499141
 30
0.0
 11
1299.999999999915
 21
2000.0000000002119
 31
0.0
  0
LINE
  5
D0
  8
DATA
  6
CONTINUOUS
 62
     7
 10
1258.652997950544
 20
1712.8396821499141
 30
0.0
 11
1253.4992191327151
 21
1761.874612139186
 31
0.0
  0
LINE
  5
D1
  8
DATA
  6
CONTINUOUS
 62
     7
 10
1258.652997950544
 20
1712.8396821499141
 30
0.0
 11
1278.7071595634541
 21
1757.8820666023289
 31
0.0
  0
TEXT
  5
D2
  8
DATA
 62
     7
 10
2244.7313005950591
 20
1966.3330078127119
 30
0.0
 40
30.99918365478516
  1
コネクターパネル拡大図
 41
0.7
 11
2244.7313005950591
 21
1997.3321914674971
 31
0.0
 73
     3
  0
LINE
  5
D3
  8
DATA
  6
CONTINUOUS
 62
     7
 10
2187.4999999999168
 20
1950.0000000002119
 30
0.0
 11
2712.4999999999131
 21
1950.0000000002119
 31
0.0
  0
LINE
  5
D4
  8
DATA
  6
CONTINUOUS
 62
     7
 10
1895.3999999999151
 20
1491.2176053529679
 30
0.0
 11
1895.3999999999151
 21
1534.2176053529679
 31
0.0
  0
LINE
  5
D5
  8
DATA
  6
CONTINUOUS
 62
     7
 10
1778.5999999999151
 20
1491.2176053529679
 30
0.0
 11
1778.5999999999151
 21
1534.2176053529679
 31
0.0
  0
LINE
  5
D6
  8
DATA
  6
CONTINUOUS
 62
     7
 10
1720.199999999915
 20
1491.2176053529679
 30
0.0
 11
1720.199999999915
 21
1534.2176053529679
 31
0.0
  0
LINE
  5
D7
  8
DATA
  6
CONTINUOUS
 62
     7
 10
1836.999999999915
 20
1491.2176053529679
 30
0.0
 11
1836.999999999915
 21
1534.2176053529679
 31
0.0
  0
LINE
  5
D8
  8
DATA
  6
CONTINUOUS
 62
     7
 10
1661.7999999999149
 20
1491.2176053529679
 30
0.0
 11
1661.7999999999149
 21
1534.2176053529679
 31
0.0
  0
LINE
  5
D9
  8
DATA
  6
CONTINUOUS
 62
     7
 10
1975.524005974235
 20
1307.533854166267
 30
0.0
 11
1975.524005974235
 21
1753.0042657749909
 31
0.0
  0
LINE
  5
DA
  8
DATA
  6
CONTINUOUS
 62
     7
 10
1549.999999999915
 20
1330.000000000211
 30
0.0
 11
1549.999999999915
 21
1723.0042657749921
 31
0.0
  0
LINE
  5
DB
  8
DATA
  6
CONTINUOUS
 62
     7
 10
1778.5999999999151
 20
1491.2176053529679
 30
0.0
 11
1800.0999999999151
 21
1512.7176053529679
 31
0.0
  0
LINE
  5
DC
  8
DATA
  6
CONTINUOUS
 62
     7
 10
1757.0999999999169
 20
1512.7176053529679
 30
0.0
 11
1778.5999999999151
 21
1491.2176053529679
 31
0.0
  0
LINE
  5
DD
  8
DATA
  6
CONTINUOUS
 62
     7
 10
1720.199999999915
 20
1491.2176053529679
 30
0.0
 11
1741.699999999915
 21
1512.7176053529679
 31
0.0
  0
LINE
  5
DE
  8
DATA
  6
CONTINUOUS
 62
     7
 10
1698.6999999999159
 20
1512.7176053529679
 30
0.0
 11
1720.199999999915
 21
1491.2176053529679
 31
0.0
  0
LINE
  5
DF
  8
DATA
  6
CONTINUOUS
 62
     7
 10
1815.4999999999161
 20
1512.7176053529679
 30
0.0
 11
1836.999999999915
 21
1491.2176053529679
 31
0.0
  0
LINE
  5
E0
  8
DATA
  6
CONTINUOUS
 62
     7
 10
1836.999999999915
 20
1491.2176053529679
 30
0.0
 11
1858.4999999999141
 21
1512.7176053529679
 31
0.0
  0
LINE
  5
E1
  8
DATA
  6
CONTINUOUS
 62
     7
 10
1661.7999999999149
 20
1491.2176053529679
 30
0.0
 11
1683.2999999999161
 21
1512.7176053529679
 31
0.0
  0
LINE
  5
E2
  8
DATA
  6
CONTINUOUS
 62
     7
 10
1640.2999999999161
 20
1512.7176053529679
 30
0.0
 11
1661.7999999999149
 21
1491.2176053529679
 31
0.0
  0
LINE
  5
E3
  8
DATA
  6
CONTINUOUS
 62
     7
 10
1895.3999999999151
 20
1491.2176053529679
 30
0.0
 11
1916.8999999999139
 21
1512.7176053529679
 31
0.0
  0
LINE
  5
E4
  8
DATA
  6
CONTINUOUS
 62
     7
 10
1873.8999999999151
 20
1512.7176053529679
 30
0.0
 11
1895.3999999999151
 21
1491.2176053529679
 31
0.0
  0
LINE
  5
E5
  8
DATA
  6
CONTINUOUS
 62
     7
 10
1581.6759940255961
 20
1753.0042657749909
 30
0.0
 11
1581.6759940255961
 21
1307.5338541662679
 31
0.0
  0
LINE
  5
E6
  8
DATA
  6
CONTINUOUS
 62
     7
 10
2007.199999999915
 20
1330.000000000211
 30
0.0
 11
2007.199999999915
 21
1723.0042657749921
 31
0.0
  0
LINE
  5
E7
  8
DATA
  6
CONTINUOUS
 62
     7
 10
1844.6999999999159
 20
1483.5176053529681
 30
0.0
 11
1887.699999999915
 21
1483.5176053529681
 31
0.0
  0
LINE
  5
E8
  8
DATA
  6
CONTINUOUS
 62
     7
 10
1844.6999999999159
 20
1425.117605352968
 30
0.0
 11
1887.699999999915
 21
1425.117605352968
 31
0.0
  0
LINE
  5
E9
  8
DATA
  6
CONTINUOUS
 62
     7
 10
1579.999999999915
 20
1300.000000000211
 30
0.0
 11
1977.199999999915
 21
1300.000000000211
 31
0.0
  0
LINE
  5
EA
  8
DATA
  6
CONTINUOUS
 62
     7
 10
1887.699999999915
 20
1483.5176053529681
 30
0.0
 11
1866.199999999915
 21
1505.0176053529681
 31
0.0
  0
LINE
  5
EB
  8
DATA
  6
CONTINUOUS
 62
     7
 10
1866.199999999915
 20
1462.0176053529681
 30
0.0
 11
1887.699999999915
 21
1483.5176053529681
 31
0.0
  0
LINE
  5
EC
  8
DATA
  6
CONTINUOUS
 62
     7
 10
1887.699999999915
 20
1425.117605352968
 30
0.0
 11
1866.199999999915
 21
1446.617605352968
 31
0.0
  0
LINE
  5
ED
  8
DATA
  6
CONTINUOUS
 62
     7
 10
1866.199999999915
 20
1403.617605352968
 30
0.0
 11
1887.699999999915
 21
1425.117605352968
 31
0.0
  0
LINE
  5
EE
  8
DATA
  6
CONTINUOUS
 62
     7
 10
1866.199999999915
 20
1505.0176053529681
 30
0.0
 11
1844.6999999999159
 21
1483.5176053529681
 31
0.0
  0
LINE
  5
EF
  8
DATA
  6
CONTINUOUS
 62
     7
 10
1844.6999999999159
 20
1483.5176053529681
 30
0.0
 11
1866.199999999915
 21
1462.0176053529681
 31
0.0
  0
LINE
  5
F0
  8
DATA
  6
CONTINUOUS
 62
     7
 10
1866.199999999915
 20
1446.617605352968
 30
0.0
 11
1844.6999999999159
 21
1425.117605352968
 31
0.0
  0
LINE
  5
F1
  8
DATA
  6
CONTINUOUS
 62
     7
 10
1844.6999999999159
 20
1425.117605352968
 30
0.0
 11
1866.199999999915
 21
1403.617605352968
 31
0.0
  0
ARC
  5
F2
  8
DATA
  6
CONTINUOUS
 62
     7
 10
1837.3626835814171
 20
1331.0000000002119
 30
0.0
 40
6.9999999999990896
 50
0.0
 51
180.00000000000369
  0
LINE
  5
F3
  8
DATA
  6
CONTINUOUS
 62
     7
 10
1844.3626835814171
 20
1331.0000000002119
 30
0.0
 11
1844.3626835814171
 21
1308.000000000211
 31
0.0
  0
LINE
  5
F4
  8
DATA
  6
CONTINUOUS
 62
     7
 10
1830.362683581418
 20
1308.000000000211
 30
0.0
 11
1830.362683581418
 21
1331.0000000002119
 31
0.0
  0
ARC
  5
F5
  8
DATA
  6
CONTINUOUS
 62
     7
 10
1837.3626835814171
 20
1323.0000000002119
 30
0.0
 40
6.9999999999990896
 50
0.0
 51
180.0
  0
LINE
  5
F6
  8
DATA
  6
CONTINUOUS
 62
     7
 10
1837.3626835814171
 20
1320.500000000211
 30
0.0
 11
1837.3626835814171
 21
1325.500000000211
 31
0.0
  0
LINE
  5
F7
  8
DATA
  6
CONTINUOUS
 62
     7
 10
1834.862683581418
 20
1323.000000000211
 30
0.0
 11
1839.8626835814171
 21
1323.000000000211
 31
0.0
  0
CIRCLE
  5
F8
  8
DATA
  6
CONTINUOUS
 62
     7
 10
1837.3626835814171
 20
1323.000000000211
 30
0.0
 40
4.0
  0
LINE
  5
F9
  8
DATA
  6
CONTINUOUS
 62
     7
 10
1830.362683581418
 20
1308.000000000211
 30
0.0
 11
1844.3626835814171
 21
1308.000000000211
 31
0.0
  0
LINE
  5
FA
  8
DATA
  6
CONTINUOUS
 62
     7
 10
1833.099999999916
 20
1363.8487203628611
 30
0.0
 11
1833.0999999999169
 21
1452.3487203628631
 31
0.0
  0
LINE
  5
FB
  8
DATA
  6
CONTINUOUS
 62
     7
 10
1568.2164718635049
 20
1349.028893559374
 30
0.0
 11
1568.2164718635049
 21
1354.0288935593751
 31
0.0
  0
LINE
  5
FC
  8
DATA
  6
CONTINUOUS
 62
     7
 10
1565.7164718635061
 20
1351.528893559374
 30
0.0
 11
1570.7164718635049
 21
1351.528893559374
 31
0.0
  0
CIRCLE
  5
FD
  8
DATA
  6
CONTINUOUS
 62
     7
 10
1568.2164718635049
 20
1351.528893559374
 30
0.0
 40
4.0
  0
LINE
  5
FE
  8
DATA
  6
CONTINUOUS
 62
     7
 10
1570.1346882808309
 20
1466.0057531734601
 30
0.0
 11
1570.1346882808309
 21
1471.005753173459
 31
0.0
  0
LINE
  5
FF
  8
DATA
  6
CONTINUOUS
 62
     7
 10
1567.6346882808309
 20
1468.5057531734601
 30
0.0
 11
1572.6346882808321
 21
1468.5057531734601
 31
0.0
  0
CIRCLE
  5
100
  8
DATA
  6
CONTINUOUS
 62
     7
 10
1570.1346882808321
 20
1468.5057531734601
 30
0.0
 40
4.0
  0
ARC
  5
101
  8
DATA
  6
CONTINUOUS
 62
     7
 10
1719.862683581418
 20
1331.0000000002119
 30
0.0
 40
6.9999999999991473
 50
0.0
 51
180.00000000000369
  0
LINE
  5
102
  8
DATA
  6
CONTINUOUS
 62
     7
 10
1726.86268358142
 20
1331.0000000002119
 30
0.0
 11
1726.86268358142
 21
1308.000000000211
 31
0.0
  0
LINE
  5
103
  8
DATA
  6
CONTINUOUS
 62
     7
 10
1712.86268358142
 20
1308.000000000211
 30
0.0
 11
1712.8626835814209
 21
1331.0000000002119
 31
0.0
  0
LINE
  5
104
  8
DATA
  6
CONTINUOUS
 62
     7
 10
1609.3626835814171
 20
1331.0000000002119
 30
0.0
 11
1609.3626835814171
 21
1308.000000000211
 31
0.0
  0
LINE
  5
105
  8
DATA
  6
CONTINUOUS
 62
     7
 10
1595.3626835814171
 20
1308.000000000211
 30
0.0
 11
1595.362683581418
 21
1331.0000000002119
 31
0.0
  0
ARC
  5
106
  8
DATA
  6
CONTINUOUS
 62
     7
 10
1602.3626835814171
 20
1331.0000000002119
 30
0.0
 40
6.9999999999991473
 50
0.0
 51
180.00000000000369
  0
ARC
  5
107
  8
DATA
  6
CONTINUOUS
 62
     7
 10
1719.86268358142
 20
1323.0000000002119
 30
0.0
 40
6.999999999998237
 50
0.0
 51
180.0
  0
LINE
  5
108
  8
DATA
  6
CONTINUOUS
 62
     7
 10
1719.862683581418
 20
1320.500000000211
 30
0.0
 11
1719.862683581418
 21
1325.500000000211
 31
0.0
  0
LINE
  5
109
  8
DATA
  6
CONTINUOUS
 62
     7
 10
1717.362683581418
 20
1323.000000000211
 30
0.0
 11
1722.362683581418
 21
1323.000000000211
 31
0.0
  0
CIRCLE
  5
10A
  8
DATA
  6
CONTINUOUS
 62
     7
 10
1719.86268358142
 20
1323.000000000211
 30
0.0
 40
4.000000000000056
  0
ARC
  5
10B
  8
DATA
  6
CONTINUOUS
 62
     7
 10
1602.362683581418
 20
1323.0000000002119
 30
0.0
 40
6.9999999999991473
 50
0.0
 51
180.0
  0
LINE
  5
10C
  8
DATA
  6
CONTINUOUS
 62
     7
 10
1602.3626835814171
 20
1320.500000000211
 30
0.0
 11
1602.3626835814171
 21
1325.500000000211
 31
0.0
  0
LINE
  5
10D
  8
DATA
  6
CONTINUOUS
 62
     7
 10
1599.8626835814171
 20
1323.000000000211
 30
0.0
 11
1604.8626835814171
 21
1323.000000000211
 31
0.0
  0
CIRCLE
  5
10E
  8
DATA
  6
CONTINUOUS
 62
     7
 10
1602.362683581418
 20
1323.000000000211
 30
0.0
 40
4.000000000000056
  0
LINE
  5
10F
  8
DATA
  6
CONTINUOUS
 62
     7
 10
1712.8626835814191
 20
1308.000000000211
 30
0.0
 11
1726.862683581418
 21
1308.000000000211
 31
0.0
  0
LINE
  5
110
  8
DATA
  6
CONTINUOUS
 62
     7
 10
1595.3626835814171
 20
1308.000000000211
 30
0.0
 11
1609.3626835814171
 21
1308.000000000211
 31
0.0
  0
CIRCLE
  5
111
  8
DATA
  6
CONTINUOUS
 62
     7
 10
1568.2164718635049
 20
1351.528893559374
 30
0.0
 40
6.0
  0
CIRCLE
  5
112
  8
DATA
  6
CONTINUOUS
 62
     7
 10
1570.1346882808321
 20
1468.5057531734601
 30
0.0
 40
6.0000000000000284
  0
LINE
  5
113
  8
DATA
  6
CONTINUOUS
 62
     7
 10
1727.899999999916
 20
1483.5176053529681
 30
0.0
 11
1770.899999999916
 21
1483.5176053529681
 31
0.0
  0
LINE
  5
114
  8
DATA
  6
CONTINUOUS
 62
     7
 10
1770.899999999916
 20
1483.5176053529681
 30
0.0
 11
1749.399999999916
 21
1505.0176053529681
 31
0.0
  0
LINE
  5
115
  8
DATA
  6
CONTINUOUS
 62
     7
 10
1749.399999999916
 20
1462.0176053529681
 30
0.0
 11
1749.399999999916
 21
1505.0176053529681
 31
0.0
  0
LINE
  5
116
  8
DATA
  6
CONTINUOUS
 62
     7
 10
1749.399999999916
 20
1505.0176053529681
 30
0.0
 11
1727.899999999916
 21
1483.5176053529681
 31
0.0
  0
LINE
  5
117
  8
DATA
  6
CONTINUOUS
 62
     7
 10
1749.399999999916
 20
1462.0176053529681
 30
0.0
 11
1770.899999999916
 21
1483.5176053529681
 31
0.0
  0
LINE
  5
118
  8
DATA
  6
CONTINUOUS
 62
     7
 10
1727.899999999916
 20
1483.5176053529681
 30
0.0
 11
1749.399999999916
 21
1462.0176053529681
 31
0.0
  0
LINE
  5
119
  8
DATA
  6
CONTINUOUS
 62
     7
 10
1807.7999999999149
 20
1462.0176053529681
 30
0.0
 11
1807.7999999999149
 21
1505.0176053529681
 31
0.0
  0
LINE
  5
11A
  8
DATA
  6
CONTINUOUS
 62
     7
 10
1807.7999999999149
 20
1505.0176053529681
 30
0.0
 11
1786.2999999999161
 21
1483.5176053529681
 31
0.0
  0
LINE
  5
11B
  8
DATA
  6
CONTINUOUS
 62
     7
 10
1786.2999999999161
 20
1483.5176053529681
 30
0.0
 11
1807.7999999999149
 21
1462.0176053529681
 31
0.0
  0
LINE
  5
11C
  8
DATA
  6
CONTINUOUS
 62
     7
 10
1632.599999999916
 20
1462.0176053529681
 30
0.0
 11
1632.599999999916
 21
1505.0176053529681
 31
0.0
  0
LINE
  5
11D
  8
DATA
  6
CONTINUOUS
 62
     7
 10
1632.599999999916
 20
1505.0176053529681
 30
0.0
 11
1611.099999999916
 21
1483.5176053529681
 31
0.0
  0
LINE
  5
11E
  8
DATA
  6
CONTINUOUS
 62
     7
 10
1654.099999999916
 20
1483.5176053529681
 30
0.0
 11
1632.599999999916
 21
1505.0176053529681
 31
0.0
  0
LINE
  5
11F
  8
DATA
  6
CONTINUOUS
 62
     7
 10
1669.499999999915
 20
1483.5176053529681
 30
0.0
 11
1712.499999999915
 21
1483.5176053529681
 31
0.0
  0
LINE
  5
120
  8
DATA
  6
CONTINUOUS
 62
     7
 10
1611.099999999916
 20
1483.5176053529681
 30
0.0
 11
1654.099999999916
 21
1483.5176053529681
 31
0.0
  0
LINE
  5
121
  8
DATA
  6
CONTINUOUS
 62
     7
 10
1611.099999999916
 20
1483.5176053529681
 30
0.0
 11
1632.599999999916
 21
1462.0176053529681
 31
0.0
  0
LINE
  5
122
  8
DATA
  6
CONTINUOUS
 62
     7
 10
1632.599999999916
 20
1462.0176053529681
 30
0.0
 11
1654.099999999916
 21
1483.5176053529681
 31
0.0
  0
LINE
  5
123
  8
DATA
  6
CONTINUOUS
 62
     7
 10
1712.499999999915
 20
1483.5176053529681
 30
0.0
 11
1690.999999999915
 21
1505.0176053529681
 31
0.0
  0
LINE
  5
124
  8
DATA
  6
CONTINUOUS
 62
     7
 10
1690.999999999915
 20
1462.0176053529681
 30
0.0
 11
1690.999999999915
 21
1505.0176053529681
 31
0.0
  0
LINE
  5
125
  8
DATA
  6
CONTINUOUS
 62
     7
 10
1690.999999999915
 20
1505.0176053529681
 30
0.0
 11
1669.499999999915
 21
1483.5176053529681
 31
0.0
  0
LINE
  5
126
  8
DATA
  6
CONTINUOUS
 62
     7
 10
1690.999999999915
 20
1462.0176053529681
 30
0.0
 11
1712.499999999915
 21
1483.5176053529681
 31
0.0
  0
LINE
  5
127
  8
DATA
  6
CONTINUOUS
 62
     7
 10
1669.499999999915
 20
1483.5176053529681
 30
0.0
 11
1690.999999999915
 21
1462.0176053529681
 31
0.0
  0
LINE
  5
128
  8
DATA
  6
CONTINUOUS
 62
     7
 10
1632.599999999916
 20
1403.617605352968
 30
0.0
 11
1632.599999999916
 21
1446.617605352968
 31
0.0
  0
LINE
  5
129
  8
DATA
  6
CONTINUOUS
 62
     7
 10
1632.599999999916
 20
1446.617605352968
 30
0.0
 11
1611.099999999916
 21
1425.117605352968
 31
0.0
  0
LINE
  5
12A
  8
DATA
  6
CONTINUOUS
 62
     7
 10
1654.099999999916
 20
1425.117605352968
 30
0.0
 11
1632.599999999916
 21
1446.617605352968
 31
0.0
  0
LINE
  5
12B
  8
DATA
  6
CONTINUOUS
 62
     7
 10
1669.499999999915
 20
1425.117605352968
 30
0.0
 11
1712.499999999915
 21
1425.117605352968
 31
0.0
  0
LINE
  5
12C
  8
DATA
  6
CONTINUOUS
 62
     7
 10
1611.099999999916
 20
1425.117605352968
 30
0.0
 11
1654.099999999916
 21
1425.117605352968
 31
0.0
  0
LINE
  5
12D
  8
DATA
  6
CONTINUOUS
 62
     7
 10
1611.099999999916
 20
1425.117605352968
 30
0.0
 11
1632.599999999916
 21
1403.617605352968
 31
0.0
  0
LINE
  5
12E
  8
DATA
  6
CONTINUOUS
 62
     7
 10
1632.599999999916
 20
1403.617605352968
 30
0.0
 11
1654.099999999916
 21
1425.117605352968
 31
0.0
  0
LINE
  5
12F
  8
DATA
  6
CONTINUOUS
 62
     7
 10
1640.2999999999161
 20
1454.317605352968
 30
0.0
 11
1683.2999999999161
 21
1454.317605352968
 31
0.0
  0
LINE
  5
130
  8
DATA
  6
CONTINUOUS
 62
     7
 10
1683.2999999999161
 20
1454.317605352968
 30
0.0
 11
1661.7999999999149
 21
1475.817605352968
 31
0.0
  0
LINE
  5
131
  8
DATA
  6
CONTINUOUS
 62
     7
 10
1661.7999999999149
 20
1432.817605352968
 30
0.0
 11
1661.7999999999149
 21
1475.817605352968
 31
0.0
  0
LINE
  5
132
  8
DATA
  6
CONTINUOUS
 62
     7
 10
1661.7999999999149
 20
1475.817605352968
 30
0.0
 11
1640.2999999999161
 21
1454.317605352968
 31
0.0
  0
LINE
  5
133
  8
DATA
  6
CONTINUOUS
 62
     7
 10
1661.7999999999149
 20
1432.817605352968
 30
0.0
 11
1683.2999999999161
 21
1454.317605352968
 31
0.0
  0
LINE
  5
134
  8
DATA
  6
CONTINUOUS
 62
     7
 10
1640.2999999999161
 20
1454.317605352968
 30
0.0
 11
1661.7999999999149
 21
1432.817605352968
 31
0.0
  0
LINE
  5
135
  8
DATA
  6
CONTINUOUS
 62
     7
 10
1712.499999999915
 20
1425.117605352968
 30
0.0
 11
1690.999999999915
 21
1446.617605352968
 31
0.0
  0
LINE
  5
136
  8
DATA
  6
CONTINUOUS
 62
     7
 10
1690.999999999915
 20
1403.617605352968
 30
0.0
 11
1690.999999999915
 21
1446.617605352968
 31
0.0
  0
LINE
  5
137
  8
DATA
  6
CONTINUOUS
 62
     7
 10
1690.999999999915
 20
1446.617605352968
 30
0.0
 11
1669.499999999915
 21
1425.117605352968
 31
0.0
  0
LINE
  5
138
  8
DATA
  6
CONTINUOUS
 62
     7
 10
1690.999999999915
 20
1403.617605352968
 30
0.0
 11
1712.499999999915
 21
1425.117605352968
 31
0.0
  0
LINE
  5
139
  8
DATA
  6
CONTINUOUS
 62
     7
 10
1669.499999999915
 20
1425.117605352968
 30
0.0
 11
1690.999999999915
 21
1403.617605352968
 31
0.0
  0
LINE
  5
13A
  8
DATA
  6
CONTINUOUS
 62
     7
 10
1724.099999999916
 20
1452.3487203628631
 30
0.0
 11
1724.0999999999169
 21
1363.8487203628611
 31
0.0
  0
ARC
  5
13B
  8
DATA
  6
CONTINUOUS
 62
     7
 10
1579.999999999915
 20
1337.5338541662679
 30
0.0
 40
29.999999999999918
 50
180.0
 51
270.0
  0
ARC
  5
13C
  8
DATA
  6
CONTINUOUS
 62
     7
 10
1579.999999999915
 20
1330.000000000211
 30
0.0
 40
29.999999999999918
 50
180.0
 51
270.0
  0
LINE
  5
13D
  8
DATA
  6
CONTINUOUS
 62
     7
 10
1786.2999999999161
 20
1483.5176053529681
 30
0.0
 11
1829.2999999999149
 21
1483.5176053529681
 31
0.0
  0
LINE
  5
13E
  8
DATA
  6
CONTINUOUS
 62
     7
 10
1829.2999999999149
 20
1483.5176053529681
 30
0.0
 11
1807.7999999999149
 21
1505.0176053529681
 31
0.0
  0
LINE
  5
13F
  8
DATA
  6
CONTINUOUS
 62
     7
 10
1807.7999999999149
 20
1462.0176053529681
 30
0.0
 11
1829.2999999999149
 21
1483.5176053529681
 31
0.0
  0
LINE
  5
140
  8
DATA
  6
CONTINUOUS
 62
     7
 10
1724.0999999999169
 20
1363.8487203628611
 30
0.0
 11
1833.0999999999169
 21
1363.8487203628611
 31
0.0
  0
LINE
  5
141
  8
DATA
  6
CONTINUOUS
 62
     7
 10
1724.0999999999169
 20
1452.3487203628631
 30
0.0
 11
1833.099999999916
 21
1452.3487203628631
 31
0.0
  0
LINE
  5
142
  8
DATA
  6
CONTINUOUS
 62
     7
 10
1866.199999999915
 20
1462.0176053529681
 30
0.0
 11
1866.199999999915
 21
1505.0176053529681
 31
0.0
  0
LINE
  5
143
  8
DATA
  6
CONTINUOUS
 62
     7
 10
1866.199999999915
 20
1403.617605352968
 30
0.0
 11
1866.199999999915
 21
1446.617605352968
 31
0.0
  0
LINE
  5
144
  8
DATA
  6
CONTINUOUS
 62
     7
 10
1987.0653117189991
 20
1466.014209372267
 30
0.0
 11
1987.0653117189991
 21
1471.0142093722659
 31
0.0
  0
LINE
  5
145
  8
DATA
  6
CONTINUOUS
 62
     7
 10
1984.5653117189979
 20
1468.514209372267
 30
0.0
 11
1989.5653117189991
 21
1468.514209372267
 31
0.0
  0
CIRCLE
  5
146
  8
DATA
  6
CONTINUOUS
 62
     7
 10
1987.0653117189991
 20
1468.514209372267
 30
0.0
 40
4.0
  0
LINE
  5
147
  8
DATA
  6
CONTINUOUS
 62
     7
 10
1988.9835281363239
 20
1349.028893559374
 30
0.0
 11
1988.9835281363239
 21
1354.0288935593751
 31
0.0
  0
LINE
  5
148
  8
DATA
  6
CONTINUOUS
 62
     7
 10
1986.483528136325
 20
1351.528893559374
 30
0.0
 11
1991.4835281363239
 21
1351.528893559374
 31
0.0
  0
CIRCLE
  5
149
  8
DATA
  6
CONTINUOUS
 62
     7
 10
1988.9835281363239
 20
1351.528893559374
 30
0.0
 40
4.0
  0
ARC
  5
14A
  8
DATA
  6
CONTINUOUS
 62
     7
 10
1954.8626835814159
 20
1331.0000000002119
 30
0.0
 40
6.9999999999990896
 50
0.0
 51
180.0
  0
LINE
  5
14B
  8
DATA
  6
CONTINUOUS
 62
     7
 10
1961.862683581418
 20
1331.0000000002119
 30
0.0
 11
1961.862683581418
 21
1308.000000000211
 31
0.0
  0
LINE
  5
14C
  8
DATA
  6
CONTINUOUS
 62
     7
 10
1947.862683581418
 20
1308.000000000211
 30
0.0
 11
1947.862683581418
 21
1331.0000000002119
 31
0.0
  0
ARC
  5
14D
  8
DATA
  6
CONTINUOUS
 62
     7
 10
1954.8626835814159
 20
1323.0000000002119
 30
0.0
 40
6.9999999999990896
 50
0.0
 51
180.0
  0
LINE
  5
14E
  8
DATA
  6
CONTINUOUS
 62
     7
 10
1954.8626835814159
 20
1320.5000000002119
 30
0.0
 11
1954.8626835814159
 21
1325.500000000211
 31
0.0
  0
LINE
  5
14F
  8
DATA
  6
CONTINUOUS
 62
     7
 10
1952.362683581418
 20
1323.0000000002119
 30
0.0
 11
1957.3626835814171
 21
1323.0000000002119
 31
0.0
  0
CIRCLE
  5
150
  8
DATA
  6
CONTINUOUS
 62
     7
 10
1954.8626835814159
 20
1323.0000000002119
 30
0.0
 40
4.0
  0
LINE
  5
151
  8
DATA
  6
CONTINUOUS
 62
     7
 10
1947.8626835814159
 20
1308.000000000211
 30
0.0
 11
1961.862683581418
 21
1308.000000000211
 31
0.0
  0
CIRCLE
  5
152
  8
DATA
  6
CONTINUOUS
 62
     7
 10
1988.9835281363239
 20
1351.528893559374
 30
0.0
 40
6.0
  0
CIRCLE
  5
153
  8
DATA
  6
CONTINUOUS
 62
     7
 10
1987.0653117189991
 20
1468.514209372267
 30
0.0
 40
6.0
  0
ARC
  5
154
  8
DATA
  6
CONTINUOUS
 62
     7
 10
1977.199999999915
 20
1337.5338541662679
 30
0.0
 40
30.000000000000341
 50
270.0
 51
0.0
  0
ARC
  5
155
  8
DATA
  6
CONTINUOUS
 62
     7
 10
1977.199999999915
 20
1330.000000000211
 30
0.0
 40
30.00000000000011
 50
270.0
 51
0.0
  0
LINE
  5
156
  8
DATA
  6
CONTINUOUS
 62
     7
 10
1903.099999999914
 20
1483.5176053529681
 30
0.0
 11
1946.0999999999131
 21
1483.5176053529681
 31
0.0
  0
LINE
  5
157
  8
DATA
  6
CONTINUOUS
 62
     7
 10
1946.0999999999131
 20
1483.5176053529681
 30
0.0
 11
1924.599999999914
 21
1505.0176053529681
 31
0.0
  0
LINE
  5
158
  8
DATA
  6
CONTINUOUS
 62
     7
 10
1924.599999999914
 20
1505.0176053529681
 30
0.0
 11
1903.099999999914
 21
1483.5176053529681
 31
0.0
  0
LINE
  5
159
  8
DATA
  6
CONTINUOUS
 62
     7
 10
1924.599999999914
 20
1462.0176053529681
 30
0.0
 11
1946.0999999999131
 21
1483.5176053529681
 31
0.0
  0
LINE
  5
15A
  8
DATA
  6
CONTINUOUS
 62
     7
 10
1903.099999999914
 20
1483.5176053529681
 30
0.0
 11
1924.599999999914
 21
1462.0176053529681
 31
0.0
  0
LINE
  5
15B
  8
DATA
  6
CONTINUOUS
 62
     7
 10
1924.599999999914
 20
1462.0176053529681
 30
0.0
 11
1924.599999999914
 21
1505.0176053529681
 31
0.0
  0
LINE
  5
15C
  8
DATA
  6
CONTINUOUS
 62
     7
 10
1903.099999999914
 20
1425.117605352968
 30
0.0
 11
1946.0999999999131
 21
1425.117605352968
 31
0.0
  0
LINE
  5
15D
  8
DATA
  6
CONTINUOUS
 62
     7
 10
1946.0999999999131
 20
1425.117605352968
 30
0.0
 11
1924.599999999914
 21
1446.617605352968
 31
0.0
  0
LINE
  5
15E
  8
DATA
  6
CONTINUOUS
 62
     7
 10
1924.599999999914
 20
1446.617605352968
 30
0.0
 11
1903.099999999914
 21
1425.117605352968
 31
0.0
  0
LINE
  5
15F
  8
DATA
  6
CONTINUOUS
 62
     7
 10
1924.599999999914
 20
1403.617605352968
 30
0.0
 11
1946.0999999999131
 21
1425.117605352968
 31
0.0
  0
LINE
  5
160
  8
DATA
  6
CONTINUOUS
 62
     7
 10
1903.099999999914
 20
1425.117605352968
 30
0.0
 11
1924.599999999914
 21
1403.617605352968
 31
0.0
  0
LINE
  5
161
  8
DATA
  6
CONTINUOUS
 62
     7
 10
1924.599999999914
 20
1403.617605352968
 30
0.0
 11
1924.599999999914
 21
1446.617605352968
 31
0.0
  0
LINE
  5
162
  8
DATA
  6
CONTINUOUS
 62
     7
 10
1873.8999999999151
 20
1454.317605352968
 30
0.0
 11
1916.8999999999139
 21
1454.317605352968
 31
0.0
  0
LINE
  5
163
  8
DATA
  6
CONTINUOUS
 62
     7
 10
1916.8999999999139
 20
1454.317605352968
 30
0.0
 11
1895.3999999999151
 21
1475.817605352968
 31
0.0
  0
LINE
  5
164
  8
DATA
  6
CONTINUOUS
 62
     7
 10
1895.3999999999151
 20
1432.817605352968
 30
0.0
 11
1895.3999999999151
 21
1475.817605352968
 31
0.0
  0
LINE
  5
165
  8
DATA
  6
CONTINUOUS
 62
     7
 10
1895.3999999999151
 20
1475.817605352968
 30
0.0
 11
1873.8999999999151
 21
1454.317605352968
 31
0.0
  0
LINE
  5
166
  8
DATA
  6
CONTINUOUS
 62
     7
 10
1895.3999999999151
 20
1432.817605352968
 30
0.0
 11
1916.8999999999139
 21
1454.317605352968
 31
0.0
  0
LINE
  5
167
  8
DATA
  6
CONTINUOUS
 62
     7
 10
1873.8999999999151
 20
1454.317605352968
 30
0.0
 11
1895.3999999999151
 21
1432.817605352968
 31
0.0
  0
LINE
  5
168
  8
DATA
  6
CONTINUOUS
 62
     7
 10
1844.6999999999159
 20
1600.3176053529689
 30
0.0
 11
1887.699999999915
 21
1600.3176053529689
 31
0.0
  0
LINE
  5
169
  8
DATA
  6
CONTINUOUS
 62
     7
 10
1844.6999999999159
 20
1658.7176053529679
 30
0.0
 11
1887.699999999915
 21
1658.7176053529679
 31
0.0
  0
LINE
  5
16A
  8
DATA
  6
CONTINUOUS
 62
     7
 10
1832.599999999916
 20
1711.1936516144799
 30
0.0
 11
1975.524005974235
 21
1711.1936516144799
 31
0.0
  0
LINE
  5
16B
  8
DATA
  6
CONTINUOUS
 62
     7
 10
1844.6999999999159
 20
1541.9176053529679
 30
0.0
 11
1887.699999999915
 21
1541.9176053529679
 31
0.0
  0
TEXT
  5
16C
  8
DATA
 62
     7
 10
1763.099999999916
 20
1667.483717829947
 30
0.0
 40
2.4799346923828121
  1
Polarity:                        EIA
 41
0.7
 11
1763.099999999916
 21
1669.96365252233
 31
0.0
 73
     3
  0
TEXT
  5
16D
  8
DATA
 62
     7
 10
1763.099999999916
 20
1675.419264704947
 30
0.0
 40
3.30657958984375
  1
Model: 8350 Cinema Surround
 41
0.7
 11
1763.099999999916
 21
1678.7258442947909
 31
0.0
 73
     3
  0
TEXT
  5
16E
  8
DATA
 62
     7
 10
1763.099999999916
 20
1687.290358454946
 30
0.0
 40
4.959869384765625
  1
JBL Professional
 41
0.7
 11
1763.099999999916
 21
1692.2502278397119
 31
0.0
 73
     3
  0
TEXT
  5
16F
  8
DATA
 62
     7
 10
1763.099999999916
 20
1682.419264704947
 30
0.0
 40
3.30657958984375
  1
Northridge, California, USA
 41
0.7
 11
1763.099999999916
 21
1685.72584429479
 31
0.0
 73
     3
  0
TEXT
  5
170
  8
DATA
 62
     7
 10
1763.099999999916
 20
1671.483717829947
 30
0.0
 40
2.4799346923828121
  1
Nominal Impedance:        8 Ohms
 41
0.7
 11
1763.099999999916
 21
1673.96365252233
 31
0.0
 73
     3
  0
LINE
  5
171
  8
DATA
  6
CONTINUOUS
 62
     7
 10
1579.999999999915
 20
1753.0042657749909
 30
0.0
 11
1977.1999999999159
 21
1753.0042657749909
 31
0.0
  0
LINE
  5
172
  8
DATA
  6
CONTINUOUS
 62
     7
 10
1887.699999999915
 20
1600.3176053529689
 30
0.0
 11
1866.199999999915
 21
1621.8176053529689
 31
0.0
  0
LINE
  5
173
  8
DATA
  6
CONTINUOUS
 62
     7
 10
1866.199999999915
 20
1578.8176053529689
 30
0.0
 11
1887.699999999915
 21
1600.3176053529689
 31
0.0
  0
LINE
  5
174
  8
DATA
  6
CONTINUOUS
 62
     7
 10
1887.699999999915
 20
1658.7176053529679
 30
0.0
 11
1866.199999999915
 21
1680.2176053529679
 31
0.0
  0
LINE
  5
175
  8
DATA
  6
CONTINUOUS
 62
     7
 10
1866.199999999915
 20
1637.217605352969
 30
0.0
 11
1887.699999999915
 21
1658.7176053529679
 31
0.0
  0
LINE
  5
176
  8
DATA
  6
CONTINUOUS
 62
     7
 10
1866.199999999915
 20
1520.4176053529679
 30
0.0
 11
1887.699999999915
 21
1541.9176053529679
 31
0.0
  0
LINE
  5
177
  8
DATA
  6
CONTINUOUS
 62
     7
 10
1887.699999999915
 20
1541.9176053529679
 30
0.0
 11
1866.199999999915
 21
1563.4176053529679
 31
0.0
  0
LINE
  5
178
  8
DATA
  6
CONTINUOUS
 62
     7
 10
1858.4999999999141
 20
1512.7176053529679
 30
0.0
 11
1836.999999999915
 21
1534.2176053529679
 31
0.0
  0
LINE
  5
179
  8
DATA
  6
CONTINUOUS
 62
     7
 10
1800.0999999999151
 20
1512.7176053529679
 30
0.0
 11
1778.5999999999151
 21
1534.2176053529679
 31
0.0
  0
LINE
  5
17A
  8
DATA
  6
CONTINUOUS
 62
     7
 10
1778.5999999999151
 20
1534.2176053529679
 30
0.0
 11
1757.0999999999169
 21
1512.7176053529679
 31
0.0
  0
LINE
  5
17B
  8
DATA
  6
CONTINUOUS
 62
     7
 10
1720.199999999915
 20
1534.2176053529679
 30
0.0
 11
1698.6999999999159
 21
1512.7176053529679
 31
0.0
  0
LINE
  5
17C
  8
DATA
  6
CONTINUOUS
 62
     7
 10
1741.699999999915
 20
1512.7176053529679
 30
0.0
 11
1720.199999999915
 21
1534.2176053529679
 31
0.0
  0
LINE
  5
17D
  8
DATA
  6
CONTINUOUS
 62
     7
 10
1683.2999999999161
 20
1512.7176053529679
 30
0.0
 11
1661.7999999999149
 21
1534.2176053529679
 31
0.0
  0
LINE
  5
17E
  8
DATA
  6
CONTINUOUS
 62
     7
 10
1661.7999999999149
 20
1534.2176053529679
 30
0.0
 11
1640.2999999999161
 21
1512.7176053529679
 31
0.0
  0
LINE
  5
17F
  8
DATA
  6
CONTINUOUS
 62
     7
 10
1836.999999999915
 20
1534.2176053529679
 30
0.0
 11
1815.4999999999161
 21
1512.7176053529679
 31
0.0
  0
LINE
  5
180
  8
DATA
  6
CONTINUOUS
 62
     7
 10
1757.0999999999169
 20
1512.7176053529679
 30
0.0
 11
1800.0999999999151
 21
1512.7176053529679
 31
0.0
  0
LINE
  5
181
  8
DATA
  6
CONTINUOUS
 62
     7
 10
1698.699999999915
 20
1512.7176053529679
 30
0.0
 11
1741.6999999999159
 21
1512.7176053529679
 31
0.0
  0
LINE
  5
182
  8
DATA
  6
CONTINUOUS
 62
     7
 10
1640.2999999999161
 20
1512.7176053529679
 30
0.0
 11
1683.2999999999161
 21
1512.7176053529679
 31
0.0
  0
LINE
  5
183
  8
DATA
  6
CONTINUOUS
 62
     7
 10
1815.499999999915
 20
1512.7176053529679
 30
0.0
 11
1858.4999999999161
 21
1512.7176053529679
 31
0.0
  0
LINE
  5
184
  8
DATA
  6
CONTINUOUS
 62
     7
 10
1866.199999999915
 20
1621.8176053529689
 30
0.0
 11
1844.6999999999159
 21
1600.3176053529689
 31
0.0
  0
LINE
  5
185
  8
DATA
  6
CONTINUOUS
 62
     7
 10
1844.6999999999159
 20
1600.3176053529689
 30
0.0
 11
1866.199999999915
 21
1578.8176053529689
 31
0.0
  0
LINE
  5
186
  8
DATA
  6
CONTINUOUS
 62
     7
 10
1866.199999999915
 20
1680.2176053529679
 30
0.0
 11
1844.6999999999159
 21
1658.7176053529679
 31
0.0
  0
LINE
  5
187
  8
DATA
  6
CONTINUOUS
 62
     7
 10
1844.6999999999159
 20
1658.7176053529679
 30
0.0
 11
1866.199999999915
 21
1637.217605352969
 31
0.0
  0
LINE
  5
188
  8
DATA
  6
CONTINUOUS
 62
     7
 10
1844.6999999999159
 20
1541.9176053529679
 30
0.0
 11
1866.199999999915
 21
1520.4176053529679
 31
0.0
  0
LINE
  5
189
  8
DATA
  6
CONTINUOUS
 62
     7
 10
1866.199999999915
 20
1563.4176053529679
 30
0.0
 11
1844.6999999999159
 21
1541.9176053529679
 31
0.0
  0
CIRCLE
  5
18A
  8
DATA
  6
CONTINUOUS
 62
     7
 10
1837.3626835814171
 20
1749.0042657749909
 30
0.0
 40
4.0
  0
LINE
  5
18B
  8
DATA
  6
CONTINUOUS
 62
     7
 10
1837.3626835814171
 20
1746.5042657749921
 30
0.0
 11
1837.3626835814171
 21
1751.5042657749909
 31
0.0
  0
LINE
  5
18C
  8
DATA
  6
CONTINUOUS
 62
     7
 10
1834.8626835814171
 20
1749.0042657749909
 30
0.0
 11
1839.8626835814171
 21
1749.0042657749909
 31
0.0
  0
LINE
  5
18D
  8
DATA
  6
CONTINUOUS
 62
     7
 10
1830.3626835814171
 20
1749.004265775005
 30
0.0
 11
1830.3626835814171
 21
1753.0042657749909
 31
0.0
  0
LINE
  5
18E
  8
DATA
  6
CONTINUOUS
 62
     7
 10
1844.3626835814171
 20
1749.004265775005
 30
0.0
 11
1844.3626835814171
 21
1753.0042657749909
 31
0.0
  0
ARC
  5
18F
  8
DATA
  6
CONTINUOUS
 62
     7
 10
1837.3626835814171
 20
1753.129265774978
 30
0.0
 40
8.1249999999864055
 50
210.51023740609341
 51
329.48976259398142
  0
LINE
  5
190
  8
DATA
  6
CONTINUOUS
 62
     7
 10
1832.5999999999151
 20
1573.086490343074
 30
0.0
 11
1832.599999999916
 21
1746.6653451207351
 31
0.0
  0
LINE
  5
191
  8
DATA
  6
CONTINUOUS
 62
     7
 10
1829.599999999916
 20
1746.6653451207351
 30
0.0
 11
1829.599999999916
 21
1573.086490343074
 31
0.0
  0
LINE
  5
192
  8
DATA
  6
CONTINUOUS
 62
     7
 10
1826.099999999916
 20
1646.3355301333349
 30
0.0
 11
1826.099999999916
 21
1698.0186242765581
 31
0.0
  0
CIRCLE
  5
193
  8
DATA
  6
CONTINUOUS
 62
     7
 10
1719.862683581418
 20
1749.0042657749909
 30
0.0
 40
4.000000000000056
  0
LINE
  5
194
  8
DATA
  6
CONTINUOUS
 62
     7
 10
1719.862683581418
 20
1746.5042657749921
 30
0.0
 11
1719.862683581418
 21
1751.5042657749909
 31
0.0
  0
LINE
  5
195
  8
DATA
  6
CONTINUOUS
 62
     7
 10
1717.362683581418
 20
1749.0042657749909
 30
0.0
 11
1722.362683581418
 21
1749.0042657749909
 31
0.0
  0
LINE
  5
196
  8
DATA
  6
CONTINUOUS
 62
     7
 10
1602.3626835814159
 20
1746.5042657749921
 30
0.0
 11
1602.3626835814159
 21
1751.5042657749909
 31
0.0
  0
LINE
  5
197
  8
DATA
  6
CONTINUOUS
 62
     7
 10
1599.8626835814159
 20
1749.0042657749909
 30
0.0
 11
1604.8626835814159
 21
1749.0042657749909
 31
0.0
  0
CIRCLE
  5
198
  8
DATA
  6
CONTINUOUS
 62
     7
 10
1602.3626835814159
 20
1749.0042657749909
 30
0.0
 40
4.000000000000056
  0
LINE
  5
199
  8
DATA
  6
CONTINUOUS
 62
     7
 10
1568.2164718635049
 20
1582.999216805408
 30
0.0
 11
1568.2164718635049
 21
1587.999216805408
 31
0.0
  0
LINE
  5
19A
  8
DATA
  6
CONTINUOUS
 62
     7
 10
1565.7164718635061
 20
1585.499216805408
 30
0.0
 11
1570.7164718635049
 21
1585.499216805408
 31
0.0
  0
CIRCLE
  5
19B
  8
DATA
  6
CONTINUOUS
 62
     7
 10
1568.2164718635049
 20
1585.499216805408
 30
0.0
 40
4.0
  0
LINE
  5
19C
  8
DATA
  6
CONTINUOUS
 62
     7
 10
1568.2164718635049
 20
1699.9988808231719
 30
0.0
 11
1568.2164718635049
 21
1704.9988808231719
 31
0.0
  0
LINE
  5
19D
  8
DATA
  6
CONTINUOUS
 62
     7
 10
1565.7164718635061
 20
1702.4988808231719
 30
0.0
 11
1570.7164718635061
 21
1702.4988808231719
 31
0.0
  0
CIRCLE
  5
19E
  8
DATA
  6
CONTINUOUS
 62
     7
 10
1568.2164718635049
 20
1702.4988808231719
 30
0.0
 40
4.0
  0
LINE
  5
19F
  8
DATA
  6
CONTINUOUS
 62
     7
 10
1712.8626835814191
 20
1749.004265775005
 30
0.0
 11
1712.8626835814191
 21
1753.0042657749909
 31
0.0
  0
LINE
  5
1A0
  8
DATA
  6
CONTINUOUS
 62
     7
 10
1726.862683581418
 20
1749.004265775005
 30
0.0
 11
1726.862683581418
 21
1753.0042657749909
 31
0.0
  0
ARC
  5
1A1
  8
DATA
  6
CONTINUOUS
 62
     7
 10
1719.862683581418
 20
1753.129265774978
 30
0.0
 40
8.1249999999865512
 50
210.51023740609281
 51
329.48976259398171
  0
LINE
  5
1A2
  8
DATA
  6
CONTINUOUS
 62
     7
 10
1609.3626835814171
 20
1749.004265775005
 30
0.0
 11
1609.3626835814171
 21
1753.0042657749909
 31
0.0
  0
LINE
  5
1A3
  8
DATA
  6
CONTINUOUS
 62
     7
 10
1595.3626835814159
 20
1749.004265775005
 30
0.0
 11
1595.3626835814159
 21
1752.0562743671251
 31
0.0
  0
ARC
  5
1A4
  8
DATA
  6
CONTINUOUS
 62
     7
 10
1602.3626835814159
 20
1753.129265774978
 30
0.0
 40
8.1249999999865032
 50
210.51023740609301
 51
329.48976259398171
  0
CIRCLE
  5
1A5
  8
DATA
  6
CONTINUOUS
 62
     7
 10
1568.2164718635049
 20
1585.499216805408
 30
0.0
 40
6.0
  0
CIRCLE
  5
1A6
  8
DATA
  6
CONTINUOUS
 62
     7
 10
1568.2164718635049
 20
1702.4988808231719
 30
0.0
 40
6.0
  0
LINE
  5
1A7
  8
DATA
  6
CONTINUOUS
 62
     7
 10
1632.599999999916
 20
1578.8176053529689
 30
0.0
 11
1632.599999999916
 21
1621.8176053529689
 31
0.0
  0
LINE
  5
1A8
  8
DATA
  6
CONTINUOUS
 62
     7
 10
1632.599999999916
 20
1621.8176053529689
 30
0.0
 11
1611.099999999916
 21
1600.3176053529689
 31
0.0
  0
LINE
  5
1A9
  8
DATA
  6
CONTINUOUS
 62
     7
 10
1654.099999999916
 20
1600.3176053529689
 30
0.0
 11
1632.599999999916
 21
1621.8176053529689
 31
0.0
  0
LINE
  5
1AA
  8
DATA
  6
CONTINUOUS
 62
     7
 10
1712.499999999915
 20
1600.3176053529689
 30
0.0
 11
1690.999999999915
 21
1621.8176053529689
 31
0.0
  0
LINE
  5
1AB
  8
DATA
  6
CONTINUOUS
 62
     7
 10
1690.999999999915
 20
1578.8176053529689
 30
0.0
 11
1690.999999999915
 21
1621.8176053529689
 31
0.0
  0
LINE
  5
1AC
  8
DATA
  6
CONTINUOUS
 62
     7
 10
1690.999999999915
 20
1621.8176053529689
 30
0.0
 11
1669.499999999915
 21
1600.3176053529689
 31
0.0
  0
LINE
  5
1AD
  8
DATA
  6
CONTINUOUS
 62
     7
 10
1669.499999999915
 20
1600.3176053529689
 30
0.0
 11
1712.499999999915
 21
1600.3176053529689
 31
0.0
  0
LINE
  5
1AE
  8
DATA
  6
CONTINUOUS
 62
     7
 10
1611.099999999916
 20
1600.3176053529689
 30
0.0
 11
1654.099999999916
 21
1600.3176053529689
 31
0.0
  0
LINE
  5
1AF
  8
DATA
  6
CONTINUOUS
 62
     7
 10
1611.099999999916
 20
1600.3176053529689
 30
0.0
 11
1632.599999999916
 21
1578.8176053529689
 31
0.0
  0
LINE
  5
1B0
  8
DATA
  6
CONTINUOUS
 62
     7
 10
1632.599999999916
 20
1578.8176053529689
 30
0.0
 11
1654.099999999916
 21
1600.3176053529689
 31
0.0
  0
LINE
  5
1B1
  8
DATA
  6
CONTINUOUS
 62
     7
 10
1690.999999999915
 20
1578.8176053529689
 30
0.0
 11
1712.499999999915
 21
1600.3176053529689
 31
0.0
  0
LINE
  5
1B2
  8
DATA
  6
CONTINUOUS
 62
     7
 10
1669.499999999915
 20
1600.3176053529689
 30
0.0
 11
1690.999999999915
 21
1578.8176053529689
 31
0.0
  0
LINE
  5
1B3
  8
DATA
  6
CONTINUOUS
 62
     7
 10
1640.2999999999161
 20
1571.117605352968
 30
0.0
 11
1683.2999999999161
 21
1571.117605352968
 31
0.0
  0
LINE
  5
1B4
  8
DATA
  6
CONTINUOUS
 62
     7
 10
1683.2999999999161
 20
1571.117605352968
 30
0.0
 11
1661.7999999999149
 21
1592.6176053529689
 31
0.0
  0
LINE
  5
1B5
  8
DATA
  6
CONTINUOUS
 62
     7
 10
1661.7999999999149
 20
1592.6176053529689
 30
0.0
 11
1640.2999999999161
 21
1571.117605352968
 31
0.0
  0
LINE
  5
1B6
  8
DATA
  6
CONTINUOUS
 62
     7
 10
1632.599999999916
 20
1637.217605352969
 30
0.0
 11
1632.599999999916
 21
1680.2176053529679
 31
0.0
  0
LINE
  5
1B7
  8
DATA
  6
CONTINUOUS
 62
     7
 10
1632.599999999916
 20
1680.2176053529679
 30
0.0
 11
1611.099999999916
 21
1658.7176053529679
 31
0.0
  0
LINE
  5
1B8
  8
DATA
  6
CONTINUOUS
 62
     7
 10
1654.099999999916
 20
1658.7176053529679
 30
0.0
 11
1632.599999999916
 21
1680.2176053529679
 31
0.0
  0
LINE
  5
1B9
  8
DATA
  6
CONTINUOUS
 62
     7
 10
1712.499999999915
 20
1658.7176053529679
 30
0.0
 11
1690.999999999915
 21
1680.2176053529679
 31
0.0
  0
LINE
  5
1BA
  8
DATA
  6
CONTINUOUS
 62
     7
 10
1690.999999999915
 20
1637.217605352969
 30
0.0
 11
1690.999999999915
 21
1680.2176053529679
 31
0.0
  0
LINE
  5
1BB
  8
DATA
  6
CONTINUOUS
 62
     7
 10
1690.999999999915
 20
1680.2176053529679
 30
0.0
 11
1669.499999999915
 21
1658.7176053529679
 31
0.0
  0
LINE
  5
1BC
  8
DATA
  6
CONTINUOUS
 62
     7
 10
1669.499999999915
 20
1658.7176053529679
 30
0.0
 11
1712.499999999915
 21
1658.7176053529679
 31
0.0
  0
LINE
  5
1BD
  8
DATA
  6
CONTINUOUS
 62
     7
 10
1611.099999999916
 20
1658.7176053529679
 30
0.0
 11
1654.099999999916
 21
1658.7176053529679
 31
0.0
  0
LINE
  5
1BE
  8
DATA
  6
CONTINUOUS
 62
     7
 10
1611.099999999916
 20
1658.7176053529679
 30
0.0
 11
1632.599999999916
 21
1637.217605352969
 31
0.0
  0
LINE
  5
1BF
  8
DATA
  6
CONTINUOUS
 62
     7
 10
1632.599999999916
 20
1637.217605352969
 30
0.0
 11
1654.099999999916
 21
1658.7176053529679
 31
0.0
  0
LINE
  5
1C0
  8
DATA
  6
CONTINUOUS
 62
     7
 10
1640.2999999999161
 20
1629.517605352969
 30
0.0
 11
1683.2999999999161
 21
1629.517605352969
 31
0.0
  0
LINE
  5
1C1
  8
DATA
  6
CONTINUOUS
 62
     7
 10
1683.2999999999161
 20
1629.517605352969
 30
0.0
 11
1661.7999999999149
 21
1651.017605352969
 31
0.0
  0
LINE
  5
1C2
  8
DATA
  6
CONTINUOUS
 62
     7
 10
1661.7999999999149
 20
1608.017605352969
 30
0.0
 11
1661.7999999999149
 21
1651.017605352969
 31
0.0
  0
LINE
  5
1C3
  8
DATA
  6
CONTINUOUS
 62
     7
 10
1661.7999999999149
 20
1651.017605352969
 30
0.0
 11
1640.2999999999161
 21
1629.517605352969
 31
0.0
  0
LINE
  5
1C4
  8
DATA
  6
CONTINUOUS
 62
     7
 10
1661.7999999999149
 20
1608.017605352969
 30
0.0
 11
1683.2999999999161
 21
1629.517605352969
 31
0.0
  0
LINE
  5
1C5
  8
DATA
  6
CONTINUOUS
 62
     7
 10
1640.2999999999161
 20
1629.517605352969
 30
0.0
 11
1661.7999999999149
 21
1608.017605352969
 31
0.0
  0
LINE
  5
1C6
  8
DATA
  6
CONTINUOUS
 62
     7
 10
1690.999999999915
 20
1637.217605352969
 30
0.0
 11
1712.499999999915
 21
1658.7176053529679
 31
0.0
  0
LINE
  5
1C7
  8
DATA
  6
CONTINUOUS
 62
     7
 10
1669.499999999915
 20
1658.7176053529679
 30
0.0
 11
1690.999999999915
 21
1637.217605352969
 31
0.0
  0
LINE
  5
1C8
  8
DATA
  6
CONTINUOUS
 62
     7
 10
1724.5999999999151
 20
1573.086490343074
 30
0.0
 11
1724.5999999999151
 21
1746.6653451207351
 31
0.0
  0
LINE
  5
1C9
  8
DATA
  6
CONTINUOUS
 62
     7
 10
1727.599999999916
 20
1573.086490343074
 30
0.0
 11
1727.599999999916
 21
1746.6653451207351
 31
0.0
  0
LINE
  5
1CA
  8
DATA
  6
CONTINUOUS
 62
     7
 10
1731.099999999916
 20
1646.3355301333349
 30
0.0
 11
1731.099999999916
 21
1698.0186242765581
 31
0.0
  0
LINE
  5
1CB
  8
DATA
  6
CONTINUOUS
 62
     7
 10
1759.5999999999151
 20
1667.677077204947
 30
0.0
 11
1759.5999999999151
 21
1671.677077204947
 31
0.0
  0
LINE
  5
1CC
  8
DATA
  6
CONTINUOUS
 62
     7
 10
1734.599999999916
 20
1667.677077204947
 30
0.0
 11
1734.599999999916
 21
1671.677077204947
 31
0.0
  0
LINE
  5
1CD
  8
DATA
  6
CONTINUOUS
 62
     7
 10
1759.5999999999151
 20
1667.677077204947
 30
0.0
 11
1734.599999999916
 21
1667.677077204947
 31
0.0
  0
LINE
  5
1CE
  8
DATA
  6
CONTINUOUS
 62
     7
 10
1759.5999999999151
 20
1671.677077204947
 30
0.0
 11
1734.599999999916
 21
1671.677077204947
 31
0.0
  0
LINE
  5
1CF
  8
DATA
  6
CONTINUOUS
 62
     7
 10
1759.5999999999151
 20
1673.177077204947
 30
0.0
 11
1734.599999999916
 21
1673.177077204947
 31
0.0
  0
LINE
  5
1D0
  8
DATA
  6
CONTINUOUS
 62
     7
 10
1759.5999999999151
 20
1693.177077204946
 30
0.0
 11
1759.5999999999151
 21
1673.177077204947
 31
0.0
  0
LINE
  5
1D1
  8
DATA
  6
CONTINUOUS
 62
     7
 10
1734.599999999916
 20
1693.177077204946
 30
0.0
 11
1759.5999999999151
 21
1693.177077204946
 31
0.0
  0
LINE
  5
1D2
  8
DATA
  6
CONTINUOUS
 62
     7
 10
1734.599999999916
 20
1673.177077204947
 30
0.0
 11
1734.599999999916
 21
1693.177077204946
 31
0.0
  0
ARC
  5
1D3
  8
DATA
  6
CONTINUOUS
 62
     7
 10
1598.5999999999151
 20
1747.004563527566
 30
0.0
 40
5.9999999999997371
 50
90.570809987894208
 51
122.65319686598529
  0
LINE
  5
1D4
  8
DATA
  6
CONTINUOUS
 62
     7
 10
1581.6759940255961
 20
1711.193651614481
 30
0.0
 11
1724.599999999916
 21
1711.193651614481
 31
0.0
  0
ARC
  5
1D5
  8
DATA
  6
CONTINUOUS
 62
     7
 10
1579.999999999915
 20
1723.0042657749921
 30
0.0
 40
29.999999999999659
 50
90.0
 51
180.0
  0
LINE
  5
1D6
  8
DATA
  6
CONTINUOUS
 62
     7
 10
1727.899999999916
 20
1541.9176053529679
 30
0.0
 11
1770.899999999916
 21
1541.9176053529679
 31
0.0
  0
LINE
  5
1D7
  8
DATA
  6
CONTINUOUS
 62
     7
 10
1749.399999999916
 20
1520.4176053529679
 30
0.0
 11
1770.899999999916
 21
1541.9176053529679
 31
0.0
  0
LINE
  5
1D8
  8
DATA
  6
CONTINUOUS
 62
     7
 10
1727.899999999916
 20
1541.9176053529679
 30
0.0
 11
1749.399999999916
 21
1520.4176053529679
 31
0.0
  0
LINE
  5
1D9
  8
DATA
  6
CONTINUOUS
 62
     7
 10
1786.2999999999161
 20
1541.9176053529679
 30
0.0
 11
1807.7999999999149
 21
1520.4176053529679
 31
0.0
  0
LINE
  5
1DA
  8
DATA
  6
CONTINUOUS
 62
     7
 10
1669.499999999915
 20
1541.9176053529679
 30
0.0
 11
1712.499999999915
 21
1541.9176053529679
 31
0.0
  0
LINE
  5
1DB
  8
DATA
  6
CONTINUOUS
 62
     7
 10
1611.099999999916
 20
1541.9176053529679
 30
0.0
 11
1654.099999999916
 21
1541.9176053529679
 31
0.0
  0
LINE
  5
1DC
  8
DATA
  6
CONTINUOUS
 62
     7
 10
1611.099999999916
 20
1541.9176053529679
 30
0.0
 11
1632.599999999916
 21
1520.4176053529679
 31
0.0
  0
LINE
  5
1DD
  8
DATA
  6
CONTINUOUS
 62
     7
 10
1632.599999999916
 20
1520.4176053529679
 30
0.0
 11
1654.099999999916
 21
1541.9176053529679
 31
0.0
  0
LINE
  5
1DE
  8
DATA
  6
CONTINUOUS
 62
     7
 10
1690.999999999915
 20
1520.4176053529679
 30
0.0
 11
1712.499999999915
 21
1541.9176053529679
 31
0.0
  0
LINE
  5
1DF
  8
DATA
  6
CONTINUOUS
 62
     7
 10
1669.499999999915
 20
1541.9176053529679
 30
0.0
 11
1690.999999999915
 21
1520.4176053529679
 31
0.0
  0
LINE
  5
1E0
  8
DATA
  6
CONTINUOUS
 62
     7
 10
1770.899999999916
 20
1541.9176053529679
 30
0.0
 11
1749.399999999916
 21
1563.4176053529679
 31
0.0
  0
LINE
  5
1E1
  8
DATA
  6
CONTINUOUS
 62
     7
 10
1749.399999999916
 20
1520.4176053529679
 30
0.0
 11
1749.399999999916
 21
1563.4176053529679
 31
0.0
  0
LINE
  5
1E2
  8
DATA
  6
CONTINUOUS
 62
     7
 10
1749.399999999916
 20
1563.4176053529679
 30
0.0
 11
1727.899999999916
 21
1541.9176053529679
 31
0.0
  0
LINE
  5
1E3
  8
DATA
  6
CONTINUOUS
 62
     7
 10
1807.7999999999149
 20
1520.4176053529679
 30
0.0
 11
1807.7999999999149
 21
1563.4176053529679
 31
0.0
  0
LINE
  5
1E4
  8
DATA
  6
CONTINUOUS
 62
     7
 10
1807.7999999999149
 20
1563.4176053529679
 30
0.0
 11
1786.2999999999161
 21
1541.9176053529679
 31
0.0
  0
LINE
  5
1E5
  8
DATA
  6
CONTINUOUS
 62
     7
 10
1632.599999999916
 20
1520.4176053529679
 30
0.0
 11
1632.599999999916
 21
1563.4176053529679
 31
0.0
  0
LINE
  5
1E6
  8
DATA
  6
CONTINUOUS
 62
     7
 10
1632.599999999916
 20
1563.4176053529679
 30
0.0
 11
1611.099999999916
 21
1541.9176053529679
 31
0.0
  0
LINE
  5
1E7
  8
DATA
  6
CONTINUOUS
 62
     7
 10
1654.099999999916
 20
1541.9176053529679
 30
0.0
 11
1632.599999999916
 21
1563.4176053529679
 31
0.0
  0
LINE
  5
1E8
  8
DATA
  6
CONTINUOUS
 62
     7
 10
1712.499999999915
 20
1541.9176053529679
 30
0.0
 11
1690.999999999915
 21
1563.4176053529679
 31
0.0
  0
LINE
  5
1E9
  8
DATA
  6
CONTINUOUS
 62
     7
 10
1690.999999999915
 20
1520.4176053529679
 30
0.0
 11
1690.999999999915
 21
1563.4176053529679
 31
0.0
  0
LINE
  5
1EA
  8
DATA
  6
CONTINUOUS
 62
     7
 10
1690.999999999915
 20
1563.4176053529679
 30
0.0
 11
1669.499999999915
 21
1541.9176053529679
 31
0.0
  0
LINE
  5
1EB
  8
DATA
  6
CONTINUOUS
 62
     7
 10
1661.7999999999149
 20
1549.6176053529689
 30
0.0
 11
1661.7999999999149
 21
1592.6176053529689
 31
0.0
  0
LINE
  5
1EC
  8
DATA
  6
CONTINUOUS
 62
     7
 10
1661.7999999999149
 20
1549.6176053529689
 30
0.0
 11
1683.2999999999161
 21
1571.117605352968
 31
0.0
  0
LINE
  5
1ED
  8
DATA
  6
CONTINUOUS
 62
     7
 10
1640.2999999999161
 20
1571.117605352968
 30
0.0
 11
1661.7999999999149
 21
1549.6176053529689
 31
0.0
  0
TEXT
  5
1EE
  8
DATA
 62
     7
 10
1736.5933689966059
 20
1668.483717829947
 30
0.0
 40
2.4799346923828121
  1
PROFESSIONAL
 41
0.7
 11
1736.5933689966059
 21
1670.96365252233
 31
0.0
 73
     3
  0
LINE
  5
1EF
  8
DATA
  6
CONTINUOUS
 62
     7
 10
1727.599999999916
 20
1722.027770737641
 30
0.0
 11
1829.599999999916
 21
1722.027770737641
 31
0.0
  0
LINE
  5
1F0
  8
DATA
  6
CONTINUOUS
 62
     7
 10
1724.5999999999151
 20
1746.6653451207351
 30
0.0
 11
1832.599999999916
 21
1746.6653451207351
 31
0.0
  0
LINE
  5
1F1
  8
DATA
  6
CONTINUOUS
 62
     7
 10
1731.099999999916
 20
1646.3355301333349
 30
0.0
 11
1826.099999999916
 21
1646.3355301333349
 31
0.0
  0
LINE
  5
1F2
  8
DATA
  6
CONTINUOUS
 62
     7
 10
1731.099999999916
 20
1698.018624276559
 30
0.0
 11
1826.099999999916
 21
1698.018624276559
 31
0.0
  0
LINE
  5
1F3
  8
DATA
  6
CONTINUOUS
 62
     7
 10
1724.5999999999151
 20
1573.086490343074
 30
0.0
 11
1832.599999999916
 21
1573.086490343074
 31
0.0
  0
LINE
  5
1F4
  8
DATA
  6
CONTINUOUS
 62
     7
 10
1786.2999999999161
 20
1541.9176053529679
 30
0.0
 11
1829.2999999999149
 21
1541.9176053529679
 31
0.0
  0
LINE
  5
1F5
  8
DATA
  6
CONTINUOUS
 62
     7
 10
1807.7999999999149
 20
1520.4176053529679
 30
0.0
 11
1829.2999999999149
 21
1541.9176053529679
 31
0.0
  0
LINE
  5
1F6
  8
DATA
  6
CONTINUOUS
 62
     7
 10
1829.2999999999149
 20
1541.9176053529679
 30
0.0
 11
1807.7999999999149
 21
1563.4176053529679
 31
0.0
  0
LINE
  5
1F7
  8
DATA
  6
CONTINUOUS
 62
     7
 10
1866.199999999915
 20
1578.8176053529689
 30
0.0
 11
1866.199999999915
 21
1621.8176053529689
 31
0.0
  0
LINE
  5
1F8
  8
DATA
  6
CONTINUOUS
 62
     7
 10
1866.199999999915
 20
1637.217605352969
 30
0.0
 11
1866.199999999915
 21
1680.2176053529679
 31
0.0
  0
LINE
  5
1F9
  8
DATA
  6
CONTINUOUS
 62
     7
 10
1866.199999999915
 20
1520.4176053529679
 30
0.0
 11
1866.199999999915
 21
1563.4176053529679
 31
0.0
  0
LINE
  5
1FA
  8
DATA
  6
CONTINUOUS
 62
     7
 10
1916.8999999999139
 20
1512.7176053529679
 30
0.0
 11
1895.3999999999151
 21
1534.2176053529679
 31
0.0
  0
LINE
  5
1FB
  8
DATA
  6
CONTINUOUS
 62
     7
 10
1895.3999999999151
 20
1534.2176053529679
 30
0.0
 11
1873.8999999999151
 21
1512.7176053529679
 31
0.0
  0
LINE
  5
1FC
  8
DATA
  6
CONTINUOUS
 62
     7
 10
1873.8999999999151
 20
1512.7176053529679
 30
0.0
 11
1916.8999999999139
 21
1512.7176053529679
 31
0.0
  0
CIRCLE
  5
1FD
  8
DATA
  6
CONTINUOUS
 62
     7
 10
1954.8626835814159
 20
1749.0042657749909
 30
0.0
 40
4.0
  0
LINE
  5
1FE
  8
DATA
  6
CONTINUOUS
 62
     7
 10
1954.8626835814159
 20
1746.5042657749921
 30
0.0
 11
1954.8626835814159
 21
1751.5042657749909
 31
0.0
  0
LINE
  5
1FF
  8
DATA
  6
CONTINUOUS
 62
     7
 10
1952.362683581418
 20
1749.0042657749909
 30
0.0
 11
1957.3626835814159
 21
1749.0042657749909
 31
0.0
  0
LINE
  5
200
  8
DATA
  6
CONTINUOUS
 62
     7
 10
1988.9835281363239
 20
1699.9988808231719
 30
0.0
 11
1988.9835281363239
 21
1704.9988808231719
 31
0.0
  0
LINE
  5
201
  8
DATA
  6
CONTINUOUS
 62
     7
 10
1986.483528136325
 20
1702.4988808231719
 30
0.0
 11
1991.4835281363239
 21
1702.4988808231719
 31
0.0
  0
CIRCLE
  5
202
  8
DATA
  6
CONTINUOUS
 62
     7
 10
1988.9835281363239
 20
1702.4988808231719
 30
0.0
 40
4.0
  0
LINE
  5
203
  8
DATA
  6
CONTINUOUS
 62
     7
 10
1988.9835281363239
 20
1582.9961739177049
 30
0.0
 11
1988.9835281363239
 21
1587.9961739177049
 31
0.0
  0
LINE
  5
204
  8
DATA
  6
CONTINUOUS
 62
     7
 10
1986.483528136325
 20
1585.4961739177061
 30
0.0
 11
1991.4835281363239
 21
1585.4961739177061
 31
0.0
  0
CIRCLE
  5
205
  8
DATA
  6
CONTINUOUS
 62
     7
 10
1988.9835281363239
 20
1585.4961739177061
 30
0.0
 40
4.0
  0
LINE
  5
206
  8
DATA
  6
CONTINUOUS
 62
     7
 10
1961.862683581418
 20
1749.004265775005
 30
0.0
 11
1961.862683581418
 21
1752.03992804734
 31
0.0
  0
LINE
  5
207
  8
DATA
  6
CONTINUOUS
 62
     7
 10
1947.8626835814159
 20
1749.004265775005
 30
0.0
 11
1947.8626835814159
 21
1753.0042657749909
 31
0.0
  0
ARC
  5
208
  8
DATA
  6
CONTINUOUS
 62
     7
 10
1954.8626835814159
 20
1753.129265774978
 30
0.0
 40
8.1249999999865032
 50
210.51023740609301
 51
329.48976259398148
  0
CIRCLE
  5
209
  8
DATA
  6
CONTINUOUS
 62
     7
 10
1988.9835281363239
 20
1585.4961739177061
 30
0.0
 40
6.0
  0
CIRCLE
  5
20A
  8
DATA
  6
CONTINUOUS
 62
     7
 10
1988.9835281363239
 20
1702.4988808231719
 30
0.0
 40
6.0
  0
ARC
  5
20B
  8
DATA
  6
CONTINUOUS
 62
     7
 10
1977.1999999999159
 20
1723.0042657749921
 30
0.0
 40
30.0
 50
0.0
 51
90.0
  0
LINE
  5
20C
  8
DATA
  6
CONTINUOUS
 62
     7
 10
1873.8999999999151
 20
1629.517605352969
 30
0.0
 11
1895.3999999999151
 21
1608.017605352969
 31
0.0
  0
LINE
  5
20D
  8
DATA
  6
CONTINUOUS
 62
     7
 10
1946.0999999999131
 20
1600.3176053529689
 30
0.0
 11
1924.599999999914
 21
1621.8176053529689
 31
0.0
  0
LINE
  5
20E
  8
DATA
  6
CONTINUOUS
 62
     7
 10
1924.599999999914
 20
1621.8176053529689
 30
0.0
 11
1903.099999999914
 21
1600.3176053529689
 31
0.0
  0
LINE
  5
20F
  8
DATA
  6
CONTINUOUS
 62
     7
 10
1924.599999999914
 20
1578.8176053529689
 30
0.0
 11
1924.599999999914
 21
1621.8176053529689
 31
0.0
  0
LINE
  5
210
  8
DATA
  6
CONTINUOUS
 62
     7
 10
1903.099999999914
 20
1600.3176053529689
 30
0.0
 11
1946.0999999999131
 21
1600.3176053529689
 31
0.0
  0
LINE
  5
211
  8
DATA
  6
CONTINUOUS
 62
     7
 10
1924.599999999914
 20
1578.8176053529689
 30
0.0
 11
1946.0999999999131
 21
1600.3176053529689
 31
0.0
  0
LINE
  5
212
  8
DATA
  6
CONTINUOUS
 62
     7
 10
1903.099999999914
 20
1600.3176053529689
 30
0.0
 11
1924.599999999914
 21
1578.8176053529689
 31
0.0
  0
LINE
  5
213
  8
DATA
  6
CONTINUOUS
 62
     7
 10
1873.8999999999151
 20
1571.117605352968
 30
0.0
 11
1916.8999999999139
 21
1571.117605352968
 31
0.0
  0
LINE
  5
214
  8
DATA
  6
CONTINUOUS
 62
     7
 10
1916.8999999999139
 20
1571.117605352968
 30
0.0
 11
1895.3999999999151
 21
1592.6176053529689
 31
0.0
  0
LINE
  5
215
  8
DATA
  6
CONTINUOUS
 62
     7
 10
1895.3999999999151
 20
1592.6176053529689
 30
0.0
 11
1873.8999999999151
 21
1571.117605352968
 31
0.0
  0
LINE
  5
216
  8
DATA
  6
CONTINUOUS
 62
     7
 10
1946.0999999999131
 20
1658.7176053529679
 30
0.0
 11
1924.599999999914
 21
1680.2176053529679
 31
0.0
  0
LINE
  5
217
  8
DATA
  6
CONTINUOUS
 62
     7
 10
1924.599999999914
 20
1680.2176053529679
 30
0.0
 11
1903.099999999914
 21
1658.7176053529679
 31
0.0
  0
LINE
  5
218
  8
DATA
  6
CONTINUOUS
 62
     7
 10
1924.599999999914
 20
1637.217605352969
 30
0.0
 11
1924.599999999914
 21
1680.2176053529679
 31
0.0
  0
LINE
  5
219
  8
DATA
  6
CONTINUOUS
 62
     7
 10
1903.099999999914
 20
1658.7176053529679
 30
0.0
 11
1946.0999999999131
 21
1658.7176053529679
 31
0.0
  0
LINE
  5
21A
  8
DATA
  6
CONTINUOUS
 62
     7
 10
1924.599999999914
 20
1637.217605352969
 30
0.0
 11
1946.0999999999131
 21
1658.7176053529679
 31
0.0
  0
LINE
  5
21B
  8
DATA
  6
CONTINUOUS
 62
     7
 10
1903.099999999914
 20
1658.7176053529679
 30
0.0
 11
1924.599999999914
 21
1637.217605352969
 31
0.0
  0
LINE
  5
21C
  8
DATA
  6
CONTINUOUS
 62
     7
 10
1873.8999999999151
 20
1629.517605352969
 30
0.0
 11
1916.8999999999139
 21
1629.517605352969
 31
0.0
  0
LINE
  5
21D
  8
DATA
  6
CONTINUOUS
 62
     7
 10
1916.8999999999139
 20
1629.517605352969
 30
0.0
 11
1895.3999999999151
 21
1651.017605352969
 31
0.0
  0
LINE
  5
21E
  8
DATA
  6
CONTINUOUS
 62
     7
 10
1895.3999999999151
 20
1608.017605352969
 30
0.0
 11
1895.3999999999151
 21
1651.017605352969
 31
0.0
  0
LINE
  5
21F
  8
DATA
  6
CONTINUOUS
 62
     7
 10
1895.3999999999151
 20
1651.017605352969
 30
0.0
 11
1873.8999999999151
 21
1629.517605352969
 31
0.0
  0
LINE
  5
220
  8
DATA
  6
CONTINUOUS
 62
     7
 10
1895.3999999999151
 20
1608.017605352969
 30
0.0
 11
1916.8999999999139
 21
1629.517605352969
 31
0.0
  0
ARC
  5
221
  8
DATA
  6
CONTINUOUS
 62
     7
 10
1958.599999999916
 20
1747.004563527566
 30
0.0
 40
6.000000000000365
 50
57.058626777129859
 51
89.429190012105863
  0
LINE
  5
222
  8
DATA
  6
CONTINUOUS
 62
     7
 10
1903.099999999914
 20
1541.9176053529679
 30
0.0
 11
1946.0999999999131
 21
1541.9176053529679
 31
0.0
  0
LINE
  5
223
  8
DATA
  6
CONTINUOUS
 62
     7
 10
1924.599999999914
 20
1520.4176053529679
 30
0.0
 11
1946.0999999999131
 21
1541.9176053529679
 31
0.0
  0
LINE
  5
224
  8
DATA
  6
CONTINUOUS
 62
     7
 10
1903.099999999914
 20
1541.9176053529679
 30
0.0
 11
1924.599999999914
 21
1520.4176053529679
 31
0.0
  0
LINE
  5
225
  8
DATA
  6
CONTINUOUS
 62
     7
 10
1946.0999999999131
 20
1541.9176053529679
 30
0.0
 11
1924.599999999914
 21
1563.4176053529679
 31
0.0
  0
LINE
  5
226
  8
DATA
  6
CONTINUOUS
 62
     7
 10
1924.599999999914
 20
1563.4176053529679
 30
0.0
 11
1903.099999999914
 21
1541.9176053529679
 31
0.0
  0
LINE
  5
227
  8
DATA
  6
CONTINUOUS
 62
     7
 10
1924.599999999914
 20
1520.4176053529679
 30
0.0
 11
1924.599999999914
 21
1563.4176053529679
 31
0.0
  0
LINE
  5
228
  8
DATA
  6
CONTINUOUS
 62
     7
 10
1895.3999999999151
 20
1549.6176053529689
 30
0.0
 11
1895.3999999999151
 21
1592.6176053529689
 31
0.0
  0
LINE
  5
229
  8
DATA
  6
CONTINUOUS
 62
     7
 10
1895.3999999999151
 20
1549.6176053529689
 30
0.0
 11
1916.8999999999139
 21
1571.117605352968
 31
0.0
  0
LINE
  5
22A
  8
DATA
  6
CONTINUOUS
 62
     7
 10
1873.8999999999151
 20
1571.117605352968
 30
0.0
 11
1895.3999999999151
 21
1549.6176053529689
 31
0.0
  0
ARC
  5
22B
  8
DATA
  6
CONTINUOUS
 62
     7
 10
2543.9799999999141
 20
1800.0000000002119
 30
0.0
 40
18.999999999999648
 50
52.13635363826819
 51
127.8636463617317
  0
ARC
  5
22C
  8
DATA
  6
CONTINUOUS
 62
     7
 10
2543.9799999999141
 20
1800.0000000002119
 30
0.0
 40
19.000000000000409
 50
232.13635363827001
 51
307.8636463617284
  0
ARC
  5
22D
  8
DATA
  6
CONTINUOUS
 62
     7
 10
2356.0199999999172
 20
1800.0000000002119
 30
0.0
 40
18.99999999999952
 50
52.13635363826873
 51
127.8636463617313
  0
ARC
  5
22E
  8
DATA
  6
CONTINUOUS
 62
     7
 10
2356.0199999999172
 20
1800.0000000002119
 30
0.0
 40
19.000000000000281
 50
232.13635363827049
 51
307.8636463617276
  0
ARC
  5
22F
  8
DATA
  6
CONTINUOUS
 62
     7
 10
2543.9799999999141
 20
1800.0000000002119
 30
0.0
 40
39.999999999999702
 50
22.02431283704216
 51
157.9756871629582
  0
ARC
  5
230
  8
DATA
  6
CONTINUOUS
 62
     7
 10
2543.9799999999141
 20
1800.0000000002119
 30
0.0
 40
40.000000000000313
 50
202.0243128370426
 51
337.97568716295712
  0
ARC
  5
231
  8
DATA
  6
CONTINUOUS
 62
     7
 10
2356.0199999999172
 20
1800.0000000002119
 30
0.0
 40
39.999999999999062
 50
22.02431283704253
 51
157.9756871629582
  0
ARC
  5
232
  8
DATA
  6
CONTINUOUS
 62
     7
 10
2356.0199999999172
 20
1800.0000000002119
 30
0.0
 40
40.000000000000412
 50
202.0243128370426
 51
337.97568716295677
  0
LINE
  5
233
  8
DATA
  6
CONTINUOUS
 62
     7
 10
2609.9799999999209
 20
1800.000000000203
 30
0.0
 11
2576.9799999999232
 21
1742.8423233504359
 31
0.0
  0
LINE
  5
234
  8
DATA
  6
CONTINUOUS
 62
     7
 10
2609.9799999999209
 20
1800.000000000221
 30
0.0
 11
2576.9799999999232
 21
1857.15767664999
 31
0.0
  0
LINE
  5
235
  8
DATA
  6
CONTINUOUS
 62
     7
 10
2510.97999999992
 20
1742.8423233504359
 30
0.0
 11
2576.9799999999159
 21
1742.8423233504379
 31
0.0
  0
LINE
  5
236
  8
DATA
  6
CONTINUOUS
 62
     7
 10
2477.97999999992
 20
1800.000000000203
 30
0.0
 11
2510.9799999999132
 21
1742.8423233504359
 31
0.0
  0
LINE
  5
237
  8
DATA
  6
CONTINUOUS
 62
     7
 10
2477.97999999992
 20
1800.000000000221
 30
0.0
 11
2510.9799999999132
 21
1857.15767664999
 31
0.0
  0
LINE
  5
238
  8
DATA
  6
CONTINUOUS
 62
     7
 10
2510.97999999992
 20
1857.15767664999
 30
0.0
 11
2576.9799999999159
 21
1857.1576766499879
 31
0.0
  0
CIRCLE
  5
239
  8
DATA
  6
CONTINUOUS
 62
     7
 10
2543.9799999999141
 20
1800.0000000002119
 30
0.0
 40
66.000000000001819
  0
LINE
  5
23A
  8
DATA
  6
CONTINUOUS
 62
     7
 10
2422.0199999999209
 20
1800.000000000203
 30
0.0
 11
2389.0199999999209
 21
1742.8423233504359
 31
0.0
  0
LINE
  5
23B
  8
DATA
  6
CONTINUOUS
 62
     7
 10
2422.0199999999209
 20
1800.000000000221
 30
0.0
 11
2389.0199999999209
 21
1857.15767664999
 31
0.0
  0
LINE
  5
23C
  8
DATA
  6
CONTINUOUS
 62
     7
 10
2323.0199999999231
 20
1742.8423233504359
 30
0.0
 11
2389.0199999999209
 21
1742.8423233504379
 31
0.0
  0
LINE
  5
23D
  8
DATA
  6
CONTINUOUS
 62
     7
 10
2323.0199999999231
 20
1857.15767664999
 30
0.0
 11
2389.0199999999209
 21
1857.1576766499879
 31
0.0
  0
LINE
  5
23E
  8
DATA
  6
CONTINUOUS
 62
     7
 10
2359.239999999912
 20
1724.0000000002119
 30
0.0
 11
2542.2399999999088
 21
1724.0000000002119
 31
0.0
  0
LINE
  5
23F
  8
DATA
  6
CONTINUOUS
 62
     7
 10
2359.239999999912
 20
1876.0000000002119
 30
0.0
 11
2542.2399999999088
 21
1876.0000000002119
 31
0.0
  0
ARC
  5
240
  8
DATA
  6
CONTINUOUS
 62
     7
 10
2542.2399999999088
 20
1800.0000000002119
 30
0.0
 40
75.999999999999844
 50
270.00000000000341
 51
89.999999999996575
  0
LINE
  5
241
  8
DATA
  6
CONTINUOUS
 62
     7
 10
2290.019999999914
 20
1800.000000000203
 30
0.0
 11
2323.0199999999131
 21
1742.8423233504359
 31
0.0
  0
LINE
  5
242
  8
DATA
  6
CONTINUOUS
 62
     7
 10
2290.019999999914
 20
1800.000000000221
 30
0.0
 11
2323.0199999999131
 21
1857.15767664999
 31
0.0
  0
CIRCLE
  5
243
  8
DATA
  6
CONTINUOUS
 62
     7
 10
2356.0199999999172
 20
1800.0000000002119
 30
0.0
 40
66.000000000000682
  0
ARC
  5
244
  8
DATA
  6
CONTINUOUS
 62
     7
 10
2359.239999999912
 20
1800.0000000002119
 30
0.0
 40
75.999999999999901
 50
89.999999999996575
 51
270.00000000000341
  0
TEXT
  5
245
  8
DATA
 62
     7
 10
2333.6212856790989
 20
1788.0664062502119
 30
0.0
 40
24.799346923828121
  1
RED
 41
0.7
 11
2333.6212856790989
 21
1812.8657531740409
 31
0.0
 73
     3
  0
TEXT
  5
246
  8
DATA
 62
     7
 10
2521.5812856790958
 20
1788.0664062502119
 30
0.0
 40
24.799346923828121
  1
BLK
 41
0.7
 11
2521.5812856790958
 21
1812.8657531740409
 31
0.0
 73
     3
  0
LINE
  5
247
  8
DATA
  6
CONTINUOUS
 62
     7
 10
1051.6390986428801
 20
1690.99291505973
 30
0.0
 11
1187.257164098824
 21
1318.385342549401
 31
0.0
  0
LINE
  5
248
  8
DATA
  6
CONTINUOUS
 62
     7
 10
1088.246957645905
 20
1736.6038690824951
 30
0.0
 11
1244.6185671743999
 21
1306.9764028591769
 31
0.0
  0
LINE
  5
249
  8
DATA
  6
CONTINUOUS
 62
     7
 10
1310.2899767492991
 20
1698.264183315825
 30
0.0
 11
1310.2899767493
 21
1358.1082641628161
 31
0.0
  0
LINE
  5
24A
  8
DATA
  6
CONTINUOUS
 62
     7
 10
1131.293156563961
 20
1748.444705369041
 30
0.0
 11
1284.1348626479489
 21
1328.5155691523589
 31
0.0
  0
LINE
  5
24B
  8
DATA
  6
CONTINUOUS
 62
     7
 10
1152.002251767841
 20
1751.4849241223851
 30
0.0
 11
1301.6410567068931
 21
1340.3556864781649
 31
0.0
  0
LINE
  5
24C
  8
DATA
  6
STYLE_11
 62
     7
 10
1253.155388522636
 20
1721.0690074553829
 30
0.0
 11
1307.365581239756
 21
1572.1277270608159
 31
0.0
  0
LINE
  5
24D
  8
DATA
  6
CONTINUOUS
 62
     7
 10
1220.4795133341411
 20
1300.828187886395
 30
0.0
 11
1244.6185671743999
 21
1306.9764028591769
 31
0.0
  0
ARC
  5
24E
  8
DATA
  6
CONTINUOUS
 62
     7
 10
1213.695226784663
 20
1328.201595277998
 30
0.0
 40
28.201595277786641
 50
200.369580604947
 51
283.91982625755571
  0
ARC
  5
24F
  8
DATA
  6
CONTINUOUS
 62
     7
 10
1287.7899767492979
 20
1358.1082641628161
 30
0.0
 40
22.500000000000309
 50
305.67303112010268
 51
0.0
  0
ARC
  5
250
  8
DATA
  6
CONTINUOUS
 62
     7
 10
1099.1173265925279
 20
1620.935010580268
 30
0.0
 40
346.03557385481179
 50
294.8649325546034
 51
305.67303112010279
  0
LINE
  5
251
  8
DATA
  6
STYLE_11
 62
     7
 10
1307.365581239756
 20
1572.1277270608159
 30
0.0
 11
1310.2899767492991
 21
1573.1921199795111
 31
0.0
  0
ARC
  5
252
  8
DATA
  6
STYLE_11
 62
     7
 10
1296.257561530208
 20
1586.707849543227
 30
0.0
 40
8.9514285714533628
 50
327.51730069588439
 51
72.48269930413241
  0
ARC
  5
253
  8
DATA
  6
CONTINUOUS
 62
     7
 10
1180.475329702713
 20
1485.4822037829149
 30
0.0
 40
267.52226710142088
 50
64.729525117010397
 51
110.1665516682029
  0
LINE
  5
254
  8
DATA
  6
CONTINUOUS
 62
     7
 10
1065.8033731832729
 20
1725.7973902794411
 30
0.0
 11
1088.246957645905
 21
1736.6038690824951
 31
0.0
  0
ARC
  5
255
  8
DATA
  6
CONTINUOUS
 62
     7
 10
1078.2015952777019
 20
1700.467288323284
 30
0.0
 40
28.20159527778647
 50
116.0801737424446
 51
199.63041939505311
  0
ARC
  5
256
  8
DATA
  6
CONTINUOUS
 62
     7
 10
1275.2899767492979
 20
1698.264183315825
 30
0.0
 40
35.000000000000227
 50
0.0
 51
56.361186640583703
  0
LINE
  5
257
  8
DATA
  6
STYLE_11
 62
     7
 10
1225.3158767227781
 20
1737.619447290791
 30
0.0
 11
1232.833417689066
 21
1740.355608437397
 31
0.0
  0
LINE
  5
258
  8
DATA
  6
STYLE_11
 62
     7
 10
1232.884036670278
 20
1740.21653392952
 30
0.0
 11
1237.9637198389501
 21
1726.260219125608
 31
0.0
  0
LINE
  5
259
  8
DATA
  6
STYLE_11
 62
     7
 10
1230.446178872663
 20
1723.5240579790029
 30
0.0
 11
1237.9637198389501
 21
1726.260219125608
 31
0.0
  0
LINE
  5
25A
  8
DATA
  6
STYLE_11
 62
     7
 10
1234.2952117816401
 20
1736.339362176157
 30
0.0
 11
1243.222291679105
 21
1739.5885535377511
 31
0.0
  0
LINE
  5
25B
  8
DATA
  6
STYLE_11
 62
     7
 10
1236.5525447275891
 20
1730.137390878971
 30
0.0
 11
1245.4796246250551
 21
1733.3865822405651
 31
0.0
  0
LINE
  5
25C
  8
DATA
  6
STYLE_11
 62
     7
 10
1233.166545308665
 20
1739.4403478247509
 30
0.0
 11
1242.093625206131
 21
1742.689539186345
 31
0.0
  0
LINE
  5
25D
  8
DATA
  6
STYLE_11
 62
     7
 10
1246.608291098029
 20
1730.2855965919709
 30
0.0
 11
1237.681211200563
 21
1727.0364052303771
 31
0.0
  0
LINE
  5
25E
  8
DATA
  6
STYLE_11
 62
     7
 10
1242.093625206131
 20
1742.689539186345
 30
0.0
 11
1246.608291098029
 21
1730.2855965919709
 31
0.0
  0
LINE
  5
25F
  8
DATA
  6
STYLE_11
 62
     7
 10
1220.6085210951219
 20
1735.9337785823029
 30
0.0
 11
1225.3069841990521
 21
1737.643879298932
 31
0.0
  0
LINE
  5
260
  8
DATA
  6
STYLE_11
 62
     7
 10
1225.8072272736731
 20
1721.650450746358
 30
0.0
 11
1230.5056903776019
 21
1723.360551462986
 31
0.0
  0
LINE
  5
261
  8
DATA
  6
STYLE_11
 62
     7
 10
1225.3069841990521
 20
1737.643879298932
 30
0.0
 11
1230.5056903776019
 21
1723.360551462986
 31
0.0
  0
LINE
  5
262
  8
DATA
  6
STYLE_11
 62
     7
 10
1215.5593721317059
 20
1749.8062013467541
 30
0.0
 11
1229.193226692596
 21
1712.3474938005779
 31
0.0
  0
LINE
  5
263
  8
DATA
  6
STYLE_11
 62
     7
 10
1229.193226692596
 20
1712.3474938005779
 30
0.0
 11
1253.155388522636
 21
1721.0690074553829
 31
0.0
  0
ARC
  5
264
  8
DATA
  6
STYLE_11
 62
     7
 10
1252.8210033278481
 20
1706.0488123830371
 30
0.0
 40
8.9514285714533557
 50
327.51730069588479
 51
72.482699304132296
  0
ARC
  5
265
  8
DATA
  6
CONTINUOUS
 62
     7
 10
1160.652747287774
 20
1703.090384592615
 30
0.0
 40
6.1328125000001874
 50
130.3510216860945
 51
269.64897831391301
  0
ARC
  5
266
  8
DATA
  6
CONTINUOUS
 62
     7
 10
1156.644370952233
 20
1701.6314549187409
 30
0.0
 40
6.1328125000005329
 50
310.35102168609171
 51
89.648978313913062
  0
ARC
  5
267
  8
DATA
  6
CONTINUOUS
 62
     7
 10
1203.448114028969
 20
1586.3947398488181
 30
0.0
 40
6.1328125000003038
 50
130.3510216860949
 51
269.64897831391249
  0
ARC
  5
268
  8
DATA
  6
CONTINUOUS
 62
     7
 10
1199.439737693428
 20
1584.9358101749431
 30
0.0
 40
6.1328125000006128
 50
310.35102168609183
 51
89.648978313913062
  0
ARC
  5
269
  8
DATA
  6
CONTINUOUS
 62
     7
 10
1245.2227899254699
 20
1469.08656059644
 30
0.0
 40
6.1328125000003038
 50
130.3510216860949
 51
269.64897831391249
  0
ARC
  5
26A
  8
DATA
  6
CONTINUOUS
 62
     7
 10
1241.2144135899291
 20
1467.6276309225671
 30
0.0
 40
6.1328125000006999
 50
310.35102168609109
 51
89.648978313913034
  0
ARC
  5
26B
  8
DATA
  6
CONTINUOUS
 62
     7
 10
1287.527433471837
 20
1352.8541481320569
 30
0.0
 40
6.1328125000003038
 50
130.3510216860949
 51
269.64897831391249
  0
ARC
  5
26C
  8
DATA
  6
CONTINUOUS
 62
     7
 10
1283.5190571362959
 20
1351.3952184581831
 30
0.0
 40
6.1328125000006128
 50
310.35102168609183
 51
89.648978313913062
  0
ARC
  5
26D
  8
DATA
  6
CONTINUOUS
 62
     7
 10
1769.3619841938671
 20
1734.8825824284031
 30
0.0
 40
3.7660158060489799
 50
266.43789216460169
 51
93.562107835398123
  0
ARC
  5
26E
  8
DATA
  6
CONTINUOUS
 62
     7
 10
1769.2383178428749
 20
1734.886041322201
 30
0.0
 40
1.7896854995166021
 50
268.26011415097412
 51
95.331600624818137
  0
ARC
  5
26F
  8
DATA
  6
CONTINUOUS
 62
     7
 10
1769.514073950666
 20
1734.8825824284031
 30
0.0
 40
6.2139260492499586
 50
266.43789671641008
 51
93.562103283589764
  0
ARC
  5
270
  8
DATA
  6
CONTINUOUS
 62
     7
 10
1797.3019526193591
 20
1628.0585086590499
 30
0.0
 40
11.2980473805573
 50
266.43789522684631
 51
93.562104773153635
  0
ARC
  5
271
  8
DATA
  6
CONTINUOUS
 62
     7
 10
1797.477440755729
 20
1628.0585086590499
 30
0.0
 40
14.1225592441874
 50
266.43789402175952
 51
93.562105978240496
  0
LINE
  5
272
  8
DATA
  6
CONTINUOUS
 62
     7
 10
1739.0904721668151
 20
1708.872074046637
 30
0.0
 11
1748.0904721668139
 21
1708.872074046637
 31
0.0
  0
LINE
  5
273
  8
DATA
  6
CONTINUOUS
 62
     7
 10
1743.5904721668151
 20
1704.6434915466371
 30
0.0
 11
1743.5904721668151
 21
1713.1006565466371
 31
0.0
  0
LINE
  5
274
  8
DATA
  6
CONTINUOUS
 62
     7
 10
1765.8279999999161
 20
1740.2536035666681
 30
0.0
 11
1772.427999999916
 21
1740.2536035666669
 31
0.0
  0
LINE
  5
275
  8
DATA
  6
CONTINUOUS
 62
     7
 10
1765.8279999999161
 20
1729.5115612901391
 30
0.0
 11
1772.427999999916
 21
1729.5115612901391
 31
0.0
  0
LINE
  5
276
  8
DATA
  6
CONTINUOUS
 62
     7
 10
1765.8279999999161
 20
1740.2536035666681
 30
0.0
 11
1762.5279999999159
 21
1734.8825824284031
 31
0.0
  0
LINE
  5
277
  8
DATA
  6
CONTINUOUS
 62
     7
 10
1762.5279999999159
 20
1734.8825824284031
 30
0.0
 11
1765.8279999999161
 21
1729.5115612901391
 31
0.0
  0
LINE
  5
278
  8
DATA
  6
CONTINUOUS
 62
     7
 10
1772.427999999916
 20
1729.5115612901391
 30
0.0
 11
1775.727999999915
 21
1734.8825824284031
 31
0.0
  0
LINE
  5
279
  8
DATA
  6
CONTINUOUS
 62
     7
 10
1775.727999999915
 20
1734.8825824284031
 30
0.0
 11
1772.427999999916
 21
1740.2536035666669
 31
0.0
  0
LINE
  5
27A
  8
DATA
  6
CONTINUOUS
 62
     7
 10
1769.1514438034151
 20
1742.0241884284039
 30
0.0
 11
1787.9199999999159
 21
1742.0241884284039
 31
0.0
  0
LINE
  5
27B
  8
DATA
  6
CONTINUOUS
 62
     7
 10
1769.127999999916
 20
1727.748234074799
 30
0.0
 11
1787.9199999999159
 21
1727.748234074799
 31
0.0
  0
LINE
  5
27C
  8
DATA
  6
CONTINUOUS
 62
     7
 10
1784.623999999917
 20
1740.2536035666681
 30
0.0
 11
1791.223999999916
 21
1740.2536035666669
 31
0.0
  0
LINE
  5
27D
  8
DATA
  6
CONTINUOUS
 62
     7
 10
1784.623999999917
 20
1729.5115612901391
 30
0.0
 11
1791.223999999916
 21
1729.5115612901391
 31
0.0
  0
LINE
  5
27E
  8
DATA
  6
CONTINUOUS
 62
     7
 10
1784.623999999917
 20
1740.2536035666681
 30
0.0
 11
1781.3239999999159
 21
1734.8825824284031
 31
0.0
  0
LINE
  5
27F
  8
DATA
  6
CONTINUOUS
 62
     7
 10
1781.3239999999159
 20
1734.8825824284031
 30
0.0
 11
1784.623999999917
 21
1729.5115612901391
 31
0.0
  0
LINE
  5
280
  8
DATA
  6
CONTINUOUS
 62
     7
 10
1791.223999999916
 20
1729.5115612901391
 30
0.0
 11
1794.5239999999151
 21
1734.8825824284031
 31
0.0
  0
LINE
  5
281
  8
DATA
  6
CONTINUOUS
 62
     7
 10
1794.5239999999151
 20
1734.8825824284031
 30
0.0
 11
1791.223999999916
 21
1740.2536035666669
 31
0.0
  0
ARC
  5
282
  8
DATA
  6
CONTINUOUS
 62
     7
 10
1743.1751502090631
 20
1708.872074046637
 30
0.0
 40
6.6846780422500478
 50
86.437894021761096
 51
273.56210597823889
  0
ARC
  5
283
  8
DATA
  6
CONTINUOUS
 62
     7
 10
1744.0057941245659
 20
1708.872074046637
 30
0.0
 40
6.684678042250102
 50
266.43789402175378
 51
93.562105978231116
  0
LINE
  5
284
  8
DATA
  6
CONTINUOUS
 62
     7
 10
1809.08104202043
 20
1708.8720740466381
 30
0.0
 11
1818.08104202043
 21
1708.8720740466381
 31
0.0
  0
LINE
  5
285
  8
DATA
  6
CONTINUOUS
 62
     7
 10
1813.58104202043
 20
1704.6434915466371
 30
0.0
 11
1813.58104202043
 21
1713.1006565466371
 31
0.0
  0
ARC
  5
286
  8
DATA
  6
CONTINUOUS
 62
     7
 10
1813.1657200626789
 20
1708.8720740466381
 30
0.0
 40
6.6846780422500478
 50
86.437894021761096
 51
273.56210597823889
  0
ARC
  5
287
  8
DATA
  6
CONTINUOUS
 62
     7
 10
1813.9963639781811
 20
1708.8720740466381
 30
0.0
 40
6.684678042250102
 50
266.43789402175378
 51
93.562105978231116
  0
LINE
  5
288
  8
DATA
  6
CONTINUOUS
 62
     7
 10
1739.0898037018189
 20
1589.5311112068271
 30
0.0
 11
1748.0898037018189
 21
1589.5311112068271
 31
0.0
  0
LINE
  5
289
  8
DATA
  6
CONTINUOUS
 62
     7
 10
1743.5898037018189
 20
1585.3025287068269
 30
0.0
 11
1743.5898037018189
 21
1593.759693706827
 31
0.0
  0
ARC
  5
28A
  8
DATA
  6
CONTINUOUS
 62
     7
 10
1743.1744817440681
 20
1589.5311112068271
 30
0.0
 40
6.6846780422501046
 50
86.43789402176111
 51
273.56210597823889
  0
ARC
  5
28B
  8
DATA
  6
CONTINUOUS
 62
     7
 10
1744.00512565957
 20
1589.5311112068271
 30
0.0
 40
6.6846780422501579
 50
266.43789402175378
 51
93.562105978231173
  0
LINE
  5
28C
  8
DATA
  6
CONTINUOUS
 62
     7
 10
1809.1004323620521
 20
1589.5311112068271
 30
0.0
 11
1818.1004323620521
 21
1589.5311112068271
 31
0.0
  0
LINE
  5
28D
  8
DATA
  6
CONTINUOUS
 62
     7
 10
1813.6004323620521
 20
1585.3025287068269
 30
0.0
 11
1813.6004323620521
 21
1593.759693706827
 31
0.0
  0
ARC
  5
28E
  8
DATA
  6
CONTINUOUS
 62
     7
 10
1813.185110404301
 20
1589.5311112068271
 30
0.0
 40
6.6846780422501046
 50
86.43789402176111
 51
273.56210597823889
  0
ARC
  5
28F
  8
DATA
  6
CONTINUOUS
 62
     7
 10
1814.015754319804
 20
1589.5311112068271
 30
0.0
 40
6.6846780422501579
 50
266.43789402175378
 51
93.562105978231173
  0
ARC
  5
290
  8
DATA
  6
CONTINUOUS
 62
     7
 10
1795.7225592441041
 20
1628.0585086590499
 30
0.0
 40
14.12255924418735
 50
86.437894021759703
 51
273.56210597824031
  0
ARC
  5
291
  8
DATA
  6
CONTINUOUS
 62
     7
 10
1795.898047410059
 20
1628.0585086590499
 30
0.0
 40
11.29804741014231
 50
86.437892816671933
 51
273.56210718332801
  0
ARC
  5
292
  8
DATA
  6
CONTINUOUS
 62
     7
 10
1768.7419260855511
 20
1734.8825824284031
 30
0.0
 40
6.2139260856348644
 50
86.437891327111956
 51
273.56210867288809
  0
ARC
  5
293
  8
DATA
  6
CONTINUOUS
 62
     7
 10
1768.989564953785
 20
1734.886457837566
 30
0.0
 40
7.1395660056708046
 50
88.70079361359781
 51
271.11102565180079
  0
ARC
  5
294
  8
DATA
  6
CONTINUOUS
 62
     7
 10
1768.8940158059661
 20
1734.8825824284031
 30
0.0
 40
3.7660158060488098
 50
86.437892164601635
 51
273.56210783539848
  0
ARC
  5
295
  8
DATA
  6
CONTINUOUS
 62
     7
 10
1769.017682156958
 20
1734.886041322201
 30
0.0
 40
1.7896854995165521
 50
84.668399375181565
 51
271.739885849026
  0
ARC
  5
296
  8
DATA
  6
CONTINUOUS
 62
     7
 10
1788.0818788495451
 20
1734.886457837566
 30
0.0
 40
7.1395660056708099
 50
268.88897434819933
 51
91.299206386402119
  0
ARC
  5
297
  8
DATA
  6
CONTINUOUS
 62
     7
 10
1788.153984193867
 20
1734.8825824284031
 30
0.0
 40
3.7660158060489799
 50
266.43789216460169
 51
93.562107835398123
  0
ARC
  5
298
  8
DATA
  6
CONTINUOUS
 62
     7
 10
1788.030317842874
 20
1734.886041322201
 30
0.0
 40
1.7896854995166021
 50
268.26011415097412
 51
95.331600624818137
  0
ARC
  5
299
  8
DATA
  6
CONTINUOUS
 62
     7
 10
1787.686015805964
 20
1734.8825824284031
 30
0.0
 40
3.7660158060488098
 50
86.437892164601635
 51
273.56210783539848
  0
ARC
  5
29A
  8
DATA
  6
CONTINUOUS
 62
     7
 10
1787.809682156957
 20
1734.886041322201
 30
0.0
 40
1.7896854995165521
 50
84.668399375181565
 51
271.739885849026
  0
ARC
  5
29B
  8
DATA
  6
CONTINUOUS
 62
     7
 10
1788.3140739506659
 20
1734.8825824284031
 30
0.0
 40
6.2139260492499586
 50
266.43789671641008
 51
93.562103283589764
  0
ARC
  5
29C
  8
DATA
  6
CONTINUOUS
 62
     7
 10
1787.541926085551
 20
1734.8825824284031
 30
0.0
 40
6.2139260856348644
 50
86.437891327111956
 51
273.56210867288809
  0
ARC
  5
29D
  8
DATA
  6
CONTINUOUS
 62
     7
 10
539.57393371004127
 20
2135.002978193631
 30
0.0
 40
19.48892053753924
 50
10.468940502613689
 51
29.312304216750249
  0
LINE
  5
29E
  8
DATA
  6
CONTINUOUS
 62
     7
 10
524.99999999991724
 20
2000.000000000213
 30
0.0
 11
932.19999999991671
 21
2000.000000000213
 31
0.0
  0
LINE
  5
29F
  8
DATA
  6
CONTINUOUS
 62
     7
 10
499.99999999991678
 20
2038.246957646202
 30
0.0
 11
957.19999999991671
 21
2038.246957646202
 31
0.0
  0
LINE
  5
2A0
  8
DATA
  6
CONTINUOUS
 62
     7
 10
548.58573033968423
 20
2260.289976749596
 30
0.0
 11
908.59343767100233
 21
2260.289976749596
 31
0.0
  0
ARC
  5
2A1
  8
DATA
  6
CONTINUOUS
 62
     7
 10
787.33731641844895
 20
2058.0398415215041
 30
0.0
 40
8.5000000000688924
 50
61.927513064537152
 51
118.0724869358622
  0
LINE
  5
2A2
  8
DATA
  6
CONTINUOUS
 62
     7
 10
783.33731641841564
 20
2065.5398415215641
 30
0.0
 11
791.33731641841564
 21
2065.539841521565
 31
0.0
  0
LINE
  5
2A3
  8
DATA
  6
CONTINUOUS
 62
     7
 10
780.33731641841518
 20
2063.5398415215641
 30
0.0
 11
794.33731641841564
 21
2063.539841521565
 31
0.0
  0
LINE
  5
2A4
  8
DATA
  6
CONTINUOUS
 62
     7
 10
677.58020353867585
 20
2203.155388522935
 30
0.0
 11
779.58020353867494
 21
2203.155388522935
 31
0.0
  0
LINE
  5
2A5
  8
DATA
  6
CONTINUOUS
 62
     7
 10
677.58020353867585
 20
2257.365581240053
 30
0.0
 11
779.58020353867494
 21
2257.365581240053
 31
0.0
  0
LINE
  5
2A6
  8
DATA
  6
CONTINUOUS
 62
     7
 10
677.58020353867585
 20
2165.5593721320038
 30
0.0
 11
779.58020353867494
 21
2165.5593721320038
 31
0.0
  0
ARC
  5
2A7
  8
DATA
  6
CONTINUOUS
 62
     7
 10
693.72920353867153
 20
2205.1822607368281
 30
0.0
 40
7.6180958278942867
 50
21.25259915042799
 51
158.74740084954269
  0
ARC
  5
2A8
  8
DATA
  6
CONTINUOUS
 62
     7
 10
693.72920353867153
 20
2217.1090046411919
 30
0.0
 40
11.593677129323099
 50
232.2365575379722
 51
307.76344246207009
  0
LINE
  5
2A9
  8
DATA
  6
CONTINUOUS
 62
     7
 10
677.58020353867585
 20
2179.1932266928929
 30
0.0
 11
712.65620353867587
 21
2179.1932266928929
 31
0.0
  0
ARC
  5
2AA
  8
DATA
  6
CONTINUOUS
 62
     7
 10
693.72920353867084
 20
2260.545562843552
 30
0.0
 40
11.59367712932287
 50
232.23655753797419
 51
307.7634424620698
  0
ARC
  5
2AB
  8
DATA
  6
CONTINUOUS
 62
     7
 10
693.72920353867084
 20
2248.6188189391878
 30
0.0
 40
7.6180958278942867
 50
21.25259915042799
 51
158.74740084954169
  0
LINE
  5
2AC
  8
DATA
  6
CONTINUOUS
 62
     7
 10
677.58020353867585
 20
2165.5593721320038
 30
0.0
 11
677.58020353867585
 21
2260.289976749596
 31
0.0
  0
LINE
  5
2AD
  8
DATA
  6
CONTINUOUS
 62
     7
 10
674.58020353867585
 20
2260.289976749596
 30
0.0
 11
677.58020353867585
 21
2165.5593721320038
 31
0.0
  0
LINE
  5
2AE
  8
DATA
  6
CONTINUOUS
 62
     7
 10
542.62213308813079
 20
2254.7219566832159
 30
0.0
 11
531.67236907398001
 21
2103.0295218146871
 31
0.0
  0
ARC
  5
2AF
  8
DATA
  6
CONTINUOUS
 62
     7
 10
524.99999999991724
 20
2020.0000000002119
 30
0.0
 40
20.000000000000082
 50
192.53588006977591
 51
270.0
  0
LINE
  5
2B0
  8
DATA
  6
CONTINUOUS
 62
     7
 10
499.99999999991678
 20
2038.246957646202
 30
0.0
 11
505.47679448544022
 21
2015.658980944793
 31
0.0
  0
ARC
  5
2B1
  8
DATA
  6
CONTINUOUS
 62
     7
 10
669.8373164184494
 20
2058.0398415215041
 30
0.0
 40
8.5000000000686793
 50
61.927513064539859
 51
118.0724869358623
  0
LINE
  5
2B2
  8
DATA
  6
CONTINUOUS
 62
     7
 10
665.83731641841484
 20
2065.5398415215641
 30
0.0
 11
673.83731641841575
 21
2065.539841521565
 31
0.0
  0
LINE
  5
2B3
  8
DATA
  6
CONTINUOUS
 62
     7
 10
673.83731641841575
 20
2063.539841521565
 30
0.0
 11
673.83731641841575
 21
2065.539841521565
 31
0.0
  0
LINE
  5
2B4
  8
DATA
  6
CONTINUOUS
 62
     7
 10
665.83731641841575
 20
2063.539841521565
 30
0.0
 11
665.83731641841575
 21
2065.539841521565
 31
0.0
  0
LINE
  5
2B5
  8
DATA
  6
CONTINUOUS
 62
     7
 10
662.83731641841575
 20
2063.5398415215641
 30
0.0
 11
676.83731641841484
 21
2063.539841521565
 31
0.0
  0
ARC
  5
2B6
  8
DATA
  6
CONTINUOUS
 62
     7
 10
552.33731641844952
 20
2058.0398415215041
 30
0.0
 40
8.5000000000688924
 50
61.927513064537152
 51
118.0724869358622
  0
LINE
  5
2B7
  8
DATA
  6
CONTINUOUS
 62
     7
 10
548.33731641841541
 20
2065.5398415215641
 30
0.0
 11
556.33731641841541
 21
2065.539841521565
 31
0.0
  0
LINE
  5
2B8
  8
DATA
  6
CONTINUOUS
 62
     7
 10
556.33731641841541
 20
2063.539841521565
 30
0.0
 11
556.33731641841541
 21
2065.539841521565
 31
0.0
  0
LINE
  5
2B9
  8
DATA
  6
CONTINUOUS
 62
     7
 10
548.33731641841541
 20
2063.539841521565
 30
0.0
 11
548.33731641841541
 21
2065.539841521565
 31
0.0
  0
LINE
  5
2BA
  8
DATA
  6
CONTINUOUS
 62
     7
 10
545.33731641841484
 20
2063.5398415215641
 30
0.0
 11
559.3373164184153
 21
2063.539841521565
 31
0.0
  0
LINE
  5
2BB
  8
DATA
  6
CONTINUOUS
 62
     7
 10
545.33731641841484
 20
2063.5398415215641
 30
0.0
 11
545.33731641841484
 21
2132.5398415215641
 31
0.0
  0
LINE
  5
2BC
  8
DATA
  6
CONTINUOUS
 62
     7
 10
559.3373164184153
 20
2063.5398415215641
 30
0.0
 11
559.3373164184153
 21
2132.5398415215641
 31
0.0
  0
LINE
  5
2BD
  8
DATA
  6
CONTINUOUS
 62
     7
 10
662.83731641841575
 20
2063.5398415215641
 30
0.0
 11
662.83731641841575
 21
2132.5398415215641
 31
0.0
  0
LINE
  5
2BE
  8
DATA
  6
CONTINUOUS
 62
     7
 10
676.83731641841484
 20
2063.5398415215641
 30
0.0
 11
676.83731641841484
 21
2132.5398415215641
 31
0.0
  0
ARC
  5
2BF
  8
DATA
  6
CONTINUOUS
 62
     7
 10
529.67755932708042
 20
2103.1735151258931
 30
0.0
 40
1.999999999999819
 50
307.62060343385002
 51
355.87132339717567
  0
LINE
  5
2C0
  8
DATA
  6
CONTINUOUS
 62
     7
 10
504.76789077569993
 20
2080.681185550668
 30
0.0
 11
499.99999999991678
 21
2038.2469576462031
 31
0.0
  0
LINE
  5
2C1
  8
DATA
  6
CONTINUOUS
 62
     7
 10
530.89841938713096
 20
2101.58937475529
 30
0.0
 11
505.53452433988292
 21
2082.0420120309068
 31
0.0
  0
ARC
  5
2C2
  8
DATA
  6
CONTINUOUS
 62
     7
 10
506.7553843999334
 20
2080.457871660305
 30
0.0
 40
1.999999999999819
 50
127.62060343384989
 51
173.5891599797657
  0
ARC
  5
2C3
  8
DATA
  6
CONTINUOUS
 62
     7
 10
548.58573033968423
 20
2254.289976749596
 30
0.0
 40
6.0
 50
90.0
 51
175.87132339717871
  0
LINE
  5
2C4
  8
DATA
  6
CONTINUOUS
 62
     7
 10
711.83020353867494
 20
2165.5593721320029
 30
0.0
 11
711.83020353867494
 21
2170.5593721320038
 31
0.0
  0
LINE
  5
2C5
  8
DATA
  6
CONTINUOUS
 62
     7
 10
779.58020353867494
 20
2165.5593721320038
 30
0.0
 11
779.58020353867494
 21
2260.289976749596
 31
0.0
  0
LINE
  5
2C6
  8
DATA
  6
CONTINUOUS
 62
     7
 10
779.58020353867494
 20
2165.5593721320038
 30
0.0
 11
782.58020353867494
 21
2260.289976749596
 31
0.0
  0
LINE
  5
2C7
  8
DATA
  6
CONTINUOUS
 62
     7
 10
745.33020353867494
 20
2165.5593721320029
 30
0.0
 11
745.33020353867494
 21
2170.5593721320038
 31
0.0
  0
LINE
  5
2C8
  8
DATA
  6
CONTINUOUS
 62
     7
 10
783.33731641841564
 20
2063.539841521565
 30
0.0
 11
783.33731641841564
 21
2065.539841521565
 31
0.0
  0
LINE
  5
2C9
  8
DATA
  6
CONTINUOUS
 62
     7
 10
780.33731641841518
 20
2063.5398415215641
 30
0.0
 11
780.33731641841518
 21
2132.5398415215641
 31
0.0
  0
LINE
  5
2CA
  8
DATA
  6
CONTINUOUS
 62
     7
 10
711.68220353867571
 20
2170.5593721320038
 30
0.0
 11
745.47820353867485
 21
2170.5593721320038
 31
0.0
  0
LINE
  5
2CB
  8
DATA
  6
CONTINUOUS
 62
     7
 10
731.45220353867558
 20
2188.0593721320029
 30
0.0
 11
744.65220353867494
 21
2188.0593721320029
 31
0.0
  0
LINE
  5
2CC
  8
DATA
  6
CONTINUOUS
 62
     7
 10
730.62620353867555
 20
2178.5593721320029
 30
0.0
 11
745.47820353867485
 21
2178.5593721320029
 31
0.0
  0
LINE
  5
2CD
  8
DATA
  6
CONTINUOUS
 62
     7
 10
725.85620353867523
 20
2179.1932266928929
 30
0.0
 11
731.45220353867558
 21
2179.1932266928929
 31
0.0
  0
LINE
  5
2CE
  8
DATA
  6
CONTINUOUS
 62
     7
 10
731.45220353867558
 20
2178.5593721320029
 30
0.0
 11
731.45220353867558
 21
2188.0593721320038
 31
0.0
  0
LINE
  5
2CF
  8
DATA
  6
CONTINUOUS
 62
     7
 10
734.75220353867542
 20
2178.5593721320029
 30
0.0
 11
734.75220353867542
 21
2188.0593721320029
 31
0.0
  0
LINE
  5
2D0
  8
DATA
  6
CONTINUOUS
 62
     7
 10
730.47820353867553
 20
2170.5593721320038
 30
0.0
 11
730.47820353867553
 21
2178.5593721320051
 31
0.0
  0
LINE
  5
2D1
  8
DATA
  6
CONTINUOUS
 62
     7
 10
712.65620353867587
 20
2188.0593721320029
 30
0.0
 11
725.85620353867523
 21
2188.0593721320029
 31
0.0
  0
LINE
  5
2D2
  8
DATA
  6
CONTINUOUS
 62
     7
 10
725.85620353867523
 20
2188.0593721320029
 30
0.0
 11
725.85620353867523
 21
2178.5593721320029
 31
0.0
  0
LINE
  5
2D3
  8
DATA
  6
CONTINUOUS
 62
     7
 10
712.65620353867587
 20
2178.5593721320029
 30
0.0
 11
712.65620353867587
 21
2188.0593721320038
 31
0.0
  0
LINE
  5
2D4
  8
DATA
  6
CONTINUOUS
 62
     7
 10
722.55620353867585
 20
2178.5593721320029
 30
0.0
 11
722.55620353867585
 21
2188.0593721320038
 31
0.0
  0
LINE
  5
2D5
  8
DATA
  6
CONTINUOUS
 62
     7
 10
715.95620353867525
 20
2178.5593721320029
 30
0.0
 11
715.95620353867525
 21
2188.0593721320029
 31
0.0
  0
LINE
  5
2D6
  8
DATA
  6
CONTINUOUS
 62
     7
 10
726.68220353867525
 20
2170.5593721320038
 30
0.0
 11
726.68220353867525
 21
2178.5593721320029
 31
0.0
  0
LINE
  5
2D7
  8
DATA
  6
CONTINUOUS
 62
     7
 10
711.83020353867585
 20
2178.5593721320029
 30
0.0
 11
726.68220353867525
 21
2178.5593721320029
 31
0.0
  0
LINE
  5
2D8
  8
DATA
  6
CONTINUOUS
 62
     7
 10
711.68220353867571
 20
2170.5593721320038
 30
0.0
 11
711.68220353867571
 21
2178.5593721320051
 31
0.0
  0
ARC
  5
2D9
  8
DATA
  6
CONTINUOUS
 62
     7
 10
763.579203538672
 20
2205.182260736829
 30
0.0
 40
7.6180958278942867
 50
21.25259915042799
 51
158.74740084954169
  0
ARC
  5
2DA
  8
DATA
  6
CONTINUOUS
 62
     7
 10
763.579203538672
 20
2217.1090046411932
 30
0.0
 40
11.59367712932282
 50
232.23655753797411
 51
307.76344246207009
  0
LINE
  5
2DB
  8
DATA
  6
CONTINUOUS
 62
     7
 10
744.65220353867494
 20
2179.1932266928929
 30
0.0
 11
779.58020353867494
 21
2179.1932266928929
 31
0.0
  0
LINE
  5
2DC
  8
DATA
  6
CONTINUOUS
 62
     7
 10
744.65220353867494
 20
2188.0593721320029
 30
0.0
 11
744.65220353867494
 21
2178.5593721320029
 31
0.0
  0
LINE
  5
2DD
  8
DATA
  6
CONTINUOUS
 62
     7
 10
741.35220353867578
 20
2178.5593721320029
 30
0.0
 11
741.35220353867578
 21
2188.0593721320038
 31
0.0
  0
LINE
  5
2DE
  8
DATA
  6
CONTINUOUS
 62
     7
 10
745.47820353867485
 20
2170.5593721320038
 30
0.0
 11
745.47820353867485
 21
2178.5593721320029
 31
0.0
  0
ARC
  5
2DF
  8
DATA
  6
CONTINUOUS
 62
     7
 10
763.57920353867155
 20
2260.545562843552
 30
0.0
 40
11.59367712932314
 50
232.23655753797249
 51
307.76344246206799
  0
ARC
  5
2E0
  8
DATA
  6
CONTINUOUS
 62
     7
 10
763.57920353867155
 20
2248.6188189391878
 30
0.0
 40
7.6180958278938649
 50
21.252599150429219
 51
158.74740084954311
  0
LINE
  5
2E1
  8
DATA
  6
CONTINUOUS
 62
     7
 10
914.57786691170259
 20
2254.7219566832159
 30
0.0
 11
925.52763092585349
 21
2103.0295218146871
 31
0.0
  0
ARC
  5
2E2
  8
DATA
  6
CONTINUOUS
 62
     7
 10
932.19999999991671
 20
2020.0000000002119
 30
0.0
 40
19.999999999999911
 50
270.0
 51
347.46411993022213
  0
LINE
  5
2E3
  8
DATA
  6
CONTINUOUS
 62
     7
 10
951.72320551439259
 20
2015.6589809447919
 30
0.0
 11
957.19999999991671
 21
2038.246957646202
 31
0.0
  0
LINE
  5
2E4
  8
DATA
  6
CONTINUOUS
 62
     7
 10
911.83731641841518
 20
2063.5398415215641
 30
0.0
 11
911.83731641841518
 21
2132.5398415215641
 31
0.0
  0
ARC
  5
2E5
  8
DATA
  6
CONTINUOUS
 62
     7
 10
904.83731641844838
 20
2058.0398415215041
 30
0.0
 40
8.5000000000688924
 50
61.927513064537152
 51
118.0724869358622
  0
LINE
  5
2E6
  8
DATA
  6
CONTINUOUS
 62
     7
 10
900.83731641841507
 20
2065.5398415215641
 30
0.0
 11
908.83731641841507
 21
2065.539841521565
 31
0.0
  0
LINE
  5
2E7
  8
DATA
  6
CONTINUOUS
 62
     7
 10
908.83731641841507
 20
2063.539841521565
 30
0.0
 11
908.83731641841507
 21
2065.539841521565
 31
0.0
  0
LINE
  5
2E8
  8
DATA
  6
CONTINUOUS
 62
     7
 10
900.83731641841507
 20
2063.539841521565
 30
0.0
 11
900.83731641841507
 21
2065.539841521565
 31
0.0
  0
LINE
  5
2E9
  8
DATA
  6
CONTINUOUS
 62
     7
 10
897.83731641841462
 20
2063.5398415215641
 30
0.0
 11
911.83731641841518
 21
2063.539841521565
 31
0.0
  0
LINE
  5
2EA
  8
DATA
  6
CONTINUOUS
 62
     7
 10
791.33731641841564
 20
2063.539841521565
 30
0.0
 11
791.33731641841564
 21
2065.539841521565
 31
0.0
  0
LINE
  5
2EB
  8
DATA
  6
CONTINUOUS
 62
     7
 10
897.83731641841462
 20
2063.5398415215641
 30
0.0
 11
897.83731641841462
 21
2132.5398415215641
 31
0.0
  0
LINE
  5
2EC
  8
DATA
  6
CONTINUOUS
 62
     7
 10
794.33731641841564
 20
2063.5398415215641
 30
0.0
 11
794.33731641841564
 21
2132.5398415215641
 31
0.0
  0
ARC
  5
2ED
  8
DATA
  6
CONTINUOUS
 62
     7
 10
927.52244067275331
 20
2103.1735151258931
 30
0.0
 40
1.9999999999999081
 50
184.12867660282379
 51
232.37939656614029
  0
LINE
  5
2EE
  8
DATA
  6
CONTINUOUS
 62
     7
 10
952.4321092241338
 20
2080.681185550668
 30
0.0
 11
957.19999999991671
 21
2038.2469576462031
 31
0.0
  0
LINE
  5
2EF
  8
DATA
  6
CONTINUOUS
 62
     7
 10
926.30158061270254
 20
2101.58937475529
 30
0.0
 11
951.66547565995074
 21
2082.0420120309068
 31
0.0
  0
ARC
  5
2F0
  8
DATA
  6
CONTINUOUS
 62
     7
 10
950.44461559990009
 20
2080.457871660305
 30
0.0
 40
2.0000000000000608
 50
6.410840020234339
 51
52.379396566151463
  0
ARC
  5
2F1
  8
DATA
  6
CONTINUOUS
 62
     7
 10
908.59343767100233
 20
2254.289976749596
 30
0.0
 40
6.0000000000001608
 50
4.1286766028213124
 51
90.0
  0
ARC
  5
2F2
  8
DATA
  6
CONTINUOUS
 62
     7
 10
551.6276160687944
 20
2142.0539314555831
 30
0.0
 40
5.5321278855154796
 50
26.75266650194499
 51
82.601355409825985
  0
ARC
  5
2F3
  8
DATA
  6
CONTINUOUS
 62
     7
 10
519.97400105414727
 20
2131.6515300027991
 30
0.0
 40
39.372446903527958
 50
1.2990941188581651
 51
10.08228712371235
  0
ARC
  5
2F4
  8
DATA
  6
CONTINUOUS
 62
     7
 10
565.10606628979212
 20
2135.002978193631
 30
0.0
 40
19.488920537539141
 50
150.68769578324981
 51
169.53105949738631
  0
ARC
  5
2F5
  8
DATA
  6
CONTINUOUS
 62
     7
 10
553.05238393103889
 20
2142.0539314555831
 30
0.0
 40
5.5321278855155924
 50
97.398644590174001
 51
153.24733349805501
  0
ARC
  5
2F6
  8
DATA
  6
CONTINUOUS
 62
     7
 10
584.70599894568591
 20
2131.6515300027991
 30
0.0
 40
39.372446903527972
 50
169.9177128762876
 51
178.70090588114181
  0
ARC
  5
2F7
  8
DATA
  6
CONTINUOUS
 62
     7
 10
657.07393371004127
 20
2135.002978193631
 30
0.0
 40
19.48892053753924
 50
10.468940502613689
 51
29.312304216750078
  0
ARC
  5
2F8
  8
DATA
  6
CONTINUOUS
 62
     7
 10
669.1276160687944
 20
2142.0539314555831
 30
0.0
 40
5.5321278855155827
 50
26.752666501944461
 51
82.601355409825985
  0
ARC
  5
2F9
  8
DATA
  6
CONTINUOUS
 62
     7
 10
637.47400105414749
 20
2131.6515300027991
 30
0.0
 40
39.372446903527958
 50
1.2990941188581651
 51
10.08228712371235
  0
ARC
  5
2FA
  8
DATA
  6
CONTINUOUS
 62
     7
 10
682.60606628979212
 20
2135.002978193631
 30
0.0
 40
19.48892053753924
 50
150.68769578324989
 51
169.53105949738631
  0
ARC
  5
2FB
  8
DATA
  6
CONTINUOUS
 62
     7
 10
670.552383931039
 20
2142.0539314555831
 30
0.0
 40
5.5321278855155924
 50
97.398644590174001
 51
153.2473334980555
  0
ARC
  5
2FC
  8
DATA
  6
CONTINUOUS
 62
     7
 10
702.20599894568591
 20
2131.6515300027991
 30
0.0
 40
39.372446903527972
 50
169.9177128762876
 51
178.70090588114181
  0
ARC
  5
2FD
  8
DATA
  6
CONTINUOUS
 62
     7
 10
774.57393371004105
 20
2135.002978193631
 30
0.0
 40
19.48892053753924
 50
10.468940502613689
 51
29.312304216750078
  0
ARC
  5
2FE
  8
DATA
  6
CONTINUOUS
 62
     7
 10
786.62761606879428
 20
2142.0539314555831
 30
0.0
 40
5.5321278855155827
 50
26.752666501944461
 51
82.601355409825985
  0
ARC
  5
2FF
  8
DATA
  6
CONTINUOUS
 62
     7
 10
754.97400105414749
 20
2131.6515300027991
 30
0.0
 40
39.372446903527958
 50
1.2990941188581651
 51
10.08228712371235
  0
ARC
  5
300
  8
DATA
  6
CONTINUOUS
 62
     7
 10
800.10606628979224
 20
2135.002978193631
 30
0.0
 40
19.48892053753924
 50
150.68769578324989
 51
169.53105949738631
  0
ARC
  5
301
  8
DATA
  6
CONTINUOUS
 62
     7
 10
788.052383931039
 20
2142.0539314555831
 30
0.0
 40
5.5321278855155924
 50
97.398644590174001
 51
153.2473334980555
  0
ARC
  5
302
  8
DATA
  6
CONTINUOUS
 62
     7
 10
819.70599894568579
 20
2131.6515300027991
 30
0.0
 40
39.372446903527972
 50
169.9177128762876
 51
178.70090588114181
  0
ARC
  5
303
  8
DATA
  6
CONTINUOUS
 62
     7
 10
892.07393371004116
 20
2135.002978193631
 30
0.0
 40
19.48892053753924
 50
10.468940502613689
 51
29.312304216750078
  0
ARC
  5
304
  8
DATA
  6
CONTINUOUS
 62
     7
 10
904.1276160687944
 20
2142.0539314555831
 30
0.0
 40
5.5321278855155827
 50
26.752666501944461
 51
82.601355409825985
  0
ARC
  5
305
  8
DATA
  6
CONTINUOUS
 62
     7
 10
872.47400105414749
 20
2131.6515300027991
 30
0.0
 40
39.372446903527958
 50
1.2990941188581651
 51
10.08228712371235
  0
ARC
  5
306
  8
DATA
  6
CONTINUOUS
 62
     7
 10
917.60606628979212
 20
2135.002978193631
 30
0.0
 40
19.48892053753924
 50
150.68769578324989
 51
169.53105949738631
  0
ARC
  5
307
  8
DATA
  6
CONTINUOUS
 62
     7
 10
905.552383931039
 20
2142.0539314555831
 30
0.0
 40
5.5321278855155924
 50
97.398644590174001
 51
153.2473334980555
  0
ARC
  5
308
  8
DATA
  6
CONTINUOUS
 62
     7
 10
937.20599894568613
 20
2131.6515300027991
 30
0.0
 40
39.372446903527972
 50
169.9177128762876
 51
178.70090588114181
  0
ARC
  5
309
  8
DATA
  6
CONTINUOUS
 62
     7
 10
1782.6057160068781
 20
1395.493823914504
 30
0.0
 40
1.147619213346287
 50
307.64190249757729
 51
354.26701928939019
  0
LINE
  5
30A
  8
DATA
  6
CONTINUOUS
 62
     7
 10
1753.1277230980149
 20
1413.578445351762
 30
0.0
 11
1758.5077790980149
 21
1426.3976133517631
 31
0.0
  0
LINE
  5
30B
  8
DATA
  6
CONTINUOUS
 62
     7
 10
1753.1277230980149
 20
1413.578445351762
 30
0.0
 11
1747.8140510980149
 21
1426.3976133517631
 31
0.0
  0
LINE
  5
30C
  8
DATA
  6
CONTINUOUS
 62
     7
 10
1793.9099630980149
 20
1390.3976133517619
 30
0.0
 11
1793.9099630980149
 21
1426.3976133517631
 31
0.0
  0
LINE
  5
30D
  8
DATA
  6
CONTINUOUS
 62
     7
 10
1800.817715098015
 20
1426.3976133517631
 30
0.0
 11
1800.817715098015
 21
1395.910509351763
 31
0.0
  0
LINE
  5
30E
  8
DATA
  6
CONTINUOUS
 62
     7
 10
1761.031775098015
 20
1426.3976133517631
 30
0.0
 11
1761.031775098015
 21
1395.910509351763
 31
0.0
  0
LINE
  5
30F
  8
DATA
  6
CONTINUOUS
 62
     7
 10
1767.6738470980149
 20
1426.3976133517631
 30
0.0
 11
1767.6738470980149
 21
1395.910509351763
 31
0.0
  0
LINE
  5
310
  8
DATA
  6
CONTINUOUS
 62
     7
 10
1771.1277230980149
 20
1426.3976133517631
 30
0.0
 11
1771.1277230980149
 21
1390.3976133517619
 31
0.0
  0
LINE
  5
311
  8
DATA
  6
CONTINUOUS
 62
     7
 10
1777.172015098015
 20
1423.0101933517631
 30
0.0
 11
1777.172015098015
 21
1411.452969351762
 31
0.0
  0
LINE
  5
312
  8
DATA
  6
CONTINUOUS
 62
     7
 10
1790.126903098015
 20
1412.121705351763
 30
0.0
 11
1790.126903098015
 21
1420.552581351764
 31
0.0
  0
LINE
  5
313
  8
DATA
  6
CONTINUOUS
 62
     7
 10
1783.7475950980149
 20
1421.4160773517631
 30
0.0
 11
1783.7475950980149
 21
1413.047049351763
 31
0.0
  0
ARC
  5
314
  8
DATA
  6
CONTINUOUS
 62
     7
 10
1759.6989110980151
 20
1399.6416933517619
 30
0.0
 40
9.2838723306036304
 50
264.69085622153602
 51
323.9911991542462
  0
LINE
  5
315
  8
DATA
  6
CONTINUOUS
 62
     7
 10
1755.983819098014
 20
1401.689157351763
 30
0.0
 11
1755.983819098014
 21
1395.9105813517631
 31
0.0
  0
LINE
  5
316
  8
DATA
  6
CONTINUOUS
 62
     7
 10
1755.983819098014
 20
1401.689157351763
 30
0.0
 11
1750.005947098015
 21
1401.689157351763
 31
0.0
  0
LINE
  5
317
  8
DATA
  6
CONTINUOUS
 62
     7
 10
1750.005947098015
 20
1401.689157351763
 30
0.0
 11
1750.005947098015
 21
1395.9105813517631
 31
0.0
  0
ARC
  5
318
  8
DATA
  6
CONTINUOUS
 62
     7
 10
1758.520451098015
 20
1395.8326773517631
 30
0.0
 40
2.5125437744726402
 50
269.71184879274972
 51
1.775987005677848
  0
ARC
  5
319
  8
DATA
  6
CONTINUOUS
 62
     7
 10
1758.495143098015
 20
1395.8326773517631
 30
0.0
 40
2.5125309268546001
 50
178.22401299431721
 51
270.28815120724829
  0
ARC
  5
31A
  8
DATA
  6
CONTINUOUS
 62
     7
 10
1757.9808830980151
 20
1399.6416933517619
 30
0.0
 40
9.2838572530077847
 50
216.00880084575689
 51
275.30914377846437
  0
ARC
  5
31B
  8
DATA
  6
CONTINUOUS
 62
     7
 10
1754.201531098015
 20
1396.1140893517629
 30
0.0
 40
4.200480749434317
 50
182.77699544999439
 51
207.35960666715309
  0
CIRCLE
  5
31C
  8
DATA
  6
CONTINUOUS
 62
     7
 10
1753.493051098015
 20
1408.596873351763
 30
0.0
 40
3.420647999999971
  0
LINE
  5
31D
  8
DATA
  6
CONTINUOUS
 62
     7
 10
1811.9099630980149
 20
1390.397649351763
 30
0.0
 11
1793.9099630980149
 21
1390.397649351763
 31
0.0
  0
LINE
  5
31E
  8
DATA
  6
CONTINUOUS
 62
     7
 10
1811.9099630980149
 20
1390.397649351763
 30
0.0
 11
1811.9099630980149
 21
1401.6891933517629
 31
0.0
  0
LINE
  5
31F
  8
DATA
  6
CONTINUOUS
 62
     7
 10
1811.9099630980149
 20
1401.689157351763
 30
0.0
 11
1805.865707098015
 21
1401.689157351763
 31
0.0
  0
LINE
  5
320
  8
DATA
  6
CONTINUOUS
 62
     7
 10
1805.865707098015
 20
1401.689157351763
 30
0.0
 11
1805.865707098015
 21
1395.9105813517631
 31
0.0
  0
LINE
  5
321
  8
DATA
  6
CONTINUOUS
 62
     7
 10
1771.1277230980149
 20
1390.397649351763
 30
0.0
 11
1783.7475950980149
 21
1390.3976853517629
 31
0.0
  0
LINE
  5
322
  8
DATA
  6
CONTINUOUS
 62
     7
 10
1777.1719790980151
 20
1393.7851053517629
 30
0.0
 11
1780.426595098015
 21
1393.7851053517629
 31
0.0
  0
LINE
  5
323
  8
DATA
  6
CONTINUOUS
 62
     7
 10
1777.172015098015
 20
1393.7851053517629
 30
0.0
 11
1777.172015098015
 21
1407.999129351763
 31
0.0
  0
LINE
  5
324
  8
DATA
  6
CONTINUOUS
 62
     7
 10
1777.1719790980151
 20
1407.999129351763
 30
0.0
 11
1780.426595098015
 21
1407.999129351763
 31
0.0
  0
LINE
  5
325
  8
DATA
  6
CONTINUOUS
 62
     7
 10
1783.7475950980149
 20
1395.379185351763
 30
0.0
 11
1783.7475950980149
 21
1406.405049351762
 31
0.0
  0
ARC
  5
326
  8
DATA
  6
CONTINUOUS
 62
     7
 10
1763.4782630980151
 20
1396.1140893517629
 30
0.0
 40
4.2004747723145774
 50
332.64039333284501
 51
357.22300455000692
  0
ARC
  5
327
  8
DATA
  6
CONTINUOUS
 62
     7
 10
1803.3543470980151
 20
1395.8326773517631
 30
0.0
 40
2.5125437744726402
 50
269.71184879274972
 51
1.775987005677848
  0
ARC
  5
328
  8
DATA
  6
CONTINUOUS
 62
     7
 10
1803.329075098015
 20
1395.8326773517631
 30
0.0
 40
2.5125309268546001
 50
178.22401299431721
 51
270.28815120724829
  0
LINE
  5
329
  8
DATA
  6
CONTINUOUS
 62
     7
 10
1790.123987098015
 20
1396.1762613517619
 30
0.0
 11
1790.123987098015
 21
1405.7408133517631
 31
0.0
  0
LINE
  5
32A
  8
DATA
  6
CONTINUOUS
 62
     7
 10
1777.1719790980151
 20
1411.452969351762
 30
0.0
 11
1780.426595098015
 21
1411.452969351762
 31
0.0
  0
ARC
  5
32B
  8
DATA
  6
CONTINUOUS
 62
     7
 10
1783.2899630980151
 20
1397.231781351762
 30
0.0
 40
6.849401082185044
 50
273.83098160911641
 51
351.13514730980188
  0
LINE
  5
32C
  8
DATA
  6
CONTINUOUS
 62
     7
 10
1761.031775098015
 20
1426.3976133517631
 30
0.0
 11
1767.6738470980149
 21
1426.3976133517631
 31
0.0
  0
LINE
  5
32D
  8
DATA
  6
CONTINUOUS
 62
     7
 10
1747.8140510980149
 20
1426.3976133517631
 30
0.0
 11
1758.5077790980149
 21
1426.3976133517631
 31
0.0
  0
LINE
  5
32E
  8
DATA
  6
CONTINUOUS
 62
     7
 10
1793.9099630980149
 20
1426.3976133517631
 30
0.0
 11
1800.817715098015
 21
1426.3976133517631
 31
0.0
  0
LINE
  5
32F
  8
DATA
  6
CONTINUOUS
 62
     7
 10
1771.1277230980149
 20
1426.3976133517631
 30
0.0
 11
1783.8169675593419
 21
1426.3975842142979
 31
0.0
  0
LINE
  5
330
  8
DATA
  6
CONTINUOUS
 62
     7
 10
1777.1719790980151
 20
1423.0101573517629
 30
0.0
 11
1780.426595098015
 21
1423.0101573517629
 31
0.0
  0
ARC
  5
331
  8
DATA
  6
CONTINUOUS
 62
     7
 10
1783.3582550980141
 20
1419.5739573517619
 30
0.0
 40
6.8390277584815262
 50
8.2269238590202711
 51
86.154126692152275
  0
ARC
  5
332
  8
DATA
  6
CONTINUOUS
 62
     7
 10
1780.465026763386
 20
1400.0983820098761
 30
0.0
 40
6.3133936321746038
 50
269.65121993761738
 51
282.82648280687198
  0
ARC
  5
333
  8
DATA
  6
CONTINUOUS
 62
     7
 10
1781.1741207968951
 20
1397.429204231345
 30
0.0
 40
3.5547764532959079
 50
281.23310362265562
 51
306.86200889406388
  0
ARC
  5
334
  8
DATA
  6
CONTINUOUS
 62
     7
 10
1782.6057160068781
 20
1406.290410789022
 30
0.0
 40
1.147619213346377
 50
5.732980710575065
 51
52.358097502431889
  0
ARC
  5
335
  8
DATA
  6
CONTINUOUS
 62
     7
 10
1780.465026763386
 20
1401.6858526936501
 30
0.0
 40
6.3133936321738684
 50
77.173517193126656
 51
90.348780062382573
  0
ARC
  5
336
  8
DATA
  6
CONTINUOUS
 62
     7
 10
1781.1741207968951
 20
1404.3550304721809
 30
0.0
 40
3.554776453295672
 50
53.137991105939903
 51
78.766896377341865
  0
ARC
  5
337
  8
DATA
  6
CONTINUOUS
 62
     7
 10
1786.6403390980149
 20
1405.5053373517619
 30
0.0
 40
3.4915973900894639
 50
3.8670063598305449
 51
88.361634567900566
  0
ARC
  5
338
  8
DATA
  6
CONTINUOUS
 62
     7
 10
1786.6371350980151
 20
1412.489049351763
 30
0.0
 40
3.495066983810788
 50
271.68928210464748
 51
356.07828298266492
  0
ARC
  5
339
  8
DATA
  6
CONTINUOUS
 62
     7
 10
1782.6057160068781
 20
1413.161687914504
 30
0.0
 40
1.147619213346377
 50
307.64190249757382
 51
354.26701928939019
  0
ARC
  5
33A
  8
DATA
  6
CONTINUOUS
 62
     7
 10
1780.465026763386
 20
1417.7662460098761
 30
0.0
 40
6.3133936321747184
 50
269.65121993761738
 51
282.82648280687317
  0
ARC
  5
33B
  8
DATA
  6
CONTINUOUS
 62
     7
 10
1781.1741207968951
 20
1415.097068231345
 30
0.0
 40
3.554776453295128
 50
281.23310362265818
 51
306.862008894062
  0
ARC
  5
33C
  8
DATA
  6
CONTINUOUS
 62
     7
 10
1782.6057160068781
 20
1421.3014387890221
 30
0.0
 40
1.147619213346468
 50
5.7329807106202457
 51
52.358097502427398
  0
ARC
  5
33D
  8
DATA
  6
CONTINUOUS
 62
     7
 10
1780.465026763386
 20
1416.6968806936491
 30
0.0
 40
6.3133936321745319
 50
77.173517193128006
 51
90.348780062382573
  0
ARC
  5
33E
  8
DATA
  6
CONTINUOUS
 62
     7
 10
1781.1741207968951
 20
1419.3660584721799
 30
0.0
 40
3.554776453295672
 50
53.137991105939903
 51
78.766896377344565
  0
ARC
  5
33F
  8
DATA
  6
CONTINUOUS
 62
     7
 10
1748.0457940571159
 20
1680.200921099085
 30
0.0
 40
0.270965647595701
 50
307.6419024975757
 51
354.26701928938593
  0
LINE
  5
340
  8
DATA
  6
CONTINUOUS
 62
     7
 10
1741.0857123980791
 20
1684.470901160659
 30
0.0
 11
1742.3560033980791
 21
1687.4976491606601
 31
0.0
  0
LINE
  5
341
  8
DATA
  6
CONTINUOUS
 62
     7
 10
1741.0857123980791
 20
1684.470901160659
 30
0.0
 11
1739.831095398079
 21
1687.4976491606601
 31
0.0
  0
LINE
  5
342
  8
DATA
  6
CONTINUOUS
 62
     7
 10
1750.7148523980791
 20
1678.9976491606601
 30
0.0
 11
1750.7148523980791
 21
1687.4976491606601
 31
0.0
  0
LINE
  5
343
  8
DATA
  6
CONTINUOUS
 62
     7
 10
1752.3458493980791
 20
1687.4976491606601
 30
0.0
 11
1752.3458493980791
 21
1680.29930516066
 31
0.0
  0
LINE
  5
344
  8
DATA
  6
CONTINUOUS
 62
     7
 10
1742.9519468980791
 20
1687.4976491606601
 30
0.0
 11
1742.9519468980791
 21
1680.29930516066
 31
0.0
  0
LINE
  5
345
  8
DATA
  6
CONTINUOUS
 62
     7
 10
1744.520213898079
 20
1687.4976491606601
 30
0.0
 11
1744.520213898079
 21
1680.29930516066
 31
0.0
  0
LINE
  5
346
  8
DATA
  6
CONTINUOUS
 62
     7
 10
1745.3357123980791
 20
1687.4976491606601
 30
0.0
 11
1745.3357123980791
 21
1678.9976491606601
 31
0.0
  0
LINE
  5
347
  8
DATA
  6
CONTINUOUS
 62
     7
 10
1746.7628368980791
 20
1686.6978416606601
 30
0.0
 11
1746.7628368980791
 21
1683.9690526606601
 31
0.0
  0
LINE
  5
348
  8
DATA
  6
CONTINUOUS
 62
     7
 10
1749.821629898079
 20
1684.12694866066
 30
0.0
 11
1749.821629898079
 21
1686.1175721606601
 31
0.0
  0
LINE
  5
349
  8
DATA
  6
CONTINUOUS
 62
     7
 10
1748.315404398079
 20
1686.32145316066
 30
0.0
 11
1748.315404398079
 21
1684.3454326606591
 31
0.0
  0
ARC
  5
34A
  8
DATA
  6
CONTINUOUS
 62
     7
 10
1742.637242898079
 20
1681.180279160659
 30
0.0
 40
2.1920254113924931
 50
264.6908562215346
 51
323.9911991542474
  0
LINE
  5
34B
  8
DATA
  6
CONTINUOUS
 62
     7
 10
1741.7600683980791
 20
1681.66370816066
 30
0.0
 11
1741.7600683980791
 21
1680.29932216066
 31
0.0
  0
LINE
  5
34C
  8
DATA
  6
CONTINUOUS
 62
     7
 10
1741.7600683980791
 20
1681.66370816066
 30
0.0
 11
1740.348626398079
 21
1681.66370816066
 31
0.0
  0
LINE
  5
34D
  8
DATA
  6
CONTINUOUS
 62
     7
 10
1740.348626398079
 20
1681.66370816066
 30
0.0
 11
1740.348626398079
 21
1680.29932216066
 31
0.0
  0
ARC
  5
34E
  8
DATA
  6
CONTINUOUS
 62
     7
 10
1742.3589953980791
 20
1680.2809281606601
 30
0.0
 40
0.5932395023060401
 50
269.71184879274813
 51
1.7759870056808029
  0
ARC
  5
34F
  8
DATA
  6
CONTINUOUS
 62
     7
 10
1742.3530198980791
 20
1680.2809281606601
 30
0.0
 40
0.593236468840654
 50
178.22401299432249
 51
270.2881512072513
  0
ARC
  5
350
  8
DATA
  6
CONTINUOUS
 62
     7
 10
1742.231597398079
 20
1681.180279160659
 30
0.0
 40
2.1920218514045642
 50
216.00880084575601
 51
275.30914377846432
  0
ARC
  5
351
  8
DATA
  6
CONTINUOUS
 62
     7
 10
1741.339250398079
 20
1680.3473726606601
 30
0.0
 40
0.9917801769497533
 50
182.77699544999629
 51
207.35960666715681
  0
CIRCLE
  5
352
  8
DATA
  6
CONTINUOUS
 62
     7
 10
1741.1719703980791
 20
1683.2946966606601
 30
0.0
 40
0.8076529999999593
  0
LINE
  5
353
  8
DATA
  6
CONTINUOUS
 62
     7
 10
1754.9648523980791
 20
1678.99765766066
 30
0.0
 11
1750.7148523980791
 21
1678.99765766066
 31
0.0
  0
LINE
  5
354
  8
DATA
  6
CONTINUOUS
 62
     7
 10
1754.9648523980791
 20
1678.99765766066
 30
0.0
 11
1754.9648523980791
 21
1681.6637166606599
 31
0.0
  0
LINE
  5
355
  8
DATA
  6
CONTINUOUS
 62
     7
 10
1754.9648523980791
 20
1681.66370816066
 30
0.0
 11
1753.537736398079
 21
1681.66370816066
 31
0.0
  0
LINE
  5
356
  8
DATA
  6
CONTINUOUS
 62
     7
 10
1753.537736398079
 20
1681.66370816066
 30
0.0
 11
1753.537736398079
 21
1680.29932216066
 31
0.0
  0
LINE
  5
357
  8
DATA
  6
CONTINUOUS
 62
     7
 10
1745.3357123980791
 20
1678.99765766066
 30
0.0
 11
1748.315404398079
 21
1678.9976661606599
 31
0.0
  0
LINE
  5
358
  8
DATA
  6
CONTINUOUS
 62
     7
 10
1746.7628283980789
 20
1679.79747366066
 30
0.0
 11
1747.5312793980791
 21
1679.79747366066
 31
0.0
  0
LINE
  5
359
  8
DATA
  6
CONTINUOUS
 62
     7
 10
1746.7628368980791
 20
1679.79747366066
 30
0.0
 11
1746.7628368980791
 21
1683.153562660659
 31
0.0
  0
LINE
  5
35A
  8
DATA
  6
CONTINUOUS
 62
     7
 10
1746.7628283980789
 20
1683.153562660659
 30
0.0
 11
1747.5312793980791
 21
1683.153562660659
 31
0.0
  0
LINE
  5
35B
  8
DATA
  6
CONTINUOUS
 62
     7
 10
1748.315404398079
 20
1680.1738536606599
 30
0.0
 11
1748.315404398079
 21
1682.777182660659
 31
0.0
  0
ARC
  5
35C
  8
DATA
  6
CONTINUOUS
 62
     7
 10
1743.5295898980789
 20
1680.3473726606601
 30
0.0
 40
0.991778765685394
 50
332.64039333284501
 51
357.2230045500043
  0
ARC
  5
35D
  8
DATA
  6
CONTINUOUS
 62
     7
 10
1752.9447763980791
 20
1680.2809281606601
 30
0.0
 40
0.59323950230604
 50
269.7118487927537
 51
1.7759870056809739
  0
ARC
  5
35E
  8
DATA
  6
CONTINUOUS
 62
     7
 10
1752.938809398079
 20
1680.2809281606601
 30
0.0
 40
0.593236468840654
 50
178.22401299432249
 51
270.28815120724568
  0
LINE
  5
35F
  8
DATA
  6
CONTINUOUS
 62
     7
 10
1749.820941398079
 20
1680.3620521606599
 30
0.0
 11
1749.820941398079
 21
1682.62034916066
 31
0.0
  0
LINE
  5
360
  8
DATA
  6
CONTINUOUS
 62
     7
 10
1746.7628283980789
 20
1683.9690526606601
 30
0.0
 11
1747.5312793980791
 21
1683.9690526606601
 31
0.0
  0
ARC
  5
361
  8
DATA
  6
CONTINUOUS
 62
     7
 10
1748.2073523980789
 20
1680.6112721606601
 30
0.0
 40
1.617219699960291
 50
273.8309816091168
 51
351.13514730980143
  0
LINE
  5
362
  8
DATA
  6
CONTINUOUS
 62
     7
 10
1742.9519468980791
 20
1687.4976491606601
 30
0.0
 11
1744.520213898079
 21
1687.4976491606601
 31
0.0
  0
LINE
  5
363
  8
DATA
  6
CONTINUOUS
 62
     7
 10
1739.831095398079
 20
1687.4976491606601
 30
0.0
 11
1742.3560033980791
 21
1687.4976491606601
 31
0.0
  0
LINE
  5
364
  8
DATA
  6
CONTINUOUS
 62
     7
 10
1750.7148523980791
 20
1687.4976491606601
 30
0.0
 11
1752.3458493980791
 21
1687.4976491606601
 31
0.0
  0
LINE
  5
365
  8
DATA
  6
CONTINUOUS
 62
     7
 10
1745.3357123980791
 20
1687.4976491606601
 30
0.0
 11
1748.331784007004
 21
1687.49764228098
 31
0.0
  0
LINE
  5
366
  8
DATA
  6
CONTINUOUS
 62
     7
 10
1746.7628283980789
 20
1686.6978331606599
 30
0.0
 11
1747.5312793980791
 21
1686.6978331606599
 31
0.0
  0
ARC
  5
367
  8
DATA
  6
CONTINUOUS
 62
     7
 10
1748.2234768980791
 20
1685.88650816066
 30
0.0
 40
1.6147704429748231
 50
8.2269238590177984
 51
86.154126692152218
  0
ARC
  5
368
  8
DATA
  6
CONTINUOUS
 62
     7
 10
1747.540353541292
 20
1681.2881084271589
 30
0.0
 40
1.490662385374445
 50
269.65121993761778
 51
282.82648280687289
  0
ARC
  5
369
  8
DATA
  6
CONTINUOUS
 62
     7
 10
1747.707778521426
 20
1680.657885896117
 30
0.0
 40
0.8393222181393134
 50
281.23310362265619
 51
306.86200889405433
  0
ARC
  5
36A
  8
DATA
  6
CONTINUOUS
 62
     7
 10
1748.0457940571159
 20
1682.7501152222351
 30
0.0
 40
0.2709656475956956
 50
5.7329807105651787
 51
52.358097502424329
  0
ARC
  5
36B
  8
DATA
  6
CONTINUOUS
 62
     7
 10
1747.540353541292
 20
1681.6629278941609
 30
0.0
 40
1.490662385374385
 50
77.173517193126656
 51
90.348780062382204
  0
ARC
  5
36C
  8
DATA
  6
CONTINUOUS
 62
     7
 10
1747.707778521426
 20
1682.2931504252019
 30
0.0
 40
0.8393222181392651
 50
53.137991105937999
 51
78.766896377343812
  0
ARC
  5
36D
  8
DATA
  6
CONTINUOUS
 62
     7
 10
1748.998413398079
 20
1682.564750660659
 30
0.0
 40
0.824404939326677
 50
3.867006359828137
 51
88.361634567901433
  0
ARC
  5
36E
  8
DATA
  6
CONTINUOUS
 62
     7
 10
1748.997656898079
 20
1684.2136826606591
 30
0.0
 40
0.8252241489553247
 50
271.68928210464668
 51
356.07828298266321
  0
ARC
  5
36F
  8
DATA
  6
CONTINUOUS
 62
     7
 10
1748.0457940571159
 20
1684.3725000990851
 30
0.0
 40
0.2709656475956111
 50
307.64190249759042
 51
354.26701928938462
  0
ARC
  5
370
  8
DATA
  6
CONTINUOUS
 62
     7
 10
1747.540353541292
 20
1685.459687427159
 30
0.0
 40
1.490662385374502
 50
269.65121993761778
 51
282.82648280687238
  0
ARC
  5
371
  8
DATA
  6
CONTINUOUS
 62
     7
 10
1747.707778521426
 20
1684.829464896116
 30
0.0
 40
0.8393222181390903
 50
281.2331036226592
 51
306.86200889406052
  0
ARC
  5
372
  8
DATA
  6
CONTINUOUS
 62
     7
 10
1748.0457940571159
 20
1686.294385722234
 30
0.0
 40
0.2709656475957183
 50
5.7329807106130168
 51
52.35809750242435
  0
ARC
  5
373
  8
DATA
  6
CONTINUOUS
 62
     7
 10
1747.540353541292
 20
1685.207198394161
 30
0.0
 40
1.4906623853746059
 50
77.173517193128575
 51
90.348780062382147
  0
ARC
  5
374
  8
DATA
  6
CONTINUOUS
 62
     7
 10
1747.707778521426
 20
1685.837420925202
 30
0.0
 40
0.8393222181391742
 50
53.137991105933338
 51
78.766896377342306
  0
CIRCLE
  5
375
  8
DATA
  6
CONTINUOUS
 62
     7
 10
1748.5357219016651
 20
1734.886041322201
 30
0.0
 40
5.0
  0
CIRCLE
  5
376
  8
DATA
  6
CONTINUOUS
 62
     7
 10
1808.5357219016651
 20
1734.886041322201
 30
0.0
 40
5.0
  0
ARC
  5
377
  8
DATA
  6
CONTINUOUS
 62
     7
 10
681.76367768896466
 20
1562.5415570513369
 30
0.0
 40
3.7662601299257181
 50
266.4418483017929
 51
93.558151698207183
  0
ARC
  5
378
  8
DATA
  6
CONTINUOUS
 62
     7
 10
729.18483835610152
 20
1644.117407600241
 30
0.0
 40
9.4151616436954342
 50
266.43868634440099
 51
93.56131365559898
  0
ARC
  5
379
  8
DATA
  6
CONTINUOUS
 62
     7
 10
841.07142857122574
 20
1219.6428571430979
 30
0.0
 40
192.0784544217841
 50
110.11963314081839
 51
155.26917185557281
  0
ARC
  5
37A
  8
DATA
  6
CONTINUOUS
 62
     7
 10
429.10548124613592
 20
1997.9104883235259
 30
0.0
 40
462.45930100779572
 50
297.02259662621321
 51
309.03112217220382
  0
ARC
  5
37B
  8
DATA
  6
CONTINUOUS
 62
     7
 10
429.10548124613592
 20
1290.324326876957
 30
0.0
 40
462.45930100779572
 50
50.968877827795993
 51
62.977403373786771
  0
LINE
  5
37C
  8
DATA
  6
CONTINUOUS
 62
     7
 10
813.59999999979675
 20
1583.5068866002409
 30
0.0
 11
643.59999999979675
 21
1583.5068866002409
 31
0.0
  0
LINE
  5
37D
  8
DATA
  6
CONTINUOUS
 62
     7
 10
643.59999999979675
 20
1704.7279286002411
 30
0.0
 11
813.59999999979675
 21
1704.7279286002411
 31
0.0
  0
LINE
  5
37E
  8
DATA
  6
CONTINUOUS
 62
     7
 10
529.99999999979639
 20
1753.0042657750189
 30
0.0
 11
927.19999999979711
 21
1753.0042657750189
 31
0.0
  0
LINE
  5
37F
  8
DATA
  6
CONTINUOUS
 62
     7
 10
529.99999999979639
 20
1300.000000000241
 30
0.0
 11
927.19999999979711
 21
1300.000000000241
 31
0.0
  0
LINE
  5
380
  8
DATA
  6
CONTINUOUS
 62
     7
 10
529.99999999979639
 20
1729.629925600241
 30
0.0
 11
927.19999999979711
 21
1729.629925600241
 31
0.0
  0
LINE
  5
381
  8
DATA
  6
CONTINUOUS
 62
     7
 10
499.99999999979639
 20
1330.000000000241
 30
0.0
 11
499.99999999979639
 21
1723.00426577502
 31
0.0
  0
LINE
  5
382
  8
DATA
  6
CONTINUOUS
 62
     7
 10
582.60000000010598
 20
1431.901157235691
 30
0.0
 11
599.55599385001995
 21
1447.8346707363989
 31
0.0
  0
LINE
  5
383
  8
DATA
  6
CONTINUOUS
 62
     7
 10
582.60000000010598
 20
1475.755967904651
 30
0.0
 11
599.37261880502467
 21
1459.9947715542571
 31
0.0
  0
LINE
  5
384
  8
DATA
  6
CONTINUOUS
 62
     7
 10
559.26547622094972
 20
1453.8285626390959
 30
0.0
 11
599.31381992841489
 21
1453.8285625724129
 31
0.0
  0
LINE
  5
385
  8
DATA
  6
CONTINUOUS
 62
     7
 10
559.26547621501527
 20
1344.071836239096
 30
0.0
 11
582.59999999417164
 21
1365.9992415046499
 31
0.0
  0
LINE
  5
386
  8
DATA
  6
CONTINUOUS
 62
     7
 10
582.59999999417164
 20
1322.1444308356911
 30
0.0
 11
582.59999999417164
 21
1365.9992415046499
 31
0.0
  0
LINE
  5
387
  8
DATA
  6
CONTINUOUS
 62
     7
 10
559.26547621501527
 20
1344.071836239096
 30
0.0
 11
605.93452378457664
 21
1344.071836161387
 31
0.0
  0
LINE
  5
388
  8
DATA
  6
CONTINUOUS
 62
     7
 10
640.99999999417298
 20
1322.1444308356911
 30
0.0
 11
617.66547621501684
 21
1344.071836239096
 31
0.0
  0
LINE
  5
389
  8
DATA
  6
CONTINUOUS
 62
     7
 10
664.3345237845773
 20
1344.071836161387
 30
0.0
 11
640.99999999417298
 21
1322.1444308356911
 31
0.0
  0
LINE
  5
38A
  8
DATA
  6
CONTINUOUS
 62
     7
 10
652.97442232648916
 20
1354.7469007844979
 30
0.0
 11
664.3345237845773
 21
1344.071836161387
 31
0.0
  0
LINE
  5
38B
  8
DATA
  6
CONTINUOUS
 62
     7
 10
617.66547621501684
 20
1344.071836239096
 30
0.0
 11
639.88281721103294
 21
1364.9494270806031
 31
0.0
  0
LINE
  5
38C
  8
DATA
  6
CONTINUOUS
 62
     7
 10
640.99999999417298
 20
1322.1444308356911
 30
0.0
 11
640.99999999417298
 21
1363.961581445845
 31
0.0
  0
LINE
  5
38D
  8
DATA
  6
CONTINUOUS
 62
     7
 10
617.66547621501684
 20
1344.071836239096
 30
0.0
 11
664.3345237845773
 21
1344.071836161387
 31
0.0
  0
LINE
  5
38E
  8
DATA
  6
CONTINUOUS
 62
     7
 10
611.79999999417225
 20
1349.5836124356911
 30
0.0
 11
588.465476215016
 21
1371.511017839096
 31
0.0
  0
LINE
  5
38F
  8
DATA
  6
CONTINUOUS
 62
     7
 10
634.06928714264586
 20
1370.5100170199451
 30
0.0
 11
611.79999999417225
 21
1349.5836124356911
 31
0.0
  0
LINE
  5
390
  8
DATA
  6
CONTINUOUS
 62
     7
 10
611.79999999417225
 20
1393.4384231046499
 30
0.0
 11
624.59448960792645
 21
1381.4154668000381
 31
0.0
  0
LINE
  5
391
  8
DATA
  6
CONTINUOUS
 62
     7
 10
588.465476215016
 20
1371.511017839096
 30
0.0
 11
611.79999999417225
 21
1393.4384231046499
 31
0.0
  0
LINE
  5
392
  8
DATA
  6
CONTINUOUS
 62
     7
 10
611.79999999417225
 20
1349.5836124356911
 30
0.0
 11
611.79999999417225
 21
1393.4384231046499
 31
0.0
  0
LINE
  5
393
  8
DATA
  6
CONTINUOUS
 62
     7
 10
588.465476215016
 20
1371.511017839096
 30
0.0
 11
633.10077037704525
 21
1371.511017764773
 31
0.0
  0
LINE
  5
394
  8
DATA
  6
CONTINUOUS
 62
     7
 10
553.39999999417273
 20
1349.5836124356911
 30
0.0
 11
530.06547621501625
 21
1371.511017839096
 31
0.0
  0
LINE
  5
395
  8
DATA
  6
CONTINUOUS
 62
     7
 10
576.7345237845766
 20
1371.5110177613869
 30
0.0
 11
553.39999999417273
 21
1349.5836124356911
 31
0.0
  0
LINE
  5
396
  8
DATA
  6
CONTINUOUS
 62
     7
 10
553.39999999417273
 20
1393.4384231046499
 30
0.0
 11
576.7345237845766
 21
1371.5110177613869
 31
0.0
  0
LINE
  5
397
  8
DATA
  6
CONTINUOUS
 62
     7
 10
530.06547621501625
 20
1371.511017839096
 30
0.0
 11
553.39999999417273
 21
1393.4384231046499
 31
0.0
  0
LINE
  5
398
  8
DATA
  6
CONTINUOUS
 62
     7
 10
553.39999999417273
 20
1349.5836124356911
 30
0.0
 11
553.39999999417273
 21
1393.4384231046499
 31
0.0
  0
LINE
  5
399
  8
DATA
  6
CONTINUOUS
 62
     7
 10
530.06547621501625
 20
1371.511017839096
 30
0.0
 11
576.7345237845766
 21
1371.5110177613869
 31
0.0
  0
LINE
  5
39A
  8
DATA
  6
CONTINUOUS
 62
     7
 10
582.59999999417164
 20
1377.0227940356899
 30
0.0
 11
559.26547621501527
 21
1398.950199439096
 31
0.0
  0
LINE
  5
39B
  8
DATA
  6
CONTINUOUS
 62
     7
 10
605.93452378457664
 20
1398.9501993613869
 30
0.0
 11
582.59999999417164
 21
1377.0227940356899
 31
0.0
  0
LINE
  5
39C
  8
DATA
  6
CONTINUOUS
 62
     7
 10
582.59999999417164
 20
1420.8776047046499
 30
0.0
 11
605.93452378457664
 21
1398.9501993613869
 31
0.0
  0
LINE
  5
39D
  8
DATA
  6
CONTINUOUS
 62
     7
 10
559.26547621501527
 20
1398.950199439096
 30
0.0
 11
582.59999999417164
 21
1420.8776047046499
 31
0.0
  0
LINE
  5
39E
  8
DATA
  6
CONTINUOUS
 62
     7
 10
582.59999999417164
 20
1377.0227940356899
 30
0.0
 11
582.59999999417164
 21
1420.8776047046499
 31
0.0
  0
LINE
  5
39F
  8
DATA
  6
CONTINUOUS
 62
     7
 10
559.26547621501527
 20
1398.950199439096
 30
0.0
 11
605.93452378457664
 21
1398.9501993613869
 31
0.0
  0
LINE
  5
3A0
  8
DATA
  6
CONTINUOUS
 62
     7
 10
553.39999999417273
 20
1404.461975635691
 30
0.0
 11
530.06547621501625
 21
1426.389381039096
 31
0.0
  0
LINE
  5
3A1
  8
DATA
  6
CONTINUOUS
 62
     7
 10
576.7345237845766
 20
1426.3893809613869
 30
0.0
 11
553.39999999417273
 21
1404.461975635691
 31
0.0
  0
LINE
  5
3A2
  8
DATA
  6
CONTINUOUS
 62
     7
 10
553.39999999417273
 20
1448.3167863046499
 30
0.0
 11
576.7345237845766
 21
1426.3893809613869
 31
0.0
  0
LINE
  5
3A3
  8
DATA
  6
CONTINUOUS
 62
     7
 10
530.06547621501625
 20
1426.389381039096
 30
0.0
 11
553.39999999417273
 21
1448.3167863046499
 31
0.0
  0
LINE
  5
3A4
  8
DATA
  6
CONTINUOUS
 62
     7
 10
553.39999999417273
 20
1404.461975635691
 30
0.0
 11
553.39999999417273
 21
1448.3167863046499
 31
0.0
  0
LINE
  5
3A5
  8
DATA
  6
CONTINUOUS
 62
     7
 10
530.06547621501625
 20
1426.389381039096
 30
0.0
 11
576.7345237845766
 21
1426.3893809613869
 31
0.0
  0
LINE
  5
3A6
  8
DATA
  6
CONTINUOUS
 62
     7
 10
582.60000000010598
 20
1431.901157235691
 30
0.0
 11
559.26547622094972
 21
1453.8285626390959
 31
0.0
  0
LINE
  5
3A7
  8
DATA
  6
CONTINUOUS
 62
     7
 10
559.26547622094972
 20
1453.8285626390959
 30
0.0
 11
582.60000000010598
 21
1475.755967904651
 31
0.0
  0
LINE
  5
3A8
  8
DATA
  6
CONTINUOUS
 62
     7
 10
582.60000000010598
 20
1431.901157235691
 30
0.0
 11
582.60000000010598
 21
1475.755967904651
 31
0.0
  0
LINE
  5
3A9
  8
DATA
  6
CONTINUOUS
 62
     7
 10
553.39999999417273
 20
1459.340338835691
 30
0.0
 11
530.06547621501625
 21
1481.2677442390959
 31
0.0
  0
LINE
  5
3AA
  8
DATA
  6
CONTINUOUS
 62
     7
 10
576.7345237845766
 20
1481.267744161386
 30
0.0
 11
553.39999999417273
 21
1459.340338835691
 31
0.0
  0
LINE
  5
3AB
  8
DATA
  6
CONTINUOUS
 62
     7
 10
553.39999999417273
 20
1503.1951495046501
 30
0.0
 11
576.7345237845766
 21
1481.267744161386
 31
0.0
  0
LINE
  5
3AC
  8
DATA
  6
CONTINUOUS
 62
     7
 10
530.06547621501625
 20
1481.2677442390959
 30
0.0
 11
553.39999999417273
 21
1503.1951495046501
 31
0.0
  0
LINE
  5
3AD
  8
DATA
  6
CONTINUOUS
 62
     7
 10
553.39999999417273
 20
1459.340338835691
 30
0.0
 11
553.39999999417273
 21
1503.1951495046501
 31
0.0
  0
LINE
  5
3AE
  8
DATA
  6
CONTINUOUS
 62
     7
 10
530.06547621501625
 20
1481.2677442390959
 30
0.0
 11
576.7345237845766
 21
1481.267744161386
 31
0.0
  0
LINE
  5
3AF
  8
DATA
  6
CONTINUOUS
 62
     7
 10
582.59999999417164
 20
1322.1444308356911
 30
0.0
 11
559.26547621501527
 21
1344.071836239096
 31
0.0
  0
LINE
  5
3B0
  8
DATA
  6
CONTINUOUS
 62
     7
 10
605.93452378457664
 20
1344.071836161387
 30
0.0
 11
582.59999999417164
 21
1322.1444308356911
 31
0.0
  0
LINE
  5
3B1
  8
DATA
  6
CONTINUOUS
 62
     7
 10
582.59999999417164
 20
1365.9992415046499
 30
0.0
 11
605.93452378457664
 21
1344.071836161387
 31
0.0
  0
LINE
  5
3B2
  8
DATA
  6
CONTINUOUS
 62
     7
 10
681.52993781889029
 20
1560.662057051336
 30
0.0
 11
681.52993781889029
 21
1564.4210570513369
 31
0.0
  0
LINE
  5
3B3
  8
DATA
  6
CONTINUOUS
 62
     7
 10
679.5299378188904
 20
1562.5415570513369
 30
0.0
 11
683.5299378188904
 21
1562.5415570513369
 31
0.0
  0
LINE
  5
3B4
  8
DATA
  6
CONTINUOUS
 62
     7
 10
553.39999999417273
 20
1569.09706523569
 30
0.0
 11
530.06547621501625
 21
1591.0244706390961
 31
0.0
  0
LINE
  5
3B5
  8
DATA
  6
CONTINUOUS
 62
     7
 10
576.7345237845766
 20
1591.024470561387
 30
0.0
 11
553.39999999417273
 21
1569.09706523569
 31
0.0
  0
LINE
  5
3B6
  8
DATA
  6
CONTINUOUS
 62
     7
 10
553.39999999417273
 20
1612.95187590465
 30
0.0
 11
576.7345237845766
 21
1591.024470561387
 31
0.0
  0
LINE
  5
3B7
  8
DATA
  6
CONTINUOUS
 62
     7
 10
530.06547621501625
 20
1591.0244706390961
 30
0.0
 11
553.39999999417273
 21
1612.95187590465
 31
0.0
  0
LINE
  5
3B8
  8
DATA
  6
CONTINUOUS
 62
     7
 10
553.39999999417273
 20
1569.09706523569
 30
0.0
 11
553.39999999417273
 21
1612.95187590465
 31
0.0
  0
LINE
  5
3B9
  8
DATA
  6
CONTINUOUS
 62
     7
 10
530.06547621501625
 20
1591.0244706390961
 30
0.0
 11
576.7345237845766
 21
1591.024470561387
 31
0.0
  0
LINE
  5
3BA
  8
DATA
  6
CONTINUOUS
 62
     7
 10
611.79999999417225
 20
1569.09706523569
 30
0.0
 11
588.465476215016
 21
1591.0244706390961
 31
0.0
  0
LINE
  5
3BB
  8
DATA
  6
CONTINUOUS
 62
     7
 10
635.13452378457634
 20
1591.024470561387
 30
0.0
 11
611.79999999417225
 21
1569.09706523569
 31
0.0
  0
LINE
  5
3BC
  8
DATA
  6
CONTINUOUS
 62
     7
 10
611.79999999417225
 20
1612.95187590465
 30
0.0
 11
635.13452378457634
 21
1591.024470561387
 31
0.0
  0
LINE
  5
3BD
  8
DATA
  6
CONTINUOUS
 62
     7
 10
588.465476215016
 20
1591.0244706390961
 30
0.0
 11
611.79999999417225
 21
1612.95187590465
 31
0.0
  0
LINE
  5
3BE
  8
DATA
  6
CONTINUOUS
 62
     7
 10
611.79999999417225
 20
1569.09706523569
 30
0.0
 11
611.79999999417225
 21
1612.95187590465
 31
0.0
  0
LINE
  5
3BF
  8
DATA
  6
CONTINUOUS
 62
     7
 10
588.465476215016
 20
1591.0244706390961
 30
0.0
 11
635.13452378457634
 21
1591.024470561387
 31
0.0
  0
LINE
  5
3C0
  8
DATA
  6
CONTINUOUS
 62
     7
 10
582.59999999417164
 20
1596.5362468356909
 30
0.0
 11
559.26547621501527
 21
1618.4636522390961
 31
0.0
  0
LINE
  5
3C1
  8
DATA
  6
CONTINUOUS
 62
     7
 10
605.93452378457664
 20
1618.463652161387
 30
0.0
 11
582.59999999417164
 21
1596.5362468356909
 31
0.0
  0
LINE
  5
3C2
  8
DATA
  6
CONTINUOUS
 62
     7
 10
582.59999999417164
 20
1640.39105750465
 30
0.0
 11
605.93452378457664
 21
1618.463652161387
 31
0.0
  0
LINE
  5
3C3
  8
DATA
  6
CONTINUOUS
 62
     7
 10
559.26547621501527
 20
1618.4636522390961
 30
0.0
 11
582.59999999417164
 21
1640.39105750465
 31
0.0
  0
LINE
  5
3C4
  8
DATA
  6
CONTINUOUS
 62
     7
 10
582.59999999417164
 20
1596.5362468356909
 30
0.0
 11
582.59999999417164
 21
1640.39105750465
 31
0.0
  0
LINE
  5
3C5
  8
DATA
  6
CONTINUOUS
 62
     7
 10
559.26547621501527
 20
1618.4636522390961
 30
0.0
 11
605.93452378457664
 21
1618.463652161387
 31
0.0
  0
LINE
  5
3C6
  8
DATA
  6
CONTINUOUS
 62
     7
 10
611.79999999417225
 20
1623.97542843569
 30
0.0
 11
588.465476215016
 21
1645.902833839096
 31
0.0
  0
LINE
  5
3C7
  8
DATA
  6
CONTINUOUS
 62
     7
 10
635.13452378457634
 20
1645.902833761387
 30
0.0
 11
611.79999999417225
 21
1623.97542843569
 31
0.0
  0
LINE
  5
3C8
  8
DATA
  6
CONTINUOUS
 62
     7
 10
611.79999999417225
 20
1667.8302391046509
 30
0.0
 11
635.13452378457634
 21
1645.902833761387
 31
0.0
  0
LINE
  5
3C9
  8
DATA
  6
CONTINUOUS
 62
     7
 10
588.465476215016
 20
1645.902833839096
 30
0.0
 11
611.79999999417225
 21
1667.8302391046509
 31
0.0
  0
LINE
  5
3CA
  8
DATA
  6
CONTINUOUS
 62
     7
 10
611.79999999417225
 20
1623.97542843569
 30
0.0
 11
611.79999999417225
 21
1667.8302391046509
 31
0.0
  0
LINE
  5
3CB
  8
DATA
  6
CONTINUOUS
 62
     7
 10
588.465476215016
 20
1645.902833839096
 30
0.0
 11
635.13452378457634
 21
1645.902833761387
 31
0.0
  0
LINE
  5
3CC
  8
DATA
  6
CONTINUOUS
 62
     7
 10
582.59999999417164
 20
1651.4146100356911
 30
0.0
 11
559.26547621501527
 21
1673.342015439096
 31
0.0
  0
LINE
  5
3CD
  8
DATA
  6
CONTINUOUS
 62
     7
 10
605.93452378457664
 20
1673.342015361387
 30
0.0
 11
582.59999999417164
 21
1651.4146100356911
 31
0.0
  0
LINE
  5
3CE
  8
DATA
  6
CONTINUOUS
 62
     7
 10
582.59999999417164
 20
1695.26942070465
 30
0.0
 11
605.93452378457664
 21
1673.342015361387
 31
0.0
  0
LINE
  5
3CF
  8
DATA
  6
CONTINUOUS
 62
     7
 10
559.26547621501527
 20
1673.342015439096
 30
0.0
 11
582.59999999417164
 21
1695.26942070465
 31
0.0
  0
LINE
  5
3D0
  8
DATA
  6
CONTINUOUS
 62
     7
 10
582.59999999417164
 20
1651.4146100356911
 30
0.0
 11
582.59999999417164
 21
1695.26942070465
 31
0.0
  0
LINE
  5
3D1
  8
DATA
  6
CONTINUOUS
 62
     7
 10
559.26547621501527
 20
1673.342015439096
 30
0.0
 11
605.93452378457664
 21
1673.342015361387
 31
0.0
  0
LINE
  5
3D2
  8
DATA
  6
CONTINUOUS
 62
     7
 10
553.39999999958047
 20
1623.97542843569
 30
0.0
 11
530.06547622042399
 21
1645.902833839096
 31
0.0
  0
LINE
  5
3D3
  8
DATA
  6
CONTINUOUS
 62
     7
 10
576.73452378998559
 20
1645.902833761387
 30
0.0
 11
553.39999999958047
 21
1623.97542843569
 31
0.0
  0
LINE
  5
3D4
  8
DATA
  6
CONTINUOUS
 62
     7
 10
553.39999999958047
 20
1667.83023910465
 30
0.0
 11
576.73452378998559
 21
1645.902833761387
 31
0.0
  0
LINE
  5
3D5
  8
DATA
  6
CONTINUOUS
 62
     7
 10
530.06547622042399
 20
1645.902833839096
 30
0.0
 11
553.39999999958047
 21
1667.83023910465
 31
0.0
  0
LINE
  5
3D6
  8
DATA
  6
CONTINUOUS
 62
     7
 10
553.39999999958047
 20
1623.97542843569
 30
0.0
 11
553.39999999958047
 21
1667.83023910465
 31
0.0
  0
LINE
  5
3D7
  8
DATA
  6
CONTINUOUS
 62
     7
 10
530.06547622042399
 20
1645.902833839096
 30
0.0
 11
576.73452378998559
 21
1645.902833761387
 31
0.0
  0
LINE
  5
3D8
  8
DATA
  6
CONTINUOUS
 62
     7
 10
638.59999999979675
 20
1588.5068866002409
 30
0.0
 11
638.59999999979675
 21
1699.7279286002411
 31
0.0
  0
ARC
  5
3D9
  8
DATA
  6
CONTINUOUS
 62
     7
 10
643.59999999979675
 20
1588.5068866002409
 30
0.0
 40
5.0
 50
180.0
 51
270.0
  0
ARC
  5
3DA
  8
DATA
  6
CONTINUOUS
 62
     7
 10
643.59999999979675
 20
1699.7279286002411
 30
0.0
 40
5.0
 50
90.0
 51
180.0
  0
ARC
  5
3DB
  8
DATA
  6
CONTINUOUS
 62
     7
 10
599.99999999979559
 20
1737.5000000002431
 30
0.0
 40
380.17265814364032
 50
297.40757543781848
 51
339.97998598531137
  0
LINE
  5
3DC
  8
DATA
  6
CONTINUOUS
 62
     7
 10
957.199999999797
 20
1330.000000000241
 30
0.0
 11
957.199999999797
 21
1723.00426577502
 31
0.0
  0
LINE
  5
3DD
  8
DATA
  6
CONTINUOUS
 62
     7
 10
880.46547621501691
 20
1591.024470561387
 30
0.0
 11
903.80000000542191
 21
1569.09706523569
 31
0.0
  0
LINE
  5
3DE
  8
DATA
  6
CONTINUOUS
 62
     7
 10
903.80000000542088
 20
1612.95187590465
 30
0.0
 11
880.46547621501691
 21
1591.024470561387
 31
0.0
  0
LINE
  5
3DF
  8
DATA
  6
CONTINUOUS
 62
     7
 10
927.13452378457816
 20
1591.0244706390961
 30
0.0
 11
903.80000000542088
 21
1612.95187590465
 31
0.0
  0
LINE
  5
3E0
  8
DATA
  6
CONTINUOUS
 62
     7
 10
903.80000000542191
 20
1569.09706523569
 30
0.0
 11
903.80000000542088
 21
1612.95187590465
 31
0.0
  0
LINE
  5
3E1
  8
DATA
  6
CONTINUOUS
 62
     7
 10
927.13452378457816
 20
1591.0244706390961
 30
0.0
 11
880.46547621501691
 21
1591.024470561387
 31
0.0
  0
LINE
  5
3E2
  8
DATA
  6
CONTINUOUS
 62
     7
 10
845.40000000542125
 20
1569.09706523569
 30
0.0
 11
868.7345237845766
 21
1591.0244706390961
 31
0.0
  0
LINE
  5
3E3
  8
DATA
  6
CONTINUOUS
 62
     7
 10
822.06547621501716
 20
1591.024470561387
 30
0.0
 11
845.40000000542125
 21
1569.09706523569
 31
0.0
  0
LINE
  5
3E4
  8
DATA
  6
CONTINUOUS
 62
     7
 10
845.40000000542125
 20
1612.95187590465
 30
0.0
 11
822.06547621501716
 21
1591.024470561387
 31
0.0
  0
LINE
  5
3E5
  8
DATA
  6
CONTINUOUS
 62
     7
 10
868.7345237845766
 20
1591.0244706390961
 30
0.0
 11
845.40000000542125
 21
1612.95187590465
 31
0.0
  0
LINE
  5
3E6
  8
DATA
  6
CONTINUOUS
 62
     7
 10
845.40000000542125
 20
1569.09706523569
 30
0.0
 11
845.40000000542125
 21
1612.95187590465
 31
0.0
  0
LINE
  5
3E7
  8
DATA
  6
CONTINUOUS
 62
     7
 10
868.7345237845766
 20
1591.0244706390961
 30
0.0
 11
822.06547621501716
 21
1591.024470561387
 31
0.0
  0
LINE
  5
3E8
  8
DATA
  6
CONTINUOUS
 62
     7
 10
874.60000000542107
 20
1596.5362468356909
 30
0.0
 11
897.93452378457755
 21
1618.4636522390961
 31
0.0
  0
LINE
  5
3E9
  8
DATA
  6
CONTINUOUS
 62
     7
 10
851.26547621501618
 20
1618.4636521613861
 30
0.0
 11
874.60000000542107
 21
1596.5362468356909
 31
0.0
  0
LINE
  5
3EA
  8
DATA
  6
CONTINUOUS
 62
     7
 10
874.60000000542107
 20
1640.3910575046491
 30
0.0
 11
851.26547621501618
 21
1618.4636521613861
 31
0.0
  0
LINE
  5
3EB
  8
DATA
  6
CONTINUOUS
 62
     7
 10
897.93452378457755
 20
1618.4636522390961
 30
0.0
 11
874.60000000542107
 21
1640.3910575046491
 31
0.0
  0
LINE
  5
3EC
  8
DATA
  6
CONTINUOUS
 62
     7
 10
874.60000000542107
 20
1596.5362468356909
 30
0.0
 11
874.60000000542107
 21
1640.3910575046491
 31
0.0
  0
LINE
  5
3ED
  8
DATA
  6
CONTINUOUS
 62
     7
 10
897.93452378457755
 20
1618.4636522390961
 30
0.0
 11
851.26547621501618
 21
1618.4636521613861
 31
0.0
  0
LINE
  5
3EE
  8
DATA
  6
CONTINUOUS
 62
     7
 10
845.40000000542125
 20
1623.97542843569
 30
0.0
 11
868.7345237845766
 21
1645.902833839096
 31
0.0
  0
LINE
  5
3EF
  8
DATA
  6
CONTINUOUS
 62
     7
 10
822.06547621501716
 20
1645.902833761387
 30
0.0
 11
845.40000000542125
 21
1623.97542843569
 31
0.0
  0
LINE
  5
3F0
  8
DATA
  6
CONTINUOUS
 62
     7
 10
845.40000000542125
 20
1667.83023910465
 30
0.0
 11
822.06547621501716
 21
1645.902833761387
 31
0.0
  0
LINE
  5
3F1
  8
DATA
  6
CONTINUOUS
 62
     7
 10
868.7345237845766
 20
1645.902833839096
 30
0.0
 11
845.40000000542125
 21
1667.83023910465
 31
0.0
  0
LINE
  5
3F2
  8
DATA
  6
CONTINUOUS
 62
     7
 10
845.40000000542125
 20
1623.97542843569
 30
0.0
 11
845.40000000542125
 21
1667.83023910465
 31
0.0
  0
LINE
  5
3F3
  8
DATA
  6
CONTINUOUS
 62
     7
 10
868.7345237845766
 20
1645.902833839096
 30
0.0
 11
822.06547621501716
 21
1645.902833761387
 31
0.0
  0
LINE
  5
3F4
  8
DATA
  6
CONTINUOUS
 62
     7
 10
874.60000000542107
 20
1651.4146100356911
 30
0.0
 11
897.93452378457755
 21
1673.342015439096
 31
0.0
  0
LINE
  5
3F5
  8
DATA
  6
CONTINUOUS
 62
     7
 10
851.26547621501618
 20
1673.342015361387
 30
0.0
 11
874.60000000542107
 21
1651.4146100356911
 31
0.0
  0
LINE
  5
3F6
  8
DATA
  6
CONTINUOUS
 62
     7
 10
874.60000000542107
 20
1695.26942070465
 30
0.0
 11
851.26547621501618
 21
1673.342015361387
 31
0.0
  0
LINE
  5
3F7
  8
DATA
  6
CONTINUOUS
 62
     7
 10
897.93452378457755
 20
1673.342015439096
 30
0.0
 11
874.60000000542107
 21
1695.26942070465
 31
0.0
  0
LINE
  5
3F8
  8
DATA
  6
CONTINUOUS
 62
     7
 10
874.60000000542107
 20
1651.4146100356911
 30
0.0
 11
874.60000000542107
 21
1695.26942070465
 31
0.0
  0
LINE
  5
3F9
  8
DATA
  6
CONTINUOUS
 62
     7
 10
897.93452378457755
 20
1673.342015439096
 30
0.0
 11
851.26547621501618
 21
1673.342015361387
 31
0.0
  0
LINE
  5
3FA
  8
DATA
  6
CONTINUOUS
 62
     7
 10
903.80000000001314
 20
1623.97542843569
 30
0.0
 11
927.1345237791686
 21
1645.902833839096
 31
0.0
  0
LINE
  5
3FB
  8
DATA
  6
CONTINUOUS
 62
     7
 10
880.46547620960814
 20
1645.902833761387
 30
0.0
 11
903.80000000001314
 21
1623.97542843569
 31
0.0
  0
LINE
  5
3FC
  8
DATA
  6
CONTINUOUS
 62
     7
 10
903.80000000001314
 20
1667.83023910465
 30
0.0
 11
880.46547620960814
 21
1645.902833761387
 31
0.0
  0
LINE
  5
3FD
  8
DATA
  6
CONTINUOUS
 62
     7
 10
927.1345237791686
 20
1645.902833839096
 30
0.0
 11
903.80000000001314
 21
1667.83023910465
 31
0.0
  0
LINE
  5
3FE
  8
DATA
  6
CONTINUOUS
 62
     7
 10
903.80000000001314
 20
1623.97542843569
 30
0.0
 11
903.80000000001314
 21
1667.83023910465
 31
0.0
  0
LINE
  5
3FF
  8
DATA
  6
CONTINUOUS
 62
     7
 10
927.1345237791686
 20
1645.902833839096
 30
0.0
 11
880.46547620960814
 21
1645.902833761387
 31
0.0
  0
LINE
  5
400
  8
DATA
  6
CONTINUOUS
 62
     7
 10
903.80000000542191
 20
1569.09706523569
 30
0.0
 11
927.13452378457816
 21
1591.0244706390961
 31
0.0
  0
ARC
  5
401
  8
DATA
  6
CONTINUOUS
 62
     7
 10
1028.094518753458
 20
1997.9104883235259
 30
0.0
 40
462.45930100779611
 50
230.9688778272324
 51
242.9774033737867
  0
ARC
  5
402
  8
DATA
  6
CONTINUOUS
 62
     7
 10
1028.094518753458
 20
1290.324326876957
 30
0.0
 40
462.45930100779651
 50
117.0225966262133
 51
129.03112217276811
  0
LINE
  5
403
  8
DATA
  6
CONTINUOUS
 62
     7
 10
818.59999999979675
 20
1588.5068866002409
 30
0.0
 11
818.59999999979675
 21
1699.7279286002411
 31
0.0
  0
ARC
  5
404
  8
DATA
  6
CONTINUOUS
 62
     7
 10
813.59999999979675
 20
1588.5068866002409
 30
0.0
 40
5.0
 50
270.0
 51
0.0
  0
ARC
  5
405
  8
DATA
  6
CONTINUOUS
 62
     7
 10
813.59999999979675
 20
1699.7279286002411
 30
0.0
 40
5.0
 50
0.0
 51
90.0
  0
ARC
  5
406
  8
DATA
  6
CONTINUOUS
 62
     7
 10
529.99999999979639
 20
1330.000000000241
 30
0.0
 40
30.0
 50
180.0
 51
270.0
  0
ARC
  5
407
  8
DATA
  6
CONTINUOUS
 62
     7
 10
529.99999999979639
 20
1699.629925600241
 30
0.0
 40
30.0
 50
90.0
 51
180.0
  0
ARC
  5
408
  8
DATA
  6
CONTINUOUS
 62
     7
 10
529.99999999979639
 20
1723.00426577502
 30
0.0
 40
30.0
 50
90.0
 51
180.0
  0
ARC
  5
409
  8
DATA
  6
CONTINUOUS
 62
     7
 10
927.19999999979711
 20
1330.000000000241
 30
0.0
 40
30.0
 50
270.0
 51
0.0
  0
ARC
  5
40A
  8
DATA
  6
CONTINUOUS
 62
     7
 10
927.19999999979711
 20
1699.629925600241
 30
0.0
 40
30.0
 50
0.0
 51
90.0
  0
ARC
  5
40B
  8
DATA
  6
CONTINUOUS
 62
     7
 10
927.19999999979711
 20
1723.00426577502
 30
0.0
 40
30.0
 50
0.0
 51
90.0
  0
ARC
  5
40C
  8
DATA
  6
CONTINUOUS
 62
     7
 10
728.01516166814122
 20
1644.117407600241
 30
0.0
 40
9.4151616683445525
 50
86.438683934225253
 51
273.56131606577469
  0
ARC
  5
40D
  8
DATA
  6
CONTINUOUS
 62
     7
 10
573.71913050634112
 20
1538.6832920002421
 30
0.0
 40
36.719130506543522
 50
86.438683934227754
 51
273.56131606577219
  0
ARC
  5
40E
  8
DATA
  6
CONTINUOUS
 62
     7
 10
574.21624305065814
 20
1538.683292000241
 30
0.0
 40
28.716243050861038
 50
86.438685139313165
 51
273.56131486068682
  0
ARC
  5
40F
  8
DATA
  6
CONTINUOUS
 62
     7
 10
578.28086949325177
 20
1538.6832920002421
 30
0.0
 40
36.719130506543969
 50
266.43868393422781
 51
93.561316065772189
  0
ARC
  5
410
  8
DATA
  6
CONTINUOUS
 62
     7
 10
577.78375694893475
 20
1538.683292000241
 30
0.0
 40
28.716243050860591
 50
266.43868513931312
 51
93.561314860686906
  0
ARC
  5
411
  8
DATA
  6
CONTINUOUS
 62
     7
 10
878.91912968447764
 20
1538.6832920002421
 30
0.0
 40
36.719130506543522
 50
86.438683934227754
 51
273.56131606577219
  0
ARC
  5
412
  8
DATA
  6
CONTINUOUS
 62
     7
 10
879.416242228795
 20
1538.683292000241
 30
0.0
 40
28.716243050861038
 50
86.438685139313165
 51
273.56131486068682
  0
ARC
  5
413
  8
DATA
  6
CONTINUOUS
 62
     7
 10
883.48086867138841
 20
1538.6832920002421
 30
0.0
 40
36.719130506543969
 50
266.43868393422781
 51
301.31235744510491
  0
ARC
  5
414
  8
DATA
  6
CONTINUOUS
 62
     7
 10
883.48086867138841
 20
1538.6832920002421
 30
0.0
 40
36.719130506543912
 50
348.6005476977063
 51
93.561316065772147
  0
ARC
  5
415
  8
DATA
  6
CONTINUOUS
 62
     7
 10
882.98375612707184
 20
1538.683292000241
 30
0.0
 40
28.716243050860591
 50
266.43868513931312
 51
93.561314860686906
  0
ARC
  5
416
  8
DATA
  6
CONTINUOUS
 62
     7
 10
681.29619793896472
 20
1562.5415570513369
 30
0.0
 40
3.7662601200743082
 50
86.44185071197677
 51
273.55814928802317
  0
ARC
  5
417
  8
DATA
  6
CONTINUOUS
 62
     7
 10
775.90380205077668
 20
1562.5415570513369
 30
0.0
 40
3.7662601299257181
 50
266.4418483017929
 51
93.558151698207183
  0
LINE
  5
418
  8
DATA
  6
CONTINUOUS
 62
     7
 10
775.67006218070242
 20
1560.662057051336
 30
0.0
 11
775.67006218070242
 21
1564.4210570513369
 31
0.0
  0
LINE
  5
419
  8
DATA
  6
CONTINUOUS
 62
     7
 10
773.67006218070242
 20
1562.5415570513369
 30
0.0
 11
777.67006218070242
 21
1562.5415570513369
 31
0.0
  0
ARC
  5
41A
  8
DATA
  6
CONTINUOUS
 62
     7
 10
775.43632230077662
 20
1562.5415570513369
 30
0.0
 40
3.7662601200743082
 50
86.44185071197677
 51
273.55814928802317
  0
ARC
  5
41B
  8
DATA
  6
CONTINUOUS
 62
     7
 10
842.47092236875915
 20
1499.9851057325129
 30
0.0
 40
3.7662601299257181
 50
266.4418483017929
 51
93.558151698207183
  0
LINE
  5
41C
  8
DATA
  6
CONTINUOUS
 62
     7
 10
842.237182498685
 20
1498.1056057325129
 30
0.0
 11
842.237182498685
 21
1501.8646057325129
 31
0.0
  0
LINE
  5
41D
  8
DATA
  6
CONTINUOUS
 62
     7
 10
840.237182498685
 20
1499.9851057325129
 30
0.0
 11
844.23718249868512
 21
1499.9851057325129
 31
0.0
  0
ARC
  5
41E
  8
DATA
  6
CONTINUOUS
 62
     7
 10
842.00344261875932
 20
1499.9851057325129
 30
0.0
 40
3.7662601200743082
 50
86.44185071197677
 51
273.55814928802317
  0
ARC
  5
41F
  8
DATA
  6
CONTINUOUS
 62
     7
 10
615.19655737098276
 20
1499.9851057325129
 30
0.0
 40
3.7662601299257181
 50
266.4418483017929
 51
93.558151698207183
  0
LINE
  5
420
  8
DATA
  6
CONTINUOUS
 62
     7
 10
614.96281750090861
 20
1498.1056057325129
 30
0.0
 11
614.96281750090861
 21
1501.8646057325129
 31
0.0
  0
LINE
  5
421
  8
DATA
  6
CONTINUOUS
 62
     7
 10
612.96281750090861
 20
1499.9851057325129
 30
0.0
 11
616.96281750090861
 21
1499.9851057325129
 31
0.0
  0
ARC
  5
422
  8
DATA
  6
CONTINUOUS
 62
     7
 10
614.72907762098293
 20
1499.9851057325129
 30
0.0
 40
3.7662601200743082
 50
86.44185071197677
 51
273.55814928802317
  0
ARC
  5
423
  8
DATA
  6
CONTINUOUS
 62
     7
 10
615.19655737098276
 20
1411.5169238635001
 30
0.0
 40
3.7662601299257181
 50
266.4418483017929
 51
93.558151698207183
  0
LINE
  5
424
  8
DATA
  6
CONTINUOUS
 62
     7
 10
614.96281750090861
 20
1409.6374238635001
 30
0.0
 11
614.96281750090861
 21
1413.3964238635001
 31
0.0
  0
LINE
  5
425
  8
DATA
  6
CONTINUOUS
 62
     7
 10
612.96281750090861
 20
1411.5169238635001
 30
0.0
 11
616.96281750090861
 21
1411.5169238635001
 31
0.0
  0
ARC
  5
426
  8
DATA
  6
CONTINUOUS
 62
     7
 10
614.72907762098293
 20
1411.5169238635001
 30
0.0
 40
3.7662601200743082
 50
86.44185071197677
 51
273.55814928802317
  0
ARC
  5
427
  8
DATA
  6
CONTINUOUS
 62
     7
 10
681.76367768896466
 20
1348.9604725446759
 30
0.0
 40
3.7662601299257181
 50
266.4418483017929
 51
93.558151698207183
  0
LINE
  5
428
  8
DATA
  6
CONTINUOUS
 62
     7
 10
681.52993781889029
 20
1347.0809725446759
 30
0.0
 11
681.52993781889029
 21
1350.8399725446759
 31
0.0
  0
LINE
  5
429
  8
DATA
  6
CONTINUOUS
 62
     7
 10
679.5299378188904
 20
1348.9604725446759
 30
0.0
 11
683.5299378188904
 21
1348.9604725446759
 31
0.0
  0
ARC
  5
42A
  8
DATA
  6
CONTINUOUS
 62
     7
 10
681.29619793896472
 20
1348.9604725446759
 30
0.0
 40
3.7662601200743082
 50
86.44185071197677
 51
273.55814928802317
  0
ARC
  5
42B
  8
DATA
  6
CONTINUOUS
 62
     7
 10
721.166667219499
 20
1455.750000000241
 30
0.0
 40
121.8679954489005
 50
86.503075955432266
 51
255.0777972721466
  0
ARC
  5
42C
  8
DATA
  6
CONTINUOUS
 62
     7
 10
722.00641551705758
 20
1455.750000000241
 30
0.0
 40
106.72019219497579
 50
86.45779005754612
 51
258.666886054918
  0
ARC
  5
42D
  8
DATA
  6
CONTINUOUS
 62
     7
 10
723.40682351350392
 20
1455.750000000241
 30
0.0
 40
90.606352708761946
 50
86.714245310279253
 51
265.32847221708607
  0
ARC
  5
42E
  8
DATA
  6
CONTINUOUS
 62
     7
 10
723.40682351350392
 20
1455.750000000241
 30
0.0
 40
90.606352708761918
 50
273.28284750274338
 51
273.28575468972059
  0
ARC
  5
42F
  8
DATA
  6
CONTINUOUS
 62
     7
 10
723.9518787063015
 20
1455.750000000241
 30
0.0
 40
77.156465697787183
 50
86.546250784079007
 51
273.45374921592099
  0
ARC
  5
430
  8
DATA
  6
CONTINUOUS
 62
     7
 10
724.04292166867492
 20
1455.7290169694211
 30
0.0
 40
73.82503921811842
 50
86.460991312844925
 51
273.5390086871551
  0
ARC
  5
431
  8
DATA
  6
CONTINUOUS
 62
     7
 10
724.24956829528867
 20
1455.804092553238
 30
0.0
 40
70.09485601408835
 50
86.441654979980655
 51
273.55834502001932
  0
ARC
  5
432
  8
DATA
  6
CONTINUOUS
 62
     7
 10
724.47384192342179
 20
1455.7510147980061
 30
0.0
 40
66.484953123625047
 50
86.441849506884097
 51
273.55815049311587
  0
ARC
  5
433
  8
DATA
  6
CONTINUOUS
 62
     7
 10
724.70433540867236
 20
1455.7510147980061
 30
0.0
 40
62.771002208875139
 50
86.441849506884466
 51
273.55815049311559
  0
ARC
  5
434
  8
DATA
  6
CONTINUOUS
 62
     7
 10
724.93482889392214
 20
1455.751014798007
 30
0.0
 40
59.057051294125039
 50
86.441849506884097
 51
273.55815049311587
  0
ARC
  5
435
  8
DATA
  6
CONTINUOUS
 62
     7
 10
725.16532237917204
 20
1455.7510147980061
 30
0.0
 40
55.343100379375151
 50
86.441849506883983
 51
273.55815049311599
  0
ARC
  5
436
  8
DATA
  6
CONTINUOUS
 62
     7
 10
725.39581580126026
 20
1455.7510147980061
 30
0.0
 40
51.62914940146311
 50
86.441850634144046
 51
273.55814936585602
  0
ARC
  5
437
  8
DATA
  6
CONTINUOUS
 62
     7
 10
725.62630930013074
 20
1455.7510147980061
 30
0.0
 40
47.915198500333453
 50
86.441850459591919
 51
273.55814954040812
  0
ARC
  5
438
  8
DATA
  6
CONTINUOUS
 62
     7
 10
725.85680281448413
 20
1455.7510147980061
 30
0.0
 40
44.201247614686807
 50
86.441849932948145
 51
273.55815006705183
  0
ARC
  5
439
  8
DATA
  6
CONTINUOUS
 62
     7
 10
726.08729629401535
 20
1455.751014798007
 30
0.0
 40
40.487296294218332
 50
86.441850634143535
 51
273.55814936585642
  0
ARC
  5
43A
  8
DATA
  6
CONTINUOUS
 62
     7
 10
726.26260120053939
 20
1455.7510147980061
 30
0.0
 40
37.662601200742948
 50
86.441850711974851
 51
273.55814928802511
  0
ARC
  5
43B
  8
DATA
  6
CONTINUOUS
 62
     7
 10
736.03333274181932
 20
1455.7492456673101
 30
0.0
 40
121.8679954489005
 50
0.0003546467896027
 51
93.491109681794313
  0
ARC
  5
43C
  8
DATA
  6
CONTINUOUS
 62
     7
 10
735.19358444858449
 20
1455.749330884777
 30
0.0
 40
106.72019219497589
 50
353.49662634586582
 51
93.536395579680331
  0
ARC
  5
43D
  8
DATA
  6
CONTINUOUS
 62
     7
 10
733.79317645934896
 20
1455.7494729978639
 30
0.0
 40
90.60635270876179
 50
266.70843094750592
 51
266.71424532719698
  0
ARC
  5
43E
  8
DATA
  6
CONTINUOUS
 62
     7
 10
733.79317645934896
 20
1455.7494729978639
 30
0.0
 40
90.606352708761918
 50
341.71755266099831
 51
93.279940326947369
  0
ARC
  5
43F
  8
DATA
  6
CONTINUOUS
 62
     7
 10
733.24812126935819
 20
1455.749528309942
 30
0.0
 40
77.156465697787141
 50
266.54043642130563
 51
269.98932976721483
  0
ARC
  5
440
  8
DATA
  6
CONTINUOUS
 62
     7
 10
733.24812126935819
 20
1455.749528309942
 30
0.0
 40
77.156465697787183
 50
325.81110602155093
 51
93.447934853147544
  0
ARC
  5
441
  8
DATA
  6
CONTINUOUS
 62
     7
 10
733.15707617810006
 20
1455.728554518249
 30
0.0
 40
73.825039218118349
 50
266.45517695007169
 51
274.2282104662645
  0
ARC
  5
442
  8
DATA
  6
CONTINUOUS
 62
     7
 10
733.15707617810006
 20
1455.728554518249
 30
0.0
 40
73.825039218118462
 50
319.5433285154806
 51
93.533194324381526
  0
ARC
  5
443
  8
DATA
  6
CONTINUOUS
 62
     7
 10
732.95043717120393
 20
1455.8036510721331
 30
0.0
 40
70.094856014088265
 50
266.43584061720719
 51
281.6160414675137
  0
ARC
  5
444
  8
DATA
  6
CONTINUOUS
 62
     7
 10
732.95043717120393
 20
1455.8036510721331
 30
0.0
 40
70.094856014088123
 50
308.02878435036399
 51
93.552530657245995
  0
ARC
  5
445
  8
DATA
  6
CONTINUOUS
 62
     7
 10
732.72615815790675
 20
1455.7505960764111
 30
0.0
 40
66.484953123624805
 50
266.43603514411069
 51
93.552336130342525
  0
ARC
  5
446
  8
DATA
  6
CONTINUOUS
 62
     7
 10
732.49566467384341
 20
1455.7506194668381
 30
0.0
 40
62.771002208874982
 50
266.43603514411097
 51
93.55233613034224
  0
ARC
  5
447
  8
DATA
  6
CONTINUOUS
 62
     7
 10
732.2651711897804
 20
1455.750642857266
 30
0.0
 40
59.057051294125429
 50
266.43603514411069
 51
93.552336130342425
  0
ARC
  5
448
  8
DATA
  6
CONTINUOUS
 62
     7
 10
732.03467770571717
 20
1455.7506662476919
 30
0.0
 40
55.343100379375201
 50
266.43603514411041
 51
93.552336130342653
  0
ARC
  5
449
  8
DATA
  6
CONTINUOUS
 62
     7
 10
731.80418428481562
 20
1455.7506896381119
 30
0.0
 40
51.629149401462968
 50
266.4360362713706
 51
93.552335003082646
  0
ARC
  5
44A
  8
DATA
  6
CONTINUOUS
 62
     7
 10
731.57369078713214
 20
1455.750713028541
 30
0.0
 40
47.915198500333616
 50
266.43603609681838
 51
93.552335177634774
  0
ARC
  5
44B
  8
DATA
  6
CONTINUOUS
 62
     7
 10
731.34319727396542
 20
1455.750736418971
 30
0.0
 40
44.201247614686721
 50
266.43603557017468
 51
93.552335704278505
  0
ARC
  5
44C
  8
DATA
  6
CONTINUOUS
 62
     7
 10
731.1127037956212
 20
1455.750759809396
 30
0.0
 40
40.487296294218851
 50
266.43603627137031
 51
93.552335003082987
  0
ARC
  5
44D
  8
DATA
  6
CONTINUOUS
 62
     7
 10
730.93739888999937
 20
1455.750777599299
 30
0.0
 40
37.662601200742998
 50
266.43603634920157
 51
93.552334925251714
  0
LINE
  5
44E
  8
DATA
  6
CONTINUOUS
 62
     7
 10
742.94499999979701
 20
1340.5913428002409
 30
0.0
 11
742.94499999979701
 21
1317.214962800241
 31
0.0
  0
LINE
  5
44F
  8
DATA
  6
CONTINUOUS
 62
     7
 10
714.25499999979672
 20
1317.214962800241
 30
0.0
 11
714.25499999979672
 21
1340.5913428002409
 31
0.0
  0
LINE
  5
450
  8
DATA
  6
CONTINUOUS
 62
     7
 10
742.94499999979701
 20
1317.214962800241
 30
0.0
 11
714.25499999979672
 21
1317.214962800241
 31
0.0
  0
LINE
  5
451
  8
DATA
  6
CONTINUOUS
 62
     7
 10
714.25499999979672
 20
1340.5913428002409
 30
0.0
 11
742.94499999979701
 21
1340.5913428002409
 31
0.0
  0
ARC
  5
452
  8
DATA
  6
CONTINUOUS
 62
     7
 10
729.08078136336985
 20
1325.324296845447
 30
0.0
 40
0.3187831148184466
 50
307.64190249757769
 51
354.26701928938797
  0
LINE
  5
453
  8
DATA
  6
CONTINUOUS
 62
     7
 10
720.89244999979678
 20
1330.3478028002421
 30
0.0
 11
722.3869099997969
 21
1333.908682800241
 31
0.0
  0
LINE
  5
454
  8
DATA
  6
CONTINUOUS
 62
     7
 10
720.89244999979678
 20
1330.3478028002421
 30
0.0
 11
719.41642999979672
 21
1333.908682800241
 31
0.0
  0
LINE
  5
455
  8
DATA
  6
CONTINUOUS
 62
     7
 10
732.22084999979677
 20
1323.908682800241
 30
0.0
 11
732.22084999979677
 21
1333.908682800241
 31
0.0
  0
LINE
  5
456
  8
DATA
  6
CONTINUOUS
 62
     7
 10
734.13966999979675
 20
1333.908682800241
 30
0.0
 11
734.13966999979675
 21
1325.4400428002409
 31
0.0
  0
LINE
  5
457
  8
DATA
  6
CONTINUOUS
 62
     7
 10
723.08801999979676
 20
1333.908682800241
 30
0.0
 11
723.08801999979676
 21
1325.4400428002409
 31
0.0
  0
LINE
  5
458
  8
DATA
  6
CONTINUOUS
 62
     7
 10
724.93303999979673
 20
1333.908682800241
 30
0.0
 11
724.93303999979673
 21
1325.4400428002409
 31
0.0
  0
LINE
  5
459
  8
DATA
  6
CONTINUOUS
 62
     7
 10
725.89244999979678
 20
1333.908682800241
 30
0.0
 11
725.89244999979678
 21
1323.908682800241
 31
0.0
  0
LINE
  5
45A
  8
DATA
  6
CONTINUOUS
 62
     7
 10
727.57141999979672
 20
1332.967732800241
 30
0.0
 11
727.57141999979672
 21
1329.757392800241
 31
0.0
  0
LINE
  5
45B
  8
DATA
  6
CONTINUOUS
 62
     7
 10
731.16999999979703
 20
1329.943152800241
 30
0.0
 11
731.16999999979703
 21
1332.2850628002409
 31
0.0
  0
LINE
  5
45C
  8
DATA
  6
CONTINUOUS
 62
     7
 10
729.39796999979671
 20
1332.524922800241
 30
0.0
 11
729.39796999979671
 21
1330.200192800241
 31
0.0
  0
ARC
  5
45D
  8
DATA
  6
CONTINUOUS
 62
     7
 10
722.7177799997969
 20
1326.476482800241
 30
0.0
 40
2.5788534251676989
 50
264.69085622153318
 51
323.99119915424359
  0
LINE
  5
45E
  8
DATA
  6
CONTINUOUS
 62
     7
 10
721.6858099997969
 20
1327.0452228002409
 30
0.0
 11
721.6858099997969
 21
1325.440062800242
 31
0.0
  0
LINE
  5
45F
  8
DATA
  6
CONTINUOUS
 62
     7
 10
721.6858099997969
 20
1327.0452228002409
 30
0.0
 11
720.02528999979688
 21
1327.0452228002409
 31
0.0
  0
LINE
  5
460
  8
DATA
  6
CONTINUOUS
 62
     7
 10
720.02528999979688
 20
1327.0452228002409
 30
0.0
 11
720.02528999979688
 21
1325.440062800242
 31
0.0
  0
ARC
  5
461
  8
DATA
  6
CONTINUOUS
 62
     7
 10
722.39042999979665
 20
1325.4184228002409
 30
0.0
 40
0.6979288262424001
 50
269.71184879275029
 51
1.7759870056818841
  0
ARC
  5
462
  8
DATA
  6
CONTINUOUS
 62
     7
 10
722.38339999979701
 20
1325.4184228002409
 30
0.0
 40
0.6979252574595547
 50
178.22401299431701
 51
270.28815120724312
  0
ARC
  5
463
  8
DATA
  6
CONTINUOUS
 62
     7
 10
722.24054999979671
 20
1326.476482800241
 30
0.0
 40
2.5788492369465641
 50
216.00880084575761
 51
275.30914377846682
  0
ARC
  5
464
  8
DATA
  6
CONTINUOUS
 62
     7
 10
721.19072999979664
 20
1325.4965928002421
 30
0.0
 40
1.1668002081762081
 50
182.7769954499968
 51
207.3596066671515
  0
CIRCLE
  5
465
  8
DATA
  6
CONTINUOUS
 62
     7
 10
720.99392999979671
 20
1328.9640328002411
 30
0.0
 40
0.9501800000000457
  0
LINE
  5
466
  8
DATA
  6
CONTINUOUS
 62
     7
 10
737.22084999979677
 20
1323.9086928002409
 30
0.0
 11
732.22084999979677
 21
1323.9086928002409
 31
0.0
  0
LINE
  5
467
  8
DATA
  6
CONTINUOUS
 62
     7
 10
737.22084999979677
 20
1323.9086928002409
 30
0.0
 11
737.22084999979677
 21
1327.045232800242
 31
0.0
  0
LINE
  5
468
  8
DATA
  6
CONTINUOUS
 62
     7
 10
737.22084999979677
 20
1327.0452228002409
 30
0.0
 11
735.54188999979704
 21
1327.0452228002409
 31
0.0
  0
LINE
  5
469
  8
DATA
  6
CONTINUOUS
 62
     7
 10
735.54188999979704
 20
1327.0452228002409
 30
0.0
 11
735.54188999979704
 21
1325.440062800242
 31
0.0
  0
LINE
  5
46A
  8
DATA
  6
CONTINUOUS
 62
     7
 10
725.89244999979678
 20
1323.9086928002409
 30
0.0
 11
729.39796999979671
 21
1323.9087028002409
 31
0.0
  0
LINE
  5
46B
  8
DATA
  6
CONTINUOUS
 62
     7
 10
727.57140999979674
 20
1324.849652800242
 30
0.0
 11
728.4754699997967
 21
1324.849652800242
 31
0.0
  0
LINE
  5
46C
  8
DATA
  6
CONTINUOUS
 62
     7
 10
727.57141999979672
 20
1324.849652800242
 30
0.0
 11
727.57141999979672
 21
1328.797992800241
 31
0.0
  0
LINE
  5
46D
  8
DATA
  6
CONTINUOUS
 62
     7
 10
727.57140999979674
 20
1328.797992800241
 30
0.0
 11
728.4754699997967
 21
1328.797992800241
 31
0.0
  0
LINE
  5
46E
  8
DATA
  6
CONTINUOUS
 62
     7
 10
729.39796999979671
 20
1325.292452800242
 30
0.0
 11
729.39796999979671
 21
1328.355192800241
 31
0.0
  0
ARC
  5
46F
  8
DATA
  6
CONTINUOUS
 62
     7
 10
723.76759999979674
 20
1325.4965928002421
 30
0.0
 40
1.166798547865157
 50
332.64039333284478
 51
357.22300455000573
  0
ARC
  5
470
  8
DATA
  6
CONTINUOUS
 62
     7
 10
734.84428999979673
 20
1325.4184228002409
 30
0.0
 40
0.6979288262424001
 50
269.71184879275029
 51
1.7759870056818841
  0
ARC
  5
471
  8
DATA
  6
CONTINUOUS
 62
     7
 10
734.83726999979672
 20
1325.4184228002409
 30
0.0
 40
0.6979252574595547
 50
178.22401299431701
 51
270.28815120725238
  0
LINE
  5
472
  8
DATA
  6
CONTINUOUS
 62
     7
 10
731.16918999979703
 20
1325.513862800241
 30
0.0
 11
731.16918999979703
 21
1328.1706828002409
 31
0.0
  0
LINE
  5
473
  8
DATA
  6
CONTINUOUS
 62
     7
 10
727.57140999979674
 20
1329.757392800241
 30
0.0
 11
728.4754699997967
 21
1329.757392800241
 31
0.0
  0
ARC
  5
474
  8
DATA
  6
CONTINUOUS
 62
     7
 10
729.27084999979672
 20
1325.8070628002411
 30
0.0
 40
1.9026114117180259
 50
273.83098160911482
 51
351.13514730980171
  0
LINE
  5
475
  8
DATA
  6
CONTINUOUS
 62
     7
 10
723.08801999979676
 20
1333.908682800241
 30
0.0
 11
724.93303999979673
 21
1333.908682800241
 31
0.0
  0
LINE
  5
476
  8
DATA
  6
CONTINUOUS
 62
     7
 10
719.41642999979672
 20
1333.908682800241
 30
0.0
 11
722.3869099997969
 21
1333.908682800241
 31
0.0
  0
LINE
  5
477
  8
DATA
  6
CONTINUOUS
 62
     7
 10
732.22084999979677
 20
1333.908682800241
 30
0.0
 11
734.13966999979675
 21
1333.908682800241
 31
0.0
  0
LINE
  5
478
  8
DATA
  6
CONTINUOUS
 62
     7
 10
725.89244999979678
 20
1333.908682800241
 30
0.0
 11
729.41724012794361
 21
1333.908674706501
 31
0.0
  0
LINE
  5
479
  8
DATA
  6
CONTINUOUS
 62
     7
 10
727.57140999979674
 20
1332.9677228002411
 30
0.0
 11
728.4754699997967
 21
1332.9677228002411
 31
0.0
  0
ARC
  5
47A
  8
DATA
  6
CONTINUOUS
 62
     7
 10
729.28981999979703
 20
1332.013222800241
 30
0.0
 40
1.8997299329115289
 50
8.2269238590191414
 51
86.154126692155344
  0
ARC
  5
47B
  8
DATA
  6
CONTINUOUS
 62
     7
 10
728.48614546240003
 20
1326.603340760829
 30
0.0
 40
1.7537204533818349
 50
269.65121993761392
 51
282.8264828068717
  0
ARC
  5
47C
  8
DATA
  6
CONTINUOUS
 62
     7
 10
728.68311602726351
 20
1325.861902489014
 30
0.0
 40
0.9874379036933291
 50
281.23310362266199
 51
306.86200889406479
  0
ARC
  5
47D
  8
DATA
  6
CONTINUOUS
 62
     7
 10
729.08078136336985
 20
1328.323348755036
 30
0.0
 40
0.3187831148183949
 50
5.732980710571284
 51
52.358097502422339
  0
ARC
  5
47E
  8
DATA
  6
CONTINUOUS
 62
     7
 10
728.48614546240003
 20
1327.0443048396539
 30
0.0
 40
1.7537204533816291
 50
77.173517193126656
 51
90.348780062386126
  0
ARC
  5
47F
  8
DATA
  6
CONTINUOUS
 62
     7
 10
728.68311602726351
 20
1327.7857431114689
 30
0.0
 40
0.9874379036932557
 50
53.1379911059352
 51
78.766896377338114
  0
ARC
  5
480
  8
DATA
  6
CONTINUOUS
 62
     7
 10
730.20150999979671
 20
1328.105272800241
 30
0.0
 40
0.9698881639138548
 50
3.8670063598308371
 51
88.361634567897383
  0
ARC
  5
481
  8
DATA
  6
CONTINUOUS
 62
     7
 10
730.20061999979703
 20
1330.045192800241
 30
0.0
 40
0.9708519399474397
 50
271.68928210464469
 51
356.07828298266418
  0
ARC
  5
482
  8
DATA
  6
CONTINUOUS
 62
     7
 10
729.08078136336985
 20
1330.2320368454471
 30
0.0
 40
0.3187831148184466
 50
307.64190249757769
 51
354.26701928938797
  0
ARC
  5
483
  8
DATA
  6
CONTINUOUS
 62
     7
 10
728.48614546240003
 20
1331.511080760828
 30
0.0
 40
1.7537204533818349
 50
269.65121993761392
 51
282.8264828068717
  0
ARC
  5
484
  8
DATA
  6
CONTINUOUS
 62
     7
 10
728.68311602726351
 20
1330.7696424890139
 30
0.0
 40
0.9874379036931062
 50
281.2331036226646
 51
306.86200889407269
  0
ARC
  5
485
  8
DATA
  6
CONTINUOUS
 62
     7
 10
729.08078136336985
 20
1332.493078755035
 30
0.0
 40
0.3187831148184176
 50
5.7329807106119457
 51
52.358097502422339
  0
ARC
  5
486
  8
DATA
  6
CONTINUOUS
 62
     7
 10
728.48614546240003
 20
1331.2140348396549
 30
0.0
 40
1.7537204533818509
 50
77.173517193128305
 51
90.348780062386055
  0
ARC
  5
487
  8
DATA
  6
CONTINUOUS
 62
     7
 10
728.68311602726351
 20
1331.9554731114681
 30
0.0
 40
0.9874379036932557
 50
53.1379911059352
 51
78.766896377338114
  0
LINE
  5
488
  8
DATA
  6
CONTINUOUS
 62
     7
 10
1579.999999999915
 20
1307.5338541662679
 30
0.0
 11
1581.6759940255961
 21
1307.5338541662679
 31
0.0
  0
LINE
  5
489
  8
DATA
  6
CONTINUOUS
 62
     7
 10
1977.199999999915
 20
1307.533854166267
 30
0.0
 11
1975.524005974235
 21
1307.533854166267
 31
0.0
  0
LINE
  5
48A
  8
DATA
  6
CONTINUOUS
 62
     7
 10
1873.8999999999151
 20
1395.9176053529679
 30
0.0
 11
1916.8999999999139
 21
1395.9176053529679
 31
0.0
  0
LINE
  5
48B
  8
DATA
  6
CONTINUOUS
 62
     7
 10
1916.8999999999139
 20
1395.9176053529679
 30
0.0
 11
1895.3999999999151
 21
1417.4176053529679
 31
0.0
  0
LINE
  5
48C
  8
DATA
  6
CONTINUOUS
 62
     7
 10
1895.3999999999151
 20
1374.4176053529679
 30
0.0
 11
1895.3999999999151
 21
1417.4176053529679
 31
0.0
  0
LINE
  5
48D
  8
DATA
  6
CONTINUOUS
 62
     7
 10
1895.3999999999151
 20
1417.4176053529679
 30
0.0
 11
1873.8999999999151
 21
1395.9176053529679
 31
0.0
  0
LINE
  5
48E
  8
DATA
  6
CONTINUOUS
 62
     7
 10
1895.3999999999151
 20
1374.4176053529679
 30
0.0
 11
1916.8999999999139
 21
1395.9176053529679
 31
0.0
  0
LINE
  5
48F
  8
DATA
  6
CONTINUOUS
 62
     7
 10
1873.8999999999151
 20
1395.9176053529679
 30
0.0
 11
1895.3999999999151
 21
1374.4176053529679
 31
0.0
  0
LINE
  5
490
  8
DATA
  6
CONTINUOUS
 62
     7
 10
1640.2999999999161
 20
1395.9176053529679
 30
0.0
 11
1683.2999999999161
 21
1395.9176053529679
 31
0.0
  0
LINE
  5
491
  8
DATA
  6
CONTINUOUS
 62
     7
 10
1683.2999999999161
 20
1395.9176053529679
 30
0.0
 11
1661.7999999999149
 21
1417.4176053529679
 31
0.0
  0
LINE
  5
492
  8
DATA
  6
CONTINUOUS
 62
     7
 10
1661.7999999999149
 20
1374.4176053529679
 30
0.0
 11
1661.7999999999149
 21
1417.4176053529679
 31
0.0
  0
LINE
  5
493
  8
DATA
  6
CONTINUOUS
 62
     7
 10
1661.7999999999149
 20
1417.4176053529679
 30
0.0
 11
1640.2999999999161
 21
1395.9176053529679
 31
0.0
  0
LINE
  5
494
  8
DATA
  6
CONTINUOUS
 62
     7
 10
1661.7999999999149
 20
1374.4176053529679
 30
0.0
 11
1683.2999999999161
 21
1395.9176053529679
 31
0.0
  0
LINE
  5
495
  8
DATA
  6
CONTINUOUS
 62
     7
 10
1640.2999999999161
 20
1395.9176053529679
 30
0.0
 11
1661.7999999999149
 21
1374.4176053529679
 31
0.0
  0
ENDSEC
  0
EOF
