  0
SECTION
  2
HEADER
  9
$ACADVER
  1
AC1009
  9
$INSBASE
 10
0.0
 20
0.0
 30
0.0
  9
$EXTMIN
 10
-1700.2197165039599
 20
-2545.088752686368
 30
-0.0000001037033926
  9
$EXTMAX
 10
1900.219750032596
 20
2807.4308610308271
 30
0.0000002420273393
  9
$LIMMIN
 10
0.0
 20
0.0
  9
$LIMMAX
 10
0.0
 20
0.0
  9
$ORTHOMODE
 70
     0
  9
$REGENMODE
 70
     1
  9
$FILLMODE
 70
     1
  9
$QTEXTMODE
 70
     0
  9
$MIRRTEXT
 70
     1
  9
$DRAGMODE
 70
     2
  9
$LTSCALE
 40
101.59999999999999
  9
$OSMODE
 70
   231
  9
$ATTMODE
 70
     1
  9
$TEXTSIZE
 40
0.0
  9
$TRACEWID
 40
1.0
  9
$TEXTSTYLE
  7
STANDARD
  9
$CLAYER
  8
DATA
  9
$CELTYPE
  6
BYLAYER
  9
$CECOLOR
 62
   256
  9
$DIMSCALE
 40
1.0
  9
$DIMASZ
 40
0.18
  9
$DIMEXO
 40
0.0625
  9
$DIMDLI
 40
0.38
  9
$DIMRND
 40
0.0
  9
$DIMDLE
 40
0.0
  9
$DIMEXE
 40
0.18
  9
$DIMTP
 40
0.0
  9
$DIMTM
 40
0.0
  9
$DIMTXT
 40
0.18
  9
$DIMCEN
 40
0.09
  9
$DIMTSZ
 40
0.0
  9
$DIMTOL
 70
     0
  9
$DIMLIM
 70
     0
  9
$DIMTIH
 70
     1
  9
$DIMTOH
 70
     1
  9
$DIMSE1
 70
     0
  9
$DIMSE2
 70
     0
  9
$DIMTAD
 70
     0
  9
$DIMZIN
 70
     0
  9
$DIMBLK
  1

  9
$DIMASO
 70
     1
  9
$DIMSHO
 70
     1
  9
$DIMPOST
  1

  9
$DIMAPOST
  1

  9
$DIMALT
 70
     0
  9
$DIMALTD
 70
     2
  9
$DIMALTF
 40
25.399999999999999
  9
$DIMLFAC
 40
1.0
  9
$DIMTOFL
 70
     0
  9
$DIMTVP
 40
0.0
  9
$DIMTIX
 70
     0
  9
$DIMSOXD
 70
     0
  9
$DIMSAH
 70
     0
  9
$DIMBLK1
  1

  9
$DIMBLK2
  1

  9
$DIMSTYLE
  2
STANDARD
  9
$DIMCLRD
 70
     0
  9
$DIMCLRE
 70
     0
  9
$DIMCLRT
 70
     0
  9
$DIMTFAC
 40
1.0
  9
$DIMGAP
 40
0.09
  9
$LUNITS
 70
     2
  9
$LUPREC
 70
     4
  9
$SKETCHINC
 40
0.1
  9
$FILLETRAD
 40
0.0
  9
$AUNITS
 70
     0
  9
$AUPREC
 70
     0
  9
$MENU
  1
acad
  9
$ELEVATION
 40
0.0
  9
$PELEVATION
 40
0.0
  9
$THICKNESS
 40
0.0
  9
$LIMCHECK
 70
     0
  9
$BLIPMODE
 70
     0
  9
$CHAMFERA
 40
0.0
  9
$CHAMFERB
 40
0.0
  9
$SKPOLY
 70
     0
  9
$TDCREATE
 40
2453927.6485879631
  9
$TDUPDATE
 40
2455776.4138124771
  9
$TDINDWG
 40
0.0005133565
  9
$TDUSRTIMER
 40
0.0005131713
  9
$USRTIMER
 70
     1
  9
$ANGBASE
 50
0.0
  9
$ANGDIR
 70
     0
  9
$PDMODE
 70
     1
  9
$PDSIZE
 40
-2.0
  9
$PLINEWID
 40
0.0
  9
$COORDS
 70
     1
  9
$SPLFRAME
 70
     0
  9
$SPLINETYPE
 70
     6
  9
$SPLINESEGS
 70
     8
  9
$ATTDIA
 70
     0
  9
$ATTREQ
 70
     1
  9
$HANDLING
 70
     1
  9
$HANDSEED
  5
5B1
  9
$SURFTAB1
 70
     6
  9
$SURFTAB2
 70
     6
  9
$SURFTYPE
 70
     6
  9
$SURFU
 70
     6
  9
$SURFV
 70
     6
  9
$UCSNAME
  2

  9
$UCSORG
 10
0.0
 20
0.0
 30
0.0
  9
$UCSXDIR
 10
1.0
 20
0.0
 30
0.0
  9
$UCSYDIR
 10
0.0
 20
1.0
 30
0.0
  9
$PUCSNAME
  2

  9
$PUCSORG
 10
0.0
 20
0.0
 30
0.0
  9
$PUCSXDIR
 10
1.0
 20
0.0
 30
0.0
  9
$PUCSYDIR
 10
0.0
 20
1.0
 30
0.0
  9
$USERI1
 70
     0
  9
$USERI2
 70
     0
  9
$USERI3
 70
     0
  9
$USERI4
 70
     0
  9
$USERI5
 70
     0
  9
$USERR1
 40
0.0
  9
$USERR2
 40
0.0
  9
$USERR3
 40
0.0
  9
$USERR4
 40
0.0
  9
$USERR5
 40
0.0
  9
$WORLDVIEW
 70
     1
  9
$SHADEDGE
 70
     3
  9
$SHADEDIF
 70
    70
  9
$TILEMODE
 70
     1
  9
$MAXACTVP
 70
    64
  9
$PLIMCHECK
 70
     0
  9
$PEXTMIN
 10
1.0000000000000000E+020
 20
1.0000000000000000E+020
 30
1.0000000000000000E+020
  9
$PEXTMAX
 10
-1.0000000000000000E+020
 20
-1.0000000000000000E+020
 30
-1.0000000000000000E+020
  9
$PLIMMIN
 10
0.0
 20
0.0
  9
$PLIMMAX
 10
12.0
 20
9.0
  9
$UNITMODE
 70
     0
  9
$VISRETAIN
 70
     0
  9
$PLINEGEN
 70
     1
  9
$PSLTSCALE
 70
     0
  0
ENDSEC
  0
SECTION
  2
TABLES
  0
TABLE
  2
VPORT
 70
     1
  0
VPORT
  2
*ACTIVE
 70
     0
 10
0.0
 20
0.0
 11
1.0
 21
1.0
 12
100.00001676431791
 22
131.1710541722295
 13
0.0
 23
0.0
 14
1.0
 24
1.0
 15
0.0
 25
0.0
 16
0.0
 26
0.0
 36
1.0
 17
0.0
 27
0.0
 37
0.0
 40
5391.924666088119
 41
1.9619164619164611
 42
50.0
 43
0.0
 44
0.0
 50
0.0
 51
0.0
 71
     0
 72
  2000
 73
     1
 74
     1
 75
     0
 76
     0
 77
     0
 78
     0
  0
ENDTAB
  0
TABLE
  2
LTYPE
 70
     2
  0
LTYPE
  2
CONTINUOUS
 70
     0
  3
Solid line
 72
    65
 73
     0
 40
0.0
  0
LTYPE
  2
STYLE_01
 70
     0
  3

 72
    65
 73
     2
 40
0.4166412353515625
 49
0.208282470703125
 49
-0.2083587646484375
  0
ENDTAB
  0
TABLE
  2
LAYER
 70
     6
  0
LAYER
  2
0
 70
     0
 62
     7
  6
CONTINUOUS
  0
LAYER
  2
DATA
 70
     0
 62
     7
  6
CONTINUOUS
  0
LAYER
  2
HIBINO-BASE
 70
     0
 62
     7
  6
CONTINUOUS
  0
LAYER
  2
PATTERN_FILL
 70
     0
 62
     7
  6
CONTINUOUS
  0
LAYER
  2
SPEC
 70
     0
 62
     7
  6
CONTINUOUS
  0
LAYER
  2
DIMNSIONS
 70
     0
 62
     7
  6
CONTINUOUS
  0
ENDTAB
  0
TABLE
  2
STYLE
 70
     2
  0
STYLE
  2
STANDARD
 70
     0
 40
0.0
 41
1.0
 50
0.0
 71
     0
 42
0.0
  3
txt
  4
BIGFONT.SHX
  0
ENDTAB
  0
TABLE
  2
VIEW
 70
     0
  0
ENDTAB
  0
TABLE
  2
UCS
 70
     0
  0
ENDTAB
  0
TABLE
  2
APPID
 70
     4
  0
APPID
  2
ACAD
 70
     0
  0
APPID
  2
ACADANNOTATIVE
 70
     0
  0
APPID
  2
ACAD_NAV_VCDISPLAY
 70
     0
  0
APPID
  2
ACAD_MLEADERVER
 70
     0
  0
ENDTAB
  0
TABLE
  2
DIMSTYLE
 70
     2
  0
DIMSTYLE
  2
STANDARD
 70
     0
  3

  4

  5

  6

  7

 40
1.0
 41
0.18
 42
0.0625
 43
0.38
 44
0.18
 45
0.0
 46
0.0
 47
0.0
 48
0.0
140
0.18
141
0.09
142
0.0
143
25.399999999999999
144
1.0
145
0.0
146
1.0
147
0.09
 71
     0
 72
     0
 73
     1
 74
     1
 75
     0
 76
     0
 77
     0
 78
     0
170
     0
171
     2
172
     0
173
     0
174
     0
175
     0
176
     0
177
     0
178
     0
  0
ENDTAB
  0
ENDSEC
  0
SECTION
  2
BLOCKS
  0
BLOCK
  8
0
  2
$MODEL_SPACE
 70
     0
 10
0.0
 20
0.0
 30
0.0
  3
$MODEL_SPACE
  1

  0
ENDBLK
  5
4EF
  8
0
  0
BLOCK
 67
     1
  8
0
  2
$PAPER_SPACE
 70
     0
 10
0.0
 20
0.0
 30
0.0
  3
$PAPER_SPACE
  1

  0
ENDBLK
  5
4EB
 67
     1
  8
0
  0
BLOCK
  8
PATTERN_FILL
  2
____
 70
     0
 10
0.0
 20
0.0
 30
0.0
  3
____
  1

  0
LINE
  5
30
  8
0
  6
CONTINUOUS
 62
     7
 10
297.91152849636069
 20
-1444.9168986283851
 30
0.0
 11
300.08689862838492
 21
-1442.7415284963611
 31
0.0
  0
LINE
  5
31
  8
0
  6
CONTINUOUS
 62
     7
 10
298.3983827458535
 20
-1447.258471503638
 30
0.0
 11
302.4284715036386
 21
-1443.2283827458541
 31
0.0
  0
LINE
  5
32
  8
0
  6
CONTINUOUS
 62
     7
 10
300.1858308165194
 20
-1448.299450557719
 30
0.0
 11
303.46945055771891
 21
-1445.0158308165189
 31
0.0
  0
ENDBLK
  5
33
  8
PATTERN_FILL
  0
BLOCK
  8
PATTERN_FILL
  2
____-1
 70
     0
 10
0.0
 20
0.0
 30
0.0
  3
____-1
  1

  0
LINE
  5
35
  8
0
  6
CONTINUOUS
 62
     7
 10
972.74417820947406
 20
-927.65784204407862
 30
0.0
 11
987.65784204407839
 21
-912.74417820947406
 31
0.0
  0
LINE
  5
36
  8
0
  6
CONTINUOUS
 62
     7
 10
971.22666875972334
 20
-932.00377861857612
 30
0.0
 11
992.00377861857555
 21
-911.22666875972391
 31
0.0
  0
LINE
  5
37
  8
0
  6
CONTINUOUS
 62
     7
 10
970.43057490793444
 20
-935.62829959511123
 30
0.0
 11
995.62829959511112
 21
-910.43057490793444
 31
0.0
  0
LINE
  5
38
  8
0
  6
CONTINUOUS
 62
     7
 10
970.12156425862156
 20
-938.76573736917044
 30
0.0
 11
998.76573736917032
 21
-910.12156425862156
 31
0.0
  0
LINE
  5
39
  8
0
  6
CONTINUOUS
 62
     7
 10
970.1538332772576
 20
-941.56189547528049
 30
0.0
 11
1001.5618954752809
 21
-910.15383327725772
 31
0.0
  0
LINE
  5
3A
  8
0
  6
CONTINUOUS
 62
     7
 10
970.40743176328874
 20
-944.13672411399523
 30
0.0
 11
1004.136724113996
 21
-910.40743176328874
 31
0.0
  0
LINE
  5
3B
  8
0
  6
CONTINUOUS
 62
     7
 10
970.79602007555889
 20
-946.57656292647164
 30
0.0
 11
1006.576562926472
 21
-910.79602007555877
 31
0.0
  0
LINE
  5
3C
  8
0
  6
CONTINUOUS
 62
     7
 10
971.45432074023074
 20
-948.74668938654588
 30
0.0
 11
1008.746689386546
 21
-911.45432074023086
 31
0.0
  0
LINE
  5
3D
  8
0
  6
CONTINUOUS
 62
     7
 10
972.11262140490294
 20
-950.91681584662001
 30
0.0
 11
1010.91681584662
 21
-912.11262140490271
 31
0.0
  0
LINE
  5
3E
  8
0
  6
CONTINUOUS
 62
     7
 10
973.01292205287234
 20
-952.84494232339705
 30
0.0
 11
1012.844942323397
 21
-913.01292205287245
 31
0.0
  0
LINE
  5
3F
  8
0
  6
CONTINUOUS
 62
     7
 10
973.99813862118731
 20
-954.68815287982852
 30
0.0
 11
1014.688152879828
 21
-913.99813862118731
 31
0.0
  0
LINE
  5
40
  8
0
  6
CONTINUOUS
 62
     7
 10
974.98335518950205
 20
-956.53136343626011
 30
0.0
 11
1016.53136343626
 21
-914.98335518950159
 31
0.0
  0
LINE
  5
41
  8
0
  6
CONTINUOUS
 62
     7
 10
976.23694519646733
 20
-958.10620055404024
 30
0.0
 11
1018.106200554041
 21
-916.23694519646733
 31
0.0
  0
LINE
  5
42
  8
0
  6
CONTINUOUS
 62
     7
 10
977.51187088043559
 20
-959.65970199481865
 30
0.0
 11
1019.659701994818
 21
-917.51187088043548
 31
0.0
  0
LINE
  5
43
  8
0
  6
CONTINUOUS
 62
     7
 10
978.78679656440363
 20
-961.21320343559637
 30
0.0
 11
1021.213203435596
 21
-918.7867965644034
 31
0.0
  0
LINE
  5
44
  8
0
  6
CONTINUOUS
 62
     7
 10
980.34029800518169
 20
-962.48812911956486
 30
0.0
 11
1022.488129119565
 21
-920.34029800518215
 31
0.0
  0
LINE
  5
45
  8
0
  6
CONTINUOUS
 62
     7
 10
981.89379944595964
 20
-963.76305480353301
 30
0.0
 11
1023.763054803533
 21
-921.89379944595953
 31
0.0
  0
LINE
  5
46
  8
0
  6
CONTINUOUS
 62
     7
 10
983.46863656374057
 20
-965.01664481049841
 30
0.0
 11
1025.0166448104981
 21
-923.46863656374057
 31
0.0
  0
LINE
  5
47
  8
0
  6
CONTINUOUS
 62
     7
 10
985.31184712017193
 20
-966.00186137881315
 30
0.0
 11
1026.001861378812
 21
-925.31184712017205
 31
0.0
  0
LINE
  5
48
  8
0
  6
CONTINUOUS
 62
     7
 10
987.15505767660341
 20
-966.98707794712789
 30
0.0
 11
1026.987077947128
 21
-927.15505767660352
 31
0.0
  0
LINE
  5
49
  8
0
  6
CONTINUOUS
 62
     7
 10
989.08318415338044
 20
-967.8873785950974
 30
0.0
 11
1027.8873785950971
 21
-929.08318415338044
 31
0.0
  0
LINE
  5
4A
  8
0
  6
CONTINUOUS
 62
     7
 10
991.25331061345435
 20
-968.54567925976914
 30
0.0
 11
1028.545679259769
 21
-931.25331061345435
 31
0.0
  0
LINE
  5
4B
  8
0
  6
CONTINUOUS
 62
     7
 10
993.4234370735287
 20
-969.20397992444123
 30
0.0
 11
1029.203979924441
 21
-933.42343707352836
 31
0.0
  0
LINE
  5
4C
  8
0
  6
CONTINUOUS
 62
     7
 10
995.86327588600511
 20
-969.59256823671114
 30
0.0
 11
1029.592568236711
 21
-935.86327588600523
 31
0.0
  0
LINE
  5
4D
  8
0
  6
CONTINUOUS
 62
     7
 10
998.43810452472019
 20
-969.84616672274228
 30
0.0
 11
1029.8461667227421
 21
-938.43810452472019
 31
0.0
  0
LINE
  5
4E
  8
0
  6
CONTINUOUS
 62
     7
 10
1001.234262630831
 20
-969.87843574137833
 30
0.0
 11
1029.8784357413781
 21
-941.2342626308307
 31
0.0
  0
LINE
  5
4F
  8
0
  6
CONTINUOUS
 62
     7
 10
1004.371700404889
 20
-969.56942509206544
 30
0.0
 11
1029.5694250920651
 21
-944.37170040488968
 31
0.0
  0
LINE
  5
50
  8
0
  6
CONTINUOUS
 62
     7
 10
1007.996221381425
 20
-968.77333124027552
 30
0.0
 11
1028.7733312402761
 21
-947.99622138142547
 31
0.0
  0
LINE
  5
51
  8
0
  6
CONTINUOUS
 62
     7
 10
1012.342157955923
 20
-967.25582179052435
 30
0.0
 11
1027.2558217905239
 21
-952.34215795592331
 31
0.0
  0
ENDBLK
  5
52
  8
PATTERN_FILL
  0
ENDSEC
  0
SECTION
  2
ENTITIES
  0
LINE
  5
53
  8
HIBINO-BASE
  6
CONTINUOUS
 62
     7
 10
-1700.0
 20
2807.1044850000021
 30
0.0
 11
1900.0
 21
2807.1044850000021
 31
0.0
  0
LINE
  5
54
  8
HIBINO-BASE
  6
CONTINUOUS
 62
     7
 10
1900.0
 20
-2392.8955150000011
 30
0.0
 11
-1700.0
 21
-2392.8955150000011
 31
0.0
  0
LINE
  5
55
  8
HIBINO-BASE
  6
CONTINUOUS
 62
     7
 10
-1700.0
 20
-2392.8955150000011
 30
0.0
 11
-1700.0
 21
2807.1044850000021
 31
0.0
  0
TEXT
  5
56
  8
HIBINO-BASE
 62
     7
 10
-1556.319999999999
 20
-2521.069070999999
 30
0.0
 40
72.000883593749975
  1
Hibino Corporation
 41
0.7
 11
-1556.319999999999
 21
-2449.0681874062489
 31
0.0
 73
     3
  0
LINE
  5
57
  8
HIBINO-BASE
  6
CONTINUOUS
 62
     7
 10
1900.0
 20
2807.1044850000021
 30
0.0
 11
1900.0
 21
-2392.8955150000011
 31
0.0
  0
LINE
  5
58
  8
HIBINO-BASE
  6
CONTINUOUS
 62
     7
 10
100.0
 20
-1942.8955149999999
 30
0.0
 11
1900.0
 21
-1942.8955149999999
 31
0.0
  0
LINE
  5
59
  8
HIBINO-BASE
  6
CONTINUOUS
 62
     7
 10
100.0
 20
-2392.8955150000011
 30
0.0
 11
100.0
 21
-1942.8955149999999
 31
0.0
  0
TEXT
  5
5A
  8
HIBINO-BASE
 62
     7
 10
118.0
 20
-1993.0693816666669
 30
0.0
 40
32.576822916666671
  1
NOTE
 41
0.7
 11
118.0
 21
-1960.4925587499999
 31
0.0
 73
     3
  0
LINE
  5
5B
  8
HIBINO-BASE
  6
CONTINUOUS
 62
     7
 10
800.0
 20
-2392.8955150000011
 30
0.0
 11
800.0
 21
-1942.8955149999999
 31
0.0
  0
TEXT
  5
5C
  8
HIBINO-BASE
 62
     7
 10
818.0
 20
-1993.0693816666669
 30
0.0
 40
32.576822916666671
  1
TITLE
 41
0.7
 11
818.0
 21
-1960.4925587499999
 31
0.0
 73
     3
  0
TEXT
  5
5D
  8
HIBINO-BASE
 62
     7
 10
1101.3678
 20
-2521.069070999999
 30
0.0
 40
72.000883593749975
  1
ヒビノ株式会社
 41
0.7
 11
1101.3678
 21
-2449.0681874062489
 31
0.0
 73
     3
  0
LINE
  5
5E
  8
HIBINO-BASE
  6
CONTINUOUS
 62
     7
 10
100.0
 20
-2192.8955150000002
 30
0.0
 11
1900.0
 21
-2192.8955150000002
 31
0.0
  0
TEXT
  5
5F
  8
HIBINO-BASE
 62
     7
 10
1068.0
 20
-2241.942981666667
 30
0.0
 40
32.576822916666671
  1
DRAWN
 41
0.7
 11
1068.0
 21
-2209.3661587500001
 31
0.0
 73
     3
  0
TEXT
  5
60
  8
HIBINO-BASE
 62
     7
 10
568.0
 20
-2241.942981666667
 30
0.0
 40
32.576822916666671
  1
DATE
 41
0.7
 11
568.0
 21
-2209.3661587500001
 31
0.0
 73
     3
  0
TEXT
  5
61
  8
HIBINO-BASE
 62
     7
 10
368.0
 20
-2241.942981666667
 30
0.0
 40
32.576822916666671
  1
SCALE
 41
0.7
 11
368.0
 21
-2209.3661587500001
 31
0.0
 73
     3
  0
TEXT
  5
62
  8
HIBINO-BASE
 62
     7
 10
818.0
 20
-2241.942981666667
 30
0.0
 40
32.576822916666671
  1
DESIGN
 41
0.7
 11
818.0
 21
-2209.3661587500001
 31
0.0
 73
     3
  0
TEXT
  5
63
  8
HIBINO-BASE
 62
     7
 10
1568.0
 20
-2241.942981666667
 30
0.0
 40
32.576822916666671
  1
DRAWING NO.
 41
0.7
 11
1568.0
 21
-2209.3661587500001
 31
0.0
 73
     3
  0
TEXT
  5
64
  8
HIBINO-BASE
 62
     7
 10
1318.0
 20
-2241.942981666667
 30
0.0
 40
32.576822916666671
  1
CHECK
 41
0.7
 11
1318.0
 21
-2209.3661587500001
 31
0.0
 73
     3
  0
LINE
  5
65
  8
HIBINO-BASE
  6
CONTINUOUS
 62
     7
 10
387.5
 20
-2367.8955150000002
 30
0.0
 11
462.5
 21
-2292.8955150000002
 31
0.0
  0
TEXT
  5
66
  8
HIBINO-BASE
 62
     7
 10
375.0
 20
-2315.0743816666668
 30
0.0
 40
32.576822916666671
  1
1
 41
0.7
 11
375.0
 21
-2282.4975587499998
 31
0.0
 73
     3
  0
LINE
  5
67
  8
HIBINO-BASE
  6
CONTINUOUS
 62
     7
 10
350.0
 20
-2392.8955150000011
 30
0.0
 11
350.0
 21
-2192.8955150000002
 31
0.0
  0
LINE
  5
68
  8
HIBINO-BASE
  6
CONTINUOUS
 62
     7
 10
549.99999999999989
 20
-2392.8955150000011
 30
0.0
 11
549.99999999999989
 21
-2192.8955150000002
 31
0.0
  0
LINE
  5
69
  8
HIBINO-BASE
  6
CONTINUOUS
 62
     7
 10
1050.0
 20
-2192.8955150000002
 30
0.0
 11
1050.0
 21
-2392.8955150000011
 31
0.0
  0
LINE
  5
6A
  8
HIBINO-BASE
  6
CONTINUOUS
 62
     7
 10
1550.0
 20
-2192.8955150000002
 30
0.0
 11
1550.0
 21
-2392.8955150000011
 31
0.0
  0
LINE
  5
6B
  8
HIBINO-BASE
  6
CONTINUOUS
 62
     7
 10
1300.0
 20
-2392.8955150000011
 30
0.0
 11
1300.0
 21
-2192.8955150000002
 31
0.0
  0
TEXT
  5
6C
  8
HIBINO-BASE
 62
     7
 10
567.13079999999979
 20
-2335.622581666667
 30
0.0
 40
32.576822916666671
  1
'03.07.
 41
0.7
 11
567.13079999999979
 21
-2303.04575875
 31
0.0
 73
     3
  0
TEXT
  5
6D
  8
HIBINO-BASE
 62
     7
 10
450.0
 20
-2352.574381666665
 30
0.0
 40
32.576822916666671
  1
20
 41
0.7
 11
450.0
 21
-2319.9975587499989
 31
0.0
 73
     3
  0
TEXT
  5
6E
  8
HIBINO-BASE
 62
     7
 10
1080.116200220692
 20
-2335.622581666667
 30
0.0
 40
32.576822916666671
  1
N.Sasaki
 41
0.7
 11
1080.116200220692
 21
-2303.04575875
 31
0.0
 73
     3
  0
TEXT
  5
6F
  8
HIBINO-BASE
 62
     7
 10
177.666666666667
 20
-2353.3755150000002
 30
0.0
 40
65.153645833333329
  1
A4
 41
0.7
 11
177.666666666667
 21
-2288.2218691666671
 31
0.0
 73
     3
  0
TEXT
  5
70
  8
HIBINO-BASE
 62
     7
 10
1330.116200220692
 20
-2335.622581666667
 30
0.0
 40
32.576822916666671
  1
T.Taki
 41
0.7
 11
1330.116200220692
 21
-2303.04575875
 31
0.0
 73
     3
  0
TEXT
  5
71
  8
HIBINO-BASE
 62
     7
 10
119.1666666666667
 20
-2245.2846149999991
 30
0.0
 40
32.576822916666671
  1
PAPER SIZE
 41
0.7
 11
119.1666666666667
 21
-2212.7077920833331
 31
0.0
 73
     3
  0
INSERT
  5
72
  8
PATTERN_FILL
 62
     7
  2
____
 10
100.0
 20
140.0
 30
0.0
  0
INSERT
  5
73
  8
PATTERN_FILL
 62
     7
  2
____-1
 10
100.0
 20
140.0
 30
0.0
  0
LINE
  5
74
  8
SPEC
  6
CONTINUOUS
 62
     7
 10
-1550.0
 20
2607.1044849999998
 30
0.0
 11
1400.0
 21
2607.1044849999998
 31
0.0
  0
LINE
  5
75
  8
SPEC
  6
CONTINUOUS
 62
     7
 10
-1550.0
 20
2532.1044849999998
 30
0.0
 11
1400.0
 21
2532.1044849999998
 31
0.0
  0
LINE
  5
76
  8
SPEC
  6
CONTINUOUS
 62
     7
 10
-1550.0
 20
2382.1044849999998
 30
0.0
 11
1400.0
 21
2382.1044849999998
 31
0.0
  0
LINE
  5
77
  8
SPEC
  6
CONTINUOUS
 62
     7
 10
-1550.0
 20
2457.1044849999998
 30
0.0
 11
1400.0
 21
2457.1044849999998
 31
0.0
  0
LINE
  5
78
  8
SPEC
  6
CONTINUOUS
 62
     7
 10
-1550.0
 20
1932.1044850000001
 30
0.0
 11
1400.0
 21
1932.1044850000001
 31
0.0
  0
LINE
  5
79
  8
SPEC
  6
CONTINUOUS
 62
     7
 10
-1550.0
 20
1782.1044849999989
 30
0.0
 11
1400.0
 21
1782.1044849999989
 31
0.0
  0
LINE
  5
7A
  8
SPEC
  6
CONTINUOUS
 62
     7
 10
-1550.0
 20
1557.1044849999989
 30
0.0
 11
1400.0
 21
1557.1044849999989
 31
0.0
  0
LINE
  5
7B
  8
SPEC
  6
CONTINUOUS
 62
     7
 10
-1550.0
 20
1332.1044849999989
 30
0.0
 11
1400.0
 21
1332.1044849999989
 31
0.0
  0
LINE
  5
7C
  8
SPEC
  6
CONTINUOUS
 62
     7
 10
-1550.0
 20
1407.104484999998
 30
0.0
 11
1400.0
 21
1407.104484999998
 31
0.0
  0
LINE
  5
7D
  8
SPEC
  6
CONTINUOUS
 62
     7
 10
-1550.0
 20
2607.1044849999998
 30
0.0
 11
-1550.0
 21
957.10448499999984
 31
0.0
  0
TEXT
  5
7E
  8
SPEC
 62
     7
 10
-1525.0
 20
2634.969885
 30
0.0
 40
48.865234375000007
  1
仕様
 41
0.7
 11
-1525.0
 21
2683.835119375
 31
0.0
 73
     3
  0
LINE
  5
7F
  8
SPEC
  6
CONTINUOUS
 62
     7
 10
-900.0
 20
2607.1044849999998
 30
0.0
 11
-900.0
 21
957.10448499999984
 31
0.0
  0
LINE
  5
80
  8
SPEC
  6
CONTINUOUS
 62
     7
 10
1400.0
 20
2607.1044849999998
 30
0.0
 11
1400.0
 21
957.10448499999984
 31
0.0
  0
LINE
  5
81
  8
SPEC
  6
CONTINUOUS
 62
     7
 10
-1549.9999999999991
 20
2307.1044850000012
 30
0.0
 11
1400.0
 21
2307.1044850000012
 31
0.0
  0
LINE
  5
82
  8
SPEC
  6
CONTINUOUS
 62
     7
 10
-1550.0
 20
2157.1044849999998
 30
0.0
 11
1400.0
 21
2157.1044849999998
 31
0.0
  0
LINE
  5
83
  8
SPEC
  6
CONTINUOUS
 62
     7
 10
-1550.0
 20
2232.1044849999998
 30
0.0
 11
1400.0
 21
2232.1044849999998
 31
0.0
  0
LINE
  5
84
  8
SPEC
  6
CONTINUOUS
 62
     7
 10
-1550.0
 20
2082.1044849999998
 30
0.0
 11
1400.0
 21
2082.1044849999998
 31
0.0
  0
LINE
  5
85
  8
SPEC
  6
CONTINUOUS
 62
     7
 10
-1550.0
 20
1632.104484999998
 30
0.0
 11
1400.0
 21
1632.104484999998
 31
0.0
  0
LINE
  5
86
  8
SPEC
  6
CONTINUOUS
 62
     7
 10
-1550.0
 20
1257.1044849999989
 30
0.0
 11
1400.0
 21
1257.1044849999989
 31
0.0
  0
LINE
  5
87
  8
SPEC
  6
CONTINUOUS
 62
     7
 10
-1550.0
 20
1107.104484999998
 30
0.0
 11
1400.0
 21
1107.104484999998
 31
0.0
  0
LINE
  5
88
  8
SPEC
  6
CONTINUOUS
 62
     7
 10
-1550.0
 20
957.10448499999984
 30
0.0
 11
1400.0
 21
957.10448499999984
 31
0.0
  0
LINE
  5
89
  8
SPEC
  6
CONTINUOUS
 62
     7
 10
-1550.0
 20
1182.1044849999989
 30
0.0
 11
1400.0
 21
1182.1044849999989
 31
0.0
  0
LINE
  5
8A
  8
SPEC
  6
CONTINUOUS
 62
     7
 10
-1550.0
 20
1032.104484999998
 30
0.0
 11
1400.0
 21
1032.104484999998
 31
0.0
  0
TEXT
  5
8B
  8
SPEC
 62
     7
 10
-882.0
 20
2322.8629169999999
 30
0.0
 40
38.006224999999993
  1
90\U+00B0x 50\U+00B0 水平/垂直(90\U+00B0単位で回転可能)
 41
0.7
 11
-882.0
 21
2360.869142
 31
0.0
 73
     3
  0
TEXT
  5
8C
  8
SPEC
 62
     7
 10
-882.0
 20
1047.8628849999991
 30
0.0
 40
38.006293402777771
  1
561(W)\U+00D7967(H)\U+00D7657(D)mm(突起部含まず)
 41
0.7
 11
-882.0
 21
1085.869178402776
 31
0.0
 73
     3
  0
TEXT
  5
8D
  8
SPEC
 62
     7
 10
-882.0
 20
2547.8629169999999
 30
0.0
 40
38.006224999999993
  1
3Wayフルレンジ
 41
0.7
 11
-882.0
 21
2585.869142
 31
0.0
 73
     3
  0
TEXT
  5
8E
  8
SPEC
 62
     7
 10
-882.0
 20
1872.8629169999999
 30
0.0
 40
38.006224999999993
  1
パッシブ:124dB
 41
0.7
 11
-882.0
 21
1910.869142
 31
0.0
 73
     3
  0
TEXT
  5
8F
  8
SPEC
 62
     7
 10
-882.0
 20
1957.8629169999999
 30
0.0
 40
38.006224999999993
  1
BI-AMP駆動:97dB(低域),106dB(中/高域)
 41
0.7
 11
-882.0
 21
1995.869142
 31
0.0
 73
     3
  0
TEXT
  5
90
  8
SPEC
 62
     7
 10
-882.0
 20
1657.8629169999999
 30
0.0
 40
38.006224999999993
  1
BI-AMP駆動:8\U+03A9(低域),8\U+03A9(中/高域)
 41
0.7
 11
-882.0
 21
1695.869142
 31
0.0
 73
     3
  0
TEXT
  5
91
  8
SPEC
 62
     7
 10
-1532.0
 20
1497.8629169999999
 30
0.0
 40
38.006224999999993
  1
クロスオーバー
 41
0.7
 11
-1532.0
 21
1535.869142
 31
0.0
 73
     3
  0
TEXT
  5
92
  8
SPEC
 62
     7
 10
-1532.0
 20
1272.8629169999999
 30
0.0
 40
38.006224999999993
  1
耐候性規格
 41
0.7
 11
-1532.0
 21
1310.869142
 31
0.0
 73
     3
  0
TEXT
  5
93
  8
SPEC
 62
     7
 10
-1532.0
 20
2547.8629169999999
 30
0.0
 40
38.006224999999993
  1
形式
 41
0.7
 11
-1532.0
 21
2585.869142
 31
0.0
 73
     3
  0
TEXT
  5
94
  8
SPEC
 62
     7
 10
-1532.0
 20
2322.8629169999999
 30
0.0
 40
38.006224999999993
  1
公称カバレージ
 41
0.7
 11
-1532.0
 21
2360.869142
 31
0.0
 73
     3
  0
TEXT
  5
95
  8
SPEC
 62
     7
 10
-1532.0
 20
2472.8629169999999
 30
0.0
 40
38.006224999999993
  1
周波数レンジ(-10dB)
 41
0.7
 11
-1532.0
 21
2510.869142
 31
0.0
 73
     3
  0
TEXT
  5
96
  8
SPEC
 62
     7
 10
-1532.0
 20
2397.8629169999999
 30
0.0
 40
38.006224999999993
  1
周波数特性(\U+00B13dB)
 41
0.7
 11
-1532.0
 21
2435.869142
 31
0.0
 73
     3
  0
TEXT
  5
97
  8
SPEC
 62
     7
 10
-1532.0
 20
1872.8629169999999
 30
0.0
 40
38.006224999999993
  1
最大音圧(＠1m)
 41
0.7
 11
-1532.0
 21
1910.869142
 31
0.0
 73
     3
  0
TEXT
  5
98
  8
SPEC
 62
     7
 10
-882.0
 20
1497.8629169999999
 30
0.0
 40
38.006224999999993
  1
パッシブ/BI-AMP駆動 切替可能
 41
0.7
 11
-882.0
 21
1535.869142
 31
0.0
 73
     3
  0
TEXT
  5
99
  8
SPEC
 62
     7
 10
-882.0
 20
1272.8629169999999
 30
0.0
 40
38.006224999999993
  1
Mil-Std 810,IPX３ Per IEC 529
 41
0.7
 11
-882.0
 21
1310.869142
 31
0.0
 73
     3
  0
TEXT
  5
9A
  8
SPEC
 62
     7
 10
-882.0
 20
1807.8629169999999
 30
0.0
 40
38.006224999999993
  1
BI-AMP駆動:124dB(低域),127dB(中/高域)
 41
0.7
 11
-882.0
 21
1845.869142
 31
0.0
 73
     3
  0
TEXT
  5
9B
  8
SPEC
 62
     7
 10
-882.0
 20
2397.8629169999999
 30
0.0
 40
38.006224999999993
  1
50Hz～20kHz
 41
0.7
 11
-882.0
 21
2435.869142
 31
0.0
 73
     3
  0
TEXT
  5
9C
  8
SPEC
 62
     7
 10
-882.0
 20
2472.8629169999999
 30
0.0
 40
38.006224999999993
  1
40Hz～23kHz
 41
0.7
 11
-882.0
 21
2510.869142
 31
0.0
 73
     3
  0
TEXT
  5
9D
  8
SPEC
 62
     7
 10
-1532.0
 20
2247.8629169999999
 30
0.0
 40
38.006224999999993
  1
低域ユニット
 41
0.7
 11
-1532.0
 21
2285.869142
 31
0.0
 73
     3
  0
TEXT
  5
9E
  8
SPEC
 62
     7
 10
-882.0
 20
2247.8629169999999
 30
0.0
 40
38.006224999999993
  1
2033H(口径:15インチ)
 41
0.7
 11
-882.0
 21
2285.869142
 31
0.0
 73
     3
  0
TEXT
  5
9F
  8
SPEC
 62
     7
 10
-1532.0
 20
2172.8629169999999
 30
0.0
 40
38.006224999999993
  1
中域ユニット
 41
0.7
 11
-1532.0
 21
2210.869142
 31
0.0
 73
     3
  0
TEXT
  5
A0
  8
SPEC
 62
     7
 10
-882.0
 20
2172.8629169999999
 30
0.0
 40
38.006224999999993
  1
CMCD-61H(口径:6.5インチ)
 41
0.7
 11
-882.0
 21
2210.869142
 31
0.0
 73
     3
  0
TEXT
  5
A1
  8
SPEC
 62
     7
 10
-1532.0
 20
2097.8629169999999
 30
0.0
 40
38.006224999999993
  1
高域ユニット
 41
0.7
 11
-1532.0
 21
2135.869142
 31
0.0
 73
     3
  0
TEXT
  5
A2
  8
SPEC
 62
     7
 10
-882.0
 20
2097.8629169999999
 30
0.0
 40
38.006224999999993
  1
2407H/MTA(ボイスコイル径:1.5インチ)
 41
0.7
 11
-882.0
 21
2135.869142
 31
0.0
 73
     3
  0
TEXT
  5
A3
  8
SPEC
 62
     7
 10
-882.0
 20
2022.8629169999999
 30
0.0
 40
38.006224999999993
  1
パッシブ:97dB
 41
0.7
 11
-882.0
 21
2060.869142
 31
0.0
 73
     3
  0
TEXT
  5
A4
  8
SPEC
 62
     7
 10
-1532.0
 20
2022.8629169999999
 30
0.0
 40
38.006224999999993
  1
音圧レベル(1W/1m)
 41
0.7
 11
-1532.0
 21
2060.869142
 31
0.0
 73
     3
  0
TEXT
  5
A5
  8
SPEC
 62
     7
 10
-1532.0
 20
1722.8629169999999
 30
0.0
 40
38.006224999999993
  1
公称インピーダンス
 41
0.7
 11
-1532.0
 21
1760.869142
 31
0.0
 73
     3
  0
TEXT
  5
A6
  8
SPEC
 62
     7
 10
-882.0
 20
1722.8629169999999
 30
0.0
 40
38.006224999999993
  1
パッシブ: 8 \U+03A9
 41
0.7
 11
-882.0
 21
1760.869142
 31
0.0
 73
     3
  0
TEXT
  5
A7
  8
SPEC
 62
     7
 10
-882.0
 20
1572.8629169999999
 30
0.0
 40
38.006224999999993
  1
350W(パッシブ)
 41
0.7
 11
-882.0
 21
1610.869142
 31
0.0
 73
     3
  0
TEXT
  5
A8
  8
SPEC
 62
     7
 10
-1532.0
 20
1572.8629169999999
 30
0.0
 40
38.006224999999993
  1
許容入力
 41
0.7
 11
-1532.0
 21
1610.869142
 31
0.0
 73
     3
  0
TEXT
  5
A9
  8
SPEC
 62
     7
 10
-882.0
 20
1432.8629169999999
 30
0.0
 40
38.006224999999993
  1
パッシブ:500Hz(低/中域),2.8kHz(中/高域)
 41
0.7
 11
-882.0
 21
1470.869142
 31
0.0
 73
     3
  0
TEXT
  5
AA
  8
SPEC
 62
     7
 10
-1532.0
 20
1347.8629169999999
 30
0.0
 40
38.006224999999993
  1
仕上げ
 41
0.7
 11
-1532.0
 21
1385.869142
 31
0.0
 73
     3
  0
TEXT
  5
AB
  8
SPEC
 62
     7
 10
-882.0
 20
1347.8629169999999
 30
0.0
 40
38.006224999999993
  1
黒のデュラフレックス塗装
 41
0.7
 11
-882.0
 21
1385.869142
 31
0.0
 73
     3
  0
TEXT
  5
AC
  8
SPEC
 62
     7
 10
-1532.0
 20
1197.8629169999999
 30
0.0
 40
38.006224999999993
  1
金具用取付穴
 41
0.7
 11
-1532.0
 21
1235.869142
 31
0.0
 73
     3
  0
TEXT
  5
AD
  8
SPEC
 62
     7
 10
-882.0
 20
1197.8629169999999
 30
0.0
 40
38.006224999999993
  1
M10---13ヶ所
 41
0.7
 11
-882.0
 21
1235.869142
 31
0.0
 73
     3
  0
TEXT
  5
AE
  8
SPEC
 62
     7
 10
-1532.0
 20
1122.8629169999999
 30
0.0
 40
38.006224999999993
  1
コネクタ 
 41
0.7
 11
-1532.0
 21
1160.869142
 31
0.0
 73
     3
  0
TEXT
  5
AF
  8
SPEC
 62
     7
 10
-882.0
 20
1122.8629169999999
 30
0.0
 40
38.006224999999993
  1
NEUTRIK NL4 スピコン, ストリップターミナル
 41
0.7
 11
-882.0
 21
1160.869142
 31
0.0
 73
     3
  0
TEXT
  5
B0
  8
SPEC
 62
     7
 10
-1532.0
 20
1047.8629169999999
 30
0.0
 40
38.006224999999993
  1
寸法
 41
0.7
 11
-1532.0
 21
1085.869142
 31
0.0
 73
     3
  0
TEXT
  5
B1
  8
SPEC
 62
     7
 10
-1532.0
 20
972.86291700000015
 30
0.0
 40
38.006224999999993
  1
重量
 41
0.7
 11
-1532.0
 21
1010.869142
 31
0.0
 73
     3
  0
TEXT
  5
B2
  8
SPEC
 62
     7
 10
-882.0
 20
972.86291700000015
 30
0.0
 40
38.006224999999993
  1
約52kg
 41
0.7
 11
-882.0
 21
1010.869142
 31
0.0
 73
     3
  0
TEXT
  5
B3
  8
DIMNSIONS
 62
     7
 10
-300.0
 20
-2147.5057149999998
 30
0.0
 40
48.865234375000007
  1
(単位：mm)
 41
0.7
 11
-300.0
 21
-2098.6404806249998
 31
0.0
 73
     3
  0
LINE
  5
B4
  8
DIMNSIONS
  6
CONTINUOUS
 62
     7
 10
-1224.67085602865
 20
299.9200000000011
 30
0.0
 11
-1540.0
 21
299.9200000000011
 31
0.0
  0
LINE
  5
B5
  8
DIMNSIONS
  6
CONTINUOUS
 62
     7
 10
-1109.329999999999
 20
-357.43199999999922
 30
0.0
 11
-1540.0
 21
-357.43199999999922
 31
0.0
  0
LINE
  5
B6
  8
DIMNSIONS
  6
CONTINUOUS
 62
     7
 10
-1500.0
 20
299.9200000000011
 30
0.0
 11
-1500.0
 21
-357.43199999999922
 31
0.0
  0
LINE
  5
B7
  8
DIMNSIONS
  6
CONTINUOUS
 62
     7
 10
-1500.0
 20
299.9200000000011
 30
0.0
 11
-1486.599204096995
 21
249.9075488281261
 31
0.0
  0
LINE
  5
B8
  8
DIMNSIONS
  6
CONTINUOUS
 62
     7
 10
-1500.0
 20
299.9200000000011
 30
0.0
 11
-1513.400795903005
 21
249.9075488281261
 31
0.0
  0
LINE
  5
B9
  8
DIMNSIONS
  6
CONTINUOUS
 62
     7
 10
-1500.0
 20
-357.43199999999922
 30
0.0
 11
-1513.400795903005
 21
-307.41954882812439
 31
0.0
  0
LINE
  5
BA
  8
DIMNSIONS
  6
CONTINUOUS
 62
     7
 10
-1500.0
 20
-357.43199999999922
 30
0.0
 11
-1486.599204096995
 21
-307.41954882812439
 31
0.0
  0
TEXT
  5
BB
  8
DIMNSIONS
 62
     7
 10
-1519.877777777778
 20
-81.672666666665776
 30
0.0
 40
54.2947048611111
  1
657
 50
90.0
 41
0.7
 11
-1574.1724826388891
 21
-81.672666666665776
 31
0.0
 73
     3
  0
LINE
  5
BC
  8
DIMNSIONS
  6
CONTINUOUS
 62
     7
 10
-1377.3
 20
-633.27599999999848
 30
0.0
 11
-1540.0
 21
-633.27599999999848
 31
0.0
  0
LINE
  5
BD
  8
DIMNSIONS
  6
CONTINUOUS
 62
     7
 10
-1377.3
 20
-1600.0
 30
0.0
 11
-1540.0
 21
-1600.0
 31
0.0
  0
LINE
  5
BE
  8
DIMNSIONS
  6
CONTINUOUS
 62
     7
 10
-1500.0
 20
-633.27599999999848
 30
0.0
 11
-1500.0
 21
-1600.0
 31
0.0
  0
LINE
  5
BF
  8
DIMNSIONS
  6
CONTINUOUS
 62
     7
 10
-1500.0
 20
-633.27599999999848
 30
0.0
 11
-1486.599204096995
 21
-683.28845117187336
 31
0.0
  0
LINE
  5
C0
  8
DIMNSIONS
  6
CONTINUOUS
 62
     7
 10
-1500.0
 20
-633.27599999999848
 30
0.0
 11
-1513.400795903005
 21
-683.28845117187336
 31
0.0
  0
LINE
  5
C1
  8
DIMNSIONS
  6
CONTINUOUS
 62
     7
 10
-1500.0
 20
-1600.0
 30
0.0
 11
-1513.400795903005
 21
-1549.987548828125
 31
0.0
  0
LINE
  5
C2
  8
DIMNSIONS
  6
CONTINUOUS
 62
     7
 10
-1500.0
 20
-1600.0
 30
0.0
 11
-1486.599204096995
 21
-1549.987548828125
 31
0.0
  0
TEXT
  5
C3
  8
DIMNSIONS
 62
     7
 10
-1519.877777777778
 20
-1169.554666666666
 30
0.0
 40
54.2947048611111
  1
967
 50
90.0
 41
0.7
 11
-1574.1724826388891
 21
-1169.554666666666
 31
0.0
 73
     3
  0
LINE
  5
C4
  8
DIMNSIONS
  6
CONTINUOUS
 62
     7
 10
-1350.0
 20
-1627.3
 30
0.0
 11
-1350.0
 21
-1790.0
 31
0.0
  0
LINE
  5
C5
  8
DIMNSIONS
  6
CONTINUOUS
 62
     7
 10
-788.6599999999994
 20
-1627.3
 30
0.0
 11
-788.6599999999994
 21
-1790.0
 31
0.0
  0
LINE
  5
C6
  8
DIMNSIONS
  6
CONTINUOUS
 62
     7
 10
-1350.0
 20
-1750.0
 30
0.0
 11
-788.6599999999994
 21
-1750.0
 31
0.0
  0
LINE
  5
C7
  8
DIMNSIONS
  6
CONTINUOUS
 62
     7
 10
-1350.0
 20
-1750.0
 30
0.0
 11
-1299.987548828125
 21
-1736.599204096995
 31
0.0
  0
LINE
  5
C8
  8
DIMNSIONS
  6
CONTINUOUS
 62
     7
 10
-1350.0
 20
-1750.0
 30
0.0
 11
-1299.987548828125
 21
-1763.4007959030041
 31
0.0
  0
LINE
  5
C9
  8
DIMNSIONS
  6
CONTINUOUS
 62
     7
 10
-788.6599999999994
 20
-1750.0
 30
0.0
 11
-838.6724511718744
 21
-1763.4007959030041
 31
0.0
  0
LINE
  5
CA
  8
DIMNSIONS
  6
CONTINUOUS
 62
     7
 10
-788.6599999999994
 20
-1750.0
 30
0.0
 11
-838.6724511718744
 21
-1736.599204096995
 31
0.0
  0
TEXT
  5
CB
  8
DIMNSIONS
 62
     7
 10
-1122.246666666666
 20
-1730.122222222222
 30
0.0
 40
54.2947048611111
  1
561
 41
0.7
 11
-1122.246666666666
 21
-1675.8275173611109
 31
0.0
 73
     3
  0
LINE
  5
CC
  8
DIMNSIONS
  6
CONTINUOUS
 62
     7
 10
-788.6599999999994
 20
-220.72399999999899
 30
0.0
 11
-788.6599999999994
 21
243.8997105517644
 31
0.0
  0
ARC
  5
CD
  8
DIMNSIONS
  6
CONTINUOUS
 62
     7
 10
-788.6599999999994
 20
-280.46999999999889
 30
0.0
 40
484.36971055176321
 50
90.0
 51
105.0
  0
LINE
  5
CE
  8
DIMNSIONS
  6
CONTINUOUS
 62
     7
 10
-914.02410596159109
 20
187.39521289410999
 30
0.0
 11
-869.1841689378856
 21
213.28356260519229
 31
0.0
  0
LINE
  5
CF
  8
DIMNSIONS
  6
CONTINUOUS
 62
     7
 10
-914.02410596159109
 20
187.39521289410999
 30
0.0
 11
-862.24740653942683
 21
187.39521289410999
 31
0.0
  0
LINE
  5
D0
  8
DIMNSIONS
  6
CONTINUOUS
 62
     7
 10
-788.6599999999994
 20
203.89971055176451
 30
0.0
 11
-838.6724511718744
 21
190.49891464875961
 31
0.0
  0
LINE
  5
D1
  8
DIMNSIONS
  6
CONTINUOUS
 62
     7
 10
-788.6599999999994
 20
203.89971055176451
 30
0.0
 11
-838.6724511718744
 21
217.30050645476939
 31
0.0
  0
TEXT
  5
D2
  8
DIMNSIONS
 62
     7
 10
-892.02242841912005
 20
238.3071427413594
 30
0.0
 40
54.2947048611111
  1
15\U+00B0
 50
3.603128415315815
 41
0.7
 11
-895.43457984328381
 21
292.49452317826319
 31
0.0
 73
     3
  0
LINE
  5
D3
  8
DIMNSIONS
  6
CONTINUOUS
 62
     7
 10
-1069.329999999999
 20
206.3260000000007
 30
0.0
 11
-1069.329999999999
 21
-540.0
 31
0.0
  0
LINE
  5
D4
  8
DIMNSIONS
  6
CONTINUOUS
 62
     7
 10
-1289.3431176395
 20
-269.16199999999918
 30
0.0
 11
-1289.3431176395
 21
-540.0
 31
0.0
  0
LINE
  5
D5
  8
DIMNSIONS
  6
CONTINUOUS
 62
     7
 10
-1069.329999999999
 20
-500.0
 30
0.0
 11
-1289.3431176395
 21
-500.0
 31
0.0
  0
LINE
  5
D6
  8
DIMNSIONS
  6
CONTINUOUS
 62
     7
 10
-1069.329999999999
 20
-500.0
 30
0.0
 11
-1119.3424511718749
 21
-513.40079590300468
 31
0.0
  0
LINE
  5
D7
  8
DIMNSIONS
  6
CONTINUOUS
 62
     7
 10
-1069.329999999999
 20
-500.0
 30
0.0
 11
-1119.3424511718749
 21
-486.59920409699509
 31
0.0
  0
LINE
  5
D8
  8
DIMNSIONS
  6
CONTINUOUS
 62
     7
 10
-1289.3431176395
 20
-500.0
 30
0.0
 11
-1239.3306664676261
 21
-486.59920409699509
 31
0.0
  0
LINE
  5
D9
  8
DIMNSIONS
  6
CONTINUOUS
 62
     7
 10
-1289.3431176395
 20
-500.0
 30
0.0
 11
-1239.3306664676261
 21
-513.40079590300468
 31
0.0
  0
TEXT
  5
DA
  8
DIMNSIONS
 62
     7
 10
-1232.253225486417
 20
-480.12222222222221
 30
0.0
 40
54.2947048611111
  1
220
 41
0.7
 11
-1232.253225486417
 21
-425.82751736111118
 31
0.0
 73
     3
  0
LINE
  5
DB
  8
DIMNSIONS
  6
CONTINUOUS
 62
     7
 10
-1069.329999999999
 20
206.3260000000007
 30
0.0
 11
-1069.329999999999
 21
-540.0
 31
0.0
  0
LINE
  5
DC
  8
DIMNSIONS
  6
CONTINUOUS
 62
     7
 10
-849.31688236049854
 20
-269.16199999999918
 30
0.0
 11
-849.31688236049854
 21
-540.0
 31
0.0
  0
LINE
  5
DD
  8
DIMNSIONS
  6
CONTINUOUS
 62
     7
 10
-1069.329999999999
 20
-500.0
 30
0.0
 11
-849.31688236049854
 21
-500.0
 31
0.0
  0
LINE
  5
DE
  8
DIMNSIONS
  6
CONTINUOUS
 62
     7
 10
-1069.329999999999
 20
-500.0
 30
0.0
 11
-1019.317548828124
 21
-486.59920409699509
 31
0.0
  0
LINE
  5
DF
  8
DIMNSIONS
  6
CONTINUOUS
 62
     7
 10
-1069.329999999999
 20
-500.0
 30
0.0
 11
-1019.317548828124
 21
-513.40079590300468
 31
0.0
  0
LINE
  5
E0
  8
DIMNSIONS
  6
CONTINUOUS
 62
     7
 10
-849.31688236049854
 20
-500.0
 30
0.0
 11
-899.32933353237365
 21
-513.40079590300468
 31
0.0
  0
LINE
  5
E1
  8
DIMNSIONS
  6
CONTINUOUS
 62
     7
 10
-849.31688236049854
 20
-500.0
 30
0.0
 11
-899.32933353237365
 21
-486.59920409699509
 31
0.0
  0
TEXT
  5
E2
  8
DIMNSIONS
 62
     7
 10
-1012.240107846916
 20
-480.12222222222221
 30
0.0
 40
54.2947048611111
  1
220
 41
0.7
 11
-1012.240107846916
 21
-425.82751736111118
 31
0.0
 73
     3
  0
LINE
  5
E3
  8
DIMNSIONS
  6
CONTINUOUS
 62
     7
 10
-1224.67085602865
 20
299.9200000000011
 30
0.0
 11
-1415.0
 21
299.9200000000011
 31
0.0
  0
LINE
  5
E4
  8
DIMNSIONS
  6
CONTINUOUS
 62
     7
 10
-1340.519117639501
 20
-217.98599999999891
 30
0.0
 11
-1415.0
 21
-217.98599999999891
 31
0.0
  0
LINE
  5
E5
  8
DIMNSIONS
  6
CONTINUOUS
 62
     7
 10
-1375.0
 20
299.9200000000011
 30
0.0
 11
-1375.0
 21
-217.98599999999891
 31
0.0
  0
LINE
  5
E6
  8
DIMNSIONS
  6
CONTINUOUS
 62
     7
 10
-1375.0
 20
299.9200000000011
 30
0.0
 11
-1361.599204096995
 21
249.9075488281261
 31
0.0
  0
LINE
  5
E7
  8
DIMNSIONS
  6
CONTINUOUS
 62
     7
 10
-1375.0
 20
299.9200000000011
 30
0.0
 11
-1388.400795903005
 21
249.9075488281261
 31
0.0
  0
LINE
  5
E8
  8
DIMNSIONS
  6
CONTINUOUS
 62
     7
 10
-1375.0
 20
-217.98599999999891
 30
0.0
 11
-1388.400795903005
 21
-167.9735488281238
 31
0.0
  0
LINE
  5
E9
  8
DIMNSIONS
  6
CONTINUOUS
 62
     7
 10
-1375.0
 20
-217.98599999999891
 30
0.0
 11
-1361.599204096995
 21
-167.9735488281238
 31
0.0
  0
TEXT
  5
EA
  8
DIMNSIONS
 62
     7
 10
-1394.877777777778
 20
-11.94966666666553
 30
0.0
 40
54.2947048611111
  1
518
 50
90.0
 41
0.7
 11
-1449.1724826388891
 21
-11.94966666666553
 31
0.0
 73
     3
  0
LINE
  5
EB
  8
DIMNSIONS
  6
CONTINUOUS
 62
     7
 10
-1120.5060000000001
 20
257.50200000000109
 30
0.0
 11
-1340.0
 21
257.50200000000109
 31
0.0
  0
LINE
  5
EC
  8
DIMNSIONS
  6
CONTINUOUS
 62
     7
 10
-1224.67085602865
 20
299.9200000000011
 30
0.0
 11
-1340.0
 21
299.9200000000011
 31
0.0
  0
LINE
  5
ED
  8
DIMNSIONS
  6
CONTINUOUS
 62
     7
 10
-1300.0
 20
299.9200000000011
 30
0.0
 11
-1300.0
 21
257.50200000000109
 31
0.0
  0
LINE
  5
EE
  8
DIMNSIONS
  6
CONTINUOUS
 62
     7
 10
-1300.0
 20
257.50200000000109
 30
0.0
 11
-1300.0
 21
157.50200000000109
 31
0.0
  0
LINE
  5
EF
  8
DIMNSIONS
  6
CONTINUOUS
 62
     7
 10
-1300.0
 20
257.50200000000109
 30
0.0
 11
-1286.599204096995
 21
207.48954882812609
 31
0.0
  0
LINE
  5
F0
  8
DIMNSIONS
  6
CONTINUOUS
 62
     7
 10
-1300.0
 20
257.50200000000109
 30
0.0
 11
-1313.400795903005
 21
207.48954882812609
 31
0.0
  0
LINE
  5
F1
  8
DIMNSIONS
  6
CONTINUOUS
 62
     7
 10
-1300.0
 20
299.9200000000011
 30
0.0
 11
-1300.0
 21
420.55555555555532
 31
0.0
  0
LINE
  5
F2
  8
DIMNSIONS
  6
CONTINUOUS
 62
     7
 10
-1300.0
 20
299.9200000000011
 30
0.0
 11
-1313.400795903005
 21
349.93245117187621
 31
0.0
  0
LINE
  5
F3
  8
DIMNSIONS
  6
CONTINUOUS
 62
     7
 10
-1300.0
 20
299.9200000000011
 30
0.0
 11
-1286.599204096995
 21
349.93245117187621
 31
0.0
  0
TEXT
  5
F4
  8
DIMNSIONS
 62
     7
 10
-1319.877777777778
 20
350.0
 30
0.0
 40
54.2947048611111
  1
42
 50
90.0
 41
0.7
 11
-1374.1724826388891
 21
350.0
 31
0.0
 73
     3
  0
LINE
  5
F5
  8
DIMNSIONS
  6
CONTINUOUS
 62
     7
 10
-839.5212398323772
 20
-223.36636833880291
 30
0.0
 11
-700.0
 21
-300.0
 31
0.0
  0
LINE
  5
F6
  8
DIMNSIONS
  6
CONTINUOUS
 62
     7
 10
-839.5212398323772
 20
-223.36636833880291
 30
0.0
 11
-789.07157386203721
 21
-235.01359146426429
 31
0.0
  0
LINE
  5
F7
  8
DIMNSIONS
  6
CONTINUOUS
 62
     7
 10
-839.5212398323772
 20
-223.36636833880291
 30
0.0
 11
-801.65415905235386
 21
-258.67799243416812
 31
0.0
  0
LINE
  5
F8
  8
DIMNSIONS
  6
CONTINUOUS
 62
     7
 10
-700.0
 20
-300.0
 30
0.0
 11
-483.61111111111109
 21
-300.0
 31
0.0
  0
TEXT
  5
F9
  8
DIMNSIONS
 62
     7
 10
-660.0
 20
-280.12222222222221
 30
0.0
 40
54.2947048611111
  1
6-M10
 41
0.7
 11
-660.0
 21
-225.82751736111109
 31
0.0
 73
     3
  0
LINE
  5
FA
  8
DIMNSIONS
  6
CONTINUOUS
 62
     7
 10
-725.0
 20
-1627.3
 30
0.0
 11
-725.0
 21
-1790.0
 31
0.0
  0
LINE
  5
FB
  8
DIMNSIONS
  6
CONTINUOUS
 62
     7
 10
-67.648000000000152
 20
-1627.3
 30
0.0
 11
-67.648000000000152
 21
-1790.0
 31
0.0
  0
LINE
  5
FC
  8
DIMNSIONS
  6
CONTINUOUS
 62
     7
 10
-725.0
 20
-1750.0
 30
0.0
 11
-67.648000000000152
 21
-1750.0
 31
0.0
  0
LINE
  5
FD
  8
DIMNSIONS
  6
CONTINUOUS
 62
     7
 10
-725.0
 20
-1750.0
 30
0.0
 11
-674.987548828125
 21
-1736.599204096995
 31
0.0
  0
LINE
  5
FE
  8
DIMNSIONS
  6
CONTINUOUS
 62
     7
 10
-725.0
 20
-1750.0
 30
0.0
 11
-674.987548828125
 21
-1763.4007959030041
 31
0.0
  0
LINE
  5
FF
  8
DIMNSIONS
  6
CONTINUOUS
 62
     7
 10
-67.648000000000152
 20
-1750.0
 30
0.0
 11
-117.6604511718751
 21
-1763.4007959030041
 31
0.0
  0
LINE
  5
100
  8
DIMNSIONS
  6
CONTINUOUS
 62
     7
 10
-67.648000000000152
 20
-1750.0
 30
0.0
 11
-117.6604511718751
 21
-1736.599204096995
 31
0.0
  0
TEXT
  5
101
  8
DIMNSIONS
 62
     7
 10
-449.24066666666653
 20
-1730.122222222222
 30
0.0
 40
54.2947048611111
  1
657
 41
0.7
 11
-449.24066666666653
 21
-1675.8275173611109
 31
0.0
 73
     3
  0
LINE
  5
102
  8
DIMNSIONS
  6
CONTINUOUS
 62
     7
 10
-523.78022671023473
 20
-675.69399999999848
 30
0.0
 11
127.5
 21
-675.69399999999848
 31
0.0
  0
LINE
  5
103
  8
DIMNSIONS
  6
CONTINUOUS
 62
     7
 10
-40.34800000000088
 20
-1600.0
 30
0.0
 11
127.5
 21
-1600.0
 31
0.0
  0
LINE
  5
104
  8
DIMNSIONS
  6
CONTINUOUS
 62
     7
 10
87.499999999999986
 20
-675.69399999999848
 30
0.0
 11
87.499999999999986
 21
-1600.0
 31
0.0
  0
LINE
  5
105
  8
DIMNSIONS
  6
CONTINUOUS
 62
     7
 10
87.499999999999986
 20
-675.69399999999848
 30
0.0
 11
100.90079590300481
 21
-725.7064511718736
 31
0.0
  0
LINE
  5
106
  8
DIMNSIONS
  6
CONTINUOUS
 62
     7
 10
87.499999999999986
 20
-675.69399999999848
 30
0.0
 11
74.099204096995123
 21
-725.7064511718736
 31
0.0
  0
LINE
  5
107
  8
DIMNSIONS
  6
CONTINUOUS
 62
     7
 10
87.499999999999986
 20
-1600.0
 30
0.0
 11
74.099204096995123
 21
-1549.987548828125
 31
0.0
  0
LINE
  5
108
  8
DIMNSIONS
  6
CONTINUOUS
 62
     7
 10
87.499999999999986
 20
-1600.0
 30
0.0
 11
100.90079590300481
 21
-1549.987548828125
 31
0.0
  0
TEXT
  5
109
  8
DIMNSIONS
 62
     7
 10
67.622222222222192
 20
-1190.763666666666
 30
0.0
 40
54.2947048611111
  1
924
 50
90.0
 41
0.7
 11
13.32751736111109
 21
-1190.763666666666
 31
0.0
 73
     3
  0
LINE
  5
10A
  8
DIMNSIONS
  6
CONTINUOUS
 62
     7
 10
-40.34800000000088
 20
-1600.0
 30
0.0
 11
64.999999999999986
 21
-1600.0
 31
0.0
  0
LINE
  5
10B
  8
DIMNSIONS
  6
CONTINUOUS
 62
     7
 10
-523.78022671023473
 20
-1557.5820000000001
 30
0.0
 11
64.999999999999986
 21
-1557.5820000000001
 31
0.0
  0
LINE
  5
10C
  8
DIMNSIONS
  6
CONTINUOUS
 62
     7
 10
24.999999999999989
 20
-1557.5820000000001
 30
0.0
 11
25.0
 21
-1600.0
 31
0.0
  0
LINE
  5
10D
  8
DIMNSIONS
  6
CONTINUOUS
 62
     7
 10
25.0
 20
-1600.0
 30
0.0
 11
25.0
 21
-1700.0
 31
0.0
  0
LINE
  5
10E
  8
DIMNSIONS
  6
CONTINUOUS
 62
     7
 10
25.0
 20
-1600.0
 30
0.0
 11
38.400795903004862
 21
-1650.012451171875
 31
0.0
  0
LINE
  5
10F
  8
DIMNSIONS
  6
CONTINUOUS
 62
     7
 10
25.0
 20
-1600.0
 30
0.0
 11
11.59920409699513
 21
-1650.012451171875
 31
0.0
  0
LINE
  5
110
  8
DIMNSIONS
  6
CONTINUOUS
 62
     7
 10
24.999999999999989
 20
-1557.5820000000001
 30
0.0
 11
24.999999999999989
 21
-1429.4444444444439
 31
0.0
  0
LINE
  5
111
  8
DIMNSIONS
  6
CONTINUOUS
 62
     7
 10
24.999999999999989
 20
-1557.5820000000001
 30
0.0
 11
11.59920409699512
 21
-1507.569548828124
 31
0.0
  0
LINE
  5
112
  8
DIMNSIONS
  6
CONTINUOUS
 62
     7
 10
24.999999999999989
 20
-1557.5820000000001
 30
0.0
 11
38.400795903004848
 21
-1507.569548828124
 31
0.0
  0
TEXT
  5
113
  8
DIMNSIONS
 62
     7
 10
5.1222222222222049
 20
-1500.0
 30
0.0
 40
54.2947048611111
  1
42
 50
90.0
 41
0.7
 11
-49.172482638888901
 21
-1500.0
 31
0.0
 73
     3
  0
LINE
  5
114
  8
DIMNSIONS
  6
CONTINUOUS
 62
     7
 10
481.84599999999989
 20
-1557.5819999999981
 30
0.0
 11
840.0
 21
-1557.5819999999981
 31
0.0
  0
LINE
  5
115
  8
DIMNSIONS
  6
CONTINUOUS
 62
     7
 10
738.63999999999919
 20
-1600.0
 30
0.0
 11
840.0
 21
-1600.0
 31
0.0
  0
LINE
  5
116
  8
DIMNSIONS
  6
CONTINUOUS
 62
     7
 10
800.0
 20
-1600.0
 30
0.0
 11
800.0
 21
-1557.5819999999981
 31
0.0
  0
LINE
  5
117
  8
DIMNSIONS
  6
CONTINUOUS
 62
     7
 10
800.0
 20
-1557.5819999999981
 30
0.0
 11
800.0
 21
-1429.4444444444439
 31
0.0
  0
LINE
  5
118
  8
DIMNSIONS
  6
CONTINUOUS
 62
     7
 10
800.0
 20
-1557.5819999999981
 30
0.0
 11
786.59920409699521
 21
-1507.5695488281231
 31
0.0
  0
LINE
  5
119
  8
DIMNSIONS
  6
CONTINUOUS
 62
     7
 10
800.0
 20
-1557.5819999999981
 30
0.0
 11
813.40079590300502
 21
-1507.5695488281231
 31
0.0
  0
LINE
  5
11A
  8
DIMNSIONS
  6
CONTINUOUS
 62
     7
 10
800.0
 20
-1600.0
 30
0.0
 11
800.0
 21
-1700.0
 31
0.0
  0
LINE
  5
11B
  8
DIMNSIONS
  6
CONTINUOUS
 62
     7
 10
800.0
 20
-1600.0
 30
0.0
 11
813.40079590300502
 21
-1650.012451171875
 31
0.0
  0
LINE
  5
11C
  8
DIMNSIONS
  6
CONTINUOUS
 62
     7
 10
800.0
 20
-1600.0
 30
0.0
 11
786.59920409699521
 21
-1650.012451171875
 31
0.0
  0
TEXT
  5
11D
  8
DIMNSIONS
 62
     7
 10
780.12222222222181
 20
-1500.0
 30
0.0
 40
54.2947048611111
  1
42
 50
90.0
 41
0.7
 11
725.82751736111072
 21
-1500.0
 31
0.0
 73
     3
  0
LINE
  5
11E
  8
DIMNSIONS
  6
CONTINUOUS
 62
     7
 10
738.63999999999919
 20
-1600.0
 30
0.0
 11
915.0
 21
-1600.0
 31
0.0
  0
LINE
  5
11F
  8
DIMNSIONS
  6
CONTINUOUS
 62
     7
 10
481.84599999999989
 20
-1116.637999999999
 30
0.0
 11
915.0
 21
-1116.637999999999
 31
0.0
  0
LINE
  5
120
  8
DIMNSIONS
  6
CONTINUOUS
 62
     7
 10
875.0
 20
-1600.0
 30
0.0
 11
875.0
 21
-1116.637999999999
 31
0.0
  0
LINE
  5
121
  8
DIMNSIONS
  6
CONTINUOUS
 62
     7
 10
875.0
 20
-1600.0
 30
0.0
 11
861.59920409699544
 21
-1549.987548828125
 31
0.0
  0
LINE
  5
122
  8
DIMNSIONS
  6
CONTINUOUS
 62
     7
 10
875.0
 20
-1600.0
 30
0.0
 11
888.40079590300502
 21
-1549.987548828125
 31
0.0
  0
LINE
  5
123
  8
DIMNSIONS
  6
CONTINUOUS
 62
     7
 10
875.0
 20
-1116.637999999999
 30
0.0
 11
888.40079590300502
 21
-1166.650451171874
 31
0.0
  0
LINE
  5
124
  8
DIMNSIONS
  6
CONTINUOUS
 62
     7
 10
875.0
 20
-1116.637999999999
 30
0.0
 11
861.59920409699544
 21
-1166.650451171874
 31
0.0
  0
TEXT
  5
125
  8
DIMNSIONS
 62
     7
 10
855.12222222222181
 20
-1411.235666666666
 30
0.0
 40
54.2947048611111
  1
483
 50
90.0
 41
0.7
 11
800.82751736111072
 21
-1411.235666666666
 31
0.0
 73
     3
  0
LINE
  5
126
  8
DIMNSIONS
  6
CONTINUOUS
 62
     7
 10
481.84599999999989
 20
-1116.637999999999
 30
0.0
 11
915.0
 21
-1116.637999999999
 31
0.0
  0
LINE
  5
127
  8
DIMNSIONS
  6
CONTINUOUS
 62
     7
 10
481.84599999999989
 20
-675.69400000000053
 30
0.0
 11
915.0
 21
-675.69400000000053
 31
0.0
  0
LINE
  5
128
  8
DIMNSIONS
  6
CONTINUOUS
 62
     7
 10
875.0
 20
-1116.637999999999
 30
0.0
 11
875.0
 21
-675.69400000000053
 31
0.0
  0
LINE
  5
129
  8
DIMNSIONS
  6
CONTINUOUS
 62
     7
 10
875.0
 20
-1116.637999999999
 30
0.0
 11
861.59920409699544
 21
-1066.625548828124
 31
0.0
  0
LINE
  5
12A
  8
DIMNSIONS
  6
CONTINUOUS
 62
     7
 10
875.0
 20
-1116.637999999999
 30
0.0
 11
888.40079590300502
 21
-1066.625548828124
 31
0.0
  0
LINE
  5
12B
  8
DIMNSIONS
  6
CONTINUOUS
 62
     7
 10
875.0
 20
-675.69400000000053
 30
0.0
 11
888.40079590300502
 21
-725.7064511718753
 31
0.0
  0
LINE
  5
12C
  8
DIMNSIONS
  6
CONTINUOUS
 62
     7
 10
875.0
 20
-675.69400000000053
 30
0.0
 11
861.59920409699544
 21
-725.7064511718753
 31
0.0
  0
TEXT
  5
12D
  8
DIMNSIONS
 62
     7
 10
855.12222222222181
 20
-949.08266666666646
 30
0.0
 40
54.2947048611111
  1
441
 50
90.0
 41
0.7
 11
800.82751736111072
 21
-949.08266666666646
 31
0.0
 73
     3
  0
LINE
  5
12E
  8
DIMNSIONS
  6
CONTINUOUS
 62
     7
 10
-572.49677675555233
 20
-664.71988957476174
 30
0.0
 11
-550.0
 21
-550.0
 31
0.0
  0
LINE
  5
12F
  8
DIMNSIONS
  6
CONTINUOUS
 62
     7
 10
-572.49677675555233
 20
-664.71988957476174
 30
0.0
 11
-575.20655983091444
 21
-613.01414831967816
 31
0.0
  0
LINE
  5
130
  8
DIMNSIONS
  6
CONTINUOUS
 62
     7
 10
-572.49677675555233
 20
-664.71988957476174
 30
0.0
 11
-548.99064711001961
 21
-618.58651258867303
 31
0.0
  0
LINE
  5
131
  8
DIMNSIONS
  6
CONTINUOUS
 62
     7
 10
-550.0
 20
-550.0
 30
0.0
 11
-333.61111111111109
 21
-550.0
 31
0.0
  0
TEXT
  5
132
  8
DIMNSIONS
 62
     7
 10
-510.0
 20
-530.12222222222226
 30
0.0
 40
54.2947048611111
  1
4-M10
 41
0.7
 11
-510.0
 21
-475.82751736111118
 31
0.0
 73
     3
  0
LINE
  5
133
  8
DIMNSIONS
  6
CONTINUOUS
 62
     7
 10
432.36874391680283
 20
-664.64785836116653
 30
0.0
 11
450.0
 21
-550.0
 31
0.0
  0
LINE
  5
134
  8
DIMNSIONS
  6
CONTINUOUS
 62
     7
 10
432.36874391680283
 20
-664.64785836116653
 30
0.0
 11
426.95660509313268
 21
-613.15479711592195
 31
0.0
  0
LINE
  5
135
  8
DIMNSIONS
  6
CONTINUOUS
 62
     7
 10
432.36874391680283
 20
-664.64785836116653
 30
0.0
 11
453.42822482931871
 21
-617.34748979232188
 31
0.0
  0
LINE
  5
136
  8
DIMNSIONS
  6
CONTINUOUS
 62
     7
 10
450.0
 20
-550.0
 30
0.0
 11
666.38888888888869
 21
-550.0
 31
0.0
  0
TEXT
  5
137
  8
DIMNSIONS
 62
     7
 10
490.0
 20
-530.12222222222226
 30
0.0
 40
54.2947048611111
  1
3-M10
 41
0.7
 11
490.0
 21
-475.82751736111118
 31
0.0
 73
     3
  0
LINE
  5
138
  8
DATA
  6
CONTINUOUS
 62
     7
 10
-1184.67085602865
 20
299.9200000000011
 30
0.0
 11
-953.98914397134979
 21
299.9200000000011
 31
0.0
  0
ARC
  5
139
  8
DATA
  6
CONTINUOUS
 62
     7
 10
-1272.2160456852801
 20
-469.73029949238003
 30
0.0
 40
374.25958491155029
 50
281.09457409376512
 51
300.1149954768274
  0
ARC
  5
13A
  8
DATA
  6
CONTINUOUS
 62
     7
 10
-4621.8108709592852
 20
-1390.716290321509
 30
0.0
 40
3377.5756773052331
 50
7.1149913897974306
 51
7.7798423105940531
  0
TEXT
  5
13B
  8
DATA
 62
     7
 10
1100.0
 20
-2025.2777149999999
 30
0.0
 40
48.865234375000007
  1
JBL
 41
0.7
 11
1100.0
 21
-1976.4124806249999
 31
0.0
 73
     3
  0
TEXT
  5
13C
  8
DATA
 62
     7
 10
1142.6967999999999
 20
-125.00006399999999
 30
0.0
 40
36.000518749999998
  1
コネクターパネル拡大図
 41
0.7
 11
1142.6967999999999
 21
-88.999545249999983
 31
0.0
 73
     3
  0
LINE
  5
13D
  8
DATA
  6
CONTINUOUS
 62
     7
 10
1050.0
 20
-150.0
 30
0.0
 11
1750.0
 21
-150.0
 31
0.0
  0
TEXT
  5
13E
  8
DATA
 62
     7
 10
-1500.0
 20
-2308.1355149999999
 30
0.0
 40
32.576822916666671
  1
仕様および外観は予告なく変更されることがありますので、ご了承ください。
 41
0.7
 11
-1500.0
 21
-2275.558692083333
 31
0.0
 73
     3
  0
LINE
  5
13F
  8
DATA
  6
CONTINUOUS
 62
     7
 10
-648.29200000000014
 20
-650.03999999999837
 30
0.0
 11
-725.0
 21
-650.03999999999837
 31
0.0
  0
LINE
  5
140
  8
DATA
  6
CONTINUOUS
 62
     7
 10
-725.0
 20
-1583.49
 30
0.0
 11
-648.29200000000014
 21
-1583.49
 31
0.0
  0
LINE
  5
141
  8
DATA
  6
CONTINUOUS
 62
     7
 10
-648.29200000000014
 20
-1583.49
 30
0.0
 11
-648.29200000000014
 21
-650.03999999999837
 31
0.0
  0
LINE
  5
142
  8
DATA
  6
CONTINUOUS
 62
     7
 10
-1304.28
 20
-1570.79
 30
0.0
 11
-1083.396084442747
 21
-1570.79
 31
0.0
  0
LINE
  5
143
  8
DATA
  6
CONTINUOUS
 62
     7
 10
-1350.0
 20
-1583.49
 30
0.0
 11
-788.6599999999994
 21
-1583.49
 31
0.0
  0
LINE
  5
144
  8
DATA
  6
CONTINUOUS
 62
     7
 10
-1197.599999999999
 20
-1559.3599999999999
 30
0.0
 11
-1316.217999999998
 21
-1440.742
 31
0.0
  0
LINE
  5
145
  8
DATA
  6
CONTINUOUS
 62
     7
 10
-1327.1400000000001
 20
-1445.3140000000001
 30
0.0
 11
-1327.1400000000001
 21
-1563.932
 31
0.0
  0
LINE
  5
146
  8
DATA
  6
CONTINUOUS
 62
     7
 10
-1320.79
 20
-1570.2819999999999
 30
0.0
 11
-1202.1719999999989
 21
-1570.2819999999999
 31
0.0
  0
ARC
  5
147
  8
DATA
  6
CONTINUOUS
 62
     7
 10
-1320.79
 20
-1563.932
 30
0.0
 40
6.350000000000362
 50
180.0
 51
270.0
  0
ARC
  5
148
  8
DATA
  6
CONTINUOUS
 62
     7
 10
-1202.1719999999989
 20
-1563.932
 30
0.0
 40
6.3499999999999091
 50
270.0
 51
45.000000000002899
  0
LINE
  5
149
  8
DATA
  6
CONTINUOUS
 62
     7
 10
-1304.28
 20
-1583.49
 30
0.0
 11
-1304.28
 21
-1570.79
 31
0.0
  0
ARC
  5
14A
  8
DATA
  6
CONTINUOUS
 62
     7
 10
-1320.79
 20
-1445.3140000000001
 30
0.0
 40
6.3499999999999117
 50
45.0
 51
180.0
  0
LINE
  5
14B
  8
DATA
  6
STYLE_01
 62
     7
 10
-680.29600000000028
 20
-1583.49
 30
0.0
 11
-680.29600000000028
 21
-1570.79
 31
0.0
  0
LINE
  5
14C
  8
DATA
  6
STYLE_01
 62
     7
 10
-717.88799999999981
 20
-1583.49
 30
0.0
 11
-717.88799999999981
 21
-1570.79
 31
0.0
  0
LINE
  5
14D
  8
DATA
  6
STYLE_01
 62
     7
 10
-717.88799999999981
 20
-1570.79
 30
0.0
 11
-648.29200000000014
 21
-1570.79
 31
0.0
  0
LINE
  5
14E
  8
DATA
  6
CONTINUOUS
 62
     7
 10
-788.6599999999994
 20
-650.03999999999837
 30
0.0
 11
-1350.0
 21
-650.03999999999837
 31
0.0
  0
LINE
  5
14F
  8
DATA
  6
CONTINUOUS
 62
     7
 10
-1304.28
 20
-662.73999999999842
 30
0.0
 11
-1006.545887856938
 21
-662.73999999999842
 31
0.0
  0
LINE
  5
150
  8
DATA
  6
CONTINUOUS
 62
     7
 10
-1304.28
 20
-662.73999999999842
 30
0.0
 11
-1304.28
 21
-650.03999999999837
 31
0.0
  0
LINE
  5
151
  8
DATA
  6
STYLE_01
 62
     7
 10
-680.29600000000028
 20
-662.73999999999842
 30
0.0
 11
-680.29600000000028
 21
-650.03999999999837
 31
0.0
  0
LINE
  5
152
  8
DATA
  6
STYLE_01
 62
     7
 10
-717.88799999999981
 20
-662.73999999999842
 30
0.0
 11
-717.88799999999981
 21
-650.03999999999837
 31
0.0
  0
LINE
  5
153
  8
DATA
  6
STYLE_01
 62
     7
 10
-717.88799999999981
 20
-662.73999999999842
 30
0.0
 11
-648.29200000000014
 21
-662.73999999999842
 31
0.0
  0
LINE
  5
154
  8
DATA
  6
CONTINUOUS
 62
     7
 10
555.82000000000005
 20
-1600.0
 30
0.0
 11
555.82000000000005
 21
-633.27599999999848
 31
0.0
  0
LINE
  5
155
  8
DATA
  6
CONTINUOUS
 62
     7
 10
-1297.9300000000001
 20
-1118.4159999999999
 30
0.0
 11
-1297.9300000000001
 21
-737.4159999999988
 31
0.0
  0
LINE
  5
156
  8
DATA
  6
CONTINUOUS
 62
     7
 10
-974.03066311665589
 20
-1156.5160000000001
 30
0.0
 11
-1259.8299999999999
 21
-1156.5160000000001
 31
0.0
  0
LINE
  5
157
  8
DATA
  6
CONTINUOUS
 62
     7
 10
-1259.8299999999999
 20
-699.31599999999867
 30
0.0
 11
-1036.5653645203529
 21
-699.31599999999867
 31
0.0
  0
ARC
  5
158
  8
DATA
  6
CONTINUOUS
 62
     7
 10
-1069.329999999999
 20
-994.46400000000006
 30
0.0
 40
50.800000000000011
 50
69.604171656283782
 51
2.451064145841285
  0
ARC
  5
159
  8
DATA
  6
CONTINUOUS
 62
     7
 10
-1069.329999999999
 20
-781.86599999999851
 30
0.0
 40
19.05000000000009
 50
83.043255114406264
 51
251.20197297465319
  0
CIRCLE
  5
15A
  8
DATA
  6
CONTINUOUS
 62
     7
 10
-1126.48
 20
-1147.1179999999999
 30
0.0
 40
5.080000000000835
  0
CIRCLE
  5
15B
  8
DATA
  6
CONTINUOUS
 62
     7
 10
-1126.48
 20
-1147.1179999999999
 30
0.0
 40
2.7940000000007781
  0
CIRCLE
  5
15C
  8
DATA
  6
CONTINUOUS
 62
     7
 10
-1012.179999999999
 20
-1147.1179999999999
 30
0.0
 40
5.0799999999999272
  0
CIRCLE
  5
15D
  8
DATA
  6
CONTINUOUS
 62
     7
 10
-1012.179999999999
 20
-1147.1179999999999
 30
0.0
 40
2.793999999999869
  0
CIRCLE
  5
15E
  8
DATA
  6
CONTINUOUS
 62
     7
 10
-1288.5319999999999
 20
-870.7659999999986
 30
0.0
 40
5.0799999999999272
  0
CIRCLE
  5
15F
  8
DATA
  6
CONTINUOUS
 62
     7
 10
-1288.5319999999999
 20
-870.7659999999986
 30
0.0
 40
2.793999999999869
  0
CIRCLE
  5
160
  8
DATA
  6
CONTINUOUS
 62
     7
 10
-1288.5319999999999
 20
-985.06600000000014
 30
0.0
 40
5.0799999999999272
  0
CIRCLE
  5
161
  8
DATA
  6
CONTINUOUS
 62
     7
 10
-1288.5319999999999
 20
-985.06600000000014
 30
0.0
 40
2.793999999999869
  0
CIRCLE
  5
162
  8
DATA
  6
CONTINUOUS
 62
     7
 10
-1288.5319999999999
 20
-1099.366
 30
0.0
 40
5.0799999999999272
  0
CIRCLE
  5
163
  8
DATA
  6
CONTINUOUS
 62
     7
 10
-1288.5319999999999
 20
-1099.366
 30
0.0
 40
2.793999999999869
  0
CIRCLE
  5
164
  8
DATA
  6
CONTINUOUS
 62
     7
 10
-1288.5319999999999
 20
-756.46599999999853
 30
0.0
 40
5.0799999999999272
  0
CIRCLE
  5
165
  8
DATA
  6
CONTINUOUS
 62
     7
 10
-1288.5319999999999
 20
-756.46599999999853
 30
0.0
 40
2.793999999999869
  0
CIRCLE
  5
166
  8
DATA
  6
CONTINUOUS
 62
     7
 10
-1240.7799999999991
 20
-1147.1179999999999
 30
0.0
 40
5.0799999999999272
  0
CIRCLE
  5
167
  8
DATA
  6
CONTINUOUS
 62
     7
 10
-1240.7799999999991
 20
-1147.1179999999999
 30
0.0
 40
2.793999999999869
  0
CIRCLE
  5
168
  8
DATA
  6
CONTINUOUS
 62
     7
 10
-1126.48
 20
-708.71399999999835
 30
0.0
 40
5.080000000000835
  0
CIRCLE
  5
169
  8
DATA
  6
CONTINUOUS
 62
     7
 10
-1126.48
 20
-708.71399999999835
 30
0.0
 40
2.7940000000007781
  0
CIRCLE
  5
16A
  8
DATA
  6
CONTINUOUS
 62
     7
 10
-1240.7799999999991
 20
-708.71399999999835
 30
0.0
 40
5.0799999999999272
  0
CIRCLE
  5
16B
  8
DATA
  6
CONTINUOUS
 62
     7
 10
-1240.7799999999991
 20
-708.71399999999835
 30
0.0
 40
2.793999999999869
  0
CIRCLE
  5
16C
  8
DATA
  6
CONTINUOUS
 62
     7
 10
-1140.123861860123
 20
-1541.5495014354781
 30
0.0
 40
4.064000000000072
  0
CIRCLE
  5
16D
  8
DATA
  6
CONTINUOUS
 62
     7
 10
-1140.123861860123
 20
-1541.5495014354781
 30
0.0
 40
3.3019999999994121
  0
ARC
  5
16E
  8
DATA
  6
CONTINUOUS
 62
     7
 10
-1069.329999999999
 20
-1370.6379999999999
 30
0.0
 40
55.879999999999917
 50
48.912511140576733
 51
248.0771852171417
  0
ARC
  5
16F
  8
DATA
  6
CONTINUOUS
 62
     7
 10
-1069.329999999999
 20
-1370.6379999999999
 30
0.0
 40
161.79800000000009
 50
58.763824651678142
 51
260.49895688990279
  0
ARC
  5
170
  8
DATA
  6
CONTINUOUS
 62
     7
 10
-1069.329999999999
 20
-1370.6379999999999
 30
0.0
 40
166.8780000000001
 50
59.25918358640677
 51
261.19531772654079
  0
ARC
  5
171
  8
DATA
  6
CONTINUOUS
 62
     7
 10
-1069.329999999999
 20
-1370.6379999999999
 30
0.0
 40
171.9579999999994
 50
59.75618850117818
 51
261.89773335754762
  0
CIRCLE
  5
172
  8
DATA
  6
CONTINUOUS
 62
     7
 10
-1240.241501435479
 20
-1299.8441381398759
 30
0.0
 40
4.064000000000072
  0
CIRCLE
  5
173
  8
DATA
  6
CONTINUOUS
 62
     7
 10
-1240.241501435479
 20
-1299.8441381398759
 30
0.0
 40
3.3020000000002541
  0
CIRCLE
  5
174
  8
DATA
  6
CONTINUOUS
 62
     7
 10
-998.53613813987533
 20
-1199.7264985645211
 30
0.0
 40
4.063999999999985
  0
CIRCLE
  5
175
  8
DATA
  6
CONTINUOUS
 62
     7
 10
-998.53613813987533
 20
-1199.7264985645211
 30
0.0
 40
3.3020000000002541
  0
CIRCLE
  5
176
  8
DATA
  6
CONTINUOUS
 62
     7
 10
-1140.092758845492
 20
-1199.801587884273
 30
0.0
 40
4.064000000000072
  0
CIRCLE
  5
177
  8
DATA
  6
CONTINUOUS
 62
     7
 10
-1140.092758845492
 20
-1199.801587884273
 30
0.0
 40
3.3019999999994121
  0
CIRCLE
  5
178
  8
DATA
  6
CONTINUOUS
 62
     7
 10
-1240.1664121157271
 20
-1441.4007588454931
 30
0.0
 40
4.064000000000072
  0
CIRCLE
  5
179
  8
DATA
  6
CONTINUOUS
 62
     7
 10
-1240.1664121157271
 20
-1441.4007588454931
 30
0.0
 40
3.3020000000002541
  0
ARC
  5
17A
  8
DATA
  6
CONTINUOUS
 62
     7
 10
-1069.329999999999
 20
-1370.6379999999999
 30
0.0
 40
177.03799999999961
 50
60.254855786124793
 51
262.60621420152171
  0
ARC
  5
17B
  8
DATA
  6
CONTINUOUS
 62
     7
 10
-1069.329999999999
 20
-1370.6379999999999
 30
0.0
 40
193.2939999999997
 50
61.862034090498717
 51
264.91472696045048
  0
LINE
  5
17C
  8
DATA
  6
STYLE_01
 62
     7
 10
-648.29200000000014
 20
-699.31599999999867
 30
0.0
 11
-648.29200000000014
 21
-1156.5160000000001
 31
0.0
  0
LINE
  5
17D
  8
DATA
  6
STYLE_01
 62
     7
 10
-652.61000000000047
 20
-701.85599999999852
 30
0.0
 11
-652.61000000000047
 21
-1153.9760000000001
 31
0.0
  0
LINE
  5
17E
  8
DATA
  6
STYLE_01
 62
     7
 10
-652.61000000000047
 20
-701.85599999999852
 30
0.0
 11
-651.59400000000085
 21
-699.31599999999867
 31
0.0
  0
LINE
  5
17F
  8
DATA
  6
STYLE_01
 62
     7
 10
-651.59400000000085
 20
-699.31599999999867
 30
0.0
 11
-648.29200000000014
 21
-699.31599999999867
 31
0.0
  0
LINE
  5
180
  8
DATA
  6
STYLE_01
 62
     7
 10
-652.61000000000047
 20
-1153.9760000000001
 30
0.0
 11
-651.59400000000085
 21
-1156.5160000000001
 31
0.0
  0
LINE
  5
181
  8
DATA
  6
STYLE_01
 62
     7
 10
-651.59400000000085
 20
-1156.5160000000001
 30
0.0
 11
-648.29200000000014
 21
-1156.5160000000001
 31
0.0
  0
LINE
  5
182
  8
DATA
  6
STYLE_01
 62
     7
 10
-667.08800000000065
 20
-1180.9609599999999
 30
0.0
 11
-660.48400000000015
 21
-1180.9609599999999
 31
0.0
  0
LINE
  5
183
  8
DATA
  6
STYLE_01
 62
     7
 10
-660.48400000000015
 20
-1176.05368
 30
0.0
 11
-648.29200000000014
 21
-1176.05368
 31
0.0
  0
LINE
  5
184
  8
DATA
  6
STYLE_01
 62
     7
 10
-660.48400000000015
 20
-1176.05368
 30
0.0
 11
-660.48400000000015
 21
-1565.43568
 31
0.0
  0
LINE
  5
185
  8
DATA
  6
STYLE_01
 62
     7
 10
-667.08800000000065
 20
-1180.9609599999999
 30
0.0
 11
-667.34200000000055
 21
-1560.5283999999999
 31
0.0
  0
LINE
  5
186
  8
DATA
  6
STYLE_01
 62
     7
 10
-667.34200000000055
 20
-1560.5283999999999
 30
0.0
 11
-660.48400000000015
 21
-1560.5283999999999
 31
0.0
  0
LINE
  5
187
  8
DATA
  6
STYLE_01
 62
     7
 10
-660.48400000000015
 20
-1565.43568
 30
0.0
 11
-648.29200000000014
 21
-1565.43568
 31
0.0
  0
LINE
  5
188
  8
DATA
  6
STYLE_01
 62
     7
 10
-648.29200000000014
 20
-1176.05368
 30
0.0
 11
-648.29200000000014
 21
-1565.2223200000001
 31
0.0
  0
LINE
  5
189
  8
DATA
  6
CONTINUOUS
 62
     7
 10
-1197.025047346887
 20
290.44029558686242
 30
0.0
 11
-1350.0
 21
-280.46999999999889
 31
0.0
  0
LINE
  5
18A
  8
DATA
  6
CONTINUOUS
 62
     7
 10
-788.6599999999994
 20
-280.46999999999889
 30
0.0
 11
-941.63495265311235
 21
290.44029558686242
 31
0.0
  0
LINE
  5
18B
  8
DATA
  6
CONTINUOUS
 62
     7
 10
-1350.0
 20
-280.72399999999891
 30
0.0
 11
-1350.0
 21
-285.54999999999899
 31
0.0
  0
ARC
  5
18C
  8
DATA
  6
CONTINUOUS
 62
     7
 10
-1323.3299999999999
 20
-285.54999999999899
 30
0.0
 40
26.67000000000008
 50
180.0
 51
249.8299999999997
  0
ARC
  5
18D
  8
DATA
  6
CONTINUOUS
 62
     7
 10
-1069.329999999999
 20
405.83800000000082
 30
0.0
 40
763.27000000000032
 50
249.8299999999999
 51
290.17000000000002
  0
ARC
  5
18E
  8
DATA
  6
CONTINUOUS
 62
     7
 10
-815.32999999999936
 20
-285.54999999999899
 30
0.0
 40
26.669999999999931
 50
290.16999999999939
 51
0.0
  0
LINE
  5
18F
  8
DATA
  6
CONTINUOUS
 62
     7
 10
-788.6599999999994
 20
-285.54999999999899
 30
0.0
 11
-788.6599999999994
 21
-280.72399999999891
 31
0.0
  0
LINE
  5
190
  8
DATA
  6
CONTINUOUS
 62
     7
 10
-1350.0
 20
-645.97599999999852
 30
0.0
 11
-1350.0
 21
-1587.3
 31
0.0
  0
LINE
  5
191
  8
DATA
  6
CONTINUOUS
 62
     7
 10
-1337.3
 20
-633.27599999999848
 30
0.0
 11
-801.35999999999945
 21
-633.27599999999848
 31
0.0
  0
LINE
  5
192
  8
DATA
  6
CONTINUOUS
 62
     7
 10
-801.35999999999945
 20
-1600.0
 30
0.0
 11
-1337.3
 21
-1600.0
 31
0.0
  0
LINE
  5
193
  8
DATA
  6
CONTINUOUS
 62
     7
 10
-788.6599999999994
 20
-1587.3
 30
0.0
 11
-788.6599999999994
 21
-645.97599999999852
 31
0.0
  0
LINE
  5
194
  8
DATA
  6
CONTINUOUS
 62
     7
 10
-725.0
 20
-645.97599999999852
 30
0.0
 11
-725.0
 21
-650.03999999999837
 31
0.0
  0
LINE
  5
195
  8
DATA
  6
CONTINUOUS
 62
     7
 10
-712.29999999999995
 20
-633.27599999999848
 30
0.0
 11
-80.348000000000852
 21
-633.27599999999848
 31
0.0
  0
LINE
  5
196
  8
DATA
  6
CONTINUOUS
 62
     7
 10
-67.648000000000152
 20
-645.97599999999852
 30
0.0
 11
-67.648000000000152
 21
-1587.3
 31
0.0
  0
ARC
  5
197
  8
DATA
  6
CONTINUOUS
 62
     7
 10
-80.348000000000852
 20
-645.97599999999852
 30
0.0
 40
12.700000000000729
 50
0.0
 51
90.0
  0
LINE
  5
198
  8
DATA
  6
CONTINUOUS
 62
     7
 10
-80.348000000000852
 20
-1600.0
 30
0.0
 11
-712.29999999999995
 21
-1600.0
 31
0.0
  0
ARC
  5
199
  8
DATA
  6
CONTINUOUS
 62
     7
 10
-80.348000000000852
 20
-1587.3
 30
0.0
 40
12.70000000000004
 50
270.0
 51
0.0
  0
LINE
  5
19A
  8
DATA
  6
CONTINUOUS
 62
     7
 10
-725.0
 20
-1587.3
 30
0.0
 11
-725.0
 21
-1583.49
 31
0.0
  0
LINE
  5
19B
  8
DATA
  6
CONTINUOUS
 62
     7
 10
150.0
 20
-645.97599999999852
 30
0.0
 11
150.0
 21
-1587.3
 31
0.0
  0
LINE
  5
19C
  8
DATA
  6
CONTINUOUS
 62
     7
 10
162.69999999999999
 20
-633.27599999999848
 30
0.0
 11
698.63999999999896
 21
-633.27599999999848
 31
0.0
  0
LINE
  5
19D
  8
DATA
  6
CONTINUOUS
 62
     7
 10
711.33999999999924
 20
-1587.3
 30
0.0
 11
711.33999999999924
 21
-645.97599999999852
 31
0.0
  0
LINE
  5
19E
  8
DATA
  6
CONTINUOUS
 62
     7
 10
698.63999999999896
 20
-1600.0
 30
0.0
 11
162.69999999999999
 21
-1600.0
 31
0.0
  0
LINE
  5
19F
  8
DATA
  6
CONTINUOUS
 62
     7
 10
305.51999999999998
 20
-1600.0
 30
0.0
 11
305.51999999999998
 21
-633.27599999999848
 31
0.0
  0
TEXT
  5
1A0
  8
DATA
 62
     7
 10
-1220.7044404239759
 20
-1975.400875274122
 30
0.0
 40
54.2947048611111
  1
グリル付き
 41
0.7
 11
-1220.7044404239759
 21
-1921.1061704130109
 31
0.0
 73
     3
  0
TEXT
  5
1A1
  8
DATA
 62
     7
 10
1100.0
 20
-2170.2777150000002
 30
0.0
 40
48.865234375000007
  1
AM4315/95
 41
0.7
 11
1100.0
 21
-2121.4124806250002
 31
0.0
 73
     3
  0
TEXT
  5
1A2
  8
DATA
 62
     7
 10
1050.0
 20
-2094.8168149999992
 30
0.0
 40
32.576822916666671
  1
3WAYフルレンジラウドスピーカーシステム
 41
0.7
 11
1050.0
 21
-2062.2399920833332
 31
0.0
 73
     3
  0
ARC
  5
1A3
  8
DATA
  6
CONTINUOUS
 62
     7
 10
-1234.9738144712419
 20
-1096.522048237475
 30
0.0
 40
43.491270029927598
 50
183.74932220242709
 51
271.05110671928628
  0
ARC
  5
1A4
  8
DATA
  6
CONTINUOUS
 62
     7
 10
-1018.845685714339
 20
-1095.291114285712
 30
0.0
 40
259.55830269957482
 50
171.16462268562441
 51
180.8995410384012
  0
ARC
  5
1A5
  8
DATA
  6
CONTINUOUS
 62
     7
 10
-4621.8108709592852
 20
-598.21170967849037
 30
0.0
 40
3377.5756773052331
 50
352.22015768940599
 51
352.88500861020248
  0
ARC
  5
1A6
  8
DATA
  6
CONTINUOUS
 62
     7
 10
-1507.2894999999969
 20
-994.59099999999944
 30
0.0
 40
238.06153387569569
 50
354.70456436494618
 51
5.2954356350538747
  0
ARC
  5
1A7
  8
DATA
  6
CONTINUOUS
 62
     7
 10
-1069.0759999999991
 20
52517.367000020109
 30
0.0
 40
53657.627000020097
 50
269.82370543289431
 51
270.10139385536388
  0
ARC
  5
1A8
  8
DATA
  6
CONTINUOUS
 62
     7
 10
-1234.9738144712419
 20
-892.40595176252384
 30
0.0
 40
43.491270029927513
 50
88.948893280713733
 51
176.25067779757279
  0
ARC
  5
1A9
  8
DATA
  6
CONTINUOUS
 62
     7
 10
-1018.845685714339
 20
-893.63688571428793
 30
0.0
 40
259.55830269957488
 50
179.10045896159889
 51
188.83537731437559
  0
ARC
  5
1AA
  8
DATA
  6
CONTINUOUS
 62
     7
 10
-1069.0759999999991
 20
-54506.295000020109
 30
0.0
 40
53657.627000020097
 50
90.009314871700354
 51
90.176294567103426
  0
ARC
  5
1AB
  8
DATA
  6
CONTINUOUS
 62
     7
 10
-1407.073781094947
 20
-701.79161776379351
 30
0.0
 40
447.43059153545511
 50
288.3195260167135
 51
312.57723035740651
  0
ARC
  5
1AC
  8
DATA
  6
CONTINUOUS
 62
     7
 10
-1407.073781094947
 20
-1287.1363822362059
 30
0.0
 40
447.43059153545511
 50
47.422769642593437
 51
71.68047398328649
  0
ARC
  5
1AD
  8
DATA
  6
CONTINUOUS
 62
     7
 10
-731.58621890505128
 20
-701.79161776379351
 30
0.0
 40
447.43059153545511
 50
227.42276964259341
 51
235.57167103924351
  0
ARC
  5
1AE
  8
DATA
  6
CONTINUOUS
 62
     7
 10
-1259.8299999999999
 20
-1118.4159999999999
 30
0.0
 40
38.099999999999902
 50
180.0
 51
270.0
  0
ARC
  5
1AF
  8
DATA
  6
CONTINUOUS
 62
     7
 10
-1259.8299999999999
 20
-737.4159999999988
 30
0.0
 40
38.099999999999902
 50
90.0
 51
180.0000000000002
  0
ARC
  5
1B0
  8
DATA
  6
CONTINUOUS
 62
     7
 10
-1183.8655222584141
 20
-825.28083279044392
 30
0.0
 40
20.098924528057069
 50
166.9076528286912
 51
272.1200343212995
  0
ARC
  5
1B1
  8
DATA
  6
CONTINUOUS
 62
     7
 10
-1069.329999999999
 20
1702.254000000059
 30
0.0
 40
2550.1600505976671
 50
267.44252645814248
 51
269.80883395812629
  0
ARC
  5
1B2
  8
DATA
  6
CONTINUOUS
 62
     7
 10
-1085.046249999898
 20
-840.44475000002365
 30
0.0
 40
120.0262631620665
 50
160.3859370594501
 51
170.5451527794705
  0
ARC
  5
1B3
  8
DATA
  6
CONTINUOUS
 62
     7
 10
-1247.1006923076829
 20
-781.86599999999873
 30
0.0
 40
52.294692307683754
 50
339.53039447315018
 51
20.469605526849989
  0
ARC
  5
1B4
  8
DATA
  6
CONTINUOUS
 62
     7
 10
-1183.8655222584141
 20
-738.45116720955355
 30
0.0
 40
20.098924528057061
 50
87.879965678700444
 51
193.0923471713088
  0
ARC
  5
1B5
  8
DATA
  6
CONTINUOUS
 62
     7
 10
-1069.329999999999
 20
-3265.9860000000572
 30
0.0
 40
2550.1600505976671
 50
89.493127621901763
 51
92.557473541857334
  0
ARC
  5
1B6
  8
DATA
  6
CONTINUOUS
 62
     7
 10
-1085.046249999898
 20
-723.2872499999736
 30
0.0
 40
120.0262631620665
 50
189.4548472205295
 51
199.6140629405499
  0
ARC
  5
1B7
  8
DATA
  6
CONTINUOUS
 62
     7
 10
-1272.2160456852801
 20
-1094.001700507617
 30
0.0
 40
374.25958491155029
 50
59.885004523172597
 51
78.905425906234839
  0
ARC
  5
1B8
  8
DATA
  6
CONTINUOUS
 62
     7
 10
-712.29999999999995
 20
-645.97599999999852
 30
0.0
 40
12.70000000000004
 50
90.0
 51
180.0
  0
ARC
  5
1B9
  8
DATA
  6
CONTINUOUS
 62
     7
 10
-712.29999999999995
 20
-1587.3
 30
0.0
 40
12.70000000000004
 50
180.0
 51
270.0
  0
ARC
  5
1BA
  8
DATA
  6
CONTINUOUS
 62
     7
 10
-1337.3
 20
-645.97599999999852
 30
0.0
 40
12.70000000000004
 50
90.0
 51
180.0
  0
ARC
  5
1BB
  8
DATA
  6
CONTINUOUS
 62
     7
 10
-801.35999999999945
 20
-645.97599999999852
 30
0.0
 40
12.70000000000004
 50
0.0
 51
90.0
  0
ARC
  5
1BC
  8
DATA
  6
CONTINUOUS
 62
     7
 10
-1337.3
 20
-1587.3
 30
0.0
 40
12.69999999999982
 50
180.0
 51
270.00000000000102
  0
ARC
  5
1BD
  8
DATA
  6
CONTINUOUS
 62
     7
 10
-801.35999999999945
 20
-1587.3
 30
0.0
 40
12.69999999999982
 50
270.0
 51
0.0000000000010232
  0
ARC
  5
1BE
  8
DATA
  6
CONTINUOUS
 62
     7
 10
-953.98914397134945
 20
287.13000000000119
 30
0.0
 40
12.78999999999991
 50
15.00000000000005
 51
90.000000000001009
  0
ARC
  5
1BF
  8
DATA
  6
CONTINUOUS
 62
     7
 10
-1184.67085602865
 20
287.13000000000119
 30
0.0
 40
12.78999999999999
 50
90.0
 51
164.9999999999996
  0
ARC
  5
1C0
  8
DATA
  6
CONTINUOUS
 62
     7
 10
162.69999999999999
 20
-645.97599999999852
 30
0.0
 40
12.70000000000004
 50
90.0
 51
180.0
  0
ARC
  5
1C1
  8
DATA
  6
CONTINUOUS
 62
     7
 10
698.63999999999896
 20
-645.97599999999852
 30
0.0
 40
12.70000000000004
 50
0.0
 51
90.0
  0
ARC
  5
1C2
  8
DATA
  6
CONTINUOUS
 62
     7
 10
698.63999999999896
 20
-1587.3
 30
0.0
 40
12.69999999999982
 50
270.0
 51
0.0000000000010232
  0
ARC
  5
1C3
  8
DATA
  6
CONTINUOUS
 62
     7
 10
162.69999999999999
 20
-1587.3
 30
0.0
 40
12.69999999999999
 50
180.0
 51
270.0
  0
LINE
  5
1C4
  8
DATA
  6
CONTINUOUS
 62
     7
 10
-725.0
 20
-650.03999999999837
 30
0.0
 11
-725.0
 21
-1583.49
 31
0.0
  0
CIRCLE
  5
1C5
  8
DATA
  6
CONTINUOUS
 62
     7
 10
-1069.329999999999
 20
257.50200000000109
 30
0.0
 40
11.17600000000038
  0
LINE
  5
1C6
  8
DATA
  6
CONTINUOUS
 62
     7
 10
-1066.5359999999989
 20
259.28000000000111
 30
0.0
 11
-1069.329999999999
 21
261.05800000000107
 31
0.0
  0
LINE
  5
1C7
  8
DATA
  6
CONTINUOUS
 62
     7
 10
-1072.124
 20
255.7240000000011
 30
0.0
 11
-1069.329999999999
 21
254.20000000000121
 31
0.0
  0
LINE
  5
1C8
  8
DATA
  6
CONTINUOUS
 62
     7
 10
-1066.5359999999989
 20
255.7240000000011
 30
0.0
 11
-1066.5359999999989
 21
259.28000000000111
 31
0.0
  0
LINE
  5
1C9
  8
DATA
  6
CONTINUOUS
 62
     7
 10
-1072.124
 20
259.28000000000111
 30
0.0
 11
-1072.124
 21
255.7240000000011
 31
0.0
  0
LINE
  5
1CA
  8
DATA
  6
CONTINUOUS
 62
     7
 10
-1069.329999999999
 20
254.20000000000121
 30
0.0
 11
-1066.5359999999989
 21
255.7240000000011
 31
0.0
  0
LINE
  5
1CB
  8
DATA
  6
CONTINUOUS
 62
     7
 10
-1069.329999999999
 20
261.05800000000107
 30
0.0
 11
-1072.124
 21
259.28000000000111
 31
0.0
  0
CIRCLE
  5
1CC
  8
DATA
  6
CONTINUOUS
 62
     7
 10
-1289.3431176395
 20
-217.98599999999891
 30
0.0
 40
11.17600000000038
  0
LINE
  5
1CD
  8
DATA
  6
CONTINUOUS
 62
     7
 10
-1286.5491176395001
 20
-216.2079999999988
 30
0.0
 11
-1289.3431176395
 21
-214.42999999999881
 31
0.0
  0
LINE
  5
1CE
  8
DATA
  6
CONTINUOUS
 62
     7
 10
-1292.137117639501
 20
-219.7639999999989
 30
0.0
 11
-1289.3431176395
 21
-221.28799999999879
 31
0.0
  0
LINE
  5
1CF
  8
DATA
  6
CONTINUOUS
 62
     7
 10
-1286.5491176395001
 20
-219.7639999999989
 30
0.0
 11
-1286.5491176395001
 21
-216.2079999999988
 31
0.0
  0
LINE
  5
1D0
  8
DATA
  6
CONTINUOUS
 62
     7
 10
-1292.137117639501
 20
-216.2079999999988
 30
0.0
 11
-1292.137117639501
 21
-219.7639999999989
 31
0.0
  0
LINE
  5
1D1
  8
DATA
  6
CONTINUOUS
 62
     7
 10
-1289.3431176395
 20
-221.28799999999879
 30
0.0
 11
-1286.5491176395001
 21
-219.7639999999989
 31
0.0
  0
LINE
  5
1D2
  8
DATA
  6
CONTINUOUS
 62
     7
 10
-1289.3431176395
 20
-214.42999999999881
 30
0.0
 11
-1292.137117639501
 21
-216.2079999999988
 31
0.0
  0
CIRCLE
  5
1D3
  8
DATA
  6
CONTINUOUS
 62
     7
 10
-849.31688236049854
 20
-217.98599999999891
 30
0.0
 40
11.17600000000038
  0
LINE
  5
1D4
  8
DATA
  6
CONTINUOUS
 62
     7
 10
-846.52288236049753
 20
-216.2079999999988
 30
0.0
 11
-849.31688236049854
 21
-214.42999999999881
 31
0.0
  0
LINE
  5
1D5
  8
DATA
  6
CONTINUOUS
 62
     7
 10
-852.11088236049852
 20
-219.7639999999989
 30
0.0
 11
-849.31688236049854
 21
-221.28799999999879
 31
0.0
  0
LINE
  5
1D6
  8
DATA
  6
CONTINUOUS
 62
     7
 10
-846.52288236049753
 20
-219.7639999999989
 30
0.0
 11
-846.52288236049753
 21
-216.2079999999988
 31
0.0
  0
LINE
  5
1D7
  8
DATA
  6
CONTINUOUS
 62
     7
 10
-852.11088236049852
 20
-216.2079999999988
 30
0.0
 11
-852.11088236049852
 21
-219.7639999999989
 31
0.0
  0
LINE
  5
1D8
  8
DATA
  6
CONTINUOUS
 62
     7
 10
-849.31688236049854
 20
-221.28799999999879
 30
0.0
 11
-846.52288236049753
 21
-219.7639999999989
 31
0.0
  0
LINE
  5
1D9
  8
DATA
  6
CONTINUOUS
 62
     7
 10
-849.31688236049854
 20
-214.42999999999881
 30
0.0
 11
-852.11088236049852
 21
-216.2079999999988
 31
0.0
  0
LINE
  5
1DA
  8
DATA
  6
CONTINUOUS
 62
     7
 10
-571.87642224597926
 20
-673.91599999999835
 30
0.0
 11
-574.57541374484185
 21
-672.13799999999844
 31
0.0
  0
LINE
  5
1DB
  8
DATA
  6
CONTINUOUS
 62
     7
 10
-577.27440524370343
 20
-677.4719999999985
 30
0.0
 11
-574.57541374484185
 21
-678.9959999999985
 31
0.0
  0
LINE
  5
1DC
  8
DATA
  6
CONTINUOUS
 62
     7
 10
-571.87642224597926
 20
-677.4719999999985
 30
0.0
 11
-571.87642224597926
 21
-673.91599999999835
 31
0.0
  0
LINE
  5
1DD
  8
DATA
  6
CONTINUOUS
 62
     7
 10
-577.27440524370343
 20
-673.91599999999835
 30
0.0
 11
-577.27440524370343
 21
-677.4719999999985
 31
0.0
  0
LINE
  5
1DE
  8
DATA
  6
CONTINUOUS
 62
     7
 10
-574.57541374484185
 20
-678.9959999999985
 30
0.0
 11
-571.87642224597926
 21
-677.4719999999985
 31
0.0
  0
LINE
  5
1DF
  8
DATA
  6
CONTINUOUS
 62
     7
 10
-574.57541374484185
 20
-672.13799999999844
 30
0.0
 11
-577.27440524370343
 21
-673.91599999999835
 31
0.0
  0
ARC
  5
1E0
  8
DATA
  6
CONTINUOUS
 62
     7
 10
-574.57541374484163
 20
-675.3196749781722
 30
0.0
 40
10.801674978174001
 50
358.01405439127137
 51
181.98594560872851
  0
ARC
  5
1E1
  8
DATA
  6
CONTINUOUS
 62
     7
 10
-574.57541374484163
 20
-676.06832502182488
 30
0.0
 40
10.80167497817366
 50
178.0140543912714
 51
1.9859456087286551
  0
LINE
  5
1E2
  8
DATA
  6
CONTINUOUS
 62
     7
 10
-571.87642224597926
 20
-1559.359999999999
 30
0.0
 11
-574.57541374484185
 21
-1561.1379999999999
 31
0.0
  0
LINE
  5
1E3
  8
DATA
  6
CONTINUOUS
 62
     7
 10
-577.27440524370343
 20
-1555.803999999999
 30
0.0
 11
-574.57541374484185
 21
-1554.2799999999991
 31
0.0
  0
LINE
  5
1E4
  8
DATA
  6
CONTINUOUS
 62
     7
 10
-571.87642224597926
 20
-1555.803999999999
 30
0.0
 11
-571.87642224597926
 21
-1559.359999999999
 31
0.0
  0
LINE
  5
1E5
  8
DATA
  6
CONTINUOUS
 62
     7
 10
-577.27440524370343
 20
-1559.359999999999
 30
0.0
 11
-577.27440524370343
 21
-1555.803999999999
 31
0.0
  0
LINE
  5
1E6
  8
DATA
  6
CONTINUOUS
 62
     7
 10
-574.57541374484185
 20
-1554.2799999999991
 30
0.0
 11
-571.87642224597926
 21
-1555.803999999999
 31
0.0
  0
LINE
  5
1E7
  8
DATA
  6
CONTINUOUS
 62
     7
 10
-574.57541374484185
 20
-1561.1379999999999
 30
0.0
 11
-577.27440524370343
 21
-1559.359999999999
 31
0.0
  0
ARC
  5
1E8
  8
DATA
  6
CONTINUOUS
 62
     7
 10
-574.57541374484163
 20
-1557.9563250218259
 30
0.0
 40
10.801674978173651
 50
178.01405439127259
 51
1.9859456087274621
  0
ARC
  5
1E9
  8
DATA
  6
CONTINUOUS
 62
     7
 10
-574.57541374484163
 20
-1557.2076749781729
 30
0.0
 40
10.801674978174001
 50
358.01405439127018
 51
181.98594560872971
  0
CIRCLE
  5
1EA
  8
DATA
  6
CONTINUOUS
 62
     7
 10
430.66999999999962
 20
-675.69400000000053
 30
0.0
 40
11.176000000000441
  0
LINE
  5
1EB
  8
DATA
  6
CONTINUOUS
 62
     7
 10
427.8759999999985
 20
-677.47200000000055
 30
0.0
 11
430.66999999999928
 21
-679.25000000000045
 31
0.0
  0
LINE
  5
1EC
  8
DATA
  6
CONTINUOUS
 62
     7
 10
433.46399999999909
 20
-673.91600000000051
 30
0.0
 11
430.66999999999928
 21
-672.39200000000062
 31
0.0
  0
LINE
  5
1ED
  8
DATA
  6
CONTINUOUS
 62
     7
 10
427.8759999999985
 20
-673.91600000000051
 30
0.0
 11
427.8759999999985
 21
-677.47200000000055
 31
0.0
  0
LINE
  5
1EE
  8
DATA
  6
CONTINUOUS
 62
     7
 10
433.46399999999909
 20
-677.47200000000055
 30
0.0
 11
433.46399999999909
 21
-673.91600000000051
 31
0.0
  0
LINE
  5
1EF
  8
DATA
  6
CONTINUOUS
 62
     7
 10
430.66999999999928
 20
-672.39200000000062
 30
0.0
 11
427.8759999999985
 21
-673.91600000000051
 31
0.0
  0
LINE
  5
1F0
  8
DATA
  6
CONTINUOUS
 62
     7
 10
430.66999999999928
 20
-679.25000000000045
 30
0.0
 11
433.46399999999909
 21
-677.47200000000055
 31
0.0
  0
CIRCLE
  5
1F1
  8
DATA
  6
CONTINUOUS
 62
     7
 10
430.66999999999962
 20
-1557.5819999999981
 30
0.0
 40
11.176000000000441
  0
LINE
  5
1F2
  8
DATA
  6
CONTINUOUS
 62
     7
 10
427.8759999999985
 20
-1555.803999999998
 30
0.0
 11
430.66999999999928
 21
-1554.025999999998
 31
0.0
  0
LINE
  5
1F3
  8
DATA
  6
CONTINUOUS
 62
     7
 10
433.46399999999909
 20
-1559.3599999999981
 30
0.0
 11
430.66999999999928
 21
-1560.883999999998
 31
0.0
  0
LINE
  5
1F4
  8
DATA
  6
CONTINUOUS
 62
     7
 10
427.8759999999985
 20
-1559.3599999999981
 30
0.0
 11
427.8759999999985
 21
-1555.803999999998
 31
0.0
  0
LINE
  5
1F5
  8
DATA
  6
CONTINUOUS
 62
     7
 10
433.46399999999909
 20
-1555.803999999998
 30
0.0
 11
433.46399999999909
 21
-1559.3599999999981
 31
0.0
  0
LINE
  5
1F6
  8
DATA
  6
CONTINUOUS
 62
     7
 10
430.66999999999928
 20
-1560.883999999998
 30
0.0
 11
427.8759999999985
 21
-1559.3599999999981
 31
0.0
  0
LINE
  5
1F7
  8
DATA
  6
CONTINUOUS
 62
     7
 10
430.66999999999928
 20
-1554.025999999998
 30
0.0
 11
433.46399999999909
 21
-1555.803999999998
 31
0.0
  0
LINE
  5
1F8
  8
DATA
  6
CONTINUOUS
 62
     7
 10
168.96042589588231
 20
-677.47200000000055
 30
0.0
 11
169.6842406609704
 21
-679.25000000000045
 31
0.0
  0
LINE
  5
1F9
  8
DATA
  6
CONTINUOUS
 62
     7
 10
170.4080554260583
 20
-673.91600000000051
 30
0.0
 11
169.6842406609704
 21
-672.39200000000062
 31
0.0
  0
LINE
  5
1FA
  8
DATA
  6
CONTINUOUS
 62
     7
 10
168.96042589588231
 20
-673.91600000000051
 30
0.0
 11
168.96042589588231
 21
-677.47200000000055
 31
0.0
  0
LINE
  5
1FB
  8
DATA
  6
CONTINUOUS
 62
     7
 10
170.4080554260583
 20
-677.47200000000055
 30
0.0
 11
170.4080554260583
 21
-673.91600000000051
 31
0.0
  0
LINE
  5
1FC
  8
DATA
  6
CONTINUOUS
 62
     7
 10
169.6842406609704
 20
-672.39200000000062
 30
0.0
 11
168.96042589588231
 21
-673.91600000000051
 31
0.0
  0
LINE
  5
1FD
  8
DATA
  6
CONTINUOUS
 62
     7
 10
169.6842406609704
 20
-679.25000000000045
 30
0.0
 11
170.4080554260583
 21
-677.47200000000055
 31
0.0
  0
ARC
  5
1FE
  8
DATA
  6
CONTINUOUS
 62
     7
 10
169.8300248945074
 20
-665.78002346299252
 30
0.0
 40
1.2704157838643011
 50
96.589388260589871
 51
147.79114234642381
  0
ARC
  5
1FF
  8
DATA
  6
CONTINUOUS
 62
     7
 10
174.70702861713559
 20
-669.08872441473045
 30
0.0
 40
7.163256210967039
 50
146.19082124362981
 51
165.47707983034451
  0
ARC
  5
200
  8
DATA
  6
CONTINUOUS
 62
     7
 10
189.521712144905
 20
-673.40075990044386
 30
0.0
 40
22.59055743293704
 50
164.31230091092471
 51
173.2885485093002
  0
ARC
  5
201
  8
DATA
  6
CONTINUOUS
 62
     7
 10
204.7106106198394
 20
-675.48043928786501
 30
0.0
 40
37.919532992762058
 50
172.8498860946525
 51
180.32268836655541
  0
ARC
  5
202
  8
DATA
  6
CONTINUOUS
 62
     7
 10
169.5384564274334
 20
-665.78002346299252
 30
0.0
 40
1.2704157838643451
 50
32.208857653575173
 51
83.410611739410143
  0
ARC
  5
203
  8
DATA
  6
CONTINUOUS
 62
     7
 10
164.66145270480541
 20
-669.08872441473045
 30
0.0
 40
7.1632562109670932
 50
14.5229201696554
 51
33.80917875636996
  0
ARC
  5
204
  8
DATA
  6
CONTINUOUS
 62
     7
 10
149.8467691770359
 20
-673.40075990044386
 30
0.0
 40
22.59055743293705
 50
6.7114514906997691
 51
15.68769908907527
  0
ARC
  5
205
  8
DATA
  6
CONTINUOUS
 62
     7
 10
134.6578707021016
 20
-675.48043928786501
 30
0.0
 40
37.919532992762008
 50
359.67731163344462
 51
7.1501139053474398
  0
ARC
  5
206
  8
DATA
  6
CONTINUOUS
 62
     7
 10
169.8300248945074
 20
-685.60797653700854
 30
0.0
 40
1.2704157838643451
 50
212.20885765357519
 51
263.41061173941011
  0
ARC
  5
207
  8
DATA
  6
CONTINUOUS
 62
     7
 10
174.70702861713559
 20
-682.29927558527038
 30
0.0
 40
7.1632562109670932
 50
194.52292016965541
 51
213.80917875636999
  0
ARC
  5
208
  8
DATA
  6
CONTINUOUS
 62
     7
 10
189.521712144905
 20
-677.9872400995572
 30
0.0
 40
22.59055743293704
 50
186.7114514906998
 51
195.68769908907521
  0
ARC
  5
209
  8
DATA
  6
CONTINUOUS
 62
     7
 10
204.7106106198394
 20
-675.90756071213605
 30
0.0
 40
37.919532992762001
 50
179.67731163344459
 51
187.15011390534741
  0
ARC
  5
20A
  8
DATA
  6
CONTINUOUS
 62
     7
 10
169.5384564274334
 20
-685.60797653700854
 30
0.0
 40
1.2704157838643011
 50
276.58938826058989
 51
327.79114234642378
  0
ARC
  5
20B
  8
DATA
  6
CONTINUOUS
 62
     7
 10
164.66145270480541
 20
-682.29927558527038
 30
0.0
 40
7.163256210967039
 50
326.1908212436299
 51
345.47707983034451
  0
ARC
  5
20C
  8
DATA
  6
CONTINUOUS
 62
     7
 10
149.8467691770359
 20
-677.9872400995572
 30
0.0
 40
22.59055743293705
 50
344.31230091092482
 51
353.2885485093002
  0
ARC
  5
20D
  8
DATA
  6
CONTINUOUS
 62
     7
 10
134.6578707021016
 20
-675.90756071213605
 30
0.0
 40
37.919532992762072
 50
352.84988609465262
 51
0.3226883665554396
  0
LINE
  5
20E
  8
DATA
  6
CONTINUOUS
 62
     7
 10
168.96042589588231
 20
-1555.803999999998
 30
0.0
 11
169.6842406609704
 21
-1554.025999999998
 31
0.0
  0
LINE
  5
20F
  8
DATA
  6
CONTINUOUS
 62
     7
 10
170.4080554260583
 20
-1559.3599999999981
 30
0.0
 11
169.6842406609704
 21
-1560.883999999998
 31
0.0
  0
LINE
  5
210
  8
DATA
  6
CONTINUOUS
 62
     7
 10
168.96042589588231
 20
-1559.3599999999981
 30
0.0
 11
168.96042589588231
 21
-1555.803999999998
 31
0.0
  0
LINE
  5
211
  8
DATA
  6
CONTINUOUS
 62
     7
 10
170.4080554260583
 20
-1555.803999999998
 30
0.0
 11
170.4080554260583
 21
-1559.3599999999981
 31
0.0
  0
LINE
  5
212
  8
DATA
  6
CONTINUOUS
 62
     7
 10
169.6842406609704
 20
-1560.883999999998
 30
0.0
 11
168.96042589588231
 21
-1559.3599999999981
 31
0.0
  0
LINE
  5
213
  8
DATA
  6
CONTINUOUS
 62
     7
 10
169.6842406609704
 20
-1554.025999999998
 30
0.0
 11
170.4080554260583
 21
-1555.803999999998
 31
0.0
  0
ARC
  5
214
  8
DATA
  6
CONTINUOUS
 62
     7
 10
169.8300248945074
 20
-1567.4959765370061
 30
0.0
 40
1.270415783864405
 50
212.20885765357951
 51
263.41061173940938
  0
ARC
  5
215
  8
DATA
  6
CONTINUOUS
 62
     7
 10
174.70702861713559
 20
-1564.1872755852669
 30
0.0
 40
7.16325621096715
 50
194.52292016965711
 51
213.80917875637169
  0
ARC
  5
216
  8
DATA
  6
CONTINUOUS
 62
     7
 10
189.521712144905
 20
-1559.875240099555
 30
0.0
 40
22.59055743293705
 50
186.71145149070011
 51
195.68769908907561
  0
ARC
  5
217
  8
DATA
  6
CONTINUOUS
 62
     7
 10
204.7106106198394
 20
-1557.795560712133
 30
0.0
 40
37.919532992762001
 50
179.67731163344459
 51
187.15011390534781
  0
ARC
  5
218
  8
DATA
  6
CONTINUOUS
 62
     7
 10
169.5384564274334
 20
-1567.4959765370061
 30
0.0
 40
1.2704157838641881
 50
276.5893882605904
 51
327.79114234642481
  0
ARC
  5
219
  8
DATA
  6
CONTINUOUS
 62
     7
 10
164.66145270480541
 20
-1564.1872755852669
 30
0.0
 40
7.163256210967166
 50
326.19082124362842
 51
345.4770798303428
  0
ARC
  5
21A
  8
DATA
  6
CONTINUOUS
 62
     7
 10
149.8467691770359
 20
-1559.875240099555
 30
0.0
 40
22.590557432937079
 50
344.31230091092431
 51
353.28854850929991
  0
ARC
  5
21B
  8
DATA
  6
CONTINUOUS
 62
     7
 10
134.6578707021016
 20
-1557.795560712133
 30
0.0
 40
37.919532992762093
 50
352.84988609465211
 51
0.3226883665552123
  0
ARC
  5
21C
  8
DATA
  6
CONTINUOUS
 62
     7
 10
169.8300248945074
 20
-1547.66802346299
 30
0.0
 40
1.2704157838641881
 50
96.589388260590439
 51
147.79114234642469
  0
ARC
  5
21D
  8
DATA
  6
CONTINUOUS
 62
     7
 10
174.70702861713559
 20
-1550.9767244147281
 30
0.0
 40
7.163256210967166
 50
146.19082124362831
 51
165.47707983034289
  0
ARC
  5
21E
  8
DATA
  6
CONTINUOUS
 62
     7
 10
189.521712144905
 20
-1555.2887599004409
 30
0.0
 40
22.590557432937072
 50
164.31230091092439
 51
173.28854850929989
  0
ARC
  5
21F
  8
DATA
  6
CONTINUOUS
 62
     7
 10
204.7106106198394
 20
-1557.3684392878631
 30
0.0
 40
37.919532992762093
 50
172.84988609465211
 51
180.32268836655521
  0
ARC
  5
220
  8
DATA
  6
CONTINUOUS
 62
     7
 10
169.5384564274334
 20
-1547.66802346299
 30
0.0
 40
1.270415783864405
 50
32.208857653579521
 51
83.410611739409461
  0
ARC
  5
221
  8
DATA
  6
CONTINUOUS
 62
     7
 10
164.66145270480541
 20
-1550.9767244147281
 30
0.0
 40
7.16325621096715
 50
14.52292016965716
 51
33.809178756371729
  0
ARC
  5
222
  8
DATA
  6
CONTINUOUS
 62
     7
 10
149.8467691770359
 20
-1555.2887599004409
 30
0.0
 40
22.590557432937061
 50
6.7114514907000542
 51
15.687699089075551
  0
ARC
  5
223
  8
DATA
  6
CONTINUOUS
 62
     7
 10
134.6578707021016
 20
-1557.3684392878631
 30
0.0
 40
37.919532992762001
 50
359.67731163344479
 51
7.1501139053478378
  0
LINE
  5
224
  8
DATA
  6
CONTINUOUS
 62
     7
 10
692.37957410411684
 20
-677.47200000000055
 30
0.0
 11
691.6557593390288
 21
-679.25000000000045
 31
0.0
  0
LINE
  5
225
  8
DATA
  6
CONTINUOUS
 62
     7
 10
690.93194457394077
 20
-673.91600000000051
 30
0.0
 11
691.6557593390288
 21
-672.39200000000062
 31
0.0
  0
LINE
  5
226
  8
DATA
  6
CONTINUOUS
 62
     7
 10
692.37957410411684
 20
-673.91600000000051
 30
0.0
 11
692.37957410411684
 21
-677.47200000000055
 31
0.0
  0
LINE
  5
227
  8
DATA
  6
CONTINUOUS
 62
     7
 10
690.93194457394077
 20
-677.47200000000055
 30
0.0
 11
690.93194457394077
 21
-673.91600000000051
 31
0.0
  0
LINE
  5
228
  8
DATA
  6
CONTINUOUS
 62
     7
 10
691.6557593390288
 20
-672.39200000000062
 30
0.0
 11
692.37957410411684
 21
-673.91600000000051
 31
0.0
  0
LINE
  5
229
  8
DATA
  6
CONTINUOUS
 62
     7
 10
691.6557593390288
 20
-679.25000000000045
 30
0.0
 11
690.93194457394077
 21
-677.47200000000055
 31
0.0
  0
ARC
  5
22A
  8
DATA
  6
CONTINUOUS
 62
     7
 10
691.50997510549155
 20
-665.78002346299252
 30
0.0
 40
1.2704157838642971
 50
32.20885765357653
 51
83.410611739407543
  0
ARC
  5
22B
  8
DATA
  6
CONTINUOUS
 62
     7
 10
686.63297138286327
 20
-669.08872441473045
 30
0.0
 40
7.1632562109671181
 50
14.522920169655331
 51
33.809178756370528
  0
ARC
  5
22C
  8
DATA
  6
CONTINUOUS
 62
     7
 10
671.81828785509401
 20
-673.40075990044386
 30
0.0
 40
22.590557432937111
 50
6.7114514906997504
 51
15.687699089075229
  0
ARC
  5
22D
  8
DATA
  6
CONTINUOUS
 62
     7
 10
656.62938938015975
 20
-675.48043928786501
 30
0.0
 40
37.919532992761958
 50
359.67731163344462
 51
7.1501139053474398
  0
ARC
  5
22E
  8
DATA
  6
CONTINUOUS
 62
     7
 10
691.80154357256561
 20
-665.78002346299252
 30
0.0
 40
1.2704157838642931
 50
96.589388260587313
 51
147.79114234642341
  0
ARC
  5
22F
  8
DATA
  6
CONTINUOUS
 62
     7
 10
696.67854729519365
 20
-669.08872441473045
 30
0.0
 40
7.163256210967111
 50
146.19082124363021
 51
165.47707983034459
  0
ARC
  5
230
  8
DATA
  6
CONTINUOUS
 62
     7
 10
711.49323082296326
 20
-673.40075990044386
 30
0.0
 40
22.590557432937
 50
164.31230091092471
 51
173.2885485093002
  0
ARC
  5
231
  8
DATA
  6
CONTINUOUS
 62
     7
 10
726.68212929789752
 20
-675.48043928786501
 30
0.0
 40
37.919532992762072
 50
172.8498860946525
 51
180.32268836655541
  0
ARC
  5
232
  8
DATA
  6
CONTINUOUS
 62
     7
 10
691.50997510549155
 20
-685.60797653700854
 30
0.0
 40
1.2704157838643071
 50
276.58938826059239
 51
327.79114234642361
  0
ARC
  5
233
  8
DATA
  6
CONTINUOUS
 62
     7
 10
686.63297138286327
 20
-682.29927558527038
 30
0.0
 40
7.163256210967015
 50
326.19082124362978
 51
345.47707983034451
  0
ARC
  5
234
  8
DATA
  6
CONTINUOUS
 62
     7
 10
671.81828785509401
 20
-677.9872400995572
 30
0.0
 40
22.590557432937111
 50
344.31230091092482
 51
353.2885485093002
  0
ARC
  5
235
  8
DATA
  6
CONTINUOUS
 62
     7
 10
656.62938938015975
 20
-675.90756071213605
 30
0.0
 40
37.919532992762072
 50
352.84988609465262
 51
0.3226883665554396
  0
ARC
  5
236
  8
DATA
  6
CONTINUOUS
 62
     7
 10
691.80154357256561
 20
-685.60797653700854
 30
0.0
 40
1.270415783864393
 50
212.2088576535738
 51
263.4106117394133
  0
ARC
  5
237
  8
DATA
  6
CONTINUOUS
 62
     7
 10
696.67854729519365
 20
-682.29927558527038
 30
0.0
 40
7.1632562109671181
 50
194.52292016965529
 51
213.8091787563697
  0
ARC
  5
238
  8
DATA
  6
CONTINUOUS
 62
     7
 10
711.49323082296326
 20
-677.9872400995572
 30
0.0
 40
22.590557432937
 50
186.7114514906998
 51
195.68769908907521
  0
ARC
  5
239
  8
DATA
  6
CONTINUOUS
 62
     7
 10
726.68212929789752
 20
-675.90756071213605
 30
0.0
 40
37.919532992762072
 50
179.67731163344459
 51
187.15011390534741
  0
LINE
  5
23A
  8
DATA
  6
CONTINUOUS
 62
     7
 10
692.37957410411684
 20
-1555.803999999998
 30
0.0
 11
691.6557593390288
 21
-1554.025999999998
 31
0.0
  0
LINE
  5
23B
  8
DATA
  6
CONTINUOUS
 62
     7
 10
690.93194457394077
 20
-1559.3599999999981
 30
0.0
 11
691.6557593390288
 21
-1560.883999999998
 31
0.0
  0
LINE
  5
23C
  8
DATA
  6
CONTINUOUS
 62
     7
 10
692.37957410411684
 20
-1559.3599999999981
 30
0.0
 11
692.37957410411684
 21
-1555.803999999998
 31
0.0
  0
LINE
  5
23D
  8
DATA
  6
CONTINUOUS
 62
     7
 10
690.93194457394077
 20
-1555.803999999998
 30
0.0
 11
690.93194457394077
 21
-1559.3599999999981
 31
0.0
  0
LINE
  5
23E
  8
DATA
  6
CONTINUOUS
 62
     7
 10
691.6557593390288
 20
-1560.883999999998
 30
0.0
 11
692.37957410411684
 21
-1559.3599999999981
 31
0.0
  0
LINE
  5
23F
  8
DATA
  6
CONTINUOUS
 62
     7
 10
691.6557593390288
 20
-1554.025999999998
 30
0.0
 11
690.93194457394077
 21
-1555.803999999998
 31
0.0
  0
ARC
  5
240
  8
DATA
  6
CONTINUOUS
 62
     7
 10
691.50997510549155
 20
-1567.4959765370061
 30
0.0
 40
1.2704157838641941
 50
276.58938826059313
 51
327.79114234641651
  0
ARC
  5
241
  8
DATA
  6
CONTINUOUS
 62
     7
 10
686.63297138286327
 20
-1564.1872755852669
 30
0.0
 40
7.163256210967142
 50
326.19082124362831
 51
345.47707983034292
  0
ARC
  5
242
  8
DATA
  6
CONTINUOUS
 62
     7
 10
671.81828785509401
 20
-1559.875240099555
 30
0.0
 40
22.590557432937128
 50
344.31230091092448
 51
353.28854850929991
  0
ARC
  5
243
  8
DATA
  6
CONTINUOUS
 62
     7
 10
656.62938938015975
 20
-1557.795560712133
 30
0.0
 40
37.919532992762093
 50
352.84988609465211
 51
0.3226883665552123
  0
ARC
  5
244
  8
DATA
  6
CONTINUOUS
 62
     7
 10
691.80154357256561
 20
-1567.4959765370061
 30
0.0
 40
1.2704157838644541
 50
212.20885765357809
 51
263.41061173941318
  0
ARC
  5
245
  8
DATA
  6
CONTINUOUS
 62
     7
 10
696.67854729519365
 20
-1564.1872755852669
 30
0.0
 40
7.1632562109671758
 50
194.52292016965711
 51
213.8091787563713
  0
ARC
  5
246
  8
DATA
  6
CONTINUOUS
 62
     7
 10
711.49323082296326
 20
-1559.875240099555
 30
0.0
 40
22.590557432937011
 50
186.71145149070011
 51
195.68769908907561
  0
ARC
  5
247
  8
DATA
  6
CONTINUOUS
 62
     7
 10
726.68212929789752
 20
-1557.795560712133
 30
0.0
 40
37.919532992762058
 50
179.67731163344459
 51
187.15011390534761
  0
ARC
  5
248
  8
DATA
  6
CONTINUOUS
 62
     7
 10
691.50997510549155
 20
-1547.66802346299
 30
0.0
 40
1.2704157838643571
 50
32.208857653580871
 51
83.410611739408182
  0
ARC
  5
249
  8
DATA
  6
CONTINUOUS
 62
     7
 10
686.63297138286327
 20
-1550.9767244147281
 30
0.0
 40
7.1632562109671758
 50
14.5229201696571
 51
33.8091787563718
  0
ARC
  5
24A
  8
DATA
  6
CONTINUOUS
 62
     7
 10
671.81828785509401
 20
-1555.2887599004409
 30
0.0
 40
22.590557432937121
 50
6.7114514907000364
 51
15.68769908907551
  0
ARC
  5
24B
  8
DATA
  6
CONTINUOUS
 62
     7
 10
656.62938938015975
 20
-1557.3684392878631
 30
0.0
 40
37.919532992761937
 50
359.67731163344479
 51
7.1501139053478378
  0
ARC
  5
24C
  8
DATA
  6
CONTINUOUS
 62
     7
 10
691.80154357256561
 20
-1547.66802346299
 30
0.0
 40
1.2704157838641821
 50
96.589388260587924
 51
147.791142346425
  0
ARC
  5
24D
  8
DATA
  6
CONTINUOUS
 62
     7
 10
696.67854729519365
 20
-1550.9767244147281
 30
0.0
 40
7.1632562109672371
 50
146.1908212436287
 51
165.47707983034309
  0
ARC
  5
24E
  8
DATA
  6
CONTINUOUS
 62
     7
 10
711.49323082296326
 20
-1555.2887599004409
 30
0.0
 40
22.590557432937018
 50
164.31230091092439
 51
173.28854850929989
  0
ARC
  5
24F
  8
DATA
  6
CONTINUOUS
 62
     7
 10
726.68212929789752
 20
-1557.3684392878631
 30
0.0
 40
37.919532992762093
 50
172.84988609465211
 51
180.32268836655521
  0
CIRCLE
  5
250
  8
DATA
  6
CONTINUOUS
 62
     7
 10
430.66999999999962
 20
-1116.637999999999
 30
0.0
 40
11.176000000000441
  0
LINE
  5
251
  8
DATA
  6
CONTINUOUS
 62
     7
 10
427.8759999999985
 20
-1114.859999999999
 30
0.0
 11
430.66999999999928
 21
-1113.081999999999
 31
0.0
  0
LINE
  5
252
  8
DATA
  6
CONTINUOUS
 62
     7
 10
433.46399999999909
 20
-1118.415999999999
 30
0.0
 11
430.66999999999928
 21
-1119.939999999998
 31
0.0
  0
LINE
  5
253
  8
DATA
  6
CONTINUOUS
 62
     7
 10
427.8759999999985
 20
-1118.415999999999
 30
0.0
 11
427.8759999999985
 21
-1114.859999999999
 31
0.0
  0
LINE
  5
254
  8
DATA
  6
CONTINUOUS
 62
     7
 10
433.46399999999909
 20
-1114.859999999999
 30
0.0
 11
433.46399999999909
 21
-1118.415999999999
 31
0.0
  0
LINE
  5
255
  8
DATA
  6
CONTINUOUS
 62
     7
 10
430.66999999999928
 20
-1119.939999999998
 30
0.0
 11
427.8759999999985
 21
-1118.415999999999
 31
0.0
  0
LINE
  5
256
  8
DATA
  6
CONTINUOUS
 62
     7
 10
430.66999999999928
 20
-1113.081999999999
 30
0.0
 11
433.46399999999909
 21
-1114.859999999999
 31
0.0
  0
LINE
  5
257
  8
DATA
  6
CONTINUOUS
 62
     7
 10
369.16999999999962
 20
-1426.0
 30
0.0
 11
369.16999999999962
 21
-1236.0
 31
0.0
  0
LINE
  5
258
  8
DATA
  6
CONTINUOUS
 62
     7
 10
487.16999999999962
 20
-1431.0
 30
0.0
 11
374.16999999999962
 21
-1431.0
 31
0.0
  0
LINE
  5
259
  8
DATA
  6
CONTINUOUS
 62
     7
 10
492.16999999999939
 20
-1236.0
 30
0.0
 11
492.16999999999939
 21
-1426.0
 31
0.0
  0
LINE
  5
25A
  8
DATA
  6
CONTINUOUS
 62
     7
 10
374.16999999999962
 20
-1231.0
 30
0.0
 11
487.16999999999962
 21
-1231.0
 31
0.0
  0
LINE
  5
25B
  8
DATA
  6
CONTINUOUS
 62
     7
 10
384.16999999999962
 20
-1416.5
 30
0.0
 11
384.16999999999962
 21
-1245.5
 31
0.0
  0
LINE
  5
25C
  8
DATA
  6
CONTINUOUS
 62
     7
 10
477.16999999999962
 20
-1416.5
 30
0.0
 11
384.16999999999962
 21
-1416.5
 31
0.0
  0
LINE
  5
25D
  8
DATA
  6
CONTINUOUS
 62
     7
 10
477.16999999999962
 20
-1245.5
 30
0.0
 11
477.16999999999962
 21
-1416.5
 31
0.0
  0
LINE
  5
25E
  8
DATA
  6
CONTINUOUS
 62
     7
 10
384.16999999999962
 20
-1245.5
 30
0.0
 11
477.16999999999962
 21
-1245.5
 31
0.0
  0
POLYLINE
  5
25F
  8
DATA
  6
CONTINUOUS
 62
     7
 66
     1
 10
0.0
 20
0.0
 30
0.0
 70
     1
  0
VERTEX
  5
51D
  8
DATA
  6
CONTINUOUS
 62
     7
 10
390.16999999999962
 20
-1368.5
 30
0.0
  0
VERTEX
  5
51E
  8
DATA
  6
CONTINUOUS
 62
     7
 10
471.16999999999962
 20
-1368.5
 30
0.0
  0
VERTEX
  5
51F
  8
DATA
  6
CONTINUOUS
 62
     7
 10
471.16999999999962
 20
-1386.5
 30
0.0
  0
VERTEX
  5
520
  8
DATA
  6
CONTINUOUS
 62
     7
 10
390.16999999999962
 20
-1386.5
 30
0.0
  0
SEQEND
  5
521
  8
DATA
  6
CONTINUOUS
 62
     7
  0
POLYLINE
  5
266
  8
DATA
  6
CONTINUOUS
 62
     7
 66
     1
 10
0.0
 20
0.0
 30
0.0
 70
   129
  0
VERTEX
  5
522
  8
DATA
  6
CONTINUOUS
 62
     7
 10
418.91999999999962
 20
-1327.5
 30
0.0
 42
-0.4142135623730951
  0
VERTEX
  5
523
  8
DATA
  6
CONTINUOUS
 62
     7
 10
430.66999999999962
 20
-1315.75
 30
0.0
 42
-0.4142135623730951
  0
VERTEX
  5
524
  8
DATA
  6
CONTINUOUS
 62
     7
 10
442.41999999999962
 20
-1327.5
 30
0.0
 42
-0.4142135623730951
  0
VERTEX
  5
525
  8
DATA
  6
CONTINUOUS
 62
     7
 10
430.66999999999962
 20
-1339.25
 30
0.0
 42
-0.4142135623730951
  0
VERTEX
  5
526
  8
DATA
  6
CONTINUOUS
 62
     7
 10
418.91999999999962
 20
-1327.5
 30
0.0
  0
SEQEND
  5
527
  8
DATA
  6
CONTINUOUS
 62
     7
  0
LINE
  5
26D
  8
DATA
  6
CONTINUOUS
 62
     7
 10
427.66999999999962
 20
-1317.5
 30
0.0
 11
433.66999999999962
 21
-1317.5
 31
0.0
  0
LINE
  5
26E
  8
DATA
  6
CONTINUOUS
 62
     7
 10
428.66999999999962
 20
-1337.5
 30
0.0
 11
432.66999999999962
 21
-1337.5
 31
0.0
  0
LINE
  5
26F
  8
DATA
  6
CONTINUOUS
 62
     7
 10
428.66999999999962
 20
-1337.5
 30
0.0
 11
428.66999999999962
 21
-1336.3
 31
0.0
  0
LINE
  5
270
  8
DATA
  6
CONTINUOUS
 62
     7
 10
432.66999999999962
 20
-1337.5
 30
0.0
 11
432.66999999999962
 21
-1336.3
 31
0.0
  0
LINE
  5
271
  8
DATA
  6
CONTINUOUS
 62
     7
 10
427.66999999999962
 20
-1317.5
 30
0.0
 11
427.66999999999962
 21
-1319.2271499999999
 31
0.0
  0
LINE
  5
272
  8
DATA
  6
CONTINUOUS
 62
     7
 10
433.66999999999962
 20
-1317.5
 30
0.0
 11
433.66999999999962
 21
-1319.2271499999999
 31
0.0
  0
ARC
  5
273
  8
DATA
  6
CONTINUOUS
 62
     7
 10
430.66999999999962
 20
-1327.5
 30
0.0
 40
8.8000026774142093
 50
109.9322641506793
 51
257.19616681970012
  0
ARC
  5
274
  8
DATA
  6
CONTINUOUS
 62
     7
 10
430.66999999999962
 20
-1327.5
 30
0.0
 40
8.8000035043459288
 50
282.9999995554212
 51
69.999994237961928
  0
ARC
  5
275
  8
DATA
  6
CONTINUOUS
 62
     7
 10
430.66999999999962
 20
-1327.5
 30
0.0
 40
6.2000021620640764
 50
60.000011535560219
 51
150.00001153556141
  0
LINE
  5
276
  8
DATA
  6
CONTINUOUS
 62
     7
 10
425.30065999999971
 20
-1324.3999699999999
 30
0.0
 11
425.79861999999952
 21
-1324.6874700000001
 31
0.0
  0
LINE
  5
277
  8
DATA
  6
CONTINUOUS
 62
     7
 10
433.7699699999996
 20
-1322.1306199999999
 30
0.0
 11
433.48246999999958
 21
-1322.62859
 31
0.0
  0
ARC
  5
278
  8
DATA
  6
CONTINUOUS
 62
     7
 10
430.66999999999962
 20
-1327.5
 30
0.0
 40
6.2000021620642727
 50
240.00001153556121
 51
330.00001153556229
  0
LINE
  5
279
  8
DATA
  6
CONTINUOUS
 62
     7
 10
427.5699999999996
 20
-1332.8693599999999
 30
0.0
 11
427.85749999999962
 21
-1332.37139
 31
0.0
  0
LINE
  5
27A
  8
DATA
  6
CONTINUOUS
 62
     7
 10
436.03936999999951
 20
-1330.59998
 30
0.0
 11
435.54139999999961
 21
-1330.3124800000001
 31
0.0
  0
ARC
  5
27B
  8
DATA
  6
CONTINUOUS
 62
     7
 10
430.66999999999962
 20
-1327.5
 30
0.0
 40
5.6250038315809183
 50
149.9996696821033
 51
240.00021260430361
  0
ARC
  5
27C
  8
DATA
  6
CONTINUOUS
 62
     7
 10
430.66999999999962
 20
-1327.5
 30
0.0
 40
5.6249961520342593
 50
330.00021260430242
 51
60.000718243123117
  0
ARC
  5
27D
  8
DATA
  6
CONTINUOUS
 62
     7
 10
430.66999999999962
 20
-1327.5
 30
0.0
 40
3.599990080875255
 50
59.999908854706391
 51
149.9999088547064
  0
ARC
  5
27E
  8
DATA
  6
CONTINUOUS
 62
     7
 10
430.66999999999962
 20
-1327.5
 30
0.0
 40
3.599990080875255
 50
239.9999088547064
 51
329.9999088547064
  0
LINE
  5
27F
  8
DATA
  6
CONTINUOUS
 62
     7
 10
432.46997999999962
 20
-1324.38231
 30
0.0
 11
432.11998999999958
 21
-1324.9885200000001
 31
0.0
  0
LINE
  5
280
  8
DATA
  6
CONTINUOUS
 62
     7
 10
427.5523299999997
 20
-1325.6999900000001
 30
0.0
 11
428.15852999999959
 21
-1326.04999
 31
0.0
  0
LINE
  5
281
  8
DATA
  6
CONTINUOUS
 62
     7
 10
428.86999999999972
 20
-1330.6176800000001
 30
0.0
 11
429.21999999999957
 21
-1330.0114699999999
 31
0.0
  0
LINE
  5
282
  8
DATA
  6
CONTINUOUS
 62
     7
 10
433.78768999999949
 20
-1329.29998
 30
0.0
 11
433.18147999999962
 21
-1328.9499900000001
 31
0.0
  0
ARC
  5
283
  8
DATA
  6
CONTINUOUS
 62
     7
 10
430.66999999999962
 20
-1327.5
 30
0.0
 40
2.900001820861533
 50
149.9997926340304
 51
240.0002336238293
  0
ARC
  5
284
  8
DATA
  6
CONTINUOUS
 62
     7
 10
430.66999999999962
 20
-1327.5
 30
0.0
 40
2.900000481120689
 50
330.0002336238291
 51
59.999792634029397
  0
LINE
  5
285
  8
DATA
  6
CONTINUOUS
 62
     7
 10
403.16999999999979
 20
-1386.5
 30
0.0
 11
403.16999999999979
 21
-1368.5
 31
0.0
  0
LINE
  5
286
  8
DATA
  6
CONTINUOUS
 62
     7
 10
406.17000000000002
 20
-1386.5
 30
0.0
 11
406.17000000000002
 21
-1368.5
 31
0.0
  0
LINE
  5
287
  8
DATA
  6
CONTINUOUS
 62
     7
 10
416.17000000000002
 20
-1386.5
 30
0.0
 11
416.17000000000002
 21
-1368.5
 31
0.0
  0
LINE
  5
288
  8
DATA
  6
CONTINUOUS
 62
     7
 10
419.16999999999979
 20
-1386.5
 30
0.0
 11
419.16999999999979
 21
-1368.5
 31
0.0
  0
LINE
  5
289
  8
DATA
  6
CONTINUOUS
 62
     7
 10
429.17000000000002
 20
-1386.5
 30
0.0
 11
429.17000000000002
 21
-1368.5
 31
0.0
  0
LINE
  5
28A
  8
DATA
  6
CONTINUOUS
 62
     7
 10
432.16999999999979
 20
-1386.5
 30
0.0
 11
432.16999999999979
 21
-1368.5
 31
0.0
  0
LINE
  5
28B
  8
DATA
  6
CONTINUOUS
 62
     7
 10
442.17000000000002
 20
-1386.5
 30
0.0
 11
442.17000000000002
 21
-1368.5
 31
0.0
  0
LINE
  5
28C
  8
DATA
  6
CONTINUOUS
 62
     7
 10
445.17000000000002
 20
-1386.5
 30
0.0
 11
445.17000000000002
 21
-1368.5
 31
0.0
  0
LINE
  5
28D
  8
DATA
  6
CONTINUOUS
 62
     7
 10
455.17000000000002
 20
-1386.5
 30
0.0
 11
455.17000000000002
 21
-1368.5
 31
0.0
  0
LINE
  5
28E
  8
DATA
  6
CONTINUOUS
 62
     7
 10
458.17000000000002
 20
-1386.5
 30
0.0
 11
458.17000000000002
 21
-1368.5
 31
0.0
  0
LINE
  5
28F
  8
DATA
  6
CONTINUOUS
 62
     7
 10
393.16999999999962
 20
-1386.5
 30
0.0
 11
393.16999999999962
 21
-1368.5
 31
0.0
  0
LINE
  5
290
  8
DATA
  6
CONTINUOUS
 62
     7
 10
468.16999999999962
 20
-1368.5
 30
0.0
 11
468.16999999999962
 21
-1386.5
 31
0.0
  0
CIRCLE
  5
291
  8
DATA
  6
CONTINUOUS
 62
     7
 10
411.16999999999979
 20
-1377.5
 30
0.0
 40
3.9999999999999871
  0
POLYLINE
  5
292
  8
DATA
  6
CONTINUOUS
 62
     7
 66
     1
 10
0.0
 20
0.0
 30
0.0
 70
     1
  0
VERTEX
  5
528
  8
DATA
  6
CONTINUOUS
 62
     7
 10
408.36512195121918
 20
-1371.7439024390239
 30
0.0
  0
VERTEX
  5
529
  8
DATA
  6
CONTINUOUS
 62
     7
 10
416.16999999999967
 20
-1373.5
 30
0.0
  0
VERTEX
  5
52A
  8
DATA
  6
CONTINUOUS
 62
     7
 10
413.97487804878023
 20
-1383.256097560974
 30
0.0
  0
VERTEX
  5
52B
  8
DATA
  6
CONTINUOUS
 62
     7
 10
406.16999999999979
 20
-1381.5
 30
0.0
  0
SEQEND
  5
52C
  8
DATA
  6
CONTINUOUS
 62
     7
  0
LINE
  5
299
  8
DATA
  6
CONTINUOUS
 62
     7
 10
407.41122951685611
 20
-1376.1319194266971
 30
0.0
 11
414.92877048314358
 21
-1378.868080573302
 31
0.0
  0
CIRCLE
  5
29A
  8
DATA
  6
CONTINUOUS
 62
     7
 10
424.16999999999979
 20
-1377.5
 30
0.0
 40
3.9999999999999871
  0
POLYLINE
  5
29B
  8
DATA
  6
CONTINUOUS
 62
     7
 66
     1
 10
0.0
 20
0.0
 30
0.0
 70
     1
  0
VERTEX
  5
52D
  8
DATA
  6
CONTINUOUS
 62
     7
 10
421.36512195121918
 20
-1371.7439024390239
 30
0.0
  0
VERTEX
  5
52E
  8
DATA
  6
CONTINUOUS
 62
     7
 10
429.16999999999967
 20
-1373.5
 30
0.0
  0
VERTEX
  5
52F
  8
DATA
  6
CONTINUOUS
 62
     7
 10
426.97487804878023
 20
-1383.256097560974
 30
0.0
  0
VERTEX
  5
530
  8
DATA
  6
CONTINUOUS
 62
     7
 10
419.16999999999979
 20
-1381.5
 30
0.0
  0
SEQEND
  5
531
  8
DATA
  6
CONTINUOUS
 62
     7
  0
CIRCLE
  5
2A2
  8
DATA
  6
CONTINUOUS
 62
     7
 10
437.17000000000002
 20
-1377.5
 30
0.0
 40
3.9999999999999871
  0
POLYLINE
  5
2A3
  8
DATA
  6
CONTINUOUS
 62
     7
 66
     1
 10
0.0
 20
0.0
 30
0.0
 70
     1
  0
VERTEX
  5
532
  8
DATA
  6
CONTINUOUS
 62
     7
 10
434.36512195121941
 20
-1371.7439024390239
 30
0.0
  0
VERTEX
  5
533
  8
DATA
  6
CONTINUOUS
 62
     7
 10
442.16999999999967
 20
-1373.5
 30
0.0
  0
VERTEX
  5
534
  8
DATA
  6
CONTINUOUS
 62
     7
 10
439.97487804878023
 20
-1383.256097560974
 30
0.0
  0
VERTEX
  5
535
  8
DATA
  6
CONTINUOUS
 62
     7
 10
432.16999999999979
 20
-1381.5
 30
0.0
  0
SEQEND
  5
536
  8
DATA
  6
CONTINUOUS
 62
     7
  0
CIRCLE
  5
2AA
  8
DATA
  6
CONTINUOUS
 62
     7
 10
450.17000000000002
 20
-1377.5
 30
0.0
 40
3.9999999999999871
  0
POLYLINE
  5
2AB
  8
DATA
  6
CONTINUOUS
 62
     7
 66
     1
 10
0.0
 20
0.0
 30
0.0
 70
     1
  0
VERTEX
  5
537
  8
DATA
  6
CONTINUOUS
 62
     7
 10
447.36512195121941
 20
-1371.7439024390239
 30
0.0
  0
VERTEX
  5
538
  8
DATA
  6
CONTINUOUS
 62
     7
 10
455.16999999999967
 20
-1373.5
 30
0.0
  0
VERTEX
  5
539
  8
DATA
  6
CONTINUOUS
 62
     7
 10
452.97487804878023
 20
-1383.256097560974
 30
0.0
  0
VERTEX
  5
53A
  8
DATA
  6
CONTINUOUS
 62
     7
 10
445.16999999999967
 20
-1381.5
 30
0.0
  0
SEQEND
  5
53B
  8
DATA
  6
CONTINUOUS
 62
     7
  0
CIRCLE
  5
2B2
  8
DATA
  6
CONTINUOUS
 62
     7
 10
463.16999999999979
 20
-1377.5
 30
0.0
 40
3.9999999999998042
  0
CIRCLE
  5
2B3
  8
DATA
  6
CONTINUOUS
 62
     7
 10
398.1699999999999
 20
-1377.5
 30
0.0
 40
3.999999999999881
  0
TEXT
  5
2B4
  8
DATA
 62
     7
 10
408.67000000000002
 20
-1362.3
 30
0.0
 40
3.84765625
  1
1+
 41
0.7
 11
408.67000000000002
 21
-1358.45234375
 31
0.0
 73
     3
  0
TEXT
  5
2B5
  8
DATA
 62
     7
 10
421.67000000000002
 20
-1362.3
 30
0.0
 40
3.84765625
  1
1-
 41
0.7
 11
421.67000000000002
 21
-1358.45234375
 31
0.0
 73
     3
  0
TEXT
  5
2B6
  8
DATA
 62
     7
 10
434.67000000000002
 20
-1362.3
 30
0.0
 40
3.84765625
  1
2+
 41
0.7
 11
434.67000000000002
 21
-1358.45234375
 31
0.0
 73
     3
  0
TEXT
  5
2B7
  8
DATA
 62
     7
 10
447.67000000000002
 20
-1362.3
 30
0.0
 40
3.84765625
  1
2-
 41
0.7
 11
447.67000000000002
 21
-1358.45234375
 31
0.0
 73
     3
  0
CIRCLE
  5
2B8
  8
DATA
  6
CONTINUOUS
 62
     7
 10
400.66999999999939
 20
-1305.5
 30
0.0
 40
3.0
  0
CIRCLE
  5
2B9
  8
DATA
  6
CONTINUOUS
 62
     7
 10
460.66999999999962
 20
-1305.5
 30
0.0
 40
3.0
  0
POLYLINE
  5
2BA
  8
DATA
  6
CONTINUOUS
 62
     7
 66
     1
 10
0.0
 20
0.0
 30
0.0
 70
     1
  0
VERTEX
  5
53C
  8
DATA
  6
CONTINUOUS
 62
     7
 10
390.66999999999962
 20
-1262.5
 30
0.0
  0
VERTEX
  5
53D
  8
DATA
  6
CONTINUOUS
 62
     7
 10
470.66999999999962
 20
-1262.5
 30
0.0
  0
VERTEX
  5
53E
  8
DATA
  6
CONTINUOUS
 62
     7
 10
470.66999999999962
 20
-1300.5
 30
0.0
  0
VERTEX
  5
53F
  8
DATA
  6
CONTINUOUS
 62
     7
 10
390.66999999999962
 20
-1300.5
 30
0.0
  0
SEQEND
  5
540
  8
DATA
  6
CONTINUOUS
 62
     7
  0
TEXT
  5
2C1
  8
DATA
 62
     7
 10
391.41999999999962
 20
-1297.8
 30
0.0
 40
3.84765625
  1
(Passive)
 41
0.7
 11
391.41999999999962
 21
-1293.95234375
 31
0.0
 73
     3
  0
TEXT
  5
2C2
  8
DATA
 62
     7
 10
448.66999999999962
 20
-1297.8
 30
0.0
 40
3.84765625
  1
(Bi-Amp)
 41
0.7
 11
448.66999999999962
 21
-1293.95234375
 31
0.0
 73
     3
  0
TEXT
  5
2C3
  8
DATA
 62
     7
 10
393.66999999999962
 20
-1269.8
 30
0.0
 40
3.84765625
  1
Model: AM4315/95
 41
0.7
 11
393.66999999999962
 21
-1265.95234375
 31
0.0
 73
     3
  0
POLYLINE
  5
2C4
  8
DATA
  6
CONTINUOUS
 62
     7
 66
     1
 10
0.0
 20
0.0
 30
0.0
 70
     1
  0
VERTEX
  5
541
  8
DATA
  6
CONTINUOUS
 62
     7
 10
407.16999999999962
 20
-1277.0
 30
0.0
  0
VERTEX
  5
542
  8
DATA
  6
CONTINUOUS
 62
     7
 10
454.16999999999962
 20
-1277.0
 30
0.0
  0
VERTEX
  5
543
  8
DATA
  6
CONTINUOUS
 62
     7
 10
454.16999999999962
 20
-1288.0
 30
0.0
  0
VERTEX
  5
544
  8
DATA
  6
CONTINUOUS
 62
     7
 10
407.16999999999962
 20
-1288.0
 30
0.0
  0
SEQEND
  5
545
  8
DATA
  6
CONTINUOUS
 62
     7
  0
LINE
  5
2CB
  8
DATA
  6
CONTINUOUS
 62
     7
 10
407.16999999999962
 20
-1280.666666666667
 30
0.0
 11
454.16999999999962
 21
-1280.666666666667
 31
0.0
  0
LINE
  5
2CC
  8
DATA
  6
CONTINUOUS
 62
     7
 10
407.16999999999962
 20
-1284.333333333333
 30
0.0
 11
454.16999999999962
 21
-1284.333333333333
 31
0.0
  0
LINE
  5
2CD
  8
DATA
  6
CONTINUOUS
 62
     7
 10
421.16999999999962
 20
-1277.0
 30
0.0
 11
421.16999999999962
 21
-1288.0
 31
0.0
  0
LINE
  5
2CE
  8
DATA
  6
CONTINUOUS
 62
     7
 10
439.17000000000002
 20
-1288.0
 30
0.0
 11
439.17000000000002
 21
-1277.0
 31
0.0
  0
TEXT
  5
2CF
  8
DATA
 62
     7
 10
408.91999999999962
 20
-1279.913333333333
 30
0.0
 40
2.30859375
  1
Wiring:
 41
0.7
 11
408.91999999999962
 21
-1277.604739583333
 31
0.0
 73
     3
  0
TEXT
  5
2D0
  8
DATA
 62
     7
 10
424.91999999999979
 20
-1279.913333333333
 30
0.0
 40
2.30859375
  1
Passive
 41
0.7
 11
424.91999999999979
 21
-1277.604739583333
 31
0.0
 73
     3
  0
TEXT
  5
2D1
  8
DATA
 62
     7
 10
442.16999999999962
 20
-1279.913333333333
 30
0.0
 40
2.30859375
  1
Bi-Amp
 41
0.7
 11
442.16999999999962
 21
-1277.604739583333
 31
0.0
 73
     3
  0
TEXT
  5
2D2
  8
DATA
 62
     7
 10
410.41999999999962
 20
-1283.5799999999999
 30
0.0
 40
2.30859375
  1
1+/1-
 41
0.7
 11
410.41999999999962
 21
-1281.2714062499999
 31
0.0
 73
     3
  0
TEXT
  5
2D3
  8
DATA
 62
     7
 10
422.66999999999979
 20
-1283.5799999999999
 30
0.0
 40
2.30859375
  1
Full Renge
 41
0.7
 11
422.66999999999979
 21
-1281.2714062499999
 31
0.0
 73
     3
  0
TEXT
  5
2D4
  8
DATA
 62
     7
 10
444.41999999999962
 20
-1283.5799999999999
 30
0.0
 40
2.30859375
  1
Low
 41
0.7
 11
444.41999999999962
 21
-1281.2714062499999
 31
0.0
 73
     3
  0
TEXT
  5
2D5
  8
DATA
 62
     7
 10
410.41999999999962
 20
-1287.2466666666669
 30
0.0
 40
2.30859375
  1
2+/2-
 41
0.7
 11
410.41999999999962
 21
-1284.9380729166669
 31
0.0
 73
     3
  0
TEXT
  5
2D6
  8
DATA
 62
     7
 10
427.91999999999962
 20
-1287.2466666666669
 30
0.0
 40
2.30859375
  1
n/c
 41
0.7
 11
427.91999999999962
 21
-1284.9380729166669
 31
0.0
 73
     3
  0
TEXT
  5
2D7
  8
DATA
 62
     7
 10
440.66999999999979
 20
-1287.2466666666669
 30
0.0
 40
2.30859375
  1
Mid-High
 41
0.7
 11
440.66999999999979
 21
-1284.9380729166669
 31
0.0
 73
     3
  0
POLYLINE
  5
2D8
  8
DATA
  6
CONTINUOUS
 62
     7
 66
     1
 10
0.0
 20
0.0
 30
0.0
 70
     1
  0
VERTEX
  5
546
  8
DATA
  6
CONTINUOUS
 62
     7
 10
-1093.5799999999999
 20
-1443.5
 30
0.0
  0
VERTEX
  5
547
  8
DATA
  6
CONTINUOUS
 62
     7
 10
-1045.0799999999999
 20
-1443.5
 30
0.0
  0
VERTEX
  5
548
  8
DATA
  6
CONTINUOUS
 62
     7
 10
-1045.0799999999999
 20
-1492.0
 30
0.0
  0
VERTEX
  5
549
  8
DATA
  6
CONTINUOUS
 62
     7
 10
-1093.5799999999999
 20
-1492.0
 30
0.0
  0
SEQEND
  5
54A
  8
DATA
  6
CONTINUOUS
 62
     7
  0
LINE
  5
2DF
  8
DATA
  6
CONTINUOUS
 62
     7
 10
-1045.0799999999999
 20
-1484.5
 30
0.0
 11
-1093.5799999999999
 21
-1484.5
 31
0.0
  0
ARC
  5
2E0
  8
DATA
  6
CONTINUOUS
 62
     7
 10
-1068.4886326137459
 20
-1470.262997920888
 30
0.0
 40
0.5578704509322502
 50
307.64190249755438
 51
354.26701928938138
  0
LINE
  5
2E1
  8
DATA
  6
CONTINUOUS
 62
     7
 10
-1082.818212499998
 20
-1461.4718625
 30
0.0
 11
-1080.2029074999989
 21
-1455.2403225
 31
0.0
  0
LINE
  5
2E2
  8
DATA
  6
CONTINUOUS
 62
     7
 10
-1082.818212499998
 20
-1461.4718625
 30
0.0
 11
-1085.4012475
 21
-1455.2403225
 31
0.0
  0
LINE
  5
2E3
  8
DATA
  6
CONTINUOUS
 62
     7
 10
-1062.9935125
 20
-1472.7403225
 30
0.0
 11
-1062.9935125
 21
-1455.2403225
 31
0.0
  0
LINE
  5
2E4
  8
DATA
  6
CONTINUOUS
 62
     7
 10
-1059.635577499999
 20
-1455.2403225
 30
0.0
 11
-1059.635577499999
 21
-1470.0604424999999
 31
0.0
  0
LINE
  5
2E5
  8
DATA
  6
CONTINUOUS
 62
     7
 10
-1078.975964999999
 20
-1455.2403225
 30
0.0
 11
-1078.975964999999
 21
-1470.0604424999999
 31
0.0
  0
LINE
  5
2E6
  8
DATA
  6
CONTINUOUS
 62
     7
 10
-1075.747179999998
 20
-1455.2403225
 30
0.0
 11
-1075.747179999998
 21
-1470.0604424999999
 31
0.0
  0
LINE
  5
2E7
  8
DATA
  6
CONTINUOUS
 62
     7
 10
-1074.068212499998
 20
-1455.2403225
 30
0.0
 11
-1074.068212499998
 21
-1472.7403225
 31
0.0
  0
LINE
  5
2E8
  8
DATA
  6
CONTINUOUS
 62
     7
 10
-1071.130015
 20
-1456.8869850000001
 30
0.0
 11
-1071.130015
 21
-1462.5050799999999
 31
0.0
  0
LINE
  5
2E9
  8
DATA
  6
CONTINUOUS
 62
     7
 10
-1064.8325
 20
-1462.1800000000001
 30
0.0
 11
-1064.8325
 21
-1458.0816574999999
 31
0.0
  0
LINE
  5
2EA
  8
DATA
  6
CONTINUOUS
 62
     7
 10
-1067.933552499999
 20
-1457.6619025
 30
0.0
 11
-1067.933552499999
 21
-1461.73018
 31
0.0
  0
ARC
  5
2EB
  8
DATA
  6
CONTINUOUS
 62
     7
 10
-1079.623885
 20
-1468.2466724999999
 30
0.0
 40
4.5129934940434158
 50
264.69085622153312
 51
323.9911991542441
  0
LINE
  5
2EC
  8
DATA
  6
CONTINUOUS
 62
     7
 10
-1081.4298325
 20
-1467.2513775
 30
0.0
 11
-1081.4298325
 21
-1470.0604075000001
 31
0.0
  0
LINE
  5
2ED
  8
DATA
  6
CONTINUOUS
 62
     7
 10
-1081.4298325
 20
-1467.2513775
 30
0.0
 11
-1084.3357424999999
 21
-1467.2513775
 31
0.0
  0
LINE
  5
2EE
  8
DATA
  6
CONTINUOUS
 62
     7
 10
-1084.3357424999999
 20
-1467.2513775
 30
0.0
 11
-1084.3357424999999
 21
-1470.0604075000001
 31
0.0
  0
ARC
  5
2EF
  8
DATA
  6
CONTINUOUS
 62
     7
 10
-1080.196747499999
 20
-1470.0982775
 30
0.0
 40
1.221375445924314
 50
269.711848792745
 51
1.775987005684327
  0
ARC
  5
2F0
  8
DATA
  6
CONTINUOUS
 62
     7
 10
-1080.209049999999
 20
-1470.0982775
 30
0.0
 40
1.221369200554274
 50
178.22401299431971
 51
270.28815120725773
  0
ARC
  5
2F1
  8
DATA
  6
CONTINUOUS
 62
     7
 10
-1080.4590375
 20
-1468.2466724999999
 30
0.0
 40
4.5129861646563931
 50
216.0088008457584
 51
275.30914377846341
  0
ARC
  5
2F2
  8
DATA
  6
CONTINUOUS
 62
     7
 10
-1082.2962225000001
 20
-1469.9614799999999
 30
0.0
 40
2.041900364307899
 50
182.77699544999271
 51
207.35960666715161
  0
CIRCLE
  5
2F3
  8
DATA
  6
CONTINUOUS
 62
     7
 10
-1082.640622499998
 20
-1463.89346
 30
0.0
 40
1.6628150000001349
  0
LINE
  5
2F4
  8
DATA
  6
CONTINUOUS
 62
     7
 10
-1054.2435125
 20
-1472.740305
 30
0.0
 11
-1062.9935125
 21
-1472.740305
 31
0.0
  0
LINE
  5
2F5
  8
DATA
  6
CONTINUOUS
 62
     7
 10
-1054.2435125
 20
-1472.740305
 30
0.0
 11
-1054.2435125
 21
-1467.2513599999991
 31
0.0
  0
LINE
  5
2F6
  8
DATA
  6
CONTINUOUS
 62
     7
 10
-1054.2435125
 20
-1467.2513775
 30
0.0
 11
-1057.1816924999989
 21
-1467.2513775
 31
0.0
  0
LINE
  5
2F7
  8
DATA
  6
CONTINUOUS
 62
     7
 10
-1057.1816924999989
 20
-1467.2513775
 30
0.0
 11
-1057.1816924999989
 21
-1470.0604075000001
 31
0.0
  0
LINE
  5
2F8
  8
DATA
  6
CONTINUOUS
 62
     7
 10
-1074.068212499998
 20
-1472.740305
 30
0.0
 11
-1067.933552499999
 21
-1472.7402874999991
 31
0.0
  0
LINE
  5
2F9
  8
DATA
  6
CONTINUOUS
 62
     7
 10
-1071.1300325
 20
-1471.093625
 30
0.0
 11
-1069.5479275
 21
-1471.093625
 31
0.0
  0
LINE
  5
2FA
  8
DATA
  6
CONTINUOUS
 62
     7
 10
-1071.130015
 20
-1471.093625
 30
0.0
 11
-1071.130015
 21
-1464.1840299999999
 31
0.0
  0
LINE
  5
2FB
  8
DATA
  6
CONTINUOUS
 62
     7
 10
-1071.1300325
 20
-1464.1840299999999
 30
0.0
 11
-1069.5479275
 21
-1464.1840299999999
 31
0.0
  0
LINE
  5
2FC
  8
DATA
  6
CONTINUOUS
 62
     7
 10
-1067.933552499999
 20
-1470.3187250000001
 30
0.0
 11
-1067.933552499999
 21
-1464.95893
 31
0.0
  0
ARC
  5
2FD
  8
DATA
  6
CONTINUOUS
 62
     7
 10
-1077.786699999999
 20
-1469.9614799999999
 30
0.0
 40
2.041897458763922
 50
332.64039333284688
 51
357.2230045500088
  0
ARC
  5
2FE
  8
DATA
  6
CONTINUOUS
 62
     7
 10
-1058.402492499999
 20
-1470.0982775
 30
0.0
 40
1.221375445924312
 50
269.71184879275569
 51
1.775987005684327
  0
ARC
  5
2FF
  8
DATA
  6
CONTINUOUS
 62
     7
 10
-1058.414777499999
 20
-1470.0982775
 30
0.0
 40
1.221369200554274
 50
178.22401299431971
 51
270.28815120722572
  0
LINE
  5
300
  8
DATA
  6
CONTINUOUS
 62
     7
 10
-1064.8339175000001
 20
-1469.9312574999999
 30
0.0
 11
-1064.8339175000001
 21
-1465.2818225000001
 31
0.0
  0
LINE
  5
301
  8
DATA
  6
CONTINUOUS
 62
     7
 10
-1071.1300325
 20
-1462.5050799999999
 30
0.0
 11
-1069.5479275
 21
-1462.5050799999999
 31
0.0
  0
ARC
  5
302
  8
DATA
  6
CONTINUOUS
 62
     7
 10
-1068.1560125000001
 20
-1469.4181575
 30
0.0
 40
3.329569970506518
 50
273.8309816091222
 51
351.1351473098033
  0
LINE
  5
303
  8
DATA
  6
CONTINUOUS
 62
     7
 10
-1078.975964999999
 20
-1455.2403225
 30
0.0
 11
-1075.747179999998
 21
-1455.2403225
 31
0.0
  0
LINE
  5
304
  8
DATA
  6
CONTINUOUS
 62
     7
 10
-1085.4012475
 20
-1455.2403225
 30
0.0
 11
-1080.2029074999989
 21
-1455.2403225
 31
0.0
  0
LINE
  5
305
  8
DATA
  6
CONTINUOUS
 62
     7
 10
-1062.9935125
 20
-1455.2403225
 30
0.0
 11
-1059.635577499999
 21
-1455.2403225
 31
0.0
  0
LINE
  5
306
  8
DATA
  6
CONTINUOUS
 62
     7
 10
-1074.068212499998
 20
-1455.2403225
 30
0.0
 11
-1067.8998297757421
 21
-1455.2403366640449
 31
0.0
  0
LINE
  5
307
  8
DATA
  6
CONTINUOUS
 62
     7
 10
-1071.1300325
 20
-1456.8870025000001
 30
0.0
 11
-1069.5479275
 21
-1456.8870025000001
 31
0.0
  0
ARC
  5
308
  8
DATA
  6
CONTINUOUS
 62
     7
 10
-1068.122814999999
 20
-1458.5573775
 30
0.0
 40
3.3245273825949151
 50
8.2269238590188021
 51
86.154126692155714
  0
ARC
  5
309
  8
DATA
  6
CONTINUOUS
 62
     7
 10
-1069.5292454404439
 20
-1468.0246710689721
 30
0.0
 40
3.0690107934182671
 50
269.65121993761278
 51
282.82648280686823
  0
ARC
  5
30A
  8
DATA
  6
CONTINUOUS
 62
     7
 10
-1069.1845469519319
 20
-1469.322188044647
 30
0.0
 40
1.7280163314633661
 50
281.2331036226492
 51
306.86200889405052
  0
ARC
  5
30B
  8
DATA
  6
CONTINUOUS
 62
     7
 10
-1068.4886326137459
 20
-1465.0146570791101
 30
0.0
 40
0.5578704509325588
 50
5.7329807105674941
 51
52.358097502441417
  0
ARC
  5
30C
  8
DATA
  6
CONTINUOUS
 62
     7
 10
-1069.5292454404439
 20
-1467.2529839310271
 30
0.0
 40
3.0690107934178141
 50
77.173517193129726
 51
90.348780062387206
  0
ARC
  5
30D
  8
DATA
  6
CONTINUOUS
 62
     7
 10
-1069.1845469519319
 20
-1465.955466955352
 30
0.0
 40
1.7280163314629811
 50
53.137991105951031
 51
78.766896377340515
  0
ARC
  5
30E
  8
DATA
  6
CONTINUOUS
 62
     7
 10
-1066.5273575000001
 20
-1465.3962899999999
 30
0.0
 40
1.6973042868491031
 50
3.8670063598311599
 51
88.361634567886696
  0
ARC
  5
30F
  8
DATA
  6
CONTINUOUS
 62
     7
 10
-1066.5289150000001
 20
-1462.00143
 30
0.0
 40
1.698990894908138
 50
271.68928210465128
 51
356.07828298266639
  0
ARC
  5
310
  8
DATA
  6
CONTINUOUS
 62
     7
 10
-1068.4886326137459
 20
-1461.67445292089
 30
0.0
 40
0.5578704509320703
 50
307.64190249756848
 51
354.26701928940452
  0
ARC
  5
311
  8
DATA
  6
CONTINUOUS
 62
     7
 10
-1069.5292454404439
 20
-1459.436126068973
 30
0.0
 40
3.0690107934180402
 50
269.65121993761278
 51
282.82648280687351
  0
ARC
  5
312
  8
DATA
  6
CONTINUOUS
 62
     7
 10
-1069.1845469519319
 20
-1460.733643044648
 30
0.0
 40
1.7280163314626951
 50
281.23310362265357
 51
306.86200889405359
  0
ARC
  5
313
  8
DATA
  6
CONTINUOUS
 62
     7
 10
-1068.4886326137459
 20
-1457.7176295791101
 30
0.0
 40
0.5578704509326041
 50
5.7329807106139619
 51
52.358097502422929
  0
ARC
  5
314
  8
DATA
  6
CONTINUOUS
 62
     7
 10
-1069.5292454404439
 20
-1459.9559564310271
 30
0.0
 40
3.069010793418256
 50
77.17351719313163
 51
90.348780062387164
  0
ARC
  5
315
  8
DATA
  6
CONTINUOUS
 62
     7
 10
-1069.1845469519319
 20
-1458.6584394553529
 30
0.0
 40
1.7280163314627981
 50
53.137991105946512
 51
78.766896377346441
  0
TEXT
  5
316
  8
DATA
 62
     7
 10
-1087.329999999999
 20
-1490.4100000000001
 30
0.0
 40
4.6171875
  1
PROFESSIONAL
 41
0.7
 11
-1087.329999999999
 21
-1485.7928125000001
 31
0.0
 73
     3
  0
ARC
  5
317
  8
DATA
  6
CONTINUOUS
 62
     7
 10
-887.5
 20
-1487.5
 30
0.0
 40
212.86732957408
 50
139.76364169072619
 51
206.80389068787301
  0
ARC
  5
318
  8
DATA
  6
CONTINUOUS
 62
     7
 10
-1275.0
 20
-1150.0
 30
0.0
 40
301.0398644698073
 50
318.36646066342968
 51
41.633539336570202
  0
ARC
  5
319
  8
DATA
  6
CONTINUOUS
 62
     7
 10
-832.8125
 20
-835.9375
 30
0.0
 40
245.31747606418091
 50
130.73082888467511
 51
207.70755060012229
  0
ARC
  5
31A
  8
DATA
  6
CONTINUOUS
 62
     7
 10
374.16999999999962
 20
-1236.0
 30
0.0
 40
5.0
 50
90.0
 51
180.0
  0
ARC
  5
31B
  8
DATA
  6
CONTINUOUS
 62
     7
 10
374.16999999999962
 20
-1426.0
 30
0.0
 40
5.0
 50
180.0
 51
270.0
  0
ARC
  5
31C
  8
DATA
  6
CONTINUOUS
 62
     7
 10
487.16999999999962
 20
-1426.0
 30
0.0
 40
5.0
 50
270.0
 51
0.0
  0
ARC
  5
31D
  8
DATA
  6
CONTINUOUS
 62
     7
 10
487.16999999999962
 20
-1236.0
 30
0.0
 40
5.0
 50
0.0
 51
90.0
  0
CIRCLE
  5
31E
  8
DATA
  6
CONTINUOUS
 62
     7
 10
375.66999999999962
 20
-1238.0
 30
0.0
 40
3.25
  0
LINE
  5
31F
  8
DATA
  6
CONTINUOUS
 62
     7
 10
411.76853525081992
 20
-1375.8555379136251
 30
0.0
 11
410.57146474917988
 21
-1379.1444620863749
 31
0.0
  0
LINE
  5
320
  8
DATA
  6
CONTINUOUS
 62
     7
 10
398.7685352508197
 20
-1379.1444620863749
 30
0.0
 11
397.57146474917982
 21
-1375.8555379136251
 31
0.0
  0
LINE
  5
321
  8
DATA
  6
CONTINUOUS
 62
     7
 10
396.52553791362448
 20
-1378.0985352508201
 30
0.0
 11
399.81446208637499
 21
-1376.9014647491799
 31
0.0
  0
LINE
  5
322
  8
DATA
  6
CONTINUOUS
 62
     7
 10
420.41122951685611
 20
-1376.1319194266971
 30
0.0
 11
427.92877048314358
 21
-1378.868080573302
 31
0.0
  0
LINE
  5
323
  8
DATA
  6
CONTINUOUS
 62
     7
 10
424.76853525081992
 20
-1375.8555379136251
 30
0.0
 11
423.57146474918
 21
-1379.1444620863749
 31
0.0
  0
LINE
  5
324
  8
DATA
  6
CONTINUOUS
 62
     7
 10
433.41122951685639
 20
-1376.1319194266971
 30
0.0
 11
440.92877048314358
 21
-1378.868080573302
 31
0.0
  0
LINE
  5
325
  8
DATA
  6
CONTINUOUS
 62
     7
 10
437.76853525081992
 20
-1375.8555379136251
 30
0.0
 11
436.57146474918
 21
-1379.1444620863749
 31
0.0
  0
LINE
  5
326
  8
DATA
  6
CONTINUOUS
 62
     7
 10
446.41122951685639
 20
-1376.1319194266971
 30
0.0
 11
453.92877048314358
 21
-1378.868080573302
 31
0.0
  0
LINE
  5
327
  8
DATA
  6
CONTINUOUS
 62
     7
 10
450.76853525081992
 20
-1375.8555379136251
 30
0.0
 11
449.57146474918011
 21
-1379.1444620863749
 31
0.0
  0
LINE
  5
328
  8
DATA
  6
CONTINUOUS
 62
     7
 10
461.52553791362431
 20
-1378.0985352508201
 30
0.0
 11
464.81446208637499
 21
-1376.9014647491799
 31
0.0
  0
LINE
  5
329
  8
DATA
  6
CONTINUOUS
 62
     7
 10
463.7685352508197
 20
-1379.1444620863749
 30
0.0
 11
462.57146474917971
 21
-1375.8555379136251
 31
0.0
  0
LINE
  5
32A
  8
DATA
  6
CONTINUOUS
 62
     7
 10
375.66999999999962
 20
-1239.5
 30
0.0
 11
375.66999999999962
 21
-1236.5
 31
0.0
  0
LINE
  5
32B
  8
DATA
  6
CONTINUOUS
 62
     7
 10
377.16999999999962
 20
-1238.0
 30
0.0
 11
374.16999999999962
 21
-1238.0
 31
0.0
  0
CIRCLE
  5
32C
  8
DATA
  6
CONTINUOUS
 62
     7
 10
485.66999999999962
 20
-1238.0
 30
0.0
 40
3.25
  0
LINE
  5
32D
  8
DATA
  6
CONTINUOUS
 62
     7
 10
485.66999999999962
 20
-1239.5
 30
0.0
 11
485.66999999999962
 21
-1236.5
 31
0.0
  0
LINE
  5
32E
  8
DATA
  6
CONTINUOUS
 62
     7
 10
487.16999999999962
 20
-1238.0
 30
0.0
 11
484.1699999999995
 21
-1238.0
 31
0.0
  0
CIRCLE
  5
32F
  8
DATA
  6
CONTINUOUS
 62
     7
 10
375.66999999999962
 20
-1331.0
 30
0.0
 40
3.25
  0
LINE
  5
330
  8
DATA
  6
CONTINUOUS
 62
     7
 10
375.66999999999962
 20
-1332.5
 30
0.0
 11
375.66999999999962
 21
-1329.5
 31
0.0
  0
LINE
  5
331
  8
DATA
  6
CONTINUOUS
 62
     7
 10
377.16999999999962
 20
-1331.0
 30
0.0
 11
374.16999999999962
 21
-1331.0
 31
0.0
  0
CIRCLE
  5
332
  8
DATA
  6
CONTINUOUS
 62
     7
 10
485.66999999999962
 20
-1331.0
 30
0.0
 40
3.25
  0
LINE
  5
333
  8
DATA
  6
CONTINUOUS
 62
     7
 10
485.66999999999962
 20
-1332.5
 30
0.0
 11
485.66999999999962
 21
-1329.5
 31
0.0
  0
LINE
  5
334
  8
DATA
  6
CONTINUOUS
 62
     7
 10
487.16999999999962
 20
-1331.0
 30
0.0
 11
484.1699999999995
 21
-1331.0
 31
0.0
  0
CIRCLE
  5
335
  8
DATA
  6
CONTINUOUS
 62
     7
 10
375.66999999999962
 20
-1424.0
 30
0.0
 40
3.25
  0
LINE
  5
336
  8
DATA
  6
CONTINUOUS
 62
     7
 10
375.66999999999962
 20
-1425.5
 30
0.0
 11
375.66999999999962
 21
-1422.5
 31
0.0
  0
LINE
  5
337
  8
DATA
  6
CONTINUOUS
 62
     7
 10
377.16999999999962
 20
-1424.0
 30
0.0
 11
374.16999999999962
 21
-1424.0
 31
0.0
  0
CIRCLE
  5
338
  8
DATA
  6
CONTINUOUS
 62
     7
 10
485.66999999999962
 20
-1424.0
 30
0.0
 40
3.25
  0
LINE
  5
339
  8
DATA
  6
CONTINUOUS
 62
     7
 10
485.66999999999962
 20
-1425.5
 30
0.0
 11
485.66999999999962
 21
-1422.5
 31
0.0
  0
LINE
  5
33A
  8
DATA
  6
CONTINUOUS
 62
     7
 10
487.16999999999962
 20
-1424.0
 30
0.0
 11
484.1699999999995
 21
-1424.0
 31
0.0
  0
LINE
  5
33B
  8
DATA
  6
CONTINUOUS
 62
     7
 10
935.0
 20
-1910.0
 30
0.0
 11
935.0
 21
-200.0
 31
0.0
  0
LINE
  5
33C
  8
DATA
  6
CONTINUOUS
 62
     7
 10
1865.0
 20
-1910.0
 30
0.0
 11
935.0
 21
-1910.0
 31
0.0
  0
LINE
  5
33D
  8
DATA
  6
CONTINUOUS
 62
     7
 10
1865.0
 20
-200.0
 30
0.0
 11
1865.0
 21
-1910.0
 31
0.0
  0
LINE
  5
33E
  8
DATA
  6
CONTINUOUS
 62
     7
 10
935.0
 20
-200.0
 30
0.0
 11
1865.0
 21
-200.0
 31
0.0
  0
POLYLINE
  5
33F
  8
DATA
  6
CONTINUOUS
 62
     7
 66
     1
 10
0.0
 20
0.0
 30
0.0
 70
     1
  0
VERTEX
  5
54B
  8
DATA
  6
CONTINUOUS
 62
     7
 10
995.0
 20
-1430.0
 30
0.0
  0
VERTEX
  5
54C
  8
DATA
  6
CONTINUOUS
 62
     7
 10
1805.0
 20
-1430.0
 30
0.0
  0
VERTEX
  5
54D
  8
DATA
  6
CONTINUOUS
 62
     7
 10
1805.0
 20
-1610.0
 30
0.0
  0
VERTEX
  5
54E
  8
DATA
  6
CONTINUOUS
 62
     7
 10
995.0
 20
-1610.0
 30
0.0
  0
SEQEND
  5
54F
  8
DATA
  6
CONTINUOUS
 62
     7
  0
POLYLINE
  5
346
  8
DATA
  6
CONTINUOUS
 62
     7
 66
     1
 10
0.0
 20
0.0
 30
0.0
 70
   129
  0
VERTEX
  5
550
  8
DATA
  6
CONTINUOUS
 62
     7
 10
1282.5
 20
-1020.0
 30
0.0
 42
-0.4142135623730951
  0
VERTEX
  5
551
  8
DATA
  6
CONTINUOUS
 62
     7
 10
1400.0
 20
-902.5
 30
0.0
 42
-0.4142135623730951
  0
VERTEX
  5
552
  8
DATA
  6
CONTINUOUS
 62
     7
 10
1517.5
 20
-1020.0
 30
0.0
 42
-0.4142135623730951
  0
VERTEX
  5
553
  8
DATA
  6
CONTINUOUS
 62
     7
 10
1400.0
 20
-1137.5
 30
0.0
 42
-0.4142135623730951
  0
VERTEX
  5
554
  8
DATA
  6
CONTINUOUS
 62
     7
 10
1282.5
 20
-1020.0
 30
0.0
  0
SEQEND
  5
555
  8
DATA
  6
CONTINUOUS
 62
     7
  0
LINE
  5
34D
  8
DATA
  6
CONTINUOUS
 62
     7
 10
1370.0
 20
-920.0
 30
0.0
 11
1430.0
 21
-920.0
 31
0.0
  0
LINE
  5
34E
  8
DATA
  6
CONTINUOUS
 62
     7
 10
1380.0
 20
-1120.0
 30
0.0
 11
1420.0
 21
-1120.0
 31
0.0
  0
LINE
  5
34F
  8
DATA
  6
CONTINUOUS
 62
     7
 10
1380.0
 20
-1120.0
 30
0.0
 11
1380.0
 21
-1108.0
 31
0.0
  0
LINE
  5
350
  8
DATA
  6
CONTINUOUS
 62
     7
 10
1420.0
 20
-1120.0
 30
0.0
 11
1420.0
 21
-1108.0
 31
0.0
  0
LINE
  5
351
  8
DATA
  6
CONTINUOUS
 62
     7
 10
1370.0
 20
-920.0
 30
0.0
 11
1370.0
 21
-937.27150000000165
 31
0.0
  0
LINE
  5
352
  8
DATA
  6
CONTINUOUS
 62
     7
 10
1430.0
 20
-920.0
 30
0.0
 11
1430.0
 21
-937.27150000000165
 31
0.0
  0
ARC
  5
353
  8
DATA
  6
CONTINUOUS
 62
     7
 10
1400.0
 20
-1020.0
 30
0.0
 40
88.000026774142114
 50
109.9322641506793
 51
257.19616681970012
  0
ARC
  5
354
  8
DATA
  6
CONTINUOUS
 62
     7
 10
1400.0
 20
-1020.0
 30
0.0
 40
88.000035043459306
 50
282.9999995554212
 51
69.999994237961104
  0
ARC
  5
355
  8
DATA
  6
CONTINUOUS
 62
     7
 10
1400.0
 20
-1020.0
 30
0.0
 40
62.000021620640211
 50
60.00001153556115
 51
150.00001153556209
  0
LINE
  5
356
  8
DATA
  6
CONTINUOUS
 62
     7
 10
1346.3065999999999
 20
-988.99969999999928
 30
0.0
 11
1351.2861999999991
 21
-991.87470000000076
 31
0.0
  0
LINE
  5
357
  8
DATA
  6
CONTINUOUS
 62
     7
 10
1430.9996999999989
 20
-966.30619999999874
 30
0.0
 11
1428.124699999998
 21
-971.28590000000031
 31
0.0
  0
ARC
  5
358
  8
DATA
  6
CONTINUOUS
 62
     7
 10
1400.0
 20
-1020.0
 30
0.0
 40
62.000021620642173
 50
240.00001153556209
 51
330.00001153556229
  0
LINE
  5
359
  8
DATA
  6
CONTINUOUS
 62
     7
 10
1369.0
 20
-1073.693600000001
 30
0.0
 11
1371.875
 21
-1068.7139
 31
0.0
  0
LINE
  5
35A
  8
DATA
  6
CONTINUOUS
 62
     7
 10
1453.693699999998
 20
-1050.999799999998
 30
0.0
 11
1448.7139999999999
 21
-1048.1248000000001
 31
0.0
  0
ARC
  5
35B
  8
DATA
  6
CONTINUOUS
 62
     7
 10
1400.0
 20
-1020.0
 30
0.0
 40
56.250038315809192
 50
149.9996696821033
 51
240.00021260430319
  0
ARC
  5
35C
  8
DATA
  6
CONTINUOUS
 62
     7
 10
1400.0
 20
-1020.0
 30
0.0
 40
56.249961520342602
 50
330.00021260430242
 51
60.000718243123572
  0
ARC
  5
35D
  8
DATA
  6
CONTINUOUS
 62
     7
 10
1400.0
 20
-1020.0
 30
0.0
 40
35.999900808752571
 50
59.999908854706391
 51
149.9999088547064
  0
ARC
  5
35E
  8
DATA
  6
CONTINUOUS
 62
     7
 10
1400.0
 20
-1020.0
 30
0.0
 40
35.999900808752571
 50
239.9999088547064
 51
329.99990885470481
  0
LINE
  5
35F
  8
DATA
  6
CONTINUOUS
 62
     7
 10
1417.9998000000001
 20
-988.82309999999973
 30
0.0
 11
1414.4999000000009
 21
-994.88520000000108
 31
0.0
  0
LINE
  5
360
  8
DATA
  6
CONTINUOUS
 62
     7
 10
1368.8232999999991
 20
-1001.999900000001
 30
0.0
 11
1374.8852999999999
 21
-1005.4999
 31
0.0
  0
LINE
  5
361
  8
DATA
  6
CONTINUOUS
 62
     7
 10
1382.0000000000009
 20
-1051.1768000000011
 30
0.0
 11
1385.4999999999991
 21
-1045.1146999999989
 31
0.0
  0
LINE
  5
362
  8
DATA
  6
CONTINUOUS
 62
     7
 10
1431.1768999999999
 20
-1037.9998000000001
 30
0.0
 11
1425.114800000001
 21
-1034.4999000000009
 31
0.0
  0
ARC
  5
363
  8
DATA
  6
CONTINUOUS
 62
     7
 10
1400.0
 20
-1020.0
 30
0.0
 40
29.00001820861436
 50
149.99979263402921
 51
240.00023362383041
  0
ARC
  5
364
  8
DATA
  6
CONTINUOUS
 62
     7
 10
1400.0
 20
-1020.0
 30
0.0
 40
29.000004811207891
 50
330.0002336238303
 51
59.999792634030257
  0
LINE
  5
365
  8
DATA
  6
CONTINUOUS
 62
     7
 10
1125.0000000000041
 20
-1610.0
 30
0.0
 11
1125.0000000000041
 21
-1430.0
 31
0.0
  0
LINE
  5
366
  8
DATA
  6
CONTINUOUS
 62
     7
 10
1155.0000000000041
 20
-1610.0
 30
0.0
 11
1155.0000000000041
 21
-1430.0
 31
0.0
  0
LINE
  5
367
  8
DATA
  6
CONTINUOUS
 62
     7
 10
1255.0000000000041
 20
-1610.0
 30
0.0
 11
1255.0000000000041
 21
-1430.0
 31
0.0
  0
LINE
  5
368
  8
DATA
  6
CONTINUOUS
 62
     7
 10
1285.0000000000041
 20
-1610.0
 30
0.0
 11
1285.0000000000041
 21
-1430.0
 31
0.0
  0
LINE
  5
369
  8
DATA
  6
CONTINUOUS
 62
     7
 10
1385.0000000000041
 20
-1610.0
 30
0.0
 11
1385.0000000000041
 21
-1430.0
 31
0.0
  0
LINE
  5
36A
  8
DATA
  6
CONTINUOUS
 62
     7
 10
1415.0000000000041
 20
-1610.0
 30
0.0
 11
1415.0000000000041
 21
-1430.0
 31
0.0
  0
LINE
  5
36B
  8
DATA
  6
CONTINUOUS
 62
     7
 10
1515.000000000005
 20
-1610.0
 30
0.0
 11
1515.000000000005
 21
-1430.0
 31
0.0
  0
LINE
  5
36C
  8
DATA
  6
CONTINUOUS
 62
     7
 10
1545.0000000000041
 20
-1610.0
 30
0.0
 11
1545.0000000000041
 21
-1430.0
 31
0.0
  0
LINE
  5
36D
  8
DATA
  6
CONTINUOUS
 62
     7
 10
1645.0000000000041
 20
-1610.0
 30
0.0
 11
1645.0000000000041
 21
-1430.0
 31
0.0
  0
LINE
  5
36E
  8
DATA
  6
CONTINUOUS
 62
     7
 10
1675.0000000000041
 20
-1610.0
 30
0.0
 11
1675.0000000000041
 21
-1430.0
 31
0.0
  0
LINE
  5
36F
  8
DATA
  6
CONTINUOUS
 62
     7
 10
1025.0
 20
-1610.0
 30
0.0
 11
1025.0
 21
-1430.0
 31
0.0
  0
LINE
  5
370
  8
DATA
  6
CONTINUOUS
 62
     7
 10
1775.0
 20
-1430.0
 30
0.0
 11
1775.0
 21
-1610.0
 31
0.0
  0
CIRCLE
  5
371
  8
DATA
  6
CONTINUOUS
 62
     7
 10
1205.0000000000041
 20
-1520.0
 30
0.0
 40
39.99999999999882
  0
POLYLINE
  5
372
  8
DATA
  6
CONTINUOUS
 62
     7
 66
     1
 10
0.0
 20
0.0
 30
0.0
 70
     1
  0
VERTEX
  5
556
  8
DATA
  6
CONTINUOUS
 62
     7
 10
1176.9512195121979
 20
-1462.439024390241
 30
0.0
  0
VERTEX
  5
557
  8
DATA
  6
CONTINUOUS
 62
     7
 10
1255.000000000002
 20
-1479.999999999997
 30
0.0
  0
VERTEX
  5
558
  8
DATA
  6
CONTINUOUS
 62
     7
 10
1233.048780487806
 20
-1577.560975609754
 30
0.0
  0
VERTEX
  5
559
  8
DATA
  6
CONTINUOUS
 62
     7
 10
1155.000000000002
 20
-1559.999999999997
 30
0.0
  0
SEQEND
  5
55A
  8
DATA
  6
CONTINUOUS
 62
     7
  0
LINE
  5
379
  8
DATA
  6
CONTINUOUS
 62
     7
 10
1167.412295168567
 20
-1506.319194266971
 30
0.0
 11
1242.5877048314389
 21
-1533.680805733027
 31
0.0
  0
CIRCLE
  5
37A
  8
DATA
  6
CONTINUOUS
 62
     7
 10
1335.0000000000041
 20
-1520.0
 30
0.0
 40
39.99999999999882
  0
POLYLINE
  5
37B
  8
DATA
  6
CONTINUOUS
 62
     7
 66
     1
 10
0.0
 20
0.0
 30
0.0
 70
     1
  0
VERTEX
  5
55B
  8
DATA
  6
CONTINUOUS
 62
     7
 10
1306.9512195121979
 20
-1462.439024390241
 30
0.0
  0
VERTEX
  5
55C
  8
DATA
  6
CONTINUOUS
 62
     7
 10
1385.000000000002
 20
-1479.999999999997
 30
0.0
  0
VERTEX
  5
55D
  8
DATA
  6
CONTINUOUS
 62
     7
 10
1363.0487804878071
 20
-1577.560975609754
 30
0.0
  0
VERTEX
  5
55E
  8
DATA
  6
CONTINUOUS
 62
     7
 10
1285.000000000002
 20
-1559.999999999997
 30
0.0
  0
SEQEND
  5
55F
  8
DATA
  6
CONTINUOUS
 62
     7
  0
CIRCLE
  5
382
  8
DATA
  6
CONTINUOUS
 62
     7
 10
1465.000000000005
 20
-1520.0
 30
0.0
 40
39.99999999999882
  0
POLYLINE
  5
383
  8
DATA
  6
CONTINUOUS
 62
     7
 66
     1
 10
0.0
 20
0.0
 30
0.0
 70
     1
  0
VERTEX
  5
560
  8
DATA
  6
CONTINUOUS
 62
     7
 10
1436.9512195121979
 20
-1462.439024390241
 30
0.0
  0
VERTEX
  5
561
  8
DATA
  6
CONTINUOUS
 62
     7
 10
1515.000000000002
 20
-1479.999999999997
 30
0.0
  0
VERTEX
  5
562
  8
DATA
  6
CONTINUOUS
 62
     7
 10
1493.048780487806
 20
-1577.560975609754
 30
0.0
  0
VERTEX
  5
563
  8
DATA
  6
CONTINUOUS
 62
     7
 10
1415.000000000002
 20
-1559.999999999997
 30
0.0
  0
SEQEND
  5
564
  8
DATA
  6
CONTINUOUS
 62
     7
  0
CIRCLE
  5
38A
  8
DATA
  6
CONTINUOUS
 62
     7
 10
1595.0000000000041
 20
-1520.0
 30
0.0
 40
39.99999999999882
  0
POLYLINE
  5
38B
  8
DATA
  6
CONTINUOUS
 62
     7
 66
     1
 10
0.0
 20
0.0
 30
0.0
 70
     1
  0
VERTEX
  5
565
  8
DATA
  6
CONTINUOUS
 62
     7
 10
1566.9512195121979
 20
-1462.439024390241
 30
0.0
  0
VERTEX
  5
566
  8
DATA
  6
CONTINUOUS
 62
     7
 10
1645.000000000002
 20
-1479.999999999997
 30
0.0
  0
VERTEX
  5
567
  8
DATA
  6
CONTINUOUS
 62
     7
 10
1623.048780487806
 20
-1577.560975609754
 30
0.0
  0
VERTEX
  5
568
  8
DATA
  6
CONTINUOUS
 62
     7
 10
1545.000000000002
 20
-1559.999999999997
 30
0.0
  0
SEQEND
  5
569
  8
DATA
  6
CONTINUOUS
 62
     7
  0
CIRCLE
  5
392
  8
DATA
  6
CONTINUOUS
 62
     7
 10
1725.000000000002
 20
-1520.0
 30
0.0
 40
39.999999999998039
  0
CIRCLE
  5
393
  8
DATA
  6
CONTINUOUS
 62
     7
 10
1075.000000000002
 20
-1520.0
 30
0.0
 40
39.99999999999882
  0
TEXT
  5
394
  8
DATA
 62
     7
 10
1180.0000000000041
 20
-1368.0
 30
0.0
 40
38.4765625
  1
1+
 41
0.7
 11
1180.0000000000041
 21
-1329.5234375
 31
0.0
 73
     3
  0
TEXT
  5
395
  8
DATA
 62
     7
 10
1310.0000000000041
 20
-1368.0
 30
0.0
 40
38.4765625
  1
1-
 41
0.7
 11
1310.0000000000041
 21
-1329.5234375
 31
0.0
 73
     3
  0
TEXT
  5
396
  8
DATA
 62
     7
 10
1440.000000000005
 20
-1368.0
 30
0.0
 40
38.4765625
  1
2+
 41
0.7
 11
1440.000000000005
 21
-1329.5234375
 31
0.0
 73
     3
  0
TEXT
  5
397
  8
DATA
 62
     7
 10
1570.0000000000041
 20
-1368.0
 30
0.0
 40
38.4765625
  1
2-
 41
0.7
 11
1570.0000000000041
 21
-1329.5234375
 31
0.0
 73
     3
  0
CIRCLE
  5
398
  8
DATA
  6
CONTINUOUS
 62
     7
 10
1100.0
 20
-800.0
 30
0.0
 40
30.0
  0
CIRCLE
  5
399
  8
DATA
  6
CONTINUOUS
 62
     7
 10
1700.0
 20
-800.0
 30
0.0
 40
30.0
  0
POLYLINE
  5
39A
  8
DATA
  6
CONTINUOUS
 62
     7
 66
     1
 10
0.0
 20
0.0
 30
0.0
 70
     1
  0
VERTEX
  5
56A
  8
DATA
  6
CONTINUOUS
 62
     7
 10
1000.0
 20
-370.0
 30
0.0
  0
VERTEX
  5
56B
  8
DATA
  6
CONTINUOUS
 62
     7
 10
1800.0
 20
-370.0
 30
0.0
  0
VERTEX
  5
56C
  8
DATA
  6
CONTINUOUS
 62
     7
 10
1800.0
 20
-750.0
 30
0.0
  0
VERTEX
  5
56D
  8
DATA
  6
CONTINUOUS
 62
     7
 10
1000.0
 20
-750.0
 30
0.0
  0
SEQEND
  5
56E
  8
DATA
  6
CONTINUOUS
 62
     7
  0
TEXT
  5
3A1
  8
DATA
 62
     7
 10
1007.5
 20
-723.0
 30
0.0
 40
38.4765625
  1
(Passive)
 41
0.7
 11
1007.5
 21
-684.5234375
 31
0.0
 73
     3
  0
TEXT
  5
3A2
  8
DATA
 62
     7
 10
1580.0
 20
-723.0
 30
0.0
 40
38.4765625
  1
(Bi-Amp)
 41
0.7
 11
1580.0
 21
-684.5234375
 31
0.0
 73
     3
  0
TEXT
  5
3A3
  8
DATA
 62
     7
 10
1030.0
 20
-442.99999999999989
 30
0.0
 40
38.4765625
  1
Model: AM4315/95
 41
0.7
 11
1030.0
 21
-404.52343749999989
 31
0.0
 73
     3
  0
POLYLINE
  5
3A4
  8
DATA
  6
CONTINUOUS
 62
     7
 66
     1
 10
0.0
 20
0.0
 30
0.0
 70
     1
  0
VERTEX
  5
56F
  8
DATA
  6
CONTINUOUS
 62
     7
 10
1165.0
 20
-515.0
 30
0.0
  0
VERTEX
  5
570
  8
DATA
  6
CONTINUOUS
 62
     7
 10
1635.0
 20
-515.0
 30
0.0
  0
VERTEX
  5
571
  8
DATA
  6
CONTINUOUS
 62
     7
 10
1635.0
 20
-625.0
 30
0.0
  0
VERTEX
  5
572
  8
DATA
  6
CONTINUOUS
 62
     7
 10
1165.0
 20
-625.0
 30
0.0
  0
SEQEND
  5
573
  8
DATA
  6
CONTINUOUS
 62
     7
  0
LINE
  5
3AB
  8
DATA
  6
CONTINUOUS
 62
     7
 10
1165.0
 20
-551.66666666666742
 30
0.0
 11
1635.0
 21
-551.66666666666742
 31
0.0
  0
LINE
  5
3AC
  8
DATA
  6
CONTINUOUS
 62
     7
 10
1165.0
 20
-588.33333333333246
 30
0.0
 11
1635.0
 21
-588.33333333333246
 31
0.0
  0
LINE
  5
3AD
  8
DATA
  6
CONTINUOUS
 62
     7
 10
1305.0
 20
-515.0
 30
0.0
 11
1305.0
 21
-625.0
 31
0.0
  0
LINE
  5
3AE
  8
DATA
  6
CONTINUOUS
 62
     7
 10
1485.0000000000041
 20
-625.0
 30
0.0
 11
1485.0000000000041
 21
-515.0
 31
0.0
  0
TEXT
  5
3AF
  8
DATA
 62
     7
 10
1182.5
 20
-544.13333333333469
 30
0.0
 40
23.0859375
  1
Wiring:
 41
0.7
 11
1182.5
 21
-521.0473958333348
 31
0.0
 73
     3
  0
TEXT
  5
3B0
  8
DATA
 62
     7
 10
1342.500000000002
 20
-544.13333333333469
 30
0.0
 40
23.0859375
  1
Passive
 41
0.7
 11
1342.500000000002
 21
-521.0473958333348
 31
0.0
 73
     3
  0
TEXT
  5
3B1
  8
DATA
 62
     7
 10
1515.000000000002
 20
-544.13333333333469
 30
0.0
 40
23.0859375
  1
Bi-Amp
 41
0.7
 11
1515.000000000002
 21
-521.0473958333348
 31
0.0
 73
     3
  0
TEXT
  5
3B2
  8
DATA
 62
     7
 10
1197.5
 20
-580.79999999999995
 30
0.0
 40
23.0859375
  1
1+/1-
 41
0.7
 11
1197.5
 21
-557.71406249999995
 31
0.0
 73
     3
  0
TEXT
  5
3B3
  8
DATA
 62
     7
 10
1320.000000000002
 20
-580.79999999999995
 30
0.0
 40
23.0859375
  1
Full Renge
 41
0.7
 11
1320.000000000002
 21
-557.71406249999995
 31
0.0
 73
     3
  0
TEXT
  5
3B4
  8
DATA
 62
     7
 10
1537.500000000002
 20
-580.79999999999995
 30
0.0
 40
23.0859375
  1
Low
 41
0.7
 11
1537.500000000002
 21
-557.71406249999995
 31
0.0
 73
     3
  0
TEXT
  5
3B5
  8
DATA
 62
     7
 10
1197.5
 20
-617.46666666666499
 30
0.0
 40
23.0859375
  1
2+/2-
 41
0.7
 11
1197.5
 21
-594.38072916666511
 31
0.0
 73
     3
  0
TEXT
  5
3B6
  8
DATA
 62
     7
 10
1372.500000000002
 20
-617.46666666666499
 30
0.0
 40
23.0859375
  1
n/c
 41
0.7
 11
1372.500000000002
 21
-594.38072916666511
 31
0.0
 73
     3
  0
TEXT
  5
3B7
  8
DATA
 62
     7
 10
1500.000000000002
 20
-617.46666666666499
 30
0.0
 40
23.0859375
  1
Mid-High
 41
0.7
 11
1500.000000000002
 21
-594.38072916666511
 31
0.0
 73
     3
  0
LINE
  5
3B8
  8
DATA
  6
CONTINUOUS
 62
     7
 10
1210.9853525082031
 20
-1503.555379136247
 30
0.0
 11
1199.014647491804
 21
-1536.444620863753
 31
0.0
  0
LINE
  5
3B9
  8
DATA
  6
CONTINUOUS
 62
     7
 10
1080.985352508201
 20
-1536.444620863753
 30
0.0
 11
1069.014647491801
 21
-1503.555379136247
 31
0.0
  0
LINE
  5
3BA
  8
DATA
  6
CONTINUOUS
 62
     7
 10
1058.5553791362479
 20
-1525.9853525082001
 30
0.0
 11
1091.4446208637539
 21
-1514.014647491801
 31
0.0
  0
LINE
  5
3BB
  8
DATA
  6
CONTINUOUS
 62
     7
 10
1297.412295168567
 20
-1506.319194266971
 30
0.0
 11
1372.587704831438
 21
-1533.680805733027
 31
0.0
  0
LINE
  5
3BC
  8
DATA
  6
CONTINUOUS
 62
     7
 10
1340.9853525082031
 20
-1503.555379136247
 30
0.0
 11
1329.014647491804
 21
-1536.444620863753
 31
0.0
  0
LINE
  5
3BD
  8
DATA
  6
CONTINUOUS
 62
     7
 10
1427.412295168567
 20
-1506.319194266971
 30
0.0
 11
1502.587704831438
 21
-1533.680805733027
 31
0.0
  0
LINE
  5
3BE
  8
DATA
  6
CONTINUOUS
 62
     7
 10
1470.9853525082031
 20
-1503.555379136247
 30
0.0
 11
1459.014647491804
 21
-1536.444620863753
 31
0.0
  0
LINE
  5
3BF
  8
DATA
  6
CONTINUOUS
 62
     7
 10
1557.412295168567
 20
-1506.319194266971
 30
0.0
 11
1632.587704831438
 21
-1533.680805733027
 31
0.0
  0
LINE
  5
3C0
  8
DATA
  6
CONTINUOUS
 62
     7
 10
1600.9853525082031
 20
-1503.555379136247
 30
0.0
 11
1589.014647491804
 21
-1536.444620863753
 31
0.0
  0
LINE
  5
3C1
  8
DATA
  6
CONTINUOUS
 62
     7
 10
1708.5553791362479
 20
-1525.9853525082001
 30
0.0
 11
1741.444620863753
 21
-1514.014647491801
 31
0.0
  0
LINE
  5
3C2
  8
DATA
  6
CONTINUOUS
 62
     7
 10
1730.985352508201
 20
-1536.444620863753
 30
0.0
 11
1719.014647491801
 21
-1503.555379136247
 31
0.0
  0
ENDSEC
  0
EOF
