  0
SECTION
  2
HEADER
  9
$ACADVER
  1
AC1009
  9
$INSBASE
 10
0.0
 20
0.0
 30
0.0
  9
$EXTMIN
 10
-1700.0
 20
-2545.0976679358532
 30
0.0
  9
$EXTMAX
 10
1900.0
 20
2807.1044850000021
 30
0.0
  9
$LIMMIN
 10
0.0
 20
0.0
  9
$LIMMAX
 10
0.0
 20
0.0
  9
$ORTHOMODE
 70
     0
  9
$REGENMODE
 70
     1
  9
$FILLMODE
 70
     1
  9
$QTEXTMODE
 70
     0
  9
$MIRRTEXT
 70
     1
  9
$DRAGMODE
 70
     2
  9
$LTSCALE
 40
101.59999999999999
  9
$OSMODE
 70
   231
  9
$ATTMODE
 70
     1
  9
$TEXTSIZE
 40
0.0
  9
$TRACEWID
 40
1.0
  9
$TEXTSTYLE
  7
STANDARD
  9
$CLAYER
  8
DATA
  9
$CELTYPE
  6
BYLAYER
  9
$CECOLOR
 62
   256
  9
$DIMSCALE
 40
1.0
  9
$DIMASZ
 40
0.18
  9
$DIMEXO
 40
0.0625
  9
$DIMDLI
 40
0.38
  9
$DIMRND
 40
0.0
  9
$DIMDLE
 40
0.0
  9
$DIMEXE
 40
0.18
  9
$DIMTP
 40
0.0
  9
$DIMTM
 40
0.0
  9
$DIMTXT
 40
0.18
  9
$DIMCEN
 40
0.09
  9
$DIMTSZ
 40
0.0
  9
$DIMTOL
 70
     0
  9
$DIMLIM
 70
     0
  9
$DIMTIH
 70
     1
  9
$DIMTOH
 70
     1
  9
$DIMSE1
 70
     0
  9
$DIMSE2
 70
     0
  9
$DIMTAD
 70
     0
  9
$DIMZIN
 70
     0
  9
$DIMBLK
  1

  9
$DIMASO
 70
     1
  9
$DIMSHO
 70
     1
  9
$DIMPOST
  1

  9
$DIMAPOST
  1

  9
$DIMALT
 70
     0
  9
$DIMALTD
 70
     2
  9
$DIMALTF
 40
25.399999999999999
  9
$DIMLFAC
 40
1.0
  9
$DIMTOFL
 70
     0
  9
$DIMTVP
 40
0.0
  9
$DIMTIX
 70
     0
  9
$DIMSOXD
 70
     0
  9
$DIMSAH
 70
     0
  9
$DIMBLK1
  1

  9
$DIMBLK2
  1

  9
$DIMSTYLE
  2
STANDARD
  9
$DIMCLRD
 70
     0
  9
$DIMCLRE
 70
     0
  9
$DIMCLRT
 70
     0
  9
$DIMTFAC
 40
1.0
  9
$DIMGAP
 40
0.09
  9
$LUNITS
 70
     2
  9
$LUPREC
 70
     4
  9
$SKETCHINC
 40
0.1
  9
$FILLETRAD
 40
0.0
  9
$AUNITS
 70
     0
  9
$AUPREC
 70
     0
  9
$MENU
  1
acad
  9
$ELEVATION
 40
0.0
  9
$PELEVATION
 40
0.0
  9
$THICKNESS
 40
0.0
  9
$LIMCHECK
 70
     0
  9
$BLIPMODE
 70
     0
  9
$CHAMFERA
 40
0.0
  9
$CHAMFERB
 40
0.0
  9
$SKPOLY
 70
     0
  9
$TDCREATE
 40
2454945.7512268522
  9
$TDUPDATE
 40
2455776.4147082749
  9
$TDINDWG
 40
0.0019712731
  9
$TDUSRTIMER
 40
0.0019710995
  9
$USRTIMER
 70
     1
  9
$ANGBASE
 50
0.0
  9
$ANGDIR
 70
     0
  9
$PDMODE
 70
     1
  9
$PDSIZE
 40
-2.0
  9
$PLINEWID
 40
0.0
  9
$COORDS
 70
     1
  9
$SPLFRAME
 70
     0
  9
$SPLINETYPE
 70
     6
  9
$SPLINESEGS
 70
     8
  9
$ATTDIA
 70
     0
  9
$ATTREQ
 70
     1
  9
$HANDLING
 70
     1
  9
$HANDSEED
  5
10E7
  9
$SURFTAB1
 70
     6
  9
$SURFTAB2
 70
     6
  9
$SURFTYPE
 70
     6
  9
$SURFU
 70
     6
  9
$SURFV
 70
     6
  9
$UCSNAME
  2

  9
$UCSORG
 10
0.0
 20
0.0
 30
0.0
  9
$UCSXDIR
 10
1.0
 20
0.0
 30
0.0
  9
$UCSYDIR
 10
0.0
 20
1.0
 30
0.0
  9
$PUCSNAME
  2

  9
$PUCSORG
 10
0.0
 20
0.0
 30
0.0
  9
$PUCSXDIR
 10
1.0
 20
0.0
 30
0.0
  9
$PUCSYDIR
 10
0.0
 20
1.0
 30
0.0
  9
$USERI1
 70
     0
  9
$USERI2
 70
     0
  9
$USERI3
 70
     0
  9
$USERI4
 70
     0
  9
$USERI5
 70
     0
  9
$USERR1
 40
0.0
  9
$USERR2
 40
0.0
  9
$USERR3
 40
0.0
  9
$USERR4
 40
0.0
  9
$USERR5
 40
0.0
  9
$WORLDVIEW
 70
     1
  9
$SHADEDGE
 70
     3
  9
$SHADEDIF
 70
    70
  9
$TILEMODE
 70
     1
  9
$MAXACTVP
 70
    64
  9
$PLIMCHECK
 70
     0
  9
$PEXTMIN
 10
1.0000000000000000E+020
 20
1.0000000000000000E+020
 30
1.0000000000000000E+020
  9
$PEXTMAX
 10
-1.0000000000000000E+020
 20
-1.0000000000000000E+020
 30
-1.0000000000000000E+020
  9
$PLIMMIN
 10
0.0
 20
0.0
  9
$PLIMMAX
 10
12.0
 20
9.0
  9
$UNITMODE
 70
     0
  9
$VISRETAIN
 70
     0
  9
$PLINEGEN
 70
     1
  9
$PSLTSCALE
 70
     0
  0
ENDSEC
  0
SECTION
  2
TABLES
  0
TABLE
  2
VPORT
 70
     1
  0
VPORT
  2
*ACTIVE
 70
     0
 10
0.0
 20
0.0
 11
1.0
 21
1.0
 12
100.0000083819059
 22
130.95267582171431
 13
0.0
 23
0.0
 14
1.0
 24
1.0
 15
0.0
 25
0.0
 16
0.0
 26
0.0
 36
1.0
 17
0.0
 27
0.0
 37
0.0
 40
5392.0355128211513
 41
1.961916461916462
 42
50.0
 43
0.0
 44
0.0
 50
0.0
 51
0.0
 71
     0
 72
  2000
 73
     1
 74
     1
 75
     0
 76
     0
 77
     0
 78
     0
  0
ENDTAB
  0
TABLE
  2
LTYPE
 70
     1
  0
LTYPE
  2
CONTINUOUS
 70
     0
  3
Solid line
 72
    65
 73
     0
 40
0.0
  0
ENDTAB
  0
TABLE
  2
LAYER
 70
     5
  0
LAYER
  2
0
 70
     0
 62
     7
  6
CONTINUOUS
  0
LAYER
  2
DATA
 70
     0
 62
     7
  6
CONTINUOUS
  0
LAYER
  2
HIBINO-BASE
 70
     0
 62
     7
  6
CONTINUOUS
  0
LAYER
  2
SPEC
 70
     0
 62
     7
  6
CONTINUOUS
  0
LAYER
  2
DIMNSIONS
 70
     0
 62
     7
  6
CONTINUOUS
  0
ENDTAB
  0
TABLE
  2
STYLE
 70
     2
  0
STYLE
  2
STANDARD
 70
     0
 40
0.0
 41
1.0
 50
0.0
 71
     0
 42
0.0
  3
txt
  4
BIGFONT.SHX
  0
ENDTAB
  0
TABLE
  2
VIEW
 70
     0
  0
ENDTAB
  0
TABLE
  2
UCS
 70
     0
  0
ENDTAB
  0
TABLE
  2
APPID
 70
     4
  0
APPID
  2
ACAD
 70
     0
  0
APPID
  2
ACADANNOTATIVE
 70
     0
  0
APPID
  2
ACAD_NAV_VCDISPLAY
 70
     0
  0
APPID
  2
ACAD_MLEADERVER
 70
     0
  0
ENDTAB
  0
TABLE
  2
DIMSTYLE
 70
     2
  0
DIMSTYLE
  2
STANDARD
 70
     0
  3

  4

  5

  6

  7

 40
1.0
 41
0.18
 42
0.0625
 43
0.38
 44
0.18
 45
0.0
 46
0.0
 47
0.0
 48
0.0
140
0.18
141
0.09
142
0.0
143
25.399999999999999
144
1.0
145
0.0
146
1.0
147
0.09
 71
     0
 72
     0
 73
     1
 74
     1
 75
     0
 76
     0
 77
     0
 78
     0
170
     0
171
     2
172
     0
173
     0
174
     0
175
     0
176
     0
177
     0
178
     0
  0
ENDTAB
  0
ENDSEC
  0
SECTION
  2
BLOCKS
  0
BLOCK
  8
0
  2
$MODEL_SPACE
 70
     0
 10
0.0
 20
0.0
 30
0.0
  3
$MODEL_SPACE
  1

  0
ENDBLK
  5
C7A
  8
0
  0
BLOCK
 67
     1
  8
0
  2
$PAPER_SPACE
 70
     0
 10
0.0
 20
0.0
 30
0.0
  3
$PAPER_SPACE
  1

  0
ENDBLK
  5
C76
 67
     1
  8
0
  0
ENDSEC
  0
SECTION
  2
ENTITIES
  0
LINE
  5
2D
  8
HIBINO-BASE
  6
CONTINUOUS
 62
     7
 10
-1700.0
 20
2807.1044850000021
 30
0.0
 11
1900.0
 21
2807.1044850000021
 31
0.0
  0
LINE
  5
2E
  8
HIBINO-BASE
  6
CONTINUOUS
 62
     7
 10
1900.0
 20
-2392.8955150000011
 30
0.0
 11
-1700.0
 21
-2392.8955150000011
 31
0.0
  0
LINE
  5
2F
  8
HIBINO-BASE
  6
CONTINUOUS
 62
     7
 10
-1700.0
 20
-2392.8955150000011
 30
0.0
 11
-1700.0
 21
2807.1044850000021
 31
0.0
  0
LINE
  5
30
  8
HIBINO-BASE
  6
CONTINUOUS
 62
     7
 10
1900.0
 20
2807.1044850000021
 30
0.0
 11
1900.0
 21
-2392.8955150000011
 31
0.0
  0
LINE
  5
31
  8
HIBINO-BASE
  6
CONTINUOUS
 62
     7
 10
100.0
 20
-1942.8955149999999
 30
0.0
 11
1900.0
 21
-1942.8955149999999
 31
0.0
  0
LINE
  5
32
  8
HIBINO-BASE
  6
CONTINUOUS
 62
     7
 10
100.0
 20
-2392.8955150000011
 30
0.0
 11
100.0
 21
-1942.8955149999999
 31
0.0
  0
TEXT
  5
33
  8
HIBINO-BASE
 62
     7
 10
118.0
 20
-1993.0693816666669
 30
0.0
 40
32.576822916666671
  1
NOTE
 41
0.7
 11
118.0
 21
-1960.4925587499999
 31
0.0
 73
     3
  0
LINE
  5
34
  8
HIBINO-BASE
  6
CONTINUOUS
 62
     7
 10
800.0
 20
-2392.8955150000011
 30
0.0
 11
800.0
 21
-1942.8955149999999
 31
0.0
  0
TEXT
  5
35
  8
HIBINO-BASE
 62
     7
 10
818.0
 20
-1993.0693816666669
 30
0.0
 40
32.576822916666671
  1
TITLE
 41
0.7
 11
818.0
 21
-1960.4925587499999
 31
0.0
 73
     3
  0
LINE
  5
36
  8
HIBINO-BASE
  6
CONTINUOUS
 62
     7
 10
100.0
 20
-2192.8955150000002
 30
0.0
 11
1900.0
 21
-2192.8955150000002
 31
0.0
  0
TEXT
  5
37
  8
HIBINO-BASE
 62
     7
 10
1068.0
 20
-2241.942981666667
 30
0.0
 40
32.576822916666671
  1
DRAWN
 41
0.7
 11
1068.0
 21
-2209.3661587500001
 31
0.0
 73
     3
  0
TEXT
  5
38
  8
HIBINO-BASE
 62
     7
 10
568.0
 20
-2241.942981666667
 30
0.0
 40
32.576822916666671
  1
DATE
 41
0.7
 11
568.0
 21
-2209.3661587500001
 31
0.0
 73
     3
  0
TEXT
  5
39
  8
HIBINO-BASE
 62
     7
 10
122.0
 20
-2245.2846389999991
 30
0.0
 40
32.57687421875
  1
図面サイズ
 41
0.7
 11
122.0
 21
-2212.7077647812489
 31
0.0
 73
     3
  0
TEXT
  5
3A
  8
HIBINO-BASE
 62
     7
 10
368.0
 20
-2241.942981666667
 30
0.0
 40
32.576822916666671
  1
SCALE
 41
0.7
 11
368.0
 21
-2209.3661587500001
 31
0.0
 73
     3
  0
TEXT
  5
3B
  8
HIBINO-BASE
 62
     7
 10
818.0
 20
-2241.942981666667
 30
0.0
 40
32.576822916666671
  1
DESIGN
 41
0.7
 11
818.0
 21
-2209.3661587500001
 31
0.0
 73
     3
  0
TEXT
  5
3C
  8
HIBINO-BASE
 62
     7
 10
1568.0
 20
-2241.942981666667
 30
0.0
 40
32.576822916666671
  1
DRAWING NO.
 41
0.7
 11
1568.0
 21
-2209.3661587500001
 31
0.0
 73
     3
  0
TEXT
  5
3D
  8
HIBINO-BASE
 62
     7
 10
1318.0
 20
-2241.942981666667
 30
0.0
 40
32.576822916666671
  1
CHECK
 41
0.7
 11
1318.0
 21
-2209.3661587500001
 31
0.0
 73
     3
  0
LINE
  5
3E
  8
HIBINO-BASE
  6
CONTINUOUS
 62
     7
 10
387.5
 20
-2367.8955150000002
 30
0.0
 11
462.5
 21
-2292.8955150000002
 31
0.0
  0
TEXT
  5
3F
  8
HIBINO-BASE
 62
     7
 10
375.0
 20
-2315.0743816666668
 30
0.0
 40
32.576822916666671
  1
1
 41
0.7
 11
375.0
 21
-2282.4975587499998
 31
0.0
 73
     3
  0
LINE
  5
40
  8
HIBINO-BASE
  6
CONTINUOUS
 62
     7
 10
350.0
 20
-2392.8955150000011
 30
0.0
 11
350.0
 21
-2192.8955150000002
 31
0.0
  0
LINE
  5
41
  8
HIBINO-BASE
  6
CONTINUOUS
 62
     7
 10
549.99999999999989
 20
-2392.8955150000011
 30
0.0
 11
549.99999999999989
 21
-2192.8955150000002
 31
0.0
  0
LINE
  5
42
  8
HIBINO-BASE
  6
CONTINUOUS
 62
     7
 10
1050.0
 20
-2192.8955150000002
 30
0.0
 11
1050.0
 21
-2392.8955150000011
 31
0.0
  0
LINE
  5
43
  8
HIBINO-BASE
  6
CONTINUOUS
 62
     7
 10
1550.0
 20
-2192.8955150000002
 30
0.0
 11
1550.0
 21
-2392.8955150000011
 31
0.0
  0
LINE
  5
44
  8
HIBINO-BASE
  6
CONTINUOUS
 62
     7
 10
1300.0
 20
-2392.8955150000011
 30
0.0
 11
1300.0
 21
-2192.8955150000002
 31
0.0
  0
TEXT
  5
45
  8
HIBINO-BASE
 62
     7
 10
450.0
 20
-2352.574381666665
 30
0.0
 40
32.576822916666671
  1
20
 41
0.7
 11
450.0
 21
-2319.9975587499989
 31
0.0
 73
     3
  0
TEXT
  5
46
  8
HIBINO-BASE
 62
     7
 10
177.666666666667
 20
-2353.3755150000002
 30
0.0
 40
65.153645833333329
  1
A4
 41
0.7
 11
177.666666666667
 21
-2288.2218691666671
 31
0.0
 73
     3
  0
TEXT
  5
47
  8
HIBINO-BASE
 62
     7
 10
1088.034602761308
 20
-2351.6034717478979
 30
0.0
 40
32.576822916666671
  1
N.Sasaki
 41
0.7
 11
1088.034602761308
 21
-2319.0266488312318
 31
0.0
 73
     3
  0
TEXT
  5
48
  8
HIBINO-BASE
 62
     7
 10
-1558.8162027429321
 20
-2521.097373404602
 30
0.0
 40
72.000883593749975
  1
Hibino Corporation
 41
0.7
 11
-1558.8162027429321
 21
-2449.0964898108518
 31
0.0
 73
     3
  0
TEXT
  5
49
  8
HIBINO-BASE
 62
     7
 10
1099.5127137077191
 20
-2514.7669599068781
 30
0.0
 40
72.000883593749975
  1
ヒビノ株式会社
 41
0.7
 11
1099.5127137077191
 21
-2442.766076313128
 31
0.0
 73
     3
  0
TEXT
  5
4A
  8
HIBINO-BASE
 62
     7
 10
593.72955713418571
 20
-2350.663899889712
 30
0.0
 40
32.576822916666671
  1
'09.4.
 41
0.7
 11
593.72955713418571
 21
-2318.087076973045
 31
0.0
 73
     3
  0
LINE
  5
4B
  8
SPEC
  6
CONTINUOUS
 62
     7
 10
-1550.0
 20
2607.1044849999998
 30
0.0
 11
1400.0
 21
2607.1044849999998
 31
0.0
  0
LINE
  5
4C
  8
SPEC
  6
CONTINUOUS
 62
     7
 10
-1550.0
 20
2532.1044849999998
 30
0.0
 11
1400.0
 21
2532.1044849999998
 31
0.0
  0
LINE
  5
4D
  8
SPEC
  6
CONTINUOUS
 62
     7
 10
-1550.0
 20
2232.1044849999998
 30
0.0
 11
1400.0
 21
2232.1044849999998
 31
0.0
  0
LINE
  5
4E
  8
SPEC
  6
CONTINUOUS
 62
     7
 10
-1550.0
 20
2307.1044849999998
 30
0.0
 11
1400.0
 21
2307.1044849999998
 31
0.0
  0
LINE
  5
4F
  8
SPEC
  6
CONTINUOUS
 62
     7
 10
-1550.0
 20
2382.1044849999998
 30
0.0
 11
1400.0
 21
2382.1044849999998
 31
0.0
  0
LINE
  5
50
  8
SPEC
  6
CONTINUOUS
 62
     7
 10
-1550.0
 20
2157.1044849999998
 30
0.0
 11
1400.0
 21
2157.1044849999998
 31
0.0
  0
LINE
  5
51
  8
SPEC
  6
CONTINUOUS
 62
     7
 10
-1550.0
 20
2007.1044850000001
 30
0.0
 11
1400.0
 21
2007.1044850000001
 31
0.0
  0
LINE
  5
52
  8
SPEC
  6
CONTINUOUS
 62
     7
 10
-1550.0
 20
1857.1044850000001
 30
0.0
 11
1400.0
 21
1857.1044850000001
 31
0.0
  0
LINE
  5
53
  8
SPEC
  6
CONTINUOUS
 62
     7
 10
-1550.0
 20
2457.1044849999998
 30
0.0
 11
1400.0
 21
2457.1044849999998
 31
0.0
  0
TEXT
  5
54
  8
SPEC
 62
     7
 10
-882.0
 20
2547.8629169999999
 30
0.0
 40
38.006224999999993
  1
2Wayフルレンジ
 41
0.7
 11
-882.0
 21
2585.869142
 31
0.0
 73
     3
  0
LINE
  5
55
  8
SPEC
  6
CONTINUOUS
 62
     7
 10
-1550.0
 20
1482.1044849999989
 30
0.0
 11
1400.0
 21
1482.1044849999989
 31
0.0
  0
LINE
  5
56
  8
SPEC
  6
CONTINUOUS
 62
     7
 10
-1550.0
 20
1182.1044849999989
 30
0.0
 11
1400.0
 21
1182.1044849999989
 31
0.0
  0
LINE
  5
57
  8
SPEC
  6
CONTINUOUS
 62
     7
 10
-1550.0
 20
1332.1044849999989
 30
0.0
 11
1400.0
 21
1332.1044849999989
 31
0.0
  0
LINE
  5
58
  8
SPEC
  6
CONTINUOUS
 62
     7
 10
-1550.0
 20
1257.1044849999989
 30
0.0
 11
1400.0
 21
1257.1044849999989
 31
0.0
  0
LINE
  5
59
  8
SPEC
  6
CONTINUOUS
 62
     7
 10
-1550.0
 20
1032.104484999998
 30
0.0
 11
1400.0
 21
1032.104484999998
 31
0.0
  0
LINE
  5
5A
  8
SPEC
  6
CONTINUOUS
 62
     7
 10
-1550.0
 20
2607.1044849999998
 30
0.0
 11
-1550.0
 21
1032.104484999998
 31
0.0
  0
TEXT
  5
5B
  8
SPEC
 62
     7
 10
-1525.0
 20
2634.969885
 30
0.0
 40
48.865234375000007
  1
仕様
 41
0.7
 11
-1525.0
 21
2683.835119375
 31
0.0
 73
     3
  0
LINE
  5
5C
  8
SPEC
  6
CONTINUOUS
 62
     7
 10
-900.0
 20
2607.1044849999998
 30
0.0
 11
-900.0
 21
1032.104484999998
 31
0.0
  0
LINE
  5
5D
  8
SPEC
  6
CONTINUOUS
 62
     7
 10
1400.0
 20
2607.1044849999998
 30
0.0
 11
1400.0
 21
1032.104484999998
 31
0.0
  0
TEXT
  5
5E
  8
SPEC
 62
     7
 10
-882.0
 20
1947.8629169999999
 30
0.0
 40
38.006224999999993
  1
パッシブ: 127 dB
 41
0.7
 11
-882.0
 21
1985.869142
 31
0.0
 73
     3
  0
TEXT
  5
5F
  8
SPEC
 62
     7
 10
-882.0
 20
2022.8629169999999
 30
0.0
 40
38.006224999999993
  1
BI-AMP駆動: 97 dB(低域), 116 dB(高域)
 41
0.7
 11
-882.0
 21
2060.869142
 31
0.0
 73
     3
  0
TEXT
  5
60
  8
SPEC
 62
     7
 10
-882.0
 20
1722.862916999999
 30
0.0
 40
38.006224999999993
  1
BI-AMP駆動: 8 \U+03A9(低域), 8 \U+03A9(高域)
 41
0.7
 11
-882.0
 21
1760.8691419999991
 31
0.0
 73
     3
  0
TEXT
  5
61
  8
SPEC
 62
     7
 10
-1532.0
 20
1572.862916999999
 30
0.0
 40
38.006224999999993
  1
クロスオーバー
 41
0.7
 11
-1532.0
 21
1610.8691419999991
 31
0.0
 73
     3
  0
TEXT
  5
62
  8
SPEC
 62
     7
 10
-1532.0
 20
1347.862916999999
 30
0.0
 40
38.006224999999993
  1
耐候性規格
 41
0.7
 11
-1532.0
 21
1385.8691419999991
 31
0.0
 73
     3
  0
TEXT
  5
63
  8
SPEC
 62
     7
 10
-1532.0
 20
2547.8629169999999
 30
0.0
 40
38.006224999999993
  1
形式
 41
0.7
 11
-1532.0
 21
2585.869142
 31
0.0
 73
     3
  0
TEXT
  5
64
  8
SPEC
 62
     7
 10
-1532.0
 20
2322.8629169999999
 30
0.0
 40
38.006224999999993
  1
公称カバレージ
 41
0.7
 11
-1532.0
 21
2360.869142
 31
0.0
 73
     3
  0
TEXT
  5
65
  8
SPEC
 62
     7
 10
-1532.0
 20
2472.8629169999999
 30
0.0
 40
38.006224999999993
  1
周波数レンジ(-10dB)
 41
0.7
 11
-1532.0
 21
2510.869142
 31
0.0
 73
     3
  0
TEXT
  5
66
  8
SPEC
 62
     7
 10
-1532.0
 20
2397.8629169999999
 30
0.0
 40
38.006224999999993
  1
周波数特性(\U+00B13dB)
 41
0.7
 11
-1532.0
 21
2435.869142
 31
0.0
 73
     3
  0
TEXT
  5
67
  8
SPEC
 62
     7
 10
-1532.0
 20
1947.8629169999999
 30
0.0
 40
38.006224999999993
  1
最大音圧(＠1m)
 41
0.7
 11
-1532.0
 21
1985.869142
 31
0.0
 73
     3
  0
TEXT
  5
68
  8
SPEC
 62
     7
 10
-882.0
 20
1572.862916999999
 30
0.0
 40
38.006224999999993
  1
パッシブ/BI-AMP駆動 切替可能
 41
0.7
 11
-882.0
 21
1610.8691419999991
 31
0.0
 73
     3
  0
TEXT
  5
69
  8
SPEC
 62
     7
 10
-882.0
 20
1347.862916999999
 30
0.0
 40
38.006224999999993
  1
Mil-Std 810,IPX３ Per IEC 529
 41
0.7
 11
-882.0
 21
1385.8691419999991
 31
0.0
 73
     3
  0
TEXT
  5
6A
  8
SPEC
 62
     7
 10
-882.0
 20
1872.8629169999999
 30
0.0
 40
38.006224999999993
  1
BI-AMP駆動: 127 dB(低域), 135 dB(高域)
 41
0.7
 11
-882.0
 21
1910.869142
 31
0.0
 73
     3
  0
TEXT
  5
6B
  8
SPEC
 62
     7
 10
-882.0
 20
2322.8629169999999
 30
0.0
 40
38.006224999999993
  1
60\U+00B0x 40\U+00B0 水平/垂直(90\U+00B0単位で回転可能)
 41
0.7
 11
-882.0
 21
2360.869142
 31
0.0
 73
     3
  0
TEXT
  5
6C
  8
SPEC
 62
     7
 10
-882.0
 20
2397.8629169999999
 30
0.0
 40
38.006224999999993
  1
45 Hz～17 kHz
 41
0.7
 11
-882.0
 21
2435.869142
 31
0.0
 73
     3
  0
TEXT
  5
6D
  8
SPEC
 62
     7
 10
-882.0
 20
2472.8629169999999
 30
0.0
 40
38.006224999999993
  1
35 Hz～19 kHz
 41
0.7
 11
-882.0
 21
2510.869142
 31
0.0
 73
     3
  0
TEXT
  5
6E
  8
SPEC
 62
     7
 10
-1532.0
 20
2247.8629169999999
 30
0.0
 40
38.006224999999993
  1
低域ユニット
 41
0.7
 11
-1532.0
 21
2285.869142
 31
0.0
 73
     3
  0
TEXT
  5
6F
  8
SPEC
 62
     7
 10
-882.0
 20
2247.8629169999999
 30
0.0
 40
38.006224999999993
  1
2226H(口径:15インチ)
 41
0.7
 11
-882.0
 21
2285.869142
 31
0.0
 73
     3
  0
TEXT
  5
70
  8
SPEC
 62
     7
 10
-1532.0
 20
2172.8629169999999
 30
0.0
 40
38.006224999999993
  1
高域ユニット
 41
0.7
 11
-1532.0
 21
2210.869142
 31
0.0
 73
     3
  0
TEXT
  5
71
  8
SPEC
 62
     7
 10
-882.0
 20
2172.8629169999999
 30
0.0
 40
38.006224999999993
  1
2431H(ダイアフラム径:3インチ)
 41
0.7
 11
-882.0
 21
2210.869142
 31
0.0
 73
     3
  0
TEXT
  5
72
  8
SPEC
 62
     7
 10
-882.0
 20
2097.8629169999999
 30
0.0
 40
38.006224999999993
  1
パッシブ: 97 dB
 41
0.7
 11
-882.0
 21
2135.869142
 31
0.0
 73
     3
  0
TEXT
  5
73
  8
SPEC
 62
     7
 10
-1532.0
 20
2097.8629169999999
 30
0.0
 40
38.006224999999993
  1
音圧レベル(1W/1m)
 41
0.7
 11
-1532.0
 21
2135.869142
 31
0.0
 73
     3
  0
TEXT
  5
74
  8
SPEC
 62
     7
 10
-1532.0
 20
1797.8629169999999
 30
0.0
 40
38.006224999999993
  1
公称インピーダンス
 41
0.7
 11
-1532.0
 21
1835.869142
 31
0.0
 73
     3
  0
TEXT
  5
75
  8
SPEC
 62
     7
 10
-882.0
 20
1797.8629169999999
 30
0.0
 40
38.006224999999993
  1
パッシブ: 8 \U+03A9
 41
0.7
 11
-882.0
 21
1835.869142
 31
0.0
 73
     3
  0
TEXT
  5
76
  8
SPEC
 62
     7
 10
-882.0
 20
1647.862916999999
 30
0.0
 40
38.006224999999993
  1
600 W(パッシブ)
 41
0.7
 11
-882.0
 21
1685.8691419999991
 31
0.0
 73
     3
  0
TEXT
  5
77
  8
SPEC
 62
     7
 10
-1532.0
 20
1647.862916999999
 30
0.0
 40
38.006224999999993
  1
許容入力
 41
0.7
 11
-1532.0
 21
1685.8691419999991
 31
0.0
 73
     3
  0
TEXT
  5
78
  8
SPEC
 62
     7
 10
-882.0
 20
1497.862916999999
 30
0.0
 40
38.006224999999993
  1
パッシブ(低/高域):  1.3 kHz
 41
0.7
 11
-882.0
 21
1535.8691419999991
 31
0.0
 73
     3
  0
TEXT
  5
79
  8
SPEC
 62
     7
 10
-1532.0
 20
1422.8629169999999
 30
0.0
 40
38.006224999999993
  1
仕上げ
 41
0.7
 11
-1532.0
 21
1460.869142
 31
0.0
 73
     3
  0
TEXT
  5
7A
  8
SPEC
 62
     7
 10
-882.0
 20
1422.8629169999999
 30
0.0
 40
38.006224999999993
  1
黒のデュラフレックス塗装
 41
0.7
 11
-882.0
 21
1460.869142
 31
0.0
 73
     3
  0
TEXT
  5
7B
  8
SPEC
 62
     7
 10
-1532.0
 20
1272.8629169999999
 30
0.0
 40
38.006224999999993
  1
金具用取付穴
 41
0.7
 11
-1532.0
 21
1310.869142
 31
0.0
 73
     3
  0
TEXT
  5
7C
  8
SPEC
 62
     7
 10
-882.0
 20
1272.8629169999999
 30
0.0
 40
38.006224999999993
  1
M10-15ヶ所
 41
0.7
 11
-882.0
 21
1310.869142
 31
0.0
 73
     3
  0
TEXT
  5
7D
  8
SPEC
 62
     7
 10
-1532.0
 20
1197.8629169999999
 30
0.0
 40
38.006224999999993
  1
コネクタ 
 41
0.7
 11
-1532.0
 21
1235.869142
 31
0.0
 73
     3
  0
TEXT
  5
7E
  8
SPEC
 62
     7
 10
-882.0
 20
1197.8629169999999
 30
0.0
 40
38.006224999999993
  1
NEUTRIK NL4 スピコン, ストリップターミナル
 41
0.7
 11
-882.0
 21
1235.869142
 31
0.0
 73
     3
  0
TEXT
  5
7F
  8
SPEC
 62
     7
 10
-1532.0
 20
1122.8629169999999
 30
0.0
 40
38.006224999999993
  1
寸法
 41
0.7
 11
-1532.0
 21
1160.869142
 31
0.0
 73
     3
  0
TEXT
  5
80
  8
SPEC
 62
     7
 10
-1532.0
 20
1047.862916999999
 30
0.0
 40
38.006224999999993
  1
重量
 41
0.7
 11
-1532.0
 21
1085.8691419999991
 31
0.0
 73
     3
  0
TEXT
  5
81
  8
SPEC
 62
     7
 10
-882.0
 20
1047.862916999999
 30
0.0
 40
38.006224999999993
  1
約33kg
 41
0.7
 11
-882.0
 21
1085.8691419999991
 31
0.0
 73
     3
  0
LINE
  5
82
  8
SPEC
  6
CONTINUOUS
 62
     7
 10
-1550.0
 20
1707.1044849999989
 30
0.0
 11
1400.0
 21
1707.1044849999989
 31
0.0
  0
LINE
  5
83
  8
SPEC
  6
CONTINUOUS
 62
     7
 10
-1550.0
 20
1632.104484999998
 30
0.0
 11
1400.0
 21
1632.104484999998
 31
0.0
  0
LINE
  5
84
  8
SPEC
  6
CONTINUOUS
 62
     7
 10
-1550.0
 20
1407.104484999998
 30
0.0
 11
1400.0
 21
1407.104484999998
 31
0.0
  0
LINE
  5
85
  8
SPEC
  6
CONTINUOUS
 62
     7
 10
-1550.0
 20
1107.104484999998
 30
0.0
 11
1400.0
 21
1107.104484999998
 31
0.0
  0
TEXT
  5
86
  8
SPEC
 62
     7
 10
-882.0
 20
1119.1587569999999
 30
0.0
 40
38.006224999999993
  1
422(W)\U+00D7783(H)\U+00D7504(D)mm
 41
0.7
 11
-882.0
 21
1157.164982
 31
0.0
 73
     3
  0
TEXT
  5
87
  8
DIMNSIONS
 62
     7
 10
-300.0
 20
-2153.5734927777771
 30
0.0
 40
54.2947048611111
  1
(単位：mm)
 41
0.7
 11
-300.0
 21
-2099.2787879166658
 31
0.0
 73
     3
  0
LINE
  5
88
  8
DIMNSIONS
  6
CONTINUOUS
 62
     7
 10
-1200.0
 20
-1527.30055237328
 30
0.0
 11
-1200.0
 21
-1740.0
 31
0.0
  0
LINE
  5
89
  8
DIMNSIONS
  6
CONTINUOUS
 62
     7
 10
-778.36000000000001
 20
-1527.30055237328
 30
0.0
 11
-778.36000000000001
 21
-1740.0
 31
0.0
  0
LINE
  5
8A
  8
DIMNSIONS
  6
CONTINUOUS
 62
     7
 10
-1200.0
 20
-1700.0
 30
0.0
 11
-778.36000000000001
 21
-1700.0
 31
0.0
  0
LINE
  5
8B
  8
DIMNSIONS
  6
CONTINUOUS
 62
     7
 10
-1200.0
 20
-1700.0
 30
0.0
 11
-1149.987548828125
 21
-1686.599204096995
 31
0.0
  0
LINE
  5
8C
  8
DIMNSIONS
  6
CONTINUOUS
 62
     7
 10
-1200.0
 20
-1700.0
 30
0.0
 11
-1149.987548828125
 21
-1713.400795903005
 31
0.0
  0
LINE
  5
8D
  8
DIMNSIONS
  6
CONTINUOUS
 62
     7
 10
-778.36000000000001
 20
-1700.0
 30
0.0
 11
-828.37245117187501
 21
-1713.400795903005
 31
0.0
  0
LINE
  5
8E
  8
DIMNSIONS
  6
CONTINUOUS
 62
     7
 10
-778.36000000000001
 20
-1700.0
 30
0.0
 11
-828.37245117187501
 21
-1686.599204096995
 31
0.0
  0
TEXT
  5
8F
  8
DIMNSIONS
 62
     7
 10
-1042.096666666667
 20
-1680.122222222222
 30
0.0
 40
54.2947048611111
  1
422
 41
0.7
 11
-1042.096666666667
 21
-1625.8275173611109
 31
0.0
 73
     3
  0
LINE
  5
90
  8
DIMNSIONS
  6
CONTINUOUS
 62
     7
 10
-1040.356
 20
-1.4000000000000039
 30
0.0
 11
-1190.000021608487
 21
-1.4000000000000039
 31
0.0
  0
LINE
  5
91
  8
DIMNSIONS
  6
CONTINUOUS
 62
     7
 10
-1109.934469735485
 20
40.509447626719847
 30
0.0
 11
-1190.000021608487
 21
40.509447626719847
 31
0.0
  0
LINE
  5
92
  8
DIMNSIONS
  6
CONTINUOUS
 62
     7
 10
-1150.000021608487
 20
40.509447626719847
 30
0.0
 11
-1150.000021608487
 21
-1.4000000000000039
 31
0.0
  0
LINE
  5
93
  8
DIMNSIONS
  6
CONTINUOUS
 62
     7
 10
-1150.000021608487
 20
-1.4000000000000039
 30
0.0
 11
-1150.000021608487
 21
-101.40000000000001
 31
0.0
  0
LINE
  5
94
  8
DIMNSIONS
  6
CONTINUOUS
 62
     7
 10
-1150.000021608487
 20
-1.4000000000000039
 30
0.0
 11
-1136.599225705482
 21
-51.412451171875013
 31
0.0
  0
LINE
  5
95
  8
DIMNSIONS
  6
CONTINUOUS
 62
     7
 10
-1150.000021608487
 20
-1.4000000000000039
 30
0.0
 11
-1163.4008175114921
 21
-51.412451171875013
 31
0.0
  0
LINE
  5
96
  8
DIMNSIONS
  6
CONTINUOUS
 62
     7
 10
-1150.000021608487
 20
40.509447626719847
 30
0.0
 11
-1150.000021608487
 21
170.55555555555549
 31
0.0
  0
LINE
  5
97
  8
DIMNSIONS
  6
CONTINUOUS
 62
     7
 10
-1150.000021608487
 20
40.509447626719847
 30
0.0
 11
-1163.4008175114921
 21
90.521898798594833
 31
0.0
  0
LINE
  5
98
  8
DIMNSIONS
  6
CONTINUOUS
 62
     7
 10
-1150.000021608487
 20
40.509447626719847
 30
0.0
 11
-1136.599225705482
 21
90.521898798594833
 31
0.0
  0
TEXT
  5
99
  8
DIMNSIONS
 62
     7
 10
-1169.877799386265
 20
100.0
 30
0.0
 40
54.2947048611111
  1
42
 50
90.0
 41
0.7
 11
-1224.1725042473761
 21
100.0
 31
0.0
 73
     3
  0
LINE
  5
9A
  8
DIMNSIONS
  6
CONTINUOUS
 62
     7
 10
-1040.356
 20
-229.99055237328011
 30
0.0
 11
-1240.000021608487
 21
-229.99055237328011
 31
0.0
  0
LINE
  5
9B
  8
DIMNSIONS
  6
CONTINUOUS
 62
     7
 10
-1109.934469735485
 20
40.509447626719847
 30
0.0
 11
-1240.000021608487
 21
40.509447626719847
 31
0.0
  0
LINE
  5
9C
  8
DIMNSIONS
  6
CONTINUOUS
 62
     7
 10
-1200.000021608487
 20
-229.99055237328011
 30
0.0
 11
-1200.000021608487
 21
40.509447626719847
 31
0.0
  0
LINE
  5
9D
  8
DIMNSIONS
  6
CONTINUOUS
 62
     7
 10
-1200.000021608487
 20
-229.99055237328011
 30
0.0
 11
-1213.4008175114921
 21
-179.97810120140511
 31
0.0
  0
LINE
  5
9E
  8
DIMNSIONS
  6
CONTINUOUS
 62
     7
 10
-1200.000021608487
 20
-229.99055237328011
 30
0.0
 11
-1186.599225705482
 21
-179.97810120140511
 31
0.0
  0
LINE
  5
9F
  8
DIMNSIONS
  6
CONTINUOUS
 62
     7
 10
-1200.000021608487
 20
40.509447626719847
 30
0.0
 11
-1186.599225705482
 21
-9.5030035451551385
 31
0.0
  0
LINE
  5
A0
  8
DIMNSIONS
  6
CONTINUOUS
 62
     7
 10
-1200.000021608487
 20
40.509447626719847
 30
0.0
 11
-1213.4008175114921
 21
-9.5030035451551385
 31
0.0
  0
TEXT
  5
A1
  8
DIMNSIONS
 62
     7
 10
-1219.877799386265
 20
-147.6572190399468
 30
0.0
 40
54.2947048611111
  1
271
 50
90.0
 41
0.7
 11
-1274.1725042473761
 21
-147.6572190399468
 31
0.0
 73
     3
  0
LINE
  5
A2
  8
DIMNSIONS
  6
CONTINUOUS
 62
     7
 10
-830.94493662250682
 20
-351.46204029479873
 30
0.0
 11
-703.27140695848686
 21
-400.0
 31
0.0
  0
LINE
  5
A3
  8
DIMNSIONS
  6
CONTINUOUS
 62
     7
 10
-830.94493662250682
 20
-351.46204029479873
 30
0.0
 11
-779.36526317345636
 21
-355.97467698995962
 31
0.0
  0
LINE
  5
A4
  8
DIMNSIONS
  6
CONTINUOUS
 62
     7
 10
-830.94493662250682
 20
-351.46204029479873
 30
0.0
 11
-788.53194744430402
 21
-381.159935035383
 31
0.0
  0
LINE
  5
A5
  8
DIMNSIONS
  6
CONTINUOUS
 62
     7
 10
-703.27140695848686
 20
-400.0
 30
0.0
 11
-486.88251806959812
 21
-400.0
 31
0.0
  0
TEXT
  5
A6
  8
DIMNSIONS
 62
     7
 10
-663.27140695848698
 20
-380.12222222222221
 30
0.0
 40
54.2947048611111
  1
8-M10
 41
0.7
 11
-663.27140695848698
 21
-325.82751736111112
 31
0.0
 73
     3
  0
LINE
  5
A7
  8
DIMNSIONS
  6
CONTINUOUS
 62
     7
 10
-68.510021608488685
 20
-1500.0005523732809
 30
0.0
 11
39.999978391512961
 21
-1500.0005523732809
 31
0.0
  0
LINE
  5
A8
  8
DIMNSIONS
  6
CONTINUOUS
 62
     7
 10
-423.17003055105027
 20
-1458.0905523732799
 30
0.0
 11
39.999978391512961
 21
-1458.0905523732799
 31
0.0
  0
LINE
  5
A9
  8
DIMNSIONS
  6
CONTINUOUS
 62
     7
 10
-0.0000216084870459
 20
-1458.0905523732799
 30
0.0
 11
-0.0000216084870317
 21
-1500.0005523732809
 31
0.0
  0
LINE
  5
AA
  8
DIMNSIONS
  6
CONTINUOUS
 62
     7
 10
-0.0000216084870317
 20
-1500.0005523732809
 30
0.0
 11
-0.0000216084870317
 21
-1600.00055237328
 31
0.0
  0
LINE
  5
AB
  8
DIMNSIONS
  6
CONTINUOUS
 62
     7
 10
-0.0000216084870317
 20
-1500.0005523732809
 30
0.0
 11
13.400774294517831
 21
-1550.0130035451559
 31
0.0
  0
LINE
  5
AC
  8
DIMNSIONS
  6
CONTINUOUS
 62
     7
 10
-0.0000216084870317
 20
-1500.0005523732809
 30
0.0
 11
-13.400817511491891
 21
-1550.0130035451559
 31
0.0
  0
LINE
  5
AD
  8
DIMNSIONS
  6
CONTINUOUS
 62
     7
 10
-0.0000216084870459
 20
-1458.0905523732799
 30
0.0
 11
-0.0000216084870459
 21
-1354.4444444444439
 31
0.0
  0
LINE
  5
AE
  8
DIMNSIONS
  6
CONTINUOUS
 62
     7
 10
-0.0000216084870459
 20
-1458.0905523732799
 30
0.0
 11
-13.40081751149191
 21
-1408.0781012014061
 31
0.0
  0
LINE
  5
AF
  8
DIMNSIONS
  6
CONTINUOUS
 62
     7
 10
-0.0000216084870459
 20
-1458.0905523732799
 30
0.0
 11
13.400774294517801
 21
-1408.0781012014061
 31
0.0
  0
TEXT
  5
B0
  8
DIMNSIONS
 62
     7
 10
-19.877799386264801
 20
-1425.0
 30
0.0
 40
54.2947048611111
  1
42
 50
90.0
 41
0.7
 11
-74.172504247375912
 21
-1425.0
 31
0.0
 73
     3
  0
LINE
  5
B1
  8
DIMNSIONS
  6
CONTINUOUS
 62
     7
 10
648.93999999999824
 20
-1500.0005523732809
 30
0.0
 11
764.33597839151173
 21
-1500.0005523732809
 31
0.0
  0
LINE
  5
B2
  8
DIMNSIONS
  6
CONTINUOUS
 62
     7
 10
461.99599999999828
 20
-1458.0905523732799
 30
0.0
 11
764.33597839151173
 21
-1458.0905523732799
 31
0.0
  0
LINE
  5
B3
  8
DIMNSIONS
  6
CONTINUOUS
 62
     7
 10
724.33597839151173
 20
-1458.0905523732799
 30
0.0
 11
724.33597839151173
 21
-1500.0005523732809
 31
0.0
  0
LINE
  5
B4
  8
DIMNSIONS
  6
CONTINUOUS
 62
     7
 10
724.33597839151173
 20
-1500.0005523732809
 30
0.0
 11
724.33597839151173
 21
-1600.00055237328
 31
0.0
  0
LINE
  5
B5
  8
DIMNSIONS
  6
CONTINUOUS
 62
     7
 10
724.33597839151173
 20
-1500.0005523732809
 30
0.0
 11
737.73677429451641
 21
-1550.0130035451559
 31
0.0
  0
LINE
  5
B6
  8
DIMNSIONS
  6
CONTINUOUS
 62
     7
 10
724.33597839151173
 20
-1500.0005523732809
 30
0.0
 11
710.93518248850683
 21
-1550.0130035451559
 31
0.0
  0
LINE
  5
B7
  8
DIMNSIONS
  6
CONTINUOUS
 62
     7
 10
724.33597839151173
 20
-1458.0905523732799
 30
0.0
 11
724.33597839151173
 21
-1339.049018426226
 31
0.0
  0
LINE
  5
B8
  8
DIMNSIONS
  6
CONTINUOUS
 62
     7
 10
724.33597839151173
 20
-1458.0905523732799
 30
0.0
 11
710.93518248850683
 21
-1408.0781012014061
 31
0.0
  0
LINE
  5
B9
  8
DIMNSIONS
  6
CONTINUOUS
 62
     7
 10
724.33597839151173
 20
-1458.0905523732799
 30
0.0
 11
737.73677429451641
 21
-1408.0781012014061
 31
0.0
  0
TEXT
  5
BA
  8
DIMNSIONS
 62
     7
 10
704.45820061373365
 20
-1409.6045739817821
 30
0.0
 40
54.2947048611111
  1
42
 50
90.0
 41
0.7
 11
650.16349575262245
 21
-1409.6045739817821
 31
0.0
 73
     3
  0
LINE
  5
BB
  8
DIMNSIONS
  6
CONTINUOUS
 62
     7
 10
-472.84881568488242
 20
-749.89242810108931
 30
0.0
 11
-450.00002160848692
 21
-601.86719300000004
 31
0.0
  0
LINE
  5
BC
  8
DIMNSIONS
  6
CONTINUOUS
 62
     7
 10
-472.84881568488242
 20
-749.89242810108931
 30
0.0
 11
-478.26095450855252
 21
-698.39936685584485
 31
0.0
  0
LINE
  5
BD
  8
DIMNSIONS
  6
CONTINUOUS
 62
     7
 10
-472.84881568488242
 20
-749.89242810108931
 30
0.0
 11
-451.78933477236637
 21
-702.59205953224466
 31
0.0
  0
LINE
  5
BE
  8
DIMNSIONS
  6
CONTINUOUS
 62
     7
 10
-450.00002160848692
 20
-601.86719300000004
 30
0.0
 11
-233.61113271959809
 21
-601.86719300000004
 31
0.0
  0
TEXT
  5
BF
  8
DIMNSIONS
 62
     7
 10
-410.00002160848692
 20
-581.98941522222219
 30
0.0
 40
54.2947048611111
  1
4-M10
 41
0.7
 11
-410.00002160848692
 21
-527.69471036111122
 31
0.0
 73
     3
  0
LINE
  5
C0
  8
DIMNSIONS
  6
CONTINUOUS
 62
     7
 10
413.44591354207557
 20
-750.13742418352319
 30
0.0
 11
449.33597839151162
 21
-601.66400000010003
 31
0.0
  0
LINE
  5
C1
  8
DIMNSIONS
  6
CONTINUOUS
 62
     7
 10
413.44591354207557
 20
-750.13742418352319
 30
0.0
 11
412.54228553977907
 21
-698.36861060346644
 31
0.0
  0
LINE
  5
C2
  8
DIMNSIONS
  6
CONTINUOUS
 62
     7
 10
413.44591354207557
 20
-750.13742418352319
 30
0.0
 11
438.54775552654399
 21
-704.85250249826504
 31
0.0
  0
LINE
  5
C3
  8
DIMNSIONS
  6
CONTINUOUS
 62
     7
 10
449.33597839151162
 20
-601.66400000010003
 30
0.0
 11
665.72486728040042
 21
-601.66400000010003
 31
0.0
  0
TEXT
  5
C4
  8
DIMNSIONS
 62
     7
 10
489.33597839151162
 20
-581.78622222232218
 30
0.0
 40
54.2947048611111
  1
3-M10
 41
0.7
 11
489.33597839151162
 21
-527.49151736121121
 31
0.0
 73
     3
  0
LINE
  5
C5
  8
DIMNSIONS
  6
CONTINUOUS
 62
     7
 10
-1109.934469735485
 20
40.509447626719847
 30
0.0
 11
-1440.0000216084859
 21
40.509447626719847
 31
0.0
  0
LINE
  5
C6
  8
DIMNSIONS
  6
CONTINUOUS
 62
     7
 10
-1029.180000000001
 20
-463.68055237328008
 30
0.0
 11
-1440.0000216084859
 21
-463.68055237328008
 31
0.0
  0
LINE
  5
C7
  8
DIMNSIONS
  6
CONTINUOUS
 62
     7
 10
-1400.0000216084859
 20
40.509447626719847
 30
0.0
 11
-1400.0000216084859
 21
-463.68055237328008
 31
0.0
  0
LINE
  5
C8
  8
DIMNSIONS
  6
CONTINUOUS
 62
     7
 10
-1400.0000216084859
 20
40.509447626719847
 30
0.0
 11
-1386.599225705482
 21
-9.5030035451551385
 31
0.0
  0
LINE
  5
C9
  8
DIMNSIONS
  6
CONTINUOUS
 62
     7
 10
-1400.0000216084859
 20
40.509447626719847
 30
0.0
 11
-1413.40081751149
 21
-9.5030035451551385
 31
0.0
  0
LINE
  5
CA
  8
DIMNSIONS
  6
CONTINUOUS
 62
     7
 10
-1400.0000216084859
 20
-463.68055237328008
 30
0.0
 11
-1413.40081751149
 21
-413.66810120140519
 31
0.0
  0
LINE
  5
CB
  8
DIMNSIONS
  6
CONTINUOUS
 62
     7
 10
-1400.0000216084859
 20
-463.68055237328008
 30
0.0
 11
-1386.599225705482
 21
-413.66810120140519
 31
0.0
  0
TEXT
  5
CC
  8
DIMNSIONS
 62
     7
 10
-1419.877799386265
 20
-264.50221903994691
 30
0.0
 40
54.2947048611111
  1
504
 50
90.0
 41
0.7
 11
-1474.1725042473761
 21
-264.50221903994691
 31
0.0
 73
     3
  0
LINE
  5
CD
  8
DIMNSIONS
  6
CONTINUOUS
 62
     7
 10
-600.00002160848703
 20
-1527.30055237328
 30
0.0
 11
-600.00002160848703
 21
-1740.0
 31
0.0
  0
LINE
  5
CE
  8
DIMNSIONS
  6
CONTINUOUS
 62
     7
 10
-95.810021608488412
 20
-1527.30055237328
 30
0.0
 11
-95.810021608488412
 21
-1740.0
 31
0.0
  0
LINE
  5
CF
  8
DIMNSIONS
  6
CONTINUOUS
 62
     7
 10
-600.00002160848703
 20
-1700.0
 30
0.0
 11
-95.810021608488412
 21
-1700.0
 31
0.0
  0
LINE
  5
D0
  8
DIMNSIONS
  6
CONTINUOUS
 62
     7
 10
-600.00002160848703
 20
-1700.0
 30
0.0
 11
-549.98757043661203
 21
-1686.599204096995
 31
0.0
  0
LINE
  5
D1
  8
DIMNSIONS
  6
CONTINUOUS
 62
     7
 10
-600.00002160848703
 20
-1700.0
 30
0.0
 11
-549.98757043661203
 21
-1713.400795903005
 31
0.0
  0
LINE
  5
D2
  8
DIMNSIONS
  6
CONTINUOUS
 62
     7
 10
-95.810021608488412
 20
-1700.0
 30
0.0
 11
-145.8224727803634
 21
-1713.400795903005
 31
0.0
  0
LINE
  5
D3
  8
DIMNSIONS
  6
CONTINUOUS
 62
     7
 10
-95.810021608488412
 20
-1700.0
 30
0.0
 11
-145.8224727803634
 21
-1686.599204096995
 31
0.0
  0
TEXT
  5
D4
  8
DIMNSIONS
 62
     7
 10
-400.8216882751542
 20
-1680.122222222222
 30
0.0
 40
54.2947048611111
  1
504
 41
0.7
 11
-400.8216882751542
 21
-1625.8275173611109
 31
0.0
 73
     3
  0
LINE
  5
D5
  8
DIMNSIONS
  6
CONTINUOUS
 62
     7
 10
-778.36000000000001
 20
-348.56255237328048
 30
0.0
 11
-778.36000000000001
 21
42.771173938160061
 31
0.0
  0
ARC
  5
D6
  8
DIMNSIONS
  6
CONTINUOUS
 62
     7
 10
-778.36000000000001
 20
-408.5625523732806
 30
0.0
 40
411.33372631144073
 50
90.0
 51
105.0055571052157
  0
LINE
  5
D7
  8
DIMNSIONS
  6
CONTINUOUS
 62
     7
 10
-884.85953753548733
 20
-11.25501040360882
 30
0.0
 11
-840.01960051178162
 21
14.63333930747344
 31
0.0
  0
LINE
  5
D8
  8
DIMNSIONS
  6
CONTINUOUS
 62
     7
 10
-884.85953753548733
 20
-11.25501040360882
 30
0.0
 11
-833.08283811332285
 21
-11.25501040360882
 31
0.0
  0
LINE
  5
D9
  8
DIMNSIONS
  6
CONTINUOUS
 62
     7
 10
-778.36000000000001
 20
2.7711739381600751
 30
0.0
 11
-828.37245117187501
 21
-10.6296219648448
 31
0.0
  0
LINE
  5
DA
  8
DIMNSIONS
  6
CONTINUOUS
 62
     7
 10
-778.36000000000001
 20
2.7711739381600751
 30
0.0
 11
-828.37245117187501
 21
16.171969841164952
 31
0.0
  0
TEXT
  5
DB
  8
DIMNSIONS
 62
     7
 10
-886.63301474670561
 20
19.84790151083148
 30
0.0
 40
54.2947048611111
  1
15\U+00B0
 50
4.995667672487432
 41
0.7
 11
-891.36102027881043
 21
73.93635628302431
 31
0.0
 73
     3
  0
LINE
  5
DC
  8
DIMNSIONS
  6
CONTINUOUS
 62
     7
 10
-1227.3
 20
-717.42655237328051
 30
0.0
 11
-1440.0
 21
-717.42655237328051
 31
0.0
  0
LINE
  5
DD
  8
DIMNSIONS
  6
CONTINUOUS
 62
     7
 10
-1227.3
 20
-1500.0005523732809
 30
0.0
 11
-1440.0
 21
-1500.0005523732809
 31
0.0
  0
LINE
  5
DE
  8
DIMNSIONS
  6
CONTINUOUS
 62
     7
 10
-1400.0
 20
-717.42655237328051
 30
0.0
 11
-1400.0
 21
-1500.0005523732809
 31
0.0
  0
LINE
  5
DF
  8
DIMNSIONS
  6
CONTINUOUS
 62
     7
 10
-1400.0
 20
-717.42655237328051
 30
0.0
 11
-1386.599204096995
 21
-767.43900354515551
 31
0.0
  0
LINE
  5
E0
  8
DIMNSIONS
  6
CONTINUOUS
 62
     7
 10
-1400.0
 20
-717.42655237328051
 30
0.0
 11
-1413.400795903005
 21
-767.43900354515551
 31
0.0
  0
LINE
  5
E1
  8
DIMNSIONS
  6
CONTINUOUS
 62
     7
 10
-1400.0
 20
-1500.0005523732809
 30
0.0
 11
-1413.400795903005
 21
-1449.988101201405
 31
0.0
  0
LINE
  5
E2
  8
DIMNSIONS
  6
CONTINUOUS
 62
     7
 10
-1400.0
 20
-1500.0005523732809
 30
0.0
 11
-1386.599204096995
 21
-1449.988101201405
 31
0.0
  0
TEXT
  5
E3
  8
DIMNSIONS
 62
     7
 10
-1419.877777777778
 20
-1161.630219039947
 30
0.0
 40
54.2947048611111
  1
783
 50
90.0
 41
0.7
 11
-1474.1724826388891
 21
-1161.630219039947
 31
0.0
 73
     3
  0
LINE
  5
E4
  8
DIMNSIONS
  6
CONTINUOUS
 62
     7
 10
-1191.415905773526
 20
-344.49055237328002
 30
0.0
 11
-1340.0
 21
-344.49055237328002
 31
0.0
  0
LINE
  5
E5
  8
DIMNSIONS
  6
CONTINUOUS
 62
     7
 10
-1108.2
 20
40.509447626719847
 30
0.0
 11
-1340.0
 21
40.509447626719847
 31
0.0
  0
LINE
  5
E6
  8
DIMNSIONS
  6
CONTINUOUS
 62
     7
 10
-1300.0
 20
-344.49055237328002
 30
0.0
 11
-1300.0
 21
40.509447626719847
 31
0.0
  0
LINE
  5
E7
  8
DIMNSIONS
  6
CONTINUOUS
 62
     7
 10
-1300.0
 20
-344.49055237328002
 30
0.0
 11
-1313.400795903005
 21
-294.4781012014052
 31
0.0
  0
LINE
  5
E8
  8
DIMNSIONS
  6
CONTINUOUS
 62
     7
 10
-1300.0
 20
-344.49055237328002
 30
0.0
 11
-1286.599204096995
 21
-294.4781012014052
 31
0.0
  0
LINE
  5
E9
  8
DIMNSIONS
  6
CONTINUOUS
 62
     7
 10
-1300.0
 20
40.509447626719847
 30
0.0
 11
-1286.599204096995
 21
-9.5030035451551385
 31
0.0
  0
LINE
  5
EA
  8
DIMNSIONS
  6
CONTINUOUS
 62
     7
 10
-1300.0
 20
40.509447626719847
 30
0.0
 11
-1313.400795903005
 21
-9.5030035451551385
 31
0.0
  0
TEXT
  5
EB
  8
DIMNSIONS
 62
     7
 10
-1319.877777777778
 20
-204.9072190399468
 30
0.0
 40
48.506944444444407
  1
385
 50
90.0
 41
0.7
 11
-1368.3847222222221
 21
-204.9072190399468
 31
0.0
 73
     3
  0
LINE
  5
EC
  8
DIMNSIONS
  6
CONTINUOUS
 62
     7
 10
-1138.680000000001
 20
-395.66655237328052
 30
0.0
 11
-1138.680000000001
 21
-640.0
 31
0.0
  0
LINE
  5
ED
  8
DIMNSIONS
  6
CONTINUOUS
 62
     7
 10
-989.18000000000075
 20
-281.16655237328052
 30
0.0
 11
-989.18000000000075
 21
-640.0
 31
0.0
  0
LINE
  5
EE
  8
DIMNSIONS
  6
CONTINUOUS
 62
     7
 10
-1138.680000000001
 20
-600.0
 30
0.0
 11
-1330.2222222222219
 21
-600.0
 31
0.0
  0
LINE
  5
EF
  8
DIMNSIONS
  6
CONTINUOUS
 62
     7
 10
-1138.680000000001
 20
-600.0
 30
0.0
 11
-989.18000000000075
 21
-600.0
 31
0.0
  0
LINE
  5
F0
  8
DIMNSIONS
  6
CONTINUOUS
 62
     7
 10
-1138.680000000001
 20
-600.0
 30
0.0
 11
-1088.6675488281251
 21
-586.59920409699521
 31
0.0
  0
LINE
  5
F1
  8
DIMNSIONS
  6
CONTINUOUS
 62
     7
 10
-1138.680000000001
 20
-600.0
 30
0.0
 11
-1088.6675488281251
 21
-613.40079590300468
 31
0.0
  0
LINE
  5
F2
  8
DIMNSIONS
  6
CONTINUOUS
 62
     7
 10
-989.18000000000075
 20
-600.0
 30
0.0
 11
-1039.1924511718751
 21
-613.40079590300468
 31
0.0
  0
LINE
  5
F3
  8
DIMNSIONS
  6
CONTINUOUS
 62
     7
 10
-989.18000000000075
 20
-600.0
 30
0.0
 11
-1039.1924511718751
 21
-586.59920409699521
 31
0.0
  0
TEXT
  5
F4
  8
DIMNSIONS
 62
     7
 10
-1330.2222222222219
 20
-580.12222222222215
 30
0.0
 40
48.506944444444407
  1
149.5
 41
0.7
 11
-1330.2222222222219
 21
-531.61527777777769
 31
0.0
 73
     3
  0
LINE
  5
F5
  8
DIMNSIONS
  6
CONTINUOUS
 62
     7
 10
-989.18000000000075
 20
-281.16655237328052
 30
0.0
 11
-989.18000000000075
 21
-640.0
 31
0.0
  0
LINE
  5
F6
  8
DIMNSIONS
  6
CONTINUOUS
 62
     7
 10
-839.68000000000063
 20
-395.66655237327973
 30
0.0
 11
-839.68000000000063
 21
-640.0
 31
0.0
  0
LINE
  5
F7
  8
DIMNSIONS
  6
CONTINUOUS
 62
     7
 10
-839.68000000000063
 20
-600.0
 30
0.0
 11
-619.77777777777783
 21
-600.0
 31
0.0
  0
LINE
  5
F8
  8
DIMNSIONS
  6
CONTINUOUS
 62
     7
 10
-989.18000000000075
 20
-600.0
 30
0.0
 11
-839.68000000000063
 21
-600.0
 31
0.0
  0
LINE
  5
F9
  8
DIMNSIONS
  6
CONTINUOUS
 62
     7
 10
-989.18000000000075
 20
-600.0
 30
0.0
 11
-939.16754882812563
 21
-586.59920409699521
 31
0.0
  0
LINE
  5
FA
  8
DIMNSIONS
  6
CONTINUOUS
 62
     7
 10
-989.18000000000075
 20
-600.0
 30
0.0
 11
-939.16754882812563
 21
-613.40079590300468
 31
0.0
  0
LINE
  5
FB
  8
DIMNSIONS
  6
CONTINUOUS
 62
     7
 10
-839.68000000000063
 20
-600.0
 30
0.0
 11
-889.69245117187563
 21
-613.40079590300468
 31
0.0
  0
LINE
  5
FC
  8
DIMNSIONS
  6
CONTINUOUS
 62
     7
 10
-839.68000000000063
 20
-600.0
 30
0.0
 11
-889.69245117187563
 21
-586.59920409699521
 31
0.0
  0
TEXT
  5
FD
  8
DIMNSIONS
 62
     7
 10
-775.0
 20
-580.12222222222215
 30
0.0
 40
48.506944444444407
  1
149.5
 41
0.7
 11
-775.0
 21
-531.61527777777769
 31
0.0
 73
     3
  0
LINE
  5
FE
  8
DIMNSIONS
  6
CONTINUOUS
 62
     7
 10
461.99599999999822
 20
-1116.00055237328
 30
0.0
 11
865.0
 21
-1116.00055237328
 31
0.0
  0
LINE
  5
FF
  8
DIMNSIONS
  6
CONTINUOUS
 62
     7
 10
648.93999999999824
 20
-1500.0005523732809
 30
0.0
 11
865.0
 21
-1500.0005523732809
 31
0.0
  0
LINE
  5
100
  8
DIMNSIONS
  6
CONTINUOUS
 62
     7
 10
825.0
 20
-1116.00055237328
 30
0.0
 11
825.0
 21
-1500.0005523732809
 31
0.0
  0
LINE
  5
101
  8
DIMNSIONS
  6
CONTINUOUS
 62
     7
 10
825.0
 20
-1116.00055237328
 30
0.0
 11
838.40079590300502
 21
-1166.013003545155
 31
0.0
  0
LINE
  5
102
  8
DIMNSIONS
  6
CONTINUOUS
 62
     7
 10
825.0
 20
-1116.00055237328
 30
0.0
 11
811.59920409699544
 21
-1166.013003545155
 31
0.0
  0
LINE
  5
103
  8
DIMNSIONS
  6
CONTINUOUS
 62
     7
 10
825.0
 20
-1500.0005523732809
 30
0.0
 11
811.59920409699544
 21
-1449.988101201405
 31
0.0
  0
LINE
  5
104
  8
DIMNSIONS
  6
CONTINUOUS
 62
     7
 10
825.0
 20
-1500.0005523732809
 30
0.0
 11
838.40079590300502
 21
-1449.988101201405
 31
0.0
  0
TEXT
  5
105
  8
DIMNSIONS
 62
     7
 10
805.12222222222215
 20
-1360.917219039947
 30
0.0
 40
48.506944444444407
  1
384
 50
90.0
 41
0.7
 11
756.61527777777769
 21
-1360.917219039947
 31
0.0
 73
     3
  0
LINE
  5
106
  8
DIMNSIONS
  6
CONTINUOUS
 62
     7
 10
461.99599999999822
 20
-1116.00055237328
 30
0.0
 11
865.0
 21
-1116.00055237328
 31
0.0
  0
LINE
  5
107
  8
DIMNSIONS
  6
CONTINUOUS
 62
     7
 10
461.99599999999822
 20
-761.00055237328036
 30
0.0
 11
865.0
 21
-761.00055237328036
 31
0.0
  0
LINE
  5
108
  8
DIMNSIONS
  6
CONTINUOUS
 62
     7
 10
825.0
 20
-1116.00055237328
 30
0.0
 11
825.0
 21
-761.00055237328036
 31
0.0
  0
LINE
  5
109
  8
DIMNSIONS
  6
CONTINUOUS
 62
     7
 10
825.0
 20
-1116.00055237328
 30
0.0
 11
811.59920409699544
 21
-1065.9881012014059
 31
0.0
  0
LINE
  5
10A
  8
DIMNSIONS
  6
CONTINUOUS
 62
     7
 10
825.0
 20
-1116.00055237328
 30
0.0
 11
838.40079590300502
 21
-1065.9881012014059
 31
0.0
  0
LINE
  5
10B
  8
DIMNSIONS
  6
CONTINUOUS
 62
     7
 10
825.0
 20
-761.00055237328036
 30
0.0
 11
838.40079590300502
 21
-811.01300354515536
 31
0.0
  0
LINE
  5
10C
  8
DIMNSIONS
  6
CONTINUOUS
 62
     7
 10
825.0
 20
-761.00055237328036
 30
0.0
 11
811.59920409699544
 21
-811.01300354515536
 31
0.0
  0
TEXT
  5
10D
  8
DIMNSIONS
 62
     7
 10
805.12222222222215
 20
-991.41721903994721
 30
0.0
 40
48.506944444444407
  1
355
 50
90.0
 41
0.7
 11
756.61527777777769
 21
-991.41721903994721
 31
0.0
 73
     3
  0
LINE
  5
10E
  8
DIMNSIONS
  6
CONTINUOUS
 62
     7
 10
-423.21446299024348
 20
-761.00020770033075
 30
0.0
 11
140.0
 21
-761.00020770033075
 31
0.0
  0
LINE
  5
10F
  8
DIMNSIONS
  6
CONTINUOUS
 62
     7
 10
-70.049999999999983
 20
-1500.0005523732809
 30
0.0
 11
140.0
 21
-1500.0005523732809
 31
0.0
  0
LINE
  5
110
  8
DIMNSIONS
  6
CONTINUOUS
 62
     7
 10
100.0
 20
-761.00020770033075
 30
0.0
 11
100.0
 21
-1500.0005523732809
 31
0.0
  0
LINE
  5
111
  8
DIMNSIONS
  6
CONTINUOUS
 62
     7
 10
100.0
 20
-761.00020770033075
 30
0.0
 11
113.40079590300481
 21
-811.01265887220575
 31
0.0
  0
LINE
  5
112
  8
DIMNSIONS
  6
CONTINUOUS
 62
     7
 10
100.0
 20
-761.00020770033075
 30
0.0
 11
86.599204096995123
 21
-811.01265887220575
 31
0.0
  0
LINE
  5
113
  8
DIMNSIONS
  6
CONTINUOUS
 62
     7
 10
100.0
 20
-1500.0005523732809
 30
0.0
 11
86.599204096995123
 21
-1449.988101201405
 31
0.0
  0
LINE
  5
114
  8
DIMNSIONS
  6
CONTINUOUS
 62
     7
 10
100.0
 20
-1500.0005523732809
 30
0.0
 11
113.40079590300481
 21
-1449.988101201405
 31
0.0
  0
TEXT
  5
115
  8
DIMNSIONS
 62
     7
 10
80.122222222222177
 20
-1183.4170467034719
 30
0.0
 40
48.506944444444407
  1
739
 50
90.0
 41
0.7
 11
31.61527777777777
 21
-1183.4170467034719
 31
0.0
 73
     3
  0
TEXT
  5
116
  8
DATA
 62
     7
 10
1000.0
 20
-2161.3600000000001
 30
0.0
 40
48.865234375000007
  1
AM6215/64
 41
0.7
 11
1000.0
 21
-2112.4947656250001
 31
0.0
 73
     3
  0
TEXT
  5
117
  8
DATA
 62
     7
 10
1002.375
 20
-2029.6099999999999
 30
0.0
 40
48.865234375000007
  1
JBL
 41
0.7
 11
1002.375
 21
-1980.7447656249999
 31
0.0
 73
     3
  0
TEXT
  5
118
  8
DATA
 62
     7
 10
950.0
 20
-2086.4066666666658
 30
0.0
 40
32.576822916666671
  1
2WAYフルレンジラウドスピーカーシステム
 41
0.7
 11
950.0
 21
-2053.8298437499998
 31
0.0
 73
     3
  0
TEXT
  5
119
  8
DATA
 62
     7
 10
-1500.0
 20
-2308.1355149999999
 30
0.0
 40
32.576822916666671
  1
仕様および外観は予告なく変更されることがありますので、ご了承ください。
 41
0.7
 11
-1500.0
 21
-2275.558692083333
 31
0.0
 73
     3
  0
TEXT
  5
11A
  8
DATA
 62
     7
 10
-1151.3889104973759
 20
-1865.122222222222
 30
0.0
 40
54.2947048611111
  1
グリル付き
 41
0.7
 11
-1151.3889104973759
 21
-1810.8275173611109
 31
0.0
 73
     3
  0
LINE
  5
11B
  8
DATA
  6
CONTINUOUS
 62
     7
 10
-1177.139999999999
 20
-1470.5365523732801
 30
0.0
 11
-801.21999999999957
 21
-1470.5365523732801
 31
0.0
  0
LINE
  5
11C
  8
DATA
  6
CONTINUOUS
 62
     7
 10
-1200.0
 20
-1483.2365523732799
 30
0.0
 11
-778.36000000000001
 21
-1483.2365523732799
 31
0.0
  0
ARC
  5
11D
  8
DATA
  6
CONTINUOUS
 62
     7
 10
-1170.79
 20
-1374.77855237328
 30
0.0
 40
6.3499999999999117
 50
45.0
 51
180.0
  0
ARC
  5
11E
  8
DATA
  6
CONTINUOUS
 62
     7
 10
-1170.79
 20
-1463.6785523732799
 30
0.0
 40
6.3499999999994543
 50
180.0
 51
270.0
  0
ARC
  5
11F
  8
DATA
  6
CONTINUOUS
 62
     7
 10
-1081.8900000000001
 20
-1463.6785523732799
 30
0.0
 40
6.350000000000362
 50
270.0
 51
44.99999999999855
  0
LINE
  5
120
  8
DATA
  6
CONTINUOUS
 62
     7
 10
-1077.318
 20
-1459.3605523732799
 30
0.0
 11
-1166.217999999998
 21
-1370.4605523732801
 31
0.0
  0
LINE
  5
121
  8
DATA
  6
CONTINUOUS
 62
     7
 10
-1177.139999999999
 20
-1483.2365523732799
 30
0.0
 11
-1177.139999999999
 21
-1470.5365523732801
 31
0.0
  0
LINE
  5
122
  8
DATA
  6
CONTINUOUS
 62
     7
 10
-1177.139999999999
 20
-1374.77855237328
 30
0.0
 11
-1177.139999999999
 21
-1463.6785523732799
 31
0.0
  0
LINE
  5
123
  8
DATA
  6
CONTINUOUS
 62
     7
 10
-1170.79
 20
-1470.0285523732809
 30
0.0
 11
-1081.8900000000001
 21
-1470.0285523732809
 31
0.0
  0
LINE
  5
124
  8
DATA
  6
CONTINUOUS
 62
     7
 10
-811.88800000000003
 20
-1370.4605523732801
 30
0.0
 11
-900.78800000000001
 21
-1459.3605523732799
 31
0.0
  0
LINE
  5
125
  8
DATA
  6
CONTINUOUS
 62
     7
 10
-896.46999999999969
 20
-1470.0285523732809
 30
0.0
 11
-807.57000000000005
 21
-1470.0285523732809
 31
0.0
  0
ARC
  5
126
  8
DATA
  6
CONTINUOUS
 62
     7
 10
-896.46999999999969
 20
-1463.6785523732799
 30
0.0
 40
6.3500000000005548
 50
135.0000000000058
 51
270.0
  0
ARC
  5
127
  8
DATA
  6
CONTINUOUS
 62
     7
 10
-807.57000000000005
 20
-1374.77855237328
 30
0.0
 40
6.350000000000362
 50
0.0
 51
135.00000000000071
  0
ARC
  5
128
  8
DATA
  6
CONTINUOUS
 62
     7
 10
-807.57000000000005
 20
-1463.6785523732799
 30
0.0
 40
6.350000000000362
 50
270.0
 51
0.0
  0
LINE
  5
129
  8
DATA
  6
CONTINUOUS
 62
     7
 10
-801.21999999999957
 20
-1463.6785523732799
 30
0.0
 11
-801.21999999999957
 21
-1374.77855237328
 31
0.0
  0
LINE
  5
12A
  8
DATA
  6
CONTINUOUS
 62
     7
 10
-801.21999999999957
 20
-1483.2365523732799
 30
0.0
 11
-801.21999999999957
 21
-1470.5365523732801
 31
0.0
  0
LINE
  5
12B
  8
DATA
  6
CONTINUOUS
 62
     7
 10
-778.36000000000001
 20
-733.93655237328051
 30
0.0
 11
-1200.0
 21
-733.93655237328051
 31
0.0
  0
LINE
  5
12C
  8
DATA
  6
CONTINUOUS
 62
     7
 10
-1177.139999999999
 20
-746.63655237328032
 30
0.0
 11
-801.21999999999957
 21
-746.63655237328032
 31
0.0
  0
LINE
  5
12D
  8
DATA
  6
CONTINUOUS
 62
     7
 10
-1177.139999999999
 20
-746.63655237328032
 30
0.0
 11
-1177.139999999999
 21
-733.93655237328051
 31
0.0
  0
LINE
  5
12E
  8
DATA
  6
CONTINUOUS
 62
     7
 10
-801.21999999999957
 20
-746.63655237328032
 30
0.0
 11
-801.21999999999957
 21
-733.93655237328051
 31
0.0
  0
LINE
  5
12F
  8
DATA
  6
CONTINUOUS
 62
     7
 10
-545.13602160848745
 20
-1483.2365523732799
 30
0.0
 11
-545.13602160848745
 21
-733.93655237328051
 31
0.0
  0
LINE
  5
130
  8
DATA
  6
CONTINUOUS
 62
     7
 10
-600.00002160848703
 20
-1483.2365523732799
 30
0.0
 11
-545.13602160848745
 21
-1483.2365523732799
 31
0.0
  0
LINE
  5
131
  8
DATA
  6
CONTINUOUS
 62
     7
 10
-569.01202160848743
 20
-1483.2365523732799
 30
0.0
 11
-569.01202160848743
 21
-1470.5365523732801
 31
0.0
  0
LINE
  5
132
  8
DATA
  6
CONTINUOUS
 62
     7
 10
-592.63402160848705
 20
-1483.2365523732799
 30
0.0
 11
-592.63402160848705
 21
-1470.5365523732801
 31
0.0
  0
LINE
  5
133
  8
DATA
  6
CONTINUOUS
 62
     7
 10
-592.63402160848705
 20
-1470.5365523732801
 30
0.0
 11
-545.13602160848745
 21
-1470.5365523732801
 31
0.0
  0
LINE
  5
134
  8
DATA
  6
CONTINUOUS
 62
     7
 10
-545.13602160848745
 20
-733.93655237328051
 30
0.0
 11
-600.00002160848703
 21
-733.93655237328051
 31
0.0
  0
LINE
  5
135
  8
DATA
  6
CONTINUOUS
 62
     7
 10
-592.63402160848705
 20
-746.63655237328032
 30
0.0
 11
-545.13602160848745
 21
-746.63655237328032
 31
0.0
  0
LINE
  5
136
  8
DATA
  6
CONTINUOUS
 62
     7
 10
-569.01202160848743
 20
-746.63655237328032
 30
0.0
 11
-569.01202160848743
 21
-733.93655237328051
 31
0.0
  0
LINE
  5
137
  8
DATA
  6
CONTINUOUS
 62
     7
 10
-592.63402160848705
 20
-746.63655237328032
 30
0.0
 11
-592.63402160848705
 21
-733.93655237328051
 31
0.0
  0
CIRCLE
  5
138
  8
DATA
  6
CONTINUOUS
 62
     7
 10
-989.18000000000075
 20
-229.99055237328011
 30
0.0
 40
11.17600000000038
  0
LINE
  5
139
  8
DATA
  6
CONTINUOUS
 62
     7
 10
-986.38599999999997
 20
-228.21255237328009
 30
0.0
 11
-989.18000000000075
 21
-226.68855237328029
 31
0.0
  0
LINE
  5
13A
  8
DATA
  6
CONTINUOUS
 62
     7
 10
-991.97400000000061
 20
-231.76855237328019
 30
0.0
 11
-989.18000000000075
 21
-233.29255237327999
 31
0.0
  0
LINE
  5
13B
  8
DATA
  6
CONTINUOUS
 62
     7
 10
-989.18000000000075
 20
-233.29255237327999
 30
0.0
 11
-986.38599999999997
 21
-231.76855237328019
 31
0.0
  0
LINE
  5
13C
  8
DATA
  6
CONTINUOUS
 62
     7
 10
-989.18000000000075
 20
-226.68855237328029
 30
0.0
 11
-991.97400000000061
 21
-228.21255237328009
 31
0.0
  0
LINE
  5
13D
  8
DATA
  6
CONTINUOUS
 62
     7
 10
-986.38599999999997
 20
-231.76855237328019
 30
0.0
 11
-986.38599999999997
 21
-228.21255237328009
 31
0.0
  0
LINE
  5
13E
  8
DATA
  6
CONTINUOUS
 62
     7
 10
-991.97400000000061
 20
-228.21255237328009
 30
0.0
 11
-991.97400000000061
 21
-231.76855237328019
 31
0.0
  0
CIRCLE
  5
13F
  8
DATA
  6
CONTINUOUS
 62
     7
 10
-989.18000000000075
 20
-1.4000000000000039
 30
0.0
 40
11.17600000000038
  0
LINE
  5
140
  8
DATA
  6
CONTINUOUS
 62
     7
 10
-986.38599999999997
 20
0.3780000000000143
 30
0.0
 11
-989.18000000000075
 21
2.156000000000033
 31
0.0
  0
LINE
  5
141
  8
DATA
  6
CONTINUOUS
 62
     7
 10
-991.97400000000061
 20
-3.1780000000000239
 30
0.0
 11
-989.18000000000075
 21
-4.701999999999912
 31
0.0
  0
LINE
  5
142
  8
DATA
  6
CONTINUOUS
 62
     7
 10
-986.38599999999997
 20
-3.1780000000000239
 30
0.0
 11
-986.38599999999997
 21
0.3780000000000143
 31
0.0
  0
LINE
  5
143
  8
DATA
  6
CONTINUOUS
 62
     7
 10
-991.97400000000061
 20
0.3780000000000143
 30
0.0
 11
-991.97400000000061
 21
-3.1780000000000239
 31
0.0
  0
LINE
  5
144
  8
DATA
  6
CONTINUOUS
 62
     7
 10
-989.18000000000075
 20
-4.701999999999912
 30
0.0
 11
-986.38599999999997
 21
-3.1780000000000239
 31
0.0
  0
LINE
  5
145
  8
DATA
  6
CONTINUOUS
 62
     7
 10
-989.18000000000075
 20
2.156000000000033
 30
0.0
 11
-991.97400000000061
 21
0.3780000000000143
 31
0.0
  0
LINE
  5
146
  8
DATA
  6
CONTINUOUS
 62
     7
 10
323.44400000000041
 20
-1483.2365523732799
 30
0.0
 11
323.44400000000041
 21
-733.93655237328051
 31
0.0
  0
LINE
  5
147
  8
DATA
  6
CONTINUOUS
 62
     7
 10
323.44400000000041
 20
-1500.0005523732809
 30
0.0
 11
323.44400000000041
 21
-717.42655237328051
 31
0.0
  0
CIRCLE
  5
148
  8
DATA
  6
CONTINUOUS
 62
     7
 10
410.81999999999908
 20
-1458.0905523732799
 30
0.0
 40
11.17599999999902
  0
LINE
  5
149
  8
DATA
  6
CONTINUOUS
 62
     7
 10
413.61399999999918
 20
-1456.56655237328
 30
0.0
 11
410.81999999999908
 21
-1454.7885523732809
 31
0.0
  0
LINE
  5
14A
  8
DATA
  6
CONTINUOUS
 62
     7
 10
408.02599999999921
 20
-1459.86855237328
 30
0.0
 11
410.81999999999908
 21
-1461.64655237328
 31
0.0
  0
LINE
  5
14B
  8
DATA
  6
CONTINUOUS
 62
     7
 10
410.81999999999908
 20
-1461.64655237328
 30
0.0
 11
413.61399999999918
 21
-1459.86855237328
 31
0.0
  0
LINE
  5
14C
  8
DATA
  6
CONTINUOUS
 62
     7
 10
410.81999999999908
 20
-1454.7885523732809
 30
0.0
 11
408.02599999999921
 21
-1456.56655237328
 31
0.0
  0
LINE
  5
14D
  8
DATA
  6
CONTINUOUS
 62
     7
 10
413.61399999999918
 20
-1459.86855237328
 30
0.0
 11
413.61399999999918
 21
-1456.56655237328
 31
0.0
  0
LINE
  5
14E
  8
DATA
  6
CONTINUOUS
 62
     7
 10
408.02599999999921
 20
-1456.56655237328
 30
0.0
 11
408.02599999999921
 21
-1459.86855237328
 31
0.0
  0
CIRCLE
  5
14F
  8
DATA
  6
CONTINUOUS
 62
     7
 10
-1059.9738618601241
 20
-1442.5660538087591
 30
0.0
 40
4.0640000000001599
  0
CIRCLE
  5
150
  8
DATA
  6
CONTINUOUS
 62
     7
 10
-1059.9738618601241
 20
-1442.5660538087591
 30
0.0
 40
3.3020000000002541
  0
CIRCLE
  5
151
  8
DATA
  6
CONTINUOUS
 62
     7
 10
-818.26849856452111
 20
-1342.4484142334049
 30
0.0
 40
4.0640000000001599
  0
CIRCLE
  5
152
  8
DATA
  6
CONTINUOUS
 62
     7
 10
-818.26849856452111
 20
-1342.4484142334049
 30
0.0
 40
3.3019999999994121
  0
CIRCLE
  5
153
  8
DATA
  6
CONTINUOUS
 62
     7
 10
-918.41724115450643
 20
-1442.4909644890081
 30
0.0
 40
4.0639999999991447
  0
CIRCLE
  5
154
  8
DATA
  6
CONTINUOUS
 62
     7
 10
-918.41724115450643
 20
-1442.4909644890081
 30
0.0
 40
3.3019999999994121
  0
CIRCLE
  5
155
  8
DATA
  6
CONTINUOUS
 62
     7
 10
-989.18000000000075
 20
-1271.65455237328
 30
0.0
 40
55.879999999999988
  0
CIRCLE
  5
156
  8
DATA
  6
CONTINUOUS
 62
     7
 10
-989.18000000000075
 20
-1271.65455237328
 30
0.0
 40
161.79800000000029
  0
CIRCLE
  5
157
  8
DATA
  6
CONTINUOUS
 62
     7
 10
-989.18000000000075
 20
-1271.65455237328
 30
0.0
 40
166.8780000000003
  0
CIRCLE
  5
158
  8
DATA
  6
CONTINUOUS
 62
     7
 10
-989.18000000000075
 20
-1271.65455237328
 30
0.0
 40
171.9580000000004
  0
CIRCLE
  5
159
  8
DATA
  6
CONTINUOUS
 62
     7
 10
-1160.0915014354789
 20
-1200.860690513156
 30
0.0
 40
4.064000000000072
  0
CIRCLE
  5
15A
  8
DATA
  6
CONTINUOUS
 62
     7
 10
-1160.0915014354789
 20
-1200.860690513156
 30
0.0
 40
3.3020000000002541
  0
CIRCLE
  5
15B
  8
DATA
  6
CONTINUOUS
 62
     7
 10
-918.38613813987592
 20
-1100.7430509378021
 30
0.0
 40
4.0639999999992318
  0
CIRCLE
  5
15C
  8
DATA
  6
CONTINUOUS
 62
     7
 10
-918.38613813987592
 20
-1100.7430509378021
 30
0.0
 40
3.3019999999994121
  0
CIRCLE
  5
15D
  8
DATA
  6
CONTINUOUS
 62
     7
 10
-1059.9427588454939
 20
-1100.8181402575531
 30
0.0
 40
4.0640000000001599
  0
CIRCLE
  5
15E
  8
DATA
  6
CONTINUOUS
 62
     7
 10
-1059.9427588454939
 20
-1100.8181402575531
 30
0.0
 40
3.3020000000002541
  0
CIRCLE
  5
15F
  8
DATA
  6
CONTINUOUS
 62
     7
 10
-818.34358788427335
 20
-1200.8917935277871
 30
0.0
 40
4.064000000000072
  0
CIRCLE
  5
160
  8
DATA
  6
CONTINUOUS
 62
     7
 10
-818.34358788427335
 20
-1200.8917935277871
 30
0.0
 40
3.3020000000002541
  0
CIRCLE
  5
161
  8
DATA
  6
CONTINUOUS
 62
     7
 10
-1160.016412115727
 20
-1342.4173112187741
 30
0.0
 40
4.063999999999985
  0
CIRCLE
  5
162
  8
DATA
  6
CONTINUOUS
 62
     7
 10
-1160.016412115727
 20
-1342.4173112187741
 30
0.0
 40
3.3019999999994121
  0
CIRCLE
  5
163
  8
DATA
  6
CONTINUOUS
 62
     7
 10
-989.18000000000075
 20
-1271.65455237328
 30
0.0
 40
177.03800000000061
  0
CIRCLE
  5
164
  8
DATA
  6
CONTINUOUS
 62
     7
 10
-989.18000000000075
 20
-1271.65455237328
 30
0.0
 40
193.29400000000069
  0
LINE
  5
165
  8
DATA
  6
CONTINUOUS
 62
     7
 10
-563.93202160848739
 20
-1081.97751237328
 30
0.0
 11
-557.32802160848735
 21
-1081.97751237328
 31
0.0
  0
LINE
  5
166
  8
DATA
  6
CONTINUOUS
 62
     7
 10
-557.32802160848735
 20
-1077.0702323732801
 30
0.0
 11
-545.13602160848745
 21
-1077.0702323732801
 31
0.0
  0
LINE
  5
167
  8
DATA
  6
CONTINUOUS
 62
     7
 10
-557.32802160848735
 20
-1077.0702323732801
 30
0.0
 11
-557.32802160848735
 21
-1466.4522323732799
 31
0.0
  0
LINE
  5
168
  8
DATA
  6
CONTINUOUS
 62
     7
 10
-563.93202160848739
 20
-1081.97751237328
 30
0.0
 11
-564.18602160848764
 21
-1461.54495237328
 31
0.0
  0
LINE
  5
169
  8
DATA
  6
CONTINUOUS
 62
     7
 10
-564.18602160848764
 20
-1461.54495237328
 30
0.0
 11
-557.32802160848735
 21
-1461.54495237328
 31
0.0
  0
LINE
  5
16A
  8
DATA
  6
CONTINUOUS
 62
     7
 10
-557.32802160848735
 20
-1466.4522323732799
 30
0.0
 11
-545.13602160848745
 21
-1466.2388723732811
 31
0.0
  0
LINE
  5
16B
  8
DATA
  6
CONTINUOUS
 62
     7
 10
-545.13602160848745
 20
-1077.0702323732801
 30
0.0
 11
-545.13602160848745
 21
-1466.2388723732811
 31
0.0
  0
LINE
  5
16C
  8
DATA
  6
CONTINUOUS
 62
     7
 10
-976.22599999999989
 20
-929.51655237328032
 30
0.0
 11
-860.14800000000025
 21
-1041.5305523732809
 31
0.0
  0
LINE
  5
16D
  8
DATA
  6
CONTINUOUS
 62
     7
 10
-1002.134
 20
-929.51655237328032
 30
0.0
 11
-1118.212
 21
-1041.5305523732809
 31
0.0
  0
LINE
  5
16E
  8
DATA
  6
CONTINUOUS
 62
     7
 10
-976.22599999999989
 20
-901.57655237328038
 30
0.0
 11
-860.14800000000025
 21
-789.56255237328014
 31
0.0
  0
LINE
  5
16F
  8
DATA
  6
CONTINUOUS
 62
     7
 10
-1002.134
 20
-901.57655237328038
 30
0.0
 11
-1118.212
 21
-789.56255237328014
 31
0.0
  0
LINE
  5
170
  8
DATA
  6
CONTINUOUS
 62
     7
 10
-836.7800000000002
 20
-788.54655237328018
 30
0.0
 11
-836.7800000000002
 21
-1042.5465523732801
 31
0.0
  0
LINE
  5
171
  8
DATA
  6
CONTINUOUS
 62
     7
 10
-1116.180000000001
 20
-1067.9465523732799
 30
0.0
 11
-862.18000000000029
 21
-1067.9465523732799
 31
0.0
  0
LINE
  5
172
  8
DATA
  6
CONTINUOUS
 62
     7
 10
-1141.5799999999999
 20
-1042.5465523732801
 30
0.0
 11
-1141.5799999999999
 21
-788.54655237328018
 31
0.0
  0
LINE
  5
173
  8
DATA
  6
CONTINUOUS
 62
     7
 10
-1116.180000000001
 20
-763.14655237328054
 30
0.0
 11
-862.18000000000029
 21
-763.14655237328054
 31
0.0
  0
ARC
  5
174
  8
DATA
  6
CONTINUOUS
 62
     7
 10
-862.18000000000029
 20
-1042.5465523732801
 30
0.0
 40
25.400000000000091
 50
270.0
 51
0.0
  0
ARC
  5
175
  8
DATA
  6
CONTINUOUS
 62
     7
 10
-1116.180000000001
 20
-1042.5465523732801
 30
0.0
 40
25.399999999999181
 50
180.0
 51
270.0
  0
ARC
  5
176
  8
DATA
  6
CONTINUOUS
 62
     7
 10
-862.18000000000029
 20
-788.54655237328018
 30
0.0
 40
25.400000000000549
 50
0.0
 51
90.0
  0
ARC
  5
177
  8
DATA
  6
CONTINUOUS
 62
     7
 10
-1116.180000000001
 20
-788.54655237328018
 30
0.0
 40
25.39999999999986
 50
90.0
 51
180.0
  0
LINE
  5
178
  8
DATA
  6
CONTINUOUS
 62
     7
 10
-1089.51
 20
-1051.4365523732799
 30
0.0
 11
-888.8500000000007
 21
-1051.4365523732799
 31
0.0
  0
LINE
  5
179
  8
DATA
  6
CONTINUOUS
 62
     7
 10
-1089.51
 20
-779.65655237328053
 30
0.0
 11
-888.8500000000007
 21
-779.65655237328053
 31
0.0
  0
POLYLINE
  5
17A
  8
DATA
  6
CONTINUOUS
 62
     7
 66
     1
 10
0.0
 20
0.0
 30
0.0
 70
   128
  0
VERTEX
  5
CA1
  8
DATA
  6
CONTINUOUS
 62
     7
 10
-860.14800000000025
 20
-915.54655237327995
 30
0.0
  0
VERTEX
  5
CA2
  8
DATA
  6
CONTINUOUS
 62
     7
 10
-860.14800000000025
 20
-916.30855237328035
 30
0.0
  0
VERTEX
  5
CA3
  8
DATA
  6
CONTINUOUS
 62
     7
 10
-860.14800000000025
 20
-916.81655237328039
 30
0.0
  0
VERTEX
  5
CA4
  8
DATA
  6
CONTINUOUS
 62
     7
 10
-859.89400000000035
 20
-917.57855237328067
 30
0.0
  0
VERTEX
  5
CA5
  8
DATA
  6
CONTINUOUS
 62
     7
 10
-859.89400000000035
 20
-918.08655237328014
 30
0.0
  0
VERTEX
  5
CA6
  8
DATA
  6
CONTINUOUS
 62
     7
 10
-859.89400000000035
 20
-918.84855237328065
 30
0.0
  0
VERTEX
  5
CA7
  8
DATA
  6
CONTINUOUS
 62
     7
 10
-859.89400000000035
 20
-919.61055237328026
 30
0.0
  0
VERTEX
  5
CA8
  8
DATA
  6
CONTINUOUS
 62
     7
 10
-859.89400000000035
 20
-920.11855237328075
 30
0.0
  0
VERTEX
  5
CA9
  8
DATA
  6
CONTINUOUS
 62
     7
 10
-859.89400000000035
 20
-920.88055237328035
 30
0.0
  0
VERTEX
  5
CAA
  8
DATA
  6
CONTINUOUS
 62
     7
 10
-859.89400000000035
 20
-921.38855237328039
 30
0.0
  0
VERTEX
  5
CAB
  8
DATA
  6
CONTINUOUS
 62
     7
 10
-859.89400000000035
 20
-922.15055237328033
 30
0.0
  0
VERTEX
  5
CAC
  8
DATA
  6
CONTINUOUS
 62
     7
 10
-859.89400000000035
 20
-922.91255237328039
 30
0.0
  0
VERTEX
  5
CAD
  8
DATA
  6
CONTINUOUS
 62
     7
 10
-859.89400000000035
 20
-923.42055237328043
 30
0.0
  0
VERTEX
  5
CAE
  8
DATA
  6
CONTINUOUS
 62
     7
 10
-859.89400000000035
 20
-924.18255237328049
 30
0.0
  0
VERTEX
  5
CAF
  8
DATA
  6
CONTINUOUS
 62
     7
 10
-859.89400000000035
 20
-924.69055237328007
 30
0.0
  0
VERTEX
  5
CB0
  8
DATA
  6
CONTINUOUS
 62
     7
 10
-859.89400000000035
 20
-925.4525523732807
 30
0.0
  0
VERTEX
  5
CB1
  8
DATA
  6
CONTINUOUS
 62
     7
 10
-859.89400000000035
 20
-926.21455237328064
 30
0.0
  0
VERTEX
  5
CB2
  8
DATA
  6
CONTINUOUS
 62
     7
 10
-859.64000000000044
 20
-926.72255237328022
 30
0.0
  0
VERTEX
  5
CB3
  8
DATA
  6
CONTINUOUS
 62
     7
 10
-859.64000000000044
 20
-927.48455237328028
 30
0.0
  0
VERTEX
  5
CB4
  8
DATA
  6
CONTINUOUS
 62
     7
 10
-859.64000000000044
 20
-927.99255237328032
 30
0.0
  0
VERTEX
  5
CB5
  8
DATA
  6
CONTINUOUS
 62
     7
 10
-859.64000000000044
 20
-928.7545523732806
 30
0.0
  0
VERTEX
  5
CB6
  8
DATA
  6
CONTINUOUS
 62
     7
 10
-859.64000000000044
 20
-929.51655237328032
 30
0.0
  0
VERTEX
  5
CB7
  8
DATA
  6
CONTINUOUS
 62
     7
 10
-859.64000000000044
 20
-930.02455237328024
 30
0.0
  0
VERTEX
  5
CB8
  8
DATA
  6
CONTINUOUS
 62
     7
 10
-859.64000000000044
 20
-930.78655237328019
 30
0.0
  0
VERTEX
  5
CB9
  8
DATA
  6
CONTINUOUS
 62
     7
 10
-859.64000000000044
 20
-931.29455237328034
 30
0.0
  0
VERTEX
  5
CBA
  8
DATA
  6
CONTINUOUS
 62
     7
 10
-859.38600000000065
 20
-932.05655237328028
 30
0.0
  0
VERTEX
  5
CBB
  8
DATA
  6
CONTINUOUS
 62
     7
 10
-859.38600000000065
 20
-932.81855237328068
 30
0.0
  0
VERTEX
  5
CBC
  8
DATA
  6
CONTINUOUS
 62
     7
 10
-859.38600000000065
 20
-933.32655237328049
 30
0.0
  0
VERTEX
  5
CBD
  8
DATA
  6
CONTINUOUS
 62
     7
 10
-859.38600000000065
 20
-934.08855237328032
 30
0.0
  0
VERTEX
  5
CBE
  8
DATA
  6
CONTINUOUS
 62
     7
 10
-859.38600000000065
 20
-934.59655237328036
 30
0.0
  0
VERTEX
  5
CBF
  8
DATA
  6
CONTINUOUS
 62
     7
 10
-859.38600000000065
 20
-935.35855237328065
 30
0.0
  0
VERTEX
  5
CC0
  8
DATA
  6
CONTINUOUS
 62
     7
 10
-859.38600000000065
 20
-936.12055237328036
 30
0.0
  0
VERTEX
  5
CC1
  8
DATA
  6
CONTINUOUS
 62
     7
 10
-859.13199999999972
 20
-936.62855237328017
 30
0.0
  0
VERTEX
  5
CC2
  8
DATA
  6
CONTINUOUS
 62
     7
 10
-859.13199999999972
 20
-937.39055237328034
 30
0.0
  0
VERTEX
  5
CC3
  8
DATA
  6
CONTINUOUS
 62
     7
 10
-859.13199999999972
 20
-937.89855237328061
 30
0.0
  0
VERTEX
  5
CC4
  8
DATA
  6
CONTINUOUS
 62
     7
 10
-859.13199999999972
 20
-938.66055237328044
 30
0.0
  0
VERTEX
  5
CC5
  8
DATA
  6
CONTINUOUS
 62
     7
 10
-859.13199999999972
 20
-939.16855237328025
 30
0.0
  0
VERTEX
  5
CC6
  8
DATA
  6
CONTINUOUS
 62
     7
 10
-859.13199999999972
 20
-939.93055237328019
 30
0.0
  0
VERTEX
  5
CC7
  8
DATA
  6
CONTINUOUS
 62
     7
 10
-859.13199999999972
 20
-940.69255237328025
 30
0.0
  0
VERTEX
  5
CC8
  8
DATA
  6
CONTINUOUS
 62
     7
 10
-858.87799999999982
 20
-941.20055237328029
 30
0.0
  0
VERTEX
  5
CC9
  8
DATA
  6
CONTINUOUS
 62
     7
 10
-858.87799999999982
 20
-941.96255237328023
 30
0.0
  0
VERTEX
  5
CCA
  8
DATA
  6
CONTINUOUS
 62
     7
 10
-858.87799999999982
 20
-942.47055237328038
 30
0.0
  0
VERTEX
  5
CCB
  8
DATA
  6
CONTINUOUS
 62
     7
 10
-858.87799999999982
 20
-943.23255237328033
 30
0.0
  0
VERTEX
  5
CCC
  8
DATA
  6
CONTINUOUS
 62
     7
 10
-858.87799999999982
 20
-943.99455237328061
 30
0.0
  0
VERTEX
  5
CCD
  8
DATA
  6
CONTINUOUS
 62
     7
 10
-858.62400000000014
 20
-944.50255237328065
 30
0.0
  0
VERTEX
  5
CCE
  8
DATA
  6
CONTINUOUS
 62
     7
 10
-858.62400000000014
 20
-945.26455237328025
 30
0.0
  0
VERTEX
  5
CCF
  8
DATA
  6
CONTINUOUS
 62
     7
 10
-858.62400000000014
 20
-945.77255237328063
 30
0.0
  0
VERTEX
  5
CD0
  8
DATA
  6
CONTINUOUS
 62
     7
 10
-858.62400000000014
 20
-946.53455237328035
 30
0.0
  0
VERTEX
  5
CD1
  8
DATA
  6
CONTINUOUS
 62
     7
 10
-858.62400000000014
 20
-947.29655237328029
 30
0.0
  0
VERTEX
  5
CD2
  8
DATA
  6
CONTINUOUS
 62
     7
 10
-858.62400000000014
 20
-947.80455237328022
 30
0.0
  0
VERTEX
  5
CD3
  8
DATA
  6
CONTINUOUS
 62
     7
 10
-858.37000000000023
 20
-948.56655237328016
 30
0.0
  0
VERTEX
  5
CD4
  8
DATA
  6
CONTINUOUS
 62
     7
 10
-858.37000000000023
 20
-949.07455237328031
 30
0.0
  0
VERTEX
  5
CD5
  8
DATA
  6
CONTINUOUS
 62
     7
 10
-858.37000000000023
 20
-949.83655237328037
 30
0.0
  0
VERTEX
  5
CD6
  8
DATA
  6
CONTINUOUS
 62
     7
 10
-858.37000000000023
 20
-950.59855237328065
 30
0.0
  0
VERTEX
  5
CD7
  8
DATA
  6
CONTINUOUS
 62
     7
 10
-858.37000000000023
 20
-951.10655237328081
 30
0.0
  0
VERTEX
  5
CD8
  8
DATA
  6
CONTINUOUS
 62
     7
 10
-858.11600000000044
 20
-951.86855237328064
 30
0.0
  0
VERTEX
  5
CD9
  8
DATA
  6
CONTINUOUS
 62
     7
 10
-858.11600000000044
 20
-952.37655237328067
 30
0.0
  0
VERTEX
  5
CDA
  8
DATA
  6
CONTINUOUS
 62
     7
 10
-858.11600000000044
 20
-953.13855237328062
 30
0.0
  0
VERTEX
  5
CDB
  8
DATA
  6
CONTINUOUS
 62
     7
 10
-858.11600000000044
 20
-953.64655237328066
 30
0.0
  0
VERTEX
  5
CDC
  8
DATA
  6
CONTINUOUS
 62
     7
 10
-858.11600000000044
 20
-954.40855237328049
 30
0.0
  0
VERTEX
  5
CDD
  8
DATA
  6
CONTINUOUS
 62
     7
 10
-857.86200000000019
 20
-955.17055237328032
 30
0.0
  0
VERTEX
  5
CDE
  8
DATA
  6
CONTINUOUS
 62
     7
 10
-857.86200000000019
 20
-955.67855237328035
 30
0.0
  0
VERTEX
  5
CDF
  8
DATA
  6
CONTINUOUS
 62
     7
 10
-857.86200000000019
 20
-956.4405523732803
 30
0.0
  0
VERTEX
  5
CE0
  8
DATA
  6
CONTINUOUS
 62
     7
 10
-857.86200000000019
 20
-956.94855237328034
 30
0.0
  0
VERTEX
  5
CE1
  8
DATA
  6
CONTINUOUS
 62
     7
 10
-857.86200000000019
 20
-957.71055237328005
 30
0.0
  0
VERTEX
  5
CE2
  8
DATA
  6
CONTINUOUS
 62
     7
 10
-857.60800000000017
 20
-958.47255237328068
 30
0.0
  0
VERTEX
  5
CE3
  8
DATA
  6
CONTINUOUS
 62
     7
 10
-857.60800000000017
 20
-958.98055237328037
 30
0.0
  0
VERTEX
  5
CE4
  8
DATA
  6
CONTINUOUS
 62
     7
 10
-857.60800000000017
 20
-959.74255237328066
 30
0.0
  0
VERTEX
  5
CE5
  8
DATA
  6
CONTINUOUS
 62
     7
 10
-857.60800000000017
 20
-960.25055237328036
 30
0.0
  0
VERTEX
  5
CE6
  8
DATA
  6
CONTINUOUS
 62
     7
 10
-857.35400000000061
 20
-961.01255237328064
 30
0.0
  0
VERTEX
  5
CE7
  8
DATA
  6
CONTINUOUS
 62
     7
 10
-857.35400000000061
 20
-961.77455237328036
 30
0.0
  0
VERTEX
  5
CE8
  8
DATA
  6
CONTINUOUS
 62
     7
 10
-857.35400000000061
 20
-962.28255237328074
 30
0.0
  0
VERTEX
  5
CE9
  8
DATA
  6
CONTINUOUS
 62
     7
 10
-857.35400000000061
 20
-963.04455237328023
 30
0.0
  0
VERTEX
  5
CEA
  8
DATA
  6
CONTINUOUS
 62
     7
 10
-857.35400000000061
 20
-963.55255237328049
 30
0.0
  0
VERTEX
  5
CEB
  8
DATA
  6
CONTINUOUS
 62
     7
 10
-857.10000000000082
 20
-964.31455237328032
 30
0.0
  0
VERTEX
  5
CEC
  8
DATA
  6
CONTINUOUS
 62
     7
 10
-856.84599999999989
 20
-968.88655237328021
 30
0.0
  0
VERTEX
  5
CED
  8
DATA
  6
CONTINUOUS
 62
     7
 10
-856.59199999999998
 20
-970.15655237328065
 30
0.0
  0
VERTEX
  5
CEE
  8
DATA
  6
CONTINUOUS
 62
     7
 10
-856.59199999999998
 20
-970.91855237328036
 30
0.0
  0
VERTEX
  5
CEF
  8
DATA
  6
CONTINUOUS
 62
     7
 10
-856.59199999999998
 20
-971.42655237328029
 30
0.0
  0
VERTEX
  5
CF0
  8
DATA
  6
CONTINUOUS
 62
     7
 10
-856.59199999999998
 20
-972.18855237328034
 30
0.0
  0
VERTEX
  5
CF1
  8
DATA
  6
CONTINUOUS
 62
     7
 10
-856.59199999999998
 20
-972.95055237327995
 30
0.0
  0
VERTEX
  5
CF2
  8
DATA
  6
CONTINUOUS
 62
     7
 10
-856.33799999999985
 20
-973.45855237328033
 30
0.0
  0
VERTEX
  5
CF3
  8
DATA
  6
CONTINUOUS
 62
     7
 10
-856.33799999999985
 20
-974.22055237328038
 30
0.0
  0
VERTEX
  5
CF4
  8
DATA
  6
CONTINUOUS
 62
     7
 10
-856.33799999999985
 20
-974.72855237328019
 30
0.0
  0
VERTEX
  5
CF5
  8
DATA
  6
CONTINUOUS
 62
     7
 10
-856.33799999999985
 20
-975.49055237328014
 30
0.0
  0
VERTEX
  5
CF6
  8
DATA
  6
CONTINUOUS
 62
     7
 10
-856.33799999999985
 20
-976.25255237328065
 30
0.0
  0
VERTEX
  5
CF7
  8
DATA
  6
CONTINUOUS
 62
     7
 10
-856.08400000000017
 20
-976.76055237328069
 30
0.0
  0
VERTEX
  5
CF8
  8
DATA
  6
CONTINUOUS
 62
     7
 10
-856.08400000000017
 20
-977.52255237328075
 30
0.0
  0
VERTEX
  5
CF9
  8
DATA
  6
CONTINUOUS
 62
     7
 10
-856.08400000000017
 20
-978.03055237328033
 30
0.0
  0
VERTEX
  5
CFA
  8
DATA
  6
CONTINUOUS
 62
     7
 10
-856.08400000000017
 20
-978.79255237328039
 30
0.0
  0
VERTEX
  5
CFB
  8
DATA
  6
CONTINUOUS
 62
     7
 10
-855.83000000000004
 20
-979.30055237328065
 30
0.0
  0
VERTEX
  5
CFC
  8
DATA
  6
CONTINUOUS
 62
     7
 10
-855.83000000000004
 20
-980.0625523732806
 30
0.0
  0
VERTEX
  5
CFD
  8
DATA
  6
CONTINUOUS
 62
     7
 10
-855.83000000000004
 20
-980.82455237328043
 30
0.0
  0
VERTEX
  5
CFE
  8
DATA
  6
CONTINUOUS
 62
     7
 10
-855.83000000000004
 20
-981.33255237328035
 30
0.0
  0
VERTEX
  5
CFF
  8
DATA
  6
CONTINUOUS
 62
     7
 10
-855.83000000000004
 20
-982.09455237328007
 30
0.0
  0
VERTEX
  5
D00
  8
DATA
  6
CONTINUOUS
 62
     7
 10
-855.57600000000014
 20
-982.60255237328045
 30
0.0
  0
VERTEX
  5
D01
  8
DATA
  6
CONTINUOUS
 62
     7
 10
-855.57600000000014
 20
-983.36455237328028
 30
0.0
  0
VERTEX
  5
D02
  8
DATA
  6
CONTINUOUS
 62
     7
 10
-855.57600000000014
 20
-984.12655237328022
 30
0.0
  0
VERTEX
  5
D03
  8
DATA
  6
CONTINUOUS
 62
     7
 10
-855.57600000000014
 20
-984.63455237328037
 30
0.0
  0
VERTEX
  5
D04
  8
DATA
  6
CONTINUOUS
 62
     7
 10
-855.57600000000014
 20
-985.39655237328066
 30
0.0
  0
VERTEX
  5
D05
  8
DATA
  6
CONTINUOUS
 62
     7
 10
-855.32200000000034
 20
-985.90455237328013
 30
0.0
  0
VERTEX
  5
D06
  8
DATA
  6
CONTINUOUS
 62
     7
 10
-855.32200000000034
 20
-986.66655237328041
 30
0.0
  0
VERTEX
  5
D07
  8
DATA
  6
CONTINUOUS
 62
     7
 10
-855.32200000000034
 20
-987.42855237328035
 30
0.0
  0
VERTEX
  5
D08
  8
DATA
  6
CONTINUOUS
 62
     7
 10
-855.32200000000034
 20
-987.93655237328062
 30
0.0
  0
VERTEX
  5
D09
  8
DATA
  6
CONTINUOUS
 62
     7
 10
-855.32200000000034
 20
-988.69855237328034
 30
0.0
  0
VERTEX
  5
D0A
  8
DATA
  6
CONTINUOUS
 62
     7
 10
-855.32200000000034
 20
-989.20655237328083
 30
0.0
  0
VERTEX
  5
D0B
  8
DATA
  6
CONTINUOUS
 62
     7
 10
-855.06800000000055
 20
-989.9685523732802
 30
0.0
  0
VERTEX
  5
D0C
  8
DATA
  6
CONTINUOUS
 62
     7
 10
-855.06800000000055
 20
-990.73055237328049
 30
0.0
  0
VERTEX
  5
D0D
  8
DATA
  6
CONTINUOUS
 62
     7
 10
-855.06800000000055
 20
-991.2385523732803
 30
0.0
  0
VERTEX
  5
D0E
  8
DATA
  6
CONTINUOUS
 62
     7
 10
-855.06800000000055
 20
-992.00055237328036
 30
0.0
  0
VERTEX
  5
D0F
  8
DATA
  6
CONTINUOUS
 62
     7
 10
-855.06800000000055
 20
-992.50855237328005
 30
0.0
  0
VERTEX
  5
D10
  8
DATA
  6
CONTINUOUS
 62
     7
 10
-855.06800000000055
 20
-993.27055237328034
 30
0.0
  0
VERTEX
  5
D11
  8
DATA
  6
CONTINUOUS
 62
     7
 10
-854.81400000000065
 20
-994.03255237328062
 30
0.0
  0
VERTEX
  5
D12
  8
DATA
  6
CONTINUOUS
 62
     7
 10
-854.81400000000065
 20
-994.54055237328032
 30
0.0
  0
VERTEX
  5
D13
  8
DATA
  6
CONTINUOUS
 62
     7
 10
-854.81400000000065
 20
-995.30255237328061
 30
0.0
  0
VERTEX
  5
D14
  8
DATA
  6
CONTINUOUS
 62
     7
 10
-854.81400000000065
 20
-995.81055237328064
 30
0.0
  0
VERTEX
  5
D15
  8
DATA
  6
CONTINUOUS
 62
     7
 10
-854.81400000000065
 20
-996.57255237328025
 30
0.0
  0
VERTEX
  5
D16
  8
DATA
  6
CONTINUOUS
 62
     7
 10
-854.81400000000065
 20
-997.08055237328063
 30
0.0
  0
VERTEX
  5
D17
  8
DATA
  6
CONTINUOUS
 62
     7
 10
-854.55999999999983
 20
-997.84255237328045
 30
0.0
  0
VERTEX
  5
D18
  8
DATA
  6
CONTINUOUS
 62
     7
 10
-854.55999999999983
 20
-998.60455237328028
 30
0.0
  0
VERTEX
  5
D19
  8
DATA
  6
CONTINUOUS
 62
     7
 10
-854.55999999999983
 20
-999.11255237328032
 30
0.0
  0
VERTEX
  5
D1A
  8
DATA
  6
CONTINUOUS
 62
     7
 10
-854.55999999999983
 20
-999.87455237328061
 30
0.0
  0
VERTEX
  5
D1B
  8
DATA
  6
CONTINUOUS
 62
     7
 10
-854.55999999999983
 20
-1000.38255237328
 30
0.0
  0
VERTEX
  5
D1C
  8
DATA
  6
CONTINUOUS
 62
     7
 10
-854.55999999999983
 20
-1001.144552373281
 30
0.0
  0
VERTEX
  5
D1D
  8
DATA
  6
CONTINUOUS
 62
     7
 10
-854.55999999999983
 20
-1001.90655237328
 30
0.0
  0
VERTEX
  5
D1E
  8
DATA
  6
CONTINUOUS
 62
     7
 10
-854.30599999999981
 20
-1002.414552373281
 30
0.0
  0
VERTEX
  5
D1F
  8
DATA
  6
CONTINUOUS
 62
     7
 10
-854.30599999999981
 20
-1003.1765523732799
 30
0.0
  0
VERTEX
  5
D20
  8
DATA
  6
CONTINUOUS
 62
     7
 10
-854.30599999999981
 20
-1003.684552373281
 30
0.0
  0
VERTEX
  5
D21
  8
DATA
  6
CONTINUOUS
 62
     7
 10
-854.30599999999981
 20
-1004.446552373281
 30
0.0
  0
VERTEX
  5
D22
  8
DATA
  6
CONTINUOUS
 62
     7
 10
-854.30599999999981
 20
-1005.20855237328
 30
0.0
  0
VERTEX
  5
D23
  8
DATA
  6
CONTINUOUS
 62
     7
 10
-854.30599999999981
 20
-1005.71655237328
 30
0.0
  0
VERTEX
  5
D24
  8
DATA
  6
CONTINUOUS
 62
     7
 10
-854.30599999999981
 20
-1006.47855237328
 30
0.0
  0
VERTEX
  5
D25
  8
DATA
  6
CONTINUOUS
 62
     7
 10
-854.30599999999981
 20
-1006.98655237328
 30
0.0
  0
VERTEX
  5
D26
  8
DATA
  6
CONTINUOUS
 62
     7
 10
-854.30599999999981
 20
-1007.7485523732799
 30
0.0
  0
VERTEX
  5
D27
  8
DATA
  6
CONTINUOUS
 62
     7
 10
-854.05200000000002
 20
-1008.510552373281
 30
0.0
  0
VERTEX
  5
D28
  8
DATA
  6
CONTINUOUS
 62
     7
 10
-854.05200000000002
 20
-1009.01855237328
 30
0.0
  0
VERTEX
  5
D29
  8
DATA
  6
CONTINUOUS
 62
     7
 10
-854.05200000000002
 20
-1009.780552373281
 30
0.0
  0
VERTEX
  5
D2A
  8
DATA
  6
CONTINUOUS
 62
     7
 10
-854.05200000000002
 20
-1010.28855237328
 30
0.0
  0
VERTEX
  5
D2B
  8
DATA
  6
CONTINUOUS
 62
     7
 10
-854.05200000000002
 20
-1011.050552373281
 30
0.0
  0
VERTEX
  5
D2C
  8
DATA
  6
CONTINUOUS
 62
     7
 10
-854.05200000000002
 20
-1011.81255237328
 30
0.0
  0
VERTEX
  5
D2D
  8
DATA
  6
CONTINUOUS
 62
     7
 10
-854.05200000000002
 20
-1012.320552373281
 30
0.0
  0
VERTEX
  5
D2E
  8
DATA
  6
CONTINUOUS
 62
     7
 10
-854.05200000000002
 20
-1013.082552373281
 30
0.0
  0
VERTEX
  5
D2F
  8
DATA
  6
CONTINUOUS
 62
     7
 10
-854.05200000000002
 20
-1013.59055237328
 30
0.0
  0
VERTEX
  5
D30
  8
DATA
  6
CONTINUOUS
 62
     7
 10
-854.05200000000002
 20
-1014.352552373281
 30
0.0
  0
VERTEX
  5
D31
  8
DATA
  6
CONTINUOUS
 62
     7
 10
-854.05200000000002
 20
-1015.11455237328
 30
0.0
  0
VERTEX
  5
D32
  8
DATA
  6
CONTINUOUS
 62
     7
 10
-853.79800000000012
 20
-1015.62255237328
 30
0.0
  0
VERTEX
  5
D33
  8
DATA
  6
CONTINUOUS
 62
     7
 10
-853.79800000000012
 20
-1016.38455237328
 30
0.0
  0
VERTEX
  5
D34
  8
DATA
  6
CONTINUOUS
 62
     7
 10
-853.79800000000012
 20
-1016.89255237328
 30
0.0
  0
VERTEX
  5
D35
  8
DATA
  6
CONTINUOUS
 62
     7
 10
-853.79800000000012
 20
-1017.65455237328
 30
0.0
  0
VERTEX
  5
D36
  8
DATA
  6
CONTINUOUS
 62
     7
 10
-853.79800000000012
 20
-1018.41655237328
 30
0.0
  0
VERTEX
  5
D37
  8
DATA
  6
CONTINUOUS
 62
     7
 10
-853.79800000000012
 20
-1018.92455237328
 30
0.0
  0
VERTEX
  5
D38
  8
DATA
  6
CONTINUOUS
 62
     7
 10
-853.79800000000012
 20
-1019.6865523732801
 30
0.0
  0
VERTEX
  5
D39
  8
DATA
  6
CONTINUOUS
 62
     7
 10
-853.79800000000012
 20
-1020.19455237328
 30
0.0
  0
VERTEX
  5
D3A
  8
DATA
  6
CONTINUOUS
 62
     7
 10
-853.79800000000012
 20
-1020.95655237328
 30
0.0
  0
VERTEX
  5
D3B
  8
DATA
  6
CONTINUOUS
 62
     7
 10
-853.79800000000012
 20
-1021.71855237328
 30
0.0
  0
VERTEX
  5
D3C
  8
DATA
  6
CONTINUOUS
 62
     7
 10
-853.79800000000012
 20
-1022.22655237328
 30
0.0
  0
VERTEX
  5
D3D
  8
DATA
  6
CONTINUOUS
 62
     7
 10
-853.79800000000012
 20
-1022.98855237328
 30
0.0
  0
VERTEX
  5
D3E
  8
DATA
  6
CONTINUOUS
 62
     7
 10
-853.79800000000012
 20
-1023.496552373281
 30
0.0
  0
VERTEX
  5
D3F
  8
DATA
  6
CONTINUOUS
 62
     7
 10
-853.79800000000012
 20
-1024.2585523732801
 30
0.0
  0
VERTEX
  5
D40
  8
DATA
  6
CONTINUOUS
 62
     7
 10
-854.05200000000002
 20
-1025.02055237328
 30
0.0
  0
VERTEX
  5
D41
  8
DATA
  6
CONTINUOUS
 62
     7
 10
-854.05200000000002
 20
-1025.52855237328
 30
0.0
  0
VERTEX
  5
D42
  8
DATA
  6
CONTINUOUS
 62
     7
 10
-854.05200000000002
 20
-1026.29055237328
 30
0.0
  0
VERTEX
  5
D43
  8
DATA
  6
CONTINUOUS
 62
     7
 10
-854.05200000000002
 20
-1026.79855237328
 30
0.0
  0
VERTEX
  5
D44
  8
DATA
  6
CONTINUOUS
 62
     7
 10
-854.30599999999981
 20
-1027.56055237328
 30
0.0
  0
VERTEX
  5
D45
  8
DATA
  6
CONTINUOUS
 62
     7
 10
-854.30599999999981
 20
-1028.06855237328
 30
0.0
  0
VERTEX
  5
D46
  8
DATA
  6
CONTINUOUS
 62
     7
 10
-854.30599999999981
 20
-1028.8305523732799
 30
0.0
  0
VERTEX
  5
D47
  8
DATA
  6
CONTINUOUS
 62
     7
 10
-854.55999999999983
 20
-1029.5925523732799
 30
0.0
  0
VERTEX
  5
D48
  8
DATA
  6
CONTINUOUS
 62
     7
 10
-854.55999999999983
 20
-1030.1005523732799
 30
0.0
  0
VERTEX
  5
D49
  8
DATA
  6
CONTINUOUS
 62
     7
 10
-854.81400000000065
 20
-1030.8625523732801
 30
0.0
  0
VERTEX
  5
D4A
  8
DATA
  6
CONTINUOUS
 62
     7
 10
-854.81400000000065
 20
-1031.3705523732799
 30
0.0
  0
VERTEX
  5
D4B
  8
DATA
  6
CONTINUOUS
 62
     7
 10
-855.06800000000055
 20
-1032.1325523732801
 30
0.0
  0
VERTEX
  5
D4C
  8
DATA
  6
CONTINUOUS
 62
     7
 10
-855.32200000000034
 20
-1032.6405523732799
 30
0.0
  0
VERTEX
  5
D4D
  8
DATA
  6
CONTINUOUS
 62
     7
 10
-855.57600000000014
 20
-1033.4025523732801
 30
0.0
  0
VERTEX
  5
D4E
  8
DATA
  6
CONTINUOUS
 62
     7
 10
-855.57600000000014
 20
-1033.9105523732801
 30
0.0
  0
VERTEX
  5
D4F
  8
DATA
  6
CONTINUOUS
 62
     7
 10
-855.83000000000004
 20
-1034.4185523732799
 30
0.0
  0
VERTEX
  5
D50
  8
DATA
  6
CONTINUOUS
 62
     7
 10
-856.08400000000017
 20
-1035.1805523732801
 30
0.0
  0
VERTEX
  5
D51
  8
DATA
  6
CONTINUOUS
 62
     7
 10
-856.33799999999985
 20
-1035.6885523732799
 30
0.0
  0
VERTEX
  5
D52
  8
DATA
  6
CONTINUOUS
 62
     7
 10
-856.59199999999998
 20
-1036.4505523732801
 30
0.0
  0
VERTEX
  5
D53
  8
DATA
  6
CONTINUOUS
 62
     7
 10
-857.10000000000082
 20
-1036.9585523732801
 30
0.0
  0
VERTEX
  5
D54
  8
DATA
  6
CONTINUOUS
 62
     7
 10
-857.35400000000061
 20
-1037.4665523732799
 30
0.0
  0
VERTEX
  5
D55
  8
DATA
  6
CONTINUOUS
 62
     7
 10
-857.60800000000017
 20
-1037.9745523732799
 30
0.0
  0
VERTEX
  5
D56
  8
DATA
  6
CONTINUOUS
 62
     7
 10
-857.86200000000019
 20
-1038.7365523732799
 30
0.0
  0
VERTEX
  5
D57
  8
DATA
  6
CONTINUOUS
 62
     7
 10
-858.37000000000023
 20
-1039.2445523732799
 30
0.0
  0
VERTEX
  5
D58
  8
DATA
  6
CONTINUOUS
 62
     7
 10
-858.62400000000014
 20
-1039.75255237328
 30
0.0
  0
VERTEX
  5
D59
  8
DATA
  6
CONTINUOUS
 62
     7
 10
-859.13199999999972
 20
-1040.2605523732809
 30
0.0
  0
VERTEX
  5
D5A
  8
DATA
  6
CONTINUOUS
 62
     7
 10
-859.38600000000065
 20
-1040.76855237328
 30
0.0
  0
VERTEX
  5
D5B
  8
DATA
  6
CONTINUOUS
 62
     7
 10
-859.89400000000035
 20
-1041.2765523732801
 30
0.0
  0
VERTEX
  5
D5C
  8
DATA
  6
CONTINUOUS
 62
     7
 10
-860.14800000000025
 20
-1041.7845523732799
 30
0.0
  0
VERTEX
  5
D5D
  8
DATA
  6
CONTINUOUS
 62
     7
 10
-860.65600000000029
 20
-1042.2925523732799
 30
0.0
  0
VERTEX
  5
D5E
  8
DATA
  6
CONTINUOUS
 62
     7
 10
-861.1640000000001
 20
-1042.8005523732811
 30
0.0
  0
VERTEX
  5
D5F
  8
DATA
  6
CONTINUOUS
 62
     7
 10
-861.41800000000012
 20
-1043.30855237328
 30
0.0
  0
VERTEX
  5
D60
  8
DATA
  6
CONTINUOUS
 62
     7
 10
-861.92599999999982
 20
-1043.81655237328
 30
0.0
  0
VERTEX
  5
D61
  8
DATA
  6
CONTINUOUS
 62
     7
 10
-862.43400000000031
 20
-1044.07055237328
 30
0.0
  0
VERTEX
  5
D62
  8
DATA
  6
CONTINUOUS
 62
     7
 10
-862.94200000000035
 20
-1044.57855237328
 30
0.0
  0
VERTEX
  5
D63
  8
DATA
  6
CONTINUOUS
 62
     7
 10
-863.45000000000005
 20
-1045.08655237328
 30
0.0
  0
VERTEX
  5
D64
  8
DATA
  6
CONTINUOUS
 62
     7
 10
-863.95799999999986
 20
-1045.5945523732801
 30
0.0
  0
VERTEX
  5
D65
  8
DATA
  6
CONTINUOUS
 62
     7
 10
-864.4660000000008
 20
-1045.84855237328
 30
0.0
  0
VERTEX
  5
D66
  8
DATA
  6
CONTINUOUS
 62
     7
 10
-864.97400000000039
 20
-1046.35655237328
 30
0.0
  0
VERTEX
  5
D67
  8
DATA
  6
CONTINUOUS
 62
     7
 10
-865.4820000000002
 20
-1046.6105523732799
 30
0.0
  0
VERTEX
  5
D68
  8
DATA
  6
CONTINUOUS
 62
     7
 10
-865.99000000000024
 20
-1047.11855237328
 30
0.0
  0
VERTEX
  5
D69
  8
DATA
  6
CONTINUOUS
 62
     7
 10
-866.49799999999982
 20
-1047.3725523732801
 30
0.0
  0
VERTEX
  5
D6A
  8
DATA
  6
CONTINUOUS
 62
     7
 10
-867.00600000000065
 20
-1047.6265523732809
 30
0.0
  0
VERTEX
  5
D6B
  8
DATA
  6
CONTINUOUS
 62
     7
 10
-867.51400000000035
 20
-1048.13455237328
 30
0.0
  0
VERTEX
  5
D6C
  8
DATA
  6
CONTINUOUS
 62
     7
 10
-868.27600000000029
 20
-1048.3885523732799
 30
0.0
  0
VERTEX
  5
D6D
  8
DATA
  6
CONTINUOUS
 62
     7
 10
-868.78399999999988
 20
-1048.6425523732801
 30
0.0
  0
VERTEX
  5
D6E
  8
DATA
  6
CONTINUOUS
 62
     7
 10
-869.29199999999992
 20
-1048.8965523732811
 30
0.0
  0
VERTEX
  5
D6F
  8
DATA
  6
CONTINUOUS
 62
     7
 10
-869.8000000000003
 20
-1049.1505523732801
 30
0.0
  0
VERTEX
  5
D70
  8
DATA
  6
CONTINUOUS
 62
     7
 10
-870.56200000000013
 20
-1049.40455237328
 30
0.0
  0
VERTEX
  5
D71
  8
DATA
  6
CONTINUOUS
 62
     7
 10
-871.07000000000005
 20
-1049.6585523732799
 30
0.0
  0
VERTEX
  5
D72
  8
DATA
  6
CONTINUOUS
 62
     7
 10
-871.57799999999963
 20
-1049.9125523732801
 30
0.0
  0
VERTEX
  5
D73
  8
DATA
  6
CONTINUOUS
 62
     7
 10
-872.34000000000049
 20
-1050.1665523732811
 30
0.0
  0
VERTEX
  5
D74
  8
DATA
  6
CONTINUOUS
 62
     7
 10
-872.84800000000018
 20
-1050.1665523732811
 30
0.0
  0
VERTEX
  5
D75
  8
DATA
  6
CONTINUOUS
 62
     7
 10
-873.61000000000001
 20
-1050.4205523732801
 30
0.0
  0
VERTEX
  5
D76
  8
DATA
  6
CONTINUOUS
 62
     7
 10
-874.11800000000073
 20
-1050.67455237328
 30
0.0
  0
VERTEX
  5
D77
  8
DATA
  6
CONTINUOUS
 62
     7
 10
-874.88000000000011
 20
-1050.67455237328
 30
0.0
  0
VERTEX
  5
D78
  8
DATA
  6
CONTINUOUS
 62
     7
 10
-875.38800000000015
 20
-1050.9285523732799
 30
0.0
  0
VERTEX
  5
D79
  8
DATA
  6
CONTINUOUS
 62
     7
 10
-875.89599999999984
 20
-1050.9285523732799
 30
0.0
  0
VERTEX
  5
D7A
  8
DATA
  6
CONTINUOUS
 62
     7
 10
-876.6579999999999
 20
-1051.1825523732809
 30
0.0
  0
VERTEX
  5
D7B
  8
DATA
  6
CONTINUOUS
 62
     7
 10
-877.16600000000062
 20
-1051.1825523732809
 30
0.0
  0
VERTEX
  5
D7C
  8
DATA
  6
CONTINUOUS
 62
     7
 10
-877.92800000000011
 20
-1051.1825523732809
 30
0.0
  0
VERTEX
  5
D7D
  8
DATA
  6
CONTINUOUS
 62
     7
 10
-878.43600000000015
 20
-1051.4365523732799
 30
0.0
  0
VERTEX
  5
D7E
  8
DATA
  6
CONTINUOUS
 62
     7
 10
-879.19800000000066
 20
-1051.4365523732799
 30
0.0
  0
VERTEX
  5
D7F
  8
DATA
  6
CONTINUOUS
 62
     7
 10
-879.70600000000013
 20
-1051.4365523732799
 30
0.0
  0
VERTEX
  5
D80
  8
DATA
  6
CONTINUOUS
 62
     7
 10
-880.46800000000019
 20
-1051.4365523732799
 30
0.0
  0
VERTEX
  5
D81
  8
DATA
  6
CONTINUOUS
 62
     7
 10
-880.976
 20
-1051.6905523732801
 30
0.0
  0
VERTEX
  5
D82
  8
DATA
  6
CONTINUOUS
 62
     7
 10
-881.73800000000074
 20
-1051.6905523732801
 30
0.0
  0
VERTEX
  5
D83
  8
DATA
  6
CONTINUOUS
 62
     7
 10
-882.24600000000032
 20
-1051.6905523732801
 30
0.0
  0
VERTEX
  5
D84
  8
DATA
  6
CONTINUOUS
 62
     7
 10
-883.00800000000015
 20
-1051.6905523732801
 30
0.0
  0
VERTEX
  5
D85
  8
DATA
  6
CONTINUOUS
 62
     7
 10
-883.77000000000055
 20
-1051.6905523732801
 30
0.0
  0
VERTEX
  5
D86
  8
DATA
  6
CONTINUOUS
 62
     7
 10
-884.27800000000059
 20
-1051.6905523732801
 30
0.0
  0
VERTEX
  5
D87
  8
DATA
  6
CONTINUOUS
 62
     7
 10
-885.04000000000042
 20
-1051.6905523732801
 30
0.0
  0
VERTEX
  5
D88
  8
DATA
  6
CONTINUOUS
 62
     7
 10
-885.54800000000012
 20
-1051.6905523732801
 30
0.0
  0
VERTEX
  5
D89
  8
DATA
  6
CONTINUOUS
 62
     7
 10
-886.30999999999995
 20
-1051.6905523732801
 30
0.0
  0
VERTEX
  5
D8A
  8
DATA
  6
CONTINUOUS
 62
     7
 10
-886.81800000000044
 20
-1051.6905523732801
 30
0.0
  0
VERTEX
  5
D8B
  8
DATA
  6
CONTINUOUS
 62
     7
 10
-887.58000000000015
 20
-1051.6905523732801
 30
0.0
  0
VERTEX
  5
D8C
  8
DATA
  6
CONTINUOUS
 62
     7
 10
-888.08799999999985
 20
-1051.6905523732801
 30
0.0
  0
VERTEX
  5
D8D
  8
DATA
  6
CONTINUOUS
 62
     7
 10
-888.8500000000007
 20
-1051.4365523732799
 30
0.0
  0
SEQEND
  5
D8E
  8
DATA
  6
CONTINUOUS
 62
     7
  0
POLYLINE
  5
269
  8
DATA
  6
CONTINUOUS
 62
     7
 66
     1
 10
0.0
 20
0.0
 30
0.0
 70
   128
  0
VERTEX
  5
D8F
  8
DATA
  6
CONTINUOUS
 62
     7
 10
-888.8500000000007
 20
-779.65655237328053
 30
0.0
  0
VERTEX
  5
D90
  8
DATA
  6
CONTINUOUS
 62
     7
 10
-888.08799999999985
 20
-779.40255237328029
 30
0.0
  0
VERTEX
  5
D91
  8
DATA
  6
CONTINUOUS
 62
     7
 10
-887.58000000000015
 20
-779.40255237328029
 30
0.0
  0
VERTEX
  5
D92
  8
DATA
  6
CONTINUOUS
 62
     7
 10
-886.81800000000044
 20
-779.40255237328029
 30
0.0
  0
VERTEX
  5
D93
  8
DATA
  6
CONTINUOUS
 62
     7
 10
-886.30999999999995
 20
-779.40255237328029
 30
0.0
  0
VERTEX
  5
D94
  8
DATA
  6
CONTINUOUS
 62
     7
 10
-885.54800000000012
 20
-779.40255237328029
 30
0.0
  0
VERTEX
  5
D95
  8
DATA
  6
CONTINUOUS
 62
     7
 10
-885.04000000000042
 20
-779.40255237328029
 30
0.0
  0
VERTEX
  5
D96
  8
DATA
  6
CONTINUOUS
 62
     7
 10
-884.27800000000059
 20
-779.40255237328029
 30
0.0
  0
VERTEX
  5
D97
  8
DATA
  6
CONTINUOUS
 62
     7
 10
-883.77000000000055
 20
-779.40255237328029
 30
0.0
  0
VERTEX
  5
D98
  8
DATA
  6
CONTINUOUS
 62
     7
 10
-883.00800000000015
 20
-779.40255237328029
 30
0.0
  0
VERTEX
  5
D99
  8
DATA
  6
CONTINUOUS
 62
     7
 10
-882.24600000000032
 20
-779.40255237328029
 30
0.0
  0
VERTEX
  5
D9A
  8
DATA
  6
CONTINUOUS
 62
     7
 10
-881.73800000000074
 20
-779.40255237328029
 30
0.0
  0
VERTEX
  5
D9B
  8
DATA
  6
CONTINUOUS
 62
     7
 10
-880.976
 20
-779.40255237328029
 30
0.0
  0
VERTEX
  5
D9C
  8
DATA
  6
CONTINUOUS
 62
     7
 10
-880.46800000000019
 20
-779.65655237328053
 30
0.0
  0
VERTEX
  5
D9D
  8
DATA
  6
CONTINUOUS
 62
     7
 10
-879.70600000000013
 20
-779.65655237328053
 30
0.0
  0
VERTEX
  5
D9E
  8
DATA
  6
CONTINUOUS
 62
     7
 10
-879.19800000000066
 20
-779.65655237328053
 30
0.0
  0
VERTEX
  5
D9F
  8
DATA
  6
CONTINUOUS
 62
     7
 10
-878.43600000000015
 20
-779.65655237328053
 30
0.0
  0
VERTEX
  5
DA0
  8
DATA
  6
CONTINUOUS
 62
     7
 10
-877.92800000000011
 20
-779.91055237328032
 30
0.0
  0
VERTEX
  5
DA1
  8
DATA
  6
CONTINUOUS
 62
     7
 10
-877.16600000000062
 20
-779.91055237328032
 30
0.0
  0
VERTEX
  5
DA2
  8
DATA
  6
CONTINUOUS
 62
     7
 10
-876.6579999999999
 20
-779.91055237328032
 30
0.0
  0
VERTEX
  5
DA3
  8
DATA
  6
CONTINUOUS
 62
     7
 10
-875.89599999999984
 20
-780.16455237328034
 30
0.0
  0
VERTEX
  5
DA4
  8
DATA
  6
CONTINUOUS
 62
     7
 10
-875.38800000000015
 20
-780.16455237328034
 30
0.0
  0
VERTEX
  5
DA5
  8
DATA
  6
CONTINUOUS
 62
     7
 10
-874.88000000000011
 20
-780.41855237328036
 30
0.0
  0
VERTEX
  5
DA6
  8
DATA
  6
CONTINUOUS
 62
     7
 10
-874.11800000000073
 20
-780.41855237328036
 30
0.0
  0
VERTEX
  5
DA7
  8
DATA
  6
CONTINUOUS
 62
     7
 10
-873.61000000000001
 20
-780.67255237328015
 30
0.0
  0
VERTEX
  5
DA8
  8
DATA
  6
CONTINUOUS
 62
     7
 10
-872.84800000000018
 20
-780.92655237328051
 30
0.0
  0
VERTEX
  5
DA9
  8
DATA
  6
CONTINUOUS
 62
     7
 10
-872.34000000000049
 20
-780.92655237328051
 30
0.0
  0
VERTEX
  5
DAA
  8
DATA
  6
CONTINUOUS
 62
     7
 10
-871.57799999999963
 20
-781.18055237328031
 30
0.0
  0
VERTEX
  5
DAB
  8
DATA
  6
CONTINUOUS
 62
     7
 10
-871.07000000000005
 20
-781.43455237328033
 30
0.0
  0
VERTEX
  5
DAC
  8
DATA
  6
CONTINUOUS
 62
     7
 10
-870.56200000000013
 20
-781.68855237328034
 30
0.0
  0
VERTEX
  5
DAD
  8
DATA
  6
CONTINUOUS
 62
     7
 10
-869.8000000000003
 20
-781.94255237328014
 30
0.0
  0
VERTEX
  5
DAE
  8
DATA
  6
CONTINUOUS
 62
     7
 10
-869.29199999999992
 20
-782.1965523732805
 30
0.0
  0
VERTEX
  5
DAF
  8
DATA
  6
CONTINUOUS
 62
     7
 10
-868.78399999999988
 20
-782.45055237328029
 30
0.0
  0
VERTEX
  5
DB0
  8
DATA
  6
CONTINUOUS
 62
     7
 10
-868.27600000000029
 20
-782.70455237328053
 30
0.0
  0
VERTEX
  5
DB1
  8
DATA
  6
CONTINUOUS
 62
     7
 10
-867.51400000000035
 20
-782.95855237328033
 30
0.0
  0
VERTEX
  5
DB2
  8
DATA
  6
CONTINUOUS
 62
     7
 10
-867.00600000000065
 20
-783.46655237328036
 30
0.0
  0
VERTEX
  5
DB3
  8
DATA
  6
CONTINUOUS
 62
     7
 10
-866.49799999999982
 20
-783.72055237328016
 30
0.0
  0
VERTEX
  5
DB4
  8
DATA
  6
CONTINUOUS
 62
     7
 10
-865.99000000000024
 20
-783.97455237328052
 30
0.0
  0
VERTEX
  5
DB5
  8
DATA
  6
CONTINUOUS
 62
     7
 10
-865.4820000000002
 20
-784.48255237328033
 30
0.0
  0
VERTEX
  5
DB6
  8
DATA
  6
CONTINUOUS
 62
     7
 10
-864.97400000000039
 20
-784.73655237328035
 30
0.0
  0
VERTEX
  5
DB7
  8
DATA
  6
CONTINUOUS
 62
     7
 10
-864.4660000000008
 20
-785.2445523732805
 30
0.0
  0
VERTEX
  5
DB8
  8
DATA
  6
CONTINUOUS
 62
     7
 10
-863.95799999999986
 20
-785.49855237328029
 30
0.0
  0
VERTEX
  5
DB9
  8
DATA
  6
CONTINUOUS
 62
     7
 10
-863.45000000000005
 20
-786.00655237328033
 30
0.0
  0
VERTEX
  5
DBA
  8
DATA
  6
CONTINUOUS
 62
     7
 10
-862.94200000000035
 20
-786.51455237328014
 30
0.0
  0
VERTEX
  5
DBB
  8
DATA
  6
CONTINUOUS
 62
     7
 10
-862.43400000000031
 20
-787.02255237328052
 30
0.0
  0
VERTEX
  5
DBC
  8
DATA
  6
CONTINUOUS
 62
     7
 10
-861.92599999999982
 20
-787.27655237328031
 30
0.0
  0
VERTEX
  5
DBD
  8
DATA
  6
CONTINUOUS
 62
     7
 10
-861.41800000000012
 20
-787.78455237328035
 30
0.0
  0
VERTEX
  5
DBE
  8
DATA
  6
CONTINUOUS
 62
     7
 10
-861.1640000000001
 20
-788.29255237328039
 30
0.0
  0
VERTEX
  5
DBF
  8
DATA
  6
CONTINUOUS
 62
     7
 10
-860.65600000000029
 20
-788.80055237328054
 30
0.0
  0
VERTEX
  5
DC0
  8
DATA
  6
CONTINUOUS
 62
     7
 10
-860.14800000000025
 20
-789.3085523732808
 30
0.0
  0
VERTEX
  5
DC1
  8
DATA
  6
CONTINUOUS
 62
     7
 10
-859.89400000000035
 20
-789.8165523732805
 30
0.0
  0
VERTEX
  5
DC2
  8
DATA
  6
CONTINUOUS
 62
     7
 10
-859.38600000000065
 20
-790.3245523732802
 30
0.0
  0
VERTEX
  5
DC3
  8
DATA
  6
CONTINUOUS
 62
     7
 10
-859.13199999999972
 20
-790.83255237328035
 30
0.0
  0
VERTEX
  5
DC4
  8
DATA
  6
CONTINUOUS
 62
     7
 10
-858.62400000000014
 20
-791.3405523732805
 30
0.0
  0
VERTEX
  5
DC5
  8
DATA
  6
CONTINUOUS
 62
     7
 10
-858.37000000000023
 20
-791.84855237328065
 30
0.0
  0
VERTEX
  5
DC6
  8
DATA
  6
CONTINUOUS
 62
     7
 10
-857.86200000000019
 20
-792.35655237328081
 30
0.0
  0
VERTEX
  5
DC7
  8
DATA
  6
CONTINUOUS
 62
     7
 10
-857.60800000000017
 20
-793.11855237328052
 30
0.0
  0
VERTEX
  5
DC8
  8
DATA
  6
CONTINUOUS
 62
     7
 10
-857.35400000000061
 20
-793.62655237328033
 30
0.0
  0
VERTEX
  5
DC9
  8
DATA
  6
CONTINUOUS
 62
     7
 10
-857.10000000000082
 20
-794.13455237328014
 30
0.0
  0
VERTEX
  5
DCA
  8
DATA
  6
CONTINUOUS
 62
     7
 10
-856.59199999999998
 20
-794.64255237328007
 30
0.0
  0
VERTEX
  5
DCB
  8
DATA
  6
CONTINUOUS
 62
     7
 10
-856.33799999999985
 20
-795.40455237328035
 30
0.0
  0
VERTEX
  5
DCC
  8
DATA
  6
CONTINUOUS
 62
     7
 10
-856.08400000000017
 20
-795.91255237328039
 30
0.0
  0
VERTEX
  5
DCD
  8
DATA
  6
CONTINUOUS
 62
     7
 10
-855.83000000000004
 20
-796.67455237328033
 30
0.0
  0
VERTEX
  5
DCE
  8
DATA
  6
CONTINUOUS
 62
     7
 10
-855.57600000000014
 20
-797.18255237328015
 30
0.0
  0
VERTEX
  5
DCF
  8
DATA
  6
CONTINUOUS
 62
     7
 10
-855.57600000000014
 20
-797.69055237328018
 30
0.0
  0
VERTEX
  5
DD0
  8
DATA
  6
CONTINUOUS
 62
     7
 10
-855.32200000000034
 20
-798.45255237328035
 30
0.0
  0
VERTEX
  5
DD1
  8
DATA
  6
CONTINUOUS
 62
     7
 10
-855.06800000000055
 20
-798.96055237328051
 30
0.0
  0
VERTEX
  5
DD2
  8
DATA
  6
CONTINUOUS
 62
     7
 10
-854.81400000000065
 20
-799.72255237328034
 30
0.0
  0
VERTEX
  5
DD3
  8
DATA
  6
CONTINUOUS
 62
     7
 10
-854.81400000000065
 20
-800.23055237328037
 30
0.0
  0
VERTEX
  5
DD4
  8
DATA
  6
CONTINUOUS
 62
     7
 10
-854.55999999999983
 20
-800.99255237328032
 30
0.0
  0
VERTEX
  5
DD5
  8
DATA
  6
CONTINUOUS
 62
     7
 10
-854.55999999999983
 20
-801.50055237328036
 30
0.0
  0
VERTEX
  5
DD6
  8
DATA
  6
CONTINUOUS
 62
     7
 10
-854.30599999999981
 20
-802.26255237328064
 30
0.0
  0
VERTEX
  5
DD7
  8
DATA
  6
CONTINUOUS
 62
     7
 10
-854.30599999999981
 20
-803.02455237328013
 30
0.0
  0
VERTEX
  5
DD8
  8
DATA
  6
CONTINUOUS
 62
     7
 10
-854.30599999999981
 20
-803.53255237328028
 30
0.0
  0
VERTEX
  5
DD9
  8
DATA
  6
CONTINUOUS
 62
     7
 10
-854.05200000000002
 20
-804.29455237328045
 30
0.0
  0
VERTEX
  5
DDA
  8
DATA
  6
CONTINUOUS
 62
     7
 10
-854.05200000000002
 20
-804.80255237328049
 30
0.0
  0
VERTEX
  5
DDB
  8
DATA
  6
CONTINUOUS
 62
     7
 10
-854.05200000000002
 20
-805.56455237328032
 30
0.0
  0
VERTEX
  5
DDC
  8
DATA
  6
CONTINUOUS
 62
     7
 10
-854.05200000000002
 20
-806.07255237328036
 30
0.0
  0
VERTEX
  5
DDD
  8
DATA
  6
CONTINUOUS
 62
     7
 10
-853.79800000000012
 20
-806.83455237328008
 30
0.0
  0
VERTEX
  5
DDE
  8
DATA
  6
CONTINUOUS
 62
     7
 10
-853.79800000000012
 20
-807.59655237328013
 30
0.0
  0
VERTEX
  5
DDF
  8
DATA
  6
CONTINUOUS
 62
     7
 10
-853.79800000000012
 20
-808.10455237328017
 30
0.0
  0
VERTEX
  5
DE0
  8
DATA
  6
CONTINUOUS
 62
     7
 10
-853.79800000000012
 20
-808.86655237328034
 30
0.0
  0
VERTEX
  5
DE1
  8
DATA
  6
CONTINUOUS
 62
     7
 10
-853.79800000000012
 20
-809.37455237328015
 30
0.0
  0
VERTEX
  5
DE2
  8
DATA
  6
CONTINUOUS
 62
     7
 10
-853.79800000000012
 20
-810.13655237328044
 30
0.0
  0
VERTEX
  5
DE3
  8
DATA
  6
CONTINUOUS
 62
     7
 10
-853.79800000000012
 20
-810.89855237328049
 30
0.0
  0
VERTEX
  5
DE4
  8
DATA
  6
CONTINUOUS
 62
     7
 10
-853.79800000000012
 20
-811.40655237328019
 30
0.0
  0
VERTEX
  5
DE5
  8
DATA
  6
CONTINUOUS
 62
     7
 10
-853.79800000000012
 20
-812.16855237328036
 30
0.0
  0
VERTEX
  5
DE6
  8
DATA
  6
CONTINUOUS
 62
     7
 10
-853.79800000000012
 20
-812.67655237328051
 30
0.0
  0
VERTEX
  5
DE7
  8
DATA
  6
CONTINUOUS
 62
     7
 10
-853.79800000000012
 20
-813.43855237328023
 30
0.0
  0
VERTEX
  5
DE8
  8
DATA
  6
CONTINUOUS
 62
     7
 10
-853.79800000000012
 20
-814.20055237328017
 30
0.0
  0
VERTEX
  5
DE9
  8
DATA
  6
CONTINUOUS
 62
     7
 10
-853.79800000000012
 20
-814.70855237328033
 30
0.0
  0
VERTEX
  5
DEA
  8
DATA
  6
CONTINUOUS
 62
     7
 10
-853.79800000000012
 20
-815.47055237328038
 30
0.0
  0
VERTEX
  5
DEB
  8
DATA
  6
CONTINUOUS
 62
     7
 10
-854.05200000000002
 20
-815.97855237328042
 30
0.0
  0
VERTEX
  5
DEC
  8
DATA
  6
CONTINUOUS
 62
     7
 10
-854.05200000000002
 20
-816.74055237328014
 30
0.0
  0
VERTEX
  5
DED
  8
DATA
  6
CONTINUOUS
 62
     7
 10
-854.05200000000002
 20
-817.50255237328065
 30
0.0
  0
VERTEX
  5
DEE
  8
DATA
  6
CONTINUOUS
 62
     7
 10
-854.05200000000002
 20
-818.01055237328069
 30
0.0
  0
VERTEX
  5
DEF
  8
DATA
  6
CONTINUOUS
 62
     7
 10
-854.05200000000002
 20
-818.77255237328052
 30
0.0
  0
VERTEX
  5
DF0
  8
DATA
  6
CONTINUOUS
 62
     7
 10
-854.05200000000002
 20
-819.28055237328022
 30
0.0
  0
VERTEX
  5
DF1
  8
DATA
  6
CONTINUOUS
 62
     7
 10
-854.05200000000002
 20
-820.0425523732805
 30
0.0
  0
VERTEX
  5
DF2
  8
DATA
  6
CONTINUOUS
 62
     7
 10
-854.05200000000002
 20
-820.80455237328033
 30
0.0
  0
VERTEX
  5
DF3
  8
DATA
  6
CONTINUOUS
 62
     7
 10
-854.05200000000002
 20
-821.31255237328037
 30
0.0
  0
VERTEX
  5
DF4
  8
DATA
  6
CONTINUOUS
 62
     7
 10
-854.05200000000002
 20
-822.07455237328031
 30
0.0
  0
VERTEX
  5
DF5
  8
DATA
  6
CONTINUOUS
 62
     7
 10
-854.05200000000002
 20
-822.58255237328035
 30
0.0
  0
VERTEX
  5
DF6
  8
DATA
  6
CONTINUOUS
 62
     7
 10
-854.30599999999981
 20
-823.34455237328018
 30
0.0
  0
VERTEX
  5
DF7
  8
DATA
  6
CONTINUOUS
 62
     7
 10
-854.30599999999981
 20
-824.10655237328081
 30
0.0
  0
VERTEX
  5
DF8
  8
DATA
  6
CONTINUOUS
 62
     7
 10
-854.30599999999981
 20
-824.61455237328039
 30
0.0
  0
VERTEX
  5
DF9
  8
DATA
  6
CONTINUOUS
 62
     7
 10
-854.30599999999981
 20
-825.37655237328045
 30
0.0
  0
VERTEX
  5
DFA
  8
DATA
  6
CONTINUOUS
 62
     7
 10
-854.30599999999981
 20
-825.88455237328014
 30
0.0
  0
VERTEX
  5
DFB
  8
DATA
  6
CONTINUOUS
 62
     7
 10
-854.30599999999981
 20
-826.64655237328031
 30
0.0
  0
VERTEX
  5
DFC
  8
DATA
  6
CONTINUOUS
 62
     7
 10
-854.30599999999981
 20
-827.40855237328037
 30
0.0
  0
VERTEX
  5
DFD
  8
DATA
  6
CONTINUOUS
 62
     7
 10
-854.30599999999981
 20
-827.91655237328052
 30
0.0
  0
VERTEX
  5
DFE
  8
DATA
  6
CONTINUOUS
 62
     7
 10
-854.30599999999981
 20
-828.67855237328013
 30
0.0
  0
VERTEX
  5
DFF
  8
DATA
  6
CONTINUOUS
 62
     7
 10
-854.55999999999983
 20
-829.18655237328062
 30
0.0
  0
VERTEX
  5
E00
  8
DATA
  6
CONTINUOUS
 62
     7
 10
-854.55999999999983
 20
-829.94855237328034
 30
0.0
  0
VERTEX
  5
E01
  8
DATA
  6
CONTINUOUS
 62
     7
 10
-854.55999999999983
 20
-830.71055237328039
 30
0.0
  0
VERTEX
  5
E02
  8
DATA
  6
CONTINUOUS
 62
     7
 10
-854.55999999999983
 20
-831.21855237328043
 30
0.0
  0
VERTEX
  5
E03
  8
DATA
  6
CONTINUOUS
 62
     7
 10
-854.55999999999983
 20
-831.98055237328015
 30
0.0
  0
VERTEX
  5
E04
  8
DATA
  6
CONTINUOUS
 62
     7
 10
-854.55999999999983
 20
-832.48855237328019
 30
0.0
  0
VERTEX
  5
E05
  8
DATA
  6
CONTINUOUS
 62
     7
 10
-854.55999999999983
 20
-833.25055237328036
 30
0.0
  0
VERTEX
  5
E06
  8
DATA
  6
CONTINUOUS
 62
     7
 10
-854.81400000000065
 20
-834.01255237328053
 30
0.0
  0
VERTEX
  5
E07
  8
DATA
  6
CONTINUOUS
 62
     7
 10
-854.81400000000065
 20
-834.52055237328022
 30
0.0
  0
VERTEX
  5
E08
  8
DATA
  6
CONTINUOUS
 62
     7
 10
-854.81400000000065
 20
-835.28255237328051
 30
0.0
  0
VERTEX
  5
E09
  8
DATA
  6
CONTINUOUS
 62
     7
 10
-854.81400000000065
 20
-835.79055237328055
 30
0.0
  0
VERTEX
  5
E0A
  8
DATA
  6
CONTINUOUS
 62
     7
 10
-854.81400000000065
 20
-836.55255237328038
 30
0.0
  0
VERTEX
  5
E0B
  8
DATA
  6
CONTINUOUS
 62
     7
 10
-854.81400000000065
 20
-837.06055237328053
 30
0.0
  0
VERTEX
  5
E0C
  8
DATA
  6
CONTINUOUS
 62
     7
 10
-855.06800000000055
 20
-837.82255237328013
 30
0.0
  0
VERTEX
  5
E0D
  8
DATA
  6
CONTINUOUS
 62
     7
 10
-855.06800000000055
 20
-838.58455237328019
 30
0.0
  0
VERTEX
  5
E0E
  8
DATA
  6
CONTINUOUS
 62
     7
 10
-855.06800000000055
 20
-839.09255237328034
 30
0.0
  0
VERTEX
  5
E0F
  8
DATA
  6
CONTINUOUS
 62
     7
 10
-855.06800000000055
 20
-839.85455237328028
 30
0.0
  0
VERTEX
  5
E10
  8
DATA
  6
CONTINUOUS
 62
     7
 10
-855.06800000000055
 20
-840.36255237328021
 30
0.0
  0
VERTEX
  5
E11
  8
DATA
  6
CONTINUOUS
 62
     7
 10
-855.06800000000055
 20
-841.12455237328015
 30
0.0
  0
VERTEX
  5
E12
  8
DATA
  6
CONTINUOUS
 62
     7
 10
-855.32200000000034
 20
-841.88655237328032
 30
0.0
  0
VERTEX
  5
E13
  8
DATA
  6
CONTINUOUS
 62
     7
 10
-855.32200000000034
 20
-842.39455237328059
 30
0.0
  0
VERTEX
  5
E14
  8
DATA
  6
CONTINUOUS
 62
     7
 10
-855.32200000000034
 20
-843.15655237328053
 30
0.0
  0
VERTEX
  5
E15
  8
DATA
  6
CONTINUOUS
 62
     7
 10
-855.32200000000034
 20
-843.66455237328034
 30
0.0
  0
VERTEX
  5
E16
  8
DATA
  6
CONTINUOUS
 62
     7
 10
-855.32200000000034
 20
-844.42655237328063
 30
0.0
  0
VERTEX
  5
E17
  8
DATA
  6
CONTINUOUS
 62
     7
 10
-855.32200000000034
 20
-845.18855237328034
 30
0.0
  0
VERTEX
  5
E18
  8
DATA
  6
CONTINUOUS
 62
     7
 10
-855.57600000000014
 20
-845.69655237328027
 30
0.0
  0
VERTEX
  5
E19
  8
DATA
  6
CONTINUOUS
 62
     7
 10
-855.57600000000014
 20
-846.45855237328044
 30
0.0
  0
VERTEX
  5
E1A
  8
DATA
  6
CONTINUOUS
 62
     7
 10
-855.57600000000014
 20
-846.96655237328025
 30
0.0
  0
VERTEX
  5
E1B
  8
DATA
  6
CONTINUOUS
 62
     7
 10
-855.57600000000014
 20
-847.72855237328031
 30
0.0
  0
VERTEX
  5
E1C
  8
DATA
  6
CONTINUOUS
 62
     7
 10
-855.57600000000014
 20
-848.49055237328037
 30
0.0
  0
VERTEX
  5
E1D
  8
DATA
  6
CONTINUOUS
 62
     7
 10
-855.83000000000004
 20
-848.99855237328029
 30
0.0
  0
VERTEX
  5
E1E
  8
DATA
  6
CONTINUOUS
 62
     7
 10
-855.83000000000004
 20
-849.76055237328058
 30
0.0
  0
VERTEX
  5
E1F
  8
DATA
  6
CONTINUOUS
 62
     7
 10
-855.83000000000004
 20
-850.26855237328039
 30
0.0
  0
VERTEX
  5
E20
  8
DATA
  6
CONTINUOUS
 62
     7
 10
-855.83000000000004
 20
-851.03055237328056
 30
0.0
  0
VERTEX
  5
E21
  8
DATA
  6
CONTINUOUS
 62
     7
 10
-855.83000000000004
 20
-851.79255237328039
 30
0.0
  0
VERTEX
  5
E22
  8
DATA
  6
CONTINUOUS
 62
     7
 10
-856.08400000000017
 20
-852.30055237328054
 30
0.0
  0
VERTEX
  5
E23
  8
DATA
  6
CONTINUOUS
 62
     7
 10
-856.08400000000017
 20
-853.06255237328014
 30
0.0
  0
VERTEX
  5
E24
  8
DATA
  6
CONTINUOUS
 62
     7
 10
-856.08400000000017
 20
-853.57055237328029
 30
0.0
  0
VERTEX
  5
E25
  8
DATA
  6
CONTINUOUS
 62
     7
 10
-856.08400000000017
 20
-854.33255237328035
 30
0.0
  0
VERTEX
  5
E26
  8
DATA
  6
CONTINUOUS
 62
     7
 10
-856.33799999999985
 20
-854.8405523732805
 30
0.0
  0
VERTEX
  5
E27
  8
DATA
  6
CONTINUOUS
 62
     7
 10
-856.33799999999985
 20
-855.60255237328022
 30
0.0
  0
VERTEX
  5
E28
  8
DATA
  6
CONTINUOUS
 62
     7
 10
-856.33799999999985
 20
-856.3645523732805
 30
0.0
  0
VERTEX
  5
E29
  8
DATA
  6
CONTINUOUS
 62
     7
 10
-856.33799999999985
 20
-856.87255237328031
 30
0.0
  0
VERTEX
  5
E2A
  8
DATA
  6
CONTINUOUS
 62
     7
 10
-856.33799999999985
 20
-857.63455237328037
 30
0.0
  0
VERTEX
  5
E2B
  8
DATA
  6
CONTINUOUS
 62
     7
 10
-856.59199999999998
 20
-858.14255237328018
 30
0.0
  0
VERTEX
  5
E2C
  8
DATA
  6
CONTINUOUS
 62
     7
 10
-856.59199999999998
 20
-858.90455237328035
 30
0.0
  0
VERTEX
  5
E2D
  8
DATA
  6
CONTINUOUS
 62
     7
 10
-856.59199999999998
 20
-859.66655237328064
 30
0.0
  0
VERTEX
  5
E2E
  8
DATA
  6
CONTINUOUS
 62
     7
 10
-856.59199999999998
 20
-860.17455237328033
 30
0.0
  0
VERTEX
  5
E2F
  8
DATA
  6
CONTINUOUS
 62
     7
 10
-856.59199999999998
 20
-860.93655237328051
 30
0.0
  0
VERTEX
  5
E30
  8
DATA
  6
CONTINUOUS
 62
     7
 10
-856.84599999999989
 20
-862.20655237328049
 30
0.0
  0
VERTEX
  5
E31
  8
DATA
  6
CONTINUOUS
 62
     7
 10
-857.10000000000082
 20
-866.77855237328015
 30
0.0
  0
VERTEX
  5
E32
  8
DATA
  6
CONTINUOUS
 62
     7
 10
-857.35400000000061
 20
-867.54055237328043
 30
0.0
  0
VERTEX
  5
E33
  8
DATA
  6
CONTINUOUS
 62
     7
 10
-857.35400000000061
 20
-868.04855237328024
 30
0.0
  0
VERTEX
  5
E34
  8
DATA
  6
CONTINUOUS
 62
     7
 10
-857.35400000000061
 20
-868.8105523732803
 30
0.0
  0
VERTEX
  5
E35
  8
DATA
  6
CONTINUOUS
 62
     7
 10
-857.35400000000061
 20
-869.31855237328045
 30
0.0
  0
VERTEX
  5
E36
  8
DATA
  6
CONTINUOUS
 62
     7
 10
-857.35400000000061
 20
-870.08055237328051
 30
0.0
  0
VERTEX
  5
E37
  8
DATA
  6
CONTINUOUS
 62
     7
 10
-857.60800000000017
 20
-870.84255237328023
 30
0.0
  0
VERTEX
  5
E38
  8
DATA
  6
CONTINUOUS
 62
     7
 10
-857.60800000000017
 20
-871.35055237328038
 30
0.0
  0
VERTEX
  5
E39
  8
DATA
  6
CONTINUOUS
 62
     7
 10
-857.60800000000017
 20
-872.11255237328032
 30
0.0
  0
VERTEX
  5
E3A
  8
DATA
  6
CONTINUOUS
 62
     7
 10
-857.60800000000017
 20
-872.62055237328013
 30
0.0
  0
VERTEX
  5
E3B
  8
DATA
  6
CONTINUOUS
 62
     7
 10
-857.86200000000019
 20
-873.38255237328019
 30
0.0
  0
VERTEX
  5
E3C
  8
DATA
  6
CONTINUOUS
 62
     7
 10
-857.86200000000019
 20
-874.14455237328025
 30
0.0
  0
VERTEX
  5
E3D
  8
DATA
  6
CONTINUOUS
 62
     7
 10
-857.86200000000019
 20
-874.65255237328029
 30
0.0
  0
VERTEX
  5
E3E
  8
DATA
  6
CONTINUOUS
 62
     7
 10
-857.86200000000019
 20
-875.41455237328034
 30
0.0
  0
VERTEX
  5
E3F
  8
DATA
  6
CONTINUOUS
 62
     7
 10
-857.86200000000019
 20
-875.92255237328015
 30
0.0
  0
VERTEX
  5
E40
  8
DATA
  6
CONTINUOUS
 62
     7
 10
-858.11600000000044
 20
-876.68455237328021
 30
0.0
  0
VERTEX
  5
E41
  8
DATA
  6
CONTINUOUS
 62
     7
 10
-858.11600000000044
 20
-877.4465523732805
 30
0.0
  0
VERTEX
  5
E42
  8
DATA
  6
CONTINUOUS
 62
     7
 10
-858.11600000000044
 20
-877.95455237328053
 30
0.0
  0
VERTEX
  5
E43
  8
DATA
  6
CONTINUOUS
 62
     7
 10
-858.11600000000044
 20
-878.71655237328036
 30
0.0
  0
VERTEX
  5
E44
  8
DATA
  6
CONTINUOUS
 62
     7
 10
-858.11600000000044
 20
-879.22455237328052
 30
0.0
  0
VERTEX
  5
E45
  8
DATA
  6
CONTINUOUS
 62
     7
 10
-858.37000000000023
 20
-879.98655237328035
 30
0.0
  0
VERTEX
  5
E46
  8
DATA
  6
CONTINUOUS
 62
     7
 10
-858.37000000000023
 20
-880.49455237328038
 30
0.0
  0
VERTEX
  5
E47
  8
DATA
  6
CONTINUOUS
 62
     7
 10
-858.37000000000023
 20
-881.25655237328033
 30
0.0
  0
VERTEX
  5
E48
  8
DATA
  6
CONTINUOUS
 62
     7
 10
-858.37000000000023
 20
-882.0185523732805
 30
0.0
  0
VERTEX
  5
E49
  8
DATA
  6
CONTINUOUS
 62
     7
 10
-858.37000000000023
 20
-882.5265523732802
 30
0.0
  0
VERTEX
  5
E4A
  8
DATA
  6
CONTINUOUS
 62
     7
 10
-858.62400000000014
 20
-883.28855237328025
 30
0.0
  0
VERTEX
  5
E4B
  8
DATA
  6
CONTINUOUS
 62
     7
 10
-858.62400000000014
 20
-883.79655237328029
 30
0.0
  0
VERTEX
  5
E4C
  8
DATA
  6
CONTINUOUS
 62
     7
 10
-858.62400000000014
 20
-884.55855237328035
 30
0.0
  0
VERTEX
  5
E4D
  8
DATA
  6
CONTINUOUS
 62
     7
 10
-858.62400000000014
 20
-885.32055237328075
 30
0.0
  0
VERTEX
  5
E4E
  8
DATA
  6
CONTINUOUS
 62
     7
 10
-858.62400000000014
 20
-885.82855237328044
 30
0.0
  0
VERTEX
  5
E4F
  8
DATA
  6
CONTINUOUS
 62
     7
 10
-858.62400000000014
 20
-886.59055237328062
 30
0.0
  0
VERTEX
  5
E50
  8
DATA
  6
CONTINUOUS
 62
     7
 10
-858.87799999999982
 20
-887.09855237328065
 30
0.0
  0
VERTEX
  5
E51
  8
DATA
  6
CONTINUOUS
 62
     7
 10
-858.87799999999982
 20
-887.8605523732806
 30
0.0
  0
VERTEX
  5
E52
  8
DATA
  6
CONTINUOUS
 62
     7
 10
-858.87799999999982
 20
-888.62255237328066
 30
0.0
  0
VERTEX
  5
E53
  8
DATA
  6
CONTINUOUS
 62
     7
 10
-858.87799999999982
 20
-889.13055237328092
 30
0.0
  0
VERTEX
  5
E54
  8
DATA
  6
CONTINUOUS
 62
     7
 10
-858.87799999999982
 20
-889.8925523732803
 30
0.0
  0
VERTEX
  5
E55
  8
DATA
  6
CONTINUOUS
 62
     7
 10
-859.13199999999972
 20
-890.40055237328045
 30
0.0
  0
VERTEX
  5
E56
  8
DATA
  6
CONTINUOUS
 62
     7
 10
-859.13199999999972
 20
-891.1625523732805
 30
0.0
  0
VERTEX
  5
E57
  8
DATA
  6
CONTINUOUS
 62
     7
 10
-859.13199999999972
 20
-891.92455237328022
 30
0.0
  0
VERTEX
  5
E58
  8
DATA
  6
CONTINUOUS
 62
     7
 10
-859.13199999999972
 20
-892.43255237328037
 30
0.0
  0
VERTEX
  5
E59
  8
DATA
  6
CONTINUOUS
 62
     7
 10
-859.13199999999972
 20
-893.19455237328066
 30
0.0
  0
VERTEX
  5
E5A
  8
DATA
  6
CONTINUOUS
 62
     7
 10
-859.13199999999972
 20
-893.70255237328081
 30
0.0
  0
VERTEX
  5
E5B
  8
DATA
  6
CONTINUOUS
 62
     7
 10
-859.13199999999972
 20
-894.46455237328053
 30
0.0
  0
VERTEX
  5
E5C
  8
DATA
  6
CONTINUOUS
 62
     7
 10
-859.38600000000065
 20
-894.97255237328068
 30
0.0
  0
VERTEX
  5
E5D
  8
DATA
  6
CONTINUOUS
 62
     7
 10
-859.38600000000065
 20
-895.73455237328062
 30
0.0
  0
VERTEX
  5
E5E
  8
DATA
  6
CONTINUOUS
 62
     7
 10
-859.38600000000065
 20
-896.49655237328045
 30
0.0
  0
VERTEX
  5
E5F
  8
DATA
  6
CONTINUOUS
 62
     7
 10
-859.38600000000065
 20
-897.00455237328049
 30
0.0
  0
VERTEX
  5
E60
  8
DATA
  6
CONTINUOUS
 62
     7
 10
-859.38600000000065
 20
-897.76655237328021
 30
0.0
  0
VERTEX
  5
E61
  8
DATA
  6
CONTINUOUS
 62
     7
 10
-859.38600000000065
 20
-898.27455237328036
 30
0.0
  0
VERTEX
  5
E62
  8
DATA
  6
CONTINUOUS
 62
     7
 10
-859.38600000000065
 20
-899.03655237328053
 30
0.0
  0
VERTEX
  5
E63
  8
DATA
  6
CONTINUOUS
 62
     7
 10
-859.64000000000044
 20
-899.79855237328081
 30
0.0
  0
VERTEX
  5
E64
  8
DATA
  6
CONTINUOUS
 62
     7
 10
-859.64000000000044
 20
-900.30655237328051
 30
0.0
  0
VERTEX
  5
E65
  8
DATA
  6
CONTINUOUS
 62
     7
 10
-859.64000000000044
 20
-901.06855237328034
 30
0.0
  0
VERTEX
  5
E66
  8
DATA
  6
CONTINUOUS
 62
     7
 10
-859.64000000000044
 20
-901.57655237328038
 30
0.0
  0
VERTEX
  5
E67
  8
DATA
  6
CONTINUOUS
 62
     7
 10
-859.64000000000044
 20
-902.33855237328066
 30
0.0
  0
VERTEX
  5
E68
  8
DATA
  6
CONTINUOUS
 62
     7
 10
-859.64000000000044
 20
-903.10055237328061
 30
0.0
  0
VERTEX
  5
E69
  8
DATA
  6
CONTINUOUS
 62
     7
 10
-859.64000000000044
 20
-903.60855237328065
 30
0.0
  0
VERTEX
  5
E6A
  8
DATA
  6
CONTINUOUS
 62
     7
 10
-859.64000000000044
 20
-904.37055237328025
 30
0.0
  0
VERTEX
  5
E6B
  8
DATA
  6
CONTINUOUS
 62
     7
 10
-859.89400000000035
 20
-904.87855237328063
 30
0.0
  0
VERTEX
  5
E6C
  8
DATA
  6
CONTINUOUS
 62
     7
 10
-859.89400000000035
 20
-905.64055237328046
 30
0.0
  0
VERTEX
  5
E6D
  8
DATA
  6
CONTINUOUS
 62
     7
 10
-859.89400000000035
 20
-906.40255237328029
 30
0.0
  0
VERTEX
  5
E6E
  8
DATA
  6
CONTINUOUS
 62
     7
 10
-859.89400000000035
 20
-906.91055237328032
 30
0.0
  0
VERTEX
  5
E6F
  8
DATA
  6
CONTINUOUS
 62
     7
 10
-859.89400000000035
 20
-907.67255237328038
 30
0.0
  0
VERTEX
  5
E70
  8
DATA
  6
CONTINUOUS
 62
     7
 10
-859.89400000000035
 20
-908.18055237328031
 30
0.0
  0
VERTEX
  5
E71
  8
DATA
  6
CONTINUOUS
 62
     7
 10
-859.89400000000035
 20
-908.94255237328014
 30
0.0
  0
VERTEX
  5
E72
  8
DATA
  6
CONTINUOUS
 62
     7
 10
-859.89400000000035
 20
-909.70455237328065
 30
0.0
  0
VERTEX
  5
E73
  8
DATA
  6
CONTINUOUS
 62
     7
 10
-859.89400000000035
 20
-910.21255237328035
 30
0.0
  0
VERTEX
  5
E74
  8
DATA
  6
CONTINUOUS
 62
     7
 10
-859.89400000000035
 20
-910.97455237328063
 30
0.0
  0
VERTEX
  5
E75
  8
DATA
  6
CONTINUOUS
 62
     7
 10
-859.89400000000035
 20
-911.48255237328021
 30
0.0
  0
VERTEX
  5
E76
  8
DATA
  6
CONTINUOUS
 62
     7
 10
-859.89400000000035
 20
-912.24455237328027
 30
0.0
  0
VERTEX
  5
E77
  8
DATA
  6
CONTINUOUS
 62
     7
 10
-859.89400000000035
 20
-913.00655237328033
 30
0.0
  0
VERTEX
  5
E78
  8
DATA
  6
CONTINUOUS
 62
     7
 10
-859.89400000000035
 20
-913.51455237328037
 30
0.0
  0
VERTEX
  5
E79
  8
DATA
  6
CONTINUOUS
 62
     7
 10
-860.14800000000025
 20
-914.27655237328031
 30
0.0
  0
VERTEX
  5
E7A
  8
DATA
  6
CONTINUOUS
 62
     7
 10
-860.14800000000025
 20
-914.78455237328035
 30
0.0
  0
VERTEX
  5
E7B
  8
DATA
  6
CONTINUOUS
 62
     7
 10
-860.14800000000025
 20
-915.54655237327995
 30
0.0
  0
SEQEND
  5
E7C
  8
DATA
  6
CONTINUOUS
 62
     7
  0
POLYLINE
  5
358
  8
DATA
  6
CONTINUOUS
 62
     7
 66
     1
 10
0.0
 20
0.0
 30
0.0
 70
   128
  0
VERTEX
  5
E7D
  8
DATA
  6
CONTINUOUS
 62
     7
 10
-1118.212
 20
-915.54655237327995
 30
0.0
  0
VERTEX
  5
E7E
  8
DATA
  6
CONTINUOUS
 62
     7
 10
-1118.212
 20
-916.30855237328035
 30
0.0
  0
VERTEX
  5
E7F
  8
DATA
  6
CONTINUOUS
 62
     7
 10
-1118.212
 20
-916.81655237328039
 30
0.0
  0
VERTEX
  5
E80
  8
DATA
  6
CONTINUOUS
 62
     7
 10
-1118.466000000001
 20
-917.57855237328067
 30
0.0
  0
VERTEX
  5
E81
  8
DATA
  6
CONTINUOUS
 62
     7
 10
-1118.466000000001
 20
-918.08655237328014
 30
0.0
  0
VERTEX
  5
E82
  8
DATA
  6
CONTINUOUS
 62
     7
 10
-1118.466000000001
 20
-918.84855237328065
 30
0.0
  0
VERTEX
  5
E83
  8
DATA
  6
CONTINUOUS
 62
     7
 10
-1118.466000000001
 20
-919.61055237328026
 30
0.0
  0
VERTEX
  5
E84
  8
DATA
  6
CONTINUOUS
 62
     7
 10
-1118.466000000001
 20
-920.11855237328075
 30
0.0
  0
VERTEX
  5
E85
  8
DATA
  6
CONTINUOUS
 62
     7
 10
-1118.466000000001
 20
-920.88055237328035
 30
0.0
  0
VERTEX
  5
E86
  8
DATA
  6
CONTINUOUS
 62
     7
 10
-1118.466000000001
 20
-921.38855237328039
 30
0.0
  0
VERTEX
  5
E87
  8
DATA
  6
CONTINUOUS
 62
     7
 10
-1118.466000000001
 20
-922.15055237328033
 30
0.0
  0
VERTEX
  5
E88
  8
DATA
  6
CONTINUOUS
 62
     7
 10
-1118.466000000001
 20
-922.91255237328039
 30
0.0
  0
VERTEX
  5
E89
  8
DATA
  6
CONTINUOUS
 62
     7
 10
-1118.466000000001
 20
-923.42055237328043
 30
0.0
  0
VERTEX
  5
E8A
  8
DATA
  6
CONTINUOUS
 62
     7
 10
-1118.466000000001
 20
-924.18255237328049
 30
0.0
  0
VERTEX
  5
E8B
  8
DATA
  6
CONTINUOUS
 62
     7
 10
-1118.466000000001
 20
-924.69055237328007
 30
0.0
  0
VERTEX
  5
E8C
  8
DATA
  6
CONTINUOUS
 62
     7
 10
-1118.466000000001
 20
-925.4525523732807
 30
0.0
  0
VERTEX
  5
E8D
  8
DATA
  6
CONTINUOUS
 62
     7
 10
-1118.466000000001
 20
-926.21455237328064
 30
0.0
  0
VERTEX
  5
E8E
  8
DATA
  6
CONTINUOUS
 62
     7
 10
-1118.7200000000009
 20
-926.72255237328022
 30
0.0
  0
VERTEX
  5
E8F
  8
DATA
  6
CONTINUOUS
 62
     7
 10
-1118.7200000000009
 20
-927.48455237328028
 30
0.0
  0
VERTEX
  5
E90
  8
DATA
  6
CONTINUOUS
 62
     7
 10
-1118.7200000000009
 20
-927.99255237328032
 30
0.0
  0
VERTEX
  5
E91
  8
DATA
  6
CONTINUOUS
 62
     7
 10
-1118.7200000000009
 20
-928.7545523732806
 30
0.0
  0
VERTEX
  5
E92
  8
DATA
  6
CONTINUOUS
 62
     7
 10
-1118.7200000000009
 20
-929.51655237328032
 30
0.0
  0
VERTEX
  5
E93
  8
DATA
  6
CONTINUOUS
 62
     7
 10
-1118.7200000000009
 20
-930.02455237328024
 30
0.0
  0
VERTEX
  5
E94
  8
DATA
  6
CONTINUOUS
 62
     7
 10
-1118.7200000000009
 20
-930.78655237328019
 30
0.0
  0
VERTEX
  5
E95
  8
DATA
  6
CONTINUOUS
 62
     7
 10
-1118.7200000000009
 20
-931.29455237328034
 30
0.0
  0
VERTEX
  5
E96
  8
DATA
  6
CONTINUOUS
 62
     7
 10
-1118.9739999999999
 20
-932.05655237328028
 30
0.0
  0
VERTEX
  5
E97
  8
DATA
  6
CONTINUOUS
 62
     7
 10
-1118.9739999999999
 20
-932.81855237328068
 30
0.0
  0
VERTEX
  5
E98
  8
DATA
  6
CONTINUOUS
 62
     7
 10
-1118.9739999999999
 20
-933.32655237328049
 30
0.0
  0
VERTEX
  5
E99
  8
DATA
  6
CONTINUOUS
 62
     7
 10
-1118.9739999999999
 20
-934.08855237328032
 30
0.0
  0
VERTEX
  5
E9A
  8
DATA
  6
CONTINUOUS
 62
     7
 10
-1118.9739999999999
 20
-934.59655237328036
 30
0.0
  0
VERTEX
  5
E9B
  8
DATA
  6
CONTINUOUS
 62
     7
 10
-1118.9739999999999
 20
-935.35855237328065
 30
0.0
  0
VERTEX
  5
E9C
  8
DATA
  6
CONTINUOUS
 62
     7
 10
-1118.9739999999999
 20
-936.12055237328036
 30
0.0
  0
VERTEX
  5
E9D
  8
DATA
  6
CONTINUOUS
 62
     7
 10
-1119.2280000000001
 20
-936.62855237328017
 30
0.0
  0
VERTEX
  5
E9E
  8
DATA
  6
CONTINUOUS
 62
     7
 10
-1119.2280000000001
 20
-937.39055237328034
 30
0.0
  0
VERTEX
  5
E9F
  8
DATA
  6
CONTINUOUS
 62
     7
 10
-1119.2280000000001
 20
-937.89855237328061
 30
0.0
  0
VERTEX
  5
EA0
  8
DATA
  6
CONTINUOUS
 62
     7
 10
-1119.2280000000001
 20
-938.66055237328044
 30
0.0
  0
VERTEX
  5
EA1
  8
DATA
  6
CONTINUOUS
 62
     7
 10
-1119.2280000000001
 20
-939.16855237328025
 30
0.0
  0
VERTEX
  5
EA2
  8
DATA
  6
CONTINUOUS
 62
     7
 10
-1119.2280000000001
 20
-939.93055237328019
 30
0.0
  0
VERTEX
  5
EA3
  8
DATA
  6
CONTINUOUS
 62
     7
 10
-1119.2280000000001
 20
-940.69255237328025
 30
0.0
  0
VERTEX
  5
EA4
  8
DATA
  6
CONTINUOUS
 62
     7
 10
-1119.482
 20
-941.20055237328029
 30
0.0
  0
VERTEX
  5
EA5
  8
DATA
  6
CONTINUOUS
 62
     7
 10
-1119.482
 20
-941.96255237328023
 30
0.0
  0
VERTEX
  5
EA6
  8
DATA
  6
CONTINUOUS
 62
     7
 10
-1119.482
 20
-942.47055237328038
 30
0.0
  0
VERTEX
  5
EA7
  8
DATA
  6
CONTINUOUS
 62
     7
 10
-1119.482
 20
-943.23255237328033
 30
0.0
  0
VERTEX
  5
EA8
  8
DATA
  6
CONTINUOUS
 62
     7
 10
-1119.482
 20
-943.99455237328061
 30
0.0
  0
VERTEX
  5
EA9
  8
DATA
  6
CONTINUOUS
 62
     7
 10
-1119.7360000000001
 20
-944.50255237328065
 30
0.0
  0
VERTEX
  5
EAA
  8
DATA
  6
CONTINUOUS
 62
     7
 10
-1119.7360000000001
 20
-945.26455237328025
 30
0.0
  0
VERTEX
  5
EAB
  8
DATA
  6
CONTINUOUS
 62
     7
 10
-1119.7360000000001
 20
-945.77255237328063
 30
0.0
  0
VERTEX
  5
EAC
  8
DATA
  6
CONTINUOUS
 62
     7
 10
-1119.7360000000001
 20
-946.53455237328035
 30
0.0
  0
VERTEX
  5
EAD
  8
DATA
  6
CONTINUOUS
 62
     7
 10
-1119.7360000000001
 20
-947.29655237328029
 30
0.0
  0
VERTEX
  5
EAE
  8
DATA
  6
CONTINUOUS
 62
     7
 10
-1119.7360000000001
 20
-947.80455237328022
 30
0.0
  0
VERTEX
  5
EAF
  8
DATA
  6
CONTINUOUS
 62
     7
 10
-1119.99
 20
-948.56655237328016
 30
0.0
  0
VERTEX
  5
EB0
  8
DATA
  6
CONTINUOUS
 62
     7
 10
-1119.99
 20
-949.07455237328031
 30
0.0
  0
VERTEX
  5
EB1
  8
DATA
  6
CONTINUOUS
 62
     7
 10
-1119.99
 20
-949.83655237328037
 30
0.0
  0
VERTEX
  5
EB2
  8
DATA
  6
CONTINUOUS
 62
     7
 10
-1119.99
 20
-950.59855237328065
 30
0.0
  0
VERTEX
  5
EB3
  8
DATA
  6
CONTINUOUS
 62
     7
 10
-1119.99
 20
-951.10655237328081
 30
0.0
  0
VERTEX
  5
EB4
  8
DATA
  6
CONTINUOUS
 62
     7
 10
-1120.2439999999999
 20
-951.86855237328064
 30
0.0
  0
VERTEX
  5
EB5
  8
DATA
  6
CONTINUOUS
 62
     7
 10
-1120.2439999999999
 20
-952.37655237328067
 30
0.0
  0
VERTEX
  5
EB6
  8
DATA
  6
CONTINUOUS
 62
     7
 10
-1120.2439999999999
 20
-953.13855237328062
 30
0.0
  0
VERTEX
  5
EB7
  8
DATA
  6
CONTINUOUS
 62
     7
 10
-1120.2439999999999
 20
-953.64655237328066
 30
0.0
  0
VERTEX
  5
EB8
  8
DATA
  6
CONTINUOUS
 62
     7
 10
-1120.2439999999999
 20
-954.40855237328049
 30
0.0
  0
VERTEX
  5
EB9
  8
DATA
  6
CONTINUOUS
 62
     7
 10
-1120.498
 20
-955.17055237328032
 30
0.0
  0
VERTEX
  5
EBA
  8
DATA
  6
CONTINUOUS
 62
     7
 10
-1120.498
 20
-955.67855237328035
 30
0.0
  0
VERTEX
  5
EBB
  8
DATA
  6
CONTINUOUS
 62
     7
 10
-1120.498
 20
-956.4405523732803
 30
0.0
  0
VERTEX
  5
EBC
  8
DATA
  6
CONTINUOUS
 62
     7
 10
-1120.498
 20
-956.94855237328034
 30
0.0
  0
VERTEX
  5
EBD
  8
DATA
  6
CONTINUOUS
 62
     7
 10
-1120.498
 20
-957.71055237328005
 30
0.0
  0
VERTEX
  5
EBE
  8
DATA
  6
CONTINUOUS
 62
     7
 10
-1120.7520000000011
 20
-958.47255237328068
 30
0.0
  0
VERTEX
  5
EBF
  8
DATA
  6
CONTINUOUS
 62
     7
 10
-1120.7520000000011
 20
-958.98055237328037
 30
0.0
  0
VERTEX
  5
EC0
  8
DATA
  6
CONTINUOUS
 62
     7
 10
-1120.7520000000011
 20
-959.74255237328066
 30
0.0
  0
VERTEX
  5
EC1
  8
DATA
  6
CONTINUOUS
 62
     7
 10
-1120.7520000000011
 20
-960.25055237328036
 30
0.0
  0
VERTEX
  5
EC2
  8
DATA
  6
CONTINUOUS
 62
     7
 10
-1121.006000000001
 20
-961.01255237328064
 30
0.0
  0
VERTEX
  5
EC3
  8
DATA
  6
CONTINUOUS
 62
     7
 10
-1121.006000000001
 20
-961.77455237328036
 30
0.0
  0
VERTEX
  5
EC4
  8
DATA
  6
CONTINUOUS
 62
     7
 10
-1121.006000000001
 20
-962.28255237328074
 30
0.0
  0
VERTEX
  5
EC5
  8
DATA
  6
CONTINUOUS
 62
     7
 10
-1121.006000000001
 20
-963.04455237328023
 30
0.0
  0
VERTEX
  5
EC6
  8
DATA
  6
CONTINUOUS
 62
     7
 10
-1121.006000000001
 20
-963.55255237328049
 30
0.0
  0
VERTEX
  5
EC7
  8
DATA
  6
CONTINUOUS
 62
     7
 10
-1121.2600000000009
 20
-964.31455237328032
 30
0.0
  0
VERTEX
  5
EC8
  8
DATA
  6
CONTINUOUS
 62
     7
 10
-1121.5139999999999
 20
-968.88655237328021
 30
0.0
  0
VERTEX
  5
EC9
  8
DATA
  6
CONTINUOUS
 62
     7
 10
-1121.768
 20
-970.15655237328065
 30
0.0
  0
VERTEX
  5
ECA
  8
DATA
  6
CONTINUOUS
 62
     7
 10
-1121.768
 20
-970.91855237328036
 30
0.0
  0
VERTEX
  5
ECB
  8
DATA
  6
CONTINUOUS
 62
     7
 10
-1121.768
 20
-971.42655237328029
 30
0.0
  0
VERTEX
  5
ECC
  8
DATA
  6
CONTINUOUS
 62
     7
 10
-1121.768
 20
-972.18855237328034
 30
0.0
  0
VERTEX
  5
ECD
  8
DATA
  6
CONTINUOUS
 62
     7
 10
-1121.768
 20
-972.95055237327995
 30
0.0
  0
VERTEX
  5
ECE
  8
DATA
  6
CONTINUOUS
 62
     7
 10
-1122.0219999999999
 20
-973.45855237328033
 30
0.0
  0
VERTEX
  5
ECF
  8
DATA
  6
CONTINUOUS
 62
     7
 10
-1122.0219999999999
 20
-974.22055237328038
 30
0.0
  0
VERTEX
  5
ED0
  8
DATA
  6
CONTINUOUS
 62
     7
 10
-1122.0219999999999
 20
-974.72855237328019
 30
0.0
  0
VERTEX
  5
ED1
  8
DATA
  6
CONTINUOUS
 62
     7
 10
-1122.0219999999999
 20
-975.49055237328014
 30
0.0
  0
VERTEX
  5
ED2
  8
DATA
  6
CONTINUOUS
 62
     7
 10
-1122.0219999999999
 20
-976.25255237328065
 30
0.0
  0
VERTEX
  5
ED3
  8
DATA
  6
CONTINUOUS
 62
     7
 10
-1122.2760000000001
 20
-976.76055237328069
 30
0.0
  0
VERTEX
  5
ED4
  8
DATA
  6
CONTINUOUS
 62
     7
 10
-1122.2760000000001
 20
-977.52255237328075
 30
0.0
  0
VERTEX
  5
ED5
  8
DATA
  6
CONTINUOUS
 62
     7
 10
-1122.2760000000001
 20
-978.03055237328033
 30
0.0
  0
VERTEX
  5
ED6
  8
DATA
  6
CONTINUOUS
 62
     7
 10
-1122.2760000000001
 20
-978.79255237328039
 30
0.0
  0
VERTEX
  5
ED7
  8
DATA
  6
CONTINUOUS
 62
     7
 10
-1122.53
 20
-979.30055237328065
 30
0.0
  0
VERTEX
  5
ED8
  8
DATA
  6
CONTINUOUS
 62
     7
 10
-1122.53
 20
-980.0625523732806
 30
0.0
  0
VERTEX
  5
ED9
  8
DATA
  6
CONTINUOUS
 62
     7
 10
-1122.53
 20
-980.82455237328043
 30
0.0
  0
VERTEX
  5
EDA
  8
DATA
  6
CONTINUOUS
 62
     7
 10
-1122.53
 20
-981.33255237328035
 30
0.0
  0
VERTEX
  5
EDB
  8
DATA
  6
CONTINUOUS
 62
     7
 10
-1122.53
 20
-982.09455237328007
 30
0.0
  0
VERTEX
  5
EDC
  8
DATA
  6
CONTINUOUS
 62
     7
 10
-1122.7840000000001
 20
-982.60255237328045
 30
0.0
  0
VERTEX
  5
EDD
  8
DATA
  6
CONTINUOUS
 62
     7
 10
-1122.7840000000001
 20
-983.36455237328028
 30
0.0
  0
VERTEX
  5
EDE
  8
DATA
  6
CONTINUOUS
 62
     7
 10
-1122.7840000000001
 20
-984.12655237328022
 30
0.0
  0
VERTEX
  5
EDF
  8
DATA
  6
CONTINUOUS
 62
     7
 10
-1122.7840000000001
 20
-984.63455237328037
 30
0.0
  0
VERTEX
  5
EE0
  8
DATA
  6
CONTINUOUS
 62
     7
 10
-1122.7840000000001
 20
-985.39655237328066
 30
0.0
  0
VERTEX
  5
EE1
  8
DATA
  6
CONTINUOUS
 62
     7
 10
-1123.038
 20
-985.90455237328013
 30
0.0
  0
VERTEX
  5
EE2
  8
DATA
  6
CONTINUOUS
 62
     7
 10
-1123.038
 20
-986.66655237328041
 30
0.0
  0
VERTEX
  5
EE3
  8
DATA
  6
CONTINUOUS
 62
     7
 10
-1123.038
 20
-987.42855237328035
 30
0.0
  0
VERTEX
  5
EE4
  8
DATA
  6
CONTINUOUS
 62
     7
 10
-1123.038
 20
-987.93655237328062
 30
0.0
  0
VERTEX
  5
EE5
  8
DATA
  6
CONTINUOUS
 62
     7
 10
-1123.038
 20
-988.69855237328034
 30
0.0
  0
VERTEX
  5
EE6
  8
DATA
  6
CONTINUOUS
 62
     7
 10
-1123.038
 20
-989.20655237328083
 30
0.0
  0
VERTEX
  5
EE7
  8
DATA
  6
CONTINUOUS
 62
     7
 10
-1123.2919999999999
 20
-989.9685523732802
 30
0.0
  0
VERTEX
  5
EE8
  8
DATA
  6
CONTINUOUS
 62
     7
 10
-1123.2919999999999
 20
-990.73055237328049
 30
0.0
  0
VERTEX
  5
EE9
  8
DATA
  6
CONTINUOUS
 62
     7
 10
-1123.2919999999999
 20
-991.2385523732803
 30
0.0
  0
VERTEX
  5
EEA
  8
DATA
  6
CONTINUOUS
 62
     7
 10
-1123.2919999999999
 20
-992.00055237328036
 30
0.0
  0
VERTEX
  5
EEB
  8
DATA
  6
CONTINUOUS
 62
     7
 10
-1123.2919999999999
 20
-992.50855237328005
 30
0.0
  0
VERTEX
  5
EEC
  8
DATA
  6
CONTINUOUS
 62
     7
 10
-1123.2919999999999
 20
-993.27055237328034
 30
0.0
  0
VERTEX
  5
EED
  8
DATA
  6
CONTINUOUS
 62
     7
 10
-1123.546000000001
 20
-994.03255237328062
 30
0.0
  0
VERTEX
  5
EEE
  8
DATA
  6
CONTINUOUS
 62
     7
 10
-1123.546000000001
 20
-994.54055237328032
 30
0.0
  0
VERTEX
  5
EEF
  8
DATA
  6
CONTINUOUS
 62
     7
 10
-1123.546000000001
 20
-995.30255237328061
 30
0.0
  0
VERTEX
  5
EF0
  8
DATA
  6
CONTINUOUS
 62
     7
 10
-1123.546000000001
 20
-995.81055237328064
 30
0.0
  0
VERTEX
  5
EF1
  8
DATA
  6
CONTINUOUS
 62
     7
 10
-1123.546000000001
 20
-996.57255237328025
 30
0.0
  0
VERTEX
  5
EF2
  8
DATA
  6
CONTINUOUS
 62
     7
 10
-1123.546000000001
 20
-997.08055237328063
 30
0.0
  0
VERTEX
  5
EF3
  8
DATA
  6
CONTINUOUS
 62
     7
 10
-1123.8000000000011
 20
-997.84255237328045
 30
0.0
  0
VERTEX
  5
EF4
  8
DATA
  6
CONTINUOUS
 62
     7
 10
-1123.8000000000011
 20
-998.60455237328028
 30
0.0
  0
VERTEX
  5
EF5
  8
DATA
  6
CONTINUOUS
 62
     7
 10
-1123.8000000000011
 20
-999.11255237328032
 30
0.0
  0
VERTEX
  5
EF6
  8
DATA
  6
CONTINUOUS
 62
     7
 10
-1123.8000000000011
 20
-999.87455237328061
 30
0.0
  0
VERTEX
  5
EF7
  8
DATA
  6
CONTINUOUS
 62
     7
 10
-1123.8000000000011
 20
-1000.38255237328
 30
0.0
  0
VERTEX
  5
EF8
  8
DATA
  6
CONTINUOUS
 62
     7
 10
-1123.8000000000011
 20
-1001.144552373281
 30
0.0
  0
VERTEX
  5
EF9
  8
DATA
  6
CONTINUOUS
 62
     7
 10
-1123.8000000000011
 20
-1001.90655237328
 30
0.0
  0
VERTEX
  5
EFA
  8
DATA
  6
CONTINUOUS
 62
     7
 10
-1124.0540000000001
 20
-1002.414552373281
 30
0.0
  0
VERTEX
  5
EFB
  8
DATA
  6
CONTINUOUS
 62
     7
 10
-1124.0540000000001
 20
-1003.1765523732799
 30
0.0
  0
VERTEX
  5
EFC
  8
DATA
  6
CONTINUOUS
 62
     7
 10
-1124.0540000000001
 20
-1003.684552373281
 30
0.0
  0
VERTEX
  5
EFD
  8
DATA
  6
CONTINUOUS
 62
     7
 10
-1124.0540000000001
 20
-1004.446552373281
 30
0.0
  0
VERTEX
  5
EFE
  8
DATA
  6
CONTINUOUS
 62
     7
 10
-1124.0540000000001
 20
-1005.20855237328
 30
0.0
  0
VERTEX
  5
EFF
  8
DATA
  6
CONTINUOUS
 62
     7
 10
-1124.0540000000001
 20
-1005.71655237328
 30
0.0
  0
VERTEX
  5
F00
  8
DATA
  6
CONTINUOUS
 62
     7
 10
-1124.0540000000001
 20
-1006.47855237328
 30
0.0
  0
VERTEX
  5
F01
  8
DATA
  6
CONTINUOUS
 62
     7
 10
-1124.0540000000001
 20
-1006.98655237328
 30
0.0
  0
VERTEX
  5
F02
  8
DATA
  6
CONTINUOUS
 62
     7
 10
-1124.0540000000001
 20
-1007.7485523732799
 30
0.0
  0
VERTEX
  5
F03
  8
DATA
  6
CONTINUOUS
 62
     7
 10
-1124.308
 20
-1008.510552373281
 30
0.0
  0
VERTEX
  5
F04
  8
DATA
  6
CONTINUOUS
 62
     7
 10
-1124.308
 20
-1009.01855237328
 30
0.0
  0
VERTEX
  5
F05
  8
DATA
  6
CONTINUOUS
 62
     7
 10
-1124.308
 20
-1009.780552373281
 30
0.0
  0
VERTEX
  5
F06
  8
DATA
  6
CONTINUOUS
 62
     7
 10
-1124.308
 20
-1010.28855237328
 30
0.0
  0
VERTEX
  5
F07
  8
DATA
  6
CONTINUOUS
 62
     7
 10
-1124.308
 20
-1011.050552373281
 30
0.0
  0
VERTEX
  5
F08
  8
DATA
  6
CONTINUOUS
 62
     7
 10
-1124.308
 20
-1011.81255237328
 30
0.0
  0
VERTEX
  5
F09
  8
DATA
  6
CONTINUOUS
 62
     7
 10
-1124.308
 20
-1012.320552373281
 30
0.0
  0
VERTEX
  5
F0A
  8
DATA
  6
CONTINUOUS
 62
     7
 10
-1124.308
 20
-1013.082552373281
 30
0.0
  0
VERTEX
  5
F0B
  8
DATA
  6
CONTINUOUS
 62
     7
 10
-1124.308
 20
-1013.59055237328
 30
0.0
  0
VERTEX
  5
F0C
  8
DATA
  6
CONTINUOUS
 62
     7
 10
-1124.308
 20
-1014.352552373281
 30
0.0
  0
VERTEX
  5
F0D
  8
DATA
  6
CONTINUOUS
 62
     7
 10
-1124.308
 20
-1015.11455237328
 30
0.0
  0
VERTEX
  5
F0E
  8
DATA
  6
CONTINUOUS
 62
     7
 10
-1124.5619999999999
 20
-1015.62255237328
 30
0.0
  0
VERTEX
  5
F0F
  8
DATA
  6
CONTINUOUS
 62
     7
 10
-1124.5619999999999
 20
-1016.38455237328
 30
0.0
  0
VERTEX
  5
F10
  8
DATA
  6
CONTINUOUS
 62
     7
 10
-1124.5619999999999
 20
-1016.89255237328
 30
0.0
  0
VERTEX
  5
F11
  8
DATA
  6
CONTINUOUS
 62
     7
 10
-1124.5619999999999
 20
-1017.65455237328
 30
0.0
  0
VERTEX
  5
F12
  8
DATA
  6
CONTINUOUS
 62
     7
 10
-1124.5619999999999
 20
-1018.41655237328
 30
0.0
  0
VERTEX
  5
F13
  8
DATA
  6
CONTINUOUS
 62
     7
 10
-1124.5619999999999
 20
-1018.92455237328
 30
0.0
  0
VERTEX
  5
F14
  8
DATA
  6
CONTINUOUS
 62
     7
 10
-1124.5619999999999
 20
-1019.6865523732801
 30
0.0
  0
VERTEX
  5
F15
  8
DATA
  6
CONTINUOUS
 62
     7
 10
-1124.5619999999999
 20
-1020.19455237328
 30
0.0
  0
VERTEX
  5
F16
  8
DATA
  6
CONTINUOUS
 62
     7
 10
-1124.5619999999999
 20
-1020.95655237328
 30
0.0
  0
VERTEX
  5
F17
  8
DATA
  6
CONTINUOUS
 62
     7
 10
-1124.5619999999999
 20
-1021.71855237328
 30
0.0
  0
VERTEX
  5
F18
  8
DATA
  6
CONTINUOUS
 62
     7
 10
-1124.5619999999999
 20
-1022.22655237328
 30
0.0
  0
VERTEX
  5
F19
  8
DATA
  6
CONTINUOUS
 62
     7
 10
-1124.5619999999999
 20
-1022.98855237328
 30
0.0
  0
VERTEX
  5
F1A
  8
DATA
  6
CONTINUOUS
 62
     7
 10
-1124.5619999999999
 20
-1023.496552373281
 30
0.0
  0
VERTEX
  5
F1B
  8
DATA
  6
CONTINUOUS
 62
     7
 10
-1124.5619999999999
 20
-1024.2585523732801
 30
0.0
  0
VERTEX
  5
F1C
  8
DATA
  6
CONTINUOUS
 62
     7
 10
-1124.308
 20
-1025.02055237328
 30
0.0
  0
VERTEX
  5
F1D
  8
DATA
  6
CONTINUOUS
 62
     7
 10
-1124.308
 20
-1025.52855237328
 30
0.0
  0
VERTEX
  5
F1E
  8
DATA
  6
CONTINUOUS
 62
     7
 10
-1124.308
 20
-1026.29055237328
 30
0.0
  0
VERTEX
  5
F1F
  8
DATA
  6
CONTINUOUS
 62
     7
 10
-1124.308
 20
-1026.79855237328
 30
0.0
  0
VERTEX
  5
F20
  8
DATA
  6
CONTINUOUS
 62
     7
 10
-1124.0540000000001
 20
-1027.56055237328
 30
0.0
  0
VERTEX
  5
F21
  8
DATA
  6
CONTINUOUS
 62
     7
 10
-1124.0540000000001
 20
-1028.06855237328
 30
0.0
  0
VERTEX
  5
F22
  8
DATA
  6
CONTINUOUS
 62
     7
 10
-1124.0540000000001
 20
-1028.8305523732799
 30
0.0
  0
VERTEX
  5
F23
  8
DATA
  6
CONTINUOUS
 62
     7
 10
-1123.8000000000011
 20
-1029.5925523732799
 30
0.0
  0
VERTEX
  5
F24
  8
DATA
  6
CONTINUOUS
 62
     7
 10
-1123.8000000000011
 20
-1030.1005523732799
 30
0.0
  0
VERTEX
  5
F25
  8
DATA
  6
CONTINUOUS
 62
     7
 10
-1123.546000000001
 20
-1030.8625523732801
 30
0.0
  0
VERTEX
  5
F26
  8
DATA
  6
CONTINUOUS
 62
     7
 10
-1123.546000000001
 20
-1031.3705523732799
 30
0.0
  0
VERTEX
  5
F27
  8
DATA
  6
CONTINUOUS
 62
     7
 10
-1123.2919999999999
 20
-1032.1325523732801
 30
0.0
  0
VERTEX
  5
F28
  8
DATA
  6
CONTINUOUS
 62
     7
 10
-1123.038
 20
-1032.6405523732799
 30
0.0
  0
VERTEX
  5
F29
  8
DATA
  6
CONTINUOUS
 62
     7
 10
-1122.7840000000001
 20
-1033.4025523732801
 30
0.0
  0
VERTEX
  5
F2A
  8
DATA
  6
CONTINUOUS
 62
     7
 10
-1122.7840000000001
 20
-1033.9105523732801
 30
0.0
  0
VERTEX
  5
F2B
  8
DATA
  6
CONTINUOUS
 62
     7
 10
-1122.53
 20
-1034.4185523732799
 30
0.0
  0
VERTEX
  5
F2C
  8
DATA
  6
CONTINUOUS
 62
     7
 10
-1122.2760000000001
 20
-1035.1805523732801
 30
0.0
  0
VERTEX
  5
F2D
  8
DATA
  6
CONTINUOUS
 62
     7
 10
-1122.0219999999999
 20
-1035.6885523732799
 30
0.0
  0
VERTEX
  5
F2E
  8
DATA
  6
CONTINUOUS
 62
     7
 10
-1121.768
 20
-1036.4505523732801
 30
0.0
  0
VERTEX
  5
F2F
  8
DATA
  6
CONTINUOUS
 62
     7
 10
-1121.2600000000009
 20
-1036.9585523732801
 30
0.0
  0
VERTEX
  5
F30
  8
DATA
  6
CONTINUOUS
 62
     7
 10
-1121.006000000001
 20
-1037.4665523732799
 30
0.0
  0
VERTEX
  5
F31
  8
DATA
  6
CONTINUOUS
 62
     7
 10
-1120.7520000000011
 20
-1037.9745523732799
 30
0.0
  0
VERTEX
  5
F32
  8
DATA
  6
CONTINUOUS
 62
     7
 10
-1120.498
 20
-1038.7365523732799
 30
0.0
  0
VERTEX
  5
F33
  8
DATA
  6
CONTINUOUS
 62
     7
 10
-1119.99
 20
-1039.2445523732799
 30
0.0
  0
VERTEX
  5
F34
  8
DATA
  6
CONTINUOUS
 62
     7
 10
-1119.7360000000001
 20
-1039.75255237328
 30
0.0
  0
VERTEX
  5
F35
  8
DATA
  6
CONTINUOUS
 62
     7
 10
-1119.2280000000001
 20
-1040.2605523732809
 30
0.0
  0
VERTEX
  5
F36
  8
DATA
  6
CONTINUOUS
 62
     7
 10
-1118.9739999999999
 20
-1040.76855237328
 30
0.0
  0
VERTEX
  5
F37
  8
DATA
  6
CONTINUOUS
 62
     7
 10
-1118.466000000001
 20
-1041.2765523732801
 30
0.0
  0
VERTEX
  5
F38
  8
DATA
  6
CONTINUOUS
 62
     7
 10
-1118.212
 20
-1041.7845523732799
 30
0.0
  0
VERTEX
  5
F39
  8
DATA
  6
CONTINUOUS
 62
     7
 10
-1117.704
 20
-1042.2925523732799
 30
0.0
  0
VERTEX
  5
F3A
  8
DATA
  6
CONTINUOUS
 62
     7
 10
-1117.1959999999999
 20
-1042.8005523732811
 30
0.0
  0
VERTEX
  5
F3B
  8
DATA
  6
CONTINUOUS
 62
     7
 10
-1116.942
 20
-1043.30855237328
 30
0.0
  0
VERTEX
  5
F3C
  8
DATA
  6
CONTINUOUS
 62
     7
 10
-1116.434
 20
-1043.81655237328
 30
0.0
  0
VERTEX
  5
F3D
  8
DATA
  6
CONTINUOUS
 62
     7
 10
-1115.9259999999999
 20
-1044.07055237328
 30
0.0
  0
VERTEX
  5
F3E
  8
DATA
  6
CONTINUOUS
 62
     7
 10
-1115.4179999999999
 20
-1044.57855237328
 30
0.0
  0
VERTEX
  5
F3F
  8
DATA
  6
CONTINUOUS
 62
     7
 10
-1114.9100000000001
 20
-1045.08655237328
 30
0.0
  0
VERTEX
  5
F40
  8
DATA
  6
CONTINUOUS
 62
     7
 10
-1114.402
 20
-1045.5945523732801
 30
0.0
  0
VERTEX
  5
F41
  8
DATA
  6
CONTINUOUS
 62
     7
 10
-1113.8940000000009
 20
-1045.84855237328
 30
0.0
  0
VERTEX
  5
F42
  8
DATA
  6
CONTINUOUS
 62
     7
 10
-1113.3860000000011
 20
-1046.35655237328
 30
0.0
  0
VERTEX
  5
F43
  8
DATA
  6
CONTINUOUS
 62
     7
 10
-1112.8779999999999
 20
-1046.6105523732799
 30
0.0
  0
VERTEX
  5
F44
  8
DATA
  6
CONTINUOUS
 62
     7
 10
-1112.3699999999999
 20
-1047.11855237328
 30
0.0
  0
VERTEX
  5
F45
  8
DATA
  6
CONTINUOUS
 62
     7
 10
-1111.8620000000001
 20
-1047.3725523732801
 30
0.0
  0
VERTEX
  5
F46
  8
DATA
  6
CONTINUOUS
 62
     7
 10
-1111.354000000001
 20
-1047.6265523732809
 30
0.0
  0
VERTEX
  5
F47
  8
DATA
  6
CONTINUOUS
 62
     7
 10
-1110.846
 20
-1048.13455237328
 30
0.0
  0
VERTEX
  5
F48
  8
DATA
  6
CONTINUOUS
 62
     7
 10
-1110.0840000000001
 20
-1048.3885523732799
 30
0.0
  0
VERTEX
  5
F49
  8
DATA
  6
CONTINUOUS
 62
     7
 10
-1109.576
 20
-1048.6425523732801
 30
0.0
  0
VERTEX
  5
F4A
  8
DATA
  6
CONTINUOUS
 62
     7
 10
-1109.068
 20
-1048.8965523732811
 30
0.0
  0
VERTEX
  5
F4B
  8
DATA
  6
CONTINUOUS
 62
     7
 10
-1108.5599999999999
 20
-1049.1505523732801
 30
0.0
  0
VERTEX
  5
F4C
  8
DATA
  6
CONTINUOUS
 62
     7
 10
-1107.798
 20
-1049.40455237328
 30
0.0
  0
VERTEX
  5
F4D
  8
DATA
  6
CONTINUOUS
 62
     7
 10
-1107.29
 20
-1049.6585523732799
 30
0.0
  0
VERTEX
  5
F4E
  8
DATA
  6
CONTINUOUS
 62
     7
 10
-1106.7819999999999
 20
-1049.9125523732801
 30
0.0
  0
VERTEX
  5
F4F
  8
DATA
  6
CONTINUOUS
 62
     7
 10
-1106.02
 20
-1050.1665523732811
 30
0.0
  0
VERTEX
  5
F50
  8
DATA
  6
CONTINUOUS
 62
     7
 10
-1105.5119999999999
 20
-1050.1665523732811
 30
0.0
  0
VERTEX
  5
F51
  8
DATA
  6
CONTINUOUS
 62
     7
 10
-1104.75
 20
-1050.4205523732801
 30
0.0
  0
VERTEX
  5
F52
  8
DATA
  6
CONTINUOUS
 62
     7
 10
-1104.2420000000011
 20
-1050.67455237328
 30
0.0
  0
VERTEX
  5
F53
  8
DATA
  6
CONTINUOUS
 62
     7
 10
-1103.48
 20
-1050.67455237328
 30
0.0
  0
VERTEX
  5
F54
  8
DATA
  6
CONTINUOUS
 62
     7
 10
-1102.972
 20
-1050.9285523732799
 30
0.0
  0
VERTEX
  5
F55
  8
DATA
  6
CONTINUOUS
 62
     7
 10
-1102.4639999999999
 20
-1050.9285523732799
 30
0.0
  0
VERTEX
  5
F56
  8
DATA
  6
CONTINUOUS
 62
     7
 10
-1101.7020000000009
 20
-1051.1825523732809
 30
0.0
  0
VERTEX
  5
F57
  8
DATA
  6
CONTINUOUS
 62
     7
 10
-1101.194
 20
-1051.1825523732809
 30
0.0
  0
VERTEX
  5
F58
  8
DATA
  6
CONTINUOUS
 62
     7
 10
-1100.432
 20
-1051.1825523732809
 30
0.0
  0
VERTEX
  5
F59
  8
DATA
  6
CONTINUOUS
 62
     7
 10
-1099.924
 20
-1051.4365523732799
 30
0.0
  0
VERTEX
  5
F5A
  8
DATA
  6
CONTINUOUS
 62
     7
 10
-1099.1620000000009
 20
-1051.4365523732799
 30
0.0
  0
VERTEX
  5
F5B
  8
DATA
  6
CONTINUOUS
 62
     7
 10
-1098.654
 20
-1051.4365523732799
 30
0.0
  0
VERTEX
  5
F5C
  8
DATA
  6
CONTINUOUS
 62
     7
 10
-1097.8920000000001
 20
-1051.4365523732799
 30
0.0
  0
VERTEX
  5
F5D
  8
DATA
  6
CONTINUOUS
 62
     7
 10
-1097.384
 20
-1051.6905523732801
 30
0.0
  0
VERTEX
  5
F5E
  8
DATA
  6
CONTINUOUS
 62
     7
 10
-1096.6220000000001
 20
-1051.6905523732801
 30
0.0
  0
VERTEX
  5
F5F
  8
DATA
  6
CONTINUOUS
 62
     7
 10
-1096.114
 20
-1051.6905523732801
 30
0.0
  0
VERTEX
  5
F60
  8
DATA
  6
CONTINUOUS
 62
     7
 10
-1095.3520000000001
 20
-1051.6905523732801
 30
0.0
  0
VERTEX
  5
F61
  8
DATA
  6
CONTINUOUS
 62
     7
 10
-1094.5900000000011
 20
-1051.6905523732801
 30
0.0
  0
VERTEX
  5
F62
  8
DATA
  6
CONTINUOUS
 62
     7
 10
-1094.082000000001
 20
-1051.6905523732801
 30
0.0
  0
VERTEX
  5
F63
  8
DATA
  6
CONTINUOUS
 62
     7
 10
-1093.3199999999999
 20
-1051.6905523732801
 30
0.0
  0
VERTEX
  5
F64
  8
DATA
  6
CONTINUOUS
 62
     7
 10
-1092.8119999999999
 20
-1051.6905523732801
 30
0.0
  0
VERTEX
  5
F65
  8
DATA
  6
CONTINUOUS
 62
     7
 10
-1092.05
 20
-1051.6905523732801
 30
0.0
  0
VERTEX
  5
F66
  8
DATA
  6
CONTINUOUS
 62
     7
 10
-1091.5419999999999
 20
-1051.6905523732801
 30
0.0
  0
VERTEX
  5
F67
  8
DATA
  6
CONTINUOUS
 62
     7
 10
-1090.78
 20
-1051.6905523732801
 30
0.0
  0
VERTEX
  5
F68
  8
DATA
  6
CONTINUOUS
 62
     7
 10
-1090.2719999999999
 20
-1051.6905523732801
 30
0.0
  0
VERTEX
  5
F69
  8
DATA
  6
CONTINUOUS
 62
     7
 10
-1089.51
 20
-1051.4365523732799
 30
0.0
  0
SEQEND
  5
F6A
  8
DATA
  6
CONTINUOUS
 62
     7
  0
POLYLINE
  5
447
  8
DATA
  6
CONTINUOUS
 62
     7
 66
     1
 10
0.0
 20
0.0
 30
0.0
 70
   128
  0
VERTEX
  5
F6B
  8
DATA
  6
CONTINUOUS
 62
     7
 10
-1089.51
 20
-779.65655237328053
 30
0.0
  0
VERTEX
  5
F6C
  8
DATA
  6
CONTINUOUS
 62
     7
 10
-1090.2719999999999
 20
-779.40255237328029
 30
0.0
  0
VERTEX
  5
F6D
  8
DATA
  6
CONTINUOUS
 62
     7
 10
-1090.78
 20
-779.40255237328029
 30
0.0
  0
VERTEX
  5
F6E
  8
DATA
  6
CONTINUOUS
 62
     7
 10
-1091.5419999999999
 20
-779.40255237328029
 30
0.0
  0
VERTEX
  5
F6F
  8
DATA
  6
CONTINUOUS
 62
     7
 10
-1092.05
 20
-779.40255237328029
 30
0.0
  0
VERTEX
  5
F70
  8
DATA
  6
CONTINUOUS
 62
     7
 10
-1092.8119999999999
 20
-779.40255237328029
 30
0.0
  0
VERTEX
  5
F71
  8
DATA
  6
CONTINUOUS
 62
     7
 10
-1093.3199999999999
 20
-779.40255237328029
 30
0.0
  0
VERTEX
  5
F72
  8
DATA
  6
CONTINUOUS
 62
     7
 10
-1094.082000000001
 20
-779.40255237328029
 30
0.0
  0
VERTEX
  5
F73
  8
DATA
  6
CONTINUOUS
 62
     7
 10
-1094.5900000000011
 20
-779.40255237328029
 30
0.0
  0
VERTEX
  5
F74
  8
DATA
  6
CONTINUOUS
 62
     7
 10
-1095.3520000000001
 20
-779.40255237328029
 30
0.0
  0
VERTEX
  5
F75
  8
DATA
  6
CONTINUOUS
 62
     7
 10
-1096.114
 20
-779.40255237328029
 30
0.0
  0
VERTEX
  5
F76
  8
DATA
  6
CONTINUOUS
 62
     7
 10
-1096.6220000000001
 20
-779.40255237328029
 30
0.0
  0
VERTEX
  5
F77
  8
DATA
  6
CONTINUOUS
 62
     7
 10
-1097.384
 20
-779.40255237328029
 30
0.0
  0
VERTEX
  5
F78
  8
DATA
  6
CONTINUOUS
 62
     7
 10
-1097.8920000000001
 20
-779.65655237328053
 30
0.0
  0
VERTEX
  5
F79
  8
DATA
  6
CONTINUOUS
 62
     7
 10
-1098.654
 20
-779.65655237328053
 30
0.0
  0
VERTEX
  5
F7A
  8
DATA
  6
CONTINUOUS
 62
     7
 10
-1099.1620000000009
 20
-779.65655237328053
 30
0.0
  0
VERTEX
  5
F7B
  8
DATA
  6
CONTINUOUS
 62
     7
 10
-1099.924
 20
-779.65655237328053
 30
0.0
  0
VERTEX
  5
F7C
  8
DATA
  6
CONTINUOUS
 62
     7
 10
-1100.432
 20
-779.91055237328032
 30
0.0
  0
VERTEX
  5
F7D
  8
DATA
  6
CONTINUOUS
 62
     7
 10
-1101.194
 20
-779.91055237328032
 30
0.0
  0
VERTEX
  5
F7E
  8
DATA
  6
CONTINUOUS
 62
     7
 10
-1101.7020000000009
 20
-779.91055237328032
 30
0.0
  0
VERTEX
  5
F7F
  8
DATA
  6
CONTINUOUS
 62
     7
 10
-1102.4639999999999
 20
-780.16455237328034
 30
0.0
  0
VERTEX
  5
F80
  8
DATA
  6
CONTINUOUS
 62
     7
 10
-1102.972
 20
-780.16455237328034
 30
0.0
  0
VERTEX
  5
F81
  8
DATA
  6
CONTINUOUS
 62
     7
 10
-1103.48
 20
-780.41855237328036
 30
0.0
  0
VERTEX
  5
F82
  8
DATA
  6
CONTINUOUS
 62
     7
 10
-1104.2420000000011
 20
-780.41855237328036
 30
0.0
  0
VERTEX
  5
F83
  8
DATA
  6
CONTINUOUS
 62
     7
 10
-1104.75
 20
-780.67255237328015
 30
0.0
  0
VERTEX
  5
F84
  8
DATA
  6
CONTINUOUS
 62
     7
 10
-1105.5119999999999
 20
-780.92655237328051
 30
0.0
  0
VERTEX
  5
F85
  8
DATA
  6
CONTINUOUS
 62
     7
 10
-1106.02
 20
-780.92655237328051
 30
0.0
  0
VERTEX
  5
F86
  8
DATA
  6
CONTINUOUS
 62
     7
 10
-1106.7819999999999
 20
-781.18055237328031
 30
0.0
  0
VERTEX
  5
F87
  8
DATA
  6
CONTINUOUS
 62
     7
 10
-1107.29
 20
-781.43455237328033
 30
0.0
  0
VERTEX
  5
F88
  8
DATA
  6
CONTINUOUS
 62
     7
 10
-1107.798
 20
-781.68855237328034
 30
0.0
  0
VERTEX
  5
F89
  8
DATA
  6
CONTINUOUS
 62
     7
 10
-1108.5599999999999
 20
-781.94255237328014
 30
0.0
  0
VERTEX
  5
F8A
  8
DATA
  6
CONTINUOUS
 62
     7
 10
-1109.068
 20
-782.1965523732805
 30
0.0
  0
VERTEX
  5
F8B
  8
DATA
  6
CONTINUOUS
 62
     7
 10
-1109.576
 20
-782.45055237328029
 30
0.0
  0
VERTEX
  5
F8C
  8
DATA
  6
CONTINUOUS
 62
     7
 10
-1110.0840000000001
 20
-782.70455237328053
 30
0.0
  0
VERTEX
  5
F8D
  8
DATA
  6
CONTINUOUS
 62
     7
 10
-1110.846
 20
-782.95855237328033
 30
0.0
  0
VERTEX
  5
F8E
  8
DATA
  6
CONTINUOUS
 62
     7
 10
-1111.354000000001
 20
-783.46655237328036
 30
0.0
  0
VERTEX
  5
F8F
  8
DATA
  6
CONTINUOUS
 62
     7
 10
-1111.8620000000001
 20
-783.72055237328016
 30
0.0
  0
VERTEX
  5
F90
  8
DATA
  6
CONTINUOUS
 62
     7
 10
-1112.3699999999999
 20
-783.97455237328052
 30
0.0
  0
VERTEX
  5
F91
  8
DATA
  6
CONTINUOUS
 62
     7
 10
-1112.8779999999999
 20
-784.48255237328033
 30
0.0
  0
VERTEX
  5
F92
  8
DATA
  6
CONTINUOUS
 62
     7
 10
-1113.3860000000011
 20
-784.73655237328035
 30
0.0
  0
VERTEX
  5
F93
  8
DATA
  6
CONTINUOUS
 62
     7
 10
-1113.8940000000009
 20
-785.2445523732805
 30
0.0
  0
VERTEX
  5
F94
  8
DATA
  6
CONTINUOUS
 62
     7
 10
-1114.402
 20
-785.49855237328029
 30
0.0
  0
VERTEX
  5
F95
  8
DATA
  6
CONTINUOUS
 62
     7
 10
-1114.9100000000001
 20
-786.00655237328033
 30
0.0
  0
VERTEX
  5
F96
  8
DATA
  6
CONTINUOUS
 62
     7
 10
-1115.4179999999999
 20
-786.51455237328014
 30
0.0
  0
VERTEX
  5
F97
  8
DATA
  6
CONTINUOUS
 62
     7
 10
-1115.9259999999999
 20
-787.02255237328052
 30
0.0
  0
VERTEX
  5
F98
  8
DATA
  6
CONTINUOUS
 62
     7
 10
-1116.434
 20
-787.27655237328031
 30
0.0
  0
VERTEX
  5
F99
  8
DATA
  6
CONTINUOUS
 62
     7
 10
-1116.942
 20
-787.78455237328035
 30
0.0
  0
VERTEX
  5
F9A
  8
DATA
  6
CONTINUOUS
 62
     7
 10
-1117.1959999999999
 20
-788.29255237328039
 30
0.0
  0
VERTEX
  5
F9B
  8
DATA
  6
CONTINUOUS
 62
     7
 10
-1117.704
 20
-788.80055237328054
 30
0.0
  0
VERTEX
  5
F9C
  8
DATA
  6
CONTINUOUS
 62
     7
 10
-1118.212
 20
-789.3085523732808
 30
0.0
  0
VERTEX
  5
F9D
  8
DATA
  6
CONTINUOUS
 62
     7
 10
-1118.466000000001
 20
-789.8165523732805
 30
0.0
  0
VERTEX
  5
F9E
  8
DATA
  6
CONTINUOUS
 62
     7
 10
-1118.9739999999999
 20
-790.3245523732802
 30
0.0
  0
VERTEX
  5
F9F
  8
DATA
  6
CONTINUOUS
 62
     7
 10
-1119.2280000000001
 20
-790.83255237328035
 30
0.0
  0
VERTEX
  5
FA0
  8
DATA
  6
CONTINUOUS
 62
     7
 10
-1119.7360000000001
 20
-791.3405523732805
 30
0.0
  0
VERTEX
  5
FA1
  8
DATA
  6
CONTINUOUS
 62
     7
 10
-1119.99
 20
-791.84855237328065
 30
0.0
  0
VERTEX
  5
FA2
  8
DATA
  6
CONTINUOUS
 62
     7
 10
-1120.498
 20
-792.35655237328081
 30
0.0
  0
VERTEX
  5
FA3
  8
DATA
  6
CONTINUOUS
 62
     7
 10
-1120.7520000000011
 20
-793.11855237328052
 30
0.0
  0
VERTEX
  5
FA4
  8
DATA
  6
CONTINUOUS
 62
     7
 10
-1121.006000000001
 20
-793.62655237328033
 30
0.0
  0
VERTEX
  5
FA5
  8
DATA
  6
CONTINUOUS
 62
     7
 10
-1121.2600000000009
 20
-794.13455237328014
 30
0.0
  0
VERTEX
  5
FA6
  8
DATA
  6
CONTINUOUS
 62
     7
 10
-1121.768
 20
-794.64255237328007
 30
0.0
  0
VERTEX
  5
FA7
  8
DATA
  6
CONTINUOUS
 62
     7
 10
-1122.0219999999999
 20
-795.40455237328035
 30
0.0
  0
VERTEX
  5
FA8
  8
DATA
  6
CONTINUOUS
 62
     7
 10
-1122.2760000000001
 20
-795.91255237328039
 30
0.0
  0
VERTEX
  5
FA9
  8
DATA
  6
CONTINUOUS
 62
     7
 10
-1122.53
 20
-796.67455237328033
 30
0.0
  0
VERTEX
  5
FAA
  8
DATA
  6
CONTINUOUS
 62
     7
 10
-1122.7840000000001
 20
-797.18255237328015
 30
0.0
  0
VERTEX
  5
FAB
  8
DATA
  6
CONTINUOUS
 62
     7
 10
-1122.7840000000001
 20
-797.69055237328018
 30
0.0
  0
VERTEX
  5
FAC
  8
DATA
  6
CONTINUOUS
 62
     7
 10
-1123.038
 20
-798.45255237328035
 30
0.0
  0
VERTEX
  5
FAD
  8
DATA
  6
CONTINUOUS
 62
     7
 10
-1123.2919999999999
 20
-798.96055237328051
 30
0.0
  0
VERTEX
  5
FAE
  8
DATA
  6
CONTINUOUS
 62
     7
 10
-1123.546000000001
 20
-799.72255237328034
 30
0.0
  0
VERTEX
  5
FAF
  8
DATA
  6
CONTINUOUS
 62
     7
 10
-1123.546000000001
 20
-800.23055237328037
 30
0.0
  0
VERTEX
  5
FB0
  8
DATA
  6
CONTINUOUS
 62
     7
 10
-1123.8000000000011
 20
-800.99255237328032
 30
0.0
  0
VERTEX
  5
FB1
  8
DATA
  6
CONTINUOUS
 62
     7
 10
-1123.8000000000011
 20
-801.50055237328036
 30
0.0
  0
VERTEX
  5
FB2
  8
DATA
  6
CONTINUOUS
 62
     7
 10
-1124.0540000000001
 20
-802.26255237328064
 30
0.0
  0
VERTEX
  5
FB3
  8
DATA
  6
CONTINUOUS
 62
     7
 10
-1124.0540000000001
 20
-803.02455237328013
 30
0.0
  0
VERTEX
  5
FB4
  8
DATA
  6
CONTINUOUS
 62
     7
 10
-1124.0540000000001
 20
-803.53255237328028
 30
0.0
  0
VERTEX
  5
FB5
  8
DATA
  6
CONTINUOUS
 62
     7
 10
-1124.308
 20
-804.29455237328045
 30
0.0
  0
VERTEX
  5
FB6
  8
DATA
  6
CONTINUOUS
 62
     7
 10
-1124.308
 20
-804.80255237328049
 30
0.0
  0
VERTEX
  5
FB7
  8
DATA
  6
CONTINUOUS
 62
     7
 10
-1124.308
 20
-805.56455237328032
 30
0.0
  0
VERTEX
  5
FB8
  8
DATA
  6
CONTINUOUS
 62
     7
 10
-1124.308
 20
-806.07255237328036
 30
0.0
  0
VERTEX
  5
FB9
  8
DATA
  6
CONTINUOUS
 62
     7
 10
-1124.5619999999999
 20
-806.83455237328008
 30
0.0
  0
VERTEX
  5
FBA
  8
DATA
  6
CONTINUOUS
 62
     7
 10
-1124.5619999999999
 20
-807.59655237328013
 30
0.0
  0
VERTEX
  5
FBB
  8
DATA
  6
CONTINUOUS
 62
     7
 10
-1124.5619999999999
 20
-808.10455237328017
 30
0.0
  0
VERTEX
  5
FBC
  8
DATA
  6
CONTINUOUS
 62
     7
 10
-1124.5619999999999
 20
-808.86655237328034
 30
0.0
  0
VERTEX
  5
FBD
  8
DATA
  6
CONTINUOUS
 62
     7
 10
-1124.5619999999999
 20
-809.37455237328015
 30
0.0
  0
VERTEX
  5
FBE
  8
DATA
  6
CONTINUOUS
 62
     7
 10
-1124.5619999999999
 20
-810.13655237328044
 30
0.0
  0
VERTEX
  5
FBF
  8
DATA
  6
CONTINUOUS
 62
     7
 10
-1124.5619999999999
 20
-810.89855237328049
 30
0.0
  0
VERTEX
  5
FC0
  8
DATA
  6
CONTINUOUS
 62
     7
 10
-1124.5619999999999
 20
-811.40655237328019
 30
0.0
  0
VERTEX
  5
FC1
  8
DATA
  6
CONTINUOUS
 62
     7
 10
-1124.5619999999999
 20
-812.16855237328036
 30
0.0
  0
VERTEX
  5
FC2
  8
DATA
  6
CONTINUOUS
 62
     7
 10
-1124.5619999999999
 20
-812.67655237328051
 30
0.0
  0
VERTEX
  5
FC3
  8
DATA
  6
CONTINUOUS
 62
     7
 10
-1124.5619999999999
 20
-813.43855237328023
 30
0.0
  0
VERTEX
  5
FC4
  8
DATA
  6
CONTINUOUS
 62
     7
 10
-1124.5619999999999
 20
-814.20055237328017
 30
0.0
  0
VERTEX
  5
FC5
  8
DATA
  6
CONTINUOUS
 62
     7
 10
-1124.5619999999999
 20
-814.70855237328033
 30
0.0
  0
VERTEX
  5
FC6
  8
DATA
  6
CONTINUOUS
 62
     7
 10
-1124.5619999999999
 20
-815.47055237328038
 30
0.0
  0
VERTEX
  5
FC7
  8
DATA
  6
CONTINUOUS
 62
     7
 10
-1124.308
 20
-815.97855237328042
 30
0.0
  0
VERTEX
  5
FC8
  8
DATA
  6
CONTINUOUS
 62
     7
 10
-1124.308
 20
-816.74055237328014
 30
0.0
  0
VERTEX
  5
FC9
  8
DATA
  6
CONTINUOUS
 62
     7
 10
-1124.308
 20
-817.50255237328065
 30
0.0
  0
VERTEX
  5
FCA
  8
DATA
  6
CONTINUOUS
 62
     7
 10
-1124.308
 20
-818.01055237328069
 30
0.0
  0
VERTEX
  5
FCB
  8
DATA
  6
CONTINUOUS
 62
     7
 10
-1124.308
 20
-818.77255237328052
 30
0.0
  0
VERTEX
  5
FCC
  8
DATA
  6
CONTINUOUS
 62
     7
 10
-1124.308
 20
-819.28055237328022
 30
0.0
  0
VERTEX
  5
FCD
  8
DATA
  6
CONTINUOUS
 62
     7
 10
-1124.308
 20
-820.0425523732805
 30
0.0
  0
VERTEX
  5
FCE
  8
DATA
  6
CONTINUOUS
 62
     7
 10
-1124.308
 20
-820.80455237328033
 30
0.0
  0
VERTEX
  5
FCF
  8
DATA
  6
CONTINUOUS
 62
     7
 10
-1124.308
 20
-821.31255237328037
 30
0.0
  0
VERTEX
  5
FD0
  8
DATA
  6
CONTINUOUS
 62
     7
 10
-1124.308
 20
-822.07455237328031
 30
0.0
  0
VERTEX
  5
FD1
  8
DATA
  6
CONTINUOUS
 62
     7
 10
-1124.308
 20
-822.58255237328035
 30
0.0
  0
VERTEX
  5
FD2
  8
DATA
  6
CONTINUOUS
 62
     7
 10
-1124.0540000000001
 20
-823.34455237328018
 30
0.0
  0
VERTEX
  5
FD3
  8
DATA
  6
CONTINUOUS
 62
     7
 10
-1124.0540000000001
 20
-824.10655237328081
 30
0.0
  0
VERTEX
  5
FD4
  8
DATA
  6
CONTINUOUS
 62
     7
 10
-1124.0540000000001
 20
-824.61455237328039
 30
0.0
  0
VERTEX
  5
FD5
  8
DATA
  6
CONTINUOUS
 62
     7
 10
-1124.0540000000001
 20
-825.37655237328045
 30
0.0
  0
VERTEX
  5
FD6
  8
DATA
  6
CONTINUOUS
 62
     7
 10
-1124.0540000000001
 20
-825.88455237328014
 30
0.0
  0
VERTEX
  5
FD7
  8
DATA
  6
CONTINUOUS
 62
     7
 10
-1124.0540000000001
 20
-826.64655237328031
 30
0.0
  0
VERTEX
  5
FD8
  8
DATA
  6
CONTINUOUS
 62
     7
 10
-1124.0540000000001
 20
-827.40855237328037
 30
0.0
  0
VERTEX
  5
FD9
  8
DATA
  6
CONTINUOUS
 62
     7
 10
-1124.0540000000001
 20
-827.91655237328052
 30
0.0
  0
VERTEX
  5
FDA
  8
DATA
  6
CONTINUOUS
 62
     7
 10
-1124.0540000000001
 20
-828.67855237328013
 30
0.0
  0
VERTEX
  5
FDB
  8
DATA
  6
CONTINUOUS
 62
     7
 10
-1123.8000000000011
 20
-829.18655237328062
 30
0.0
  0
VERTEX
  5
FDC
  8
DATA
  6
CONTINUOUS
 62
     7
 10
-1123.8000000000011
 20
-829.94855237328034
 30
0.0
  0
VERTEX
  5
FDD
  8
DATA
  6
CONTINUOUS
 62
     7
 10
-1123.8000000000011
 20
-830.71055237328039
 30
0.0
  0
VERTEX
  5
FDE
  8
DATA
  6
CONTINUOUS
 62
     7
 10
-1123.8000000000011
 20
-831.21855237328043
 30
0.0
  0
VERTEX
  5
FDF
  8
DATA
  6
CONTINUOUS
 62
     7
 10
-1123.8000000000011
 20
-831.98055237328015
 30
0.0
  0
VERTEX
  5
FE0
  8
DATA
  6
CONTINUOUS
 62
     7
 10
-1123.8000000000011
 20
-832.48855237328019
 30
0.0
  0
VERTEX
  5
FE1
  8
DATA
  6
CONTINUOUS
 62
     7
 10
-1123.8000000000011
 20
-833.25055237328036
 30
0.0
  0
VERTEX
  5
FE2
  8
DATA
  6
CONTINUOUS
 62
     7
 10
-1123.546000000001
 20
-834.01255237328053
 30
0.0
  0
VERTEX
  5
FE3
  8
DATA
  6
CONTINUOUS
 62
     7
 10
-1123.546000000001
 20
-834.52055237328022
 30
0.0
  0
VERTEX
  5
FE4
  8
DATA
  6
CONTINUOUS
 62
     7
 10
-1123.546000000001
 20
-835.28255237328051
 30
0.0
  0
VERTEX
  5
FE5
  8
DATA
  6
CONTINUOUS
 62
     7
 10
-1123.546000000001
 20
-835.79055237328055
 30
0.0
  0
VERTEX
  5
FE6
  8
DATA
  6
CONTINUOUS
 62
     7
 10
-1123.546000000001
 20
-836.55255237328038
 30
0.0
  0
VERTEX
  5
FE7
  8
DATA
  6
CONTINUOUS
 62
     7
 10
-1123.546000000001
 20
-837.06055237328053
 30
0.0
  0
VERTEX
  5
FE8
  8
DATA
  6
CONTINUOUS
 62
     7
 10
-1123.2919999999999
 20
-837.82255237328013
 30
0.0
  0
VERTEX
  5
FE9
  8
DATA
  6
CONTINUOUS
 62
     7
 10
-1123.2919999999999
 20
-838.58455237328019
 30
0.0
  0
VERTEX
  5
FEA
  8
DATA
  6
CONTINUOUS
 62
     7
 10
-1123.2919999999999
 20
-839.09255237328034
 30
0.0
  0
VERTEX
  5
FEB
  8
DATA
  6
CONTINUOUS
 62
     7
 10
-1123.2919999999999
 20
-839.85455237328028
 30
0.0
  0
VERTEX
  5
FEC
  8
DATA
  6
CONTINUOUS
 62
     7
 10
-1123.2919999999999
 20
-840.36255237328021
 30
0.0
  0
VERTEX
  5
FED
  8
DATA
  6
CONTINUOUS
 62
     7
 10
-1123.2919999999999
 20
-841.12455237328015
 30
0.0
  0
VERTEX
  5
FEE
  8
DATA
  6
CONTINUOUS
 62
     7
 10
-1123.038
 20
-841.88655237328032
 30
0.0
  0
VERTEX
  5
FEF
  8
DATA
  6
CONTINUOUS
 62
     7
 10
-1123.038
 20
-842.39455237328059
 30
0.0
  0
VERTEX
  5
FF0
  8
DATA
  6
CONTINUOUS
 62
     7
 10
-1123.038
 20
-843.15655237328053
 30
0.0
  0
VERTEX
  5
FF1
  8
DATA
  6
CONTINUOUS
 62
     7
 10
-1123.038
 20
-843.66455237328034
 30
0.0
  0
VERTEX
  5
FF2
  8
DATA
  6
CONTINUOUS
 62
     7
 10
-1123.038
 20
-844.42655237328063
 30
0.0
  0
VERTEX
  5
FF3
  8
DATA
  6
CONTINUOUS
 62
     7
 10
-1123.038
 20
-845.18855237328034
 30
0.0
  0
VERTEX
  5
FF4
  8
DATA
  6
CONTINUOUS
 62
     7
 10
-1122.7840000000001
 20
-845.69655237328027
 30
0.0
  0
VERTEX
  5
FF5
  8
DATA
  6
CONTINUOUS
 62
     7
 10
-1122.7840000000001
 20
-846.45855237328044
 30
0.0
  0
VERTEX
  5
FF6
  8
DATA
  6
CONTINUOUS
 62
     7
 10
-1122.7840000000001
 20
-846.96655237328025
 30
0.0
  0
VERTEX
  5
FF7
  8
DATA
  6
CONTINUOUS
 62
     7
 10
-1122.7840000000001
 20
-847.72855237328031
 30
0.0
  0
VERTEX
  5
FF8
  8
DATA
  6
CONTINUOUS
 62
     7
 10
-1122.7840000000001
 20
-848.49055237328037
 30
0.0
  0
VERTEX
  5
FF9
  8
DATA
  6
CONTINUOUS
 62
     7
 10
-1122.53
 20
-848.99855237328029
 30
0.0
  0
VERTEX
  5
FFA
  8
DATA
  6
CONTINUOUS
 62
     7
 10
-1122.53
 20
-849.76055237328058
 30
0.0
  0
VERTEX
  5
FFB
  8
DATA
  6
CONTINUOUS
 62
     7
 10
-1122.53
 20
-850.26855237328039
 30
0.0
  0
VERTEX
  5
FFC
  8
DATA
  6
CONTINUOUS
 62
     7
 10
-1122.53
 20
-851.03055237328056
 30
0.0
  0
VERTEX
  5
FFD
  8
DATA
  6
CONTINUOUS
 62
     7
 10
-1122.53
 20
-851.79255237328039
 30
0.0
  0
VERTEX
  5
FFE
  8
DATA
  6
CONTINUOUS
 62
     7
 10
-1122.2760000000001
 20
-852.30055237328054
 30
0.0
  0
VERTEX
  5
FFF
  8
DATA
  6
CONTINUOUS
 62
     7
 10
-1122.2760000000001
 20
-853.06255237328014
 30
0.0
  0
VERTEX
  5
1000
  8
DATA
  6
CONTINUOUS
 62
     7
 10
-1122.2760000000001
 20
-853.57055237328029
 30
0.0
  0
VERTEX
  5
1001
  8
DATA
  6
CONTINUOUS
 62
     7
 10
-1122.2760000000001
 20
-854.33255237328035
 30
0.0
  0
VERTEX
  5
1002
  8
DATA
  6
CONTINUOUS
 62
     7
 10
-1122.0219999999999
 20
-854.8405523732805
 30
0.0
  0
VERTEX
  5
1003
  8
DATA
  6
CONTINUOUS
 62
     7
 10
-1122.0219999999999
 20
-855.60255237328022
 30
0.0
  0
VERTEX
  5
1004
  8
DATA
  6
CONTINUOUS
 62
     7
 10
-1122.0219999999999
 20
-856.3645523732805
 30
0.0
  0
VERTEX
  5
1005
  8
DATA
  6
CONTINUOUS
 62
     7
 10
-1122.0219999999999
 20
-856.87255237328031
 30
0.0
  0
VERTEX
  5
1006
  8
DATA
  6
CONTINUOUS
 62
     7
 10
-1122.0219999999999
 20
-857.63455237328037
 30
0.0
  0
VERTEX
  5
1007
  8
DATA
  6
CONTINUOUS
 62
     7
 10
-1121.768
 20
-858.14255237328018
 30
0.0
  0
VERTEX
  5
1008
  8
DATA
  6
CONTINUOUS
 62
     7
 10
-1121.768
 20
-858.90455237328035
 30
0.0
  0
VERTEX
  5
1009
  8
DATA
  6
CONTINUOUS
 62
     7
 10
-1121.768
 20
-859.66655237328064
 30
0.0
  0
VERTEX
  5
100A
  8
DATA
  6
CONTINUOUS
 62
     7
 10
-1121.768
 20
-860.17455237328033
 30
0.0
  0
VERTEX
  5
100B
  8
DATA
  6
CONTINUOUS
 62
     7
 10
-1121.768
 20
-860.93655237328051
 30
0.0
  0
VERTEX
  5
100C
  8
DATA
  6
CONTINUOUS
 62
     7
 10
-1121.5139999999999
 20
-862.20655237328049
 30
0.0
  0
VERTEX
  5
100D
  8
DATA
  6
CONTINUOUS
 62
     7
 10
-1121.2600000000009
 20
-866.77855237328015
 30
0.0
  0
VERTEX
  5
100E
  8
DATA
  6
CONTINUOUS
 62
     7
 10
-1121.006000000001
 20
-867.54055237328043
 30
0.0
  0
VERTEX
  5
100F
  8
DATA
  6
CONTINUOUS
 62
     7
 10
-1121.006000000001
 20
-868.04855237328024
 30
0.0
  0
VERTEX
  5
1010
  8
DATA
  6
CONTINUOUS
 62
     7
 10
-1121.006000000001
 20
-868.8105523732803
 30
0.0
  0
VERTEX
  5
1011
  8
DATA
  6
CONTINUOUS
 62
     7
 10
-1121.006000000001
 20
-869.31855237328045
 30
0.0
  0
VERTEX
  5
1012
  8
DATA
  6
CONTINUOUS
 62
     7
 10
-1121.006000000001
 20
-870.08055237328051
 30
0.0
  0
VERTEX
  5
1013
  8
DATA
  6
CONTINUOUS
 62
     7
 10
-1120.7520000000011
 20
-870.84255237328023
 30
0.0
  0
VERTEX
  5
1014
  8
DATA
  6
CONTINUOUS
 62
     7
 10
-1120.7520000000011
 20
-871.35055237328038
 30
0.0
  0
VERTEX
  5
1015
  8
DATA
  6
CONTINUOUS
 62
     7
 10
-1120.7520000000011
 20
-872.11255237328032
 30
0.0
  0
VERTEX
  5
1016
  8
DATA
  6
CONTINUOUS
 62
     7
 10
-1120.7520000000011
 20
-872.62055237328013
 30
0.0
  0
VERTEX
  5
1017
  8
DATA
  6
CONTINUOUS
 62
     7
 10
-1120.498
 20
-873.38255237328019
 30
0.0
  0
VERTEX
  5
1018
  8
DATA
  6
CONTINUOUS
 62
     7
 10
-1120.498
 20
-874.14455237328025
 30
0.0
  0
VERTEX
  5
1019
  8
DATA
  6
CONTINUOUS
 62
     7
 10
-1120.498
 20
-874.65255237328029
 30
0.0
  0
VERTEX
  5
101A
  8
DATA
  6
CONTINUOUS
 62
     7
 10
-1120.498
 20
-875.41455237328034
 30
0.0
  0
VERTEX
  5
101B
  8
DATA
  6
CONTINUOUS
 62
     7
 10
-1120.498
 20
-875.92255237328015
 30
0.0
  0
VERTEX
  5
101C
  8
DATA
  6
CONTINUOUS
 62
     7
 10
-1120.2439999999999
 20
-876.68455237328021
 30
0.0
  0
VERTEX
  5
101D
  8
DATA
  6
CONTINUOUS
 62
     7
 10
-1120.2439999999999
 20
-877.4465523732805
 30
0.0
  0
VERTEX
  5
101E
  8
DATA
  6
CONTINUOUS
 62
     7
 10
-1120.2439999999999
 20
-877.95455237328053
 30
0.0
  0
VERTEX
  5
101F
  8
DATA
  6
CONTINUOUS
 62
     7
 10
-1120.2439999999999
 20
-878.71655237328036
 30
0.0
  0
VERTEX
  5
1020
  8
DATA
  6
CONTINUOUS
 62
     7
 10
-1120.2439999999999
 20
-879.22455237328052
 30
0.0
  0
VERTEX
  5
1021
  8
DATA
  6
CONTINUOUS
 62
     7
 10
-1119.99
 20
-879.98655237328035
 30
0.0
  0
VERTEX
  5
1022
  8
DATA
  6
CONTINUOUS
 62
     7
 10
-1119.99
 20
-880.49455237328038
 30
0.0
  0
VERTEX
  5
1023
  8
DATA
  6
CONTINUOUS
 62
     7
 10
-1119.99
 20
-881.25655237328033
 30
0.0
  0
VERTEX
  5
1024
  8
DATA
  6
CONTINUOUS
 62
     7
 10
-1119.99
 20
-882.0185523732805
 30
0.0
  0
VERTEX
  5
1025
  8
DATA
  6
CONTINUOUS
 62
     7
 10
-1119.99
 20
-882.5265523732802
 30
0.0
  0
VERTEX
  5
1026
  8
DATA
  6
CONTINUOUS
 62
     7
 10
-1119.7360000000001
 20
-883.28855237328025
 30
0.0
  0
VERTEX
  5
1027
  8
DATA
  6
CONTINUOUS
 62
     7
 10
-1119.7360000000001
 20
-883.79655237328029
 30
0.0
  0
VERTEX
  5
1028
  8
DATA
  6
CONTINUOUS
 62
     7
 10
-1119.7360000000001
 20
-884.55855237328035
 30
0.0
  0
VERTEX
  5
1029
  8
DATA
  6
CONTINUOUS
 62
     7
 10
-1119.7360000000001
 20
-885.32055237328075
 30
0.0
  0
VERTEX
  5
102A
  8
DATA
  6
CONTINUOUS
 62
     7
 10
-1119.7360000000001
 20
-885.82855237328044
 30
0.0
  0
VERTEX
  5
102B
  8
DATA
  6
CONTINUOUS
 62
     7
 10
-1119.7360000000001
 20
-886.59055237328062
 30
0.0
  0
VERTEX
  5
102C
  8
DATA
  6
CONTINUOUS
 62
     7
 10
-1119.482
 20
-887.09855237328065
 30
0.0
  0
VERTEX
  5
102D
  8
DATA
  6
CONTINUOUS
 62
     7
 10
-1119.482
 20
-887.8605523732806
 30
0.0
  0
VERTEX
  5
102E
  8
DATA
  6
CONTINUOUS
 62
     7
 10
-1119.482
 20
-888.62255237328066
 30
0.0
  0
VERTEX
  5
102F
  8
DATA
  6
CONTINUOUS
 62
     7
 10
-1119.482
 20
-889.13055237328092
 30
0.0
  0
VERTEX
  5
1030
  8
DATA
  6
CONTINUOUS
 62
     7
 10
-1119.482
 20
-889.8925523732803
 30
0.0
  0
VERTEX
  5
1031
  8
DATA
  6
CONTINUOUS
 62
     7
 10
-1119.2280000000001
 20
-890.40055237328045
 30
0.0
  0
VERTEX
  5
1032
  8
DATA
  6
CONTINUOUS
 62
     7
 10
-1119.2280000000001
 20
-891.1625523732805
 30
0.0
  0
VERTEX
  5
1033
  8
DATA
  6
CONTINUOUS
 62
     7
 10
-1119.2280000000001
 20
-891.92455237328022
 30
0.0
  0
VERTEX
  5
1034
  8
DATA
  6
CONTINUOUS
 62
     7
 10
-1119.2280000000001
 20
-892.43255237328037
 30
0.0
  0
VERTEX
  5
1035
  8
DATA
  6
CONTINUOUS
 62
     7
 10
-1119.2280000000001
 20
-893.19455237328066
 30
0.0
  0
VERTEX
  5
1036
  8
DATA
  6
CONTINUOUS
 62
     7
 10
-1119.2280000000001
 20
-893.70255237328081
 30
0.0
  0
VERTEX
  5
1037
  8
DATA
  6
CONTINUOUS
 62
     7
 10
-1119.2280000000001
 20
-894.46455237328053
 30
0.0
  0
VERTEX
  5
1038
  8
DATA
  6
CONTINUOUS
 62
     7
 10
-1118.9739999999999
 20
-894.97255237328068
 30
0.0
  0
VERTEX
  5
1039
  8
DATA
  6
CONTINUOUS
 62
     7
 10
-1118.9739999999999
 20
-895.73455237328062
 30
0.0
  0
VERTEX
  5
103A
  8
DATA
  6
CONTINUOUS
 62
     7
 10
-1118.9739999999999
 20
-896.49655237328045
 30
0.0
  0
VERTEX
  5
103B
  8
DATA
  6
CONTINUOUS
 62
     7
 10
-1118.9739999999999
 20
-897.00455237328049
 30
0.0
  0
VERTEX
  5
103C
  8
DATA
  6
CONTINUOUS
 62
     7
 10
-1118.9739999999999
 20
-897.76655237328021
 30
0.0
  0
VERTEX
  5
103D
  8
DATA
  6
CONTINUOUS
 62
     7
 10
-1118.9739999999999
 20
-898.27455237328036
 30
0.0
  0
VERTEX
  5
103E
  8
DATA
  6
CONTINUOUS
 62
     7
 10
-1118.9739999999999
 20
-899.03655237328053
 30
0.0
  0
VERTEX
  5
103F
  8
DATA
  6
CONTINUOUS
 62
     7
 10
-1118.7200000000009
 20
-899.79855237328081
 30
0.0
  0
VERTEX
  5
1040
  8
DATA
  6
CONTINUOUS
 62
     7
 10
-1118.7200000000009
 20
-900.30655237328051
 30
0.0
  0
VERTEX
  5
1041
  8
DATA
  6
CONTINUOUS
 62
     7
 10
-1118.7200000000009
 20
-901.06855237328034
 30
0.0
  0
VERTEX
  5
1042
  8
DATA
  6
CONTINUOUS
 62
     7
 10
-1118.7200000000009
 20
-901.57655237328038
 30
0.0
  0
VERTEX
  5
1043
  8
DATA
  6
CONTINUOUS
 62
     7
 10
-1118.7200000000009
 20
-902.33855237328066
 30
0.0
  0
VERTEX
  5
1044
  8
DATA
  6
CONTINUOUS
 62
     7
 10
-1118.7200000000009
 20
-903.10055237328061
 30
0.0
  0
VERTEX
  5
1045
  8
DATA
  6
CONTINUOUS
 62
     7
 10
-1118.7200000000009
 20
-903.60855237328065
 30
0.0
  0
VERTEX
  5
1046
  8
DATA
  6
CONTINUOUS
 62
     7
 10
-1118.7200000000009
 20
-904.37055237328025
 30
0.0
  0
VERTEX
  5
1047
  8
DATA
  6
CONTINUOUS
 62
     7
 10
-1118.466000000001
 20
-904.87855237328063
 30
0.0
  0
VERTEX
  5
1048
  8
DATA
  6
CONTINUOUS
 62
     7
 10
-1118.466000000001
 20
-905.64055237328046
 30
0.0
  0
VERTEX
  5
1049
  8
DATA
  6
CONTINUOUS
 62
     7
 10
-1118.466000000001
 20
-906.40255237328029
 30
0.0
  0
VERTEX
  5
104A
  8
DATA
  6
CONTINUOUS
 62
     7
 10
-1118.466000000001
 20
-906.91055237328032
 30
0.0
  0
VERTEX
  5
104B
  8
DATA
  6
CONTINUOUS
 62
     7
 10
-1118.466000000001
 20
-907.67255237328038
 30
0.0
  0
VERTEX
  5
104C
  8
DATA
  6
CONTINUOUS
 62
     7
 10
-1118.466000000001
 20
-908.18055237328031
 30
0.0
  0
VERTEX
  5
104D
  8
DATA
  6
CONTINUOUS
 62
     7
 10
-1118.466000000001
 20
-908.94255237328014
 30
0.0
  0
VERTEX
  5
104E
  8
DATA
  6
CONTINUOUS
 62
     7
 10
-1118.466000000001
 20
-909.70455237328065
 30
0.0
  0
VERTEX
  5
104F
  8
DATA
  6
CONTINUOUS
 62
     7
 10
-1118.466000000001
 20
-910.21255237328035
 30
0.0
  0
VERTEX
  5
1050
  8
DATA
  6
CONTINUOUS
 62
     7
 10
-1118.466000000001
 20
-910.97455237328063
 30
0.0
  0
VERTEX
  5
1051
  8
DATA
  6
CONTINUOUS
 62
     7
 10
-1118.466000000001
 20
-911.48255237328021
 30
0.0
  0
VERTEX
  5
1052
  8
DATA
  6
CONTINUOUS
 62
     7
 10
-1118.466000000001
 20
-912.24455237328027
 30
0.0
  0
VERTEX
  5
1053
  8
DATA
  6
CONTINUOUS
 62
     7
 10
-1118.466000000001
 20
-913.00655237328033
 30
0.0
  0
VERTEX
  5
1054
  8
DATA
  6
CONTINUOUS
 62
     7
 10
-1118.466000000001
 20
-913.51455237328037
 30
0.0
  0
VERTEX
  5
1055
  8
DATA
  6
CONTINUOUS
 62
     7
 10
-1118.212
 20
-914.27655237328031
 30
0.0
  0
VERTEX
  5
1056
  8
DATA
  6
CONTINUOUS
 62
     7
 10
-1118.212
 20
-914.78455237328035
 30
0.0
  0
VERTEX
  5
1057
  8
DATA
  6
CONTINUOUS
 62
     7
 10
-1118.212
 20
-915.54655237327995
 30
0.0
  0
SEQEND
  5
1058
  8
DATA
  6
CONTINUOUS
 62
     7
  0
CIRCLE
  5
536
  8
DATA
  6
CONTINUOUS
 62
     7
 10
-1132.182
 20
-915.54655237327995
 30
0.0
 40
2.793999999999869
  0
CIRCLE
  5
537
  8
DATA
  6
CONTINUOUS
 62
     7
 10
-1132.182
 20
-915.54655237327995
 30
0.0
 40
5.0799999999999272
  0
CIRCLE
  5
538
  8
DATA
  6
CONTINUOUS
 62
     7
 10
-890.62800000000004
 20
-1058.54855237328
 30
0.0
 40
2.793999999999869
  0
CIRCLE
  5
539
  8
DATA
  6
CONTINUOUS
 62
     7
 10
-890.62800000000004
 20
-1058.54855237328
 30
0.0
 40
5.0799999999999272
  0
CIRCLE
  5
53A
  8
DATA
  6
CONTINUOUS
 62
     7
 10
-989.18000000000075
 20
-1058.54855237328
 30
0.0
 40
2.793999999999869
  0
CIRCLE
  5
53B
  8
DATA
  6
CONTINUOUS
 62
     7
 10
-989.18000000000075
 20
-1058.54855237328
 30
0.0
 40
5.0799999999999272
  0
CIRCLE
  5
53C
  8
DATA
  6
CONTINUOUS
 62
     7
 10
-989.18000000000075
 20
-772.54455237328034
 30
0.0
 40
2.793999999999869
  0
CIRCLE
  5
53D
  8
DATA
  6
CONTINUOUS
 62
     7
 10
-989.18000000000075
 20
-772.54455237328034
 30
0.0
 40
5.0799999999999272
  0
CIRCLE
  5
53E
  8
DATA
  6
CONTINUOUS
 62
     7
 10
-1087.732
 20
-772.54455237328034
 30
0.0
 40
2.793999999999869
  0
CIRCLE
  5
53F
  8
DATA
  6
CONTINUOUS
 62
     7
 10
-1087.732
 20
-772.54455237328034
 30
0.0
 40
5.0799999999999272
  0
CIRCLE
  5
540
  8
DATA
  6
CONTINUOUS
 62
     7
 10
-890.62800000000004
 20
-772.54455237328034
 30
0.0
 40
2.793999999999869
  0
CIRCLE
  5
541
  8
DATA
  6
CONTINUOUS
 62
     7
 10
-890.62800000000004
 20
-772.54455237328034
 30
0.0
 40
5.0799999999999272
  0
CIRCLE
  5
542
  8
DATA
  6
CONTINUOUS
 62
     7
 10
-846.178
 20
-816.99455237328027
 30
0.0
 40
2.793999999999869
  0
CIRCLE
  5
543
  8
DATA
  6
CONTINUOUS
 62
     7
 10
-846.178
 20
-816.99455237328027
 30
0.0
 40
5.0799999999999272
  0
CIRCLE
  5
544
  8
DATA
  6
CONTINUOUS
 62
     7
 10
-846.178
 20
-915.54655237327995
 30
0.0
 40
2.793999999999869
  0
CIRCLE
  5
545
  8
DATA
  6
CONTINUOUS
 62
     7
 10
-846.178
 20
-915.54655237327995
 30
0.0
 40
5.0799999999999272
  0
CIRCLE
  5
546
  8
DATA
  6
CONTINUOUS
 62
     7
 10
-846.178
 20
-1014.09855237328
 30
0.0
 40
2.793999999999869
  0
CIRCLE
  5
547
  8
DATA
  6
CONTINUOUS
 62
     7
 10
-846.178
 20
-1014.09855237328
 30
0.0
 40
5.0799999999999272
  0
CIRCLE
  5
548
  8
DATA
  6
CONTINUOUS
 62
     7
 10
-1087.732
 20
-1058.54855237328
 30
0.0
 40
2.793999999999869
  0
CIRCLE
  5
549
  8
DATA
  6
CONTINUOUS
 62
     7
 10
-1087.732
 20
-1058.54855237328
 30
0.0
 40
5.0799999999999272
  0
CIRCLE
  5
54A
  8
DATA
  6
CONTINUOUS
 62
     7
 10
-1132.182
 20
-1014.09855237328
 30
0.0
 40
2.793999999999869
  0
CIRCLE
  5
54B
  8
DATA
  6
CONTINUOUS
 62
     7
 10
-1132.182
 20
-1014.09855237328
 30
0.0
 40
5.0799999999999272
  0
CIRCLE
  5
54C
  8
DATA
  6
CONTINUOUS
 62
     7
 10
-1132.182
 20
-816.99455237328027
 30
0.0
 40
2.793999999999869
  0
CIRCLE
  5
54D
  8
DATA
  6
CONTINUOUS
 62
     7
 10
-1132.182
 20
-816.99455237328027
 30
0.0
 40
5.0799999999999272
  0
CIRCLE
  5
54E
  8
DATA
  6
CONTINUOUS
 62
     7
 10
-989.18000000000075
 20
-915.54655237327995
 30
0.0
 40
19.050000000000171
  0
LINE
  5
54F
  8
DATA
  6
CONTINUOUS
 62
     7
 10
-545.13602160848745
 20
-763.14655237328054
 30
0.0
 11
-545.13602160848745
 21
-1067.9465523732799
 31
0.0
  0
LINE
  5
550
  8
DATA
  6
CONTINUOUS
 62
     7
 10
-548.43802160848713
 20
-763.14655237328054
 30
0.0
 11
-545.13602160848745
 21
-763.14655237328054
 31
0.0
  0
LINE
  5
551
  8
DATA
  6
CONTINUOUS
 62
     7
 10
-548.43802160848713
 20
-1067.9465523732799
 30
0.0
 11
-545.13602160848745
 21
-1067.9465523732799
 31
0.0
  0
LINE
  5
552
  8
DATA
  6
CONTINUOUS
 62
     7
 10
-549.70802160848746
 20
-764.67055237328032
 30
0.0
 11
-549.45402160848755
 21
-1066.42255237328
 31
0.0
  0
LINE
  5
553
  8
DATA
  6
CONTINUOUS
 62
     7
 10
-549.70802160848746
 20
-764.67055237328032
 30
0.0
 11
-548.43802160848713
 21
-763.14655237328054
 31
0.0
  0
LINE
  5
554
  8
DATA
  6
CONTINUOUS
 62
     7
 10
-548.43802160848713
 20
-1067.9465523732799
 30
0.0
 11
-549.45402160848755
 21
-1066.42255237328
 31
0.0
  0
LINE
  5
555
  8
DATA
  6
CONTINUOUS
 62
     7
 10
-1082.1337958157339
 20
31.149515391731569
 30
0.0
 11
-1200.0
 21
-408.56255237328043
 31
0.0
  0
LINE
  5
556
  8
DATA
  6
CONTINUOUS
 62
     7
 10
-908.42553026451594
 20
40.509447626719847
 30
0.0
 11
-1069.934469735485
 21
40.509447626719847
 31
0.0
  0
LINE
  5
557
  8
DATA
  6
CONTINUOUS
 62
     7
 10
-778.36000000000001
 20
-413.64255237328052
 30
0.0
 11
-778.36000000000001
 21
-408.56255237328043
 31
0.0
  0
ARC
  5
558
  8
DATA
  6
CONTINUOUS
 62
     7
 10
-805.03000000000009
 20
-413.64255237328052
 30
0.0
 40
26.66999999999965
 50
284.4799999999986
 51
0.0
  0
ARC
  5
559
  8
DATA
  6
CONTINUOUS
 62
     7
 10
-989.18000000000075
 20
299.58944762672002
 30
0.0
 40
763.27000000000032
 50
255.5200000000001
 51
284.48000000000002
  0
LINE
  5
55A
  8
DATA
  6
CONTINUOUS
 62
     7
 10
-1200.0
 20
-408.56255237328043
 30
0.0
 11
-1200.0
 21
-413.64255237328052
 31
0.0
  0
ARC
  5
55B
  8
DATA
  6
CONTINUOUS
 62
     7
 10
-1173.3299999999999
 20
-413.64255237328052
 30
0.0
 40
26.67000000000008
 50
180.0
 51
255.51999999999961
  0
LINE
  5
55C
  8
DATA
  6
CONTINUOUS
 62
     7
 10
-791.05999999999983
 20
-717.42655237328051
 30
0.0
 11
-1187.3
 21
-717.42655237328051
 31
0.0
  0
LINE
  5
55D
  8
DATA
  6
CONTINUOUS
 62
     7
 10
-778.36000000000001
 20
-730.12655237328033
 30
0.0
 11
-778.36000000000001
 21
-733.93655237328051
 31
0.0
  0
LINE
  5
55E
  8
DATA
  6
CONTINUOUS
 62
     7
 10
-791.05999999999983
 20
-1500.0005523732809
 30
0.0
 11
-1187.3
 21
-1500.0005523732809
 31
0.0
  0
LINE
  5
55F
  8
DATA
  6
CONTINUOUS
 62
     7
 10
-778.36000000000001
 20
-1487.30055237328
 30
0.0
 11
-778.36000000000001
 21
-1483.2365523732799
 31
0.0
  0
LINE
  5
560
  8
DATA
  6
CONTINUOUS
 62
     7
 10
-1200.0
 20
-730.12655237328033
 30
0.0
 11
-1200.0
 21
-1487.30055237328
 31
0.0
  0
LINE
  5
561
  8
DATA
  6
CONTINUOUS
 62
     7
 10
-778.36000000000001
 20
-1487.30055237328
 30
0.0
 11
-778.36000000000001
 21
-733.93655237328051
 31
0.0
  0
LINE
  5
562
  8
DATA
  6
CONTINUOUS
 62
     7
 10
-600.00002160848703
 20
-730.12655237328033
 30
0.0
 11
-600.00002160848703
 21
-733.93655237328051
 31
0.0
  0
LINE
  5
563
  8
DATA
  6
CONTINUOUS
 62
     7
 10
-587.30002160848699
 20
-717.42655237328051
 30
0.0
 11
-108.5100216084887
 21
-717.42655237328051
 31
0.0
  0
LINE
  5
564
  8
DATA
  6
CONTINUOUS
 62
     7
 10
-587.30002160848699
 20
-1500.0005523732809
 30
0.0
 11
-108.5100216084887
 21
-1500.0005523732809
 31
0.0
  0
LINE
  5
565
  8
DATA
  6
CONTINUOUS
 62
     7
 10
-600.00002160848703
 20
-1487.30055237328
 30
0.0
 11
-600.00002160848703
 21
-1483.2365523732799
 31
0.0
  0
LINE
  5
566
  8
DATA
  6
CONTINUOUS
 62
     7
 10
-95.810021608488697
 20
-730.12655237328033
 30
0.0
 11
-95.810021608488697
 21
-1487.30055237328
 31
0.0
  0
LINE
  5
567
  8
DATA
  6
CONTINUOUS
 62
     7
 10
212.69999999999999
 20
-717.42655237328051
 30
0.0
 11
608.93999999999824
 21
-717.42655237328051
 31
0.0
  0
LINE
  5
568
  8
DATA
  6
CONTINUOUS
 62
     7
 10
608.93999999999824
 20
-1500.0005523732809
 30
0.0
 11
212.69999999999999
 21
-1500.0005523732809
 31
0.0
  0
LINE
  5
569
  8
DATA
  6
CONTINUOUS
 62
     7
 10
621.63999999999839
 20
-1487.30055237328
 30
0.0
 11
621.63999999999839
 21
-730.12655237328033
 31
0.0
  0
LINE
  5
56A
  8
DATA
  6
CONTINUOUS
 62
     7
 10
200.0
 20
-730.12655237328033
 30
0.0
 11
200.0
 21
-1487.30055237328
 31
0.0
  0
LINE
  5
56B
  8
DATA
  6
CONTINUOUS
 62
     7
 10
498.44999999999879
 20
-1500.0005523732809
 30
0.0
 11
498.44999999999879
 21
-717.42655237328051
 31
0.0
  0
ARC
  5
56C
  8
DATA
  6
CONTINUOUS
 62
     7
 10
-908.42553026451594
 20
27.879447626719848
 30
0.0
 40
12.63000000000001
 50
15.00555710521567
 51
90.0
  0
ARC
  5
56D
  8
DATA
  6
CONTINUOUS
 62
     7
 10
-1069.934469735485
 20
27.879447626719841
 30
0.0
 40
12.63000000000001
 50
90.0
 51
164.99444289478461
  0
ARC
  5
56E
  8
DATA
  6
CONTINUOUS
 62
     7
 10
-791.05999999999983
 20
-730.12655237328033
 30
0.0
 40
12.70000000000004
 50
0.0
 51
90.0
  0
ARC
  5
56F
  8
DATA
  6
CONTINUOUS
 62
     7
 10
-1187.3
 20
-730.12655237328033
 30
0.0
 40
12.70000000000004
 50
90.0
 51
180.0
  0
ARC
  5
570
  8
DATA
  6
CONTINUOUS
 62
     7
 10
-791.05999999999983
 20
-1487.30055237328
 30
0.0
 40
12.700000000000269
 50
270.0
 51
359.99999999999881
  0
ARC
  5
571
  8
DATA
  6
CONTINUOUS
 62
     7
 10
-1187.299999999999
 20
-1487.30055237328
 30
0.0
 40
12.700000000000269
 50
180.0
 51
269.99999999999898
  0
ARC
  5
572
  8
DATA
  6
CONTINUOUS
 62
     7
 10
-587.3000216084871
 20
-1487.30055237328
 30
0.0
 40
12.69999999999993
 50
180.0
 51
270.00000000000051
  0
ARC
  5
573
  8
DATA
  6
CONTINUOUS
 62
     7
 10
-587.30002160848699
 20
-730.12655237328033
 30
0.0
 40
12.70000000000004
 50
90.0
 51
180.0
  0
ARC
  5
574
  8
DATA
  6
CONTINUOUS
 62
     7
 10
-108.5100216084887
 20
-730.12655237328033
 30
0.0
 40
12.69999999999999
 50
0.0
 51
90.0
  0
ARC
  5
575
  8
DATA
  6
CONTINUOUS
 62
     7
 10
-108.5100216084887
 20
-1487.30055237328
 30
0.0
 40
12.700000000000269
 50
270.0
 51
359.99999999999881
  0
ARC
  5
576
  8
DATA
  6
CONTINUOUS
 62
     7
 10
608.93999999999824
 20
-1487.30055237328
 30
0.0
 40
12.700000000000269
 50
270.0
 51
359.99999999999881
  0
ARC
  5
577
  8
DATA
  6
CONTINUOUS
 62
     7
 10
212.69999999999999
 20
-1487.30055237328
 30
0.0
 40
12.69999999999993
 50
180.0
 51
270.00000000000028
  0
ARC
  5
578
  8
DATA
  6
CONTINUOUS
 62
     7
 10
212.69999999999999
 20
-730.12655237328033
 30
0.0
 40
12.70000000000004
 50
90.0
 51
180.0
  0
ARC
  5
579
  8
DATA
  6
CONTINUOUS
 62
     7
 10
608.93999999999824
 20
-730.12655237328033
 30
0.0
 40
12.700000000000101
 50
0.0
 51
90.0
  0
LINE
  5
57A
  8
DATA
  6
CONTINUOUS
 62
     7
 10
-778.36000000000001
 20
-408.56255237328043
 30
0.0
 11
-896.22620418426743
 21
31.149515391731601
 31
0.0
  0
LINE
  5
57B
  8
DATA
  6
CONTINUOUS
 62
     7
 10
220.00195761178469
 20
-758.8125523732806
 30
0.0
 11
219.2781428466968
 21
-757.03455237328069
 31
0.0
  0
LINE
  5
57C
  8
DATA
  6
CONTINUOUS
 62
     7
 10
218.5543280816089
 20
-762.11455237328039
 30
0.0
 11
219.2781428466968
 21
-763.89255237328052
 31
0.0
  0
LINE
  5
57D
  8
DATA
  6
CONTINUOUS
 62
     7
 10
219.2781428466968
 20
-763.89255237328052
 30
0.0
 11
220.00195761178469
 21
-762.11455237328039
 31
0.0
  0
LINE
  5
57E
  8
DATA
  6
CONTINUOUS
 62
     7
 10
219.2781428466968
 20
-757.03455237328069
 30
0.0
 11
218.5543280816089
 21
-758.8125523732806
 31
0.0
  0
LINE
  5
57F
  8
DATA
  6
CONTINUOUS
 62
     7
 10
220.00195761178469
 20
-762.11455237328039
 30
0.0
 11
220.00195761178469
 21
-758.8125523732806
 31
0.0
  0
LINE
  5
580
  8
DATA
  6
CONTINUOUS
 62
     7
 10
218.5543280816089
 20
-758.8125523732806
 30
0.0
 11
218.5543280816089
 21
-762.11455237328039
 31
0.0
  0
ARC
  5
581
  8
DATA
  6
CONTINUOUS
 62
     7
 10
219.28357862919691
 20
-750.00695829143763
 30
0.0
 40
0.8464233727995475
 50
90.367959518234755
 51
117.36215831364819
  0
ARC
  5
582
  8
DATA
  6
CONTINUOUS
 62
     7
 10
219.89128412040401
 20
-750.9396514318662
 30
0.0
 40
1.957227718484744
 50
120.6143865242998
 51
151.43794418649691
  0
ARC
  5
583
  8
DATA
  6
CONTINUOUS
 62
     7
 10
225.48742002874201
 20
-754.24275444353941
 30
0.0
 40
8.4545693342142005
 50
149.9092704692527
 51
167.61330648643241
  0
ARC
  5
584
  8
DATA
  6
CONTINUOUS
 62
     7
 10
246.95002062598661
 20
-759.60446735780386
 30
0.0
 40
30.574252409627061
 50
166.42699970628911
 51
181.37204960097
  0
ARC
  5
585
  8
DATA
  6
CONTINUOUS
 62
     7
 10
219.27270706419671
 20
-750.00695829143763
 30
0.0
 40
0.8464233727995475
 50
62.637841686351791
 51
89.632040481765245
  0
ARC
  5
586
  8
DATA
  6
CONTINUOUS
 62
     7
 10
218.66500157298961
 20
-750.9396514318662
 30
0.0
 40
1.9572277184847391
 50
28.562055813503079
 51
59.385613475700247
  0
ARC
  5
587
  8
DATA
  6
CONTINUOUS
 62
     7
 10
213.06886566465161
 20
-754.24275444353941
 30
0.0
 40
8.4545693342142751
 50
12.386693513567471
 51
30.090729530747002
  0
ARC
  5
588
  8
DATA
  6
CONTINUOUS
 62
     7
 10
191.60626506740689
 20
-759.60446735780386
 30
0.0
 40
30.574252409627061
 50
358.62795039903011
 51
13.573000293710891
  0
ARC
  5
589
  8
DATA
  6
CONTINUOUS
 62
     7
 10
219.28357862919691
 20
-770.66614645512345
 30
0.0
 40
0.8464233727995475
 50
242.63784168635169
 51
269.6320404817651
  0
ARC
  5
58A
  8
DATA
  6
CONTINUOUS
 62
     7
 10
219.89128412040401
 20
-769.7334533146942
 30
0.0
 40
1.9572277184847391
 50
208.56205581350309
 51
239.38561347570021
  0
ARC
  5
58B
  8
DATA
  6
CONTINUOUS
 62
     7
 10
225.48742002874201
 20
-766.4303503030211
 30
0.0
 40
8.4545693342142751
 50
192.38669351356739
 51
210.0907295307469
  0
ARC
  5
58C
  8
DATA
  6
CONTINUOUS
 62
     7
 10
246.95002062598661
 20
-761.068637388757
 30
0.0
 40
30.57425240962705
 50
178.62795039903
 51
193.57300029371089
  0
ARC
  5
58D
  8
DATA
  6
CONTINUOUS
 62
     7
 10
219.27270706419671
 20
-770.66614645512345
 30
0.0
 40
0.8464233727995475
 50
270.36795951823478
 51
297.36215831364831
  0
ARC
  5
58E
  8
DATA
  6
CONTINUOUS
 62
     7
 10
218.66500157298961
 20
-769.7334533146942
 30
0.0
 40
1.957227718484744
 50
300.61438652429968
 51
331.43794418649679
  0
ARC
  5
58F
  8
DATA
  6
CONTINUOUS
 62
     7
 10
213.06886566465161
 20
-766.4303503030211
 30
0.0
 40
8.4545693342142005
 50
329.9092704692527
 51
347.61330648643241
  0
ARC
  5
590
  8
DATA
  6
CONTINUOUS
 62
     7
 10
191.60626506740689
 20
-761.068637388757
 30
0.0
 40
30.574252409627078
 50
346.42699970628922
 51
1.3720496009699441
  0
LINE
  5
591
  8
DATA
  6
CONTINUOUS
 62
     7
 10
220.00195761178469
 20
-1456.4395523732801
 30
0.0
 11
219.2781428466968
 21
-1454.6615523732801
 31
0.0
  0
LINE
  5
592
  8
DATA
  6
CONTINUOUS
 62
     7
 10
218.5543280816089
 20
-1459.74155237328
 30
0.0
 11
219.2781428466968
 21
-1461.5195523732809
 31
0.0
  0
LINE
  5
593
  8
DATA
  6
CONTINUOUS
 62
     7
 10
219.2781428466968
 20
-1461.5195523732809
 30
0.0
 11
220.00195761178469
 21
-1459.74155237328
 31
0.0
  0
LINE
  5
594
  8
DATA
  6
CONTINUOUS
 62
     7
 10
219.2781428466968
 20
-1454.6615523732801
 30
0.0
 11
218.5543280816089
 21
-1456.4395523732801
 31
0.0
  0
LINE
  5
595
  8
DATA
  6
CONTINUOUS
 62
     7
 10
220.00195761178469
 20
-1459.74155237328
 30
0.0
 11
220.00195761178469
 21
-1456.4395523732801
 31
0.0
  0
LINE
  5
596
  8
DATA
  6
CONTINUOUS
 62
     7
 10
218.5543280816089
 20
-1456.4395523732801
 30
0.0
 11
218.5543280816089
 21
-1459.74155237328
 31
0.0
  0
ARC
  5
597
  8
DATA
  6
CONTINUOUS
 62
     7
 10
219.28357862919691
 20
-1447.633958291437
 30
0.0
 40
0.8464233727993201
 50
90.367959518234898
 51
117.3621583136415
  0
ARC
  5
598
  8
DATA
  6
CONTINUOUS
 62
     7
 10
219.89128412040401
 20
-1448.5666514318659
 30
0.0
 40
1.9572277184846449
 50
120.61438652430139
 51
151.43794418649929
  0
ARC
  5
599
  8
DATA
  6
CONTINUOUS
 62
     7
 10
225.48742002874201
 20
-1451.869754443539
 30
0.0
 40
8.4545693342142005
 50
149.9092704692527
 51
167.6133064864317
  0
ARC
  5
59A
  8
DATA
  6
CONTINUOUS
 62
     7
 10
246.95002062598661
 20
-1457.2314673578039
 30
0.0
 40
30.57425240962711
 50
166.4269997062886
 51
181.37204960097
  0
ARC
  5
59B
  8
DATA
  6
CONTINUOUS
 62
     7
 10
219.27270706419671
 20
-1447.633958291437
 30
0.0
 40
0.8464233727994464
 50
62.637841686348239
 51
89.632040481765245
  0
ARC
  5
59C
  8
DATA
  6
CONTINUOUS
 62
     7
 10
218.66500157298961
 20
-1448.5666514318659
 30
0.0
 40
1.957227718484686
 50
28.562055813500159
 51
59.385613475697838
  0
ARC
  5
59D
  8
DATA
  6
CONTINUOUS
 62
     7
 10
213.06886566465161
 20
-1451.869754443539
 30
0.0
 40
8.4545693342142982
 50
12.386693513568231
 51
30.090729530746909
  0
ARC
  5
59E
  8
DATA
  6
CONTINUOUS
 62
     7
 10
191.60626506740689
 20
-1457.2314673578039
 30
0.0
 40
30.574252409627061
 50
358.62795039903011
 51
13.57300029371134
  0
ARC
  5
59F
  8
DATA
  6
CONTINUOUS
 62
     7
 10
219.28357862919691
 20
-1468.293146455123
 30
0.0
 40
0.8464233727996484
 50
242.6378416863553
 51
269.6320404817651
  0
ARC
  5
5A0
  8
DATA
  6
CONTINUOUS
 62
     7
 10
219.89128412040401
 20
-1467.360453314694
 30
0.0
 40
1.9572277184847939
 50
208.56205581350599
 51
239.385613475703
  0
ARC
  5
5A1
  8
DATA
  6
CONTINUOUS
 62
     7
 10
225.48742002874201
 20
-1464.05735030302
 30
0.0
 40
8.4545693342142503
 50
192.38669351356671
 51
210.0907295307471
  0
ARC
  5
5A2
  8
DATA
  6
CONTINUOUS
 62
     7
 10
246.95002062598661
 20
-1458.695637388756
 30
0.0
 40
30.57425240962705
 50
178.62795039903
 51
193.57300029371049
  0
ARC
  5
5A3
  8
DATA
  6
CONTINUOUS
 62
     7
 10
219.27270706419671
 20
-1468.293146455123
 30
0.0
 40
0.8464233727997749
 50
270.36795951823473
 51
297.36215831365507
  0
ARC
  5
5A4
  8
DATA
  6
CONTINUOUS
 62
     7
 10
218.66500157298961
 20
-1467.360453314694
 30
0.0
 40
1.957227718484841
 50
300.61438652429808
 51
331.4379441864948
  0
ARC
  5
5A5
  8
DATA
  6
CONTINUOUS
 62
     7
 10
213.06886566465161
 20
-1464.05735030302
 30
0.0
 40
8.4545693342142005
 50
329.9092704692527
 51
347.6133064864332
  0
ARC
  5
5A6
  8
DATA
  6
CONTINUOUS
 62
     7
 10
191.60626506740689
 20
-1458.695637388756
 30
0.0
 40
30.574252409627022
 50
346.42699970628962
 51
1.3720496009700001
  0
LINE
  5
5A7
  8
DATA
  6
CONTINUOUS
 62
     7
 10
601.63804238821353
 20
-758.8125523732806
 30
0.0
 11
602.36185715330123
 21
-757.03455237328069
 31
0.0
  0
LINE
  5
5A8
  8
DATA
  6
CONTINUOUS
 62
     7
 10
603.08567191838915
 20
-762.11455237328039
 30
0.0
 11
602.36185715330123
 21
-763.89255237328052
 31
0.0
  0
LINE
  5
5A9
  8
DATA
  6
CONTINUOUS
 62
     7
 10
602.36185715330123
 20
-763.89255237328052
 30
0.0
 11
601.63804238821353
 21
-762.11455237328039
 31
0.0
  0
LINE
  5
5AA
  8
DATA
  6
CONTINUOUS
 62
     7
 10
602.36185715330123
 20
-757.03455237328069
 30
0.0
 11
603.08567191838915
 21
-758.8125523732806
 31
0.0
  0
LINE
  5
5AB
  8
DATA
  6
CONTINUOUS
 62
     7
 10
601.63804238821353
 20
-762.11455237328039
 30
0.0
 11
601.63804238821353
 21
-758.8125523732806
 31
0.0
  0
LINE
  5
5AC
  8
DATA
  6
CONTINUOUS
 62
     7
 10
603.08567191838915
 20
-758.8125523732806
 30
0.0
 11
603.08567191838915
 21
-762.11455237328039
 31
0.0
  0
ARC
  5
5AD
  8
DATA
  6
CONTINUOUS
 62
     7
 10
602.35642137080129
 20
-750.00695829143763
 30
0.0
 40
0.8464233727995475
 50
62.637841686351791
 51
89.632040481761393
  0
ARC
  5
5AE
  8
DATA
  6
CONTINUOUS
 62
     7
 10
601.74871587959422
 20
-750.9396514318662
 30
0.0
 40
1.9572277184847391
 50
28.562055813503079
 51
59.385613475700247
  0
ARC
  5
5AF
  8
DATA
  6
CONTINUOUS
 62
     7
 10
596.15257997125605
 20
-754.24275444353941
 30
0.0
 40
8.4545693342142751
 50
12.386693513567471
 51
30.09072953074709
  0
ARC
  5
5B0
  8
DATA
  6
CONTINUOUS
 62
     7
 10
574.6899793740115
 20
-759.60446735780386
 30
0.0
 40
30.574252409627132
 50
358.62795039903011
 51
13.57300029371083
  0
ARC
  5
5B1
  8
DATA
  6
CONTINUOUS
 62
     7
 10
602.3672929358014
 20
-750.00695829143763
 30
0.0
 40
0.8464233727995472
 50
90.367959518230919
 51
117.36215831364819
  0
ARC
  5
5B2
  8
DATA
  6
CONTINUOUS
 62
     7
 10
602.97499842700825
 20
-750.9396514318662
 30
0.0
 40
1.957227718484744
 50
120.6143865242998
 51
151.43794418649691
  0
ARC
  5
5B3
  8
DATA
  6
CONTINUOUS
 62
     7
 10
608.57113433534653
 20
-754.24275444353941
 30
0.0
 40
8.4545693342141526
 50
149.9092704692525
 51
167.61330648643229
  0
ARC
  5
5B4
  8
DATA
  6
CONTINUOUS
 62
     7
 10
630.03373493259141
 20
-759.60446735780386
 30
0.0
 40
30.574252409627181
 50
166.42699970628911
 51
181.37204960097
  0
ARC
  5
5B5
  8
DATA
  6
CONTINUOUS
 62
     7
 10
602.35642137080129
 20
-770.66614645512345
 30
0.0
 40
0.8464233727995481
 50
270.36795951823848
 51
297.36215831364831
  0
ARC
  5
5B6
  8
DATA
  6
CONTINUOUS
 62
     7
 10
601.74871587959422
 20
-769.7334533146942
 30
0.0
 40
1.957227718484744
 50
300.61438652429968
 51
331.43794418649679
  0
ARC
  5
5B7
  8
DATA
  6
CONTINUOUS
 62
     7
 10
596.15257997125605
 20
-766.4303503030211
 30
0.0
 40
8.4545693342142503
 50
329.90927046925299
 51
347.61330648643252
  0
ARC
  5
5B8
  8
DATA
  6
CONTINUOUS
 62
     7
 10
574.6899793740115
 20
-761.068637388757
 30
0.0
 40
30.574252409627022
 50
346.42699970628922
 51
1.3720496009699441
  0
ARC
  5
5B9
  8
DATA
  6
CONTINUOUS
 62
     7
 10
602.3672929358014
 20
-770.66614645512345
 30
0.0
 40
0.8464233727995475
 50
242.63784168635169
 51
269.63204048176902
  0
ARC
  5
5BA
  8
DATA
  6
CONTINUOUS
 62
     7
 10
602.97499842700825
 20
-769.7334533146942
 30
0.0
 40
1.9572277184847391
 50
208.56205581350309
 51
239.38561347570021
  0
ARC
  5
5BB
  8
DATA
  6
CONTINUOUS
 62
     7
 10
608.57113433534653
 20
-766.4303503030211
 30
0.0
 40
8.4545693342142751
 50
192.38669351356739
 51
210.09072953074769
  0
ARC
  5
5BC
  8
DATA
  6
CONTINUOUS
 62
     7
 10
630.03373493259141
 20
-761.068637388757
 30
0.0
 40
30.574252409627061
 50
178.62795039903
 51
193.57300029371089
  0
LINE
  5
5BD
  8
DATA
  6
CONTINUOUS
 62
     7
 10
601.63804238821353
 20
-1456.4395523732801
 30
0.0
 11
602.36185715330123
 21
-1454.6615523732801
 31
0.0
  0
LINE
  5
5BE
  8
DATA
  6
CONTINUOUS
 62
     7
 10
603.08567191838915
 20
-1459.74155237328
 30
0.0
 11
602.36185715330123
 21
-1461.5195523732809
 31
0.0
  0
LINE
  5
5BF
  8
DATA
  6
CONTINUOUS
 62
     7
 10
602.36185715330123
 20
-1461.5195523732809
 30
0.0
 11
601.63804238821353
 21
-1459.74155237328
 31
0.0
  0
LINE
  5
5C0
  8
DATA
  6
CONTINUOUS
 62
     7
 10
602.36185715330123
 20
-1454.6615523732801
 30
0.0
 11
603.08567191838915
 21
-1456.4395523732801
 31
0.0
  0
LINE
  5
5C1
  8
DATA
  6
CONTINUOUS
 62
     7
 10
601.63804238821353
 20
-1459.74155237328
 30
0.0
 11
601.63804238821353
 21
-1456.4395523732801
 31
0.0
  0
LINE
  5
5C2
  8
DATA
  6
CONTINUOUS
 62
     7
 10
603.08567191838915
 20
-1456.4395523732801
 30
0.0
 11
603.08567191838915
 21
-1459.74155237328
 31
0.0
  0
ARC
  5
5C3
  8
DATA
  6
CONTINUOUS
 62
     7
 10
602.35642137080129
 20
-1447.633958291437
 30
0.0
 40
0.8464233727994464
 50
62.637841686348239
 51
89.632040481761393
  0
ARC
  5
5C4
  8
DATA
  6
CONTINUOUS
 62
     7
 10
601.74871587959422
 20
-1448.5666514318659
 30
0.0
 40
1.957227718484686
 50
28.562055813500159
 51
59.385613475698591
  0
ARC
  5
5C5
  8
DATA
  6
CONTINUOUS
 62
     7
 10
596.15257997125605
 20
-1451.869754443539
 30
0.0
 40
8.4545693342142982
 50
12.386693513568231
 51
30.090729530746909
  0
ARC
  5
5C6
  8
DATA
  6
CONTINUOUS
 62
     7
 10
574.6899793740115
 20
-1457.2314673578039
 30
0.0
 40
30.574252409627132
 50
358.62795039903011
 51
13.57300029371129
  0
ARC
  5
5C7
  8
DATA
  6
CONTINUOUS
 62
     7
 10
602.3672929358014
 20
-1447.633958291437
 30
0.0
 40
0.8464233727993198
 50
90.367959518231004
 51
117.3621583136415
  0
ARC
  5
5C8
  8
DATA
  6
CONTINUOUS
 62
     7
 10
602.97499842700825
 20
-1448.5666514318659
 30
0.0
 40
1.9572277184846449
 50
120.61438652430139
 51
151.4379441864991
  0
ARC
  5
5C9
  8
DATA
  6
CONTINUOUS
 62
     7
 10
608.57113433534653
 20
-1451.869754443539
 30
0.0
 40
8.4545693342141526
 50
149.9092704692525
 51
167.6133064864315
  0
ARC
  5
5CA
  8
DATA
  6
CONTINUOUS
 62
     7
 10
630.03373493259141
 20
-1457.2314673578039
 30
0.0
 40
30.574252409627231
 50
166.4269997062888
 51
181.37204960097
  0
ARC
  5
5CB
  8
DATA
  6
CONTINUOUS
 62
     7
 10
602.35642137080129
 20
-1468.293146455123
 30
0.0
 40
0.8464233727997754
 50
270.36795951823848
 51
297.36215831365507
  0
ARC
  5
5CC
  8
DATA
  6
CONTINUOUS
 62
     7
 10
601.74871587959422
 20
-1467.360453314694
 30
0.0
 40
1.957227718484841
 50
300.61438652429808
 51
331.4379441864948
  0
ARC
  5
5CD
  8
DATA
  6
CONTINUOUS
 62
     7
 10
596.15257997125605
 20
-1464.05735030302
 30
0.0
 40
8.4545693342142503
 50
329.90927046925299
 51
347.6133064864332
  0
ARC
  5
5CE
  8
DATA
  6
CONTINUOUS
 62
     7
 10
574.6899793740115
 20
-1458.695637388756
 30
0.0
 40
30.574252409626968
 50
346.42699970628962
 51
1.3720496009700001
  0
ARC
  5
5CF
  8
DATA
  6
CONTINUOUS
 62
     7
 10
602.3672929358014
 20
-1468.293146455123
 30
0.0
 40
0.8464233727996484
 50
242.6378416863553
 51
269.63204048176902
  0
ARC
  5
5D0
  8
DATA
  6
CONTINUOUS
 62
     7
 10
602.97499842700825
 20
-1467.360453314694
 30
0.0
 40
1.9572277184847939
 50
208.56205581350599
 51
239.38561347570189
  0
ARC
  5
5D1
  8
DATA
  6
CONTINUOUS
 62
     7
 10
608.57113433534653
 20
-1464.05735030302
 30
0.0
 40
8.4545693342142503
 50
192.38669351356671
 51
210.0907295307471
  0
ARC
  5
5D2
  8
DATA
  6
CONTINUOUS
 62
     7
 10
630.03373493259141
 20
-1458.695637388756
 30
0.0
 40
30.574252409627061
 50
178.62795039903
 51
193.57300029371041
  0
CIRCLE
  5
5D3
  8
DATA
  6
CONTINUOUS
 62
     7
 10
-1138.680000000001
 20
-344.49055237328002
 30
0.0
 40
11.17600000000038
  0
LINE
  5
5D4
  8
DATA
  6
CONTINUOUS
 62
     7
 10
-1135.8860000000011
 20
-342.71255237328012
 30
0.0
 11
-1138.680000000001
 21
-341.18855237328017
 31
0.0
  0
LINE
  5
5D5
  8
DATA
  6
CONTINUOUS
 62
     7
 10
-1141.4739999999999
 20
-346.26855237328027
 30
0.0
 11
-1138.680000000001
 21
-347.79255237328027
 31
0.0
  0
LINE
  5
5D6
  8
DATA
  6
CONTINUOUS
 62
     7
 10
-1138.680000000001
 20
-347.79255237328027
 30
0.0
 11
-1135.8860000000011
 21
-346.26855237328027
 31
0.0
  0
LINE
  5
5D7
  8
DATA
  6
CONTINUOUS
 62
     7
 10
-1138.680000000001
 20
-341.18855237328017
 30
0.0
 11
-1141.4739999999999
 21
-342.71255237328012
 31
0.0
  0
LINE
  5
5D8
  8
DATA
  6
CONTINUOUS
 62
     7
 10
-1135.8860000000011
 20
-346.26855237328027
 30
0.0
 11
-1135.8860000000011
 21
-342.71255237328012
 31
0.0
  0
LINE
  5
5D9
  8
DATA
  6
CONTINUOUS
 62
     7
 10
-1141.4739999999999
 20
-342.71255237328012
 30
0.0
 11
-1141.4739999999999
 21
-346.26855237328027
 31
0.0
  0
CIRCLE
  5
5DA
  8
DATA
  6
CONTINUOUS
 62
     7
 10
-839.68000000000063
 20
-344.49055237328002
 30
0.0
 40
11.175999999999471
  0
LINE
  5
5DB
  8
DATA
  6
CONTINUOUS
 62
     7
 10
-836.88600000000099
 20
-342.71255237328012
 30
0.0
 11
-839.68000000000063
 21
-341.18855237328017
 31
0.0
  0
LINE
  5
5DC
  8
DATA
  6
CONTINUOUS
 62
     7
 10
-842.47400000000073
 20
-346.26855237328027
 30
0.0
 11
-839.68000000000063
 21
-347.79255237328027
 31
0.0
  0
LINE
  5
5DD
  8
DATA
  6
CONTINUOUS
 62
     7
 10
-839.68000000000063
 20
-347.79255237328027
 30
0.0
 11
-836.88600000000099
 21
-346.26855237328027
 31
0.0
  0
LINE
  5
5DE
  8
DATA
  6
CONTINUOUS
 62
     7
 10
-839.68000000000063
 20
-341.18855237328017
 30
0.0
 11
-842.47400000000073
 21
-342.71255237328012
 31
0.0
  0
LINE
  5
5DF
  8
DATA
  6
CONTINUOUS
 62
     7
 10
-836.88600000000099
 20
-346.26855237328027
 30
0.0
 11
-836.88600000000099
 21
-342.71255237328012
 31
0.0
  0
LINE
  5
5E0
  8
DATA
  6
CONTINUOUS
 62
     7
 10
-842.47400000000073
 20
-342.71255237328012
 30
0.0
 11
-842.47400000000073
 21
-346.26855237328027
 31
0.0
  0
CIRCLE
  5
5E1
  8
DATA
  6
CONTINUOUS
 62
     7
 10
410.81999999999908
 20
-1116.00055237328
 30
0.0
 40
11.17599999999902
  0
LINE
  5
5E2
  8
DATA
  6
CONTINUOUS
 62
     7
 10
413.61399999999901
 20
-1114.4765523732799
 30
0.0
 11
410.81999999999908
 21
-1112.6985523732801
 31
0.0
  0
LINE
  5
5E3
  8
DATA
  6
CONTINUOUS
 62
     7
 10
408.02599999999921
 20
-1117.77855237328
 30
0.0
 11
410.81999999999908
 21
-1119.5565523732801
 31
0.0
  0
LINE
  5
5E4
  8
DATA
  6
CONTINUOUS
 62
     7
 10
410.81999999999908
 20
-1119.5565523732801
 30
0.0
 11
413.61399999999901
 21
-1117.77855237328
 31
0.0
  0
LINE
  5
5E5
  8
DATA
  6
CONTINUOUS
 62
     7
 10
410.81999999999908
 20
-1112.6985523732801
 30
0.0
 11
408.02599999999921
 21
-1114.4765523732799
 31
0.0
  0
LINE
  5
5E6
  8
DATA
  6
CONTINUOUS
 62
     7
 10
413.61399999999901
 20
-1117.77855237328
 30
0.0
 11
413.61399999999901
 21
-1114.4765523732799
 31
0.0
  0
LINE
  5
5E7
  8
DATA
  6
CONTINUOUS
 62
     7
 10
408.02599999999921
 20
-1114.4765523732799
 30
0.0
 11
408.02599999999921
 21
-1117.77855237328
 31
0.0
  0
CIRCLE
  5
5E8
  8
DATA
  6
CONTINUOUS
 62
     7
 10
410.81999999999908
 20
-761.00055237328036
 30
0.0
 40
11.17599999999902
  0
LINE
  5
5E9
  8
DATA
  6
CONTINUOUS
 62
     7
 10
413.61399999999901
 20
-759.47655237328058
 30
0.0
 11
410.81999999999908
 21
-757.69855237328034
 31
0.0
  0
LINE
  5
5EA
  8
DATA
  6
CONTINUOUS
 62
     7
 10
408.02599999999921
 20
-762.77855237328038
 30
0.0
 11
410.81999999999908
 21
-764.55655237328051
 31
0.0
  0
LINE
  5
5EB
  8
DATA
  6
CONTINUOUS
 62
     7
 10
410.81999999999908
 20
-764.55655237328051
 30
0.0
 11
413.61399999999901
 21
-762.77855237328038
 31
0.0
  0
LINE
  5
5EC
  8
DATA
  6
CONTINUOUS
 62
     7
 10
410.81999999999908
 20
-757.69855237328034
 30
0.0
 11
408.02599999999921
 21
-759.47655237328058
 31
0.0
  0
LINE
  5
5ED
  8
DATA
  6
CONTINUOUS
 62
     7
 10
413.61399999999901
 20
-762.77855237328038
 30
0.0
 11
413.61399999999901
 21
-759.47655237328058
 31
0.0
  0
LINE
  5
5EE
  8
DATA
  6
CONTINUOUS
 62
     7
 10
408.02599999999921
 20
-759.47655237328058
 30
0.0
 11
408.02599999999921
 21
-762.77855237328038
 31
0.0
  0
CIRCLE
  5
5EF
  8
DATA
  6
CONTINUOUS
 62
     7
 10
-474.0093694759226
 20
-761.00020770033075
 30
0.0
 40
11.17600000000038
  0
LINE
  5
5F0
  8
DATA
  6
CONTINUOUS
 62
     7
 10
-471.2153694759217
 20
-759.22220770033084
 30
0.0
 11
-474.0093694759226
 21
-757.69820770033084
 31
0.0
  0
LINE
  5
5F1
  8
DATA
  6
CONTINUOUS
 62
     7
 10
-476.80336947592241
 20
-762.77820770033054
 30
0.0
 11
-474.0093694759226
 21
-764.30220770033054
 31
0.0
  0
LINE
  5
5F2
  8
DATA
  6
CONTINUOUS
 62
     7
 10
-474.0093694759226
 20
-764.30220770033054
 30
0.0
 11
-471.2153694759217
 21
-762.77820770033054
 31
0.0
  0
LINE
  5
5F3
  8
DATA
  6
CONTINUOUS
 62
     7
 10
-474.0093694759226
 20
-757.69820770033084
 30
0.0
 11
-476.80336947592241
 21
-759.22220770033084
 31
0.0
  0
LINE
  5
5F4
  8
DATA
  6
CONTINUOUS
 62
     7
 10
-471.2153694759217
 20
-762.77820770033054
 30
0.0
 11
-471.2153694759217
 21
-759.22220770033084
 31
0.0
  0
LINE
  5
5F5
  8
DATA
  6
CONTINUOUS
 62
     7
 10
-476.80336947592241
 20
-759.22220770033084
 30
0.0
 11
-476.80336947592241
 21
-762.77820770033054
 31
0.0
  0
CIRCLE
  5
5F6
  8
DATA
  6
CONTINUOUS
 62
     7
 10
-474.0093694759226
 20
-1458.0905523732799
 30
0.0
 40
11.17600000000038
  0
LINE
  5
5F7
  8
DATA
  6
CONTINUOUS
 62
     7
 10
-471.2153694759217
 20
-1456.3125523732799
 30
0.0
 11
-474.0093694759226
 21
-1454.7885523732809
 31
0.0
  0
LINE
  5
5F8
  8
DATA
  6
CONTINUOUS
 62
     7
 10
-476.80336947592241
 20
-1459.86855237328
 30
0.0
 11
-474.0093694759226
 21
-1461.392552373281
 31
0.0
  0
LINE
  5
5F9
  8
DATA
  6
CONTINUOUS
 62
     7
 10
-474.0093694759226
 20
-1461.392552373281
 30
0.0
 11
-471.2153694759217
 21
-1459.86855237328
 31
0.0
  0
LINE
  5
5FA
  8
DATA
  6
CONTINUOUS
 62
     7
 10
-474.0093694759226
 20
-1454.7885523732809
 30
0.0
 11
-476.80336947592241
 21
-1456.3125523732799
 31
0.0
  0
LINE
  5
5FB
  8
DATA
  6
CONTINUOUS
 62
     7
 10
-471.2153694759217
 20
-1459.86855237328
 30
0.0
 11
-471.2153694759217
 21
-1456.3125523732799
 31
0.0
  0
LINE
  5
5FC
  8
DATA
  6
CONTINUOUS
 62
     7
 10
-476.80336947592241
 20
-1456.3125523732799
 30
0.0
 11
-476.80336947592241
 21
-1459.86855237328
 31
0.0
  0
LINE
  5
5FD
  8
DATA
  6
CONTINUOUS
 62
     7
 10
349.31999999999908
 20
-1327.6615523732801
 30
0.0
 11
349.31999999999908
 21
-1137.6615523732801
 31
0.0
  0
LINE
  5
5FE
  8
DATA
  6
CONTINUOUS
 62
     7
 10
467.31999999999908
 20
-1332.6615523732801
 30
0.0
 11
354.3199999999992
 21
-1332.6615523732801
 31
0.0
  0
LINE
  5
5FF
  8
DATA
  6
CONTINUOUS
 62
     7
 10
472.31999999999908
 20
-1137.6615523732801
 30
0.0
 11
472.31999999999908
 21
-1327.6615523732801
 31
0.0
  0
LINE
  5
600
  8
DATA
  6
CONTINUOUS
 62
     7
 10
354.3199999999992
 20
-1132.6615523732801
 30
0.0
 11
467.31999999999908
 21
-1132.6615523732801
 31
0.0
  0
LINE
  5
601
  8
DATA
  6
CONTINUOUS
 62
     7
 10
364.31999999999908
 20
-1318.1615523732801
 30
0.0
 11
364.31999999999908
 21
-1147.1615523732801
 31
0.0
  0
LINE
  5
602
  8
DATA
  6
CONTINUOUS
 62
     7
 10
457.31999999999908
 20
-1318.1615523732801
 30
0.0
 11
364.31999999999908
 21
-1318.1615523732801
 31
0.0
  0
LINE
  5
603
  8
DATA
  6
CONTINUOUS
 62
     7
 10
457.31999999999908
 20
-1147.1615523732801
 30
0.0
 11
457.31999999999908
 21
-1318.1615523732801
 31
0.0
  0
LINE
  5
604
  8
DATA
  6
CONTINUOUS
 62
     7
 10
364.31999999999908
 20
-1147.1615523732801
 30
0.0
 11
457.31999999999908
 21
-1147.1615523732801
 31
0.0
  0
POLYLINE
  5
605
  8
DATA
  6
CONTINUOUS
 62
     7
 66
     1
 10
0.0
 20
0.0
 30
0.0
 70
     1
  0
VERTEX
  5
1059
  8
DATA
  6
CONTINUOUS
 62
     7
 10
370.31999999999908
 20
-1270.1615523732801
 30
0.0
  0
VERTEX
  5
105A
  8
DATA
  6
CONTINUOUS
 62
     7
 10
451.31999999999908
 20
-1270.1615523732801
 30
0.0
  0
VERTEX
  5
105B
  8
DATA
  6
CONTINUOUS
 62
     7
 10
451.31999999999908
 20
-1288.1615523732801
 30
0.0
  0
VERTEX
  5
105C
  8
DATA
  6
CONTINUOUS
 62
     7
 10
370.31999999999908
 20
-1288.1615523732801
 30
0.0
  0
SEQEND
  5
105D
  8
DATA
  6
CONTINUOUS
 62
     7
  0
POLYLINE
  5
60C
  8
DATA
  6
CONTINUOUS
 62
     7
 66
     1
 10
0.0
 20
0.0
 30
0.0
 70
   129
  0
VERTEX
  5
105E
  8
DATA
  6
CONTINUOUS
 62
     7
 10
399.06999999999908
 20
-1229.1615523732801
 30
0.0
 42
-0.4142135623730895
  0
VERTEX
  5
105F
  8
DATA
  6
CONTINUOUS
 62
     7
 10
410.81999999999908
 20
-1217.4115523732801
 30
0.0
 42
-0.4142135623730925
  0
VERTEX
  5
1060
  8
DATA
  6
CONTINUOUS
 62
     7
 10
422.56999999999908
 20
-1229.1615523732801
 30
0.0
 42
-0.4142135623731007
  0
VERTEX
  5
1061
  8
DATA
  6
CONTINUOUS
 62
     7
 10
410.81999999999908
 20
-1240.9115523732801
 30
0.0
 42
-0.414213562373098
  0
VERTEX
  5
1062
  8
DATA
  6
CONTINUOUS
 62
     7
 10
399.06999999999908
 20
-1229.1615523732801
 30
0.0
  0
SEQEND
  5
1063
  8
DATA
  6
CONTINUOUS
 62
     7
  0
LINE
  5
613
  8
DATA
  6
CONTINUOUS
 62
     7
 10
407.81999999999908
 20
-1219.1615523732801
 30
0.0
 11
413.81999999999908
 21
-1219.1615523732801
 31
0.0
  0
LINE
  5
614
  8
DATA
  6
CONTINUOUS
 62
     7
 10
408.81999999999908
 20
-1238.920036905349
 30
0.0
 11
412.81999999999908
 21
-1238.920036905349
 31
0.0
  0
LINE
  5
615
  8
DATA
  6
CONTINUOUS
 62
     7
 10
408.81999999999908
 20
-1238.920036905349
 30
0.0
 11
408.81999999999908
 21
-1237.731269236896
 31
0.0
  0
LINE
  5
616
  8
DATA
  6
CONTINUOUS
 62
     7
 10
412.81999999999908
 20
-1238.920036905349
 30
0.0
 11
412.81999999999908
 21
-1237.7312700860491
 31
0.0
  0
LINE
  5
617
  8
DATA
  6
CONTINUOUS
 62
     7
 10
407.81999999999908
 20
-1219.1615523732801
 30
0.0
 11
407.81999999999908
 21
-1220.8887023732809
 31
0.0
  0
LINE
  5
618
  8
DATA
  6
CONTINUOUS
 62
     7
 10
413.81999999999908
 20
-1219.1615523732801
 30
0.0
 11
413.81999999999908
 21
-1220.8887023732809
 31
0.0
  0
ARC
  5
619
  8
DATA
  6
CONTINUOUS
 62
     7
 10
410.81999999999908
 20
-1229.1615523732801
 30
0.0
 40
8.8000026774142093
 50
109.9322641506793
 51
256.86344528141552
  0
ARC
  5
61A
  8
DATA
  6
CONTINUOUS
 62
     7
 10
410.81999999999908
 20
-1229.1615523732801
 30
0.0
 40
8.8000035043459128
 50
283.13655346205081
 51
69.999994237961431
  0
ARC
  5
61B
  8
DATA
  6
CONTINUOUS
 62
     7
 10
410.81999999999908
 20
-1229.1615523732801
 30
0.0
 40
6.2000021620640764
 50
60.000011535560219
 51
150.0000115355611
  0
LINE
  5
61C
  8
DATA
  6
CONTINUOUS
 62
     7
 10
405.45065999999912
 20
-1226.06152237328
 30
0.0
 11
405.9486199999991
 21
-1226.3490223732799
 31
0.0
  0
LINE
  5
61D
  8
DATA
  6
CONTINUOUS
 62
     7
 10
413.91996999999913
 20
-1223.79217237328
 30
0.0
 11
413.6324699999991
 21
-1224.2901423732801
 31
0.0
  0
ARC
  5
61E
  8
DATA
  6
CONTINUOUS
 62
     7
 10
410.81999999999908
 20
-1229.1615523732801
 30
0.0
 40
6.2000021620642727
 50
240.00001153556121
 51
330.00001153556229
  0
LINE
  5
61F
  8
DATA
  6
CONTINUOUS
 62
     7
 10
407.71999999999912
 20
-1234.5309123732809
 30
0.0
 11
408.00749999999908
 21
-1234.0329423732801
 31
0.0
  0
LINE
  5
620
  8
DATA
  6
CONTINUOUS
 62
     7
 10
416.18936999999909
 20
-1232.26153237328
 30
0.0
 11
415.69139999999908
 21
-1231.9740323732799
 31
0.0
  0
ARC
  5
621
  8
DATA
  6
CONTINUOUS
 62
     7
 10
410.81999999999908
 20
-1229.1615523732801
 30
0.0
 40
5.6250038315809183
 50
149.9996696821033
 51
240.00021260430319
  0
ARC
  5
622
  8
DATA
  6
CONTINUOUS
 62
     7
 10
410.81999999999908
 20
-1229.1615523732801
 30
0.0
 40
5.6249961520342593
 50
330.00021260430242
 51
60.000718243123622
  0
ARC
  5
623
  8
DATA
  6
CONTINUOUS
 62
     7
 10
410.81999999999908
 20
-1229.1615523732801
 30
0.0
 40
3.599990080875255
 50
59.999908854706391
 51
149.9999088547064
  0
ARC
  5
624
  8
DATA
  6
CONTINUOUS
 62
     7
 10
410.81999999999908
 20
-1229.1615523732801
 30
0.0
 40
3.599990080875255
 50
239.9999088547064
 51
329.9999088547064
  0
LINE
  5
625
  8
DATA
  6
CONTINUOUS
 62
     7
 10
412.61997999999909
 20
-1226.04386237328
 30
0.0
 11
412.2699899999991
 21
-1226.65007237328
 31
0.0
  0
LINE
  5
626
  8
DATA
  6
CONTINUOUS
 62
     7
 10
407.70232999999911
 20
-1227.3615423732799
 30
0.0
 11
408.30852999999911
 21
-1227.7115423732801
 31
0.0
  0
LINE
  5
627
  8
DATA
  6
CONTINUOUS
 62
     7
 10
409.01999999999919
 20
-1232.2792323732799
 30
0.0
 11
409.3699999999991
 21
-1231.67302237328
 31
0.0
  0
LINE
  5
628
  8
DATA
  6
CONTINUOUS
 62
     7
 10
413.93768999999918
 20
-1230.9615323732801
 30
0.0
 11
413.33147999999909
 21
-1230.6115423732799
 31
0.0
  0
ARC
  5
629
  8
DATA
  6
CONTINUOUS
 62
     7
 10
410.81999999999908
 20
-1229.1615523732801
 30
0.0
 40
2.900001820861533
 50
149.9997926340304
 51
240.00023362383041
  0
ARC
  5
62A
  8
DATA
  6
CONTINUOUS
 62
     7
 10
410.81999999999908
 20
-1229.1615523732801
 30
0.0
 40
2.900000481120689
 50
330.0002336238291
 51
59.999792634030371
  0
LINE
  5
62B
  8
DATA
  6
CONTINUOUS
 62
     7
 10
383.31999999999948
 20
-1288.1615523732801
 30
0.0
 11
383.31999999999948
 21
-1270.1615523732801
 31
0.0
  0
LINE
  5
62C
  8
DATA
  6
CONTINUOUS
 62
     7
 10
386.31999999999948
 20
-1288.1615523732801
 30
0.0
 11
386.31999999999948
 21
-1270.1615523732801
 31
0.0
  0
LINE
  5
62D
  8
DATA
  6
CONTINUOUS
 62
     7
 10
396.31999999999948
 20
-1288.1615523732801
 30
0.0
 11
396.31999999999948
 21
-1270.1615523732801
 31
0.0
  0
LINE
  5
62E
  8
DATA
  6
CONTINUOUS
 62
     7
 10
399.31999999999948
 20
-1288.1615523732801
 30
0.0
 11
399.31999999999948
 21
-1270.1615523732801
 31
0.0
  0
LINE
  5
62F
  8
DATA
  6
CONTINUOUS
 62
     7
 10
409.31999999999948
 20
-1288.1615523732801
 30
0.0
 11
409.31999999999948
 21
-1270.1615523732801
 31
0.0
  0
LINE
  5
630
  8
DATA
  6
CONTINUOUS
 62
     7
 10
412.31999999999948
 20
-1288.1615523732801
 30
0.0
 11
412.31999999999948
 21
-1270.1615523732801
 31
0.0
  0
LINE
  5
631
  8
DATA
  6
CONTINUOUS
 62
     7
 10
422.31999999999942
 20
-1288.1615523732801
 30
0.0
 11
422.31999999999942
 21
-1270.1615523732801
 31
0.0
  0
LINE
  5
632
  8
DATA
  6
CONTINUOUS
 62
     7
 10
425.3199999999996
 20
-1288.1615523732801
 30
0.0
 11
425.3199999999996
 21
-1270.1615523732801
 31
0.0
  0
LINE
  5
633
  8
DATA
  6
CONTINUOUS
 62
     7
 10
435.31999999999942
 20
-1288.1615523732801
 30
0.0
 11
435.31999999999942
 21
-1270.1615523732801
 31
0.0
  0
LINE
  5
634
  8
DATA
  6
CONTINUOUS
 62
     7
 10
438.31999999999948
 20
-1288.1615523732801
 30
0.0
 11
438.31999999999948
 21
-1270.1615523732801
 31
0.0
  0
LINE
  5
635
  8
DATA
  6
CONTINUOUS
 62
     7
 10
373.3199999999992
 20
-1288.1615523732801
 30
0.0
 11
373.3199999999992
 21
-1270.1615523732801
 31
0.0
  0
LINE
  5
636
  8
DATA
  6
CONTINUOUS
 62
     7
 10
448.31999999999908
 20
-1270.1615523732801
 30
0.0
 11
448.31999999999908
 21
-1288.1615523732801
 31
0.0
  0
CIRCLE
  5
637
  8
DATA
  6
CONTINUOUS
 62
     7
 10
391.31999999999948
 20
-1279.1615523732801
 30
0.0
 40
3.9999999999999871
  0
POLYLINE
  5
638
  8
DATA
  6
CONTINUOUS
 62
     7
 66
     1
 10
0.0
 20
0.0
 30
0.0
 70
     1
  0
VERTEX
  5
1064
  8
DATA
  6
CONTINUOUS
 62
     7
 10
388.51512195121887
 20
-1273.4054548123049
 30
0.0
  0
VERTEX
  5
1065
  8
DATA
  6
CONTINUOUS
 62
     7
 10
396.31999999999942
 20
-1275.1615523732801
 30
0.0
  0
VERTEX
  5
1066
  8
DATA
  6
CONTINUOUS
 62
     7
 10
394.12487804877992
 20
-1284.9176499342559
 30
0.0
  0
VERTEX
  5
1067
  8
DATA
  6
CONTINUOUS
 62
     7
 10
386.31999999999942
 20
-1283.1615523732801
 30
0.0
  0
SEQEND
  5
1068
  8
DATA
  6
CONTINUOUS
 62
     7
  0
LINE
  5
63F
  8
DATA
  6
CONTINUOUS
 62
     7
 10
387.56122951685592
 20
-1277.7934717999769
 30
0.0
 11
395.07877048314322
 21
-1280.529632946583
 31
0.0
  0
CIRCLE
  5
640
  8
DATA
  6
CONTINUOUS
 62
     7
 10
404.31999999999948
 20
-1279.1615523732801
 30
0.0
 40
3.9999999999999871
  0
POLYLINE
  5
641
  8
DATA
  6
CONTINUOUS
 62
     7
 66
     1
 10
0.0
 20
0.0
 30
0.0
 70
     1
  0
VERTEX
  5
1069
  8
DATA
  6
CONTINUOUS
 62
     7
 10
401.51512195121887
 20
-1273.4054548123049
 30
0.0
  0
VERTEX
  5
106A
  8
DATA
  6
CONTINUOUS
 62
     7
 10
409.31999999999942
 20
-1275.1615523732801
 30
0.0
  0
VERTEX
  5
106B
  8
DATA
  6
CONTINUOUS
 62
     7
 10
407.12487804877992
 20
-1284.9176499342559
 30
0.0
  0
VERTEX
  5
106C
  8
DATA
  6
CONTINUOUS
 62
     7
 10
399.31999999999942
 20
-1283.1615523732801
 30
0.0
  0
SEQEND
  5
106D
  8
DATA
  6
CONTINUOUS
 62
     7
  0
CIRCLE
  5
648
  8
DATA
  6
CONTINUOUS
 62
     7
 10
417.31999999999948
 20
-1279.1615523732801
 30
0.0
 40
3.9999999999999871
  0
POLYLINE
  5
649
  8
DATA
  6
CONTINUOUS
 62
     7
 66
     1
 10
0.0
 20
0.0
 30
0.0
 70
     1
  0
VERTEX
  5
106E
  8
DATA
  6
CONTINUOUS
 62
     7
 10
414.51512195121887
 20
-1273.4054548123049
 30
0.0
  0
VERTEX
  5
106F
  8
DATA
  6
CONTINUOUS
 62
     7
 10
422.31999999999942
 20
-1275.1615523732801
 30
0.0
  0
VERTEX
  5
1070
  8
DATA
  6
CONTINUOUS
 62
     7
 10
420.12487804877992
 20
-1284.9176499342559
 30
0.0
  0
VERTEX
  5
1071
  8
DATA
  6
CONTINUOUS
 62
     7
 10
412.3199999999992
 20
-1283.1615523732801
 30
0.0
  0
SEQEND
  5
1072
  8
DATA
  6
CONTINUOUS
 62
     7
  0
CIRCLE
  5
650
  8
DATA
  6
CONTINUOUS
 62
     7
 10
430.31999999999948
 20
-1279.1615523732801
 30
0.0
 40
3.999999999999881
  0
POLYLINE
  5
651
  8
DATA
  6
CONTINUOUS
 62
     7
 66
     1
 10
0.0
 20
0.0
 30
0.0
 70
     1
  0
VERTEX
  5
1073
  8
DATA
  6
CONTINUOUS
 62
     7
 10
427.51512195121887
 20
-1273.4054548123049
 30
0.0
  0
VERTEX
  5
1074
  8
DATA
  6
CONTINUOUS
 62
     7
 10
435.31999999999931
 20
-1275.1615523732801
 30
0.0
  0
VERTEX
  5
1075
  8
DATA
  6
CONTINUOUS
 62
     7
 10
433.12487804877981
 20
-1284.9176499342559
 30
0.0
  0
VERTEX
  5
1076
  8
DATA
  6
CONTINUOUS
 62
     7
 10
425.3199999999992
 20
-1283.1615523732801
 30
0.0
  0
SEQEND
  5
1077
  8
DATA
  6
CONTINUOUS
 62
     7
  0
CIRCLE
  5
658
  8
DATA
  6
CONTINUOUS
 62
     7
 10
443.31999999999942
 20
-1279.1615523732801
 30
0.0
 40
3.9999999999998042
  0
CIRCLE
  5
659
  8
DATA
  6
CONTINUOUS
 62
     7
 10
378.31999999999942
 20
-1279.1615523732801
 30
0.0
 40
3.999999999999881
  0
TEXT
  5
65A
  8
DATA
 62
     7
 10
388.81999999999948
 20
-1263.96155237328
 30
0.0
 40
3.84765625
  1
1+
 41
0.7
 11
388.81999999999948
 21
-1260.11389612328
 31
0.0
 73
     3
  0
TEXT
  5
65B
  8
DATA
 62
     7
 10
401.81999999999931
 20
-1263.96155237328
 30
0.0
 40
3.84765625
  1
1-
 41
0.7
 11
401.81999999999931
 21
-1260.11389612328
 31
0.0
 73
     3
  0
TEXT
  5
65C
  8
DATA
 62
     7
 10
414.81999999999931
 20
-1263.96155237328
 30
0.0
 40
3.84765625
  1
2+
 41
0.7
 11
414.81999999999931
 21
-1260.11389612328
 31
0.0
 73
     3
  0
TEXT
  5
65D
  8
DATA
 62
     7
 10
427.8199999999996
 20
-1263.96155237328
 30
0.0
 40
3.84765625
  1
2-
 41
0.7
 11
427.8199999999996
 21
-1260.11389612328
 31
0.0
 73
     3
  0
CIRCLE
  5
65E
  8
DATA
  6
CONTINUOUS
 62
     7
 10
380.81999999999908
 20
-1207.1615523732801
 30
0.0
 40
3.0
  0
CIRCLE
  5
65F
  8
DATA
  6
CONTINUOUS
 62
     7
 10
440.81999999999908
 20
-1207.1615523732801
 30
0.0
 40
3.0
  0
POLYLINE
  5
660
  8
DATA
  6
CONTINUOUS
 62
     7
 66
     1
 10
0.0
 20
0.0
 30
0.0
 70
     1
  0
VERTEX
  5
1078
  8
DATA
  6
CONTINUOUS
 62
     7
 10
370.81999999999908
 20
-1164.1615523732801
 30
0.0
  0
VERTEX
  5
1079
  8
DATA
  6
CONTINUOUS
 62
     7
 10
450.81999999999908
 20
-1164.1615523732801
 30
0.0
  0
VERTEX
  5
107A
  8
DATA
  6
CONTINUOUS
 62
     7
 10
450.81999999999908
 20
-1202.1615523732801
 30
0.0
  0
VERTEX
  5
107B
  8
DATA
  6
CONTINUOUS
 62
     7
 10
370.81999999999908
 20
-1202.1615523732801
 30
0.0
  0
SEQEND
  5
107C
  8
DATA
  6
CONTINUOUS
 62
     7
  0
TEXT
  5
667
  8
DATA
 62
     7
 10
371.09284001291752
 20
-1199.46155237328
 30
0.0
 40
3.84765625
  1
(Passive)
 41
0.7
 11
371.09284001291752
 21
-1195.61389612328
 31
0.0
 73
     3
  0
TEXT
  5
668
  8
DATA
 62
     7
 10
430.67665665602152
 20
-1199.46155237328
 30
0.0
 40
3.84765625
  1
(Bi-Amp)
 41
0.7
 11
430.67665665602152
 21
-1195.61389612328
 31
0.0
 73
     3
  0
TEXT
  5
669
  8
DATA
 62
     7
 10
373.81999999999908
 20
-1171.46155237328
 30
0.0
 40
3.84765625
  1
Model: AM6215/64
 41
0.7
 11
373.81999999999908
 21
-1167.61389612328
 31
0.0
 73
     3
  0
POLYLINE
  5
66A
  8
DATA
  6
CONTINUOUS
 62
     7
 66
     1
 10
0.0
 20
0.0
 30
0.0
 70
     1
  0
VERTEX
  5
107D
  8
DATA
  6
CONTINUOUS
 62
     7
 10
387.31999999999908
 20
-1178.6615523732801
 30
0.0
  0
VERTEX
  5
107E
  8
DATA
  6
CONTINUOUS
 62
     7
 10
434.31999999999908
 20
-1178.6615523732801
 30
0.0
  0
VERTEX
  5
107F
  8
DATA
  6
CONTINUOUS
 62
     7
 10
434.31999999999908
 20
-1189.6615523732801
 30
0.0
  0
VERTEX
  5
1080
  8
DATA
  6
CONTINUOUS
 62
     7
 10
387.31999999999908
 20
-1189.6615523732801
 30
0.0
  0
SEQEND
  5
1081
  8
DATA
  6
CONTINUOUS
 62
     7
  0
LINE
  5
671
  8
DATA
  6
CONTINUOUS
 62
     7
 10
387.31999999999908
 20
-1182.328219039947
 30
0.0
 11
434.31999999999908
 21
-1182.328219039947
 31
0.0
  0
LINE
  5
672
  8
DATA
  6
CONTINUOUS
 62
     7
 10
387.31999999999908
 20
-1185.994885706614
 30
0.0
 11
434.31999999999908
 21
-1185.994885706614
 31
0.0
  0
LINE
  5
673
  8
DATA
  6
CONTINUOUS
 62
     7
 10
401.31999999999908
 20
-1178.6615523732801
 30
0.0
 11
401.31999999999908
 21
-1189.6615523732801
 31
0.0
  0
LINE
  5
674
  8
DATA
  6
CONTINUOUS
 62
     7
 10
419.31999999999931
 20
-1189.6615523732801
 30
0.0
 11
419.31999999999931
 21
-1178.6615523732801
 31
0.0
  0
TEXT
  5
675
  8
DATA
 62
     7
 10
389.06999999999908
 20
-1181.5748857066139
 30
0.0
 40
2.30859375
  1
Wiring:
 41
0.7
 11
389.06999999999908
 21
-1179.2662919566139
 31
0.0
 73
     3
  0
TEXT
  5
676
  8
DATA
 62
     7
 10
405.0699999999992
 20
-1181.5748857066139
 30
0.0
 40
2.30859375
  1
Passive
 41
0.7
 11
405.0699999999992
 21
-1179.2662919566139
 31
0.0
 73
     3
  0
TEXT
  5
677
  8
DATA
 62
     7
 10
422.22052809387583
 20
-1181.5748857066139
 30
0.0
 40
2.30859375
  1
Bi-Amp
 41
0.7
 11
422.22052809387583
 21
-1179.2662919566139
 31
0.0
 73
     3
  0
TEXT
  5
678
  8
DATA
 62
     7
 10
390.5699999999992
 20
-1185.24155237328
 30
0.0
 40
2.30859375
  1
1+/1-
 41
0.7
 11
390.5699999999992
 21
-1182.93295862328
 31
0.0
 73
     3
  0
TEXT
  5
679
  8
DATA
 62
     7
 10
403.06828829781222
 20
-1185.2912100328431
 30
0.0
 40
2.30859375
  1
Full Renge
 41
0.7
 11
403.06828829781222
 21
-1182.9826162828431
 31
0.0
 73
     3
  0
TEXT
  5
67A
  8
DATA
 62
     7
 10
424.52026404693771
 20
-1185.24155237328
 30
0.0
 40
2.30859375
  1
Low
 41
0.7
 11
424.52026404693771
 21
-1182.93295862328
 31
0.0
 73
     3
  0
TEXT
  5
67B
  8
DATA
 62
     7
 10
390.5699999999992
 20
-1188.908219039947
 30
0.0
 40
2.30859375
  1
2+/2-
 41
0.7
 11
390.5699999999992
 21
-1186.599625289947
 31
0.0
 73
     3
  0
TEXT
  5
67C
  8
DATA
 62
     7
 10
408.6658919147502
 20
-1188.908219039947
 30
0.0
 40
2.30859375
  1
n/c
 41
0.7
 11
408.6658919147502
 21
-1186.599625289947
 31
0.0
 73
     3
  0
TEXT
  5
67D
  8
DATA
 62
     7
 10
423.96920779626839
 20
-1188.957954993009
 30
0.0
 40
2.30859375
  1
High
 41
0.7
 11
423.96920779626839
 21
-1186.649361243009
 31
0.0
 73
     3
  0
ARC
  5
67E
  8
DATA
  6
CONTINUOUS
 62
     7
 10
354.3199999999992
 20
-1137.6615523732801
 30
0.0
 40
5.0
 50
90.0
 51
180.0
  0
ARC
  5
67F
  8
DATA
  6
CONTINUOUS
 62
     7
 10
354.3199999999992
 20
-1327.6615523732801
 30
0.0
 40
5.0
 50
180.0
 51
270.0
  0
ARC
  5
680
  8
DATA
  6
CONTINUOUS
 62
     7
 10
467.31999999999908
 20
-1327.6615523732801
 30
0.0
 40
5.0
 50
270.0
 51
0.0
  0
ARC
  5
681
  8
DATA
  6
CONTINUOUS
 62
     7
 10
467.31999999999908
 20
-1137.6615523732801
 30
0.0
 40
5.0
 50
0.0
 51
90.0
  0
CIRCLE
  5
682
  8
DATA
  6
CONTINUOUS
 62
     7
 10
355.81999999999908
 20
-1139.6615523732801
 30
0.0
 40
3.25
  0
LINE
  5
683
  8
DATA
  6
CONTINUOUS
 62
     7
 10
391.91853525081939
 20
-1277.5170902869049
 30
0.0
 11
390.72146474917957
 21
-1280.8060144596559
 31
0.0
  0
LINE
  5
684
  8
DATA
  6
CONTINUOUS
 62
     7
 10
378.91853525081922
 20
-1280.8060144596559
 30
0.0
 11
377.72146474917918
 21
-1277.5170902869049
 31
0.0
  0
LINE
  5
685
  8
DATA
  6
CONTINUOUS
 62
     7
 10
376.675537913624
 20
-1279.7600876240999
 30
0.0
 11
379.96446208637451
 21
-1278.5630171224609
 31
0.0
  0
LINE
  5
686
  8
DATA
  6
CONTINUOUS
 62
     7
 10
400.56122951685592
 20
-1277.7934717999769
 30
0.0
 11
408.0787704831431
 21
-1280.529632946583
 31
0.0
  0
LINE
  5
687
  8
DATA
  6
CONTINUOUS
 62
     7
 10
404.91853525081928
 20
-1277.5170902869049
 30
0.0
 11
403.72146474917957
 21
-1280.8060144596559
 31
0.0
  0
LINE
  5
688
  8
DATA
  6
CONTINUOUS
 62
     7
 10
413.5612295168558
 20
-1277.7934717999769
 30
0.0
 11
421.0787704831431
 21
-1280.529632946583
 31
0.0
  0
LINE
  5
689
  8
DATA
  6
CONTINUOUS
 62
     7
 10
417.91853525081928
 20
-1277.5170902869049
 30
0.0
 11
416.72146474917957
 21
-1280.8060144596559
 31
0.0
  0
LINE
  5
68A
  8
DATA
  6
CONTINUOUS
 62
     7
 10
426.5612295168558
 20
-1277.7934717999769
 30
0.0
 11
434.07877048314322
 21
-1280.529632946583
 31
0.0
  0
LINE
  5
68B
  8
DATA
  6
CONTINUOUS
 62
     7
 10
430.91853525081928
 20
-1277.5170902869049
 30
0.0
 11
429.72146474917952
 21
-1280.8060144596559
 31
0.0
  0
LINE
  5
68C
  8
DATA
  6
CONTINUOUS
 62
     7
 10
441.67553791362388
 20
-1279.7600876240999
 30
0.0
 11
444.96446208637451
 21
-1278.5630171224609
 31
0.0
  0
LINE
  5
68D
  8
DATA
  6
CONTINUOUS
 62
     7
 10
443.91853525081899
 20
-1280.8060144596559
 30
0.0
 11
442.72146474917912
 21
-1277.5170902869049
 31
0.0
  0
LINE
  5
68E
  8
DATA
  6
CONTINUOUS
 62
     7
 10
355.81999999999908
 20
-1141.1615523732801
 30
0.0
 11
355.81999999999908
 21
-1138.1615523732801
 31
0.0
  0
LINE
  5
68F
  8
DATA
  6
CONTINUOUS
 62
     7
 10
357.31999999999908
 20
-1139.6615523732801
 30
0.0
 11
354.3199999999992
 21
-1139.6615523732801
 31
0.0
  0
CIRCLE
  5
690
  8
DATA
  6
CONTINUOUS
 62
     7
 10
465.81999999999908
 20
-1139.6615523732801
 30
0.0
 40
3.25
  0
LINE
  5
691
  8
DATA
  6
CONTINUOUS
 62
     7
 10
465.81999999999908
 20
-1141.1615523732801
 30
0.0
 11
465.81999999999908
 21
-1138.1615523732801
 31
0.0
  0
LINE
  5
692
  8
DATA
  6
CONTINUOUS
 62
     7
 10
467.31999999999908
 20
-1139.6615523732801
 30
0.0
 11
464.31999999999908
 21
-1139.6615523732801
 31
0.0
  0
CIRCLE
  5
693
  8
DATA
  6
CONTINUOUS
 62
     7
 10
355.81999999999908
 20
-1232.6615523732801
 30
0.0
 40
3.25
  0
LINE
  5
694
  8
DATA
  6
CONTINUOUS
 62
     7
 10
355.81999999999908
 20
-1234.1615523732801
 30
0.0
 11
355.81999999999908
 21
-1231.1615523732801
 31
0.0
  0
LINE
  5
695
  8
DATA
  6
CONTINUOUS
 62
     7
 10
357.31999999999908
 20
-1232.6615523732801
 30
0.0
 11
354.3199999999992
 21
-1232.6615523732801
 31
0.0
  0
CIRCLE
  5
696
  8
DATA
  6
CONTINUOUS
 62
     7
 10
465.81999999999908
 20
-1232.6615523732801
 30
0.0
 40
3.25
  0
LINE
  5
697
  8
DATA
  6
CONTINUOUS
 62
     7
 10
465.81999999999908
 20
-1234.1615523732801
 30
0.0
 11
465.81999999999908
 21
-1231.1615523732801
 31
0.0
  0
LINE
  5
698
  8
DATA
  6
CONTINUOUS
 62
     7
 10
467.31999999999908
 20
-1232.6615523732801
 30
0.0
 11
464.31999999999908
 21
-1232.6615523732801
 31
0.0
  0
CIRCLE
  5
699
  8
DATA
  6
CONTINUOUS
 62
     7
 10
355.81999999999908
 20
-1325.6615523732801
 30
0.0
 40
3.25
  0
LINE
  5
69A
  8
DATA
  6
CONTINUOUS
 62
     7
 10
355.81999999999908
 20
-1327.1615523732801
 30
0.0
 11
355.81999999999908
 21
-1324.1615523732801
 31
0.0
  0
LINE
  5
69B
  8
DATA
  6
CONTINUOUS
 62
     7
 10
357.31999999999908
 20
-1325.6615523732801
 30
0.0
 11
354.3199999999992
 21
-1325.6615523732801
 31
0.0
  0
CIRCLE
  5
69C
  8
DATA
  6
CONTINUOUS
 62
     7
 10
465.81999999999908
 20
-1325.6615523732801
 30
0.0
 40
3.25
  0
LINE
  5
69D
  8
DATA
  6
CONTINUOUS
 62
     7
 10
465.81999999999908
 20
-1327.1615523732801
 30
0.0
 11
465.81999999999908
 21
-1324.1615523732801
 31
0.0
  0
LINE
  5
69E
  8
DATA
  6
CONTINUOUS
 62
     7
 10
467.31999999999908
 20
-1325.6615523732801
 30
0.0
 11
464.31999999999908
 21
-1325.6615523732801
 31
0.0
  0
TEXT
  5
69F
  8
DATA
 62
     7
 10
997.0611488635567
 20
890.72569039310565
 30
0.0
 40
54.2947048611111
  1
コネクターパネル拡大図
 41
0.7
 11
997.0611488635567
 21
945.02039525421674
 31
0.0
 73
     3
  0
LINE
  5
6A0
  8
DATA
  6
CONTINUOUS
 62
     7
 10
921.8452572292656
 20
-884.4730570812975
 30
0.0
 11
921.8452572292656
 21
825.5269429187
 31
0.0
  0
LINE
  5
6A1
  8
DATA
  6
CONTINUOUS
 62
     7
 10
1851.845257229267
 20
-884.4730570812975
 30
0.0
 11
921.8452572292656
 21
-884.4730570812975
 31
0.0
  0
LINE
  5
6A2
  8
DATA
  6
CONTINUOUS
 62
     7
 10
1851.845257229267
 20
825.5269429187
 30
0.0
 11
1851.845257229267
 21
-884.4730570812975
 31
0.0
  0
LINE
  5
6A3
  8
DATA
  6
CONTINUOUS
 62
     7
 10
921.8452572292656
 20
825.5269429187
 30
0.0
 11
1851.845257229267
 21
825.5269429187
 31
0.0
  0
POLYLINE
  5
6A4
  8
DATA
  6
CONTINUOUS
 62
     7
 66
     1
 10
0.0
 20
0.0
 30
0.0
 70
     1
  0
VERTEX
  5
1082
  8
DATA
  6
CONTINUOUS
 62
     7
 10
981.8452572292656
 20
-404.47305708129829
 30
0.0
  0
VERTEX
  5
1083
  8
DATA
  6
CONTINUOUS
 62
     7
 10
1791.845257229267
 20
-404.47305708129829
 30
0.0
  0
VERTEX
  5
1084
  8
DATA
  6
CONTINUOUS
 62
     7
 10
1791.845257229267
 20
-584.47305708130011
 30
0.0
  0
VERTEX
  5
1085
  8
DATA
  6
CONTINUOUS
 62
     7
 10
981.8452572292656
 20
-584.47305708130011
 30
0.0
  0
SEQEND
  5
1086
  8
DATA
  6
CONTINUOUS
 62
     7
  0
POLYLINE
  5
6AB
  8
DATA
  6
CONTINUOUS
 62
     7
 66
     1
 10
0.0
 20
0.0
 30
0.0
 70
   129
  0
VERTEX
  5
1087
  8
DATA
  6
CONTINUOUS
 62
     7
 10
1269.345257229267
 20
5.5269429187018471
 30
0.0
 42
-0.4142135623730949
  0
VERTEX
  5
1088
  8
DATA
  6
CONTINUOUS
 62
     7
 10
1386.845257229267
 20
123.02694291870149
 30
0.0
 42
-0.4142135623730962
  0
VERTEX
  5
1089
  8
DATA
  6
CONTINUOUS
 62
     7
 10
1504.345257229267
 20
5.5269429187018471
 30
0.0
 42
-0.4142135623730943
  0
VERTEX
  5
108A
  8
DATA
  6
CONTINUOUS
 62
     7
 10
1386.845257229267
 20
-111.9730570812978
 30
0.0
 42
-0.4142135623730951
  0
VERTEX
  5
108B
  8
DATA
  6
CONTINUOUS
 62
     7
 10
1269.345257229267
 20
5.5269429187018471
 30
0.0
  0
SEQEND
  5
108C
  8
DATA
  6
CONTINUOUS
 62
     7
  0
LINE
  5
6B2
  8
DATA
  6
CONTINUOUS
 62
     7
 10
1356.845257229267
 20
105.52694291870149
 30
0.0
 11
1416.845257229267
 21
105.52694291870149
 31
0.0
  0
LINE
  5
6B3
  8
DATA
  6
CONTINUOUS
 62
     7
 10
1366.845257229267
 20
-92.057902401982446
 30
0.0
 11
1406.845257229267
 21
-92.057902401982446
 31
0.0
  0
LINE
  5
6B4
  8
DATA
  6
CONTINUOUS
 62
     7
 10
1366.845257229267
 20
-92.057902401982446
 30
0.0
 11
1366.845257229267
 21
-80.170225717454656
 31
0.0
  0
LINE
  5
6B5
  8
DATA
  6
CONTINUOUS
 62
     7
 10
1406.845257229267
 20
-92.057902401982446
 30
0.0
 11
1406.845257229267
 21
-80.170234208988319
 31
0.0
  0
LINE
  5
6B6
  8
DATA
  6
CONTINUOUS
 62
     7
 10
1356.845257229267
 20
105.52694291870149
 30
0.0
 11
1356.845257229267
 21
88.255442918699856
 31
0.0
  0
LINE
  5
6B7
  8
DATA
  6
CONTINUOUS
 62
     7
 10
1416.845257229267
 20
105.52694291870149
 30
0.0
 11
1416.845257229267
 21
88.255442918699856
 31
0.0
  0
ARC
  5
6B8
  8
DATA
  6
CONTINUOUS
 62
     7
 10
1386.845257229267
 20
5.5269429187019341
 30
0.0
 40
88.000026774141716
 50
109.9322641506794
 51
256.8634452814166
  0
ARC
  5
6B9
  8
DATA
  6
CONTINUOUS
 62
     7
 10
1386.845257229267
 20
5.5269429187019341
 30
0.0
 40
88.00003504345932
 50
283.13655346205161
 51
69.999994237961062
  0
ARC
  5
6BA
  8
DATA
  6
CONTINUOUS
 62
     7
 10
1386.845257229267
 20
5.5269429187019341
 30
0.0
 40
62.000021620641107
 50
60.000011535559189
 51
150.00001153556011
  0
LINE
  5
6BB
  8
DATA
  6
CONTINUOUS
 62
     7
 10
1333.1518572292689
 20
36.527242918702441
 30
0.0
 11
1338.1314572292661
 21
33.652242918701077
 31
0.0
  0
LINE
  5
6BC
  8
DATA
  6
CONTINUOUS
 62
     7
 10
1417.8449572292691
 20
59.220742918702577
 30
0.0
 11
1414.969957229267
 21
54.24104291870141
 31
0.0
  0
ARC
  5
6BD
  8
DATA
  6
CONTINUOUS
 62
     7
 10
1386.845257229267
 20
5.5269429187019341
 30
0.0
 40
62.000021620642052
 50
240.00001153556209
 51
330.00001153556229
  0
LINE
  5
6BE
  8
DATA
  6
CONTINUOUS
 62
     7
 10
1355.8452572292681
 20
-48.166657081299348
 30
0.0
 11
1358.720257229267
 21
-43.186957081298111
 31
0.0
  0
LINE
  5
6BF
  8
DATA
  6
CONTINUOUS
 62
     7
 10
1440.5389572292679
 20
-25.472857081297551
 30
0.0
 11
1435.559257229266
 21
-22.597857081298489
 31
0.0
  0
ARC
  5
6C0
  8
DATA
  6
CONTINUOUS
 62
     7
 10
1386.845257229267
 20
5.5269429187019341
 30
0.0
 40
56.250038315809142
 50
149.99966968210339
 51
240.00021260430501
  0
ARC
  5
6C1
  8
DATA
  6
CONTINUOUS
 62
     7
 10
1386.845257229267
 20
5.5269429187019341
 30
0.0
 40
56.249961520342552
 50
330.00021260430242
 51
60.000718243121582
  0
ARC
  5
6C2
  8
DATA
  6
CONTINUOUS
 62
     7
 10
1386.845257229267
 20
5.5269429187019341
 30
0.0
 40
35.999900808753608
 50
59.999908854703172
 51
149.99990885470459
  0
ARC
  5
6C3
  8
DATA
  6
CONTINUOUS
 62
     7
 10
1386.845257229267
 20
5.5269429187019341
 30
0.0
 40
35.999900808751327
 50
239.9999088547095
 51
329.99990885470822
  0
LINE
  5
6C4
  8
DATA
  6
CONTINUOUS
 62
     7
 10
1404.8450572292691
 20
36.703842918702229
 30
0.0
 11
1401.3451572292679
 21
30.641742918700789
 31
0.0
  0
LINE
  5
6C5
  8
DATA
  6
CONTINUOUS
 62
     7
 10
1355.6685572292679
 20
23.527042918701181
 30
0.0
 11
1361.730557229268
 21
20.02704291870209
 31
0.0
  0
LINE
  5
6C6
  8
DATA
  6
CONTINUOUS
 62
     7
 10
1368.845257229269
 20
-25.649857081298592
 30
0.0
 11
1372.345257229269
 21
-19.587757081297159
 31
0.0
  0
LINE
  5
6C7
  8
DATA
  6
CONTINUOUS
 62
     7
 10
1418.022157229266
 20
-12.472857081298059
 30
0.0
 11
1411.9600572292679
 21
-8.9729570812987163
 31
0.0
  0
ARC
  5
6C8
  8
DATA
  6
CONTINUOUS
 62
     7
 10
1386.845257229267
 20
5.5269429187019341
 30
0.0
 40
29.000018208614328
 50
149.9997926340294
 51
240.0002336238303
  0
ARC
  5
6C9
  8
DATA
  6
CONTINUOUS
 62
     7
 10
1386.845257229267
 20
5.5269429187019341
 30
0.0
 40
29.000004811207859
 50
330.0002336238303
 51
59.9997926340302
  0
LINE
  5
6CA
  8
DATA
  6
CONTINUOUS
 62
     7
 10
1111.8452572292711
 20
-584.47305708130011
 30
0.0
 11
1111.8452572292711
 21
-404.47305708129829
 31
0.0
  0
LINE
  5
6CB
  8
DATA
  6
CONTINUOUS
 62
     7
 10
1141.8452572292711
 20
-584.47305708130011
 30
0.0
 11
1141.8452572292711
 21
-404.47305708129829
 31
0.0
  0
LINE
  5
6CC
  8
DATA
  6
CONTINUOUS
 62
     7
 10
1241.8452572292711
 20
-584.47305708130011
 30
0.0
 11
1241.8452572292711
 21
-404.47305708129829
 31
0.0
  0
LINE
  5
6CD
  8
DATA
  6
CONTINUOUS
 62
     7
 10
1271.8452572292711
 20
-584.47305708130011
 30
0.0
 11
1271.8452572292711
 21
-404.47305708129829
 31
0.0
  0
LINE
  5
6CE
  8
DATA
  6
CONTINUOUS
 62
     7
 10
1371.8452572292711
 20
-584.47305708130011
 30
0.0
 11
1371.8452572292711
 21
-404.47305708129829
 31
0.0
  0
LINE
  5
6CF
  8
DATA
  6
CONTINUOUS
 62
     7
 10
1401.8452572292711
 20
-584.47305708130011
 30
0.0
 11
1401.8452572292711
 21
-404.47305708129829
 31
0.0
  0
LINE
  5
6D0
  8
DATA
  6
CONTINUOUS
 62
     7
 10
1501.8452572292711
 20
-584.47305708130011
 30
0.0
 11
1501.8452572292711
 21
-404.47305708129829
 31
0.0
  0
LINE
  5
6D1
  8
DATA
  6
CONTINUOUS
 62
     7
 10
1531.8452572292711
 20
-584.47305708130011
 30
0.0
 11
1531.8452572292711
 21
-404.47305708129829
 31
0.0
  0
LINE
  5
6D2
  8
DATA
  6
CONTINUOUS
 62
     7
 10
1631.845257229272
 20
-584.47305708130011
 30
0.0
 11
1631.845257229272
 21
-404.47305708129829
 31
0.0
  0
LINE
  5
6D3
  8
DATA
  6
CONTINUOUS
 62
     7
 10
1661.8452572292711
 20
-584.47305708130011
 30
0.0
 11
1661.8452572292711
 21
-404.47305708129829
 31
0.0
  0
LINE
  5
6D4
  8
DATA
  6
CONTINUOUS
 62
     7
 10
1011.845257229265
 20
-584.47305708130011
 30
0.0
 11
1011.845257229265
 21
-404.47305708129829
 31
0.0
  0
LINE
  5
6D5
  8
DATA
  6
CONTINUOUS
 62
     7
 10
1761.845257229267
 20
-404.47305708129829
 30
0.0
 11
1761.845257229267
 21
-584.47305708130011
 31
0.0
  0
CIRCLE
  5
6D6
  8
DATA
  6
CONTINUOUS
 62
     7
 10
1191.8452572292711
 20
-494.47305708129937
 30
0.0
 40
39.999999999998913
  0
POLYLINE
  5
6D7
  8
DATA
  6
CONTINUOUS
 62
     7
 66
     1
 10
0.0
 20
0.0
 30
0.0
 70
     1
  0
VERTEX
  5
108D
  8
DATA
  6
CONTINUOUS
 62
     7
 10
1163.7964767414639
 20
-436.91208147154038
 30
0.0
  0
VERTEX
  5
108E
  8
DATA
  6
CONTINUOUS
 62
     7
 10
1241.8452572292711
 20
-454.4730570812967
 30
0.0
  0
VERTEX
  5
108F
  8
DATA
  6
CONTINUOUS
 62
     7
 10
1219.8940377170759
 20
-552.03403269105365
 30
0.0
  0
VERTEX
  5
1090
  8
DATA
  6
CONTINUOUS
 62
     7
 10
1141.8452572292711
 20
-534.47305708129772
 30
0.0
  0
SEQEND
  5
1091
  8
DATA
  6
CONTINUOUS
 62
     7
  0
LINE
  5
6DE
  8
DATA
  6
CONTINUOUS
 62
     7
 10
1154.257552397836
 20
-480.79225134827033
 30
0.0
 11
1229.4329620607059
 21
-508.15386281432637
 31
0.0
  0
CIRCLE
  5
6DF
  8
DATA
  6
CONTINUOUS
 62
     7
 10
1321.8452572292711
 20
-494.47305708129937
 30
0.0
 40
39.999999999998913
  0
POLYLINE
  5
6E0
  8
DATA
  6
CONTINUOUS
 62
     7
 66
     1
 10
0.0
 20
0.0
 30
0.0
 70
     1
  0
VERTEX
  5
1092
  8
DATA
  6
CONTINUOUS
 62
     7
 10
1293.7964767414639
 20
-436.91208147154038
 30
0.0
  0
VERTEX
  5
1093
  8
DATA
  6
CONTINUOUS
 62
     7
 10
1371.8452572292711
 20
-454.4730570812967
 30
0.0
  0
VERTEX
  5
1094
  8
DATA
  6
CONTINUOUS
 62
     7
 10
1349.8940377170759
 20
-552.03403269105365
 30
0.0
  0
VERTEX
  5
1095
  8
DATA
  6
CONTINUOUS
 62
     7
 10
1271.8452572292711
 20
-534.47305708129772
 30
0.0
  0
SEQEND
  5
1096
  8
DATA
  6
CONTINUOUS
 62
     7
  0
CIRCLE
  5
6E7
  8
DATA
  6
CONTINUOUS
 62
     7
 10
1451.8452572292711
 20
-494.47305708129937
 30
0.0
 40
39.999999999998913
  0
POLYLINE
  5
6E8
  8
DATA
  6
CONTINUOUS
 62
     7
 66
     1
 10
0.0
 20
0.0
 30
0.0
 70
     1
  0
VERTEX
  5
1097
  8
DATA
  6
CONTINUOUS
 62
     7
 10
1423.7964767414651
 20
-436.91208147154038
 30
0.0
  0
VERTEX
  5
1098
  8
DATA
  6
CONTINUOUS
 62
     7
 10
1501.8452572292711
 20
-454.4730570812967
 30
0.0
  0
VERTEX
  5
1099
  8
DATA
  6
CONTINUOUS
 62
     7
 10
1479.8940377170759
 20
-552.03403269105365
 30
0.0
  0
VERTEX
  5
109A
  8
DATA
  6
CONTINUOUS
 62
     7
 10
1401.8452572292711
 20
-534.47305708129772
 30
0.0
  0
SEQEND
  5
109B
  8
DATA
  6
CONTINUOUS
 62
     7
  0
CIRCLE
  5
6EF
  8
DATA
  6
CONTINUOUS
 62
     7
 10
1581.8452572292711
 20
-494.47305708129937
 30
0.0
 40
39.999999999998913
  0
POLYLINE
  5
6F0
  8
DATA
  6
CONTINUOUS
 62
     7
 66
     1
 10
0.0
 20
0.0
 30
0.0
 70
     1
  0
VERTEX
  5
109C
  8
DATA
  6
CONTINUOUS
 62
     7
 10
1553.7964767414651
 20
-436.91208147154038
 30
0.0
  0
VERTEX
  5
109D
  8
DATA
  6
CONTINUOUS
 62
     7
 10
1631.845257229272
 20
-454.4730570812967
 30
0.0
  0
VERTEX
  5
109E
  8
DATA
  6
CONTINUOUS
 62
     7
 10
1609.894037717072
 20
-552.03403269105365
 30
0.0
  0
VERTEX
  5
109F
  8
DATA
  6
CONTINUOUS
 62
     7
 10
1531.8452572292711
 20
-534.47305708129772
 30
0.0
  0
SEQEND
  5
10A0
  8
DATA
  6
CONTINUOUS
 62
     7
  0
CIRCLE
  5
6F7
  8
DATA
  6
CONTINUOUS
 62
     7
 10
1711.8452572292711
 20
-494.47305708129937
 30
0.0
 40
39.999999999998131
  0
CIRCLE
  5
6F8
  8
DATA
  6
CONTINUOUS
 62
     7
 10
1061.8452572292699
 20
-494.47305708129937
 30
0.0
 40
39.999999999999318
  0
TEXT
  5
6F9
  8
DATA
 62
     7
 10
1166.8452572292711
 20
-342.47305708129778
 30
0.0
 40
38.4765625
  1
1+
 41
0.7
 11
1166.8452572292711
 21
-303.99649458129778
 31
0.0
 73
     3
  0
TEXT
  5
6FA
  8
DATA
 62
     7
 10
1296.8452572292711
 20
-342.47305708129778
 30
0.0
 40
38.4765625
  1
1-
 41
0.7
 11
1296.8452572292711
 21
-303.99649458129778
 31
0.0
 73
     3
  0
TEXT
  5
6FB
  8
DATA
 62
     7
 10
1426.8452572292711
 20
-342.47305708129778
 30
0.0
 40
38.4765625
  1
2+
 41
0.7
 11
1426.8452572292711
 21
-303.99649458129778
 31
0.0
 73
     3
  0
TEXT
  5
6FC
  8
DATA
 62
     7
 10
1556.8452572292711
 20
-342.47305708129778
 30
0.0
 40
38.4765625
  1
2-
 41
0.7
 11
1556.8452572292711
 21
-303.99649458129778
 31
0.0
 73
     3
  0
CIRCLE
  5
6FD
  8
DATA
  6
CONTINUOUS
 62
     7
 10
1086.8452572292661
 20
225.52694291870199
 30
0.0
 40
30.000000000000568
  0
CIRCLE
  5
6FE
  8
DATA
  6
CONTINUOUS
 62
     7
 10
1686.845257229267
 20
225.52694291870199
 30
0.0
 40
30.0
  0
POLYLINE
  5
6FF
  8
DATA
  6
CONTINUOUS
 62
     7
 66
     1
 10
0.0
 20
0.0
 30
0.0
 70
     1
  0
VERTEX
  5
10A1
  8
DATA
  6
CONTINUOUS
 62
     7
 10
986.84525722926548
 20
655.52694291869966
 30
0.0
  0
VERTEX
  5
10A2
  8
DATA
  6
CONTINUOUS
 62
     7
 10
1786.845257229267
 20
655.52694291869966
 30
0.0
  0
VERTEX
  5
10A3
  8
DATA
  6
CONTINUOUS
 62
     7
 10
1786.845257229267
 20
275.52694291870199
 30
0.0
  0
VERTEX
  5
10A4
  8
DATA
  6
CONTINUOUS
 62
     7
 10
986.84525722926548
 20
275.52694291870199
 30
0.0
  0
SEQEND
  5
10A5
  8
DATA
  6
CONTINUOUS
 62
     7
  0
TEXT
  5
706
  8
DATA
 62
     7
 10
996.51548149958796
 20
302.52694291870222
 30
0.0
 40
38.4765625
  1
(Passive)
 41
0.7
 11
996.51548149958796
 21
341.00350541870222
 31
0.0
 73
     3
  0
TEXT
  5
707
  8
DATA
 62
     7
 10
1580.2054556836399
 20
302.52694291870222
 30
0.0
 40
38.4765625
  1
(Bi-Amp)
 41
0.7
 11
1580.2054556836399
 21
341.00350541870222
 31
0.0
 73
     3
  0
TEXT
  5
708
  8
DATA
 62
     7
 10
1016.845257229265
 20
582.52694291870046
 30
0.0
 40
38.4765625
  1
Model: AM6215/64
 41
0.7
 11
1016.845257229265
 21
621.00350541870046
 31
0.0
 73
     3
  0
POLYLINE
  5
709
  8
DATA
  6
CONTINUOUS
 62
     7
 66
     1
 10
0.0
 20
0.0
 30
0.0
 70
     1
  0
VERTEX
  5
10A6
  8
DATA
  6
CONTINUOUS
 62
     7
 10
1151.845257229267
 20
510.52694291870171
 30
0.0
  0
VERTEX
  5
10A7
  8
DATA
  6
CONTINUOUS
 62
     7
 10
1621.845257229267
 20
510.52694291870171
 30
0.0
  0
VERTEX
  5
10A8
  8
DATA
  6
CONTINUOUS
 62
     7
 10
1621.845257229267
 20
400.52694291870222
 30
0.0
  0
VERTEX
  5
10A9
  8
DATA
  6
CONTINUOUS
 62
     7
 10
1151.845257229267
 20
400.52694291870222
 30
0.0
  0
SEQEND
  5
10AA
  8
DATA
  6
CONTINUOUS
 62
     7
  0
LINE
  5
710
  8
DATA
  6
CONTINUOUS
 62
     7
 10
1151.845257229267
 20
473.86027625203479
 30
0.0
 11
1621.845257229267
 21
473.86027625203479
 31
0.0
  0
LINE
  5
711
  8
DATA
  6
CONTINUOUS
 62
     7
 10
1151.845257229267
 20
437.19360958536959
 30
0.0
 11
1621.845257229267
 21
437.19360958536959
 31
0.0
  0
LINE
  5
712
  8
DATA
  6
CONTINUOUS
 62
     7
 10
1291.845257229267
 20
510.52694291870171
 30
0.0
 11
1291.845257229267
 21
400.52694291870222
 31
0.0
  0
LINE
  5
713
  8
DATA
  6
CONTINUOUS
 62
     7
 10
1471.8452572292711
 20
400.52694291870222
 30
0.0
 11
1471.8452572292711
 21
510.52694291870171
 31
0.0
  0
TEXT
  5
714
  8
DATA
 62
     7
 10
1168.315061893657
 20
480.0140002565862
 30
0.0
 40
26.164062500000011
  1
Wiring:
 41
0.7
 11
1168.315061893657
 21
506.1780627565862
 31
0.0
 73
     3
  0
TEXT
  5
715
  8
DATA
 62
     7
 10
1323.679182883418
 20
479.49890258878162
 30
0.0
 40
26.164062500000011
  1
Passive
 41
0.7
 11
1323.679182883418
 21
505.66296508878162
 31
0.0
 73
     3
  0
TEXT
  5
716
  8
DATA
 62
     7
 10
1497.759952161206
 20
479.49890258878162
 30
0.0
 40
26.164062500000011
  1
Bi-Amp
 41
0.7
 11
1497.759952161206
 21
505.66296508878162
 31
0.0
 73
     3
  0
TEXT
  5
717
  8
DATA
 62
     7
 10
1184.345257229267
 20
443.3473335899215
 30
0.0
 40
26.164062500000011
  1
1+/1-
 41
0.7
 11
1184.345257229267
 21
469.5113960899215
 31
0.0
 73
     3
  0
TEXT
  5
718
  8
DATA
 62
     7
 10
1296.965796180081
 20
442.85075699429518
 30
0.0
 40
26.164062500000011
  1
Full Renge
 41
0.7
 11
1296.965796180081
 21
469.01481949429518
 31
0.0
 73
     3
  0
TEXT
  5
719
  8
DATA
 62
     7
 10
1519.212018688409
 20
442.83223592211652
 30
0.0
 40
26.164062500000011
  1
Low
 41
0.7
 11
1519.212018688409
 21
468.99629842211652
 31
0.0
 73
     3
  0
TEXT
  5
71A
  8
DATA
 62
     7
 10
1184.345257229267
 20
406.6806669232563
 30
0.0
 40
26.164062500000011
  1
2+/2-
 41
0.7
 11
1184.345257229267
 21
432.8447294232563
 31
0.0
 73
     3
  0
TEXT
  5
71B
  8
DATA
 62
     7
 10
1353.456930017265
 20
406.16556925545137
 30
0.0
 40
26.164062500000011
  1
n/c
 41
0.7
 11
1353.456930017265
 21
432.32963175545137
 31
0.0
 73
     3
  0
TEXT
  5
71C
  8
DATA
 62
     7
 10
1516.7920421885481
 20
406.18330739263803
 30
0.0
 40
26.164062500000011
  1
High
 41
0.7
 11
1516.7920421885481
 21
432.34736989263803
 31
0.0
 73
     3
  0
LINE
  5
71D
  8
DATA
  6
CONTINUOUS
 62
     7
 10
1197.8306097374721
 20
-478.02843621754562
 30
0.0
 11
1185.859904721073
 21
-510.91767794505341
 31
0.0
  0
LINE
  5
71E
  8
DATA
  6
CONTINUOUS
 62
     7
 10
1067.8306097374659
 20
-510.91767794505341
 30
0.0
 11
1055.8599047210689
 21
-478.02843621754562
 31
0.0
  0
LINE
  5
71F
  8
DATA
  6
CONTINUOUS
 62
     7
 10
1045.400636365516
 20
-500.45840958950038
 30
0.0
 11
1078.2898780930191
 21
-488.48770457310081
 31
0.0
  0
LINE
  5
720
  8
DATA
  6
CONTINUOUS
 62
     7
 10
1284.257552397836
 20
-480.79225134827033
 30
0.0
 11
1359.4329620607059
 21
-508.15386281432637
 31
0.0
  0
LINE
  5
721
  8
DATA
  6
CONTINUOUS
 62
     7
 10
1327.8306097374721
 20
-478.02843621754562
 30
0.0
 11
1315.859904721073
 21
-510.91767794505341
 31
0.0
  0
LINE
  5
722
  8
DATA
  6
CONTINUOUS
 62
     7
 10
1414.2575523978369
 20
-480.79225134827033
 30
0.0
 11
1489.4329620607059
 21
-508.15386281432637
 31
0.0
  0
LINE
  5
723
  8
DATA
  6
CONTINUOUS
 62
     7
 10
1457.8306097374721
 20
-478.02843621754562
 30
0.0
 11
1445.859904721073
 21
-510.91767794505341
 31
0.0
  0
LINE
  5
724
  8
DATA
  6
CONTINUOUS
 62
     7
 10
1544.257552397836
 20
-480.79225134827033
 30
0.0
 11
1619.432962060707
 21
-508.15386281432637
 31
0.0
  0
LINE
  5
725
  8
DATA
  6
CONTINUOUS
 62
     7
 10
1587.8306097374721
 20
-478.02843621754562
 30
0.0
 11
1575.859904721071
 21
-510.91767794505341
 31
0.0
  0
LINE
  5
726
  8
DATA
  6
CONTINUOUS
 62
     7
 10
1695.400636365518
 20
-500.45840958950038
 30
0.0
 11
1728.28987809302
 21
-488.48770457310081
 31
0.0
  0
LINE
  5
727
  8
DATA
  6
CONTINUOUS
 62
     7
 10
1717.8306097374671
 20
-510.91767794505341
 30
0.0
 11
1705.859904721071
 21
-478.02843621754562
 31
0.0
  0
LINE
  5
728
  8
DATA
  6
CONTINUOUS
 62
     7
 10
975.0
 20
875.0
 30
0.0
 11
1800.0
 21
875.0
 31
0.0
  0
ENDSEC
  0
EOF
