  0
SECTION
  2
HEADER
  9
$ACADVER
  1
AC1009
  9
$INSBASE
 10
0.0
 20
0.0
 30
0.0
  9
$EXTMIN
 10
-800.10985825197974
 20
-1202.069354206659
 30
-0.0000000349181948
  9
$EXTMAX
 10
1000.109875016297
 20
1471.949448393005
 30
0.0000000814935747
  9
$LIMMIN
 10
0.0
 20
0.0
  9
$LIMMAX
 10
0.0
 20
0.0
  9
$ORTHOMODE
 70
     0
  9
$REGENMODE
 70
     1
  9
$FILLMODE
 70
     1
  9
$QTEXTMODE
 70
     0
  9
$MIRRTEXT
 70
     1
  9
$DRAGMODE
 70
     2
  9
$LTSCALE
 40
50.799999999999997
  9
$OSMODE
 70
   231
  9
$ATTMODE
 70
     1
  9
$TEXTSIZE
 40
0.0
  9
$TRACEWID
 40
1.0
  9
$TEXTSTYLE
  7
STANDARD
  9
$CLAYER
  8
DATA
  9
$CELTYPE
  6
BYLAYER
  9
$CECOLOR
 62
   256
  9
$DIMSCALE
 40
1.0
  9
$DIMASZ
 40
0.18
  9
$DIMEXO
 40
0.0625
  9
$DIMDLI
 40
0.38
  9
$DIMRND
 40
0.0
  9
$DIMDLE
 40
0.0
  9
$DIMEXE
 40
0.18
  9
$DIMTP
 40
0.0
  9
$DIMTM
 40
0.0
  9
$DIMTXT
 40
0.18
  9
$DIMCEN
 40
0.09
  9
$DIMTSZ
 40
0.0
  9
$DIMTOL
 70
     0
  9
$DIMLIM
 70
     0
  9
$DIMTIH
 70
     1
  9
$DIMTOH
 70
     1
  9
$DIMSE1
 70
     0
  9
$DIMSE2
 70
     0
  9
$DIMTAD
 70
     0
  9
$DIMZIN
 70
     0
  9
$DIMBLK
  1

  9
$DIMASO
 70
     1
  9
$DIMSHO
 70
     1
  9
$DIMPOST
  1

  9
$DIMAPOST
  1

  9
$DIMALT
 70
     0
  9
$DIMALTD
 70
     2
  9
$DIMALTF
 40
25.399999999999999
  9
$DIMLFAC
 40
1.0
  9
$DIMTOFL
 70
     0
  9
$DIMTVP
 40
0.0
  9
$DIMTIX
 70
     0
  9
$DIMSOXD
 70
     0
  9
$DIMSAH
 70
     0
  9
$DIMBLK1
  1

  9
$DIMBLK2
  1

  9
$DIMSTYLE
  2
STANDARD
  9
$DIMCLRD
 70
     0
  9
$DIMCLRE
 70
     0
  9
$DIMCLRT
 70
     0
  9
$DIMTFAC
 40
1.0
  9
$DIMGAP
 40
0.09
  9
$LUNITS
 70
     2
  9
$LUPREC
 70
     4
  9
$SKETCHINC
 40
0.1
  9
$FILLETRAD
 40
0.0
  9
$AUNITS
 70
     0
  9
$AUPREC
 70
     0
  9
$MENU
  1
acad
  9
$ELEVATION
 40
0.0
  9
$PELEVATION
 40
0.0
  9
$THICKNESS
 40
0.0
  9
$LIMCHECK
 70
     0
  9
$BLIPMODE
 70
     0
  9
$CHAMFERA
 40
0.0
  9
$CHAMFERB
 40
0.0
  9
$SKPOLY
 70
     0
  9
$TDCREATE
 40
2452879.631180556
  9
$TDUPDATE
 40
2455607.7497495259
  9
$TDINDWG
 40
0.0011315394
  9
$TDUSRTIMER
 40
0.0011315394
  9
$USRTIMER
 70
     1
  9
$ANGBASE
 50
0.0
  9
$ANGDIR
 70
     0
  9
$PDMODE
 70
     1
  9
$PDSIZE
 40
-2.0
  9
$PLINEWID
 40
0.0
  9
$COORDS
 70
     1
  9
$SPLFRAME
 70
     0
  9
$SPLINETYPE
 70
     6
  9
$SPLINESEGS
 70
     8
  9
$ATTDIA
 70
     0
  9
$ATTREQ
 70
     1
  9
$HANDLING
 70
     1
  9
$HANDSEED
  5
7D3
  9
$SURFTAB1
 70
     6
  9
$SURFTAB2
 70
     6
  9
$SURFTYPE
 70
     6
  9
$SURFU
 70
     6
  9
$SURFV
 70
     6
  9
$UCSNAME
  2

  9
$UCSORG
 10
0.0
 20
0.0
 30
0.0
  9
$UCSXDIR
 10
1.0
 20
0.0
 30
0.0
  9
$UCSYDIR
 10
0.0
 20
1.0
 30
0.0
  9
$PUCSNAME
  2

  9
$PUCSORG
 10
0.0
 20
0.0
 30
0.0
  9
$PUCSXDIR
 10
1.0
 20
0.0
 30
0.0
  9
$PUCSYDIR
 10
0.0
 20
1.0
 30
0.0
  9
$USERI1
 70
     0
  9
$USERI2
 70
     0
  9
$USERI3
 70
     0
  9
$USERI4
 70
     0
  9
$USERI5
 70
     0
  9
$USERR1
 40
0.0
  9
$USERR2
 40
0.0
  9
$USERR3
 40
0.0
  9
$USERR4
 40
0.0
  9
$USERR5
 40
0.0
  9
$WORLDVIEW
 70
     1
  9
$SHADEDGE
 70
     3
  9
$SHADEDIF
 70
    70
  9
$TILEMODE
 70
     1
  9
$MAXACTVP
 70
    16
  9
$PLIMCHECK
 70
     0
  9
$PEXTMIN
 10
1.0000000000000000E+020
 20
1.0000000000000000E+020
 30
1.0000000000000000E+020
  9
$PEXTMAX
 10
-1.0000000000000000E+020
 20
-1.0000000000000000E+020
 30
-1.0000000000000000E+020
  9
$PLIMMIN
 10
0.0
 20
0.0
  9
$PLIMMAX
 10
12.0
 20
9.0
  9
$UNITMODE
 70
     0
  9
$VISRETAIN
 70
     0
  9
$PLINEGEN
 70
     1
  9
$PSLTSCALE
 70
     0
  0
ENDSEC
  0
SECTION
  2
TABLES
  0
TABLE
  2
VPORT
 70
     1
  0
VPORT
  2
*ACTIVE
 70
     0
 10
0.0
 20
0.0
 11
1.0
 21
1.0
 12
100.0000083821589
 22
134.94004709317321
 13
0.0
 23
0.0
 14
1.0
 24
1.0
 15
0.0
 25
0.0
 16
0.0
 26
0.0
 36
1.0
 17
0.0
 27
0.0
 37
0.0
 40
2693.704830594264
 41
1.9619164619164611
 42
50.0
 43
0.0
 44
0.0
 50
0.0
 51
0.0
 71
     0
 72
   100
 73
     1
 74
     1
 75
     0
 76
     0
 77
     0
 78
     0
  0
ENDTAB
  0
TABLE
  2
LTYPE
 70
    12
  0
LTYPE
  2
CONTINUOUS
 70
     0
  3
Solid line
 72
    65
 73
     0
 40
0.0
  0
ENDTAB
  0
TABLE
  2
LAYER
 70
     5
  0
LAYER
  2
0
 70
     0
 62
     7
  6
CONTINUOUS
  0
LAYER
  2
DATA
 70
     0
 62
     7
  6
CONTINUOUS
  0
LAYER
  2
DEFPOINTS
 70
     0
 62
     7
  6
CONTINUOUS
  0
LAYER
  2
HIBINO-BASE
 70
     0
 62
     7
  6
CONTINUOUS
  0
LAYER
  2
DIMNSIONS
 70
     0
 62
     7
  6
CONTINUOUS
  0
ENDTAB
  0
TABLE
  2
STYLE
 70
     2
  0
STYLE
  2
STANDARD
 70
     0
 40
0.0
 41
1.0
 50
0.0
 71
     0
 42
0.0
  3
txt
  4
BIGFONT.SHX
  0
ENDTAB
  0
TABLE
  2
VIEW
 70
     0
  0
ENDTAB
  0
TABLE
  2
UCS
 70
     0
  0
ENDTAB
  0
TABLE
  2
APPID
 70
     3
  0
APPID
  2
ACAD
 70
     0
  0
APPID
  2
ACADANNOTATIVE
 70
     0
  0
APPID
  2
ACAD_MLEADERVER
 70
     0
  0
ENDTAB
  0
TABLE
  2
DIMSTYLE
 70
     2
  0
DIMSTYLE
  2
STANDARD
 70
     0
  3

  4

  5

  6

  7

 40
1.0
 41
0.18
 42
0.0625
 43
0.38
 44
0.18
 45
0.0
 46
0.0
 47
0.0
 48
0.0
140
0.18
141
0.09
142
0.0
143
25.399999999999999
144
1.0
145
0.0
146
1.0
147
0.09
 71
     0
 72
     0
 73
     1
 74
     1
 75
     0
 76
     0
 77
     0
 78
     0
170
     0
171
     2
172
     0
173
     0
174
     0
175
     0
176
     0
177
     0
178
     0
  0
ENDTAB
  0
ENDSEC
  0
SECTION
  2
BLOCKS
  0
BLOCK
  8
0
  2
$MODEL_SPACE
 70
     0
 10
0.0
 20
0.0
 30
0.0
  3
$MODEL_SPACE
  1

  0
ENDBLK
  5
5E7
  8
0
  0
BLOCK
 67
     1
  8
0
  2
$PAPER_SPACE
 70
     0
 10
0.0
 20
0.0
 30
0.0
  3
$PAPER_SPACE
  1

  0
ENDBLK
  5
5E3
 67
     1
  8
0
  0
ENDSEC
  0
SECTION
  2
ENTITIES
  0
LINE
  5
2D
  8
HIBINO-BASE
 62
     7
 10
-800.0
 20
1471.786335
 30
0.0
 11
999.99999999999955
 21
1471.786335
 31
0.0
  0
LINE
  5
2E
  8
HIBINO-BASE
 62
     7
 10
999.99999999999955
 20
-1128.213665
 30
0.0
 11
-800.0
 21
-1128.213665
 31
0.0
  0
LINE
  5
2F
  8
HIBINO-BASE
 62
     7
 10
-800.0
 20
-1128.213665
 30
0.0
 11
-800.0
 21
1471.786335
 31
0.0
  0
TEXT
  5
30
  8
HIBINO-BASE
 62
     7
 10
-728.15999999999985
 20
-1189.4935049999999
 30
0.0
 40
37.425839999999987
  1
Hibino Corporation
 41
0.7
 11
-728.15999999999985
 21
-1152.067665
 31
0.0
 73
     3
  0
LINE
  5
31
  8
HIBINO-BASE
 62
     7
 10
999.99999999999955
 20
1471.786335
 30
0.0
 11
999.99999999999955
 21
-1128.213665
 31
0.0
  0
LINE
  5
32
  8
HIBINO-BASE
 62
     7
 10
100.0
 20
-903.21366499999988
 30
0.0
 11
999.99999999999955
 21
-903.21366499999988
 31
0.0
  0
LINE
  5
33
  8
HIBINO-BASE
 62
     7
 10
100.0
 20
-1128.213665
 30
0.0
 11
100.0
 21
-903.21366499999988
 31
0.0
  0
TEXT
  5
34
  8
HIBINO-BASE
 62
     7
 10
109.0
 20
-927.03059833333327
 30
0.0
 40
16.93333333333333
  1
NOTE
 41
0.7
 11
109.0
 21
-910.09726499999999
 31
0.0
 73
     3
  0
LINE
  5
35
  8
HIBINO-BASE
 62
     7
 10
450.0
 20
-1128.213665
 30
0.0
 11
450.0
 21
-903.21366499999988
 31
0.0
  0
TEXT
  5
36
  8
HIBINO-BASE
 62
     7
 10
459.0
 20
-927.03059833333327
 30
0.0
 40
16.93333333333333
  1
TITLE
 41
0.7
 11
459.0
 21
-910.09726499999999
 31
0.0
 73
     3
  0
TEXT
  5
37
  8
HIBINO-BASE
 62
     7
 10
600.68389999999988
 20
-1189.4935049999999
 30
0.0
 40
37.425839999999987
  1
ヒビノ株式会社
 41
0.7
 11
600.68389999999988
 21
-1152.067665
 31
0.0
 73
     3
  0
LINE
  5
38
  8
HIBINO-BASE
 62
     7
 10
100.0
 20
-1028.213665
 30
0.0
 11
999.99999999999955
 21
-1028.213665
 31
0.0
  0
TEXT
  5
39
  8
HIBINO-BASE
 62
     7
 10
584.0
 20
-1051.467398333333
 30
0.0
 40
16.93333333333333
  1
DRAWN
 41
0.7
 11
584.0
 21
-1034.5340650000001
 31
0.0
 73
     3
  0
TEXT
  5
3A
  8
HIBINO-BASE
 62
     7
 10
334.0
 20
-1051.467398333333
 30
0.0
 40
16.93333333333333
  1
DATE
 41
0.7
 11
334.0
 21
-1034.5340650000001
 31
0.0
 73
     3
  0
TEXT
  5
3B
  8
HIBINO-BASE
 62
     7
 10
234.0
 20
-1051.467398333333
 30
0.0
 40
16.93333333333333
  1
SCALE
 41
0.7
 11
234.0
 21
-1034.5340650000001
 31
0.0
 73
     3
  0
TEXT
  5
3C
  8
HIBINO-BASE
 62
     7
 10
459.0
 20
-1051.467398333333
 30
0.0
 40
16.93333333333333
  1
DESIGN
 41
0.7
 11
459.0
 21
-1034.5340650000001
 31
0.0
 73
     3
  0
TEXT
  5
3D
  8
HIBINO-BASE
 62
     7
 10
834.0
 20
-1051.467398333333
 30
0.0
 40
16.93333333333333
  1
DRAWING NO.
 41
0.7
 11
834.0
 21
-1034.5340650000001
 31
0.0
 73
     3
  0
TEXT
  5
3E
  8
HIBINO-BASE
 62
     7
 10
708.99999999999955
 20
-1051.467398333333
 30
0.0
 40
16.93333333333333
  1
CHECK
 41
0.7
 11
708.99999999999955
 21
-1034.5340650000001
 31
0.0
 73
     3
  0
LINE
  5
3F
  8
HIBINO-BASE
 62
     7
 10
243.75
 20
-1115.713665
 30
0.0
 11
281.25
 21
-1078.213665
 31
0.0
  0
TEXT
  5
40
  8
HIBINO-BASE
 62
     7
 10
237.5
 20
-1088.0330983333331
 30
0.0
 40
16.93333333333333
  1
1
 41
0.7
 11
237.5
 21
-1071.0997649999999
 31
0.0
 73
     3
  0
LINE
  5
41
  8
HIBINO-BASE
 62
     7
 10
225.0
 20
-1128.213665
 30
0.0
 11
225.0
 21
-1028.213665
 31
0.0
  0
LINE
  5
42
  8
HIBINO-BASE
 62
     7
 10
325.0
 20
-1128.213665
 30
0.0
 11
325.0
 21
-1028.213665
 31
0.0
  0
LINE
  5
43
  8
HIBINO-BASE
 62
     7
 10
574.99999999999989
 20
-1028.213665
 30
0.0
 11
574.99999999999989
 21
-1128.213665
 31
0.0
  0
LINE
  5
44
  8
HIBINO-BASE
 62
     7
 10
825.0
 20
-1028.213665
 30
0.0
 11
825.0
 21
-1128.213665
 31
0.0
  0
LINE
  5
45
  8
HIBINO-BASE
 62
     7
 10
699.99999999999989
 20
-1128.213665
 30
0.0
 11
699.99999999999989
 21
-1028.213665
 31
0.0
  0
TEXT
  5
46
  8
HIBINO-BASE
 62
     7
 10
333.5653999999999
 20
-1098.307198333333
 30
0.0
 40
16.93333333333333
  1
'03.08.
 41
0.7
 11
333.5653999999999
 21
-1081.373865
 31
0.0
 73
     3
  0
TEXT
  5
47
  8
HIBINO-BASE
 62
     7
 10
275.0
 20
-1106.7830983333331
 30
0.0
 40
16.93333333333333
  1
10
 41
0.7
 11
275.0
 21
-1089.8497649999999
 31
0.0
 73
     3
  0
TEXT
  5
48
  8
HIBINO-BASE
 62
     7
 10
590.05810011034623
 20
-1098.307198333333
 30
0.0
 40
16.93333333333333
  1
N.Sasaki
 41
0.7
 11
590.05810011034623
 21
-1081.373865
 31
0.0
 73
     3
  0
TEXT
  5
49
  8
HIBINO-BASE
 62
     7
 10
138.83333333333351
 20
-1105.9136649999989
 30
0.0
 40
33.866666666666667
  1
A4
 41
0.7
 11
138.83333333333351
 21
-1072.046998333333
 31
0.0
 73
     3
  0
TEXT
  5
4A
  8
HIBINO-BASE
 62
     7
 10
109.5833333333333
 20
-1053.138214999999
 30
0.0
 40
16.93333333333333
  1
PAPER SIZE
 41
0.7
 11
109.5833333333333
 21
-1036.2048816666661
 31
0.0
 73
     3
  0
TEXT
  5
4B
  8
DIMNSIONS
 62
     7
 10
-100.0
 20
-1003.6137649999999
 30
0.0
 40
25.399999999999999
  1
(単位：mm)
 41
0.7
 11
-100.0
 21
-978.21376499999985
 31
0.0
 73
     3
  0
LINE
  5
4C
  8
DIMNSIONS
 62
     7
 10
600.0
 20
-140.0
 30
0.0
 11
600.0
 21
-260.0
 31
0.0
  0
LINE
  5
4D
  8
DIMNSIONS
 62
     7
 10
600.0
 20
-140.0
 30
0.0
 11
606.7003979515024
 21
-165.0062255859375
 31
0.0
  0
LINE
  5
4E
  8
DIMNSIONS
 62
     7
 10
600.0
 20
-140.0
 30
0.0
 11
593.29960204849726
 21
-165.0062255859375
 31
0.0
  0
LINE
  5
4F
  8
DIMNSIONS
 62
     7
 10
600.0
 20
-260.0
 30
0.0
 11
593.29960204849726
 21
-234.9937744140625
 31
0.0
  0
LINE
  5
50
  8
DIMNSIONS
 62
     7
 10
600.0
 20
-260.0
 30
0.0
 11
606.7003979515024
 21
-234.9937744140625
 31
0.0
  0
TEXT
  5
51
  8
DIMNSIONS
 62
     7
 10
589.19444444444434
 20
-226.4583333333334
 30
0.0
 40
28.222222222222229
  1
120
 50
90.0
 41
0.7
 11
560.97222222222194
 21
-226.4583333333334
 31
0.0
 73
     3
  0
LINE
  5
52
  8
DIMNSIONS
 62
     7
 10
231.09069576231241
 20
1288.907837603588
 30
0.0
 11
250.0
 21
1400.0
 31
0.0
  0
LINE
  5
53
  8
DIMNSIONS
 62
     7
 10
231.09069576231241
 20
1288.907837603588
 30
0.0
 11
228.8343774147319
 21
1314.697674328113
 31
0.0
  0
LINE
  5
54
  8
DIMNSIONS
 62
     7
 10
231.09069576231241
 20
1288.907837603588
 30
0.0
 11
242.0315851165453
 21
1312.370650540269
 31
0.0
  0
LINE
  5
55
  8
DIMNSIONS
 62
     7
 10
250.0
 20
1400.0
 30
0.0
 11
375.83333333333331
 21
1400.0
 31
0.0
  0
TEXT
  5
56
  8
DIMNSIONS
 62
     7
 10
270.0
 20
1410.8055555555561
 30
0.0
 40
28.222222222222229
  1
4-\U+03C613
 41
0.7
 11
270.0
 21
1439.0277777777781
 31
0.0
 73
     3
  0
LINE
  5
57
  8
DIMNSIONS
 62
     7
 10
366.31319229835572
 20
1286.908574144481
 30
0.0
 11
400.0
 21
1400.0
 31
0.0
  0
LINE
  5
58
  8
DIMNSIONS
 62
     7
 10
366.31319229835572
 20
1286.908574144481
 30
0.0
 11
367.21668267373087
 21
1312.7811533723991
 31
0.0
  0
LINE
  5
59
  8
DIMNSIONS
 62
     7
 10
366.31319229835572
 20
1286.908574144481
 30
0.0
 11
380.03192752946433
 21
1308.8631398295961
 31
0.0
  0
LINE
  5
5A
  8
DIMNSIONS
 62
     7
 10
400.0
 20
1400.0
 30
0.0
 11
561.11111111111086
 21
1400.0
 31
0.0
  0
TEXT
  5
5B
  8
DIMNSIONS
 62
     7
 10
420.0
 20
1410.8055555555561
 30
0.0
 40
28.222222222222229
  1
10-\U+03C69.2
 41
0.7
 11
420.0
 21
1439.0277777777781
 31
0.0
 73
     3
  0
LINE
  5
5C
  8
DIMNSIONS
 62
     7
 10
203.4999999999996
 20
1117.5
 30
0.0
 11
29.999999999999989
 21
1117.5
 31
0.0
  0
LINE
  5
5D
  8
DIMNSIONS
 62
     7
 10
203.4999999999996
 20
1282.5
 30
0.0
 11
29.999999999999989
 21
1282.5
 31
0.0
  0
LINE
  5
5E
  8
DIMNSIONS
 62
     7
 10
50.0
 20
1117.5
 30
0.0
 11
50.0
 21
1282.5
 31
0.0
  0
LINE
  5
5F
  8
DIMNSIONS
 62
     7
 10
50.0
 20
1117.5
 30
0.0
 11
43.299602048497533
 21
1142.506225585937
 31
0.0
  0
LINE
  5
60
  8
DIMNSIONS
 62
     7
 10
50.0
 20
1117.5
 30
0.0
 11
56.70039795150241
 21
1142.506225585937
 31
0.0
  0
LINE
  5
61
  8
DIMNSIONS
 62
     7
 10
50.0
 20
1282.5
 30
0.0
 11
56.700397951502403
 21
1257.493774414062
 31
0.0
  0
LINE
  5
62
  8
DIMNSIONS
 62
     7
 10
50.0
 20
1282.5
 30
0.0
 11
43.299602048497533
 21
1257.493774414062
 31
0.0
  0
TEXT
  5
63
  8
DIMNSIONS
 62
     7
 10
39.194444444444443
 20
1173.5416666666661
 30
0.0
 40
28.222222222222229
  1
165
 50
90.0
 41
0.7
 11
10.972222222222211
 21
1173.5416666666661
 31
0.0
 73
     3
  0
LINE
  5
64
  8
DIMNSIONS
 62
     7
 10
203.4999999999996
 20
1282.5
 30
0.0
 11
29.999999999999989
 21
1282.5
 31
0.0
  0
LINE
  5
65
  8
DIMNSIONS
 62
     7
 10
182.4141339559996
 20
1300.0999999999999
 30
0.0
 11
29.999999999999989
 21
1300.0999999999999
 31
0.0
  0
LINE
  5
66
  8
DIMNSIONS
 62
     7
 10
50.0
 20
1300.0999999999999
 30
0.0
 11
50.0
 21
1282.5
 31
0.0
  0
LINE
  5
67
  8
DIMNSIONS
 62
     7
 10
50.0
 20
1282.5
 30
0.0
 11
50.0
 21
1232.5
 31
0.0
  0
LINE
  5
68
  8
DIMNSIONS
 62
     7
 10
50.0
 20
1282.5
 30
0.0
 11
56.700397951502403
 21
1257.493774414062
 31
0.0
  0
LINE
  5
69
  8
DIMNSIONS
 62
     7
 10
50.0
 20
1282.5
 30
0.0
 11
43.299602048497533
 21
1257.493774414062
 31
0.0
  0
LINE
  5
6A
  8
DIMNSIONS
 62
     7
 10
50.0
 20
1300.0999999999999
 30
0.0
 11
50.0
 21
1398.0908003409929
 31
0.0
  0
LINE
  5
6B
  8
DIMNSIONS
 62
     7
 10
50.0
 20
1300.0999999999999
 30
0.0
 11
43.299602048497533
 21
1325.106225585937
 31
0.0
  0
LINE
  5
6C
  8
DIMNSIONS
 62
     7
 10
50.0
 20
1300.0999999999999
 30
0.0
 11
56.70039795150241
 21
1325.106225585937
 31
0.0
  0
TEXT
  5
6D
  8
DIMNSIONS
 62
     7
 10
39.194444444444443
 20
1327.535244785437
 30
0.0
 40
28.222222222222229
  1
17.6
 50
90.0
 41
0.7
 11
10.972222222222211
 21
1327.535244785437
 31
0.0
 73
     3
  0
LINE
  5
6E
  8
DIMNSIONS
 62
     7
 10
203.4999999999996
 20
1117.5
 30
0.0
 11
29.999999999999989
 21
1117.5
 31
0.0
  0
LINE
  5
6F
  8
DIMNSIONS
 62
     7
 10
182.4141339559996
 20
1099.9000000000001
 30
0.0
 11
29.999999999999989
 21
1099.9000000000001
 31
0.0
  0
LINE
  5
70
  8
DIMNSIONS
 62
     7
 10
50.0
 20
1099.9000000000001
 30
0.0
 11
50.0
 21
1117.5
 31
0.0
  0
LINE
  5
71
  8
DIMNSIONS
 62
     7
 10
50.0
 20
1117.5
 30
0.0
 11
50.0
 21
1167.5
 31
0.0
  0
LINE
  5
72
  8
DIMNSIONS
 62
     7
 10
50.0
 20
1117.5
 30
0.0
 11
43.299602048497533
 21
1142.506225585937
 31
0.0
  0
LINE
  5
73
  8
DIMNSIONS
 62
     7
 10
50.0
 20
1117.5
 30
0.0
 11
56.70039795150241
 21
1142.506225585937
 31
0.0
  0
LINE
  5
74
  8
DIMNSIONS
 62
     7
 10
50.0
 20
1099.9000000000001
 30
0.0
 11
50.0
 21
1001.844444444444
 31
0.0
  0
LINE
  5
75
  8
DIMNSIONS
 62
     7
 10
50.0
 20
1099.9000000000001
 30
0.0
 11
56.700397951502403
 21
1074.8937744140619
 31
0.0
  0
LINE
  5
76
  8
DIMNSIONS
 62
     7
 10
50.0
 20
1099.9000000000001
 30
0.0
 11
43.299602048497533
 21
1074.8937744140619
 31
0.0
  0
TEXT
  5
77
  8
DIMNSIONS
 62
     7
 10
39.194444444444443
 20
1001.844444444444
 30
0.0
 40
28.222222222222229
  1
17.6
 50
90.0
 41
0.7
 11
10.972222222222211
 21
1001.844444444444
 31
0.0
 73
     3
  0
LINE
  5
78
  8
DIMNSIONS
 62
     7
 10
182.4141339559996
 20
1099.9000000000001
 30
0.0
 11
-20.000000000000149
 21
1099.9000000000001
 31
0.0
  0
LINE
  5
79
  8
DIMNSIONS
 62
     7
 10
182.4141339559996
 20
1300.0999999999999
 30
0.0
 11
-20.000000000000149
 21
1300.0999999999999
 31
0.0
  0
LINE
  5
7A
  8
DIMNSIONS
 62
     7
 10
-0.0000000000001563
 20
1099.9000000000001
 30
0.0
 11
-0.0000000000001563
 21
1300.0999999999999
 31
0.0
  0
LINE
  5
7B
  8
DIMNSIONS
 62
     7
 10
-0.0000000000001563
 20
1099.9000000000001
 30
0.0
 11
-6.7003979515025929
 21
1124.9062255859369
 31
0.0
  0
LINE
  5
7C
  8
DIMNSIONS
 62
     7
 10
-0.0000000000001563
 20
1099.9000000000001
 30
0.0
 11
6.700397951502266
 21
1124.9062255859369
 31
0.0
  0
LINE
  5
7D
  8
DIMNSIONS
 62
     7
 10
-0.0000000000001563
 20
1300.0999999999999
 30
0.0
 11
6.700397951502266
 21
1275.093774414062
 31
0.0
  0
LINE
  5
7E
  8
DIMNSIONS
 62
     7
 10
-0.0000000000001563
 20
1300.0999999999999
 30
0.0
 11
-6.7003979515025804
 21
1275.093774414062
 31
0.0
  0
TEXT
  5
7F
  8
DIMNSIONS
 62
     7
 10
-10.80555555555569
 20
1155.9027777777781
 30
0.0
 40
28.222222222222229
  1
200.2
 50
90.0
 41
0.7
 11
-39.027777777777928
 21
1155.9027777777781
 31
0.0
 73
     3
  0
LINE
  5
80
  8
DIMNSIONS
 62
     7
 10
199.81413395599969
 20
1082.5
 30
0.0
 11
199.81413395599969
 21
980.0
 31
0.0
  0
LINE
  5
81
  8
DIMNSIONS
 62
     7
 10
249.9999999999996
 20
1092.9000000000001
 30
0.0
 11
249.9999999999996
 21
980.0
 31
0.0
  0
LINE
  5
82
  8
DIMNSIONS
 62
     7
 10
249.9999999999996
 20
1000.0
 30
0.0
 11
199.81413395599969
 21
1000.0
 31
0.0
  0
LINE
  5
83
  8
DIMNSIONS
 62
     7
 10
199.81413395599969
 20
1000.0
 30
0.0
 11
104.4444444444444
 21
1000.0
 31
0.0
  0
LINE
  5
84
  8
DIMNSIONS
 62
     7
 10
199.81413395599969
 20
1000.0
 30
0.0
 11
174.80790837006219
 21
993.2996020484976
 31
0.0
  0
LINE
  5
85
  8
DIMNSIONS
 62
     7
 10
199.81413395599969
 20
1000.0
 30
0.0
 11
174.80790837006219
 21
1006.7003979515021
 31
0.0
  0
LINE
  5
86
  8
DIMNSIONS
 62
     7
 10
249.9999999999996
 20
1000.0
 30
0.0
 11
299.9999999999996
 21
1000.0
 31
0.0
  0
LINE
  5
87
  8
DIMNSIONS
 62
     7
 10
249.9999999999996
 20
1000.0
 30
0.0
 11
275.00622558593699
 21
1006.7003979515021
 31
0.0
  0
LINE
  5
88
  8
DIMNSIONS
 62
     7
 10
249.9999999999996
 20
1000.0
 30
0.0
 11
275.00622558593699
 21
993.2996020484976
 31
0.0
  0
TEXT
  5
89
  8
DIMNSIONS
 62
     7
 10
104.4444444444444
 20
1010.805555555555
 30
0.0
 40
28.222222222222229
  1
50.2
 41
0.7
 11
104.4444444444444
 21
1039.0277777777781
 31
0.0
 73
     3
  0
LINE
  5
8A
  8
DIMNSIONS
 62
     7
 10
249.9999999999996
 20
1092.9000000000001
 30
0.0
 11
249.9999999999996
 21
980.0
 31
0.0
  0
LINE
  5
8B
  8
DIMNSIONS
 62
     7
 10
364.99999999999949
 20
1092.9000000000001
 30
0.0
 11
364.99999999999949
 21
980.0
 31
0.0
  0
LINE
  5
8C
  8
DIMNSIONS
 62
     7
 10
249.9999999999996
 20
1000.0
 30
0.0
 11
364.99999999999949
 21
1000.0
 31
0.0
  0
LINE
  5
8D
  8
DIMNSIONS
 62
     7
 10
249.9999999999996
 20
1000.0
 30
0.0
 11
275.00622558593699
 21
1006.7003979515021
 31
0.0
  0
LINE
  5
8E
  8
DIMNSIONS
 62
     7
 10
249.9999999999996
 20
1000.0
 30
0.0
 11
275.00622558593699
 21
993.2996020484976
 31
0.0
  0
LINE
  5
8F
  8
DIMNSIONS
 62
     7
 10
364.99999999999949
 20
1000.0
 30
0.0
 11
339.9937744140621
 21
993.2996020484976
 31
0.0
  0
LINE
  5
90
  8
DIMNSIONS
 62
     7
 10
364.99999999999949
 20
1000.0
 30
0.0
 11
339.9937744140621
 21
1006.7003979515021
 31
0.0
  0
TEXT
  5
91
  8
DIMNSIONS
 62
     7
 10
281.04166666666612
 20
1010.805555555555
 30
0.0
 40
28.222222222222229
  1
115
 41
0.7
 11
281.04166666666612
 21
1039.0277777777781
 31
0.0
 73
     3
  0
LINE
  5
92
  8
DIMNSIONS
 62
     7
 10
364.99999999999949
 20
1092.9000000000001
 30
0.0
 11
364.99999999999949
 21
980.0
 31
0.0
  0
LINE
  5
93
  8
DIMNSIONS
 62
     7
 10
499.99999999999937
 20
1092.9000000000001
 30
0.0
 11
499.99999999999937
 21
980.0
 31
0.0
  0
LINE
  5
94
  8
DIMNSIONS
 62
     7
 10
364.99999999999949
 20
1000.0
 30
0.0
 11
499.99999999999937
 21
1000.0
 31
0.0
  0
LINE
  5
95
  8
DIMNSIONS
 62
     7
 10
364.99999999999949
 20
1000.0
 30
0.0
 11
390.0062255859371
 21
1006.7003979515021
 31
0.0
  0
LINE
  5
96
  8
DIMNSIONS
 62
     7
 10
364.99999999999949
 20
1000.0
 30
0.0
 11
390.0062255859371
 21
993.2996020484976
 31
0.0
  0
LINE
  5
97
  8
DIMNSIONS
 62
     7
 10
499.99999999999937
 20
1000.0
 30
0.0
 11
474.99377441406199
 21
993.2996020484976
 31
0.0
  0
LINE
  5
98
  8
DIMNSIONS
 62
     7
 10
499.99999999999937
 20
1000.0
 30
0.0
 11
474.99377441406199
 21
1006.7003979515021
 31
0.0
  0
TEXT
  5
99
  8
DIMNSIONS
 62
     7
 10
406.04166666666612
 20
1010.805555555555
 30
0.0
 40
28.222222222222229
  1
135
 41
0.7
 11
406.04166666666612
 21
1039.0277777777781
 31
0.0
 73
     3
  0
LINE
  5
9A
  8
DIMNSIONS
 62
     7
 10
499.99999999999937
 20
1092.9000000000001
 30
0.0
 11
499.99999999999937
 21
980.0
 31
0.0
  0
LINE
  5
9B
  8
DIMNSIONS
 62
     7
 10
635.0
 20
1092.9000000000001
 30
0.0
 11
635.0
 21
980.0
 31
0.0
  0
LINE
  5
9C
  8
DIMNSIONS
 62
     7
 10
499.99999999999937
 20
1000.0
 30
0.0
 11
635.0
 21
1000.0
 31
0.0
  0
LINE
  5
9D
  8
DIMNSIONS
 62
     7
 10
499.99999999999937
 20
1000.0
 30
0.0
 11
525.00622558593705
 21
1006.7003979515021
 31
0.0
  0
LINE
  5
9E
  8
DIMNSIONS
 62
     7
 10
499.99999999999937
 20
1000.0
 30
0.0
 11
525.00622558593705
 21
993.2996020484976
 31
0.0
  0
LINE
  5
9F
  8
DIMNSIONS
 62
     7
 10
635.0
 20
1000.0
 30
0.0
 11
609.9937744140625
 21
993.2996020484976
 31
0.0
  0
LINE
  5
A0
  8
DIMNSIONS
 62
     7
 10
635.0
 20
1000.0
 30
0.0
 11
609.9937744140625
 21
1006.7003979515021
 31
0.0
  0
TEXT
  5
A1
  8
DIMNSIONS
 62
     7
 10
541.04166666666617
 20
1010.805555555555
 30
0.0
 40
28.222222222222229
  1
135
 41
0.7
 11
541.04166666666617
 21
1039.0277777777781
 31
0.0
 73
     3
  0
LINE
  5
A2
  8
DIMNSIONS
 62
     7
 10
635.0
 20
1092.9000000000001
 30
0.0
 11
635.0
 21
980.0
 31
0.0
  0
LINE
  5
A3
  8
DIMNSIONS
 62
     7
 10
750.0
 20
1092.9000000000001
 30
0.0
 11
750.0
 21
980.0
 31
0.0
  0
LINE
  5
A4
  8
DIMNSIONS
 62
     7
 10
635.0
 20
1000.0
 30
0.0
 11
750.0
 21
1000.0
 31
0.0
  0
LINE
  5
A5
  8
DIMNSIONS
 62
     7
 10
635.0
 20
1000.0
 30
0.0
 11
660.00622558593739
 21
1006.7003979515021
 31
0.0
  0
LINE
  5
A6
  8
DIMNSIONS
 62
     7
 10
635.0
 20
1000.0
 30
0.0
 11
660.00622558593739
 21
993.2996020484976
 31
0.0
  0
LINE
  5
A7
  8
DIMNSIONS
 62
     7
 10
750.0
 20
1000.0
 30
0.0
 11
724.99377441406227
 21
993.2996020484976
 31
0.0
  0
LINE
  5
A8
  8
DIMNSIONS
 62
     7
 10
750.0
 20
1000.0
 30
0.0
 11
724.99377441406227
 21
1006.7003979515021
 31
0.0
  0
TEXT
  5
A9
  8
DIMNSIONS
 62
     7
 10
666.04166666666652
 20
1010.805555555555
 30
0.0
 40
28.222222222222229
  1
115
 41
0.7
 11
666.04166666666652
 21
1039.0277777777781
 31
0.0
 73
     3
  0
LINE
  5
AA
  8
DIMNSIONS
 62
     7
 10
770.0
 20
1091.0
 30
0.0
 11
770.0
 21
905.0
 31
0.0
  0
LINE
  5
AB
  8
DIMNSIONS
 62
     7
 10
229.9999999999994
 20
1091.0
 30
0.0
 11
229.9999999999994
 21
905.0
 31
0.0
  0
LINE
  5
AC
  8
DIMNSIONS
 62
     7
 10
770.0
 20
925.0
 30
0.0
 11
229.9999999999994
 21
925.0
 31
0.0
  0
LINE
  5
AD
  8
DIMNSIONS
 62
     7
 10
770.0
 20
925.0
 30
0.0
 11
744.99377441406239
 21
918.2996020484976
 31
0.0
  0
LINE
  5
AE
  8
DIMNSIONS
 62
     7
 10
770.0
 20
925.0
 30
0.0
 11
744.99377441406239
 21
931.70039795150228
 31
0.0
  0
LINE
  5
AF
  8
DIMNSIONS
 62
     7
 10
229.9999999999994
 20
925.0
 30
0.0
 11
255.0062255859371
 21
931.70039795150228
 31
0.0
  0
LINE
  5
B0
  8
DIMNSIONS
 62
     7
 10
229.9999999999994
 20
925.0
 30
0.0
 11
255.0062255859371
 21
918.2996020484976
 31
0.0
  0
TEXT
  5
B1
  8
DIMNSIONS
 62
     7
 10
473.54166666666629
 20
935.80555555555554
 30
0.0
 40
28.222222222222229
  1
540
 41
0.7
 11
473.54166666666629
 21
964.02777777777794
 31
0.0
 73
     3
  0
LINE
  5
B2
  8
DIMNSIONS
 62
     7
 10
229.9999999999994
 20
1091.0
 30
0.0
 11
229.9999999999994
 21
905.0
 31
0.0
  0
LINE
  5
B3
  8
DIMNSIONS
 62
     7
 10
199.81413395599969
 20
1082.5
 30
0.0
 11
199.81413395599969
 21
905.0
 31
0.0
  0
LINE
  5
B4
  8
DIMNSIONS
 62
     7
 10
199.81413395599969
 20
925.0
 30
0.0
 11
229.9999999999994
 21
925.0
 31
0.0
  0
LINE
  5
B5
  8
DIMNSIONS
 62
     7
 10
229.9999999999994
 20
925.0
 30
0.0
 11
279.99999999999949
 21
925.0
 31
0.0
  0
LINE
  5
B6
  8
DIMNSIONS
 62
     7
 10
229.9999999999994
 20
925.0
 30
0.0
 11
255.0062255859371
 21
931.70039795150228
 31
0.0
  0
LINE
  5
B7
  8
DIMNSIONS
 62
     7
 10
229.9999999999994
 20
925.0
 30
0.0
 11
255.0062255859371
 21
918.2996020484976
 31
0.0
  0
LINE
  5
B8
  8
DIMNSIONS
 62
     7
 10
199.81413395599969
 20
925.0
 30
0.0
 11
104.4444444444444
 21
925.0
 31
0.0
  0
LINE
  5
B9
  8
DIMNSIONS
 62
     7
 10
199.81413395599969
 20
925.0
 30
0.0
 11
174.80790837006219
 21
918.2996020484976
 31
0.0
  0
LINE
  5
BA
  8
DIMNSIONS
 62
     7
 10
199.81413395599969
 20
925.0
 30
0.0
 11
174.80790837006219
 21
931.70039795150228
 31
0.0
  0
TEXT
  5
BB
  8
DIMNSIONS
 62
     7
 10
104.4444444444444
 20
935.80555555555554
 30
0.0
 40
28.222222222222229
  1
30.2
 41
0.7
 11
104.4444444444444
 21
964.02777777777794
 31
0.0
 73
     3
  0
LINE
  5
BC
  8
DIMNSIONS
 62
     7
 10
199.81413395599969
 20
1082.5
 30
0.0
 11
199.81413395599969
 21
855.0
 31
0.0
  0
LINE
  5
BD
  8
DIMNSIONS
 62
     7
 10
800.18586604400014
 20
1082.5
 30
0.0
 11
800.18586604400014
 21
855.0
 31
0.0
  0
LINE
  5
BE
  8
DIMNSIONS
 62
     7
 10
199.81413395599969
 20
875.0
 30
0.0
 11
800.18586604400014
 21
875.0
 31
0.0
  0
LINE
  5
BF
  8
DIMNSIONS
 62
     7
 10
199.81413395599969
 20
875.0
 30
0.0
 11
224.82035954193731
 21
881.70039795150228
 31
0.0
  0
LINE
  5
C0
  8
DIMNSIONS
 62
     7
 10
199.81413395599969
 20
875.0
 30
0.0
 11
224.82035954193731
 21
868.2996020484976
 31
0.0
  0
LINE
  5
C1
  8
DIMNSIONS
 62
     7
 10
800.18586604400014
 20
875.0
 30
0.0
 11
775.17964045806275
 21
868.2996020484976
 31
0.0
  0
LINE
  5
C2
  8
DIMNSIONS
 62
     7
 10
800.18586604400014
 20
875.0
 30
0.0
 11
775.17964045806275
 21
881.70039795150228
 31
0.0
  0
TEXT
  5
C3
  8
DIMNSIONS
 62
     7
 10
455.90277777777771
 20
885.80555555555554
 30
0.0
 40
28.222222222222229
  1
600.4
 41
0.7
 11
455.90277777777771
 21
914.02777777777794
 31
0.0
 73
     3
  0
LINE
  5
C4
  8
DIMNSIONS
 62
     7
 10
239.55268085977329
 20
-154.6007428660576
 30
0.0
 11
350.0
 21
0.0
 31
0.0
  0
LINE
  5
C5
  8
DIMNSIONS
 62
     7
 10
239.55268085977329
 20
-154.6007428660576
 30
0.0
 11
246.97242400668159
 21
-135.27165113121001
 31
0.0
  0
LINE
  5
C6
  8
DIMNSIONS
 62
     7
 10
239.55268085977329
 20
-154.6007428660576
 30
0.0
 11
255.6429127819753
 21
-141.5711299650539
 31
0.0
  0
LINE
  5
C7
  8
DIMNSIONS
 62
     7
 10
-322.27244961494131
 20
-216.55777712948509
 30
0.0
 11
-300.0
 21
-400.0
 31
0.0
  0
LINE
  5
C8
  8
DIMNSIONS
 62
     7
 10
-322.27244961494131
 20
-216.55777712948509
 30
0.0
 11
-314.85270646803292
 21
-235.8868688643328
 31
0.0
  0
LINE
  5
C9
  8
DIMNSIONS
 62
     7
 10
-322.27244961494131
 20
-216.55777712948509
 30
0.0
 11
-325.51130942758692
 21
-237.00713317739721
 31
0.0
  0
LINE
  5
CA
  8
DIMNSIONS
 62
     7
 10
-350.0
 20
50.0
 30
0.0
 11
75.0
 21
50.0
 31
0.0
  0
TEXT
  5
CB
  8
DIMNSIONS
 62
     7
 10
-325.0
 20
62.299999999999997
 30
0.0
 40
28.222222222222229
  1
文字・矢印　マーキング
 41
0.7
  0
LINE
  5
CC
  8
DIMNSIONS
 62
     7
 10
350.0
 20
0.0
 30
0.0
 11
625.0
 21
0.0
 31
0.0
  0
TEXT
  5
CD
  8
DIMNSIONS
 62
     7
 10
375.0
 20
12.30000000000001
 30
0.0
 40
28.222222222222229
  1
文字　スリット
 41
0.7
  0
TEXT
  5
CE
  8
DIMNSIONS
 62
     7
 10
375.0
 20
-37.699999999999989
 30
0.0
 40
28.222222222222229
  1
矢印　穴抜き
 41
0.7
  0
LINE
  5
CF
  8
DIMNSIONS
 62
     7
 10
-390.90239949220808
 20
-101.4263908678746
 30
0.0
 11
-350.0
 21
50.0
 31
0.0
  0
LINE
  5
D0
  8
DIMNSIONS
 62
     7
 10
-390.90239949220808
 20
-101.4263908678746
 30
0.0
 11
-390.54106033443918
 21
-80.72528438359906
 31
0.0
  0
LINE
  5
D1
  8
DIMNSIONS
 62
     7
 10
-390.90239949220808
 20
-101.4263908678746
 30
0.0
 11
-380.23891736006033
 21
-83.679376344929736
 31
0.0
  0
LINE
  5
D2
  8
DIMNSIONS
 62
     7
 10
-300.0
 20
-82.5
 30
0.0
 11
-300.0
 21
20.0
 31
0.0
  0
LINE
  5
D3
  8
DIMNSIONS
 62
     7
 10
-562.10000000000014
 20
-145.96743318299991
 30
0.0
 11
-562.10000000000014
 21
20.0
 31
0.0
  0
LINE
  5
D4
  8
DIMNSIONS
 62
     7
 10
-300.0
 20
0.0
 30
0.0
 11
-562.10000000000014
 21
0.0
 31
0.0
  0
LINE
  5
D5
  8
DIMNSIONS
 62
     7
 10
-300.0
 20
0.0
 30
0.0
 11
-325.0062255859375
 21
-6.7003979515024241
 31
0.0
  0
LINE
  5
D6
  8
DIMNSIONS
 62
     7
 10
-300.0
 20
0.0
 30
0.0
 11
-325.0062255859375
 21
6.7003979515024508
 31
0.0
  0
LINE
  5
D7
  8
DIMNSIONS
 62
     7
 10
-562.10000000000014
 20
0.0
 30
0.0
 11
-537.09377441406252
 21
6.7003979515024241
 31
0.0
  0
LINE
  5
D8
  8
DIMNSIONS
 62
     7
 10
-562.10000000000014
 20
0.0
 30
0.0
 11
-537.09377441406252
 21
-6.7003979515024241
 31
0.0
  0
TEXT
  5
D9
  8
DIMNSIONS
 62
     7
 10
-475.14722222222218
 20
10.805555555555539
 30
0.0
 40
28.222222222222229
  1
262.1
 41
0.7
 11
-475.14722222222218
 21
39.027777777777771
 31
0.0
 73
     3
  0
LINE
  5
DA
  8
DIMNSIONS
 62
     7
 10
-562.10000000000014
 20
-145.96743318299991
 30
0.0
 11
-562.10000000000014
 21
20.0
 31
0.0
  0
LINE
  5
DB
  8
DIMNSIONS
 62
     7
 10
-608.60000000000014
 20
-130.0
 30
0.0
 11
-608.60000000000014
 21
20.0
 31
0.0
  0
LINE
  5
DC
  8
DIMNSIONS
 62
     7
 10
-608.60000000000014
 20
0.0
 30
0.0
 11
-562.10000000000014
 21
0.0
 31
0.0
  0
LINE
  5
DD
  8
DIMNSIONS
 62
     7
 10
-562.10000000000014
 20
0.0
 30
0.0
 11
-512.10000000000014
 21
0.0
 31
0.0
  0
LINE
  5
DE
  8
DIMNSIONS
 62
     7
 10
-562.10000000000014
 20
0.0
 30
0.0
 11
-537.09377441406252
 21
6.7003979515024241
 31
0.0
  0
LINE
  5
DF
  8
DIMNSIONS
 62
     7
 10
-562.10000000000014
 20
0.0
 30
0.0
 11
-537.09377441406252
 21
-6.7003979515024241
 31
0.0
  0
LINE
  5
E0
  8
DIMNSIONS
 62
     7
 10
-608.60000000000014
 20
0.0
 30
0.0
 11
-695.55555555555554
 21
0.0
 31
0.0
  0
LINE
  5
E1
  8
DIMNSIONS
 62
     7
 10
-608.60000000000014
 20
0.0
 30
0.0
 11
-633.60622558593764
 21
-6.7003979515024241
 31
0.0
  0
LINE
  5
E2
  8
DIMNSIONS
 62
     7
 10
-608.60000000000014
 20
0.0
 30
0.0
 11
-633.60622558593764
 21
6.7003979515024508
 31
0.0
  0
TEXT
  5
E3
  8
DIMNSIONS
 62
     7
 10
-695.55555555555554
 20
20.80555555555555
 30
0.0
 40
28.222222222222229
  1
46.5
 41
0.7
 11
-695.55555555555554
 21
49.027777777777779
 31
0.0
 73
     3
  0
LINE
  5
E4
  8
DIMNSIONS
 62
     7
 10
182.4141339559996
 20
-300.09999999999991
 30
0.0
 11
80.221212520787148
 21
-300.09999999999991
 31
0.0
  0
LINE
  5
E5
  8
DIMNSIONS
 62
     7
 10
182.4141339559996
 20
-99.899999999999963
 30
0.0
 11
80.221212520787148
 21
-99.899999999999963
 31
0.0
  0
LINE
  5
E6
  8
DIMNSIONS
 62
     7
 10
100.22121252078711
 20
-300.09999999999991
 30
0.0
 11
100.22121252078711
 21
-99.899999999999963
 31
0.0
  0
LINE
  5
E7
  8
DIMNSIONS
 62
     7
 10
100.22121252078711
 20
-300.09999999999991
 30
0.0
 11
93.520814569284681
 21
-275.09377441406241
 31
0.0
  0
LINE
  5
E8
  8
DIMNSIONS
 62
     7
 10
100.22121252078711
 20
-300.09999999999991
 30
0.0
 11
106.9216104722895
 21
-275.09377441406241
 31
0.0
  0
LINE
  5
E9
  8
DIMNSIONS
 62
     7
 10
100.22121252078711
 20
-99.899999999999963
 30
0.0
 11
106.9216104722895
 21
-124.90622558593741
 31
0.0
  0
LINE
  5
EA
  8
DIMNSIONS
 62
     7
 10
100.22121252078711
 20
-99.899999999999963
 30
0.0
 11
93.520814569284724
 21
-124.90622558593741
 31
0.0
  0
TEXT
  5
EB
  8
DIMNSIONS
 62
     7
 10
89.415656965231591
 20
-244.0972222222222
 30
0.0
 40
28.222222222222229
  1
200.2
 50
90.0
 41
0.7
 11
61.193434743009362
 21
-244.0972222222222
 31
0.0
 73
     3
  0
LINE
  5
EC
  8
DIMNSIONS
 62
     7
 10
199.81413395599969
 20
-317.5
 30
0.0
 11
199.81413395599969
 21
-470.0
 31
0.0
  0
LINE
  5
ED
  8
DIMNSIONS
 62
     7
 10
800.18586604399991
 20
-317.5
 30
0.0
 11
800.18586604399991
 21
-470.0
 31
0.0
  0
LINE
  5
EE
  8
DIMNSIONS
 62
     7
 10
199.81413395599969
 20
-450.0
 30
0.0
 11
800.18586604399991
 21
-450.0
 31
0.0
  0
LINE
  5
EF
  8
DIMNSIONS
 62
     7
 10
199.81413395599969
 20
-450.0
 30
0.0
 11
224.82035954193731
 21
-443.2996020484976
 31
0.0
  0
LINE
  5
F0
  8
DIMNSIONS
 62
     7
 10
199.81413395599969
 20
-450.0
 30
0.0
 11
224.82035954193731
 21
-456.7003979515024
 31
0.0
  0
LINE
  5
F1
  8
DIMNSIONS
 62
     7
 10
800.18586604399991
 20
-450.0
 30
0.0
 11
775.17964045806218
 21
-456.7003979515024
 31
0.0
  0
LINE
  5
F2
  8
DIMNSIONS
 62
     7
 10
800.18586604399991
 20
-450.0
 30
0.0
 11
775.17964045806218
 21
-443.2996020484976
 31
0.0
  0
TEXT
  5
F3
  8
DIMNSIONS
 62
     7
 10
455.90277777777749
 20
-439.19444444444417
 30
0.0
 40
28.222222222222229
  1
600.4
 41
0.7
 11
455.90277777777749
 21
-410.972222222222
 31
0.0
 73
     3
  0
LINE
  5
F4
  8
DIMNSIONS
 62
     7
 10
182.4141339559998
 20
456.0999999999994
 30
0.0
 11
129.9999999999998
 21
456.0999999999994
 31
0.0
  0
LINE
  5
F5
  8
DIMNSIONS
 62
     7
 10
179.81413395600001
 20
147.5
 30
0.0
 11
129.9999999999998
 21
147.5
 31
0.0
  0
LINE
  5
F6
  8
DIMNSIONS
 62
     7
 10
149.9999999999998
 20
456.0999999999994
 30
0.0
 11
149.9999999999998
 21
147.5
 31
0.0
  0
LINE
  5
F7
  8
DIMNSIONS
 62
     7
 10
149.9999999999998
 20
456.0999999999994
 30
0.0
 11
156.70039795150231
 21
431.0937744140619
 31
0.0
  0
LINE
  5
F8
  8
DIMNSIONS
 62
     7
 10
149.9999999999998
 20
456.0999999999994
 30
0.0
 11
143.29960204849741
 21
431.0937744140619
 31
0.0
  0
LINE
  5
F9
  8
DIMNSIONS
 62
     7
 10
149.9999999999998
 20
147.5
 30
0.0
 11
143.29960204849741
 21
172.5062255859375
 31
0.0
  0
LINE
  5
FA
  8
DIMNSIONS
 62
     7
 10
149.9999999999998
 20
147.5
 30
0.0
 11
156.70039795150231
 21
172.5062255859375
 31
0.0
  0
TEXT
  5
FB
  8
DIMNSIONS
 62
     7
 10
139.19444444444429
 20
257.70277777777761
 30
0.0
 40
28.222222222222229
  1
308.6
 50
90.0
 41
0.7
 11
110.9722222222221
 21
257.70277777777761
 31
0.0
 73
     3
  0
LINE
  5
FC
  8
DIMNSIONS
 62
     7
 10
231.37366315143021
 20
-288.85319207536628
 30
0.0
 11
250.0
 21
-375.0
 31
0.0
  0
LINE
  5
FD
  8
DIMNSIONS
 62
     7
 10
231.37366315143021
 20
-288.85319207536628
 30
0.0
 11
243.1267279741966
 21
-311.9198805684108
 31
0.0
  0
LINE
  5
FE
  8
DIMNSIONS
 62
     7
 10
231.37366315143021
 20
-288.85319207536628
 30
0.0
 11
230.0187716137489
 21
-314.7060627029083
 31
0.0
  0
LINE
  5
FF
  8
DIMNSIONS
 62
     7
 10
250.0
 20
-375.0
 30
0.0
 11
375.83333333333331
 21
-375.0
 31
0.0
  0
TEXT
  5
100
  8
DIMNSIONS
 62
     7
 10
270.0
 20
-364.1944444444444
 30
0.0
 40
28.222222222222229
  1
4-\U+03C613
 41
0.7
 11
270.0
 21
-335.97222222222217
 31
0.0
 73
     3
  0
LINE
  5
101
  8
DIMNSIONS
 62
     7
 10
367.50327908345628
 20
-286.35922192032882
 30
0.0
 11
425.0
 21
-375.0
 31
0.0
  0
LINE
  5
102
  8
DIMNSIONS
 62
     7
 10
367.50327908345628
 20
-286.35922192032882
 30
0.0
 11
386.43681947346801
 21
-304.01503396801138
 31
0.0
  0
LINE
  5
103
  8
DIMNSIONS
 62
     7
 10
367.50327908345628
 20
-286.35922192032882
 30
0.0
 11
375.07230002094383
 21
-311.11637387307121
 31
0.0
  0
LINE
  5
104
  8
DIMNSIONS
 62
     7
 10
425.0
 20
-375.0
 30
0.0
 11
586.11111111111086
 21
-375.0
 31
0.0
  0
TEXT
  5
105
  8
DIMNSIONS
 62
     7
 10
445.0
 20
-364.1944444444444
 30
0.0
 40
28.222222222222229
  1
10-\U+03C69.2
 41
0.7
 11
445.0
 21
-335.97222222222217
 31
0.0
 73
     3
  0
LINE
  5
106
  8
DIMNSIONS
 62
     7
 10
-300.0
 20
-400.0
 30
0.0
 11
0.0
 21
-400.0
 31
0.0
  0
TEXT
  5
107
  8
DIMNSIONS
 62
     7
 10
-275.0
 20
-387.70000000000022
 30
0.0
 40
28.222222222222229
  1
角度固定ねじ
 41
0.7
  0
TEXT
  5
108
  8
DIMNSIONS
 62
     7
 10
-275.0
 20
-437.69999999999987
 30
0.0
 40
28.222222222222229
  1
Ｍ６→Ｍ５変更
 41
0.7
  0
LINE
  5
109
  8
DIMNSIONS
 62
     7
 10
740.18586604400014
 20
-250.0
 30
0.0
 11
259.81413395599969
 21
-250.0
 31
0.0
  0
LINE
  5
10A
  8
DIMNSIONS
 62
     7
 10
740.18586604400014
 20
-250.0
 30
0.0
 11
715.17964045806275
 21
-256.70039795150251
 31
0.0
  0
LINE
  5
10B
  8
DIMNSIONS
 62
     7
 10
740.18586604400014
 20
-250.0
 30
0.0
 11
715.17964045806275
 21
-243.2996020484976
 31
0.0
  0
LINE
  5
10C
  8
DIMNSIONS
 62
     7
 10
259.81413395599969
 20
-250.0
 30
0.0
 11
284.82035954193731
 21
-243.2996020484976
 31
0.0
  0
LINE
  5
10D
  8
DIMNSIONS
 62
     7
 10
259.81413395599969
 20
-250.0
 30
0.0
 11
284.82035954193731
 21
-256.70039795150251
 31
0.0
  0
TEXT
  5
10E
  8
DIMNSIONS
 62
     7
 10
473.54166666666652
 20
-239.1944444444444
 30
0.0
 40
28.222222222222229
  1
480
 41
0.7
 11
473.54166666666652
 21
-210.9722222222222
 31
0.0
 73
     3
  0
TEXT
  5
10F
  8
DIMNSIONS
 62
     7
 10
464.72222222222217
 20
-189.99305555555549
 30
0.0
 40
28.222222222222229
  1
抜き
 41
0.7
 11
464.72222222222217
 21
-161.77083333333329
 31
0.0
 73
     3
  0
TEXT
  5
110
  8
DATA
 62
     7
 10
-699.99999999999989
 20
-1084.563664999999
 30
0.0
 40
16.93333333333333
  1
仕様および外観は予告なく変更されることがありますので、ご了承ください。
 41
0.7
 11
-699.99999999999989
 21
-1067.6303316666661
 31
0.0
 73
     3
  0
TEXT
  5
111
  8
DATA
 62
     7
 10
599.99999999999989
 20
-996.2505219024016
 30
0.0
 40
25.399999999999999
  1
(CONTROL 30 壁用)
 41
0.7
 11
599.99999999999989
 21
-970.85052190240174
 31
0.0
 73
     3
  0
TEXT
  5
112
  8
DATA
 62
     7
 10
599.99999999999989
 20
-942.49976499999991
 30
0.0
 40
25.399999999999999
  1
JBL-30-1
 41
0.7
 11
599.99999999999989
 21
-917.09976500000005
 31
0.0
 73
     3
  0
TEXT
  5
113
  8
DATA
 62
     7
 10
358.88888888888891
 20
814.41666666666629
 30
0.0
 40
28.222222222222229
  1
金具取付け面(壁)
 41
0.7
 11
358.88888888888891
 21
842.63888888888869
 31
0.0
 73
     3
  0
LINE
  5
114
  8
DATA
 62
     7
 10
350.0
 20
800.0
 30
0.0
 11
650.0
 21
800.0
 31
0.0
  0
ARC
  5
115
  8
DATA
 62
     7
 10
269.81413395599981
 20
-250.0
 30
0.0
 40
10.0
 50
180.0
 51
270.0
  0
LINE
  5
116
  8
DATA
 62
     7
 10
259.81413395599969
 20
-250.0
 30
0.0
 11
259.81413395599969
 21
-150.0
 31
0.0
  0
ARC
  5
117
  8
DATA
 62
     7
 10
269.81413395599981
 20
-150.0
 30
0.0
 40
10.0
 50
90.0
 51
180.0
  0
ARC
  5
118
  8
DATA
 62
     7
 10
730.18586604400014
 20
-250.0
 30
0.0
 40
10.0
 50
270.0
 51
0.0
  0
LINE
  5
119
  8
DATA
 62
     7
 10
740.18586604400014
 20
-250.0
 30
0.0
 11
740.18586604400014
 21
-150.0
 31
0.0
  0
ARC
  5
11A
  8
DATA
 62
     7
 10
730.18586604400014
 20
-150.0
 30
0.0
 40
10.0
 50
0.0
 51
90.0
  0
LINE
  5
11B
  8
DATA
 62
     7
 10
269.81413395599981
 20
-260.0
 30
0.0
 11
730.18586604400014
 21
-260.0
 31
0.0
  0
LINE
  5
11C
  8
DATA
 62
     7
 10
269.81413395599981
 20
-140.0
 30
0.0
 11
730.18586604400014
 21
-140.0
 31
0.0
  0
LINE
  5
11D
  8
DATA
 62
     7
 10
224.4499999999997
 20
-182.499995735
 30
0.0
 11
229.4499999999997
 21
-182.499995735
 31
0.0
  0
LINE
  5
11E
  8
DATA
 62
     7
 10
224.4499999999997
 20
-182.499995735
 30
0.0
 11
234.4499999999997
 21
-172.49999573499991
 31
0.0
  0
LINE
  5
11F
  8
DATA
 62
     7
 10
229.4499999999997
 20
-187.499995735
 30
0.0
 11
229.4499999999997
 21
-182.499995735
 31
0.0
  0
LINE
  5
120
  8
DATA
 62
     7
 10
234.4499999999997
 20
-172.49999573499991
 30
0.0
 11
244.4499999999997
 21
-182.499995735
 31
0.0
  0
LINE
  5
121
  8
DATA
 62
     7
 10
239.4499999999997
 20
-187.499995735
 30
0.0
 11
239.4499999999997
 21
-182.499995735
 31
0.0
  0
LINE
  5
122
  8
DATA
 62
     7
 10
239.4499999999997
 20
-182.499995735
 30
0.0
 11
244.4499999999997
 21
-182.499995735
 31
0.0
  0
LINE
  5
123
  8
DATA
 62
     7
 10
229.4499999999997
 20
-187.499995735
 30
0.0
 11
239.4499999999997
 21
-187.499995735
 31
0.0
  0
LINE
  5
124
  8
DATA
 62
     7
 10
246.4324218749997
 20
-156.78124573499991
 30
0.0
 11
246.4324218749997
 21
-164.39843323499991
 31
0.0
  0
LINE
  5
125
  8
DATA
 62
     7
 10
237.9949218749997
 20
-164.39843323499991
 30
0.0
 11
237.9949218749997
 21
-156.78124573499991
 31
0.0
  0
LINE
  5
126
  8
DATA
 62
     7
 10
230.9050781249997
 20
-156.78124573499991
 30
0.0
 11
230.9050781249997
 21
-168.49999573499991
 31
0.0
  0
LINE
  5
127
  8
DATA
 62
     7
 10
225.6316406249997
 20
-156.78124573499991
 30
0.0
 11
229.9050781249997
 21
-156.78124573499991
 31
0.0
  0
LINE
  5
128
  8
DATA
 62
     7
 10
229.9050781249997
 20
-163.22655823499991
 30
0.0
 11
225.6316406249997
 21
-163.22655823499991
 31
0.0
  0
POLYLINE
  5
129
  8
DATA
 62
     7
 66
     1
 10
0.0
 20
0.0
 30
0.0
 70
   128
  0
VERTEX
  5
614
  8
DATA
 62
     7
 10
225.6316406249984
 20
-163.2265582349998
 30
0.0
 42
-0.0243765489994896
  0
VERTEX
  5
615
  8
DATA
 62
     7
 10
225.3775915949995
 20
-163.18706042199989
 30
0.0
  0
VERTEX
  5
616
  8
DATA
 62
     7
 10
225.3775915949995
 20
-163.18706042199989
 30
0.0
  0
VERTEX
  5
617
  8
DATA
 62
     7
 10
225.3775915949995
 20
-163.18706042199989
 30
0.0
 42
-0.0242086420002845
  0
VERTEX
  5
618
  8
DATA
 62
     7
 10
225.1276540959997
 20
-163.12288647699981
 30
0.0
  0
VERTEX
  5
619
  8
DATA
 62
     7
 10
225.1276540959997
 20
-163.12288647699981
 30
0.0
  0
VERTEX
  5
61A
  8
DATA
 62
     7
 10
225.1276540959993
 20
-163.12288647699981
 30
0.0
 42
-0.0239653980000117
  0
VERTEX
  5
61B
  8
DATA
 62
     7
 10
224.88376566699981
 20
-163.03453388200001
 30
0.0
  0
VERTEX
  5
61C
  8
DATA
 62
     7
 10
224.88376566699981
 20
-163.03453388200001
 30
0.0
  0
VERTEX
  5
61D
  8
DATA
 62
     7
 10
224.88376566699981
 20
-163.03453388200001
 30
0.0
 42
-0.0236586450002883
  0
VERTEX
  5
61E
  8
DATA
 62
     7
 10
224.6478169519996
 20
-162.9226875549999
 30
0.0
  0
VERTEX
  5
61F
  8
DATA
 62
     7
 10
224.6478169519996
 20
-162.9226875549999
 30
0.0
  0
VERTEX
  5
620
  8
DATA
 62
     7
 10
224.6478169519969
 20
-162.9226875549985
 30
0.0
 42
-0.0233024819993844
  0
VERTEX
  5
621
  8
DATA
 62
     7
 10
224.4216370489998
 20
-162.78821453899999
 30
0.0
  0
VERTEX
  5
622
  8
DATA
 62
     7
 10
224.4216370489998
 20
-162.78821453899999
 30
0.0
  0
VERTEX
  5
623
  8
DATA
 62
     7
 10
224.42163704899721
 20
-162.7882145389982
 30
0.0
 42
-0.0229121639995482
  0
VERTEX
  5
624
  8
DATA
 62
     7
 10
224.2069793219998
 20
-162.63215728
 30
0.0
  0
VERTEX
  5
625
  8
DATA
 62
     7
 10
224.2069793219998
 20
-162.63215728
 30
0.0
  0
VERTEX
  5
626
  8
DATA
 62
     7
 10
224.206979321999
 20
-162.6321572799994
 30
0.0
 42
-0.0225030649997471
  0
VERTEX
  5
627
  8
DATA
 62
     7
 10
224.00550781999971
 20
-162.45572554899999
 30
0.0
  0
VERTEX
  5
628
  8
DATA
 62
     7
 10
224.00550781999971
 20
-162.45572554899999
 30
0.0
  0
VERTEX
  5
629
  8
DATA
 62
     7
 10
224.00550781999971
 20
-162.45572554899999
 30
0.0
 42
-0.0220898390002621
  0
VERTEX
  5
62A
  8
DATA
 62
     7
 10
223.81878436699981
 20
-162.26028706
 30
0.0
  0
VERTEX
  5
62B
  8
DATA
 62
     7
 10
223.81878436699981
 20
-162.26028706
 30
0.0
  0
VERTEX
  5
62C
  8
DATA
 62
     7
 10
223.81878436699739
 20
-162.26028705999721
 30
0.0
 42
-0.0216858179994201
  0
VERTEX
  5
62D
  8
DATA
 62
     7
 10
223.6482564589997
 20
-162.0473568699999
 30
0.0
  0
VERTEX
  5
62E
  8
DATA
 62
     7
 10
223.6482564589997
 20
-162.0473568699999
 30
0.0
  0
VERTEX
  5
62F
  8
DATA
 62
     7
 10
223.64825645899731
 20
-162.0473568699968
 30
0.0
 42
-0.0213026569992652
  0
VERTEX
  5
630
  8
DATA
 62
     7
 10
223.49524604599989
 20
-161.81858563399999
 30
0.0
  0
VERTEX
  5
631
  8
DATA
 62
     7
 10
223.49524604599989
 20
-161.81858563399999
 30
0.0
  0
VERTEX
  5
632
  8
DATA
 62
     7
 10
223.49524604599929
 20
-161.81858563399891
 30
0.0
 42
-0.0209501919998491
  0
VERTEX
  5
633
  8
DATA
 62
     7
 10
223.360939277
 20
-161.57574680499999
 30
0.0
  0
VERTEX
  5
634
  8
DATA
 62
     7
 10
223.360939277
 20
-161.57574680499999
 30
0.0
  0
VERTEX
  5
635
  8
DATA
 62
     7
 10
223.360939277
 20
-161.57574680499999
 30
0.0
 42
-0.0206364630009188
  0
VERTEX
  5
636
  8
DATA
 62
     7
 10
223.2463773099997
 20
-161.320722894
 30
0.0
  0
VERTEX
  5
637
  8
DATA
 62
     7
 10
223.2463773099997
 20
-161.320722894
 30
0.0
  0
VERTEX
  5
638
  8
DATA
 62
     7
 10
223.2463773099997
 20
-161.320722894
 30
0.0
 42
-0.0203678370003059
  0
VERTEX
  5
639
  8
DATA
 62
     7
 10
223.15244824099941
 20
-161.05549086799999
 30
0.0
  0
VERTEX
  5
63A
  8
DATA
 62
     7
 10
223.15244824099941
 20
-161.05549086799999
 30
0.0
  0
VERTEX
  5
63B
  8
DATA
 62
     7
 10
223.15244824099869
 20
-161.05549086799741
 30
0.0
 42
-0.0201491929993956
  0
VERTEX
  5
63C
  8
DATA
 62
     7
 10
223.07988021599979
 20
-160.78210683
 30
0.0
  0
VERTEX
  5
63D
  8
DATA
 62
     7
 10
223.07988021599979
 20
-160.78210683
 30
0.0
  0
VERTEX
  5
63E
  8
DATA
 62
     7
 10
223.079880215999
 20
-160.78210682999631
 30
0.0
 42
-0.019984125999544
  0
VERTEX
  5
63F
  8
DATA
 62
     7
 10
223.0292357879998
 20
-160.50269007700001
 30
0.0
  0
VERTEX
  5
640
  8
DATA
 62
     7
 10
223.0292357879998
 20
-160.50269007700001
 30
0.0
  0
SEQEND
  5
641
  8
DATA
 62
     7
  0
POLYLINE
  5
158
  8
DATA
 62
     7
 66
     1
 10
0.0
 20
0.0
 30
0.0
 70
   128
  0
VERTEX
  5
642
  8
DATA
 62
     7
 10
223.0292357879998
 20
-159.50511389099981
 30
0.0
 42
-0.0199515440007549
  0
VERTEX
  5
643
  8
DATA
 62
     7
 10
223.07988021599979
 20
-159.225697139
 30
0.0
  0
VERTEX
  5
644
  8
DATA
 62
     7
 10
223.07988021599979
 20
-159.225697139
 30
0.0
  0
VERTEX
  5
645
  8
DATA
 62
     7
 10
223.0798802160009
 20
-159.2256971389948
 30
0.0
 42
-0.0201027889993747
  0
VERTEX
  5
646
  8
DATA
 62
     7
 10
223.15244824099941
 20
-158.9523131009999
 30
0.0
  0
VERTEX
  5
647
  8
DATA
 62
     7
 10
223.15244824099941
 20
-158.9523131009999
 30
0.0
  0
VERTEX
  5
648
  8
DATA
 62
     7
 10
223.15244824099941
 20
-158.9523131009999
 30
0.0
 42
-0.0203083290001763
  0
VERTEX
  5
649
  8
DATA
 62
     7
 10
223.2463773109998
 20
-158.6870810749999
 30
0.0
  0
VERTEX
  5
64A
  8
DATA
 62
     7
 10
223.2463773109998
 20
-158.6870810749999
 30
0.0
  0
VERTEX
  5
64B
  8
DATA
 62
     7
 10
223.2463773109998
 20
-158.6870810749999
 30
0.0
 42
-0.0205648640002085
  0
VERTEX
  5
64C
  8
DATA
 62
     7
 10
223.360939277
 20
-158.4320571639999
 30
0.0
  0
VERTEX
  5
64D
  8
DATA
 62
     7
 10
223.360939277
 20
-158.4320571639999
 30
0.0
  0
VERTEX
  5
64E
  8
DATA
 62
     7
 10
223.36093927700031
 20
-158.43205716399919
 30
0.0
 42
-0.0208678529997356
  0
VERTEX
  5
64F
  8
DATA
 62
     7
 10
223.49524604599989
 20
-158.18921833499991
 30
0.0
  0
VERTEX
  5
650
  8
DATA
 62
     7
 10
223.49524604599989
 20
-158.18921833499991
 30
0.0
  0
VERTEX
  5
651
  8
DATA
 62
     7
 10
223.49524604600211
 20
-158.18921833499641
 30
0.0
 42
-0.0212113189992606
  0
VERTEX
  5
652
  8
DATA
 62
     7
 10
223.6482564599996
 20
-157.96044709899999
 30
0.0
  0
VERTEX
  5
653
  8
DATA
 62
     7
 10
223.6482564599996
 20
-157.96044709899999
 30
0.0
  0
VERTEX
  5
654
  8
DATA
 62
     7
 10
223.6482564600004
 20
-157.96044709899891
 30
0.0
 42
-0.0215876559997283
  0
VERTEX
  5
655
  8
DATA
 62
     7
 10
223.81878436699981
 20
-157.7475169089999
 30
0.0
  0
VERTEX
  5
656
  8
DATA
 62
     7
 10
223.81878436699981
 20
-157.7475169089999
 30
0.0
  0
VERTEX
  5
657
  8
DATA
 62
     7
 10
223.81878436699981
 20
-157.7475169089999
 30
0.0
 42
-0.0219874850001129
  0
VERTEX
  5
658
  8
DATA
 62
     7
 10
224.00550782099981
 20
-157.5520784199999
 30
0.0
  0
VERTEX
  5
659
  8
DATA
 62
     7
 10
224.00550782099981
 20
-157.5520784199999
 30
0.0
  0
VERTEX
  5
65A
  8
DATA
 62
     7
 10
224.00550782099981
 20
-157.5520784199999
 30
0.0
 42
-0.022399598000305
  0
VERTEX
  5
65B
  8
DATA
 62
     7
 10
224.20697932299981
 20
-157.37564668899989
 30
0.0
  0
VERTEX
  5
65C
  8
DATA
 62
     7
 10
224.20697932299981
 20
-157.37564668899989
 30
0.0
  0
VERTEX
  5
65D
  8
DATA
 62
     7
 10
224.20697932300149
 20
-157.37564668899859
 30
0.0
 42
-0.0228110599996762
  0
VERTEX
  5
65E
  8
DATA
 62
     7
 10
224.4216370489998
 20
-157.2195894309998
 30
0.0
  0
VERTEX
  5
65F
  8
DATA
 62
     7
 10
224.4216370489998
 20
-157.2195894309998
 30
0.0
  0
VERTEX
  5
660
  8
DATA
 62
     7
 10
224.4216370489998
 20
-157.2195894309998
 30
0.0
 42
-0.0232074989999658
  0
VERTEX
  5
661
  8
DATA
 62
     7
 10
224.64781695299959
 20
-157.085116414
 30
0.0
  0
VERTEX
  5
662
  8
DATA
 62
     7
 10
224.64781695299959
 20
-157.085116414
 30
0.0
  0
VERTEX
  5
663
  8
DATA
 62
     7
 10
224.64781695299959
 20
-157.085116414
 30
0.0
 42
-0.0235736520000242
  0
VERTEX
  5
664
  8
DATA
 62
     7
 10
224.88376566699981
 20
-156.97327008799991
 30
0.0
  0
VERTEX
  5
665
  8
DATA
 62
     7
 10
224.88376566699981
 20
-156.97327008799991
 30
0.0
  0
VERTEX
  5
666
  8
DATA
 62
     7
 10
224.88376566700299
 20
-156.9732700879986
 30
0.0
 42
-0.0238941429995278
  0
VERTEX
  5
667
  8
DATA
 62
     7
 10
225.1276540959997
 20
-156.88491749299999
 30
0.0
  0
VERTEX
  5
668
  8
DATA
 62
     7
 10
225.1276540959997
 20
-156.88491749299999
 30
0.0
  0
VERTEX
  5
669
  8
DATA
 62
     7
 10
225.1276540960005
 20
-156.8849174929997
 30
0.0
 42
-0.0241544809998604
  0
VERTEX
  5
66A
  8
DATA
 62
     7
 10
225.3775915949995
 20
-156.820743548
 30
0.0
  0
VERTEX
  5
66B
  8
DATA
 62
     7
 10
225.3775915949995
 20
-156.820743548
 30
0.0
  0
VERTEX
  5
66C
  8
DATA
 62
     7
 10
225.3775915949995
 20
-156.820743548
 30
0.0
 42
-0.0243421660001115
  0
VERTEX
  5
66D
  8
DATA
 62
     7
 10
225.6316406249997
 20
-156.78124573499991
 30
0.0
  0
VERTEX
  5
66E
  8
DATA
 62
     7
 10
225.6316406249997
 20
-156.78124573499991
 30
0.0
  0
SEQEND
  5
66F
  8
DATA
 62
     7
  0
POLYLINE
  5
187
  8
DATA
 62
     7
 66
     1
 10
0.0
 20
0.0
 30
0.0
 70
   128
  0
VERTEX
  5
670
  8
DATA
 62
     7
 10
246.43242187499891
 20
-164.39843323500739
 30
0.0
 42
-0.0199078939993498
  0
VERTEX
  5
671
  8
DATA
 62
     7
 10
246.3664335979997
 20
-164.8080063139999
 30
0.0
  0
VERTEX
  5
672
  8
DATA
 62
     7
 10
246.3664335979997
 20
-164.8080063139999
 30
0.0
  0
VERTEX
  5
673
  8
DATA
 62
     7
 10
246.3664335979995
 20
-164.8080063140012
 30
0.0
 42
-0.0200452239997522
  0
VERTEX
  5
674
  8
DATA
 62
     7
 10
246.2683016219998
 20
-165.20954987099981
 30
0.0
  0
VERTEX
  5
675
  8
DATA
 62
     7
 10
246.2683016219998
 20
-165.20954987099981
 30
0.0
  0
VERTEX
  5
676
  8
DATA
 62
     7
 10
246.2683016219998
 20
-165.20954987099981
 30
0.0
 42
-0.020237366999967
  0
VERTEX
  5
677
  8
DATA
 62
     7
 10
246.13878552200001
 20
-165.59995583099999
 30
0.0
  0
VERTEX
  5
678
  8
DATA
 62
     7
 10
246.13878552200001
 20
-165.59995583099999
 30
0.0
  0
VERTEX
  5
679
  8
DATA
 62
     7
 10
246.13878552200001
 20
-165.59995583099999
 30
0.0
 42
-0.0204813090001155
  0
VERTEX
  5
67A
  8
DATA
 62
     7
 10
245.97888779099961
 20
-165.976202328
 30
0.0
  0
VERTEX
  5
67B
  8
DATA
 62
     7
 10
245.97888779099961
 20
-165.976202328
 30
0.0
  0
VERTEX
  5
67C
  8
DATA
 62
     7
 10
245.97888779099961
 20
-165.976202328
 30
0.0
 42
-0.0207728450005331
  0
VERTEX
  5
67D
  8
DATA
 62
     7
 10
245.78984609099959
 20
-166.33537709399999
 30
0.0
  0
VERTEX
  5
67E
  8
DATA
 62
     7
 10
245.78984609099959
 20
-166.33537709399999
 30
0.0
  0
VERTEX
  5
67F
  8
DATA
 62
     7
 10
245.78984609099959
 20
-166.33537709399999
 30
0.0
 42
-0.0211063900003263
  0
VERTEX
  5
680
  8
DATA
 62
     7
 10
245.5731236629999
 20
-166.67470000099991
 30
0.0
  0
VERTEX
  5
681
  8
DATA
 62
     7
 10
245.5731236629999
 20
-166.67470000099991
 30
0.0
  0
VERTEX
  5
682
  8
DATA
 62
     7
 10
245.57312366299891
 20
-166.67470000100141
 30
0.0
 42
-0.0214747809997888
  0
VERTEX
  5
683
  8
DATA
 62
     7
 10
245.33039800899999
 20
-166.99154458299989
 30
0.0
  0
VERTEX
  5
684
  8
DATA
 62
     7
 10
245.33039800899999
 20
-166.99154458299989
 30
0.0
  0
VERTEX
  5
685
  8
DATA
 62
     7
 10
245.33039800899999
 20
-166.99154458299989
 30
0.0
 42
-0.0218691170000863
  0
VERTEX
  5
686
  8
DATA
 62
     7
 10
245.06354790199981
 20
-167.2834583609999
 30
0.0
  0
VERTEX
  5
687
  8
DATA
 62
     7
 10
245.06354790199981
 20
-167.2834583609999
 30
0.0
  0
VERTEX
  5
688
  8
DATA
 62
     7
 10
245.06354790199779
 20
-167.28345836100181
 30
0.0
 42
-0.022278678999625
  0
VERTEX
  5
689
  8
DATA
 62
     7
 10
244.77463884599959
 20
-167.54818183099991
 30
0.0
  0
VERTEX
  5
68A
  8
DATA
 62
     7
 10
244.77463884599959
 20
-167.54818183099991
 30
0.0
  0
VERTEX
  5
68B
  8
DATA
 62
     7
 10
244.77463884599791
 20
-167.54818183100139
 30
0.0
 42
-0.0226909799997081
  0
VERTEX
  5
68C
  8
DATA
 62
     7
 10
244.46590709099979
 20
-167.7836659469998
 30
0.0
  0
VERTEX
  5
68D
  8
DATA
 62
     7
 10
244.46590709099979
 20
-167.7836659469998
 30
0.0
  0
VERTEX
  5
68E
  8
DATA
 62
     7
 10
244.46590709099891
 20
-167.7836659470004
 30
0.0
 42
-0.0230920159998282
  0
VERTEX
  5
68F
  8
DATA
 62
     7
 10
244.13974231899971
 20
-167.9880879879999
 30
0.0
  0
VERTEX
  5
690
  8
DATA
 62
     7
 10
244.13974231899971
 20
-167.9880879879999
 30
0.0
  0
VERTEX
  5
691
  8
DATA
 62
     7
 10
244.13974231899971
 20
-167.9880879879999
 30
0.0
 42
-0.0234667270001266
  0
VERTEX
  5
692
  8
DATA
 62
     7
 10
243.7986691469996
 20
-168.15986566300001
 30
0.0
  0
VERTEX
  5
693
  8
DATA
 62
     7
 10
243.7986691469996
 20
-168.15986566300001
 30
0.0
  0
VERTEX
  5
694
  8
DATA
 62
     7
 10
243.7986691469994
 20
-168.15986566300009
 30
0.0
 42
-0.0237997269998839
  0
VERTEX
  5
695
  8
DATA
 62
     7
 10
243.44532759200001
 20
-168.29766935699999
 30
0.0
  0
VERTEX
  5
696
  8
DATA
 62
     7
 10
243.44532759200001
 20
-168.29766935699999
 30
0.0
  0
VERTEX
  5
697
  8
DATA
 62
     7
 10
243.44532759199981
 20
-168.2976693570001
 30
0.0
 42
-0.0240762409998636
  0
VERTEX
  5
698
  8
DATA
 62
     7
 10
243.08245262999981
 20
-168.40043242499991
 30
0.0
  0
VERTEX
  5
699
  8
DATA
 62
     7
 10
243.08245262999981
 20
-168.40043242499991
 30
0.0
  0
VERTEX
  5
69A
  8
DATA
 62
     7
 10
243.08245262999901
 20
-168.4004324250001
 30
0.0
 42
-0.0242831960000349
  0
VERTEX
  5
69B
  8
DATA
 62
     7
 10
242.7128530279997
 20
-168.46735945
 30
0.0
  0
VERTEX
  5
69C
  8
DATA
 62
     7
 10
242.7128530279997
 20
-168.46735945
 30
0.0
  0
SEQEND
  5
69D
  8
DATA
 62
     7
  0
POLYLINE
  5
1B6
  8
DATA
 62
     7
 66
     1
 10
0.0
 20
0.0
 30
0.0
 70
   128
  0
VERTEX
  5
69E
  8
DATA
 62
     7
 10
241.7144907219994
 20
-168.4673594499998
 30
0.0
 42
-0.0243227860000172
  0
VERTEX
  5
69F
  8
DATA
 62
     7
 10
241.3448911199998
 20
-168.40043242499991
 30
0.0
  0
VERTEX
  5
6A0
  8
DATA
 62
     7
 10
241.3448911199998
 20
-168.40043242499991
 30
0.0
  0
VERTEX
  5
6A1
  8
DATA
 62
     7
 10
241.3448911199998
 20
-168.40043242499991
 30
0.0
 42
-0.0241349580002977
  0
VERTEX
  5
6A2
  8
DATA
 62
     7
 10
240.9820161579996
 20
-168.29766935699999
 30
0.0
  0
VERTEX
  5
6A3
  8
DATA
 62
     7
 10
240.9820161579996
 20
-168.29766935699999
 30
0.0
  0
VERTEX
  5
6A4
  8
DATA
 62
     7
 10
240.9820161579982
 20
-168.29766935699951
 30
0.0
 42
-0.0238746989999168
  0
VERTEX
  5
6A5
  8
DATA
 62
     7
 10
240.62867460299961
 20
-168.15986566300001
 30
0.0
  0
VERTEX
  5
6A6
  8
DATA
 62
     7
 10
240.62867460299961
 20
-168.15986566300001
 30
0.0
  0
VERTEX
  5
6A7
  8
DATA
 62
     7
 10
240.62867460299961
 20
-168.15986566300001
 30
0.0
 42
-0.023554482999986
  0
VERTEX
  5
6A8
  8
DATA
 62
     7
 10
240.28760143100001
 20
-167.9880879879999
 30
0.0
  0
VERTEX
  5
6A9
  8
DATA
 62
     7
 10
240.28760143100001
 20
-167.9880879879999
 30
0.0
  0
VERTEX
  5
6AA
  8
DATA
 62
     7
 10
240.28760143100001
 20
-167.9880879879999
 30
0.0
 42
-0.0231887640001353
  0
VERTEX
  5
6AB
  8
DATA
 62
     7
 10
239.9614366589999
 20
-167.7836659469998
 30
0.0
  0
VERTEX
  5
6AC
  8
DATA
 62
     7
 10
239.9614366589999
 20
-167.7836659469998
 30
0.0
  0
VERTEX
  5
6AD
  8
DATA
 62
     7
 10
239.9614366589972
 20
-167.7836659469981
 30
0.0
 42
-0.0227928699996096
  0
VERTEX
  5
6AE
  8
DATA
 62
     7
 10
239.65270490399959
 20
-167.54818183099991
 30
0.0
  0
VERTEX
  5
6AF
  8
DATA
 62
     7
 10
239.65270490399959
 20
-167.54818183099991
 30
0.0
  0
VERTEX
  5
6B0
  8
DATA
 62
     7
 10
239.65270490399959
 20
-167.54818183099991
 30
0.0
 42
-0.022382021000053
  0
VERTEX
  5
6B1
  8
DATA
 62
     7
 10
239.36379584799991
 20
-167.2834583609999
 30
0.0
  0
VERTEX
  5
6B2
  8
DATA
 62
     7
 10
239.36379584799991
 20
-167.2834583609999
 30
0.0
  0
VERTEX
  5
6B3
  8
DATA
 62
     7
 10
239.36379584799991
 20
-167.2834583609999
 30
0.0
 42
-0.0219705390002911
  0
VERTEX
  5
6B4
  8
DATA
 62
     7
 10
239.0969457409997
 20
-166.99154458299989
 30
0.0
  0
VERTEX
  5
6B5
  8
DATA
 62
     7
 10
239.0969457409997
 20
-166.99154458299989
 30
0.0
  0
VERTEX
  5
6B6
  8
DATA
 62
     7
 10
239.09694574099751
 20
-166.99154458299739
 30
0.0
 42
-0.0215713209996269
  0
VERTEX
  5
6B7
  8
DATA
 62
     7
 10
238.8542200869997
 20
-166.67470000099991
 30
0.0
  0
VERTEX
  5
6B8
  8
DATA
 62
     7
 10
238.8542200869997
 20
-166.67470000099991
 30
0.0
  0
VERTEX
  5
6B9
  8
DATA
 62
     7
 10
238.8542200869997
 20
-166.67470000099991
 30
0.0
 42
-0.0211955380000675
  0
VERTEX
  5
6BA
  8
DATA
 62
     7
 10
238.63749765899999
 20
-166.33537709399999
 30
0.0
  0
VERTEX
  5
6BB
  8
DATA
 62
     7
 10
238.63749765899999
 20
-166.33537709399999
 30
0.0
  0
VERTEX
  5
6BC
  8
DATA
 62
     7
 10
238.63749765899999
 20
-166.33537709399999
 30
0.0
 42
-0.0208525440003391
  0
VERTEX
  5
6BD
  8
DATA
 62
     7
 10
238.4484559589996
 20
-165.976202328
 30
0.0
  0
VERTEX
  5
6BE
  8
DATA
 62
     7
 10
238.4484559589996
 20
-165.976202328
 30
0.0
  0
VERTEX
  5
6BF
  8
DATA
 62
     7
 10
238.4484559589967
 20
-165.9762023279938
 30
0.0
 42
-0.0205499239993347
  0
VERTEX
  5
6C0
  8
DATA
 62
     7
 10
238.2885582279996
 20
-165.59995583099999
 30
0.0
  0
VERTEX
  5
6C1
  8
DATA
 62
     7
 10
238.2885582279996
 20
-165.59995583099999
 30
0.0
  0
VERTEX
  5
6C2
  8
DATA
 62
     7
 10
238.2885582279996
 20
-165.59995583099999
 30
0.0
 42
-0.0202936390004045
  0
VERTEX
  5
6C3
  8
DATA
 62
     7
 10
238.15904212799981
 20
-165.20954987099981
 30
0.0
  0
VERTEX
  5
6C4
  8
DATA
 62
     7
 10
238.15904212799981
 20
-165.20954987099981
 30
0.0
  0
VERTEX
  5
6C5
  8
DATA
 62
     7
 10
238.15904212799981
 20
-165.20954987099981
 30
0.0
 42
-0.0200882200001116
  0
VERTEX
  5
6C6
  8
DATA
 62
     7
 10
238.06091015199991
 20
-164.8080063139999
 30
0.0
  0
VERTEX
  5
6C7
  8
DATA
 62
     7
 10
238.06091015199991
 20
-164.8080063139999
 30
0.0
  0
VERTEX
  5
6C8
  8
DATA
 62
     7
 10
238.06091015199991
 20
-164.8080063139999
 30
0.0
 42
-0.0199369620005754
  0
VERTEX
  5
6C9
  8
DATA
 62
     7
 10
237.9949218749997
 20
-164.39843323499991
 30
0.0
  0
VERTEX
  5
6CA
  8
DATA
 62
     7
 10
237.9949218749997
 20
-164.39843323499991
 30
0.0
  0
SEQEND
  5
6CB
  8
DATA
 62
     7
  0
LINE
  5
1E5
  8
DATA
 62
     7
 10
259.81413395599969
 20
-215.18586604400019
 30
0.0
 11
334.99999999999898
 21
-140.0
 31
0.0
  0
LINE
  5
1E6
  8
DATA
 62
     7
 10
259.81413395599969
 20
-190.18586604399991
 30
0.0
 11
309.99999999999898
 21
-140.0
 31
0.0
  0
LINE
  5
1E7
  8
DATA
 62
     7
 10
259.81413395599969
 20
-165.1858660439996
 30
0.0
 11
284.99999999999898
 21
-140.0
 31
0.0
  0
LINE
  5
1E8
  8
DATA
 62
     7
 10
259.81413395599969
 20
-240.1858660439994
 30
0.0
 11
359.99999999999909
 21
-140.0
 31
0.0
  0
LINE
  5
1E9
  8
DATA
 62
     7
 10
265.82856423471372
 20
-259.17143576528582
 30
0.0
 11
384.9999999999992
 21
-140.0
 31
0.0
  0
LINE
  5
1EA
  8
DATA
 62
     7
 10
289.99999999999909
 20
-260.0
 30
0.0
 11
409.99999999999881
 21
-140.0
 31
0.0
  0
LINE
  5
1EB
  8
DATA
 62
     7
 10
314.99999999999909
 20
-260.0
 30
0.0
 11
434.99999999999881
 21
-140.0
 31
0.0
  0
LINE
  5
1EC
  8
DATA
 62
     7
 10
339.99999999999909
 20
-260.0
 30
0.0
 11
459.99999999999881
 21
-140.0
 31
0.0
  0
LINE
  5
1ED
  8
DATA
 62
     7
 10
364.99999999999909
 20
-260.0
 30
0.0
 11
460.0
 21
-164.99999999999909
 31
0.0
  0
LINE
  5
1EE
  8
DATA
 62
     7
 10
465.59027777777658
 20
-159.40972222222231
 30
0.0
 11
484.99999999999881
 21
-140.0
 31
0.0
  0
LINE
  5
1EF
  8
DATA
 62
     7
 10
389.99999999999909
 20
-260.0
 30
0.0
 11
460.0
 21
-189.9999999999992
 31
0.0
  0
LINE
  5
1F0
  8
DATA
 62
     7
 10
490.59027777777658
 20
-159.40972222222231
 30
0.0
 11
509.99999999999881
 21
-140.0
 31
0.0
  0
LINE
  5
1F1
  8
DATA
 62
     7
 10
414.99999999999892
 20
-260.0
 30
0.0
 11
465.0
 21
-209.99999999999909
 31
0.0
  0
LINE
  5
1F2
  8
DATA
 62
     7
 10
515.59027777777658
 20
-159.40972222222231
 30
0.0
 11
534.99999999999886
 21
-140.0
 31
0.0
  0
LINE
  5
1F3
  8
DATA
 62
     7
 10
439.99999999999892
 20
-260.0
 30
0.0
 11
465.0
 21
-234.9999999999992
 31
0.0
  0
LINE
  5
1F4
  8
DATA
 62
     7
 10
540.0
 20
-159.9999999999992
 30
0.0
 11
559.99999999999886
 21
-140.0
 31
0.0
  0
LINE
  5
1F5
  8
DATA
 62
     7
 10
464.99999999999892
 20
-260.0
 30
0.0
 11
476.38888888888812
 21
-248.61111111111109
 31
0.0
  0
LINE
  5
1F6
  8
DATA
 62
     7
 10
540.0
 20
-184.9999999999992
 30
0.0
 11
584.99999999999886
 21
-140.0
 31
0.0
  0
LINE
  5
1F7
  8
DATA
 62
     7
 10
489.99999999999892
 20
-260.0
 30
0.0
 11
501.388888888888
 21
-248.61111111111109
 31
0.0
  0
LINE
  5
1F8
  8
DATA
 62
     7
 10
535.0
 20
-214.99999999999909
 30
0.0
 11
558.6111111111112
 21
-191.388888888888
 31
0.0
  0
LINE
  5
1F9
  8
DATA
 62
     7
 10
584.99999999999886
 20
-165.0
 30
0.0
 11
609.99999999999886
 21
-140.0
 31
0.0
  0
LINE
  5
1FA
  8
DATA
 62
     7
 10
514.99999999999886
 20
-260.0
 30
0.0
 11
526.388888888888
 21
-248.61111111111109
 31
0.0
  0
LINE
  5
1FB
  8
DATA
 62
     7
 10
535.0
 20
-239.99999999999909
 30
0.0
 11
558.6111111111112
 21
-216.388888888888
 31
0.0
  0
LINE
  5
1FC
  8
DATA
 62
     7
 10
598.61111111111086
 20
-176.388888888888
 30
0.0
 11
634.99999999999886
 21
-140.0
 31
0.0
  0
LINE
  5
1FD
  8
DATA
 62
     7
 10
539.99999999999886
 20
-260.0
 30
0.0
 11
564.99999999999886
 21
-235.0
 31
0.0
  0
LINE
  5
1FE
  8
DATA
 62
     7
 10
598.61111111111086
 20
-201.388888888888
 30
0.0
 11
659.99999999999886
 21
-140.0
 31
0.0
  0
LINE
  5
1FF
  8
DATA
 62
     7
 10
564.99999999999886
 20
-260.0
 30
0.0
 11
589.99999999999886
 21
-235.0
 31
0.0
  0
LINE
  5
200
  8
DATA
 62
     7
 10
598.61111111111086
 20
-226.388888888888
 30
0.0
 11
684.99999999999886
 21
-140.0
 31
0.0
  0
LINE
  5
201
  8
DATA
 62
     7
 10
589.99999999999886
 20
-260.0
 30
0.0
 11
709.99999999999886
 21
-140.0
 31
0.0
  0
LINE
  5
202
  8
DATA
 62
     7
 10
614.9999999999992
 20
-260.0
 30
0.0
 11
734.17143576528554
 21
-140.82856423471361
 31
0.0
  0
LINE
  5
203
  8
DATA
 62
     7
 10
639.9999999999992
 20
-260.0
 30
0.0
 11
740.18586604400014
 21
-159.81413395599921
 31
0.0
  0
LINE
  5
204
  8
DATA
 62
     7
 10
664.9999999999992
 20
-260.0
 30
0.0
 11
740.18586604400014
 21
-184.81413395599921
 31
0.0
  0
LINE
  5
205
  8
DATA
 62
     7
 10
689.99999999999909
 20
-260.0
 30
0.0
 11
740.18586604400014
 21
-209.81413395599921
 31
0.0
  0
LINE
  5
206
  8
DATA
 62
     7
 10
714.99999999999909
 20
-260.0
 30
0.0
 11
740.18586604400014
 21
-234.81413395599921
 31
0.0
  0
ARC
  5
207
  8
DATA
 62
     7
 10
-528.94773322200001
 20
-253.99415921400001
 30
0.0
 40
3.1000000000000481
 50
220.00000000000159
 51
40.000000000001648
  0
ARC
  5
208
  8
DATA
 62
     7
 10
-464.60000000000031
 20
-200.0
 30
0.0
 40
87.099999999999696
 50
180.0
 51
220.00000000000011
  0
ARC
  5
209
  8
DATA
 62
     7
 10
-548.60000000000014
 20
-200.0
 30
0.0
 40
3.0999999999999082
 50
0.0
 51
180.0
  0
ARC
  5
20A
  8
DATA
 62
     7
 10
-464.60000000000031
 20
-200.0
 30
0.0
 40
80.899999999999864
 50
180.0
 51
220.0000000000002
  0
CIRCLE
  5
20B
  8
DATA
 62
     7
 10
-384.60000000000031
 20
-200.0
 30
0.0
 40
3.100000000000362
  0
CIRCLE
  5
20C
  8
DATA
 62
     7
 10
-369.61446896000001
 20
-198.34202138799981
 30
0.0
 40
3.0999999999999082
  0
CIRCLE
  5
20D
  8
DATA
 62
     7
 10
-354.66700902800039
 20
-196.16105536299989
 30
0.0
 40
3.100000000000362
  0
CIRCLE
  5
20E
  8
DATA
 62
     7
 10
-339.77130815599998
 20
-193.4580054699999
 30
0.0
 40
3.0999999999999082
  0
CIRCLE
  5
20F
  8
DATA
 62
     7
 10
-324.94103296400039
 20
-190.2340936759999
 30
0.0
 40
3.100000000000362
  0
CIRCLE
  5
210
  8
DATA
 62
     7
 10
-384.90442415299998
 20
-193.02754057999991
 30
0.0
 40
3.0999999999999082
  0
CIRCLE
  5
211
  8
DATA
 62
     7
 10
-370.12041993999992
 20
-190.06979598999999
 30
0.0
 40
3.0999999999999082
  0
CIRCLE
  5
212
  8
DATA
 62
     7
 10
-355.41992331900019
 20
-186.59437222499989
 30
0.0
 40
3.0999999999999082
  0
CIRCLE
  5
213
  8
DATA
 62
     7
 10
-340.81649140700023
 20
-182.60336237999999
 30
0.0
 40
3.100000000000362
  0
CIRCLE
  5
214
  8
DATA
 62
     7
 10
-326.32363231700037
 20
-178.0991748939999
 30
0.0
 40
3.100000000000362
  0
CIRCLE
  5
215
  8
DATA
 62
     7
 10
-385.81537975900022
 20
-186.10814578700001
 30
0.0
 40
3.100000000000362
  0
CIRCLE
  5
216
  8
DATA
 62
     7
 10
-371.34541757199997
 20
-181.8731454389999
 30
0.0
 40
3.0999999999999082
  0
CIRCLE
  5
217
  8
DATA
 62
     7
 10
-357.00376391900051
 20
-177.1297140099999
 30
0.0
 40
3.100000000000362
  0
CIRCLE
  5
218
  8
DATA
 62
     7
 10
-342.80374190200018
 20
-171.88111820699999
 30
0.0
 40
3.0999999999999082
  0
CIRCLE
  5
219
  8
DATA
 62
     7
 10
-328.75859832100008
 20
-166.13093461599999
 30
0.0
 40
3.0999999999999082
  0
CIRCLE
  5
21A
  8
DATA
 62
     7
 10
-387.32593389700008
 20
-179.29447639200001
 30
0.0
 40
3.0999999999999082
  0
CIRCLE
  5
21B
  8
DATA
 62
     7
 10
-373.28013888600032
 20
-173.8144511969999
 30
0.0
 40
3.0999999999999082
  0
CIRCLE
  5
21C
  8
DATA
 62
     7
 10
-359.40647684400022
 20
-167.8391124799999
 30
0.0
 40
3.100000000000362
  0
CIRCLE
  5
21D
  8
DATA
 62
     7
 10
-345.71793546300017
 20
-161.37287570300001
 30
0.0
 40
3.0999999999999082
  0
CIRCLE
  5
21E
  8
DATA
 62
     7
 10
-332.22739941600008
 20
-154.42045837599991
 30
0.0
 40
3.0999999999999082
  0
CIRCLE
  5
21F
  8
DATA
 62
     7
 10
-389.42459033700021
 20
-172.638388534
 30
0.0
 40
3.0999999999999082
  0
CIRCLE
  5
220
  8
DATA
 62
     7
 10
-375.9098594830001
 20
-165.9550447929999
 30
0.0
 40
3.0999999999999082
  0
CIRCLE
  5
221
  8
DATA
 62
     7
 10
-362.60977599800032
 20
-158.7932747239999
 30
0.0
 40
3.100000000000362
  0
CIRCLE
  5
222
  8
DATA
 62
     7
 10
-349.5368933180003
 20
-151.158608939
 30
0.0
 40
3.0999999999999082
  0
CIRCLE
  5
223
  8
DATA
 62
     7
 10
-336.70363593000002
 20
-143.05686996899999
 30
0.0
 40
3.0999999999999082
  0
CIRCLE
  5
224
  8
DATA
 62
     7
 10
-392.09537703700022
 20
-166.19053906100001
 30
0.0
 40
3.0999999999999082
  0
CIRCLE
  5
225
  8
DATA
 62
     7
 10
-379.21456560200022
 20
-158.35474105500001
 30
0.0
 40
3.100000000000362
  0
CIRCLE
  5
226
  8
DATA
 62
     7
 10
-366.58928233900042
 20
-150.0610450289999
 30
0.0
 40
3.100000000000362
  0
CIRCLE
  5
227
  8
DATA
 62
     7
 10
-354.23155089300002
 20
-141.31605465199991
 30
0.0
 40
3.0999999999999082
  0
CIRCLE
  5
228
  8
DATA
 62
     7
 10
-342.15324099999998
 20
-132.12665316600001
 30
0.0
 40
3.0999999999999082
  0
CIRCLE
  5
229
  8
DATA
 62
     7
 10
-395.31796769700031
 20
-160.0
 30
0.0
 40
3.100000000000362
  0
CIRCLE
  5
22A
  8
DATA
 62
     7
 10
-383.1691064330002
 20
-151.07138288399989
 30
0.0
 40
3.0999999999999082
  0
CIRCLE
  5
22B
  8
DATA
 62
     7
 10
-371.31470942300029
 20
-141.70888093400001
 30
0.0
 40
3.0999999999999082
  0
CIRCLE
  5
22C
  8
DATA
 62
     7
 10
-359.76617900700001
 20
-131.920120623
 30
0.0
 40
3.0999999999999082
  0
CIRCLE
  5
22D
  8
DATA
 62
     7
 10
-348.53473984200002
 20
-121.712993514
 30
0.0
 40
3.0999999999999082
  0
CIRCLE
  5
22E
  8
DATA
 62
     7
 10
-399.06783645700028
 20
-154.1138850919998
 30
0.0
 40
3.100000000000362
  0
CIRCLE
  5
22F
  8
DATA
 62
     7
 10
-387.74338553400008
 20
-144.16040103200001
 30
0.0
 40
3.0999999999999082
  0
CIRCLE
  5
230
  8
DATA
 62
     7
 10
-376.75009389500008
 20
-133.800347453
 30
0.0
 40
3.0999999999999082
  0
CIRCLE
  5
231
  8
DATA
 62
     7
 10
-366.09865579900003
 20
-123.04231558399999
 30
0.0
 40
3.0999999999999082
  0
CIRCLE
  5
232
  8
DATA
 62
     7
 10
-355.79956539600022
 20
-111.895145253
 30
0.0
 40
3.0999999999999082
  0
CIRCLE
  5
233
  8
DATA
 62
     7
 10
-403.31644455000003
 20
-148.5769912249998
 30
0.0
 40
3.0999999999999082
  0
LINE
  5
234
  8
DATA
 62
     7
 10
-300.0
 20
-297.5
 30
0.0
 11
-464.59999460500001
 21
-297.5
 31
0.0
  0
ARC
  5
235
  8
DATA
 62
     7
 10
-464.60000000000031
 20
-200.0
 30
0.0
 40
3.0999999999996
 50
179.99990028699941
 51
0.0000997130004805
  0
LINE
  5
236
  8
DATA
 62
     7
 10
-562.10000000000014
 20
-165.96743318299991
 30
0.0
 11
-538.16473317700024
 21
-142.03216635999999
 31
0.0
  0
LINE
  5
237
  8
DATA
 62
     7
 10
-538.16473317700024
 20
-142.03216635999999
 30
0.0
 11
-490.6647331769999
 21
-142.03216635999999
 31
0.0
  0
LINE
  5
238
  8
DATA
 62
     7
 10
-467.70000000000022
 20
-164.99689953699999
 30
0.0
 11
-490.6647331769999
 21
-142.03216635999999
 31
0.0
  0
LINE
  5
239
  8
DATA
 62
     7
 10
-467.70000000000022
 20
-199.99999460500001
 30
0.0
 11
-467.70000000000022
 21
-164.99689953699999
 31
0.0
  0
LINE
  5
23A
  8
DATA
 62
     7
 10
-461.5
 20
-199.99999460500001
 30
0.0
 11
-461.5
 21
-164.99689953699999
 31
0.0
  0
LINE
  5
23B
  8
DATA
 62
     7
 10
-562.10000000000014
 20
-200.0
 30
0.0
 11
-562.10000000000014
 21
-165.96743318299991
 31
0.0
  0
ARC
  5
23C
  8
DATA
 62
     7
 10
-464.60000000000031
 20
-200.0
 30
0.0
 40
97.499999999999787
 50
180.0
 51
270.0
  0
LINE
  5
23D
  8
DATA
 62
     7
 10
-300.0
 20
-102.5
 30
0.0
 11
-399.00310046300001
 21
-102.5
 31
0.0
  0
LINE
  5
23E
  8
DATA
 62
     7
 10
-461.5
 20
-164.99689953699999
 30
0.0
 11
-399.00310046300001
 21
-102.5
 31
0.0
  0
LINE
  5
23F
  8
DATA
 62
     7
 10
-397.94894377400033
 20
-111.0499957349999
 30
0.0
 11
-395.44894377400033
 21
-111.0499957349999
 31
0.0
  0
LINE
  5
240
  8
DATA
 62
     7
 10
-397.94894377400033
 20
-111.0499957349999
 30
0.0
 11
-392.94894377400033
 21
-106.0499957349999
 31
0.0
  0
LINE
  5
241
  8
DATA
 62
     7
 10
-395.44894377400033
 20
-113.5499957349999
 30
0.0
 11
-395.44894377400033
 21
-111.0499957349999
 31
0.0
  0
LINE
  5
242
  8
DATA
 62
     7
 10
-392.94894377400033
 20
-106.0499957349999
 30
0.0
 11
-387.94894377400033
 21
-111.0499957349999
 31
0.0
  0
LINE
  5
243
  8
DATA
 62
     7
 10
-390.44894377400033
 20
-113.5499957349999
 30
0.0
 11
-390.44894377400033
 21
-111.0499957349999
 31
0.0
  0
LINE
  5
244
  8
DATA
 62
     7
 10
-390.44894377400033
 20
-111.0499957349999
 30
0.0
 11
-387.94894377400033
 21
-111.0499957349999
 31
0.0
  0
LINE
  5
245
  8
DATA
 62
     7
 10
-395.44894377400033
 20
-113.5499957349999
 30
0.0
 11
-390.44894377400033
 21
-113.5499957349999
 31
0.0
  0
TEXT
  5
246
  8
DATA
 62
     7
 10
-397.34894377399991
 20
-122.2499957349999
 30
0.0
 40
5.0
  1
ＵＰ
 41
0.7
  0
TEXT
  5
247
  8
DATA
 62
     7
 10
-412.438333432592
 20
-153.37842927368931
 30
0.0
 40
4.2333333333333316
  1
40
 41
0.7
 11
-412.438333432592
 21
-149.14509594035599
 31
0.0
 73
     3
  0
TEXT
  5
248
  8
DATA
 62
     7
 10
-408.45526334499482
 20
-158.56926727367309
 30
0.0
 40
4.2333333333333316
  1
35
 41
0.7
 11
-408.45526334499482
 21
-154.3359339403398
 31
0.0
 73
     3
  0
TEXT
  5
249
  8
DATA
 62
     7
 10
-404.9397613828317
 20
-164.08749999999881
 30
0.0
 40
4.2333333333333316
  1
30
 41
0.7
 11
-404.9397613828317
 21
-159.85416666666549
 31
0.0
 73
     3
  0
TEXT
  5
24A
  8
DATA
 62
     7
 10
-401.91858263881687
 20
-169.89113036967021
 30
0.0
 40
4.2333333333333316
  1
25
 41
0.7
 11
-401.91858263881687
 21
-165.65779703633689
 31
0.0
 73
     3
  0
TEXT
  5
24B
  8
DATA
 62
     7
 10
-399.41472010769297
 20
-175.93598925065729
 30
0.0
 40
4.2333333333333316
  1
20
 41
0.7
 11
-399.41472010769297
 21
-171.70265591732399
 31
0.0
 73
     3
  0
TEXT
  5
24C
  8
DATA
 62
     7
 10
-397.4472296949466
 20
-182.17607161745769
 30
0.0
 40
4.2333333333333316
  1
15
 41
0.7
 11
-397.4472296949466
 21
-177.9427382841244
 31
0.0
 73
     3
  0
TEXT
  5
24D
  8
DATA
 62
     7
 10
-396.49998097647091
 20
-188.6465656534771
 30
0.0
 40
4.2333333333333316
  1
10
 41
0.7
 11
-396.49998097647091
 21
-184.41323232014381
 31
0.0
 73
     3
  0
TEXT
  5
24E
  8
DATA
 62
     7
 10
-392.53123097647079
 20
-195.05081929372381
 30
0.0
 40
4.2333333333333316
  1
5
 41
0.7
 11
-392.53123097647079
 21
-190.81748596039051
 31
0.0
 73
     3
  0
TEXT
  5
24F
  8
DATA
 62
     7
 10
-392.24583333333339
 20
-201.58749999999989
 30
0.0
 40
4.2333333333333316
  1
0
 41
0.7
 11
-392.24583333333339
 21
-197.3541666666666
 31
0.0
 73
     3
  0
TEXT
  5
250
  8
DATA
 62
     7
 10
-369.79155229333361
 20
-207.12452138800001
 30
0.0
 40
4.2333333333333316
  1
1
 41
0.7
 11
-369.79155229333361
 21
-202.89118805466671
 31
0.0
 73
     3
  0
TEXT
  5
251
  8
DATA
 62
     7
 10
-354.84409236133348
 20
-204.94355536299989
 30
0.0
 40
4.2333333333333316
  1
2
 41
0.7
 11
-354.84409236133348
 21
-200.7102220296666
 31
0.0
 73
     3
  0
TEXT
  5
252
  8
DATA
 62
     7
 10
-339.94839148933352
 20
-202.2405054699999
 30
0.0
 40
4.2333333333333316
  1
3
 41
0.7
 11
-339.94839148933352
 21
-198.00717213666661
 31
0.0
 73
     3
  0
TEXT
  5
253
  8
DATA
 62
     7
 10
-325.11811629733347
 20
-199.0165936759999
 30
0.0
 40
4.2333333333333316
  1
4
 41
0.7
 11
-325.11811629733347
 21
-194.78326034266649
 31
0.0
 73
     3
  0
CIRCLE
  5
254
  8
DATA
 62
     7
 10
-594.60000000000014
 20
-200.0
 30
0.0
 40
3.0999999999999082
  0
CIRCLE
  5
255
  8
DATA
 62
     7
 10
-548.60000000000014
 20
-200.0
 30
0.0
 40
3.0999999999999082
  0
CIRCLE
  5
256
  8
DATA
 62
     7
 10
-464.60000000000031
 20
-200.0
 30
0.0
 40
3.100000000000362
  0
LINE
  5
257
  8
DATA
 62
     7
 10
-608.60000000000014
 20
-250.0
 30
0.0
 11
-608.60000000000014
 21
-150.0
 31
0.0
  0
LINE
  5
258
  8
DATA
 62
     7
 10
-608.60000000000014
 20
-150.0
 30
0.0
 11
-553.65760605134233
 21
-157.52503923434219
 31
0.0
  0
LINE
  5
259
  8
DATA
 62
     7
 10
-553.65760605134233
 20
-157.52503923434219
 30
0.0
 11
-323.10734921699992
 21
-189.10174355099991
 31
0.0
  0
ARC
  5
25A
  8
DATA
 62
     7
 10
-324.60000000000031
 20
-200.0
 30
0.0
 40
10.99999999999998
 50
277.79884068600171
 51
82.201159313998289
  0
LINE
  5
25B
  8
DATA
 62
     7
 10
-608.60000000000014
 20
-250.0
 30
0.0
 11
-552.44214165667745
 21
-242.30848790926299
 31
0.0
  0
LINE
  5
25C
  8
DATA
 62
     7
 10
-552.44214165667745
 20
-242.30848790926299
 30
0.0
 11
-323.10734921699992
 21
-210.898256449
 31
0.0
  0
CIRCLE
  5
25D
  8
DATA
 62
     7
 10
-384.60000000000031
 20
-200.0
 30
0.0
 40
2.100000000000362
  0
CIRCLE
  5
25E
  8
DATA
 62
     7
 10
-369.60000000000042
 20
-200.0
 30
0.0
 40
2.100000000000362
  0
CIRCLE
  5
25F
  8
DATA
 62
     7
 10
-354.60000000000042
 20
-200.0
 30
0.0
 40
2.100000000000362
  0
CIRCLE
  5
260
  8
DATA
 62
     7
 10
-339.60000000000042
 20
-200.0
 30
0.0
 40
2.100000000000362
  0
CIRCLE
  5
261
  8
DATA
 62
     7
 10
-324.60000000000031
 20
-200.0
 30
0.0
 40
2.100000000000362
  0
LINE
  5
262
  8
DATA
 62
     7
 10
199.81413395600001
 20
147.5
 30
0.0
 11
800.18586604399991
 21
147.5
 31
0.0
  0
LINE
  5
263
  8
DATA
 62
     7
 10
199.81413395600001
 20
412.0999999999994
 30
0.0
 11
199.81413395600001
 21
147.5
 31
0.0
  0
LINE
  5
264
  8
DATA
 62
     7
 10
199.81413395600001
 20
412.0999999999994
 30
0.0
 11
202.4141339559998
 21
412.0999999999994
 31
0.0
  0
LINE
  5
265
  8
DATA
 62
     7
 10
800.18586604399991
 20
412.0999999999994
 30
0.0
 11
800.18586604399991
 21
147.5
 31
0.0
  0
LINE
  5
266
  8
DATA
 62
     7
 10
797.58586604400011
 20
412.0999999999994
 30
0.0
 11
800.18586604399991
 21
412.0999999999994
 31
0.0
  0
LINE
  5
267
  8
DATA
 62
     7
 10
202.4141339559998
 20
412.0999999999994
 30
0.0
 11
202.4141339559998
 21
147.5
 31
0.0
  0
LINE
  5
268
  8
DATA
 62
     7
 10
202.4141339559998
 20
150.09999999999999
 30
0.0
 11
797.58586604400011
 21
150.09999999999999
 31
0.0
  0
LINE
  5
269
  8
DATA
 62
     7
 10
202.4141339559998
 20
162.5
 30
0.0
 11
797.58586604400011
 21
162.5
 31
0.0
  0
LINE
  5
26A
  8
DATA
 62
     7
 10
797.58586604400011
 20
412.0999999999994
 30
0.0
 11
797.58586604400011
 21
147.5
 31
0.0
  0
POLYLINE
  5
26B
  8
DATA
 62
     7
 66
     1
 10
0.0
 20
0.0
 30
0.0
 70
     1
  0
VERTEX
  5
6CC
  8
DATA
 62
     7
 10
202.4141339559998
 20
456.0999999999994
 30
0.0
  0
VERTEX
  5
6CD
  8
DATA
 62
     7
 10
205.0141339559998
 20
456.0999999999994
 30
0.0
  0
VERTEX
  5
6CE
  8
DATA
 62
     7
 10
205.0141339559998
 20
161.09999999999999
 30
0.0
  0
VERTEX
  5
6CF
  8
DATA
 62
     7
 10
202.4141339559998
 20
161.09999999999999
 30
0.0
  0
SEQEND
  5
6D0
  8
DATA
 62
     7
  0
POLYLINE
  5
271
  8
DATA
 62
     7
 66
     1
 10
0.0
 20
0.0
 30
0.0
 70
     1
  0
VERTEX
  5
6D1
  8
DATA
 62
     7
 10
794.9858660440002
 20
456.0999999999994
 30
0.0
  0
VERTEX
  5
6D2
  8
DATA
 62
     7
 10
797.58586604400011
 20
456.0999999999994
 30
0.0
  0
VERTEX
  5
6D3
  8
DATA
 62
     7
 10
797.58586604400011
 20
161.09999999999999
 30
0.0
  0
VERTEX
  5
6D4
  8
DATA
 62
     7
 10
794.9858660440002
 20
161.09999999999999
 30
0.0
  0
SEQEND
  5
6D5
  8
DATA
 62
     7
  0
LINE
  5
277
  8
DATA
 62
     7
 10
-302.59999999999991
 20
-102.5
 30
0.0
 11
-302.59999999999991
 21
-297.5
 31
0.0
  0
LINE
  5
278
  8
DATA
 62
     7
 10
-302.59999999999991
 20
-300.10000000000002
 30
0.0
 11
-315.0
 21
-300.10000000000002
 31
0.0
  0
ARC
  5
279
  8
DATA
 62
     7
 10
-302.59999999999991
 20
-297.5
 30
0.0
 40
2.600000000000021
 50
270.0
 51
0.0
  0
LINE
  5
27A
  8
DATA
 62
     7
 10
-315.0
 20
-297.5
 30
0.0
 11
-315.0
 21
-300.10000000000002
 31
0.0
  0
LINE
  5
27B
  8
DATA
 62
     7
 10
-315.0
 20
-99.900000000000091
 30
0.0
 11
-315.0
 21
-102.5
 31
0.0
  0
LINE
  5
27C
  8
DATA
 62
     7
 10
-302.59999999999991
 20
-99.900000000000091
 30
0.0
 11
-315.0
 21
-99.900000000000091
 31
0.0
  0
LINE
  5
27D
  8
DATA
 62
     7
 10
-300.0
 20
-102.5
 30
0.0
 11
-300.0
 21
-297.5
 31
0.0
  0
ARC
  5
27E
  8
DATA
 62
     7
 10
-302.59999999999991
 20
-102.5
 30
0.0
 40
2.5999999999999082
 50
0.0
 51
90.0
  0
CIRCLE
  5
27F
  8
DATA
 62
     7
 10
230.0
 20
-117.4999999999999
 30
0.0
 40
6.5
  0
CIRCLE
  5
280
  8
DATA
 62
     7
 10
769.99999999999955
 20
-117.4999999999999
 30
0.0
 40
6.5
  0
CIRCLE
  5
281
  8
DATA
 62
     7
 10
365.0
 20
-117.4999999999999
 30
0.0
 40
4.5999999999999091
  0
CIRCLE
  5
282
  8
DATA
 62
     7
 10
250.0
 20
-117.4999999999999
 30
0.0
 40
4.5999999999999091
  0
CIRCLE
  5
283
  8
DATA
 62
     7
 10
500.0
 20
-117.4999999999999
 30
0.0
 40
4.5999999999999091
  0
CIRCLE
  5
284
  8
DATA
 62
     7
 10
634.99999999999955
 20
-117.4999999999999
 30
0.0
 40
4.5999999999999091
  0
CIRCLE
  5
285
  8
DATA
 62
     7
 10
749.99999999999955
 20
-117.4999999999999
 30
0.0
 40
4.5999999999999091
  0
LINE
  5
286
  8
DATA
 62
     7
 10
797.58586604399989
 20
-102.4999999999999
 30
0.0
 11
800.18586604399991
 21
-102.4999999999999
 31
0.0
  0
LINE
  5
287
  8
DATA
 62
     7
 10
797.58586604399989
 20
-102.4999999999999
 30
0.0
 11
797.58586604399989
 21
-99.899999999999963
 31
0.0
  0
LINE
  5
288
  8
DATA
 62
     7
 10
202.41413395599969
 20
-99.899999999999963
 30
0.0
 11
797.58586604399989
 21
-99.899999999999963
 31
0.0
  0
LINE
  5
289
  8
DATA
 62
     7
 10
202.41413395599969
 20
-102.4999999999999
 30
0.0
 11
797.58586604399989
 21
-102.4999999999999
 31
0.0
  0
LINE
  5
28A
  8
DATA
 62
     7
 10
202.41413395599969
 20
-102.4999999999999
 30
0.0
 11
202.41413395599969
 21
-99.899999999999963
 31
0.0
  0
LINE
  5
28B
  8
DATA
 62
     7
 10
199.81413395599969
 20
-102.4999999999999
 30
0.0
 11
202.41413395599969
 21
-102.4999999999999
 31
0.0
  0
LINE
  5
28C
  8
DATA
 62
     7
 10
199.81413395599969
 20
-297.5
 30
0.0
 11
199.81413395599969
 21
-102.5
 31
0.0
  0
LINE
  5
28D
  8
DATA
 62
     7
 10
202.41413395599969
 20
-297.5
 30
0.0
 11
202.41413395599969
 21
-102.5
 31
0.0
  0
LINE
  5
28E
  8
DATA
 62
     7
 10
199.81413395599969
 20
-297.5
 30
0.0
 11
202.41413395599969
 21
-297.5
 31
0.0
  0
LINE
  5
28F
  8
DATA
 62
     7
 10
202.41413395599969
 20
-300.09999999999991
 30
0.0
 11
202.41413395599969
 21
-297.5
 31
0.0
  0
LINE
  5
290
  8
DATA
 62
     7
 10
202.41413395599969
 20
-150.0
 30
0.0
 11
205.0141339559996
 21
-150.0
 31
0.0
  0
LINE
  5
291
  8
DATA
 62
     7
 10
202.41413395599969
 20
-250.0
 30
0.0
 11
205.0141339559996
 21
-250.0
 31
0.0
  0
LINE
  5
292
  8
DATA
 62
     7
 10
202.41413395599969
 20
-150.0
 30
0.0
 11
202.41413395599969
 21
-250.0
 31
0.0
  0
LINE
  5
293
  8
DATA
 62
     7
 10
205.0141339559996
 20
-150.0
 30
0.0
 11
205.0141339559996
 21
-250.0
 31
0.0
  0
LINE
  5
294
  8
DATA
 62
     7
 10
800.18586604399991
 20
-297.5
 30
0.0
 11
800.18586604399991
 21
-102.5
 31
0.0
  0
LINE
  5
295
  8
DATA
 62
     7
 10
797.58586604399989
 20
-297.5
 30
0.0
 11
797.58586604399989
 21
-102.5
 31
0.0
  0
POLYLINE
  5
296
  8
DATA
 62
     7
 66
     1
 10
0.0
 20
0.0
 30
0.0
  0
VERTEX
  5
6D6
  8
DATA
 62
     7
 10
797.58586604399989
 20
-300.09999999999991
 30
0.0
  0
VERTEX
  5
6D7
  8
DATA
 62
     7
 10
797.58586604399989
 20
-297.5
 30
0.0
  0
VERTEX
  5
6D8
  8
DATA
 62
     7
 10
800.18586604399991
 20
-297.5
 30
0.0
  0
SEQEND
  5
6D9
  8
DATA
 62
     7
  0
LINE
  5
29B
  8
DATA
 62
     7
 10
797.58586604399989
 20
-150.0
 30
0.0
 11
794.98586604399998
 21
-150.0
 31
0.0
  0
LINE
  5
29C
  8
DATA
 62
     7
 10
797.58586604399989
 20
-250.0
 30
0.0
 11
794.98586604399998
 21
-250.0
 31
0.0
  0
LINE
  5
29D
  8
DATA
 62
     7
 10
797.58586604399989
 20
-150.0
 30
0.0
 11
797.58586604399989
 21
-250.0
 31
0.0
  0
LINE
  5
29E
  8
DATA
 62
     7
 10
794.98586604399998
 20
-150.0
 30
0.0
 11
794.98586604399998
 21
-250.0
 31
0.0
  0
CIRCLE
  5
29F
  8
DATA
 62
     7
 10
230.0
 20
-282.5
 30
0.0
 40
6.5
  0
CIRCLE
  5
2A0
  8
DATA
 62
     7
 10
769.99999999999955
 20
-282.5
 30
0.0
 40
6.5
  0
CIRCLE
  5
2A1
  8
DATA
 62
     7
 10
749.99999999999955
 20
-282.5
 30
0.0
 40
4.5999999999999091
  0
CIRCLE
  5
2A2
  8
DATA
 62
     7
 10
634.99999999999955
 20
-282.5
 30
0.0
 40
4.5999999999999091
  0
CIRCLE
  5
2A3
  8
DATA
 62
     7
 10
500.0
 20
-282.5
 30
0.0
 40
4.5999999999999091
  0
CIRCLE
  5
2A4
  8
DATA
 62
     7
 10
365.0
 20
-282.5
 30
0.0
 40
4.5999999999999091
  0
CIRCLE
  5
2A5
  8
DATA
 62
     7
 10
250.0
 20
-282.5
 30
0.0
 40
4.5999999999999091
  0
LINE
  5
2A6
  8
DATA
 62
     7
 10
202.41413395599969
 20
-300.09999999999991
 30
0.0
 11
797.58586604399989
 21
-300.09999999999991
 31
0.0
  0
LINE
  5
2A7
  8
DATA
 62
     7
 10
202.41413395599969
 20
-297.5
 30
0.0
 11
797.58586604399989
 21
-297.5
 31
0.0
  0
ARC
  5
2A8
  8
DATA
 62
     7
 10
269.81413395599981
 20
1150.0
 30
0.0
 40
10.0
 50
180.0
 51
270.0
  0
LINE
  5
2A9
  8
DATA
 62
     7
 10
259.81413395599969
 20
1150.0
 30
0.0
 11
259.81413395599969
 21
1250.0
 31
0.0
  0
ARC
  5
2AA
  8
DATA
 62
     7
 10
269.81413395599981
 20
1250.0
 30
0.0
 40
10.0
 50
90.0
 51
180.0
  0
ARC
  5
2AB
  8
DATA
 62
     7
 10
730.18586604400014
 20
1150.0
 30
0.0
 40
10.0
 50
270.0
 51
0.0
  0
LINE
  5
2AC
  8
DATA
 62
     7
 10
740.18586604400014
 20
1150.0
 30
0.0
 11
740.18586604400014
 21
1250.0
 31
0.0
  0
ARC
  5
2AD
  8
DATA
 62
     7
 10
730.18586604400014
 20
1250.0
 30
0.0
 40
10.0
 50
0.0
 51
90.0
  0
LINE
  5
2AE
  8
DATA
 62
     7
 10
269.81413395599981
 20
1140.0
 30
0.0
 11
730.18586604400014
 21
1140.0
 31
0.0
  0
LINE
  5
2AF
  8
DATA
 62
     7
 10
269.81413395599981
 20
1260.0
 30
0.0
 11
730.18586604400014
 21
1260.0
 31
0.0
  0
CIRCLE
  5
2B0
  8
DATA
 62
     7
 10
230.0
 20
1282.5
 30
0.0
 40
6.5
  0
CIRCLE
  5
2B1
  8
DATA
 62
     7
 10
769.99999999999955
 20
1282.5
 30
0.0
 40
6.5
  0
CIRCLE
  5
2B2
  8
DATA
 62
     7
 10
365.0
 20
1282.5
 30
0.0
 40
4.5999999999999091
  0
CIRCLE
  5
2B3
  8
DATA
 62
     7
 10
250.0
 20
1282.5
 30
0.0
 40
4.5999999999999091
  0
CIRCLE
  5
2B4
  8
DATA
 62
     7
 10
500.0
 20
1282.5
 30
0.0
 40
4.5999999999999091
  0
CIRCLE
  5
2B5
  8
DATA
 62
     7
 10
634.99999999999955
 20
1282.5
 30
0.0
 40
4.5999999999999091
  0
CIRCLE
  5
2B6
  8
DATA
 62
     7
 10
749.99999999999955
 20
1282.5
 30
0.0
 40
4.5999999999999091
  0
LINE
  5
2B7
  8
DATA
 62
     7
 10
797.58586604399989
 20
1297.5
 30
0.0
 11
800.18586604399991
 21
1297.5
 31
0.0
  0
LINE
  5
2B8
  8
DATA
 62
     7
 10
797.58586604399989
 20
1297.5
 30
0.0
 11
797.58586604399989
 21
1300.0999999999999
 31
0.0
  0
LINE
  5
2B9
  8
DATA
 62
     7
 10
202.41413395599969
 20
1300.0999999999999
 30
0.0
 11
797.58586604399989
 21
1300.0999999999999
 31
0.0
  0
LINE
  5
2BA
  8
DATA
 62
     7
 10
202.41413395599969
 20
1297.5
 30
0.0
 11
797.58586604399989
 21
1297.5
 31
0.0
  0
LINE
  5
2BB
  8
DATA
 62
     7
 10
202.41413395599969
 20
1297.5
 30
0.0
 11
202.41413395599969
 21
1300.0999999999999
 31
0.0
  0
LINE
  5
2BC
  8
DATA
 62
     7
 10
199.81413395599969
 20
1297.5
 30
0.0
 11
202.41413395599969
 21
1297.5
 31
0.0
  0
LINE
  5
2BD
  8
DATA
 62
     7
 10
199.81413395599969
 20
1102.5
 30
0.0
 11
199.81413395599969
 21
1297.5
 31
0.0
  0
LINE
  5
2BE
  8
DATA
 62
     7
 10
202.41413395599969
 20
1102.5
 30
0.0
 11
202.41413395599969
 21
1297.5
 31
0.0
  0
LINE
  5
2BF
  8
DATA
 62
     7
 10
199.81413395599969
 20
1102.5
 30
0.0
 11
202.41413395599969
 21
1102.5
 31
0.0
  0
LINE
  5
2C0
  8
DATA
 62
     7
 10
202.41413395599969
 20
1099.9000000000001
 30
0.0
 11
202.41413395599969
 21
1102.5
 31
0.0
  0
LINE
  5
2C1
  8
DATA
 62
     7
 10
202.41413395599969
 20
1250.0
 30
0.0
 11
205.0141339559996
 21
1250.0
 31
0.0
  0
LINE
  5
2C2
  8
DATA
 62
     7
 10
202.41413395599969
 20
1150.0
 30
0.0
 11
205.0141339559996
 21
1150.0
 31
0.0
  0
LINE
  5
2C3
  8
DATA
 62
     7
 10
202.41413395599969
 20
1250.0
 30
0.0
 11
202.41413395599969
 21
1150.0
 31
0.0
  0
LINE
  5
2C4
  8
DATA
 62
     7
 10
205.0141339559996
 20
1250.0
 30
0.0
 11
205.0141339559996
 21
1150.0
 31
0.0
  0
LINE
  5
2C5
  8
DATA
 62
     7
 10
800.18586604399991
 20
1102.5
 30
0.0
 11
800.18586604399991
 21
1297.5
 31
0.0
  0
LINE
  5
2C6
  8
DATA
 62
     7
 10
797.58586604399989
 20
1102.5
 30
0.0
 11
797.58586604399989
 21
1297.5
 31
0.0
  0
POLYLINE
  5
2C7
  8
DATA
 62
     7
 66
     1
 10
0.0
 20
0.0
 30
0.0
  0
VERTEX
  5
6DA
  8
DATA
 62
     7
 10
797.58586604399989
 20
1099.9000000000001
 30
0.0
  0
VERTEX
  5
6DB
  8
DATA
 62
     7
 10
797.58586604399989
 20
1102.5
 30
0.0
  0
VERTEX
  5
6DC
  8
DATA
 62
     7
 10
800.18586604399991
 20
1102.5
 30
0.0
  0
SEQEND
  5
6DD
  8
DATA
 62
     7
  0
LINE
  5
2CC
  8
DATA
 62
     7
 10
797.58586604399989
 20
1250.0
 30
0.0
 11
794.98586604399998
 21
1250.0
 31
0.0
  0
LINE
  5
2CD
  8
DATA
 62
     7
 10
797.58586604399989
 20
1150.0
 30
0.0
 11
794.98586604399998
 21
1150.0
 31
0.0
  0
LINE
  5
2CE
  8
DATA
 62
     7
 10
797.58586604399989
 20
1250.0
 30
0.0
 11
797.58586604399989
 21
1150.0
 31
0.0
  0
LINE
  5
2CF
  8
DATA
 62
     7
 10
794.98586604399998
 20
1250.0
 30
0.0
 11
794.98586604399998
 21
1150.0
 31
0.0
  0
CIRCLE
  5
2D0
  8
DATA
 62
     7
 10
230.0
 20
1117.5
 30
0.0
 40
6.5
  0
CIRCLE
  5
2D1
  8
DATA
 62
     7
 10
769.99999999999955
 20
1117.5
 30
0.0
 40
6.5
  0
CIRCLE
  5
2D2
  8
DATA
 62
     7
 10
749.99999999999955
 20
1117.5
 30
0.0
 40
4.5999999999999091
  0
CIRCLE
  5
2D3
  8
DATA
 62
     7
 10
634.99999999999955
 20
1117.5
 30
0.0
 40
4.5999999999999091
  0
CIRCLE
  5
2D4
  8
DATA
 62
     7
 10
500.0
 20
1117.5
 30
0.0
 40
4.5999999999999091
  0
CIRCLE
  5
2D5
  8
DATA
 62
     7
 10
365.0
 20
1117.5
 30
0.0
 40
4.5999999999999091
  0
CIRCLE
  5
2D6
  8
DATA
 62
     7
 10
250.0
 20
1117.5
 30
0.0
 40
4.5999999999999091
  0
LINE
  5
2D7
  8
DATA
 62
     7
 10
202.41413395599969
 20
1099.9000000000001
 30
0.0
 11
797.58586604399989
 21
1099.9000000000001
 31
0.0
  0
LINE
  5
2D8
  8
DATA
 62
     7
 10
202.41413395599969
 20
1102.5
 30
0.0
 11
797.58586604399989
 21
1102.5
 31
0.0
  0
LINE
  5
2D9
  8
DATA
 62
     7
 10
224.4499999999997
 20
1217.5000042649999
 30
0.0
 11
229.4499999999997
 21
1217.5000042649999
 31
0.0
  0
LINE
  5
2DA
  8
DATA
 62
     7
 10
224.4499999999997
 20
1217.5000042649999
 30
0.0
 11
234.4499999999997
 21
1227.5000042649999
 31
0.0
  0
LINE
  5
2DB
  8
DATA
 62
     7
 10
229.4499999999997
 20
1212.5000042649999
 30
0.0
 11
229.4499999999997
 21
1217.5000042649999
 31
0.0
  0
LINE
  5
2DC
  8
DATA
 62
     7
 10
234.4499999999997
 20
1227.5000042649999
 30
0.0
 11
244.4499999999997
 21
1217.5000042649999
 31
0.0
  0
LINE
  5
2DD
  8
DATA
 62
     7
 10
239.4499999999997
 20
1212.5000042649999
 30
0.0
 11
239.4499999999997
 21
1217.5000042649999
 31
0.0
  0
LINE
  5
2DE
  8
DATA
 62
     7
 10
239.4499999999997
 20
1217.5000042649999
 30
0.0
 11
244.4499999999997
 21
1217.5000042649999
 31
0.0
  0
LINE
  5
2DF
  8
DATA
 62
     7
 10
229.4499999999997
 20
1212.5000042649999
 30
0.0
 11
239.4499999999997
 21
1212.5000042649999
 31
0.0
  0
LINE
  5
2E0
  8
DATA
 62
     7
 10
246.4324218749997
 20
1243.2187542649999
 30
0.0
 11
246.4324218749997
 21
1235.6015667649999
 31
0.0
  0
LINE
  5
2E1
  8
DATA
 62
     7
 10
237.9949218749997
 20
1235.6015667649999
 30
0.0
 11
237.9949218749997
 21
1243.2187542649999
 31
0.0
  0
LINE
  5
2E2
  8
DATA
 62
     7
 10
230.9050781249997
 20
1243.2187542649999
 30
0.0
 11
230.9050781249997
 21
1231.5000042649999
 31
0.0
  0
LINE
  5
2E3
  8
DATA
 62
     7
 10
225.6316406249997
 20
1243.2187542649999
 30
0.0
 11
229.9050781249997
 21
1243.2187542649999
 31
0.0
  0
LINE
  5
2E4
  8
DATA
 62
     7
 10
229.9050781249997
 20
1236.7734417649999
 30
0.0
 11
225.6316406249997
 21
1236.7734417649999
 31
0.0
  0
POLYLINE
  5
2E5
  8
DATA
 62
     7
 66
     1
 10
0.0
 20
0.0
 30
0.0
 70
   128
  0
VERTEX
  5
6DE
  8
DATA
 62
     7
 10
225.63164062499669
 20
1236.7734417649999
 30
0.0
 42
-0.024376549000159
  0
VERTEX
  5
6DF
  8
DATA
 62
     7
 10
225.3775915949995
 20
1236.8129395779999
 30
0.0
  0
VERTEX
  5
6E0
  8
DATA
 62
     7
 10
225.3775915949995
 20
1236.8129395779999
 30
0.0
  0
VERTEX
  5
6E1
  8
DATA
 62
     7
 10
225.3775915949995
 20
1236.8129395779999
 30
0.0
 42
-0.0242086419998648
  0
VERTEX
  5
6E2
  8
DATA
 62
     7
 10
225.1276540959997
 20
1236.8771135229999
 30
0.0
  0
VERTEX
  5
6E3
  8
DATA
 62
     7
 10
225.1276540959997
 20
1236.8771135229999
 30
0.0
  0
VERTEX
  5
6E4
  8
DATA
 62
     7
 10
225.12765409599569
 20
1236.8771135230011
 30
0.0
 42
-0.0239653980001153
  0
VERTEX
  5
6E5
  8
DATA
 62
     7
 10
224.88376566699981
 20
1236.965466118
 30
0.0
  0
VERTEX
  5
6E6
  8
DATA
 62
     7
 10
224.88376566699981
 20
1236.965466118
 30
0.0
  0
VERTEX
  5
6E7
  8
DATA
 62
     7
 10
224.88376566699981
 20
1236.965466118
 30
0.0
 42
-0.0236586450004793
  0
VERTEX
  5
6E8
  8
DATA
 62
     7
 10
224.6478169519996
 20
1237.077312445
 30
0.0
  0
VERTEX
  5
6E9
  8
DATA
 62
     7
 10
224.6478169519996
 20
1237.077312445
 30
0.0
  0
VERTEX
  5
6EA
  8
DATA
 62
     7
 10
224.6478169519981
 20
1237.0773124450011
 30
0.0
 42
-0.0233024819997852
  0
VERTEX
  5
6EB
  8
DATA
 62
     7
 10
224.4216370489998
 20
1237.2117854610001
 30
0.0
  0
VERTEX
  5
6EC
  8
DATA
 62
     7
 10
224.4216370489998
 20
1237.2117854610001
 30
0.0
  0
VERTEX
  5
6ED
  8
DATA
 62
     7
 10
224.42163704899551
 20
1237.211785461003
 30
0.0
 42
-0.0229121639994791
  0
VERTEX
  5
6EE
  8
DATA
 62
     7
 10
224.2069793219998
 20
1237.36784272
 30
0.0
  0
VERTEX
  5
6EF
  8
DATA
 62
     7
 10
224.2069793219998
 20
1237.36784272
 30
0.0
  0
VERTEX
  5
6F0
  8
DATA
 62
     7
 10
224.2069793219998
 20
1237.36784272
 30
0.0
 42
-0.0225030649999631
  0
VERTEX
  5
6F1
  8
DATA
 62
     7
 10
224.00550781999971
 20
1237.5442744510001
 30
0.0
  0
VERTEX
  5
6F2
  8
DATA
 62
     7
 10
224.00550781999971
 20
1237.5442744510001
 30
0.0
  0
VERTEX
  5
6F3
  8
DATA
 62
     7
 10
224.00550781999971
 20
1237.5442744510001
 30
0.0
 42
-0.0220898390002621
  0
VERTEX
  5
6F4
  8
DATA
 62
     7
 10
223.81878436699981
 20
1237.7397129399999
 30
0.0
  0
VERTEX
  5
6F5
  8
DATA
 62
     7
 10
223.81878436699981
 20
1237.7397129399999
 30
0.0
  0
VERTEX
  5
6F6
  8
DATA
 62
     7
 10
223.81878436699839
 20
1237.7397129400019
 30
0.0
 42
-0.0216858179993509
  0
VERTEX
  5
6F7
  8
DATA
 62
     7
 10
223.6482564589997
 20
1237.9526431300001
 30
0.0
  0
VERTEX
  5
6F8
  8
DATA
 62
     7
 10
223.6482564589997
 20
1237.9526431300001
 30
0.0
  0
VERTEX
  5
6F9
  8
DATA
 62
     7
 10
223.64825645899609
 20
1237.9526431300051
 30
0.0
 42
-0.0213026569988201
  0
VERTEX
  5
6FA
  8
DATA
 62
     7
 10
223.49524604599989
 20
1238.1814143659999
 30
0.0
  0
VERTEX
  5
6FB
  8
DATA
 62
     7
 10
223.49524604599989
 20
1238.1814143659999
 30
0.0
  0
VERTEX
  5
6FC
  8
DATA
 62
     7
 10
223.49524604599799
 20
1238.1814143660031
 30
0.0
 42
-0.0209501919996003
  0
VERTEX
  5
6FD
  8
DATA
 62
     7
 10
223.360939277
 20
1238.4242531949999
 30
0.0
  0
VERTEX
  5
6FE
  8
DATA
 62
     7
 10
223.360939277
 20
1238.4242531949999
 30
0.0
  0
VERTEX
  5
6FF
  8
DATA
 62
     7
 10
223.360939277
 20
1238.4242531949999
 30
0.0
 42
-0.0206364630009676
  0
VERTEX
  5
700
  8
DATA
 62
     7
 10
223.2463773099997
 20
1238.679277106
 30
0.0
  0
VERTEX
  5
701
  8
DATA
 62
     7
 10
223.2463773099997
 20
1238.679277106
 30
0.0
  0
VERTEX
  5
702
  8
DATA
 62
     7
 10
223.2463773099997
 20
1238.679277106
 30
0.0
 42
-0.0203678370003803
  0
VERTEX
  5
703
  8
DATA
 62
     7
 10
223.15244824099941
 20
1238.9445091319999
 30
0.0
  0
VERTEX
  5
704
  8
DATA
 62
     7
 10
223.15244824099941
 20
1238.9445091319999
 30
0.0
  0
VERTEX
  5
705
  8
DATA
 62
     7
 10
223.15244824099869
 20
1238.9445091320031
 30
0.0
 42
-0.0201491929994125
  0
VERTEX
  5
706
  8
DATA
 62
     7
 10
223.07988021599979
 20
1239.21789317
 30
0.0
  0
VERTEX
  5
707
  8
DATA
 62
     7
 10
223.07988021599979
 20
1239.21789317
 30
0.0
  0
VERTEX
  5
708
  8
DATA
 62
     7
 10
223.07988021599871
 20
1239.2178931700039
 30
0.0
 42
-0.0199841259995993
  0
VERTEX
  5
709
  8
DATA
 62
     7
 10
223.0292357879998
 20
1239.4973099230001
 30
0.0
  0
VERTEX
  5
70A
  8
DATA
 62
     7
 10
223.0292357879998
 20
1239.4973099230001
 30
0.0
  0
SEQEND
  5
70B
  8
DATA
 62
     7
  0
POLYLINE
  5
314
  8
DATA
 62
     7
 66
     1
 10
0.0
 20
0.0
 30
0.0
 70
   128
  0
VERTEX
  5
70C
  8
DATA
 62
     7
 10
223.0292357879998
 20
1240.4948861089999
 30
0.0
 42
-0.0199515440006981
  0
VERTEX
  5
70D
  8
DATA
 62
     7
 10
223.07988021599979
 20
1240.774302861
 30
0.0
  0
VERTEX
  5
70E
  8
DATA
 62
     7
 10
223.07988021599979
 20
1240.774302861
 30
0.0
  0
VERTEX
  5
70F
  8
DATA
 62
     7
 10
223.0798802160009
 20
1240.774302861005
 30
0.0
 42
-0.0201027889992026
  0
VERTEX
  5
710
  8
DATA
 62
     7
 10
223.15244824099941
 20
1241.0476868989999
 30
0.0
  0
VERTEX
  5
711
  8
DATA
 62
     7
 10
223.15244824099941
 20
1241.0476868989999
 30
0.0
  0
VERTEX
  5
712
  8
DATA
 62
     7
 10
223.15244824099941
 20
1241.0476868989999
 30
0.0
 42
-0.0203083290002475
  0
VERTEX
  5
713
  8
DATA
 62
     7
 10
223.2463773109998
 20
1241.3129189250001
 30
0.0
  0
VERTEX
  5
714
  8
DATA
 62
     7
 10
223.2463773109998
 20
1241.3129189250001
 30
0.0
  0
VERTEX
  5
715
  8
DATA
 62
     7
 10
223.2463773109998
 20
1241.3129189250001
 30
0.0
 42
-0.0205648640005016
  0
VERTEX
  5
716
  8
DATA
 62
     7
 10
223.360939277
 20
1241.5679428359999
 30
0.0
  0
VERTEX
  5
717
  8
DATA
 62
     7
 10
223.360939277
 20
1241.5679428359999
 30
0.0
  0
VERTEX
  5
718
  8
DATA
 62
     7
 10
223.3609392770008
 20
1241.567942836002
 30
0.0
 42
-0.0208678529997963
  0
VERTEX
  5
719
  8
DATA
 62
     7
 10
223.49524604599989
 20
1241.8107816649999
 30
0.0
  0
VERTEX
  5
71A
  8
DATA
 62
     7
 10
223.49524604599989
 20
1241.8107816649999
 30
0.0
  0
VERTEX
  5
71B
  8
DATA
 62
     7
 10
223.49524604600259
 20
1241.810781665004
 30
0.0
 42
-0.0212113189991099
  0
VERTEX
  5
71C
  8
DATA
 62
     7
 10
223.6482564599996
 20
1242.039552901
 30
0.0
  0
VERTEX
  5
71D
  8
DATA
 62
     7
 10
223.6482564599996
 20
1242.039552901
 30
0.0
  0
VERTEX
  5
71E
  8
DATA
 62
     7
 10
223.6482564599996
 20
1242.039552901
 30
0.0
 42
-0.0215876559999715
  0
VERTEX
  5
71F
  8
DATA
 62
     7
 10
223.81878436699981
 20
1242.2524830909999
 30
0.0
  0
VERTEX
  5
720
  8
DATA
 62
     7
 10
223.81878436699981
 20
1242.2524830909999
 30
0.0
  0
VERTEX
  5
721
  8
DATA
 62
     7
 10
223.8187843670004
 20
1242.2524830910011
 30
0.0
 42
-0.0219874849997762
  0
VERTEX
  5
722
  8
DATA
 62
     7
 10
224.00550782099981
 20
1242.44792158
 30
0.0
  0
VERTEX
  5
723
  8
DATA
 62
     7
 10
224.00550782099981
 20
1242.44792158
 30
0.0
  0
VERTEX
  5
724
  8
DATA
 62
     7
 10
224.00550782099981
 20
1242.44792158
 30
0.0
 42
-0.0223995980001467
  0
VERTEX
  5
725
  8
DATA
 62
     7
 10
224.20697932299981
 20
1242.624353311
 30
0.0
  0
VERTEX
  5
726
  8
DATA
 62
     7
 10
224.20697932299981
 20
1242.624353311
 30
0.0
  0
VERTEX
  5
727
  8
DATA
 62
     7
 10
224.20697932300229
 20
1242.6243533110021
 30
0.0
 42
-0.0228110599990937
  0
VERTEX
  5
728
  8
DATA
 62
     7
 10
224.4216370489998
 20
1242.780410569
 30
0.0
  0
VERTEX
  5
729
  8
DATA
 62
     7
 10
224.4216370489998
 20
1242.780410569
 30
0.0
  0
VERTEX
  5
72A
  8
DATA
 62
     7
 10
224.42163704900091
 20
1242.7804105690011
 30
0.0
 42
-0.0232074989996051
  0
VERTEX
  5
72B
  8
DATA
 62
     7
 10
224.64781695299959
 20
1242.9148835860001
 30
0.0
  0
VERTEX
  5
72C
  8
DATA
 62
     7
 10
224.64781695299959
 20
1242.9148835860001
 30
0.0
  0
VERTEX
  5
72D
  8
DATA
 62
     7
 10
224.64781695300479
 20
1242.914883586003
 30
0.0
 42
-0.0235736519994679
  0
VERTEX
  5
72E
  8
DATA
 62
     7
 10
224.88376566699981
 20
1243.0267299120001
 30
0.0
  0
VERTEX
  5
72F
  8
DATA
 62
     7
 10
224.88376566699981
 20
1243.0267299120001
 30
0.0
  0
VERTEX
  5
730
  8
DATA
 62
     7
 10
224.88376566700009
 20
1243.0267299120001
 30
0.0
 42
-0.0238941429993244
  0
VERTEX
  5
731
  8
DATA
 62
     7
 10
225.1276540959997
 20
1243.1150825069999
 30
0.0
  0
VERTEX
  5
732
  8
DATA
 62
     7
 10
225.1276540959997
 20
1243.1150825069999
 30
0.0
  0
VERTEX
  5
733
  8
DATA
 62
     7
 10
225.12765409600209
 20
1243.1150825069999
 30
0.0
 42
-0.0241544810003136
  0
VERTEX
  5
734
  8
DATA
 62
     7
 10
225.3775915949995
 20
1243.1792564519999
 30
0.0
  0
VERTEX
  5
735
  8
DATA
 62
     7
 10
225.3775915949995
 20
1243.1792564519999
 30
0.0
  0
VERTEX
  5
736
  8
DATA
 62
     7
 10
225.3775915949995
 20
1243.1792564519999
 30
0.0
 42
-0.0243421660001101
  0
VERTEX
  5
737
  8
DATA
 62
     7
 10
225.6316406249997
 20
1243.2187542649999
 30
0.0
  0
VERTEX
  5
738
  8
DATA
 62
     7
 10
225.6316406249997
 20
1243.2187542649999
 30
0.0
  0
SEQEND
  5
739
  8
DATA
 62
     7
  0
POLYLINE
  5
343
  8
DATA
 62
     7
 66
     1
 10
0.0
 20
0.0
 30
0.0
 70
   128
  0
VERTEX
  5
73A
  8
DATA
 62
     7
 10
246.43242187499899
 20
1235.6015667649931
 30
0.0
 42
-0.0199078939994106
  0
VERTEX
  5
73B
  8
DATA
 62
     7
 10
246.3664335979997
 20
1235.1919936859999
 30
0.0
  0
VERTEX
  5
73C
  8
DATA
 62
     7
 10
246.3664335979997
 20
1235.1919936859999
 30
0.0
  0
VERTEX
  5
73D
  8
DATA
 62
     7
 10
246.3664335979993
 20
1235.1919936859981
 30
0.0
 42
-0.0200452239997137
  0
VERTEX
  5
73E
  8
DATA
 62
     7
 10
246.2683016219998
 20
1234.790450129
 30
0.0
  0
VERTEX
  5
73F
  8
DATA
 62
     7
 10
246.2683016219998
 20
1234.790450129
 30
0.0
  0
VERTEX
  5
740
  8
DATA
 62
     7
 10
246.2683016219998
 20
1234.790450129
 30
0.0
 42
-0.0202373669999131
  0
VERTEX
  5
741
  8
DATA
 62
     7
 10
246.13878552200001
 20
1234.400044169
 30
0.0
  0
VERTEX
  5
742
  8
DATA
 62
     7
 10
246.13878552200001
 20
1234.400044169
 30
0.0
  0
VERTEX
  5
743
  8
DATA
 62
     7
 10
246.13878552200001
 20
1234.400044169
 30
0.0
 42
-0.0204813090002442
  0
VERTEX
  5
744
  8
DATA
 62
     7
 10
245.97888779099961
 20
1234.023797672
 30
0.0
  0
VERTEX
  5
745
  8
DATA
 62
     7
 10
245.97888779099961
 20
1234.023797672
 30
0.0
  0
VERTEX
  5
746
  8
DATA
 62
     7
 10
245.97888779099961
 20
1234.023797672
 30
0.0
 42
-0.0207728450004147
  0
VERTEX
  5
747
  8
DATA
 62
     7
 10
245.78984609099959
 20
1233.664622906
 30
0.0
  0
VERTEX
  5
748
  8
DATA
 62
     7
 10
245.78984609099959
 20
1233.664622906
 30
0.0
  0
VERTEX
  5
749
  8
DATA
 62
     7
 10
245.78984609099959
 20
1233.664622906
 30
0.0
 42
-0.0211063900004195
  0
VERTEX
  5
74A
  8
DATA
 62
     7
 10
245.5731236629999
 20
1233.325299999
 30
0.0
  0
VERTEX
  5
74B
  8
DATA
 62
     7
 10
245.5731236629999
 20
1233.325299999
 30
0.0
  0
VERTEX
  5
74C
  8
DATA
 62
     7
 10
245.573123662999
 20
1233.3252999989979
 30
0.0
 42
-0.0214747809996198
  0
VERTEX
  5
74D
  8
DATA
 62
     7
 10
245.33039800899999
 20
1233.0084554170001
 30
0.0
  0
VERTEX
  5
74E
  8
DATA
 62
     7
 10
245.33039800899999
 20
1233.0084554170001
 30
0.0
  0
VERTEX
  5
74F
  8
DATA
 62
     7
 10
245.33039800899999
 20
1233.0084554170001
 30
0.0
 42
-0.0218691170000819
  0
VERTEX
  5
750
  8
DATA
 62
     7
 10
245.06354790199981
 20
1232.7165416390001
 30
0.0
  0
VERTEX
  5
751
  8
DATA
 62
     7
 10
245.06354790199981
 20
1232.7165416390001
 30
0.0
  0
VERTEX
  5
752
  8
DATA
 62
     7
 10
245.06354790199799
 20
1232.716541638998
 30
0.0
 42
-0.0222786789995351
  0
VERTEX
  5
753
  8
DATA
 62
     7
 10
244.77463884599959
 20
1232.451818169
 30
0.0
  0
VERTEX
  5
754
  8
DATA
 62
     7
 10
244.77463884599959
 20
1232.451818169
 30
0.0
  0
VERTEX
  5
755
  8
DATA
 62
     7
 10
244.77463884599649
 20
1232.4518181689971
 30
0.0
 42
-0.022690979999508
  0
VERTEX
  5
756
  8
DATA
 62
     7
 10
244.46590709099979
 20
1232.2163340530001
 30
0.0
  0
VERTEX
  5
757
  8
DATA
 62
     7
 10
244.46590709099979
 20
1232.2163340530001
 30
0.0
  0
VERTEX
  5
758
  8
DATA
 62
     7
 10
244.46590709099979
 20
1232.2163340530001
 30
0.0
 42
-0.0230920159998352
  0
VERTEX
  5
759
  8
DATA
 62
     7
 10
244.13974231899971
 20
1232.011912012
 30
0.0
  0
VERTEX
  5
75A
  8
DATA
 62
     7
 10
244.13974231899971
 20
1232.011912012
 30
0.0
  0
VERTEX
  5
75B
  8
DATA
 62
     7
 10
244.13974231899971
 20
1232.011912012
 30
0.0
 42
-0.0234667270002514
  0
VERTEX
  5
75C
  8
DATA
 62
     7
 10
243.7986691469996
 20
1231.8401343370001
 30
0.0
  0
VERTEX
  5
75D
  8
DATA
 62
     7
 10
243.7986691469996
 20
1231.8401343370001
 30
0.0
  0
VERTEX
  5
75E
  8
DATA
 62
     7
 10
243.7986691470002
 20
1231.8401343370001
 30
0.0
 42
-0.0237997270001589
  0
VERTEX
  5
75F
  8
DATA
 62
     7
 10
243.44532759200001
 20
1231.7023306430001
 30
0.0
  0
VERTEX
  5
760
  8
DATA
 62
     7
 10
243.44532759200001
 20
1231.7023306430001
 30
0.0
  0
VERTEX
  5
761
  8
DATA
 62
     7
 10
243.44532759199811
 20
1231.702330642999
 30
0.0
 42
-0.024076240999577
  0
VERTEX
  5
762
  8
DATA
 62
     7
 10
243.08245262999981
 20
1231.599567575
 30
0.0
  0
VERTEX
  5
763
  8
DATA
 62
     7
 10
243.08245262999981
 20
1231.599567575
 30
0.0
  0
VERTEX
  5
764
  8
DATA
 62
     7
 10
243.08245262999981
 20
1231.599567575
 30
0.0
 42
-0.0242831959998894
  0
VERTEX
  5
765
  8
DATA
 62
     7
 10
242.7128530279997
 20
1231.53264055
 30
0.0
  0
VERTEX
  5
766
  8
DATA
 62
     7
 10
242.7128530279997
 20
1231.53264055
 30
0.0
  0
SEQEND
  5
767
  8
DATA
 62
     7
  0
POLYLINE
  5
372
  8
DATA
 62
     7
 66
     1
 10
0.0
 20
0.0
 30
0.0
 70
   128
  0
VERTEX
  5
768
  8
DATA
 62
     7
 10
241.71449072199991
 20
1231.53264055
 30
0.0
 42
-0.0243227860001485
  0
VERTEX
  5
769
  8
DATA
 62
     7
 10
241.3448911199998
 20
1231.599567575
 30
0.0
  0
VERTEX
  5
76A
  8
DATA
 62
     7
 10
241.3448911199998
 20
1231.599567575
 30
0.0
  0
VERTEX
  5
76B
  8
DATA
 62
     7
 10
241.3448911199998
 20
1231.599567575
 30
0.0
 42
-0.024134958000721
  0
VERTEX
  5
76C
  8
DATA
 62
     7
 10
240.9820161579996
 20
1231.7023306430001
 30
0.0
  0
VERTEX
  5
76D
  8
DATA
 62
     7
 10
240.9820161579996
 20
1231.7023306430001
 30
0.0
  0
VERTEX
  5
76E
  8
DATA
 62
     7
 10
240.9820161579996
 20
1231.7023306430001
 30
0.0
 42
-0.0238746990002352
  0
VERTEX
  5
76F
  8
DATA
 62
     7
 10
240.62867460299961
 20
1231.8401343370001
 30
0.0
  0
VERTEX
  5
770
  8
DATA
 62
     7
 10
240.62867460299961
 20
1231.8401343370001
 30
0.0
  0
VERTEX
  5
771
  8
DATA
 62
     7
 10
240.6286746029991
 20
1231.8401343370001
 30
0.0
 42
-0.0235544830001466
  0
VERTEX
  5
772
  8
DATA
 62
     7
 10
240.28760143100001
 20
1232.011912012
 30
0.0
  0
VERTEX
  5
773
  8
DATA
 62
     7
 10
240.28760143100001
 20
1232.011912012
 30
0.0
  0
VERTEX
  5
774
  8
DATA
 62
     7
 10
240.28760143099899
 20
1232.011912012
 30
0.0
 42
-0.0231887639996951
  0
VERTEX
  5
775
  8
DATA
 62
     7
 10
239.9614366589999
 20
1232.2163340530001
 30
0.0
  0
VERTEX
  5
776
  8
DATA
 62
     7
 10
239.9614366589999
 20
1232.2163340530001
 30
0.0
  0
VERTEX
  5
777
  8
DATA
 62
     7
 10
239.96143665899791
 20
1232.216334053001
 30
0.0
 42
-0.0227928699997994
  0
VERTEX
  5
778
  8
DATA
 62
     7
 10
239.65270490399959
 20
1232.451818169
 30
0.0
  0
VERTEX
  5
779
  8
DATA
 62
     7
 10
239.65270490399959
 20
1232.451818169
 30
0.0
  0
VERTEX
  5
77A
  8
DATA
 62
     7
 10
239.65270490399811
 20
1232.4518181690009
 30
0.0
 42
-0.0223820209999614
  0
VERTEX
  5
77B
  8
DATA
 62
     7
 10
239.36379584799991
 20
1232.7165416390001
 30
0.0
  0
VERTEX
  5
77C
  8
DATA
 62
     7
 10
239.36379584799991
 20
1232.7165416390001
 30
0.0
  0
VERTEX
  5
77D
  8
DATA
 62
     7
 10
239.36379584799991
 20
1232.7165416390001
 30
0.0
 42
-0.0219705390003003
  0
VERTEX
  5
77E
  8
DATA
 62
     7
 10
239.0969457409997
 20
1233.0084554170001
 30
0.0
  0
VERTEX
  5
77F
  8
DATA
 62
     7
 10
239.0969457409997
 20
1233.0084554170001
 30
0.0
  0
VERTEX
  5
780
  8
DATA
 62
     7
 10
239.096945740997
 20
1233.008455417003
 30
0.0
 42
-0.0215713209993594
  0
VERTEX
  5
781
  8
DATA
 62
     7
 10
238.8542200869997
 20
1233.325299999
 30
0.0
  0
VERTEX
  5
782
  8
DATA
 62
     7
 10
238.8542200869997
 20
1233.325299999
 30
0.0
  0
VERTEX
  5
783
  8
DATA
 62
     7
 10
238.8542200869997
 20
1233.325299999
 30
0.0
 42
-0.0211955379999799
  0
VERTEX
  5
784
  8
DATA
 62
     7
 10
238.63749765899999
 20
1233.664622906
 30
0.0
  0
VERTEX
  5
785
  8
DATA
 62
     7
 10
238.63749765899999
 20
1233.664622906
 30
0.0
  0
VERTEX
  5
786
  8
DATA
 62
     7
 10
238.63749765899999
 20
1233.664622906
 30
0.0
 42
-0.0208525440004448
  0
VERTEX
  5
787
  8
DATA
 62
     7
 10
238.4484559589996
 20
1234.023797672
 30
0.0
  0
VERTEX
  5
788
  8
DATA
 62
     7
 10
238.4484559589996
 20
1234.023797672
 30
0.0
  0
VERTEX
  5
789
  8
DATA
 62
     7
 10
238.44845595899781
 20
1234.023797672003
 30
0.0
 42
-0.0205499239992403
  0
VERTEX
  5
78A
  8
DATA
 62
     7
 10
238.2885582279996
 20
1234.400044169
 30
0.0
  0
VERTEX
  5
78B
  8
DATA
 62
     7
 10
238.2885582279996
 20
1234.400044169
 30
0.0
  0
VERTEX
  5
78C
  8
DATA
 62
     7
 10
238.2885582279996
 20
1234.400044169
 30
0.0
 42
-0.02029363900037
  0
VERTEX
  5
78D
  8
DATA
 62
     7
 10
238.15904212799981
 20
1234.790450129
 30
0.0
  0
VERTEX
  5
78E
  8
DATA
 62
     7
 10
238.15904212799981
 20
1234.790450129
 30
0.0
  0
VERTEX
  5
78F
  8
DATA
 62
     7
 10
238.15904212799981
 20
1234.790450129
 30
0.0
 42
-0.0200882200000545
  0
VERTEX
  5
790
  8
DATA
 62
     7
 10
238.06091015199991
 20
1235.1919936859999
 30
0.0
  0
VERTEX
  5
791
  8
DATA
 62
     7
 10
238.06091015199991
 20
1235.1919936859999
 30
0.0
  0
VERTEX
  5
792
  8
DATA
 62
     7
 10
238.06091015199991
 20
1235.1919936859999
 30
0.0
 42
-0.0199369620005816
  0
VERTEX
  5
793
  8
DATA
 62
     7
 10
237.9949218749997
 20
1235.6015667649999
 30
0.0
  0
VERTEX
  5
794
  8
DATA
 62
     7
 10
237.9949218749997
 20
1235.6015667649999
 30
0.0
  0
SEQEND
  5
795
  8
DATA
 62
     7
  0
ENDSEC
  0
EOF
