  0
SECTION
  2
HEADER
  9
$ACADVER
  1
AC1009
  9
$INSBASE
 10
0.0
 20
0.0
 30
0.0
  9
$EXTMIN
 10
-1700.1098548994751
 20
-2545.3337877911131
 30
-0.0044569222657458
  9
$EXTMAX
 10
1900.10987166328
 20
2807.2675001401658
 30
0.0000001020147522
  9
$LIMMIN
 10
0.0
 20
0.0
  9
$LIMMAX
 10
0.0
 20
0.0
  9
$ORTHOMODE
 70
     0
  9
$REGENMODE
 70
     1
  9
$FILLMODE
 70
     1
  9
$QTEXTMODE
 70
     0
  9
$MIRRTEXT
 70
     1
  9
$DRAGMODE
 70
     2
  9
$LTSCALE
 40
101.59999999999999
  9
$OSMODE
 70
   167
  9
$ATTMODE
 70
     1
  9
$TEXTSIZE
 40
0.0
  9
$TRACEWID
 40
1.0
  9
$TEXTSTYLE
  7
STANDARD
  9
$CLAYER
  8
DATA
  9
$CELTYPE
  6
CONTINUOUS
  9
$CECOLOR
 62
   256
  9
$DIMSCALE
 40
1.0
  9
$DIMASZ
 40
0.18
  9
$DIMEXO
 40
0.0625
  9
$DIMDLI
 40
0.38
  9
$DIMRND
 40
0.0
  9
$DIMDLE
 40
0.0
  9
$DIMEXE
 40
0.18
  9
$DIMTP
 40
0.0
  9
$DIMTM
 40
0.0
  9
$DIMTXT
 40
0.18
  9
$DIMCEN
 40
0.09
  9
$DIMTSZ
 40
0.0
  9
$DIMTOL
 70
     0
  9
$DIMLIM
 70
     0
  9
$DIMTIH
 70
     1
  9
$DIMTOH
 70
     1
  9
$DIMSE1
 70
     0
  9
$DIMSE2
 70
     0
  9
$DIMTAD
 70
     0
  9
$DIMZIN
 70
     0
  9
$DIMBLK
  1

  9
$DIMASO
 70
     1
  9
$DIMSHO
 70
     1
  9
$DIMPOST
  1

  9
$DIMAPOST
  1

  9
$DIMALT
 70
     0
  9
$DIMALTD
 70
     2
  9
$DIMALTF
 40
25.399999999999999
  9
$DIMLFAC
 40
1.0
  9
$DIMTOFL
 70
     0
  9
$DIMTVP
 40
0.0
  9
$DIMTIX
 70
     0
  9
$DIMSOXD
 70
     0
  9
$DIMSAH
 70
     0
  9
$DIMBLK1
  1

  9
$DIMBLK2
  1

  9
$DIMSTYLE
  2
STANDARD
  9
$DIMCLRD
 70
     0
  9
$DIMCLRE
 70
     0
  9
$DIMCLRT
 70
     0
  9
$DIMTFAC
 40
1.0
  9
$DIMGAP
 40
0.09
  9
$LUNITS
 70
     2
  9
$LUPREC
 70
     4
  9
$SKETCHINC
 40
0.1
  9
$FILLETRAD
 40
0.0
  9
$AUNITS
 70
     0
  9
$AUPREC
 70
     0
  9
$MENU
  1
acad
  9
$ELEVATION
 40
0.0
  9
$PELEVATION
 40
0.0
  9
$THICKNESS
 40
0.0
  9
$LIMCHECK
 70
     0
  9
$BLIPMODE
 70
     0
  9
$CHAMFERA
 40
0.0
  9
$CHAMFERB
 40
0.0
  9
$SKPOLY
 70
     0
  9
$TDCREATE
 40
2453404.6930439821
  9
$TDUPDATE
 40
2453404.6944167712
  9
$TDINDWG
 40
0.0002430556
  9
$TDUSRTIMER
 40
0.0002428819
  9
$USRTIMER
 70
     1
  9
$ANGBASE
 50
0.0
  9
$ANGDIR
 70
     0
  9
$PDMODE
 70
     1
  9
$PDSIZE
 40
-2.0
  9
$PLINEWID
 40
0.0
  9
$COORDS
 70
     0
  9
$SPLFRAME
 70
     0
  9
$SPLINETYPE
 70
     6
  9
$SPLINESEGS
 70
     8
  9
$ATTDIA
 70
     0
  9
$ATTREQ
 70
     1
  9
$HANDLING
 70
     1
  9
$HANDSEED
  5
523
  9
$SURFTAB1
 70
     6
  9
$SURFTAB2
 70
     6
  9
$SURFTYPE
 70
     6
  9
$SURFU
 70
     6
  9
$SURFV
 70
     6
  9
$UCSNAME
  2

  9
$UCSORG
 10
0.0
 20
0.0
 30
0.0
  9
$UCSXDIR
 10
1.0
 20
0.0
 30
0.0
  9
$UCSYDIR
 10
0.0
 20
1.0
 30
0.0
  9
$PUCSNAME
  2

  9
$PUCSORG
 10
0.0
 20
0.0
 30
0.0
  9
$PUCSXDIR
 10
1.0
 20
0.0
 30
0.0
  9
$PUCSYDIR
 10
0.0
 20
1.0
 30
0.0
  9
$USERI1
 70
     0
  9
$USERI2
 70
     0
  9
$USERI3
 70
     0
  9
$USERI4
 70
     0
  9
$USERI5
 70
     0
  9
$USERR1
 40
0.0
  9
$USERR2
 40
0.0
  9
$USERR3
 40
0.0
  9
$USERR4
 40
0.0
  9
$USERR5
 40
0.0
  9
$WORLDVIEW
 70
     1
  9
$SHADEDGE
 70
     3
  9
$SHADEDIF
 70
    70
  9
$TILEMODE
 70
     1
  9
$MAXACTVP
 70
    64
  9
$PLIMCHECK
 70
     0
  9
$PEXTMIN
 10
1.0000000000000000E+020
 20
1.0000000000000000E+020
 30
1.0000000000000000E+020
  9
$PEXTMAX
 10
-1.0000000000000000E+020
 20
-1.0000000000000000E+020
 30
-1.0000000000000000E+020
  9
$PLIMMIN
 10
0.0
 20
0.0
  9
$PLIMMAX
 10
12.0
 20
9.0
  9
$UNITMODE
 70
     0
  9
$VISRETAIN
 70
     0
  9
$PLINEGEN
 70
     1
  9
$PSLTSCALE
 70
     0
  0
ENDSEC
  0
SECTION
  2
TABLES
  0
TABLE
  2
VPORT
 70
     2
  0
VPORT
  2
*ACTIVE
 70
     0
 10
0.0
 20
0.0
 11
1.0
 21
1.0
 12
100.0000083819031
 22
130.96685617452661
 13
0.0
 23
0.0
 14
1.0
 24
1.0
 15
0.0
 25
0.0
 16
0.0
 26
0.0
 36
1.0
 17
0.0
 27
0.0
 37
0.0
 40
5396.2959923225553
 41
1.6430517711171659
 42
50.0
 43
0.0
 44
0.0
 50
0.0
 51
0.0
 71
     0
 72
  2000
 73
     1
 74
     1
 75
     0
 76
     0
 77
     0
 78
     0
  0
ENDTAB
  0
TABLE
  2
LTYPE
 70
    11
  0
LTYPE
  2
CONTINUOUS
 70
     0
  3
Solid line
 72
    65
 73
     0
 40
0.0
  0
LTYPE
  2
STYLE_01
 70
     0
  3

 72
    65
 73
     2
 40
0.4166412353515625
 49
0.208282470703125
 49
-0.2083587646484375
  0
ENDTAB
  0
TABLE
  2
LAYER
 70
     6
  0
LAYER
  2
0
 70
     0
 62
     7
  6
CONTINUOUS
  0
LAYER
  2
DATA
 70
     0
 62
     7
  6
CONTINUOUS
  0
LAYER
  2
HIBINO-BASE
 70
     0
 62
     7
  6
CONTINUOUS
  0
LAYER
  2
PATTERN_FILL
 70
     0
 62
     7
  6
CONTINUOUS
  0
LAYER
  2
SPEC
 70
     0
 62
     7
  6
CONTINUOUS
  0
LAYER
  2
DIMNSIONS
 70
     0
 62
     7
  6
CONTINUOUS
  0
ENDTAB
  0
TABLE
  2
STYLE
 70
     2
  0
STYLE
  2
STANDARD
 70
     0
 40
0.0
 41
1.0
 50
0.0
 71
     0
 42
0.0
  3
txt
  4
BIGFONT.SHX
  0
ENDTAB
  0
TABLE
  2
VIEW
 70
     0
  0
ENDTAB
  0
TABLE
  2
UCS
 70
     0
  0
ENDTAB
  0
TABLE
  2
APPID
 70
     1
  0
APPID
  2
ACAD
 70
     0
  0
ENDTAB
  0
TABLE
  2
DIMSTYLE
 70
     1
  0
DIMSTYLE
  2
STANDARD
 70
     0
  3

  4

  5

  6

  7

 40
1.0
 41
0.18
 42
0.0625
 43
0.38
 44
0.18
 45
0.0
 46
0.0
 47
0.0
 48
0.0
140
0.18
141
0.09
142
0.0
143
25.399999999999999
144
1.0
145
0.0
146
1.0
147
0.09
 71
     0
 72
     0
 73
     1
 74
     1
 75
     0
 76
     0
 77
     0
 78
     0
170
     0
171
     2
172
     0
173
     0
174
     0
175
     0
176
     0
177
     0
178
     0
  0
ENDTAB
  0
ENDSEC
  0
SECTION
  2
BLOCKS
  0
BLOCK
  8
0
  2
$MODEL_SPACE
 70
     0
 10
0.0
 20
0.0
 30
0.0
  3
$MODEL_SPACE
  1

  0
ENDBLK
  5
482
  8
0
  0
BLOCK
 67
     1
  8
0
  2
$PAPER_SPACE
 70
     0
 10
0.0
 20
0.0
 30
0.0
  3
$PAPER_SPACE
  1

  0
ENDBLK
  5
47E
 67
     1
  8
0
  0
BLOCK
  8
PATTERN_FILL
  2
____
 70
     0
 10
0.0
 20
0.0
 30
0.0
  3
____
  1

  0
LINE
  5
34
  8
0
  6
CONTINUOUS
 62
     7
 10
90.745656063963636
 20
940.07631535065195
 30
0.0
 11
96.590351319573585
 21
945.92101060626203
 31
0.0
  0
LINE
  5
35
  8
0
  6
CONTINUOUS
 62
     7
 10
103.6279174437351
 20
927.50273260770769
 30
0.0
 11
109.1639340625178
 21
933.03874922649038
 31
0.0
  0
LINE
  5
36
  8
0
  6
CONTINUOUS
 62
     7
 10
99.50273261012272
 20
926.20597489884153
 30
0.0
 11
110.46069177138421
 21
937.16393406010332
 31
0.0
  0
LINE
  5
37
  8
0
  6
CONTINUOUS
 62
     7
 10
97.502732610122735
 20
927.03440202358775
 30
0.0
 11
109.63226464663801
 21
939.16393406010332
 31
0.0
  0
LINE
  5
38
  8
0
  6
CONTINUOUS
 62
     7
 10
95.502732610122706
 20
927.86282914833407
 30
0.0
 11
108.80383752189179
 21
941.1639340601032
 31
0.0
  0
LINE
  5
39
  8
0
  6
CONTINUOUS
 62
     7
 10
93.502732610122663
 20
928.69125627307994
 30
0.0
 11
107.97541039714559
 21
943.16393406010343
 31
0.0
  0
LINE
  5
3A
  8
0
  6
CONTINUOUS
 62
     7
 10
92.062038607124578
 20
930.07898939482845
 30
0.0
 11
106.5876772753975
 21
944.60462806310125
 31
0.0
  0
LINE
  5
3B
  8
0
  6
CONTINUOUS
 62
     7
 10
91.233611482378393
 20
932.07898939482845
 30
0.0
 11
104.5876772753975
 21
945.43305518784734
 31
0.0
  0
LINE
  5
3C
  8
0
  6
CONTINUOUS
 62
     7
 10
90.405184357632237
 20
934.07898939482811
 30
0.0
 11
102.5876772753976
 21
946.26148231259367
 31
0.0
  0
LINE
  5
3D
  8
0
  6
CONTINUOUS
 62
     7
 10
89.576757232885996
 20
936.07898939482845
 30
0.0
 11
100.5876772753975
 21
947.08990943733932
 31
0.0
  0
ENDBLK
  5
3E
  8
PATTERN_FILL
  0
BLOCK
  8
PATTERN_FILL
  2
____-1
 70
     0
 10
0.0
 20
0.0
 30
0.0
  3
____-1
  1

  0
LINE
  5
40
  8
0
  6
CONTINUOUS
 62
     7
 10
158.98254876977899
 20
877.20050968425937
 30
0.0
 11
159.46615698596591
 21
877.68411790044615
 31
0.0
  0
LINE
  5
41
  8
0
  6
CONTINUOUS
 62
     7
 10
171.33215023487401
 20
861.26583990189238
 30
0.0
 11
175.4008267683331
 21
865.33451643535125
 31
0.0
  0
LINE
  5
42
  8
0
  6
CONTINUOUS
 62
     7
 10
166.59917323730659
 20
859.36129002907114
 30
0.0
 11
177.30537664115411
 21
870.0674934329187
 31
0.0
  0
LINE
  5
43
  8
0
  6
CONTINUOUS
 62
     7
 10
164.59917323730659
 20
860.18971715381736
 30
0.0
 11
176.4769495164079
 21
872.0674934329187
 31
0.0
  0
LINE
  5
44
  8
0
  6
CONTINUOUS
 62
     7
 10
162.59917323730659
 20
861.01814427856357
 30
0.0
 11
175.64852239166169
 21
874.06749343291858
 31
0.0
  0
LINE
  5
45
  8
0
  6
CONTINUOUS
 62
     7
 10
160.59917323730659
 20
861.84657140330978
 30
0.0
 11
174.8200952669155
 21
876.06749343291858
 31
0.0
  0
LINE
  5
46
  8
0
  6
CONTINUOUS
 62
     7
 10
158.90672347689451
 20
862.98254876764383
 30
0.0
 11
173.68411790258139
 21
877.75994319333086
 31
0.0
  0
LINE
  5
47
  8
0
  6
CONTINUOUS
 62
     7
 10
158.07829635214819
 20
864.98254876764372
 30
0.0
 11
171.68411790258139
 21
878.58837031807695
 31
0.0
  0
LINE
  5
48
  8
0
  6
CONTINUOUS
 62
     7
 10
157.24986922740209
 20
866.98254876764395
 30
0.0
 11
169.68411790258139
 21
879.41679744282317
 31
0.0
  0
LINE
  5
49
  8
0
  6
CONTINUOUS
 62
     7
 10
156.42144210265579
 20
868.98254876764383
 30
0.0
 11
167.68411790258139
 21
880.24522456756949
 31
0.0
  0
LINE
  5
4A
  8
0
  6
CONTINUOUS
 62
     7
 10
156.98254876977899
 20
872.37208255951327
 30
0.0
 11
164.29458411071209
 21
879.68411790044627
 31
0.0
  0
ENDBLK
  5
4B
  8
PATTERN_FILL
  0
BLOCK
  8
PATTERN_FILL
  2
____-2
 70
     0
 10
0.0
 20
0.0
 30
0.0
  3
____-2
  1

  0
LINE
  5
4D
  8
0
  6
CONTINUOUS
 62
     7
 10
224.87409280942899
 20
743.09205372390943
 30
0.0
 11
226.90794627981509
 21
745.12590719429545
 31
0.0
  0
LINE
  5
4E
  8
0
  6
CONTINUOUS
 62
     7
 10
236.64442164370701
 20
726.5781113107256
 30
0.0
 11
243.42188869299929
 21
733.35557836001772
 31
0.0
  0
LINE
  5
4F
  8
0
  6
CONTINUOUS
 62
     7
 10
233.24644132538589
 20
726.0085581171503
 30
0.0
 11
243.99144188657439
 21
736.75355867833889
 31
0.0
  0
LINE
  5
50
  8
0
  6
CONTINUOUS
 62
     7
 10
230.76289398843741
 20
726.35343790494812
 30
0.0
 11
243.6465620987766
 21
739.23710601528717
 31
0.0
  0
LINE
  5
51
  8
0
  6
CONTINUOUS
 62
     7
 10
228.69198286181859
 20
727.1109539030756
 30
0.0
 11
242.88904610064921
 21
741.30801714190613
 31
0.0
  0
LINE
  5
52
  8
0
  6
CONTINUOUS
 62
     7
 10
226.93655192711481
 20
728.18395009311814
 30
0.0
 11
241.81604991060681
 21
743.0634480766098
 31
0.0
  0
LINE
  5
53
  8
0
  6
CONTINUOUS
 62
     7
 10
225.45617956136249
 20
729.53200485211175
 30
0.0
 11
240.467995151613
 21
744.5438204423624
 31
0.0
  0
LINE
  5
54
  8
0
  6
CONTINUOUS
 62
     7
 10
224.24557765401599
 20
731.14983006951161
 30
0.0
 11
238.85016993421331
 21
745.75442234970865
 31
0.0
  0
LINE
  5
55
  8
0
  6
CONTINUOUS
 62
     7
 10
223.33278349932311
 20
733.06546303956486
 30
0.0
 11
236.93453696416
 21
746.66721650440172
 31
0.0
  0
LINE
  5
56
  8
0
  6
CONTINUOUS
 62
     7
 10
222.79567871556401
 20
735.35678538055208
 30
0.0
 11
234.64321462317281
 21
747.20432128816071
 31
0.0
  0
LINE
  5
57
  8
0
  6
CONTINUOUS
 62
     7
 10
222.8184756855278
 20
738.20800947526232
 30
0.0
 11
231.79199052846269
 21
747.18152431819703
 31
0.0
  0
ENDBLK
  5
58
  8
PATTERN_FILL
  0
BLOCK
  8
PATTERN_FILL
  2
____-3
 70
     0
 10
0.0
 20
0.0
 30
0.0
  3
____-3
  1

  0
LINE
  5
5A
  8
0
  6
CONTINUOUS
 62
     7
 10
292.31588210207047
 20
610.53384301655092
 30
0.0
 11
292.79949032067378
 21
611.01745123515423
 31
0.0
  0
LINE
  5
5B
  8
0
  6
CONTINUOUS
 62
     7
 10
304.6654835695818
 20
594.5991732366
 30
0.0
 11
308.73416010062448
 21
598.66784976764279
 31
0.0
  0
LINE
  5
5C
  8
0
  6
CONTINUOUS
 62
     7
 10
299.93250657101379
 20
592.6946233627782
 30
0.0
 11
310.63870997444661
 21
603.40082676621103
 31
0.0
  0
LINE
  5
5D
  8
0
  6
CONTINUOUS
 62
     7
 10
297.93250657101368
 20
593.52305048752419
 30
0.0
 11
309.8102828497004
 21
605.40082676621103
 31
0.0
  0
LINE
  5
5E
  8
0
  6
CONTINUOUS
 62
     7
 10
295.93250657101368
 20
594.35147761227051
 30
0.0
 11
308.98185572495419
 21
607.40082676621125
 31
0.0
  0
LINE
  5
5F
  8
0
  6
CONTINUOUS
 62
     7
 10
293.93250657101368
 20
595.17990473701673
 30
0.0
 11
308.15342860020797
 21
609.40082676621125
 31
0.0
  0
LINE
  5
60
  8
0
  6
CONTINUOUS
 62
     7
 10
292.2400568101869
 20
596.31588210093616
 30
0.0
 11
307.01745123628848
 21
611.09327652703792
 31
0.0
  0
LINE
  5
61
  8
0
  6
CONTINUOUS
 62
     7
 10
291.41162968544069
 20
598.31588210093628
 30
0.0
 11
305.01745123628848
 21
611.92170365178401
 31
0.0
  0
LINE
  5
62
  8
0
  6
CONTINUOUS
 62
     7
 10
290.58320256069447
 20
600.31588210093639
 30
0.0
 11
303.01745123628848
 21
612.75013077653023
 31
0.0
  0
LINE
  5
63
  8
0
  6
CONTINUOUS
 62
     7
 10
289.75477543594832
 20
602.31588210093639
 30
0.0
 11
301.01745123628848
 21
613.57855790127644
 31
0.0
  0
LINE
  5
64
  8
0
  6
CONTINUOUS
 62
     7
 10
290.31588210207047
 20
605.70541589180471
 30
0.0
 11
297.62791744542011
 21
613.01745123515423
 31
0.0
  0
ENDBLK
  5
65
  8
PATTERN_FILL
  0
BLOCK
  8
PATTERN_FILL
  2
____-4
 70
     0
 10
0.0
 20
0.0
 30
0.0
  3
____-4
  1

  0
LINE
  5
67
  8
0
  6
CONTINUOUS
 62
     7
 10
823.86410241379474
 20
856.22419895200619
 30
0.0
 11
830.44246771659357
 21
862.80256425480513
 31
0.0
  0
LINE
  5
68
  8
0
  6
CONTINUOUS
 62
     7
 10
837.48003384075537
 20
844.38428625625102
 30
0.0
 11
842.2823804123492
 21
849.18663282784473
 31
0.0
  0
LINE
  5
69
  8
0
  6
CONTINUOUS
 62
     7
 10
833.05095292329031
 20
842.78363246353183
 30
0.0
 11
843.88303420506804
 21
853.61571374530979
 31
0.0
  0
LINE
  5
6A
  8
0
  6
CONTINUOUS
 62
     7
 10
831.05095292329042
 20
843.61205958827816
 30
0.0
 11
843.05460708032183
 21
855.61571374530979
 31
0.0
  0
LINE
  5
6B
  8
0
  6
CONTINUOUS
 62
     7
 10
829.05095292329042
 20
844.44048671302448
 30
0.0
 11
842.2261799555755
 21
857.61571374530979
 31
0.0
  0
LINE
  5
6C
  8
0
  6
CONTINUOUS
 62
     7
 10
827.05095292329054
 20
845.26891383777036
 30
0.0
 11
841.39775283082952
 21
859.6157137453099
 31
0.0
  0
LINE
  5
6D
  8
0
  6
CONTINUOUS
 62
     7
 10
825.48438104080844
 20
846.53076908003493
 30
0.0
 11
840.13589758856506
 21
861.18228562779154
 31
0.0
  0
LINE
  5
6E
  8
0
  6
CONTINUOUS
 62
     7
 10
824.65595391606212
 20
848.53076908003493
 30
0.0
 11
838.13589758856494
 21
862.01071275253764
 31
0.0
  0
LINE
  5
6F
  8
0
  6
CONTINUOUS
 62
     7
 10
823.8275267913159
 20
850.53076908003482
 30
0.0
 11
836.13589758856494
 21
862.83913987728386
 31
0.0
  0
LINE
  5
70
  8
0
  6
CONTINUOUS
 62
     7
 10
822.9990996665698
 20
852.53076908003504
 30
0.0
 11
834.13589758856506
 21
863.66756700203018
 31
0.0
  0
ENDBLK
  5
71
  8
PATTERN_FILL
  0
BLOCK
  8
PATTERN_FILL
  2
____-5
 70
     0
 10
0.0
 20
0.0
 30
0.0
  3
____-5
  1

  0
LINE
  5
73
  8
0
  6
CONTINUOUS
 62
     7
 10
758.55277480662335
 20
792.82961022414952
 30
0.0
 11
760.503723111451
 21
794.78055852897705
 31
0.0
  0
LINE
  5
74
  8
0
  6
CONTINUOUS
 62
     7
 10
772.36971636035889
 20
778.36228053042294
 30
0.0
 11
774.97105280517735
 21
780.96361697524151
 31
0.0
  0
LINE
  5
75
  8
0
  6
CONTINUOUS
 62
     7
 10
767.54128923561279
 20
776.36228053042294
 30
0.0
 11
776.97105280517735
 21
785.79204409998761
 31
0.0
  0
LINE
  5
76
  8
0
  6
CONTINUOUS
 62
     7
 10
765.02894719746291
 20
776.67836561701938
 30
0.0
 11
776.65496771858079
 21
788.30438613813726
 31
0.0
  0
LINE
  5
77
  8
0
  6
CONTINUOUS
 62
     7
 10
763.02894719746303
 20
777.50679274176559
 30
0.0
 11
775.82654059383458
 21
790.30438613813715
 31
0.0
  0
LINE
  5
78
  8
0
  6
CONTINUOUS
 62
     7
 10
761.02894719746303
 20
778.33521986651169
 30
0.0
 11
774.99811346908848
 21
792.30438613813726
 31
0.0
  0
LINE
  5
79
  8
0
  6
CONTINUOUS
 62
     7
 10
759.08474167906741
 20
779.21944147286251
 30
0.0
 11
774.11389186273777
 21
794.24859165653277
 31
0.0
  0
LINE
  5
7A
  8
0
  6
CONTINUOUS
 62
     7
 10
758.25631455432131
 20
781.21944147286251
 30
0.0
 11
772.11389186273789
 21
795.07701878127932
 31
0.0
  0
LINE
  5
7B
  8
0
  6
CONTINUOUS
 62
     7
 10
757.42788742957509
 20
783.21944147286251
 30
0.0
 11
770.11389186273777
 21
795.90544590602519
 31
0.0
  0
LINE
  5
7C
  8
0
  6
CONTINUOUS
 62
     7
 10
756.59946030482865
 20
785.21944147286251
 30
0.0
 11
768.11389186273789
 21
796.73387303077118
 31
0.0
  0
LINE
  5
7D
  8
0
  6
CONTINUOUS
 62
     7
 10
756.55277480662335
 20
788.00118309940342
 30
0.0
 11
765.33215023619721
 21
796.78055852897705
 31
0.0
  0
ENDBLK
  5
7E
  8
PATTERN_FILL
  0
ENDSEC
  0
SECTION
  2
ENTITIES
  0
LINE
  5
7F
  8
HIBINO-BASE
  6
CONTINUOUS
 62
     7
 10
-1700.0
 20
2807.1044850000012
 30
0.0
 11
1900.0
 21
2807.1044850000012
 31
0.0
  0
LINE
  5
80
  8
HIBINO-BASE
  6
CONTINUOUS
 62
     7
 10
1900.0
 20
-2392.8955150000011
 30
0.0
 11
-1700.0
 21
-2392.8955150000011
 31
0.0
  0
LINE
  5
81
  8
HIBINO-BASE
  6
CONTINUOUS
 62
     7
 10
-1700.0
 20
-2392.8955150000011
 30
0.0
 11
-1700.0
 21
2807.1044850000012
 31
0.0
  0
TEXT
  5
82
  8
HIBINO-BASE
 62
     7
 10
-1556.319999999999
 20
-2521.069070999999
 30
0.0
 40
72.000883593749975
  1
Hibino Corporation
 41
0.85
 11
-1556.319999999999
 21
-2449.0681874062489
 31
0.0
 73
     3
  0
LINE
  5
83
  8
HIBINO-BASE
  6
CONTINUOUS
 62
     7
 10
1900.0
 20
2807.1044850000012
 30
0.0
 11
1900.0
 21
-2392.8955150000011
 31
0.0
  0
LINE
  5
84
  8
HIBINO-BASE
  6
CONTINUOUS
 62
     7
 10
100.0
 20
-1942.8955149999999
 30
0.0
 11
1900.0
 21
-1942.8955149999999
 31
0.0
  0
LINE
  5
85
  8
HIBINO-BASE
  6
CONTINUOUS
 62
     7
 10
100.0
 20
-2392.8955150000011
 30
0.0
 11
100.0
 21
-1942.8955149999999
 31
0.0
  0
TEXT
  5
86
  8
HIBINO-BASE
 62
     7
 10
118.0
 20
-1993.0693816666669
 30
0.0
 40
32.576822916666671
  1
NOTE
 41
0.85
 11
118.0
 21
-1960.4925587499999
 31
0.0
 73
     3
  0
LINE
  5
87
  8
HIBINO-BASE
  6
CONTINUOUS
 62
     7
 10
800.0
 20
-2392.8955150000011
 30
0.0
 11
800.0
 21
-1942.8955149999999
 31
0.0
  0
TEXT
  5
88
  8
HIBINO-BASE
 62
     7
 10
818.0
 20
-1993.0693816666669
 30
0.0
 40
32.576822916666671
  1
TITLE
 41
0.85
 11
818.0
 21
-1960.4925587499999
 31
0.0
 73
     3
  0
TEXT
  5
89
  8
HIBINO-BASE
 62
     7
 10
1101.3678
 20
-2521.069070999999
 30
0.0
 40
72.000883593749975
  1
ヒビノ株式会社
 41
0.85
 11
1101.3678
 21
-2449.0681874062489
 31
0.0
 73
     3
  0
LINE
  5
8A
  8
HIBINO-BASE
  6
CONTINUOUS
 62
     7
 10
100.0
 20
-2192.8955150000002
 30
0.0
 11
1900.0
 21
-2192.8955150000002
 31
0.0
  0
TEXT
  5
8B
  8
HIBINO-BASE
 62
     7
 10
1068.0
 20
-2241.942981666667
 30
0.0
 40
32.576822916666671
  1
DRAWN
 41
0.85
 11
1068.0
 21
-2209.3661587500001
 31
0.0
 73
     3
  0
TEXT
  5
8C
  8
HIBINO-BASE
 62
     7
 10
568.0
 20
-2241.942981666667
 30
0.0
 40
32.576822916666671
  1
DATE
 41
0.85
 11
568.0
 21
-2209.3661587500001
 31
0.0
 73
     3
  0
TEXT
  5
8D
  8
HIBINO-BASE
 62
     7
 10
368.0
 20
-2241.942981666667
 30
0.0
 40
32.576822916666671
  1
SCALE
 41
0.85
 11
368.0
 21
-2209.3661587500001
 31
0.0
 73
     3
  0
TEXT
  5
8E
  8
HIBINO-BASE
 62
     7
 10
818.0
 20
-2241.942981666667
 30
0.0
 40
32.576822916666671
  1
DESIGN
 41
0.85
 11
818.0
 21
-2209.3661587500001
 31
0.0
 73
     3
  0
TEXT
  5
8F
  8
HIBINO-BASE
 62
     7
 10
1568.0
 20
-2241.942981666667
 30
0.0
 40
32.576822916666671
  1
DRAWING NO.
 41
0.85
 11
1568.0
 21
-2209.3661587500001
 31
0.0
 73
     3
  0
TEXT
  5
90
  8
HIBINO-BASE
 62
     7
 10
1318.0
 20
-2241.942981666667
 30
0.0
 40
32.576822916666671
  1
CHECK
 41
0.85
 11
1318.0
 21
-2209.3661587500001
 31
0.0
 73
     3
  0
LINE
  5
91
  8
HIBINO-BASE
  6
CONTINUOUS
 62
     7
 10
387.5
 20
-2367.8955150000002
 30
0.0
 11
462.5
 21
-2292.8955150000002
 31
0.0
  0
TEXT
  5
92
  8
HIBINO-BASE
 62
     7
 10
375.0
 20
-2315.0743816666659
 30
0.0
 40
32.576822916666671
  1
1
 41
0.85
 11
375.0
 21
-2282.4975587499998
 31
0.0
 73
     3
  0
LINE
  5
93
  8
HIBINO-BASE
  6
CONTINUOUS
 62
     7
 10
350.0
 20
-2392.8955150000011
 30
0.0
 11
350.0
 21
-2192.8955150000002
 31
0.0
  0
LINE
  5
94
  8
HIBINO-BASE
  6
CONTINUOUS
 62
     7
 10
549.99999999999989
 20
-2392.8955150000011
 30
0.0
 11
549.99999999999989
 21
-2192.8955150000002
 31
0.0
  0
LINE
  5
95
  8
HIBINO-BASE
  6
CONTINUOUS
 62
     7
 10
1050.0
 20
-2192.8955150000002
 30
0.0
 11
1050.0
 21
-2392.8955150000011
 31
0.0
  0
LINE
  5
96
  8
HIBINO-BASE
  6
CONTINUOUS
 62
     7
 10
1550.0
 20
-2192.8955150000002
 30
0.0
 11
1550.0
 21
-2392.8955150000011
 31
0.0
  0
LINE
  5
97
  8
HIBINO-BASE
  6
CONTINUOUS
 62
     7
 10
1300.0
 20
-2392.8955150000011
 30
0.0
 11
1300.0
 21
-2192.8955150000002
 31
0.0
  0
TEXT
  5
98
  8
HIBINO-BASE
 62
     7
 10
567.13079999999979
 20
-2335.6225816666661
 30
0.0
 40
32.576822916666671
  1
'04.11.
 41
0.85
 11
567.13079999999979
 21
-2303.04575875
 31
0.0
 73
     3
  0
TEXT
  5
99
  8
HIBINO-BASE
 62
     7
 10
450.0
 20
-2352.5743816666659
 30
0.0
 40
32.576822916666671
  1
20
 41
0.85
 11
450.0
 21
-2319.9975587499989
 31
0.0
 73
     3
  0
TEXT
  5
9A
  8
HIBINO-BASE
 62
     7
 10
1080.116200220692
 20
-2335.6225816666661
 30
0.0
 40
32.576822916666671
  1
N.Sasaki
 41
0.85
 11
1080.116200220692
 21
-2303.04575875
 31
0.0
 73
     3
  0
TEXT
  5
9B
  8
HIBINO-BASE
 62
     7
 10
177.666666666667
 20
-2353.3755150000002
 30
0.0
 40
65.153645833333329
  1
A4
 41
0.85
 11
177.666666666667
 21
-2288.2218691666671
 31
0.0
 73
     3
  0
TEXT
  5
9C
  8
HIBINO-BASE
 62
     7
 10
1330.116200220692
 20
-2335.6225816666661
 30
0.0
 40
32.576822916666671
  1
T.Taki
 41
0.85
 11
1330.116200220692
 21
-2303.04575875
 31
0.0
 73
     3
  0
TEXT
  5
9D
  8
HIBINO-BASE
 62
     7
 10
119.1666666666667
 20
-2245.2846149999991
 30
0.0
 40
32.576822916666671
  1
PAPER SIZE
 41
0.85
 11
119.1666666666667
 21
-2212.7077920833331
 31
0.0
 73
     3
  0
INSERT
  5
9E
  8
PATTERN_FILL
 62
     7
  2
____
 10
100.0
 20
140.0
 30
0.0
  0
INSERT
  5
9F
  8
PATTERN_FILL
 62
     7
  2
____-1
 10
100.0
 20
140.0
 30
0.0
  0
INSERT
  5
A0
  8
PATTERN_FILL
 62
     7
  2
____-2
 10
100.0
 20
140.0
 30
0.0
  0
INSERT
  5
A1
  8
PATTERN_FILL
 62
     7
  2
____-3
 10
100.0
 20
140.0
 30
0.0
  0
INSERT
  5
A2
  8
PATTERN_FILL
 62
     7
  2
____-4
 10
100.0
 20
140.0
 30
0.0
  0
INSERT
  5
A3
  8
PATTERN_FILL
 62
     7
  2
____-5
 10
100.0
 20
140.0
 30
0.0
  0
LINE
  5
A4
  8
SPEC
  6
CONTINUOUS
 62
     7
 10
-1550.0
 20
2607.1044849999998
 30
0.0
 11
1400.0
 21
2607.1044849999998
 31
0.0
  0
LINE
  5
A5
  8
SPEC
  6
CONTINUOUS
 62
     7
 10
-1550.0
 20
2532.1044849999998
 30
0.0
 11
1400.0
 21
2532.1044849999998
 31
0.0
  0
LINE
  5
A6
  8
SPEC
  6
CONTINUOUS
 62
     7
 10
-1550.0
 20
2382.1044849999998
 30
0.0
 11
1400.0
 21
2382.1044849999998
 31
0.0
  0
LINE
  5
A7
  8
SPEC
  6
CONTINUOUS
 62
     7
 10
-1550.0
 20
2457.1044849999998
 30
0.0
 11
1400.0
 21
2457.1044849999998
 31
0.0
  0
LINE
  5
A8
  8
SPEC
  6
CONTINUOUS
 62
     7
 10
-1550.0
 20
1932.1044850000001
 30
0.0
 11
1400.0
 21
1932.1044850000001
 31
0.0
  0
LINE
  5
A9
  8
SPEC
  6
CONTINUOUS
 62
     7
 10
-1550.0
 20
1857.1044850000001
 30
0.0
 11
1400.0
 21
1857.1044850000001
 31
0.0
  0
LINE
  5
AA
  8
SPEC
  6
CONTINUOUS
 62
     7
 10
-1550.0
 20
1632.1044849999989
 30
0.0
 11
1400.0
 21
1632.1044849999989
 31
0.0
  0
LINE
  5
AB
  8
SPEC
  6
CONTINUOUS
 62
     7
 10
-1550.0
 20
1782.1044849999989
 30
0.0
 11
1400.0
 21
1782.1044849999989
 31
0.0
  0
LINE
  5
AC
  8
SPEC
  6
CONTINUOUS
 62
     7
 10
-1550.0
 20
1482.1044850000001
 30
0.0
 11
1400.0
 21
1482.1044850000001
 31
0.0
  0
LINE
  5
AD
  8
SPEC
  6
CONTINUOUS
 62
     7
 10
-1550.0
 20
2607.1044849999998
 30
0.0
 11
-1550.0
 21
1482.1044850000001
 31
0.0
  0
TEXT
  5
AE
  8
SPEC
 62
     7
 10
-1525.0
 20
2634.969885
 30
0.0
 40
48.865234375000007
  1
仕様
 41
0.85
 11
-1525.0
 21
2683.835119375
 31
0.0
 73
     3
  0
LINE
  5
AF
  8
SPEC
  6
CONTINUOUS
 62
     7
 10
-900.0
 20
2607.1044849999998
 30
0.0
 11
-900.0
 21
1482.1044850000001
 31
0.0
  0
LINE
  5
B0
  8
SPEC
  6
CONTINUOUS
 62
     7
 10
549.99999999999989
 20
252.5611066649881
 30
0.0
 11
850.0
 21
252.5611066649881
 31
0.0
  0
TEXT
  5
B1
  8
SPEC
 62
     7
 10
629.82639999999969
 20
277.56104266498829
 30
0.0
 40
36.000518749999998
  1
接続図
 41
0.85
 11
629.82639999999969
 21
313.56156141498832
 31
0.0
 73
     3
  0
LINE
  5
B2
  8
SPEC
  6
CONTINUOUS
 62
     7
 10
1400.0
 20
2607.1044849999998
 30
0.0
 11
1400.0
 21
1482.1044850000001
 31
0.0
  0
LINE
  5
B3
  8
SPEC
  6
CONTINUOUS
 62
     7
 10
-1549.9999999999991
 20
2307.1044850000012
 30
0.0
 11
1400.0
 21
2307.1044850000012
 31
0.0
  0
LINE
  5
B4
  8
SPEC
  6
CONTINUOUS
 62
     7
 10
-1550.0
 20
2157.1044849999998
 30
0.0
 11
1400.0
 21
2157.1044849999998
 31
0.0
  0
LINE
  5
B5
  8
SPEC
  6
CONTINUOUS
 62
     7
 10
-1550.0
 20
2232.1044849999998
 30
0.0
 11
1400.0
 21
2232.1044849999998
 31
0.0
  0
LINE
  5
B6
  8
SPEC
  6
CONTINUOUS
 62
     7
 10
-1550.0
 20
2082.1044849999998
 30
0.0
 11
1400.0
 21
2082.1044849999998
 31
0.0
  0
LINE
  5
B7
  8
SPEC
  6
CONTINUOUS
 62
     7
 10
-1550.0
 20
2007.1044850000001
 30
0.0
 11
1400.0
 21
2007.1044850000001
 31
0.0
  0
LINE
  5
B8
  8
SPEC
  6
CONTINUOUS
 62
     7
 10
-1550.0
 20
1557.1044849999989
 30
0.0
 11
1400.0
 21
1557.1044849999989
 31
0.0
  0
LINE
  5
B9
  8
SPEC
  6
CONTINUOUS
 62
     7
 10
400.00000000249918
 20
343.333333335725
 30
0.0
 11
400.00000000249918
 21
810.00000000122509
 31
0.0
  0
TEXT
  5
BA
  8
SPEC
 62
     7
 10
1599.9999999995
 20
1168.8731066651969
 30
0.0
 40
39.092187499902273
  1
2043G
 41
0.85
 11
1599.9999999995
 21
1207.9652941650991
 31
0.0
 73
     3
  0
CIRCLE
  5
BB
  8
SPEC
  6
CONTINUOUS
 62
     7
 10
1400.0
 20
1252.5611066649881
 30
0.0
 40
143.99999999963981
  0
CIRCLE
  5
BC
  8
SPEC
  6
CONTINUOUS
 62
     7
 10
1400.0
 20
1252.5611066649881
 30
0.0
 40
168.73200191559411
  0
LINE
  5
BD
  8
SPEC
  6
CONTINUOUS
 62
     7
 10
1415.99999999996
 20
993.33333333410019
 30
0.0
 11
1415.99999999996
 21
1164.5611066652079
 31
0.0
  0
LINE
  5
BE
  8
SPEC
  6
CONTINUOUS
 62
     7
 10
1384.00000000004
 20
1164.5611066652079
 30
0.0
 11
1384.00000000004
 21
926.6666666676
 31
0.0
  0
TEXT
  5
BF
  8
SPEC
 62
     7
 10
1155.0000000006121
 20
1037.321106665526
 30
0.0
 40
32.576822916585229
  1
GRN/BLK(-)
 41
0.85
 11
1155.0000000006121
 21
1069.8979295821109
 31
0.0
 73
     3
  0
TEXT
  5
C0
  8
SPEC
 62
     7
 10
1433.3333333332489
 20
1037.321106665526
 30
0.0
 40
32.576822916585229
  1
GRN(+)
 41
0.85
 11
1433.3333333332489
 21
1069.8979295821109
 31
0.0
 73
     3
  0
CIRCLE
  5
C1
  8
SPEC
  6
CONTINUOUS
 62
     7
 10
1400.0
 20
1407.467908389016
 30
0.0
 40
7.4999999999808979
  0
CIRCLE
  5
C2
  8
SPEC
  6
CONTINUOUS
 62
     7
 10
1245.0931982759739
 20
1252.561106664984
 30
0.0
 40
7.4999999999808979
  0
CIRCLE
  5
C3
  8
SPEC
  6
CONTINUOUS
 62
     7
 10
1399.999999999998
 20
1097.654304940959
 30
0.0
 40
7.4999999999818092
  0
CIRCLE
  5
C4
  8
SPEC
  6
CONTINUOUS
 62
     7
 10
1554.9068017240279
 20
1252.561106664986
 30
0.0
 40
7.4999999999818092
  0
CIRCLE
  5
C5
  8
SPEC
  6
CONTINUOUS
 62
     7
 10
1290.464350049019
 20
1362.0967566159691
 30
0.0
 40
7.4999999999818092
  0
CIRCLE
  5
C6
  8
SPEC
  6
CONTINUOUS
 62
     7
 10
1290.464350049022
 20
1143.0254567140071
 30
0.0
 40
7.4999999999818092
  0
CIRCLE
  5
C7
  8
SPEC
  6
CONTINUOUS
 62
     7
 10
1509.535649950979
 20
1143.0254567140071
 30
0.0
 40
7.4999999999818092
  0
CIRCLE
  5
C8
  8
SPEC
  6
CONTINUOUS
 62
     7
 10
1509.5356499509819
 20
1362.0967566159679
 30
0.0
 40
7.4999999999808979
  0
TEXT
  5
C9
  8
SPEC
 62
     7
 10
1599.9999999995
 20
1234.273106665034
 30
0.0
 40
39.092187499902273
  1
Low Freq
 41
0.85
 11
1599.9999999995
 21
1273.3652941649359
 31
0.0
 73
     3
  0
TEXT
  5
CA
  8
SPEC
 62
     7
 10
1599.9999999995
 20
1299.6731066648699
 30
0.0
 40
39.092187499902273
  1
Driver
 41
0.85
 11
1599.9999999995
 21
1338.7652941647721
 31
0.0
 73
     3
  0
LINE
  5
CB
  8
SPEC
  6
CONTINUOUS
 62
     7
 10
1476.315136113165
 20
1276.561106664928
 30
0.0
 11
1541.985914794036
 21
1276.561106664928
 31
0.0
  0
LINE
  5
CC
  8
SPEC
  6
CONTINUOUS
 62
     7
 10
1476.315136113165
 20
1228.561106665047
 30
0.0
 11
1541.985914794036
 21
1228.561106665047
 31
0.0
  0
LINE
  5
CD
  8
SPEC
  6
CONTINUOUS
 62
     7
 10
1323.684863886835
 20
1276.561106664929
 30
0.0
 11
1258.014085205964
 21
1276.561106664929
 31
0.0
  0
LINE
  5
CE
  8
SPEC
  6
CONTINUOUS
 62
     7
 10
1323.684863886835
 20
1228.561106665047
 30
0.0
 11
1258.014085205964
 21
1228.561106665047
 31
0.0
  0
LINE
  5
CF
  8
SPEC
  6
CONTINUOUS
 62
     7
 10
-226.66666666259971
 20
1076.6666666672249
 30
0.0
 11
466.66666666899971
 21
1076.6666666672249
 31
0.0
  0
LINE
  5
D0
  8
SPEC
  6
CONTINUOUS
 62
     7
 10
-226.66666666259971
 20
876.66666666772505
 30
0.0
 11
-226.66666666259971
 21
1076.6666666672249
 31
0.0
  0
ARC
  5
D1
  8
SPEC
  6
CONTINUOUS
 62
     7
 10
-66.666666662999901
 20
876.66666666772505
 30
0.0
 40
47.458066600551099
 50
330.00495624443039
 51
59.997998874590728
  0
ARC
  5
D2
  8
SPEC
  6
CONTINUOUS
 62
     7
 10
-66.666666662999901
 20
876.66666666772505
 30
0.0
 40
74.251212401137337
 50
278.8042407866389
 51
73.495761680206186
  0
TEXT
  5
D3
  8
SPEC
 62
     7
 10
45.833333336719058
 20
896.72866666767493
 30
0.0
 40
39.092187499902273
  1
2-
 41
0.85
 11
45.833333336719058
 21
935.82085416757695
 31
0.0
 73
     3
  0
ARC
  5
D4
  8
SPEC
  6
CONTINUOUS
 62
     7
 10
-66.666666662999901
 20
876.66666666772505
 30
0.0
 40
74.251212401137295
 50
106.5042383197938
 51
260.18591350361157
  0
ARC
  5
D5
  8
SPEC
  6
CONTINUOUS
 62
     7
 10
-66.666666662999901
 20
876.66666666772505
 30
0.0
 40
52.309887711863041
 50
60.002409879682261
 51
150.00296847067949
  0
LINE
  5
D6
  8
SPEC
  6
CONTINUOUS
 62
     7
 10
-66.666666662999901
 20
898.60642127149504
 30
0.0
 11
-0.1617113811908126
 21
1010.000000000725
 31
0.0
  0
CIRCLE
  5
D7
  8
SPEC
  6
CONTINUOUS
 62
     7
 10
-66.666666662999901
 20
876.66666666772505
 30
0.0
 40
99.140624999751736
  0
TEXT
  5
D8
  8
SPEC
 62
     7
 10
-92.066666662936782
 20
716.7286666681249
 30
0.0
 40
39.092187499902273
  1
2+
 41
0.85
 11
-92.066666662936782
 21
755.82085416802715
 31
0.0
 73
     3
  0
LINE
  5
D9
  8
SPEC
  6
CONTINUOUS
 62
     7
 10
-10.77110006247041
 20
876.66666666772505
 30
0.0
 11
466.66666666899971
 21
876.66666666772505
 31
0.0
  0
LINE
  5
DA
  8
SPEC
  6
CONTINUOUS
 62
     7
 10
-66.666666662999901
 20
854.72691206395496
 30
0.0
 11
-0.1617113811926316
 21
743.33333333472535
 31
0.0
  0
LINE
  5
DB
  8
SPEC
  6
CONTINUOUS
 62
     7
 10
-54.432291663029922
 20
897.85322916767655
 30
0.0
 11
-51.47589064458316
 21
902.97290017272326
 31
0.0
  0
LINE
  5
DC
  8
SPEC
  6
CONTINUOUS
 62
     7
 10
-45.480104163051699
 20
864.43229166775791
 30
0.0
 11
-40.36065148619037
 21
861.47551257139889
 31
0.0
  0
LINE
  5
DD
  8
SPEC
  6
CONTINUOUS
 62
     7
 10
-25.568941648759409
 20
852.94118871123999
 30
0.0
 11
-21.365729163114349
 21
850.51041666779088
 31
0.0
  0
LINE
  5
DE
  8
SPEC
  6
CONTINUOUS
 62
     7
 10
-54.010416663031727
 20
794.95227078491405
 30
0.0
 11
-54.010416663031727
 21
803.5020448961526
 31
0.0
  0
CIRCLE
  5
DF
  8
SPEC
  6
CONTINUOUS
 62
     7
 10
-10.77110006247041
 20
876.66666666772505
 30
0.0
 40
8.4374999999790816
  0
ARC
  5
E0
  8
SPEC
  6
CONTINUOUS
 62
     7
 10
-66.666666662999901
 20
876.66666666772505
 30
0.0
 40
24.465288925415368
 50
329.99532014014852
 51
59.995320140150064
  0
LINE
  5
E1
  8
SPEC
  6
CONTINUOUS
 62
     7
 10
-107.7691759539921
 20
900.39847233165153
 30
0.0
 11
-111.96971330662559
 21
902.81926342661882
 31
0.0
  0
LINE
  5
E2
  8
SPEC
  6
CONTINUOUS
 62
     7
 10
-87.855338189912814
 20
888.897388687643
 30
0.0
 11
-92.974791662933967
 21
891.85416666768799
 31
0.0
  0
LINE
  5
E3
  8
SPEC
  6
CONTINUOUS
 62
     7
 10
-78.89840321722842
 20
855.47858079212631
 30
0.0
 11
-81.854166662963507
 21
850.35854166779143
 31
0.0
  0
LINE
  5
E4
  8
SPEC
  6
CONTINUOUS
 62
     7
 10
-90.398233041457388
 20
835.56580220016644
 30
0.0
 11
-92.822916662933508
 21
831.36572916784212
 31
0.0
  0
LINE
  5
E5
  8
SPEC
  6
CONTINUOUS
 62
     7
 10
-79.322916662968993
 20
794.95227078491405
 30
0.0
 11
-79.322916662968993
 21
803.5020448961526
 31
0.0
  0
CIRCLE
  5
E6
  8
SPEC
  6
CONTINUOUS
 62
     7
 10
-122.5622332635312
 20
876.66666666772505
 30
0.0
 40
8.4374999999790816
  0
ARC
  5
E7
  8
SPEC
  6
CONTINUOUS
 62
     7
 10
-66.666666662999901
 20
876.66666666772505
 30
0.0
 40
24.46528892541517
 50
150.00519856767579
 51
240.00245515181129
  0
ARC
  5
E8
  8
SPEC
  6
CONTINUOUS
 62
     7
 10
-66.666666662999901
 20
876.66666666772505
 30
0.0
 40
47.458066600551277
 50
149.99613507907739
 51
240.0023499024997
  0
ARC
  5
E9
  8
SPEC
  6
CONTINUOUS
 62
     7
 10
-66.666666662999901
 20
876.66666666772505
 30
0.0
 40
52.309887711862402
 50
239.99834802721409
 51
329.99834802721517
  0
CIRCLE
  5
EA
  8
SPEC
  6
CONTINUOUS
 62
     7
 10
-66.666666662999901
 20
854.72691206395496
 30
0.0
 40
8.4374999999790816
  0
ARC
  5
EB
  8
SPEC
  6
CONTINUOUS
 62
     7
 10
-66.666666662999901
 20
876.66666666772505
 30
0.0
 40
30.377254603748721
 50
240.0024551518112
 51
329.99449667149321
  0
ARC
  5
EC
  8
SPEC
  6
CONTINUOUS
 62
     7
 10
-66.666666662999901
 20
876.66666666772505
 30
0.0
 40
82.688712401116319
 50
261.19575921336138
 51
278.8042407866385
  0
ARC
  5
ED
  8
SPEC
  6
CONTINUOUS
 62
     7
 10
-66.666666662999901
 20
876.66666666772505
 30
0.0
 40
30.377254603749069
 50
59.995320140148849
 51
150.00245515181311
  0
CIRCLE
  5
EE
  8
SPEC
  6
CONTINUOUS
 62
     7
 10
-66.666666662999901
 20
898.60642127149504
 30
0.0
 40
8.4374999999790816
  0
TEXT
  5
EF
  8
SPEC
 62
     7
 10
-224.16666666260701
 20
814.22866666788218
 30
0.0
 40
39.092187499902273
  1
1-
 41
0.85
 11
-224.16666666260701
 21
853.32085416778443
 31
0.0
 73
     3
  0
LINE
  5
F0
  8
SPEC
  6
CONTINUOUS
 62
     7
 10
-226.66666666259971
 20
876.66666666772505
 30
0.0
 11
-122.5622332635312
 21
876.66666666772505
 31
0.0
  0
LINE
  5
F1
  8
SPEC
  6
CONTINUOUS
 62
     7
 10
-45.572916663048098
 20
947.85863429033429
 30
0.0
 11
-45.572916663048098
 21
956.61963327619014
 31
0.0
  0
LINE
  5
F2
  8
SPEC
  6
CONTINUOUS
 62
     7
 10
-87.760416662943499
 20
947.85863429033429
 30
0.0
 11
-87.760416662943499
 21
956.61963327619014
 31
0.0
  0
ARC
  5
F3
  8
SPEC
  6
CONTINUOUS
 62
     7
 10
-66.666666662999901
 20
876.66666666772505
 30
0.0
 40
82.688712401116277
 50
75.220590009595583
 51
104.7794099904044
  0
LINE
  5
F4
  8
SPEC
  6
CONTINUOUS
 62
     7
 10
-42.940416663055672
 20
917.76572916762245
 30
0.0
 11
-40.513628234531112
 21
921.96945834093992
 31
0.0
  0
TEXT
  5
F5
  8
SPEC
 62
     7
 10
-92.066666662936782
 20
997.97866666742198
 30
0.0
 40
39.092187499902273
  1
1+
 41
0.85
 11
-92.066666662936782
 21
1037.0708541673239
 31
0.0
 73
     3
  0
LINE
  5
F6
  8
SPEC
  6
CONTINUOUS
 62
     7
 10
266.66666666949999
 20
610.0000000017252
 30
0.0
 11
266.66666666949999
 21
1010.000000000725
 31
0.0
  0
LINE
  5
F7
  8
SPEC
  6
CONTINUOUS
 62
     7
 10
200.00000000300039
 20
676.66666666822471
 30
0.0
 11
200.00000000300039
 21
1076.6666666672249
 31
0.0
  0
TEXT
  5
F8
  8
SPEC
 62
     7
 10
-579.06666666171895
 20
824.97866666785455
 30
0.0
 40
39.092187499902273
  1
(4Pスピコン)
 41
0.85
 11
-579.06666666171895
 21
864.07085416775681
 31
0.0
 73
     3
  0
TEXT
  5
F9
  8
SPEC
 62
     7
 10
-502.86666666191002
 20
891.77866666768796
 30
0.0
 40
39.092187499902273
  1
IN/OUT
 41
0.85
 11
-502.86666666191002
 21
930.8708541675901
 31
0.0
 73
     3
  0
TEXT
  5
FA
  8
SPEC
 62
     7
 10
-538.21335191781964
 20
1281.7120000000459
 30
0.0
 40
39.092187499902273
  1
IN/OUT
 41
0.85
 11
-538.21335191781964
 21
1320.8041874999481
 31
0.0
 73
     3
  0
TEXT
  5
FB
  8
SPEC
 62
     7
 10
-695.26666666142864
 20
1214.9120000002119
 30
0.0
 40
39.092187499902273
  1
(フォーンジャック)
 41
0.85
 11
-695.26666666142864
 21
1254.004187500115
 31
0.0
 73
     3
  0
LINE
  5
FC
  8
SPEC
  6
CONTINUOUS
 62
     7
 10
-146.6666666627998
 20
1200.0000000002501
 30
0.0
 11
-146.6666666627998
 21
1319.99999999995
 31
0.0
  0
LINE
  5
FD
  8
SPEC
  6
CONTINUOUS
 62
     7
 10
866.66666666800018
 20
1200.0000000002501
 30
0.0
 11
-146.6666666627998
 21
1200.0000000002501
 31
0.0
  0
LINE
  5
FE
  8
SPEC
  6
CONTINUOUS
 62
     7
 10
-106.6666666628998
 20
1319.99999999995
 30
0.0
 11
-106.6666666628998
 21
1200.0000000002501
 31
0.0
  0
LINE
  5
FF
  8
SPEC
  6
CONTINUOUS
 62
     7
 10
-146.6666666627998
 20
1319.99999999995
 30
0.0
 11
-106.6666666628998
 21
1319.99999999995
 31
0.0
  0
LINE
  5
100
  8
SPEC
  6
CONTINUOUS
 62
     7
 10
-26.666666663099949
 20
1260.0000000001
 30
0.0
 11
-46.666666663049909
 21
1300.0
 31
0.0
  0
LINE
  5
101
  8
SPEC
  6
CONTINUOUS
 62
     7
 10
-26.666666663099949
 20
1260.0000000001
 30
0.0
 11
-6.6666666631499671
 21
1300.0
 31
0.0
  0
LINE
  5
102
  8
SPEC
  6
CONTINUOUS
 62
     7
 10
-6.6666666631499671
 20
1300.0
 30
0.0
 11
933.33333333450014
 21
1300.0
 31
0.0
  0
TEXT
  5
103
  8
SPEC
 62
     7
 10
1403.299999999992
 20
1215.4344108158871
 30
0.0
 40
39.092187499902273
  1
+
 41
0.85
 11
1403.299999999992
 21
1254.526598315789
 31
0.0
 73
     3
  0
TEXT
  5
104
  8
SPEC
 62
     7
 10
1371.300000000072
 20
1214.1716928915939
 30
0.0
 40
39.092187499902273
  1
-
 41
0.85
 11
1371.300000000072
 21
1253.263880391497
 31
0.0
 73
     3
  0
CIRCLE
  5
105
  8
SPEC
  6
CONTINUOUS
 62
     7
 10
1400.0
 20
1252.5611066649881
 30
0.0
 40
71.99999999981992
  0
CIRCLE
  5
106
  8
SPEC
  6
CONTINUOUS
 62
     7
 10
1400.0
 20
1252.5611066649881
 30
0.0
 40
47.99999999987994
  0
LINE
  5
107
  8
SPEC
  6
CONTINUOUS
 62
     7
 10
1368.00000000008
 20
1164.5611066652079
 30
0.0
 11
1431.99999999992
 21
1164.5611066652079
 31
0.0
  0
LINE
  5
108
  8
SPEC
  6
CONTINUOUS
 62
     7
 10
1436.9923875043571
 20
1323.4946196662161
 30
0.0
 11
1483.4286404354029
 21
1369.9308725972601
 31
0.0
  0
LINE
  5
109
  8
SPEC
  6
CONTINUOUS
 62
     7
 10
1470.933513001228
 20
1289.5534941693461
 30
0.0
 11
1517.3697659322729
 21
1335.989747100391
 31
0.0
  0
LINE
  5
10A
  8
SPEC
  6
CONTINUOUS
 62
     7
 10
1329.0664869987711
 20
1215.5687191606289
 30
0.0
 11
1282.630234067726
 21
1169.1324662295849
 31
0.0
  0
LINE
  5
10B
  8
SPEC
  6
CONTINUOUS
 62
     7
 10
1363.007612495642
 20
1181.6275936637589
 30
0.0
 11
1316.5713595645959
 21
1135.1913407327149
 31
0.0
  0
CIRCLE
  5
10C
  8
SPEC
  6
CONTINUOUS
 62
     7
 10
1400.0
 20
1252.5611066649881
 30
0.0
 40
79.999999999799911
  0
LINE
  5
10D
  8
SPEC
  6
CONTINUOUS
 62
     7
 10
1376.0000000000589
 20
1328.8762427781519
 30
0.0
 11
1376.00000000006
 21
1394.547021459023
 31
0.0
  0
LINE
  5
10E
  8
SPEC
  6
CONTINUOUS
 62
     7
 10
1423.9999999999411
 20
1328.8762427781519
 30
0.0
 11
1423.9999999999411
 21
1394.5470214590241
 31
0.0
  0
LINE
  5
10F
  8
SPEC
  6
CONTINUOUS
 62
     7
 10
1376.0000000000589
 20
1164.5611066652079
 30
0.0
 11
1376.0000000000589
 21
1110.575191870952
 31
0.0
  0
LINE
  5
110
  8
SPEC
  6
CONTINUOUS
 62
     7
 10
1423.9999999999411
 20
1164.5611066652079
 30
0.0
 11
1423.9999999999411
 21
1110.575191870952
 31
0.0
  0
LINE
  5
111
  8
SPEC
  6
CONTINUOUS
 62
     7
 10
1329.066486998772
 20
1289.5534941693461
 30
0.0
 11
1282.6302340677271
 21
1335.9897471003901
 31
0.0
  0
LINE
  5
112
  8
SPEC
  6
CONTINUOUS
 62
     7
 10
1363.007612495642
 20
1323.4946196662161
 30
0.0
 11
1316.5713595645959
 21
1369.930872597261
 31
0.0
  0
LINE
  5
113
  8
SPEC
  6
CONTINUOUS
 62
     7
 10
1436.9923875043571
 20
1181.6275936637589
 30
0.0
 11
1483.4286404354029
 21
1135.191340732714
 31
0.0
  0
LINE
  5
114
  8
SPEC
  6
CONTINUOUS
 62
     7
 10
1470.933513001228
 20
1215.5687191606301
 30
0.0
 11
1517.369765932272
 21
1169.1324662295849
 31
0.0
  0
LINE
  5
115
  8
SPEC
  6
CONTINUOUS
 62
     7
 10
1368.00000000008
 20
1179.239895545878
 30
0.0
 11
1368.00000000008
 21
1164.5611066652079
 31
0.0
  0
LINE
  5
116
  8
SPEC
  6
CONTINUOUS
 62
     7
 10
1368.00000000008
 20
1112.161676467065
 30
0.0
 11
1368.00000000008
 21
1110.575191870952
 31
0.0
  0
LINE
  5
117
  8
SPEC
  6
CONTINUOUS
 62
     7
 10
1431.99999999992
 20
1179.239895545878
 30
0.0
 11
1431.99999999992
 21
1164.5611066652079
 31
0.0
  0
LINE
  5
118
  8
SPEC
  6
CONTINUOUS
 62
     7
 10
-226.66666666259971
 20
476.6666666687251
 30
0.0
 11
-226.66666666259971
 21
676.66666666822471
 31
0.0
  0
ARC
  5
119
  8
SPEC
  6
CONTINUOUS
 62
     7
 10
-66.666666662999901
 20
476.6666666687251
 30
0.0
 40
47.458066600551327
 50
330.00495624442988
 51
59.997998874590792
  0
ARC
  5
11A
  8
SPEC
  6
CONTINUOUS
 62
     7
 10
-66.666666662999901
 20
476.6666666687251
 30
0.0
 40
74.251212401137337
 50
278.8042407866389
 51
73.495761680206272
  0
TEXT
  5
11B
  8
SPEC
 62
     7
 10
45.833333336719058
 20
496.7286666686752
 30
0.0
 40
39.092187499902273
  1
2-
 41
0.85
 11
45.833333336719058
 21
535.82085416857751
 31
0.0
 73
     3
  0
ARC
  5
11C
  8
SPEC
  6
CONTINUOUS
 62
     7
 10
-66.666666662999901
 20
476.6666666687251
 30
0.0
 40
74.251212401137295
 50
106.5042383197938
 51
260.18591350361157
  0
ARC
  5
11D
  8
SPEC
  6
CONTINUOUS
 62
     7
 10
-66.666666662999901
 20
476.6666666687251
 30
0.0
 40
52.309887711863041
 50
60.002409879682261
 51
150.00296847067949
  0
LINE
  5
11E
  8
SPEC
  6
CONTINUOUS
 62
     7
 10
-66.666666662999901
 20
498.60642127249503
 30
0.0
 11
-0.1617113811908126
 21
610.0000000017252
 31
0.0
  0
CIRCLE
  5
11F
  8
SPEC
  6
CONTINUOUS
 62
     7
 10
-66.666666662999901
 20
476.6666666687251
 30
0.0
 40
99.140624999751736
  0
TEXT
  5
120
  8
SPEC
 62
     7
 10
-92.066666662936782
 20
316.728666669125
 30
0.0
 40
39.092187499902273
  1
2+
 41
0.85
 11
-92.066666662936782
 21
355.82085416902731
 31
0.0
 73
     3
  0
LINE
  5
121
  8
SPEC
  6
CONTINUOUS
 62
     7
 10
-10.77110006247041
 20
476.6666666687251
 30
0.0
 11
333.33333333599973
 21
476.6666666687251
 31
0.0
  0
LINE
  5
122
  8
SPEC
  6
CONTINUOUS
 62
     7
 10
-66.666666662999901
 20
454.72691206495477
 30
0.0
 11
-0.1617113811926316
 21
343.333333335725
 31
0.0
  0
LINE
  5
123
  8
SPEC
  6
CONTINUOUS
 62
     7
 10
-54.432291663029922
 20
497.85322916867688
 30
0.0
 11
-51.47589064458316
 21
502.97290017372319
 31
0.0
  0
LINE
  5
124
  8
SPEC
  6
CONTINUOUS
 62
     7
 10
-45.480104163051699
 20
464.43229166875778
 30
0.0
 11
-40.36065148619037
 21
461.475512572399
 31
0.0
  0
LINE
  5
125
  8
SPEC
  6
CONTINUOUS
 62
     7
 10
-25.568941648759409
 20
452.94118871223998
 30
0.0
 11
-21.365729163114349
 21
450.51041666879098
 31
0.0
  0
LINE
  5
126
  8
SPEC
  6
CONTINUOUS
 62
     7
 10
-54.010416663031727
 20
394.9522707859141
 30
0.0
 11
-54.010416663031727
 21
403.50204489715259
 31
0.0
  0
CIRCLE
  5
127
  8
SPEC
  6
CONTINUOUS
 62
     7
 10
-10.77110006247041
 20
476.6666666687251
 30
0.0
 40
8.4374999999790816
  0
ARC
  5
128
  8
SPEC
  6
CONTINUOUS
 62
     7
 10
-66.666666662999901
 20
476.6666666687251
 30
0.0
 40
24.465288925415368
 50
329.99532014014852
 51
59.995320140150064
  0
LINE
  5
129
  8
SPEC
  6
CONTINUOUS
 62
     7
 10
-107.7691759539921
 20
500.39847233265158
 30
0.0
 11
-111.96971330662559
 21
502.81926342761869
 31
0.0
  0
LINE
  5
12A
  8
SPEC
  6
CONTINUOUS
 62
     7
 10
-87.855338189912814
 20
488.89738868864288
 30
0.0
 11
-92.974791662933967
 21
491.85416666868798
 31
0.0
  0
LINE
  5
12B
  8
SPEC
  6
CONTINUOUS
 62
     7
 10
-78.89840321722842
 20
455.47858079312618
 30
0.0
 11
-81.854166662963507
 21
450.35854166879147
 31
0.0
  0
LINE
  5
12C
  8
SPEC
  6
CONTINUOUS
 62
     7
 10
-90.398233041457388
 20
435.5658022011666
 30
0.0
 11
-92.822916662933508
 21
431.36572916884171
 31
0.0
  0
LINE
  5
12D
  8
SPEC
  6
CONTINUOUS
 62
     7
 10
-79.322916662968993
 20
394.9522707859141
 30
0.0
 11
-79.322916662968993
 21
403.50204489715259
 31
0.0
  0
CIRCLE
  5
12E
  8
SPEC
  6
CONTINUOUS
 62
     7
 10
-122.5622332635312
 20
476.6666666687251
 30
0.0
 40
8.4374999999790816
  0
ARC
  5
12F
  8
SPEC
  6
CONTINUOUS
 62
     7
 10
-66.666666662999901
 20
476.6666666687251
 30
0.0
 40
24.46528892541517
 50
150.00519856767579
 51
240.00245515181129
  0
ARC
  5
130
  8
SPEC
  6
CONTINUOUS
 62
     7
 10
-66.666666662999901
 20
476.6666666687251
 30
0.0
 40
47.458066600551277
 50
149.99613507907739
 51
240.0023499024997
  0
ARC
  5
131
  8
SPEC
  6
CONTINUOUS
 62
     7
 10
-66.666666662999901
 20
476.6666666687251
 30
0.0
 40
52.309887711862402
 50
239.99834802721409
 51
329.99834802721517
  0
CIRCLE
  5
132
  8
SPEC
  6
CONTINUOUS
 62
     7
 10
-66.666666662999901
 20
454.72691206495477
 30
0.0
 40
8.4374999999790816
  0
ARC
  5
133
  8
SPEC
  6
CONTINUOUS
 62
     7
 10
-66.666666662999901
 20
476.6666666687251
 30
0.0
 40
30.377254603748721
 50
240.0024551518112
 51
329.99449667149321
  0
ARC
  5
134
  8
SPEC
  6
CONTINUOUS
 62
     7
 10
-66.666666662999901
 20
476.6666666687251
 30
0.0
 40
82.688712401116319
 50
261.19575921336138
 51
278.8042407866385
  0
ARC
  5
135
  8
SPEC
  6
CONTINUOUS
 62
     7
 10
-66.666666662999901
 20
476.6666666687251
 30
0.0
 40
30.377254603749069
 50
59.995320140148849
 51
150.00245515181311
  0
CIRCLE
  5
136
  8
SPEC
  6
CONTINUOUS
 62
     7
 10
-66.666666662999901
 20
498.60642127249503
 30
0.0
 40
8.4374999999790816
  0
TEXT
  5
137
  8
SPEC
 62
     7
 10
-224.16666666260701
 20
414.22866666888171
 30
0.0
 40
39.092187499902273
  1
1-
 41
0.85
 11
-224.16666666260701
 21
453.32085416878402
 31
0.0
 73
     3
  0
LINE
  5
138
  8
SPEC
  6
CONTINUOUS
 62
     7
 10
-226.66666666259971
 20
476.6666666687251
 30
0.0
 11
-122.5622332635312
 21
476.6666666687251
 31
0.0
  0
LINE
  5
139
  8
SPEC
  6
CONTINUOUS
 62
     7
 10
-45.572916663048098
 20
547.8586342913344
 30
0.0
 11
-45.572916663048098
 21
556.61963327719013
 31
0.0
  0
LINE
  5
13A
  8
SPEC
  6
CONTINUOUS
 62
     7
 10
-87.760416662943499
 20
547.8586342913344
 30
0.0
 11
-87.760416662943499
 21
556.61963327719013
 31
0.0
  0
ARC
  5
13B
  8
SPEC
  6
CONTINUOUS
 62
     7
 10
-66.666666662999901
 20
476.6666666687251
 30
0.0
 40
82.688712401116277
 50
75.220590009595583
 51
104.7794099904044
  0
LINE
  5
13C
  8
SPEC
  6
CONTINUOUS
 62
     7
 10
-42.940416663055672
 20
517.76572916862187
 30
0.0
 11
-40.513628234531112
 21
521.96945834194003
 31
0.0
  0
TEXT
  5
13D
  8
SPEC
 62
     7
 10
-92.066666662936782
 20
597.97866666842185
 30
0.0
 40
39.092187499902273
  1
1+
 41
0.85
 11
-92.066666662936782
 21
637.07085416832399
 31
0.0
 73
     3
  0
TEXT
  5
13E
  8
SPEC
 62
     7
 10
-579.06666666171895
 20
424.97866666885437
 30
0.0
 40
39.092187499902273
  1
(4Pスピコン)
 41
0.85
 11
-579.06666666171895
 21
464.07085416875668
 31
0.0
 73
     3
  0
TEXT
  5
13F
  8
SPEC
 62
     7
 10
-502.86666666191002
 20
491.77866666868721
 30
0.0
 40
39.092187499902273
  1
IN/OUT
 41
0.85
 11
-502.86666666191002
 21
530.87085416858952
 31
0.0
 73
     3
  0
LINE
  5
140
  8
SPEC
  6
CONTINUOUS
 62
     7
 10
-226.66666666259971
 20
676.66666666822471
 30
0.0
 11
200.00000000300039
 21
676.66666666822471
 31
0.0
  0
LINE
  5
141
  8
SPEC
  6
CONTINUOUS
 62
     7
 10
-0.1617113811908126
 20
1010.000000000725
 30
0.0
 11
466.66666666899971
 21
1010.000000000725
 31
0.0
  0
LINE
  5
142
  8
SPEC
  6
CONTINUOUS
 62
     7
 10
-0.1617113811926316
 20
743.33333333472535
 30
0.0
 11
400.00000000249918
 21
743.33333333472535
 31
0.0
  0
LINE
  5
143
  8
SPEC
  6
CONTINUOUS
 62
     7
 10
-0.1617113811908126
 20
610.0000000017252
 30
0.0
 11
266.66666666949999
 21
610.0000000017252
 31
0.0
  0
LINE
  5
144
  8
SPEC
  6
CONTINUOUS
 62
     7
 10
333.33333333599973
 20
476.6666666687251
 30
0.0
 11
333.33333333599973
 21
876.66666666772505
 31
0.0
  0
LINE
  5
145
  8
SPEC
  6
CONTINUOUS
 62
     7
 10
-0.1617113811926316
 20
343.333333335725
 30
0.0
 11
400.00000000249918
 21
343.333333335725
 31
0.0
  0
POLYLINE
  5
146
  8
SPEC
  6
CONTINUOUS
 62
     7
 66
     1
 10
0.0
 20
0.0
 30
0.0
 70
     1
  0
VERTEX
  5
4A6
  8
SPEC
  6
CONTINUOUS
 62
     7
 10
466.66666666899971
 20
1093.3333333338501
 30
0.0
  0
VERTEX
  5
4A7
  8
SPEC
  6
CONTINUOUS
 62
     7
 10
533.33333333550036
 20
1093.3333333338501
 30
0.0
  0
VERTEX
  5
4A8
  8
SPEC
  6
CONTINUOUS
 62
     7
 10
533.33333333550036
 20
1060.0000000006
 30
0.0
  0
VERTEX
  5
4A9
  8
SPEC
  6
CONTINUOUS
 62
     7
 10
466.66666666899971
 20
1060.0000000006
 30
0.0
  0
SEQEND
  5
4AA
  8
SPEC
  6
CONTINUOUS
 62
     7
  0
POLYLINE
  5
14C
  8
SPEC
  6
CONTINUOUS
 62
     7
 66
     1
 10
0.0
 20
0.0
 30
0.0
 70
     1
  0
VERTEX
  5
4AB
  8
SPEC
  6
CONTINUOUS
 62
     7
 10
466.66666666899971
 20
1026.66666666735
 30
0.0
  0
VERTEX
  5
4AC
  8
SPEC
  6
CONTINUOUS
 62
     7
 10
533.33333333550036
 20
1026.66666666735
 30
0.0
  0
VERTEX
  5
4AD
  8
SPEC
  6
CONTINUOUS
 62
     7
 10
533.33333333550036
 20
993.33333333410019
 30
0.0
  0
VERTEX
  5
4AE
  8
SPEC
  6
CONTINUOUS
 62
     7
 10
466.66666666899971
 20
993.33333333410019
 30
0.0
  0
SEQEND
  5
4AF
  8
SPEC
  6
CONTINUOUS
 62
     7
  0
CIRCLE
  5
152
  8
SPEC
  6
CONTINUOUS
 62
     7
 10
266.66666666949999
 20
1010.000000000725
 30
0.0
 40
10.66666666663968
  0
POLYLINE
  5
153
  8
SPEC
  6
CONTINUOUS
 62
     7
 66
     1
 10
0.0
 20
0.0
 30
0.0
 70
     1
  0
VERTEX
  5
4B0
  8
SPEC
  6
CONTINUOUS
 62
     7
 10
466.66666666899971
 20
893.3333333343503
 30
0.0
  0
VERTEX
  5
4B1
  8
SPEC
  6
CONTINUOUS
 62
     7
 10
533.33333333550036
 20
893.3333333343503
 30
0.0
  0
VERTEX
  5
4B2
  8
SPEC
  6
CONTINUOUS
 62
     7
 10
533.33333333550036
 20
860.00000000110003
 30
0.0
  0
VERTEX
  5
4B3
  8
SPEC
  6
CONTINUOUS
 62
     7
 10
466.66666666899971
 20
860.00000000110003
 30
0.0
  0
SEQEND
  5
4B4
  8
SPEC
  6
CONTINUOUS
 62
     7
  0
POLYLINE
  5
159
  8
SPEC
  6
CONTINUOUS
 62
     7
 66
     1
 10
0.0
 20
0.0
 30
0.0
 70
     1
  0
VERTEX
  5
4B5
  8
SPEC
  6
CONTINUOUS
 62
     7
 10
466.66666666899971
 20
826.66666666785011
 30
0.0
  0
VERTEX
  5
4B6
  8
SPEC
  6
CONTINUOUS
 62
     7
 10
533.33333333550036
 20
826.66666666785011
 30
0.0
  0
VERTEX
  5
4B7
  8
SPEC
  6
CONTINUOUS
 62
     7
 10
533.33333333550036
 20
793.33333333459996
 30
0.0
  0
VERTEX
  5
4B8
  8
SPEC
  6
CONTINUOUS
 62
     7
 10
466.66666666899971
 20
793.33333333459996
 30
0.0
  0
SEQEND
  5
4B9
  8
SPEC
  6
CONTINUOUS
 62
     7
  0
LINE
  5
15F
  8
SPEC
  6
CONTINUOUS
 62
     7
 10
466.66666666899971
 20
810.00000000122509
 30
0.0
 11
400.00000000249918
 21
810.00000000122509
 31
0.0
  0
CIRCLE
  5
160
  8
SPEC
  6
CONTINUOUS
 62
     7
 10
200.00000000300039
 20
1076.6666666672249
 30
0.0
 40
10.66666666663968
  0
CIRCLE
  5
161
  8
SPEC
  6
CONTINUOUS
 62
     7
 10
333.33333333599973
 20
876.66666666772505
 30
0.0
 40
10.666666666640589
  0
CIRCLE
  5
162
  8
SPEC
  6
CONTINUOUS
 62
     7
 10
400.00000000249918
 20
743.33333333472535
 30
0.0
 40
10.66666666663968
  0
POLYLINE
  5
163
  8
SPEC
  6
CONTINUOUS
 62
     7
 66
     1
 10
0.0
 20
0.0
 30
0.0
 70
     1
  0
VERTEX
  5
4BA
  8
SPEC
  6
CONTINUOUS
 62
     7
 10
666.66666666850051
 20
1010.000000000725
 30
0.0
  0
VERTEX
  5
4BB
  8
SPEC
  6
CONTINUOUS
 62
     7
 10
733.33333333500013
 20
1010.000000000725
 30
0.0
  0
VERTEX
  5
4BC
  8
SPEC
  6
CONTINUOUS
 62
     7
 10
733.33333333500013
 20
976.66666666747494
 30
0.0
  0
VERTEX
  5
4BD
  8
SPEC
  6
CONTINUOUS
 62
     7
 10
666.66666666850051
 20
976.66666666747494
 30
0.0
  0
SEQEND
  5
4BE
  8
SPEC
  6
CONTINUOUS
 62
     7
  0
POLYLINE
  5
169
  8
SPEC
  6
CONTINUOUS
 62
     7
 66
     1
 10
0.0
 20
0.0
 30
0.0
 70
     1
  0
VERTEX
  5
4BF
  8
SPEC
  6
CONTINUOUS
 62
     7
 10
666.66666666850051
 20
943.33333333422536
 30
0.0
  0
VERTEX
  5
4C0
  8
SPEC
  6
CONTINUOUS
 62
     7
 10
733.33333333500013
 20
943.33333333422536
 30
0.0
  0
VERTEX
  5
4C1
  8
SPEC
  6
CONTINUOUS
 62
     7
 10
733.33333333500013
 20
910.00000000097475
 30
0.0
  0
VERTEX
  5
4C2
  8
SPEC
  6
CONTINUOUS
 62
     7
 10
666.66666666850051
 20
910.00000000097475
 30
0.0
  0
SEQEND
  5
4C3
  8
SPEC
  6
CONTINUOUS
 62
     7
  0
TEXT
  5
16F
  8
SPEC
 62
     7
 10
378.00000000255483
 20
1090.8266666671891
 30
0.0
 40
32.576822916585229
  1
M250
 41
0.85
 11
378.00000000255483
 21
1123.4034895837749
 31
0.0
 73
     3
  0
TEXT
  5
170
  8
SPEC
 62
     7
 10
378.00000000255483
 20
1024.1600000006899
 30
0.0
 40
32.576822916585229
  1
M205
 41
0.85
 11
378.00000000255483
 21
1056.736822917275
 31
0.0
 73
     3
  0
TEXT
  5
171
  8
SPEC
 62
     7
 10
378.00000000255483
 20
890.82666666768966
 30
0.0
 40
32.576822916585229
  1
M250
 41
0.85
 11
378.00000000255483
 21
923.40348958427501
 31
0.0
 73
     3
  0
TEXT
  5
172
  8
SPEC
 62
     7
 10
378.00000000255483
 20
824.16000000118959
 30
0.0
 40
32.576822916585229
  1
M205
 41
0.85
 11
378.00000000255483
 21
856.73682291777482
 31
0.0
 73
     3
  0
TEXT
  5
173
  8
SPEC
 62
     7
 10
744.02131142339294
 20
1007.493333334064
 30
0.0
 40
32.576822916585229
  1
M250
 41
0.85
 11
744.02131142339294
 21
1040.0701562506499
 31
0.0
 73
     3
  0
LINE
  5
174
  8
SPEC
  6
CONTINUOUS
 62
     7
 10
733.33333333500013
 20
993.33333333410019
 30
0.0
 11
1415.99999999996
 21
993.33333333410019
 31
0.0
  0
TEXT
  5
175
  8
SPEC
 62
     7
 10
744.02131142339294
 20
940.8266666675645
 30
0.0
 40
32.576822916585229
  1
M205
 41
0.85
 11
744.02131142339294
 21
973.40348958414984
 31
0.0
 73
     3
  0
LINE
  5
176
  8
SPEC
  6
CONTINUOUS
 62
     7
 10
733.33333333500013
 20
926.6666666676
 30
0.0
 11
1384.00000000004
 21
926.6666666676
 31
0.0
  0
LINE
  5
177
  8
SPEC
  6
STYLE_01
 62
     7
 10
533.33333333550036
 20
1076.6666666672249
 30
0.0
 11
666.66666666850051
 21
1010.000000000725
 31
0.0
  0
LINE
  5
178
  8
SPEC
  6
STYLE_01
 62
     7
 10
533.33333333550036
 20
1010.000000000725
 30
0.0
 11
666.66666666850051
 21
943.33333333422536
 31
0.0
  0
LINE
  5
179
  8
SPEC
  6
CONTINUOUS
 62
     7
 10
866.66666666800018
 20
1200.0000000002501
 30
0.0
 11
866.66666666800018
 21
926.6666666676
 31
0.0
  0
LINE
  5
17A
  8
SPEC
  6
CONTINUOUS
 62
     7
 10
933.33333333450014
 20
1300.0
 30
0.0
 11
933.33333333450014
 21
993.33333333410019
 31
0.0
  0
TEXT
  5
17B
  8
SPEC
 62
     7
 10
634.91666666857964
 20
1311.4266666666381
 30
0.0
 40
32.576822916585229
  1
GRN
 41
0.85
 11
634.91666666857964
 21
1344.0034895832241
 31
0.0
 73
     3
  0
TEXT
  5
17C
  8
SPEC
 62
     7
 10
605.9166666686524
 20
1211.426666666888
 30
0.0
 40
32.576822916585229
  1
GRN/BLK
 41
0.85
 11
605.9166666686524
 21
1244.0034895834731
 31
0.0
 73
     3
  0
CIRCLE
  5
17D
  8
SPEC
  6
CONTINUOUS
 62
     7
 10
933.33333333450014
 20
993.33333333410019
 30
0.0
 40
10.66666666663968
  0
CIRCLE
  5
17E
  8
SPEC
  6
CONTINUOUS
 62
     7
 10
866.66666666800018
 20
926.6666666676
 30
0.0
 40
10.66666666663968
  0
TEXT
  5
17F
  8
SPEC
 62
     7
 10
-882.00000000162515
 20
2022.862840556807
 30
0.0
 40
38.006293402777779
  1
300W(IEC)
 41
0.85
 11
-882.00000000162515
 21
2060.8691339595848
 31
0.0
 73
     3
  0
TEXT
  5
180
  8
SPEC
 62
     7
 10
-1532.0
 20
1947.8628405569939
 30
0.0
 40
38.006293402777779
  1
仕上げ
 41
0.85
 11
-1532.0
 21
1985.8691339597719
 31
0.0
 73
     3
  0
TEXT
  5
181
  8
SPEC
 62
     7
 10
-1532.0
 20
1872.862840557181
 30
0.0
 40
38.006293402777779
  1
極性
 41
0.85
 11
-1532.0
 21
1910.8691339599591
 31
0.0
 73
     3
  0
TEXT
  5
182
  8
SPEC
 62
     7
 10
-1532.0
 20
1722.8628405575571
 30
0.0
 40
38.006293402777779
  1
コネクタ 
 41
0.85
 11
-1532.0
 21
1760.8691339603349
 31
0.0
 73
     3
  0
TEXT
  5
183
  8
SPEC
 62
     7
 10
-1532.0
 20
1572.8628405577449
 30
0.0
 40
38.006293402777779
  1
寸法
 41
0.85
 11
-1532.0
 21
1610.869133960522
 31
0.0
 73
     3
  0
TEXT
  5
184
  8
SPEC
 62
     7
 10
-1532.0
 20
1497.862840557932
 30
0.0
 40
38.006293402777779
  1
重量
 41
0.85
 11
-1532.0
 21
1535.8691339607101
 31
0.0
 73
     3
  0
TEXT
  5
185
  8
SPEC
 62
     7
 10
-1532.0
 20
2547.8628405554941
 30
0.0
 40
38.006293402777779
  1
形式
 41
0.85
 11
-1532.0
 21
2585.869133958272
 31
0.0
 73
     3
  0
TEXT
  5
186
  8
SPEC
 62
     7
 10
-1532.0
 20
2472.8628405556819
 30
0.0
 40
38.006293402777779
  1
周波数レンジ(-10dB)
 41
0.85
 11
-1532.0
 21
2510.8691339584602
 31
0.0
 73
     3
  0
TEXT
  5
187
  8
SPEC
 62
     7
 10
-1532.0
 20
2397.8628405558688
 30
0.0
 40
38.006293402777779
  1
周波数特性(±3dB)
 41
0.85
 11
-1532.0
 21
2435.8691339586471
 31
0.0
 73
     3
  0
TEXT
  5
188
  8
SPEC
 62
     7
 10
-1532.0
 20
2022.862840556807
 30
0.0
 40
38.006293402777779
  1
許容入力
 41
0.85
 11
-1532.0
 21
2060.8691339595848
 31
0.0
 73
     3
  0
TEXT
  5
189
  8
SPEC
 62
     7
 10
-882.00000000162515
 20
1872.862840557181
 30
0.0
 40
38.006293402777779
  1
正相
 41
0.85
 11
-882.00000000162515
 21
1910.8691339599591
 31
0.0
 73
     3
  0
TEXT
  5
18A
  8
SPEC
 62
     7
 10
-882.00000000162515
 20
1947.8628405569939
 30
0.0
 40
38.006293402777779
  1
ブラック　カーペット
 41
0.85
 11
-882.00000000162515
 21
1985.8691339597719
 31
0.0
 73
     3
  0
TEXT
  5
18B
  8
SPEC
 62
     7
 10
-882.00000000162515
 20
1572.8628405577449
 30
0.0
 40
38.006293402777779
  1
516(W)×597(H)×559(D)mm(突起部含まず)
 41
0.85
 11
-882.00000000162515
 21
1610.869133960522
 31
0.0
 73
     3
  0
TEXT
  5
18C
  8
SPEC
 62
     7
 10
-882.00000000162515
 20
1722.8628405575571
 30
0.0
 40
38.006293402777779
  1
NEUTRIK NL4MPR×2(±1:SUB,±2:N/C)内部コネクタにより±1/±2切替可能
 41
0.85
 11
-882.00000000162515
 21
1760.8691339603349
 31
0.0
 73
     3
  0
TEXT
  5
18D
  8
SPEC
 62
     7
 10
-882.00000000162515
 20
1497.862840557932
 30
0.0
 40
38.006293402777779
  1
約32.2kg
 41
0.85
 11
-882.00000000162515
 21
1535.8691339607101
 31
0.0
 73
     3
  0
TEXT
  5
18E
  8
SPEC
 62
     7
 10
-882.00000000162618
 20
2397.8628405558688
 30
0.0
 40
38.006293402777779
  1
55Hz～300Hz(半空間における数値)
 41
0.85
 11
-882.00000000162618
 21
2435.8691339586471
 31
0.0
 73
     3
  0
TEXT
  5
18F
  8
SPEC
 62
     7
 10
-882.00000000162618
 20
2472.8628405556819
 30
0.0
 40
38.006293402777779
  1
38Hz～300Hz(半空間における数値)
 41
0.85
 11
-882.00000000162618
 21
2510.8691339584602
 31
0.0
 73
     3
  0
TEXT
  5
190
  8
SPEC
 62
     7
 10
-882.00000000162515
 20
2172.8628405564318
 30
0.0
 40
38.006293402777779
  1
127dB SPL(半空間における計算値)
 41
0.85
 11
-882.00000000162515
 21
2210.8691339592101
 31
0.0
 73
     3
  0
TEXT
  5
191
  8
SPEC
 62
     7
 10
-882.00000000162515
 20
2247.8628405562449
 30
0.0
 40
38.006293402777779
  1
96dB SPL
 41
0.85
 11
-882.00000000162515
 21
2285.8691339590232
 31
0.0
 73
     3
  0
TEXT
  5
192
  8
SPEC
 62
     7
 10
-1532.0
 20
2097.8628405566192
 30
0.0
 40
38.006293402777779
  1
公称インピーダンス
 41
0.85
 11
-1532.0
 21
2135.869133959397
 31
0.0
 73
     3
  0
TEXT
  5
193
  8
SPEC
 62
     7
 10
-1532.0
 20
2247.8628405562449
 30
0.0
 40
38.006293402777779
  1
音圧レベル(1W/1m)
 41
0.85
 11
-1532.0
 21
2285.8691339590232
 31
0.0
 73
     3
  0
TEXT
  5
194
  8
SPEC
 62
     7
 10
-1532.0
 20
2172.8628405564318
 30
0.0
 40
38.006293402777779
  1
最大音圧(＠1m)
 41
0.85
 11
-1532.0
 21
2210.8691339592101
 31
0.0
 73
     3
  0
TEXT
  5
195
  8
SPEC
 62
     7
 10
-882.00000000162515
 20
2097.8628405566192
 30
0.0
 40
38.006293402777779
  1
4Ω
 41
0.85
 11
-882.00000000162515
 21
2135.869133959397
 31
0.0
 73
     3
  0
TEXT
  5
196
  8
SPEC
 62
     7
 10
-1532.0
 20
1797.8628405573691
 30
0.0
 40
38.006293402777779
  1
メンテナンス
 41
0.85
 11
-1532.0
 21
1835.8691339601471
 31
0.0
 73
     3
  0
TEXT
  5
197
  8
SPEC
 62
     7
 10
-882.00000000162515
 20
1797.8628405573691
 30
0.0
 40
38.006293402777779
  1
SPユニットは前面側で交換
 41
0.85
 11
-882.00000000162515
 21
1835.8691339601471
 31
0.0
 73
     3
  0
TEXT
  5
198
  8
SPEC
 62
     7
 10
-882.00000000162618
 20
2547.8628849999391
 30
0.0
 40
38.006293402777779
  1
サブウーファ(18" subwoofer)
 41
0.85
 11
-882.00000000162618
 21
2585.8691784027169
 31
0.0
 73
     3
  0
TEXT
  5
199
  8
SPEC
 62
     7
 10
-1532.0
 20
2322.8628405560562
 30
0.0
 40
38.006293402777779
  1
低域ユニット
 41
0.85
 11
-1532.0
 21
2360.869133958834
 31
0.0
 73
     3
  0
TEXT
  5
19A
  8
SPEC
 62
     7
 10
-882.00000000162515
 20
2322.8628405560562
 30
0.0
 40
38.006293402777779
  1
2043-G(口径:18インチ)
 41
0.85
 11
-882.00000000162515
 21
2360.869133958834
 31
0.0
 73
     3
  0
TEXT
  5
19B
  8
SPEC
 62
     7
 10
-882.00000000162515
 20
1652.862840557556
 30
0.0
 40
38.006293402777779
  1
ホーンジャック×1
 41
0.85
 11
-882.00000000162515
 21
1690.8691339603349
 31
0.0
 73
     3
  0
TEXT
  5
19C
  8
DIMNSIONS
 62
     7
 10
-300.0
 20
-2147.5057149999998
 30
0.0
 40
48.865234375000007
  1
(単位：mm)
 41
0.85
 11
-300.0
 21
-2098.6404806249998
 31
0.0
 73
     3
  0
LINE
  5
19D
  8
DIMNSIONS
  6
CONTINUOUS
 62
     7
 10
-1430.0
 20
-203.09999999999991
 30
0.0
 11
-1590.0
 21
-203.09999999999991
 31
0.0
  0
LINE
  5
19E
  8
DIMNSIONS
  6
CONTINUOUS
 62
     7
 10
-1430.0
 20
-800.0
 30
0.0
 11
-1590.0
 21
-800.0
 31
0.0
  0
LINE
  5
19F
  8
DIMNSIONS
  6
CONTINUOUS
 62
     7
 10
-1550.0
 20
-203.09999999999991
 30
0.0
 11
-1550.0
 21
-800.0
 31
0.0
  0
LINE
  5
1A0
  8
DIMNSIONS
  6
CONTINUOUS
 62
     7
 10
-1550.0
 20
-203.09999999999991
 30
0.0
 11
-1536.599204096995
 21
-253.11245117187491
 31
0.0
  0
LINE
  5
1A1
  8
DIMNSIONS
  6
CONTINUOUS
 62
     7
 10
-1550.0
 20
-203.09999999999991
 30
0.0
 11
-1563.400795903005
 21
-253.11245117187491
 31
0.0
  0
LINE
  5
1A2
  8
DIMNSIONS
  6
CONTINUOUS
 62
     7
 10
-1550.0
 20
-800.0
 30
0.0
 11
-1563.400795903005
 21
-749.987548828125
 31
0.0
  0
LINE
  5
1A3
  8
DIMNSIONS
  6
CONTINUOUS
 62
     7
 10
-1550.0
 20
-800.0
 30
0.0
 11
-1536.599204096995
 21
-749.987548828125
 31
0.0
  0
TEXT
  5
1A4
  8
DIMNSIONS
 62
     7
 10
-1566.127777777778
 20
-554.4666666666667
 30
0.0
 40
54.294704861111107
  1
597
 50
90.0
 41
0.85
 11
-1620.4224826388891
 21
-554.4666666666667
 31
0.0
 73
     3
  0
LINE
  5
1A5
  8
DIMNSIONS
  6
CONTINUOUS
 62
     7
 10
-1400.0
 20
-830.0
 30
0.0
 11
-1400.0
 21
-990.0
 31
0.0
  0
LINE
  5
1A6
  8
DIMNSIONS
  6
CONTINUOUS
 62
     7
 10
-884.38000000000011
 20
-830.0
 30
0.0
 11
-884.38000000000011
 21
-990.0
 31
0.0
  0
LINE
  5
1A7
  8
DIMNSIONS
  6
CONTINUOUS
 62
     7
 10
-1400.0
 20
-950.0
 30
0.0
 11
-884.38000000000011
 21
-950.0
 31
0.0
  0
LINE
  5
1A8
  8
DIMNSIONS
  6
CONTINUOUS
 62
     7
 10
-1400.0
 20
-950.0
 30
0.0
 11
-1349.987548828125
 21
-936.59920409699532
 31
0.0
  0
LINE
  5
1A9
  8
DIMNSIONS
  6
CONTINUOUS
 62
     7
 10
-1400.0
 20
-950.0
 30
0.0
 11
-1349.987548828125
 21
-963.40079590300502
 31
0.0
  0
LINE
  5
1AA
  8
DIMNSIONS
  6
CONTINUOUS
 62
     7
 10
-884.38000000000011
 20
-950.0
 30
0.0
 11
-934.39245117187534
 21
-963.40079590300502
 31
0.0
  0
LINE
  5
1AB
  8
DIMNSIONS
  6
CONTINUOUS
 62
     7
 10
-884.38000000000011
 20
-950.0
 30
0.0
 11
-934.39245117187534
 21
-936.59920409699532
 31
0.0
  0
TEXT
  5
1AC
  8
DIMNSIONS
 62
     7
 10
-1195.1066666666659
 20
-933.87222222222192
 30
0.0
 40
54.294704861111107
  1
516
 41
0.85
 11
-1195.1066666666659
 21
-879.57751736111095
 31
0.0
 73
     3
  0
LINE
  5
1AD
  8
DIMNSIONS
  6
CONTINUOUS
 62
     7
 10
-700.0
 20
-830.0
 30
0.0
 11
-700.0
 21
-990.0
 31
0.0
  0
LINE
  5
1AE
  8
DIMNSIONS
  6
CONTINUOUS
 62
     7
 10
-141.19999999999979
 20
-830.0
 30
0.0
 11
-141.19999999999979
 21
-990.0
 31
0.0
  0
LINE
  5
1AF
  8
DIMNSIONS
  6
CONTINUOUS
 62
     7
 10
-700.0
 20
-950.0
 30
0.0
 11
-141.19999999999979
 21
-950.0
 31
0.0
  0
LINE
  5
1B0
  8
DIMNSIONS
  6
CONTINUOUS
 62
     7
 10
-700.0
 20
-950.0
 30
0.0
 11
-649.987548828125
 21
-936.59920409699532
 31
0.0
  0
LINE
  5
1B1
  8
DIMNSIONS
  6
CONTINUOUS
 62
     7
 10
-700.0
 20
-950.0
 30
0.0
 11
-649.987548828125
 21
-963.40079590300502
 31
0.0
  0
LINE
  5
1B2
  8
DIMNSIONS
  6
CONTINUOUS
 62
     7
 10
-141.19999999999979
 20
-950.0
 30
0.0
 11
-191.21245117187479
 21
-963.40079590300502
 31
0.0
  0
LINE
  5
1B3
  8
DIMNSIONS
  6
CONTINUOUS
 62
     7
 10
-141.19999999999979
 20
-950.0
 30
0.0
 11
-191.21245117187479
 21
-936.59920409699532
 31
0.0
  0
TEXT
  5
1B4
  8
DIMNSIONS
 62
     7
 10
-473.51666666666648
 20
-933.87222222222192
 30
0.0
 40
54.294704861111107
  1
559
 41
0.85
 11
-473.51666666666648
 21
-879.57751736111095
 31
0.0
 73
     3
  0
LINE
  5
1B5
  8
DIMNSIONS
  6
CONTINUOUS
 62
     7
 10
-1430.0
 20
0.0
 30
0.0
 11
-1590.0
 21
0.0
 31
0.0
  0
LINE
  5
1B6
  8
DIMNSIONS
  6
CONTINUOUS
 62
     7
 10
-1430.0
 20
558.80000000000007
 30
0.0
 11
-1590.0
 21
558.80000000000007
 31
0.0
  0
LINE
  5
1B7
  8
DIMNSIONS
  6
CONTINUOUS
 62
     7
 10
-1550.0
 20
0.0
 30
0.0
 11
-1550.0
 21
558.80000000000007
 31
0.0
  0
LINE
  5
1B8
  8
DIMNSIONS
  6
CONTINUOUS
 62
     7
 10
-1550.0
 20
0.0
 30
0.0
 11
-1563.400795903005
 21
50.012451171875
 31
0.0
  0
LINE
  5
1B9
  8
DIMNSIONS
  6
CONTINUOUS
 62
     7
 10
-1550.0
 20
0.0
 30
0.0
 11
-1536.599204096995
 21
50.012451171875
 31
0.0
  0
LINE
  5
1BA
  8
DIMNSIONS
  6
CONTINUOUS
 62
     7
 10
-1550.0
 20
558.80000000000007
 30
0.0
 11
-1536.599204096995
 21
508.78754882812513
 31
0.0
  0
LINE
  5
1BB
  8
DIMNSIONS
  6
CONTINUOUS
 62
     7
 10
-1550.0
 20
558.80000000000007
 30
0.0
 11
-1563.400795903005
 21
508.78754882812513
 31
0.0
  0
TEXT
  5
1BC
  8
DIMNSIONS
 62
     7
 10
-1566.127777777778
 20
226.48333333333349
 30
0.0
 40
54.294704861111107
  1
559
 50
90.0
 41
0.85
 11
-1620.4224826388891
 21
226.48333333333349
 31
0.0
 73
     3
  0
LINE
  5
1BD
  8
DIMNSIONS
  6
CONTINUOUS
 62
     7
 10
-1427.0
 20
-812.0
 30
0.0
 11
-1590.0
 21
-812.0
 31
0.0
  0
LINE
  5
1BE
  8
DIMNSIONS
  6
CONTINUOUS
 62
     7
 10
-1430.0
 20
-800.0
 30
0.0
 11
-1590.0
 21
-800.0
 31
0.0
  0
LINE
  5
1BF
  8
DIMNSIONS
  6
CONTINUOUS
 62
     7
 10
-1550.0
 20
-800.0
 30
0.0
 11
-1550.0
 21
-812.0
 31
0.0
  0
LINE
  5
1C0
  8
DIMNSIONS
  6
CONTINUOUS
 62
     7
 10
-1550.0
 20
-812.0
 30
0.0
 11
-1550.0
 21
-920.55555555555554
 31
0.0
  0
LINE
  5
1C1
  8
DIMNSIONS
  6
CONTINUOUS
 62
     7
 10
-1550.0
 20
-812.0
 30
0.0
 11
-1536.599204096995
 21
-862.01245117187489
 31
0.0
  0
LINE
  5
1C2
  8
DIMNSIONS
  6
CONTINUOUS
 62
     7
 10
-1550.0
 20
-812.0
 30
0.0
 11
-1563.400795903005
 21
-862.01245117187489
 31
0.0
  0
LINE
  5
1C3
  8
DIMNSIONS
  6
CONTINUOUS
 62
     7
 10
-1550.0
 20
-800.0
 30
0.0
 11
-1550.0
 21
-700.0
 31
0.0
  0
LINE
  5
1C4
  8
DIMNSIONS
  6
CONTINUOUS
 62
     7
 10
-1550.0
 20
-800.0
 30
0.0
 11
-1563.400795903005
 21
-749.987548828125
 31
0.0
  0
LINE
  5
1C5
  8
DIMNSIONS
  6
CONTINUOUS
 62
     7
 10
-1550.0
 20
-800.0
 30
0.0
 11
-1536.599204096995
 21
-749.987548828125
 31
0.0
  0
TEXT
  5
1C6
  8
DIMNSIONS
 62
     7
 10
-1566.127777777778
 20
-920.55555555555554
 30
0.0
 40
54.294704861111107
  1
12
 50
90.0
 41
0.85
 11
-1620.4224826388891
 21
-920.55555555555554
 31
0.0
 73
     3
  0
TEXT
  5
1C7
  8
DIMNSIONS
 62
     7
 10
-725.0
 20
74.600000000000023
 30
0.0
 40
54.294704861111107
  1
スタンド用ポールマウント穴
 41
0.85
 11
-725.0
 21
128.89470486111111
 31
0.0
 73
     3
  0
LINE
  5
1C8
  8
DIMNSIONS
  6
CONTINUOUS
 62
     7
 10
-1125.362387882971
 20
270.57778540052368
 30
0.0
 11
-800.0
 21
100.0
 31
0.0
  0
LINE
  5
1C9
  8
DIMNSIONS
  6
CONTINUOUS
 62
     7
 10
-1125.362387882971
 20
270.57778540052368
 30
0.0
 11
-1061.307263327946
 21
255.78949466218239
 31
0.0
  0
LINE
  5
1CA
  8
DIMNSIONS
  6
CONTINUOUS
 62
     7
 10
-1125.362387882971
 20
270.57778540052368
 30
0.0
 11
-1077.283168144914
 21
225.74318766505709
 31
0.0
  0
LINE
  5
1CB
  8
DIMNSIONS
  6
CONTINUOUS
 62
     7
 10
-800.0
 20
100.0
 30
0.0
 11
-750.0
 21
100.0
 31
0.0
  0
TEXT
  5
1CC
  8
DATA
 62
     7
 10
892.69679999999983
 20
-825.00006399999995
 30
0.0
 40
36.000518749999998
  1
コネクターパネル拡大図
 41
0.85
 11
892.69679999999983
 21
-788.99954524999998
 31
0.0
 73
     3
  0
LINE
  5
1CD
  8
DATA
  6
CONTINUOUS
 62
     7
 10
800.0
 20
-850.0
 30
0.0
 11
1500.0
 21
-850.0
 31
0.0
  0
TEXT
  5
1CE
  8
DATA
 62
     7
 10
-1500.0
 20
-2308.1355149999999
 30
0.0
 40
32.576822916666671
  1
仕様および外観は予告なく変更されることがありますので、ご了承ください。
 41
0.85
 11
-1500.0
 21
-2275.558692083333
 31
0.0
 73
     3
  0
LINE
  5
1CF
  8
DATA
  6
CONTINUOUS
 62
     7
 10
-1400.0
 20
10.0
 30
0.0
 11
-1400.0
 21
548.80000000000018
 31
0.0
  0
LINE
  5
1D0
  8
DATA
  6
CONTINUOUS
 62
     7
 10
-894.38000000000011
 20
0.0
 30
0.0
 11
-1390.0
 21
0.0
 31
0.0
  0
LINE
  5
1D1
  8
DATA
  6
CONTINUOUS
 62
     7
 10
-1390.0
 20
558.80000000000007
 30
0.0
 11
-894.38000000000011
 21
558.80000000000007
 31
0.0
  0
LINE
  5
1D2
  8
DATA
  6
CONTINUOUS
 62
     7
 10
-1400.0
 20
-790.0
 30
0.0
 11
-1400.0
 21
-213.09999999999991
 31
0.0
  0
LINE
  5
1D3
  8
DATA
  6
CONTINUOUS
 62
     7
 10
-894.38000000000011
 20
-800.0
 30
0.0
 11
-1390.0
 21
-800.0
 31
0.0
  0
LINE
  5
1D4
  8
DATA
  6
CONTINUOUS
 62
     7
 10
-884.38000000000011
 20
-213.09999999999991
 30
0.0
 11
-884.38000000000011
 21
-790.0
 31
0.0
  0
LINE
  5
1D5
  8
DATA
  6
CONTINUOUS
 62
     7
 10
-1390.0
 20
-203.09999999999991
 30
0.0
 11
-894.38000000000011
 21
-203.09999999999991
 31
0.0
  0
CIRCLE
  5
1D6
  8
DATA
  6
CONTINUOUS
 62
     7
 10
-1142.1899999999989
 20
279.40000000000009
 30
0.0
 40
52.499999999999503
  0
CIRCLE
  5
1D7
  8
DATA
  6
CONTINUOUS
 62
     7
 10
-1142.190000000001
 20
319.39999999999981
 30
0.0
 40
5.000000000000016
  0
LINE
  5
1D8
  8
DATA
  6
CONTINUOUS
 62
     7
 10
-1145.6899999999989
 20
319.40000000000009
 30
0.0
 11
-1138.690000000001
 21
319.40000000000009
 31
0.0
  0
LINE
  5
1D9
  8
DATA
  6
CONTINUOUS
 62
     7
 10
-1142.1900000000001
 20
315.90000000000009
 30
0.0
 11
-1142.1900000000001
 21
322.89999999999981
 31
0.0
  0
CIRCLE
  5
1DA
  8
DATA
  6
CONTINUOUS
 62
     7
 10
-1182.1899999999989
 20
279.39999999999958
 30
0.0
 40
4.9999999999992291
  0
LINE
  5
1DB
  8
DATA
  6
CONTINUOUS
 62
     7
 10
-1185.6900000000001
 20
279.39999999999941
 30
0.0
 11
-1178.6899999999989
 21
279.39999999999958
 31
0.0
  0
LINE
  5
1DC
  8
DATA
  6
CONTINUOUS
 62
     7
 10
-1182.1899999999989
 20
275.90000000000009
 30
0.0
 11
-1182.1899999999989
 21
282.89999999999981
 31
0.0
  0
CIRCLE
  5
1DD
  8
DATA
  6
CONTINUOUS
 62
     7
 10
-1142.1899999999989
 20
239.39999999999961
 30
0.0
 40
5.000000000000016
  0
LINE
  5
1DE
  8
DATA
  6
CONTINUOUS
 62
     7
 10
-1145.6899999999989
 20
239.40000000000009
 30
0.0
 11
-1138.6899999999989
 21
239.39999999999961
 31
0.0
  0
LINE
  5
1DF
  8
DATA
  6
CONTINUOUS
 62
     7
 10
-1142.1899999999989
 20
235.90000000000009
 30
0.0
 11
-1142.1899999999989
 21
242.89999999999981
 31
0.0
  0
CIRCLE
  5
1E0
  8
DATA
  6
CONTINUOUS
 62
     7
 10
-1102.1900000000001
 20
279.40000000000032
 30
0.0
 40
5.000000000000016
  0
LINE
  5
1E1
  8
DATA
  6
CONTINUOUS
 62
     7
 10
-1105.6900000000001
 20
279.40000000000032
 30
0.0
 11
-1098.6899999999989
 21
279.40000000000049
 31
0.0
  0
LINE
  5
1E2
  8
DATA
  6
CONTINUOUS
 62
     7
 10
-1102.1900000000001
 20
275.9000000000006
 30
0.0
 11
-1102.1900000000001
 21
282.89999999999981
 31
0.0
  0
LINE
  5
1E3
  8
DATA
  6
CONTINUOUS
 62
     7
 10
-1157.3480028089889
 20
290.85578241949003
 30
0.0
 11
-1144.5319971910119
 21
298.25510671296479
 31
0.0
  0
LINE
  5
1E4
  8
DATA
  6
CONTINUOUS
 62
     7
 10
-1139.848002808988
 20
298.25510671296519
 30
0.0
 11
-1127.031997191011
 21
290.85578241949042
 31
0.0
  0
LINE
  5
1E5
  8
DATA
  6
CONTINUOUS
 62
     7
 10
-1159.6899999999989
 20
272.00067570652533
 30
0.0
 11
-1159.6900000000001
 21
286.79932429347423
 31
0.0
  0
LINE
  5
1E6
  8
DATA
  6
CONTINUOUS
 62
     7
 10
-1124.6899999999989
 20
272.0006757065259
 30
0.0
 11
-1124.6899999999989
 21
286.79932429347451
 31
0.0
  0
LINE
  5
1E7
  8
DATA
  6
CONTINUOUS
 62
     7
 10
-1157.348002808988
 20
267.9442175805097
 30
0.0
 11
-1144.5319971910119
 21
260.54489328703471
 31
0.0
  0
LINE
  5
1E8
  8
DATA
  6
CONTINUOUS
 62
     7
 10
-1139.848002808988
 20
260.54489328703539
 30
0.0
 11
-1127.0319971910119
 21
267.94421758050959
 31
0.0
  0
ARC
  5
1E9
  8
DATA
  6
CONTINUOUS
 62
     7
 10
-1142.1899999999989
 20
279.40000000000009
 30
0.0
 40
19.000000000000028
 50
262.91954215157051
 51
277.0804578484296
  0
ARC
  5
1EA
  8
DATA
  6
CONTINUOUS
 62
     7
 10
-1142.1899999999989
 20
279.40000000000009
 30
0.0
 40
18.999999999999499
 50
322.91954215156829
 51
337.0804578484308
  0
ARC
  5
1EB
  8
DATA
  6
CONTINUOUS
 62
     7
 10
-1142.1899999999989
 20
279.40000000000009
 30
0.0
 40
18.999999999999911
 50
22.919542151569161
 51
37.080457848430491
  0
ARC
  5
1EC
  8
DATA
  6
CONTINUOUS
 62
     7
 10
-1142.1899999999989
 20
279.40000000000009
 30
0.0
 40
19.000000000000249
 50
82.919542151570624
 51
97.08045784843209
  0
ARC
  5
1ED
  8
DATA
  6
CONTINUOUS
 62
     7
 10
-1142.1899999999989
 20
279.40000000000009
 30
0.0
 40
19.000000000000551
 50
142.91954215157341
 51
157.0804578484302
  0
ARC
  5
1EE
  8
DATA
  6
CONTINUOUS
 62
     7
 10
-1142.1899999999989
 20
279.40000000000009
 30
0.0
 40
19.000000000000171
 50
202.91954215157099
 51
217.0804578484294
  0
LINE
  5
1EF
  8
DATA
  6
CONTINUOUS
 62
     7
 10
-501.10000000000031
 20
-494.0999999999998
 30
0.0
 11
-501.10000000000031
 21
-294.09999999999991
 31
0.0
  0
LINE
  5
1F0
  8
DATA
  6
CONTINUOUS
 62
     7
 10
-350.10000000000042
 20
-504.09999999999991
 30
0.0
 11
-491.10000000000042
 21
-504.09999999999991
 31
0.0
  0
LINE
  5
1F1
  8
DATA
  6
CONTINUOUS
 62
     7
 10
-340.10000000000042
 20
-294.09999999999991
 30
0.0
 11
-340.10000000000042
 21
-494.0999999999998
 31
0.0
  0
LINE
  5
1F2
  8
DATA
  6
CONTINUOUS
 62
     7
 10
-491.10000000000042
 20
-284.09999999999991
 30
0.0
 11
-350.10000000000042
 21
-284.09999999999991
 31
0.0
  0
POLYLINE
  5
1F3
  8
DATA
  6
CONTINUOUS
 62
     7
 66
     1
 10
0.0
 20
0.0
 30
0.0
 70
     1
  0
VERTEX
  5
4C4
  8
DATA
  6
CONTINUOUS
 62
     7
 10
-475.60000000000031
 20
-309.09999999999991
 30
0.0
  0
VERTEX
  5
4C5
  8
DATA
  6
CONTINUOUS
 62
     7
 10
-365.60000000000042
 20
-309.09999999999991
 30
0.0
  0
VERTEX
  5
4C6
  8
DATA
  6
CONTINUOUS
 62
     7
 10
-365.60000000000042
 20
-479.09999999999991
 30
0.0
  0
VERTEX
  5
4C7
  8
DATA
  6
CONTINUOUS
 62
     7
 10
-475.60000000000031
 20
-479.09999999999991
 30
0.0
  0
SEQEND
  5
4C8
  8
DATA
  6
CONTINUOUS
 62
     7
  0
CIRCLE
  5
1F9
  8
DATA
  6
CONTINUOUS
 62
     7
 10
-350.60000000000042
 20
-296.59999999999991
 30
0.0
 40
3.25
  0
LINE
  5
1FA
  8
DATA
  6
CONTINUOUS
 62
     7
 10
-352.60000000000042
 20
-296.59999999999991
 30
0.0
 11
-348.60000000000042
 21
-296.59999999999991
 31
0.0
  0
LINE
  5
1FB
  8
DATA
  6
CONTINUOUS
 62
     7
 10
-350.60000000000042
 20
-298.59999999999991
 30
0.0
 11
-350.60000000000042
 21
-294.59999999999991
 31
0.0
  0
CIRCLE
  5
1FC
  8
DATA
  6
CONTINUOUS
 62
     7
 10
-490.60000000000042
 20
-296.59999999999991
 30
0.0
 40
3.25
  0
LINE
  5
1FD
  8
DATA
  6
CONTINUOUS
 62
     7
 10
-492.60000000000031
 20
-296.59999999999991
 30
0.0
 11
-488.60000000000031
 21
-296.59999999999991
 31
0.0
  0
LINE
  5
1FE
  8
DATA
  6
CONTINUOUS
 62
     7
 10
-490.60000000000042
 20
-298.59999999999991
 30
0.0
 11
-490.60000000000042
 21
-294.59999999999991
 31
0.0
  0
CIRCLE
  5
1FF
  8
DATA
  6
CONTINUOUS
 62
     7
 10
-350.60000000000042
 20
-491.59999999999991
 30
0.0
 40
3.25
  0
LINE
  5
200
  8
DATA
  6
CONTINUOUS
 62
     7
 10
-352.60000000000042
 20
-491.59999999999991
 30
0.0
 11
-348.60000000000042
 21
-491.59999999999991
 31
0.0
  0
LINE
  5
201
  8
DATA
  6
CONTINUOUS
 62
     7
 10
-350.60000000000042
 20
-493.59999999999991
 30
0.0
 11
-350.60000000000042
 21
-489.59999999999991
 31
0.0
  0
CIRCLE
  5
202
  8
DATA
  6
CONTINUOUS
 62
     7
 10
-490.60000000000042
 20
-491.59999999999991
 30
0.0
 40
3.25
  0
LINE
  5
203
  8
DATA
  6
CONTINUOUS
 62
     7
 10
-492.60000000000031
 20
-491.59999999999991
 30
0.0
 11
-488.60000000000031
 21
-491.59999999999991
 31
0.0
  0
LINE
  5
204
  8
DATA
  6
CONTINUOUS
 62
     7
 10
-490.60000000000042
 20
-493.59999999999991
 30
0.0
 11
-490.60000000000042
 21
-489.59999999999991
 31
0.0
  0
CIRCLE
  5
205
  8
DATA
  6
CONTINUOUS
 62
     7
 10
-350.60000000000042
 20
-409.59999999999991
 30
0.0
 40
3.25
  0
LINE
  5
206
  8
DATA
  6
CONTINUOUS
 62
     7
 10
-352.60000000000042
 20
-409.59999999999991
 30
0.0
 11
-348.60000000000042
 21
-409.59999999999991
 31
0.0
  0
LINE
  5
207
  8
DATA
  6
CONTINUOUS
 62
     7
 10
-350.60000000000042
 20
-411.5999999999998
 30
0.0
 11
-350.60000000000042
 21
-407.5999999999998
 31
0.0
  0
CIRCLE
  5
208
  8
DATA
  6
CONTINUOUS
 62
     7
 10
-490.60000000000042
 20
-409.59999999999991
 30
0.0
 40
3.25
  0
LINE
  5
209
  8
DATA
  6
CONTINUOUS
 62
     7
 10
-492.60000000000031
 20
-409.59999999999991
 30
0.0
 11
-488.60000000000031
 21
-409.59999999999991
 31
0.0
  0
LINE
  5
20A
  8
DATA
  6
CONTINUOUS
 62
     7
 10
-490.60000000000042
 20
-411.5999999999998
 30
0.0
 11
-490.60000000000042
 21
-407.5999999999998
 31
0.0
  0
LINE
  5
20B
  8
DATA
  6
CONTINUOUS
 62
     7
 10
-475.60000000000031
 20
-393.59999999999991
 30
0.0
 11
-365.60000000000042
 21
-393.59999999999991
 31
0.0
  0
LINE
  5
20C
  8
DATA
  6
CONTINUOUS
 62
     7
 10
-475.60000000000031
 20
-425.59999999999991
 30
0.0
 11
-365.60000000000042
 21
-425.59999999999991
 31
0.0
  0
ARC
  5
20D
  8
DATA
  6
CONTINUOUS
 62
     7
 10
-491.10000000000042
 20
-294.09999999999991
 30
0.0
 40
10.0
 50
90.0
 51
180.0
  0
ARC
  5
20E
  8
DATA
  6
CONTINUOUS
 62
     7
 10
-350.10000000000042
 20
-294.09999999999991
 30
0.0
 40
10.0
 50
0.0
 51
90.0
  0
ARC
  5
20F
  8
DATA
  6
CONTINUOUS
 62
     7
 10
-350.10000000000042
 20
-494.0999999999998
 30
0.0
 40
10.0
 50
270.0
 51
0.0
  0
ARC
  5
210
  8
DATA
  6
CONTINUOUS
 62
     7
 10
-491.10000000000042
 20
-494.0999999999998
 30
0.0
 40
10.0
 50
180.0
 51
270.0
  0
LINE
  5
211
  8
DATA
  6
CONTINUOUS
 62
     7
 10
-475.60000000000031
 20
-400.8499999999998
 30
0.0
 11
-365.60000000000042
 21
-400.8499999999998
 31
0.0
  0
LINE
  5
212
  8
DATA
  6
CONTINUOUS
 62
     7
 10
-475.60000000000031
 20
-418.84999999999991
 30
0.0
 11
-365.60000000000042
 21
-418.84999999999991
 31
0.0
  0
LINE
  5
213
  8
DATA
  6
CONTINUOUS
 62
     7
 10
-1400.0
 20
-1690.0
 30
0.0
 11
-1400.0
 21
-1151.2
 31
0.0
  0
LINE
  5
214
  8
DATA
  6
CONTINUOUS
 62
     7
 10
-894.38000000000011
 20
-1700.0
 30
0.0
 11
-1390.0
 21
-1700.0
 31
0.0
  0
LINE
  5
215
  8
DATA
  6
CONTINUOUS
 62
     7
 10
-1390.0
 20
-1141.2
 30
0.0
 11
-894.38000000000011
 21
-1141.2
 31
0.0
  0
CIRCLE
  5
216
  8
DATA
  6
CONTINUOUS
 62
     7
 10
-1370.0
 20
-1176.2
 30
0.0
 40
16.99999999999994
  0
CIRCLE
  5
217
  8
DATA
  6
CONTINUOUS
 62
     7
 10
-1370.0
 20
-1176.2
 30
0.0
 40
18.24999999999995
  0
CIRCLE
  5
218
  8
DATA
  6
CONTINUOUS
 62
     7
 10
-1370.0
 20
-1176.2
 30
0.0
 40
4.9999999999998828
  0
LINE
  5
219
  8
DATA
  6
CONTINUOUS
 62
     7
 10
-1373.0
 20
-1176.2
 30
0.0
 11
-1367.0
 21
-1176.2
 31
0.0
  0
LINE
  5
21A
  8
DATA
  6
CONTINUOUS
 62
     7
 10
-1370.0
 20
-1179.2
 30
0.0
 11
-1370.0
 21
-1173.2
 31
0.0
  0
CIRCLE
  5
21B
  8
DATA
  6
CONTINUOUS
 62
     7
 10
-1370.0
 20
-1176.2
 30
0.0
 40
16.99999999999994
  0
CIRCLE
  5
21C
  8
DATA
  6
CONTINUOUS
 62
     7
 10
-1370.0
 20
-1176.2
 30
0.0
 40
18.24999999999995
  0
CIRCLE
  5
21D
  8
DATA
  6
CONTINUOUS
 62
     7
 10
-1370.0
 20
-1176.2
 30
0.0
 40
4.9999999999998828
  0
LINE
  5
21E
  8
DATA
  6
CONTINUOUS
 62
     7
 10
-1373.0
 20
-1176.2
 30
0.0
 11
-1367.0
 21
-1176.2
 31
0.0
  0
LINE
  5
21F
  8
DATA
  6
CONTINUOUS
 62
     7
 10
-1370.0
 20
-1179.2
 30
0.0
 11
-1370.0
 21
-1173.2
 31
0.0
  0
CIRCLE
  5
220
  8
DATA
  6
CONTINUOUS
 62
     7
 10
-1370.0
 20
-1176.2
 30
0.0
 40
16.99999999999994
  0
CIRCLE
  5
221
  8
DATA
  6
CONTINUOUS
 62
     7
 10
-1370.0
 20
-1176.2
 30
0.0
 40
18.24999999999995
  0
CIRCLE
  5
222
  8
DATA
  6
CONTINUOUS
 62
     7
 10
-1370.0
 20
-1176.2
 30
0.0
 40
4.9999999999998828
  0
LINE
  5
223
  8
DATA
  6
CONTINUOUS
 62
     7
 10
-1373.0
 20
-1176.2
 30
0.0
 11
-1367.0
 21
-1176.2
 31
0.0
  0
LINE
  5
224
  8
DATA
  6
CONTINUOUS
 62
     7
 10
-1370.0
 20
-1179.2
 30
0.0
 11
-1370.0
 21
-1173.2
 31
0.0
  0
CIRCLE
  5
225
  8
DATA
  6
CONTINUOUS
 62
     7
 10
-914.38
 20
-1176.2
 30
0.0
 40
16.99999999999994
  0
CIRCLE
  5
226
  8
DATA
  6
CONTINUOUS
 62
     7
 10
-914.38
 20
-1176.2
 30
0.0
 40
18.24999999999995
  0
CIRCLE
  5
227
  8
DATA
  6
CONTINUOUS
 62
     7
 10
-914.38
 20
-1176.2
 30
0.0
 40
4.9999999999999609
  0
LINE
  5
228
  8
DATA
  6
CONTINUOUS
 62
     7
 10
-917.37999999999988
 20
-1176.2
 30
0.0
 11
-911.37999999999988
 21
-1176.2
 31
0.0
  0
LINE
  5
229
  8
DATA
  6
CONTINUOUS
 62
     7
 10
-914.38
 20
-1179.2
 30
0.0
 11
-914.38
 21
-1173.2
 31
0.0
  0
CIRCLE
  5
22A
  8
DATA
  6
CONTINUOUS
 62
     7
 10
-914.38
 20
-1176.2
 30
0.0
 40
16.99999999999994
  0
CIRCLE
  5
22B
  8
DATA
  6
CONTINUOUS
 62
     7
 10
-914.38
 20
-1176.2
 30
0.0
 40
18.24999999999995
  0
CIRCLE
  5
22C
  8
DATA
  6
CONTINUOUS
 62
     7
 10
-914.38
 20
-1176.2
 30
0.0
 40
4.9999999999999609
  0
LINE
  5
22D
  8
DATA
  6
CONTINUOUS
 62
     7
 10
-917.37999999999988
 20
-1176.2
 30
0.0
 11
-911.37999999999988
 21
-1176.2
 31
0.0
  0
LINE
  5
22E
  8
DATA
  6
CONTINUOUS
 62
     7
 10
-914.38
 20
-1179.2
 30
0.0
 11
-914.38
 21
-1173.2
 31
0.0
  0
CIRCLE
  5
22F
  8
DATA
  6
CONTINUOUS
 62
     7
 10
-914.38
 20
-1176.2
 30
0.0
 40
16.99999999999994
  0
CIRCLE
  5
230
  8
DATA
  6
CONTINUOUS
 62
     7
 10
-914.38
 20
-1176.2
 30
0.0
 40
18.24999999999995
  0
CIRCLE
  5
231
  8
DATA
  6
CONTINUOUS
 62
     7
 10
-914.38
 20
-1176.2
 30
0.0
 40
4.9999999999999609
  0
LINE
  5
232
  8
DATA
  6
CONTINUOUS
 62
     7
 10
-917.37999999999988
 20
-1176.2
 30
0.0
 11
-911.37999999999988
 21
-1176.2
 31
0.0
  0
LINE
  5
233
  8
DATA
  6
CONTINUOUS
 62
     7
 10
-914.38
 20
-1179.2
 30
0.0
 11
-914.38
 21
-1173.2
 31
0.0
  0
CIRCLE
  5
234
  8
DATA
  6
CONTINUOUS
 62
     7
 10
-1370.0
 20
-1665.0
 30
0.0
 40
16.99999999999994
  0
CIRCLE
  5
235
  8
DATA
  6
CONTINUOUS
 62
     7
 10
-1370.0
 20
-1665.0
 30
0.0
 40
18.24999999999995
  0
CIRCLE
  5
236
  8
DATA
  6
CONTINUOUS
 62
     7
 10
-1370.0
 20
-1665.0
 30
0.0
 40
4.9999999999998828
  0
LINE
  5
237
  8
DATA
  6
CONTINUOUS
 62
     7
 10
-1373.0
 20
-1665.0
 30
0.0
 11
-1367.0
 21
-1665.0
 31
0.0
  0
LINE
  5
238
  8
DATA
  6
CONTINUOUS
 62
     7
 10
-1370.0
 20
-1668.0
 30
0.0
 11
-1370.0
 21
-1662.0
 31
0.0
  0
CIRCLE
  5
239
  8
DATA
  6
CONTINUOUS
 62
     7
 10
-1370.0
 20
-1665.0
 30
0.0
 40
16.99999999999994
  0
CIRCLE
  5
23A
  8
DATA
  6
CONTINUOUS
 62
     7
 10
-1370.0
 20
-1665.0
 30
0.0
 40
18.24999999999995
  0
CIRCLE
  5
23B
  8
DATA
  6
CONTINUOUS
 62
     7
 10
-1370.0
 20
-1665.0
 30
0.0
 40
4.9999999999998828
  0
LINE
  5
23C
  8
DATA
  6
CONTINUOUS
 62
     7
 10
-1373.0
 20
-1665.0
 30
0.0
 11
-1367.0
 21
-1665.0
 31
0.0
  0
LINE
  5
23D
  8
DATA
  6
CONTINUOUS
 62
     7
 10
-1370.0
 20
-1668.0
 30
0.0
 11
-1370.0
 21
-1662.0
 31
0.0
  0
CIRCLE
  5
23E
  8
DATA
  6
CONTINUOUS
 62
     7
 10
-1370.0
 20
-1665.0
 30
0.0
 40
16.99999999999994
  0
CIRCLE
  5
23F
  8
DATA
  6
CONTINUOUS
 62
     7
 10
-1370.0
 20
-1665.0
 30
0.0
 40
18.24999999999995
  0
CIRCLE
  5
240
  8
DATA
  6
CONTINUOUS
 62
     7
 10
-1370.0
 20
-1665.0
 30
0.0
 40
4.9999999999998828
  0
LINE
  5
241
  8
DATA
  6
CONTINUOUS
 62
     7
 10
-1373.0
 20
-1665.0
 30
0.0
 11
-1367.0
 21
-1665.0
 31
0.0
  0
LINE
  5
242
  8
DATA
  6
CONTINUOUS
 62
     7
 10
-1370.0
 20
-1668.0
 30
0.0
 11
-1370.0
 21
-1662.0
 31
0.0
  0
CIRCLE
  5
243
  8
DATA
  6
CONTINUOUS
 62
     7
 10
-914.38
 20
-1665.0
 30
0.0
 40
16.99999999999994
  0
CIRCLE
  5
244
  8
DATA
  6
CONTINUOUS
 62
     7
 10
-914.38
 20
-1665.0
 30
0.0
 40
18.24999999999995
  0
CIRCLE
  5
245
  8
DATA
  6
CONTINUOUS
 62
     7
 10
-914.38
 20
-1665.0
 30
0.0
 40
4.9999999999999609
  0
LINE
  5
246
  8
DATA
  6
CONTINUOUS
 62
     7
 10
-917.37999999999988
 20
-1665.0
 30
0.0
 11
-911.37999999999988
 21
-1665.0
 31
0.0
  0
LINE
  5
247
  8
DATA
  6
CONTINUOUS
 62
     7
 10
-914.38
 20
-1668.0
 30
0.0
 11
-914.38
 21
-1662.0
 31
0.0
  0
CIRCLE
  5
248
  8
DATA
  6
CONTINUOUS
 62
     7
 10
-914.38
 20
-1665.0
 30
0.0
 40
16.99999999999994
  0
CIRCLE
  5
249
  8
DATA
  6
CONTINUOUS
 62
     7
 10
-914.38
 20
-1665.0
 30
0.0
 40
18.24999999999995
  0
CIRCLE
  5
24A
  8
DATA
  6
CONTINUOUS
 62
     7
 10
-914.38
 20
-1665.0
 30
0.0
 40
4.9999999999999609
  0
LINE
  5
24B
  8
DATA
  6
CONTINUOUS
 62
     7
 10
-917.37999999999988
 20
-1665.0
 30
0.0
 11
-911.37999999999988
 21
-1665.0
 31
0.0
  0
LINE
  5
24C
  8
DATA
  6
CONTINUOUS
 62
     7
 10
-914.38
 20
-1668.0
 30
0.0
 11
-914.38
 21
-1662.0
 31
0.0
  0
CIRCLE
  5
24D
  8
DATA
  6
CONTINUOUS
 62
     7
 10
-914.38
 20
-1665.0
 30
0.0
 40
16.99999999999994
  0
CIRCLE
  5
24E
  8
DATA
  6
CONTINUOUS
 62
     7
 10
-914.38
 20
-1665.0
 30
0.0
 40
18.24999999999995
  0
CIRCLE
  5
24F
  8
DATA
  6
CONTINUOUS
 62
     7
 10
-914.38
 20
-1665.0
 30
0.0
 40
4.9999999999999609
  0
LINE
  5
250
  8
DATA
  6
CONTINUOUS
 62
     7
 10
-917.37999999999988
 20
-1665.0
 30
0.0
 11
-911.37999999999988
 21
-1665.0
 31
0.0
  0
LINE
  5
251
  8
DATA
  6
CONTINUOUS
 62
     7
 10
-914.38
 20
-1668.0
 30
0.0
 11
-914.38
 21
-1662.0
 31
0.0
  0
LINE
  5
252
  8
DATA
  6
CONTINUOUS
 62
     7
 10
-1387.0
 20
-812.0
 30
0.0
 11
-1353.0
 21
-812.0
 31
0.0
  0
LINE
  5
253
  8
DATA
  6
CONTINUOUS
 62
     7
 10
-1387.0
 20
-812.0
 30
0.0
 11
-1388.25
 21
-800.0
 31
0.0
  0
LINE
  5
254
  8
DATA
  6
CONTINUOUS
 62
     7
 10
-1351.75
 20
-800.0
 30
0.0
 11
-1353.0
 21
-812.0
 31
0.0
  0
LINE
  5
255
  8
DATA
  6
CONTINUOUS
 62
     7
 10
-931.38
 20
-812.0
 30
0.0
 11
-897.38
 21
-812.0
 31
0.0
  0
LINE
  5
256
  8
DATA
  6
CONTINUOUS
 62
     7
 10
-931.38
 20
-812.0
 30
0.0
 11
-932.62999999999988
 21
-800.0
 31
0.0
  0
LINE
  5
257
  8
DATA
  6
CONTINUOUS
 62
     7
 10
-896.13000000000011
 20
-800.0
 30
0.0
 11
-897.38
 21
-812.0
 31
0.0
  0
ARC
  5
258
  8
DATA
  6
CONTINUOUS
 62
     7
 10
-1390.0
 20
-213.09999999999991
 30
0.0
 40
10.0
 50
90.0
 51
180.0
  0
ARC
  5
259
  8
DATA
  6
CONTINUOUS
 62
     7
 10
-1390.0
 20
-790.0
 30
0.0
 40
10.0
 50
180.0
 51
270.0
  0
ARC
  5
25A
  8
DATA
  6
CONTINUOUS
 62
     7
 10
-894.38000000000011
 20
-790.0
 30
0.0
 40
10.0
 50
270.0
 51
0.0
  0
ARC
  5
25B
  8
DATA
  6
CONTINUOUS
 62
     7
 10
-894.38000000000011
 20
-213.09999999999991
 30
0.0
 40
10.0
 50
0.0
 51
90.0
  0
LINE
  5
25C
  8
DATA
  6
CONTINUOUS
 62
     7
 10
-884.38000000000011
 20
548.80000000000018
 30
0.0
 11
-884.38000000000011
 21
10.0
 31
0.0
  0
ARC
  5
25D
  8
DATA
  6
CONTINUOUS
 62
     7
 10
-1390.0
 20
548.80000000000018
 30
0.0
 40
10.0
 50
90.0
 51
180.0
  0
ARC
  5
25E
  8
DATA
  6
CONTINUOUS
 62
     7
 10
-1390.0
 20
10.0
 30
0.0
 40
10.0
 50
180.0
 51
270.0
  0
ARC
  5
25F
  8
DATA
  6
CONTINUOUS
 62
     7
 10
-894.38000000000011
 20
10.0
 30
0.0
 40
10.0
 50
270.0
 51
0.0
  0
ARC
  5
260
  8
DATA
  6
CONTINUOUS
 62
     7
 10
-894.38000000000011
 20
548.80000000000018
 30
0.0
 40
10.0
 50
0.0
 51
90.0
  0
LINE
  5
261
  8
DATA
  6
CONTINUOUS
 62
     7
 10
-884.38000000000011
 20
-1151.2
 30
0.0
 11
-884.38000000000011
 21
-1690.0
 31
0.0
  0
ARC
  5
262
  8
DATA
  6
CONTINUOUS
 62
     7
 10
-1390.0
 20
-1151.2
 30
0.0
 40
10.0
 50
90.0
 51
180.0
  0
ARC
  5
263
  8
DATA
  6
CONTINUOUS
 62
     7
 10
-1390.0
 20
-1690.0
 30
0.0
 40
10.0
 50
180.0
 51
270.0
  0
ARC
  5
264
  8
DATA
  6
CONTINUOUS
 62
     7
 10
-894.38000000000011
 20
-1690.0
 30
0.0
 40
10.0
 50
270.0
 51
0.0
  0
ARC
  5
265
  8
DATA
  6
CONTINUOUS
 62
     7
 10
-894.38000000000011
 20
-1151.2
 30
0.0
 40
10.0
 50
0.0
 51
90.0
  0
LINE
  5
266
  8
DATA
  6
CONTINUOUS
 62
     7
 10
-700.0
 20
-790.0
 30
0.0
 11
-700.0
 21
-213.09999999999991
 31
0.0
  0
LINE
  5
267
  8
DATA
  6
CONTINUOUS
 62
     7
 10
-151.19999999999979
 20
-800.0
 30
0.0
 11
-690.0
 21
-800.0
 31
0.0
  0
LINE
  5
268
  8
DATA
  6
CONTINUOUS
 62
     7
 10
-141.19999999999979
 20
-213.09999999999991
 30
0.0
 11
-141.19999999999979
 21
-790.0
 31
0.0
  0
LINE
  5
269
  8
DATA
  6
CONTINUOUS
 62
     7
 10
-690.0
 20
-203.09999999999991
 30
0.0
 11
-151.19999999999979
 21
-203.09999999999991
 31
0.0
  0
ARC
  5
26A
  8
DATA
  6
CONTINUOUS
 62
     7
 10
-690.0
 20
-213.09999999999991
 30
0.0
 40
10.0
 50
90.0
 51
180.0
  0
ARC
  5
26B
  8
DATA
  6
CONTINUOUS
 62
     7
 10
-690.0
 20
-790.0
 30
0.0
 40
10.0
 50
180.0
 51
270.0
  0
ARC
  5
26C
  8
DATA
  6
CONTINUOUS
 62
     7
 10
-151.19999999999979
 20
-790.0
 30
0.0
 40
10.0
 50
270.0
 51
0.0
  0
ARC
  5
26D
  8
DATA
  6
CONTINUOUS
 62
     7
 10
-151.19999999999979
 20
-213.09999999999991
 30
0.0
 40
10.0
 50
0.0
 51
90.0
  0
LINE
  5
26E
  8
DATA
  6
CONTINUOUS
 62
     7
 10
188.8100000000004
 20
-415.05000000000001
 30
0.0
 11
188.8100000000004
 21
-322.0499999999999
 31
0.0
  0
LINE
  5
26F
  8
DATA
  6
CONTINUOUS
 62
     7
 10
323.8100000000004
 20
-418.0500000000003
 30
0.0
 11
191.8100000000004
 21
-418.0500000000003
 31
0.0
  0
LINE
  5
270
  8
DATA
  6
CONTINUOUS
 62
     7
 10
326.8100000000004
 20
-322.0499999999999
 30
0.0
 11
326.8100000000004
 21
-415.05000000000001
 31
0.0
  0
LINE
  5
271
  8
DATA
  6
CONTINUOUS
 62
     7
 10
191.8100000000004
 20
-319.0499999999999
 30
0.0
 11
323.8100000000004
 21
-319.0499999999999
 31
0.0
  0
LINE
  5
272
  8
DATA
  6
CONTINUOUS
 62
     7
 10
201.8100000000004
 20
-399.55000000000001
 30
0.0
 11
201.8100000000004
 21
-337.5499999999999
 31
0.0
  0
LINE
  5
273
  8
DATA
  6
CONTINUOUS
 62
     7
 10
308.8100000000004
 20
-404.55000000000001
 30
0.0
 11
206.8100000000004
 21
-404.55000000000001
 31
0.0
  0
LINE
  5
274
  8
DATA
  6
CONTINUOUS
 62
     7
 10
313.8100000000004
 20
-337.5499999999999
 30
0.0
 11
313.8100000000004
 21
-399.55000000000001
 31
0.0
  0
LINE
  5
275
  8
DATA
  6
CONTINUOUS
 62
     7
 10
206.8100000000004
 20
-332.5499999999999
 30
0.0
 11
308.8100000000004
 21
-332.5499999999999
 31
0.0
  0
LINE
  5
276
  8
DATA
  6
CONTINUOUS
 62
     7
 10
217.3100000000004
 20
-337.0499999999999
 30
0.0
 11
239.3100000000004
 21
-337.0499999999999
 31
0.0
  0
LINE
  5
277
  8
DATA
  6
CONTINUOUS
 62
     7
 10
215.3100000000004
 20
-339.0499999999999
 30
0.0
 11
215.3100000000004
 21
-366.05000000000001
 31
0.0
  0
LINE
  5
278
  8
DATA
  6
CONTINUOUS
 62
     7
 10
217.3100000000004
 20
-368.05000000000001
 30
0.0
 11
239.3100000000004
 21
-368.05000000000001
 31
0.0
  0
LINE
  5
279
  8
DATA
  6
CONTINUOUS
 62
     7
 10
241.3100000000004
 20
-339.0499999999999
 30
0.0
 11
241.3100000000004
 21
-366.05000000000001
 31
0.0
  0
ARC
  5
27A
  8
DATA
  6
CONTINUOUS
 62
     7
 10
217.3100000000004
 20
-339.0499999999999
 30
0.0
 40
2.0
 50
90.0
 51
180.0
  0
ARC
  5
27B
  8
DATA
  6
CONTINUOUS
 62
     7
 10
217.3100000000004
 20
-366.05000000000001
 30
0.0
 40
2.0
 50
180.0
 51
270.0
  0
ARC
  5
27C
  8
DATA
  6
CONTINUOUS
 62
     7
 10
239.3100000000004
 20
-366.05000000000001
 30
0.0
 40
2.0
 50
270.0
 51
0.0
  0
ARC
  5
27D
  8
DATA
  6
CONTINUOUS
 62
     7
 10
239.3100000000004
 20
-339.0499999999999
 30
0.0
 40
2.0
 50
0.0
 51
90.0
  0
POLYLINE
  5
27E
  8
DATA
  6
CONTINUOUS
 62
     7
 66
     1
 10
0.0
 20
0.0
 30
0.0
 70
   129
  0
VERTEX
  5
4C9
  8
DATA
  6
CONTINUOUS
 62
     7
 10
235.8100000000004
 20
-364.55000000000001
 30
0.0
 42
-0.4142135623730951
  0
VERTEX
  5
4CA
  8
DATA
  6
CONTINUOUS
 62
     7
 10
237.8100000000004
 20
-362.55000000000001
 30
0.0
 42
-0.4142135623730951
  0
VERTEX
  5
4CB
  8
DATA
  6
CONTINUOUS
 62
     7
 10
239.8100000000004
 20
-364.55000000000001
 30
0.0
 42
-0.4142135623730951
  0
VERTEX
  5
4CC
  8
DATA
  6
CONTINUOUS
 62
     7
 10
237.8100000000004
 20
-366.55000000000001
 30
0.0
 42
-0.4142135623730951
  0
VERTEX
  5
4CD
  8
DATA
  6
CONTINUOUS
 62
     7
 10
235.8100000000004
 20
-364.55000000000001
 30
0.0
  0
SEQEND
  5
4CE
  8
DATA
  6
CONTINUOUS
 62
     7
  0
POLYLINE
  5
285
  8
DATA
  6
CONTINUOUS
 62
     7
 66
     1
 10
0.0
 20
0.0
 30
0.0
 70
   129
  0
VERTEX
  5
4CF
  8
DATA
  6
CONTINUOUS
 62
     7
 10
216.5600000000004
 20
-352.5499999999999
 30
0.0
 42
-0.4142135623730951
  0
VERTEX
  5
4D0
  8
DATA
  6
CONTINUOUS
 62
     7
 10
228.3100000000004
 20
-340.7999999999999
 30
0.0
 42
-0.4142135623730951
  0
VERTEX
  5
4D1
  8
DATA
  6
CONTINUOUS
 62
     7
 10
240.0600000000004
 20
-352.5499999999999
 30
0.0
 42
-0.4142135623730951
  0
VERTEX
  5
4D2
  8
DATA
  6
CONTINUOUS
 62
     7
 10
228.3100000000004
 20
-364.30000000000001
 30
0.0
 42
-0.4142135623730951
  0
VERTEX
  5
4D3
  8
DATA
  6
CONTINUOUS
 62
     7
 10
216.5600000000004
 20
-352.5499999999999
 30
0.0
  0
SEQEND
  5
4D4
  8
DATA
  6
CONTINUOUS
 62
     7
  0
LINE
  5
28C
  8
DATA
  6
CONTINUOUS
 62
     7
 10
225.3100000000004
 20
-342.5499999999999
 30
0.0
 11
231.3100000000004
 21
-342.5499999999999
 31
0.0
  0
LINE
  5
28D
  8
DATA
  6
CONTINUOUS
 62
     7
 10
226.3100000000004
 20
-362.55000000000001
 30
0.0
 11
230.3100000000004
 21
-362.55000000000001
 31
0.0
  0
LINE
  5
28E
  8
DATA
  6
CONTINUOUS
 62
     7
 10
226.3100000000004
 20
-362.55000000000001
 30
0.0
 11
226.3100000000004
 21
-361.34999999999991
 31
0.0
  0
LINE
  5
28F
  8
DATA
  6
CONTINUOUS
 62
     7
 10
230.3100000000004
 20
-362.55000000000001
 30
0.0
 11
230.3100000000004
 21
-361.34999999999991
 31
0.0
  0
LINE
  5
290
  8
DATA
  6
CONTINUOUS
 62
     7
 10
225.3100000000004
 20
-342.5499999999999
 30
0.0
 11
225.3100000000004
 21
-344.27714999999978
 31
0.0
  0
LINE
  5
291
  8
DATA
  6
CONTINUOUS
 62
     7
 10
231.3100000000004
 20
-342.5499999999999
 30
0.0
 11
231.3100000000004
 21
-344.27714999999978
 31
0.0
  0
ARC
  5
292
  8
DATA
  6
CONTINUOUS
 62
     7
 10
228.3100000000004
 20
-352.5499999999999
 30
0.0
 40
8.8000026774144242
 50
109.9322641506788
 51
257.19616681969569
  0
ARC
  5
293
  8
DATA
  6
CONTINUOUS
 62
     7
 10
228.3100000000004
 20
-352.5499999999999
 30
0.0
 40
8.8000035043458276
 50
282.9999995554183
 51
69.999994237966632
  0
ARC
  5
294
  8
DATA
  6
CONTINUOUS
 62
     7
 10
228.3100000000004
 20
-352.5499999999999
 30
0.0
 40
6.2000021620637931
 50
60.000011535564781
 51
150.00001153556241
  0
LINE
  5
295
  8
DATA
  6
CONTINUOUS
 62
     7
 10
222.94066000000021
 20
-349.44996999999989
 30
0.0
 11
223.4386199999999
 21
-349.73747000000009
 31
0.0
  0
LINE
  5
296
  8
DATA
  6
CONTINUOUS
 62
     7
 10
231.4099699999997
 20
-347.18062000000009
 30
0.0
 11
231.12247000000031
 21
-347.67858999999999
 31
0.0
  0
ARC
  5
297
  8
DATA
  6
CONTINUOUS
 62
     7
 10
228.3100000000004
 20
-352.5499999999999
 30
0.0
 40
6.2000021620642469
 50
240.00001153555741
 51
330.00001153555831
  0
LINE
  5
298
  8
DATA
  6
CONTINUOUS
 62
     7
 10
225.21000000000001
 20
-357.91935999999993
 30
0.0
 11
225.4975000000004
 21
-357.42138999999997
 31
0.0
  0
LINE
  5
299
  8
DATA
  6
CONTINUOUS
 62
     7
 10
233.67936999999981
 20
-355.64997999999991
 30
0.0
 11
233.18140000000039
 21
-355.36248000000001
 31
0.0
  0
ARC
  5
29A
  8
DATA
  6
CONTINUOUS
 62
     7
 10
228.3100000000004
 20
-352.5499999999999
 30
0.0
 40
5.6250038315813109
 50
149.99966968210569
 51
240.000212604301
  0
ARC
  5
29B
  8
DATA
  6
CONTINUOUS
 62
     7
 10
228.3100000000004
 20
-352.5499999999999
 30
0.0
 40
5.6249961520342593
 50
330.00021260430242
 51
60.000718243125618
  0
ARC
  5
29C
  8
DATA
  6
CONTINUOUS
 62
     7
 10
228.3100000000004
 20
-352.5499999999999
 30
0.0
 40
3.5999900808749148
 50
59.999908854715791
 51
149.9999088547082
  0
ARC
  5
29D
  8
DATA
  6
CONTINUOUS
 62
     7
 10
228.3100000000004
 20
-352.5499999999999
 30
0.0
 40
3.59999008087537
 50
239.99990885470331
 51
329.99990885470089
  0
LINE
  5
29E
  8
DATA
  6
CONTINUOUS
 62
     7
 10
230.10998000000021
 20
-349.43230999999992
 30
0.0
 11
229.75998999999959
 21
-350.03852000000012
 31
0.0
  0
LINE
  5
29F
  8
DATA
  6
CONTINUOUS
 62
     7
 10
225.19232999999991
 20
-350.74999000000008
 30
0.0
 11
225.79853
 21
-351.09998999999988
 31
0.0
  0
LINE
  5
2A0
  8
DATA
  6
CONTINUOUS
 62
     7
 10
226.5100000000003
 20
-355.66768000000002
 30
0.0
 11
226.8599999999997
 21
-355.0614700000001
 31
0.0
  0
LINE
  5
2A1
  8
DATA
  6
CONTINUOUS
 62
     7
 10
231.42768999999959
 20
-354.34998000000002
 30
0.0
 11
230.82147999999961
 21
-353.99999000000008
 31
0.0
  0
ARC
  5
2A2
  8
DATA
  6
CONTINUOUS
 62
     7
 10
228.3100000000004
 20
-352.5499999999999
 30
0.0
 40
2.9000018208618301
 50
149.99979263403381
 51
240.00023362383041
  0
ARC
  5
2A3
  8
DATA
  6
CONTINUOUS
 62
     7
 10
228.3100000000004
 20
-352.5499999999999
 30
0.0
 40
2.9000004811200002
 50
330.0002336238212
 51
59.999792634038222
  0
LINE
  5
2A4
  8
DATA
  6
CONTINUOUS
 62
     7
 10
237.8100000000004
 20
-363.55000000000001
 30
0.0
 11
237.8100000000004
 21
-365.55000000000001
 31
0.0
  0
LINE
  5
2A5
  8
DATA
  6
CONTINUOUS
 62
     7
 10
236.8100000000004
 20
-364.55000000000001
 30
0.0
 11
238.8100000000004
 21
-364.55000000000001
 31
0.0
  0
POLYLINE
  5
2A6
  8
DATA
  6
CONTINUOUS
 62
     7
 66
     1
 10
0.0
 20
0.0
 30
0.0
 70
   129
  0
VERTEX
  5
4D5
  8
DATA
  6
CONTINUOUS
 62
     7
 10
216.8100000000004
 20
-340.5499999999999
 30
0.0
 42
-0.4142135623730951
  0
VERTEX
  5
4D6
  8
DATA
  6
CONTINUOUS
 62
     7
 10
218.8100000000004
 20
-338.5499999999999
 30
0.0
 42
-0.4142135623730951
  0
VERTEX
  5
4D7
  8
DATA
  6
CONTINUOUS
 62
     7
 10
220.8100000000004
 20
-340.5499999999999
 30
0.0
 42
-0.4142135623730951
  0
VERTEX
  5
4D8
  8
DATA
  6
CONTINUOUS
 62
     7
 10
218.8100000000004
 20
-342.5499999999999
 30
0.0
 42
-0.4142135623730951
  0
VERTEX
  5
4D9
  8
DATA
  6
CONTINUOUS
 62
     7
 10
216.8100000000004
 20
-340.5499999999999
 30
0.0
  0
SEQEND
  5
4DA
  8
DATA
  6
CONTINUOUS
 62
     7
  0
LINE
  5
2AD
  8
DATA
  6
CONTINUOUS
 62
     7
 10
218.8100000000004
 20
-339.5499999999999
 30
0.0
 11
218.8100000000004
 21
-341.5499999999999
 31
0.0
  0
LINE
  5
2AE
  8
DATA
  6
CONTINUOUS
 62
     7
 10
217.8100000000004
 20
-340.5499999999999
 30
0.0
 11
219.8100000000004
 21
-340.5499999999999
 31
0.0
  0
LINE
  5
2AF
  8
DATA
  6
CONTINUOUS
 62
     7
 10
276.3100000000004
 20
-337.0499999999999
 30
0.0
 11
298.3100000000004
 21
-337.0499999999999
 31
0.0
  0
LINE
  5
2B0
  8
DATA
  6
CONTINUOUS
 62
     7
 10
274.3100000000004
 20
-339.0499999999999
 30
0.0
 11
274.3100000000004
 21
-366.05000000000001
 31
0.0
  0
LINE
  5
2B1
  8
DATA
  6
CONTINUOUS
 62
     7
 10
276.3100000000004
 20
-368.05000000000001
 30
0.0
 11
298.3100000000004
 21
-368.05000000000001
 31
0.0
  0
LINE
  5
2B2
  8
DATA
  6
CONTINUOUS
 62
     7
 10
300.3100000000004
 20
-339.0499999999999
 30
0.0
 11
300.3100000000004
 21
-366.05000000000001
 31
0.0
  0
ARC
  5
2B3
  8
DATA
  6
CONTINUOUS
 62
     7
 10
276.3100000000004
 20
-339.0499999999999
 30
0.0
 40
2.0
 50
90.0
 51
180.0
  0
ARC
  5
2B4
  8
DATA
  6
CONTINUOUS
 62
     7
 10
276.3100000000004
 20
-366.05000000000001
 30
0.0
 40
2.0
 50
180.0
 51
270.0
  0
ARC
  5
2B5
  8
DATA
  6
CONTINUOUS
 62
     7
 10
298.3100000000004
 20
-366.05000000000001
 30
0.0
 40
2.0
 50
270.0
 51
0.0
  0
ARC
  5
2B6
  8
DATA
  6
CONTINUOUS
 62
     7
 10
298.3100000000004
 20
-339.0499999999999
 30
0.0
 40
2.0
 50
0.0
 51
90.0
  0
POLYLINE
  5
2B7
  8
DATA
  6
CONTINUOUS
 62
     7
 66
     1
 10
0.0
 20
0.0
 30
0.0
 70
   129
  0
VERTEX
  5
4DB
  8
DATA
  6
CONTINUOUS
 62
     7
 10
294.8100000000004
 20
-364.55000000000001
 30
0.0
 42
-0.4142135623730951
  0
VERTEX
  5
4DC
  8
DATA
  6
CONTINUOUS
 62
     7
 10
296.8100000000004
 20
-362.55000000000001
 30
0.0
 42
-0.4142135623730951
  0
VERTEX
  5
4DD
  8
DATA
  6
CONTINUOUS
 62
     7
 10
298.8100000000004
 20
-364.55000000000001
 30
0.0
 42
-0.4142135623730951
  0
VERTEX
  5
4DE
  8
DATA
  6
CONTINUOUS
 62
     7
 10
296.8100000000004
 20
-366.55000000000001
 30
0.0
 42
-0.4142135623730951
  0
VERTEX
  5
4DF
  8
DATA
  6
CONTINUOUS
 62
     7
 10
294.8100000000004
 20
-364.55000000000001
 30
0.0
  0
SEQEND
  5
4E0
  8
DATA
  6
CONTINUOUS
 62
     7
  0
POLYLINE
  5
2BE
  8
DATA
  6
CONTINUOUS
 62
     7
 66
     1
 10
0.0
 20
0.0
 30
0.0
 70
   129
  0
VERTEX
  5
4E1
  8
DATA
  6
CONTINUOUS
 62
     7
 10
275.5600000000004
 20
-352.5499999999999
 30
0.0
 42
-0.4142135623730951
  0
VERTEX
  5
4E2
  8
DATA
  6
CONTINUOUS
 62
     7
 10
287.3100000000004
 20
-340.7999999999999
 30
0.0
 42
-0.4142135623730951
  0
VERTEX
  5
4E3
  8
DATA
  6
CONTINUOUS
 62
     7
 10
299.0600000000004
 20
-352.5499999999999
 30
0.0
 42
-0.4142135623730951
  0
VERTEX
  5
4E4
  8
DATA
  6
CONTINUOUS
 62
     7
 10
287.3100000000004
 20
-364.30000000000001
 30
0.0
 42
-0.4142135623730951
  0
VERTEX
  5
4E5
  8
DATA
  6
CONTINUOUS
 62
     7
 10
275.5600000000004
 20
-352.5499999999999
 30
0.0
  0
SEQEND
  5
4E6
  8
DATA
  6
CONTINUOUS
 62
     7
  0
LINE
  5
2C5
  8
DATA
  6
CONTINUOUS
 62
     7
 10
284.3100000000004
 20
-342.5499999999999
 30
0.0
 11
290.3100000000004
 21
-342.5499999999999
 31
0.0
  0
LINE
  5
2C6
  8
DATA
  6
CONTINUOUS
 62
     7
 10
285.3100000000004
 20
-362.55000000000001
 30
0.0
 11
289.3100000000004
 21
-362.55000000000001
 31
0.0
  0
LINE
  5
2C7
  8
DATA
  6
CONTINUOUS
 62
     7
 10
285.3100000000004
 20
-362.55000000000001
 30
0.0
 11
285.3100000000004
 21
-361.34999999999991
 31
0.0
  0
LINE
  5
2C8
  8
DATA
  6
CONTINUOUS
 62
     7
 10
289.3100000000004
 20
-362.55000000000001
 30
0.0
 11
289.3100000000004
 21
-361.34999999999991
 31
0.0
  0
LINE
  5
2C9
  8
DATA
  6
CONTINUOUS
 62
     7
 10
284.3100000000004
 20
-342.5499999999999
 30
0.0
 11
284.3100000000004
 21
-344.27714999999978
 31
0.0
  0
LINE
  5
2CA
  8
DATA
  6
CONTINUOUS
 62
     7
 10
290.3100000000004
 20
-342.5499999999999
 30
0.0
 11
290.3100000000004
 21
-344.27714999999978
 31
0.0
  0
ARC
  5
2CB
  8
DATA
  6
CONTINUOUS
 62
     7
 10
287.3100000000004
 20
-352.5499999999999
 30
0.0
 40
8.8000026774144242
 50
109.9322641506788
 51
257.19616681969569
  0
ARC
  5
2CC
  8
DATA
  6
CONTINUOUS
 62
     7
 10
287.3100000000004
 20
-352.5499999999999
 30
0.0
 40
8.8000035043458276
 50
282.9999995554183
 51
69.999994237966632
  0
ARC
  5
2CD
  8
DATA
  6
CONTINUOUS
 62
     7
 10
287.3100000000004
 20
-352.5499999999999
 30
0.0
 40
6.2000021620637931
 50
60.000011535564781
 51
150.00001153556241
  0
LINE
  5
2CE
  8
DATA
  6
CONTINUOUS
 62
     7
 10
281.94066000000021
 20
-349.44996999999989
 30
0.0
 11
282.4386199999999
 21
-349.73747000000009
 31
0.0
  0
LINE
  5
2CF
  8
DATA
  6
CONTINUOUS
 62
     7
 10
290.4099699999997
 20
-347.18062000000009
 30
0.0
 11
290.12247000000019
 21
-347.67858999999999
 31
0.0
  0
ARC
  5
2D0
  8
DATA
  6
CONTINUOUS
 62
     7
 10
287.3100000000004
 20
-352.5499999999999
 30
0.0
 40
6.2000021620642469
 50
240.00001153555741
 51
330.00001153555831
  0
LINE
  5
2D1
  8
DATA
  6
CONTINUOUS
 62
     7
 10
284.21000000000009
 20
-357.91935999999993
 30
0.0
 11
284.4975000000004
 21
-357.42138999999997
 31
0.0
  0
LINE
  5
2D2
  8
DATA
  6
CONTINUOUS
 62
     7
 10
292.67936999999978
 20
-355.64997999999991
 30
0.0
 11
292.18140000000039
 21
-355.36248000000001
 31
0.0
  0
ARC
  5
2D3
  8
DATA
  6
CONTINUOUS
 62
     7
 10
287.3100000000004
 20
-352.5499999999999
 30
0.0
 40
5.6250038315813109
 50
149.99966968210569
 51
240.000212604301
  0
ARC
  5
2D4
  8
DATA
  6
CONTINUOUS
 62
     7
 10
287.3100000000004
 20
-352.5499999999999
 30
0.0
 40
5.6249961520342593
 50
330.00021260430242
 51
60.000718243125618
  0
ARC
  5
2D5
  8
DATA
  6
CONTINUOUS
 62
     7
 10
287.3100000000004
 20
-352.5499999999999
 30
0.0
 40
3.5999900808749148
 50
59.999908854715791
 51
149.9999088547082
  0
ARC
  5
2D6
  8
DATA
  6
CONTINUOUS
 62
     7
 10
287.3100000000004
 20
-352.5499999999999
 30
0.0
 40
3.59999008087537
 50
239.99990885470331
 51
329.99990885470089
  0
LINE
  5
2D7
  8
DATA
  6
CONTINUOUS
 62
     7
 10
289.10998000000018
 20
-349.43230999999992
 30
0.0
 11
288.75998999999962
 21
-350.03852000000012
 31
0.0
  0
LINE
  5
2D8
  8
DATA
  6
CONTINUOUS
 62
     7
 10
284.1923299999998
 20
-350.74999000000008
 30
0.0
 11
284.79853000000008
 21
-351.09998999999988
 31
0.0
  0
LINE
  5
2D9
  8
DATA
  6
CONTINUOUS
 62
     7
 10
285.51000000000028
 20
-355.66768000000002
 30
0.0
 11
285.85999999999967
 21
-355.0614700000001
 31
0.0
  0
LINE
  5
2DA
  8
DATA
  6
CONTINUOUS
 62
     7
 10
290.42768999999959
 20
-354.34998000000002
 30
0.0
 11
289.82147999999961
 21
-353.99999000000008
 31
0.0
  0
ARC
  5
2DB
  8
DATA
  6
CONTINUOUS
 62
     7
 10
287.3100000000004
 20
-352.5499999999999
 30
0.0
 40
2.9000018208618301
 50
149.99979263403381
 51
240.00023362383041
  0
ARC
  5
2DC
  8
DATA
  6
CONTINUOUS
 62
     7
 10
287.3100000000004
 20
-352.5499999999999
 30
0.0
 40
2.9000004811200002
 50
330.0002336238212
 51
59.999792634038222
  0
LINE
  5
2DD
  8
DATA
  6
CONTINUOUS
 62
     7
 10
296.8100000000004
 20
-363.55000000000001
 30
0.0
 11
296.8100000000004
 21
-365.55000000000001
 31
0.0
  0
LINE
  5
2DE
  8
DATA
  6
CONTINUOUS
 62
     7
 10
295.8100000000004
 20
-364.55000000000001
 30
0.0
 11
297.8100000000004
 21
-364.55000000000001
 31
0.0
  0
POLYLINE
  5
2DF
  8
DATA
  6
CONTINUOUS
 62
     7
 66
     1
 10
0.0
 20
0.0
 30
0.0
 70
   129
  0
VERTEX
  5
4E7
  8
DATA
  6
CONTINUOUS
 62
     7
 10
275.8100000000004
 20
-340.5499999999999
 30
0.0
 42
-0.4142135623730951
  0
VERTEX
  5
4E8
  8
DATA
  6
CONTINUOUS
 62
     7
 10
277.8100000000004
 20
-338.5499999999999
 30
0.0
 42
-0.4142135623730951
  0
VERTEX
  5
4E9
  8
DATA
  6
CONTINUOUS
 62
     7
 10
279.8100000000004
 20
-340.5499999999999
 30
0.0
 42
-0.4142135623730951
  0
VERTEX
  5
4EA
  8
DATA
  6
CONTINUOUS
 62
     7
 10
277.8100000000004
 20
-342.5499999999999
 30
0.0
 42
-0.4142135623730951
  0
VERTEX
  5
4EB
  8
DATA
  6
CONTINUOUS
 62
     7
 10
275.8100000000004
 20
-340.5499999999999
 30
0.0
  0
SEQEND
  5
4EC
  8
DATA
  6
CONTINUOUS
 62
     7
  0
LINE
  5
2E6
  8
DATA
  6
CONTINUOUS
 62
     7
 10
277.8100000000004
 20
-339.5499999999999
 30
0.0
 11
277.8100000000004
 21
-341.5499999999999
 31
0.0
  0
LINE
  5
2E7
  8
DATA
  6
CONTINUOUS
 62
     7
 10
276.8100000000004
 20
-340.5499999999999
 30
0.0
 11
278.8100000000004
 21
-340.5499999999999
 31
0.0
  0
ARC
  5
2E8
  8
DATA
  6
CONTINUOUS
 62
     7
 10
206.8100000000004
 20
-337.5499999999999
 30
0.0
 40
5.0
 50
90.0
 51
180.0
  0
ARC
  5
2E9
  8
DATA
  6
CONTINUOUS
 62
     7
 10
308.8100000000004
 20
-337.5499999999999
 30
0.0
 40
5.0
 50
0.0
 51
90.0
  0
ARC
  5
2EA
  8
DATA
  6
CONTINUOUS
 62
     7
 10
308.8100000000004
 20
-399.55000000000001
 30
0.0
 40
5.0
 50
270.0
 51
0.0
  0
ARC
  5
2EB
  8
DATA
  6
CONTINUOUS
 62
     7
 10
206.8100000000004
 20
-399.55000000000001
 30
0.0
 40
5.0
 50
180.0
 51
270.0
  0
CIRCLE
  5
2EC
  8
DATA
  6
CONTINUOUS
 62
     7
 10
194.3100000000004
 20
-325.0499999999999
 30
0.0
 40
3.25
  0
LINE
  5
2ED
  8
DATA
  6
CONTINUOUS
 62
     7
 10
192.3100000000004
 20
-325.0499999999999
 30
0.0
 11
196.3100000000004
 21
-325.0499999999999
 31
0.0
  0
LINE
  5
2EE
  8
DATA
  6
CONTINUOUS
 62
     7
 10
194.3100000000004
 20
-327.0499999999999
 30
0.0
 11
194.3100000000004
 21
-323.0499999999999
 31
0.0
  0
CIRCLE
  5
2EF
  8
DATA
  6
CONTINUOUS
 62
     7
 10
257.8100000000004
 20
-325.0499999999999
 30
0.0
 40
3.25
  0
LINE
  5
2F0
  8
DATA
  6
CONTINUOUS
 62
     7
 10
255.8100000000004
 20
-325.0499999999999
 30
0.0
 11
259.8100000000004
 21
-325.0499999999999
 31
0.0
  0
LINE
  5
2F1
  8
DATA
  6
CONTINUOUS
 62
     7
 10
257.8100000000004
 20
-327.0499999999999
 30
0.0
 11
257.8100000000004
 21
-323.0499999999999
 31
0.0
  0
CIRCLE
  5
2F2
  8
DATA
  6
CONTINUOUS
 62
     7
 10
321.3100000000004
 20
-325.0499999999999
 30
0.0
 40
3.25
  0
LINE
  5
2F3
  8
DATA
  6
CONTINUOUS
 62
     7
 10
319.3100000000004
 20
-325.0499999999999
 30
0.0
 11
323.3100000000004
 21
-325.0499999999999
 31
0.0
  0
LINE
  5
2F4
  8
DATA
  6
CONTINUOUS
 62
     7
 10
321.3100000000004
 20
-327.0499999999999
 30
0.0
 11
321.3100000000004
 21
-323.0499999999999
 31
0.0
  0
CIRCLE
  5
2F5
  8
DATA
  6
CONTINUOUS
 62
     7
 10
321.3100000000004
 20
-412.0499999999999
 30
0.0
 40
3.25
  0
LINE
  5
2F6
  8
DATA
  6
CONTINUOUS
 62
     7
 10
319.3100000000004
 20
-412.0499999999999
 30
0.0
 11
323.3100000000004
 21
-412.0499999999999
 31
0.0
  0
LINE
  5
2F7
  8
DATA
  6
CONTINUOUS
 62
     7
 10
321.3100000000004
 20
-414.05000000000001
 30
0.0
 11
321.3100000000004
 21
-410.05000000000001
 31
0.0
  0
CIRCLE
  5
2F8
  8
DATA
  6
CONTINUOUS
 62
     7
 10
257.8100000000004
 20
-412.0499999999999
 30
0.0
 40
3.25
  0
LINE
  5
2F9
  8
DATA
  6
CONTINUOUS
 62
     7
 10
255.8100000000004
 20
-412.0499999999999
 30
0.0
 11
259.8100000000004
 21
-412.0499999999999
 31
0.0
  0
LINE
  5
2FA
  8
DATA
  6
CONTINUOUS
 62
     7
 10
257.8100000000004
 20
-414.05000000000001
 30
0.0
 11
257.8100000000004
 21
-410.05000000000001
 31
0.0
  0
CIRCLE
  5
2FB
  8
DATA
  6
CONTINUOUS
 62
     7
 10
194.3100000000004
 20
-412.0499999999999
 30
0.0
 40
3.25
  0
LINE
  5
2FC
  8
DATA
  6
CONTINUOUS
 62
     7
 10
192.3100000000004
 20
-412.0499999999999
 30
0.0
 11
196.3100000000004
 21
-412.0499999999999
 31
0.0
  0
LINE
  5
2FD
  8
DATA
  6
CONTINUOUS
 62
     7
 10
194.3100000000004
 20
-414.05000000000001
 30
0.0
 11
194.3100000000004
 21
-410.05000000000001
 31
0.0
  0
ARC
  5
2FE
  8
DATA
  6
CONTINUOUS
 62
     7
 10
191.8100000000004
 20
-322.0499999999999
 30
0.0
 40
3.0
 50
90.0
 51
180.0
  0
ARC
  5
2FF
  8
DATA
  6
CONTINUOUS
 62
     7
 10
323.8100000000004
 20
-322.0499999999999
 30
0.0
 40
3.0
 50
0.0
 51
90.0
  0
ARC
  5
300
  8
DATA
  6
CONTINUOUS
 62
     7
 10
323.8100000000004
 20
-415.05000000000001
 30
0.0
 40
3.0000000000002269
 50
270.0
 51
0.0
  0
ARC
  5
301
  8
DATA
  6
CONTINUOUS
 62
     7
 10
191.8100000000004
 20
-415.05000000000001
 30
0.0
 40
3.0
 50
180.0
 51
270.0
  0
CIRCLE
  5
302
  8
DATA
  6
CONTINUOUS
 62
     7
 10
257.8100000000004
 20
-352.5499999999999
 30
0.0
 40
3.25
  0
CIRCLE
  5
303
  8
DATA
  6
CONTINUOUS
 62
     7
 10
257.8100000000004
 20
-352.5499999999999
 30
0.0
 40
4.75
  0
CIRCLE
  5
304
  8
DATA
  6
CONTINUOUS
 62
     7
 10
257.8100000000004
 20
-352.5499999999999
 30
0.0
 40
7.0
  0
LINE
  5
305
  8
DATA
  6
CONTINUOUS
 62
     7
 10
254.4350000000004
 20
-346.70432852445492
 30
0.0
 11
251.0600000000004
 21
-352.5499999999999
 31
0.0
  0
LINE
  5
306
  8
DATA
  6
CONTINUOUS
 62
     7
 10
251.05999999999949
 20
-352.5499999999999
 30
0.0
 11
254.4350000000004
 21
-358.39567147554499
 31
0.0
  0
LINE
  5
307
  8
DATA
  6
CONTINUOUS
 62
     7
 10
254.43499999999949
 20
-358.39567147554482
 30
0.0
 11
261.1850000000004
 21
-358.39567147554482
 31
0.0
  0
LINE
  5
308
  8
DATA
  6
CONTINUOUS
 62
     7
 10
261.18499999999949
 20
-358.39567147554448
 30
0.0
 11
264.55999999999949
 21
-352.54999999999939
 31
0.0
  0
LINE
  5
309
  8
DATA
  6
CONTINUOUS
 62
     7
 10
264.55999999999949
 20
-352.54999999999939
 30
0.0
 11
261.18499999999949
 21
-346.70432852445452
 31
0.0
  0
LINE
  5
30A
  8
DATA
  6
CONTINUOUS
 62
     7
 10
261.18499999999949
 20
-346.70432852445458
 30
0.0
 11
254.43499999999949
 21
-346.70432852445458
 31
0.0
  0
TEXT
  5
30B
  8
DATA
 62
     7
 10
244.5725002563004
 20
-339.58437500000002
 30
0.0
 40
1.44287109375
  1
Recommended Amplifier Power
 41
0.85
 11
244.5725002563004
 21
-338.14150390625002
 31
0.0
 73
     3
  0
TEXT
  5
30C
  8
DATA
 62
     7
 10
244.5725002563004
 20
-341.9930005951876
 30
0.0
 40
1.44287109375
  1
350 - 700 watts 4 ohms
 41
0.85
 11
244.5725002563004
 21
-340.5501295014376
 31
0.0
 73
     3
  0
TEXT
  5
30D
  8
DATA
 62
     7
 10
252.341249979304
 20
-367.17500000000001
 30
0.0
 40
2.40478515625
  1
±1 SUB
 41
0.85
 11
252.341249979304
 21
-364.77021484375001
 31
0.0
 73
     3
  0
TEXT
  5
30E
  8
DATA
 62
     7
 10
252.341249979304
 20
-370.9914621696837
 30
0.0
 40
2.40478515625
  1
±2 THRU
 41
0.85
 11
252.341249979304
 21
-368.5866770134337
 31
0.0
 73
     3
  0
TEXT
  5
30F
  8
DATA
 62
     7
 10
274.80999965230598
 20
-371.66607076057687
 30
0.0
 40
2.40478515625
  1
Remove input cup
 41
0.85
 11
274.80999965230598
 21
-369.26128560432687
 31
0.0
 73
     3
  0
TEXT
  5
310
  8
DATA
 62
     7
 10
274.80999965230598
 20
-382.27916510801288
 30
0.0
 40
2.40478515625
  1
±2 SUB
 41
0.85
 11
274.80999965230598
 21
-379.87437995176288
 31
0.0
 73
     3
  0
TEXT
  5
311
  8
DATA
 62
     7
 10
274.80999965230598
 20
-375.20376887638889
 30
0.0
 40
2.40478515625
  1
to comfigure for
 41
0.85
 11
274.80999965230598
 21
-372.79898372013889
 31
0.0
 73
     3
  0
TEXT
  5
312
  8
DATA
 62
     7
 10
274.80999965230598
 20
-378.74146699220091
 30
0.0
 40
2.40478515625
  1
±1 THRU
 41
0.85
 11
274.80999965230598
 21
-376.33668183595091
 31
0.0
 73
     3
  0
TEXT
  5
313
  8
DATA
 62
     7
 10
216.8100000000004
 20
-389.11250000000001
 30
0.0
 40
2.40478515625
  1
MODEL JRX118S
 41
0.85
 11
216.8100000000004
 21
-386.70771484375001
 31
0.0
 73
     3
  0
LINE
  5
314
  8
DATA
  6
CONTINUOUS
 62
     7
 10
-0.0000000000000142
 20
-790.95000000000005
 30
0.0
 11
-0.0000000000000142
 21
-214.0499999999999
 31
0.0
  0
LINE
  5
315
  8
DATA
  6
CONTINUOUS
 62
     7
 10
505.61999999999989
 20
-800.95000000000005
 30
0.0
 11
9.999999999999984
 21
-800.95000000000005
 31
0.0
  0
LINE
  5
316
  8
DATA
  6
CONTINUOUS
 62
     7
 10
515.61999999999989
 20
-214.0499999999999
 30
0.0
 11
515.61999999999989
 21
-790.95000000000005
 31
0.0
  0
LINE
  5
317
  8
DATA
  6
CONTINUOUS
 62
     7
 10
9.999999999999984
 20
-204.05000000000001
 30
0.0
 11
505.61999999999989
 21
-204.05000000000001
 31
0.0
  0
LINE
  5
318
  8
DATA
  6
CONTINUOUS
 62
     7
 10
12.99999999999998
 20
-812.95000000000005
 30
0.0
 11
46.999999999999993
 21
-812.95000000000005
 31
0.0
  0
LINE
  5
319
  8
DATA
  6
CONTINUOUS
 62
     7
 10
12.99999999999998
 20
-812.95000000000005
 30
0.0
 11
11.74999999999998
 21
-800.95000000000005
 31
0.0
  0
LINE
  5
31A
  8
DATA
  6
CONTINUOUS
 62
     7
 10
48.249999999999993
 20
-800.95000000000005
 30
0.0
 11
46.999999999999993
 21
-812.95000000000005
 31
0.0
  0
LINE
  5
31B
  8
DATA
  6
CONTINUOUS
 62
     7
 10
468.61999999999989
 20
-812.95000000000005
 30
0.0
 11
502.61999999999989
 21
-812.95000000000005
 31
0.0
  0
LINE
  5
31C
  8
DATA
  6
CONTINUOUS
 62
     7
 10
468.61999999999989
 20
-812.95000000000005
 30
0.0
 11
467.36999999999989
 21
-800.95000000000005
 31
0.0
  0
LINE
  5
31D
  8
DATA
  6
CONTINUOUS
 62
     7
 10
503.86999999999989
 20
-800.95000000000005
 30
0.0
 11
502.61999999999989
 21
-812.95000000000005
 31
0.0
  0
ARC
  5
31E
  8
DATA
  6
CONTINUOUS
 62
     7
 10
9.999999999999984
 20
-214.0499999999999
 30
0.0
 40
10.0
 50
90.0
 51
180.0
  0
ARC
  5
31F
  8
DATA
  6
CONTINUOUS
 62
     7
 10
9.999999999999984
 20
-790.95000000000005
 30
0.0
 40
10.0
 50
180.0
 51
270.0
  0
ARC
  5
320
  8
DATA
  6
CONTINUOUS
 62
     7
 10
505.61999999999989
 20
-790.95000000000005
 30
0.0
 40
10.0
 50
270.0
 51
0.0
  0
ARC
  5
321
  8
DATA
  6
CONTINUOUS
 62
     7
 10
505.61999999999989
 20
-214.0499999999999
 30
0.0
 40
10.0
 50
0.0
 51
90.0
  0
LINE
  5
322
  8
DATA
  6
CONTINUOUS
 62
     7
 10
-682.0
 20
-812.0
 30
0.0
 11
-648.0
 21
-812.0
 31
0.0
  0
LINE
  5
323
  8
DATA
  6
CONTINUOUS
 62
     7
 10
-682.0
 20
-812.0
 30
0.0
 11
-683.25
 21
-800.0
 31
0.0
  0
LINE
  5
324
  8
DATA
  6
CONTINUOUS
 62
     7
 10
-646.75
 20
-800.0
 30
0.0
 11
-648.0
 21
-812.0
 31
0.0
  0
LINE
  5
325
  8
DATA
  6
CONTINUOUS
 62
     7
 10
-193.19999999999979
 20
-812.0
 30
0.0
 11
-159.19999999999979
 21
-812.0
 31
0.0
  0
LINE
  5
326
  8
DATA
  6
CONTINUOUS
 62
     7
 10
-193.19999999999979
 20
-812.0
 30
0.0
 11
-194.44999999999979
 21
-800.0
 31
0.0
  0
LINE
  5
327
  8
DATA
  6
CONTINUOUS
 62
     7
 10
-157.94999999999979
 20
-800.0
 30
0.0
 11
-159.19999999999979
 21
-812.0
 31
0.0
  0
LINE
  5
328
  8
DATA
  6
CONTINUOUS
 62
     7
 10
-1208.1899999999989
 20
561.80000000000018
 30
0.0
 11
-1076.1899999999989
 21
561.80000000000018
 31
0.0
  0
LINE
  5
329
  8
DATA
  6
CONTINUOUS
 62
     7
 10
-1076.1899999999989
 20
561.80000000000018
 30
0.0
 11
-1076.1899999999989
 21
558.80000000000007
 31
0.0
  0
LINE
  5
32A
  8
DATA
  6
CONTINUOUS
 62
     7
 10
-1208.1899999999989
 20
561.80000000000018
 30
0.0
 11
-1208.1899999999989
 21
558.80000000000007
 31
0.0
  0
TEXT
  5
32B
  8
DATA
 62
     7
 10
1100.0
 20
-2170.2777149995791
 30
0.0
 40
48.865234374877851
  1
JRX118S
 41
0.85
 11
1100.0
 21
-2121.4124806247019
 31
0.0
 73
     3
  0
TEXT
  5
32C
  8
DATA
 62
     7
 10
1100.0
 20
-2025.277714999942
 30
0.0
 40
48.865234374877851
  1
JBL
 41
0.85
 11
1100.0
 21
-1976.4124806250641
 31
0.0
 73
     3
  0
TEXT
  5
32D
  8
DATA
 62
     7
 10
1050.0000000001239
 20
-2094.1861149998599
 30
0.0
 40
32.01250000000001
  1
サブウーファ
 41
0.85
 11
1050.0000000001239
 21
-2062.1736149998601
 31
0.0
 73
     3
  0
LINE
  5
32E
  8
DATA
  6
CONTINUOUS
 62
     7
 10
460.0
 20
-1860.000000000002
 30
0.0
 11
460.0
 21
-930.0
 31
0.0
  0
LINE
  5
32F
  8
DATA
  6
CONTINUOUS
 62
     7
 10
1810.0
 20
-1890.0000000000041
 30
0.0
 11
490.0
 21
-1890.0000000000041
 31
0.0
  0
LINE
  5
330
  8
DATA
  6
CONTINUOUS
 62
     7
 10
1840.0
 20
-930.0
 30
0.0
 11
1840.0
 21
-1860.000000000002
 31
0.0
  0
LINE
  5
331
  8
DATA
  6
CONTINUOUS
 62
     7
 10
490.0
 20
-900.0
 30
0.0
 11
1810.0
 21
-900.0
 31
0.0
  0
LINE
  5
332
  8
DATA
  6
CONTINUOUS
 62
     7
 10
590.0
 20
-1705.0
 30
0.0
 11
590.0
 21
-1085.0
 31
0.0
  0
LINE
  5
333
  8
DATA
  6
CONTINUOUS
 62
     7
 10
1660.0
 20
-1755.0
 30
0.0
 11
640.0
 21
-1755.0
 31
0.0
  0
LINE
  5
334
  8
DATA
  6
CONTINUOUS
 62
     7
 10
1710.0
 20
-1085.0
 30
0.0
 11
1710.0
 21
-1705.0
 31
0.0
  0
LINE
  5
335
  8
DATA
  6
CONTINUOUS
 62
     7
 10
640.0
 20
-1035.0
 30
0.0
 11
1660.0
 21
-1035.0
 31
0.0
  0
LINE
  5
336
  8
DATA
  6
CONTINUOUS
 62
     7
 10
745.0
 20
-1080.0
 30
0.0
 11
965.0
 21
-1080.0
 31
0.0
  0
LINE
  5
337
  8
DATA
  6
CONTINUOUS
 62
     7
 10
725.0
 20
-1100.0
 30
0.0
 11
725.0
 21
-1370.0
 31
0.0
  0
LINE
  5
338
  8
DATA
  6
CONTINUOUS
 62
     7
 10
745.0
 20
-1390.0
 30
0.0
 11
965.0
 21
-1390.0
 31
0.0
  0
LINE
  5
339
  8
DATA
  6
CONTINUOUS
 62
     7
 10
985.0
 20
-1100.0
 30
0.0
 11
985.0
 21
-1370.0
 31
0.0
  0
ARC
  5
33A
  8
DATA
  6
CONTINUOUS
 62
     7
 10
745.0
 20
-1100.0
 30
0.0
 40
20.0
 50
90.0
 51
180.0
  0
ARC
  5
33B
  8
DATA
  6
CONTINUOUS
 62
     7
 10
745.0
 20
-1370.0
 30
0.0
 40
20.0
 50
180.0
 51
270.0
  0
ARC
  5
33C
  8
DATA
  6
CONTINUOUS
 62
     7
 10
965.0
 20
-1370.0
 30
0.0
 40
20.0
 50
270.0
 51
0.0
  0
ARC
  5
33D
  8
DATA
  6
CONTINUOUS
 62
     7
 10
965.0
 20
-1100.0
 30
0.0
 40
20.0
 50
0.0
 51
90.0
  0
POLYLINE
  5
33E
  8
DATA
  6
CONTINUOUS
 62
     7
 66
     1
 10
0.0
 20
0.0
 30
0.0
 70
   129
  0
VERTEX
  5
4ED
  8
DATA
  6
CONTINUOUS
 62
     7
 10
930.0
 20
-1355.0
 30
0.0
 42
-0.4142135623730951
  0
VERTEX
  5
4EE
  8
DATA
  6
CONTINUOUS
 62
     7
 10
950.0
 20
-1335.0
 30
0.0
 42
-0.4142135623730951
  0
VERTEX
  5
4EF
  8
DATA
  6
CONTINUOUS
 62
     7
 10
970.0
 20
-1355.0
 30
0.0
 42
-0.4142135623730951
  0
VERTEX
  5
4F0
  8
DATA
  6
CONTINUOUS
 62
     7
 10
950.0
 20
-1375.0
 30
0.0
 42
-0.4142135623730951
  0
VERTEX
  5
4F1
  8
DATA
  6
CONTINUOUS
 62
     7
 10
930.0
 20
-1355.0
 30
0.0
  0
SEQEND
  5
4F2
  8
DATA
  6
CONTINUOUS
 62
     7
  0
POLYLINE
  5
345
  8
DATA
  6
CONTINUOUS
 62
     7
 66
     1
 10
0.0
 20
0.0
 30
0.0
 70
   129
  0
VERTEX
  5
4F3
  8
DATA
  6
CONTINUOUS
 62
     7
 10
737.5
 20
-1235.0
 30
0.0
 42
-0.4142135623730951
  0
VERTEX
  5
4F4
  8
DATA
  6
CONTINUOUS
 62
     7
 10
855.0
 20
-1117.5
 30
0.0
 42
-0.4142135623730951
  0
VERTEX
  5
4F5
  8
DATA
  6
CONTINUOUS
 62
     7
 10
972.49999999999989
 20
-1235.0
 30
0.0
 42
-0.4142135623730951
  0
VERTEX
  5
4F6
  8
DATA
  6
CONTINUOUS
 62
     7
 10
855.0
 20
-1352.5
 30
0.0
 42
-0.4142135623730951
  0
VERTEX
  5
4F7
  8
DATA
  6
CONTINUOUS
 62
     7
 10
737.5
 20
-1235.0
 30
0.0
  0
SEQEND
  5
4F8
  8
DATA
  6
CONTINUOUS
 62
     7
  0
LINE
  5
34C
  8
DATA
  6
CONTINUOUS
 62
     7
 10
825.0
 20
-1135.0
 30
0.0
 11
885.0
 21
-1135.0
 31
0.0
  0
LINE
  5
34D
  8
DATA
  6
CONTINUOUS
 62
     7
 10
835.0
 20
-1335.0
 30
0.0
 11
875.0
 21
-1335.0
 31
0.0
  0
LINE
  5
34E
  8
DATA
  6
CONTINUOUS
 62
     7
 10
835.0
 20
-1335.0
 30
0.0
 11
835.0
 21
-1322.9999999999991
 31
0.0
  0
LINE
  5
34F
  8
DATA
  6
CONTINUOUS
 62
     7
 10
875.0
 20
-1335.0
 30
0.0
 11
875.0
 21
-1322.9999999999991
 31
0.0
  0
LINE
  5
350
  8
DATA
  6
CONTINUOUS
 62
     7
 10
825.0
 20
-1135.0
 30
0.0
 11
825.0
 21
-1152.2714999999989
 31
0.0
  0
LINE
  5
351
  8
DATA
  6
CONTINUOUS
 62
     7
 10
885.0
 20
-1135.0
 30
0.0
 11
885.0
 21
-1152.2714999999989
 31
0.0
  0
ARC
  5
352
  8
DATA
  6
CONTINUOUS
 62
     7
 10
855.0
 20
-1235.0
 30
0.0
 40
88.000026774144217
 50
109.9322641506788
 51
257.19616681969569
  0
ARC
  5
353
  8
DATA
  6
CONTINUOUS
 62
     7
 10
855.0
 20
-1235.0
 30
0.0
 40
88.000035043458269
 50
282.9999995554183
 51
69.999994237966618
  0
ARC
  5
354
  8
DATA
  6
CONTINUOUS
 62
     7
 10
855.0
 20
-1235.0
 30
0.0
 40
62.000021620637931
 50
60.000011535564781
 51
150.00001153556229
  0
LINE
  5
355
  8
DATA
  6
CONTINUOUS
 62
     7
 10
801.30659999999818
 20
-1203.9997000000001
 30
0.0
 11
806.28619999999489
 21
-1206.874700000001
 31
0.0
  0
LINE
  5
356
  8
DATA
  6
CONTINUOUS
 62
     7
 10
885.99969999999303
 20
-1181.3062000000009
 30
0.0
 11
883.12469999999826
 21
-1186.2859000000001
 31
0.0
  0
ARC
  5
357
  8
DATA
  6
CONTINUOUS
 62
     7
 10
855.0
 20
-1235.0
 30
0.0
 40
62.000021620642471
 50
240.00001153555741
 51
330.00001153555809
  0
LINE
  5
358
  8
DATA
  6
CONTINUOUS
 62
     7
 10
823.99999999999625
 20
-1288.6935999999989
 30
0.0
 11
826.875
 21
-1283.7139
 31
0.0
  0
LINE
  5
359
  8
DATA
  6
CONTINUOUS
 62
     7
 10
908.69369999999435
 20
-1265.9997999999989
 30
0.0
 11
903.71400000000006
 21
-1263.1248000000001
 31
0.0
  0
ARC
  5
35A
  8
DATA
  6
CONTINUOUS
 62
     7
 10
855.0
 20
-1235.0
 30
0.0
 40
56.250038315813121
 50
149.99966968210569
 51
240.000212604301
  0
ARC
  5
35B
  8
DATA
  6
CONTINUOUS
 62
     7
 10
855.0
 20
-1235.0
 30
0.0
 40
56.249961520342602
 50
330.00021260430242
 51
60.000718243125682
  0
ARC
  5
35C
  8
DATA
  6
CONTINUOUS
 62
     7
 10
855.0
 20
-1235.0
 30
0.0
 40
35.99990080874916
 50
59.999908854715791
 51
149.9999088547082
  0
ARC
  5
35D
  8
DATA
  6
CONTINUOUS
 62
     7
 10
855.0
 20
-1235.0
 30
0.0
 40
35.999900808753708
 50
239.99990885470331
 51
329.99990885470078
  0
LINE
  5
35E
  8
DATA
  6
CONTINUOUS
 62
     7
 10
872.99979999999766
 20
-1203.8230999999989
 30
0.0
 11
869.4998999999915
 21
-1209.8852000000011
 31
0.0
  0
LINE
  5
35F
  8
DATA
  6
CONTINUOUS
 62
     7
 10
823.82329999999445
 20
-1216.9999000000009
 30
0.0
 11
829.88529999999616
 21
-1220.4999
 31
0.0
  0
LINE
  5
360
  8
DATA
  6
CONTINUOUS
 62
     7
 10
836.99999999999807
 20
-1266.1768
 30
0.0
 11
840.49999999999261
 21
-1260.114700000001
 31
0.0
  0
LINE
  5
361
  8
DATA
  6
CONTINUOUS
 62
     7
 10
886.17689999999129
 20
-1252.9998000000001
 30
0.0
 11
880.1147999999921
 21
-1249.4999000000009
 31
0.0
  0
ARC
  5
362
  8
DATA
  6
CONTINUOUS
 62
     7
 10
855.0
 20
-1235.0
 30
0.0
 40
29.0000182086183
 50
149.99979263403381
 51
240.00023362383021
  0
ARC
  5
363
  8
DATA
  6
CONTINUOUS
 62
     7
 10
855.0
 20
-1235.0
 30
0.0
 40
29.000004811200011
 50
330.0002336238212
 51
59.999792634038457
  0
LINE
  5
364
  8
DATA
  6
CONTINUOUS
 62
     7
 10
950.0
 20
-1345.0
 30
0.0
 11
950.0
 21
-1365.0
 31
0.0
  0
LINE
  5
365
  8
DATA
  6
CONTINUOUS
 62
     7
 10
940.0
 20
-1355.0
 30
0.0
 11
960.0
 21
-1355.0
 31
0.0
  0
POLYLINE
  5
366
  8
DATA
  6
CONTINUOUS
 62
     7
 66
     1
 10
0.0
 20
0.0
 30
0.0
 70
   129
  0
VERTEX
  5
4F9
  8
DATA
  6
CONTINUOUS
 62
     7
 10
740.0
 20
-1115.0
 30
0.0
 42
-0.4142135623730951
  0
VERTEX
  5
4FA
  8
DATA
  6
CONTINUOUS
 62
     7
 10
760.0
 20
-1095.0
 30
0.0
 42
-0.4142135623730951
  0
VERTEX
  5
4FB
  8
DATA
  6
CONTINUOUS
 62
     7
 10
780.0
 20
-1115.0
 30
0.0
 42
-0.4142135623730951
  0
VERTEX
  5
4FC
  8
DATA
  6
CONTINUOUS
 62
     7
 10
760.0
 20
-1135.0
 30
0.0
 42
-0.4142135623730951
  0
VERTEX
  5
4FD
  8
DATA
  6
CONTINUOUS
 62
     7
 10
740.0
 20
-1115.0
 30
0.0
  0
SEQEND
  5
4FE
  8
DATA
  6
CONTINUOUS
 62
     7
  0
LINE
  5
36D
  8
DATA
  6
CONTINUOUS
 62
     7
 10
760.0
 20
-1105.0
 30
0.0
 11
760.0
 21
-1125.0
 31
0.0
  0
LINE
  5
36E
  8
DATA
  6
CONTINUOUS
 62
     7
 10
750.0
 20
-1115.0
 30
0.0
 11
770.0
 21
-1115.0
 31
0.0
  0
LINE
  5
36F
  8
DATA
  6
CONTINUOUS
 62
     7
 10
1335.0
 20
-1080.0
 30
0.0
 11
1555.0
 21
-1080.0
 31
0.0
  0
LINE
  5
370
  8
DATA
  6
CONTINUOUS
 62
     7
 10
1315.0
 20
-1100.0
 30
0.0
 11
1315.0
 21
-1370.0
 31
0.0
  0
LINE
  5
371
  8
DATA
  6
CONTINUOUS
 62
     7
 10
1335.0
 20
-1390.0
 30
0.0
 11
1555.0
 21
-1390.0
 31
0.0
  0
LINE
  5
372
  8
DATA
  6
CONTINUOUS
 62
     7
 10
1575.0
 20
-1100.0
 30
0.0
 11
1575.0
 21
-1370.0
 31
0.0
  0
ARC
  5
373
  8
DATA
  6
CONTINUOUS
 62
     7
 10
1335.0
 20
-1100.0
 30
0.0
 40
20.0
 50
90.0
 51
180.0
  0
ARC
  5
374
  8
DATA
  6
CONTINUOUS
 62
     7
 10
1335.0
 20
-1370.0
 30
0.0
 40
20.0
 50
180.0
 51
270.0
  0
ARC
  5
375
  8
DATA
  6
CONTINUOUS
 62
     7
 10
1555.0
 20
-1370.0
 30
0.0
 40
20.0
 50
270.0
 51
0.0
  0
ARC
  5
376
  8
DATA
  6
CONTINUOUS
 62
     7
 10
1555.0
 20
-1100.0
 30
0.0
 40
20.0
 50
0.0
 51
90.0
  0
POLYLINE
  5
377
  8
DATA
  6
CONTINUOUS
 62
     7
 66
     1
 10
0.0
 20
0.0
 30
0.0
 70
   129
  0
VERTEX
  5
4FF
  8
DATA
  6
CONTINUOUS
 62
     7
 10
1520.0
 20
-1355.0
 30
0.0
 42
-0.4142135623730951
  0
VERTEX
  5
500
  8
DATA
  6
CONTINUOUS
 62
     7
 10
1540.0
 20
-1335.0
 30
0.0
 42
-0.4142135623730951
  0
VERTEX
  5
501
  8
DATA
  6
CONTINUOUS
 62
     7
 10
1560.0
 20
-1355.0
 30
0.0
 42
-0.4142135623730951
  0
VERTEX
  5
502
  8
DATA
  6
CONTINUOUS
 62
     7
 10
1540.0
 20
-1375.0
 30
0.0
 42
-0.4142135623730951
  0
VERTEX
  5
503
  8
DATA
  6
CONTINUOUS
 62
     7
 10
1520.0
 20
-1355.0
 30
0.0
  0
SEQEND
  5
504
  8
DATA
  6
CONTINUOUS
 62
     7
  0
POLYLINE
  5
37E
  8
DATA
  6
CONTINUOUS
 62
     7
 66
     1
 10
0.0
 20
0.0
 30
0.0
 70
   129
  0
VERTEX
  5
505
  8
DATA
  6
CONTINUOUS
 62
     7
 10
1327.5
 20
-1235.0
 30
0.0
 42
-0.4142135623730951
  0
VERTEX
  5
506
  8
DATA
  6
CONTINUOUS
 62
     7
 10
1445.0
 20
-1117.5
 30
0.0
 42
-0.4142135623730951
  0
VERTEX
  5
507
  8
DATA
  6
CONTINUOUS
 62
     7
 10
1562.5
 20
-1235.0
 30
0.0
 42
-0.4142135623730951
  0
VERTEX
  5
508
  8
DATA
  6
CONTINUOUS
 62
     7
 10
1445.0
 20
-1352.5
 30
0.0
 42
-0.4142135623730951
  0
VERTEX
  5
509
  8
DATA
  6
CONTINUOUS
 62
     7
 10
1327.5
 20
-1235.0
 30
0.0
  0
SEQEND
  5
50A
  8
DATA
  6
CONTINUOUS
 62
     7
  0
LINE
  5
385
  8
DATA
  6
CONTINUOUS
 62
     7
 10
1415.0
 20
-1135.0
 30
0.0
 11
1475.0
 21
-1135.0
 31
0.0
  0
LINE
  5
386
  8
DATA
  6
CONTINUOUS
 62
     7
 10
1425.0
 20
-1335.0
 30
0.0
 11
1465.0
 21
-1335.0
 31
0.0
  0
LINE
  5
387
  8
DATA
  6
CONTINUOUS
 62
     7
 10
1425.0
 20
-1335.0
 30
0.0
 11
1425.0
 21
-1322.9999999999991
 31
0.0
  0
LINE
  5
388
  8
DATA
  6
CONTINUOUS
 62
     7
 10
1465.0
 20
-1335.0
 30
0.0
 11
1465.0
 21
-1322.9999999999991
 31
0.0
  0
LINE
  5
389
  8
DATA
  6
CONTINUOUS
 62
     7
 10
1415.0
 20
-1135.0
 30
0.0
 11
1415.0
 21
-1152.2714999999989
 31
0.0
  0
LINE
  5
38A
  8
DATA
  6
CONTINUOUS
 62
     7
 10
1475.0
 20
-1135.0
 30
0.0
 11
1475.0
 21
-1152.2714999999989
 31
0.0
  0
ARC
  5
38B
  8
DATA
  6
CONTINUOUS
 62
     7
 10
1445.0
 20
-1235.0
 30
0.0
 40
88.000026774144217
 50
109.9322641506788
 51
257.19616681969569
  0
ARC
  5
38C
  8
DATA
  6
CONTINUOUS
 62
     7
 10
1445.0
 20
-1235.0
 30
0.0
 40
88.000035043458269
 50
282.9999995554183
 51
69.999994237966689
  0
ARC
  5
38D
  8
DATA
  6
CONTINUOUS
 62
     7
 10
1445.0
 20
-1235.0
 30
0.0
 40
62.000021620637931
 50
60.000011535564781
 51
150.00001153556229
  0
LINE
  5
38E
  8
DATA
  6
CONTINUOUS
 62
     7
 10
1391.3065999999981
 20
-1203.9997000000001
 30
0.0
 11
1396.286199999995
 21
-1206.874700000001
 31
0.0
  0
LINE
  5
38F
  8
DATA
  6
CONTINUOUS
 62
     7
 10
1475.999699999993
 20
-1181.3062000000009
 30
0.0
 11
1473.124699999998
 21
-1186.2859000000001
 31
0.0
  0
ARC
  5
390
  8
DATA
  6
CONTINUOUS
 62
     7
 10
1445.0
 20
-1235.0
 30
0.0
 40
62.000021620642471
 50
240.00001153555741
 51
330.00001153555809
  0
LINE
  5
391
  8
DATA
  6
CONTINUOUS
 62
     7
 10
1413.999999999997
 20
-1288.6935999999989
 30
0.0
 11
1416.875
 21
-1283.7139
 31
0.0
  0
LINE
  5
392
  8
DATA
  6
CONTINUOUS
 62
     7
 10
1498.6936999999939
 20
-1265.9997999999989
 30
0.0
 11
1493.7139999999999
 21
-1263.1248000000001
 31
0.0
  0
ARC
  5
393
  8
DATA
  6
CONTINUOUS
 62
     7
 10
1445.0
 20
-1235.0
 30
0.0
 40
56.250038315813121
 50
149.99966968210569
 51
240.000212604301
  0
ARC
  5
394
  8
DATA
  6
CONTINUOUS
 62
     7
 10
1445.0
 20
-1235.0
 30
0.0
 40
56.249961520342602
 50
330.00021260430242
 51
60.00071824312581
  0
ARC
  5
395
  8
DATA
  6
CONTINUOUS
 62
     7
 10
1445.0
 20
-1235.0
 30
0.0
 40
35.99990080874916
 50
59.999908854715791
 51
149.99990885470831
  0
ARC
  5
396
  8
DATA
  6
CONTINUOUS
 62
     7
 10
1445.0
 20
-1235.0
 30
0.0
 40
35.999900808753708
 50
239.99990885470331
 51
329.99990885470078
  0
LINE
  5
397
  8
DATA
  6
CONTINUOUS
 62
     7
 10
1462.9997999999971
 20
-1203.8230999999989
 30
0.0
 11
1459.4998999999909
 21
-1209.8852000000011
 31
0.0
  0
LINE
  5
398
  8
DATA
  6
CONTINUOUS
 62
     7
 10
1413.8232999999941
 20
-1216.9999000000009
 30
0.0
 11
1419.885299999997
 21
-1220.4999
 31
0.0
  0
LINE
  5
399
  8
DATA
  6
CONTINUOUS
 62
     7
 10
1426.999999999998
 20
-1266.1768
 30
0.0
 11
1430.499999999993
 21
-1260.114700000001
 31
0.0
  0
LINE
  5
39A
  8
DATA
  6
CONTINUOUS
 62
     7
 10
1476.1768999999911
 20
-1252.9998000000001
 30
0.0
 11
1470.1147999999921
 21
-1249.4999000000009
 31
0.0
  0
ARC
  5
39B
  8
DATA
  6
CONTINUOUS
 62
     7
 10
1445.0
 20
-1235.0
 30
0.0
 40
29.0000182086183
 50
149.99979263403381
 51
240.00023362383021
  0
ARC
  5
39C
  8
DATA
  6
CONTINUOUS
 62
     7
 10
1445.0
 20
-1235.0
 30
0.0
 40
29.000004811200011
 50
330.0002336238212
 51
59.999792634038457
  0
LINE
  5
39D
  8
DATA
  6
CONTINUOUS
 62
     7
 10
1540.0
 20
-1345.0
 30
0.0
 11
1540.0
 21
-1365.0
 31
0.0
  0
LINE
  5
39E
  8
DATA
  6
CONTINUOUS
 62
     7
 10
1530.0
 20
-1355.0
 30
0.0
 11
1550.0
 21
-1355.0
 31
0.0
  0
POLYLINE
  5
39F
  8
DATA
  6
CONTINUOUS
 62
     7
 66
     1
 10
0.0
 20
0.0
 30
0.0
 70
   129
  0
VERTEX
  5
50B
  8
DATA
  6
CONTINUOUS
 62
     7
 10
1330.0
 20
-1115.0
 30
0.0
 42
-0.4142135623730951
  0
VERTEX
  5
50C
  8
DATA
  6
CONTINUOUS
 62
     7
 10
1350.0
 20
-1095.0
 30
0.0
 42
-0.4142135623730951
  0
VERTEX
  5
50D
  8
DATA
  6
CONTINUOUS
 62
     7
 10
1370.0
 20
-1115.0
 30
0.0
 42
-0.4142135623730951
  0
VERTEX
  5
50E
  8
DATA
  6
CONTINUOUS
 62
     7
 10
1350.0
 20
-1135.0
 30
0.0
 42
-0.4142135623730951
  0
VERTEX
  5
50F
  8
DATA
  6
CONTINUOUS
 62
     7
 10
1330.0
 20
-1115.0
 30
0.0
  0
SEQEND
  5
510
  8
DATA
  6
CONTINUOUS
 62
     7
  0
LINE
  5
3A6
  8
DATA
  6
CONTINUOUS
 62
     7
 10
1350.0
 20
-1105.0
 30
0.0
 11
1350.0
 21
-1125.0
 31
0.0
  0
LINE
  5
3A7
  8
DATA
  6
CONTINUOUS
 62
     7
 10
1340.0
 20
-1115.0
 30
0.0
 11
1360.0
 21
-1115.0
 31
0.0
  0
ARC
  5
3A8
  8
DATA
  6
CONTINUOUS
 62
     7
 10
640.0
 20
-1085.0
 30
0.0
 40
50.0
 50
90.0
 51
180.0
  0
ARC
  5
3A9
  8
DATA
  6
CONTINUOUS
 62
     7
 10
1660.0
 20
-1085.0
 30
0.0
 40
50.0
 50
0.0
 51
90.0
  0
ARC
  5
3AA
  8
DATA
  6
CONTINUOUS
 62
     7
 10
1660.0
 20
-1705.0
 30
0.0
 40
50.0
 50
270.0
 51
0.0
  0
ARC
  5
3AB
  8
DATA
  6
CONTINUOUS
 62
     7
 10
640.0
 20
-1705.0
 30
0.0
 40
50.0
 50
180.0
 51
270.0
  0
CIRCLE
  5
3AC
  8
DATA
  6
CONTINUOUS
 62
     7
 10
515.0
 20
-960.0
 30
0.0
 40
32.5
  0
LINE
  5
3AD
  8
DATA
  6
CONTINUOUS
 62
     7
 10
495.0
 20
-960.0
 30
0.0
 11
535.0
 21
-960.0
 31
0.0
  0
LINE
  5
3AE
  8
DATA
  6
CONTINUOUS
 62
     7
 10
515.0
 20
-980.0
 30
0.0
 11
515.0
 21
-940.0
 31
0.0
  0
CIRCLE
  5
3AF
  8
DATA
  6
CONTINUOUS
 62
     7
 10
1150.0
 20
-960.0
 30
0.0
 40
32.5
  0
LINE
  5
3B0
  8
DATA
  6
CONTINUOUS
 62
     7
 10
1130.0
 20
-960.0
 30
0.0
 11
1170.0
 21
-960.0
 31
0.0
  0
LINE
  5
3B1
  8
DATA
  6
CONTINUOUS
 62
     7
 10
1150.0
 20
-980.0
 30
0.0
 11
1150.0
 21
-940.0
 31
0.0
  0
CIRCLE
  5
3B2
  8
DATA
  6
CONTINUOUS
 62
     7
 10
1785.0
 20
-960.0
 30
0.0
 40
32.5
  0
LINE
  5
3B3
  8
DATA
  6
CONTINUOUS
 62
     7
 10
1765.0
 20
-960.0
 30
0.0
 11
1805.0
 21
-960.0
 31
0.0
  0
LINE
  5
3B4
  8
DATA
  6
CONTINUOUS
 62
     7
 10
1785.0
 20
-980.0
 30
0.0
 11
1785.0
 21
-940.0
 31
0.0
  0
CIRCLE
  5
3B5
  8
DATA
  6
CONTINUOUS
 62
     7
 10
1785.0
 20
-1830.0
 30
0.0
 40
32.5
  0
LINE
  5
3B6
  8
DATA
  6
CONTINUOUS
 62
     7
 10
1765.0
 20
-1830.0
 30
0.0
 11
1805.0
 21
-1830.0
 31
0.0
  0
LINE
  5
3B7
  8
DATA
  6
CONTINUOUS
 62
     7
 10
1785.0
 20
-1850.0
 30
0.0
 11
1785.0
 21
-1810.0
 31
0.0
  0
CIRCLE
  5
3B8
  8
DATA
  6
CONTINUOUS
 62
     7
 10
1150.0
 20
-1830.0
 30
0.0
 40
32.5
  0
LINE
  5
3B9
  8
DATA
  6
CONTINUOUS
 62
     7
 10
1130.0
 20
-1830.0
 30
0.0
 11
1170.0
 21
-1830.0
 31
0.0
  0
LINE
  5
3BA
  8
DATA
  6
CONTINUOUS
 62
     7
 10
1150.0
 20
-1850.0
 30
0.0
 11
1150.0
 21
-1810.0
 31
0.0
  0
CIRCLE
  5
3BB
  8
DATA
  6
CONTINUOUS
 62
     7
 10
515.0
 20
-1830.0
 30
0.0
 40
32.5
  0
LINE
  5
3BC
  8
DATA
  6
CONTINUOUS
 62
     7
 10
495.0
 20
-1830.0
 30
0.0
 11
535.0
 21
-1830.0
 31
0.0
  0
LINE
  5
3BD
  8
DATA
  6
CONTINUOUS
 62
     7
 10
515.0
 20
-1850.0
 30
0.0
 11
515.0
 21
-1810.0
 31
0.0
  0
ARC
  5
3BE
  8
DATA
  6
CONTINUOUS
 62
     7
 10
490.0
 20
-930.0
 30
0.0
 40
30.0
 50
90.0
 51
180.0
  0
ARC
  5
3BF
  8
DATA
  6
CONTINUOUS
 62
     7
 10
1810.0
 20
-930.0
 30
0.0
 40
30.0
 50
0.0
 51
90.0
  0
ARC
  5
3C0
  8
DATA
  6
CONTINUOUS
 62
     7
 10
1810.0
 20
-1860.000000000002
 30
0.0
 40
30.00000000000227
 50
270.0
 51
0.0
  0
ARC
  5
3C1
  8
DATA
  6
CONTINUOUS
 62
     7
 10
490.0
 20
-1860.000000000002
 30
0.0
 40
30.0
 50
180.0
 51
270.0
  0
CIRCLE
  5
3C2
  8
DATA
  6
CONTINUOUS
 62
     7
 10
1150.0
 20
-1235.0
 30
0.0
 40
32.5
  0
CIRCLE
  5
3C3
  8
DATA
  6
CONTINUOUS
 62
     7
 10
1150.0
 20
-1235.0
 30
0.0
 40
47.5
  0
CIRCLE
  5
3C4
  8
DATA
  6
CONTINUOUS
 62
     7
 10
1150.0
 20
-1235.0
 30
0.0
 40
70.0
  0
LINE
  5
3C5
  8
DATA
  6
CONTINUOUS
 62
     7
 10
1116.25
 20
-1176.543285244549
 30
0.0
 11
1082.5
 21
-1235.0
 31
0.0
  0
LINE
  5
3C6
  8
DATA
  6
CONTINUOUS
 62
     7
 10
1082.49999999999
 20
-1235.0
 30
0.0
 11
1116.25
 21
-1293.4567147554501
 31
0.0
  0
LINE
  5
3C7
  8
DATA
  6
CONTINUOUS
 62
     7
 10
1116.2499999999909
 20
-1293.456714755448
 30
0.0
 11
1183.75
 21
-1293.456714755448
 31
0.0
  0
LINE
  5
3C8
  8
DATA
  6
CONTINUOUS
 62
     7
 10
1183.74999999999
 20
-1293.456714755446
 30
0.0
 11
1217.49999999999
 21
-1234.9999999999959
 31
0.0
  0
LINE
  5
3C9
  8
DATA
  6
CONTINUOUS
 62
     7
 10
1217.49999999999
 20
-1234.9999999999959
 30
0.0
 11
1183.74999999999
 21
-1176.5432852445449
 31
0.0
  0
LINE
  5
3CA
  8
DATA
  6
CONTINUOUS
 62
     7
 10
1183.74999999999
 20
-1176.543285244547
 30
0.0
 11
1116.2499999999909
 21
-1176.543285244547
 31
0.0
  0
TEXT
  5
3CB
  8
DATA
 62
     7
 10
1017.625002562999
 20
-1105.34375
 30
0.0
 40
14.4287109375
  1
Recommended Amplifier Power
 41
0.85
 11
1017.625002562999
 21
-1090.9150390625
 31
0.0
 73
     3
  0
TEXT
  5
3CC
  8
DATA
 62
     7
 10
1017.625002562999
 20
-1129.430005951876
 30
0.0
 40
14.4287109375
  1
350 - 700 watts 4 ohms
 41
0.85
 11
1017.625002562999
 21
-1115.001295014376
 31
0.0
 73
     3
  0
TEXT
  5
3CD
  8
DATA
 62
     7
 10
1095.3124997930349
 20
-1381.25
 30
0.0
 40
24.0478515625
  1
±1 SUB
 41
0.85
 11
1095.3124997930349
 21
-1357.2021484375
 31
0.0
 73
     3
  0
TEXT
  5
3CE
  8
DATA
 62
     7
 10
1095.3124997930349
 20
-1419.414621696837
 30
0.0
 40
24.0478515625
  1
±2 THRU
 41
0.85
 11
1095.3124997930349
 21
-1395.366770134337
 31
0.0
 73
     3
  0
TEXT
  5
3CF
  8
DATA
 62
     7
 10
1319.9999965230561
 20
-1426.1607076057701
 30
0.0
 40
24.0478515625
  1
Remove input cup
 41
0.85
 11
1319.9999965230561
 21
-1402.1128560432701
 31
0.0
 73
     3
  0
TEXT
  5
3D0
  8
DATA
 62
     7
 10
1319.9999965230561
 20
-1532.291651080129
 30
0.0
 40
24.0478515625
  1
±2 SUB
 41
0.85
 11
1319.9999965230561
 21
-1508.243799517629
 31
0.0
 73
     3
  0
TEXT
  5
3D1
  8
DATA
 62
     7
 10
1319.9999965230561
 20
-1461.5376887638899
 30
0.0
 40
24.0478515625
  1
to comfigure for
 41
0.85
 11
1319.9999965230561
 21
-1437.4898372013899
 31
0.0
 73
     3
  0
TEXT
  5
3D2
  8
DATA
 62
     7
 10
1319.9999965230561
 20
-1496.9146699220089
 30
0.0
 40
24.0478515625
  1
±1 THRU
 41
0.85
 11
1319.9999965230561
 21
-1472.8668183595089
 31
0.0
 73
     3
  0
TEXT
  5
3D3
  8
DATA
 62
     7
 10
740.0
 20
-1600.625
 30
0.0
 40
24.0478515625
  1
MODEL JRX118S
 41
0.85
 11
740.0
 21
-1576.5771484375
 31
0.0
 73
     3
  0
LINE
  5
3D4
  8
DATA
  6
CONTINUOUS
 62
     7
 10
-1194.6899999999989
 20
-200.09999999999991
 30
0.0
 11
-1194.6899999999989
 21
-203.09999999999991
 31
0.0
  0
LINE
  5
3D5
  8
DATA
  6
CONTINUOUS
 62
     7
 10
-1089.6900000000001
 20
-200.09999999999991
 30
0.0
 11
-1089.6900000000001
 21
-203.09999999999991
 31
0.0
  0
LINE
  5
3D6
  8
DATA
  6
CONTINUOUS
 62
     7
 10
-1089.6900000000001
 20
-200.09999999999991
 30
0.0
 11
-1194.6899999999989
 21
-200.09999999999991
 31
0.0
  0
LINE
  5
3D7
  8
DATA
  6
CONTINUOUS
 62
     7
 10
-473.0999999999994
 20
-203.09999999999991
 30
0.0
 11
-473.0999999999994
 21
-200.09999999999991
 31
0.0
  0
LINE
  5
3D8
  8
DATA
  6
CONTINUOUS
 62
     7
 10
-368.10000000000042
 20
-203.09999999999991
 30
0.0
 11
-368.10000000000042
 21
-200.09999999999991
 31
0.0
  0
LINE
  5
3D9
  8
DATA
  6
CONTINUOUS
 62
     7
 10
205.31
 20
-203.09999999999991
 30
0.0
 11
205.31
 21
-200.09999999999991
 31
0.0
  0
LINE
  5
3DA
  8
DATA
  6
CONTINUOUS
 62
     7
 10
310.30999999999892
 20
-203.09999999999991
 30
0.0
 11
310.30999999999892
 21
-200.09999999999991
 31
0.0
  0
LINE
  5
3DB
  8
DATA
  6
CONTINUOUS
 62
     7
 10
-368.10000000000042
 20
-200.09999999999991
 30
0.0
 11
-473.0999999999994
 21
-200.09999999999991
 31
0.0
  0
LINE
  5
3DC
  8
DATA
  6
CONTINUOUS
 62
     7
 10
310.30999999999892
 20
-200.09999999999991
 30
0.0
 11
205.31
 21
-200.09999999999991
 31
0.0
  0
LINE
  5
3DD
  8
DATA
  6
CONTINUOUS
 62
     7
 10
-882.88000000000011
 20
-293.34999999999991
 30
0.0
 11
-884.38000000000011
 21
-293.34999999999991
 31
0.0
  0
LINE
  5
3DE
  8
DATA
  6
CONTINUOUS
 62
     7
 10
-882.88000000000011
 20
-299.84999999999991
 30
0.0
 11
-884.38000000000011
 21
-299.84999999999991
 31
0.0
  0
ARC
  5
3DF
  8
DATA
  6
CONTINUOUS
 62
     7
 10
-887.66125
 20
-296.59999999999991
 30
0.0
 40
5.781249999999905
 50
325.79454206189479
 51
34.20545793810539
  0
LINE
  5
3E0
  8
DATA
  6
CONTINUOUS
 62
     7
 10
-882.88000000000011
 20
-406.34999999999991
 30
0.0
 11
-884.38000000000011
 21
-406.34999999999991
 31
0.0
  0
LINE
  5
3E1
  8
DATA
  6
CONTINUOUS
 62
     7
 10
-882.88000000000011
 20
-412.8499999999998
 30
0.0
 11
-884.38000000000011
 21
-412.8499999999998
 31
0.0
  0
ARC
  5
3E2
  8
DATA
  6
CONTINUOUS
 62
     7
 10
-887.66125
 20
-409.59999999999991
 30
0.0
 40
5.781249999999905
 50
325.79454206189479
 51
34.20545793810539
  0
LINE
  5
3E3
  8
DATA
  6
CONTINUOUS
 62
     7
 10
-882.88000000000011
 20
-488.3499999999998
 30
0.0
 11
-884.38000000000011
 21
-488.3499999999998
 31
0.0
  0
LINE
  5
3E4
  8
DATA
  6
CONTINUOUS
 62
     7
 10
-882.88000000000011
 20
-494.84999999999991
 30
0.0
 11
-884.38000000000011
 21
-494.84999999999991
 31
0.0
  0
ARC
  5
3E5
  8
DATA
  6
CONTINUOUS
 62
     7
 10
-887.66125
 20
-491.59999999999991
 30
0.0
 40
5.781249999999905
 50
325.79454206189479
 51
34.20545793810539
  0
LINE
  5
3E6
  8
DATA
  6
CONTINUOUS
 62
     7
 10
-1401.5
 20
-293.34999999999991
 30
0.0
 11
-1400.0
 21
-293.34999999999991
 31
0.0
  0
LINE
  5
3E7
  8
DATA
  6
CONTINUOUS
 62
     7
 10
-1401.5
 20
-299.84999999999991
 30
0.0
 11
-1400.0
 21
-299.84999999999991
 31
0.0
  0
ARC
  5
3E8
  8
DATA
  6
CONTINUOUS
 62
     7
 10
-1396.71875
 20
-296.59999999999991
 30
0.0
 40
5.78125
 50
145.7945420618953
 51
214.20545793810479
  0
LINE
  5
3E9
  8
DATA
  6
CONTINUOUS
 62
     7
 10
-1401.5
 20
-406.34999999999991
 30
0.0
 11
-1400.0
 21
-406.34999999999991
 31
0.0
  0
LINE
  5
3EA
  8
DATA
  6
CONTINUOUS
 62
     7
 10
-1401.5
 20
-412.8499999999998
 30
0.0
 11
-1400.0
 21
-412.8499999999998
 31
0.0
  0
ARC
  5
3EB
  8
DATA
  6
CONTINUOUS
 62
     7
 10
-1396.71875
 20
-409.59999999999991
 30
0.0
 40
5.78125
 50
145.7945420618953
 51
214.20545793810479
  0
LINE
  5
3EC
  8
DATA
  6
CONTINUOUS
 62
     7
 10
-1401.5
 20
-488.3499999999998
 30
0.0
 11
-1400.0
 21
-488.3499999999998
 31
0.0
  0
LINE
  5
3ED
  8
DATA
  6
CONTINUOUS
 62
     7
 10
-1401.5
 20
-494.84999999999991
 30
0.0
 11
-1400.0
 21
-494.84999999999991
 31
0.0
  0
ARC
  5
3EE
  8
DATA
  6
CONTINUOUS
 62
     7
 10
-1396.71875
 20
-491.59999999999991
 30
0.0
 40
5.78125
 50
145.7945420618953
 51
214.20545793810479
  0
POLYLINE
  5
3EF
  8
DATA
  6
CONTINUOUS
 62
     7
 66
     1
 10
0.0
 20
0.0
 30
0.0
 70
     1
  0
VERTEX
  5
511
  8
DATA
  6
CONTINUOUS
 62
     7
 10
-1374.6900000000001
 20
-227.55000000000001
 30
0.0
  0
VERTEX
  5
512
  8
DATA
  6
CONTINUOUS
 62
     7
 10
-909.69000000000005
 20
-227.55000000000001
 30
0.0
  0
VERTEX
  5
513
  8
DATA
  6
CONTINUOUS
 62
     7
 10
-909.69000000000005
 20
-775.54999999999984
 30
0.0
  0
VERTEX
  5
514
  8
DATA
  6
CONTINUOUS
 62
     7
 10
-1374.6900000000001
 20
-775.54999999999984
 30
0.0
  0
SEQEND
  5
515
  8
DATA
  6
CONTINUOUS
 62
     7
  0
ARC
  5
3F5
  8
DATA
  6
CONTINUOUS
 62
     7
 10
-1142.1900000000001
 20
-471.55000000000001
 30
0.0
 40
230.00000000000011
 50
281.29686722288858
 51
89.459833024514452
  0
ARC
  5
3F6
  8
DATA
  6
CONTINUOUS
 62
     7
 10
-1142.1900000000001
 20
-471.55000000000001
 30
0.0
 40
224.99999999999989
 50
281.71118308313282
 51
89.815984964013481
  0
ARC
  5
3F7
  8
DATA
  6
CONTINUOUS
 62
     7
 10
-1142.1900000000001
 20
-471.55000000000001
 30
0.0
 40
210.0
 50
282.95412320020159
 51
90.870213156304715
  0
ARC
  5
3F8
  8
DATA
  6
CONTINUOUS
 62
     7
 10
-1142.1900000000001
 20
-471.55000000000001
 30
0.0
 40
169.99999999999989
 50
286.28559503361248
 51
93.556523637409953
  0
ARC
  5
3F9
  8
DATA
  6
CONTINUOUS
 62
     7
 10
-1142.1900000000001
 20
-471.55000000000001
 30
0.0
 40
72.500000000000142
 50
295.20257205685363
 51
98.191160285746633
  0
CIRCLE
  5
3FA
  8
DATA
  6
CONTINUOUS
 62
     7
 10
-982.19000000000005
 20
-710.54999999999995
 30
0.0
 40
45.0
  0
ARC
  5
3FB
  8
DATA
  6
CONTINUOUS
 62
     7
 10
-775.0
 20
-350.0
 30
0.0
 40
380.78865529319552
 50
161.24213460291429
 51
203.1985905136481
  0
ARC
  5
3FC
  8
DATA
  6
CONTINUOUS
 62
     7
 10
-1475.0
 20
-650.0
 30
0.0
 40
380.7886552931954
 50
340.74879789006718
 51
23.198590513648188
  0
POLYLINE
  5
3FD
  8
DATA
  6
CONTINUOUS
 62
     7
 66
     1
 10
0.0
 20
0.0
 30
0.0
 70
     1
  0
VERTEX
  5
516
  8
DATA
  6
CONTINUOUS
 62
     7
 10
-1166.1900000000001
 20
-710.54999999999995
 30
0.0
  0
VERTEX
  5
517
  8
DATA
  6
CONTINUOUS
 62
     7
 10
-1118.1900000000001
 20
-710.54999999999995
 30
0.0
  0
VERTEX
  5
518
  8
DATA
  6
CONTINUOUS
 62
     7
 10
-1118.1900000000001
 20
-756.54999999999984
 30
0.0
  0
VERTEX
  5
519
  8
DATA
  6
CONTINUOUS
 62
     7
 10
-1166.1900000000001
 20
-756.54999999999984
 30
0.0
  0
SEQEND
  5
51A
  8
DATA
  6
CONTINUOUS
 62
     7
  0
LINE
  5
403
  8
DATA
  6
CONTINUOUS
 62
     7
 10
-1118.1900000000001
 20
-748.54999999999984
 30
0.0
 11
-1166.1900000000001
 21
-748.54999999999984
 31
0.0
  0
ARC
  5
404
  8
DATA
  6
CONTINUOUS
 62
     7
 10
-1141.420749818283
 20
-735.27616952767028
 30
0.0
 40
0.5100529837093593
 50
307.64190249757178
 51
354.26701928939423
  0
LINE
  5
405
  8
DATA
  6
CONTINUOUS
 62
     7
 10
-1154.52208
 20
-727.23855999999989
 30
0.0
 11
-1152.130944
 21
-721.5411519999999
 31
0.0
  0
LINE
  5
406
  8
DATA
  6
CONTINUOUS
 62
     7
 10
-1154.52208
 20
-727.23855999999989
 30
0.0
 11
-1156.8837119999989
 21
-721.5411519999999
 31
0.0
  0
LINE
  5
407
  8
DATA
  6
CONTINUOUS
 62
     7
 10
-1136.3966399999999
 20
-737.5411519999999
 30
0.0
 11
-1136.3966399999999
 21
-721.5411519999999
 31
0.0
  0
LINE
  5
408
  8
DATA
  6
CONTINUOUS
 62
     7
 10
-1133.3265279999989
 20
-721.5411519999999
 30
0.0
 11
-1133.3265279999989
 21
-735.09097599999973
 31
0.0
  0
LINE
  5
409
  8
DATA
  6
CONTINUOUS
 62
     7
 10
-1151.009168
 20
-721.5411519999999
 30
0.0
 11
-1151.009168
 21
-735.09097599999973
 31
0.0
  0
LINE
  5
40A
  8
DATA
  6
CONTINUOUS
 62
     7
 10
-1148.0571359999999
 20
-721.5411519999999
 30
0.0
 11
-1148.0571359999999
 21
-735.09097599999973
 31
0.0
  0
LINE
  5
40B
  8
DATA
  6
CONTINUOUS
 62
     7
 10
-1146.52208
 20
-721.5411519999999
 30
0.0
 11
-1146.52208
 21
-737.5411519999999
 31
0.0
  0
LINE
  5
40C
  8
DATA
  6
CONTINUOUS
 62
     7
 10
-1143.835728
 20
-723.04667199999983
 30
0.0
 11
-1143.835728
 21
-728.18321600000002
 31
0.0
  0
LINE
  5
40D
  8
DATA
  6
CONTINUOUS
 62
     7
 10
-1138.078
 20
-727.88599999999985
 30
0.0
 11
-1138.078
 21
-724.1389439999997
 31
0.0
  0
LINE
  5
40E
  8
DATA
  6
CONTINUOUS
 62
     7
 10
-1140.9132479999989
 20
-723.75516799999957
 30
0.0
 11
-1140.9132479999989
 21
-727.47473600000001
 31
0.0
  0
ARC
  5
40F
  8
DATA
  6
CONTINUOUS
 62
     7
 10
-1151.6015520000001
 20
-733.43267199999991
 30
0.0
 40
4.1261654802682726
 50
264.69085622153312
 51
323.99119915424723
  0
LINE
  5
410
  8
DATA
  6
CONTINUOUS
 62
     7
 10
-1153.252704
 20
-732.52268799999968
 30
0.0
 11
-1153.252704
 21
-735.09094399999969
 31
0.0
  0
LINE
  5
411
  8
DATA
  6
CONTINUOUS
 62
     7
 10
-1153.252704
 20
-732.52268799999968
 30
0.0
 11
-1155.9095359999999
 21
-732.52268799999968
 31
0.0
  0
LINE
  5
412
  8
DATA
  6
CONTINUOUS
 62
     7
 10
-1155.9095359999999
 20
-732.52268799999968
 30
0.0
 11
-1155.9095359999999
 21
-735.09094399999969
 31
0.0
  0
ARC
  5
413
  8
DATA
  6
CONTINUOUS
 62
     7
 10
-1152.1253119999999
 20
-735.12556799999959
 30
0.0
 40
1.116686121987839
 50
269.71184879275501
 51
1.7759870056726179
  0
ARC
  5
414
  8
DATA
  6
CONTINUOUS
 62
     7
 10
-1152.1365599999999
 20
-735.12556799999959
 30
0.0
 40
1.1166804119353779
 50
178.22401299431721
 51
270.28815120724312
  0
ARC
  5
415
  8
DATA
  6
CONTINUOUS
 62
     7
 10
-1152.3651199999999
 20
-733.43267199999991
 30
0.0
 40
4.1261587791144283
 50
216.00880084575829
 51
275.30914377846358
  0
ARC
  5
416
  8
DATA
  6
CONTINUOUS
 62
     7
 10
-1154.044832
 20
-735.00049599999966
 30
0.0
 40
1.86688033308156
 50
182.7769954499918
 51
207.359606667153
  0
CIRCLE
  5
417
  8
DATA
  6
CONTINUOUS
 62
     7
 10
-1154.3597119999999
 20
-729.45259199999964
 30
0.0
 40
1.520288000000164
  0
LINE
  5
418
  8
DATA
  6
CONTINUOUS
 62
     7
 10
-1128.3966399999999
 20
-737.54113599999971
 30
0.0
 11
-1136.3966399999999
 21
-737.54113599999971
 31
0.0
  0
LINE
  5
419
  8
DATA
  6
CONTINUOUS
 62
     7
 10
-1128.3966399999999
 20
-737.54113599999971
 30
0.0
 11
-1128.3966399999999
 21
-732.52267199999972
 31
0.0
  0
LINE
  5
41A
  8
DATA
  6
CONTINUOUS
 62
     7
 10
-1128.3966399999999
 20
-732.52268799999968
 30
0.0
 11
-1131.0829759999999
 21
-732.52268799999968
 31
0.0
  0
LINE
  5
41B
  8
DATA
  6
CONTINUOUS
 62
     7
 10
-1131.0829759999999
 20
-732.52268799999968
 30
0.0
 11
-1131.0829759999999
 21
-735.09094399999969
 31
0.0
  0
LINE
  5
41C
  8
DATA
  6
CONTINUOUS
 62
     7
 10
-1146.52208
 20
-737.54113599999971
 30
0.0
 11
-1140.9132479999989
 21
-737.54111999999975
 31
0.0
  0
LINE
  5
41D
  8
DATA
  6
CONTINUOUS
 62
     7
 10
-1143.835744
 20
-736.03559999999982
 30
0.0
 11
-1142.389248
 21
-736.03559999999982
 31
0.0
  0
LINE
  5
41E
  8
DATA
  6
CONTINUOUS
 62
     7
 10
-1143.835728
 20
-736.03559999999982
 30
0.0
 11
-1143.835728
 21
-729.718256
 31
0.0
  0
LINE
  5
41F
  8
DATA
  6
CONTINUOUS
 62
     7
 10
-1143.835744
 20
-729.718256
 30
0.0
 11
-1142.389248
 21
-729.718256
 31
0.0
  0
LINE
  5
420
  8
DATA
  6
CONTINUOUS
 62
     7
 10
-1140.9132479999989
 20
-735.32711999999981
 30
0.0
 11
-1140.9132479999989
 21
-730.42673599999989
 31
0.0
  0
ARC
  5
421
  8
DATA
  6
CONTINUOUS
 62
     7
 10
-1149.92184
 20
-735.00049599999966
 30
0.0
 40
1.8668776765842121
 50
332.64039333284421
 51
357.2230045500084
  0
ARC
  5
422
  8
DATA
  6
CONTINUOUS
 62
     7
 10
-1132.199136
 20
-735.12556799999959
 30
0.0
 40
1.116686121987839
 50
269.71184879275501
 51
1.7759870056726179
  0
ARC
  5
423
  8
DATA
  6
CONTINUOUS
 62
     7
 10
-1132.210368
 20
-735.12556799999959
 30
0.0
 40
1.116680411935151
 50
178.22401299431681
 51
270.28815120724312
  0
LINE
  5
424
  8
DATA
  6
CONTINUOUS
 62
     7
 10
-1138.0792960000001
 20
-734.97286399999984
 30
0.0
 11
-1138.0792960000001
 21
-730.72195199999965
 31
0.0
  0
LINE
  5
425
  8
DATA
  6
CONTINUOUS
 62
     7
 10
-1143.835744
 20
-728.18321600000002
 30
0.0
 11
-1142.389248
 21
-728.18321600000002
 31
0.0
  0
ARC
  5
426
  8
DATA
  6
CONTINUOUS
 62
     7
 10
-1141.11664
 20
-734.50374399999964
 30
0.0
 40
3.0441782587490018
 50
273.83098160912152
 51
351.13514730980199
  0
LINE
  5
427
  8
DATA
  6
CONTINUOUS
 62
     7
 10
-1151.009168
 20
-721.5411519999999
 30
0.0
 11
-1148.0571359999999
 21
-721.5411519999999
 31
0.0
  0
LINE
  5
428
  8
DATA
  6
CONTINUOUS
 62
     7
 10
-1156.8837119999989
 20
-721.5411519999999
 30
0.0
 11
-1152.130944
 21
-721.5411519999999
 31
0.0
  0
LINE
  5
429
  8
DATA
  6
CONTINUOUS
 62
     7
 10
-1136.3966399999999
 20
-721.5411519999999
 30
0.0
 11
-1133.3265279999989
 21
-721.5411519999999
 31
0.0
  0
LINE
  5
42A
  8
DATA
  6
CONTINUOUS
 62
     7
 10
-1146.52208
 20
-721.5411519999999
 30
0.0
 11
-1140.882415794965
 21
-721.54116494998436
 31
0.0
  0
LINE
  5
42B
  8
DATA
  6
CONTINUOUS
 62
     7
 10
-1143.835744
 20
-723.04668799999979
 30
0.0
 11
-1142.389248
 21
-723.04668799999979
 31
0.0
  0
ARC
  5
42C
  8
DATA
  6
CONTINUOUS
 62
     7
 10
-1141.086288
 20
-724.57388800000001
 30
0.0
 40
3.039567892658241
 50
8.2269238590222997
 51
86.154126692151962
  0
ARC
  5
42D
  8
DATA
  6
CONTINUOUS
 62
     7
 10
-1142.3721672598349
 20
-733.2296992630603
 30
0.0
 40
2.8059527254109362
 50
269.65121993761488
 51
282.82648280687232
  0
ARC
  5
42E
  8
DATA
  6
CONTINUOUS
 62
     7
 10
-1142.0570143560531
 20
-734.4160004979633
 30
0.0
 40
1.5799006459092819
 50
281.2331036226538
 51
306.8620088940591
  0
ARC
  5
42F
  8
DATA
  6
CONTINUOUS
 62
     7
 10
-1141.420749818283
 20
-730.47768647232886
 30
0.0
 40
0.5100529837097576
 50
5.7329807105778778
 51
52.358097502439207
  0
ARC
  5
430
  8
DATA
  6
CONTINUOUS
 62
     7
 10
-1142.3721672598349
 20
-732.52415673693895
 30
0.0
 40
2.8059527254106071
 50
77.173517193126656
 51
90.348780062385231
  0
ARC
  5
431
  8
DATA
  6
CONTINUOUS
 62
     7
 10
-1142.0570143560531
 20
-731.3378555020364
 30
0.0
 40
1.5799006459091269
 50
53.1379911059474
 51
78.766896377344565
  0
ARC
  5
432
  8
DATA
  6
CONTINUOUS
 62
     7
 10
-1139.6275840000001
 20
-730.82660799999985
 30
0.0
 40
1.5518210622619819
 50
3.8670063598296149
 51
88.361634567892196
  0
ARC
  5
433
  8
DATA
  6
CONTINUOUS
 62
     7
 10
-1139.6290080000001
 20
-727.72273599999983
 30
0.0
 40
1.5533631039159099
 50
271.68928210465322
 51
356.07828298265707
  0
ARC
  5
434
  8
DATA
  6
CONTINUOUS
 62
     7
 10
-1141.420749818283
 20
-727.4237855276707
 30
0.0
 40
0.5100529837093593
 50
307.64190249757178
 51
354.26701928939423
  0
ARC
  5
435
  8
DATA
  6
CONTINUOUS
 62
     7
 10
-1142.3721672598349
 20
-725.37731526306061
 30
0.0
 40
2.8059527254109362
 50
269.65121993761488
 51
282.82648280687681
  0
ARC
  5
436
  8
DATA
  6
CONTINUOUS
 62
     7
 10
-1142.0570143560531
 20
-726.56361649796349
 30
0.0
 40
1.5799006459088361
 50
281.23310362265698
 51
306.86200889405762
  0
ARC
  5
437
  8
DATA
  6
CONTINUOUS
 62
     7
 10
-1141.420749818283
 20
-723.80611847232922
 30
0.0
 40
0.510052983709803
 50
5.7329807106287047
 51
52.358097502439207
  0
ARC
  5
438
  8
DATA
  6
CONTINUOUS
 62
     7
 10
-1142.3721672598349
 20
-725.85258873693908
 30
0.0
 40
2.8059527254108292
 50
77.173517193127665
 51
90.348780062385146
  0
ARC
  5
439
  8
DATA
  6
CONTINUOUS
 62
     7
 10
-1142.0570143560531
 20
-724.66628750203654
 30
0.0
 40
1.5799006459091269
 50
53.1379911059474
 51
78.766896377344565
  0
TEXT
  5
43A
  8
DATA
 62
     7
 10
-1152.9399995562769
 20
-754.88999999999987
 30
0.0
 40
5.001953125
  1
JRX
 41
0.85
 11
-1152.9399995562769
 21
-749.88804687499999
 31
0.0
 73
     3
  0
TEXT
  5
43B
  8
DATA
 62
     7
 10
-1141.1900000000001
 20
-754.3499999999998
 30
0.0
 40
3.84765625
  1
100
 41
0.85
 11
-1141.1900000000001
 21
-750.5023437499998
 31
0.0
 73
     3
  0
LINE
  5
43C
  8
DATA
  6
CONTINUOUS
 62
     7
 10
-882.88000000000011
 20
212.64999999999961
 30
0.0
 11
-884.38000000000011
 21
212.64999999999961
 31
0.0
  0
LINE
  5
43D
  8
DATA
  6
CONTINUOUS
 62
     7
 10
-882.88000000000011
 20
206.14999999999961
 30
0.0
 11
-884.38000000000011
 21
206.14999999999961
 31
0.0
  0
ARC
  5
43E
  8
DATA
  6
CONTINUOUS
 62
     7
 10
-887.66125
 20
209.39999999999961
 30
0.0
 40
5.781249999999905
 50
325.79454206189479
 51
34.20545793810539
  0
LINE
  5
43F
  8
DATA
  6
CONTINUOUS
 62
     7
 10
-882.88000000000011
 20
352.64999999999958
 30
0.0
 11
-884.38000000000011
 21
352.64999999999958
 31
0.0
  0
LINE
  5
440
  8
DATA
  6
CONTINUOUS
 62
     7
 10
-882.88000000000011
 20
346.14999999999958
 30
0.0
 11
-884.38000000000011
 21
346.14999999999958
 31
0.0
  0
ARC
  5
441
  8
DATA
  6
CONTINUOUS
 62
     7
 10
-887.66125
 20
349.39999999999958
 30
0.0
 40
5.781249999999905
 50
325.79454206189479
 51
34.20545793810539
  0
LINE
  5
442
  8
DATA
  6
CONTINUOUS
 62
     7
 10
-1401.5
 20
212.64999999999961
 30
0.0
 11
-1400.0
 21
212.64999999999961
 31
0.0
  0
LINE
  5
443
  8
DATA
  6
CONTINUOUS
 62
     7
 10
-1401.5
 20
206.14999999999961
 30
0.0
 11
-1400.0
 21
206.14999999999961
 31
0.0
  0
ARC
  5
444
  8
DATA
  6
CONTINUOUS
 62
     7
 10
-1396.71875
 20
209.39999999999961
 30
0.0
 40
5.78125
 50
145.7945420618953
 51
214.20545793810479
  0
LINE
  5
445
  8
DATA
  6
CONTINUOUS
 62
     7
 10
-1401.5
 20
352.64999999999958
 30
0.0
 11
-1400.0
 21
352.64999999999958
 31
0.0
  0
LINE
  5
446
  8
DATA
  6
CONTINUOUS
 62
     7
 10
-1401.5
 20
346.14999999999958
 30
0.0
 11
-1400.0
 21
346.14999999999958
 31
0.0
  0
ARC
  5
447
  8
DATA
  6
CONTINUOUS
 62
     7
 10
-1396.71875
 20
349.39999999999958
 30
0.0
 40
5.78125
 50
145.7945420618953
 51
214.20545793810479
  0
LINE
  5
448
  8
DATA
  6
CONTINUOUS
 62
     7
 10
517.11999999999978
 20
-294.2999999999999
 30
0.0
 11
515.61999999999989
 21
-294.2999999999999
 31
0.0
  0
LINE
  5
449
  8
DATA
  6
CONTINUOUS
 62
     7
 10
517.11999999999978
 20
-300.7999999999999
 30
0.0
 11
515.61999999999989
 21
-300.7999999999999
 31
0.0
  0
ARC
  5
44A
  8
DATA
  6
CONTINUOUS
 62
     7
 10
512.33874999999989
 20
-297.5499999999999
 30
0.0
 40
5.781249999999905
 50
325.79454206189479
 51
34.20545793810539
  0
LINE
  5
44B
  8
DATA
  6
CONTINUOUS
 62
     7
 10
517.11999999999978
 20
-407.30000000000001
 30
0.0
 11
515.61999999999989
 21
-407.30000000000001
 31
0.0
  0
LINE
  5
44C
  8
DATA
  6
CONTINUOUS
 62
     7
 10
517.11999999999978
 20
-413.7999999999999
 30
0.0
 11
515.61999999999989
 21
-413.7999999999999
 31
0.0
  0
ARC
  5
44D
  8
DATA
  6
CONTINUOUS
 62
     7
 10
512.33874999999989
 20
-410.55000000000001
 30
0.0
 40
5.781249999999905
 50
325.79454206189479
 51
34.20545793810539
  0
LINE
  5
44E
  8
DATA
  6
CONTINUOUS
 62
     7
 10
517.11999999999978
 20
-489.2999999999999
 30
0.0
 11
515.61999999999989
 21
-489.2999999999999
 31
0.0
  0
LINE
  5
44F
  8
DATA
  6
CONTINUOUS
 62
     7
 10
517.11999999999978
 20
-495.80000000000001
 30
0.0
 11
515.61999999999989
 21
-495.80000000000001
 31
0.0
  0
ARC
  5
450
  8
DATA
  6
CONTINUOUS
 62
     7
 10
512.33874999999989
 20
-492.55000000000001
 30
0.0
 40
5.781249999999905
 50
325.79454206189479
 51
34.20545793810539
  0
LINE
  5
451
  8
DATA
  6
CONTINUOUS
 62
     7
 10
-1.500000000000014
 20
-294.2999999999999
 30
0.0
 11
-0.0000000000000142
 21
-294.2999999999999
 31
0.0
  0
LINE
  5
452
  8
DATA
  6
CONTINUOUS
 62
     7
 10
-1.500000000000014
 20
-300.7999999999999
 30
0.0
 11
-0.0000000000000142
 21
-300.7999999999999
 31
0.0
  0
ARC
  5
453
  8
DATA
  6
CONTINUOUS
 62
     7
 10
3.2812499999999849
 20
-297.5499999999999
 30
0.0
 40
5.78125
 50
145.7945420618953
 51
214.20545793810479
  0
LINE
  5
454
  8
DATA
  6
CONTINUOUS
 62
     7
 10
-1.500000000000014
 20
-407.30000000000001
 30
0.0
 11
-0.0000000000000142
 21
-407.30000000000001
 31
0.0
  0
LINE
  5
455
  8
DATA
  6
CONTINUOUS
 62
     7
 10
-1.500000000000014
 20
-413.7999999999999
 30
0.0
 11
-0.0000000000000142
 21
-413.7999999999999
 31
0.0
  0
ARC
  5
456
  8
DATA
  6
CONTINUOUS
 62
     7
 10
3.2812499999999849
 20
-410.55000000000001
 30
0.0
 40
5.78125
 50
145.7945420618953
 51
214.20545793810479
  0
LINE
  5
457
  8
DATA
  6
CONTINUOUS
 62
     7
 10
-1.500000000000014
 20
-489.2999999999999
 30
0.0
 11
-0.0000000000000142
 21
-489.2999999999999
 31
0.0
  0
LINE
  5
458
  8
DATA
  6
CONTINUOUS
 62
     7
 10
-1.500000000000014
 20
-495.80000000000001
 30
0.0
 11
-0.0000000000000142
 21
-495.80000000000001
 31
0.0
  0
ARC
  5
459
  8
DATA
  6
CONTINUOUS
 62
     7
 10
3.2812499999999849
 20
-492.55000000000001
 30
0.0
 40
5.78125
 50
145.7945420618953
 51
214.20545793810479
  0
LINE
  5
45A
  8
DATA
  6
CONTINUOUS
 62
     7
 10
-138.19999999999979
 20
-319.0499999999999
 30
0.0
 11
-141.19999999999979
 21
-319.0499999999999
 31
0.0
  0
LINE
  5
45B
  8
DATA
  6
CONTINUOUS
 62
     7
 10
-138.19999999999979
 20
-418.0500000000003
 30
0.0
 11
-141.19999999999979
 21
-418.0500000000003
 31
0.0
  0
LINE
  5
45C
  8
DATA
  6
CONTINUOUS
 62
     7
 10
-138.19999999999979
 20
-319.0499999999999
 30
0.0
 11
-138.19999999999979
 21
-418.0500000000003
 31
0.0
  0
ENDSEC
  0
EOF
