  0
SECTION
  2
HEADER
  9
$ACADVER
  1
AC1009
  9
$INSBASE
 10
0.0
 20
0.0
 30
0.0
  9
$EXTMIN
 10
98.626171593014064
 20
72.353412841287536
 30
-0.0015258207003583
  9
$EXTMAX
 10
1910.0427972336211
 20
2751.3626593287022
 30
0.0000000349246037
  9
$LIMMIN
 10
-66.173333
 20
-68.950000000000003
  9
$LIMMAX
 10
2033.826667
 20
2901.0500000000011
  9
$ORTHOMODE
 70
     0
  9
$REGENMODE
 70
     1
  9
$FILLMODE
 70
     1
  9
$QTEXTMODE
 70
     0
  9
$MIRRTEXT
 70
     0
  9
$DRAGMODE
 70
     2
  9
$LTSCALE
 40
1.0
  9
$OSMODE
 70
   167
  9
$ATTMODE
 70
     1
  9
$TEXTSIZE
 40
0.2
  9
$TRACEWID
 40
0.05
  9
$TEXTSTYLE
  7
STANDARD
  9
$CLAYER
  8
DATA
  9
$CELTYPE
  6
BYLAYER
  9
$CECOLOR
 62
     7
  9
$DIMSCALE
 40
1.0
  9
$DIMASZ
 40
0.18
  9
$DIMEXO
 40
0.0625
  9
$DIMDLI
 40
0.38
  9
$DIMRND
 40
0.0
  9
$DIMDLE
 40
0.0
  9
$DIMEXE
 40
0.18
  9
$DIMTP
 40
0.0
  9
$DIMTM
 40
0.0
  9
$DIMTXT
 40
0.18
  9
$DIMCEN
 40
0.09
  9
$DIMTSZ
 40
0.0
  9
$DIMTOL
 70
     0
  9
$DIMLIM
 70
     0
  9
$DIMTIH
 70
     1
  9
$DIMTOH
 70
     1
  9
$DIMSE1
 70
     0
  9
$DIMSE2
 70
     0
  9
$DIMTAD
 70
     0
  9
$DIMZIN
 70
     0
  9
$DIMBLK
  1

  9
$DIMASO
 70
     1
  9
$DIMSHO
 70
     1
  9
$DIMPOST
  1

  9
$DIMAPOST
  1

  9
$DIMALT
 70
     0
  9
$DIMALTD
 70
     2
  9
$DIMALTF
 40
25.399999999999999
  9
$DIMLFAC
 40
1.0
  9
$DIMTOFL
 70
     0
  9
$DIMTVP
 40
0.0
  9
$DIMTIX
 70
     0
  9
$DIMSOXD
 70
     0
  9
$DIMSAH
 70
     0
  9
$DIMBLK1
  1

  9
$DIMBLK2
  1

  9
$DIMSTYLE
  2
STANDARD
  9
$DIMCLRD
 70
     0
  9
$DIMCLRE
 70
     0
  9
$DIMCLRT
 70
     0
  9
$DIMTFAC
 40
1.0
  9
$DIMGAP
 40
0.09
  9
$LUNITS
 70
     2
  9
$LUPREC
 70
     4
  9
$SKETCHINC
 40
0.1
  9
$FILLETRAD
 40
3.0
  9
$AUNITS
 70
     0
  9
$AUPREC
 70
     0
  9
$MENU
  1
acad
  9
$ELEVATION
 40
0.0
  9
$PELEVATION
 40
0.0
  9
$THICKNESS
 40
0.0
  9
$LIMCHECK
 70
     0
  9
$BLIPMODE
 70
     0
  9
$CHAMFERA
 40
0.0
  9
$CHAMFERB
 40
0.0
  9
$SKPOLY
 70
     0
  9
$TDCREATE
 40
2305814.4171760529
  9
$TDUPDATE
 40
2453035.8215371761
  9
$TDINDWG
 40
0.000702581
  9
$TDUSRTIMER
 40
0.000702581
  9
$USRTIMER
 70
     1
  9
$ANGBASE
 50
0.0
  9
$ANGDIR
 70
     0
  9
$PDMODE
 70
     0
  9
$PDSIZE
 40
0.0
  9
$PLINEWID
 40
0.0
  9
$COORDS
 70
     2
  9
$SPLFRAME
 70
     0
  9
$SPLINETYPE
 70
     6
  9
$SPLINESEGS
 70
    10
  9
$ATTDIA
 70
     0
  9
$ATTREQ
 70
     1
  9
$HANDLING
 70
     1
  9
$HANDSEED
  5
4FD
  9
$SURFTAB1
 70
     6
  9
$SURFTAB2
 70
     6
  9
$SURFTYPE
 70
     6
  9
$SURFU
 70
     6
  9
$SURFV
 70
     6
  9
$UCSNAME
  2

  9
$UCSORG
 10
0.0
 20
0.0
 30
0.0
  9
$UCSXDIR
 10
1.0
 20
0.0
 30
0.0
  9
$UCSYDIR
 10
0.0
 20
1.0
 30
0.0
  9
$PUCSNAME
  2

  9
$PUCSORG
 10
0.0
 20
0.0
 30
0.0
  9
$PUCSXDIR
 10
1.0
 20
0.0
 30
0.0
  9
$PUCSYDIR
 10
0.0
 20
1.0
 30
0.0
  9
$USERI1
 70
     0
  9
$USERI2
 70
     0
  9
$USERI3
 70
     0
  9
$USERI4
 70
     0
  9
$USERI5
 70
     0
  9
$USERR1
 40
0.0
  9
$USERR2
 40
0.0
  9
$USERR3
 40
0.0
  9
$USERR4
 40
0.0
  9
$USERR5
 40
0.0
  9
$WORLDVIEW
 70
     1
  9
$SHADEDGE
 70
     3
  9
$SHADEDIF
 70
    70
  9
$TILEMODE
 70
     1
  9
$MAXACTVP
 70
    64
  9
$PLIMCHECK
 70
     0
  9
$PEXTMIN
 10
1.0000000000000000E+020
 20
1.0000000000000000E+020
 30
1.0000000000000000E+020
  9
$PEXTMAX
 10
-1.0000000000000000E+020
 20
-1.0000000000000000E+020
 30
-1.0000000000000000E+020
  9
$PLIMMIN
 10
0.0
 20
0.0
  9
$PLIMMAX
 10
12.0
 20
9.0
  9
$UNITMODE
 70
     0
  9
$VISRETAIN
 70
     1
  9
$PLINEGEN
 70
     0
  9
$PSLTSCALE
 70
     1
  0
ENDSEC
  0
SECTION
  2
TABLES
  0
TABLE
  2
VPORT
 70
     2
  0
VPORT
  2
*ACTIVE
 70
     0
 10
0.0
 20
0.0
 11
1.0
 21
1.0
 12
1004.334484413318
 22
1411.8580360849951
 13
0.0
 23
0.0
 14
1.0
 24
1.0
 15
0.0
 25
0.0
 16
0.0
 26
0.0
 36
1.0
 17
0.0
 27
0.0
 37
0.0
 40
2700.3559337104221
 41
1.603723404255319
 42
50.0
 43
0.0
 44
0.0
 50
0.0
 51
0.0
 71
     0
 72
   100
 73
     1
 74
     1
 75
     0
 76
     0
 77
     0
 78
     0
  0
ENDTAB
  0
TABLE
  2
LTYPE
 70
    11
  0
LTYPE
  2
CONTINUOUS
 70
     0
  3
Solid line
 72
    65
 73
     0
 40
0.0
  0
LTYPE
  2
DASHED
 70
     0
  3
__ __ __ __ __ __ __ __ __ __ __ __ __ __ __
 72
    65
 73
     2
 40
0.75
 49
0.5
 49
-0.25
  0
LTYPE
  2
HIDDEN
 70
     0
  3
_ _ _ _ _ _ _ _ _ _ _ _ _ _ _ _ _ _ _ _ _ _ 
 72
    65
 73
     2
 40
0.25
 49
0.125
 49
-0.125
  0
LTYPE
  2
CENTER
 70
     0
  3
____ _ ____ _ ____ _ ____ _ ____ _ ____ _ __
 72
    65
 73
     4
 40
2.0
 49
1.25
 49
-0.25
 49
0.25
 49
-0.25
  0
LTYPE
  2
PHANTOM
 70
     0
  3
_____ _ _ _____ _ _ _____ _ _ _____ _ _ ____
 72
    65
 73
     6
 40
2.5
 49
1.25
 49
-0.25
 49
0.25
 49
-0.25
 49
0.25
 49
-0.25
  0
LTYPE
  2
DOT
 70
     0
  3
............................................
 72
    65
 73
     2
 40
0.25
 49
0.0
 49
-0.25
  0
LTYPE
  2
DASHDOT
 70
     0
  3
__ . __ . __ . __ . __ . __ . __ . __ . __ .
 72
    65
 73
     4
 40
1.0
 49
0.5
 49
-0.25
 49
0.0
 49
-0.25
  0
LTYPE
  2
BORDER
 70
     0
  3
__ __ . __ __ . __ __ . __ __ . __ __ . __ _
 72
    65
 73
     6
 40
1.75
 49
0.5
 49
-0.25
 49
0.5
 49
-0.25
 49
0.0
 49
-0.25
  0
LTYPE
  2
DIVIDE
 70
     0
  3
__ . . __ . . __ . . __ . . __ . . __ . . __
 72
    65
 73
     6
 40
1.25
 49
0.5
 49
-0.25
 49
0.0
 49
-0.25
 49
0.0
 49
-0.25
  0
LTYPE
  2
DOTS
 70
     0
  3
close                                       
 72
    65
 73
     2
 40
0.1
 49
0.05
 49
-0.05
  0
LTYPE
  2
CLOSE
 70
     0
  3
                                            
 72
    65
 73
     0
 40
0.0
  0
ENDTAB
  0
TABLE
  2
LAYER
 70
     6
  0
LAYER
  2
0
 70
     0
 62
     7
  6
CONTINUOUS
  0
LAYER
  2
DATA
 70
     0
 62
     7
  6
CONTINUOUS
  0
LAYER
  2
DIMENSIONS
 70
     0
 62
     7
  6
CONTINUOUS
  0
LAYER
  2
SPEC
 70
     0
 62
     7
  6
CONTINUOUS
  0
LAYER
  2
HIBINO-BASE
 70
     0
 62
     7
  6
CONTINUOUS
  0
ENDTAB
  0
TABLE
  2
STYLE
 70
     2
  0
STYLE
  2
STANDARD
 70
     0
 40
0.0
 41
1.0
 50
0.0
 71
     0
 42
0.2
  3
txt.shx
  4
bigfont.shx
  0
ENDTAB
  0
TABLE
  2
VIEW
 70
     0
  0
ENDTAB
  0
TABLE
  2
UCS
 70
     0
  0
ENDTAB
  0
TABLE
  2
APPID
 70
     1
  0
APPID
  2
ACAD
 70
     0
  0
ENDTAB
  0
TABLE
  2
DIMSTYLE
 70
     1
  0
DIMSTYLE
  2
STANDARD
 70
     0
  3

  4

  5

  6

  7

 40
1.0
 41
0.18
 42
0.0625
 43
0.38
 44
0.18
 45
0.0
 46
0.0
 47
0.0
 48
0.0
140
0.18
141
0.09
142
0.0
143
25.399999999999999
144
1.0
145
0.0
146
1.0
147
0.09
 71
     0
 72
     0
 73
     1
 74
     1
 75
     0
 76
     0
 77
     0
 78
     0
170
     0
171
     2
172
     0
173
     0
174
     0
175
     0
176
     0
177
     0
178
     0
  0
ENDTAB
  0
ENDSEC
  0
SECTION
  2
BLOCKS
  0
BLOCK
  8
0
  2
$MODEL_SPACE
 70
     0
 10
0.0
 20
0.0
 30
0.0
  3
$MODEL_SPACE
  1

  0
ENDBLK
  5
22
  8
0
  0
BLOCK
 67
     1
  8
0
  2
$PAPER_SPACE
 70
     0
 10
0.0
 20
0.0
 30
0.0
  3
$PAPER_SPACE
  1

  0
ENDBLK
  5
1E
 67
     1
  8
0
  0
ENDSEC
  0
SECTION
  2
ENTITIES
  0
LINE
  5
37
  8
SPEC
 62
     7
 10
175.0
 20
2650.0
 30
0.0
 11
1650.0
 21
2650.0
 31
0.0
  0
LINE
  5
38
  8
DATA
 62
     7
 10
872.0
 20
750.0
 30
0.0
 11
1004.53
 21
750.0
 31
0.0
  0
LINE
  5
39
  8
DATA
 62
     7
 10
872.0
 20
1018.478
 30
0.0
 11
1004.53
 21
1018.478
 31
0.0
  0
LINE
  5
3A
  8
DATA
 62
     7
 10
872.0
 20
997.44575199999986
 30
0.0
 11
1004.53
 21
997.44575199999986
 31
0.0
  0
LINE
  5
3B
  8
DATA
 62
     7
 10
880.26499999999987
 20
892.0
 30
0.0
 11
996.26499999999999
 21
892.0
 31
0.0
  0
LINE
  5
3C
  8
DATA
 62
     7
 10
887.76499999999999
 20
828.0
 30
0.0
 11
988.76499999999999
 21
828.0
 31
0.0
  0
LINE
  5
3D
  8
DATA
 62
     7
 10
881.26499999999987
 20
831.0
 30
0.0
 11
995.26499999999999
 21
831.0
 31
0.0
  0
LINE
  5
3E
  8
DATA
 62
     7
 10
881.26499999999987
 20
891.5
 30
0.0
 11
995.26499999999999
 21
891.5
 31
0.0
  0
TEXT
  5
3F
  8
DATA
 62
     7
 10
962.26499999999999
 20
881.0
 30
0.0
 40
2.0
  1
Fire Resplace Fuse With Same
 41
0.75
  0
TEXT
  5
40
  8
DATA
 62
     7
 10
974.06423499999994
 20
883.5
 30
0.0
 40
2.0
  1
To Reduce Risk of
 41
0.75
  0
TEXT
  5
41
  8
DATA
 62
     7
 10
976.5140439999999
 20
873.49999999999989
 30
0.0
 40
2.0
  1
Utilliser Un
 41
0.75
  0
LINE
  5
42
  8
DATA
 62
     7
 10
962.26499999999999
 20
854.0
 30
0.0
 11
992.26499999999999
 21
854.0
 31
0.0
  0
LINE
  5
43
  8
DATA
 62
     7
 10
962.26499999999999
 20
859.5
 30
0.0
 11
992.26499999999999
 21
859.5
 31
0.0
  0
TEXT
  5
44
  8
DATA
 62
     7
 10
962.26499999999999
 20
847.0
 30
0.0
 40
2.5
  1
Northridge, CA. USA
 41
0.75
  0
TEXT
  5
45
  8
DATA
 62
     7
 10
966.90858300000002
 20
843.0
 30
0.0
 40
2.0
  1
Harman international Company
 41
0.75
  0
TEXT
  5
46
  8
DATA
 62
     7
 10
962.26499999999999
 20
878.5
 30
0.0
 40
2.0
  1
Type and Rating.
 41
0.75
  0
TEXT
  5
47
  8
DATA
 62
     7
 10
962.26499999999999
 20
871.0
 30
0.0
 40
2.0
  1
Mene Type de:
 41
0.75
  0
TEXT
  5
48
  8
DATA
 62
     7
 10
962.26499999999999
 20
868.5
 30
0.0
 40
2.0
  1
120V-3TA/250V
 41
0.75
  0
TEXT
  5
49
  8
DATA
 62
     7
 10
962.26499999999999
 20
866.0
 30
0.0
 40
2.0
  1
240V-1.5TA/250-
 41
0.75
  0
TEXT
  5
4A
  8
DATA
 62
     7
 10
962.26499999999999
 20
876.0
 30
0.0
 40
2.0
  1
Type and Rating.
 41
0.75
  0
TEXT
  5
4B
  8
DATA
 62
     7
 10
962.26499999999999
 20
873.49999999999989
 30
0.0
 40
2.5
  1
ATTENTION:
 41
0.75
  0
TEXT
  5
4C
  8
DATA
 62
     7
 10
962.26499999999999
 20
860.5
 30
0.0
 40
2.0
  1
Serial No.
 41
0.75
  0
TEXT
  5
4D
  8
DATA
 62
     7
 10
952.26499999999999
 20
838.49999999999989
 30
0.0
 40
2.5
  1
120/240 V～50/60Hz
 41
0.75
  0
TEXT
  5
4E
  8
DATA
 62
     7
 10
962.26499999999999
 20
850.0
 30
0.0
 40
2.5
  1
JBL PROFESSIONAL
 41
0.75
  0
LINE
  5
4F
  8
DATA
 62
     7
 10
942.26499999999999
 20
826.5
 30
0.0
 11
986.26499999999999
 21
826.5
 31
0.0
  0
POLYLINE
  5
50
  8
HIBINO-BASE
 62
     7
 66
     1
 10
0.0
 20
0.0
 30
0.0
 70
     1
 40
2.5
 41
2.5
  0
VERTEX
  5
436
  8
HIBINO-BASE
 62
     7
 10
100.0
 20
150.0
 30
0.0
  0
VERTEX
  5
437
  8
HIBINO-BASE
 62
     7
 10
100.0
 20
2750.0
 30
0.0
  0
VERTEX
  5
438
  8
HIBINO-BASE
 62
     7
 10
1900.0
 20
2750.0
 30
0.0
  0
VERTEX
  5
439
  8
HIBINO-BASE
 62
     7
 10
1900.0
 20
150.0
 30
0.0
  0
SEQEND
  5
43A
  8
HIBINO-BASE
 62
     7
  0
TEXT
  5
56
  8
DATA
 62
     7
 10
962.26499999999999
 20
883.5
 30
0.0
 40
2.5
  1
CAUTION:
 41
0.75
  0
TEXT
  5
57
  8
DATA
 62
     7
 10
922.26499999999987
 20
883.5
 30
0.0
 40
3.0
  1
(Nominal Configuration -
 41
0.75
  0
TEXT
  5
58
  8
DATA
 62
     7
 10
924.26499999999987
 20
880.10000000000002
 30
0.0
 40
3.0
  1
All Switches Down)
 41
0.75
  0
TEXT
  5
59
  8
DATA
 62
     7
 10
919.26499999999999
 20
876.70000000000005
 30
0.0
 40
3.0
  1
1: 80 Hz High Pass
 41
0.75
  0
TEXT
  5
5A
  8
DATA
 62
     7
 10
919.26499999999999
 20
873.29999999999995
 30
0.0
 40
3.0
  1
2: Boundary Compensation
 41
0.75
  0
TEXT
  5
5B
  8
DATA
 62
     7
 10
919.26499999999999
 20
869.89999999999986
 30
0.0
 40
3.0
  1
3: HF +1.5dB Above 2.2kHz
 41
0.75
  0
TEXT
  5
5C
  8
DATA
 62
     7
 10
919.26499999999999
 20
866.5
 30
0.0
 40
3.0
  1
4: HF -1.5dB Above 2.2kHz
 41
0.75
  0
TEXT
  5
5D
  8
DATA
 62
     7
 10
901.26499999999999
 20
850.0
 30
0.0
 40
5.0
  1
Linear Spatial Reference
 41
0.75
  0
TEXT
  5
5E
  8
DATA
 62
     7
 10
901.26499999999999
 20
845.0
 30
0.0
 40
5.0
  1
Bi-Amplified Monitor
 41
0.75
  0
TEXT
  5
5F
  8
DATA
 62
     7
 10
958.38952200000006
 20
835.5
 30
0.0
 40
2.5
  1
175Watts
 41
0.75
  0
LINE
  5
60
  8
SPEC
 62
     7
 10
175.0
 20
2575.0
 30
0.0
 11
1650.0
 21
2575.0
 31
0.0
  0
LINE
  5
61
  8
SPEC
 62
     7
 10
175.0
 20
2500.0
 30
0.0
 11
1650.0
 21
2500.0
 31
0.0
  0
LINE
  5
62
  8
SPEC
 62
     7
 10
175.0
 20
2537.5
 30
0.0
 11
1650.0
 21
2537.5
 31
0.0
  0
LINE
  5
63
  8
SPEC
 62
     7
 10
175.0
 20
2462.5
 30
0.0
 11
1650.0
 21
2462.5
 31
0.0
  0
LINE
  5
64
  8
SPEC
 62
     7
 10
175.0
 20
2387.5
 30
0.0
 11
1650.0
 21
2387.5
 31
0.0
  0
LINE
  5
65
  8
SPEC
 62
     7
 10
175.0
 20
2425.0
 30
0.0
 11
1650.0
 21
2425.0
 31
0.0
  0
LINE
  5
66
  8
SPEC
 62
     7
 10
175.0
 20
2350.0
 30
0.0
 11
1650.0
 21
2350.0
 31
0.0
  0
TEXT
  5
67
  8
SPEC
 62
     7
 10
509.0
 20
2359.0
 30
0.0
 40
25.0
  1
106dB SPL(90Hz～20kHz)/Peak:109dB SPL(90Hz～20kHz)
 41
0.75
  0
TEXT
  5
68
  8
SPEC
 62
     7
 10
509.0
 20
2621.5
 30
0.0
 40
25.0
  1
2ウェイ・バイアンプ内蔵スタ ジオモニタ （防磁仕様）
 41
0.75
  0
LINE
  5
69
  8
SPEC
 62
     7
 10
175.0
 20
2312.5
 30
0.0
 11
1650.0
 21
2312.5
 31
0.0
  0
LINE
  5
6A
  8
SPEC
 62
     7
 10
500.0
 20
2237.5
 30
0.0
 11
1650.0
 21
2237.5
 31
0.0
  0
LINE
  5
6B
  8
SPEC
 62
     7
 10
175.0
 20
2162.5
 30
0.0
 11
1650.0
 21
2162.5
 31
0.0
  0
LINE
  5
6C
  8
SPEC
 62
     7
 10
175.0
 20
1975.0
 30
0.0
 11
1650.0
 21
1975.0
 31
0.0
  0
LINE
  5
6D
  8
SPEC
 62
     7
 10
175.0
 20
1825.0
 30
0.0
 11
1650.0
 21
1825.0
 31
0.0
  0
LINE
  5
6E
  8
SPEC
 62
     7
 10
175.0
 20
1937.5
 30
0.0
 11
1650.0
 21
1937.5
 31
0.0
  0
LINE
  5
6F
  8
SPEC
 62
     7
 10
175.0
 20
1900.0
 30
0.0
 11
1650.0
 21
1900.0
 31
0.0
  0
LINE
  5
70
  8
SPEC
 62
     7
 10
175.0
 20
1862.5
 30
0.0
 11
1650.0
 21
1862.5
 31
0.0
  0
LINE
  5
71
  8
SPEC
 62
     7
 10
175.0
 20
2050.0
 30
0.0
 11
1650.0
 21
2050.0
 31
0.0
  0
LINE
  5
72
  8
SPEC
 62
     7
 10
175.0
 20
2087.5
 30
0.0
 11
1650.0
 21
2087.5
 31
0.0
  0
LINE
  5
73
  8
SPEC
 62
     7
 10
175.0
 20
2125.0
 30
0.0
 11
1650.0
 21
2125.0
 31
0.0
  0
TEXT
  5
74
  8
HIBINO-BASE
 62
     7
 10
171.84
 20
85.913200000000003
 30
0.0
 40
40.0
  1
Hibino Corporation
 41
0.75
  0
ARC
  5
75
  8
DATA
 62
     7
 10
454.52999999999997
 20
772.0
 30
0.0
 40
22.0
 50
270.0
 51
0.0
  0
ARC
  5
76
  8
DATA
 62
     7
 10
454.52999999999997
 20
996.47800000000007
 30
0.0
 40
22.0
 50
0.0
 51
90.0
  0
LINE
  5
77
  8
DATA
 62
     7
 10
300.0
 20
1157.860541
 30
0.0
 11
476.52999999999992
 21
1157.860541
 31
0.0
  0
ARC
  5
78
  8
DATA
 62
     7
 10
454.52999999999997
 20
778.10090199999991
 30
0.0
 40
22.0
 50
270.0
 51
0.0
  0
ARC
  5
79
  8
DATA
 62
     7
 10
388.26499999999999
 20
1904.297869
 30
0.0
 40
781.57102300000008
 50
263.84483599999999
 51
276.15516400000001
  0
ARC
  5
7A
  8
DATA
 62
     7
 10
388.26499999999999
 20
1881.571023
 30
0.0
 40
781.57102300000008
 50
263.84483599999999
 51
276.15516400000001
  0
LINE
  5
7B
  8
DATA
 62
     7
 10
472.34499
 20
1353.5007310000001
 30
0.0
 11
446.26499999999999
 21
1357.809336
 31
0.0
  0
CIRCLE
  5
7C
  8
DATA
 62
     7
 10
448.26499999999987
 20
770.78945099999999
 30
0.0
 40
11.0
  0
CIRCLE
  5
7D
  8
DATA
 62
     7
 10
458.76499999999999
 20
787.28945099999999
 30
0.0
 40
1.5
  0
POLYLINE
  5
7E
  8
DATA
 62
     7
 66
     1
 10
0.0
 20
0.0
 30
0.0
 70
     1
  0
VERTEX
  5
43B
  8
DATA
 62
     7
 10
461.26499999999999
 20
920.78945099999999
 30
0.0
 42
0.129495
  0
VERTEX
  5
43C
  8
DATA
 62
     7
 10
459.82134699999989
 20
926.27013999999997
 30
0.0
 42
0.106397
  0
VERTEX
  5
43D
  8
DATA
 62
     7
 10
455.2606889999999
 20
931.39605299999994
 30
0.0
 42
0.084553
  0
VERTEX
  5
43E
  8
DATA
 62
     7
 10
448.86410899999993
 20
934.5890609999999
 30
0.0
 42
0.073704
  0
VERTEX
  5
43F
  8
DATA
 62
     7
 10
440.76499999999999
 20
935.78945099999987
 30
0.0
 42
0.073704
  0
VERTEX
  5
440
  8
DATA
 62
     7
 10
432.66589099999987
 20
934.5890609999999
 30
0.0
 42
0.084553
  0
VERTEX
  5
441
  8
DATA
 62
     7
 10
426.2693109999999
 20
931.39605299999994
 30
0.0
 42
0.106397
  0
VERTEX
  5
442
  8
DATA
 62
     7
 10
421.70865300000003
 20
926.27013999999997
 30
0.0
 42
0.129495
  0
VERTEX
  5
443
  8
DATA
 62
     7
 10
420.26499999999999
 20
920.78945099999999
 30
0.0
 42
0.129495
  0
VERTEX
  5
444
  8
DATA
 62
     7
 10
421.70865300000003
 20
915.30876199999989
 30
0.0
 42
0.106397
  0
VERTEX
  5
445
  8
DATA
 62
     7
 10
426.2693109999999
 20
910.18284900000003
 30
0.0
 42
0.084553
  0
VERTEX
  5
446
  8
DATA
 62
     7
 10
432.66589099999987
 20
906.98984099999996
 30
0.0
 42
0.073704
  0
VERTEX
  5
447
  8
DATA
 62
     7
 10
440.76499999999999
 20
905.78945099999999
 30
0.0
 42
0.073704
  0
VERTEX
  5
448
  8
DATA
 62
     7
 10
448.86410899999993
 20
906.98984099999996
 30
0.0
 42
0.084553
  0
VERTEX
  5
449
  8
DATA
 62
     7
 10
455.2606889999999
 20
910.18284900000003
 30
0.0
 42
0.106397
  0
VERTEX
  5
44A
  8
DATA
 62
     7
 10
459.82134699999989
 20
915.30876199999989
 30
0.0
 42
0.129495
  0
SEQEND
  5
44B
  8
DATA
 62
     7
  0
LINE
  5
90
  8
DIMENSIONS
 62
     7
 10
300.0
 20
700.0
 30
0.0
 11
476.52999999999992
 21
700.0
 31
0.0
  0
LINE
  5
91
  8
DIMENSIONS
 62
     7
 10
456.52999999999992
 20
696.66679999999985
 30
0.0
 11
476.52999999999992
 21
700.0
 31
0.0
  0
LINE
  5
92
  8
DIMENSIONS
 62
     7
 10
456.52999999999992
 20
703.33320000000003
 30
0.0
 11
476.52999999999992
 21
700.0
 31
0.0
  0
ARC
  5
93
  8
DATA
 62
     7
 10
388.26499999999999
 20
-181.571023
 30
0.0
 40
781.57102300000008
 50
83.844836000000015
 51
96.155163999999999
  0
LINE
  5
94
  8
DATA
 62
     7
 10
472.34499
 20
346.49926900000003
 30
0.0
 11
446.26499999999999
 21
342.19066400000003
 31
0.0
  0
LINE
  5
95
  8
DATA
 62
     7
 10
300.0
 20
565.62824000000001
 30
0.0
 11
476.52999999999992
 21
565.62824000000001
 31
0.0
  0
LINE
  5
96
  8
DATA
 62
     7
 10
300.0
 20
351.43240100000003
 30
0.0
 11
300.0
 21
590.52320299999997
 31
0.0
  0
ARC
  5
97
  8
DATA
 62
     7
 10
305.0
 20
590.52320299999997
 30
0.0
 40
5.0
 50
96.155163999999999
 51
180.0
  0
LINE
  5
98
  8
DATA
 62
     7
 10
330.26499999999999
 20
342.19066400000003
 30
0.0
 11
446.26499999999999
 21
342.19066400000003
 31
0.0
  0
LINE
  5
99
  8
DATA
 62
     7
 10
304.18500999999998
 20
346.49926900000003
 30
0.0
 11
330.26499999999999
 21
342.19066400000003
 31
0.0
  0
ARC
  5
9A
  8
DATA
 62
     7
 10
305.0
 20
351.43240100000003
 30
0.0
 40
5.0
 50
180.0
 51
260.61905100000001
  0
LINE
  5
9B
  8
DATA
 62
     7
 10
330.26499999999999
 20
342.19066400000003
 30
0.0
 11
330.26499999999999
 21
393.19066400000003
 31
0.0
  0
ARC
  5
9C
  8
DATA
 62
     7
 10
333.26499999999999
 20
393.19066400000003
 30
0.0
 40
3.0
 50
90.0
 51
180.0
  0
LINE
  5
9D
  8
DATA
 62
     7
 10
446.26499999999999
 20
393.19066400000003
 30
0.0
 11
446.26499999999999
 21
342.19066400000003
 31
0.0
  0
LINE
  5
9E
  8
DATA
 62
     7
 10
333.26499999999999
 20
396.19066400000003
 30
0.0
 11
443.26499999999987
 21
396.19066400000003
 31
0.0
  0
ARC
  5
9F
  8
DATA
 62
     7
 10
443.26499999999987
 20
393.19066400000003
 30
0.0
 40
3.0
 50
0.0
 51
90.0
  0
CIRCLE
  5
A0
  8
DATA
 62
     7
 10
428.76499999999999
 20
386.44816400000002
 30
0.0
 40
4.0
  0
CIRCLE
  5
A1
  8
DATA
 62
     7
 10
428.76499999999999
 20
386.44816400000002
 30
0.0
 40
6.5
  0
CIRCLE
  5
A2
  8
DATA
 62
     7
 10
428.76499999999999
 20
374.44816400000002
 30
0.0
 40
2.5
  0
LINE
  5
A3
  8
DATA
 62
     7
 10
427.76499999999999
 20
374.44816400000002
 30
0.0
 11
429.76499999999987
 21
374.44816400000002
 31
0.0
  0
LINE
  5
A4
  8
DATA
 62
     7
 10
428.76499999999999
 20
373.44816400000002
 30
0.0
 11
428.76499999999999
 21
375.44816400000002
 31
0.0
  0
ARC
  5
A5
  8
DATA
 62
     7
 10
402.73849999999987
 20
380.94766399999997
 30
0.0
 40
7.999511
 50
320.49936000000002
 51
309.76818500000002
  0
CIRCLE
  5
A6
  8
DATA
 62
     7
 10
402.76499999999987
 20
384.94816400000002
 30
0.0
 40
1.0
  0
CIRCLE
  5
A7
  8
DATA
 62
     7
 10
398.76499999999999
 20
380.94816400000002
 30
0.0
 40
1.0
  0
CIRCLE
  5
A8
  8
DATA
 62
     7
 10
406.76499999999987
 20
380.94816400000002
 30
0.0
 40
1.0
  0
ARC
  5
A9
  8
DATA
 62
     7
 10
408.42179999999991
 20
375.290841
 30
0.0
 40
0.7500010000000001
 50
220.986535
 51
49.281009999999988
  0
CIRCLE
  5
AA
  8
DATA
 62
     7
 10
402.76499999999987
 20
380.94816400000002
 30
0.0
 40
11.5
  0
ARC
  5
AB
  8
DATA
 62
     7
 10
402.76499999999987
 20
380.94816400000002
 30
0.0
 40
11.0
 50
297.03569199999998
 51
242.96430799999999
  0
LINE
  5
AC
  8
DATA
 62
     7
 10
397.76499999999999
 20
370.59200700000002
 30
0.0
 11
397.76499999999999
 21
371.15020500000003
 31
0.0
  0
LINE
  5
AD
  8
DATA
 62
     7
 10
407.76499999999999
 20
370.59200700000002
 30
0.0
 11
407.76499999999999
 21
371.15020500000003
 31
0.0
  0
LINE
  5
AE
  8
DATA
 62
     7
 10
356.54887500000001
 20
388.94716399999999
 30
0.0
 11
367.98112500000002
 21
388.94716399999999
 31
0.0
  0
LINE
  5
AF
  8
DATA
 62
     7
 10
367.98112500000002
 20
388.94716399999999
 30
0.0
 11
374.33238299999999
 21
382.59591399999999
 31
0.0
  0
LINE
  5
B0
  8
DATA
 62
     7
 10
374.33238299999999
 20
382.59591399999999
 30
0.0
 11
374.33238299999999
 21
371.16367100000002
 31
0.0
  0
LINE
  5
B1
  8
DATA
 62
     7
 10
374.33238299999999
 20
371.16367100000002
 30
0.0
 11
350.197632
 21
371.16367100000002
 31
0.0
  0
LINE
  5
B2
  8
DATA
 62
     7
 10
350.197632
 20
371.16367100000002
 30
0.0
 11
350.197632
 21
382.59591399999999
 31
0.0
  0
LINE
  5
B3
  8
DATA
 62
     7
 10
350.197632
 20
382.59591399999999
 30
0.0
 11
356.54887500000001
 21
388.94716399999999
 31
0.0
  0
LINE
  5
B4
  8
DATA
 62
     7
 10
354.00837799999999
 20
380.05541799999997
 30
0.0
 11
355.22781400000002
 21
380.05541799999997
 31
0.0
  0
LINE
  5
B5
  8
DATA
 62
     7
 10
355.22781400000002
 20
380.05541799999997
 30
0.0
 11
355.22781400000002
 21
374.97441600000002
 31
0.0
  0
LINE
  5
B6
  8
DATA
 62
     7
 10
355.22781400000002
 20
374.97441600000002
 30
0.0
 11
354.00837799999999
 21
374.97441600000002
 31
0.0
  0
LINE
  5
B7
  8
DATA
 62
     7
 10
354.00837799999999
 20
374.97441600000002
 30
0.0
 11
354.00837799999999
 21
380.05541799999997
 31
0.0
  0
LINE
  5
B8
  8
DATA
 62
     7
 10
361.62988300000001
 20
385.13641899999999
 30
0.0
 11
362.95094399999999
 21
385.13641899999999
 31
0.0
  0
LINE
  5
B9
  8
DATA
 62
     7
 10
362.95094399999999
 20
385.13641899999999
 30
0.0
 11
362.95094399999999
 21
380.111311
 31
0.0
  0
LINE
  5
BA
  8
DATA
 62
     7
 10
362.95094399999999
 20
380.111311
 30
0.0
 11
361.62988300000001
 21
380.111311
 31
0.0
  0
LINE
  5
BB
  8
DATA
 62
     7
 10
361.62988300000001
 20
380.111311
 30
0.0
 11
361.62988300000001
 21
385.13641899999999
 31
0.0
  0
LINE
  5
BC
  8
DATA
 62
     7
 10
369.251374
 20
380.05541799999997
 30
0.0
 11
370.47082599999999
 21
380.05541799999997
 31
0.0
  0
LINE
  5
BD
  8
DATA
 62
     7
 10
370.47082599999999
 20
380.05541799999997
 30
0.0
 11
370.47082599999999
 21
374.97441600000002
 31
0.0
  0
LINE
  5
BE
  8
DATA
 62
     7
 10
370.47082599999999
 20
374.97441600000002
 30
0.0
 11
369.251374
 21
374.97441600000002
 31
0.0
  0
LINE
  5
BF
  8
DATA
 62
     7
 10
369.251374
 20
374.97441600000002
 30
0.0
 11
369.251374
 21
380.05541799999997
 31
0.0
  0
CIRCLE
  5
C0
  8
DATA
 62
     7
 10
411.76499999999999
 20
369.44816400000002
 30
0.0
 40
2.5
  0
LINE
  5
C1
  8
DATA
 62
     7
 10
410.76499999999987
 20
369.44816400000002
 30
0.0
 11
412.76499999999999
 21
369.44816400000002
 31
0.0
  0
LINE
  5
C2
  8
DATA
 62
     7
 10
411.76499999999999
 20
368.44816400000002
 30
0.0
 11
411.76499999999999
 21
370.44816400000002
 31
0.0
  0
CIRCLE
  5
C3
  8
DATA
 62
     7
 10
393.76499999999999
 20
392.44716399999999
 30
0.0
 40
2.5
  0
LINE
  5
C4
  8
DATA
 62
     7
 10
392.76499999999999
 20
392.44716399999999
 30
0.0
 11
394.76499999999999
 21
392.44716399999999
 31
0.0
  0
LINE
  5
C5
  8
DATA
 62
     7
 10
393.76499999999999
 20
391.44716399999999
 30
0.0
 11
393.76499999999999
 21
393.44716399999999
 31
0.0
  0
ARC
  5
C6
  8
DATA
 62
     7
 10
345.26499999999999
 20
374.44716399999999
 30
0.0
 40
5.0
 50
150.802514
 51
209.197486
  0
ARC
  5
C7
  8
DATA
 62
     7
 10
379.26499999999999
 20
374.44716399999999
 30
0.0
 40
5.0
 50
330.80251399999997
 51
29.197486000000001
  0
LINE
  5
C8
  8
DATA
 62
     7
 10
376.35140000000001
 20
389.91062799999997
 30
0.0
 11
383.62971700000003
 21
376.88627100000002
 31
0.0
  0
ARC
  5
C9
  8
DATA
 62
     7
 10
373.73257000000001
 20
388.44716399999999
 30
0.0
 40
3.0
 50
29.197486000000001
 51
90.0
  0
LINE
  5
CA
  8
DATA
 62
     7
 10
350.79743000000002
 20
391.44716399999999
 30
0.0
 11
373.73257000000001
 21
391.44716399999999
 31
0.0
  0
LINE
  5
CB
  8
DATA
 62
     7
 10
340.900283
 20
376.88627100000002
 30
0.0
 11
348.17860000000002
 21
389.91062799999997
 31
0.0
  0
ARC
  5
CC
  8
DATA
 62
     7
 10
350.79743000000002
 20
388.44716399999999
 30
0.0
 40
3.0
 50
90.0
 51
150.802514
  0
LINE
  5
CD
  8
DATA
 62
     7
 10
340.900283
 20
372.00805700000001
 30
0.0
 11
348.17860000000002
 21
358.9837
 31
0.0
  0
ARC
  5
CE
  8
DATA
 62
     7
 10
350.79743000000002
 20
360.44716399999999
 30
0.0
 40
3.0
 50
209.197486
 51
270.0
  0
ARC
  5
CF
  8
DATA
 62
     7
 10
351.26499999999999
 20
361.94716399999999
 30
0.0
 40
3.0
 50
180.0
 51
270.0
  0
LINE
  5
D0
  8
DATA
 62
     7
 10
373.26499999999999
 20
358.94716399999999
 30
0.0
 11
351.26499999999999
 21
358.94716399999999
 31
0.0
  0
ARC
  5
D1
  8
DATA
 62
     7
 10
373.26499999999999
 20
361.94716399999999
 30
0.0
 40
3.0
 50
270.0
 51
0.0
  0
LINE
  5
D2
  8
DATA
 62
     7
 10
376.26499999999999
 20
386.94716399999999
 30
0.0
 11
376.26499999999999
 21
361.94716399999999
 31
0.0
  0
ARC
  5
D3
  8
DATA
 62
     7
 10
373.26499999999999
 20
386.94716399999999
 30
0.0
 40
3.0
 50
0.0
 51
90.0
  0
LINE
  5
D4
  8
DATA
 62
     7
 10
351.26499999999999
 20
389.94716399999999
 30
0.0
 11
373.26499999999999
 21
389.94716399999999
 31
0.0
  0
LINE
  5
D5
  8
DATA
 62
     7
 10
348.26499999999999
 20
361.94716399999999
 30
0.0
 11
348.26499999999999
 21
386.94716399999999
 31
0.0
  0
ARC
  5
D6
  8
DATA
 62
     7
 10
351.26499999999999
 20
386.94716399999999
 30
0.0
 40
3.0
 50
90.0
 51
180.0
  0
LINE
  5
D7
  8
DATA
 62
     7
 10
350.79743000000002
 20
357.44716399999999
 30
0.0
 11
373.73257000000001
 21
357.44716399999999
 31
0.0
  0
LINE
  5
D8
  8
DATA
 62
     7
 10
383.62971700000003
 20
372.00805700000001
 30
0.0
 11
376.35140000000001
 21
358.9837
 31
0.0
  0
ARC
  5
D9
  8
DATA
 62
     7
 10
373.73257000000001
 20
360.44716399999999
 30
0.0
 40
3.0
 50
270.0
 51
330.80251399999997
  0
CIRCLE
  5
DA
  8
DATA
 62
     7
 10
344.26499999999999
 20
374.44716399999999
 30
0.0
 40
3.0
  0
LINE
  5
DB
  8
DATA
 62
     7
 10
344.26499999999999
 20
372.94716399999999
 30
0.0
 11
344.26499999999999
 21
375.94716399999999
 31
0.0
  0
LINE
  5
DC
  8
DATA
 62
     7
 10
342.76499999999999
 20
374.44716399999999
 30
0.0
 11
345.76499999999999
 21
374.44716399999999
 31
0.0
  0
CIRCLE
  5
DD
  8
DATA
 62
     7
 10
380.26499999999999
 20
374.44716399999999
 30
0.0
 40
3.0
  0
LINE
  5
DE
  8
DATA
 62
     7
 10
380.26499999999999
 20
372.94716399999999
 30
0.0
 11
380.26499999999999
 21
375.94716399999999
 31
0.0
  0
LINE
  5
DF
  8
DATA
 62
     7
 10
378.76499999999999
 20
374.44716399999999
 30
0.0
 11
381.76499999999999
 21
374.44716399999999
 31
0.0
  0
POLYLINE
  5
E0
  8
DATA
 62
     7
 66
     1
 10
0.0
 20
0.0
 30
0.0
 70
     1
  0
VERTEX
  5
44C
  8
DATA
 62
     7
 10
351.51499999999999
 20
359.94716399999999
 30
0.0
  0
VERTEX
  5
44D
  8
DATA
 62
     7
 10
351.51499999999999
 20
370.44716399999999
 30
0.0
  0
VERTEX
  5
44E
  8
DATA
 62
     7
 10
373.01499999999999
 20
370.44716399999999
 30
0.0
  0
VERTEX
  5
44F
  8
DATA
 62
     7
 10
373.01499999999999
 20
359.94716399999999
 30
0.0
  0
SEQEND
  5
450
  8
DATA
 62
     7
  0
POLYLINE
  5
E6
  8
DATA
 62
     7
 66
     1
 10
0.0
 20
0.0
 30
0.0
 70
     1
  0
VERTEX
  5
451
  8
DATA
 62
     7
 10
361.01499999999999
 20
362.69716399999999
 30
0.0
  0
VERTEX
  5
452
  8
DATA
 62
     7
 10
361.01499999999999
 20
367.69716399999999
 30
0.0
  0
VERTEX
  5
453
  8
DATA
 62
     7
 10
363.51499999999999
 20
367.69716399999999
 30
0.0
  0
VERTEX
  5
454
  8
DATA
 62
     7
 10
363.51499999999999
 20
362.69716399999999
 30
0.0
  0
SEQEND
  5
455
  8
DATA
 62
     7
  0
TEXT
  5
EC
  8
DATA
 62
     7
 10
361.51499999999999
 20
366.72890100000001
 30
0.0
 40
2.0
  1
115
 50
270.0
 41
0.75
  0
CIRCLE
  5
ED
  8
DATA
 62
     7
 10
428.76499999999999
 20
386.44816400000002
 30
0.0
 40
2.0
  0
LINE
  5
EE
  8
DATA
 62
     7
 10
300.0
 20
996.47800000000007
 30
0.0
 11
300.0
 21
772.0
 31
0.0
  0
POLYLINE
  5
EF
  8
DATA
 62
     7
 66
     1
 10
0.0
 20
0.0
 30
0.0
 70
     1
  0
VERTEX
  5
456
  8
DATA
 62
     7
 10
408.26499999999999
 20
965.78945099999999
 30
0.0
 42
0.110985
  0
VERTEX
  5
457
  8
DATA
 62
     7
 10
406.78668599999992
 20
972.36737599999981
 30
0.0
 42
0.102819
  0
VERTEX
  5
458
  8
DATA
 62
     7
 10
402.40713599999992
 20
978.16381999999987
 30
0.0
 42
0.093047
  0
VERTEX
  5
459
  8
DATA
 62
     7
 10
396.03643499999998
 20
981.92456400000003
 30
0.0
 42
0.087147
  0
VERTEX
  5
45A
  8
DATA
 62
     7
 10
388.26499999999999
 20
983.28945099999999
 30
0.0
 42
0.087147
  0
VERTEX
  5
45B
  8
DATA
 62
     7
 10
380.49356499999999
 20
981.92456400000003
 30
0.0
 42
0.093047
  0
VERTEX
  5
45C
  8
DATA
 62
     7
 10
374.12286399999999
 20
978.16381999999987
 30
0.0
 42
0.102819
  0
VERTEX
  5
45D
  8
DATA
 62
     7
 10
369.743314
 20
972.36737599999981
 30
0.0
 42
0.110985
  0
VERTEX
  5
45E
  8
DATA
 62
     7
 10
368.26499999999999
 20
965.78945099999999
 30
0.0
 42
0.110985
  0
VERTEX
  5
45F
  8
DATA
 62
     7
 10
369.743314
 20
959.21152599999994
 30
0.0
 42
0.102819
  0
VERTEX
  5
460
  8
DATA
 62
     7
 10
374.12286399999999
 20
953.41508199999998
 30
0.0
 42
0.093047
  0
VERTEX
  5
461
  8
DATA
 62
     7
 10
380.49356499999999
 20
949.65433800000005
 30
0.0
 42
0.087147
  0
VERTEX
  5
462
  8
DATA
 62
     7
 10
388.26499999999999
 20
948.28945099999987
 30
0.0
 42
0.087147
  0
VERTEX
  5
463
  8
DATA
 62
     7
 10
396.03643499999998
 20
949.65433800000005
 30
0.0
 42
0.093047
  0
VERTEX
  5
464
  8
DATA
 62
     7
 10
402.40713599999992
 20
953.41508199999998
 30
0.0
 42
0.102819
  0
VERTEX
  5
465
  8
DATA
 62
     7
 10
406.78668599999992
 20
959.21152599999994
 30
0.0
 42
0.110985
  0
SEQEND
  5
466
  8
DATA
 62
     7
  0
POLYLINE
  5
101
  8
DATA
 62
     7
 66
     1
 10
0.0
 20
0.0
 30
0.0
 70
     1
  0
VERTEX
  5
467
  8
DATA
 62
     7
 10
438.26499999999987
 20
965.78945099999999
 30
0.0
 42
0.13438
  0
VERTEX
  5
468
  8
DATA
 62
     7
 10
434.79193299999997
 20
978.47865399999978
 30
0.0
 42
0.106842
  0
VERTEX
  5
469
  8
DATA
 62
     7
 10
423.62033899999989
 20
990.5381880000001
 30
0.0
 42
0.082314
  0
VERTEX
  5
46A
  8
DATA
 62
     7
 10
408.08805799999988
 20
997.97359700000004
 30
0.0
 42
0.07067
  0
VERTEX
  5
46B
  8
DATA
 62
     7
 10
388.26499999999999
 20
1000.789451
 30
0.0
 42
0.07067
  0
VERTEX
  5
46C
  8
DATA
 62
     7
 10
368.44194199999998
 20
997.97359700000004
 30
0.0
 42
0.082314
  0
VERTEX
  5
46D
  8
DATA
 62
     7
 10
352.90966100000003
 20
990.5381880000001
 30
0.0
 42
0.106842
  0
VERTEX
  5
46E
  8
DATA
 62
     7
 10
341.738067
 20
978.47865399999978
 30
0.0
 42
0.13438
  0
VERTEX
  5
46F
  8
DATA
 62
     7
 10
338.26499999999999
 20
965.78945099999999
 30
0.0
 42
0.13438
  0
VERTEX
  5
470
  8
DATA
 62
     7
 10
341.738067
 20
953.10024800000008
 30
0.0
 42
0.106842
  0
VERTEX
  5
471
  8
DATA
 62
     7
 10
352.90966100000003
 20
941.04071400000021
 30
0.0
 42
0.082314
  0
VERTEX
  5
472
  8
DATA
 62
     7
 10
368.44194199999998
 20
933.60530500000004
 30
0.0
 42
0.07067
  0
VERTEX
  5
473
  8
DATA
 62
     7
 10
388.26499999999999
 20
930.78945099999999
 30
0.0
 42
0.07067
  0
VERTEX
  5
474
  8
DATA
 62
     7
 10
408.08805799999988
 20
933.60530500000004
 30
0.0
 42
0.082314
  0
VERTEX
  5
475
  8
DATA
 62
     7
 10
423.62033899999989
 20
941.04071400000021
 30
0.0
 42
0.106842
  0
VERTEX
  5
476
  8
DATA
 62
     7
 10
434.79193299999997
 20
953.10024800000008
 30
0.0
 42
0.13438
  0
SEQEND
  5
477
  8
DATA
 62
     7
  0
ARC
  5
113
  8
DATA
 62
     7
 10
695.76499999999999
 20
965.78945099999999
 30
0.0
 40
306.5
 50
176.73604
 51
183.26396
  0
ARC
  5
114
  8
DATA
 62
     7
 10
80.765000000000015
 20
965.78945099999999
 30
0.0
 40
306.5
 50
356.73604
 51
3.2639599999999991
  0
ARC
  5
115
  8
DATA
 62
     7
 10
388.26499999999999
 20
965.78945099999999
 30
0.0
 40
14.5
 50
95.303453999999988
 51
264.69654600000001
  0
ARC
  5
116
  8
DATA
 62
     7
 10
388.26499999999999
 20
965.78945099999999
 30
0.0
 40
14.5
 50
275.30345399999999
 51
84.696546000000012
  0
LINE
  5
117
  8
DIMENSIONS
 62
     7
 10
250.0
 20
750.0
 30
0.0
 11
250.0
 21
1018.478
 31
0.0
  0
LINE
  5
118
  8
DATA
 62
     7
 10
322.0
 20
750.0
 30
0.0
 11
454.52999999999997
 21
750.0
 31
0.0
  0
ARC
  5
119
  8
DATA
 62
     7
 10
322.0
 20
772.0
 30
0.0
 40
22.0
 50
180.0
 51
270.0
  0
ARC
  5
11A
  8
DATA
 62
     7
 10
322.0
 20
778.10090199999991
 30
0.0
 40
22.0
 50
180.0
 51
270.0
  0
LINE
  5
11B
  8
DATA
 62
     7
 10
322.0
 20
756.10090199999991
 30
0.0
 11
454.52999999999997
 21
756.10090199999991
 31
0.0
  0
CIRCLE
  5
11C
  8
DATA
 62
     7
 10
388.26499999999999
 20
840.78945099999999
 30
0.0
 40
69.5
  0
CIRCLE
  5
11D
  8
DATA
 62
     7
 10
388.26499999999999
 20
840.78945099999999
 30
0.0
 40
21.5
  0
ARC
  5
11E
  8
DATA
 62
     7
 10
388.26499999999999
 20
840.78945099999999
 30
0.0
 40
60.0
 50
278.62692700000002
 51
261.37307299999998
  0
ARC
  5
11F
  8
DATA
 62
     7
 10
388.26499999999999
 20
840.78945099999999
 30
0.0
 40
52.0
 50
279.96676600000001
 51
260.03323399999999
  0
LINE
  5
120
  8
DATA
 62
     7
 10
330.14925399999998
 20
802.67370499999993
 30
0.0
 11
426.38074599999987
 21
898.90519700000004
 31
0.0
  0
LINE
  5
121
  8
DATA
 62
     7
 10
363.37485600000002
 20
775.89930700000002
 30
0.0
 11
453.15514400000001
 21
865.67959499999995
 31
0.0
  0
LINE
  5
122
  8
DATA
 62
     7
 10
334.37609500000002
 20
796.90054599999985
 30
0.0
 11
432.15390500000001
 21
894.67835600000001
 31
0.0
  0
LINE
  5
123
  8
DATA
 62
     7
 10
319.714606
 20
852.239057
 30
0.0
 11
376.81539400000003
 21
909.33984499999997
 31
0.0
  0
LINE
  5
124
  8
DATA
 62
     7
 10
318.76681200000002
 20
841.29126300000007
 30
0.0
 11
387.76318800000001
 21
910.28763900000001
 31
0.0
  0
LINE
  5
125
  8
DATA
 62
     7
 10
356.466229
 20
778.99067999999988
 30
0.0
 11
450.06377099999992
 21
872.58822199999997
 31
0.0
  0
LINE
  5
126
  8
DATA
 62
     7
 10
350.14925399999998
 20
782.67370499999993
 30
0.0
 11
446.38074599999987
 21
878.90519700000004
 31
0.0
  0
LINE
  5
127
  8
DATA
 62
     7
 10
344.37609500000002
 20
786.90054599999985
 30
0.0
 11
442.1539049999999
 21
884.67835600000001
 31
0.0
  0
LINE
  5
128
  8
DATA
 62
     7
 10
339.12107900000001
 20
791.64552999999989
 30
0.0
 11
437.40892100000002
 21
889.93337200000008
 31
0.0
  0
LINE
  5
129
  8
DATA
 62
     7
 10
319.34039300000001
 20
831.86484399999995
 30
0.0
 11
397.18960700000002
 21
909.71405799999991
 31
0.0
  0
LINE
  5
12A
  8
DATA
 62
     7
 10
320.95513099999999
 20
823.47958200000005
 30
0.0
 11
405.57486899999992
 21
908.09931999999992
 31
0.0
  0
LINE
  5
12B
  8
DATA
 62
     7
 10
326.466229
 20
808.99067999999988
 30
0.0
 11
420.06377099999992
 21
902.58822200000009
 31
0.0
  0
LINE
  5
12C
  8
DATA
 62
     7
 10
323.37485600000002
 20
815.89930700000014
 30
0.0
 11
413.15514399999989
 21
905.67959499999995
 31
0.0
  0
LINE
  5
12D
  8
DATA
 62
     7
 10
388.76499999999999
 20
791.28945099999999
 30
0.0
 11
455.57486899999998
 21
858.09931999999992
 31
0.0
  0
LINE
  5
12E
  8
DATA
 62
     7
 10
446.38074599999987
 20
802.67370499999993
 30
0.0
 11
350.14925399999998
 21
898.90519700000004
 31
0.0
  0
LINE
  5
12F
  8
DATA
 62
     7
 10
413.15514399999989
 20
775.89930700000002
 30
0.0
 11
323.37485600000002
 21
865.67959499999995
 31
0.0
  0
LINE
  5
130
  8
DATA
 62
     7
 10
442.1539049999999
 20
796.90054599999985
 30
0.0
 11
344.37609500000002
 21
894.67835600000001
 31
0.0
  0
LINE
  5
131
  8
DATA
 62
     7
 10
456.81539400000003
 20
852.239057
 30
0.0
 11
399.714606
 21
909.33984499999997
 31
0.0
  0
LINE
  5
132
  8
DATA
 62
     7
 10
457.76318800000001
 20
841.29126300000007
 30
0.0
 11
388.76681200000002
 21
910.28763900000001
 31
0.0
  0
LINE
  5
133
  8
DATA
 62
     7
 10
420.06377099999992
 20
778.99067999999988
 30
0.0
 11
326.466229
 21
872.58822199999997
 31
0.0
  0
LINE
  5
134
  8
DATA
 62
     7
 10
426.38074599999987
 20
782.67370499999993
 30
0.0
 11
330.14925399999998
 21
878.90519700000004
 31
0.0
  0
LINE
  5
135
  8
DATA
 62
     7
 10
432.15390500000001
 20
786.90054599999985
 30
0.0
 11
334.37609500000002
 21
884.67835600000001
 31
0.0
  0
LINE
  5
136
  8
DATA
 62
     7
 10
437.40892100000002
 20
791.64552999999989
 30
0.0
 11
339.12107900000001
 21
889.93337200000008
 31
0.0
  0
LINE
  5
137
  8
DATA
 62
     7
 10
457.18960700000002
 20
831.86484399999995
 30
0.0
 11
379.34039300000001
 21
909.71405799999991
 31
0.0
  0
LINE
  5
138
  8
DATA
 62
     7
 10
455.57486899999998
 20
823.47958200000005
 30
0.0
 11
370.95513099999999
 21
908.09931999999992
 31
0.0
  0
LINE
  5
139
  8
DATA
 62
     7
 10
450.06377099999992
 20
808.99067999999988
 30
0.0
 11
356.466229
 21
902.58822200000009
 31
0.0
  0
LINE
  5
13A
  8
DATA
 62
     7
 10
453.15514400000001
 20
815.89930700000014
 30
0.0
 11
363.37485600000002
 21
905.67959499999995
 31
0.0
  0
LINE
  5
13B
  8
DATA
 62
     7
 10
387.76499999999999
 20
791.28945099999999
 30
0.0
 11
320.95513099999999
 21
858.09931999999992
 31
0.0
  0
CIRCLE
  5
13C
  8
DATA
 62
     7
 10
448.26499999999987
 20
770.78945099999999
 30
0.0
 40
9.5
  0
ARC
  5
13D
  8
DATA
 62
     7
 10
407.8865659999999
 20
794.10195099999999
 30
0.0
 40
45.625
 50
318.24350099999998
 51
341.75649900000002
  0
ARC
  5
13E
  8
DATA
 62
     7
 10
488.64343400000001
 20
747.47695099999987
 30
0.0
 40
45.625
 50
138.24350100000001
 51
161.75649899999999
  0
CIRCLE
  5
13F
  8
DATA
 62
     7
 10
328.26499999999999
 20
770.78945099999999
 30
0.0
 40
11.0
  0
CIRCLE
  5
140
  8
DATA
 62
     7
 10
328.26499999999999
 20
770.78945099999999
 30
0.0
 40
8.5
  0
CIRCLE
  5
141
  8
DATA
 62
     7
 10
328.26499999999999
 20
769.78945099999999
 30
0.0
 40
7.5
  0
CIRCLE
  5
142
  8
DATA
 62
     7
 10
328.26499999999999
 20
775.78945099999987
 30
0.0
 40
0.75
  0
ARC
  5
143
  8
DATA
 62
     7
 10
449.76499999999999
 20
787.28945099999999
 30
0.0
 40
1.5
 50
90.0
 51
270.0
  0
LINE
  5
144
  8
DATA
 62
     7
 10
449.76499999999999
 20
785.78945099999999
 30
0.0
 11
458.76499999999999
 21
785.78945099999999
 31
0.0
  0
LINE
  5
145
  8
DATA
 62
     7
 10
449.76499999999999
 20
788.78945099999987
 30
0.0
 11
458.76499999999999
 21
788.78945099999987
 31
0.0
  0
LINE
  5
146
  8
DATA
 62
     7
 10
379.26499999999999
 20
791.28945099999999
 30
0.0
 11
397.26499999999999
 21
791.28945099999999
 31
0.0
  0
LINE
  5
147
  8
DATA
 62
     7
 10
379.26499999999999
 20
773.28945099999999
 30
0.0
 11
397.26499999999999
 21
773.28945099999999
 31
0.0
  0
LINE
  5
148
  8
DATA
 62
     7
 10
379.26499999999999
 20
776.28945099999987
 30
0.0
 11
397.26499999999999
 21
776.28945099999987
 31
0.0
  0
LINE
  5
149
  8
DATA
 62
     7
 10
379.26499999999999
 20
775.78945099999987
 30
0.0
 11
397.26499999999999
 21
775.78945099999987
 31
0.0
  0
LINE
  5
14A
  8
DATA
 62
     7
 10
384.01961299999999
 20
784.70273499999985
 30
0.0
 11
384.916292
 21
786.83926599999995
 31
0.0
  0
LINE
  5
14B
  8
DATA
 62
     7
 10
384.01961299999999
 20
784.70273499999985
 30
0.0
 11
383.134004
 21
786.83926599999995
 31
0.0
  0
LINE
  5
14C
  8
DATA
 62
     7
 10
390.81666100000001
 20
780.83926599999995
 30
0.0
 11
390.81666100000001
 21
786.83926599999995
 31
0.0
  0
LINE
  5
14D
  8
DATA
 62
     7
 10
391.96795200000003
 20
786.83926599999995
 30
0.0
 11
391.96795200000003
 21
781.75808600000005
 31
0.0
  0
LINE
  5
14E
  8
DATA
 62
     7
 10
385.33695599999999
 20
786.83926599999995
 30
0.0
 11
385.33695599999999
 21
781.75808600000005
 31
0.0
  0
LINE
  5
14F
  8
DATA
 62
     7
 10
386.44396699999999
 20
786.83926599999995
 30
0.0
 11
386.44396699999999
 21
781.75808600000005
 31
0.0
  0
LINE
  5
150
  8
DATA
 62
     7
 10
387.01961299999999
 20
786.83926599999995
 30
0.0
 11
387.01961299999999
 21
780.83926599999995
 31
0.0
  0
LINE
  5
151
  8
DATA
 62
     7
 10
388.026993
 20
786.27469099999985
 30
0.0
 11
388.026993
 21
784.34849199999985
 31
0.0
  0
LINE
  5
152
  8
DATA
 62
     7
 10
390.18566399999997
 20
784.45919299999991
 30
0.0
 11
390.18566399999997
 21
785.87616700000001
 31
0.0
  0
LINE
  5
153
  8
DATA
 62
     7
 10
389.12293399999999
 20
786.00900799999988
 30
0.0
 11
389.12293399999999
 21
784.63631399999997
 31
0.0
  0
ARC
  5
154
  8
DATA
 62
     7
 10
385.11481300000003
 20
782.37994100000003
 30
0.0
 40
1.5473129999999991
 50
264.690922
 51
323.99125800000002
  0
LINE
  5
155
  8
DATA
 62
     7
 10
384.49562700000001
 20
782.72118499999999
 30
0.0
 11
384.49562700000001
 21
781.75808600000005
 31
0.0
  0
LINE
  5
156
  8
DATA
 62
     7
 10
384.49562700000001
 20
782.72118499999999
 30
0.0
 11
383.49931700000002
 21
782.72118499999999
 31
0.0
  0
LINE
  5
157
  8
DATA
 62
     7
 10
383.49931700000002
 20
782.72118499999999
 30
0.0
 11
383.49931700000002
 21
781.75808600000005
 31
0.0
  0
ARC
  5
158
  8
DATA
 62
     7
 10
384.91839800000002
 20
781.74510499999985
 30
0.0
 40
0.4187590000000001
 50
269.711814
 51
1.776303999999999
  0
ARC
  5
159
  8
DATA
 62
     7
 10
384.91418499999997
 20
781.74510499999985
 30
0.0
 40
0.4187590000000001
 50
178.22369599999999
 51
270.288186
  0
ARC
  5
15A
  8
DATA
 62
     7
 10
384.82847099999998
 20
782.37994100000003
 30
0.0
 40
1.5473129999999991
 50
216.0087419999999
 51
275.309078
  0
ARC
  5
15B
  8
DATA
 62
     7
 10
384.19857999999999
 20
781.79200600000001
 30
0.0
 40
0.7000840000000002
 50
182.77713900000001
 51
207.359837
  0
CIRCLE
  5
15C
  8
DATA
 62
     7
 10
384.08049799999998
 20
783.87247699999989
 30
0.0
 40
0.5701109999999999
  0
LINE
  5
15D
  8
DATA
 62
     7
 10
393.81666100000001
 20
780.83926599999995
 30
0.0
 11
390.81666100000001
 21
780.83926599999995
 31
0.0
  0
LINE
  5
15E
  8
DATA
 62
     7
 10
393.81666100000001
 20
780.83926599999995
 30
0.0
 11
393.81666100000001
 21
782.72118499999999
 31
0.0
  0
LINE
  5
15F
  8
DATA
 62
     7
 10
393.81666100000001
 20
782.72118499999999
 30
0.0
 11
392.80928
 21
782.72118499999999
 31
0.0
  0
LINE
  5
160
  8
DATA
 62
     7
 10
392.80928
 20
782.72118499999999
 30
0.0
 11
392.80928
 21
781.75808600000005
 31
0.0
  0
LINE
  5
161
  8
DATA
 62
     7
 10
387.01961299999999
 20
780.83926599999995
 30
0.0
 11
389.134004
 21
780.83926599999995
 31
0.0
  0
LINE
  5
162
  8
DATA
 62
     7
 10
388.026993
 20
781.40384199999994
 30
0.0
 11
388.56942800000002
 21
781.40384199999994
 31
0.0
  0
LINE
  5
163
  8
DATA
 62
     7
 10
388.026993
 20
781.40384199999994
 30
0.0
 11
388.026993
 21
783.77284599999996
 31
0.0
  0
LINE
  5
164
  8
DATA
 62
     7
 10
388.026993
 20
783.77284599999996
 30
0.0
 11
388.56942800000002
 21
783.77284599999996
 31
0.0
  0
LINE
  5
165
  8
DATA
 62
     7
 10
389.12293399999999
 20
781.66952500000002
 30
0.0
 11
389.12293399999999
 21
783.48502299999996
 31
0.0
  0
ARC
  5
166
  8
DATA
 62
     7
 10
385.74470400000001
 20
781.79200600000001
 30
0.0
 40
0.7000840000000002
 50
332.64016299999997
 51
357.22286100000002
  0
ARC
  5
167
  8
DATA
 62
     7
 10
392.39072299999998
 20
781.74510499999985
 30
0.0
 40
0.4187590000000001
 50
269.711814
 51
1.776303999999999
  0
ARC
  5
168
  8
DATA
 62
     7
 10
392.38650999999999
 20
781.74510499999985
 30
0.0
 40
0.4187590000000001
 50
178.22369599999999
 51
270.288186
  0
LINE
  5
169
  8
DATA
 62
     7
 10
390.18566399999997
 20
781.80236600000001
 30
0.0
 11
390.18566399999997
 21
783.37432200000001
 31
0.0
  0
LINE
  5
16A
  8
DATA
 62
     7
 10
388.026993
 20
784.34849199999985
 30
0.0
 11
388.56942800000002
 21
784.34849199999985
 31
0.0
  0
ARC
  5
16B
  8
DATA
 62
     7
 10
389.59398099999999
 20
783.357213
 30
0.0
 40
0.5819380000000001
 50
3.8672739999999992
 51
88.361689999999996
  0
ARC
  5
16C
  8
DATA
 62
     7
 10
389.59344499999997
 20
784.52117199999986
 30
0.0
 40
0.5825130000000001
 50
271.68941599999999
 51
356.07833299999999
  0
ARC
  5
16D
  8
DATA
 62
     7
 10
389.04665899999998
 20
781.97828700000002
 30
0.0
 40
1.141572
 50
273.83108900000002
 51
351.13515899999999
  0
POLYLINE
  5
16E
  8
DATA
 62
     7
 66
     1
 10
0.0
 20
0.0
 30
0.0
  0
VERTEX
  5
478
  8
DATA
 62
     7
 10
388.56942800000002
 20
784.34849199999985
 30
0.0
 42
0.053087
  0
VERTEX
  5
479
  8
DATA
 62
     7
 10
388.79288100000002
 20
784.37228400000004
 30
0.0
 42
0.066942
  0
VERTEX
  5
47A
  8
DATA
 62
     7
 10
388.96081600000002
 20
784.43279299999995
 30
0.0
 42
0.105042
  0
VERTEX
  5
47B
  8
DATA
 62
     7
 10
389.088551
 20
784.53796799999986
 30
0.0
 42
0.169764
  0
VERTEX
  5
47C
  8
DATA
 62
     7
 10
389.12293399999999
 20
784.63631399999997
 30
0.0
 42
0.169764
  0
SEQEND
  5
47D
  8
DATA
 62
     7
  0
POLYLINE
  5
175
  8
DATA
 62
     7
 66
     1
 10
0.0
 20
0.0
 30
0.0
  0
VERTEX
  5
47E
  8
DATA
 62
     7
 10
389.12293399999999
 20
783.48502299999996
 30
0.0
 42
0.169764
  0
VERTEX
  5
47F
  8
DATA
 62
     7
 10
389.088551
 20
783.58336900000006
 30
0.0
 42
0.105042
  0
VERTEX
  5
480
  8
DATA
 62
     7
 10
388.96081600000002
 20
783.68854400000009
 30
0.0
 42
0.066942
  0
VERTEX
  5
481
  8
DATA
 62
     7
 10
388.79288100000002
 20
783.749054
 30
0.0
 42
0.053087
  0
VERTEX
  5
482
  8
DATA
 62
     7
 10
388.56942800000002
 20
783.77284599999996
 30
0.0
 42
0.053087
  0
SEQEND
  5
483
  8
DATA
 62
     7
  0
POLYLINE
  5
17C
  8
DATA
 62
     7
 66
     1
 10
0.0
 20
0.0
 30
0.0
  0
VERTEX
  5
484
  8
DATA
 62
     7
 10
388.56942800000002
 20
781.40384199999994
 30
0.0
 42
0.049105
  0
VERTEX
  5
485
  8
DATA
 62
     7
 10
388.79367400000001
 20
781.42591900000002
 30
0.0
 42
0.062897
  0
VERTEX
  5
486
  8
DATA
 62
     7
 10
388.96081600000002
 20
781.48165900000004
 30
0.0
 42
0.103193
  0
VERTEX
  5
487
  8
DATA
 62
     7
 10
389.08977299999998
 20
781.58034099999998
 30
0.0
 42
0.179894
  0
VERTEX
  5
488
  8
DATA
 62
     7
 10
389.12293399999999
 20
781.66952500000002
 30
0.0
 42
0.179894
  0
SEQEND
  5
489
  8
DATA
 62
     7
  0
LINE
  5
183
  8
DATA
 62
     7
 10
385.33695599999999
 20
786.83926599999995
 30
0.0
 11
386.44396699999999
 21
786.83926599999995
 31
0.0
  0
LINE
  5
184
  8
DATA
 62
     7
 10
383.134004
 20
786.83926599999995
 30
0.0
 11
384.916292
 21
786.83926599999995
 31
0.0
  0
LINE
  5
185
  8
DATA
 62
     7
 10
390.81666100000001
 20
786.83926599999995
 30
0.0
 11
391.96795200000003
 21
786.83926599999995
 31
0.0
  0
LINE
  5
186
  8
DATA
 62
     7
 10
387.01961299999999
 20
786.83926599999995
 30
0.0
 11
389.134004
 21
786.83926599999995
 31
0.0
  0
LINE
  5
187
  8
DATA
 62
     7
 10
388.026993
 20
786.27469099999985
 30
0.0
 11
388.56942800000002
 21
786.27469099999985
 31
0.0
  0
ARC
  5
188
  8
DATA
 62
     7
 10
389.04648300000002
 20
785.7019919999999
 30
0.0
 40
1.139840999999999
 50
8.2269240000000003
 51
86.154223000000002
  0
POLYLINE
  5
189
  8
DATA
 62
     7
 66
     1
 10
0.0
 20
0.0
 30
0.0
  0
VERTEX
  5
48A
  8
DATA
 62
     7
 10
389.12293399999999
 20
786.00900799999988
 30
0.0
 42
0.179894
  0
VERTEX
  5
48B
  8
DATA
 62
     7
 10
389.08977299999998
 20
786.09819200000004
 30
0.0
 42
0.103193
  0
VERTEX
  5
48C
  8
DATA
 62
     7
 10
388.96081600000002
 20
786.19687399999998
 30
0.0
 42
0.062897
  0
VERTEX
  5
48D
  8
DATA
 62
     7
 10
388.79367400000001
 20
786.25261399999988
 30
0.0
 42
0.049105
  0
VERTEX
  5
48E
  8
DATA
 62
     7
 10
388.56942800000002
 20
786.27469099999985
 30
0.0
 42
0.049105
  0
SEQEND
  5
48F
  8
DATA
 62
     7
  0
LINE
  5
190
  8
DATA
 62
     7
 10
379.26499999999999
 20
773.28945099999999
 30
0.0
 11
379.26499999999999
 21
791.28945099999999
 31
0.0
  0
LINE
  5
191
  8
DATA
 62
     7
 10
397.26499999999999
 20
773.28945099999999
 30
0.0
 11
397.26499999999999
 21
791.28945099999999
 31
0.0
  0
LINE
  5
192
  8
DATA
 62
     7
 10
370.95513099999999
 20
773.47958200000005
 30
0.0
 11
379.26499999999999
 21
781.78945099999999
 31
0.0
  0
LINE
  5
193
  8
DATA
 62
     7
 10
397.26499999999999
 20
789.78945099999999
 30
0.0
 11
457.18960700000002
 21
849.71405799999991
 31
0.0
  0
LINE
  5
194
  8
DATA
 62
     7
 10
397.26499999999999
 20
779.78945099999987
 30
0.0
 11
457.76318800000001
 21
840.2876389999999
 31
0.0
  0
LINE
  5
195
  8
DATA
 62
     7
 10
399.714606
 20
772.23905699999989
 30
0.0
 11
456.81539400000003
 21
829.33984499999985
 31
0.0
  0
LINE
  5
196
  8
DATA
 62
     7
 10
413.51341799999989
 20
776.037869
 30
0.0
 11
453.01658200000003
 21
815.54103299999997
 31
0.0
  0
LINE
  5
197
  8
DATA
 62
     7
 10
405.57486899999992
 20
773.47958200000005
 30
0.0
 11
397.26499999999999
 21
781.78945099999999
 31
0.0
  0
LINE
  5
198
  8
DATA
 62
     7
 10
379.26499999999999
 20
789.78945099999999
 30
0.0
 11
319.34039300000001
 21
849.71405799999991
 31
0.0
  0
LINE
  5
199
  8
DATA
 62
     7
 10
379.26499999999999
 20
779.78945099999987
 30
0.0
 11
318.76681200000002
 21
840.2876389999999
 31
0.0
  0
LINE
  5
19A
  8
DATA
 62
     7
 10
376.81539400000003
 20
772.23905699999989
 30
0.0
 11
319.714606
 21
829.33984499999985
 31
0.0
  0
LINE
  5
19B
  8
DATA
 62
     7
 10
363.01658200000003
 20
776.037869
 30
0.0
 11
323.513418
 21
815.54103299999997
 31
0.0
  0
POLYLINE
  5
19C
  8
DATA
 62
     7
 66
     1
 10
0.0
 20
0.0
 30
0.0
 70
     1
  0
VERTEX
  5
490
  8
DATA
 62
     7
 10
352.26499999999999
 20
920.78945099999999
 30
0.0
 42
0.134864
  0
VERTEX
  5
491
  8
DATA
 62
     7
 10
351.120473
 20
924.95552099999998
 30
0.0
 42
0.106875
  0
VERTEX
  5
492
  8
DATA
 62
     7
 10
347.43226200000009
 20
928.92117899999994
 30
0.0
 42
0.082093
  0
VERTEX
  5
493
  8
DATA
 62
     7
 10
342.30876699999999
 20
931.3637779999998
 30
0.0
 42
0.070379
  0
VERTEX
  5
494
  8
DATA
 62
     7
 10
335.76499999999999
 20
932.28945099999987
 30
0.0
 42
0.070379
  0
VERTEX
  5
495
  8
DATA
 62
     7
 10
329.22123299999998
 20
931.3637779999998
 30
0.0
 42
0.082093
  0
VERTEX
  5
496
  8
DATA
 62
     7
 10
324.09773799999999
 20
928.92117899999994
 30
0.0
 42
0.106875
  0
VERTEX
  5
497
  8
DATA
 62
     7
 10
320.40952700000003
 20
924.95552099999998
 30
0.0
 42
0.134864
  0
VERTEX
  5
498
  8
DATA
 62
     7
 10
319.26499999999999
 20
920.78945099999999
 30
0.0
 42
0.134864
  0
VERTEX
  5
499
  8
DATA
 62
     7
 10
320.40952700000003
 20
916.62338100000011
 30
0.0
 42
0.106875
  0
VERTEX
  5
49A
  8
DATA
 62
     7
 10
324.09773799999999
 20
912.65772300000003
 30
0.0
 42
0.082093
  0
VERTEX
  5
49B
  8
DATA
 62
     7
 10
329.22123299999998
 20
910.21512400000006
 30
0.0
 42
0.070379
  0
VERTEX
  5
49C
  8
DATA
 62
     7
 10
335.76499999999999
 20
909.28945099999999
 30
0.0
 42
0.070379
  0
VERTEX
  5
49D
  8
DATA
 62
     7
 10
342.30876699999999
 20
910.21512400000006
 30
0.0
 42
0.082093
  0
VERTEX
  5
49E
  8
DATA
 62
     7
 10
347.43226200000009
 20
912.65772300000003
 30
0.0
 42
0.106875
  0
VERTEX
  5
49F
  8
DATA
 62
     7
 10
351.120473
 20
916.62338100000011
 30
0.0
 42
0.134864
  0
SEQEND
  5
4A0
  8
DATA
 62
     7
  0
POLYLINE
  5
1AE
  8
DATA
 62
     7
 66
     1
 10
0.0
 20
0.0
 30
0.0
 70
     1
  0
VERTEX
  5
4A1
  8
DATA
 62
     7
 10
356.26499999999999
 20
920.78945099999999
 30
0.0
 42
0.129495
  0
VERTEX
  5
4A2
  8
DATA
 62
     7
 10
354.821347
 20
926.27013999999997
 30
0.0
 42
0.106397
  0
VERTEX
  5
4A3
  8
DATA
 62
     7
 10
350.26068900000001
 20
931.39605299999994
 30
0.0
 42
0.084553
  0
VERTEX
  5
4A4
  8
DATA
 62
     7
 10
343.86410899999998
 20
934.5890609999999
 30
0.0
 42
0.073704
  0
VERTEX
  5
4A5
  8
DATA
 62
     7
 10
335.76499999999999
 20
935.78945099999987
 30
0.0
 42
0.073704
  0
VERTEX
  5
4A6
  8
DATA
 62
     7
 10
327.66589099999999
 20
934.5890609999999
 30
0.0
 42
0.084553
  0
VERTEX
  5
4A7
  8
DATA
 62
     7
 10
321.26931100000002
 20
931.39605299999994
 30
0.0
 42
0.106397
  0
VERTEX
  5
4A8
  8
DATA
 62
     7
 10
316.70865300000003
 20
926.27013999999997
 30
0.0
 42
0.129495
  0
VERTEX
  5
4A9
  8
DATA
 62
     7
 10
315.26499999999999
 20
920.78945099999999
 30
0.0
 42
0.129495
  0
VERTEX
  5
4AA
  8
DATA
 62
     7
 10
316.70865300000003
 20
915.30876199999989
 30
0.0
 42
0.106397
  0
VERTEX
  5
4AB
  8
DATA
 62
     7
 10
321.26931100000002
 20
910.18284900000003
 30
0.0
 42
0.084553
  0
VERTEX
  5
4AC
  8
DATA
 62
     7
 10
327.66589099999999
 20
906.98984099999996
 30
0.0
 42
0.073704
  0
VERTEX
  5
4AD
  8
DATA
 62
     7
 10
335.76499999999999
 20
905.78945099999999
 30
0.0
 42
0.073704
  0
VERTEX
  5
4AE
  8
DATA
 62
     7
 10
343.86410899999998
 20
906.98984099999996
 30
0.0
 42
0.084553
  0
VERTEX
  5
4AF
  8
DATA
 62
     7
 10
350.26068900000001
 20
910.18284900000003
 30
0.0
 42
0.106397
  0
VERTEX
  5
4B0
  8
DATA
 62
     7
 10
354.821347
 20
915.30876199999989
 30
0.0
 42
0.129495
  0
SEQEND
  5
4B1
  8
DATA
 62
     7
  0
POLYLINE
  5
1C0
  8
DATA
 62
     7
 66
     1
 10
0.0
 20
0.0
 30
0.0
 70
     1
  0
VERTEX
  5
4B2
  8
DATA
 62
     7
 10
457.26499999999999
 20
920.78945099999999
 30
0.0
 42
0.134864
  0
VERTEX
  5
4B3
  8
DATA
 62
     7
 10
456.120473
 20
924.95552099999998
 30
0.0
 42
0.106875
  0
VERTEX
  5
4B4
  8
DATA
 62
     7
 10
452.43226199999998
 20
928.92117899999994
 30
0.0
 42
0.082093
  0
VERTEX
  5
4B5
  8
DATA
 62
     7
 10
447.30876699999988
 20
931.3637779999998
 30
0.0
 42
0.070379
  0
VERTEX
  5
4B6
  8
DATA
 62
     7
 10
440.76499999999999
 20
932.28945099999987
 30
0.0
 42
0.070379
  0
VERTEX
  5
4B7
  8
DATA
 62
     7
 10
434.22123299999993
 20
931.3637779999998
 30
0.0
 42
0.082093
  0
VERTEX
  5
4B8
  8
DATA
 62
     7
 10
429.09773799999999
 20
928.92117899999994
 30
0.0
 42
0.106875
  0
VERTEX
  5
4B9
  8
DATA
 62
     7
 10
425.40952699999991
 20
924.95552099999998
 30
0.0
 42
0.134864
  0
VERTEX
  5
4BA
  8
DATA
 62
     7
 10
424.26499999999999
 20
920.78945099999999
 30
0.0
 42
0.134864
  0
VERTEX
  5
4BB
  8
DATA
 62
     7
 10
425.40952699999991
 20
916.62338100000011
 30
0.0
 42
0.106875
  0
VERTEX
  5
4BC
  8
DATA
 62
     7
 10
429.09773799999999
 20
912.65772300000003
 30
0.0
 42
0.082093
  0
VERTEX
  5
4BD
  8
DATA
 62
     7
 10
434.22123299999993
 20
910.21512400000006
 30
0.0
 42
0.070379
  0
VERTEX
  5
4BE
  8
DATA
 62
     7
 10
440.76499999999999
 20
909.28945099999999
 30
0.0
 42
0.070379
  0
VERTEX
  5
4BF
  8
DATA
 62
     7
 10
447.30876699999988
 20
910.21512400000006
 30
0.0
 42
0.082093
  0
VERTEX
  5
4C0
  8
DATA
 62
     7
 10
452.43226199999998
 20
912.65772300000003
 30
0.0
 42
0.106875
  0
VERTEX
  5
4C1
  8
DATA
 62
     7
 10
456.120473
 20
916.62338100000011
 30
0.0
 42
0.134864
  0
SEQEND
  5
4C2
  8
DATA
 62
     7
  0
LINE
  5
1D2
  8
DATA
 62
     7
 10
323.513418
 20
866.03786899999989
 30
0.0
 11
363.01658200000003
 21
905.54103299999986
 31
0.0
  0
LINE
  5
1D3
  8
DATA
 62
     7
 10
453.01658200000003
 20
866.03786899999989
 30
0.0
 11
413.51341799999989
 21
905.54103299999986
 31
0.0
  0
LINE
  5
1D4
  8
DIMENSIONS
 62
     7
 10
312.0
 20
750.0
 30
0.0
 11
237.5
 21
750.0
 31
0.0
  0
LINE
  5
1D5
  8
DIMENSIONS
 62
     7
 10
253.33320000000001
 20
770.0
 30
0.0
 11
250.0
 21
750.0
 31
0.0
  0
LINE
  5
1D6
  8
DIMENSIONS
 62
     7
 10
246.66679999999999
 20
770.0
 30
0.0
 11
250.0
 21
750.0
 31
0.0
  0
LINE
  5
1D7
  8
DIMENSIONS
 62
     7
 10
300.0
 20
762.0
 30
0.0
 11
300.0
 21
687.5
 31
0.0
  0
LINE
  5
1D8
  8
DIMENSIONS
 62
     7
 10
320.0
 20
696.66679999999985
 30
0.0
 11
300.0
 21
700.0
 31
0.0
  0
LINE
  5
1D9
  8
DIMENSIONS
 62
     7
 10
320.0
 20
703.33320000000003
 30
0.0
 11
300.0
 21
700.0
 31
0.0
  0
ARC
  5
1DA
  8
DATA
 62
     7
 10
322.0
 20
996.47800000000007
 30
0.0
 40
22.0
 50
90.0
 51
180.0
  0
LINE
  5
1DB
  8
DATA
 62
     7
 10
322.0
 20
1018.478
 30
0.0
 11
454.52999999999997
 21
1018.478
 31
0.0
  0
LINE
  5
1DC
  8
DIMENSIONS
 62
     7
 10
312.0
 20
1018.478
 30
0.0
 11
237.5
 21
1018.478
 31
0.0
  0
LINE
  5
1DD
  8
DIMENSIONS
 62
     7
 10
253.33320000000001
 20
998.47799999999995
 30
0.0
 11
250.0
 21
1018.478
 31
0.0
  0
LINE
  5
1DE
  8
DIMENSIONS
 62
     7
 10
246.66679999999999
 20
998.47799999999995
 30
0.0
 11
250.0
 21
1018.478
 31
0.0
  0
TEXT
  5
1DF
  8
DIMENSIONS
 62
     7
 10
237.5
 20
848.71716899999979
 30
0.0
 40
25.0
  1
268.5
 50
90.0
 41
0.75
  0
TEXT
  5
1E0
  8
DIMENSIONS
 62
     7
 10
352.74316900000002
 20
712.5
 30
0.0
 40
25.0
  1
176.5
 41
0.75
  0
LINE
  5
1E1
  8
DATA
 62
     7
 10
300.0
 20
1109.476797
 30
0.0
 11
300.0
 21
1348.567599
 31
0.0
  0
LINE
  5
1E2
  8
DIMENSIONS
 62
     7
 10
250.0
 20
1100.0
 30
0.0
 11
250.0
 21
1357.809336
 31
0.0
  0
LINE
  5
1E3
  8
DIMENSIONS
 62
     7
 10
253.33320000000001
 20
1337.809336
 30
0.0
 11
250.0
 21
1357.809336
 31
0.0
  0
LINE
  5
1E4
  8
DIMENSIONS
 62
     7
 10
246.66679999999999
 20
1337.809336
 30
0.0
 11
250.0
 21
1357.809336
 31
0.0
  0
ARC
  5
1E5
  8
DATA
 62
     7
 10
305.0
 20
1132.2036439999999
 30
0.0
 40
5.0
 50
180.0
 51
263.84483599999999
  0
ARC
  5
1E6
  8
DATA
 62
     7
 10
305.0
 20
1109.476797
 30
0.0
 40
5.0
 50
180.0
 51
263.84483599999999
  0
LINE
  5
1E7
  8
DIMENSIONS
 62
     7
 10
378.26499999999999
 20
1100.0
 30
0.0
 11
237.5
 21
1100.0
 31
0.0
  0
LINE
  5
1E8
  8
DIMENSIONS
 62
     7
 10
253.33320000000001
 20
1120.0
 30
0.0
 11
250.0
 21
1100.0
 31
0.0
  0
LINE
  5
1E9
  8
DIMENSIONS
 62
     7
 10
246.66679999999999
 20
1120.0
 30
0.0
 11
250.0
 21
1100.0
 31
0.0
  0
LINE
  5
1EA
  8
DATA
 62
     7
 10
330.26499999999999
 20
1357.809336
 30
0.0
 11
446.26499999999999
 21
1357.809336
 31
0.0
  0
LINE
  5
1EB
  8
DATA
 62
     7
 10
304.18500999999998
 20
1353.5007310000001
 30
0.0
 11
330.26499999999999
 21
1357.809336
 31
0.0
  0
ARC
  5
1EC
  8
DATA
 62
     7
 10
305.0
 20
1348.567599
 30
0.0
 40
5.0
 50
99.380949000000015
 51
180.0
  0
LINE
  5
1ED
  8
DATA
 62
     7
 10
330.26499999999999
 20
1350.059336
 30
0.0
 11
330.26499999999999
 21
1357.809336
 31
0.0
  0
ARC
  5
1EE
  8
DATA
 62
     7
 10
333.51499999999999
 20
1350.059336
 30
0.0
 40
3.25
 50
180.0
 51
0.0
  0
LINE
  5
1EF
  8
DATA
 62
     7
 10
341.21499999999997
 20
1350.059336
 30
0.0
 11
341.21499999999997
 21
1357.809336
 31
0.0
  0
LINE
  5
1F0
  8
DATA
 62
     7
 10
336.76499999999999
 20
1350.059336
 30
0.0
 11
336.76499999999999
 21
1357.809336
 31
0.0
  0
LINE
  5
1F1
  8
DATA
 62
     7
 10
347.71499999999997
 20
1350.059336
 30
0.0
 11
347.71499999999997
 21
1357.809336
 31
0.0
  0
ARC
  5
1F2
  8
DATA
 62
     7
 10
344.46499999999997
 20
1350.059336
 30
0.0
 40
3.25
 50
180.0
 51
0.0
  0
LINE
  5
1F3
  8
DATA
 62
     7
 10
352.16500000000002
 20
1350.059336
 30
0.0
 11
352.16500000000002
 21
1357.809336
 31
0.0
  0
LINE
  5
1F4
  8
DATA
 62
     7
 10
358.66500000000002
 20
1350.059336
 30
0.0
 11
358.66500000000002
 21
1357.809336
 31
0.0
  0
ARC
  5
1F5
  8
DATA
 62
     7
 10
355.41500000000002
 20
1350.059336
 30
0.0
 40
3.25
 50
180.0
 51
0.0
  0
LINE
  5
1F6
  8
DATA
 62
     7
 10
363.11500000000001
 20
1350.059336
 30
0.0
 11
363.11500000000001
 21
1357.809336
 31
0.0
  0
LINE
  5
1F7
  8
DATA
 62
     7
 10
369.61500000000001
 20
1350.059336
 30
0.0
 11
369.61500000000001
 21
1357.809336
 31
0.0
  0
ARC
  5
1F8
  8
DATA
 62
     7
 10
366.36500000000001
 20
1350.059336
 30
0.0
 40
3.25
 50
180.0
 51
0.0
  0
LINE
  5
1F9
  8
DATA
 62
     7
 10
374.065
 20
1350.059336
 30
0.0
 11
374.065
 21
1357.809336
 31
0.0
  0
LINE
  5
1FA
  8
DATA
 62
     7
 10
380.565
 20
1350.059336
 30
0.0
 11
380.565
 21
1357.809336
 31
0.0
  0
ARC
  5
1FB
  8
DATA
 62
     7
 10
377.315
 20
1350.059336
 30
0.0
 40
3.25
 50
180.0
 51
0.0
  0
LINE
  5
1FC
  8
DATA
 62
     7
 10
385.01499999999999
 20
1350.059336
 30
0.0
 11
385.01499999999999
 21
1357.809336
 31
0.0
  0
LINE
  5
1FD
  8
DATA
 62
     7
 10
391.51499999999999
 20
1350.059336
 30
0.0
 11
391.51499999999999
 21
1357.809336
 31
0.0
  0
ARC
  5
1FE
  8
DATA
 62
     7
 10
388.26499999999999
 20
1350.059336
 30
0.0
 40
3.25
 50
180.0
 51
0.0
  0
LINE
  5
1FF
  8
DATA
 62
     7
 10
395.96499999999997
 20
1350.059336
 30
0.0
 11
395.96499999999997
 21
1357.809336
 31
0.0
  0
LINE
  5
200
  8
DATA
 62
     7
 10
402.46499999999992
 20
1350.059336
 30
0.0
 11
402.46499999999992
 21
1357.809336
 31
0.0
  0
ARC
  5
201
  8
DATA
 62
     7
 10
399.21499999999997
 20
1350.059336
 30
0.0
 40
3.25
 50
180.0
 51
0.0
  0
LINE
  5
202
  8
DATA
 62
     7
 10
406.91500000000002
 20
1350.059336
 30
0.0
 11
406.91500000000002
 21
1357.809336
 31
0.0
  0
LINE
  5
203
  8
DATA
 62
     7
 10
413.41499999999991
 20
1350.059336
 30
0.0
 11
413.41499999999991
 21
1357.809336
 31
0.0
  0
ARC
  5
204
  8
DATA
 62
     7
 10
410.16500000000002
 20
1350.059336
 30
0.0
 40
3.25
 50
180.0
 51
0.0
  0
LINE
  5
205
  8
DATA
 62
     7
 10
417.86500000000001
 20
1350.059336
 30
0.0
 11
417.86500000000001
 21
1357.809336
 31
0.0
  0
LINE
  5
206
  8
DATA
 62
     7
 10
424.36500000000001
 20
1350.059336
 30
0.0
 11
424.36500000000001
 21
1357.809336
 31
0.0
  0
ARC
  5
207
  8
DATA
 62
     7
 10
421.1149999999999
 20
1350.059336
 30
0.0
 40
3.25
 50
180.0
 51
0.0
  0
LINE
  5
208
  8
DATA
 62
     7
 10
428.81499999999988
 20
1350.059336
 30
0.0
 11
428.81499999999988
 21
1357.809336
 31
0.0
  0
LINE
  5
209
  8
DATA
 62
     7
 10
435.315
 20
1350.059336
 30
0.0
 11
435.315
 21
1357.809336
 31
0.0
  0
ARC
  5
20A
  8
DATA
 62
     7
 10
432.06499999999988
 20
1350.059336
 30
0.0
 40
3.25
 50
180.0
 51
0.0
  0
LINE
  5
20B
  8
DATA
 62
     7
 10
439.76499999999987
 20
1350.059336
 30
0.0
 11
439.76499999999987
 21
1357.809336
 31
0.0
  0
ARC
  5
20C
  8
DATA
 62
     7
 10
443.01499999999999
 20
1350.059336
 30
0.0
 40
3.25
 50
180.0
 51
0.0
  0
LINE
  5
20D
  8
DATA
 62
     7
 10
446.26499999999999
 20
1350.059336
 30
0.0
 11
446.26499999999999
 21
1357.809336
 31
0.0
  0
LINE
  5
20E
  8
DIMENSIONS
 62
     7
 10
320.26499999999999
 20
1357.809336
 30
0.0
 11
237.5
 21
1357.809336
 31
0.0
  0
TEXT
  5
20F
  8
DIMENSIONS
 62
     7
 10
237.5
 20
1193.3828370000001
 30
0.0
 40
25.0
  1
257.8
 50
90.0
 41
0.75
  0
LINE
  5
210
  8
DATA
 62
     7
 10
476.52999999999992
 20
351.43240100000003
 30
0.0
 11
476.52999999999992
 21
590.52320299999997
 31
0.0
  0
ARC
  5
211
  8
DATA
 62
     7
 10
471.52999999999997
 20
590.52320299999997
 30
0.0
 40
5.0
 50
0.0
 51
83.844836000000015
  0
ARC
  5
212
  8
DATA
 62
     7
 10
471.52999999999997
 20
351.43240100000003
 30
0.0
 40
5.0
 50
279.3809490000001
 51
0.0
  0
TEXT
  5
213
  8
DIMENSIONS
 62
     7
 10
850.0
 20
275.0
 30
0.0
 40
25.0
  1
(単位 : mm)
 41
0.75
  0
LINE
  5
214
  8
DATA
 62
     7
 10
584.37175999999988
 20
750.0
 30
0.0
 11
794.49957199999994
 21
750.0
 31
0.0
  0
LINE
  5
215
  8
DATA
 62
     7
 10
607.86054100000001
 20
1018.478
 30
0.0
 11
803.33197900000005
 21
997.93312400000002
 31
0.0
  0
LINE
  5
216
  8
DATA
 62
     7
 10
476.52999999999992
 20
772.0
 30
0.0
 11
476.52999999999992
 21
996.47800000000007
 31
0.0
  0
LINE
  5
217
  8
DATA
 62
     7
 10
584.37175999999988
 20
750.0
 30
0.0
 11
607.86054100000001
 21
1018.478
 31
0.0
  0
LINE
  5
218
  8
DATA
 62
     7
 10
550.01141600000005
 20
758.83943499999987
 30
0.0
 11
572.487256
 21
1015.739467
 31
0.0
  0
ARC
  5
219
  8
DATA
 62
     7
 10
553.0
 20
758.57796799999994
 30
0.0
 40
3.0
 50
175.0
 51
260.0
  0
LINE
  5
21A
  8
DATA
 62
     7
 10
552.47905500000002
 20
755.62354400000004
 30
0.0
 11
584.37175999999988
 21
750.0
 31
0.0
  0
LINE
  5
21B
  8
DIMENSIONS
 62
     7
 10
476.52999999999992
 20
762.0
 30
0.0
 11
476.52999999999992
 21
687.5
 31
0.0
  0
LINE
  5
21C
  8
DATA
 62
     7
 10
575.47584099999995
 20
1018.478
 30
0.0
 11
607.86054100000001
 21
1018.478
 31
0.0
  0
ARC
  5
21D
  8
DATA
 62
     7
 10
575.47584099999995
 20
1015.478
 30
0.0
 40
3.0
 50
90.0
 51
175.0
  0
LINE
  5
21E
  8
DATA
 62
     7
 10
476.52999999999992
 20
1109.476797
 30
0.0
 11
476.52999999999992
 21
1348.567599
 31
0.0
  0
ARC
  5
21F
  8
DATA
 62
     7
 10
471.52999999999997
 20
1132.2036439999999
 30
0.0
 40
5.0
 50
276.15516400000001
 51
0.0
  0
ARC
  5
220
  8
DATA
 62
     7
 10
471.52999999999997
 20
1109.476797
 30
0.0
 40
5.0
 50
276.15516400000001
 51
0.0
  0
ARC
  5
221
  8
DATA
 62
     7
 10
471.52999999999997
 20
1348.567599
 30
0.0
 40
5.0
 50
0.0
 51
80.619050999999999
  0
LINE
  5
222
  8
DATA
 62
     7
 10
799.49652600000002
 20
754.82550299999991
 30
0.0
 11
807.80628999999999
 21
992.78601700000002
 31
0.0
  0
ARC
  5
223
  8
DATA
 62
     7
 10
794.49957199999994
 20
755.0
 30
0.0
 40
5.0
 50
270.0
 51
358.0
  0
ARC
  5
224
  8
DATA
 62
     7
 10
802.80933599999992
 20
992.96051499999999
 30
0.0
 40
5.0
 50
358.0
 51
84.0
  0
LINE
  5
225
  8
DATA
 62
     7
 10
850.0
 20
772.0
 30
0.0
 11
850.0
 21
996.47800000000007
 31
0.0
  0
LINE
  5
226
  8
DATA
 62
     7
 10
913.1149999999999
 20
892.0
 30
0.0
 11
913.1149999999999
 21
997.44575199999986
 31
0.0
  0
LINE
  5
227
  8
DATA
 62
     7
 10
908.66499999999996
 20
892.0
 30
0.0
 11
908.66499999999996
 21
997.44575199999986
 31
0.0
  0
LINE
  5
228
  8
DATA
 62
     7
 10
902.16499999999985
 20
997.44575199999986
 30
0.0
 11
902.16499999999985
 21
892.0
 31
0.0
  0
LINE
  5
229
  8
DATA
 62
     7
 10
897.71499999999992
 20
997.44575199999986
 30
0.0
 11
897.71499999999992
 21
892.0
 31
0.0
  0
LINE
  5
22A
  8
DATA
 62
     7
 10
891.21500000000003
 20
892.0
 30
0.0
 11
891.21500000000003
 21
997.44575199999986
 31
0.0
  0
LINE
  5
22B
  8
DATA
 62
     7
 10
978.81499999999994
 20
892.0
 30
0.0
 11
978.81499999999994
 21
997.44575199999986
 31
0.0
  0
LINE
  5
22C
  8
DATA
 62
     7
 10
974.36500000000001
 20
892.0
 30
0.0
 11
974.36500000000001
 21
997.44575199999986
 31
0.0
  0
LINE
  5
22D
  8
DATA
 62
     7
 10
967.86500000000012
 20
997.44575199999986
 30
0.0
 11
967.86500000000012
 21
892.0
 31
0.0
  0
LINE
  5
22E
  8
DATA
 62
     7
 10
963.41499999999985
 20
892.0
 30
0.0
 11
963.41499999999985
 21
997.44575199999986
 31
0.0
  0
LINE
  5
22F
  8
DATA
 62
     7
 10
952.46500000000015
 20
957.0
 30
0.0
 11
952.46500000000015
 21
997.44575199999986
 31
0.0
  0
LINE
  5
230
  8
DATA
 62
     7
 10
941.51499999999999
 20
957.0
 30
0.0
 11
941.51499999999999
 21
997.44575199999986
 31
0.0
  0
LINE
  5
231
  8
DATA
 62
     7
 10
935.01499999999987
 20
957.0
 30
0.0
 11
935.01499999999987
 21
997.44575199999986
 31
0.0
  0
LINE
  5
232
  8
DATA
 62
     7
 10
930.56499999999994
 20
957.0
 30
0.0
 11
930.56499999999994
 21
997.44575199999986
 31
0.0
  0
LINE
  5
233
  8
DATA
 62
     7
 10
945.96499999999992
 20
957.0
 30
0.0
 11
945.96499999999992
 21
997.44575199999986
 31
0.0
  0
LINE
  5
234
  8
DATA
 62
     7
 10
924.06500000000005
 20
957.0
 30
0.0
 11
924.06500000000005
 21
997.44575199999986
 31
0.0
  0
LINE
  5
235
  8
DATA
 62
     7
 10
919.61500000000012
 20
892.0
 30
0.0
 11
919.61500000000012
 21
997.44575199999986
 31
0.0
  0
LINE
  5
236
  8
DATA
 62
     7
 10
956.91499999999996
 20
892.0
 30
0.0
 11
956.91499999999996
 21
997.44575199999986
 31
0.0
  0
CIRCLE
  5
237
  8
DATA
 62
     7
 10
870.76499999999987
 20
979.0
 30
0.0
 40
7.0
  0
LINE
  5
238
  8
DATA
 62
     7
 10
880.26499999999987
 20
997.44575199999986
 30
0.0
 11
880.26499999999987
 21
964.49999999999989
 31
0.0
  0
LINE
  5
239
  8
DATA
 62
     7
 10
886.76499999999987
 20
997.44575199999986
 30
0.0
 11
886.76499999999987
 21
964.49999999999989
 31
0.0
  0
ARC
  5
23A
  8
DATA
 62
     7
 10
872.0
 20
772.0
 30
0.0
 40
22.0
 50
180.0
 51
270.0
  0
LINE
  5
23B
  8
DATA
 62
     7
 10
952.46500000000015
 20
892.0
 30
0.0
 11
952.46500000000015
 21
927.5
 31
0.0
  0
LINE
  5
23C
  8
DATA
 62
     7
 10
941.51499999999999
 20
892.0
 30
0.0
 11
941.51499999999999
 21
927.5
 31
0.0
  0
LINE
  5
23D
  8
DATA
 62
     7
 10
935.01499999999987
 20
892.0
 30
0.0
 11
935.01499999999987
 21
927.5
 31
0.0
  0
LINE
  5
23E
  8
DATA
 62
     7
 10
930.56499999999994
 20
892.0
 30
0.0
 11
930.56499999999994
 21
927.5
 31
0.0
  0
LINE
  5
23F
  8
DATA
 62
     7
 10
945.96499999999992
 20
892.0
 30
0.0
 11
945.96499999999992
 21
927.5
 31
0.0
  0
LINE
  5
240
  8
DATA
 62
     7
 10
924.06500000000005
 20
892.0
 30
0.0
 11
924.06500000000005
 21
927.5
 31
0.0
  0
LINE
  5
241
  8
DATA
 62
     7
 10
919.61500000000012
 20
957.0
 30
0.0
 11
956.91499999999996
 21
957.0
 31
0.0
  0
LINE
  5
242
  8
DATA
 62
     7
 10
919.61500000000012
 20
927.5
 30
0.0
 11
956.91499999999996
 21
927.5
 31
0.0
  0
LINE
  5
243
  8
DATA
 62
     7
 10
929.42044299999998
 20
944.15267500000004
 30
0.0
 11
931.28852399999994
 21
948.60378199999991
 31
0.0
  0
LINE
  5
244
  8
DATA
 62
     7
 10
929.42044299999998
 20
944.15267500000004
 30
0.0
 11
927.57542399999988
 21
948.60378199999991
 31
0.0
  0
LINE
  5
245
  8
DATA
 62
     7
 10
943.58095899999989
 20
936.10378199999991
 30
0.0
 11
943.58095899999989
 21
948.60378199999991
 31
0.0
  0
LINE
  5
246
  8
DATA
 62
     7
 10
945.97948299999985
 20
948.60378199999991
 30
0.0
 11
945.97948299999985
 21
938.01798899999994
 31
0.0
  0
LINE
  5
247
  8
DATA
 62
     7
 10
932.16490799999997
 20
948.60378199999991
 30
0.0
 11
932.16490799999997
 21
938.01798899999994
 31
0.0
  0
LINE
  5
248
  8
DATA
 62
     7
 10
934.47118099999989
 20
948.60378199999991
 30
0.0
 11
934.47118099999989
 21
938.01798899999994
 31
0.0
  0
LINE
  5
249
  8
DATA
 62
     7
 10
935.67044299999998
 20
948.60378199999991
 30
0.0
 11
935.67044299999998
 21
936.10378199999991
 31
0.0
  0
LINE
  5
24A
  8
DATA
 62
     7
 10
937.76915099999997
 20
947.42758299999991
 30
0.0
 11
937.76915099999997
 21
943.41466799999989
 31
0.0
  0
LINE
  5
24B
  8
DATA
 62
     7
 10
942.26638400000002
 20
943.64529499999992
 30
0.0
 11
942.26638400000002
 21
946.59732499999996
 31
0.0
  0
LINE
  5
24C
  8
DATA
 62
     7
 10
940.0523619999999
 20
946.87407700000006
 30
0.0
 11
940.0523619999999
 21
944.01429900000005
 31
0.0
  0
ARC
  5
24D
  8
DATA
 62
     7
 10
931.70210999999995
 20
939.31352200000015
 30
0.0
 40
3.2235680000000002
 50
264.690922
 51
323.99125800000002
  0
LINE
  5
24E
  8
DATA
 62
     7
 10
930.41213999999991
 20
940.02444600000013
 30
0.0
 11
930.41213999999991
 21
938.01798899999994
 31
0.0
  0
LINE
  5
24F
  8
DATA
 62
     7
 10
930.41213999999991
 20
940.02444600000013
 30
0.0
 11
928.33649399999979
 21
940.02444600000013
 31
0.0
  0
LINE
  5
250
  8
DATA
 62
     7
 10
928.33649399999979
 20
940.02444600000013
 30
0.0
 11
928.33649399999979
 21
938.01798899999994
 31
0.0
  0
ARC
  5
251
  8
DATA
 62
     7
 10
931.292913
 20
937.99094600000024
 30
0.0
 40
0.8724149999999999
 50
269.711814
 51
1.776303999999999
  0
ARC
  5
252
  8
DATA
 62
     7
 10
931.28413499999988
 20
937.99094600000024
 30
0.0
 40
0.8724149999999999
 50
178.22369599999999
 51
270.288186
  0
ARC
  5
253
  8
DATA
 62
     7
 10
931.10556499999996
 20
939.31352200000015
 30
0.0
 40
3.2235680000000002
 50
216.0087419999999
 51
275.309078
  0
ARC
  5
254
  8
DATA
 62
     7
 10
929.79329099999995
 20
938.08865500000013
 30
0.0
 40
1.458507999999999
 50
182.77713900000001
 51
207.359837
  0
CIRCLE
  5
255
  8
DATA
 62
     7
 10
929.54728800000009
 20
942.42296999999985
 30
0.0
 40
1.187730999999999
  0
LINE
  5
256
  8
DATA
 62
     7
 10
949.83095899999989
 20
936.10378199999991
 30
0.0
 11
943.58095899999989
 21
936.10378199999991
 31
0.0
  0
LINE
  5
257
  8
DATA
 62
     7
 10
949.83095899999989
 20
936.10378199999991
 30
0.0
 11
949.83095899999989
 21
940.02444600000013
 31
0.0
  0
LINE
  5
258
  8
DATA
 62
     7
 10
949.83095899999989
 20
940.02444600000013
 30
0.0
 11
947.73225100000002
 21
940.02444600000013
 31
0.0
  0
LINE
  5
259
  8
DATA
 62
     7
 10
947.73225100000002
 20
940.02444600000013
 30
0.0
 11
947.73225100000002
 21
938.01798899999994
 31
0.0
  0
LINE
  5
25A
  8
DATA
 62
     7
 10
935.67044299999998
 20
936.10378199999991
 30
0.0
 11
940.07542399999988
 21
936.10378199999991
 31
0.0
  0
LINE
  5
25B
  8
DATA
 62
     7
 10
937.76915099999997
 20
937.27998200000002
 30
0.0
 11
938.89922499999989
 21
937.27998200000002
 31
0.0
  0
LINE
  5
25C
  8
DATA
 62
     7
 10
937.76915099999997
 20
937.27998200000002
 30
0.0
 11
937.76915099999997
 21
942.21540600000003
 31
0.0
  0
LINE
  5
25D
  8
DATA
 62
     7
 10
937.76915099999997
 20
942.21540600000003
 30
0.0
 11
938.89922499999989
 21
942.21540600000003
 31
0.0
  0
LINE
  5
25E
  8
DATA
 62
     7
 10
940.0523619999999
 20
937.83348699999988
 30
0.0
 11
940.0523619999999
 21
941.61577499999987
 31
0.0
  0
ARC
  5
25F
  8
DATA
 62
     7
 10
933.01438399999995
 20
938.08865500000013
 30
0.0
 40
1.458507999999999
 50
332.64016299999997
 51
357.22286100000002
  0
ARC
  5
260
  8
DATA
 62
     7
 10
946.86025600000005
 20
937.99094600000024
 30
0.0
 40
0.8724149999999999
 50
269.711814
 51
1.776303999999999
  0
ARC
  5
261
  8
DATA
 62
     7
 10
946.85147799999993
 20
937.99094600000024
 30
0.0
 40
0.8724149999999999
 50
178.22369599999999
 51
270.288186
  0
LINE
  5
262
  8
DATA
 62
     7
 10
942.26638400000002
 20
938.11024000000009
 30
0.0
 11
942.26638400000002
 21
941.38514800000007
 31
0.0
  0
LINE
  5
263
  8
DATA
 62
     7
 10
937.76915099999997
 20
943.41466799999989
 30
0.0
 11
938.89922499999989
 21
943.41466799999989
 31
0.0
  0
ARC
  5
264
  8
DATA
 62
     7
 10
941.03371099999981
 20
941.34950399999991
 30
0.0
 40
1.212370999999999
 50
3.8672739999999992
 51
88.361689999999996
  0
ARC
  5
265
  8
DATA
 62
     7
 10
941.03259499999979
 20
943.77441899999997
 30
0.0
 40
1.2135679999999991
 50
271.68941599999999
 51
356.07833299999999
  0
ARC
  5
266
  8
DATA
 62
     7
 10
939.8934569999999
 20
938.47674099999995
 30
0.0
 40
2.378274999999999
 50
273.83108900000002
 51
351.13515899999999
  0
POLYLINE
  5
267
  8
DATA
 62
     7
 66
     1
 10
0.0
 20
0.0
 30
0.0
  0
VERTEX
  5
4C3
  8
DATA
 62
     7
 10
938.89922499999989
 20
943.41466799999989
 30
0.0
 42
0.053087
  0
VERTEX
  5
4C4
  8
DATA
 62
     7
 10
939.36475299999995
 20
943.4642349999998
 30
0.0
 42
0.066942
  0
VERTEX
  5
4C5
  8
DATA
 62
     7
 10
939.71461599999998
 20
943.59029600000008
 30
0.0
 42
0.105042
  0
VERTEX
  5
4C6
  8
DATA
 62
     7
 10
939.98073199999999
 20
943.80941099999995
 30
0.0
 42
0.169764
  0
VERTEX
  5
4C7
  8
DATA
 62
     7
 10
940.0523619999999
 20
944.01429900000005
 30
0.0
 42
0.169764
  0
SEQEND
  5
4C8
  8
DATA
 62
     7
  0
POLYLINE
  5
26E
  8
DATA
 62
     7
 66
     1
 10
0.0
 20
0.0
 30
0.0
  0
VERTEX
  5
4C9
  8
DATA
 62
     7
 10
940.0523619999999
 20
941.61577499999987
 30
0.0
 42
0.169764
  0
VERTEX
  5
4CA
  8
DATA
 62
     7
 10
939.98073199999999
 20
941.82066299999997
 30
0.0
 42
0.105042
  0
VERTEX
  5
4CB
  8
DATA
 62
     7
 10
939.71461599999998
 20
942.03977799999996
 30
0.0
 42
0.066942
  0
VERTEX
  5
4CC
  8
DATA
 62
     7
 10
939.36475299999995
 20
942.16583900000012
 30
0.0
 42
0.053087
  0
VERTEX
  5
4CD
  8
DATA
 62
     7
 10
938.89922499999989
 20
942.21540600000003
 30
0.0
 42
0.053087
  0
SEQEND
  5
4CE
  8
DATA
 62
     7
  0
POLYLINE
  5
275
  8
DATA
 62
     7
 66
     1
 10
0.0
 20
0.0
 30
0.0
  0
VERTEX
  5
4CF
  8
DATA
 62
     7
 10
938.89922499999989
 20
937.27998200000002
 30
0.0
 42
0.049105
  0
VERTEX
  5
4D0
  8
DATA
 62
     7
 10
939.36640299999976
 20
937.32597399999986
 30
0.0
 42
0.062897
  0
VERTEX
  5
4D1
  8
DATA
 62
     7
 10
939.71461599999998
 20
937.44209999999987
 30
0.0
 42
0.103193
  0
VERTEX
  5
4D2
  8
DATA
 62
     7
 10
939.98327699999993
 20
937.64768800000024
 30
0.0
 42
0.179894
  0
VERTEX
  5
4D3
  8
DATA
 62
     7
 10
940.0523619999999
 20
937.83348699999988
 30
0.0
 42
0.179894
  0
SEQEND
  5
4D4
  8
DATA
 62
     7
  0
LINE
  5
27C
  8
DATA
 62
     7
 10
932.16490799999997
 20
948.60378199999991
 30
0.0
 11
934.47118099999989
 21
948.60378199999991
 31
0.0
  0
LINE
  5
27D
  8
DATA
 62
     7
 10
927.57542399999988
 20
948.60378199999991
 30
0.0
 11
931.28852399999994
 21
948.60378199999991
 31
0.0
  0
LINE
  5
27E
  8
DATA
 62
     7
 10
943.58095899999989
 20
948.60378199999991
 30
0.0
 11
945.97948299999985
 21
948.60378199999991
 31
0.0
  0
LINE
  5
27F
  8
DATA
 62
     7
 10
935.67044299999998
 20
948.60378199999991
 30
0.0
 11
940.07542399999988
 21
948.60378199999991
 31
0.0
  0
LINE
  5
280
  8
DATA
 62
     7
 10
937.76915099999997
 20
947.42758299999991
 30
0.0
 11
938.89922499999989
 21
947.42758299999991
 31
0.0
  0
ARC
  5
281
  8
DATA
 62
     7
 10
939.89308999999992
 20
946.2344599999999
 30
0.0
 40
2.3746679999999998
 50
8.2269240000000003
 51
86.154223000000002
  0
POLYLINE
  5
282
  8
DATA
 62
     7
 66
     1
 10
0.0
 20
0.0
 30
0.0
  0
VERTEX
  5
4D5
  8
DATA
 62
     7
 10
940.0523619999999
 20
946.87407700000006
 30
0.0
 42
0.179894
  0
VERTEX
  5
4D6
  8
DATA
 62
     7
 10
939.98327699999993
 20
947.0598769999998
 30
0.0
 42
0.103193
  0
VERTEX
  5
4D7
  8
DATA
 62
     7
 10
939.71461599999998
 20
947.26546499999995
 30
0.0
 42
0.062897
  0
VERTEX
  5
4D8
  8
DATA
 62
     7
 10
939.36640299999976
 20
947.38159000000007
 30
0.0
 42
0.049105
  0
VERTEX
  5
4D9
  8
DATA
 62
     7
 10
938.89922499999989
 20
947.42758299999991
 30
0.0
 42
0.049105
  0
SEQEND
  5
4DA
  8
DATA
 62
     7
  0
LINE
  5
289
  8
DATA
 62
     7
 10
880.26499999999987
 20
949.0
 30
0.0
 11
886.76499999999987
 21
949.0
 31
0.0
  0
LINE
  5
28A
  8
DATA
 62
     7
 10
880.26499999999987
 20
914.0
 30
0.0
 11
886.76499999999987
 21
914.0
 31
0.0
  0
LINE
  5
28B
  8
DATA
 62
     7
 10
880.26499999999987
 20
898.49999999999989
 30
0.0
 11
886.76499999999987
 21
898.49999999999989
 31
0.0
  0
LINE
  5
28C
  8
DATA
 62
     7
 10
880.26499999999987
 20
964.49999999999989
 30
0.0
 11
886.76499999999987
 21
964.49999999999989
 31
0.0
  0
LINE
  5
28D
  8
DATA
 62
     7
 10
880.26499999999987
 20
820.5
 30
0.0
 11
880.26499999999987
 21
750.0
 31
0.0
  0
ARC
  5
28E
  8
DATA
 62
     7
 10
887.76499999999999
 20
820.5
 30
0.0
 40
7.5
 50
90.0
 51
180.0
  0
LINE
  5
28F
  8
DATA
 62
     7
 10
881.26499999999987
 20
831.0
 30
0.0
 11
881.26499999999987
 21
891.5
 31
0.0
  0
LINE
  5
290
  8
DATA
 62
     7
 10
880.26499999999987
 20
898.49999999999989
 30
0.0
 11
880.26499999999987
 21
892.0
 31
0.0
  0
LINE
  5
291
  8
DATA
 62
     7
 10
886.76499999999987
 20
898.49999999999989
 30
0.0
 11
886.76499999999987
 21
892.0
 31
0.0
  0
LINE
  5
292
  8
DATA
 62
     7
 10
880.26499999999987
 20
949.0
 30
0.0
 11
880.26499999999987
 21
914.0
 31
0.0
  0
LINE
  5
293
  8
DATA
 62
     7
 10
886.76499999999987
 20
949.0
 30
0.0
 11
886.76499999999987
 21
914.0
 31
0.0
  0
LINE
  5
294
  8
DATA
 62
     7
 10
902.16499999999985
 20
869.0
 30
0.0
 11
916.16499999999985
 21
869.0
 31
0.0
  0
LINE
  5
295
  8
DATA
 62
     7
 10
902.16499999999985
 20
881.49999999999989
 30
0.0
 11
916.16499999999985
 21
881.49999999999989
 31
0.0
  0
LINE
  5
296
  8
DATA
 62
     7
 10
916.16499999999985
 20
869.0
 30
0.0
 11
916.16499999999985
 21
881.49999999999989
 31
0.0
  0
LINE
  5
297
  8
DATA
 62
     7
 10
902.16499999999985
 20
869.0
 30
0.0
 11
902.16499999999985
 21
881.49999999999989
 31
0.0
  0
TEXT
  5
298
  8
DATA
 62
     7
 10
883.76499999999999
 20
881.0
 30
0.0
 40
2.5
  1
WARNING:
 41
0.75
  0
TEXT
  5
299
  8
DATA
 62
     7
 10
883.76499999999999
 20
868.5
 30
0.0
 40
2.0
  1
Instructions,
 41
0.75
  0
TEXT
  5
29A
  8
DATA
 62
     7
 10
883.76499999999999
 20
871.0
 30
0.0
 40
2.0
  1
Safety
 41
0.75
  0
TEXT
  5
29B
  8
DATA
 62
     7
 10
883.76499999999999
 20
873.49999999999989
 30
0.0
 40
2.0
  1
Set-Up And
 41
0.75
  0
TEXT
  5
29C
  8
DATA
 62
     7
 10
883.76499999999999
 20
876.0
 30
0.0
 40
2.0
  1
Manual For
 41
0.75
  0
TEXT
  5
29D
  8
DATA
 62
     7
 10
883.76499999999999
 20
878.5
 30
0.0
 40
2.0
  1
See Owners
 41
0.75
  0
LINE
  5
29E
  8
DATA
 62
     7
 10
906.16499999999996
 20
872.75
 30
0.0
 11
904.66499999999985
 21
872.75
 31
0.0
  0
LINE
  5
29F
  8
DATA
 62
     7
 10
908.66499999999996
 20
872.75
 30
0.0
 11
907.16499999999985
 21
872.75
 31
0.0
  0
LINE
  5
2A0
  8
DATA
 62
     7
 10
911.16499999999985
 20
872.75
 30
0.0
 11
909.66499999999996
 21
872.75
 31
0.0
  0
LINE
  5
2A1
  8
DATA
 62
     7
 10
913.66499999999985
 20
872.75
 30
0.0
 11
912.16499999999996
 21
872.75
 31
0.0
  0
LINE
  5
2A2
  8
DATA
 62
     7
 10
906.16499999999996
 20
874.24999999999989
 30
0.0
 11
904.66499999999985
 21
874.24999999999989
 31
0.0
  0
LINE
  5
2A3
  8
DATA
 62
     7
 10
908.66499999999996
 20
874.24999999999989
 30
0.0
 11
907.16499999999985
 21
874.24999999999989
 31
0.0
  0
LINE
  5
2A4
  8
DATA
 62
     7
 10
911.16499999999985
 20
874.24999999999989
 30
0.0
 11
909.66499999999996
 21
874.24999999999989
 31
0.0
  0
LINE
  5
2A5
  8
DATA
 62
     7
 10
913.66499999999985
 20
874.24999999999989
 30
0.0
 11
912.16499999999996
 21
874.24999999999989
 31
0.0
  0
LINE
  5
2A6
  8
DATA
 62
     7
 10
904.66499999999985
 20
877.74999999999989
 30
0.0
 11
906.16499999999996
 21
877.74999999999989
 31
0.0
  0
LINE
  5
2A7
  8
DATA
 62
     7
 10
907.16499999999985
 20
877.74999999999989
 30
0.0
 11
908.66499999999996
 21
877.74999999999989
 31
0.0
  0
LINE
  5
2A8
  8
DATA
 62
     7
 10
909.66499999999996
 20
877.74999999999989
 30
0.0
 11
911.16499999999985
 21
877.74999999999989
 31
0.0
  0
LINE
  5
2A9
  8
DATA
 62
     7
 10
912.16499999999996
 20
877.74999999999989
 30
0.0
 11
913.66499999999985
 21
877.74999999999989
 31
0.0
  0
LINE
  5
2AA
  8
DATA
 62
     7
 10
904.66499999999985
 20
872.75
 30
0.0
 11
904.66499999999985
 21
877.74999999999989
 31
0.0
  0
LINE
  5
2AB
  8
DATA
 62
     7
 10
906.16499999999996
 20
872.75
 30
0.0
 11
906.16499999999996
 21
877.74999999999989
 31
0.0
  0
LINE
  5
2AC
  8
DATA
 62
     7
 10
907.16499999999985
 20
872.75
 30
0.0
 11
907.16499999999985
 21
877.74999999999989
 31
0.0
  0
LINE
  5
2AD
  8
DATA
 62
     7
 10
908.66499999999996
 20
872.75
 30
0.0
 11
908.66499999999996
 21
877.74999999999989
 31
0.0
  0
LINE
  5
2AE
  8
DATA
 62
     7
 10
913.66499999999985
 20
872.75
 30
0.0
 11
913.66499999999985
 21
877.74999999999989
 31
0.0
  0
LINE
  5
2AF
  8
DATA
 62
     7
 10
912.16499999999996
 20
872.75
 30
0.0
 11
912.16499999999996
 21
877.74999999999989
 31
0.0
  0
LINE
  5
2B0
  8
DATA
 62
     7
 10
909.66499999999996
 20
877.74999999999989
 30
0.0
 11
909.66499999999996
 21
872.75
 31
0.0
  0
LINE
  5
2B1
  8
DATA
 62
     7
 10
911.16499999999985
 20
872.75
 30
0.0
 11
911.16499999999985
 21
877.74999999999989
 31
0.0
  0
TEXT
  5
2B2
  8
DATA
 62
     7
 10
904.91499999999985
 20
883.5
 30
0.0
 40
2.5
  1
1
 41
0.75
  0
TEXT
  5
2B3
  8
DATA
 62
     7
 10
907.41499999999985
 20
883.5
 30
0.0
 40
2.5
  1
2
 41
0.75
  0
TEXT
  5
2B4
  8
DATA
 62
     7
 10
909.91499999999985
 20
883.5
 30
0.0
 40
2.5
  1
3
 41
0.75
  0
TEXT
  5
2B5
  8
DATA
 62
     7
 10
912.41499999999996
 20
883.5
 30
0.0
 40
2.5
  1
4
 41
0.75
  0
LINE
  5
2B6
  8
DATA
 62
     7
 10
884.26499999999999
 20
844.5
 30
0.0
 11
899.26499999999987
 21
844.5
 31
0.0
  0
LINE
  5
2B7
  8
DATA
 62
     7
 10
884.26499999999999
 20
859.0
 30
0.0
 11
899.26499999999987
 21
859.0
 31
0.0
  0
LINE
  5
2B8
  8
DATA
 62
     7
 10
884.26499999999999
 20
847.49999999999989
 30
0.0
 11
899.26499999999987
 21
847.49999999999989
 31
0.0
  0
LINE
  5
2B9
  8
DATA
 62
     7
 10
884.26499999999999
 20
847.0
 30
0.0
 11
899.26499999999987
 21
847.0
 31
0.0
  0
LINE
  5
2BA
  8
DATA
 62
     7
 10
888.58095900000001
 20
853.93496300000004
 30
0.0
 11
889.25346899999988
 21
855.53736199999992
 31
0.0
  0
LINE
  5
2BB
  8
DATA
 62
     7
 10
888.58095900000001
 20
853.93496300000004
 30
0.0
 11
887.91675299999997
 21
855.53736199999992
 31
0.0
  0
LINE
  5
2BC
  8
DATA
 62
     7
 10
893.67874499999982
 20
851.03736199999992
 30
0.0
 11
893.67874499999982
 21
855.53736199999992
 31
0.0
  0
LINE
  5
2BD
  8
DATA
 62
     7
 10
894.54221400000006
 20
855.53736199999992
 30
0.0
 11
894.54221400000006
 21
851.72647599999993
 31
0.0
  0
LINE
  5
2BE
  8
DATA
 62
     7
 10
889.56896700000004
 20
855.53736199999992
 30
0.0
 11
889.56896700000004
 21
851.72647599999993
 31
0.0
  0
LINE
  5
2BF
  8
DATA
 62
     7
 10
890.39922499999989
 20
855.53736199999992
 30
0.0
 11
890.39922499999989
 21
851.72647599999993
 31
0.0
  0
LINE
  5
2C0
  8
DATA
 62
     7
 10
890.83095900000001
 20
855.53736199999992
 30
0.0
 11
890.83095900000001
 21
851.03736199999992
 31
0.0
  0
LINE
  5
2C1
  8
DATA
 62
     7
 10
891.58649399999979
 20
855.11392999999998
 30
0.0
 11
891.58649399999979
 21
853.66927999999996
 31
0.0
  0
LINE
  5
2C2
  8
DATA
 62
     7
 10
893.20549800000003
 20
853.75230600000009
 30
0.0
 11
893.20549800000003
 21
854.81503699999996
 31
0.0
  0
LINE
  5
2C3
  8
DATA
 62
     7
 10
892.40845000000013
 20
854.91466799999989
 30
0.0
 11
892.40845000000013
 21
853.88514800000007
 31
0.0
  0
ARC
  5
2C4
  8
DATA
 62
     7
 10
889.40235999999982
 20
852.19286799999998
 30
0.0
 40
1.1604840000000001
 50
264.690922
 51
323.99125800000002
  0
LINE
  5
2C5
  8
DATA
 62
     7
 10
888.93796999999995
 20
852.448801
 30
0.0
 11
888.93796999999995
 21
851.72647599999993
 31
0.0
  0
LINE
  5
2C6
  8
DATA
 62
     7
 10
888.93796999999995
 20
852.448801
 30
0.0
 11
888.19073800000012
 21
852.448801
 31
0.0
  0
LINE
  5
2C7
  8
DATA
 62
     7
 10
888.19073800000012
 20
852.448801
 30
0.0
 11
888.19073800000012
 21
851.72647599999993
 31
0.0
  0
ARC
  5
2C8
  8
DATA
 62
     7
 10
889.25504899999987
 20
851.71674000000007
 30
0.0
 40
0.314069
 50
269.711814
 51
1.776303999999999
  0
ARC
  5
2C9
  8
DATA
 62
     7
 10
889.25188899999989
 20
851.71674000000007
 30
0.0
 40
0.314069
 50
178.22369599999999
 51
270.288186
  0
ARC
  5
2CA
  8
DATA
 62
     7
 10
889.18760299999997
 20
852.19286799999998
 30
0.0
 40
1.1604840000000001
 50
216.0087419999999
 51
275.309078
  0
ARC
  5
2CB
  8
DATA
 62
     7
 10
888.71518500000002
 20
851.75191600000005
 30
0.0
 40
0.5250630000000001
 50
182.77713900000001
 51
207.359837
  0
CIRCLE
  5
2CC
  8
DATA
 62
     7
 10
888.62662399999988
 20
853.3122689999999
 30
0.0
 40
0.427583
  0
LINE
  5
2CD
  8
DATA
 62
     7
 10
895.92874499999994
 20
851.03736199999992
 30
0.0
 11
893.67874499999982
 21
851.03736199999992
 31
0.0
  0
LINE
  5
2CE
  8
DATA
 62
     7
 10
895.92874499999994
 20
851.03736199999992
 30
0.0
 11
895.92874499999994
 21
852.448801
 31
0.0
  0
LINE
  5
2CF
  8
DATA
 62
     7
 10
895.92874499999994
 20
852.448801
 30
0.0
 11
895.17320999999993
 21
852.448801
 31
0.0
  0
LINE
  5
2D0
  8
DATA
 62
     7
 10
895.17320999999993
 20
852.448801
 30
0.0
 11
895.17320999999993
 21
851.72647599999993
 31
0.0
  0
LINE
  5
2D1
  8
DATA
 62
     7
 10
890.83095900000001
 20
851.03736199999992
 30
0.0
 11
892.41675299999997
 21
851.03736199999992
 31
0.0
  0
LINE
  5
2D2
  8
DATA
 62
     7
 10
891.58649399999979
 20
851.46079299999997
 30
0.0
 11
891.99332099999992
 21
851.46079299999997
 31
0.0
  0
LINE
  5
2D3
  8
DATA
 62
     7
 10
891.58649399999979
 20
851.46079299999997
 30
0.0
 11
891.58649399999979
 21
853.23754599999995
 31
0.0
  0
LINE
  5
2D4
  8
DATA
 62
     7
 10
891.58649399999979
 20
853.23754599999995
 30
0.0
 11
891.99332099999992
 21
853.23754599999995
 31
0.0
  0
LINE
  5
2D5
  8
DATA
 62
     7
 10
892.40845000000013
 20
851.66005500000006
 30
0.0
 11
892.40845000000013
 21
853.02167899999984
 31
0.0
  0
ARC
  5
2D6
  8
DATA
 62
     7
 10
889.87477799999976
 20
851.75191600000005
 30
0.0
 40
0.5250630000000001
 50
332.64016299999997
 51
357.22286100000002
  0
ARC
  5
2D7
  8
DATA
 62
     7
 10
894.85929199999987
 20
851.71674000000007
 30
0.0
 40
0.314069
 50
269.711814
 51
1.776303999999999
  0
ARC
  5
2D8
  8
DATA
 62
     7
 10
894.85613199999989
 20
851.71674000000007
 30
0.0
 40
0.314069
 50
178.22369599999999
 51
270.288186
  0
LINE
  5
2D9
  8
DATA
 62
     7
 10
893.20549800000003
 20
851.75968599999987
 30
0.0
 11
893.20549800000003
 21
852.93865300000004
 31
0.0
  0
LINE
  5
2DA
  8
DATA
 62
     7
 10
891.58649399999979
 20
853.66927999999996
 30
0.0
 11
891.99332099999992
 21
853.66927999999996
 31
0.0
  0
ARC
  5
2DB
  8
DATA
 62
     7
 10
892.76173599999993
 20
852.92582100000004
 30
0.0
 40
0.436454
 50
3.8672739999999992
 51
88.361689999999996
  0
ARC
  5
2DC
  8
DATA
 62
     7
 10
892.76133400000003
 20
853.79879100000005
 30
0.0
 40
0.436884
 50
271.68941599999999
 51
356.07833299999999
  0
ARC
  5
2DD
  8
DATA
 62
     7
 10
892.35124499999995
 20
851.89162699999997
 30
0.0
 40
0.8561790000000003
 50
273.83108900000002
 51
351.13515899999999
  0
POLYLINE
  5
2DE
  8
DATA
 62
     7
 66
     1
 10
0.0
 20
0.0
 30
0.0
  0
VERTEX
  5
4DB
  8
DATA
 62
     7
 10
891.99332099999992
 20
853.66927999999996
 30
0.0
 42
0.053087
  0
VERTEX
  5
4DC
  8
DATA
 62
     7
 10
892.16091100000006
 20
853.68712500000004
 30
0.0
 42
0.066942
  0
VERTEX
  5
4DD
  8
DATA
 62
     7
 10
892.28686199999993
 20
853.73250599999994
 30
0.0
 42
0.105042
  0
VERTEX
  5
4DE
  8
DATA
 62
     7
 10
892.38266400000009
 20
853.81138799999997
 30
0.0
 42
0.169764
  0
VERTEX
  5
4DF
  8
DATA
 62
     7
 10
892.40845000000013
 20
853.88514800000007
 30
0.0
 42
0.169764
  0
SEQEND
  5
4E0
  8
DATA
 62
     7
  0
POLYLINE
  5
2E5
  8
DATA
 62
     7
 66
     1
 10
0.0
 20
0.0
 30
0.0
  0
VERTEX
  5
4E1
  8
DATA
 62
     7
 10
892.40845000000013
 20
853.02167899999984
 30
0.0
 42
0.169764
  0
VERTEX
  5
4E2
  8
DATA
 62
     7
 10
892.38266400000009
 20
853.09543900000006
 30
0.0
 42
0.105042
  0
VERTEX
  5
4E3
  8
DATA
 62
     7
 10
892.28686199999993
 20
853.17431999999985
 30
0.0
 42
0.066942
  0
VERTEX
  5
4E4
  8
DATA
 62
     7
 10
892.16091100000006
 20
853.21970199999987
 30
0.0
 42
0.053087
  0
VERTEX
  5
4E5
  8
DATA
 62
     7
 10
891.99332099999992
 20
853.23754599999995
 30
0.0
 42
0.053087
  0
SEQEND
  5
4E6
  8
DATA
 62
     7
  0
POLYLINE
  5
2EC
  8
DATA
 62
     7
 66
     1
 10
0.0
 20
0.0
 30
0.0
  0
VERTEX
  5
4E7
  8
DATA
 62
     7
 10
891.99332099999992
 20
851.46079299999997
 30
0.0
 42
0.049105
  0
VERTEX
  5
4E8
  8
DATA
 62
     7
 10
892.16150499999992
 20
851.47735099999989
 30
0.0
 42
0.062897
  0
VERTEX
  5
4E9
  8
DATA
 62
     7
 10
892.28686199999993
 20
851.51915600000007
 30
0.0
 42
0.103193
  0
VERTEX
  5
4EA
  8
DATA
 62
     7
 10
892.38358000000005
 20
851.59316799999988
 30
0.0
 42
0.179894
  0
VERTEX
  5
4EB
  8
DATA
 62
     7
 10
892.40845000000013
 20
851.66005500000006
 30
0.0
 42
0.179894
  0
SEQEND
  5
4EC
  8
DATA
 62
     7
  0
LINE
  5
2F3
  8
DATA
 62
     7
 10
889.56896700000004
 20
855.53736199999992
 30
0.0
 11
890.39922499999989
 21
855.53736199999992
 31
0.0
  0
LINE
  5
2F4
  8
DATA
 62
     7
 10
887.91675299999997
 20
855.53736199999992
 30
0.0
 11
889.25346899999988
 21
855.53736199999992
 31
0.0
  0
LINE
  5
2F5
  8
DATA
 62
     7
 10
893.67874499999982
 20
855.53736199999992
 30
0.0
 11
894.54221400000006
 21
855.53736199999992
 31
0.0
  0
LINE
  5
2F6
  8
DATA
 62
     7
 10
890.83095900000001
 20
855.53736199999992
 30
0.0
 11
892.41675299999997
 21
855.53736199999992
 31
0.0
  0
LINE
  5
2F7
  8
DATA
 62
     7
 10
891.58649399999979
 20
855.11392999999998
 30
0.0
 11
891.99332099999992
 21
855.11392999999998
 31
0.0
  0
ARC
  5
2F8
  8
DATA
 62
     7
 10
892.35111300000005
 20
854.68440600000008
 30
0.0
 40
0.8548799999999999
 50
8.2269240000000003
 51
86.154223000000002
  0
POLYLINE
  5
2F9
  8
DATA
 62
     7
 66
     1
 10
0.0
 20
0.0
 30
0.0
  0
VERTEX
  5
4ED
  8
DATA
 62
     7
 10
892.40845000000013
 20
854.91466799999989
 30
0.0
 42
0.179894
  0
VERTEX
  5
4EE
  8
DATA
 62
     7
 10
892.38358000000005
 20
854.98155599999996
 30
0.0
 42
0.103193
  0
VERTEX
  5
4EF
  8
DATA
 62
     7
 10
892.28686199999993
 20
855.05556699999988
 30
0.0
 42
0.062897
  0
VERTEX
  5
4F0
  8
DATA
 62
     7
 10
892.16150499999992
 20
855.09737299999995
 30
0.0
 42
0.049105
  0
VERTEX
  5
4F1
  8
DATA
 62
     7
 10
891.99332099999992
 20
855.11392999999998
 30
0.0
 42
0.049105
  0
SEQEND
  5
4F2
  8
DATA
 62
     7
  0
LINE
  5
300
  8
DATA
 62
     7
 10
884.26499999999999
 20
844.5
 30
0.0
 11
884.26499999999999
 21
847.0
 31
0.0
  0
LINE
  5
301
  8
DATA
 62
     7
 10
884.26499999999999
 20
847.49999999999989
 30
0.0
 11
884.26499999999999
 21
859.0
 31
0.0
  0
LINE
  5
302
  8
DATA
 62
     7
 10
899.26499999999987
 20
844.5
 30
0.0
 11
899.26499999999987
 21
847.0
 31
0.0
  0
LINE
  5
303
  8
DATA
 62
     7
 10
899.26499999999987
 20
847.49999999999989
 30
0.0
 11
899.26499999999987
 21
859.0
 31
0.0
  0
ARC
  5
304
  8
DATA
 62
     7
 10
920.26499999999999
 20
860.0
 30
0.0
 40
1.0
 50
90.0
 51
180.0
  0
LINE
  5
305
  8
DATA
 62
     7
 10
919.26499999999999
 20
856.0
 30
0.0
 11
919.26499999999999
 21
860.0
 31
0.0
  0
ARC
  5
306
  8
DATA
 62
     7
 10
920.26499999999999
 20
856.0
 30
0.0
 40
1.0
 50
180.0
 51
270.0
  0
ARC
  5
307
  8
DATA
 62
     7
 10
941.26499999999987
 20
856.0
 30
0.0
 40
1.0
 50
270.0
 51
0.0
  0
LINE
  5
308
  8
DATA
 62
     7
 10
920.26499999999999
 20
861.0
 30
0.0
 11
941.26499999999987
 21
861.0
 31
0.0
  0
LINE
  5
309
  8
DATA
 62
     7
 10
942.26499999999999
 20
856.0
 30
0.0
 11
942.26499999999999
 21
860.0
 31
0.0
  0
ARC
  5
30A
  8
DATA
 62
     7
 10
941.26499999999987
 20
860.0
 30
0.0
 40
1.0
 50
0.0
 51
90.0
  0
LINE
  5
30B
  8
DATA
 62
     7
 10
920.26499999999999
 20
855.0
 30
0.0
 11
941.26499999999987
 21
855.0
 31
0.0
  0
TEXT
  5
30C
  8
DATA
 62
     7
 10
901.26499999999999
 20
855.0
 30
0.0
 40
5.0
  1
LSR25P
 41
0.75
  0
TEXT
  5
30D
  8
DATA
 62
     7
 10
885.26499999999999
 20
836.0
 30
0.0
 40
3.0
  1
RCA (-10dBV)
 41
0.75
  0
TEXT
  5
30E
  8
DATA
 62
     7
 10
915.26499999999987
 20
836.0
 30
0.0
 40
3.0
  1
XLR (+4dBu)
 41
0.75
  0
LINE
  5
30F
  8
DATA
 62
     7
 10
962.26499999999999
 20
854.0
 30
0.0
 11
962.26499999999999
 21
859.5
 31
0.0
  0
LINE
  5
310
  8
DATA
 62
     7
 10
983.75399800000002
 20
839.3189880000001
 30
0.0
 11
983.75399800000002
 21
840.00283400000001
 31
0.0
  0
LINE
  5
311
  8
DATA
 62
     7
 10
983.75399800000002
 20
835.5
 30
0.0
 11
983.75399800000002
 21
836.18384500000002
 31
0.0
  0
ARC
  5
312
  8
DATA
 62
     7
 10
983.52775600000007
 20
837.75141699999995
 30
0.0
 40
2.2627559999999991
 50
84.261690999999999
 51
275.73830900000002
  0
ARC
  5
313
  8
DATA
 62
     7
 10
983.52777200000003
 20
837.75141699999995
 30
0.0
 40
1.5838110000000001
 50
81.788011999999995
 51
278.21198800000002
  0
TEXT
  5
314
  8
DATA
 62
     7
 10
962.26499999999999
 20
843.0
 30
0.0
 40
3.0
  1
H
 41
0.75
  0
TEXT
  5
315
  8
DATA
 62
     7
 10
963.98990399999991
 20
843.0
 30
0.0
 40
2.5
  1
A
 41
0.75
  0
ARC
  5
316
  8
DATA
 62
     7
 10
872.0
 20
996.47800000000007
 30
0.0
 40
22.0
 50
90.0
 51
180.0
  0
ARC
  5
317
  8
DATA
 62
     7
 10
872.0
 20
975.44575199999997
 30
0.0
 40
22.0
 50
90.0
 51
180.0
  0
CIRCLE
  5
318
  8
DATA
 62
     7
 10
899.76499999999999
 20
761.24999999999989
 30
0.0
 40
5.75
  0
CIRCLE
  5
319
  8
DATA
 62
     7
 10
976.76499999999987
 20
761.24999999999989
 30
0.0
 40
5.75
  0
CIRCLE
  5
31A
  8
DATA
 62
     7
 10
899.76499999999999
 20
761.24999999999989
 30
0.0
 40
3.5
  0
LINE
  5
31B
  8
DATA
 62
     7
 10
897.59993599999984
 20
762.5
 30
0.0
 11
897.59993599999984
 21
760.0
 31
0.0
  0
LINE
  5
31C
  8
DATA
 62
     7
 10
897.59993599999984
 20
760.0
 30
0.0
 11
899.76499999999999
 21
758.75
 31
0.0
  0
LINE
  5
31D
  8
DATA
 62
     7
 10
899.76499999999999
 20
758.75
 30
0.0
 11
901.93006400000002
 21
760.0
 31
0.0
  0
LINE
  5
31E
  8
DATA
 62
     7
 10
901.93006400000002
 20
760.0
 30
0.0
 11
901.93006400000002
 21
762.5
 31
0.0
  0
LINE
  5
31F
  8
DATA
 62
     7
 10
901.93006400000002
 20
762.5
 30
0.0
 11
899.76499999999999
 21
763.75
 31
0.0
  0
LINE
  5
320
  8
DATA
 62
     7
 10
899.76499999999999
 20
763.75
 30
0.0
 11
897.59993599999984
 21
762.5
 31
0.0
  0
CIRCLE
  5
321
  8
DATA
 62
     7
 10
976.76499999999987
 20
761.24999999999989
 30
0.0
 40
3.5
  0
LINE
  5
322
  8
DATA
 62
     7
 10
974.59993599999984
 20
762.5
 30
0.0
 11
974.59993599999984
 21
760.0
 31
0.0
  0
LINE
  5
323
  8
DATA
 62
     7
 10
974.59993599999984
 20
760.0
 30
0.0
 11
976.76499999999987
 21
758.75
 31
0.0
  0
LINE
  5
324
  8
DATA
 62
     7
 10
976.76499999999987
 20
758.75
 30
0.0
 11
978.93006400000002
 21
760.0
 31
0.0
  0
LINE
  5
325
  8
DATA
 62
     7
 10
978.93006400000002
 20
760.0
 30
0.0
 11
978.93006400000002
 21
762.5
 31
0.0
  0
LINE
  5
326
  8
DATA
 62
     7
 10
978.93006400000002
 20
762.5
 30
0.0
 11
976.76499999999987
 21
763.75
 31
0.0
  0
LINE
  5
327
  8
DATA
 62
     7
 10
976.76499999999987
 20
763.75
 30
0.0
 11
974.59993599999984
 21
762.5
 31
0.0
  0
CIRCLE
  5
328
  8
DATA
 62
     7
 10
870.76499999999987
 20
979.0
 30
0.0
 40
3.5
  0
LINE
  5
329
  8
DATA
 62
     7
 10
868.59993599999996
 20
980.25
 30
0.0
 11
868.59993599999996
 21
977.74999999999989
 31
0.0
  0
LINE
  5
32A
  8
DATA
 62
     7
 10
868.59993599999996
 20
977.74999999999989
 30
0.0
 11
870.76499999999987
 21
976.5
 31
0.0
  0
LINE
  5
32B
  8
DATA
 62
     7
 10
870.76499999999987
 20
976.5
 30
0.0
 11
872.9300639999999
 21
977.74999999999989
 31
0.0
  0
LINE
  5
32C
  8
DATA
 62
     7
 10
872.9300639999999
 20
977.74999999999989
 30
0.0
 11
872.9300639999999
 21
980.25
 31
0.0
  0
LINE
  5
32D
  8
DATA
 62
     7
 10
872.9300639999999
 20
980.25
 30
0.0
 11
870.76499999999987
 21
981.49999999999989
 31
0.0
  0
LINE
  5
32E
  8
DATA
 62
     7
 10
870.76499999999987
 20
981.49999999999989
 30
0.0
 11
868.59993599999996
 21
980.25
 31
0.0
  0
CIRCLE
  5
32F
  8
DATA
 62
     7
 10
883.51499999999999
 20
957.234466
 30
0.0
 40
2.5
  0
CIRCLE
  5
330
  8
DATA
 62
     7
 10
883.51499999999999
 20
906.265534
 30
0.0
 40
2.5
  0
LINE
  5
331
  8
DATA
 62
     7
 10
950.26499999999999
 20
825.0
 30
0.0
 11
978.26499999999999
 21
825.0
 31
0.0
  0
LINE
  5
332
  8
DATA
 62
     7
 10
942.26499999999999
 20
826.5
 30
0.0
 11
942.26499999999999
 21
828.0
 31
0.0
  0
LINE
  5
333
  8
DATA
 62
     7
 10
978.26499999999999
 20
825.0
 30
0.0
 11
978.26499999999999
 21
826.5
 31
0.0
  0
LINE
  5
334
  8
DATA
 62
     7
 10
950.26499999999999
 20
826.5
 30
0.0
 11
950.26499999999999
 21
825.0
 31
0.0
  0
TEXT
  5
335
  8
SPEC
 62
     7
 10
184.0
 20
2134.0
 30
0.0
 40
25.0
  1
外装色
 41
0.75
  0
LINE
  5
336
  8
SPEC
 62
     7
 10
175.0
 20
2650.0
 30
0.0
 11
175.0
 21
1825.0
 31
0.0
  0
TEXT
  5
337
  8
SPEC
 62
     7
 10
184.0
 20
2096.5
 30
0.0
 40
25.0
  1
極性
 41
0.75
  0
TEXT
  5
338
  8
SPEC
 62
     7
 10
184.0
 20
1834.0
 30
0.0
 40
25.0
  1
付属品
 41
0.75
  0
TEXT
  5
339
  8
SPEC
 62
     7
 10
184.0
 20
1871.5
 30
0.0
 40
25.0
  1
重量
 41
0.75
  0
TEXT
  5
33A
  8
SPEC
 62
     7
 10
184.0
 20
1909.0
 30
0.0
 40
25.0
  1
寸法
 41
0.75
  0
TEXT
  5
33B
  8
SPEC
 62
     7
 10
184.0
 20
1946.5
 30
0.0
 40
25.0
  1
電源 / 消費電力
 41
0.75
  0
TEXT
  5
33C
  8
SPEC
 62
     7
 10
184.0
 20
2021.5
 30
0.0
 40
25.0
  1
入力コネクタ ー
 41
0.75
  0
TEXT
  5
33D
  8
SPEC
 62
     7
 10
184.0
 20
2059.0
 30
0.0
 40
25.0
  1
メンテナンス
 41
0.75
  0
TEXT
  5
33E
  8
SPEC
 62
     7
 10
187.5
 20
2662.5
 30
0.0
 40
30.0
  1
仕様
 41
0.75
  0
TEXT
  5
33F
  8
SPEC
 62
     7
 10
184.0
 20
2621.5
 30
0.0
 40
25.0
  1
形式
 41
0.75
  0
TEXT
  5
340
  8
SPEC
 62
     7
 10
184.0
 20
2509.0
 30
0.0
 40
25.0
  1
公称カバレージ
 41
0.75
  0
TEXT
  5
341
  8
SPEC
 62
     7
 10
184.0
 20
2471.5
 30
0.0
 40
25.0
  1
低域ユニット
 41
0.75
  0
TEXT
  5
342
  8
SPEC
 62
     7
 10
184.0
 20
2434.0
 30
0.0
 40
25.0
  1
高域ユニット
 41
0.75
  0
TEXT
  5
343
  8
SPEC
 62
     7
 10
184.0
 20
2359.0
 30
0.0
 40
25.0
  1
最大音圧(＠1m)
 41
0.75
  0
TEXT
  5
344
  8
SPEC
 62
     7
 10
184.0
 20
2396.5
 30
0.0
 40
25.0
  1
入力感度(96dB/1m)
 41
0.75
  0
TEXT
  5
345
  8
SPEC
 62
     7
 10
184.0
 20
2321.5
 30
0.0
 40
25.0
  1
クロスオーバー
 41
0.75
  0
TEXT
  5
346
  8
SPEC
 62
     7
 10
184.0
 20
2546.5
 30
0.0
 40
25.0
  1
周波数特性(+1/-2dB)
 41
0.75
  0
TEXT
  5
347
  8
SPEC
 62
     7
 10
184.0
 20
2284.0
 30
0.0
 40
25.0
  1
パワーアンプ出力
 41
0.75
  0
TEXT
  5
348
  8
SPEC
 62
     7
 10
509.0
 20
2134.0
 30
0.0
 40
25.0
  1
グレー　パウダーコート（グリルは黒）
 41
0.75
  0
LINE
  5
349
  8
SPEC
 62
     7
 10
500.0
 20
2650.0
 30
0.0
 11
500.0
 21
1825.0
 31
0.0
  0
TEXT
  5
34A
  8
SPEC
 62
     7
 10
509.0
 20
2096.5
 30
0.0
 40
25.0
  1
正相(低域),逆相(高域)
 41
0.75
  0
TEXT
  5
34B
  8
SPEC
 62
     7
 10
509.0
 20
1946.5
 30
0.0
 40
25.0
  1
AC100V , 50/60Hz , 110Watts
 41
0.75
  0
TEXT
  5
34C
  8
SPEC
 62
     7
 10
509.0
 20
1909.0
 30
0.0
 40
25.0
  1
176.5(W)×268.5(H)×257.8(D)mm
 41
0.75
  0
TEXT
  5
34D
  8
SPEC
 62
     7
 10
509.0
 20
1834.0
 30
0.0
 40
25.0
  1
電源ケーブル(1.8m)、ゴム足
 41
0.75
  0
TEXT
  5
34E
  8
SPEC
 62
     7
 10
509.0
 20
2021.5
 30
0.0
 40
25.0
  1
XLRメス (バランス , 2-HOT)
 41
0.75
  0
TEXT
  5
34F
  8
SPEC
 62
     7
 10
509.0
 20
2059.0
 30
0.0
 40
25.0
  1
SPユニットは後面側でケースを開け交換
 41
0.75
  0
TEXT
  5
350
  8
SPEC
 62
     7
 10
509.0
 20
1991.5
 30
0.0
 40
25.0
  1
RCA (アンバランス)
 41
0.75
  0
TEXT
  5
351
  8
SPEC
 62
     7
 10
509.0
 20
1871.5
 30
0.0
 40
25.0
  1
約9.6kg
 41
0.75
  0
TEXT
  5
352
  8
SPEC
 62
     7
 10
509.0
 20
2591.5
 30
0.0
 40
25.0
  1
(Compact Bi-Amplified Monitoring System)
 41
0.75
  0
TEXT
  5
353
  8
SPEC
 62
     7
 10
509.0
 20
2434.0
 30
0.0
 40
25.0
  1
25mm(ダイアフラム径:1インチ)
 41
0.75
  0
TEXT
  5
354
  8
SPEC
 62
     7
 10
509.0
 20
2471.5
 30
0.0
 40
25.0
  1
134mm(口径:5.25インチ)
 41
0.75
  0
TEXT
  5
355
  8
SPEC
 62
     7
 10
509.0
 20
2396.5
 30
0.0
 40
25.0
  1
+4dBu(XLRメス)/-10dBV(RCA)
 41
0.75
  0
TEXT
  5
356
  8
SPEC
 62
     7
 10
534.0
 20
2254.0
 30
0.0
 40
25.0
  1
THD+N:0.05%以下(1/2 power)
 41
0.75
  0
TEXT
  5
357
  8
SPEC
 62
     7
 10
534.0
 20
2179.0
 30
0.0
 40
25.0
  1
THD+N:0.05%以下(1/2 power)
 41
0.75
  0
TEXT
  5
358
  8
SPEC
 62
     7
 10
509.0
 20
2509.0
 30
0.0
 40
25.0
  1
60゜×30゜
 41
0.75
  0
TEXT
  5
359
  8
SPEC
 62
     7
 10
509.0
 20
2321.5
 30
0.0
 40
25.0
  1
2.3kHz
 41
0.75
  0
TEXT
  5
35A
  8
SPEC
 62
     7
 10
509.0
 20
2284.0
 30
0.0
 40
25.0
  1
低域用:100W
 41
0.75
  0
TEXT
  5
35B
  8
SPEC
 62
     7
 10
509.0
 20
2209.0
 30
0.0
 40
25.0
  1
高域用:50W
 41
0.75
  0
TEXT
  5
35C
  8
SPEC
 62
     7
 10
509.0
 20
2546.5
 30
0.0
 40
25.0
  1
70Hz～20kHz
 41
0.75
  0
TEXT
  5
35D
  8
HIBINO-BASE
 62
     7
 10
1487.5
 20
175.0
 30
0.0
 40
25.0
  1
N.Sasaki
 41
0.75
  0
LINE
  5
35E
  8
HIBINO-BASE
 62
     7
 10
1000.0
 20
250.0
 30
0.0
 11
1900.0
 21
250.0
 31
0.0
  0
TEXT
  5
35F
  8
HIBINO-BASE
 62
     7
 10
1480.0
 20
225.0
 30
0.0
 40
25.0
  1
DRAWN
 41
0.75
  0
TEXT
  5
360
  8
DATA
 62
     7
 10
1500.0
 20
331.25
 30
0.0
 40
30.0
  1
JBL
 41
0.75
  0
TEXT
  5
361
  8
DATA
 62
     7
 10
1500.0
 20
300.0
 30
0.0
 40
20.0
  1
2ウェイ・バイアンプ内蔵スタ ジオモニタ 
 41
0.75
  0
TEXT
  5
362
  8
DATA
 62
     7
 10
1500.0
 20
268.75
 30
0.0
 40
30.0
  1
LSR25P
 41
0.75
  0
LINE
  5
363
  8
HIBINO-BASE
 62
     7
 10
1000.0
 20
376.25
 30
0.0
 11
1900.0
 21
376.25
 31
0.0
  0
LINE
  5
364
  8
HIBINO-BASE
 62
     7
 10
1000.0
 20
373.75
 30
0.0
 11
1900.0
 21
373.75
 31
0.0
  0
LINE
  5
365
  8
HIBINO-BASE
 62
     7
 10
1000.0
 20
376.25
 30
0.0
 11
1000.0
 21
373.75
 31
0.0
  0
LINE
  5
366
  8
HIBINO-BASE
 62
     7
 10
1900.0
 20
376.25
 30
0.0
 11
1900.0
 21
373.75
 31
0.0
  0
SOLID
  5
367
  8
HIBINO-BASE
 62
     7
 10
1000.0
 20
376.25
 30
0.0
 11
1900.0
 21
376.25
 31
0.0
 12
1000.0
 22
373.75
 32
0.0
 13
1900.0
 23
373.75
 33
0.0
  0
TEXT
  5
368
  8
DATA
 62
     7
 10
1463.1541999999999
 20
912.5
 30
0.0
 40
25.0
  1
コネクタ ーパネル拡大図
 41
0.75
  0
LINE
  5
369
  8
DATA
 62
     7
 10
1425.0
 20
900.0
 30
0.0
 11
1775.0
 21
900.0
 31
0.0
  0
LINE
  5
36A
  8
DATA
 62
     7
 10
1774.0
 20
875.0
 30
0.0
 11
1426.0
 21
875.0
 31
0.0
  0
LINE
  5
36B
  8
DATA
 62
     7
 10
1765.0
 20
713.0
 30
0.0
 11
1435.0
 21
713.0
 31
0.0
  0
LINE
  5
36C
  8
DATA
 62
     7
 10
1478.5
 20
662.5
 30
0.0
 11
1478.5
 21
700.0
 31
0.0
  0
TEXT
  5
36D
  8
HIBINO-BASE
 62
     7
 10
1230.0
 20
225.0
 30
0.0
 40
25.0
  1
DATE
 41
0.75
  0
TEXT
  5
36E
  8
HIBINO-BASE
 62
     7
 10
1237.5
 20
175.0
 30
0.0
 40
25.0
  1
'00.05.
 41
0.75
  0
LINE
  5
36F
  8
HIBINO-BASE
 62
     7
 10
998.75
 20
150.0
 30
0.0
 11
998.75
 21
375.0
 31
0.0
  0
LINE
  5
370
  8
HIBINO-BASE
 62
     7
 10
1001.25
 20
150.0
 30
0.0
 11
1001.25
 21
375.0
 31
0.0
  0
LINE
  5
371
  8
HIBINO-BASE
 62
     7
 10
998.75
 20
150.0
 30
0.0
 11
1001.25
 21
150.0
 31
0.0
  0
LINE
  5
372
  8
HIBINO-BASE
 62
     7
 10
998.75
 20
375.0
 30
0.0
 11
1001.25
 21
375.0
 31
0.0
  0
SOLID
  5
373
  8
HIBINO-BASE
 62
     7
 10
998.75
 20
150.0
 30
0.0
 11
998.75
 21
375.0
 31
0.0
 12
1001.25
 22
150.0
 32
0.0
 13
1001.25
 23
375.0
 33
0.0
  0
TEXT
  5
374
  8
HIBINO-BASE
 62
     7
 10
1037.5
 20
162.5
 30
0.0
 40
40.0
  1
A4
 41
0.75
  0
LINE
  5
375
  8
HIBINO-BASE
 62
     7
 10
1143.75
 20
162.5
 30
0.0
 11
1181.25
 21
200.0
 31
0.0
  0
TEXT
  5
376
  8
HIBINO-BASE
 62
     7
 10
1137.5
 20
181.25
 30
0.0
 40
30.0
  1
1
 41
0.75
  0
TEXT
  5
377
  8
HIBINO-BASE
 62
     7
 10
1005.0
 20
225.0
 30
0.0
 40
22.5
  1
図面サイズ
 41
0.75
  0
TEXT
  5
378
  8
HIBINO-BASE
 62
     7
 10
1130.0
 20
225.0
 30
0.0
 40
25.0
  1
SCALE
 41
0.75
  0
LINE
  5
379
  8
HIBINO-BASE
 62
     7
 10
1225.0
 20
150.0
 30
0.0
 11
1225.0
 21
250.0
 31
0.0
  0
LINE
  5
37A
  8
HIBINO-BASE
 62
     7
 10
1125.0
 20
150.0
 30
0.0
 11
1125.0
 21
250.0
 31
0.0
  0
TEXT
  5
37B
  8
HIBINO-BASE
 62
     7
 10
1175.0
 20
162.5
 30
0.0
 40
30.0
  1
10
 41
0.75
  0
TEXT
  5
37C
  8
HIBINO-BASE
 62
     7
 10
1005.0
 20
350.0
 30
0.0
 40
25.0
  1
NOTE
 41
0.75
  0
LINE
  5
37D
  8
HIBINO-BASE
 62
     7
 10
1350.0
 20
150.0
 30
0.0
 11
1350.0
 21
375.0
 31
0.0
  0
TEXT
  5
37E
  8
HIBINO-BASE
 62
     7
 10
1355.0
 20
225.0
 30
0.0
 40
25.0
  1
DESIGN
 41
0.75
  0
LINE
  5
37F
  8
HIBINO-BASE
 62
     7
 10
1475.0
 20
250.0
 30
0.0
 11
1475.0
 21
150.0
 31
0.0
  0
TEXT
  5
380
  8
HIBINO-BASE
 62
     7
 10
1355.0
 20
350.0
 30
0.0
 40
25.0
  1
TITLE
 41
0.75
  0
TEXT
  5
381
  8
DATA
 62
     7
 10
1471.75
 20
551.49999999999989
 30
0.0
 40
17.5
  1
4
 41
0.75
  0
LINE
  5
382
  8
DATA
 62
     7
 10
1400.0
 20
537.5
 30
0.0
 11
1498.0
 21
537.5
 31
0.0
  0
LINE
  5
383
  8
DATA
 62
     7
 10
1400.0
 20
450.0
 30
0.0
 11
1498.0
 21
450.0
 31
0.0
  0
TEXT
  5
384
  8
DATA
 62
     7
 10
1454.25
 20
551.49999999999989
 30
0.0
 40
17.5
  1
3
 41
0.75
  0
TEXT
  5
385
  8
DATA
 62
     7
 10
1436.75
 20
551.49999999999989
 30
0.0
 40
17.5
  1
2
 41
0.75
  0
TEXT
  5
386
  8
DATA
 62
     7
 10
1419.25
 20
551.49999999999989
 30
0.0
 40
17.5
  1
1
 41
0.75
  0
LINE
  5
387
  8
DATA
 62
     7
 10
1463.0
 20
476.25
 30
0.0
 11
1463.0
 21
511.24999999999989
 31
0.0
  0
LINE
  5
388
  8
DATA
 62
     7
 10
1452.5
 20
511.24999999999989
 30
0.0
 11
1452.5
 21
476.25
 31
0.0
  0
LINE
  5
389
  8
DATA
 62
     7
 10
1470.0
 20
476.25
 30
0.0
 11
1470.0
 21
511.24999999999989
 31
0.0
  0
LINE
  5
38A
  8
DATA
 62
     7
 10
1480.5
 20
476.25
 30
0.0
 11
1480.5
 21
511.24999999999989
 31
0.0
  0
LINE
  5
38B
  8
DATA
 62
     7
 10
1445.5
 20
476.25
 30
0.0
 11
1445.5
 21
511.24999999999989
 31
0.0
  0
LINE
  5
38C
  8
DATA
 62
     7
 10
1435.0
 20
476.25
 30
0.0
 11
1435.0
 21
511.24999999999989
 31
0.0
  0
LINE
  5
38D
  8
DATA
 62
     7
 10
1428.0
 20
476.25
 30
0.0
 11
1428.0
 21
511.24999999999989
 31
0.0
  0
LINE
  5
38E
  8
DATA
 62
     7
 10
1417.5
 20
476.25
 30
0.0
 11
1417.5
 21
511.24999999999989
 31
0.0
  0
LINE
  5
38F
  8
DATA
 62
     7
 10
1470.0
 20
511.24999999999989
 30
0.0
 11
1480.5
 21
511.24999999999989
 31
0.0
  0
LINE
  5
390
  8
DATA
 62
     7
 10
1452.5
 20
511.24999999999989
 30
0.0
 11
1463.0
 21
511.24999999999989
 31
0.0
  0
LINE
  5
391
  8
DATA
 62
     7
 10
1435.0
 20
511.24999999999989
 30
0.0
 11
1445.5
 21
511.24999999999989
 31
0.0
  0
LINE
  5
392
  8
DATA
 62
     7
 10
1417.5
 20
511.24999999999989
 30
0.0
 11
1428.0
 21
511.24999999999989
 31
0.0
  0
LINE
  5
393
  8
DATA
 62
     7
 10
1480.5
 20
486.74999999999989
 30
0.0
 11
1470.0
 21
486.74999999999989
 31
0.0
  0
LINE
  5
394
  8
DATA
 62
     7
 10
1463.0
 20
486.74999999999989
 30
0.0
 11
1452.5
 21
486.74999999999989
 31
0.0
  0
LINE
  5
395
  8
DATA
 62
     7
 10
1445.5
 20
486.74999999999989
 30
0.0
 11
1435.0
 21
486.74999999999989
 31
0.0
  0
LINE
  5
396
  8
DATA
 62
     7
 10
1428.0
 20
486.74999999999989
 30
0.0
 11
1417.5
 21
486.74999999999989
 31
0.0
  0
LINE
  5
397
  8
DATA
 62
     7
 10
1480.5
 20
476.25
 30
0.0
 11
1470.0
 21
476.25
 31
0.0
  0
LINE
  5
398
  8
DATA
 62
     7
 10
1463.0
 20
476.25
 30
0.0
 11
1452.5
 21
476.25
 31
0.0
  0
LINE
  5
399
  8
DATA
 62
     7
 10
1445.5
 20
476.25
 30
0.0
 11
1435.0
 21
476.25
 31
0.0
  0
LINE
  5
39A
  8
DATA
 62
     7
 10
1428.0
 20
476.25
 30
0.0
 11
1417.5
 21
476.25
 31
0.0
  0
LINE
  5
39B
  8
DATA
 62
     7
 10
1400.0
 20
450.0
 30
0.0
 11
1400.0
 21
537.5
 31
0.0
  0
LINE
  5
39C
  8
DATA
 62
     7
 10
1498.0
 20
450.0
 30
0.0
 11
1498.0
 21
537.5
 31
0.0
  0
TEXT
  5
39D
  8
DATA
 62
     7
 10
1459.9978759999999
 20
637.5
 30
0.0
 40
25.0
  1
RCA
 41
0.75
  0
LINE
  5
39E
  8
DATA
 62
     7
 10
1026.53
 20
772.0
 30
0.0
 11
1026.53
 21
996.47800000000007
 31
0.0
  0
LINE
  5
39F
  8
DATA
 62
     7
 10
985.31500000000005
 20
997.44575199999986
 30
0.0
 11
985.31500000000005
 21
892.0
 31
0.0
  0
CIRCLE
  5
3A0
  8
DATA
 62
     7
 10
1005.765
 20
979.0
 30
0.0
 40
7.0
  0
LINE
  5
3A1
  8
DATA
 62
     7
 10
989.76499999999999
 20
964.49999999999989
 30
0.0
 11
989.76499999999999
 21
997.44575199999986
 31
0.0
  0
LINE
  5
3A2
  8
DATA
 62
     7
 10
996.26499999999999
 20
964.49999999999989
 30
0.0
 11
996.26499999999999
 21
997.44575199999986
 31
0.0
  0
ARC
  5
3A3
  8
DATA
 62
     7
 10
1004.53
 20
772.0
 30
0.0
 40
22.0
 50
270.0
 51
0.0
  0
LINE
  5
3A4
  8
DATA
 62
     7
 10
989.76499999999999
 20
949.0
 30
0.0
 11
996.26499999999999
 21
949.0
 31
0.0
  0
LINE
  5
3A5
  8
DATA
 62
     7
 10
989.76499999999999
 20
914.0
 30
0.0
 11
996.26499999999999
 21
914.0
 31
0.0
  0
LINE
  5
3A6
  8
DATA
 62
     7
 10
989.76499999999999
 20
898.49999999999989
 30
0.0
 11
996.26499999999999
 21
898.49999999999989
 31
0.0
  0
LINE
  5
3A7
  8
DATA
 62
     7
 10
989.76499999999999
 20
964.49999999999989
 30
0.0
 11
996.26499999999999
 21
964.49999999999989
 31
0.0
  0
LINE
  5
3A8
  8
DATA
 62
     7
 10
996.26499999999999
 20
750.0
 30
0.0
 11
996.26499999999999
 21
820.5
 31
0.0
  0
ARC
  5
3A9
  8
DATA
 62
     7
 10
988.76499999999999
 20
820.5
 30
0.0
 40
7.5
 50
0.0
 51
90.0
  0
LINE
  5
3AA
  8
DATA
 62
     7
 10
995.26499999999999
 20
831.0
 30
0.0
 11
995.26499999999999
 21
891.5
 31
0.0
  0
LINE
  5
3AB
  8
DATA
 62
     7
 10
989.76499999999999
 20
892.0
 30
0.0
 11
989.76499999999999
 21
898.49999999999989
 31
0.0
  0
LINE
  5
3AC
  8
DATA
 62
     7
 10
996.26499999999999
 20
892.0
 30
0.0
 11
996.26499999999999
 21
898.49999999999989
 31
0.0
  0
LINE
  5
3AD
  8
DATA
 62
     7
 10
989.76499999999999
 20
914.0
 30
0.0
 11
989.76499999999999
 21
949.0
 31
0.0
  0
LINE
  5
3AE
  8
DATA
 62
     7
 10
996.26499999999999
 20
914.0
 30
0.0
 11
996.26499999999999
 21
949.0
 31
0.0
  0
LINE
  5
3AF
  8
DATA
 62
     7
 10
992.26499999999999
 20
854.0
 30
0.0
 11
992.26499999999999
 21
859.5
 31
0.0
  0
LINE
  5
3B0
  8
DATA
 62
     7
 10
987.60053200000004
 20
840.00283400000001
 30
0.0
 11
987.60053200000004
 21
839.3189880000001
 31
0.0
  0
LINE
  5
3B1
  8
DATA
 62
     7
 10
985.82722599999988
 20
838.09079699999995
 30
0.0
 11
987.14802499999985
 21
838.09079699999995
 31
0.0
  0
LINE
  5
3B2
  8
DATA
 62
     7
 10
987.14802499999985
 20
838.09079699999995
 30
0.0
 11
987.14802499999985
 21
837.41203699999994
 31
0.0
  0
LINE
  5
3B3
  8
DATA
 62
     7
 10
987.14802499999985
 20
837.41203699999994
 30
0.0
 11
985.82722599999988
 21
837.41203699999994
 31
0.0
  0
LINE
  5
3B4
  8
DATA
 62
     7
 10
987.60053200000004
 20
836.18384500000002
 30
0.0
 11
987.60053200000004
 21
835.5
 31
0.0
  0
ARC
  5
3B5
  8
DATA
 62
     7
 10
987.37424700000008
 20
837.75142999999991
 30
0.0
 40
1.583807
 50
81.785810999999995
 51
167.62710999999999
  0
ARC
  5
3B6
  8
DATA
 62
     7
 10
987.37428299999988
 20
837.75141699999995
 30
0.0
 40
2.2627559999999991
 50
84.261515000000017
 51
275.73848500000003
  0
ARC
  5
3B7
  8
DATA
 62
     7
 10
987.37426199999993
 20
837.75142500000004
 30
0.0
 40
1.583826
 50
192.37351699999999
 51
278.21356200000002
  0
ARC
  5
3B8
  8
DATA
 62
     7
 10
1004.53
 20
996.47800000000007
 30
0.0
 40
22.0
 50
0.0
 51
90.0
  0
ARC
  5
3B9
  8
DATA
 62
     7
 10
1004.53
 20
975.44575199999997
 30
0.0
 40
22.0
 50
0.0
 51
90.0
  0
CIRCLE
  5
3BA
  8
DATA
 62
     7
 10
1005.765
 20
979.0
 30
0.0
 40
3.5
  0
LINE
  5
3BB
  8
DATA
 62
     7
 10
1003.599936
 20
980.25
 30
0.0
 11
1003.599936
 21
977.74999999999989
 31
0.0
  0
LINE
  5
3BC
  8
DATA
 62
     7
 10
1003.599936
 20
977.74999999999989
 30
0.0
 11
1005.765
 21
976.5
 31
0.0
  0
LINE
  5
3BD
  8
DATA
 62
     7
 10
1005.765
 20
976.5
 30
0.0
 11
1007.930064
 21
977.74999999999989
 31
0.0
  0
LINE
  5
3BE
  8
DATA
 62
     7
 10
1007.930064
 20
977.74999999999989
 30
0.0
 11
1007.930064
 21
980.25
 31
0.0
  0
LINE
  5
3BF
  8
DATA
 62
     7
 10
1007.930064
 20
980.25
 30
0.0
 11
1005.765
 21
981.49999999999989
 31
0.0
  0
LINE
  5
3C0
  8
DATA
 62
     7
 10
1005.765
 20
981.49999999999989
 30
0.0
 11
1003.599936
 21
980.25
 31
0.0
  0
CIRCLE
  5
3C1
  8
DATA
 62
     7
 10
993.01499999999987
 20
906.265534
 30
0.0
 40
2.5
  0
CIRCLE
  5
3C2
  8
DATA
 62
     7
 10
993.01499999999987
 20
957.234466
 30
0.0
 40
2.5
  0
LINE
  5
3C3
  8
DATA
 62
     7
 10
986.26499999999999
 20
826.5
 30
0.0
 11
986.26499999999999
 21
828.0
 31
0.0
  0
LINE
  5
3C4
  8
DATA
 62
     7
 10
1426.0
 20
722.0
 30
0.0
 11
1426.0
 21
875.0
 31
0.0
  0
ARC
  5
3C5
  8
DATA
 62
     7
 10
1435.0
 20
722.0
 30
0.0
 40
9.0
 50
180.0
 51
270.0
  0
CIRCLE
  5
3C6
  8
DATA
 62
     7
 10
1478.5
 20
778.22749899999985
 30
0.0
 40
7.5
  0
LINE
  5
3C7
  8
DATA
 62
     7
 10
1481.5
 20
778.22749899999985
 30
0.0
 11
1475.5
 21
778.22749899999985
 31
0.0
  0
LINE
  5
3C8
  8
DATA
 62
     7
 10
1478.5
 20
781.22749899999985
 30
0.0
 11
1478.5
 21
775.22749899999997
 31
0.0
  0
CIRCLE
  5
3C9
  8
DATA
 62
     7
 10
1478.5
 20
742.22749899999997
 30
0.0
 40
12.0
  0
CIRCLE
  5
3CA
  8
DATA
 62
     7
 10
1478.5
 20
742.22749899999997
 30
0.0
 40
19.5
  0
CIRCLE
  5
3CB
  8
DATA
 62
     7
 10
1478.5
 20
742.22749899999997
 30
0.0
 40
6.0
  0
LINE
  5
3CC
  8
DATA
 62
     7
 10
1475.1668
 20
680.0
 30
0.0
 11
1478.5
 21
700.0
 31
0.0
  0
LINE
  5
3CD
  8
DATA
 62
     7
 10
1481.8332
 20
680.0
 30
0.0
 11
1478.5
 21
700.0
 31
0.0
  0
LINE
  5
3CE
  8
DATA
 62
     7
 10
1556.5795000000001
 20
662.5
 30
0.0
 11
1556.5795000000001
 21
700.0
 31
0.0
  0
TEXT
  5
3CF
  8
HIBINO-BASE
 62
     7
 10
1730.0
 20
225.0
 30
0.0
 40
25.0
  1
DRAWING NO.
 41
0.75
  0
TEXT
  5
3D0
  8
HIBINO-BASE
 62
     7
 10
1562.3002630000001
 20
85.913200000000003
 30
0.0
 40
40.0
  1
ヒビノ株式会社
 41
0.75
  0
TEXT
  5
3D1
  8
DATA
 62
     7
 10
1540.7
 20
551.49999999999989
 30
0.0
 40
21.0
  1
(Nominal Configuration -
 41
0.75
  0
TEXT
  5
3D2
  8
DATA
 62
     7
 10
1519.7
 20
432.5
 30
0.0
 40
21.0
  1
4: HF -1.5dB Above 2.2kHz
 41
0.75
  0
TEXT
  5
3D3
  8
DATA
 62
     7
 10
1519.7
 20
456.30000000000001
 30
0.0
 40
21.0
  1
3: HF +1.5dB Above 2.2kHz
 41
0.75
  0
TEXT
  5
3D4
  8
HIBINO-BASE
 62
     7
 10
1605.0
 20
225.0
 30
0.0
 40
25.0
  1
CHECK
 41
0.75
  0
LINE
  5
3D5
  8
HIBINO-BASE
 62
     7
 10
1725.0
 20
250.0
 30
0.0
 11
1725.0
 21
150.0
 31
0.0
  0
LINE
  5
3D6
  8
HIBINO-BASE
 62
     7
 10
1600.0
 20
150.0
 30
0.0
 11
1600.0
 21
250.0
 31
0.0
  0
TEXT
  5
3D7
  8
DATA
 62
     7
 10
1519.7
 20
480.10000000000002
 30
0.0
 40
21.0
  1
2: Boundary Compensation
 41
0.75
  0
TEXT
  5
3D8
  8
DATA
 62
     7
 10
1519.7
 20
503.89999999999992
 30
0.0
 40
21.0
  1
1: 80 Hz High Pass
 41
0.75
  0
TEXT
  5
3D9
  8
DATA
 62
     7
 10
1554.7
 20
527.70000000000005
 30
0.0
 40
21.0
  1
All Switches Down)
 41
0.75
  0
TEXT
  5
3DA
  8
DATA
 62
     7
 10
1526.5246139999999
 20
637.5
 30
0.0
 40
25.0
  1
XLRメス
 41
0.75
  0
ARC
  5
3DB
  8
DATA
 62
     7
 10
1765.0
 20
722.0
 30
0.0
 40
9.0
 50
270.0
 51
0.0
  0
LINE
  5
3DC
  8
DATA
 62
     7
 10
1641.797851
 20
788.08097799999996
 30
0.0
 11
1714.2021030000001
 21
788.08097799999996
 31
0.0
  0
LINE
  5
3DD
  8
DATA
 62
     7
 10
1714.2021030000001
 20
753.78424800000005
 30
0.0
 11
1695.1483760000001
 21
734.73049900000001
 31
0.0
  0
ARC
  5
3DE
  8
DATA
 62
     7
 10
1712.402709
 20
736.23049900000001
 30
0.0
 40
9.0
 50
270.0
 51
330.80251399999997
  0
ARC
  5
3DF
  8
DATA
 62
     7
 10
1712.402709
 20
820.23049900000001
 30
0.0
 40
9.0
 50
29.197486000000001
 51
90.0
  0
ARC
  5
3E0
  8
DATA
 62
     7
 10
1711.0
 20
815.73049900000001
 30
0.0
 40
9.0
 50
0.0
 51
90.0
  0
ARC
  5
3E1
  8
DATA
 62
     7
 10
1711.0
 20
740.73049900000001
 30
0.0
 40
9.0
 50
270.0
 51
0.0
  0
LINE
  5
3E2
  8
DATA
 62
     7
 10
1714.2021030000001
 20
788.08097799999996
 30
0.0
 11
1714.2021030000001
 21
753.78424800000005
 31
0.0
  0
LINE
  5
3E3
  8
DATA
 62
     7
 10
1742.0941519999999
 20
770.91317800000002
 30
0.0
 11
1720.2592
 21
731.84010699999999
 31
0.0
  0
LINE
  5
3E4
  8
DATA
 62
     7
 10
1720.0
 20
815.73049900000001
 30
0.0
 11
1720.0
 21
740.73049900000001
 31
0.0
  0
ARC
  5
3E5
  8
DATA
 62
     7
 10
1729.0
 20
778.23049900000001
 30
0.0
 40
15.0
 50
330.80251399999997
 51
29.197486000000001
  0
LINE
  5
3E6
  8
DATA
 62
     7
 10
1742.0941519999999
 20
785.547819
 30
0.0
 11
1720.2592
 21
824.62089100000003
 31
0.0
  0
CIRCLE
  5
3E7
  8
DATA
 62
     7
 10
1732.0
 20
778.23049900000001
 30
0.0
 40
9.0
  0
LINE
  5
3E8
  8
DATA
 62
     7
 10
1732.0
 20
782.73049900000001
 30
0.0
 11
1732.0
 21
773.73049900000001
 31
0.0
  0
LINE
  5
3E9
  8
DATA
 62
     7
 10
1736.5
 20
778.23049900000001
 30
0.0
 11
1727.5
 21
778.23049900000001
 31
0.0
  0
ARC
  5
3EA
  8
DATA
 62
     7
 10
1556.5795000000001
 20
758.72899900000004
 30
0.0
 40
23.998532999999998
 50
140.49936
 51
129.76818499999999
  0
CIRCLE
  5
3EB
  8
DATA
 62
     7
 10
1556.5
 20
758.72749899999997
 30
0.0
 40
34.5
  0
ARC
  5
3EC
  8
DATA
 62
     7
 10
1556.5
 20
758.72749899999997
 30
0.0
 40
33.0
 50
117.035692
 51
62.964308000000003
  0
LINE
  5
3ED
  8
DATA
 62
     7
 10
1641.797851
 20
753.78424800000005
 30
0.0
 11
1641.797851
 21
788.08097799999996
 31
0.0
  0
LINE
  5
3EE
  8
DATA
 62
     7
 10
1699.1115569999999
 20
761.40573800000004
 30
0.0
 11
1699.1115569999999
 21
776.64874199999986
 31
0.0
  0
LINE
  5
3EF
  8
DATA
 62
     7
 10
1702.769867
 20
776.64874199999986
 30
0.0
 11
1702.769867
 21
761.40573800000004
 31
0.0
  0
LINE
  5
3F0
  8
DATA
 62
     7
 10
1653.3825220000001
 20
761.40573800000004
 30
0.0
 11
1653.3825220000001
 21
776.64874199999986
 31
0.0
  0
LINE
  5
3F1
  8
DATA
 62
     7
 10
1657.040878
 20
776.64874199999986
 30
0.0
 11
1657.040878
 21
761.40573800000004
 31
0.0
  0
LINE
  5
3F2
  8
DATA
 62
     7
 10
1635.7408
 20
731.84010699999999
 30
0.0
 11
1613.9058480000001
 21
770.91317800000002
 31
0.0
  0
LINE
  5
3F3
  8
DATA
 62
     7
 10
1636.0
 20
740.73049900000001
 30
0.0
 11
1636.0
 21
815.73049900000001
 31
0.0
  0
ARC
  5
3F4
  8
DATA
 62
     7
 10
1539.5296000000001
 20
775.69946800000002
 30
0.0
 40
2.2500029999999991
 50
40.986535000000003
 51
229.28101000000001
  0
LINE
  5
3F5
  8
DATA
 62
     7
 10
1571.5
 20
789.79597200000001
 30
0.0
 11
1571.5
 21
788.12137599999994
 31
0.0
  0
LINE
  5
3F6
  8
DATA
 62
     7
 10
1541.5
 20
789.79597200000001
 30
0.0
 11
1541.5
 21
788.12137599999994
 31
0.0
  0
LINE
  5
3F7
  8
DATA
 62
     7
 10
1699.1115569999999
 20
776.64874199999986
 30
0.0
 11
1702.769867
 21
776.64874199999986
 31
0.0
  0
LINE
  5
3F8
  8
DATA
 62
     7
 10
1653.3825220000001
 20
776.64874199999986
 30
0.0
 11
1657.040878
 21
776.64874199999986
 31
0.0
  0
CIRCLE
  5
3F9
  8
DATA
 62
     7
 10
1529.5
 20
793.22749899999985
 30
0.0
 40
7.5
  0
LINE
  5
3FA
  8
DATA
 62
     7
 10
1532.5
 20
793.22749899999985
 30
0.0
 11
1526.5
 21
793.22749899999985
 31
0.0
  0
LINE
  5
3FB
  8
DATA
 62
     7
 10
1529.5
 20
796.22749899999997
 30
0.0
 11
1529.5
 21
790.22749899999985
 31
0.0
  0
ARC
  5
3FC
  8
DATA
 62
     7
 10
1627.0
 20
778.23049900000001
 30
0.0
 40
15.0
 50
150.802514
 51
209.197486
  0
LINE
  5
3FD
  8
DATA
 62
     7
 10
1645.0
 20
824.7304989999999
 30
0.0
 11
1711.0
 21
824.7304989999999
 31
0.0
  0
ARC
  5
3FE
  8
DATA
 62
     7
 10
1645.0
 20
815.73049900000001
 30
0.0
 40
9.0
 50
90.0
 51
180.0
  0
LINE
  5
3FF
  8
DATA
 62
     7
 10
1712.402709
 20
829.2304989999999
 30
0.0
 11
1643.597291
 21
829.2304989999999
 31
0.0
  0
LINE
  5
400
  8
DATA
 62
     7
 10
1613.9058480000001
 20
785.547819
 30
0.0
 11
1635.7408
 21
824.62089100000003
 31
0.0
  0
ARC
  5
401
  8
DATA
 62
     7
 10
1643.597291
 20
820.23049900000001
 30
0.0
 40
9.0
 50
90.0
 51
150.802514
  0
CIRCLE
  5
402
  8
DATA
 62
     7
 10
1624.0
 20
778.23049900000001
 30
0.0
 40
9.0
  0
LINE
  5
403
  8
DATA
 62
     7
 10
1624.0
 20
782.73049900000001
 30
0.0
 11
1624.0
 21
773.73049900000001
 31
0.0
  0
LINE
  5
404
  8
DATA
 62
     7
 10
1628.5
 20
778.23049900000001
 30
0.0
 11
1619.5
 21
778.23049900000001
 31
0.0
  0
POLYLINE
  5
405
  8
DATA
 62
     7
 66
     1
 10
0.0
 20
0.0
 30
0.0
 70
     1
  0
VERTEX
  5
4F3
  8
DATA
 62
     7
 10
1710.25
 20
821.73049900000001
 30
0.0
  0
VERTEX
  5
4F4
  8
DATA
 62
     7
 10
1710.25
 20
790.23049900000001
 30
0.0
  0
VERTEX
  5
4F5
  8
DATA
 62
     7
 10
1645.75
 20
790.23049900000001
 30
0.0
  0
VERTEX
  5
4F6
  8
DATA
 62
     7
 10
1645.75
 20
821.73049900000001
 30
0.0
  0
SEQEND
  5
4F7
  8
DATA
 62
     7
  0
POLYLINE
  5
40B
  8
DATA
 62
     7
 66
     1
 10
0.0
 20
0.0
 30
0.0
 70
     1
  0
VERTEX
  5
4F8
  8
DATA
 62
     7
 10
1681.75
 20
813.48049900000012
 30
0.0
  0
VERTEX
  5
4F9
  8
DATA
 62
     7
 10
1681.75
 20
798.48049900000001
 30
0.0
  0
VERTEX
  5
4FA
  8
DATA
 62
     7
 10
1674.25
 20
798.48049900000001
 30
0.0
  0
VERTEX
  5
4FB
  8
DATA
 62
     7
 10
1674.25
 20
813.48049900000012
 30
0.0
  0
SEQEND
  5
4FC
  8
DATA
 62
     7
  0
TEXT
  5
411
  8
DATA
 62
     7
 10
1680.25
 20
801.38528899999994
 30
0.0
 40
6.0
  1
115
 50
90.0
 41
0.75
  0
CIRCLE
  5
412
  8
DATA
 62
     7
 10
1556.5
 20
746.72749899999985
 30
0.0
 40
3.0
  0
CIRCLE
  5
413
  8
DATA
 62
     7
 10
1568.5
 20
758.72749899999997
 30
0.0
 40
3.0
  0
CIRCLE
  5
414
  8
DATA
 62
     7
 10
1544.5
 20
758.72749899999997
 30
0.0
 40
3.0
  0
LINE
  5
415
  8
DATA
 62
     7
 10
1695.1483760000001
 20
734.73049900000001
 30
0.0
 11
1660.8516239999999
 21
734.73049900000001
 31
0.0
  0
LINE
  5
416
  8
DATA
 62
     7
 10
1660.8516239999999
 20
734.73049900000001
 30
0.0
 11
1641.797851
 21
753.78424800000005
 31
0.0
  0
LINE
  5
417
  8
DATA
 62
     7
 10
1702.769867
 20
761.40573800000004
 30
0.0
 11
1699.1115569999999
 21
761.40573800000004
 31
0.0
  0
LINE
  5
418
  8
DATA
 62
     7
 10
1679.90535
 20
746.16273399999989
 30
0.0
 11
1675.9421689999999
 21
746.16273399999989
 31
0.0
  0
LINE
  5
419
  8
DATA
 62
     7
 10
1675.9421689999999
 20
746.16273399999989
 30
0.0
 11
1675.9421689999999
 21
761.23806000000002
 31
0.0
  0
LINE
  5
41A
  8
DATA
 62
     7
 10
1675.9421689999999
 20
761.23806000000002
 30
0.0
 11
1679.90535
 21
761.23806000000002
 31
0.0
  0
LINE
  5
41B
  8
DATA
 62
     7
 10
1679.90535
 20
761.23806000000002
 30
0.0
 11
1679.90535
 21
746.16273399999989
 31
0.0
  0
LINE
  5
41C
  8
DATA
 62
     7
 10
1657.040878
 20
761.40573800000004
 30
0.0
 11
1653.3825220000001
 21
761.40573800000004
 31
0.0
  0
CIRCLE
  5
41D
  8
DATA
 62
     7
 10
1583.5
 20
724.23049900000001
 30
0.0
 40
7.5
  0
LINE
  5
41E
  8
DATA
 62
     7
 10
1586.5
 20
724.23049900000001
 30
0.0
 11
1580.5
 21
724.23049900000001
 31
0.0
  0
LINE
  5
41F
  8
DATA
 62
     7
 10
1583.5
 20
727.23049900000001
 30
0.0
 11
1583.5
 21
721.2304989999999
 31
0.0
  0
ARC
  5
420
  8
DATA
 62
     7
 10
1643.597291
 20
736.23049900000001
 30
0.0
 40
9.0
 50
209.197486
 51
270.0
  0
LINE
  5
421
  8
DATA
 62
     7
 10
1712.402709
 20
727.23049900000001
 30
0.0
 11
1643.597291
 21
727.23049900000001
 31
0.0
  0
ARC
  5
422
  8
DATA
 62
     7
 10
1645.0
 20
740.73049900000001
 30
0.0
 40
9.0
 50
180.0
 51
270.0
  0
LINE
  5
423
  8
DATA
 62
     7
 10
1711.0
 20
731.73049900000001
 30
0.0
 11
1645.0
 21
731.73049900000001
 31
0.0
  0
LINE
  5
424
  8
DATA
 62
     7
 10
1553.2463
 20
680.0
 30
0.0
 11
1556.5795000000001
 21
700.0
 31
0.0
  0
LINE
  5
425
  8
DATA
 62
     7
 10
1559.9127000000001
 20
680.0
 30
0.0
 11
1556.5795000000001
 21
700.0
 31
0.0
  0
LINE
  5
426
  8
DATA
 62
     7
 10
1774.0
 20
875.0
 30
0.0
 11
1774.0
 21
722.0
 31
0.0
  0
LINE
  5
427
  8
SPEC
 62
     7
 10
1650.0
 20
2650.0
 30
0.0
 11
1650.0
 21
1825.0
 31
0.0
  0
ENDSEC
  0
EOF
