  0
SECTION
  2
HEADER
  9
$ACADVER
  1
AC1009
  9
$INSBASE
 10
0.0
 20
0.0
 30
0.0
  9
$EXTMIN
 10
-800.92497759452885
 20
-1215.0021724079279
 30
0.0
  9
$EXTMAX
 10
999.07492240547515
 20
1457.1645860380991
 30
0.0
  9
$LIMMIN
 10
0.0
 20
0.0
  9
$LIMMAX
 10
0.0
 20
0.0
  9
$ORTHOMODE
 70
     0
  9
$REGENMODE
 70
     1
  9
$FILLMODE
 70
     1
  9
$QTEXTMODE
 70
     0
  9
$MIRRTEXT
 70
     1
  9
$DRAGMODE
 70
     2
  9
$LTSCALE
 40
127.0
  9
$OSMODE
 70
   231
  9
$ATTMODE
 70
     1
  9
$TEXTSIZE
 40
0.0
  9
$TRACEWID
 40
1.0
  9
$TEXTSTYLE
  7
STANDARD
  9
$CLAYER
  8
DATA
  9
$CELTYPE
  6
BYLAYER
  9
$CECOLOR
 62
   256
  9
$DIMSCALE
 40
1.0
  9
$DIMASZ
 40
0.18
  9
$DIMEXO
 40
0.0625
  9
$DIMDLI
 40
0.38
  9
$DIMRND
 40
0.0
  9
$DIMDLE
 40
0.0
  9
$DIMEXE
 40
0.18
  9
$DIMTP
 40
0.0
  9
$DIMTM
 40
0.0
  9
$DIMTXT
 40
0.18
  9
$DIMCEN
 40
0.09
  9
$DIMTSZ
 40
0.0
  9
$DIMTOL
 70
     0
  9
$DIMLIM
 70
     0
  9
$DIMTIH
 70
     1
  9
$DIMTOH
 70
     1
  9
$DIMSE1
 70
     0
  9
$DIMSE2
 70
     0
  9
$DIMTAD
 70
     0
  9
$DIMZIN
 70
     0
  9
$DIMBLK
  1

  9
$DIMASO
 70
     1
  9
$DIMSHO
 70
     1
  9
$DIMPOST
  1

  9
$DIMAPOST
  1

  9
$DIMALT
 70
     0
  9
$DIMALTD
 70
     2
  9
$DIMALTF
 40
25.399999999999999
  9
$DIMLFAC
 40
1.0
  9
$DIMTOFL
 70
     0
  9
$DIMTVP
 40
0.0
  9
$DIMTIX
 70
     0
  9
$DIMSOXD
 70
     0
  9
$DIMSAH
 70
     0
  9
$DIMBLK1
  1

  9
$DIMBLK2
  1

  9
$DIMSTYLE
  2
STANDARD
  9
$DIMCLRD
 70
     0
  9
$DIMCLRE
 70
     0
  9
$DIMCLRT
 70
     0
  9
$DIMTFAC
 40
1.0
  9
$DIMGAP
 40
0.09
  9
$LUNITS
 70
     2
  9
$LUPREC
 70
     4
  9
$SKETCHINC
 40
0.1
  9
$FILLETRAD
 40
0.0
  9
$AUNITS
 70
     0
  9
$AUPREC
 70
     0
  9
$MENU
  1
acad
  9
$ELEVATION
 40
0.0
  9
$PELEVATION
 40
0.0
  9
$THICKNESS
 40
0.0
  9
$LIMCHECK
 70
     0
  9
$BLIPMODE
 70
     0
  9
$CHAMFERA
 40
0.0
  9
$CHAMFERB
 40
0.0
  9
$SKPOLY
 70
     0
  9
$TDCREATE
 40
2456269.4474652782
  9
$TDUPDATE
 40
2456269.4501223271
  9
$TDINDWG
 40
0.0007249653
  9
$TDUSRTIMER
 40
0.0007248843
  9
$USRTIMER
 70
     1
  9
$ANGBASE
 50
0.0
  9
$ANGDIR
 70
     0
  9
$PDMODE
 70
     1
  9
$PDSIZE
 40
-2.0
  9
$PLINEWID
 40
0.0
  9
$COORDS
 70
     2
  9
$SPLFRAME
 70
     0
  9
$SPLINETYPE
 70
     6
  9
$SPLINESEGS
 70
     8
  9
$ATTDIA
 70
     0
  9
$ATTREQ
 70
     1
  9
$HANDLING
 70
     1
  9
$HANDSEED
  5
17E1
  9
$SURFTAB1
 70
     6
  9
$SURFTAB2
 70
     6
  9
$SURFTYPE
 70
     6
  9
$SURFU
 70
     6
  9
$SURFV
 70
     6
  9
$UCSNAME
  2

  9
$UCSORG
 10
0.0
 20
0.0
 30
0.0
  9
$UCSXDIR
 10
1.0
 20
0.0
 30
0.0
  9
$UCSYDIR
 10
0.0
 20
1.0
 30
0.0
  9
$PUCSNAME
  2

  9
$PUCSORG
 10
0.0
 20
0.0
 30
0.0
  9
$PUCSXDIR
 10
1.0
 20
0.0
 30
0.0
  9
$PUCSYDIR
 10
0.0
 20
1.0
 30
0.0
  9
$USERI1
 70
     0
  9
$USERI2
 70
     0
  9
$USERI3
 70
     0
  9
$USERI4
 70
     0
  9
$USERI5
 70
     0
  9
$USERR1
 40
0.0
  9
$USERR2
 40
0.0
  9
$USERR3
 40
0.0
  9
$USERR4
 40
0.0
  9
$USERR5
 40
0.0
  9
$WORLDVIEW
 70
     1
  9
$SHADEDGE
 70
     3
  9
$SHADEDIF
 70
    70
  9
$TILEMODE
 70
     1
  9
$MAXACTVP
 70
    64
  9
$PLIMCHECK
 70
     0
  9
$PEXTMIN
 10
1.0000000000000000E+020
 20
1.0000000000000000E+020
 30
1.0000000000000000E+020
  9
$PEXTMAX
 10
-1.0000000000000000E+020
 20
-1.0000000000000000E+020
 30
-1.0000000000000000E+020
  9
$PLIMMIN
 10
0.0
 20
0.0
  9
$PLIMMAX
 10
12.0
 20
9.0
  9
$UNITMODE
 70
     0
  9
$VISRETAIN
 70
     0
  9
$PLINEGEN
 70
     1
  9
$PSLTSCALE
 70
     0
  0
ENDSEC
  0
SECTION
  2
TABLES
  0
TABLE
  2
VPORT
 70
     1
  0
VPORT
  2
*ACTIVE
 70
     0
 10
0.0
 20
0.0
 11
1.0
 21
1.0
 12
99.074976596423767
 22
367.63465341263708
 13
0.0
 23
0.0
 14
1.0
 24
1.0
 15
0.0
 25
0.0
 16
0.0
 26
0.0
 36
1.0
 17
0.0
 27
0.0
 37
0.0
 40
2696.5039043690672
 41
2.3525073746312679
 42
50.0
 43
0.0
 44
0.0
 50
0.0
 51
0.0
 71
     0
 72
  2000
 73
     1
 74
     1
 75
     0
 76
     0
 77
     0
 78
     0
  0
ENDTAB
  0
TABLE
  2
LTYPE
 70
     2
  0
LTYPE
  2
CONTINUOUS
 70
     0
  3
Solid line
 72
    65
 73
     0
 40
0.0
  0
LTYPE
  2
PHANTOM2
 70
     0
  3
___ _ _ ___ _ _ ___ _ _ ___ _ _
 72
    65
 73
     6
 40
1.25
 49
0.625
 49
-0.125
 49
0.125
 49
-0.125
 49
0.125
 49
-0.125
  0
ENDTAB
  0
TABLE
  2
LAYER
 70
     5
  0
LAYER
  2
0
 70
     0
 62
     7
  6
CONTINUOUS
  0
LAYER
  2
DATA
 70
     0
 62
     7
  6
CONTINUOUS
  0
LAYER
  2
HIBINO-BASE
 70
     0
 62
     7
  6
CONTINUOUS
  0
LAYER
  2
SPEC
 70
     0
 62
     7
  6
CONTINUOUS
  0
LAYER
  2
DIMNSIONS
 70
     0
 62
     7
  6
CONTINUOUS
  0
ENDTAB
  0
TABLE
  2
STYLE
 70
     2
  0
STYLE
  2
STANDARD
 70
     0
 40
0.0
 41
1.0
 50
0.0
 71
     0
 42
0.0
  3
txt
  4
BIGFONT.SHX
  0
STYLE
  2
ANNOTATIVE
 70
     0
 40
0.0
 41
1.0
 50
0.0
 71
     0
 42
0.2
  3
txt
  4

  0
ENDTAB
  0
TABLE
  2
VIEW
 70
     0
  0
ENDTAB
  0
TABLE
  2
UCS
 70
     0
  0
ENDTAB
  0
TABLE
  2
APPID
 70
     4
  0
APPID
  2
ACAD
 70
     0
  0
APPID
  2
ACADANNOTATIVE
 70
     0
  0
APPID
  2
ACAD_NAV_VCDISPLAY
 70
     0
  0
APPID
  2
ACAD_MLEADERVER
 70
     0
  0
ENDTAB
  0
TABLE
  2
DIMSTYLE
 70
     2
  0
DIMSTYLE
  2
STANDARD
 70
     0
  3

  4

  5

  6

  7

 40
1.0
 41
0.18
 42
0.0625
 43
0.38
 44
0.18
 45
0.0
 46
0.0
 47
0.0
 48
0.0
140
0.18
141
0.09
142
0.0
143
25.399999999999999
144
1.0
145
0.0
146
1.0
147
0.09
 71
     0
 72
     0
 73
     1
 74
     1
 75
     0
 76
     0
 77
     0
 78
     0
170
     0
171
     2
172
     0
173
     0
174
     0
175
     0
176
     0
177
     0
178
     0
  0
DIMSTYLE
  2
ANNOTATIVE
 70
     0
  3

  4

  5

  6

  7

 40
1.0
 41
0.18
 42
0.0625
 43
0.38
 44
0.18
 45
0.0
 46
0.0
 47
0.0
 48
0.0
140
0.18
141
0.09
142
0.0
143
25.399999999999999
144
1.0
145
0.0
146
1.0
147
0.09
 71
     0
 72
     0
 73
     1
 74
     1
 75
     0
 76
     0
 77
     0
 78
     0
170
     0
171
     2
172
     0
173
     0
174
     0
175
     0
176
     0
177
     0
178
     0
  0
ENDTAB
  0
ENDSEC
  0
SECTION
  2
BLOCKS
  0
BLOCK
  8
0
  2
$MODEL_SPACE
 70
     0
 10
0.0
 20
0.0
 30
0.0
  3
$MODEL_SPACE
  1

  0
ENDBLK
  5
11E1
  8
0
  0
BLOCK
 67
     1
  8
0
  2
$PAPER_SPACE
 70
     0
 10
0.0
 20
0.0
 30
0.0
  3
$PAPER_SPACE
  1

  0
ENDBLK
  5
11DD
 67
     1
  8
0
  0
ENDSEC
  0
SECTION
  2
ENTITIES
  0
LINE
  5
2D
  8
HIBINO-BASE
  6
CONTINUOUS
 62
     7
 10
-800.92497759452885
 20
1457.1645860380991
 30
0.0
 11
999.07492240547515
 21
1457.1645860380991
 31
0.0
  0
LINE
  5
2E
  8
HIBINO-BASE
  6
CONTINUOUS
 62
     7
 10
999.07492240547515
 20
-1142.8353639618999
 30
0.0
 11
-800.92497759452885
 21
-1142.8353639618999
 31
0.0
  0
LINE
  5
2F
  8
HIBINO-BASE
  6
CONTINUOUS
 62
     7
 10
-800.92497759452885
 20
-1142.8353639618999
 30
0.0
 11
-800.92497759452885
 21
1457.1645860380991
 31
0.0
  0
TEXT
  5
30
  8
HIBINO-BASE
 62
     7
 10
-757.23013739729663
 20
-1203.238319688021
 30
0.0
 40
35.291558159722221
  1
Hibino Corporation
 41
0.7
 11
-757.23013739729663
 21
-1167.946761528299
 31
0.0
 73
     3
  0
LINE
  5
31
  8
HIBINO-BASE
  6
CONTINUOUS
 62
     7
 10
999.07492240547515
 20
1457.1645860380991
 30
0.0
 11
999.07492240547515
 21
-1142.8353639618999
 31
0.0
  0
LINE
  5
32
  8
HIBINO-BASE
  6
CONTINUOUS
 62
     7
 10
99.074972405473403
 20
-917.8354139619006
 30
0.0
 11
999.07492240547515
 21
-917.8354139619006
 31
0.0
  0
LINE
  5
33
  8
HIBINO-BASE
  6
CONTINUOUS
 62
     7
 10
99.074972405473403
 20
-1142.8353639618999
 30
0.0
 11
99.074972405473403
 21
-917.8354139619006
 31
0.0
  0
LINE
  5
34
  8
HIBINO-BASE
  6
CONTINUOUS
 62
     7
 10
449.07497240547377
 20
-1142.8353639618999
 30
0.0
 11
449.07497240547377
 21
-917.8354139619006
 31
0.0
  0
TEXT
  5
35
  8
HIBINO-BASE
 62
     7
 10
572.54751090822811
 20
-1203.2351592310811
 30
0.0
 40
35.291558159722221
  1
ヒビノ株式会社
 41
0.7
 11
572.54751090822811
 21
-1167.9436010713589
 31
0.0
 73
     3
  0
LINE
  5
36
  8
HIBINO-BASE
  6
CONTINUOUS
 62
     7
 10
99.074972405473403
 20
-1042.8354139619
 30
0.0
 11
999.07492240547515
 21
-1042.8354139619
 31
0.0
  0
LINE
  5
37
  8
HIBINO-BASE
  6
CONTINUOUS
 62
     7
 10
224.0748724054736
 20
-1142.8353639618999
 30
0.0
 11
224.0748724054736
 21
-1042.8354139619
 31
0.0
  0
LINE
  5
38
  8
HIBINO-BASE
  6
CONTINUOUS
 62
     7
 10
324.07492240547401
 20
-1142.8353639618999
 30
0.0
 11
324.07492240547401
 21
-1042.8354139619
 31
0.0
  0
LINE
  5
39
  8
HIBINO-BASE
  6
CONTINUOUS
 62
     7
 10
574.07492240547322
 20
-1042.8354139619
 30
0.0
 11
574.07492240547322
 21
-1142.8353639618999
 31
0.0
  0
LINE
  5
3A
  8
HIBINO-BASE
  6
CONTINUOUS
 62
     7
 10
824.07497240547377
 20
-1042.8354139619
 30
0.0
 11
824.07497240547377
 21
-1142.8353639618999
 31
0.0
  0
LINE
  5
3B
  8
HIBINO-BASE
  6
CONTINUOUS
 62
     7
 10
699.07487240547368
 20
-1142.8353639618999
 30
0.0
 11
699.07487240547368
 21
-1042.8354139619
 31
0.0
  0
TEXT
  5
3C
  8
HIBINO-BASE
 62
     7
 10
109.3088959047691
 20
-945.68196405987112
 30
0.0
 40
19.003146701388879
  1
NOTE
 41
0.7
 11
109.3088959047691
 21
-926.67881735848221
 31
0.0
 73
     3
  0
TEXT
  5
3D
  8
HIBINO-BASE
 62
     7
 10
456.88995407583292
 20
-945.73525646129588
 30
0.0
 40
19.003146701388879
  1
TITLE
 41
0.7
 11
456.88995407583292
 21
-926.73210975990685
 31
0.0
 73
     3
  0
TEXT
  5
3E
  8
HIBINO-BASE
 62
     7
 10
592.69334424156148
 20
-1070.3875007472161
 30
0.0
 40
19.003146701388879
  1
DRAWN
 41
0.7
 11
592.69334424156148
 21
-1051.384354045827
 31
0.0
 73
     3
  0
TEXT
  5
3F
  8
HIBINO-BASE
 62
     7
 10
338.43668292934751
 20
-1070.579511053943
 30
0.0
 40
19.003146701388879
  1
DATE
 41
0.7
 11
338.43668292934751
 21
-1051.576364352554
 31
0.0
 73
     3
  0
TEXT
  5
40
  8
HIBINO-BASE
 62
     7
 10
106.9479999768775
 20
-1069.2045928951229
 30
0.0
 40
16.288411458333329
  1
図面サイズ
 41
0.7
 11
106.9479999768775
 21
-1052.9161814367901
 31
0.0
 73
     3
  0
TEXT
  5
41
  8
HIBINO-BASE
 62
     7
 10
231.17995922649851
 20
-1070.7531820982731
 30
0.0
 40
19.003146701388879
  1
SCALE
 41
0.7
 11
231.17995922649851
 21
-1051.750035396884
 31
0.0
 73
     3
  0
TEXT
  5
42
  8
HIBINO-BASE
 62
     7
 10
466.1528095789613
 20
-1070.989645499453
 30
0.0
 40
19.003146701388879
  1
DESIGN
 41
0.7
 11
466.1528095789613
 21
-1051.9864987980641
 31
0.0
 73
     3
  0
TEXT
  5
43
  8
HIBINO-BASE
 62
     7
 10
848.51187017406062
 20
-1070.7541972520989
 30
0.0
 40
19.003146701388879
  1
DRAWING NO.
 41
0.7
 11
848.51187017406062
 21
-1051.75105055071
 31
0.0
 73
     3
  0
TEXT
  5
44
  8
HIBINO-BASE
 62
     7
 10
720.19334424156136
 20
-1070.3661101873099
 30
0.0
 40
19.003146701388879
  1
CHECK
 41
0.7
 11
720.19334424156136
 21
-1051.3629634859219
 31
0.0
 73
     3
  0
TEXT
  5
45
  8
HIBINO-BASE
 62
     7
 10
329.6183608166221
 20
-1118.4986480740911
 30
0.0
 40
19.003146701388879
  1
'12.07.
 41
0.7
 11
329.6183608166221
 21
-1099.4955013727019
 31
0.0
 73
     3
  0
TEXT
  5
46
  8
HIBINO-BASE
 62
     7
 10
270.179755400857
 20
-1117.16559335434
 30
0.0
 40
19.003146701388879
  1
10
 41
0.7
 11
270.179755400857
 21
-1098.1624466529511
 31
0.0
 73
     3
  0
TEXT
  5
47
  8
HIBINO-BASE
 62
     7
 10
141.09488808516869
 20
-1119.910426255881
 30
0.0
 40
32.576822916666671
  1
A4
 41
0.7
 11
141.09488808516869
 21
-1087.3336033392141
 31
0.0
 73
     3
  0
TEXT
  5
48
  8
HIBINO-BASE
 62
     7
 10
-709.87084787677645
 20
-1107.5800327241809
 30
0.0
 40
16.288411458333329
  1
仕様および外観は予告なく変更されることがありますので、ご了承ください。
 41
0.7
 11
-709.87084787677645
 21
-1091.2916212658481
 31
0.0
 73
     3
  0
LINE
  5
49
  8
HIBINO-BASE
  6
CONTINUOUS
 62
     7
 10
279.5
 20
-1085.928371132117
 30
0.0
 11
248.15346278448689
 21
-1117.2749083476299
 31
0.0
  0
TEXT
  5
4A
  8
HIBINO-BASE
 62
     7
 10
247.0
 20
-1103.66559335434
 30
0.0
 40
19.003146701388879
  1
1
 41
0.7
 11
247.0
 21
-1084.6624466529511
 31
0.0
 73
     3
  0
TEXT
  5
4B
  8
SPEC
 62
     7
 10
-713.47829861865125
 20
1371.5994585193221
 30
0.0
 40
24.4326171875
  1
仕様
 41
0.7
 11
-713.47829861865125
 21
1396.0320757068221
 31
0.0
 73
     3
  0
LINE
  5
4C
  8
SPEC
  6
CONTINUOUS
 62
     7
 10
-725.97829861865102
 20
1357.6668585193211
 30
0.0
 11
749.0217013813492
 21
1357.6668585193211
 31
0.0
  0
LINE
  5
4D
  8
SPEC
  6
CONTINUOUS
 62
     7
 10
-725.97829861865102
 20
1320.1668585193199
 30
0.0
 11
749.0217013813492
 21
1320.1668585193199
 31
0.0
  0
LINE
  5
4E
  8
SPEC
  6
CONTINUOUS
 62
     7
 10
-725.97829861865102
 20
1282.6668585193199
 30
0.0
 11
749.0217013813492
 21
1282.6668585193199
 31
0.0
  0
LINE
  5
4F
  8
SPEC
  6
CONTINUOUS
 62
     7
 10
-725.97829861865102
 20
1245.1668585193211
 30
0.0
 11
749.0217013813492
 21
1245.1668585193211
 31
0.0
  0
LINE
  5
50
  8
SPEC
  6
CONTINUOUS
 62
     7
 10
-725.97829861865102
 20
1357.6668585193211
 30
0.0
 11
-725.97829861865102
 21
907.66685851932073
 31
0.0
  0
LINE
  5
51
  8
SPEC
  6
CONTINUOUS
 62
     7
 10
-300.97829861865119
 20
1357.6668585193211
 30
0.0
 11
-300.97829861865119
 21
907.66685851932073
 31
0.0
  0
LINE
  5
52
  8
SPEC
  6
CONTINUOUS
 62
     7
 10
749.0217013813492
 20
1357.6668585193211
 30
0.0
 11
749.0217013813492
 21
907.66685851932073
 31
0.0
  0
TEXT
  5
53
  8
SPEC
 62
     7
 10
-716.97829861865102
 20
1328.046036297098
 30
0.0
 40
19.003146701388879
  1
形式
 41
0.7
 11
-716.97829861865102
 21
1347.049182998486
 31
0.0
 73
     3
  0
LINE
  5
54
  8
SPEC
  6
CONTINUOUS
 62
     7
 10
-725.97829861865102
 20
1207.6668585193211
 30
0.0
 11
749.0217013813492
 21
1207.6668585193211
 31
0.0
  0
TEXT
  5
55
  8
SPEC
 62
     7
 10
-291.97829861865131
 20
1328.04605851932
 30
0.0
 40
19.003146701388879
  1
2-Wayバイアンプ・スタ ジオモニタ ー
 41
0.7
 11
-291.97829861865131
 21
1347.0492052207089
 31
0.0
 73
     3
  0
TEXT
  5
56
  8
SPEC
 62
     7
 10
-716.97829861865102
 20
1290.54605851932
 30
0.0
 40
19.003146701388879
  1
周波数特性
 41
0.7
 11
-716.97829861865102
 21
1309.549205220708
 31
0.0
 73
     3
  0
TEXT
  5
57
  8
SPEC
 62
     7
 10
-291.97829861865131
 20
1290.5460362970971
 30
0.0
 40
19.003146701388879
  1
55Hz～20kHz(\U+00B11.5dB)
 41
0.7
 11
-291.97829861865131
 21
1309.5491829984869
 31
0.0
 73
     3
  0
TEXT
  5
58
  8
SPEC
 62
     7
 10
-716.97829861865102
 20
1253.04605851932
 30
0.0
 40
19.003146701388879
  1
最大音圧(1m)
 41
0.7
 11
-716.97829861865102
 21
1272.0492052207089
 31
0.0
 73
     3
  0
TEXT
  5
59
  8
SPEC
 62
     7
 10
-291.97829861865131
 20
1253.046036297098
 30
0.0
 40
19.003146701388879
  1
106dB SPL
 41
0.7
 11
-291.97829861865131
 21
1272.0491829984869
 31
0.0
 73
     3
  0
TEXT
  5
5A
  8
SPEC
 62
     7
 10
-716.97829861865102
 20
1215.5460362970989
 30
0.0
 40
19.003146701388879
  1
ドライバー構成
 41
0.7
 11
-716.97829861865102
 21
1234.549182998488
 31
0.0
 73
     3
  0
TEXT
  5
5B
  8
SPEC
 62
     7
 10
-291.97829861865131
 20
1215.5460362970989
 30
0.0
 40
19.003146701388879
  1
LF:159mm\U+00D71(436H)、HF:25mm\U+00D71(431G)
 41
0.7
 11
-291.97829861865131
 21
1234.549182998488
 31
0.0
 73
     3
  0
TEXT
  5
5C
  8
SPEC
 62
     7
 10
-716.97829861865102
 20
1178.0460362970971
 30
0.0
 40
19.003146701388879
  1
パワーアンプ出力(＜0.1%%%THD)
 41
0.7
 11
-716.97829861865102
 21
1197.0491829984869
 31
0.0
 73
     3
  0
TEXT
  5
5D
  8
SPEC
 62
     7
 10
-291.97829861865131
 20
1178.0460362970971
 30
0.0
 40
19.003146701388879
  1
LF:150W(＜0.1%%%THD)、HF:70W
 41
0.7
 11
-291.97829861865131
 21
1197.0491829984869
 31
0.0
 73
     3
  0
LINE
  5
5E
  8
SPEC
  6
CONTINUOUS
 62
     7
 10
-725.97829861865102
 20
1170.1668585193211
 30
0.0
 11
749.0217013813492
 21
1170.1668585193211
 31
0.0
  0
TEXT
  5
5F
  8
SPEC
 62
     7
 10
-716.97829861865102
 20
1140.546036297098
 30
0.0
 40
19.003146701388879
  1
アナログ　入力コネクター
 41
0.7
 11
-716.97829861865102
 21
1159.549182998486
 31
0.0
 73
     3
  0
TEXT
  5
60
  8
SPEC
 62
     7
 10
-291.97829861865131
 20
1140.546036297098
 30
0.0
 40
19.003146701388879
  1
XLR\U+00D71、フォーンジャック\U+00D71
 41
0.7
 11
-291.97829861865131
 21
1159.549182998486
 31
0.0
 73
     3
  0
LINE
  5
61
  8
SPEC
  6
CONTINUOUS
 62
     7
 10
-725.97829861865102
 20
1132.6668585193211
 30
0.0
 11
749.0217013813492
 21
1132.6668585193211
 31
0.0
  0
TEXT
  5
62
  8
SPEC
 62
     7
 10
-716.97829861865102
 20
1103.0460362970971
 30
0.0
 40
19.003146701388879
  1
デジタル　入出力コネクター
 41
0.7
 11
-716.97829861865102
 21
1122.0491829984869
 31
0.0
 73
     3
  0
TEXT
  5
63
  8
SPEC
 62
     7
 10
-291.97829861865131
 20
1103.0460362970971
 30
0.0
 40
19.003146701388879
  1
XLR:AES/EBU、RCA:S/PDIF
 41
0.7
 11
-291.97829861865131
 21
1122.0491829984869
 31
0.0
 73
     3
  0
LINE
  5
64
  8
SPEC
  6
CONTINUOUS
 62
     7
 10
-725.97829861865046
 20
1095.1668585193211
 30
0.0
 11
749.0217013813492
 21
1095.1668585193211
 31
0.0
  0
LINE
  5
65
  8
SPEC
  6
CONTINUOUS
 62
     7
 10
-725.97829861865102
 20
1057.6668585193211
 30
0.0
 11
749.0217013813492
 21
1057.6668585193211
 31
0.0
  0
LINE
  5
66
  8
SPEC
  6
CONTINUOUS
 62
     7
 10
-725.97829861865102
 20
1020.166858519321
 30
0.0
 11
749.0217013813492
 21
1020.166858519321
 31
0.0
  0
LINE
  5
67
  8
SPEC
  6
CONTINUOUS
 62
     7
 10
-725.97829861865102
 20
982.66685851932073
 30
0.0
 11
749.0217013813492
 21
982.66685851932073
 31
0.0
  0
TEXT
  5
68
  8
SPEC
 62
     7
 10
-716.97829861865102
 20
990.546036297098
 30
0.0
 40
19.003146701388879
  1
質量
 41
0.7
 11
-716.97829861865102
 21
1009.549182998487
 31
0.0
 73
     3
  0
TEXT
  5
69
  8
SPEC
 62
     7
 10
-291.97829861865131
 20
1028.046036297098
 30
0.0
 40
19.003146701388879
  1
236(W)\U+00D7387(H)\U+00D7292(D)mm(突起部は除く)
 41
0.7
 11
-291.97829861865131
 21
1047.049182998486
 31
0.0
 73
     3
  0
TEXT
  5
6A
  8
SPEC
 62
     7
 10
-291.97829861865131
 20
990.54603629709914
 30
0.0
 40
19.003146701388879
  1
約13kg
 41
0.7
 11
-291.97829861865131
 21
1009.549182998488
 31
0.0
 73
     3
  0
TEXT
  5
6B
  8
SPEC
 62
     7
 10
-716.97829861865102
 20
953.04603629709891
 30
0.0
 40
19.003146701388879
  1
付属品
 41
0.7
 11
-716.97829861865102
 21
972.04918299848782
 31
0.0
 73
     3
  0
TEXT
  5
6C
  8
SPEC
 62
     7
 10
-716.97829861865102
 20
1065.546036297098
 30
0.0
 40
19.003146701388879
  1
接続端子
 41
0.7
 11
-716.97829861865102
 21
1084.5491829984869
 31
0.0
 73
     3
  0
TEXT
  5
6D
  8
SPEC
 62
     7
 10
-291.97829861865131
 20
1065.546036297098
 30
0.0
 40
19.003146701388879
  1
1/8インチフォーン(RMC専用マイク入力)、USB、RJ45(Harman HiQnet)
 41
0.7
 11
-291.97829861865131
 21
1084.5491829984869
 31
0.0
 73
     3
  0
TEXT
  5
6E
  8
SPEC
 62
     7
 10
-716.97829861865102
 20
1028.046036297098
 30
0.0
 40
19.003146701388879
  1
寸法(W\U+00D7H\U+00D7D)
 41
0.7
 11
-716.97829861865102
 21
1047.049182998486
 31
0.0
 73
     3
  0
TEXT
  5
6F
  8
SPEC
 62
     7
 10
-291.97829861865131
 20
953.04603629709891
 30
0.0
 40
19.003146701388879
  1
アクセサリーキット［内容:リモートコントローラー、CD-ROM、測定用マイクロホン、
 41
0.7
 11
-291.97829861865131
 21
972.04918299848782
 31
0.0
 73
     3
  0
TEXT
  5
70
  8
SPEC
 62
     7
 10
-291.97829861865131
 20
915.54603629709891
 30
0.0
 40
19.003146701388879
  1
単4乾電池\U+00D72、CAT5ケーブル(約7.3m)、USBケーブル(約4.8m)］
 41
0.7
 11
-291.97829861865131
 21
934.54918299848782
 31
0.0
 73
     3
  0
LINE
  5
71
  8
SPEC
  6
CONTINUOUS
 62
     7
 10
-725.97829861865102
 20
907.66685851932073
 30
0.0
 11
749.0217013813492
 21
907.66685851932073
 31
0.0
  0
TEXT
  5
72
  8
DIMNSIONS
 62
     7
 10
-86.938600202883066
 20
-1029.683423337126
 30
0.0
 40
24.4326171875
  1
(単位：mm)
 41
0.7
 11
-86.938600202883066
 21
-1005.250806149626
 31
0.0
 73
     3
  0
LINE
  5
73
  8
DIMNSIONS
  6
CONTINUOUS
 62
     7
 10
-477.39999999999998
 20
-795.0
 30
0.0
 11
-670.0
 21
-795.0
 31
0.0
  0
LINE
  5
74
  8
DIMNSIONS
  6
CONTINUOUS
 62
     7
 10
-477.39999999999998
 20
-687.04999999999995
 30
0.0
 11
-670.0
 21
-687.04999999999995
 31
0.0
  0
LINE
  5
75
  8
DIMNSIONS
  6
CONTINUOUS
 62
     7
 10
-650.0
 20
-795.0
 30
0.0
 11
-650.0
 21
-687.04999999999995
 31
0.0
  0
LINE
  5
76
  8
DIMNSIONS
  6
CONTINUOUS
 62
     7
 10
-650.0
 20
-795.0
 30
0.0
 11
-656.7003979515024
 21
-769.99377441406239
 31
0.0
  0
LINE
  5
77
  8
DIMNSIONS
  6
CONTINUOUS
 62
     7
 10
-650.0
 20
-795.0
 30
0.0
 11
-643.2996020484976
 21
-769.99377441406239
 31
0.0
  0
LINE
  5
78
  8
DIMNSIONS
  6
CONTINUOUS
 62
     7
 10
-650.0
 20
-687.04999999999995
 30
0.0
 11
-643.2996020484976
 21
-712.05622558593745
 31
0.0
  0
LINE
  5
79
  8
DIMNSIONS
  6
CONTINUOUS
 62
     7
 10
-650.0
 20
-687.04999999999995
 30
0.0
 11
-656.7003979515024
 21
-712.05622558593745
 31
0.0
  0
TEXT
  5
7A
  8
DIMNSIONS
 62
     7
 10
-659.93888888888853
 20
-793.94166666666661
 30
0.0
 40
27.147352430555561
  1
107.95
 50
90.0
 41
0.7
 11
-687.08624131944407
 21
-793.94166666666661
 31
0.0
 73
     3
  0
LINE
  5
7B
  8
DIMNSIONS
  6
CONTINUOUS
 62
     7
 10
-457.39999999999981
 20
-815.0
 30
0.0
 11
-457.39999999999981
 21
-1012.000000000175
 31
0.0
  0
LINE
  5
7C
  8
DIMNSIONS
  6
CONTINUOUS
 62
     7
 10
-406.60000000000002
 20
-815.0
 30
0.0
 11
-406.60000000000002
 21
-1012.000000000175
 31
0.0
  0
LINE
  5
7D
  8
DIMNSIONS
  6
CONTINUOUS
 62
     7
 10
-406.60000000000002
 20
-992.00000000017565
 30
0.0
 11
-457.39999999999981
 21
-992.00000000017565
 31
0.0
  0
LINE
  5
7E
  8
DIMNSIONS
  6
CONTINUOUS
 62
     7
 10
-457.39999999999981
 20
-992.00000000017565
 30
0.0
 11
-537.83333333333314
 21
-992.00000000017565
 31
0.0
  0
LINE
  5
7F
  8
DIMNSIONS
  6
CONTINUOUS
 62
     7
 10
-457.39999999999981
 20
-992.00000000017565
 30
0.0
 11
-482.40622558593748
 21
-998.70039795167816
 31
0.0
  0
LINE
  5
80
  8
DIMNSIONS
  6
CONTINUOUS
 62
     7
 10
-457.39999999999981
 20
-992.00000000017565
 30
0.0
 11
-482.40622558593748
 21
-985.29960204867268
 31
0.0
  0
LINE
  5
81
  8
DIMNSIONS
  6
CONTINUOUS
 62
     7
 10
-406.60000000000002
 20
-992.00000000017565
 30
0.0
 11
-356.60000000000002
 21
-992.00000000017565
 31
0.0
  0
LINE
  5
82
  8
DIMNSIONS
  6
CONTINUOUS
 62
     7
 10
-406.60000000000002
 20
-992.00000000017565
 30
0.0
 11
-381.59377441406258
 21
-985.29960204867268
 31
0.0
  0
LINE
  5
83
  8
DIMNSIONS
  6
CONTINUOUS
 62
     7
 10
-406.60000000000002
 20
-992.00000000017565
 30
0.0
 11
-381.59377441406258
 21
-998.70039795167816
 31
0.0
  0
TEXT
  5
84
  8
DIMNSIONS
 62
     7
 10
-537.83333333333314
 20
-982.06111111128655
 30
0.0
 40
27.147352430555561
  1
50.8
 41
0.7
 11
-537.83333333333314
 21
-954.91375868073101
 31
0.0
 73
     3
  0
LINE
  5
85
  8
DIMNSIONS
  6
CONTINUOUS
 62
     7
 10
-564.0
 20
-892.0
 30
0.0
 11
-670.0
 21
-892.0
 31
0.0
  0
LINE
  5
86
  8
DIMNSIONS
  6
CONTINUOUS
 62
     7
 10
-477.39999999999998
 20
-795.0
 30
0.0
 11
-670.0
 21
-795.0
 31
0.0
  0
LINE
  5
87
  8
DIMNSIONS
  6
CONTINUOUS
 62
     7
 10
-650.0
 20
-892.0
 30
0.0
 11
-650.0
 21
-795.0
 31
0.0
  0
LINE
  5
88
  8
DIMNSIONS
  6
CONTINUOUS
 62
     7
 10
-650.0
 20
-892.0
 30
0.0
 11
-656.7003979515024
 21
-866.9937744140625
 31
0.0
  0
LINE
  5
89
  8
DIMNSIONS
  6
CONTINUOUS
 62
     7
 10
-650.0
 20
-892.0
 30
0.0
 11
-643.2996020484976
 21
-866.9937744140625
 31
0.0
  0
LINE
  5
8A
  8
DIMNSIONS
  6
CONTINUOUS
 62
     7
 10
-650.0
 20
-795.0
 30
0.0
 11
-643.2996020484976
 21
-820.0062255859375
 31
0.0
  0
LINE
  5
8B
  8
DIMNSIONS
  6
CONTINUOUS
 62
     7
 10
-650.0
 20
-795.0
 30
0.0
 11
-656.7003979515024
 21
-820.0062255859375
 31
0.0
  0
TEXT
  5
8C
  8
DIMNSIONS
 62
     7
 10
-659.93888888888887
 20
-861.13888888888914
 30
0.0
 40
27.147352430555561
  1
97
 50
90.0
 41
0.7
 11
-687.08624131944453
 21
-861.13888888888914
 31
0.0
 73
     3
  0
LINE
  5
8D
  8
DIMNSIONS
  6
CONTINUOUS
 62
     7
 10
-564.0
 20
-425.0
 30
0.0
 11
-670.0
 21
-425.0
 31
0.0
  0
LINE
  5
8E
  8
DIMNSIONS
  6
CONTINUOUS
 62
     7
 10
-564.0
 20
-38.0
 30
0.0
 11
-670.0
 21
-38.0
 31
0.0
  0
LINE
  5
8F
  8
DIMNSIONS
  6
CONTINUOUS
 62
     7
 10
-650.0
 20
-425.0
 30
0.0
 11
-650.0
 21
-38.0
 31
0.0
  0
LINE
  5
90
  8
DIMNSIONS
  6
CONTINUOUS
 62
     7
 10
-650.0
 20
-425.0
 30
0.0
 11
-656.7003979515024
 21
-399.9937744140625
 31
0.0
  0
LINE
  5
91
  8
DIMNSIONS
  6
CONTINUOUS
 62
     7
 10
-650.0
 20
-425.0
 30
0.0
 11
-643.2996020484976
 21
-399.9937744140625
 31
0.0
  0
LINE
  5
92
  8
DIMNSIONS
  6
CONTINUOUS
 62
     7
 10
-650.0
 20
-38.0
 30
0.0
 11
-643.2996020484976
 21
-63.0062255859375
 31
0.0
  0
LINE
  5
93
  8
DIMNSIONS
  6
CONTINUOUS
 62
     7
 10
-650.0
 20
-38.0
 30
0.0
 11
-656.7003979515024
 21
-63.0062255859375
 31
0.0
  0
TEXT
  5
94
  8
DIMNSIONS
 62
     7
 10
-659.93888888888887
 20
-257.95833333333343
 30
0.0
 40
27.147352430555561
  1
387
 50
90.0
 41
0.7
 11
-687.08624131944453
 21
-257.95833333333343
 31
0.0
 73
     3
  0
LINE
  5
95
  8
DIMNSIONS
  6
CONTINUOUS
 62
     7
 10
-550.0
 20
-439.0
 30
0.0
 11
-550.0
 21
-545.0
 31
0.0
  0
LINE
  5
96
  8
DIMNSIONS
  6
CONTINUOUS
 62
     7
 10
-314.0
 20
-439.0
 30
0.0
 11
-314.0
 21
-545.0
 31
0.0
  0
LINE
  5
97
  8
DIMNSIONS
  6
CONTINUOUS
 62
     7
 10
-550.0
 20
-525.0
 30
0.0
 11
-314.0
 21
-525.0
 31
0.0
  0
LINE
  5
98
  8
DIMNSIONS
  6
CONTINUOUS
 62
     7
 10
-550.0
 20
-525.0
 30
0.0
 11
-524.99377441406227
 21
-518.2996020484976
 31
0.0
  0
LINE
  5
99
  8
DIMNSIONS
  6
CONTINUOUS
 62
     7
 10
-550.0
 20
-525.0
 30
0.0
 11
-524.99377441406227
 21
-531.7003979515024
 31
0.0
  0
LINE
  5
9A
  8
DIMNSIONS
  6
CONTINUOUS
 62
     7
 10
-314.0
 20
-525.0
 30
0.0
 11
-339.0062255859375
 21
-531.7003979515024
 31
0.0
  0
LINE
  5
9B
  8
DIMNSIONS
  6
CONTINUOUS
 62
     7
 10
-314.0
 20
-525.0
 30
0.0
 11
-339.0062255859375
 21
-518.2996020484976
 31
0.0
  0
TEXT
  5
9C
  8
DIMNSIONS
 62
     7
 10
-458.4583333333332
 20
-515.0611111111109
 30
0.0
 40
27.147352430555561
  1
236
 41
0.7
 11
-458.4583333333332
 21
-487.9137586805553
 31
0.0
 73
     3
  0
LINE
  5
9D
  8
DIMNSIONS
  6
CONTINUOUS
 62
     7
 10
-556.0
 20
-181.5
 30
0.0
 11
-556.0
 21
-545.0
 31
0.0
  0
LINE
  5
9E
  8
DIMNSIONS
  6
CONTINUOUS
 62
     7
 10
-550.0
 20
-439.0
 30
0.0
 11
-550.0
 21
-545.0
 31
0.0
  0
LINE
  5
9F
  8
DIMNSIONS
  6
CONTINUOUS
 62
     7
 10
-550.0
 20
-525.0
 30
0.0
 11
-556.0
 21
-525.0
 31
0.0
  0
LINE
  5
A0
  8
DIMNSIONS
  6
CONTINUOUS
 62
     7
 10
-556.0
 20
-525.0
 30
0.0
 11
-592.6388888888888
 21
-525.0
 31
0.0
  0
LINE
  5
A1
  8
DIMNSIONS
  6
CONTINUOUS
 62
     7
 10
-556.0
 20
-525.0
 30
0.0
 11
-581.00622558593727
 21
-531.7003979515024
 31
0.0
  0
LINE
  5
A2
  8
DIMNSIONS
  6
CONTINUOUS
 62
     7
 10
-556.0
 20
-525.0
 30
0.0
 11
-581.00622558593727
 21
-518.2996020484976
 31
0.0
  0
LINE
  5
A3
  8
DIMNSIONS
  6
CONTINUOUS
 62
     7
 10
-550.0
 20
-525.0
 30
0.0
 11
-500.0
 21
-525.0
 31
0.0
  0
LINE
  5
A4
  8
DIMNSIONS
  6
CONTINUOUS
 62
     7
 10
-550.0
 20
-525.0
 30
0.0
 11
-524.99377441406227
 21
-518.2996020484976
 31
0.0
  0
LINE
  5
A5
  8
DIMNSIONS
  6
CONTINUOUS
 62
     7
 10
-550.0
 20
-525.0
 30
0.0
 11
-524.99377441406227
 21
-531.7003979515024
 31
0.0
  0
TEXT
  5
A6
  8
DIMNSIONS
 62
     7
 10
-592.6388888888888
 20
-515.0611111111109
 30
0.0
 40
27.147352430555561
  1
6
 41
0.7
 11
-592.6388888888888
 21
-487.9137586805553
 31
0.0
 73
     3
  0
LINE
  5
A7
  8
DIMNSIONS
  6
CONTINUOUS
 62
     7
 10
-314.0
 20
-439.0
 30
0.0
 11
-314.0
 21
-545.0
 31
0.0
  0
LINE
  5
A8
  8
DIMNSIONS
  6
CONTINUOUS
 62
     7
 10
-308.0
 20
-181.5
 30
0.0
 11
-308.0
 21
-545.0
 31
0.0
  0
LINE
  5
A9
  8
DIMNSIONS
  6
CONTINUOUS
 62
     7
 10
-308.0
 20
-525.0
 30
0.0
 11
-314.0
 21
-525.0
 31
0.0
  0
LINE
  5
AA
  8
DIMNSIONS
  6
CONTINUOUS
 62
     7
 10
-314.0
 20
-525.0
 30
0.0
 11
-364.0
 21
-525.0
 31
0.0
  0
LINE
  5
AB
  8
DIMNSIONS
  6
CONTINUOUS
 62
     7
 10
-314.0
 20
-525.0
 30
0.0
 11
-339.0062255859375
 21
-531.7003979515024
 31
0.0
  0
LINE
  5
AC
  8
DIMNSIONS
  6
CONTINUOUS
 62
     7
 10
-314.0
 20
-525.0
 30
0.0
 11
-339.0062255859375
 21
-518.2996020484976
 31
0.0
  0
LINE
  5
AD
  8
DIMNSIONS
  6
CONTINUOUS
 62
     7
 10
-308.0
 20
-525.0
 30
0.0
 11
-282.36111111111109
 21
-525.0
 31
0.0
  0
LINE
  5
AE
  8
DIMNSIONS
  6
CONTINUOUS
 62
     7
 10
-308.0
 20
-525.0
 30
0.0
 11
-282.9937744140625
 21
-518.2996020484976
 31
0.0
  0
LINE
  5
AF
  8
DIMNSIONS
  6
CONTINUOUS
 62
     7
 10
-308.0
 20
-525.0
 30
0.0
 11
-282.9937744140625
 21
-531.7003979515024
 31
0.0
  0
TEXT
  5
B0
  8
DIMNSIONS
 62
     7
 10
-300.0
 20
-515.0611111111109
 30
0.0
 40
27.147352430555561
  1
6
 41
0.7
 11
-300.0
 21
-487.9137586805553
 31
0.0
 73
     3
  0
LINE
  5
B1
  8
DIMNSIONS
  6
CONTINUOUS
 62
     7
 10
-100.0
 20
-430.49999999999989
 30
0.0
 11
-100.0
 21
-545.0
 31
0.0
  0
LINE
  5
B2
  8
DIMNSIONS
  6
CONTINUOUS
 62
     7
 10
192.0
 20
-439.0
 30
0.0
 11
192.0
 21
-545.0
 31
0.0
  0
LINE
  5
B3
  8
DIMNSIONS
  6
CONTINUOUS
 62
     7
 10
-100.0
 20
-525.0
 30
0.0
 11
192.0
 21
-525.0
 31
0.0
  0
LINE
  5
B4
  8
DIMNSIONS
  6
CONTINUOUS
 62
     7
 10
-100.0
 20
-525.0
 30
0.0
 11
-74.993774414062514
 21
-518.2996020484976
 31
0.0
  0
LINE
  5
B5
  8
DIMNSIONS
  6
CONTINUOUS
 62
     7
 10
-100.0
 20
-525.0
 30
0.0
 11
-74.993774414062514
 21
-531.7003979515024
 31
0.0
  0
LINE
  5
B6
  8
DIMNSIONS
  6
CONTINUOUS
 62
     7
 10
192.0
 20
-525.0
 30
0.0
 11
166.9937744140625
 21
-531.7003979515024
 31
0.0
  0
LINE
  5
B7
  8
DIMNSIONS
  6
CONTINUOUS
 62
     7
 10
192.0
 20
-525.0
 30
0.0
 11
166.9937744140625
 21
-518.2996020484976
 31
0.0
  0
TEXT
  5
B8
  8
DIMNSIONS
 62
     7
 10
19.541666666666639
 20
-515.0611111111109
 30
0.0
 40
27.147352430555561
  1
292
 41
0.7
 11
19.541666666666639
 21
-487.9137586805553
 31
0.0
 73
     3
  0
LINE
  5
B9
  8
DIMNSIONS
  6
CONTINUOUS
 62
     7
 10
-100.0
 20
-430.49999999999989
 30
0.0
 11
-100.0
 21
-545.0
 31
0.0
  0
LINE
  5
BA
  8
DIMNSIONS
  6
CONTINUOUS
 62
     7
 10
-102.0
 20
-411.0
 30
0.0
 11
-102.0
 21
-545.0
 31
0.0
  0
LINE
  5
BB
  8
DIMNSIONS
  6
CONTINUOUS
 62
     7
 10
-102.0
 20
-525.0
 30
0.0
 11
-100.0
 21
-525.0
 31
0.0
  0
LINE
  5
BC
  8
DIMNSIONS
  6
CONTINUOUS
 62
     7
 10
-100.0
 20
-525.0
 30
0.0
 11
-50.000000000000021
 21
-525.0
 31
0.0
  0
LINE
  5
BD
  8
DIMNSIONS
  6
CONTINUOUS
 62
     7
 10
-100.0
 20
-525.0
 30
0.0
 11
-74.993774414062514
 21
-518.2996020484976
 31
0.0
  0
LINE
  5
BE
  8
DIMNSIONS
  6
CONTINUOUS
 62
     7
 10
-100.0
 20
-525.0
 30
0.0
 11
-74.993774414062514
 21
-531.7003979515024
 31
0.0
  0
LINE
  5
BF
  8
DIMNSIONS
  6
CONTINUOUS
 62
     7
 10
-102.0
 20
-525.0
 30
0.0
 11
-142.63888888888891
 21
-525.0
 31
0.0
  0
LINE
  5
C0
  8
DIMNSIONS
  6
CONTINUOUS
 62
     7
 10
-102.0
 20
-525.0
 30
0.0
 11
-127.0062255859375
 21
-531.7003979515024
 31
0.0
  0
LINE
  5
C1
  8
DIMNSIONS
  6
CONTINUOUS
 62
     7
 10
-102.0
 20
-525.0
 30
0.0
 11
-127.0062255859375
 21
-518.2996020484976
 31
0.0
  0
TEXT
  5
C2
  8
DIMNSIONS
 62
     7
 10
-142.63888888888891
 20
-515.0611111111109
 30
0.0
 40
27.147352430555561
  1
2
 41
0.7
 11
-142.63888888888891
 21
-487.9137586805553
 31
0.0
 73
     3
  0
LINE
  5
C3
  8
DIMNSIONS
  6
CONTINUOUS
 62
     7
 10
192.0
 20
-439.0
 30
0.0
 11
192.0
 21
-545.0
 31
0.0
  0
LINE
  5
C4
  8
DIMNSIONS
  6
CONTINUOUS
 62
     7
 10
209.5
 20
-274.80000000000001
 30
0.0
 11
209.5
 21
-545.0
 31
0.0
  0
LINE
  5
C5
  8
DIMNSIONS
  6
CONTINUOUS
 62
     7
 10
209.5
 20
-525.0
 30
0.0
 11
192.0
 21
-525.0
 31
0.0
  0
LINE
  5
C6
  8
DIMNSIONS
  6
CONTINUOUS
 62
     7
 10
192.0
 20
-525.0
 30
0.0
 11
142.0
 21
-525.0
 31
0.0
  0
LINE
  5
C7
  8
DIMNSIONS
  6
CONTINUOUS
 62
     7
 10
192.0
 20
-525.0
 30
0.0
 11
166.9937744140625
 21
-531.7003979515024
 31
0.0
  0
LINE
  5
C8
  8
DIMNSIONS
  6
CONTINUOUS
 62
     7
 10
192.0
 20
-525.0
 30
0.0
 11
166.9937744140625
 21
-518.2996020484976
 31
0.0
  0
LINE
  5
C9
  8
DIMNSIONS
  6
CONTINUOUS
 62
     7
 10
209.5
 20
-525.0
 30
0.0
 11
296.0555555555556
 21
-525.0
 31
0.0
  0
LINE
  5
CA
  8
DIMNSIONS
  6
CONTINUOUS
 62
     7
 10
209.5
 20
-525.0
 30
0.0
 11
234.5062255859375
 21
-518.2996020484976
 31
0.0
  0
LINE
  5
CB
  8
DIMNSIONS
  6
CONTINUOUS
 62
     7
 10
209.5
 20
-525.0
 30
0.0
 11
234.5062255859375
 21
-531.7003979515024
 31
0.0
  0
TEXT
  5
CC
  8
DIMNSIONS
 62
     7
 10
225.5
 20
-515.0611111111109
 30
0.0
 40
27.147352430555561
  1
17.5
 41
0.7
 11
225.5
 21
-487.9137586805553
 31
0.0
 73
     3
  0
CIRCLE
  5
CD
  8
DIMNSIONS
  6
CONTINUOUS
 62
     1
 10
-406.60000000000002
 20
-687.04999999999995
 30
0.0
 40
6.5
  0
LINE
  5
CE
  8
DIMNSIONS
  6
CONTINUOUS
 62
     7
 10
-400.60188957124649
 20
-689.5545301524395
 30
0.0
 11
-275.0
 21
-742.00000000017531
 31
0.0
  0
LINE
  5
CF
  8
DIMNSIONS
  6
CONTINUOUS
 62
     7
 10
-400.60188957124649
 20
-689.5545301524395
 30
0.0
 11
-374.9065076931671
 21
-692.70952633357194
 31
0.0
  0
LINE
  5
D0
  8
DIMNSIONS
  6
CONTINUOUS
 62
     7
 10
-400.60188957124649
 20
-689.5545301524395
 30
0.0
 11
-379.92653419545371
 21
-705.13452793318265
 31
0.0
  0
LINE
  5
D1
  8
DIMNSIONS
  6
CONTINUOUS
 62
     7
 10
-275.0
 20
-742.00000000017531
 30
0.0
 11
175.0
 21
-742.00000000017531
 31
0.0
  0
TEXT
  5
D2
  8
DIMNSIONS
 62
     7
 10
-255.0
 20
-696.78333333350861
 30
0.0
 40
27.147352430555561
  1
1/4インチ
 41
0.7
 11
-255.0
 21
-669.63598090295295
 31
0.0
 73
     3
  0
TEXT
  5
D3
  8
DIMNSIONS
 62
     7
 10
-255.0
 20
-732.06111111128644
 30
0.0
 40
27.147352430555561
  1
マウンテング用ナット埋込
 41
0.7
 11
-255.0
 21
-704.91375868073089
 31
0.0
 73
     3
  0
LINE
  5
D4
  8
DATA
  6
CONTINUOUS
 62
     7
 10
-550.0
 20
-419.0
 30
0.0
 11
-550.0
 21
-44.0
 31
0.0
  0
LINE
  5
D5
  8
DATA
  6
CONTINUOUS
 62
     7
 10
-320.0
 20
-425.0
 30
0.0
 11
-544.0
 21
-425.0
 31
0.0
  0
LINE
  5
D6
  8
DATA
  6
CONTINUOUS
 62
     7
 10
-314.0
 20
-44.0
 30
0.0
 11
-314.0
 21
-419.0
 31
0.0
  0
LINE
  5
D7
  8
DATA
  6
CONTINUOUS
 62
     7
 10
-544.0
 20
-38.0
 30
0.0
 11
-320.0
 21
-38.0
 31
0.0
  0
LINE
  5
D8
  8
DATA
  6
CONTINUOUS
 62
     7
 10
-537.0
 20
-55.756531779780531
 30
0.0
 11
-537.0
 21
-407.2434682202196
 31
0.0
  0
LINE
  5
D9
  8
DATA
  6
CONTINUOUS
 62
     7
 10
-327.0
 20
-55.756531779780531
 30
0.0
 11
-327.0
 21
-407.2434682202196
 31
0.0
  0
ARC
  5
DA
  8
DATA
  6
CONTINUOUS
 62
     7
 10
-432.0
 20
-1275.7499999999991
 30
0.0
 40
1227.2499999999991
 50
85.220786570273091
 51
94.779213429726866
  0
ARC
  5
DB
  8
DATA
  6
CONTINUOUS
 62
     7
 10
-432.0
 20
812.74999999999989
 30
0.0
 40
1227.25
 50
265.22078657027311
 51
274.77921342972689
  0
ARC
  5
DC
  8
DATA
  6
CONTINUOUS
 62
     7
 10
-544.0
 20
-44.0
 30
0.0
 40
6.0
 50
90.0
 51
180.0
  0
ARC
  5
DD
  8
DATA
  6
CONTINUOUS
 62
     7
 10
-320.0
 20
-44.0
 30
0.0
 40
6.0
 50
0.0
 51
90.0
  0
ARC
  5
DE
  8
DATA
  6
CONTINUOUS
 62
     7
 10
-544.0
 20
-419.0
 30
0.0
 40
6.0
 50
180.0
 51
270.0
  0
ARC
  5
DF
  8
DATA
  6
CONTINUOUS
 62
     7
 10
-320.0
 20
-419.0
 30
0.0
 40
6.0
 50
270.0
 51
0.0
  0
ARC
  5
E0
  8
DATA
  6
CONTINUOUS
 62
     7
 10
-533.99999999999977
 20
-407.2434682202196
 30
0.0
 40
3.0000000000001119
 50
180.0
 51
265.22078657027117
  0
ARC
  5
E1
  8
DATA
  6
CONTINUOUS
 62
     7
 10
-330.00000000000028
 20
-407.2434682202196
 30
0.0
 40
3.0000000000001461
 50
274.77921342972991
 51
0.0
  0
ARC
  5
E2
  8
DATA
  6
CONTINUOUS
 62
     7
 10
-533.99999999999955
 20
-55.756531779780531
 30
0.0
 40
3.0000000000003961
 50
94.779213429734924
 51
180.0
  0
ARC
  5
E3
  8
DATA
  6
CONTINUOUS
 62
     7
 10
-330.0000000000004
 20
-55.756531779780531
 30
0.0
 40
3.000000000000397
 50
0.0
 51
85.220786570266114
  0
CIRCLE
  5
E4
  8
DATA
  6
CONTINUOUS
 62
     7
 10
-432.0
 20
-113.0
 30
0.0
 40
14.0
  0
CIRCLE
  5
E5
  8
DATA
  6
CONTINUOUS
 62
     7
 10
-432.0
 20
-113.0
 30
0.0
 40
15.0
  0
LINE
  5
E6
  8
DATA
  6
CONTINUOUS
 62
     7
 10
-515.0
 20
-76.330075984767632
 30
0.0
 11
-515.0
 21
-149.6699240152324
 31
0.0
  0
LINE
  5
E7
  8
DATA
  6
CONTINUOUS
 62
     7
 10
-349.0
 20
-76.330075984767561
 30
0.0
 11
-349.0
 21
-149.6699240152324
 31
0.0
  0
ARC
  5
E8
  8
DATA
  6
CONTINUOUS
 62
     7
 10
-432.0
 20
-318.89814814814781
 30
0.0
 40
261.89814814814792
 50
72.818832703759057
 51
107.1811672962409
  0
ARC
  5
E9
  8
DATA
  6
CONTINUOUS
 62
     7
 10
-432.0
 20
92.898148148148266
 30
0.0
 40
261.89814814814821
 50
252.818832703759
 51
287.1811672962408
  0
CIRCLE
  5
EA
  8
DATA
  6
CONTINUOUS
 62
     7
 10
-432.0
 20
-270.0
 30
0.0
 40
93.499999999999986
  0
CIRCLE
  5
EB
  8
DATA
  6
CONTINUOUS
 62
     7
 10
-431.0
 20
-270.0
 30
0.0
 40
72.0
  0
CIRCLE
  5
EC
  8
DATA
  6
CONTINUOUS
 62
     7
 10
-432.0
 20
-270.0
 30
0.0
 40
26.5
  0
CIRCLE
  5
ED
  8
DATA
  6
CONTINUOUS
 62
     7
 10
-432.0
 20
-270.0
 30
0.0
 40
57.5
  0
CIRCLE
  5
EE
  8
DATA
  6
CONTINUOUS
 62
     7
 10
-432.0
 20
-270.0
 30
0.0
 40
67.5
  0
LINE
  5
EF
  8
DATA
  6
CONTINUOUS
 62
     7
 10
-550.0
 20
-409.49999999999989
 30
0.0
 11
-550.0
 21
-372.5
 31
0.0
  0
CIRCLE
  5
F0
  8
DATA
  6
CONTINUOUS
 62
     7
 10
-501.0
 20
-391.0
 30
0.0
 40
5.75
  0
CIRCLE
  5
F1
  8
DATA
  6
CONTINUOUS
 62
     7
 10
-477.5
 20
-391.0
 30
0.0
 40
5.75
  0
CIRCLE
  5
F2
  8
DATA
  6
CONTINUOUS
 62
     7
 10
-458.49999999999989
 20
-391.0
 30
0.0
 40
5.75
  0
CIRCLE
  5
F3
  8
DATA
  6
CONTINUOUS
 62
     7
 10
-439.5
 20
-391.0
 30
0.0
 40
5.75
  0
CIRCLE
  5
F4
  8
DATA
  6
CONTINUOUS
 62
     7
 10
-420.5
 20
-391.0
 30
0.0
 40
5.75
  0
CIRCLE
  5
F5
  8
DATA
  6
CONTINUOUS
 62
     7
 10
-401.49999999999989
 20
-391.0
 30
0.0
 40
5.75
  0
CIRCLE
  5
F6
  8
DATA
  6
CONTINUOUS
 62
     7
 10
-382.5
 20
-391.0
 30
0.0
 40
5.75
  0
CIRCLE
  5
F7
  8
DATA
  6
CONTINUOUS
 62
     7
 10
-363.5
 20
-391.0
 30
0.0
 40
5.75
  0
CIRCLE
  5
F8
  8
DATA
  6
CONTINUOUS
 62
     7
 10
-501.0
 20
-391.0
 30
0.0
 40
4.1499999999999764
  0
CIRCLE
  5
F9
  8
DATA
  6
CONTINUOUS
 62
     7
 10
-477.5
 20
-391.0
 30
0.0
 40
4.1499999999999764
  0
CIRCLE
  5
FA
  8
DATA
  6
CONTINUOUS
 62
     7
 10
-458.49999999999989
 20
-391.0
 30
0.0
 40
4.1499999999999764
  0
CIRCLE
  5
FB
  8
DATA
  6
CONTINUOUS
 62
     7
 10
-439.5
 20
-391.0
 30
0.0
 40
4.1499999999999764
  0
CIRCLE
  5
FC
  8
DATA
  6
CONTINUOUS
 62
     7
 10
-420.5
 20
-391.0
 30
0.0
 40
4.1499999999999764
  0
CIRCLE
  5
FD
  8
DATA
  6
CONTINUOUS
 62
     7
 10
-401.49999999999989
 20
-391.0
 30
0.0
 40
4.1499999999999764
  0
CIRCLE
  5
FE
  8
DATA
  6
CONTINUOUS
 62
     7
 10
-382.5
 20
-391.0
 30
0.0
 40
4.1499999999999764
  0
CIRCLE
  5
FF
  8
DATA
  6
CONTINUOUS
 62
     7
 10
-363.5
 20
-391.0
 30
0.0
 40
4.1499999999999764
  0
CIRCLE
  5
100
  8
DATA
  6
CONTINUOUS
 62
     7
 10
-341.0
 20
-391.0
 30
0.0
 40
5.75
  0
CIRCLE
  5
101
  8
DATA
  6
CONTINUOUS
 62
     7
 10
-341.0
 20
-391.0
 30
0.0
 40
4.1499999999999764
  0
CIRCLE
  5
102
  8
DATA
  6
CONTINUOUS
 62
     7
 10
-341.0
 20
-373.0
 30
0.0
 40
5.75
  0
CIRCLE
  5
103
  8
DATA
  6
CONTINUOUS
 62
     7
 10
-341.0
 20
-373.0
 30
0.0
 40
4.1499999999999764
  0
LINE
  5
104
  8
DATA
  6
CONTINUOUS
 62
     7
 10
-500.49999999999989
 20
-368.5
 30
0.0
 11
-363.5
 21
-368.5
 31
0.0
  0
LINE
  5
105
  8
DATA
  6
CONTINUOUS
 62
     7
 10
-363.0263157894733
 20
-377.5
 30
0.0
 11
-500.49999999999989
 21
-377.5
 31
0.0
  0
ARC
  5
106
  8
DATA
  6
CONTINUOUS
 62
     7
 10
-500.49999999999989
 20
-373.0
 30
0.0
 40
4.5
 50
90.0
 51
270.0
  0
ARC
  5
107
  8
DATA
  6
CONTINUOUS
 62
     7
 10
-363.51315789473682
 20
-373.01315789473688
 30
0.0
 40
4.5131770753006544
 50
276.19261762405148
 51
89.832957384319386
  0
TEXT
  5
108
  8
DATA
 62
     7
 10
-480.22340038634798
 20
-392.0785050905053
 30
0.0
 40
2.171788194444443
  1
SOLO
 41
0.7
 11
-480.22340038634798
 21
-389.9067168960608
 31
0.0
 73
     3
  0
TEXT
  5
109
  8
DATA
 62
     7
 10
-460.60639845460793
 20
-392.12683693210062
 30
0.0
 40
2.171788194444443
  1
RMC
 41
0.7
 11
-460.60639845460793
 21
-389.95504873765623
 31
0.0
 73
     3
  0
TEXT
  5
10A
  8
DATA
 62
     7
 10
-443.01142601416342
 20
-392.18003615940461
 30
0.0
 40
2.171788194444443
  1
EQ ON
 41
0.7
 11
-443.01142601416342
 21
-390.00824796496011
 31
0.0
 73
     3
  0
TEXT
  5
10B
  8
DATA
 62
     7
 10
-421.53990974408021
 20
-392.16098503600932
 30
0.0
 40
2.171788194444443
  1
LF
 41
0.7
 11
-421.53990974408021
 21
-389.98919684156488
 31
0.0
 73
     3
  0
TEXT
  5
10C
  8
DATA
 62
     7
 10
-402.76249236067918
 20
-392.2553393818597
 30
0.0
 40
2.171788194444443
  1
HF
 41
0.7
 11
-402.76249236067918
 21
-390.08355118741531
 31
0.0
 73
     3
  0
TEXT
  5
10D
  8
DATA
 62
     7
 10
-385.9491891126525
 20
-391.99348201174638
 30
0.0
 40
1.900314670138888
  1
PRESET
 41
0.7
 11
-385.9491891126525
 21
-390.09316734160751
 31
0.0
 73
     3
  0
TEXT
  5
10E
  8
DATA
 62
     7
 10
-366.63592253662063
 20
-392.06744493204081
 30
0.0
 40
1.923828125
  1
INPUT
 41
0.7
 11
-366.63592253662063
 21
-390.14361680704081
 31
0.0
 73
     3
  0
TEXT
  5
10F
  8
DATA
 62
     7
 10
-342.77915768579049
 20
-375.61388951827388
 30
0.0
 40
5.4294704861111107
  1
+
 41
0.7
 11
-342.77915768579049
 21
-370.18441903216279
 31
0.0
 73
     3
  0
TEXT
  5
110
  8
DATA
 62
     7
 10
-342.69697397644018
 20
-393.55789688045991
 30
0.0
 40
5.4294704861111107
  1
-
 41
0.7
 11
-342.69697397644018
 21
-388.12842639434882
 31
0.0
 73
     3
  0
LINE
  5
111
  8
DATA
  6
CONTINUOUS
 62
     7
 10
-342.25
 20
-385.38751391983908
 30
0.0
 11
-342.25
 21
-378.61248608016092
 31
0.0
  0
LINE
  5
112
  8
DATA
  6
CONTINUOUS
 62
     7
 10
-339.75
 20
-385.38751391983908
 30
0.0
 11
-339.75
 21
-378.61248608016092
 31
0.0
  0
ARC
  5
113
  8
DATA
  6
CONTINUOUS
 62
     7
 10
-501.0
 20
-391.0
 30
0.0
 40
2.6879360111429111
 50
111.84103178705691
 51
68.158968212943961
  0
LINE
  5
114
  8
DATA
  6
CONTINUOUS
 62
     7
 10
-501.0
 20
-390.65000000000009
 30
0.0
 11
-501.0
 21
-387.20000000000022
 31
0.0
  0
TEXT
  5
115
  8
DATA
 62
     7
 10
-503.4544240660212
 20
-373.03203626844089
 30
0.0
 40
2.714735243055554
  1
-60
 41
0.7
 11
-503.4544240660212
 21
-370.31730102538529
 31
0.0
 73
     3
  0
TEXT
  5
116
  8
DATA
 62
     7
 10
-479.95442406602109
 20
-373.03203626844089
 30
0.0
 40
2.714735243055554
  1
-30
 41
0.7
 11
-479.95442406602109
 21
-370.31730102538529
 31
0.0
 73
     3
  0
TEXT
  5
117
  8
DATA
 62
     7
 10
-460.9544240660212
 20
-373.03203626844089
 30
0.0
 40
2.714735243055554
  1
-20
 41
0.7
 11
-460.9544240660212
 21
-370.31730102538529
 31
0.0
 73
     3
  0
TEXT
  5
118
  8
DATA
 62
     7
 10
-441.95442406602109
 20
-373.03203626844089
 30
0.0
 40
2.714735243055554
  1
-15
 41
0.7
 11
-441.95442406602109
 21
-370.31730102538529
 31
0.0
 73
     3
  0
TEXT
  5
119
  8
DATA
 62
     7
 10
-422.9544240660212
 20
-373.03203626844089
 30
0.0
 40
2.714735243055554
  1
-10
 41
0.7
 11
-422.9544240660212
 21
-370.31730102538529
 31
0.0
 73
     3
  0
TEXT
  5
11A
  8
DATA
 62
     7
 10
-403.9544240660212
 20
-373.03203626844089
 30
0.0
 40
2.714735243055554
  1
-5
 41
0.7
 11
-403.9544240660212
 21
-370.31730102538529
 31
0.0
 73
     3
  0
TEXT
  5
11B
  8
DATA
 62
     7
 10
-383.33337075806662
 20
-373.03203626844089
 30
0.0
 40
2.714735243055554
  1
0
 41
0.7
 11
-383.33337075806662
 21
-370.31730102538529
 31
0.0
 73
     3
  0
LINE
  5
11C
  8
DATA
  6
CONTINUOUS
 62
     7
 10
-501.0
 20
-376.67217980864319
 30
0.0
 11
-501.0
 21
-374.67217980864319
 31
0.0
  0
LINE
  5
11D
  8
DATA
  6
CONTINUOUS
 62
     7
 10
-477.5
 20
-376.67217980864319
 30
0.0
 11
-477.5
 21
-374.67217980864319
 31
0.0
  0
LINE
  5
11E
  8
DATA
  6
CONTINUOUS
 62
     7
 10
-458.49999999999989
 20
-376.67217980864319
 30
0.0
 11
-458.49999999999989
 21
-374.67217980864319
 31
0.0
  0
LINE
  5
11F
  8
DATA
  6
CONTINUOUS
 62
     7
 10
-439.5
 20
-376.67217980864319
 30
0.0
 11
-439.5
 21
-374.67217980864319
 31
0.0
  0
LINE
  5
120
  8
DATA
  6
CONTINUOUS
 62
     7
 10
-420.5
 20
-376.67217980864319
 30
0.0
 11
-420.5
 21
-374.67217980864319
 31
0.0
  0
LINE
  5
121
  8
DATA
  6
CONTINUOUS
 62
     7
 10
-401.49999999999989
 20
-376.67217980864319
 30
0.0
 11
-401.49999999999989
 21
-374.67217980864319
 31
0.0
  0
LINE
  5
122
  8
DATA
  6
CONTINUOUS
 62
     7
 10
-382.5
 20
-376.67217980864319
 30
0.0
 11
-382.5
 21
-374.67217980864319
 31
0.0
  0
LINE
  5
123
  8
DATA
  6
CONTINUOUS
 62
     7
 10
-495.33762417354683
 20
-390.0
 30
0.0
 11
-483.16237582645311
 21
-390.0
 31
0.0
  0
LINE
  5
124
  8
DATA
  6
CONTINUOUS
 62
     7
 10
-495.33762417354683
 20
-392.0
 30
0.0
 11
-483.16237582645311
 21
-392.0
 31
0.0
  0
LINE
  5
125
  8
DATA
  6
CONTINUOUS
 62
     7
 10
-471.83762417354689
 20
-390.0
 30
0.0
 11
-464.16237582645311
 21
-390.0
 31
0.0
  0
LINE
  5
126
  8
DATA
  6
CONTINUOUS
 62
     7
 10
-471.83762417354689
 20
-392.0
 30
0.0
 11
-464.16237582645311
 21
-392.0
 31
0.0
  0
LINE
  5
127
  8
DATA
  6
CONTINUOUS
 62
     7
 10
-452.83762417354683
 20
-390.0
 30
0.0
 11
-445.16237582645289
 21
-390.0
 31
0.0
  0
LINE
  5
128
  8
DATA
  6
CONTINUOUS
 62
     7
 10
-452.83762417354683
 20
-392.0
 30
0.0
 11
-445.16237582645289
 21
-392.0
 31
0.0
  0
LINE
  5
129
  8
DATA
  6
CONTINUOUS
 62
     7
 10
-433.83762417354689
 20
-390.0
 30
0.0
 11
-426.16237582645311
 21
-390.0
 31
0.0
  0
LINE
  5
12A
  8
DATA
  6
CONTINUOUS
 62
     7
 10
-433.83762417354689
 20
-392.0
 30
0.0
 11
-426.16237582645311
 21
-392.0
 31
0.0
  0
LINE
  5
12B
  8
DATA
  6
CONTINUOUS
 62
     7
 10
-414.83762417354671
 20
-390.0
 30
0.0
 11
-407.162375826453
 21
-390.0
 31
0.0
  0
LINE
  5
12C
  8
DATA
  6
CONTINUOUS
 62
     7
 10
-414.83762417354671
 20
-392.0
 30
0.0
 11
-407.162375826453
 21
-392.0
 31
0.0
  0
LINE
  5
12D
  8
DATA
  6
CONTINUOUS
 62
     7
 10
-395.83762417354689
 20
-390.0
 30
0.0
 11
-388.16237582645311
 21
-390.0
 31
0.0
  0
LINE
  5
12E
  8
DATA
  6
CONTINUOUS
 62
     7
 10
-395.83762417354689
 20
-392.0
 30
0.0
 11
-388.16237582645311
 21
-392.0
 31
0.0
  0
LINE
  5
12F
  8
DATA
  6
CONTINUOUS
 62
     7
 10
-376.83762417354689
 20
-390.0
 30
0.0
 11
-369.16237582645311
 21
-390.0
 31
0.0
  0
LINE
  5
130
  8
DATA
  6
CONTINUOUS
 62
     7
 10
-376.83762417354689
 20
-392.0
 30
0.0
 11
-369.16237582645311
 21
-392.0
 31
0.0
  0
ARC
  5
131
  8
DATA
  6
CONTINUOUS
 62
     7
 10
-507.0
 20
-76.330075984767632
 30
0.0
 40
7.9999999999999503
 50
107.1811672962409
 51
180.0
  0
ARC
  5
132
  8
DATA
  6
CONTINUOUS
 62
     7
 10
-507.0
 20
-149.6699240152324
 30
0.0
 40
8.0
 50
180.0
 51
252.818832703759
  0
ARC
  5
133
  8
DATA
  6
CONTINUOUS
 62
     7
 10
-357.00000000000011
 20
-149.6699240152324
 30
0.0
 40
8.0000000000000497
 50
287.1811672962412
 51
0.0
  0
ARC
  5
134
  8
DATA
  6
CONTINUOUS
 62
     7
 10
-357.0
 20
-76.330075984767561
 30
0.0
 40
8.0
 50
0.0
 51
72.818832703759057
  0
ARC
  5
135
  8
DATA
  6
CONTINUOUS
 62
     7
 10
-110.4964547677795
 20
-146.84779951100739
 30
0.0
 40
445.74442878587593
 50
181.88372630754239
 51
188.68433402618891
  0
ARC
  5
136
  8
DATA
  6
CONTINUOUS
 62
     7
 10
-110.4964547677795
 20
-176.15220048899261
 30
0.0
 40
445.74442878587593
 50
171.31566597381101
 51
178.1162736924577
  0
LINE
  5
137
  8
DATA
  6
CONTINUOUS
 62
     7
 10
-550.14198119283151
 20
-215.0
 30
0.0
 11
-550.0
 21
-215.0
 31
0.0
  0
LINE
  5
138
  8
DATA
  6
CONTINUOUS
 62
     7
 10
-550.14198119283151
 20
-108.0
 30
0.0
 11
-550.0
 21
-108.0
 31
0.0
  0
ARC
  5
139
  8
DATA
  6
CONTINUOUS
 62
     7
 10
-753.50354523222029
 20
-146.84779951100739
 30
0.0
 40
445.74442878587593
 50
351.31566597381089
 51
358.11627369245758
  0
ARC
  5
13A
  8
DATA
  6
CONTINUOUS
 62
     7
 10
-753.50354523222029
 20
-176.15220048899261
 30
0.0
 40
445.74442878587593
 50
1.883726307542364
 51
8.6843340261890596
  0
LINE
  5
13B
  8
DATA
  6
CONTINUOUS
 62
     7
 10
-313.85801880716849
 20
-215.0
 30
0.0
 11
-314.0
 21
-215.0
 31
0.0
  0
LINE
  5
13C
  8
DATA
  6
CONTINUOUS
 62
     7
 10
-313.85801880716849
 20
-108.0
 30
0.0
 11
-314.0
 21
-108.0
 31
0.0
  0
LINE
  5
13D
  8
DATA
  6
CONTINUOUS
 62
     7
 10
-314.0
 20
336.0
 30
0.0
 11
-314.0
 21
86.999999999999645
 31
0.0
  0
LINE
  5
13E
  8
DATA
  6
CONTINUOUS
 62
     7
 10
-544.0
 20
342.0
 30
0.0
 11
-320.0
 21
342.0
 31
0.0
  0
LINE
  5
13F
  8
DATA
  6
CONTINUOUS
 62
     7
 10
-550.0
 20
86.999999999999645
 30
0.0
 11
-550.0
 21
336.0
 31
0.0
  0
LINE
  5
140
  8
DATA
  6
CONTINUOUS
 62
     7
 10
-550.0
 20
87.0
 30
0.0
 11
-314.0
 21
87.0
 31
0.0
  0
LINE
  5
141
  8
DATA
  6
CONTINUOUS
 62
     7
 10
-550.0
 20
88.0
 30
0.0
 11
-314.0
 21
88.0
 31
0.0
  0
ARC
  5
142
  8
DATA
  6
CONTINUOUS
 62
     7
 10
-432.0
 20
971.74999999999989
 30
0.0
 40
921.74999999999989
 50
263.45902415363292
 51
276.54097584636708
  0
ARC
  5
143
  8
DATA
  6
CONTINUOUS
 62
     7
 10
-500.8110091743128
 20
89.401834862384945
 30
0.0
 40
49.247595161141753
 50
182.79545860563741
 51
222.70649407993781
  0
ARC
  5
144
  8
DATA
  6
CONTINUOUS
 62
     7
 10
-363.1889908256872
 20
89.401834862384945
 30
0.0
 40
49.247595161141753
 50
317.29350592006227
 51
357.20454139436248
  0
ARC
  5
145
  8
DATA
  6
CONTINUOUS
 62
     7
 10
-500.75190619824048
 20
55.90051385788626
 30
0.0
 40
5.3200861087519744
 50
214.23918372928671
 51
317.17464692331879
  0
ARC
  5
146
  8
DATA
  6
CONTINUOUS
 62
     7
 10
-477.33733218843912
 20
54.424374267068742
 30
0.0
 40
5.3031850003113634
 50
215.58804484435089
 51
318.7530576981797
  0
ARC
  5
147
  8
DATA
  6
CONTINUOUS
 62
     7
 10
-458.4055331760303
 20
53.674815431295777
 30
0.0
 40
5.2946464798138599
 50
216.71180022061719
 51
319.99324386908432
  0
ARC
  5
148
  8
DATA
  6
CONTINUOUS
 62
     7
 10
-439.47330058374581
 20
53.321072747873473
 30
0.0
 40
5.2906270013539132
 50
217.86561141803429
 51
321.20197210463613
  0
ARC
  5
149
  8
DATA
  6
CONTINUOUS
 62
     7
 10
-420.54305677634562
 20
53.270221113980263
 30
0.0
 40
5.198612190422871
 50
218.56155034593041
 51
322.8677689812817
  0
ARC
  5
14A
  8
DATA
  6
CONTINUOUS
 62
     7
 10
-401.6198106226957
 20
54.132921314160058
 30
0.0
 40
5.5092242455984479
 50
222.98478162637679
 51
320.80769587029641
  0
ARC
  5
14B
  8
DATA
  6
CONTINUOUS
 62
     7
 10
-382.67711070531129
 20
54.632695317341977
 30
0.0
 40
5.305563267246284
 50
221.51210231512781
 51
324.64474049939042
  0
ARC
  5
14C
  8
DATA
  6
CONTINUOUS
 62
     7
 10
-363.74648977209461
 20
55.865849738669901
 30
0.0
 40
5.3215782185736549
 50
222.81727984706211
 51
325.70655544487448
  0
ARC
  5
14D
  8
DATA
  6
CONTINUOUS
 62
     7
 10
-342.33253356787162
 20
59.853206706406461
 30
0.0
 40
7.3724650469195954
 50
233.1884893450102
 51
318.04327408651608
  0
LINE
  5
14E
  8
DATA
  6
CONTINUOUS
 62
     7
 10
-532.0
 20
344.5
 30
0.0
 11
-332.0
 21
344.5
 31
0.0
  0
LINE
  5
14F
  8
DATA
  6
CONTINUOUS
 62
     7
 10
-532.0
 20
342.0
 30
0.0
 11
-532.0
 21
344.5
 31
0.0
  0
LINE
  5
150
  8
DATA
  6
CONTINUOUS
 62
     7
 10
-332.0
 20
344.5
 30
0.0
 11
-332.0
 21
342.0
 31
0.0
  0
LINE
  5
151
  8
DATA
  6
CONTINUOUS
 62
     7
 10
-527.0
 20
344.5
 30
0.0
 11
-516.60000000000002
 21
344.5
 31
0.0
  0
ARC
  5
152
  8
DATA
  6
CONTINUOUS
 62
     7
 10
-521.79999999999995
 20
340.859375
 30
0.0
 40
6.640625
 50
44.332691644164889
 51
135.6673083558351
  0
LINE
  5
153
  8
DATA
  6
CONTINUOUS
 62
     7
 10
-526.54999999999995
 20
345.5
 30
0.0
 11
-526.54999999999995
 21
344.5
 31
0.0
  0
LINE
  5
154
  8
DATA
  6
CONTINUOUS
 62
     7
 10
-517.04999999999995
 20
345.5
 30
0.0
 11
-517.04999999999995
 21
344.5
 31
0.0
  0
LINE
  5
155
  8
DATA
  6
CONTINUOUS
 62
     7
 10
-337.0
 20
344.5
 30
0.0
 11
-347.39999999999998
 21
344.5
 31
0.0
  0
ARC
  5
156
  8
DATA
  6
CONTINUOUS
 62
     7
 10
-342.2000000000001
 20
340.859375
 30
0.0
 40
6.640625
 50
44.332691644164889
 51
135.6673083558351
  0
LINE
  5
157
  8
DATA
  6
CONTINUOUS
 62
     7
 10
-337.4500000000001
 20
345.5
 30
0.0
 11
-337.4500000000001
 21
344.5
 31
0.0
  0
LINE
  5
158
  8
DATA
  6
CONTINUOUS
 62
     7
 10
-346.95000000000022
 20
345.5
 30
0.0
 11
-346.95000000000022
 21
344.5
 31
0.0
  0
LINE
  5
159
  8
DATA
  6
CONTINUOUS
 62
     7
 10
-429.85000000000002
 20
355.5
 30
0.0
 11
-429.85000000000002
 21
344.5
 31
0.0
  0
LINE
  5
15A
  8
DATA
  6
CONTINUOUS
 62
     7
 10
-434.14999999999992
 20
344.5
 30
0.0
 11
-434.14999999999992
 21
355.5
 31
0.0
  0
LINE
  5
15B
  8
DATA
  6
CONTINUOUS
 62
     7
 10
-434.14999999999992
 20
355.5
 30
0.0
 11
-429.85000000000002
 21
355.5
 31
0.0
  0
LINE
  5
15C
  8
DATA
  6
CONTINUOUS
 62
     7
 10
-416.8499999999998
 20
355.5
 30
0.0
 11
-416.8499999999998
 21
344.5
 31
0.0
  0
LINE
  5
15D
  8
DATA
  6
CONTINUOUS
 62
     7
 10
-421.14999999999998
 20
344.5
 30
0.0
 11
-421.14999999999998
 21
355.5
 31
0.0
  0
LINE
  5
15E
  8
DATA
  6
CONTINUOUS
 62
     7
 10
-421.14999999999998
 20
357.40000000000009
 30
0.0
 11
-416.8499999999998
 21
357.40000000000009
 31
0.0
  0
LINE
  5
15F
  8
DATA
  6
CONTINUOUS
 62
     7
 10
-421.14999999999998
 20
352.75
 30
0.0
 11
-421.14999999999998
 21
357.40000000000009
 31
0.0
  0
LINE
  5
160
  8
DATA
  6
CONTINUOUS
 62
     7
 10
-416.8499999999998
 20
352.75
 30
0.0
 11
-416.8499999999998
 21
357.40000000000009
 31
0.0
  0
LINE
  5
161
  8
DATA
  6
CONTINUOUS
 62
     7
 10
-356.14999999999998
 20
344.5
 30
0.0
 11
-356.14999999999998
 21
359.0
 31
0.0
  0
LINE
  5
162
  8
DATA
  6
CONTINUOUS
 62
     7
 10
-351.85000000000002
 20
344.5
 30
0.0
 11
-351.85000000000002
 21
359.0
 31
0.0
  0
LINE
  5
163
  8
DATA
  6
CONTINUOUS
 62
     7
 10
-369.14999999999998
 20
344.5
 30
0.0
 11
-369.14999999999998
 21
359.0
 31
0.0
  0
LINE
  5
164
  8
DATA
  6
CONTINUOUS
 62
     7
 10
-364.85000000000002
 20
344.5
 30
0.0
 11
-364.85000000000002
 21
359.0
 31
0.0
  0
LINE
  5
165
  8
DATA
  6
CONTINUOUS
 62
     7
 10
-382.14999999999998
 20
344.5
 30
0.0
 11
-382.14999999999998
 21
359.0
 31
0.0
  0
LINE
  5
166
  8
DATA
  6
CONTINUOUS
 62
     7
 10
-377.85000000000002
 20
344.5
 30
0.0
 11
-377.85000000000002
 21
359.0
 31
0.0
  0
LINE
  5
167
  8
DATA
  6
CONTINUOUS
 62
     7
 10
-395.14999999999998
 20
344.5
 30
0.0
 11
-395.14999999999998
 21
359.0
 31
0.0
  0
LINE
  5
168
  8
DATA
  6
CONTINUOUS
 62
     7
 10
-390.85000000000002
 20
344.5
 30
0.0
 11
-390.85000000000002
 21
359.0
 31
0.0
  0
LINE
  5
169
  8
DATA
  6
CONTINUOUS
 62
     7
 10
-408.14999999999998
 20
344.5
 30
0.0
 11
-408.14999999999998
 21
359.0
 31
0.0
  0
LINE
  5
16A
  8
DATA
  6
CONTINUOUS
 62
     7
 10
-403.84999999999991
 20
344.5
 30
0.0
 11
-403.84999999999991
 21
359.0
 31
0.0
  0
LINE
  5
16B
  8
DATA
  6
CONTINUOUS
 62
     7
 10
-408.14999999999998
 20
359.0
 30
0.0
 11
-403.84999999999991
 21
359.0
 31
0.0
  0
LINE
  5
16C
  8
DATA
  6
CONTINUOUS
 62
     7
 10
-395.14999999999998
 20
359.0
 30
0.0
 11
-390.85000000000002
 21
359.0
 31
0.0
  0
LINE
  5
16D
  8
DATA
  6
CONTINUOUS
 62
     7
 10
-382.14999999999998
 20
359.0
 30
0.0
 11
-377.85000000000002
 21
359.0
 31
0.0
  0
LINE
  5
16E
  8
DATA
  6
CONTINUOUS
 62
     7
 10
-369.14999999999998
 20
359.0
 30
0.0
 11
-364.85000000000002
 21
359.0
 31
0.0
  0
LINE
  5
16F
  8
DATA
  6
CONTINUOUS
 62
     7
 10
-356.14999999999998
 20
359.0
 30
0.0
 11
-351.85000000000002
 21
359.0
 31
0.0
  0
LINE
  5
170
  8
DATA
  6
CONTINUOUS
 62
     7
 10
-447.14999999999981
 20
355.5
 30
0.0
 11
-447.14999999999981
 21
344.5
 31
0.0
  0
LINE
  5
171
  8
DATA
  6
CONTINUOUS
 62
     7
 10
-442.85000000000002
 20
344.5
 30
0.0
 11
-442.85000000000002
 21
355.5
 31
0.0
  0
LINE
  5
172
  8
DATA
  6
CONTINUOUS
 62
     7
 10
-442.85000000000002
 20
357.40000000000009
 30
0.0
 11
-447.14999999999981
 21
357.40000000000009
 31
0.0
  0
LINE
  5
173
  8
DATA
  6
CONTINUOUS
 62
     7
 10
-442.85000000000002
 20
352.75
 30
0.0
 11
-442.85000000000002
 21
357.40000000000009
 31
0.0
  0
LINE
  5
174
  8
DATA
  6
CONTINUOUS
 62
     7
 10
-447.14999999999981
 20
352.75
 30
0.0
 11
-447.14999999999981
 21
357.40000000000009
 31
0.0
  0
LINE
  5
175
  8
DATA
  6
CONTINUOUS
 62
     7
 10
-507.85000000000002
 20
344.5
 30
0.0
 11
-507.85000000000002
 21
359.0
 31
0.0
  0
LINE
  5
176
  8
DATA
  6
CONTINUOUS
 62
     7
 10
-512.14999999999998
 20
344.5
 30
0.0
 11
-512.14999999999998
 21
359.0
 31
0.0
  0
LINE
  5
177
  8
DATA
  6
CONTINUOUS
 62
     7
 10
-494.85000000000002
 20
344.5
 30
0.0
 11
-494.85000000000002
 21
359.0
 31
0.0
  0
LINE
  5
178
  8
DATA
  6
CONTINUOUS
 62
     7
 10
-499.14999999999998
 20
344.5
 30
0.0
 11
-499.14999999999998
 21
359.0
 31
0.0
  0
LINE
  5
179
  8
DATA
  6
CONTINUOUS
 62
     7
 10
-481.85000000000002
 20
344.5
 30
0.0
 11
-481.85000000000002
 21
359.0
 31
0.0
  0
LINE
  5
17A
  8
DATA
  6
CONTINUOUS
 62
     7
 10
-486.14999999999992
 20
344.5
 30
0.0
 11
-486.14999999999992
 21
359.0
 31
0.0
  0
LINE
  5
17B
  8
DATA
  6
CONTINUOUS
 62
     7
 10
-468.85000000000002
 20
344.5
 30
0.0
 11
-468.85000000000002
 21
359.0
 31
0.0
  0
LINE
  5
17C
  8
DATA
  6
CONTINUOUS
 62
     7
 10
-473.14999999999992
 20
344.5
 30
0.0
 11
-473.14999999999992
 21
359.0
 31
0.0
  0
LINE
  5
17D
  8
DATA
  6
CONTINUOUS
 62
     7
 10
-455.85000000000002
 20
344.5
 30
0.0
 11
-455.85000000000002
 21
359.0
 31
0.0
  0
LINE
  5
17E
  8
DATA
  6
CONTINUOUS
 62
     7
 10
-460.14999999999992
 20
344.5
 30
0.0
 11
-460.14999999999992
 21
359.0
 31
0.0
  0
LINE
  5
17F
  8
DATA
  6
CONTINUOUS
 62
     7
 10
-455.85000000000002
 20
359.0
 30
0.0
 11
-460.14999999999992
 21
359.0
 31
0.0
  0
LINE
  5
180
  8
DATA
  6
CONTINUOUS
 62
     7
 10
-468.85000000000002
 20
359.0
 30
0.0
 11
-473.14999999999992
 21
359.0
 31
0.0
  0
LINE
  5
181
  8
DATA
  6
CONTINUOUS
 62
     7
 10
-481.85000000000002
 20
359.0
 30
0.0
 11
-486.14999999999992
 21
359.0
 31
0.0
  0
LINE
  5
182
  8
DATA
  6
CONTINUOUS
 62
     7
 10
-494.85000000000002
 20
359.0
 30
0.0
 11
-499.14999999999998
 21
359.0
 31
0.0
  0
LINE
  5
183
  8
DATA
  6
CONTINUOUS
 62
     7
 10
-507.85000000000002
 20
359.0
 30
0.0
 11
-512.14999999999998
 21
359.0
 31
0.0
  0
ARC
  5
184
  8
DATA
  6
CONTINUOUS
 62
     7
 10
-544.0
 20
336.0
 30
0.0
 40
6.0
 50
90.0
 51
180.0
  0
ARC
  5
185
  8
DATA
  6
CONTINUOUS
 62
     7
 10
-320.0
 20
336.0
 30
0.0
 40
6.0
 50
0.0
 51
90.0
  0
LINE
  5
186
  8
DATA
  6
CONTINUOUS
 62
     7
 10
-556.0
 20
161.2762530298223
 30
0.0
 11
-556.0
 21
244.7237469701777
 31
0.0
  0
LINE
  5
187
  8
DATA
  6
CONTINUOUS
 62
     7
 10
-550.0
 20
290.60000000000002
 30
0.0
 11
-550.0
 21
278.80000000000001
 31
0.0
  0
LINE
  5
188
  8
DATA
  6
CONTINUOUS
 62
     7
 10
-550.0
 20
117.2
 30
0.0
 11
-550.0
 21
129.80000000000001
 31
0.0
  0
LINE
  5
189
  8
DATA
  6
CONTINUOUS
 62
     7
 10
-554.63939238321439
 20
261.1636457007134
 30
0.0
 11
-551.13926683544878
 21
282.16439898730528
 31
0.0
  0
LINE
  5
18A
  8
DATA
  6
CONTINUOUS
 62
     7
 10
-551.13926683544878
 20
123.8356010126945
 30
0.0
 11
-554.63939238321439
 21
144.8363542992866
 31
0.0
  0
LINE
  5
18B
  8
DATA
  6
CONTINUOUS
 62
     7
 10
-550.15287291161667
 20
123.0
 30
0.0
 11
-550.0
 21
123.0
 31
0.0
  0
LINE
  5
18C
  8
DATA
  6
CONTINUOUS
 62
     7
 10
-550.15287291161667
 20
283.0
 30
0.0
 11
-550.0
 21
283.0
 31
0.0
  0
ARC
  5
18D
  8
DATA
  6
CONTINUOUS
 62
     7
 10
-456.0
 20
161.27625302982219
 30
0.0
 40
100.0
 50
180.0
 51
189.46232220802551
  0
ARC
  5
18E
  8
DATA
  6
CONTINUOUS
 62
     7
 10
-456.0
 20
244.72374697017781
 30
0.0
 40
100.0
 50
170.5376777919744
 51
180.0
  0
ARC
  5
18F
  8
DATA
  6
CONTINUOUS
 62
     7
 10
-550.15287291161667
 20
124.0
 30
0.0
 40
0.9999999999999683
 50
189.46232220802611
 51
270.0
  0
ARC
  5
190
  8
DATA
  6
CONTINUOUS
 62
     7
 10
-550.15287291161667
 20
281.99999999999989
 30
0.0
 40
1.0000000000000551
 50
90.0
 51
170.53767779197219
  0
ARC
  5
191
  8
DATA
  6
CONTINUOUS
 62
     7
 10
-550.14198119283151
 20
-109.0000000000001
 30
0.0
 40
1.000000000000113
 50
90.0
 51
171.3156659738045
  0
ARC
  5
192
  8
DATA
  6
CONTINUOUS
 62
     7
 10
-550.14198119283151
 20
-213.99999999999989
 30
0.0
 40
0.9999999999999968
 50
188.6843340261955
 51
270.0
  0
ARC
  5
193
  8
DATA
  6
CONTINUOUS
 62
     7
 10
-313.85801880716849
 20
-214.0
 30
0.0
 40
1.0000000000000551
 50
270.0
 51
351.31566597380868
  0
ARC
  5
194
  8
DATA
  6
CONTINUOUS
 62
     7
 10
-313.85801880716849
 20
-109.0
 30
0.0
 40
1.000000000000105
 50
8.6843340261929463
 51
90.0
  0
LINE
  5
195
  8
DATA
  6
CONTINUOUS
 62
     7
 10
-308.0
 20
161.2762530298223
 30
0.0
 11
-308.0
 21
244.7237469701777
 31
0.0
  0
LINE
  5
196
  8
DATA
  6
CONTINUOUS
 62
     7
 10
-314.0
 20
290.60000000000002
 30
0.0
 11
-314.0
 21
278.80000000000001
 31
0.0
  0
LINE
  5
197
  8
DATA
  6
CONTINUOUS
 62
     7
 10
-314.0
 20
117.2
 30
0.0
 11
-314.0
 21
129.80000000000001
 31
0.0
  0
LINE
  5
198
  8
DATA
  6
CONTINUOUS
 62
     7
 10
-309.36060761678561
 20
261.1636457007134
 30
0.0
 11
-312.86073316455088
 21
282.16439898730528
 31
0.0
  0
LINE
  5
199
  8
DATA
  6
CONTINUOUS
 62
     7
 10
-312.86073316455088
 20
123.8356010126945
 30
0.0
 11
-309.36060761678561
 21
144.8363542992866
 31
0.0
  0
LINE
  5
19A
  8
DATA
  6
CONTINUOUS
 62
     7
 10
-313.84712708838322
 20
123.0
 30
0.0
 11
-314.0
 21
123.0
 31
0.0
  0
LINE
  5
19B
  8
DATA
  6
CONTINUOUS
 62
     7
 10
-313.84712708838322
 20
283.0
 30
0.0
 11
-314.0
 21
283.0
 31
0.0
  0
ARC
  5
19C
  8
DATA
  6
CONTINUOUS
 62
     7
 10
-408.0
 20
161.27625302982219
 30
0.0
 40
100.0
 50
350.53767779197437
 51
0.0000000000000568
  0
ARC
  5
19D
  8
DATA
  6
CONTINUOUS
 62
     7
 10
-408.0
 20
244.72374697017781
 30
0.0
 40
100.0
 50
0.0
 51
9.4623222080255704
  0
ARC
  5
19E
  8
DATA
  6
CONTINUOUS
 62
     7
 10
-313.84712708838322
 20
124.0
 30
0.0
 40
1.0
 50
270.0
 51
350.53767779197437
  0
ARC
  5
19F
  8
DATA
  6
CONTINUOUS
 62
     7
 10
-313.84712708838299
 20
281.99999999999989
 30
0.0
 40
0.9999999999999728
 50
9.4623222080277607
 51
90.000000000003226
  0
LINE
  5
1A0
  8
DATA
  6
CONTINUOUS
 62
     7
 10
-314.0
 20
-886.0
 30
0.0
 11
-314.0
 21
-636.99999999999955
 31
0.0
  0
LINE
  5
1A1
  8
DATA
  6
CONTINUOUS
 62
     7
 10
-544.0
 20
-892.0
 30
0.0
 11
-320.0
 21
-892.0
 31
0.0
  0
LINE
  5
1A2
  8
DATA
  6
CONTINUOUS
 62
     7
 10
-550.0
 20
-636.99999999999955
 30
0.0
 11
-550.0
 21
-886.0
 31
0.0
  0
LINE
  5
1A3
  8
DATA
  6
CONTINUOUS
 62
     7
 10
-550.0
 20
-637.0
 30
0.0
 11
-314.0
 21
-637.0
 31
0.0
  0
ARC
  5
1A4
  8
DATA
  6
CONTINUOUS
 62
     7
 10
-432.0
 20
-1521.75
 30
0.0
 40
921.74999999999989
 50
83.45902415363291
 51
96.540975846367161
  0
ARC
  5
1A5
  8
DATA
  6
CONTINUOUS
 62
     7
 10
-500.8110091743128
 20
-639.4018348623847
 30
0.0
 40
49.247595161141732
 50
137.29350592006219
 51
177.20454139436259
  0
ARC
  5
1A6
  8
DATA
  6
CONTINUOUS
 62
     7
 10
-363.1889908256872
 20
-639.4018348623847
 30
0.0
 40
49.247595161141753
 50
2.7954586056373669
 51
42.706494079937777
  0
ARC
  5
1A7
  8
DATA
  6
CONTINUOUS
 62
     7
 10
-500.75190619824048
 20
-605.90051385788627
 30
0.0
 40
5.3200861087520224
 50
42.825353076681282
 51
145.76081627071341
  0
ARC
  5
1A8
  8
DATA
  6
CONTINUOUS
 62
     7
 10
-477.33733218843912
 20
-604.42437426706874
 30
0.0
 40
5.3031850003113492
 50
41.246942301820262
 51
144.41195515564911
  0
ARC
  5
1A9
  8
DATA
  6
CONTINUOUS
 62
     7
 10
-458.4055331760303
 20
-603.67481543129577
 30
0.0
 40
5.2946464798139763
 50
40.006756130915633
 51
143.28819977938281
  0
ARC
  5
1AA
  8
DATA
  6
CONTINUOUS
 62
     7
 10
-439.47330058374581
 20
-603.32107274787359
 30
0.0
 40
5.2906270013539149
 50
38.798027895363838
 51
142.1343885819656
  0
ARC
  5
1AB
  8
DATA
  6
CONTINUOUS
 62
     7
 10
-420.54305677634562
 20
-603.27022111398026
 30
0.0
 40
5.1986121904228231
 50
37.13223101871813
 51
141.4384496540695
  0
ARC
  5
1AC
  8
DATA
  6
CONTINUOUS
 62
     7
 10
-401.6198106226957
 20
-604.13292131416006
 30
0.0
 40
5.5092242455983511
 50
39.192304129703579
 51
137.01521837362299
  0
ARC
  5
1AD
  8
DATA
  6
CONTINUOUS
 62
     7
 10
-382.67711070531129
 20
-604.63269531734215
 30
0.0
 40
5.3055632672462787
 50
35.355259500610153
 51
138.48789768487171
  0
ARC
  5
1AE
  8
DATA
  6
CONTINUOUS
 62
     7
 10
-363.74648977209461
 20
-605.86584973866991
 30
0.0
 40
5.3215782185736611
 50
34.293444555125497
 51
137.1827201529378
  0
ARC
  5
1AF
  8
DATA
  6
CONTINUOUS
 62
     7
 10
-342.33253356787162
 20
-609.85320670640647
 30
0.0
 40
7.3724650469195989
 50
41.956725913483851
 51
126.8115106549898
  0
LINE
  5
1B0
  8
DATA
  6
CONTINUOUS
 62
     7
 10
-532.0
 20
-894.5
 30
0.0
 11
-332.0
 21
-894.5
 31
0.0
  0
LINE
  5
1B1
  8
DATA
  6
CONTINUOUS
 62
     7
 10
-532.0
 20
-892.0
 30
0.0
 11
-532.0
 21
-894.5
 31
0.0
  0
LINE
  5
1B2
  8
DATA
  6
CONTINUOUS
 62
     7
 10
-332.0
 20
-894.5
 30
0.0
 11
-332.0
 21
-892.0
 31
0.0
  0
LINE
  5
1B3
  8
DATA
  6
CONTINUOUS
 62
     7
 10
-527.0
 20
-894.5
 30
0.0
 11
-516.60000000000002
 21
-894.5
 31
0.0
  0
ARC
  5
1B4
  8
DATA
  6
CONTINUOUS
 62
     7
 10
-521.79999999999995
 20
-890.85937499999989
 30
0.0
 40
6.640625
 50
224.3326916441649
 51
315.66730835583508
  0
LINE
  5
1B5
  8
DATA
  6
CONTINUOUS
 62
     7
 10
-526.54999999999995
 20
-895.5
 30
0.0
 11
-526.54999999999995
 21
-894.5
 31
0.0
  0
LINE
  5
1B6
  8
DATA
  6
CONTINUOUS
 62
     7
 10
-517.04999999999995
 20
-895.5
 30
0.0
 11
-517.04999999999995
 21
-894.5
 31
0.0
  0
LINE
  5
1B7
  8
DATA
  6
CONTINUOUS
 62
     7
 10
-337.0
 20
-894.5
 30
0.0
 11
-347.39999999999998
 21
-894.5
 31
0.0
  0
ARC
  5
1B8
  8
DATA
  6
CONTINUOUS
 62
     7
 10
-342.2000000000001
 20
-890.85937499999989
 30
0.0
 40
6.640625
 50
224.3326916441649
 51
315.66730835583508
  0
LINE
  5
1B9
  8
DATA
  6
CONTINUOUS
 62
     7
 10
-337.4500000000001
 20
-895.5
 30
0.0
 11
-337.4500000000001
 21
-894.5
 31
0.0
  0
LINE
  5
1BA
  8
DATA
  6
CONTINUOUS
 62
     7
 10
-346.95000000000022
 20
-895.5
 30
0.0
 11
-346.95000000000022
 21
-894.5
 31
0.0
  0
LINE
  5
1BB
  8
DATA
  6
CONTINUOUS
 62
     7
 10
-429.85000000000002
 20
-905.49999999999989
 30
0.0
 11
-429.85000000000002
 21
-894.5
 31
0.0
  0
LINE
  5
1BC
  8
DATA
  6
CONTINUOUS
 62
     7
 10
-434.14999999999992
 20
-894.5
 30
0.0
 11
-434.14999999999992
 21
-905.49999999999989
 31
0.0
  0
LINE
  5
1BD
  8
DATA
  6
CONTINUOUS
 62
     7
 10
-434.14999999999992
 20
-905.49999999999989
 30
0.0
 11
-429.85000000000002
 21
-905.49999999999989
 31
0.0
  0
LINE
  5
1BE
  8
DATA
  6
CONTINUOUS
 62
     7
 10
-416.8499999999998
 20
-905.49999999999989
 30
0.0
 11
-416.8499999999998
 21
-894.5
 31
0.0
  0
LINE
  5
1BF
  8
DATA
  6
CONTINUOUS
 62
     7
 10
-421.14999999999998
 20
-894.5
 30
0.0
 11
-421.14999999999998
 21
-905.49999999999989
 31
0.0
  0
LINE
  5
1C0
  8
DATA
  6
CONTINUOUS
 62
     7
 10
-421.14999999999998
 20
-907.40000000000009
 30
0.0
 11
-416.8499999999998
 21
-907.40000000000009
 31
0.0
  0
LINE
  5
1C1
  8
DATA
  6
CONTINUOUS
 62
     7
 10
-421.14999999999998
 20
-902.74999999999989
 30
0.0
 11
-421.14999999999998
 21
-907.40000000000009
 31
0.0
  0
LINE
  5
1C2
  8
DATA
  6
CONTINUOUS
 62
     7
 10
-416.8499999999998
 20
-902.74999999999989
 30
0.0
 11
-416.8499999999998
 21
-907.40000000000009
 31
0.0
  0
LINE
  5
1C3
  8
DATA
  6
CONTINUOUS
 62
     7
 10
-356.14999999999998
 20
-894.5
 30
0.0
 11
-356.14999999999998
 21
-909.0
 31
0.0
  0
LINE
  5
1C4
  8
DATA
  6
CONTINUOUS
 62
     7
 10
-351.85000000000002
 20
-894.5
 30
0.0
 11
-351.85000000000002
 21
-909.0
 31
0.0
  0
LINE
  5
1C5
  8
DATA
  6
CONTINUOUS
 62
     7
 10
-369.14999999999998
 20
-894.5
 30
0.0
 11
-369.14999999999998
 21
-909.0
 31
0.0
  0
LINE
  5
1C6
  8
DATA
  6
CONTINUOUS
 62
     7
 10
-364.85000000000002
 20
-894.5
 30
0.0
 11
-364.85000000000002
 21
-909.0
 31
0.0
  0
LINE
  5
1C7
  8
DATA
  6
CONTINUOUS
 62
     7
 10
-382.14999999999998
 20
-894.5
 30
0.0
 11
-382.14999999999998
 21
-909.0
 31
0.0
  0
LINE
  5
1C8
  8
DATA
  6
CONTINUOUS
 62
     7
 10
-377.85000000000002
 20
-894.5
 30
0.0
 11
-377.85000000000002
 21
-909.0
 31
0.0
  0
LINE
  5
1C9
  8
DATA
  6
CONTINUOUS
 62
     7
 10
-395.14999999999998
 20
-894.5
 30
0.0
 11
-395.14999999999998
 21
-909.0
 31
0.0
  0
LINE
  5
1CA
  8
DATA
  6
CONTINUOUS
 62
     7
 10
-390.85000000000002
 20
-894.5
 30
0.0
 11
-390.85000000000002
 21
-909.0
 31
0.0
  0
LINE
  5
1CB
  8
DATA
  6
CONTINUOUS
 62
     7
 10
-408.14999999999998
 20
-894.5
 30
0.0
 11
-408.14999999999998
 21
-909.0
 31
0.0
  0
LINE
  5
1CC
  8
DATA
  6
CONTINUOUS
 62
     7
 10
-403.84999999999991
 20
-894.5
 30
0.0
 11
-403.84999999999991
 21
-909.0
 31
0.0
  0
LINE
  5
1CD
  8
DATA
  6
CONTINUOUS
 62
     7
 10
-408.14999999999998
 20
-909.0
 30
0.0
 11
-403.84999999999991
 21
-909.0
 31
0.0
  0
LINE
  5
1CE
  8
DATA
  6
CONTINUOUS
 62
     7
 10
-395.14999999999998
 20
-909.0
 30
0.0
 11
-390.85000000000002
 21
-909.0
 31
0.0
  0
LINE
  5
1CF
  8
DATA
  6
CONTINUOUS
 62
     7
 10
-382.14999999999998
 20
-909.0
 30
0.0
 11
-377.85000000000002
 21
-909.0
 31
0.0
  0
LINE
  5
1D0
  8
DATA
  6
CONTINUOUS
 62
     7
 10
-369.14999999999998
 20
-909.0
 30
0.0
 11
-364.85000000000002
 21
-909.0
 31
0.0
  0
LINE
  5
1D1
  8
DATA
  6
CONTINUOUS
 62
     7
 10
-356.14999999999998
 20
-909.0
 30
0.0
 11
-351.85000000000002
 21
-909.0
 31
0.0
  0
LINE
  5
1D2
  8
DATA
  6
CONTINUOUS
 62
     7
 10
-447.14999999999981
 20
-905.49999999999989
 30
0.0
 11
-447.14999999999981
 21
-894.5
 31
0.0
  0
LINE
  5
1D3
  8
DATA
  6
CONTINUOUS
 62
     7
 10
-442.85000000000002
 20
-894.5
 30
0.0
 11
-442.85000000000002
 21
-905.49999999999989
 31
0.0
  0
LINE
  5
1D4
  8
DATA
  6
CONTINUOUS
 62
     7
 10
-442.85000000000002
 20
-907.40000000000009
 30
0.0
 11
-447.14999999999981
 21
-907.40000000000009
 31
0.0
  0
LINE
  5
1D5
  8
DATA
  6
CONTINUOUS
 62
     7
 10
-442.85000000000002
 20
-902.74999999999989
 30
0.0
 11
-442.85000000000002
 21
-907.40000000000009
 31
0.0
  0
LINE
  5
1D6
  8
DATA
  6
CONTINUOUS
 62
     7
 10
-447.14999999999981
 20
-902.74999999999989
 30
0.0
 11
-447.14999999999981
 21
-907.40000000000009
 31
0.0
  0
LINE
  5
1D7
  8
DATA
  6
CONTINUOUS
 62
     7
 10
-507.85000000000002
 20
-894.5
 30
0.0
 11
-507.85000000000002
 21
-909.0
 31
0.0
  0
LINE
  5
1D8
  8
DATA
  6
CONTINUOUS
 62
     7
 10
-512.14999999999998
 20
-894.5
 30
0.0
 11
-512.14999999999998
 21
-909.0
 31
0.0
  0
LINE
  5
1D9
  8
DATA
  6
CONTINUOUS
 62
     7
 10
-494.85000000000002
 20
-894.5
 30
0.0
 11
-494.85000000000002
 21
-909.0
 31
0.0
  0
LINE
  5
1DA
  8
DATA
  6
CONTINUOUS
 62
     7
 10
-499.14999999999998
 20
-894.5
 30
0.0
 11
-499.14999999999998
 21
-909.0
 31
0.0
  0
LINE
  5
1DB
  8
DATA
  6
CONTINUOUS
 62
     7
 10
-481.85000000000002
 20
-894.5
 30
0.0
 11
-481.85000000000002
 21
-909.0
 31
0.0
  0
LINE
  5
1DC
  8
DATA
  6
CONTINUOUS
 62
     7
 10
-486.14999999999992
 20
-894.5
 30
0.0
 11
-486.14999999999992
 21
-909.0
 31
0.0
  0
LINE
  5
1DD
  8
DATA
  6
CONTINUOUS
 62
     7
 10
-468.85000000000002
 20
-894.5
 30
0.0
 11
-468.85000000000002
 21
-909.0
 31
0.0
  0
LINE
  5
1DE
  8
DATA
  6
CONTINUOUS
 62
     7
 10
-473.14999999999992
 20
-894.5
 30
0.0
 11
-473.14999999999992
 21
-909.0
 31
0.0
  0
LINE
  5
1DF
  8
DATA
  6
CONTINUOUS
 62
     7
 10
-455.85000000000002
 20
-894.5
 30
0.0
 11
-455.85000000000002
 21
-909.0
 31
0.0
  0
LINE
  5
1E0
  8
DATA
  6
CONTINUOUS
 62
     7
 10
-460.14999999999992
 20
-894.5
 30
0.0
 11
-460.14999999999992
 21
-909.0
 31
0.0
  0
LINE
  5
1E1
  8
DATA
  6
CONTINUOUS
 62
     7
 10
-455.85000000000002
 20
-909.0
 30
0.0
 11
-460.14999999999992
 21
-909.0
 31
0.0
  0
LINE
  5
1E2
  8
DATA
  6
CONTINUOUS
 62
     7
 10
-468.85000000000002
 20
-909.0
 30
0.0
 11
-473.14999999999992
 21
-909.0
 31
0.0
  0
LINE
  5
1E3
  8
DATA
  6
CONTINUOUS
 62
     7
 10
-481.85000000000002
 20
-909.0
 30
0.0
 11
-486.14999999999992
 21
-909.0
 31
0.0
  0
LINE
  5
1E4
  8
DATA
  6
CONTINUOUS
 62
     7
 10
-494.85000000000002
 20
-909.0
 30
0.0
 11
-499.14999999999998
 21
-909.0
 31
0.0
  0
LINE
  5
1E5
  8
DATA
  6
CONTINUOUS
 62
     7
 10
-507.85000000000002
 20
-909.0
 30
0.0
 11
-512.14999999999998
 21
-909.0
 31
0.0
  0
ARC
  5
1E6
  8
DATA
  6
CONTINUOUS
 62
     7
 10
-544.0
 20
-886.0
 30
0.0
 40
6.0
 50
180.0
 51
270.0
  0
ARC
  5
1E7
  8
DATA
  6
CONTINUOUS
 62
     7
 10
-320.0
 20
-886.0
 30
0.0
 40
6.0
 50
270.0
 51
0.0
  0
LINE
  5
1E8
  8
DATA
  6
CONTINUOUS
 62
     7
 10
-556.0
 20
-711.27625302982244
 30
0.0
 11
-556.0
 21
-794.72374697017744
 31
0.0
  0
LINE
  5
1E9
  8
DATA
  6
CONTINUOUS
 62
     7
 10
-550.0
 20
-840.59999999999968
 30
0.0
 11
-550.0
 21
-828.79999999999984
 31
0.0
  0
LINE
  5
1EA
  8
DATA
  6
CONTINUOUS
 62
     7
 10
-550.0
 20
-667.20000000000005
 30
0.0
 11
-550.0
 21
-679.79999999999995
 31
0.0
  0
LINE
  5
1EB
  8
DATA
  6
CONTINUOUS
 62
     7
 10
-554.63939238321439
 20
-811.16364570071346
 30
0.0
 11
-551.13926683544878
 21
-832.16439898730505
 31
0.0
  0
LINE
  5
1EC
  8
DATA
  6
CONTINUOUS
 62
     7
 10
-551.13926683544878
 20
-673.8356010126945
 30
0.0
 11
-554.63939238321439
 21
-694.83635429928654
 31
0.0
  0
LINE
  5
1ED
  8
DATA
  6
CONTINUOUS
 62
     7
 10
-550.15287291161667
 20
-673.0
 30
0.0
 11
-550.0
 21
-673.0
 31
0.0
  0
LINE
  5
1EE
  8
DATA
  6
CONTINUOUS
 62
     7
 10
-550.15287291161667
 20
-833.0
 30
0.0
 11
-550.0
 21
-833.0
 31
0.0
  0
ARC
  5
1EF
  8
DATA
  6
CONTINUOUS
 62
     7
 10
-456.0
 20
-711.27625302982244
 30
0.0
 40
100.0
 50
170.53767779197429
 51
180.0
  0
ARC
  5
1F0
  8
DATA
  6
CONTINUOUS
 62
     7
 10
-456.0
 20
-794.7237469701779
 30
0.0
 40
100.0
 50
179.99999999999989
 51
189.46232220802551
  0
ARC
  5
1F1
  8
DATA
  6
CONTINUOUS
 62
     7
 10
-550.15287291161667
 20
-674.0
 30
0.0
 40
1.0
 50
90.0
 51
170.53767779197219
  0
ARC
  5
1F2
  8
DATA
  6
CONTINUOUS
 62
     7
 10
-550.15287291161667
 20
-832.0
 30
0.0
 40
0.9999999999999543
 50
189.46232220802131
 51
270.0
  0
LINE
  5
1F3
  8
DATA
  6
CONTINUOUS
 62
     7
 10
-308.0
 20
-711.27625302982244
 30
0.0
 11
-308.0
 21
-794.72374697017744
 31
0.0
  0
LINE
  5
1F4
  8
DATA
  6
CONTINUOUS
 62
     7
 10
-314.0
 20
-840.59999999999968
 30
0.0
 11
-314.0
 21
-828.79999999999984
 31
0.0
  0
LINE
  5
1F5
  8
DATA
  6
CONTINUOUS
 62
     7
 10
-314.0
 20
-667.20000000000005
 30
0.0
 11
-314.0
 21
-679.79999999999995
 31
0.0
  0
LINE
  5
1F6
  8
DATA
  6
CONTINUOUS
 62
     7
 10
-309.36060761678561
 20
-811.16364570071346
 30
0.0
 11
-312.86073316455088
 21
-832.16439898730505
 31
0.0
  0
LINE
  5
1F7
  8
DATA
  6
CONTINUOUS
 62
     7
 10
-312.86073316455088
 20
-673.8356010126945
 30
0.0
 11
-309.36060761678561
 21
-694.83635429928654
 31
0.0
  0
LINE
  5
1F8
  8
DATA
  6
CONTINUOUS
 62
     7
 10
-313.84712708838322
 20
-673.0
 30
0.0
 11
-314.0
 21
-673.0
 31
0.0
  0
LINE
  5
1F9
  8
DATA
  6
CONTINUOUS
 62
     7
 10
-313.84712708838322
 20
-833.0
 30
0.0
 11
-314.0
 21
-833.0
 31
0.0
  0
ARC
  5
1FA
  8
DATA
  6
CONTINUOUS
 62
     7
 10
-408.0
 20
-711.27625302982244
 30
0.0
 40
100.0
 50
0.0
 51
9.4623222080256824
  0
ARC
  5
1FB
  8
DATA
  6
CONTINUOUS
 62
     7
 10
-408.0
 20
-794.7237469701779
 30
0.0
 40
100.0
 50
350.53767779197437
 51
0.0000000000000568
  0
ARC
  5
1FC
  8
DATA
  6
CONTINUOUS
 62
     7
 10
-313.84712708838322
 20
-674.0
 30
0.0
 40
1.0000000000000271
 50
9.4623222080272225
 51
89.999999999999986
  0
ARC
  5
1FD
  8
DATA
  6
CONTINUOUS
 62
     7
 10
-313.84712708838299
 20
-832.0
 30
0.0
 40
1.0
 50
269.99999999999682
 51
350.53767779197869
  0
LINE
  5
1FE
  8
DATA
  6
CONTINUOUS
 62
     7
 10
-100.0
 20
-410.5
 30
0.0
 11
-100.0
 21
-52.5
 31
0.0
  0
LINE
  5
1FF
  8
DATA
  6
CONTINUOUS
 62
     7
 10
192.0
 20
-419.0
 30
0.0
 11
192.0
 21
-44.0
 31
0.0
  0
LINE
  5
200
  8
DATA
  6
CONTINUOUS
 62
     7
 10
350.0
 20
-419.0
 30
0.0
 11
350.0
 21
-44.0
 31
0.0
  0
LINE
  5
201
  8
DATA
  6
CONTINUOUS
 62
     7
 10
580.0
 20
-425.0
 30
0.0
 11
356.0
 21
-425.0
 31
0.0
  0
LINE
  5
202
  8
DATA
  6
CONTINUOUS
 62
     7
 10
586.0
 20
-44.0
 30
0.0
 11
586.0
 21
-419.0
 31
0.0
  0
LINE
  5
203
  8
DATA
  6
CONTINUOUS
 62
     7
 10
356.0
 20
-38.0
 30
0.0
 11
580.0
 21
-38.0
 31
0.0
  0
ARC
  5
204
  8
DATA
  6
CONTINUOUS
 62
     7
 10
356.0
 20
-44.0
 30
0.0
 40
6.0
 50
90.0
 51
180.0
  0
ARC
  5
205
  8
DATA
  6
CONTINUOUS
 62
     7
 10
580.0
 20
-44.0
 30
0.0
 40
6.0
 50
0.0
 51
90.0
  0
ARC
  5
206
  8
DATA
  6
CONTINUOUS
 62
     7
 10
356.0
 20
-419.0
 30
0.0
 40
6.0
 50
180.0
 51
270.0
  0
ARC
  5
207
  8
DATA
  6
CONTINUOUS
 62
     7
 10
580.0
 20
-419.0
 30
0.0
 40
6.0
 50
270.0
 51
0.0
  0
LINE
  5
208
  8
DATA
  6
CONTINUOUS
 62
     7
 10
350.0
 20
-409.49999999999989
 30
0.0
 11
350.0
 21
-372.5
 31
0.0
  0
ARC
  5
209
  8
DATA
  6
CONTINUOUS
 62
     7
 10
789.50354523222018
 20
-146.84779951100739
 30
0.0
 40
445.74442878587593
 50
181.88372630754239
 51
188.68433402618891
  0
ARC
  5
20A
  8
DATA
  6
CONTINUOUS
 62
     7
 10
789.50354523222018
 20
-176.15220048899261
 30
0.0
 40
445.74442878587593
 50
171.31566597381101
 51
178.1162736924577
  0
LINE
  5
20B
  8
DATA
  6
CONTINUOUS
 62
     7
 10
349.85801880716838
 20
-215.0
 30
0.0
 11
350.0
 21
-215.0
 31
0.0
  0
LINE
  5
20C
  8
DATA
  6
CONTINUOUS
 62
     7
 10
349.85801880716838
 20
-108.0
 30
0.0
 11
350.0
 21
-108.0
 31
0.0
  0
ARC
  5
20D
  8
DATA
  6
CONTINUOUS
 62
     7
 10
146.4964547677794
 20
-146.84779951100739
 30
0.0
 40
445.74442878587593
 50
351.42629491046762
 51
358.11627369245758
  0
ARC
  5
20E
  8
DATA
  6
CONTINUOUS
 62
     7
 10
146.4964547677794
 20
-176.15220048899261
 30
0.0
 40
445.74442878587593
 50
1.883726307542364
 51
8.6843340261890596
  0
LINE
  5
20F
  8
DATA
  6
CONTINUOUS
 62
     7
 10
586.14198119283151
 20
-108.0
 30
0.0
 11
586.0
 21
-108.0
 31
0.0
  0
ARC
  5
210
  8
DATA
  6
CONTINUOUS
 62
     7
 10
349.85801880716838
 20
-109.0000000000001
 30
0.0
 40
1.000000000000113
 50
90.0
 51
171.31566597380501
  0
ARC
  5
211
  8
DATA
  6
CONTINUOUS
 62
     7
 10
349.85801880716838
 20
-213.99999999999989
 30
0.0
 40
1.0000000000000531
 50
188.6843340261949
 51
270.0
  0
ARC
  5
212
  8
DATA
  6
CONTINUOUS
 62
     7
 10
586.14198119283151
 20
-109.0
 30
0.0
 40
1.000000000000105
 50
8.6843340261929463
 51
90.0
  0
LINE
  5
213
  8
DATA
  6
CONTINUOUS
 62
     7
 10
-63.000000000000021
 20
-425.0
 30
0.0
 11
186.0
 21
-425.0
 31
0.0
  0
LINE
  5
214
  8
DATA
  6
CONTINUOUS
 62
     7
 10
-63.000000000000021
 20
-38.0
 30
0.0
 11
186.0
 21
-38.0
 31
0.0
  0
LINE
  5
215
  8
DATA
  6
CONTINUOUS
 62
     7
 10
-62.000000000000021
 20
-425.0
 30
0.0
 11
-62.000000000000021
 21
-38.0
 31
0.0
  0
LINE
  5
216
  8
DATA
  6
CONTINUOUS
 62
     7
 10
-63.000000000000021
 20
-425.0
 30
0.0
 11
-63.000000000000021
 21
-38.0
 31
0.0
  0
ARC
  5
217
  8
DATA
  6
CONTINUOUS
 62
     7
 10
-61.81515122579448
 20
-95.480303768662324
 30
0.0
 40
57.492514190592082
 50
91.180877919261434
 51
131.6187423449031
  0
ARC
  5
218
  8
DATA
  6
CONTINUOUS
 62
     7
 10
-61.81515122579448
 20
-367.51969623133772
 30
0.0
 40
57.492514190592118
 50
228.3812576550969
 51
268.81912208073862
  0
LINE
  5
219
  8
DATA
  6
CONTINUOUS
 62
     7
 10
-96.919788762597605
 20
-49.949505276157211
 30
0.0
 11
-96.919788762597605
 21
-413.0504947238428
 31
0.0
  0
LINE
  5
21A
  8
DATA
  6
CONTINUOUS
 62
     7
 10
-100.0
 20
-343.0
 30
0.0
 11
-100.0
 21
-406.0
 31
0.0
  0
ARC
  5
21B
  8
DATA
  6
CONTINUOUS
 62
     7
 10
-92.734375
 20
-373.0
 30
0.0
 40
9.265625
 50
141.64198394837851
 51
218.35801605162149
  0
ARC
  5
21C
  8
DATA
  6
CONTINUOUS
 62
     7
 10
-92.734375
 20
-391.0
 30
0.0
 40
9.265625
 50
141.64198394837851
 51
218.35801605162149
  0
ARC
  5
21D
  8
DATA
  6
CONTINUOUS
 62
     7
 10
51.135294612036112
 20
-588.75378760165108
 30
0.0
 40
480.75378760165108
 50
90.834282828188194
 51
97.218379755332947
  0
LINE
  5
21E
  8
DATA
  6
CONTINUOUS
 62
     7
 10
-26.625243583743
 20
-133.9618066410377
 30
0.0
 11
-22.899774230504491
 21
-166.00000000000031
 31
0.0
  0
ARC
  5
21F
  8
DATA
  6
CONTINUOUS
 62
     7
 10
-6.759102951843472
 20
-131.65172950085571
 30
0.0
 40
19.99999999999995
 50
97.218379755332947
 51
186.63268759340869
  0
ARC
  5
220
  8
DATA
  6
CONTINUOUS
 62
     7
 10
57.032459149618852
 20
-145.87340255490071
 30
0.0
 40
82.427191252957172
 50
194.1330396187075
 51
230.20971547517789
  0
ARC
  5
221
  8
DATA
  6
CONTINUOUS
 62
     7
 10
54.864705387963852
 20
-588.75378760165108
 30
0.0
 40
480.75378760165108
 50
82.781620244667067
 51
89.165717171811792
  0
LINE
  5
222
  8
DATA
  6
CONTINUOUS
 62
     7
 10
132.6252435837429
 20
-133.9618066410377
 30
0.0
 11
128.89977423050439
 21
-166.00000000000031
 31
0.0
  0
ARC
  5
223
  8
DATA
  6
CONTINUOUS
 62
     7
 10
112.7591029518434
 20
-131.65172950085571
 30
0.0
 40
19.999999999999989
 50
353.36731240659128
 51
82.781620244667067
  0
ARC
  5
224
  8
DATA
  6
CONTINUOUS
 62
     7
 10
48.967540850381127
 20
-145.87340255490071
 30
0.0
 40
82.427191252957158
 50
309.79028452482203
 51
345.86696038129247
  0
LINE
  5
225
  8
DATA
  6
CONTINUOUS
 62
     7
 10
44.13529461203629
 20
-108.05096433832399
 30
0.0
 11
61.864705387963951
 21
-108.05096433832399
 31
0.0
  0
ARC
  5
226
  8
DATA
  6
CONTINUOUS
 62
     7
 10
20.280238902103449
 20
-189.9999999999998
 30
0.0
 40
25.000000000000121
 50
230.20971547517809
 51
244.34867063364041
  0
ARC
  5
227
  8
DATA
  6
CONTINUOUS
 62
     7
 10
85.719761097896523
 20
-190.0
 30
0.0
 40
25.0
 50
295.65132936635661
 51
309.7902845248222
  0
LINE
  5
228
  8
DATA
  6
CONTINUOUS
 62
     7
 10
35.782091048209843
 20
-127.05096433832399
 30
0.0
 11
52.999999999999993
 21
-127.05096433832399
 31
0.0
  0
ARC
  5
229
  8
DATA
  6
CONTINUOUS
 62
     7
 10
39.691905934382397
 20
-144.05096433832401
 30
0.0
 40
34.191905934382447
 50
157.7371135448858
 51
202.2628864551144
  0
ARC
  5
22A
  8
DATA
  6
CONTINUOUS
 62
     7
 10
44.391045524106993
 20
-628.27540540877703
 30
0.0
 40
501.29836866237252
 50
90.98400680509225
 51
93.663867504058274
  0
ARC
  5
22B
  8
DATA
  6
CONTINUOUS
 62
     7
 10
12.67610133483579
 20
-132.99141308517821
 30
0.0
 40
4.9999999999997931
 50
93.663867504056654
 51
157.73711354488739
  0
LINE
  5
22C
  8
DATA
  6
CONTINUOUS
 62
     7
 10
35.782091048209843
 20
-161.05096433832401
 30
0.0
 11
52.999999999999993
 21
-161.05096433832401
 31
0.0
  0
ARC
  5
22D
  8
DATA
  6
CONTINUOUS
 62
     7
 10
44.391045524106993
 20
340.17347673212907
 30
0.0
 40
501.29836866237258
 50
266.33613249594168
 51
269.01599319490782
  0
ARC
  5
22E
  8
DATA
  6
CONTINUOUS
 62
     7
 10
12.67610133483579
 20
-155.11051559146989
 30
0.0
 40
4.9999999999997851
 50
202.26288645511249
 51
266.33613249594327
  0
LINE
  5
22F
  8
DATA
  6
CONTINUOUS
 62
     7
 10
70.217908951790108
 20
-127.05096433832399
 30
0.0
 11
52.999999999999993
 21
-127.05096433832399
 31
0.0
  0
ARC
  5
230
  8
DATA
  6
CONTINUOUS
 62
     7
 10
66.308094065617567
 20
-144.05096433832401
 30
0.0
 40
34.191905934382412
 50
337.73711354488557
 51
22.262886455114199
  0
ARC
  5
231
  8
DATA
  6
CONTINUOUS
 62
     7
 10
61.608954475892972
 20
-628.27540540877703
 30
0.0
 40
501.29836866237258
 50
86.336132495941754
 51
89.015993194907765
  0
ARC
  5
232
  8
DATA
  6
CONTINUOUS
 62
     7
 10
93.323898665164165
 20
-132.99141308517821
 30
0.0
 40
4.9999999999997851
 50
22.2628864551126
 51
86.336132495943176
  0
LINE
  5
233
  8
DATA
  6
CONTINUOUS
 62
     7
 10
70.217908951790108
 20
-161.05096433832401
 30
0.0
 11
52.999999999999993
 21
-161.05096433832401
 31
0.0
  0
ARC
  5
234
  8
DATA
  6
CONTINUOUS
 62
     7
 10
61.608954475892972
 20
340.17347673212907
 30
0.0
 40
501.29836866237252
 50
270.98400680509218
 51
273.66386750405832
  0
ARC
  5
235
  8
DATA
  6
CONTINUOUS
 62
     7
 10
93.323898665164165
 20
-155.11051559146989
 30
0.0
 40
4.9999999999997931
 50
273.66386750405678
 51
337.73711354488739
  0
LINE
  5
236
  8
DATA
  6
CONTINUOUS
 62
     7
 10
34.921195600620351
 20
-126.200964338324
 30
0.0
 11
52.999999999999993
 21
-126.200964338324
 31
0.0
  0
ARC
  5
237
  8
DATA
  6
CONTINUOUS
 62
     7
 10
39.026501231101541
 20
-144.05096433832401
 30
0.0
 40
35.901501231101548
 50
157.73711354488589
 51
202.2628864551144
  0
ARC
  5
238
  8
DATA
  6
CONTINUOUS
 62
     7
 10
43.960597800312357
 20
-652.48662746229957
 30
0.0
 40
526.36328709549116
 50
90.98400680509225
 51
93.663867504058274
  0
ARC
  5
239
  8
DATA
  6
CONTINUOUS
 62
     7
 10
10.659906401577571
 20
-132.4384355225209
 30
0.0
 40
5.2499999999997797
 50
93.66386750405681
 51
157.73711354488779
  0
LINE
  5
23A
  8
DATA
  6
CONTINUOUS
 62
     7
 10
34.921195600620351
 20
-161.900964338324
 30
0.0
 11
52.999999999999993
 21
-161.900964338324
 31
0.0
  0
ARC
  5
23B
  8
DATA
  6
CONTINUOUS
 62
     7
 10
43.960597800312357
 20
364.38469878565161
 30
0.0
 40
526.36328709549116
 50
266.33613249594168
 51
269.01599319490782
  0
ARC
  5
23C
  8
DATA
  6
CONTINUOUS
 62
     7
 10
10.659906401577571
 20
-155.66349315412711
 30
0.0
 40
5.2499999999997344
 50
202.26288645511229
 51
266.3361324959431
  0
LINE
  5
23D
  8
DATA
  6
CONTINUOUS
 62
     7
 10
71.078804399379621
 20
-126.200964338324
 30
0.0
 11
52.999999999999993
 21
-126.200964338324
 31
0.0
  0
ARC
  5
23E
  8
DATA
  6
CONTINUOUS
 62
     7
 10
66.973498768898438
 20
-144.05096433832401
 30
0.0
 40
35.901501231101562
 50
337.73711354488557
 51
22.262886455114149
  0
ARC
  5
23F
  8
DATA
  6
CONTINUOUS
 62
     7
 10
62.039402199687601
 20
-652.48662746229957
 30
0.0
 40
526.36328709549116
 50
86.336132495941754
 51
89.015993194907765
  0
ARC
  5
240
  8
DATA
  6
CONTINUOUS
 62
     7
 10
95.340093598422357
 20
-132.4384355225209
 30
0.0
 40
5.2499999999997602
 50
22.26288645511217
 51
86.336132495943204
  0
LINE
  5
241
  8
DATA
  6
CONTINUOUS
 62
     7
 10
71.078804399379621
 20
-161.900964338324
 30
0.0
 11
52.999999999999993
 21
-161.900964338324
 31
0.0
  0
ARC
  5
242
  8
DATA
  6
CONTINUOUS
 62
     7
 10
62.039402199687601
 20
364.38469878565161
 30
0.0
 40
526.36328709549116
 50
270.98400680509218
 51
273.66386750405832
  0
ARC
  5
243
  8
DATA
  6
CONTINUOUS
 62
     7
 10
95.340093598422357
 20
-155.66349315412711
 30
0.0
 40
5.2499999999997797
 50
273.66386750405678
 51
337.7371135448879
  0
ARC
  5
244
  8
DATA
  6
CONTINUOUS
 62
     7
 10
53.000000000000021
 20
170.97461956805799
 30
0.0
 40
385.97461956805802
 50
263.52262966742092
 51
276.47737033257908
  0
LINE
  5
245
  8
DATA
  6
CONTINUOUS
 62
     7
 10
368.0
 20
-61.5
 30
0.0
 11
368.0
 21
-401.49999999999989
 31
0.0
  0
LINE
  5
246
  8
DATA
  6
CONTINUOUS
 62
     7
 10
568.0
 20
-401.49999999999989
 30
0.0
 11
568.0
 21
-61.5
 31
0.0
  0
LINE
  5
247
  8
DATA
  6
CONTINUOUS
 62
     7
 10
373.0
 20
-56.5
 30
0.0
 11
563.0
 21
-56.5
 31
0.0
  0
LINE
  5
248
  8
DATA
  6
CONTINUOUS
 62
     7
 10
563.0
 20
-406.5
 30
0.0
 11
373.0
 21
-406.5
 31
0.0
  0
CIRCLE
  5
249
  8
DATA
  6
CONTINUOUS
 62
     7
 10
378.0
 20
-65.5
 30
0.0
 40
4.6999999999999869
  0
POLYLINE
  5
24A
  8
DATA
  6
CONTINUOUS
 62
     7
 66
     1
 10
0.0
 20
0.0
 30
0.0
  0
VERTEX
  5
120A
  8
DATA
  6
CONTINUOUS
 62
     7
 10
377.25
 20
-64.75
 30
0.0
  0
VERTEX
  5
120B
  8
DATA
  6
CONTINUOUS
 62
     7
 10
377.25
 20
-62.5
 30
0.0
  0
VERTEX
  5
120C
  8
DATA
  6
CONTINUOUS
 62
     7
 10
378.75
 20
-62.5
 30
0.0
  0
VERTEX
  5
120D
  8
DATA
  6
CONTINUOUS
 62
     7
 10
378.75
 20
-64.75
 30
0.0
  0
SEQEND
  5
120E
  8
DATA
  6
CONTINUOUS
 62
     7
  0
POLYLINE
  5
251
  8
DATA
  6
CONTINUOUS
 62
     7
 66
     1
 10
0.0
 20
0.0
 30
0.0
  0
VERTEX
  5
120F
  8
DATA
  6
CONTINUOUS
 62
     7
 10
378.75
 20
-66.25
 30
0.0
  0
VERTEX
  5
1210
  8
DATA
  6
CONTINUOUS
 62
     7
 10
378.75
 20
-68.5
 30
0.0
  0
VERTEX
  5
1211
  8
DATA
  6
CONTINUOUS
 62
     7
 10
377.25
 20
-68.5
 30
0.0
  0
VERTEX
  5
1212
  8
DATA
  6
CONTINUOUS
 62
     7
 10
377.25
 20
-66.25
 30
0.0
  0
SEQEND
  5
1213
  8
DATA
  6
CONTINUOUS
 62
     7
  0
POLYLINE
  5
258
  8
DATA
  6
CONTINUOUS
 62
     7
 66
     1
 10
0.0
 20
0.0
 30
0.0
  0
VERTEX
  5
1214
  8
DATA
  6
CONTINUOUS
 62
     7
 10
378.75
 20
-64.75
 30
0.0
  0
VERTEX
  5
1215
  8
DATA
  6
CONTINUOUS
 62
     7
 10
381.0
 20
-64.75
 30
0.0
  0
VERTEX
  5
1216
  8
DATA
  6
CONTINUOUS
 62
     7
 10
381.0
 20
-66.25
 30
0.0
  0
VERTEX
  5
1217
  8
DATA
  6
CONTINUOUS
 62
     7
 10
378.75
 20
-66.25
 30
0.0
  0
SEQEND
  5
1218
  8
DATA
  6
CONTINUOUS
 62
     7
  0
POLYLINE
  5
25F
  8
DATA
  6
CONTINUOUS
 62
     7
 66
     1
 10
0.0
 20
0.0
 30
0.0
  0
VERTEX
  5
1219
  8
DATA
  6
CONTINUOUS
 62
     7
 10
377.25
 20
-66.25
 30
0.0
  0
VERTEX
  5
121A
  8
DATA
  6
CONTINUOUS
 62
     7
 10
375.0
 20
-66.25
 30
0.0
  0
VERTEX
  5
121B
  8
DATA
  6
CONTINUOUS
 62
     7
 10
375.0
 20
-64.75
 30
0.0
  0
VERTEX
  5
121C
  8
DATA
  6
CONTINUOUS
 62
     7
 10
377.25
 20
-64.75
 30
0.0
  0
SEQEND
  5
121D
  8
DATA
  6
CONTINUOUS
 62
     7
  0
CIRCLE
  5
266
  8
DATA
  6
CONTINUOUS
 62
     7
 10
558.0
 20
-65.5
 30
0.0
 40
4.7000000000000437
  0
POLYLINE
  5
267
  8
DATA
  6
CONTINUOUS
 62
     7
 66
     1
 10
0.0
 20
0.0
 30
0.0
  0
VERTEX
  5
121E
  8
DATA
  6
CONTINUOUS
 62
     7
 10
557.24999999999977
 20
-64.75
 30
0.0
  0
VERTEX
  5
121F
  8
DATA
  6
CONTINUOUS
 62
     7
 10
557.24999999999977
 20
-62.5
 30
0.0
  0
VERTEX
  5
1220
  8
DATA
  6
CONTINUOUS
 62
     7
 10
558.75
 20
-62.5
 30
0.0
  0
VERTEX
  5
1221
  8
DATA
  6
CONTINUOUS
 62
     7
 10
558.75
 20
-64.75
 30
0.0
  0
SEQEND
  5
1222
  8
DATA
  6
CONTINUOUS
 62
     7
  0
POLYLINE
  5
26E
  8
DATA
  6
CONTINUOUS
 62
     7
 66
     1
 10
0.0
 20
0.0
 30
0.0
  0
VERTEX
  5
1223
  8
DATA
  6
CONTINUOUS
 62
     7
 10
558.75
 20
-66.25
 30
0.0
  0
VERTEX
  5
1224
  8
DATA
  6
CONTINUOUS
 62
     7
 10
558.75
 20
-68.5
 30
0.0
  0
VERTEX
  5
1225
  8
DATA
  6
CONTINUOUS
 62
     7
 10
557.24999999999977
 20
-68.5
 30
0.0
  0
VERTEX
  5
1226
  8
DATA
  6
CONTINUOUS
 62
     7
 10
557.24999999999977
 20
-66.25
 30
0.0
  0
SEQEND
  5
1227
  8
DATA
  6
CONTINUOUS
 62
     7
  0
POLYLINE
  5
275
  8
DATA
  6
CONTINUOUS
 62
     7
 66
     1
 10
0.0
 20
0.0
 30
0.0
  0
VERTEX
  5
1228
  8
DATA
  6
CONTINUOUS
 62
     7
 10
558.75
 20
-64.75
 30
0.0
  0
VERTEX
  5
1229
  8
DATA
  6
CONTINUOUS
 62
     7
 10
561.0
 20
-64.75
 30
0.0
  0
VERTEX
  5
122A
  8
DATA
  6
CONTINUOUS
 62
     7
 10
561.0
 20
-66.25
 30
0.0
  0
VERTEX
  5
122B
  8
DATA
  6
CONTINUOUS
 62
     7
 10
558.75
 20
-66.25
 30
0.0
  0
SEQEND
  5
122C
  8
DATA
  6
CONTINUOUS
 62
     7
  0
POLYLINE
  5
27C
  8
DATA
  6
CONTINUOUS
 62
     7
 66
     1
 10
0.0
 20
0.0
 30
0.0
  0
VERTEX
  5
122D
  8
DATA
  6
CONTINUOUS
 62
     7
 10
557.24999999999977
 20
-66.25
 30
0.0
  0
VERTEX
  5
122E
  8
DATA
  6
CONTINUOUS
 62
     7
 10
555.0
 20
-66.25
 30
0.0
  0
VERTEX
  5
122F
  8
DATA
  6
CONTINUOUS
 62
     7
 10
555.0
 20
-64.75
 30
0.0
  0
VERTEX
  5
1230
  8
DATA
  6
CONTINUOUS
 62
     7
 10
557.24999999999977
 20
-64.75
 30
0.0
  0
SEQEND
  5
1231
  8
DATA
  6
CONTINUOUS
 62
     7
  0
CIRCLE
  5
283
  8
DATA
  6
CONTINUOUS
 62
     7
 10
378.0
 20
-397.5
 30
0.0
 40
4.6999999999999869
  0
POLYLINE
  5
284
  8
DATA
  6
CONTINUOUS
 62
     7
 66
     1
 10
0.0
 20
0.0
 30
0.0
  0
VERTEX
  5
1232
  8
DATA
  6
CONTINUOUS
 62
     7
 10
377.25
 20
-396.75
 30
0.0
  0
VERTEX
  5
1233
  8
DATA
  6
CONTINUOUS
 62
     7
 10
377.25
 20
-394.5
 30
0.0
  0
VERTEX
  5
1234
  8
DATA
  6
CONTINUOUS
 62
     7
 10
378.75
 20
-394.5
 30
0.0
  0
VERTEX
  5
1235
  8
DATA
  6
CONTINUOUS
 62
     7
 10
378.75
 20
-396.75
 30
0.0
  0
SEQEND
  5
1236
  8
DATA
  6
CONTINUOUS
 62
     7
  0
POLYLINE
  5
28B
  8
DATA
  6
CONTINUOUS
 62
     7
 66
     1
 10
0.0
 20
0.0
 30
0.0
  0
VERTEX
  5
1237
  8
DATA
  6
CONTINUOUS
 62
     7
 10
378.75
 20
-398.25
 30
0.0
  0
VERTEX
  5
1238
  8
DATA
  6
CONTINUOUS
 62
     7
 10
378.75
 20
-400.49999999999989
 30
0.0
  0
VERTEX
  5
1239
  8
DATA
  6
CONTINUOUS
 62
     7
 10
377.25
 20
-400.49999999999989
 30
0.0
  0
VERTEX
  5
123A
  8
DATA
  6
CONTINUOUS
 62
     7
 10
377.25
 20
-398.25
 30
0.0
  0
SEQEND
  5
123B
  8
DATA
  6
CONTINUOUS
 62
     7
  0
POLYLINE
  5
292
  8
DATA
  6
CONTINUOUS
 62
     7
 66
     1
 10
0.0
 20
0.0
 30
0.0
  0
VERTEX
  5
123C
  8
DATA
  6
CONTINUOUS
 62
     7
 10
378.75
 20
-396.75
 30
0.0
  0
VERTEX
  5
123D
  8
DATA
  6
CONTINUOUS
 62
     7
 10
381.0
 20
-396.75
 30
0.0
  0
VERTEX
  5
123E
  8
DATA
  6
CONTINUOUS
 62
     7
 10
381.0
 20
-398.25
 30
0.0
  0
VERTEX
  5
123F
  8
DATA
  6
CONTINUOUS
 62
     7
 10
378.75
 20
-398.25
 30
0.0
  0
SEQEND
  5
1240
  8
DATA
  6
CONTINUOUS
 62
     7
  0
POLYLINE
  5
299
  8
DATA
  6
CONTINUOUS
 62
     7
 66
     1
 10
0.0
 20
0.0
 30
0.0
  0
VERTEX
  5
1241
  8
DATA
  6
CONTINUOUS
 62
     7
 10
377.25
 20
-398.25
 30
0.0
  0
VERTEX
  5
1242
  8
DATA
  6
CONTINUOUS
 62
     7
 10
375.0
 20
-398.25
 30
0.0
  0
VERTEX
  5
1243
  8
DATA
  6
CONTINUOUS
 62
     7
 10
375.0
 20
-396.75
 30
0.0
  0
VERTEX
  5
1244
  8
DATA
  6
CONTINUOUS
 62
     7
 10
377.25
 20
-396.75
 30
0.0
  0
SEQEND
  5
1245
  8
DATA
  6
CONTINUOUS
 62
     7
  0
CIRCLE
  5
2A0
  8
DATA
  6
CONTINUOUS
 62
     7
 10
558.0
 20
-397.5
 30
0.0
 40
4.7000000000000437
  0
POLYLINE
  5
2A1
  8
DATA
  6
CONTINUOUS
 62
     7
 66
     1
 10
0.0
 20
0.0
 30
0.0
  0
VERTEX
  5
1246
  8
DATA
  6
CONTINUOUS
 62
     7
 10
557.24999999999977
 20
-396.75
 30
0.0
  0
VERTEX
  5
1247
  8
DATA
  6
CONTINUOUS
 62
     7
 10
557.24999999999977
 20
-394.5
 30
0.0
  0
VERTEX
  5
1248
  8
DATA
  6
CONTINUOUS
 62
     7
 10
558.75
 20
-394.5
 30
0.0
  0
VERTEX
  5
1249
  8
DATA
  6
CONTINUOUS
 62
     7
 10
558.75
 20
-396.75
 30
0.0
  0
SEQEND
  5
124A
  8
DATA
  6
CONTINUOUS
 62
     7
  0
POLYLINE
  5
2A8
  8
DATA
  6
CONTINUOUS
 62
     7
 66
     1
 10
0.0
 20
0.0
 30
0.0
  0
VERTEX
  5
124B
  8
DATA
  6
CONTINUOUS
 62
     7
 10
558.75
 20
-398.25
 30
0.0
  0
VERTEX
  5
124C
  8
DATA
  6
CONTINUOUS
 62
     7
 10
558.75
 20
-400.49999999999989
 30
0.0
  0
VERTEX
  5
124D
  8
DATA
  6
CONTINUOUS
 62
     7
 10
557.24999999999977
 20
-400.49999999999989
 30
0.0
  0
VERTEX
  5
124E
  8
DATA
  6
CONTINUOUS
 62
     7
 10
557.24999999999977
 20
-398.25
 30
0.0
  0
SEQEND
  5
124F
  8
DATA
  6
CONTINUOUS
 62
     7
  0
POLYLINE
  5
2AF
  8
DATA
  6
CONTINUOUS
 62
     7
 66
     1
 10
0.0
 20
0.0
 30
0.0
  0
VERTEX
  5
1250
  8
DATA
  6
CONTINUOUS
 62
     7
 10
558.75
 20
-396.75
 30
0.0
  0
VERTEX
  5
1251
  8
DATA
  6
CONTINUOUS
 62
     7
 10
561.0
 20
-396.75
 30
0.0
  0
VERTEX
  5
1252
  8
DATA
  6
CONTINUOUS
 62
     7
 10
561.0
 20
-398.25
 30
0.0
  0
VERTEX
  5
1253
  8
DATA
  6
CONTINUOUS
 62
     7
 10
558.75
 20
-398.25
 30
0.0
  0
SEQEND
  5
1254
  8
DATA
  6
CONTINUOUS
 62
     7
  0
POLYLINE
  5
2B6
  8
DATA
  6
CONTINUOUS
 62
     7
 66
     1
 10
0.0
 20
0.0
 30
0.0
  0
VERTEX
  5
1255
  8
DATA
  6
CONTINUOUS
 62
     7
 10
557.24999999999977
 20
-398.25
 30
0.0
  0
VERTEX
  5
1256
  8
DATA
  6
CONTINUOUS
 62
     7
 10
555.0
 20
-398.25
 30
0.0
  0
VERTEX
  5
1257
  8
DATA
  6
CONTINUOUS
 62
     7
 10
555.0
 20
-396.75
 30
0.0
  0
VERTEX
  5
1258
  8
DATA
  6
CONTINUOUS
 62
     7
 10
557.24999999999977
 20
-396.75
 30
0.0
  0
SEQEND
  5
1259
  8
DATA
  6
CONTINUOUS
 62
     7
  0
CIRCLE
  5
2BD
  8
DATA
  6
CONTINUOUS
 62
     7
 10
378.0
 20
-225.5
 30
0.0
 40
4.6999999999999869
  0
POLYLINE
  5
2BE
  8
DATA
  6
CONTINUOUS
 62
     7
 66
     1
 10
0.0
 20
0.0
 30
0.0
  0
VERTEX
  5
125A
  8
DATA
  6
CONTINUOUS
 62
     7
 10
377.25
 20
-224.75
 30
0.0
  0
VERTEX
  5
125B
  8
DATA
  6
CONTINUOUS
 62
     7
 10
377.25
 20
-222.5
 30
0.0
  0
VERTEX
  5
125C
  8
DATA
  6
CONTINUOUS
 62
     7
 10
378.75
 20
-222.5
 30
0.0
  0
VERTEX
  5
125D
  8
DATA
  6
CONTINUOUS
 62
     7
 10
378.75
 20
-224.75
 30
0.0
  0
SEQEND
  5
125E
  8
DATA
  6
CONTINUOUS
 62
     7
  0
POLYLINE
  5
2C5
  8
DATA
  6
CONTINUOUS
 62
     7
 66
     1
 10
0.0
 20
0.0
 30
0.0
  0
VERTEX
  5
125F
  8
DATA
  6
CONTINUOUS
 62
     7
 10
378.75
 20
-226.25
 30
0.0
  0
VERTEX
  5
1260
  8
DATA
  6
CONTINUOUS
 62
     7
 10
378.75
 20
-228.5
 30
0.0
  0
VERTEX
  5
1261
  8
DATA
  6
CONTINUOUS
 62
     7
 10
377.25
 20
-228.5
 30
0.0
  0
VERTEX
  5
1262
  8
DATA
  6
CONTINUOUS
 62
     7
 10
377.25
 20
-226.25
 30
0.0
  0
SEQEND
  5
1263
  8
DATA
  6
CONTINUOUS
 62
     7
  0
POLYLINE
  5
2CC
  8
DATA
  6
CONTINUOUS
 62
     7
 66
     1
 10
0.0
 20
0.0
 30
0.0
  0
VERTEX
  5
1264
  8
DATA
  6
CONTINUOUS
 62
     7
 10
378.75
 20
-224.75
 30
0.0
  0
VERTEX
  5
1265
  8
DATA
  6
CONTINUOUS
 62
     7
 10
381.0
 20
-224.75
 30
0.0
  0
VERTEX
  5
1266
  8
DATA
  6
CONTINUOUS
 62
     7
 10
381.0
 20
-226.25
 30
0.0
  0
VERTEX
  5
1267
  8
DATA
  6
CONTINUOUS
 62
     7
 10
378.75
 20
-226.25
 30
0.0
  0
SEQEND
  5
1268
  8
DATA
  6
CONTINUOUS
 62
     7
  0
POLYLINE
  5
2D3
  8
DATA
  6
CONTINUOUS
 62
     7
 66
     1
 10
0.0
 20
0.0
 30
0.0
  0
VERTEX
  5
1269
  8
DATA
  6
CONTINUOUS
 62
     7
 10
377.25
 20
-226.25
 30
0.0
  0
VERTEX
  5
126A
  8
DATA
  6
CONTINUOUS
 62
     7
 10
375.0
 20
-226.25
 30
0.0
  0
VERTEX
  5
126B
  8
DATA
  6
CONTINUOUS
 62
     7
 10
375.0
 20
-224.75
 30
0.0
  0
VERTEX
  5
126C
  8
DATA
  6
CONTINUOUS
 62
     7
 10
377.25
 20
-224.75
 30
0.0
  0
SEQEND
  5
126D
  8
DATA
  6
CONTINUOUS
 62
     7
  0
CIRCLE
  5
2DA
  8
DATA
  6
CONTINUOUS
 62
     7
 10
558.0
 20
-225.5
 30
0.0
 40
4.7000000000000437
  0
POLYLINE
  5
2DB
  8
DATA
  6
CONTINUOUS
 62
     7
 66
     1
 10
0.0
 20
0.0
 30
0.0
  0
VERTEX
  5
126E
  8
DATA
  6
CONTINUOUS
 62
     7
 10
557.24999999999977
 20
-224.75
 30
0.0
  0
VERTEX
  5
126F
  8
DATA
  6
CONTINUOUS
 62
     7
 10
557.24999999999977
 20
-222.5
 30
0.0
  0
VERTEX
  5
1270
  8
DATA
  6
CONTINUOUS
 62
     7
 10
558.75
 20
-222.5
 30
0.0
  0
VERTEX
  5
1271
  8
DATA
  6
CONTINUOUS
 62
     7
 10
558.75
 20
-224.75
 30
0.0
  0
SEQEND
  5
1272
  8
DATA
  6
CONTINUOUS
 62
     7
  0
POLYLINE
  5
2E2
  8
DATA
  6
CONTINUOUS
 62
     7
 66
     1
 10
0.0
 20
0.0
 30
0.0
  0
VERTEX
  5
1273
  8
DATA
  6
CONTINUOUS
 62
     7
 10
558.75
 20
-226.25
 30
0.0
  0
VERTEX
  5
1274
  8
DATA
  6
CONTINUOUS
 62
     7
 10
558.75
 20
-228.5
 30
0.0
  0
VERTEX
  5
1275
  8
DATA
  6
CONTINUOUS
 62
     7
 10
557.24999999999977
 20
-228.5
 30
0.0
  0
VERTEX
  5
1276
  8
DATA
  6
CONTINUOUS
 62
     7
 10
557.24999999999977
 20
-226.25
 30
0.0
  0
SEQEND
  5
1277
  8
DATA
  6
CONTINUOUS
 62
     7
  0
POLYLINE
  5
2E9
  8
DATA
  6
CONTINUOUS
 62
     7
 66
     1
 10
0.0
 20
0.0
 30
0.0
  0
VERTEX
  5
1278
  8
DATA
  6
CONTINUOUS
 62
     7
 10
558.75
 20
-224.75
 30
0.0
  0
VERTEX
  5
1279
  8
DATA
  6
CONTINUOUS
 62
     7
 10
561.0
 20
-224.75
 30
0.0
  0
VERTEX
  5
127A
  8
DATA
  6
CONTINUOUS
 62
     7
 10
561.0
 20
-226.25
 30
0.0
  0
VERTEX
  5
127B
  8
DATA
  6
CONTINUOUS
 62
     7
 10
558.75
 20
-226.25
 30
0.0
  0
SEQEND
  5
127C
  8
DATA
  6
CONTINUOUS
 62
     7
  0
POLYLINE
  5
2F0
  8
DATA
  6
CONTINUOUS
 62
     7
 66
     1
 10
0.0
 20
0.0
 30
0.0
  0
VERTEX
  5
127D
  8
DATA
  6
CONTINUOUS
 62
     7
 10
557.24999999999977
 20
-226.25
 30
0.0
  0
VERTEX
  5
127E
  8
DATA
  6
CONTINUOUS
 62
     7
 10
555.0
 20
-226.25
 30
0.0
  0
VERTEX
  5
127F
  8
DATA
  6
CONTINUOUS
 62
     7
 10
555.0
 20
-224.75
 30
0.0
  0
VERTEX
  5
1280
  8
DATA
  6
CONTINUOUS
 62
     7
 10
557.24999999999977
 20
-224.75
 30
0.0
  0
SEQEND
  5
1281
  8
DATA
  6
CONTINUOUS
 62
     7
  0
LINE
  5
2F7
  8
DATA
  6
CONTINUOUS
 62
     7
 10
586.27082168306345
 20
-214.1509905378069
 30
0.0
 11
586.0
 21
-214.1509905378069
 31
0.0
  0
ARC
  5
2F8
  8
DATA
  6
CONTINUOUS
 62
     7
 10
586.27082168306345
 20
-213.15099053780719
 30
0.0
 40
0.9999999999997156
 50
270.0
 51
351.4262949104824
  0
ARC
  5
2F9
  8
DATA
  6
CONTINUOUS
 62
     7
 10
373.0
 20
-61.5
 30
0.0
 40
5.0
 50
90.0
 51
180.0
  0
ARC
  5
2FA
  8
DATA
  6
CONTINUOUS
 62
     7
 10
563.0
 20
-61.5
 30
0.0
 40
5.0
 50
0.0
 51
90.0
  0
ARC
  5
2FB
  8
DATA
  6
CONTINUOUS
 62
     7
 10
373.0
 20
-401.49999999999989
 30
0.0
 40
5.0
 50
180.0
 51
270.0
  0
ARC
  5
2FC
  8
DATA
  6
CONTINUOUS
 62
     7
 10
563.0
 20
-401.49999999999989
 30
0.0
 40
5.0
 50
270.0
 51
0.0
  0
LINE
  5
2FD
  8
DATA
  6
CONTINUOUS
 62
     7
 10
395.5
 20
-386.5
 30
0.0
 11
540.5
 21
-386.5
 31
0.0
  0
LINE
  5
2FE
  8
DATA
  6
CONTINUOUS
 62
     7
 10
395.5
 20
-301.5
 30
0.0
 11
540.5
 21
-301.5
 31
0.0
  0
LINE
  5
2FF
  8
DATA
  6
CONTINUOUS
 62
     7
 10
385.5
 20
-376.5
 30
0.0
 11
385.5
 21
-311.5
 31
0.0
  0
LINE
  5
300
  8
DATA
  6
CONTINUOUS
 62
     7
 10
550.49999999999989
 20
-376.5
 30
0.0
 11
550.49999999999989
 21
-311.5
 31
0.0
  0
ARC
  5
301
  8
DATA
  6
CONTINUOUS
 62
     7
 10
395.5
 20
-376.5
 30
0.0
 40
10.0
 50
180.0
 51
270.0
  0
ARC
  5
302
  8
DATA
  6
CONTINUOUS
 62
     7
 10
395.5
 20
-311.5
 30
0.0
 40
10.0
 50
90.0
 51
180.0
  0
ARC
  5
303
  8
DATA
  6
CONTINUOUS
 62
     7
 10
540.5
 20
-311.5
 30
0.0
 40
10.0
 50
0.0
 51
90.0
  0
ARC
  5
304
  8
DATA
  6
CONTINUOUS
 62
     7
 10
540.5
 20
-376.5
 30
0.0
 40
10.0
 50
270.0
 51
0.0
  0
LINE
  5
305
  8
DATA
  6
CONTINUOUS
 62
     7
 10
539.82433265632835
 20
-380.0
 30
0.0
 11
503.82433265632852
 21
-380.0
 31
0.0
  0
LINE
  5
306
  8
DATA
  6
CONTINUOUS
 62
     7
 10
546.82433265632847
 20
-373.0
 30
0.0
 11
546.82433265632847
 21
-352.0
 31
0.0
  0
LINE
  5
307
  8
DATA
  6
CONTINUOUS
 62
     7
 10
496.82433265632852
 20
-373.0
 30
0.0
 11
496.82433265632852
 21
-352.0
 31
0.0
  0
LINE
  5
308
  8
DATA
  6
CONTINUOUS
 62
     7
 10
539.82433265632835
 20
-345.0
 30
0.0
 11
503.82433265632852
 21
-345.0
 31
0.0
  0
ARC
  5
309
  8
DATA
  6
CONTINUOUS
 62
     7
 10
503.82433265632852
 20
-373.0
 30
0.0
 40
7.0
 50
180.0
 51
270.0
  0
ARC
  5
30A
  8
DATA
  6
CONTINUOUS
 62
     7
 10
503.82433265632852
 20
-352.0
 30
0.0
 40
7.0
 50
90.0
 51
180.0
  0
ARC
  5
30B
  8
DATA
  6
CONTINUOUS
 62
     7
 10
539.82433265632835
 20
-352.0
 30
0.0
 40
7.0
 50
0.0
 51
90.0
  0
ARC
  5
30C
  8
DATA
  6
CONTINUOUS
 62
     7
 10
539.82433265632835
 20
-373.0
 30
0.0
 40
7.0
 50
270.0
 51
0.0
  0
POLYLINE
  5
30D
  8
DATA
  6
CONTINUOUS
 62
     7
 66
     1
 10
0.0
 20
0.0
 30
0.0
 70
     1
  0
VERTEX
  5
1282
  8
DATA
  6
CONTINUOUS
 62
     7
 10
504.78457085558807
 20
-347.5
 30
0.0
  0
VERTEX
  5
1283
  8
DATA
  6
CONTINUOUS
 62
     7
 10
537.78457085558819
 20
-347.5
 30
0.0
  0
VERTEX
  5
1284
  8
DATA
  6
CONTINUOUS
 62
     7
 10
537.78457085558819
 20
-377.5
 30
0.0
  0
VERTEX
  5
1285
  8
DATA
  6
CONTINUOUS
 62
     7
 10
504.78457085558807
 20
-377.5
 30
0.0
  0
SEQEND
  5
1286
  8
DATA
  6
CONTINUOUS
 62
     7
  0
CIRCLE
  5
314
  8
DATA
  6
CONTINUOUS
 62
     7
 10
500.72433265632822
 20
-362.5
 30
0.0
 40
2.6499999999999759
  0
POLYLINE
  5
315
  8
DATA
  6
CONTINUOUS
 62
     7
 66
     1
 10
0.0
 20
0.0
 30
0.0
  0
VERTEX
  5
1287
  8
DATA
  6
CONTINUOUS
 62
     7
 10
500.32433265632852
 20
-362.10000000000002
 30
0.0
  0
VERTEX
  5
1288
  8
DATA
  6
CONTINUOUS
 62
     7
 10
500.32433265632852
 20
-360.75
 30
0.0
  0
VERTEX
  5
1289
  8
DATA
  6
CONTINUOUS
 62
     7
 10
501.12433265632819
 20
-360.75
 30
0.0
  0
VERTEX
  5
128A
  8
DATA
  6
CONTINUOUS
 62
     7
 10
501.12433265632819
 20
-362.10000000000002
 30
0.0
  0
SEQEND
  5
128B
  8
DATA
  6
CONTINUOUS
 62
     7
  0
POLYLINE
  5
31C
  8
DATA
  6
CONTINUOUS
 62
     7
 66
     1
 10
0.0
 20
0.0
 30
0.0
  0
VERTEX
  5
128C
  8
DATA
  6
CONTINUOUS
 62
     7
 10
501.12433265632819
 20
-362.89999999999998
 30
0.0
  0
VERTEX
  5
128D
  8
DATA
  6
CONTINUOUS
 62
     7
 10
501.12433265632819
 20
-364.25
 30
0.0
  0
VERTEX
  5
128E
  8
DATA
  6
CONTINUOUS
 62
     7
 10
500.32433265632852
 20
-364.25
 30
0.0
  0
VERTEX
  5
128F
  8
DATA
  6
CONTINUOUS
 62
     7
 10
500.32433265632852
 20
-362.89999999999998
 30
0.0
  0
SEQEND
  5
1290
  8
DATA
  6
CONTINUOUS
 62
     7
  0
POLYLINE
  5
323
  8
DATA
  6
CONTINUOUS
 62
     7
 66
     1
 10
0.0
 20
0.0
 30
0.0
  0
VERTEX
  5
1291
  8
DATA
  6
CONTINUOUS
 62
     7
 10
501.12433265632819
 20
-362.10000000000002
 30
0.0
  0
VERTEX
  5
1292
  8
DATA
  6
CONTINUOUS
 62
     7
 10
502.47433265632827
 20
-362.10000000000002
 30
0.0
  0
VERTEX
  5
1293
  8
DATA
  6
CONTINUOUS
 62
     7
 10
502.47433265632827
 20
-362.89999999999998
 30
0.0
  0
VERTEX
  5
1294
  8
DATA
  6
CONTINUOUS
 62
     7
 10
501.12433265632819
 20
-362.89999999999998
 30
0.0
  0
SEQEND
  5
1295
  8
DATA
  6
CONTINUOUS
 62
     7
  0
POLYLINE
  5
32A
  8
DATA
  6
CONTINUOUS
 62
     7
 66
     1
 10
0.0
 20
0.0
 30
0.0
  0
VERTEX
  5
1296
  8
DATA
  6
CONTINUOUS
 62
     7
 10
500.32433265632852
 20
-362.89999999999998
 30
0.0
  0
VERTEX
  5
1297
  8
DATA
  6
CONTINUOUS
 62
     7
 10
498.97433265632827
 20
-362.89999999999998
 30
0.0
  0
VERTEX
  5
1298
  8
DATA
  6
CONTINUOUS
 62
     7
 10
498.97433265632827
 20
-362.10000000000002
 30
0.0
  0
VERTEX
  5
1299
  8
DATA
  6
CONTINUOUS
 62
     7
 10
500.32433265632852
 20
-362.10000000000002
 30
0.0
  0
SEQEND
  5
129A
  8
DATA
  6
CONTINUOUS
 62
     7
  0
CIRCLE
  5
331
  8
DATA
  6
CONTINUOUS
 62
     7
 10
542.45380615897375
 20
-362.44999999999999
 30
0.0
 40
2.6499999999999759
  0
POLYLINE
  5
332
  8
DATA
  6
CONTINUOUS
 62
     7
 66
     1
 10
0.0
 20
0.0
 30
0.0
  0
VERTEX
  5
129B
  8
DATA
  6
CONTINUOUS
 62
     7
 10
542.05380615897354
 20
-362.05000000000001
 30
0.0
  0
VERTEX
  5
129C
  8
DATA
  6
CONTINUOUS
 62
     7
 10
542.05380615897354
 20
-360.69999999999999
 30
0.0
  0
VERTEX
  5
129D
  8
DATA
  6
CONTINUOUS
 62
     7
 10
542.85380615897373
 20
-360.69999999999999
 30
0.0
  0
VERTEX
  5
129E
  8
DATA
  6
CONTINUOUS
 62
     7
 10
542.85380615897373
 20
-362.05000000000001
 30
0.0
  0
SEQEND
  5
129F
  8
DATA
  6
CONTINUOUS
 62
     7
  0
POLYLINE
  5
339
  8
DATA
  6
CONTINUOUS
 62
     7
 66
     1
 10
0.0
 20
0.0
 30
0.0
  0
VERTEX
  5
12A0
  8
DATA
  6
CONTINUOUS
 62
     7
 10
542.85380615897373
 20
-362.85000000000002
 30
0.0
  0
VERTEX
  5
12A1
  8
DATA
  6
CONTINUOUS
 62
     7
 10
542.85380615897373
 20
-364.19999999999999
 30
0.0
  0
VERTEX
  5
12A2
  8
DATA
  6
CONTINUOUS
 62
     7
 10
542.05380615897354
 20
-364.19999999999999
 30
0.0
  0
VERTEX
  5
12A3
  8
DATA
  6
CONTINUOUS
 62
     7
 10
542.05380615897354
 20
-362.85000000000002
 30
0.0
  0
SEQEND
  5
12A4
  8
DATA
  6
CONTINUOUS
 62
     7
  0
POLYLINE
  5
340
  8
DATA
  6
CONTINUOUS
 62
     7
 66
     1
 10
0.0
 20
0.0
 30
0.0
  0
VERTEX
  5
12A5
  8
DATA
  6
CONTINUOUS
 62
     7
 10
542.85380615897373
 20
-362.05000000000001
 30
0.0
  0
VERTEX
  5
12A6
  8
DATA
  6
CONTINUOUS
 62
     7
 10
544.20380615897375
 20
-362.05000000000001
 30
0.0
  0
VERTEX
  5
12A7
  8
DATA
  6
CONTINUOUS
 62
     7
 10
544.20380615897375
 20
-362.85000000000002
 30
0.0
  0
VERTEX
  5
12A8
  8
DATA
  6
CONTINUOUS
 62
     7
 10
542.85380615897373
 20
-362.85000000000002
 30
0.0
  0
SEQEND
  5
12A9
  8
DATA
  6
CONTINUOUS
 62
     7
  0
POLYLINE
  5
347
  8
DATA
  6
CONTINUOUS
 62
     7
 66
     1
 10
0.0
 20
0.0
 30
0.0
  0
VERTEX
  5
12AA
  8
DATA
  6
CONTINUOUS
 62
     7
 10
542.05380615897354
 20
-362.85000000000002
 30
0.0
  0
VERTEX
  5
12AB
  8
DATA
  6
CONTINUOUS
 62
     7
 10
540.70380615897375
 20
-362.85000000000002
 30
0.0
  0
VERTEX
  5
12AC
  8
DATA
  6
CONTINUOUS
 62
     7
 10
540.70380615897375
 20
-362.05000000000001
 30
0.0
  0
VERTEX
  5
12AD
  8
DATA
  6
CONTINUOUS
 62
     7
 10
542.05380615897354
 20
-362.05000000000001
 30
0.0
  0
SEQEND
  5
12AE
  8
DATA
  6
CONTINUOUS
 62
     7
  0
LINE
  5
34E
  8
DATA
  6
CONTINUOUS
 62
     7
 10
507.65958650734768
 20
-371.5
 30
0.0
 11
507.65958650734768
 21
-353.5
 31
0.0
  0
POLYLINE
  5
34F
  8
DATA
  6
CONTINUOUS
 62
     7
 66
     1
 10
0.0
 20
0.0
 30
0.0
  0
VERTEX
  5
12AF
  8
DATA
  6
CONTINUOUS
 62
     7
 10
511.65958650734768
 20
-349.5
 30
0.0
  0
VERTEX
  5
12B0
  8
DATA
  6
CONTINUOUS
 62
     7
 10
524.65958650734774
 20
-349.5
 30
0.0
  0
VERTEX
  5
12B1
  8
DATA
  6
CONTINUOUS
 62
     7
 10
524.65958650734774
 20
-375.5
 30
0.0
  0
VERTEX
  5
12B2
  8
DATA
  6
CONTINUOUS
 62
     7
 10
511.65958650734768
 20
-375.5
 30
0.0
  0
SEQEND
  5
12B3
  8
DATA
  6
CONTINUOUS
 62
     7
  0
LINE
  5
356
  8
DATA
  6
CONTINUOUS
 62
     7
 10
507.65958650734768
 20
-353.5
 30
0.0
 11
511.65958650734768
 21
-349.5
 31
0.0
  0
LINE
  5
357
  8
DATA
  6
CONTINUOUS
 62
     7
 10
511.65958650734768
 20
-375.5
 30
0.0
 11
507.65958650734768
 21
-371.5
 31
0.0
  0
POLYLINE
  5
358
  8
DATA
  6
CONTINUOUS
 62
     7
 66
     1
 10
0.0
 20
0.0
 30
0.0
 70
     1
  0
VERTEX
  5
12B4
  8
DATA
  6
CONTINUOUS
 62
     7
 10
509.8139111061684
 20
-361.5
 30
0.0
  0
VERTEX
  5
12B5
  8
DATA
  6
CONTINUOUS
 62
     7
 10
514.81391110616835
 20
-361.5
 30
0.0
  0
VERTEX
  5
12B6
  8
DATA
  6
CONTINUOUS
 62
     7
 10
514.81391110616835
 20
-363.5
 30
0.0
  0
VERTEX
  5
12B7
  8
DATA
  6
CONTINUOUS
 62
     7
 10
509.8139111061684
 20
-363.5
 30
0.0
  0
SEQEND
  5
12B8
  8
DATA
  6
CONTINUOUS
 62
     7
  0
POLYLINE
  5
35F
  8
DATA
  6
CONTINUOUS
 62
     7
 66
     1
 10
0.0
 20
0.0
 30
0.0
 70
     1
  0
VERTEX
  5
12B9
  8
DATA
  6
CONTINUOUS
 62
     7
 10
517.18115952086112
 20
-355.29484777041893
 30
0.0
  0
VERTEX
  5
12BA
  8
DATA
  6
CONTINUOUS
 62
     7
 10
522.18115952086112
 20
-355.29484777041893
 30
0.0
  0
VERTEX
  5
12BB
  8
DATA
  6
CONTINUOUS
 62
     7
 10
522.18115952086112
 20
-357.29484777041893
 30
0.0
  0
VERTEX
  5
12BC
  8
DATA
  6
CONTINUOUS
 62
     7
 10
517.18115952086112
 20
-357.29484777041893
 30
0.0
  0
SEQEND
  5
12BD
  8
DATA
  6
CONTINUOUS
 62
     7
  0
POLYLINE
  5
366
  8
DATA
  6
CONTINUOUS
 62
     7
 66
     1
 10
0.0
 20
0.0
 30
0.0
 70
     1
  0
VERTEX
  5
12BE
  8
DATA
  6
CONTINUOUS
 62
     7
 10
517.18115952086112
 20
-367.70515222958107
 30
0.0
  0
VERTEX
  5
12BF
  8
DATA
  6
CONTINUOUS
 62
     7
 10
522.18115952086112
 20
-367.70515222958107
 30
0.0
  0
VERTEX
  5
12C0
  8
DATA
  6
CONTINUOUS
 62
     7
 10
522.18115952086112
 20
-369.70515222958107
 30
0.0
  0
VERTEX
  5
12C1
  8
DATA
  6
CONTINUOUS
 62
     7
 10
517.18115952086112
 20
-369.70515222958107
 30
0.0
  0
SEQEND
  5
12C2
  8
DATA
  6
CONTINUOUS
 62
     7
  0
CIRCLE
  5
36D
  8
DATA
  6
CONTINUOUS
 62
     7
 10
481.0
 20
-368.23030631938951
 30
0.0
 40
1.450000000000045
  0
CIRCLE
  5
36E
  8
DATA
  6
CONTINUOUS
 62
     7
 10
476.0
 20
-368.23030631938951
 30
0.0
 40
1.450000000000045
  0
CIRCLE
  5
36F
  8
DATA
  6
CONTINUOUS
 62
     7
 10
471.0
 20
-368.23030631938951
 30
0.0
 40
1.450000000000045
  0
CIRCLE
  5
370
  8
DATA
  6
CONTINUOUS
 62
     7
 10
466.0
 20
-368.23030631938951
 30
0.0
 40
1.450000000000045
  0
CIRCLE
  5
371
  8
DATA
  6
CONTINUOUS
 62
     7
 10
461.0
 20
-368.23030631938951
 30
0.0
 40
1.450000000000045
  0
CIRCLE
  5
372
  8
DATA
  6
CONTINUOUS
 62
     7
 10
448.68973587461932
 20
-368.53411242479041
 30
0.0
 40
3.649999999999975
  0
CIRCLE
  5
373
  8
DATA
  6
CONTINUOUS
 62
     7
 10
448.68973587461932
 20
-368.53411242479041
 30
0.0
 40
1.699999999999988
  0
LINE
  5
374
  8
DATA
  6
CONTINUOUS
 62
     7
 10
393.82797581511818
 20
-369.44999999999999
 30
0.0
 11
393.82797581511818
 21
-364.55000000000001
 31
0.0
  0
LINE
  5
375
  8
DATA
  6
CONTINUOUS
 62
     7
 10
398.72797581511833
 20
-369.44999999999999
 30
0.0
 11
393.82797581511818
 21
-369.44999999999999
 31
0.0
  0
LINE
  5
376
  8
DATA
  6
CONTINUOUS
 62
     7
 10
398.72797581511833
 20
-364.55000000000001
 30
0.0
 11
398.72797581511833
 21
-369.44999999999999
 31
0.0
  0
LINE
  5
377
  8
DATA
  6
CONTINUOUS
 62
     7
 10
393.82797581511818
 20
-364.55000000000001
 30
0.0
 11
398.72797581511833
 21
-364.55000000000001
 31
0.0
  0
CIRCLE
  5
378
  8
DATA
  6
CONTINUOUS
 62
     7
 10
413.49999999999989
 20
-358.0
 30
0.0
 40
11.0
  0
CIRCLE
  5
379
  8
DATA
  6
CONTINUOUS
 62
     7
 10
403.60050506338843
 20
-348.10050506338843
 30
0.0
 40
2.75
  0
POLYLINE
  5
37A
  8
DATA
  6
CONTINUOUS
 62
     7
 66
     1
 10
0.0
 20
0.0
 30
0.0
  0
VERTEX
  5
12C3
  8
DATA
  6
CONTINUOUS
 62
     7
 10
403.10050506338843
 20
-347.60050506338831
 30
0.0
  0
VERTEX
  5
12C4
  8
DATA
  6
CONTINUOUS
 62
     7
 10
403.10050506338843
 20
-346.10050506338843
 30
0.0
  0
VERTEX
  5
12C5
  8
DATA
  6
CONTINUOUS
 62
     7
 10
404.10050506338831
 20
-346.10050506338843
 30
0.0
  0
VERTEX
  5
12C6
  8
DATA
  6
CONTINUOUS
 62
     7
 10
404.10050506338831
 20
-347.60050506338831
 30
0.0
  0
SEQEND
  5
12C7
  8
DATA
  6
CONTINUOUS
 62
     7
  0
POLYLINE
  5
381
  8
DATA
  6
CONTINUOUS
 62
     7
 66
     1
 10
0.0
 20
0.0
 30
0.0
  0
VERTEX
  5
12C8
  8
DATA
  6
CONTINUOUS
 62
     7
 10
404.10050506338831
 20
-348.60050506338843
 30
0.0
  0
VERTEX
  5
12C9
  8
DATA
  6
CONTINUOUS
 62
     7
 10
404.10050506338831
 20
-350.10050506338843
 30
0.0
  0
VERTEX
  5
12CA
  8
DATA
  6
CONTINUOUS
 62
     7
 10
403.10050506338843
 20
-350.10050506338843
 30
0.0
  0
VERTEX
  5
12CB
  8
DATA
  6
CONTINUOUS
 62
     7
 10
403.10050506338843
 20
-348.60050506338843
 30
0.0
  0
SEQEND
  5
12CC
  8
DATA
  6
CONTINUOUS
 62
     7
  0
POLYLINE
  5
388
  8
DATA
  6
CONTINUOUS
 62
     7
 66
     1
 10
0.0
 20
0.0
 30
0.0
  0
VERTEX
  5
12CD
  8
DATA
  6
CONTINUOUS
 62
     7
 10
404.10050506338831
 20
-347.60050506338831
 30
0.0
  0
VERTEX
  5
12CE
  8
DATA
  6
CONTINUOUS
 62
     7
 10
405.60050506338831
 20
-347.60050506338831
 30
0.0
  0
VERTEX
  5
12CF
  8
DATA
  6
CONTINUOUS
 62
     7
 10
405.60050506338831
 20
-348.60050506338843
 30
0.0
  0
VERTEX
  5
12D0
  8
DATA
  6
CONTINUOUS
 62
     7
 10
404.10050506338831
 20
-348.60050506338843
 30
0.0
  0
SEQEND
  5
12D1
  8
DATA
  6
CONTINUOUS
 62
     7
  0
POLYLINE
  5
38F
  8
DATA
  6
CONTINUOUS
 62
     7
 66
     1
 10
0.0
 20
0.0
 30
0.0
  0
VERTEX
  5
12D2
  8
DATA
  6
CONTINUOUS
 62
     7
 10
403.10050506338843
 20
-348.60050506338843
 30
0.0
  0
VERTEX
  5
12D3
  8
DATA
  6
CONTINUOUS
 62
     7
 10
401.60050506338831
 20
-348.60050506338843
 30
0.0
  0
VERTEX
  5
12D4
  8
DATA
  6
CONTINUOUS
 62
     7
 10
401.60050506338831
 20
-347.60050506338831
 30
0.0
  0
VERTEX
  5
12D5
  8
DATA
  6
CONTINUOUS
 62
     7
 10
403.10050506338843
 20
-347.60050506338831
 30
0.0
  0
SEQEND
  5
12D6
  8
DATA
  6
CONTINUOUS
 62
     7
  0
CIRCLE
  5
396
  8
DATA
  6
CONTINUOUS
 62
     7
 10
423.39949493661157
 20
-367.89949493661157
 30
0.0
 40
2.75
  0
POLYLINE
  5
397
  8
DATA
  6
CONTINUOUS
 62
     7
 66
     1
 10
0.0
 20
0.0
 30
0.0
  0
VERTEX
  5
12D7
  8
DATA
  6
CONTINUOUS
 62
     7
 10
422.89949493661157
 20
-367.39949493661157
 30
0.0
  0
VERTEX
  5
12D8
  8
DATA
  6
CONTINUOUS
 62
     7
 10
422.89949493661157
 20
-365.89949493661157
 30
0.0
  0
VERTEX
  5
12D9
  8
DATA
  6
CONTINUOUS
 62
     7
 10
423.89949493661157
 20
-365.89949493661157
 30
0.0
  0
VERTEX
  5
12DA
  8
DATA
  6
CONTINUOUS
 62
     7
 10
423.89949493661157
 20
-367.39949493661157
 30
0.0
  0
SEQEND
  5
12DB
  8
DATA
  6
CONTINUOUS
 62
     7
  0
POLYLINE
  5
39E
  8
DATA
  6
CONTINUOUS
 62
     7
 66
     1
 10
0.0
 20
0.0
 30
0.0
  0
VERTEX
  5
12DC
  8
DATA
  6
CONTINUOUS
 62
     7
 10
423.89949493661157
 20
-368.39949493661169
 30
0.0
  0
VERTEX
  5
12DD
  8
DATA
  6
CONTINUOUS
 62
     7
 10
423.89949493661157
 20
-369.89949493661157
 30
0.0
  0
VERTEX
  5
12DE
  8
DATA
  6
CONTINUOUS
 62
     7
 10
422.89949493661157
 20
-369.89949493661157
 30
0.0
  0
VERTEX
  5
12DF
  8
DATA
  6
CONTINUOUS
 62
     7
 10
422.89949493661157
 20
-368.39949493661169
 30
0.0
  0
SEQEND
  5
12E0
  8
DATA
  6
CONTINUOUS
 62
     7
  0
POLYLINE
  5
3A5
  8
DATA
  6
CONTINUOUS
 62
     7
 66
     1
 10
0.0
 20
0.0
 30
0.0
  0
VERTEX
  5
12E1
  8
DATA
  6
CONTINUOUS
 62
     7
 10
423.89949493661157
 20
-367.39949493661157
 30
0.0
  0
VERTEX
  5
12E2
  8
DATA
  6
CONTINUOUS
 62
     7
 10
425.39949493661152
 20
-367.39949493661157
 30
0.0
  0
VERTEX
  5
12E3
  8
DATA
  6
CONTINUOUS
 62
     7
 10
425.39949493661152
 20
-368.39949493661169
 30
0.0
  0
VERTEX
  5
12E4
  8
DATA
  6
CONTINUOUS
 62
     7
 10
423.89949493661157
 20
-368.39949493661169
 30
0.0
  0
SEQEND
  5
12E5
  8
DATA
  6
CONTINUOUS
 62
     7
  0
POLYLINE
  5
3AC
  8
DATA
  6
CONTINUOUS
 62
     7
 66
     1
 10
0.0
 20
0.0
 30
0.0
  0
VERTEX
  5
12E6
  8
DATA
  6
CONTINUOUS
 62
     7
 10
422.89949493661157
 20
-368.39949493661169
 30
0.0
  0
VERTEX
  5
12E7
  8
DATA
  6
CONTINUOUS
 62
     7
 10
421.39949493661152
 20
-368.39949493661169
 30
0.0
  0
VERTEX
  5
12E8
  8
DATA
  6
CONTINUOUS
 62
     7
 10
421.39949493661152
 20
-367.39949493661157
 30
0.0
  0
VERTEX
  5
12E9
  8
DATA
  6
CONTINUOUS
 62
     7
 10
422.89949493661157
 20
-367.39949493661157
 30
0.0
  0
SEQEND
  5
12EA
  8
DATA
  6
CONTINUOUS
 62
     7
  0
CIRCLE
  5
3B3
  8
DATA
  6
CONTINUOUS
 62
     7
 10
413.49999999999989
 20
-358.0
 30
0.0
 40
7.75
  0
ARC
  5
3B4
  8
DATA
  6
CONTINUOUS
 62
     7
 10
413.49999999999977
 20
-358.00000000000023
 30
0.0
 40
10.25000000000008
 50
120.4852859990973
 51
59.514714000900099
  0
CIRCLE
  5
3B5
  8
DATA
  6
CONTINUOUS
 62
     7
 10
413.49999999999989
 20
-362.05000000000001
 30
0.0
 40
1.30000000000001
  0
CIRCLE
  5
3B6
  8
DATA
  6
CONTINUOUS
 62
     7
 10
409.44999999999999
 20
-358.0
 30
0.0
 40
1.30000000000001
  0
CIRCLE
  5
3B7
  8
DATA
  6
CONTINUOUS
 62
     7
 10
417.55000000000001
 20
-358.0
 30
0.0
 40
1.30000000000001
  0
LINE
  5
3B8
  8
DATA
  6
CONTINUOUS
 62
     7
 10
408.30000000000001
 20
-349.16696541385761
 30
0.0
 11
408.30000000000001
 21
-348.3067033471583
 31
0.0
  0
LINE
  5
3B9
  8
DATA
  6
CONTINUOUS
 62
     7
 10
418.69999999999999
 20
-348.3067033471583
 30
0.0
 11
418.69999999999999
 21
-349.16696541385761
 31
0.0
  0
ARC
  5
3BA
  8
DATA
  6
CONTINUOUS
 62
     7
 10
408.01992244580418
 20
-352.5199224458043
 30
0.0
 40
0.7500000000001159
 50
42.226540597911033
 51
227.77345940208889
  0
LINE
  5
3BB
  8
DATA
  6
CONTINUOUS
 62
     7
 10
586.0
 20
-396.0
 30
0.0
 11
586.0
 21
-315.0
 31
0.0
  0
CIRCLE
  5
3BC
  8
DATA
  6
CONTINUOUS
 62
     7
 10
433.0
 20
-363.0
 30
0.0
 40
2.5
  0
CIRCLE
  5
3BD
  8
DATA
  6
CONTINUOUS
 62
     7
 10
433.0
 20
-363.0
 30
0.0
 40
5.0
  0
POLYLINE
  5
3BE
  8
DATA
  6
CONTINUOUS
 62
     7
 66
     1
 10
0.0
 20
0.0
 30
0.0
 70
     1
  0
VERTEX
  5
12EB
  8
DATA
  6
CONTINUOUS
 62
     7
 10
424.5
 20
-363.0
 30
0.0
  0
VERTEX
  5
12EC
  8
DATA
  6
CONTINUOUS
 62
     7
 10
428.75
 20
-370.36121593216768
 30
0.0
  0
VERTEX
  5
12ED
  8
DATA
  6
CONTINUOUS
 62
     7
 10
437.25
 20
-370.36121593216768
 30
0.0
  0
VERTEX
  5
12EE
  8
DATA
  6
CONTINUOUS
 62
     7
 10
441.5
 20
-363.0
 30
0.0
  0
VERTEX
  5
12EF
  8
DATA
  6
CONTINUOUS
 62
     7
 10
437.25
 20
-355.6387840678322
 30
0.0
  0
VERTEX
  5
12F0
  8
DATA
  6
CONTINUOUS
 62
     7
 10
428.75
 20
-355.6387840678322
 30
0.0
  0
SEQEND
  5
12F1
  8
DATA
  6
CONTINUOUS
 62
     7
  0
CIRCLE
  5
3C7
  8
DATA
  6
CONTINUOUS
 62
     7
 10
428.0
 20
-327.0
 30
0.0
 40
11.0
  0
CIRCLE
  5
3C8
  8
DATA
  6
CONTINUOUS
 62
     7
 10
418.10050506338831
 20
-317.10050506338843
 30
0.0
 40
2.75
  0
POLYLINE
  5
3C9
  8
DATA
  6
CONTINUOUS
 62
     7
 66
     1
 10
0.0
 20
0.0
 30
0.0
  0
VERTEX
  5
12F2
  8
DATA
  6
CONTINUOUS
 62
     7
 10
417.6005050633882
 20
-316.60050506338843
 30
0.0
  0
VERTEX
  5
12F3
  8
DATA
  6
CONTINUOUS
 62
     7
 10
417.6005050633882
 20
-315.10050506338843
 30
0.0
  0
VERTEX
  5
12F4
  8
DATA
  6
CONTINUOUS
 62
     7
 10
418.60050506338831
 20
-315.10050506338843
 30
0.0
  0
VERTEX
  5
12F5
  8
DATA
  6
CONTINUOUS
 62
     7
 10
418.60050506338831
 20
-316.60050506338843
 30
0.0
  0
SEQEND
  5
12F6
  8
DATA
  6
CONTINUOUS
 62
     7
  0
POLYLINE
  5
3D0
  8
DATA
  6
CONTINUOUS
 62
     7
 66
     1
 10
0.0
 20
0.0
 30
0.0
  0
VERTEX
  5
12F7
  8
DATA
  6
CONTINUOUS
 62
     7
 10
418.60050506338831
 20
-317.60050506338843
 30
0.0
  0
VERTEX
  5
12F8
  8
DATA
  6
CONTINUOUS
 62
     7
 10
418.60050506338831
 20
-319.10050506338843
 30
0.0
  0
VERTEX
  5
12F9
  8
DATA
  6
CONTINUOUS
 62
     7
 10
417.6005050633882
 20
-319.10050506338843
 30
0.0
  0
VERTEX
  5
12FA
  8
DATA
  6
CONTINUOUS
 62
     7
 10
417.6005050633882
 20
-317.60050506338843
 30
0.0
  0
SEQEND
  5
12FB
  8
DATA
  6
CONTINUOUS
 62
     7
  0
POLYLINE
  5
3D7
  8
DATA
  6
CONTINUOUS
 62
     7
 66
     1
 10
0.0
 20
0.0
 30
0.0
  0
VERTEX
  5
12FC
  8
DATA
  6
CONTINUOUS
 62
     7
 10
418.60050506338831
 20
-316.60050506338843
 30
0.0
  0
VERTEX
  5
12FD
  8
DATA
  6
CONTINUOUS
 62
     7
 10
420.10050506338843
 20
-316.60050506338843
 30
0.0
  0
VERTEX
  5
12FE
  8
DATA
  6
CONTINUOUS
 62
     7
 10
420.10050506338843
 20
-317.60050506338843
 30
0.0
  0
VERTEX
  5
12FF
  8
DATA
  6
CONTINUOUS
 62
     7
 10
418.60050506338831
 20
-317.60050506338843
 30
0.0
  0
SEQEND
  5
1300
  8
DATA
  6
CONTINUOUS
 62
     7
  0
POLYLINE
  5
3DE
  8
DATA
  6
CONTINUOUS
 62
     7
 66
     1
 10
0.0
 20
0.0
 30
0.0
  0
VERTEX
  5
1301
  8
DATA
  6
CONTINUOUS
 62
     7
 10
417.6005050633882
 20
-317.60050506338843
 30
0.0
  0
VERTEX
  5
1302
  8
DATA
  6
CONTINUOUS
 62
     7
 10
416.10050506338843
 20
-317.60050506338843
 30
0.0
  0
VERTEX
  5
1303
  8
DATA
  6
CONTINUOUS
 62
     7
 10
416.10050506338843
 20
-316.60050506338843
 30
0.0
  0
VERTEX
  5
1304
  8
DATA
  6
CONTINUOUS
 62
     7
 10
417.6005050633882
 20
-316.60050506338843
 30
0.0
  0
SEQEND
  5
1305
  8
DATA
  6
CONTINUOUS
 62
     7
  0
CIRCLE
  5
3E5
  8
DATA
  6
CONTINUOUS
 62
     7
 10
437.89949493661152
 20
-336.89949493661157
 30
0.0
 40
2.75
  0
POLYLINE
  5
3E6
  8
DATA
  6
CONTINUOUS
 62
     7
 66
     1
 10
0.0
 20
0.0
 30
0.0
  0
VERTEX
  5
1306
  8
DATA
  6
CONTINUOUS
 62
     7
 10
437.39949493661157
 20
-336.39949493661157
 30
0.0
  0
VERTEX
  5
1307
  8
DATA
  6
CONTINUOUS
 62
     7
 10
437.39949493661157
 20
-334.89949493661157
 30
0.0
  0
VERTEX
  5
1308
  8
DATA
  6
CONTINUOUS
 62
     7
 10
438.39949493661157
 20
-334.89949493661157
 30
0.0
  0
VERTEX
  5
1309
  8
DATA
  6
CONTINUOUS
 62
     7
 10
438.39949493661157
 20
-336.39949493661157
 30
0.0
  0
SEQEND
  5
130A
  8
DATA
  6
CONTINUOUS
 62
     7
  0
POLYLINE
  5
3ED
  8
DATA
  6
CONTINUOUS
 62
     7
 66
     1
 10
0.0
 20
0.0
 30
0.0
  0
VERTEX
  5
130B
  8
DATA
  6
CONTINUOUS
 62
     7
 10
438.39949493661157
 20
-337.39949493661157
 30
0.0
  0
VERTEX
  5
130C
  8
DATA
  6
CONTINUOUS
 62
     7
 10
438.39949493661157
 20
-338.89949493661157
 30
0.0
  0
VERTEX
  5
130D
  8
DATA
  6
CONTINUOUS
 62
     7
 10
437.39949493661157
 20
-338.89949493661157
 30
0.0
  0
VERTEX
  5
130E
  8
DATA
  6
CONTINUOUS
 62
     7
 10
437.39949493661157
 20
-337.39949493661157
 30
0.0
  0
SEQEND
  5
130F
  8
DATA
  6
CONTINUOUS
 62
     7
  0
POLYLINE
  5
3F4
  8
DATA
  6
CONTINUOUS
 62
     7
 66
     1
 10
0.0
 20
0.0
 30
0.0
  0
VERTEX
  5
1310
  8
DATA
  6
CONTINUOUS
 62
     7
 10
438.39949493661157
 20
-336.39949493661157
 30
0.0
  0
VERTEX
  5
1311
  8
DATA
  6
CONTINUOUS
 62
     7
 10
439.89949493661157
 20
-336.39949493661157
 30
0.0
  0
VERTEX
  5
1312
  8
DATA
  6
CONTINUOUS
 62
     7
 10
439.89949493661157
 20
-337.39949493661157
 30
0.0
  0
VERTEX
  5
1313
  8
DATA
  6
CONTINUOUS
 62
     7
 10
438.39949493661157
 20
-337.39949493661157
 30
0.0
  0
SEQEND
  5
1314
  8
DATA
  6
CONTINUOUS
 62
     7
  0
POLYLINE
  5
3FB
  8
DATA
  6
CONTINUOUS
 62
     7
 66
     1
 10
0.0
 20
0.0
 30
0.0
  0
VERTEX
  5
1315
  8
DATA
  6
CONTINUOUS
 62
     7
 10
437.39949493661157
 20
-337.39949493661157
 30
0.0
  0
VERTEX
  5
1316
  8
DATA
  6
CONTINUOUS
 62
     7
 10
435.89949493661157
 20
-337.39949493661157
 30
0.0
  0
VERTEX
  5
1317
  8
DATA
  6
CONTINUOUS
 62
     7
 10
435.89949493661157
 20
-336.39949493661157
 30
0.0
  0
VERTEX
  5
1318
  8
DATA
  6
CONTINUOUS
 62
     7
 10
437.39949493661157
 20
-336.39949493661157
 30
0.0
  0
SEQEND
  5
1319
  8
DATA
  6
CONTINUOUS
 62
     7
  0
CIRCLE
  5
402
  8
DATA
  6
CONTINUOUS
 62
     7
 10
428.0
 20
-327.0
 30
0.0
 40
7.75
  0
ARC
  5
403
  8
DATA
  6
CONTINUOUS
 62
     7
 10
427.99999999999972
 20
-327.00000000000028
 30
0.0
 40
10.25000000000008
 50
120.4852859990973
 51
59.514714000900099
  0
CIRCLE
  5
404
  8
DATA
  6
CONTINUOUS
 62
     7
 10
428.0
 20
-331.05000000000001
 30
0.0
 40
1.30000000000001
  0
CIRCLE
  5
405
  8
DATA
  6
CONTINUOUS
 62
     7
 10
423.94999999999987
 20
-327.0
 30
0.0
 40
1.30000000000001
  0
CIRCLE
  5
406
  8
DATA
  6
CONTINUOUS
 62
     7
 10
432.05000000000001
 20
-327.0
 30
0.0
 40
1.30000000000001
  0
LINE
  5
407
  8
DATA
  6
CONTINUOUS
 62
     7
 10
422.79999999999978
 20
-318.16696541385761
 30
0.0
 11
422.79999999999978
 21
-317.3067033471583
 31
0.0
  0
LINE
  5
408
  8
DATA
  6
CONTINUOUS
 62
     7
 10
433.19999999999987
 20
-317.3067033471583
 30
0.0
 11
433.19999999999987
 21
-318.16696541385761
 31
0.0
  0
ARC
  5
409
  8
DATA
  6
CONTINUOUS
 62
     7
 10
422.51992244580418
 20
-321.51992244580418
 30
0.0
 40
0.7500000000001159
 50
42.226540597911033
 51
227.77345940208889
  0
CIRCLE
  5
40A
  8
DATA
  6
CONTINUOUS
 62
     7
 10
454.0
 20
-327.0
 30
0.0
 40
11.0
  0
CIRCLE
  5
40B
  8
DATA
  6
CONTINUOUS
 62
     7
 10
454.0
 20
-327.0
 30
0.0
 40
8.0
  0
CIRCLE
  5
40C
  8
DATA
  6
CONTINUOUS
 62
     7
 10
454.0
 20
-331.0
 30
0.0
 40
1.30000000000001
  0
CIRCLE
  5
40D
  8
DATA
  6
CONTINUOUS
 62
     7
 10
450.0
 20
-327.0
 30
0.0
 40
1.30000000000001
  0
CIRCLE
  5
40E
  8
DATA
  6
CONTINUOUS
 62
     7
 10
458.0
 20
-327.0
 30
0.0
 40
1.30000000000001
  0
CIRCLE
  5
40F
  8
DATA
  6
CONTINUOUS
 62
     7
 10
444.10050506338831
 20
-317.10050506338843
 30
0.0
 40
2.75
  0
POLYLINE
  5
410
  8
DATA
  6
CONTINUOUS
 62
     7
 66
     1
 10
0.0
 20
0.0
 30
0.0
  0
VERTEX
  5
131A
  8
DATA
  6
CONTINUOUS
 62
     7
 10
443.60050506338831
 20
-316.60050506338843
 30
0.0
  0
VERTEX
  5
131B
  8
DATA
  6
CONTINUOUS
 62
     7
 10
443.60050506338831
 20
-315.10050506338843
 30
0.0
  0
VERTEX
  5
131C
  8
DATA
  6
CONTINUOUS
 62
     7
 10
444.60050506338843
 20
-315.10050506338843
 30
0.0
  0
VERTEX
  5
131D
  8
DATA
  6
CONTINUOUS
 62
     7
 10
444.60050506338843
 20
-316.60050506338843
 30
0.0
  0
SEQEND
  5
131E
  8
DATA
  6
CONTINUOUS
 62
     7
  0
POLYLINE
  5
417
  8
DATA
  6
CONTINUOUS
 62
     7
 66
     1
 10
0.0
 20
0.0
 30
0.0
  0
VERTEX
  5
131F
  8
DATA
  6
CONTINUOUS
 62
     7
 10
444.60050506338843
 20
-317.60050506338843
 30
0.0
  0
VERTEX
  5
1320
  8
DATA
  6
CONTINUOUS
 62
     7
 10
444.60050506338843
 20
-319.10050506338843
 30
0.0
  0
VERTEX
  5
1321
  8
DATA
  6
CONTINUOUS
 62
     7
 10
443.60050506338831
 20
-319.10050506338843
 30
0.0
  0
VERTEX
  5
1322
  8
DATA
  6
CONTINUOUS
 62
     7
 10
443.60050506338831
 20
-317.60050506338843
 30
0.0
  0
SEQEND
  5
1323
  8
DATA
  6
CONTINUOUS
 62
     7
  0
POLYLINE
  5
41E
  8
DATA
  6
CONTINUOUS
 62
     7
 66
     1
 10
0.0
 20
0.0
 30
0.0
  0
VERTEX
  5
1324
  8
DATA
  6
CONTINUOUS
 62
     7
 10
444.60050506338843
 20
-316.60050506338843
 30
0.0
  0
VERTEX
  5
1325
  8
DATA
  6
CONTINUOUS
 62
     7
 10
446.1005050633882
 20
-316.60050506338843
 30
0.0
  0
VERTEX
  5
1326
  8
DATA
  6
CONTINUOUS
 62
     7
 10
446.1005050633882
 20
-317.60050506338843
 30
0.0
  0
VERTEX
  5
1327
  8
DATA
  6
CONTINUOUS
 62
     7
 10
444.60050506338843
 20
-317.60050506338843
 30
0.0
  0
SEQEND
  5
1328
  8
DATA
  6
CONTINUOUS
 62
     7
  0
POLYLINE
  5
425
  8
DATA
  6
CONTINUOUS
 62
     7
 66
     1
 10
0.0
 20
0.0
 30
0.0
  0
VERTEX
  5
1329
  8
DATA
  6
CONTINUOUS
 62
     7
 10
443.60050506338831
 20
-317.60050506338843
 30
0.0
  0
VERTEX
  5
132A
  8
DATA
  6
CONTINUOUS
 62
     7
 10
442.1005050633882
 20
-317.60050506338843
 30
0.0
  0
VERTEX
  5
132B
  8
DATA
  6
CONTINUOUS
 62
     7
 10
442.1005050633882
 20
-316.60050506338843
 30
0.0
  0
VERTEX
  5
132C
  8
DATA
  6
CONTINUOUS
 62
     7
 10
443.60050506338831
 20
-316.60050506338843
 30
0.0
  0
SEQEND
  5
132D
  8
DATA
  6
CONTINUOUS
 62
     7
  0
CIRCLE
  5
42C
  8
DATA
  6
CONTINUOUS
 62
     7
 10
463.89949493661157
 20
-336.89949493661157
 30
0.0
 40
2.75
  0
POLYLINE
  5
42D
  8
DATA
  6
CONTINUOUS
 62
     7
 66
     1
 10
0.0
 20
0.0
 30
0.0
  0
VERTEX
  5
132E
  8
DATA
  6
CONTINUOUS
 62
     7
 10
463.39949493661157
 20
-336.39949493661157
 30
0.0
  0
VERTEX
  5
132F
  8
DATA
  6
CONTINUOUS
 62
     7
 10
463.39949493661157
 20
-334.89949493661157
 30
0.0
  0
VERTEX
  5
1330
  8
DATA
  6
CONTINUOUS
 62
     7
 10
464.39949493661157
 20
-334.89949493661157
 30
0.0
  0
VERTEX
  5
1331
  8
DATA
  6
CONTINUOUS
 62
     7
 10
464.39949493661157
 20
-336.39949493661157
 30
0.0
  0
SEQEND
  5
1332
  8
DATA
  6
CONTINUOUS
 62
     7
  0
POLYLINE
  5
434
  8
DATA
  6
CONTINUOUS
 62
     7
 66
     1
 10
0.0
 20
0.0
 30
0.0
  0
VERTEX
  5
1333
  8
DATA
  6
CONTINUOUS
 62
     7
 10
464.39949493661157
 20
-337.39949493661157
 30
0.0
  0
VERTEX
  5
1334
  8
DATA
  6
CONTINUOUS
 62
     7
 10
464.39949493661157
 20
-338.89949493661157
 30
0.0
  0
VERTEX
  5
1335
  8
DATA
  6
CONTINUOUS
 62
     7
 10
463.39949493661157
 20
-338.89949493661157
 30
0.0
  0
VERTEX
  5
1336
  8
DATA
  6
CONTINUOUS
 62
     7
 10
463.39949493661157
 20
-337.39949493661157
 30
0.0
  0
SEQEND
  5
1337
  8
DATA
  6
CONTINUOUS
 62
     7
  0
POLYLINE
  5
43B
  8
DATA
  6
CONTINUOUS
 62
     7
 66
     1
 10
0.0
 20
0.0
 30
0.0
  0
VERTEX
  5
1338
  8
DATA
  6
CONTINUOUS
 62
     7
 10
464.39949493661157
 20
-336.39949493661157
 30
0.0
  0
VERTEX
  5
1339
  8
DATA
  6
CONTINUOUS
 62
     7
 10
465.89949493661157
 20
-336.39949493661157
 30
0.0
  0
VERTEX
  5
133A
  8
DATA
  6
CONTINUOUS
 62
     7
 10
465.89949493661157
 20
-337.39949493661157
 30
0.0
  0
VERTEX
  5
133B
  8
DATA
  6
CONTINUOUS
 62
     7
 10
464.39949493661157
 20
-337.39949493661157
 30
0.0
  0
SEQEND
  5
133C
  8
DATA
  6
CONTINUOUS
 62
     7
  0
POLYLINE
  5
442
  8
DATA
  6
CONTINUOUS
 62
     7
 66
     1
 10
0.0
 20
0.0
 30
0.0
  0
VERTEX
  5
133D
  8
DATA
  6
CONTINUOUS
 62
     7
 10
463.39949493661157
 20
-337.39949493661157
 30
0.0
  0
VERTEX
  5
133E
  8
DATA
  6
CONTINUOUS
 62
     7
 10
461.89949493661157
 20
-337.39949493661157
 30
0.0
  0
VERTEX
  5
133F
  8
DATA
  6
CONTINUOUS
 62
     7
 10
461.89949493661157
 20
-336.39949493661157
 30
0.0
  0
VERTEX
  5
1340
  8
DATA
  6
CONTINUOUS
 62
     7
 10
463.39949493661157
 20
-336.39949493661157
 30
0.0
  0
SEQEND
  5
1341
  8
DATA
  6
CONTINUOUS
 62
     7
  0
CIRCLE
  5
449
  8
DATA
  6
CONTINUOUS
 62
     7
 10
399.7042171142707
 20
-334.0
 30
0.0
 40
4.1499999999999764
  0
CIRCLE
  5
44A
  8
DATA
  6
CONTINUOUS
 62
     7
 10
399.7042171142707
 20
-320.0
 30
0.0
 40
4.1499999999999764
  0
CIRCLE
  5
44B
  8
DATA
  6
CONTINUOUS
 62
     7
 10
399.7042171142707
 20
-320.0
 30
0.0
 40
1.6499999999999759
  0
CIRCLE
  5
44C
  8
DATA
  6
CONTINUOUS
 62
     7
 10
399.7042171142707
 20
-334.0
 30
0.0
 40
1.6499999999999759
  0
CIRCLE
  5
44D
  8
DATA
  6
CONTINUOUS
 62
     7
 10
411.5312693822799
 20
-326.94999999999999
 30
0.0
 40
2.75
  0
POLYLINE
  5
44E
  8
DATA
  6
CONTINUOUS
 62
     7
 66
     1
 10
0.0
 20
0.0
 30
0.0
  0
VERTEX
  5
1342
  8
DATA
  6
CONTINUOUS
 62
     7
 10
411.03126938227979
 20
-326.44999999999999
 30
0.0
  0
VERTEX
  5
1343
  8
DATA
  6
CONTINUOUS
 62
     7
 10
411.03126938227979
 20
-324.94999999999999
 30
0.0
  0
VERTEX
  5
1344
  8
DATA
  6
CONTINUOUS
 62
     7
 10
412.0312693822799
 20
-324.94999999999999
 30
0.0
  0
VERTEX
  5
1345
  8
DATA
  6
CONTINUOUS
 62
     7
 10
412.0312693822799
 20
-326.44999999999999
 30
0.0
  0
SEQEND
  5
1346
  8
DATA
  6
CONTINUOUS
 62
     7
  0
POLYLINE
  5
455
  8
DATA
  6
CONTINUOUS
 62
     7
 66
     1
 10
0.0
 20
0.0
 30
0.0
  0
VERTEX
  5
1347
  8
DATA
  6
CONTINUOUS
 62
     7
 10
412.0312693822799
 20
-327.44999999999999
 30
0.0
  0
VERTEX
  5
1348
  8
DATA
  6
CONTINUOUS
 62
     7
 10
412.0312693822799
 20
-328.94999999999999
 30
0.0
  0
VERTEX
  5
1349
  8
DATA
  6
CONTINUOUS
 62
     7
 10
411.03126938227979
 20
-328.94999999999999
 30
0.0
  0
VERTEX
  5
134A
  8
DATA
  6
CONTINUOUS
 62
     7
 10
411.03126938227979
 20
-327.44999999999999
 30
0.0
  0
SEQEND
  5
134B
  8
DATA
  6
CONTINUOUS
 62
     7
  0
POLYLINE
  5
45C
  8
DATA
  6
CONTINUOUS
 62
     7
 66
     1
 10
0.0
 20
0.0
 30
0.0
  0
VERTEX
  5
134C
  8
DATA
  6
CONTINUOUS
 62
     7
 10
412.0312693822799
 20
-326.44999999999999
 30
0.0
  0
VERTEX
  5
134D
  8
DATA
  6
CONTINUOUS
 62
     7
 10
413.5312693822799
 20
-326.44999999999999
 30
0.0
  0
VERTEX
  5
134E
  8
DATA
  6
CONTINUOUS
 62
     7
 10
413.5312693822799
 20
-327.44999999999999
 30
0.0
  0
VERTEX
  5
134F
  8
DATA
  6
CONTINUOUS
 62
     7
 10
412.0312693822799
 20
-327.44999999999999
 30
0.0
  0
SEQEND
  5
1350
  8
DATA
  6
CONTINUOUS
 62
     7
  0
POLYLINE
  5
463
  8
DATA
  6
CONTINUOUS
 62
     7
 66
     1
 10
0.0
 20
0.0
 30
0.0
  0
VERTEX
  5
1351
  8
DATA
  6
CONTINUOUS
 62
     7
 10
411.03126938227979
 20
-327.44999999999999
 30
0.0
  0
VERTEX
  5
1352
  8
DATA
  6
CONTINUOUS
 62
     7
 10
409.5312693822799
 20
-327.44999999999999
 30
0.0
  0
VERTEX
  5
1353
  8
DATA
  6
CONTINUOUS
 62
     7
 10
409.5312693822799
 20
-326.44999999999999
 30
0.0
  0
VERTEX
  5
1354
  8
DATA
  6
CONTINUOUS
 62
     7
 10
411.03126938227979
 20
-326.44999999999999
 30
0.0
  0
SEQEND
  5
1355
  8
DATA
  6
CONTINUOUS
 62
     7
  0
LINE
  5
46A
  8
DATA
  6
CONTINUOUS
 62
     7
 10
586.0
 20
-362.0
 30
0.0
 11
586.0
 21
-250.0
 31
0.0
  0
POLYLINE
  5
46B
  8
DATA
  6
CONTINUOUS
 62
     7
 66
     1
 10
0.0
 20
0.0
 30
0.0
 70
     1
  0
VERTEX
  5
1356
  8
DATA
  6
CONTINUOUS
 62
     7
 10
487.85418916668169
 20
-327.98077054206072
 30
0.0
  0
VERTEX
  5
1357
  8
DATA
  6
CONTINUOUS
 62
     7
 10
499.85418916668169
 20
-327.98077054206072
 30
0.0
  0
VERTEX
  5
1358
  8
DATA
  6
CONTINUOUS
 62
     7
 10
499.85418916668169
 20
-338.98077054206072
 30
0.0
  0
VERTEX
  5
1359
  8
DATA
  6
CONTINUOUS
 62
     7
 10
487.85418916668169
 20
-338.98077054206072
 30
0.0
  0
SEQEND
  5
135A
  8
DATA
  6
CONTINUOUS
 62
     7
  0
POLYLINE
  5
472
  8
DATA
  6
CONTINUOUS
 62
     7
 66
     1
 10
0.0
 20
0.0
 30
0.0
 70
     1
  0
VERTEX
  5
135B
  8
DATA
  6
CONTINUOUS
 62
     7
 10
491.35418916668169
 20
-331.98077054206072
 30
0.0
  0
VERTEX
  5
135C
  8
DATA
  6
CONTINUOUS
 62
     7
 10
496.35418916668169
 20
-331.98077054206072
 30
0.0
  0
VERTEX
  5
135D
  8
DATA
  6
CONTINUOUS
 62
     7
 10
496.35418916668169
 20
-334.98077054206072
 30
0.0
  0
VERTEX
  5
135E
  8
DATA
  6
CONTINUOUS
 62
     7
 10
491.35418916668169
 20
-334.98077054206072
 30
0.0
  0
SEQEND
  5
135F
  8
DATA
  6
CONTINUOUS
 62
     7
  0
LINE
  5
479
  8
DATA
  6
CONTINUOUS
 62
     7
 10
491.15418916668159
 20
-329.6807705420606
 30
0.0
 11
496.55418916668191
 21
-329.6807705420606
 31
0.0
  0
POLYLINE
  5
47A
  8
DATA
  6
CONTINUOUS
 62
     7
 66
     1
 10
0.0
 20
0.0
 30
0.0
  0
VERTEX
  5
1360
  8
DATA
  6
CONTINUOUS
 62
     7
 10
497.85418916668169
 20
-330.98077054206072
 30
0.0
  0
VERTEX
  5
1361
  8
DATA
  6
CONTINUOUS
 62
     7
 10
497.85418916668169
 20
-337.28077054206068
 30
0.0
  0
VERTEX
  5
1362
  8
DATA
  6
CONTINUOUS
 62
     7
 10
489.85418916668169
 20
-337.28077054206068
 30
0.0
  0
VERTEX
  5
1363
  8
DATA
  6
CONTINUOUS
 62
     7
 10
489.85418916668169
 20
-330.98077054206072
 30
0.0
  0
SEQEND
  5
1364
  8
DATA
  6
CONTINUOUS
 62
     7
  0
LINE
  5
481
  8
DATA
  6
CONTINUOUS
 62
     7
 10
489.85418916668169
 20
-330.98077054206072
 30
0.0
 11
491.15418916668159
 21
-329.6807705420606
 31
0.0
  0
LINE
  5
482
  8
DATA
  6
CONTINUOUS
 62
     7
 10
497.85418916668169
 20
-330.98077054206072
 30
0.0
 11
496.55418916668191
 21
-329.6807705420606
 31
0.0
  0
LINE
  5
483
  8
DATA
  6
CONTINUOUS
 62
     7
 10
523.0
 20
-338.0
 30
0.0
 11
523.0
 21
-332.0
 31
0.0
  0
LINE
  5
484
  8
DATA
  6
CONTINUOUS
 62
     7
 10
503.0
 20
-332.0
 30
0.0
 11
523.0
 21
-332.0
 31
0.0
  0
LINE
  5
485
  8
DATA
  6
CONTINUOUS
 62
     7
 10
503.0
 20
-338.0
 30
0.0
 11
503.0
 21
-332.0
 31
0.0
  0
LINE
  5
486
  8
DATA
  6
CONTINUOUS
 62
     7
 10
503.0
 20
-338.0
 30
0.0
 11
523.0
 21
-338.0
 31
0.0
  0
POLYLINE
  5
487
  8
DATA
  6
CONTINUOUS
 62
     7
 66
     1
 10
0.0
 20
0.0
 30
0.0
 70
     1
  0
VERTEX
  5
1365
  8
DATA
  6
CONTINUOUS
 62
     7
 10
504.57220000000001
 20
-333.5
 30
0.0
  0
VERTEX
  5
1366
  8
DATA
  6
CONTINUOUS
 62
     7
 10
505.87220000000002
 20
-333.5
 30
0.0
  0
VERTEX
  5
1367
  8
DATA
  6
CONTINUOUS
 62
     7
 10
505.87220000000002
 20
-336.5
 30
0.0
  0
VERTEX
  5
1368
  8
DATA
  6
CONTINUOUS
 62
     7
 10
504.57220000000001
 20
-336.5
 30
0.0
  0
SEQEND
  5
1369
  8
DATA
  6
CONTINUOUS
 62
     7
  0
LINE
  5
48E
  8
DATA
  6
CONTINUOUS
 62
     7
 10
504.57220000000001
 20
-334.99000000000001
 30
0.0
 11
505.87220000000002
 21
-334.99000000000001
 31
0.0
  0
POLYLINE
  5
48F
  8
DATA
  6
CONTINUOUS
 62
     7
 66
     1
 10
0.0
 20
0.0
 30
0.0
 70
     1
  0
VERTEX
  5
136A
  8
DATA
  6
CONTINUOUS
 62
     7
 10
506.79439999999988
 20
-333.5
 30
0.0
  0
VERTEX
  5
136B
  8
DATA
  6
CONTINUOUS
 62
     7
 10
508.09440000000001
 20
-333.5
 30
0.0
  0
VERTEX
  5
136C
  8
DATA
  6
CONTINUOUS
 62
     7
 10
508.09440000000001
 20
-336.5
 30
0.0
  0
VERTEX
  5
136D
  8
DATA
  6
CONTINUOUS
 62
     7
 10
506.79439999999988
 20
-336.5
 30
0.0
  0
SEQEND
  5
136E
  8
DATA
  6
CONTINUOUS
 62
     7
  0
LINE
  5
496
  8
DATA
  6
CONTINUOUS
 62
     7
 10
506.79439999999988
 20
-334.99000000000001
 30
0.0
 11
508.09440000000001
 21
-334.99000000000001
 31
0.0
  0
POLYLINE
  5
497
  8
DATA
  6
CONTINUOUS
 62
     7
 66
     1
 10
0.0
 20
0.0
 30
0.0
 70
     1
  0
VERTEX
  5
136F
  8
DATA
  6
CONTINUOUS
 62
     7
 10
509.01659999999993
 20
-333.5
 30
0.0
  0
VERTEX
  5
1370
  8
DATA
  6
CONTINUOUS
 62
     7
 10
510.31659999999988
 20
-333.5
 30
0.0
  0
VERTEX
  5
1371
  8
DATA
  6
CONTINUOUS
 62
     7
 10
510.31659999999988
 20
-336.5
 30
0.0
  0
VERTEX
  5
1372
  8
DATA
  6
CONTINUOUS
 62
     7
 10
509.01659999999993
 20
-336.5
 30
0.0
  0
SEQEND
  5
1373
  8
DATA
  6
CONTINUOUS
 62
     7
  0
LINE
  5
49E
  8
DATA
  6
CONTINUOUS
 62
     7
 10
509.01659999999993
 20
-334.99000000000001
 30
0.0
 11
510.31659999999988
 21
-334.99000000000001
 31
0.0
  0
POLYLINE
  5
49F
  8
DATA
  6
CONTINUOUS
 62
     7
 66
     1
 10
0.0
 20
0.0
 30
0.0
 70
     1
  0
VERTEX
  5
1374
  8
DATA
  6
CONTINUOUS
 62
     7
 10
511.23880000000008
 20
-333.5
 30
0.0
  0
VERTEX
  5
1375
  8
DATA
  6
CONTINUOUS
 62
     7
 10
512.53880000000004
 20
-333.5
 30
0.0
  0
VERTEX
  5
1376
  8
DATA
  6
CONTINUOUS
 62
     7
 10
512.53880000000004
 20
-336.5
 30
0.0
  0
VERTEX
  5
1377
  8
DATA
  6
CONTINUOUS
 62
     7
 10
511.23880000000008
 20
-336.5
 30
0.0
  0
SEQEND
  5
1378
  8
DATA
  6
CONTINUOUS
 62
     7
  0
LINE
  5
4A6
  8
DATA
  6
CONTINUOUS
 62
     7
 10
511.23880000000008
 20
-334.99000000000001
 30
0.0
 11
512.53880000000004
 21
-334.99000000000001
 31
0.0
  0
POLYLINE
  5
4A7
  8
DATA
  6
CONTINUOUS
 62
     7
 66
     1
 10
0.0
 20
0.0
 30
0.0
 70
     1
  0
VERTEX
  5
1379
  8
DATA
  6
CONTINUOUS
 62
     7
 10
513.46100000000001
 20
-333.5
 30
0.0
  0
VERTEX
  5
137A
  8
DATA
  6
CONTINUOUS
 62
     7
 10
514.76099999999985
 20
-333.5
 30
0.0
  0
VERTEX
  5
137B
  8
DATA
  6
CONTINUOUS
 62
     7
 10
514.76099999999985
 20
-336.5
 30
0.0
  0
VERTEX
  5
137C
  8
DATA
  6
CONTINUOUS
 62
     7
 10
513.46100000000001
 20
-336.5
 30
0.0
  0
SEQEND
  5
137D
  8
DATA
  6
CONTINUOUS
 62
     7
  0
LINE
  5
4AE
  8
DATA
  6
CONTINUOUS
 62
     7
 10
513.46100000000001
 20
-334.99000000000001
 30
0.0
 11
514.76099999999985
 21
-334.99000000000001
 31
0.0
  0
POLYLINE
  5
4AF
  8
DATA
  6
CONTINUOUS
 62
     7
 66
     1
 10
0.0
 20
0.0
 30
0.0
 70
     1
  0
VERTEX
  5
137E
  8
DATA
  6
CONTINUOUS
 62
     7
 10
515.68320000000006
 20
-333.5
 30
0.0
  0
VERTEX
  5
137F
  8
DATA
  6
CONTINUOUS
 62
     7
 10
516.98320000000001
 20
-333.5
 30
0.0
  0
VERTEX
  5
1380
  8
DATA
  6
CONTINUOUS
 62
     7
 10
516.98320000000001
 20
-336.5
 30
0.0
  0
VERTEX
  5
1381
  8
DATA
  6
CONTINUOUS
 62
     7
 10
515.68320000000006
 20
-336.5
 30
0.0
  0
SEQEND
  5
1382
  8
DATA
  6
CONTINUOUS
 62
     7
  0
LINE
  5
4B6
  8
DATA
  6
CONTINUOUS
 62
     7
 10
515.68320000000006
 20
-334.99000000000001
 30
0.0
 11
516.98320000000001
 21
-334.99000000000001
 31
0.0
  0
POLYLINE
  5
4B7
  8
DATA
  6
CONTINUOUS
 62
     7
 66
     1
 10
0.0
 20
0.0
 30
0.0
 70
     1
  0
VERTEX
  5
1383
  8
DATA
  6
CONTINUOUS
 62
     7
 10
517.90539999999987
 20
-333.5
 30
0.0
  0
VERTEX
  5
1384
  8
DATA
  6
CONTINUOUS
 62
     7
 10
519.20540000000005
 20
-333.5
 30
0.0
  0
VERTEX
  5
1385
  8
DATA
  6
CONTINUOUS
 62
     7
 10
519.20540000000005
 20
-336.5
 30
0.0
  0
VERTEX
  5
1386
  8
DATA
  6
CONTINUOUS
 62
     7
 10
517.90539999999987
 20
-336.5
 30
0.0
  0
SEQEND
  5
1387
  8
DATA
  6
CONTINUOUS
 62
     7
  0
LINE
  5
4BE
  8
DATA
  6
CONTINUOUS
 62
     7
 10
517.90539999999987
 20
-334.99000000000001
 30
0.0
 11
519.20540000000005
 21
-334.99000000000001
 31
0.0
  0
POLYLINE
  5
4BF
  8
DATA
  6
CONTINUOUS
 62
     7
 66
     1
 10
0.0
 20
0.0
 30
0.0
 70
     1
  0
VERTEX
  5
1388
  8
DATA
  6
CONTINUOUS
 62
     7
 10
520.12760000000003
 20
-333.5
 30
0.0
  0
VERTEX
  5
1389
  8
DATA
  6
CONTINUOUS
 62
     7
 10
521.42759999999987
 20
-333.5
 30
0.0
  0
VERTEX
  5
138A
  8
DATA
  6
CONTINUOUS
 62
     7
 10
521.42759999999987
 20
-336.5
 30
0.0
  0
VERTEX
  5
138B
  8
DATA
  6
CONTINUOUS
 62
     7
 10
520.12760000000003
 20
-336.5
 30
0.0
  0
SEQEND
  5
138C
  8
DATA
  6
CONTINUOUS
 62
     7
  0
LINE
  5
4C6
  8
DATA
  6
CONTINUOUS
 62
     7
 10
520.12760000000003
 20
-334.99000000000001
 30
0.0
 11
521.42759999999987
 21
-334.99000000000001
 31
0.0
  0
POLYLINE
  5
4C7
  8
DATA
  6
CONTINUOUS
 62
     7
 66
     1
 10
0.0
 20
0.0
 30
0.0
 70
     1
  0
VERTEX
  5
138D
  8
DATA
  6
CONTINUOUS
 62
     7
 10
468.16381407289208
 20
-313.89744438751887
 30
0.0
  0
VERTEX
  5
138E
  8
DATA
  6
CONTINUOUS
 62
     7
 10
485.16381407289208
 20
-313.89744438751887
 30
0.0
  0
VERTEX
  5
138F
  8
DATA
  6
CONTINUOUS
 62
     7
 10
485.16381407289208
 20
-338.89744438751887
 30
0.0
  0
VERTEX
  5
1390
  8
DATA
  6
CONTINUOUS
 62
     7
 10
468.16381407289208
 20
-338.89744438751887
 30
0.0
  0
SEQEND
  5
1391
  8
DATA
  6
CONTINUOUS
 62
     7
  0
LINE
  5
4CE
  8
DATA
  6
CONTINUOUS
 62
     7
 10
482.66381407289208
 20
-316.59744438751892
 30
0.0
 11
482.66381407289208
 21
-336.19744438751889
 31
0.0
  0
LINE
  5
4CF
  8
DATA
  6
CONTINUOUS
 62
     7
 10
470.66381407289208
 20
-336.19744438751889
 30
0.0
 11
470.66381407289208
 21
-316.59744438751892
 31
0.0
  0
LINE
  5
4D0
  8
DATA
  6
CONTINUOUS
 62
     7
 10
470.66381407289208
 20
-323.69744438751889
 30
0.0
 11
482.66381407289208
 21
-323.69744438751889
 31
0.0
  0
LINE
  5
4D1
  8
DATA
  6
CONTINUOUS
 62
     7
 10
482.66381407289208
 20
-329.09744438751892
 30
0.0
 11
470.66381407289208
 21
-329.09744438751892
 31
0.0
  0
LINE
  5
4D2
  8
DATA
  6
CONTINUOUS
 62
     7
 10
473.48881407289201
 20
-316.59744438751892
 30
0.0
 11
473.48881407289201
 21
-313.89744438751887
 31
0.0
  0
LINE
  5
4D3
  8
DATA
  6
CONTINUOUS
 62
     7
 10
479.83881407289209
 20
-313.89744438751887
 30
0.0
 11
479.83881407289209
 21
-316.59744438751892
 31
0.0
  0
LINE
  5
4D4
  8
DATA
  6
CONTINUOUS
 62
     7
 10
473.48881407289201
 20
-338.89744438751887
 30
0.0
 11
473.48881407289201
 21
-336.19744438751889
 31
0.0
  0
LINE
  5
4D5
  8
DATA
  6
CONTINUOUS
 62
     7
 10
479.83881407289209
 20
-336.19744438751889
 30
0.0
 11
479.83881407289209
 21
-338.89744438751887
 31
0.0
  0
LINE
  5
4D6
  8
DATA
  6
CONTINUOUS
 62
     7
 10
470.66381407289208
 20
-316.59744438751892
 30
0.0
 11
473.48881407289201
 21
-316.59744438751892
 31
0.0
  0
LINE
  5
4D7
  8
DATA
  6
CONTINUOUS
 62
     7
 10
479.83881407289209
 20
-316.59744438751892
 30
0.0
 11
482.66381407289208
 21
-316.59744438751892
 31
0.0
  0
LINE
  5
4D8
  8
DATA
  6
CONTINUOUS
 62
     7
 10
470.66381407289208
 20
-336.19744438751889
 30
0.0
 11
473.48881407289201
 21
-336.19744438751889
 31
0.0
  0
LINE
  5
4D9
  8
DATA
  6
CONTINUOUS
 62
     7
 10
479.83881407289209
 20
-336.19744438751889
 30
0.0
 11
482.66381407289208
 21
-336.19744438751889
 31
0.0
  0
LINE
  5
4DA
  8
DATA
  6
CONTINUOUS
 62
     7
 10
464.23755296141161
 20
-343.4710040633916
 30
0.0
 11
394.0518879541255
 21
-343.4710040633916
 31
0.0
  0
LINE
  5
4DB
  8
DATA
  6
CONTINUOUS
 62
     7
 10
391.0518879541255
 20
-375.0
 30
0.0
 11
454.47029672896292
 21
-375.0
 31
0.0
  0
LINE
  5
4DC
  8
DATA
  6
CONTINUOUS
 62
     7
 10
391.0518879541255
 20
-340.47100406339149
 30
0.0
 11
391.0518879541255
 21
-308.0
 31
0.0
  0
LINE
  5
4DD
  8
DATA
  6
CONTINUOUS
 62
     7
 10
486.61354729167027
 20
-305.0
 30
0.0
 11
394.0518879541255
 21
-305.0
 31
0.0
  0
LINE
  5
4DE
  8
DATA
  6
CONTINUOUS
 62
     7
 10
486.61354729167027
 20
-340.47100406339149
 30
0.0
 11
486.61354729167027
 21
-305.0
 31
0.0
  0
LINE
  5
4DF
  8
DATA
  6
CONTINUOUS
 62
     7
 10
467.23755296141138
 20
-340.47100406339149
 30
0.0
 11
467.23755296141138
 21
-305.0
 31
0.0
  0
LINE
  5
4E0
  8
DATA
  6
CONTINUOUS
 62
     7
 10
409.50625882690201
 20
-343.4710040633916
 30
0.0
 11
409.50625882690201
 21
-328.8105999706047
 31
0.0
  0
LINE
  5
4E1
  8
DATA
  6
CONTINUOUS
 62
     7
 10
409.50625882690201
 20
-325.08940002939528
 30
0.0
 11
409.50625882690201
 21
-305.0
 31
0.0
  0
LINE
  5
4E2
  8
DATA
  6
CONTINUOUS
 62
     7
 10
454.47029672896292
 20
-375.0
 30
0.0
 11
454.47029672896292
 21
-343.4710040633916
 31
0.0
  0
LINE
  5
4E3
  8
DATA
  6
CONTINUOUS
 62
     7
 10
391.0518879541255
 20
-310.17706531633189
 30
0.0
 11
486.61354729167027
 21
-310.17706531633189
 31
0.0
  0
LINE
  5
4E4
  8
DATA
  6
CONTINUOUS
 62
     7
 10
394.0518879541255
 20
-380.0
 30
0.0
 11
454.47029672896292
 21
-380.0
 31
0.0
  0
LINE
  5
4E5
  8
DATA
  6
CONTINUOUS
 62
     7
 10
391.0518879541255
 20
-377.0
 30
0.0
 11
391.0518879541255
 21
-374.90000000000009
 31
0.0
  0
LINE
  5
4E6
  8
DATA
  6
CONTINUOUS
 62
     7
 10
454.47029672896292
 20
-380.0
 30
0.0
 11
454.47029672896292
 21
-374.90000000000009
 31
0.0
  0
TEXT
  5
4E7
  8
DATA
 62
     7
 10
397.73439834722882
 20
-328.03432203858102
 30
0.0
 40
2.4432617187500001
  1
IN
 41
0.7
 11
397.73439834722882
 21
-325.591060319831
 31
0.0
 73
     3
  0
TEXT
  5
4E8
  8
DATA
 62
     7
 10
397.57706776851433
 20
-341.61903388425702
 30
0.0
 40
2.4432617187500001
  1
OUT
 41
0.7
 11
397.57706776851433
 21
-339.175772165507
 31
0.0
 73
     3
  0
TEXT
  5
4E9
  8
DATA
 62
     7
 10
426.18471184567591
 20
-342.05725427006678
 30
0.0
 40
2.4432617187500001
  1
IN
 41
0.7
 11
426.18471184567591
 21
-339.61399255131681
 31
0.0
 73
     3
  0
TEXT
  5
4EA
  8
DATA
 62
     7
 10
451.96942369135218
 20
-341.9228559228381
 30
0.0
 40
2.4432617187500001
  1
OUT
 41
0.7
 11
451.96942369135218
 21
-339.47959420408807
 31
0.0
 73
     3
  0
TEXT
  5
4EB
  8
DATA
 62
     7
 10
491.33021628396023
 20
-326.34300000000007
 30
0.0
 40
2.4432617187500001
  1
USB
 41
0.7
 11
491.33021628396023
 21
-323.89973828125011
 31
0.0
 73
     3
  0
TEXT
  5
4EC
  8
DATA
 62
     7
 10
395.06115261729559
 20
-308.83432203858092
 30
0.0
 40
2.4432617187500001
  1
S/PDIF
 41
0.7
 11
395.06115261729559
 21
-306.39106031983079
 31
0.0
 73
     3
  0
TEXT
  5
4ED
  8
DATA
 62
     7
 10
431.60000000000002
 20
-309.1528303645955
 30
0.0
 40
2.4432617187500001
  1
AES/EBU
 41
0.7
 11
431.60000000000002
 21
-306.70956864584548
 31
0.0
 73
     3
  0
TEXT
  5
4EE
  8
DATA
 62
     7
 10
471.38559973094891
 20
-309.0190019791587
 30
0.0
 40
2.714735243055554
  1
HIQnet
 41
0.7
 11
471.38559973094891
 21
-306.30426673610322
 31
0.0
 73
     3
  0
TEXT
  5
4EF
  8
DATA
 62
     7
 10
411.87747070758081
 20
-378.73036749308972
 30
0.0
 40
2.714735243055554
  1
ANALOG IN
 41
0.7
 11
411.87747070758081
 21
-376.01563225003417
 31
0.0
 73
     3
  0
TEXT
  5
4F0
  8
DATA
 62
     7
 10
441.48211300304388
 20
-378.8787568261987
 30
0.0
 40
2.714735243055554
  1
RMC MIC
 41
0.7
 11
441.48211300304388
 21
-376.16402158314321
 31
0.0
 73
     3
  0
LINE
  5
4F1
  8
DATA
  6
CONTINUOUS
 62
     7
 10
442.88973587461942
 20
-375.0
 30
0.0
 11
442.88973587461942
 21
-343.4710040633916
 31
0.0
  0
TEXT
  5
4F2
  8
DATA
 62
     7
 10
504.11026412538058
 20
-342.83388888888902
 30
0.0
 40
2.714735243055554
  1
SPEAKER ID
 41
0.7
 11
504.11026412538058
 21
-340.11915364583342
 31
0.0
 73
     3
  0
TEXT
  5
4F3
  8
DATA
 62
     7
 10
527.95132062690288
 20
-338.03388888888878
 30
0.0
 40
2.714735243055554
  1
120V～,60HZ
 41
0.7
 11
527.95132062690288
 21
-335.3191536458333
 31
0.0
 73
     3
  0
TEXT
  5
4F4
  8
DATA
 62
     7
 10
527.95513206269038
 20
-342.3030965127474
 30
0.0
 40
2.714735243055554
  1
130 Watts
 41
0.7
 11
527.95513206269038
 21
-339.5883612696918
 31
0.0
 73
     3
  0
TEXT
  5
4F5
  8
DATA
 62
     7
 10
445.0
 20
-363.1236247635083
 30
0.0
 40
2.714735243055554
  1
+15V
 41
0.7
 11
445.0
 21
-360.40888952045282
 31
0.0
 73
     3
  0
TEXT
  5
4F6
  8
DATA
 62
     7
 10
392.74895226083783
 20
-361.1681270591987
 30
0.0
 40
1.900314670138888
  1
+4dBu/
 41
0.7
 11
392.74895226083783
 21
-359.26781238905983
 31
0.0
 73
     3
  0
TEXT
  5
4F7
  8
DATA
 62
     7
 10
392.74895226083783
 20
-363.63757150364307
 30
0.0
 40
1.900314670138888
  1
-10dbV
 41
0.7
 11
392.74895226083783
 21
-361.7372568335042
 31
0.0
 73
     3
  0
TEXT
  5
4F8
  8
DATA
 62
     7
 10
459.87548979029123
 20
-378.72480784705732
 30
0.0
 40
2.714735243055554
  1
ACTIVE INPUT
 41
0.7
 11
459.87548979029123
 21
-376.01007260400172
 31
0.0
 73
     3
  0
TEXT
  5
4F9
  8
DATA
 62
     7
 10
462.47068883534911
 20
-365.51721453425449
 30
0.0
 40
2.714735243055554
  1
ANALOG
 50
90.0
 41
0.7
 11
459.75595359229362
 21
-365.51721453425449
 31
0.0
 73
     3
  0
TEXT
  5
4FA
  8
DATA
 62
     7
 10
467.48665309918522
 20
-365.56188125599039
 30
0.0
 40
2.714735243055554
  1
S/PDIF
 50
90.0
 41
0.7
 11
464.77191785612951
 21
-365.56188125599039
 31
0.0
 73
     3
  0
TEXT
  5
4FB
  8
DATA
 62
     7
 10
472.46220844755192
 20
-365.52028033425768
 30
0.0
 40
2.714735243055554
  1
AES/EBU
 50
90.0
 41
0.7
 11
469.74747320449632
 21
-365.52028033425768
 31
0.0
 73
     3
  0
TEXT
  5
4FC
  8
DATA
 62
     7
 10
477.19089064227319
 20
-365.49173006230973
 30
0.0
 40
2.714735243055554
  1
Ch.A
 50
90.0
 41
0.7
 11
474.4761553992177
 21
-365.49173006230973
 31
0.0
 73
     3
  0
TEXT
  5
4FD
  8
DATA
 62
     7
 10
481.9883660141619
 20
-365.52346405664707
 30
0.0
 40
2.714735243055554
  1
Ch.B
 50
90.0
 41
0.7
 11
479.2736307711063
 21
-365.52346405664707
 31
0.0
 73
     3
  0
TEXT
  5
4FE
  8
DATA
 62
     7
 10
503.27942431591362
 20
-333.25326771351217
 30
0.0
 40
1.085894097222222
  1
ON
 41
0.7
 11
503.27942431591362
 21
-332.16737361628998
 31
0.0
 73
     3
  0
TEXT
  5
4FF
  8
DATA
 62
     7
 10
505.95802217003842
 20
-331.5702852362445
 30
0.0
 40
1.357367621527777
  1
Left
 50
90.0
 41
0.7
 11
504.60065454851059
 21
-331.5702852362445
 31
0.0
 73
     3
  0
TEXT
  5
500
  8
DATA
 62
     7
 10
508.12144464980503
 20
-331.53471156727022
 30
0.0
 40
1.357367621527777
  1
Right
 50
90.0
 41
0.7
 11
506.76407702827709
 21
-331.53471156727022
 31
0.0
 73
     3
  0
TEXT
  5
501
  8
DATA
 62
     7
 10
510.37487707419319
 20
-331.53304241444812
 30
0.0
 40
1.357367621527777
  1
Center
 50
90.0
 41
0.7
 11
509.01750945266548
 21
-331.53304241444812
 31
0.0
 73
     3
  0
TEXT
  5
502
  8
DATA
 62
     7
 10
512.57306407951751
 20
-331.5333404366346
 30
0.0
 40
1.357367621527777
  1
Lsurround
 50
90.0
 41
0.7
 11
511.21569645798962
 21
-331.5333404366346
 31
0.0
 73
     3
  0
TEXT
  5
503
  8
DATA
 62
     7
 10
514.76696575434914
 20
-331.5150028413205
 30
0.0
 40
1.357367621527777
  1
Rsurround
 50
90.0
 41
0.7
 11
513.40959813282132
 21
-331.5150028413205
 31
0.0
 73
     3
  0
TEXT
  5
504
  8
DATA
 62
     7
 10
516.89697854029191
 20
-331.49500852396159
 30
0.0
 40
1.357367621527777
  1
Csurround
 50
90.0
 41
0.7
 11
515.53961091876397
 21
-331.49500852396159
 31
0.0
 73
     3
  0
TEXT
  5
505
  8
DATA
 62
     7
 10
519.11253125452674
 20
-331.51333191267321
 30
0.0
 40
1.357367621527777
  1
Left Extra
 50
90.0
 41
0.7
 11
517.75516363299903
 21
-331.51333191267321
 31
0.0
 73
     3
  0
TEXT
  5
506
  8
DATA
 62
     7
 10
521.22919573536399
 20
-331.47449005163679
 30
0.0
 40
1.357367621527777
  1
Right Extra
 50
90.0
 41
0.7
 11
519.87182811383605
 21
-331.47449005163679
 31
0.0
 73
     3
  0
TEXT
  5
507
  8
DATA
 62
     7
 10
504.84052254399518
 20
-337.77738754485358
 30
0.0
 40
1.085894097222222
  1
1
 41
0.7
 11
504.84052254399518
 21
-336.69149344763139
 31
0.0
 73
     3
  0
TEXT
  5
508
  8
DATA
 62
     7
 10
507.06052254399538
 20
-337.77738754485358
 30
0.0
 40
1.085894097222222
  1
2
 41
0.7
 11
507.06052254399538
 21
-336.69149344763139
 31
0.0
 73
     3
  0
TEXT
  5
509
  8
DATA
 62
     7
 10
509.28052254399529
 20
-337.77738754485358
 30
0.0
 40
1.085894097222222
  1
3
 41
0.7
 11
509.28052254399529
 21
-336.69149344763139
 31
0.0
 73
     3
  0
TEXT
  5
50A
  8
DATA
 62
     7
 10
511.5005225439952
 20
-337.77738754485358
 30
0.0
 40
1.085894097222222
  1
4
 41
0.7
 11
511.5005225439952
 21
-336.69149344763139
 31
0.0
 73
     3
  0
TEXT
  5
50B
  8
DATA
 62
     7
 10
513.72052254399534
 20
-337.77738754485358
 30
0.0
 40
1.085894097222222
  1
5
 41
0.7
 11
513.72052254399534
 21
-336.69149344763139
 31
0.0
 73
     3
  0
TEXT
  5
50C
  8
DATA
 62
     7
 10
515.94052254399514
 20
-337.77738754485358
 30
0.0
 40
1.085894097222222
  1
6
 41
0.7
 11
515.94052254399514
 21
-336.69149344763139
 31
0.0
 73
     3
  0
TEXT
  5
50D
  8
DATA
 62
     7
 10
518.1605225439954
 20
-337.77738754485358
 30
0.0
 40
1.085894097222222
  1
7
 41
0.7
 11
518.1605225439954
 21
-336.69149344763139
 31
0.0
 73
     3
  0
TEXT
  5
50E
  8
DATA
 62
     7
 10
520.3805225439952
 20
-337.77738754485358
 30
0.0
 40
1.085894097222222
  1
8
 41
0.7
 11
520.3805225439952
 21
-336.69149344763139
 31
0.0
 73
     3
  0
CIRCLE
  5
50F
  8
DATA
  6
CONTINUOUS
 62
     7
 10
468.0
 20
-155.5
 30
0.0
 40
52.5
  0
CIRCLE
  5
510
  8
DATA
  6
CONTINUOUS
 62
     7
 10
468.0
 20
-155.5
 30
0.0
 40
25.0
  0
LINE
  5
511
  8
DATA
  6
CONTINUOUS
 62
     7
 10
387.85000000000002
 20
-68.0
 30
0.0
 11
392.14999999999998
 21
-68.0
 31
0.0
  0
LINE
  5
512
  8
DATA
  6
CONTINUOUS
 62
     7
 10
400.85000000000002
 20
-68.0
 30
0.0
 11
405.14999999999981
 21
-68.0
 31
0.0
  0
LINE
  5
513
  8
DATA
  6
CONTINUOUS
 62
     7
 10
413.85000000000002
 20
-68.0
 30
0.0
 11
418.14999999999981
 21
-68.0
 31
0.0
  0
LINE
  5
514
  8
DATA
  6
CONTINUOUS
 62
     7
 10
426.85000000000002
 20
-68.0
 30
0.0
 11
431.14999999999992
 21
-68.0
 31
0.0
  0
LINE
  5
515
  8
DATA
  6
CONTINUOUS
 62
     7
 10
439.85000000000002
 20
-68.0
 30
0.0
 11
444.14999999999992
 21
-68.0
 31
0.0
  0
LINE
  5
516
  8
DATA
  6
CONTINUOUS
 62
     7
 10
452.85000000000002
 20
-68.0
 30
0.0
 11
457.14999999999992
 21
-68.0
 31
0.0
  0
LINE
  5
517
  8
DATA
  6
CONTINUOUS
 62
     7
 10
465.85000000000002
 20
-68.0
 30
0.0
 11
470.14999999999998
 21
-68.0
 31
0.0
  0
LINE
  5
518
  8
DATA
  6
CONTINUOUS
 62
     7
 10
478.84999999999991
 20
-68.0
 30
0.0
 11
483.14999999999998
 21
-68.0
 31
0.0
  0
LINE
  5
519
  8
DATA
  6
CONTINUOUS
 62
     7
 10
491.85000000000002
 20
-68.0
 30
0.0
 11
496.14999999999998
 21
-68.0
 31
0.0
  0
LINE
  5
51A
  8
DATA
  6
CONTINUOUS
 62
     7
 10
504.85000000000002
 20
-68.0
 30
0.0
 11
509.14999999999992
 21
-68.0
 31
0.0
  0
LINE
  5
51B
  8
DATA
  6
CONTINUOUS
 62
     7
 10
517.85000000000002
 20
-68.0
 30
0.0
 11
522.14999999999986
 21
-68.0
 31
0.0
  0
LINE
  5
51C
  8
DATA
  6
CONTINUOUS
 62
     7
 10
530.85000000000002
 20
-68.0
 30
0.0
 11
535.14999999999986
 21
-68.0
 31
0.0
  0
LINE
  5
51D
  8
DATA
  6
CONTINUOUS
 62
     7
 10
543.85000000000002
 20
-68.0
 30
0.0
 11
548.14999999999986
 21
-68.0
 31
0.0
  0
LINE
  5
51E
  8
DATA
  6
CONTINUOUS
 62
     7
 10
387.85000000000002
 20
-270.0
 30
0.0
 11
392.14999999999998
 21
-270.0
 31
0.0
  0
LINE
  5
51F
  8
DATA
  6
CONTINUOUS
 62
     7
 10
400.85000000000002
 20
-270.0
 30
0.0
 11
405.14999999999981
 21
-270.0
 31
0.0
  0
LINE
  5
520
  8
DATA
  6
CONTINUOUS
 62
     7
 10
413.85000000000002
 20
-270.0
 30
0.0
 11
418.14999999999981
 21
-270.0
 31
0.0
  0
LINE
  5
521
  8
DATA
  6
CONTINUOUS
 62
     7
 10
426.85000000000002
 20
-270.0
 30
0.0
 11
431.14999999999992
 21
-270.0
 31
0.0
  0
LINE
  5
522
  8
DATA
  6
CONTINUOUS
 62
     7
 10
439.85000000000002
 20
-270.0
 30
0.0
 11
444.14999999999992
 21
-270.0
 31
0.0
  0
LINE
  5
523
  8
DATA
  6
CONTINUOUS
 62
     7
 10
452.85000000000002
 20
-270.0
 30
0.0
 11
457.14999999999992
 21
-270.0
 31
0.0
  0
LINE
  5
524
  8
DATA
  6
CONTINUOUS
 62
     7
 10
465.85000000000002
 20
-270.0
 30
0.0
 11
470.14999999999998
 21
-270.0
 31
0.0
  0
LINE
  5
525
  8
DATA
  6
CONTINUOUS
 62
     7
 10
478.84999999999991
 20
-270.0
 30
0.0
 11
483.14999999999998
 21
-270.0
 31
0.0
  0
LINE
  5
526
  8
DATA
  6
CONTINUOUS
 62
     7
 10
491.85000000000002
 20
-270.0
 30
0.0
 11
496.14999999999998
 21
-270.0
 31
0.0
  0
LINE
  5
527
  8
DATA
  6
CONTINUOUS
 62
     7
 10
504.85000000000002
 20
-270.0
 30
0.0
 11
509.14999999999992
 21
-270.0
 31
0.0
  0
LINE
  5
528
  8
DATA
  6
CONTINUOUS
 62
     7
 10
517.85000000000002
 20
-270.0
 30
0.0
 11
522.14999999999986
 21
-270.0
 31
0.0
  0
LINE
  5
529
  8
DATA
  6
CONTINUOUS
 62
     7
 10
530.85000000000002
 20
-270.0
 30
0.0
 11
535.14999999999986
 21
-270.0
 31
0.0
  0
LINE
  5
52A
  8
DATA
  6
CONTINUOUS
 62
     7
 10
543.85000000000002
 20
-270.0
 30
0.0
 11
548.14999999999986
 21
-270.0
 31
0.0
  0
ARC
  5
52B
  8
DATA
  6
CONTINUOUS
 62
     7
 10
468.00000000000051
 20
-155.49999999999909
 30
0.0
 40
57.499999999999602
 50
129.85669138825659
 51
135.69667270214549
  0
ARC
  5
52C
  8
DATA
  6
CONTINUOUS
 62
     7
 10
468.00000000000051
 20
-155.49999999999909
 30
0.0
 40
57.499999999999588
 50
150.10687095440119
 51
160.345702169589
  0
ARC
  5
52D
  8
DATA
  6
CONTINUOUS
 62
     7
 10
468.00000000000051
 20
-155.49999999999909
 30
0.0
 40
57.499999999999602
 50
199.6542978304108
 51
209.89312904559881
  0
ARC
  5
52E
  8
DATA
  6
CONTINUOUS
 62
     7
 10
468.00000000000051
 20
-155.49999999999909
 30
0.0
 40
57.499999999999602
 50
224.30332729785451
 51
230.14330861174341
  0
ARC
  5
52F
  8
DATA
  6
CONTINUOUS
 62
     7
 10
468.00000000000051
 20
-155.49999999999909
 30
0.0
 40
57.499999999999638
 50
240.68799141740541
 51
245.4943729347053
  0
ARC
  5
530
  8
DATA
  6
CONTINUOUS
 62
     7
 10
468.00000000000051
 20
-155.49999999999909
 30
0.0
 40
57.499999999999602
 50
254.72344959766411
 51
259.12332626504411
  0
ARC
  5
531
  8
DATA
  6
CONTINUOUS
 62
     7
 10
468.00000000000051
 20
-155.49999999999909
 30
0.0
 40
57.499999999999631
 50
267.85713654609668
 51
272.14286345390252
  0
ARC
  5
532
  8
DATA
  6
CONTINUOUS
 62
     7
 10
468.00000000000051
 20
-155.49999999999909
 30
0.0
 40
57.499999999999602
 50
280.87667373495498
 51
285.27655040233492
  0
ARC
  5
533
  8
DATA
  6
CONTINUOUS
 62
     7
 10
468.00000000000051
 20
-155.49999999999909
 30
0.0
 40
57.499999999999638
 50
294.5056270652936
 51
299.31200858259359
  0
ARC
  5
534
  8
DATA
  6
CONTINUOUS
 62
     7
 10
468.00000000000051
 20
-155.49999999999909
 30
0.0
 40
57.49999999999968
 50
309.8566913882554
 51
315.69667270214421
  0
ARC
  5
535
  8
DATA
  6
CONTINUOUS
 62
     7
 10
468.00000000000051
 20
-155.49999999999909
 30
0.0
 40
57.49999999999968
 50
330.1068709543992
 51
340.3457021695861
  0
ARC
  5
536
  8
DATA
  6
CONTINUOUS
 62
     7
 10
468.00000000000051
 20
-155.49999999999909
 30
0.0
 40
57.499999999999638
 50
19.654297830413942
 51
29.893129045600428
  0
ARC
  5
537
  8
DATA
  6
CONTINUOUS
 62
     7
 10
468.00000000000051
 20
-155.49999999999909
 30
0.0
 40
57.499999999999559
 50
44.303327297855731
 51
50.143308611744573
  0
ARC
  5
538
  8
DATA
  6
CONTINUOUS
 62
     7
 10
468.00000000000051
 20
-155.49999999999909
 30
0.0
 40
57.499999999999588
 50
60.687991417406387
 51
65.494372934706362
  0
ARC
  5
539
  8
DATA
  6
CONTINUOUS
 62
     7
 10
468.00000000000051
 20
-155.49999999999909
 30
0.0
 40
57.499999999999588
 50
74.723449597665009
 51
79.12332626504498
  0
ARC
  5
53A
  8
DATA
  6
CONTINUOUS
 62
     7
 10
468.00000000000051
 20
-155.49999999999909
 30
0.0
 40
57.499999999999602
 50
87.857136546097607
 51
92.142863453903317
  0
ARC
  5
53B
  8
DATA
  6
CONTINUOUS
 62
     7
 10
468.00000000000051
 20
-155.49999999999909
 30
0.0
 40
57.499999999999602
 50
100.8766737349559
 51
105.2765504023359
  0
ARC
  5
53C
  8
DATA
  6
CONTINUOUS
 62
     7
 10
468.00000000000051
 20
-155.49999999999909
 30
0.0
 40
57.499999999999588
 50
114.5056270652945
 51
119.3120085825948
  0
LINE
  5
53D
  8
DATA
  6
CONTINUOUS
 62
     7
 10
387.85000000000002
 20
-68.0
 30
0.0
 11
387.85000000000002
 21
-270.0
 31
0.0
  0
LINE
  5
53E
  8
DATA
  6
CONTINUOUS
 62
     7
 10
392.14999999999998
 20
-68.0
 30
0.0
 11
392.14999999999998
 21
-270.0
 31
0.0
  0
LINE
  5
53F
  8
DATA
  6
CONTINUOUS
 62
     7
 10
400.85000000000002
 20
-68.0
 30
0.0
 11
400.85000000000002
 21
-270.0
 31
0.0
  0
LINE
  5
540
  8
DATA
  6
CONTINUOUS
 62
     7
 10
405.14999999999981
 20
-68.0
 30
0.0
 11
405.14999999999981
 21
-270.0
 31
0.0
  0
LINE
  5
541
  8
DATA
  6
CONTINUOUS
 62
     7
 10
413.85000000000002
 20
-68.0
 30
0.0
 11
413.85000000000002
 21
-136.16020941168171
 31
0.0
  0
LINE
  5
542
  8
DATA
  6
CONTINUOUS
 62
     7
 10
413.85000000000002
 20
-174.83979058831821
 30
0.0
 11
413.85000000000002
 21
-270.0
 31
0.0
  0
LINE
  5
543
  8
DATA
  6
CONTINUOUS
 62
     7
 10
418.14999999999981
 20
-68.0
 30
0.0
 11
418.14999999999981
 21
-126.8429328088165
 31
0.0
  0
LINE
  5
544
  8
DATA
  6
CONTINUOUS
 62
     7
 10
418.14999999999981
 20
-184.1570671911833
 30
0.0
 11
418.14999999999981
 21
-270.0
 31
0.0
  0
LINE
  5
545
  8
DATA
  6
CONTINUOUS
 62
     7
 10
426.85000000000002
 20
-68.0
 30
0.0
 11
426.85000000000002
 21
-115.3387313447396
 31
0.0
  0
LINE
  5
546
  8
DATA
  6
CONTINUOUS
 62
     7
 10
426.85000000000002
 20
-195.66126865526039
 30
0.0
 11
426.85000000000002
 21
-270.0
 31
0.0
  0
LINE
  5
547
  8
DATA
  6
CONTINUOUS
 62
     7
 10
431.14999999999992
 20
-68.0
 30
0.0
 11
431.14999999999992
 21
-111.3601370641004
 31
0.0
  0
LINE
  5
548
  8
DATA
  6
CONTINUOUS
 62
     7
 10
431.14999999999992
 20
-199.6398629358994
 30
0.0
 11
431.14999999999992
 21
-270.0
 31
0.0
  0
LINE
  5
549
  8
DATA
  6
CONTINUOUS
 62
     7
 10
439.85000000000002
 20
-68.0
 30
0.0
 11
439.85000000000002
 21
-105.36191567281411
 31
0.0
  0
LINE
  5
54A
  8
DATA
  6
CONTINUOUS
 62
     7
 10
439.85000000000002
 20
-205.63808432718571
 30
0.0
 11
439.85000000000002
 21
-270.0
 31
0.0
  0
LINE
  5
54B
  8
DATA
  6
CONTINUOUS
 62
     7
 10
444.14999999999992
 20
-68.0
 30
0.0
 11
444.14999999999992
 21
-103.1795690002462
 31
0.0
  0
LINE
  5
54C
  8
DATA
  6
CONTINUOUS
 62
     7
 10
444.14999999999992
 20
-207.8204309997538
 30
0.0
 11
444.14999999999992
 21
-270.0
 31
0.0
  0
LINE
  5
54D
  8
DATA
  6
CONTINUOUS
 62
     7
 10
452.85000000000002
 20
-68.0
 30
0.0
 11
452.85000000000002
 21
-100.0317433120528
 31
0.0
  0
LINE
  5
54E
  8
DATA
  6
CONTINUOUS
 62
     7
 10
452.85000000000002
 20
-210.96825668794719
 30
0.0
 11
452.85000000000002
 21
-270.0
 31
0.0
  0
LINE
  5
54F
  8
DATA
  6
CONTINUOUS
 62
     7
 10
457.14999999999992
 20
-68.0
 30
0.0
 11
457.14999999999992
 21
-99.032952087080005
 31
0.0
  0
LINE
  5
550
  8
DATA
  6
CONTINUOUS
 62
     7
 10
457.14999999999992
 20
-211.96704791292001
 30
0.0
 11
457.14999999999992
 21
-270.0
 31
0.0
  0
LINE
  5
551
  8
DATA
  6
CONTINUOUS
 62
     7
 10
465.85000000000002
 20
-68.0
 30
0.0
 11
465.85000000000002
 21
-98.040209711486085
 31
0.0
  0
LINE
  5
552
  8
DATA
  6
CONTINUOUS
 62
     7
 10
465.85000000000002
 20
-212.95979028851389
 30
0.0
 11
465.85000000000002
 21
-270.0
 31
0.0
  0
LINE
  5
553
  8
DATA
  6
CONTINUOUS
 62
     7
 10
470.14999999999998
 20
-68.0
 30
0.0
 11
470.14999999999998
 21
-98.040209711486085
 31
0.0
  0
LINE
  5
554
  8
DATA
  6
CONTINUOUS
 62
     7
 10
470.14999999999998
 20
-212.95979028851389
 30
0.0
 11
470.14999999999998
 21
-270.0
 31
0.0
  0
LINE
  5
555
  8
DATA
  6
CONTINUOUS
 62
     7
 10
478.84999999999991
 20
-68.0
 30
0.0
 11
478.84999999999991
 21
-99.032952087080005
 31
0.0
  0
LINE
  5
556
  8
DATA
  6
CONTINUOUS
 62
     7
 10
478.84999999999991
 20
-211.96704791292001
 30
0.0
 11
478.84999999999991
 21
-270.0
 31
0.0
  0
LINE
  5
557
  8
DATA
  6
CONTINUOUS
 62
     7
 10
483.14999999999998
 20
-68.0
 30
0.0
 11
483.14999999999998
 21
-100.0317433120528
 31
0.0
  0
LINE
  5
558
  8
DATA
  6
CONTINUOUS
 62
     7
 10
483.14999999999998
 20
-210.96825668794719
 30
0.0
 11
483.14999999999998
 21
-270.0
 31
0.0
  0
LINE
  5
559
  8
DATA
  6
CONTINUOUS
 62
     7
 10
491.85000000000002
 20
-68.0
 30
0.0
 11
491.85000000000002
 21
-103.1795690002462
 31
0.0
  0
LINE
  5
55A
  8
DATA
  6
CONTINUOUS
 62
     7
 10
491.85000000000002
 20
-207.8204309997538
 30
0.0
 11
491.85000000000002
 21
-270.0
 31
0.0
  0
LINE
  5
55B
  8
DATA
  6
CONTINUOUS
 62
     7
 10
496.14999999999998
 20
-68.0
 30
0.0
 11
496.14999999999998
 21
-105.36191567281411
 31
0.0
  0
LINE
  5
55C
  8
DATA
  6
CONTINUOUS
 62
     7
 10
496.14999999999998
 20
-205.63808432718571
 30
0.0
 11
496.14999999999998
 21
-270.0
 31
0.0
  0
LINE
  5
55D
  8
DATA
  6
CONTINUOUS
 62
     7
 10
504.85000000000002
 20
-68.0
 30
0.0
 11
504.85000000000002
 21
-111.3601370641004
 31
0.0
  0
LINE
  5
55E
  8
DATA
  6
CONTINUOUS
 62
     7
 10
504.85000000000002
 20
-199.6398629358994
 30
0.0
 11
504.85000000000002
 21
-270.0
 31
0.0
  0
LINE
  5
55F
  8
DATA
  6
CONTINUOUS
 62
     7
 10
509.14999999999992
 20
-68.0
 30
0.0
 11
509.14999999999992
 21
-115.3387313447396
 31
0.0
  0
LINE
  5
560
  8
DATA
  6
CONTINUOUS
 62
     7
 10
509.14999999999992
 20
-195.66126865526039
 30
0.0
 11
509.14999999999992
 21
-270.0
 31
0.0
  0
LINE
  5
561
  8
DATA
  6
CONTINUOUS
 62
     7
 10
517.85000000000002
 20
-68.0
 30
0.0
 11
517.85000000000002
 21
-126.8429328088165
 31
0.0
  0
LINE
  5
562
  8
DATA
  6
CONTINUOUS
 62
     7
 10
517.85000000000002
 20
-184.1570671911833
 30
0.0
 11
517.85000000000002
 21
-270.0
 31
0.0
  0
LINE
  5
563
  8
DATA
  6
CONTINUOUS
 62
     7
 10
522.14999999999986
 20
-68.0
 30
0.0
 11
522.14999999999986
 21
-136.16020941168171
 31
0.0
  0
LINE
  5
564
  8
DATA
  6
CONTINUOUS
 62
     7
 10
522.14999999999986
 20
-174.83979058831821
 30
0.0
 11
522.14999999999986
 21
-270.0
 31
0.0
  0
LINE
  5
565
  8
DATA
  6
CONTINUOUS
 62
     7
 10
530.85000000000002
 20
-68.0
 30
0.0
 11
530.85000000000002
 21
-270.0
 31
0.0
  0
LINE
  5
566
  8
DATA
  6
CONTINUOUS
 62
     7
 10
535.14999999999986
 20
-68.0
 30
0.0
 11
535.14999999999986
 21
-270.0
 31
0.0
  0
LINE
  5
567
  8
DATA
  6
CONTINUOUS
 62
     7
 10
543.85000000000002
 20
-68.0
 30
0.0
 11
543.85000000000002
 21
-270.0
 31
0.0
  0
LINE
  5
568
  8
DATA
  6
CONTINUOUS
 62
     7
 10
548.14999999999986
 20
-68.0
 30
0.0
 11
548.14999999999986
 21
-270.0
 31
0.0
  0
ARC
  5
569
  8
DATA
  6
CONTINUOUS
 62
     7
 10
394.0518879541255
 20
-377.0
 30
0.0
 40
3.0
 50
180.0
 51
270.0
  0
ARC
  5
56A
  8
DATA
  6
CONTINUOUS
 62
     7
 10
394.0518879541255
 20
-308.0
 30
0.0
 40
3.0
 50
90.0
 51
180.0
  0
ARC
  5
56B
  8
DATA
  6
CONTINUOUS
 62
     7
 10
394.0518879541255
 20
-340.47100406339149
 30
0.0
 40
3.0
 50
180.0
 51
270.0
  0
LINE
  5
56C
  8
DATA
  6
CONTINUOUS
 62
     7
 10
391.0518879541255
 20
-375.42500000000001
 30
0.0
 11
391.0518879541255
 21
-346.47100406339149
 31
0.0
  0
ARC
  5
56D
  8
DATA
  6
CONTINUOUS
 62
     7
 10
394.0518879541255
 20
-346.47100406339149
 30
0.0
 40
3.0
 50
90.0
 51
180.0
  0
ARC
  5
56E
  8
DATA
  6
CONTINUOUS
 62
     7
 10
464.23755296141161
 20
-340.47100406339149
 30
0.0
 40
3.0
 50
270.0
 51
0.0
  0
LINE
  5
56F
  8
DATA
  6
CONTINUOUS
 62
     7
 10
483.61354729167027
 20
-343.4710040633916
 30
0.0
 11
470.23755296141161
 21
-343.4710040633916
 31
0.0
  0
ARC
  5
570
  8
DATA
  6
CONTINUOUS
 62
     7
 10
470.23755296141161
 20
-340.47100406339149
 30
0.0
 40
3.0
 50
180.0
 51
270.0
  0
ARC
  5
571
  8
DATA
  6
CONTINUOUS
 62
     7
 10
396.7108506229099
 20
-281.4906558643392
 30
0.0
 40
0.1785185442983506
 50
307.64190249756712
 51
354.267019289372
  0
LINE
  5
572
  8
DATA
  6
CONTINUOUS
 62
     7
 10
392.12538505930888
 20
-278.6774925296545
 30
0.0
 11
392.96228265930893
 21
-276.68339972965452
 31
0.0
  0
LINE
  5
573
  8
DATA
  6
CONTINUOUS
 62
     7
 10
392.12538505930888
 20
-278.6774925296545
 30
0.0
 11
391.29881385930889
 21
-276.68339972965452
 31
0.0
  0
LINE
  5
574
  8
DATA
  6
CONTINUOUS
 62
     7
 10
398.46928905930878
 20
-282.28339972965449
 30
0.0
 11
398.46928905930878
 21
-276.68339972965452
 31
0.0
  0
LINE
  5
575
  8
DATA
  6
CONTINUOUS
 62
     7
 10
399.54382825930878
 20
-276.68339972965452
 30
0.0
 11
399.54382825930878
 21
-281.42583812965438
 31
0.0
  0
LINE
  5
576
  8
DATA
  6
CONTINUOUS
 62
     7
 10
393.35490425930891
 20
-276.68339972965452
 30
0.0
 11
393.35490425930891
 21
-281.42583812965438
 31
0.0
  0
LINE
  5
577
  8
DATA
  6
CONTINUOUS
 62
     7
 10
394.38811545930878
 20
-276.68339972965452
 30
0.0
 11
394.38811545930878
 21
-281.42583812965438
 31
0.0
  0
LINE
  5
578
  8
DATA
  6
CONTINUOUS
 62
     7
 10
394.92538505930878
 20
-276.68339972965452
 30
0.0
 11
394.92538505930878
 21
-282.28339972965449
 31
0.0
  0
LINE
  5
579
  8
DATA
  6
CONTINUOUS
 62
     7
 10
395.86560825930877
 20
-277.21033172965451
 30
0.0
 11
395.86560825930877
 21
-279.0081221296544
 31
0.0
  0
LINE
  5
57A
  8
DATA
  6
CONTINUOUS
 62
     7
 10
397.88081305930888
 20
-278.9040965296544
 30
0.0
 11
397.88081305930888
 21
-277.59262692965439
 31
0.0
  0
LINE
  5
57B
  8
DATA
  6
CONTINUOUS
 62
     7
 10
396.8884762593089
 20
-277.45830532965448
 30
0.0
 11
396.8884762593089
 21
-278.7601541296545
 31
0.0
  0
ARC
  5
57C
  8
DATA
  6
CONTINUOUS
 62
     7
 10
393.14756985930887
 20
-280.84543172965448
 30
0.0
 40
1.4441579180940021
 50
264.69085622153619
 51
323.99119915424387
  0
LINE
  5
57D
  8
DATA
  6
CONTINUOUS
 62
     7
 10
392.56966665930878
 20
-280.52693732965452
 30
0.0
 11
392.56966665930878
 21
-281.42582692965448
 31
0.0
  0
LINE
  5
57E
  8
DATA
  6
CONTINUOUS
 62
     7
 10
392.56966665930878
 20
-280.52693732965452
 30
0.0
 11
391.63977545930891
 21
-280.52693732965452
 31
0.0
  0
LINE
  5
57F
  8
DATA
  6
CONTINUOUS
 62
     7
 10
391.63977545930891
 20
-280.52693732965452
 30
0.0
 11
391.63977545930891
 21
-281.42582692965448
 31
0.0
  0
ARC
  5
580
  8
DATA
  6
CONTINUOUS
 62
     7
 10
392.96425385930883
 20
-281.4379453296545
 30
0.0
 40
0.3908401426956755
 50
269.71184879275819
 51
1.7759870056943321
  0
ARC
  5
581
  8
DATA
  6
CONTINUOUS
 62
     7
 10
392.96031705930892
 20
-281.4379453296545
 30
0.0
 40
0.3908381441773836
 50
178.22401299431209
 51
270.2881512072413
  0
ARC
  5
582
  8
DATA
  6
CONTINUOUS
 62
     7
 10
392.88032105930893
 20
-280.84543172965448
 30
0.0
 40
1.4441555726900981
 50
216.00880084575641
 51
275.30914377846432
  0
ARC
  5
583
  8
DATA
  6
CONTINUOUS
 62
     7
 10
392.29242185930877
 20
-281.39417012965453
 30
0.0
 40
0.6534081165786386
 50
182.7769954499945
 51
207.35960666714919
  0
CIRCLE
  5
584
  8
DATA
  6
CONTINUOUS
 62
     7
 10
392.18221385930877
 20
-279.45240372965441
 30
0.0
 40
0.5321008000000234
  0
LINE
  5
585
  8
DATA
  6
CONTINUOUS
 62
     7
 10
401.26928905930868
 20
-282.28339412965448
 30
0.0
 11
398.46928905930878
 21
-282.28339412965448
 31
0.0
  0
LINE
  5
586
  8
DATA
  6
CONTINUOUS
 62
     7
 10
401.26928905930868
 20
-282.28339412965448
 30
0.0
 11
401.26928905930868
 21
-280.52693172965451
 31
0.0
  0
LINE
  5
587
  8
DATA
  6
CONTINUOUS
 62
     7
 10
401.26928905930868
 20
-280.52693732965452
 30
0.0
 11
400.32907145930869
 21
-280.52693732965452
 31
0.0
  0
LINE
  5
588
  8
DATA
  6
CONTINUOUS
 62
     7
 10
400.32907145930869
 20
-280.52693732965452
 30
0.0
 11
400.32907145930869
 21
-281.42582692965448
 31
0.0
  0
LINE
  5
589
  8
DATA
  6
CONTINUOUS
 62
     7
 10
394.92538505930878
 20
-282.28339412965448
 30
0.0
 11
396.8884762593089
 21
-282.28338852965442
 31
0.0
  0
LINE
  5
58A
  8
DATA
  6
CONTINUOUS
 62
     7
 10
395.86560265930888
 20
-281.75645652965437
 30
0.0
 11
396.37187625930892
 21
-281.75645652965437
 31
0.0
  0
LINE
  5
58B
  8
DATA
  6
CONTINUOUS
 62
     7
 10
395.86560825930877
 20
-281.75645652965437
 30
0.0
 11
395.86560825930877
 21
-279.5453861296545
 31
0.0
  0
LINE
  5
58C
  8
DATA
  6
CONTINUOUS
 62
     7
 10
395.86560265930888
 20
-279.5453861296545
 30
0.0
 11
396.37187625930892
 21
-279.5453861296545
 31
0.0
  0
LINE
  5
58D
  8
DATA
  6
CONTINUOUS
 62
     7
 10
396.8884762593089
 20
-281.50848852965453
 30
0.0
 11
396.8884762593089
 21
-279.7933541296544
 31
0.0
  0
ARC
  5
58E
  8
DATA
  6
CONTINUOUS
 62
     7
 10
393.73546905930891
 20
-281.39417012965453
 30
0.0
 40
0.6534071868044118
 50
332.64039333285251
 51
357.22300455000811
  0
ARC
  5
58F
  8
DATA
  6
CONTINUOUS
 62
     7
 10
399.93841545930883
 20
-281.4379453296545
 30
0.0
 40
0.3908401426956757
 50
269.71184879275
 51
1.7759870056946161
  0
ARC
  5
590
  8
DATA
  6
CONTINUOUS
 62
     7
 10
399.93448425930887
 20
-281.4379453296545
 30
0.0
 40
0.3908381441773267
 50
178.22401299431189
 51
270.2881512072496
  0
LINE
  5
591
  8
DATA
  6
CONTINUOUS
 62
     7
 10
397.88035945930881
 20
-281.38449892965451
 30
0.0
 11
397.88035945930881
 21
-279.89667972965452
 31
0.0
  0
LINE
  5
592
  8
DATA
  6
CONTINUOUS
 62
     7
 10
395.86560265930888
 20
-279.0081221296544
 30
0.0
 11
396.37187625930892
 21
-279.0081221296544
 31
0.0
  0
ARC
  5
593
  8
DATA
  6
CONTINUOUS
 62
     7
 10
396.81728905930891
 20
-281.22030692965438
 30
0.0
 40
1.0654623905621201
 50
273.83098160911487
 51
351.13514730980251
  0
LINE
  5
594
  8
DATA
  6
CONTINUOUS
 62
     7
 10
393.35490425930891
 20
-276.68339972965452
 30
0.0
 11
394.38811545930878
 21
-276.68339972965452
 31
0.0
  0
LINE
  5
595
  8
DATA
  6
CONTINUOUS
 62
     7
 10
391.29881385930889
 20
-276.68339972965452
 30
0.0
 11
392.96228265930893
 21
-276.68339972965452
 31
0.0
  0
LINE
  5
596
  8
DATA
  6
CONTINUOUS
 62
     7
 10
398.46928905930878
 20
-276.68339972965452
 30
0.0
 11
399.54382825930878
 21
-276.68339972965452
 31
0.0
  0
LINE
  5
597
  8
DATA
  6
CONTINUOUS
 62
     7
 10
394.92538505930878
 20
-276.68339972965452
 30
0.0
 11
396.89926753107108
 21
-276.68340426214911
 31
0.0
  0
LINE
  5
598
  8
DATA
  6
CONTINUOUS
 62
     7
 10
395.86560265930888
 20
-277.21033732965452
 30
0.0
 11
396.37187625930892
 21
-277.21033732965452
 31
0.0
  0
ARC
  5
599
  8
DATA
  6
CONTINUOUS
 62
     7
 10
396.82791225930879
 20
-277.74485732965451
 30
0.0
 40
1.0638487624304249
 50
8.2269238590164093
 51
86.154126692153866
  0
LINE
  5
59A
  8
DATA
  6
CONTINUOUS
 62
     7
 10
404.4748130593087
 20
-272.94111012965448
 30
0.0
 11
404.4748130593087
 21
-286.0318829296545
 31
0.0
  0
LINE
  5
59B
  8
DATA
  6
CONTINUOUS
 62
     7
 10
388.40841305930883
 20
-286.0318829296545
 30
0.0
 11
388.40841305930883
 21
-272.94111012965448
 31
0.0
  0
LINE
  5
59C
  8
DATA
  6
CONTINUOUS
 62
     7
 10
404.4748130593087
 20
-286.0318829296545
 30
0.0
 11
388.40841305930883
 21
-286.0318829296545
 31
0.0
  0
LINE
  5
59D
  8
DATA
  6
CONTINUOUS
 62
     7
 10
388.40841305930883
 20
-272.94111012965448
 30
0.0
 11
404.4748130593087
 21
-272.94111012965448
 31
0.0
  0
ARC
  5
59E
  8
DATA
  6
CONTINUOUS
 62
     7
 10
396.37785451836652
 20
-280.77439127172568
 30
0.0
 40
0.9820834538937701
 50
269.65121993761949
 51
282.82648280687118
  0
ARC
  5
59F
  8
DATA
  6
CONTINUOUS
 62
     7
 10
396.48815803469029
 20
-281.18959670394162
 30
0.0
 40
0.5529652260682046
 50
281.23310362264868
 51
306.86200889405478
  0
ARC
  5
5A0
  8
DATA
  6
CONTINUOUS
 62
     7
 10
396.7108506229099
 20
-279.81118679496967
 30
0.0
 40
0.1785185442983337
 50
5.732980710609838
 51
52.35809750243294
  0
ARC
  5
5A1
  8
DATA
  6
CONTINUOUS
 62
     7
 10
396.37785451836652
 20
-280.52745138758308
 30
0.0
 40
0.9820834538937299
 50
77.17351719312822
 51
90.348780062380527
  0
ARC
  5
5A2
  8
DATA
  6
CONTINUOUS
 62
     7
 10
396.48815803469029
 20
-280.11224595536731
 30
0.0
 40
0.5529652260681787
 50
53.137991105941751
 51
78.766896377345503
  0
ARC
  5
5A3
  8
DATA
  6
CONTINUOUS
 62
     7
 10
397.33845865930891
 20
-279.93330932965449
 30
0.0
 40
0.5431373717917097
 50
3.867006359818685
 51
88.361634567898093
  0
ARC
  5
5A4
  8
DATA
  6
CONTINUOUS
 62
     7
 10
397.33796025930877
 20
-278.84695412965448
 30
0.0
 40
0.5436770863706357
 50
271.6892821046481
 51
356.07828298265918
  0
ARC
  5
5A5
  8
DATA
  6
CONTINUOUS
 62
     7
 10
396.7108506229099
 20
-278.74232146433928
 30
0.0
 40
0.1785185442983506
 50
307.64190249756712
 51
354.267019289372
  0
ARC
  5
5A6
  8
DATA
  6
CONTINUOUS
 62
     7
 10
396.37785451836652
 20
-278.0260568717257
 30
0.0
 40
0.9820834538937701
 50
269.65121993761949
 51
282.82648280687118
  0
ARC
  5
5A7
  8
DATA
  6
CONTINUOUS
 62
     7
 10
396.48815803469029
 20
-278.44126230394158
 30
0.0
 40
0.5529652260682046
 50
281.23310362264868
 51
306.86200889405831
  0
ARC
  5
5A8
  8
DATA
  6
CONTINUOUS
 62
     7
 10
396.7108506229099
 20
-277.47613799496969
 30
0.0
 40
0.1785185442983281
 50
5.7329807105916863
 51
52.358097502407361
  0
ARC
  5
5A9
  8
DATA
  6
CONTINUOUS
 62
     7
 10
396.37785451836652
 20
-278.19240258758322
 30
0.0
 40
0.9820834538937852
 50
77.173517193128987
 51
90.348780062380527
  0
ARC
  5
5AA
  8
DATA
  6
CONTINUOUS
 62
     7
 10
396.48815803469029
 20
-277.77719715536728
 30
0.0
 40
0.5529652260681787
 50
53.137991105941751
 51
78.766896377350108
  0
ARC
  5
5AB
  8
DATA
  6
CONTINUOUS
 62
     7
 10
186.0
 20
-44.0
 30
0.0
 40
6.0
 50
0.0
 51
90.0
  0
ARC
  5
5AC
  8
DATA
  6
CONTINUOUS
 62
     7
 10
186.0
 20
-419.0
 30
0.0
 40
6.0
 50
270.0
 51
0.0
  0
LINE
  5
5AD
  8
DATA
  6
CONTINUOUS
 62
     7
 10
194.5
 20
-406.5
 30
0.0
 11
194.5
 21
-56.5
 31
0.0
  0
LINE
  5
5AE
  8
DATA
  6
CONTINUOUS
 62
     7
 10
194.5
 20
-56.5
 30
0.0
 11
192.0
 21
-56.5
 31
0.0
  0
LINE
  5
5AF
  8
DATA
  6
CONTINUOUS
 62
     7
 10
194.5
 20
-406.5
 30
0.0
 11
192.0
 21
-406.5
 31
0.0
  0
LINE
  5
5B0
  8
DATA
  6
CONTINUOUS
 62
     7
 10
200.60000000000059
 20
-270.0
 30
0.0
 11
194.5
 21
-270.0
 31
0.0
  0
ARC
  5
5B1
  8
DATA
  6
CONTINUOUS
 62
     7
 10
189.60524708495319
 20
-253.35669072737409
 30
0.0
 40
19.947038256523388
 50
303.44918912222721
 51
355.85061908939929
  0
LINE
  5
5B2
  8
DATA
  6
CONTINUOUS
 62
     7
 10
200.60000000000059
 20
-68.0
 30
0.0
 11
196.9837736293137
 21
-68.0
 31
0.0
  0
ARC
  5
5B3
  8
DATA
  6
CONTINUOUS
 62
     7
 10
189.60524708495319
 20
-84.64330927262597
 30
0.0
 40
19.947038256523431
 50
4.1493809106007991
 51
56.55081087777279
  0
LINE
  5
5B4
  8
DATA
  6
CONTINUOUS
 62
     7
 10
209.5
 20
-83.200000000000003
 30
0.0
 11
209.5
 21
-254.0
 31
0.0
  0
LINE
  5
5B5
  8
DATA
  6
CONTINUOUS
 62
     7
 10
209.5
 20
-254.80000000000001
 30
0.0
 11
209.5
 21
-254.0
 31
0.0
  0
TEXT
  5
5B6
  8
DATA
 62
     7
 10
584.77839644598521
 20
-954.28368845424745
 30
0.0
 40
24.4326171875
  1
JBL
 41
0.7
 11
584.77839644598521
 21
-929.85107126674745
 31
0.0
 73
     3
  0
TEXT
  5
5B7
  8
DATA
 62
     7
 10
586.05304880386825
 20
-1031.3641591878679
 30
0.0
 40
24.4326171875
  1
LSR4326P
 41
0.7
 11
586.05304880386825
 21
-1006.931542000368
 31
0.0
 73
     3
  0
TEXT
  5
5B8
  8
DATA
 62
     7
 10
566.60478557985107
 20
-988.35538651329557
 30
0.0
 40
16.288411458333329
  1
2ウェイバイアンプ内臓スタ ジオモニタ ー
 41
0.7
 11
566.60478557985107
 21
-972.06697505496231
 31
0.0
 73
     3
  0
ARC
  5
5B9
  8
DATA
  6
CONTINUOUS
 62
     7
 10
190.8491533096086
 20
-397.5
 30
0.0
 40
6.640625
 50
314.33269164416492
 51
45.667308355835068
  0
LINE
  5
5BA
  8
DATA
  6
CONTINUOUS
 62
     7
 10
195.4897783096086
 20
-402.24999999999989
 30
0.0
 11
194.5
 21
-402.24999999999989
 31
0.0
  0
LINE
  5
5BB
  8
DATA
  6
CONTINUOUS
 62
     7
 10
195.4897783096086
 20
-392.75
 30
0.0
 11
194.5
 21
-392.75
 31
0.0
  0
ARC
  5
5BC
  8
DATA
  6
CONTINUOUS
 62
     7
 10
190.8114953408008
 20
-225.5
 30
0.0
 40
6.640625
 50
314.33269164416492
 51
45.667308355835068
  0
LINE
  5
5BD
  8
DATA
  6
CONTINUOUS
 62
     7
 10
195.4521203408008
 20
-230.25
 30
0.0
 11
194.5
 21
-230.25
 31
0.0
  0
LINE
  5
5BE
  8
DATA
  6
CONTINUOUS
 62
     7
 10
195.4521203408008
 20
-220.75
 30
0.0
 11
194.5
 21
-220.75
 31
0.0
  0
ARC
  5
5BF
  8
DATA
  6
CONTINUOUS
 62
     7
 10
190.8317089034974
 20
-65.499999999999929
 30
0.0
 40
6.640625
 50
314.33269164416492
 51
45.667308355835068
  0
LINE
  5
5C0
  8
DATA
  6
CONTINUOUS
 62
     7
 10
195.4723339034974
 20
-70.249999999999929
 30
0.0
 11
194.5
 21
-70.249999999999929
 31
0.0
  0
LINE
  5
5C1
  8
DATA
  6
CONTINUOUS
 62
     7
 10
195.4723339034974
 20
-60.749999999999929
 30
0.0
 11
194.5
 21
-60.749999999999929
 31
0.0
  0
LINE
  5
5C2
  8
DATA
  6
CONTINUOUS
 62
     7
 10
-550.0
 20
-638.10000000000002
 30
0.0
 11
-314.0
 21
-638.10000000000002
 31
0.0
  0
POLYLINE
  5
5C3
  8
DATA
  6
CONTINUOUS
 62
     7
 66
     1
 10
0.0
 20
0.0
 30
0.0
 70
   129
  0
VERTEX
  5
1392
  8
DATA
  6
CONTINUOUS
 62
     7
 10
-467.0
 20
-76.193920339161352
 30
0.0
  0
VERTEX
  5
1393
  8
DATA
  6
CONTINUOUS
 62
     7
 10
-466.49177536065491
 20
-76.017375445832911
 30
0.0
  0
VERTEX
  5
1394
  8
DATA
  6
CONTINUOUS
 62
     7
 10
-465.98232372573341
 20
-75.843610787045009
 30
0.0
  0
VERTEX
  5
1395
  8
DATA
  6
CONTINUOUS
 62
     7
 10
-465.47164509523549
 20
-75.672626362797743
 30
0.0
  0
VERTEX
  5
1396
  8
DATA
  6
CONTINUOUS
 62
     7
 10
-464.95973946916149
 20
-75.504422173091058
 30
0.0
  0
VERTEX
  5
1397
  8
DATA
  6
CONTINUOUS
 62
     7
 10
-464.44660684751102
 20
-75.338998217924981
 30
0.0
  0
VERTEX
  5
1398
  8
DATA
  6
CONTINUOUS
 62
     7
 10
-463.9322472302843
 20
-75.176354497299542
 30
0.0
  0
VERTEX
  5
1399
  8
DATA
  6
CONTINUOUS
 62
     7
 10
-463.416660617481
 20
-75.016491011214683
 30
0.0
  0
VERTEX
  5
139A
  8
DATA
  6
CONTINUOUS
 62
     7
 10
-462.89984700910162
 20
-74.859407759670432
 30
0.0
  0
VERTEX
  5
139B
  8
DATA
  6
CONTINUOUS
 62
     7
 10
-462.38180640514571
 20
-74.705104742666734
 30
0.0
  0
VERTEX
  5
139C
  8
DATA
  6
CONTINUOUS
 62
     7
 10
-461.86253880561361
 20
-74.553581960203729
 30
0.0
  0
VERTEX
  5
139D
  8
DATA
  6
CONTINUOUS
 62
     7
 10
-461.34204421050481
 20
-74.404839412281333
 30
0.0
  0
VERTEX
  5
139E
  8
DATA
  6
CONTINUOUS
 62
     7
 10
-460.8203226198201
 20
-74.258877098899475
 30
0.0
  0
VERTEX
  5
139F
  8
DATA
  6
CONTINUOUS
 62
     7
 10
-460.29737403355858
 20
-74.115695020058297
 30
0.0
  0
VERTEX
  5
13A0
  8
DATA
  6
CONTINUOUS
 62
     7
 10
-459.77319845172121
 20
-73.975293175757656
 30
0.0
  0
VERTEX
  5
13A1
  8
DATA
  6
CONTINUOUS
 62
     7
 10
-459.24779587430731
 20
-73.837671565997653
 30
0.0
  0
VERTEX
  5
13A2
  8
DATA
  6
CONTINUOUS
 62
     7
 10
-458.721166301317
 20
-73.702830190778272
 30
0.0
  0
VERTEX
  5
13A3
  8
DATA
  6
CONTINUOUS
 62
     7
 10
-458.19330973275032
 20
-73.5707690500995
 30
0.0
  0
VERTEX
  5
13A4
  8
DATA
  6
CONTINUOUS
 62
     7
 10
-457.6642261686074
 20
-73.441488143961294
 30
0.0
  0
VERTEX
  5
13A5
  8
DATA
  6
CONTINUOUS
 62
     7
 10
-457.133915608888
 20
-73.314987472363697
 30
0.0
  0
VERTEX
  5
13A6
  8
DATA
  6
CONTINUOUS
 62
     7
 10
-456.6023780535923
 20
-73.191267035306737
 30
0.0
  0
VERTEX
  5
13A7
  8
DATA
  6
CONTINUOUS
 62
     7
 10
-456.0696135027203
 20
-73.070326832790371
 30
0.0
  0
VERTEX
  5
13A8
  8
DATA
  6
CONTINUOUS
 62
     7
 10
-455.53562195627188
 20
-72.9521668648146
 30
0.0
  0
VERTEX
  5
13A9
  8
DATA
  6
CONTINUOUS
 62
     7
 10
-455.00040341424722
 20
-72.836787131379481
 30
0.0
  0
VERTEX
  5
13AA
  8
DATA
  6
CONTINUOUS
 62
     7
 10
-454.46395787664619
 20
-72.724187632484899
 30
0.0
  0
VERTEX
  5
13AB
  8
DATA
  6
CONTINUOUS
 62
     7
 10
-453.92628534346892
 20
-72.61436836813094
 30
0.0
  0
VERTEX
  5
13AC
  8
DATA
  6
CONTINUOUS
 62
     7
 10
-453.38738581471512
 20
-72.507329338317618
 30
0.0
  0
VERTEX
  5
13AD
  8
DATA
  6
CONTINUOUS
 62
     7
 10
-452.8472592903849
 20
-72.403070543044933
 30
0.0
  0
VERTEX
  5
13AE
  8
DATA
  6
CONTINUOUS
 62
     7
 10
-452.30590577047838
 20
-72.301591982312772
 30
0.0
  0
VERTEX
  5
13AF
  8
DATA
  6
CONTINUOUS
 62
     7
 10
-451.76332525499561
 20
-72.202893656121262
 30
0.0
  0
VERTEX
  5
13B0
  8
DATA
  6
CONTINUOUS
 62
     7
 10
-451.21951774393631
 20
-72.10697556447036
 30
0.0
  0
VERTEX
  5
13B1
  8
DATA
  6
CONTINUOUS
 62
     7
 10
-450.67448323730088
 20
-72.013837707360054
 30
0.0
  0
VERTEX
  5
13B2
  8
DATA
  6
CONTINUOUS
 62
     7
 10
-450.12822173508908
 20
-71.923480084790356
 30
0.0
  0
VERTEX
  5
13B3
  8
DATA
  6
CONTINUOUS
 62
     7
 10
-449.5807332373011
 20
-71.835902696761281
 30
0.0
  0
VERTEX
  5
13B4
  8
DATA
  6
CONTINUOUS
 62
     7
 10
-449.03201774393648
 20
-71.7511055432728
 30
0.0
  0
VERTEX
  5
13B5
  8
DATA
  6
CONTINUOUS
 62
     7
 10
-448.48207525499561
 20
-71.6690886243249
 30
0.0
  0
VERTEX
  5
13B6
  8
DATA
  6
CONTINUOUS
 62
     7
 10
-447.93090577047832
 20
-71.589851939917622
 30
0.0
  0
VERTEX
  5
13B7
  8
DATA
  6
CONTINUOUS
 62
     7
 10
-447.3785092903849
 20
-71.513395490050954
 30
0.0
  0
VERTEX
  5
13B8
  8
DATA
  6
CONTINUOUS
 62
     7
 10
-446.82488581471512
 20
-71.439719274724908
 30
0.0
  0
VERTEX
  5
13B9
  8
DATA
  6
CONTINUOUS
 62
     7
 10
-446.27003534346881
 20
-71.368823293939442
 30
0.0
  0
VERTEX
  5
13BA
  8
DATA
  6
CONTINUOUS
 62
     7
 10
-445.71395787664619
 20
-71.300707547694543
 30
0.0
  0
VERTEX
  5
13BB
  8
DATA
  6
CONTINUOUS
 62
     7
 10
-445.15665341424722
 20
-71.235372035990338
 30
0.0
  0
VERTEX
  5
13BC
  8
DATA
  6
CONTINUOUS
 62
     7
 10
-444.59812195627188
 20
-71.172816758826684
 30
0.0
  0
VERTEX
  5
13BD
  8
DATA
  6
CONTINUOUS
 62
     7
 10
-444.0383635027203
 20
-71.113041716203668
 30
0.0
  0
VERTEX
  5
13BE
  8
DATA
  6
CONTINUOUS
 62
     7
 10
-443.47737805359219
 20
-71.056046908121232
 30
0.0
  0
VERTEX
  5
13BF
  8
DATA
  6
CONTINUOUS
 62
     7
 10
-442.915165608888
 20
-71.001832334579433
 30
0.0
  0
VERTEX
  5
13C0
  8
DATA
  6
CONTINUOUS
 62
     7
 10
-442.3517261686074
 20
-70.950397995578186
 30
0.0
  0
VERTEX
  5
13C1
  8
DATA
  6
CONTINUOUS
 62
     7
 10
-441.78705973275032
 20
-70.901743891117576
 30
0.0
  0
VERTEX
  5
13C2
  8
DATA
  6
CONTINUOUS
 62
     7
 10
-441.22116630131683
 20
-70.855870021197575
 30
0.0
  0
VERTEX
  5
13C3
  8
DATA
  6
CONTINUOUS
 62
     7
 10
-440.6540458743072
 20
-70.812776385818211
 30
0.0
  0
VERTEX
  5
13C4
  8
DATA
  6
CONTINUOUS
 62
     7
 10
-440.08569845172099
 20
-70.772462984979413
 30
0.0
  0
VERTEX
  5
13C5
  8
DATA
  6
CONTINUOUS
 62
     7
 10
-439.51612403355881
 20
-70.734929818681223
 30
0.0
  0
VERTEX
  5
13C6
  8
DATA
  6
CONTINUOUS
 62
     7
 10
-438.9453226198201
 20
-70.700176886923657
 30
0.0
  0
VERTEX
  5
13C7
  8
DATA
  6
CONTINUOUS
 62
     7
 10
-438.37329421050481
 20
-70.668204189706671
 30
0.0
  0
VERTEX
  5
13C8
  8
DATA
  6
CONTINUOUS
 62
     7
 10
-437.80003880561338
 20
-70.639011727030322
 30
0.0
  0
VERTEX
  5
13C9
  8
DATA
  6
CONTINUOUS
 62
     7
 10
-437.22555640514571
 20
-70.612599498894554
 30
0.0
  0
VERTEX
  5
13CA
  8
DATA
  6
CONTINUOUS
 62
     7
 10
-436.64984700910139
 20
-70.588967505299394
 30
0.0
  0
VERTEX
  5
13CB
  8
DATA
  6
CONTINUOUS
 62
     7
 10
-436.072910617481
 20
-70.568115746244885
 30
0.0
  0
VERTEX
  5
13CC
  8
DATA
  6
CONTINUOUS
 62
     7
 10
-435.49474723028419
 20
-70.550044221730914
 30
0.0
  0
VERTEX
  5
13CD
  8
DATA
  6
CONTINUOUS
 62
     7
 10
-434.91535684751102
 20
-70.534752931757566
 30
0.0
  0
VERTEX
  5
13CE
  8
DATA
  6
CONTINUOUS
 62
     7
 10
-434.33473946916149
 20
-70.522241876324841
 30
0.0
  0
VERTEX
  5
13CF
  8
DATA
  6
CONTINUOUS
 62
     7
 10
-433.75289509523549
 20
-70.512511055432753
 30
0.0
  0
VERTEX
  5
13D0
  8
DATA
  6
CONTINUOUS
 62
     7
 10
-433.16982372573341
 20
-70.505560469081217
 30
0.0
  0
VERTEX
  5
13D1
  8
DATA
  6
CONTINUOUS
 62
     7
 10
-432.5855253606548
 20
-70.501390117270319
 30
0.0
  0
VERTEX
  5
13D2
  8
DATA
  6
CONTINUOUS
 62
     7
 10
-432.0
 20
-70.5
 30
0.0
  0
VERTEX
  5
13D3
  8
DATA
  6
CONTINUOUS
 62
     7
 10
-431.41447463934492
 20
-70.501390117270319
 30
0.0
  0
VERTEX
  5
13D4
  8
DATA
  6
CONTINUOUS
 62
     7
 10
-430.83017627426648
 20
-70.505560469081217
 30
0.0
  0
VERTEX
  5
13D5
  8
DATA
  6
CONTINUOUS
 62
     7
 10
-430.24710490476423
 20
-70.512511055432753
 30
0.0
  0
VERTEX
  5
13D6
  8
DATA
  6
CONTINUOUS
 62
     7
 10
-429.66526053083828
 20
-70.522241876324841
 30
0.0
  0
VERTEX
  5
13D7
  8
DATA
  6
CONTINUOUS
 62
     7
 10
-429.08464315248881
 20
-70.534752931757566
 30
0.0
  0
VERTEX
  5
13D8
  8
DATA
  6
CONTINUOUS
 62
     7
 10
-428.50525276971558
 20
-70.550044221730914
 30
0.0
  0
VERTEX
  5
13D9
  8
DATA
  6
CONTINUOUS
 62
     7
 10
-427.92708938251877
 20
-70.568115746244885
 30
0.0
  0
VERTEX
  5
13DA
  8
DATA
  6
CONTINUOUS
 62
     7
 10
-427.35015299089821
 20
-70.588967505299394
 30
0.0
  0
VERTEX
  5
13DB
  8
DATA
  6
CONTINUOUS
 62
     7
 10
-426.77444359485412
 20
-70.612599498894554
 30
0.0
  0
VERTEX
  5
13DC
  8
DATA
  6
CONTINUOUS
 62
     7
 10
-426.19996119438628
 20
-70.639011727030322
 30
0.0
  0
VERTEX
  5
13DD
  8
DATA
  6
CONTINUOUS
 62
     7
 10
-425.62670578949479
 20
-70.668204189706671
 30
0.0
  0
VERTEX
  5
13DE
  8
DATA
  6
CONTINUOUS
 62
     7
 10
-425.0546773801799
 20
-70.700176886923657
 30
0.0
  0
VERTEX
  5
13DF
  8
DATA
  6
CONTINUOUS
 62
     7
 10
-424.48387596644108
 20
-70.734929818681223
 30
0.0
  0
VERTEX
  5
13E0
  8
DATA
  6
CONTINUOUS
 62
     7
 10
-423.91430154827862
 20
-70.772462984979413
 30
0.0
  0
VERTEX
  5
13E1
  8
DATA
  6
CONTINUOUS
 62
     7
 10
-423.3459541256928
 20
-70.812776385818211
 30
0.0
  0
VERTEX
  5
13E2
  8
DATA
  6
CONTINUOUS
 62
     7
 10
-422.77883369868277
 20
-70.855870021197575
 30
0.0
  0
VERTEX
  5
13E3
  8
DATA
  6
CONTINUOUS
 62
     7
 10
-422.21294026724962
 20
-70.901743891117576
 30
0.0
  0
VERTEX
  5
13E4
  8
DATA
  6
CONTINUOUS
 62
     7
 10
-421.64827383139271
 20
-70.950397995578186
 30
0.0
  0
VERTEX
  5
13E5
  8
DATA
  6
CONTINUOUS
 62
     7
 10
-421.084834391112
 20
-71.001832334579433
 30
0.0
  0
VERTEX
  5
13E6
  8
DATA
  6
CONTINUOUS
 62
     7
 10
-420.52262194640758
 20
-71.056046908121232
 30
0.0
  0
VERTEX
  5
13E7
  8
DATA
  6
CONTINUOUS
 62
     7
 10
-419.96163649727959
 20
-71.113041716203668
 30
0.0
  0
VERTEX
  5
13E8
  8
DATA
  6
CONTINUOUS
 62
     7
 10
-419.40187804372789
 20
-71.172816758826684
 30
0.0
  0
VERTEX
  5
13E9
  8
DATA
  6
CONTINUOUS
 62
     7
 10
-418.84334658575273
 20
-71.235372035990338
 30
0.0
  0
VERTEX
  5
13EA
  8
DATA
  6
CONTINUOUS
 62
     7
 10
-418.28604212335358
 20
-71.300707547694543
 30
0.0
  0
VERTEX
  5
13EB
  8
DATA
  6
CONTINUOUS
 62
     7
 10
-417.72996465653119
 20
-71.368823293939442
 30
0.0
  0
VERTEX
  5
13EC
  8
DATA
  6
CONTINUOUS
 62
     7
 10
-417.17511418528488
 20
-71.439719274724908
 30
0.0
  0
VERTEX
  5
13ED
  8
DATA
  6
CONTINUOUS
 62
     7
 10
-416.6214907096151
 20
-71.513395490050954
 30
0.0
  0
VERTEX
  5
13EE
  8
DATA
  6
CONTINUOUS
 62
     7
 10
-416.0690942295214
 20
-71.589851939917622
 30
0.0
  0
VERTEX
  5
13EF
  8
DATA
  6
CONTINUOUS
 62
     7
 10
-415.51792474500428
 20
-71.6690886243249
 30
0.0
  0
VERTEX
  5
13F0
  8
DATA
  6
CONTINUOUS
 62
     7
 10
-414.96798225606329
 20
-71.7511055432728
 30
0.0
  0
VERTEX
  5
13F1
  8
DATA
  6
CONTINUOUS
 62
     7
 10
-414.41926676269878
 20
-71.835902696761281
 30
0.0
  0
VERTEX
  5
13F2
  8
DATA
  6
CONTINUOUS
 62
     7
 10
-413.87177826491069
 20
-71.923480084790356
 30
0.0
  0
VERTEX
  5
13F3
  8
DATA
  6
CONTINUOUS
 62
     7
 10
-413.32551676269878
 20
-72.013837707360054
 30
0.0
  0
VERTEX
  5
13F4
  8
DATA
  6
CONTINUOUS
 62
     7
 10
-412.78048225606341
 20
-72.10697556447036
 30
0.0
  0
VERTEX
  5
13F5
  8
DATA
  6
CONTINUOUS
 62
     7
 10
-412.23667474500422
 20
-72.202893656121262
 30
0.0
  0
VERTEX
  5
13F6
  8
DATA
  6
CONTINUOUS
 62
     7
 10
-411.69409422952128
 20
-72.301591982312772
 30
0.0
  0
VERTEX
  5
13F7
  8
DATA
  6
CONTINUOUS
 62
     7
 10
-411.1527407096151
 20
-72.403070543044933
 30
0.0
  0
VERTEX
  5
13F8
  8
DATA
  6
CONTINUOUS
 62
     7
 10
-410.612614185285
 20
-72.507329338317618
 30
0.0
  0
VERTEX
  5
13F9
  8
DATA
  6
CONTINUOUS
 62
     7
 10
-410.07371465653119
 20
-72.61436836813094
 30
0.0
  0
VERTEX
  5
13FA
  8
DATA
  6
CONTINUOUS
 62
     7
 10
-409.53604212335358
 20
-72.724187632484899
 30
0.0
  0
VERTEX
  5
13FB
  8
DATA
  6
CONTINUOUS
 62
     7
 10
-408.99959658575278
 20
-72.836787131379481
 30
0.0
  0
VERTEX
  5
13FC
  8
DATA
  6
CONTINUOUS
 62
     7
 10
-408.46437804372789
 20
-72.9521668648146
 30
0.0
  0
VERTEX
  5
13FD
  8
DATA
  6
CONTINUOUS
 62
     7
 10
-407.93038649727959
 20
-73.070326832790371
 30
0.0
  0
VERTEX
  5
13FE
  8
DATA
  6
CONTINUOUS
 62
     7
 10
-407.3976219464077
 20
-73.191267035306737
 30
0.0
  0
VERTEX
  5
13FF
  8
DATA
  6
CONTINUOUS
 62
     7
 10
-406.866084391112
 20
-73.314987472363697
 30
0.0
  0
VERTEX
  5
1400
  8
DATA
  6
CONTINUOUS
 62
     7
 10
-406.33577383139283
 20
-73.441488143961294
 30
0.0
  0
VERTEX
  5
1401
  8
DATA
  6
CONTINUOUS
 62
     7
 10
-405.80669026724962
 20
-73.5707690500995
 30
0.0
  0
VERTEX
  5
1402
  8
DATA
  6
CONTINUOUS
 62
     7
 10
-405.278833698683
 20
-73.702830190778272
 30
0.0
  0
VERTEX
  5
1403
  8
DATA
  6
CONTINUOUS
 62
     7
 10
-404.75220412569291
 20
-73.837671565997653
 30
0.0
  0
VERTEX
  5
1404
  8
DATA
  6
CONTINUOUS
 62
     7
 10
-404.2268015482789
 20
-73.975293175757656
 30
0.0
  0
VERTEX
  5
1405
  8
DATA
  6
CONTINUOUS
 62
     7
 10
-403.70262596644108
 20
-74.115695020058297
 30
0.0
  0
VERTEX
  5
1406
  8
DATA
  6
CONTINUOUS
 62
     7
 10
-403.1796773801799
 20
-74.258877098899475
 30
0.0
  0
VERTEX
  5
1407
  8
DATA
  6
CONTINUOUS
 62
     7
 10
-402.65795578949519
 20
-74.404839412281333
 30
0.0
  0
VERTEX
  5
1408
  8
DATA
  6
CONTINUOUS
 62
     7
 10
-402.13746119438662
 20
-74.553581960203729
 30
0.0
  0
VERTEX
  5
1409
  8
DATA
  6
CONTINUOUS
 62
     7
 10
-401.61819359485429
 20
-74.705104742666734
 30
0.0
  0
VERTEX
  5
140A
  8
DATA
  6
CONTINUOUS
 62
     7
 10
-401.10015299089821
 20
-74.859407759670432
 30
0.0
  0
VERTEX
  5
140B
  8
DATA
  6
CONTINUOUS
 62
     7
 10
-400.58333938251877
 20
-75.016491011214683
 30
0.0
  0
VERTEX
  5
140C
  8
DATA
  6
CONTINUOUS
 62
     7
 10
-400.06775276971558
 20
-75.176354497299542
 30
0.0
  0
VERTEX
  5
140D
  8
DATA
  6
CONTINUOUS
 62
     7
 10
-399.55339315248892
 20
-75.338998217924981
 30
0.0
  0
VERTEX
  5
140E
  8
DATA
  6
CONTINUOUS
 62
     7
 10
-399.04026053083851
 20
-75.504422173091058
 30
0.0
  0
VERTEX
  5
140F
  8
DATA
  6
CONTINUOUS
 62
     7
 10
-398.5283549047644
 20
-75.672626362797743
 30
0.0
  0
VERTEX
  5
1410
  8
DATA
  6
CONTINUOUS
 62
     7
 10
-398.01767627426648
 20
-75.843610787045009
 30
0.0
  0
VERTEX
  5
1411
  8
DATA
  6
CONTINUOUS
 62
     7
 10
-397.50822463934509
 20
-76.017375445832911
 30
0.0
  0
VERTEX
  5
1412
  8
DATA
  6
CONTINUOUS
 62
     7
 10
-397.0
 20
-76.193920339161352
 30
0.0
  0
VERTEX
  5
1413
  8
DATA
  6
CONTINUOUS
 62
     7
 10
-396.49406496557077
 20
-76.37287298623049
 30
0.0
  0
VERTEX
  5
1414
  8
DATA
  6
CONTINUOUS
 62
     7
 10
-395.99148214539667
 20
-76.553860906240303
 30
0.0
  0
VERTEX
  5
1415
  8
DATA
  6
CONTINUOUS
 62
     7
 10
-395.49225153947782
 20
-76.736884099190775
 30
0.0
  0
VERTEX
  5
1416
  8
DATA
  6
CONTINUOUS
 62
     7
 10
-394.99637314781432
 20
-76.921942565081935
 30
0.0
  0
VERTEX
  5
1417
  8
DATA
  6
CONTINUOUS
 62
     7
 10
-394.5038469704059
 20
-77.109036303913854
 30
0.0
  0
VERTEX
  5
1418
  8
DATA
  6
CONTINUOUS
 62
     7
 10
-394.01467300725278
 20
-77.29816531568639
 30
0.0
  0
VERTEX
  5
1419
  8
DATA
  6
CONTINUOUS
 62
     7
 10
-393.52885125835502
 20
-77.489329600399628
 30
0.0
  0
VERTEX
  5
141A
  8
DATA
  6
CONTINUOUS
 62
     7
 10
-393.04638172371222
 20
-77.682529158053498
 30
0.0
  0
VERTEX
  5
141B
  8
DATA
  6
CONTINUOUS
 62
     7
 10
-392.56726440332488
 20
-77.877763988648084
 30
0.0
  0
VERTEX
  5
141C
  8
DATA
  6
CONTINUOUS
 62
     7
 10
-392.0914992971928
 20
-78.075034092183358
 30
0.0
  0
VERTEX
  5
141D
  8
DATA
  6
CONTINUOUS
 62
     7
 10
-391.6190864053159
 20
-78.274339468659321
 30
0.0
  0
VERTEX
  5
141E
  8
DATA
  6
CONTINUOUS
 62
     7
 10
-391.1500257276943
 20
-78.475680118075957
 30
0.0
  0
VERTEX
  5
141F
  8
DATA
  6
CONTINUOUS
 62
     7
 10
-390.68431726432777
 20
-78.679056040433295
 30
0.0
  0
VERTEX
  5
1420
  8
DATA
  6
CONTINUOUS
 62
     7
 10
-390.22196101521661
 20
-78.884467235731279
 30
0.0
  0
VERTEX
  5
1421
  8
DATA
  6
CONTINUOUS
 62
     7
 10
-389.7629569803608
 20
-79.091913703969951
 30
0.0
  0
VERTEX
  5
1422
  8
DATA
  6
CONTINUOUS
 62
     7
 10
-389.30730515976001
 20
-79.301395445149296
 30
0.0
  0
VERTEX
  5
1423
  8
DATA
  6
CONTINUOUS
 62
     7
 10
-388.85500555341451
 20
-79.51291245926933
 30
0.0
  0
VERTEX
  5
1424
  8
DATA
  6
CONTINUOUS
 62
     7
 10
-388.40605816132438
 20
-79.726464746330052
 30
0.0
  0
VERTEX
  5
1425
  8
DATA
  6
CONTINUOUS
 62
     7
 10
-387.96046298348938
 20
-79.942052306331448
 30
0.0
  0
VERTEX
  5
1426
  8
DATA
  6
CONTINUOUS
 62
     7
 10
-387.51822001990968
 20
-80.159675139273546
 30
0.0
  0
VERTEX
  5
1427
  8
DATA
  6
CONTINUOUS
 62
     7
 10
-387.07932927058522
 20
-80.379333245156303
 30
0.0
  0
VERTEX
  5
1428
  8
DATA
  6
CONTINUOUS
 62
     7
 10
-386.64379073551589
 20
-80.601026623979763
 30
0.0
  0
VERTEX
  5
1429
  8
DATA
  6
CONTINUOUS
 62
     7
 10
-386.21160441470192
 20
-80.824755275743883
 30
0.0
  0
VERTEX
  5
142A
  8
DATA
  6
CONTINUOUS
 62
     7
 10
-385.78277030814309
 20
-81.050519200448704
 30
0.0
  0
VERTEX
  5
142B
  8
DATA
  6
CONTINUOUS
 62
     7
 10
-385.35728841583961
 20
-81.2783183980942
 30
0.0
  0
VERTEX
  5
142C
  8
DATA
  6
CONTINUOUS
 62
     7
 10
-384.9351587377912
 20
-81.508152868680341
 30
0.0
  0
VERTEX
  5
142D
  8
DATA
  6
CONTINUOUS
 62
     7
 10
-384.51638127399832
 20
-81.740022612207227
 30
0.0
  0
VERTEX
  5
142E
  8
DATA
  6
CONTINUOUS
 62
     7
 10
-384.1009560244604
 20
-81.973927628674716
 30
0.0
  0
VERTEX
  5
142F
  8
DATA
  6
CONTINUOUS
 62
     7
 10
-383.68888298917778
 20
-82.209867918082978
 30
0.0
  0
VERTEX
  5
1430
  8
DATA
  6
CONTINUOUS
 62
     7
 10
-383.28016216815053
 20
-82.447843480431857
 30
0.0
  0
VERTEX
  5
1431
  8
DATA
  6
CONTINUOUS
 62
     7
 10
-382.8747935613784
 20
-82.687854315721438
 30
0.0
  0
VERTEX
  5
1432
  8
DATA
  6
CONTINUOUS
 62
     7
 10
-382.47277716886163
 20
-82.929900423951707
 30
0.0
  0
VERTEX
  5
1433
  8
DATA
  6
CONTINUOUS
 62
     7
 10
-382.07411299059999
 20
-83.173981805122594
 30
0.0
  0
VERTEX
  5
1434
  8
DATA
  6
CONTINUOUS
 62
     7
 10
-381.6788010265937
 20
-83.420098459234254
 30
0.0
  0
VERTEX
  5
1435
  8
DATA
  6
CONTINUOUS
 62
     7
 10
-381.28684127684249
 20
-83.668250386286559
 30
0.0
  0
VERTEX
  5
1436
  8
DATA
  6
CONTINUOUS
 62
     7
 10
-380.89823374134659
 20
-83.918437586279538
 30
0.0
  0
VERTEX
  5
1437
  8
DATA
  6
CONTINUOUS
 62
     7
 10
-380.51297842010598
 20
-84.170660059213233
 30
0.0
  0
VERTEX
  5
1438
  8
DATA
  6
CONTINUOUS
 62
     7
 10
-380.13107531312068
 20
-84.424917805087546
 30
0.0
  0
VERTEX
  5
1439
  8
DATA
  6
CONTINUOUS
 62
     7
 10
-379.75252442039039
 20
-84.681210823902589
 30
0.0
  0
VERTEX
  5
143A
  8
DATA
  6
CONTINUOUS
 62
     7
 10
-379.37732574191551
 20
-84.939539115658306
 30
0.0
  0
VERTEX
  5
143B
  8
DATA
  6
CONTINUOUS
 62
     7
 10
-379.00547927769583
 20
-85.199902680354697
 30
0.0
  0
VERTEX
  5
143C
  8
DATA
  6
CONTINUOUS
 62
     7
 10
-378.63698502773133
 20
-85.462301517991776
 30
0.0
  0
VERTEX
  5
143D
  8
DATA
  6
CONTINUOUS
 62
     7
 10
-378.27184299202207
 20
-85.726735628569529
 30
0.0
  0
VERTEX
  5
143E
  8
DATA
  6
CONTINUOUS
 62
     7
 10
-377.91005317056818
 20
-85.993205012087984
 30
0.0
  0
VERTEX
  5
143F
  8
DATA
  6
CONTINUOUS
 62
     7
 10
-377.55161556336952
 20
-86.261709668547127
 30
0.0
  0
VERTEX
  5
1440
  8
DATA
  6
CONTINUOUS
 62
     7
 10
-377.196530170426
 20
-86.532249597946929
 30
0.0
  0
VERTEX
  5
1441
  8
DATA
  6
CONTINUOUS
 62
     7
 10
-376.84479699173772
 20
-86.804824800287406
 30
0.0
  0
VERTEX
  5
1442
  8
DATA
  6
CONTINUOUS
 62
     7
 10
-376.49641602730492
 20
-87.079435275568585
 30
0.0
  0
VERTEX
  5
1443
  8
DATA
  6
CONTINUOUS
 62
     7
 10
-376.15138727712679
 20
-87.356081023790438
 30
0.0
  0
VERTEX
  5
1444
  8
DATA
  6
CONTINUOUS
 62
     7
 10
-375.8097107412043
 20
-87.634762044952964
 30
0.0
  0
VERTEX
  5
1445
  8
DATA
  6
CONTINUOUS
 62
     7
 10
-375.47138641953711
 20
-87.915478339056236
 30
0.0
  0
VERTEX
  5
1446
  8
DATA
  6
CONTINUOUS
 62
     7
 10
-375.13641431212511
 20
-88.198229906100096
 30
0.0
  0
VERTEX
  5
1447
  8
DATA
  6
CONTINUOUS
 62
     7
 10
-374.8047944189683
 20
-88.483016746084672
 30
0.0
  0
VERTEX
  5
1448
  8
DATA
  6
CONTINUOUS
 62
     7
 10
-374.4765267400665
 20
-88.769838859009894
 30
0.0
  0
VERTEX
  5
1449
  8
DATA
  6
CONTINUOUS
 62
     7
 10
-374.15161127542041
 20
-89.058696244875875
 30
0.0
  0
VERTEX
  5
144A
  8
DATA
  6
CONTINUOUS
 62
     7
 10
-373.83004802502921
 20
-89.349588903682502
 30
0.0
  0
VERTEX
  5
144B
  8
DATA
  6
CONTINUOUS
 62
     7
 10
-373.51183698889349
 20
-89.642516835429817
 30
0.0
  0
VERTEX
  5
144C
  8
DATA
  6
CONTINUOUS
 62
     7
 10
-373.19697816701279
 20
-89.937480040117805
 30
0.0
  0
VERTEX
  5
144D
  8
DATA
  6
CONTINUOUS
 62
     7
 10
-372.8854715593875
 20
-90.234478517746481
 30
0.0
  0
VERTEX
  5
144E
  8
DATA
  6
CONTINUOUS
 62
     7
 10
-372.57731716601722
 20
-90.533512268315775
 30
0.0
  0
VERTEX
  5
144F
  8
DATA
  6
CONTINUOUS
 62
     7
 10
-372.27251498690248
 20
-90.834581291825785
 30
0.0
  0
VERTEX
  5
1450
  8
DATA
  6
CONTINUOUS
 62
     7
 10
-371.97106502204292
 20
-91.137685588276526
 30
0.0
  0
VERTEX
  5
1451
  8
DATA
  6
CONTINUOUS
 62
     7
 10
-371.67296727143838
 20
-91.442825157667926
 30
0.0
  0
VERTEX
  5
1452
  8
DATA
  6
CONTINUOUS
 62
     7
 10
-371.3782217350892
 20
-91.75
 30
0.0
  0
VERTEX
  5
1453
  8
DATA
  6
CONTINUOUS
 62
     7
 10
-371.08744191078353
 20
-92.058564959602407
 30
0.0
  0
VERTEX
  5
1454
  8
DATA
  6
CONTINUOUS
 62
     7
 10
-370.80124129630929
 20
-92.367874880804692
 30
0.0
  0
VERTEX
  5
1455
  8
DATA
  6
CONTINUOUS
 62
     7
 10
-370.51961989166682
 20
-92.677929763606926
 30
0.0
  0
VERTEX
  5
1456
  8
DATA
  6
CONTINUOUS
 62
     7
 10
-370.24257769685579
 20
-92.988729608009066
 30
0.0
  0
VERTEX
  5
1457
  8
DATA
  6
CONTINUOUS
 62
     7
 10
-369.97011471187631
 20
-93.300274414011142
 30
0.0
  0
VERTEX
  5
1458
  8
DATA
  6
CONTINUOUS
 62
     7
 10
-369.7022309367286
 20
-93.612564181613124
 30
0.0
  0
VERTEX
  5
1459
  8
DATA
  6
CONTINUOUS
 62
     7
 10
-369.43892637141232
 20
-93.925598910815054
 30
0.0
  0
VERTEX
  5
145A
  8
DATA
  6
CONTINUOUS
 62
     7
 10
-369.18020101592771
 20
-94.239378601616892
 30
0.0
  0
VERTEX
  5
145B
  8
DATA
  6
CONTINUOUS
 62
     7
 10
-368.92605487027458
 20
-94.553903254018707
 30
0.0
  0
VERTEX
  5
145C
  8
DATA
  6
CONTINUOUS
 62
     7
 10
-368.67648793445318
 20
-94.869172868020357
 30
0.0
  0
VERTEX
  5
145D
  8
DATA
  6
CONTINUOUS
 62
     7
 10
-368.43150020846332
 20
-95.185187443622027
 30
0.0
  0
VERTEX
  5
145E
  8
DATA
  6
CONTINUOUS
 62
     7
 10
-368.19109169230478
 20
-95.501946980823547
 30
0.0
  0
VERTEX
  5
145F
  8
DATA
  6
CONTINUOUS
 62
     7
 10
-367.9552623859783
 20
-95.819451479625002
 30
0.0
  0
VERTEX
  5
1460
  8
DATA
  6
CONTINUOUS
 62
     7
 10
-367.7240122894832
 20
-96.137700940026392
 30
0.0
  0
VERTEX
  5
1461
  8
DATA
  6
CONTINUOUS
 62
     7
 10
-367.4973414028197
 20
-96.456695362027745
 30
0.0
  0
VERTEX
  5
1462
  8
DATA
  6
CONTINUOUS
 62
     7
 10
-367.27524972598769
 20
-96.776434745629004
 30
0.0
  0
VERTEX
  5
1463
  8
DATA
  6
CONTINUOUS
 62
     7
 10
-367.05773725898729
 20
-97.096919090830156
 30
0.0
  0
VERTEX
  5
1464
  8
DATA
  6
CONTINUOUS
 62
     7
 10
-366.8448040018186
 20
-97.418148397631214
 30
0.0
  0
VERTEX
  5
1465
  8
DATA
  6
CONTINUOUS
 62
     7
 10
-366.63644995448141
 20
-97.740122666032292
 30
0.0
  0
VERTEX
  5
1466
  8
DATA
  6
CONTINUOUS
 62
     7
 10
-366.4326751169757
 20
-98.062841896033206
 30
0.0
  0
VERTEX
  5
1467
  8
DATA
  6
CONTINUOUS
 62
     7
 10
-366.23347948930183
 20
-98.386306087634097
 30
0.0
  0
VERTEX
  5
1468
  8
DATA
  6
CONTINUOUS
 62
     7
 10
-366.03886307145928
 20
-98.710515240834866
 30
0.0
  0
VERTEX
  5
1469
  8
DATA
  6
CONTINUOUS
 62
     7
 10
-365.84882586344872
 20
-99.03546935563557
 30
0.0
  0
VERTEX
  5
146A
  8
DATA
  6
CONTINUOUS
 62
     7
 10
-365.66336786526921
 20
-99.361168432036195
 30
0.0
  0
VERTEX
  5
146B
  8
DATA
  6
CONTINUOUS
 62
     7
 10
-365.48248907692158
 20
-99.687612470036754
 30
0.0
  0
VERTEX
  5
146C
  8
DATA
  6
CONTINUOUS
 62
     7
 10
-365.30618949840562
 20
-100.01480146963731
 30
0.0
  0
VERTEX
  5
146D
  8
DATA
  6
CONTINUOUS
 62
     7
 10
-365.13446912972091
 20
-100.34273543083771
 30
0.0
  0
VERTEX
  5
146E
  8
DATA
  6
CONTINUOUS
 62
     7
 10
-364.96732797086821
 20
-100.671414353638
 30
0.0
  0
VERTEX
  5
146F
  8
DATA
  6
CONTINUOUS
 62
     7
 10
-364.80476602184677
 20
-101.0008382380382
 30
0.0
  0
VERTEX
  5
1470
  8
DATA
  6
CONTINUOUS
 62
     7
 10
-364.64678328265711
 20
-101.3310070840385
 30
0.0
  0
VERTEX
  5
1471
  8
DATA
  6
CONTINUOUS
 62
     7
 10
-364.49337975329888
 20
-101.6619208916386
 30
0.0
  0
VERTEX
  5
1472
  8
DATA
  6
CONTINUOUS
 62
     7
 10
-364.34455543377231
 20
-101.99357966083861
 30
0.0
  0
VERTEX
  5
1473
  8
DATA
  6
CONTINUOUS
 62
     7
 10
-364.20031032407752
 20
-102.3259833916386
 30
0.0
  0
VERTEX
  5
1474
  8
DATA
  6
CONTINUOUS
 62
     7
 10
-364.06064442421382
 20
-102.6591320840385
 30
0.0
  0
VERTEX
  5
1475
  8
DATA
  6
CONTINUOUS
 62
     7
 10
-363.92555773418212
 20
-102.9930257380383
 30
0.0
  0
VERTEX
  5
1476
  8
DATA
  6
CONTINUOUS
 62
     7
 10
-363.79505025398191
 20
-103.327664353638
 30
0.0
  0
VERTEX
  5
1477
  8
DATA
  6
CONTINUOUS
 62
     7
 10
-363.66912198361331
 20
-103.66304793083771
 30
0.0
  0
VERTEX
  5
1478
  8
DATA
  6
CONTINUOUS
 62
     7
 10
-363.5477729230762
 20
-103.99917646963731
 30
0.0
  0
VERTEX
  5
1479
  8
DATA
  6
CONTINUOUS
 62
     7
 10
-363.43100307237057
 20
-104.3360499700367
 30
0.0
  0
VERTEX
  5
147A
  8
DATA
  6
CONTINUOUS
 62
     7
 10
-363.31881243149689
 20
-104.67366843203619
 30
0.0
  0
VERTEX
  5
147B
  8
DATA
  6
CONTINUOUS
 62
     7
 10
-363.21120100045471
 20
-105.0120318556355
 30
0.0
  0
VERTEX
  5
147C
  8
DATA
  6
CONTINUOUS
 62
     7
 10
-363.10816877924401
 20
-105.35114024083479
 30
0.0
  0
VERTEX
  5
147D
  8
DATA
  6
CONTINUOUS
 62
     7
 10
-363.0097157678648
 20
-105.690993587634
 30
0.0
  0
VERTEX
  5
147E
  8
DATA
  6
CONTINUOUS
 62
     7
 10
-362.9158419663172
 20
-106.03159189603321
 30
0.0
  0
VERTEX
  5
147F
  8
DATA
  6
CONTINUOUS
 62
     7
 10
-362.82654737460138
 20
-106.37293516603231
 30
0.0
  0
VERTEX
  5
1480
  8
DATA
  6
CONTINUOUS
 62
     7
 10
-362.74183199271693
 20
-106.7150233976313
 30
0.0
  0
VERTEX
  5
1481
  8
DATA
  6
CONTINUOUS
 62
     7
 10
-362.66169582066419
 20
-107.0578565908301
 30
0.0
  0
VERTEX
  5
1482
  8
DATA
  6
CONTINUOUS
 62
     7
 10
-362.58613885844312
 20
-107.401434745629
 30
0.0
  0
VERTEX
  5
1483
  8
DATA
  6
CONTINUOUS
 62
     7
 10
-362.51516110605348
 20
-107.7457578620277
 30
0.0
  0
VERTEX
  5
1484
  8
DATA
  6
CONTINUOUS
 62
     7
 10
-362.44876256349551
 20
-108.09082594002641
 30
0.0
  0
VERTEX
  5
1485
  8
DATA
  6
CONTINUOUS
 62
     7
 10
-362.38694323076902
 20
-108.436638979625
 30
0.0
  0
VERTEX
  5
1486
  8
DATA
  6
CONTINUOUS
 62
     7
 10
-362.32970310787431
 20
-108.7831969808235
 30
0.0
  0
VERTEX
  5
1487
  8
DATA
  6
CONTINUOUS
 62
     7
 10
-362.27704219481109
 20
-109.130499943622
 30
0.0
  0
VERTEX
  5
1488
  8
DATA
  6
CONTINUOUS
 62
     7
 10
-362.22896049157941
 20
-109.4785478680203
 30
0.0
  0
VERTEX
  5
1489
  8
DATA
  6
CONTINUOUS
 62
     7
 10
-362.18545799817917
 20
-109.82734075401871
 30
0.0
  0
VERTEX
  5
148A
  8
DATA
  6
CONTINUOUS
 62
     7
 10
-362.14653471461082
 20
-110.17687860161691
 30
0.0
  0
VERTEX
  5
148B
  8
DATA
  6
CONTINUOUS
 62
     7
 10
-362.11219064087368
 20
-110.527161410815
 30
0.0
  0
VERTEX
  5
148C
  8
DATA
  6
CONTINUOUS
 62
     7
 10
-362.08242577696848
 20
-110.8781891816131
 30
0.0
  0
VERTEX
  5
148D
  8
DATA
  6
CONTINUOUS
 62
     7
 10
-362.05724012289483
 20
-111.2299619140111
 30
0.0
  0
VERTEX
  5
148E
  8
DATA
  6
CONTINUOUS
 62
     7
 10
-362.03663367865272
 20
-111.582479608009
 30
0.0
  0
VERTEX
  5
148F
  8
DATA
  6
CONTINUOUS
 62
     7
 10
-362.02060644424228
 20
-111.9357422636069
 30
0.0
  0
VERTEX
  5
1490
  8
DATA
  6
CONTINUOUS
 62
     7
 10
-362.00915841966309
 20
-112.28974988080471
 30
0.0
  0
VERTEX
  5
1491
  8
DATA
  6
CONTINUOUS
 62
     7
 10
-362.0022896049158
 20
-112.64450245960241
 30
0.0
  0
VERTEX
  5
1492
  8
DATA
  6
CONTINUOUS
 62
     7
 10
-362.0
 20
-113.0
 30
0.0
  0
VERTEX
  5
1493
  8
DATA
  6
CONTINUOUS
 62
     7
 10
-362.0022896049158
 20
-113.35549754039759
 30
0.0
  0
VERTEX
  5
1494
  8
DATA
  6
CONTINUOUS
 62
     7
 10
-362.00915841966309
 20
-113.71025011919529
 30
0.0
  0
VERTEX
  5
1495
  8
DATA
  6
CONTINUOUS
 62
     7
 10
-362.02060644424228
 20
-114.0642577363931
 30
0.0
  0
VERTEX
  5
1496
  8
DATA
  6
CONTINUOUS
 62
     7
 10
-362.03663367865272
 20
-114.41752039199091
 30
0.0
  0
VERTEX
  5
1497
  8
DATA
  6
CONTINUOUS
 62
     7
 10
-362.05724012289483
 20
-114.7700380859888
 30
0.0
  0
VERTEX
  5
1498
  8
DATA
  6
CONTINUOUS
 62
     7
 10
-362.08242577696848
 20
-115.1218108183869
 30
0.0
  0
VERTEX
  5
1499
  8
DATA
  6
CONTINUOUS
 62
     7
 10
-362.11219064087368
 20
-115.4728385891849
 30
0.0
  0
VERTEX
  5
149A
  8
DATA
  6
CONTINUOUS
 62
     7
 10
-362.14653471461082
 20
-115.82312139838309
 30
0.0
  0
VERTEX
  5
149B
  8
DATA
  6
CONTINUOUS
 62
     7
 10
-362.18545799817917
 20
-116.17265924598129
 30
0.0
  0
VERTEX
  5
149C
  8
DATA
  6
CONTINUOUS
 62
     7
 10
-362.22896049157941
 20
-116.5214521319797
 30
0.0
  0
VERTEX
  5
149D
  8
DATA
  6
CONTINUOUS
 62
     7
 10
-362.27704219481109
 20
-116.869500056378
 30
0.0
  0
VERTEX
  5
149E
  8
DATA
  6
CONTINUOUS
 62
     7
 10
-362.32970310787431
 20
-117.2168030191765
 30
0.0
  0
VERTEX
  5
149F
  8
DATA
  6
CONTINUOUS
 62
     7
 10
-362.38694323076902
 20
-117.563361020375
 30
0.0
  0
VERTEX
  5
14A0
  8
DATA
  6
CONTINUOUS
 62
     7
 10
-362.44876256349551
 20
-117.90917405997349
 30
0.0
  0
VERTEX
  5
14A1
  8
DATA
  6
CONTINUOUS
 62
     7
 10
-362.51516110605348
 20
-118.2542421379722
 30
0.0
  0
VERTEX
  5
14A2
  8
DATA
  6
CONTINUOUS
 62
     7
 10
-362.58613885844312
 20
-118.598565254371
 30
0.0
  0
VERTEX
  5
14A3
  8
DATA
  6
CONTINUOUS
 62
     7
 10
-362.66169582066419
 20
-118.9421434091698
 30
0.0
  0
VERTEX
  5
14A4
  8
DATA
  6
CONTINUOUS
 62
     7
 10
-362.74183199271693
 20
-119.2849766023687
 30
0.0
  0
VERTEX
  5
14A5
  8
DATA
  6
CONTINUOUS
 62
     7
 10
-362.82654737460138
 20
-119.62706483396769
 30
0.0
  0
VERTEX
  5
14A6
  8
DATA
  6
CONTINUOUS
 62
     7
 10
-362.9158419663172
 20
-119.96840810396679
 30
0.0
  0
VERTEX
  5
14A7
  8
DATA
  6
CONTINUOUS
 62
     7
 10
-363.0097157678648
 20
-120.3090064123659
 30
0.0
  0
VERTEX
  5
14A8
  8
DATA
  6
CONTINUOUS
 62
     7
 10
-363.10816877924401
 20
-120.64885975916511
 30
0.0
  0
VERTEX
  5
14A9
  8
DATA
  6
CONTINUOUS
 62
     7
 10
-363.21120100045471
 20
-120.9879681443644
 30
0.0
  0
VERTEX
  5
14AA
  8
DATA
  6
CONTINUOUS
 62
     7
 10
-363.31881243149689
 20
-121.32633156796371
 30
0.0
  0
VERTEX
  5
14AB
  8
DATA
  6
CONTINUOUS
 62
     7
 10
-363.43100307237057
 20
-121.6639500299632
 30
0.0
  0
VERTEX
  5
14AC
  8
DATA
  6
CONTINUOUS
 62
     7
 10
-363.5477729230762
 20
-122.00082353036269
 30
0.0
  0
VERTEX
  5
14AD
  8
DATA
  6
CONTINUOUS
 62
     7
 10
-363.66912198361331
 20
-122.33695206916229
 30
0.0
  0
VERTEX
  5
14AE
  8
DATA
  6
CONTINUOUS
 62
     7
 10
-363.79505025398191
 20
-122.6723356463619
 30
0.0
  0
VERTEX
  5
14AF
  8
DATA
  6
CONTINUOUS
 62
     7
 10
-363.92555773418212
 20
-123.0069742619617
 30
0.0
  0
VERTEX
  5
14B0
  8
DATA
  6
CONTINUOUS
 62
     7
 10
-364.06064442421382
 20
-123.3408679159615
 30
0.0
  0
VERTEX
  5
14B1
  8
DATA
  6
CONTINUOUS
 62
     7
 10
-364.20031032407752
 20
-123.6740166083614
 30
0.0
  0
VERTEX
  5
14B2
  8
DATA
  6
CONTINUOUS
 62
     7
 10
-364.34455543377231
 20
-124.00642033916129
 30
0.0
  0
VERTEX
  5
14B3
  8
DATA
  6
CONTINUOUS
 62
     7
 10
-364.49337975329888
 20
-124.3380791083614
 30
0.0
  0
VERTEX
  5
14B4
  8
DATA
  6
CONTINUOUS
 62
     7
 10
-364.64678328265711
 20
-124.6689929159615
 30
0.0
  0
VERTEX
  5
14B5
  8
DATA
  6
CONTINUOUS
 62
     7
 10
-364.80476602184677
 20
-124.9991617619617
 30
0.0
  0
VERTEX
  5
14B6
  8
DATA
  6
CONTINUOUS
 62
     7
 10
-364.96732797086821
 20
-125.3285856463619
 30
0.0
  0
VERTEX
  5
14B7
  8
DATA
  6
CONTINUOUS
 62
     7
 10
-365.13446912972091
 20
-125.65726456916229
 30
0.0
  0
VERTEX
  5
14B8
  8
DATA
  6
CONTINUOUS
 62
     7
 10
-365.30618949840562
 20
-125.9851985303626
 30
0.0
  0
VERTEX
  5
14B9
  8
DATA
  6
CONTINUOUS
 62
     7
 10
-365.48248907692158
 20
-126.3123875299632
 30
0.0
  0
VERTEX
  5
14BA
  8
DATA
  6
CONTINUOUS
 62
     7
 10
-365.66336786526921
 20
-126.63883156796371
 30
0.0
  0
VERTEX
  5
14BB
  8
DATA
  6
CONTINUOUS
 62
     7
 10
-365.84882586344872
 20
-126.9645306443644
 30
0.0
  0
VERTEX
  5
14BC
  8
DATA
  6
CONTINUOUS
 62
     7
 10
-366.03886307145928
 20
-127.28948475916511
 30
0.0
  0
VERTEX
  5
14BD
  8
DATA
  6
CONTINUOUS
 62
     7
 10
-366.23347948930183
 20
-127.6136939123659
 30
0.0
  0
VERTEX
  5
14BE
  8
DATA
  6
CONTINUOUS
 62
     7
 10
-366.4326751169757
 20
-127.93715810396679
 30
0.0
  0
VERTEX
  5
14BF
  8
DATA
  6
CONTINUOUS
 62
     7
 10
-366.63644995448141
 20
-128.25987733396769
 30
0.0
  0
VERTEX
  5
14C0
  8
DATA
  6
CONTINUOUS
 62
     7
 10
-366.8448040018186
 20
-128.58185160236869
 30
0.0
  0
VERTEX
  5
14C1
  8
DATA
  6
CONTINUOUS
 62
     7
 10
-367.05773725898729
 20
-128.9030809091698
 30
0.0
  0
VERTEX
  5
14C2
  8
DATA
  6
CONTINUOUS
 62
     7
 10
-367.27524972598769
 20
-129.2235652543709
 30
0.0
  0
VERTEX
  5
14C3
  8
DATA
  6
CONTINUOUS
 62
     7
 10
-367.4973414028197
 20
-129.5433046379722
 30
0.0
  0
VERTEX
  5
14C4
  8
DATA
  6
CONTINUOUS
 62
     7
 10
-367.7240122894832
 20
-129.86229905997351
 30
0.0
  0
VERTEX
  5
14C5
  8
DATA
  6
CONTINUOUS
 62
     7
 10
-367.9552623859783
 20
-130.180548520375
 30
0.0
  0
VERTEX
  5
14C6
  8
DATA
  6
CONTINUOUS
 62
     7
 10
-368.19109169230478
 20
-130.4980530191765
 30
0.0
  0
VERTEX
  5
14C7
  8
DATA
  6
CONTINUOUS
 62
     7
 10
-368.43150020846332
 20
-130.814812556378
 30
0.0
  0
VERTEX
  5
14C8
  8
DATA
  6
CONTINUOUS
 62
     7
 10
-368.67648793445318
 20
-131.13082713197969
 30
0.0
  0
VERTEX
  5
14C9
  8
DATA
  6
CONTINUOUS
 62
     7
 10
-368.92605487027458
 20
-131.44609674598141
 30
0.0
  0
VERTEX
  5
14CA
  8
DATA
  6
CONTINUOUS
 62
     7
 10
-369.18020101592771
 20
-131.76062139838311
 30
0.0
  0
VERTEX
  5
14CB
  8
DATA
  6
CONTINUOUS
 62
     7
 10
-369.43892637141232
 20
-132.0744010891849
 30
0.0
  0
VERTEX
  5
14CC
  8
DATA
  6
CONTINUOUS
 62
     7
 10
-369.7022309367286
 20
-132.38743581838679
 30
0.0
  0
VERTEX
  5
14CD
  8
DATA
  6
CONTINUOUS
 62
     7
 10
-369.97011471187631
 20
-132.6997255859888
 30
0.0
  0
VERTEX
  5
14CE
  8
DATA
  6
CONTINUOUS
 62
     7
 10
-370.24257769685579
 20
-133.01127039199091
 30
0.0
  0
VERTEX
  5
14CF
  8
DATA
  6
CONTINUOUS
 62
     7
 10
-370.51961989166682
 20
-133.3220702363931
 30
0.0
  0
VERTEX
  5
14D0
  8
DATA
  6
CONTINUOUS
 62
     7
 10
-370.80124129630929
 20
-133.63212511919531
 30
0.0
  0
VERTEX
  5
14D1
  8
DATA
  6
CONTINUOUS
 62
     7
 10
-371.08744191078353
 20
-133.94143504039749
 30
0.0
  0
VERTEX
  5
14D2
  8
DATA
  6
CONTINUOUS
 62
     7
 10
-371.3782217350892
 20
-134.25
 30
0.0
  0
VERTEX
  5
14D3
  8
DATA
  6
CONTINUOUS
 62
     7
 10
-371.67296727143838
 20
-134.55717484233199
 30
0.0
  0
VERTEX
  5
14D4
  8
DATA
  6
CONTINUOUS
 62
     7
 10
-371.97106502204292
 20
-134.86231441172339
 30
0.0
  0
VERTEX
  5
14D5
  8
DATA
  6
CONTINUOUS
 62
     7
 10
-372.27251498690248
 20
-135.16541870817409
 30
0.0
  0
VERTEX
  5
14D6
  8
DATA
  6
CONTINUOUS
 62
     7
 10
-372.57731716601722
 20
-135.4664877316842
 30
0.0
  0
VERTEX
  5
14D7
  8
DATA
  6
CONTINUOUS
 62
     7
 10
-372.8854715593875
 20
-135.7655214822536
 30
0.0
  0
VERTEX
  5
14D8
  8
DATA
  6
CONTINUOUS
 62
     7
 10
-373.19697816701279
 20
-136.0625199598822
 30
0.0
  0
VERTEX
  5
14D9
  8
DATA
  6
CONTINUOUS
 62
     7
 10
-373.51183698889349
 20
-136.3574831645702
 30
0.0
  0
VERTEX
  5
14DA
  8
DATA
  6
CONTINUOUS
 62
     7
 10
-373.83004802502921
 20
-136.6504110963175
 30
0.0
  0
VERTEX
  5
14DB
  8
DATA
  6
CONTINUOUS
 62
     7
 10
-374.15161127542041
 20
-136.94130375512401
 30
0.0
  0
VERTEX
  5
14DC
  8
DATA
  6
CONTINUOUS
 62
     7
 10
-374.4765267400665
 20
-137.23016114098999
 30
0.0
  0
VERTEX
  5
14DD
  8
DATA
  6
CONTINUOUS
 62
     7
 10
-374.8047944189683
 20
-137.5169832539153
 30
0.0
  0
VERTEX
  5
14DE
  8
DATA
  6
CONTINUOUS
 62
     7
 10
-375.13641431212511
 20
-137.8017700938999
 30
0.0
  0
VERTEX
  5
14DF
  8
DATA
  6
CONTINUOUS
 62
     7
 10
-375.47138641953711
 20
-138.08452166094381
 30
0.0
  0
VERTEX
  5
14E0
  8
DATA
  6
CONTINUOUS
 62
     7
 10
-375.8097107412043
 20
-138.36523795504701
 30
0.0
  0
VERTEX
  5
14E1
  8
DATA
  6
CONTINUOUS
 62
     7
 10
-376.15138727712679
 20
-138.64391897620951
 30
0.0
  0
VERTEX
  5
14E2
  8
DATA
  6
CONTINUOUS
 62
     7
 10
-376.49641602730492
 20
-138.9205647244313
 30
0.0
  0
VERTEX
  5
14E3
  8
DATA
  6
CONTINUOUS
 62
     7
 10
-376.84479699173772
 20
-139.19517519971239
 30
0.0
  0
VERTEX
  5
14E4
  8
DATA
  6
CONTINUOUS
 62
     7
 10
-377.196530170426
 20
-139.4677504020529
 30
0.0
  0
VERTEX
  5
14E5
  8
DATA
  6
CONTINUOUS
 62
     7
 10
-377.55161556336952
 20
-139.73829033145279
 30
0.0
  0
VERTEX
  5
14E6
  8
DATA
  6
CONTINUOUS
 62
     7
 10
-377.91005317056818
 20
-140.0067949879118
 30
0.0
  0
VERTEX
  5
14E7
  8
DATA
  6
CONTINUOUS
 62
     7
 10
-378.27184299202207
 20
-140.2732643714304
 30
0.0
  0
VERTEX
  5
14E8
  8
DATA
  6
CONTINUOUS
 62
     7
 10
-378.63698502773133
 20
-140.53769848200821
 30
0.0
  0
VERTEX
  5
14E9
  8
DATA
  6
CONTINUOUS
 62
     7
 10
-379.00547927769583
 20
-140.8000973196452
 30
0.0
  0
VERTEX
  5
14EA
  8
DATA
  6
CONTINUOUS
 62
     7
 10
-379.37732574191551
 20
-141.06046088434161
 30
0.0
  0
VERTEX
  5
14EB
  8
DATA
  6
CONTINUOUS
 62
     7
 10
-379.75252442039039
 20
-141.31878917609731
 30
0.0
  0
VERTEX
  5
14EC
  8
DATA
  6
CONTINUOUS
 62
     7
 10
-380.13107531312068
 20
-141.5750821949124
 30
0.0
  0
VERTEX
  5
14ED
  8
DATA
  6
CONTINUOUS
 62
     7
 10
-380.51297842010598
 20
-141.82933994078681
 30
0.0
  0
VERTEX
  5
14EE
  8
DATA
  6
CONTINUOUS
 62
     7
 10
-380.89823374134659
 20
-142.08156241372041
 30
0.0
  0
VERTEX
  5
14EF
  8
DATA
  6
CONTINUOUS
 62
     7
 10
-381.28684127684249
 20
-142.3317496137133
 30
0.0
  0
VERTEX
  5
14F0
  8
DATA
  6
CONTINUOUS
 62
     7
 10
-381.6788010265937
 20
-142.57990154076569
 30
0.0
  0
VERTEX
  5
14F1
  8
DATA
  6
CONTINUOUS
 62
     7
 10
-382.07411299059999
 20
-142.82601819487729
 30
0.0
  0
VERTEX
  5
14F2
  8
DATA
  6
CONTINUOUS
 62
     7
 10
-382.47277716886163
 20
-143.07009957604819
 30
0.0
  0
VERTEX
  5
14F3
  8
DATA
  6
CONTINUOUS
 62
     7
 10
-382.8747935613784
 20
-143.31214568427851
 30
0.0
  0
VERTEX
  5
14F4
  8
DATA
  6
CONTINUOUS
 62
     7
 10
-383.28016216815053
 20
-143.55215651956809
 30
0.0
  0
VERTEX
  5
14F5
  8
DATA
  6
CONTINUOUS
 62
     7
 10
-383.68888298917778
 20
-143.79013208191699
 30
0.0
  0
VERTEX
  5
14F6
  8
DATA
  6
CONTINUOUS
 62
     7
 10
-384.1009560244604
 20
-144.0260723713252
 30
0.0
  0
VERTEX
  5
14F7
  8
DATA
  6
CONTINUOUS
 62
     7
 10
-384.51638127399832
 20
-144.25997738779279
 30
0.0
  0
VERTEX
  5
14F8
  8
DATA
  6
CONTINUOUS
 62
     7
 10
-384.9351587377912
 20
-144.4918471313197
 30
0.0
  0
VERTEX
  5
14F9
  8
DATA
  6
CONTINUOUS
 62
     7
 10
-385.35728841583961
 20
-144.72168160190591
 30
0.0
  0
VERTEX
  5
14FA
  8
DATA
  6
CONTINUOUS
 62
     7
 10
-385.78277030814309
 20
-144.94948079955131
 30
0.0
  0
VERTEX
  5
14FB
  8
DATA
  6
CONTINUOUS
 62
     7
 10
-386.21160441470192
 20
-145.17524472425609
 30
0.0
  0
VERTEX
  5
14FC
  8
DATA
  6
CONTINUOUS
 62
     7
 10
-386.64379073551589
 20
-145.39897337602019
 30
0.0
  0
VERTEX
  5
14FD
  8
DATA
  6
CONTINUOUS
 62
     7
 10
-387.07932927058522
 20
-145.62066675484371
 30
0.0
  0
VERTEX
  5
14FE
  8
DATA
  6
CONTINUOUS
 62
     7
 10
-387.51822001990968
 20
-145.84032486072641
 30
0.0
  0
VERTEX
  5
14FF
  8
DATA
  6
CONTINUOUS
 62
     7
 10
-387.96046298348938
 20
-146.0579476936685
 30
0.0
  0
VERTEX
  5
1500
  8
DATA
  6
CONTINUOUS
 62
     7
 10
-388.40605816132438
 20
-146.27353525366991
 30
0.0
  0
VERTEX
  5
1501
  8
DATA
  6
CONTINUOUS
 62
     7
 10
-388.85500555341451
 20
-146.4870875407307
 30
0.0
  0
VERTEX
  5
1502
  8
DATA
  6
CONTINUOUS
 62
     7
 10
-389.30730515976001
 20
-146.6986045548507
 30
0.0
  0
VERTEX
  5
1503
  8
DATA
  6
CONTINUOUS
 62
     7
 10
-389.7629569803608
 20
-146.90808629603009
 30
0.0
  0
VERTEX
  5
1504
  8
DATA
  6
CONTINUOUS
 62
     7
 10
-390.22196101521661
 20
-147.11553276426869
 30
0.0
  0
VERTEX
  5
1505
  8
DATA
  6
CONTINUOUS
 62
     7
 10
-390.68431726432777
 20
-147.3209439595667
 30
0.0
  0
VERTEX
  5
1506
  8
DATA
  6
CONTINUOUS
 62
     7
 10
-391.1500257276943
 20
-147.52431988192399
 30
0.0
  0
VERTEX
  5
1507
  8
DATA
  6
CONTINUOUS
 62
     7
 10
-391.6190864053159
 20
-147.72566053134071
 30
0.0
  0
VERTEX
  5
1508
  8
DATA
  6
CONTINUOUS
 62
     7
 10
-392.0914992971928
 20
-147.92496590781661
 30
0.0
  0
VERTEX
  5
1509
  8
DATA
  6
CONTINUOUS
 62
     7
 10
-392.56726440332488
 20
-148.1222360113519
 30
0.0
  0
VERTEX
  5
150A
  8
DATA
  6
CONTINUOUS
 62
     7
 10
-393.04638172371222
 20
-148.3174708419464
 30
0.0
  0
VERTEX
  5
150B
  8
DATA
  6
CONTINUOUS
 62
     7
 10
-393.52885125835502
 20
-148.51067039960029
 30
0.0
  0
VERTEX
  5
150C
  8
DATA
  6
CONTINUOUS
 62
     7
 10
-394.01467300725278
 20
-148.70183468431361
 30
0.0
  0
VERTEX
  5
150D
  8
DATA
  6
CONTINUOUS
 62
     7
 10
-394.5038469704059
 20
-148.89096369608609
 30
0.0
  0
VERTEX
  5
150E
  8
DATA
  6
CONTINUOUS
 62
     7
 10
-394.99637314781432
 20
-149.07805743491781
 30
0.0
  0
VERTEX
  5
150F
  8
DATA
  6
CONTINUOUS
 62
     7
 10
-395.49225153947782
 20
-149.26311590080911
 30
0.0
  0
VERTEX
  5
1510
  8
DATA
  6
CONTINUOUS
 62
     7
 10
-395.99148214539667
 20
-149.4461390937596
 30
0.0
  0
VERTEX
  5
1511
  8
DATA
  6
CONTINUOUS
 62
     7
 10
-396.49406496557077
 20
-149.6271270137695
 30
0.0
  0
VERTEX
  5
1512
  8
DATA
  6
CONTINUOUS
 62
     7
 10
-397.0
 20
-149.80607966083861
 30
0.0
  0
VERTEX
  5
1513
  8
DATA
  6
CONTINUOUS
 62
     7
 10
-397.50822463934509
 20
-149.9826245541671
 30
0.0
  0
VERTEX
  5
1514
  8
DATA
  6
CONTINUOUS
 62
     7
 10
-398.01767627426648
 20
-150.15638921295499
 30
0.0
  0
VERTEX
  5
1515
  8
DATA
  6
CONTINUOUS
 62
     7
 10
-398.5283549047644
 20
-150.3273736372023
 30
0.0
  0
VERTEX
  5
1516
  8
DATA
  6
CONTINUOUS
 62
     7
 10
-399.04026053083851
 20
-150.49557782690891
 30
0.0
  0
VERTEX
  5
1517
  8
DATA
  6
CONTINUOUS
 62
     7
 10
-399.55339315248892
 20
-150.661001782075
 30
0.0
  0
VERTEX
  5
1518
  8
DATA
  6
CONTINUOUS
 62
     7
 10
-400.06775276971558
 20
-150.8236455027004
 30
0.0
  0
VERTEX
  5
1519
  8
DATA
  6
CONTINUOUS
 62
     7
 10
-400.58333938251877
 20
-150.98350898878539
 30
0.0
  0
VERTEX
  5
151A
  8
DATA
  6
CONTINUOUS
 62
     7
 10
-401.10015299089821
 20
-151.1405922403296
 30
0.0
  0
VERTEX
  5
151B
  8
DATA
  6
CONTINUOUS
 62
     7
 10
-401.61819359485429
 20
-151.2948952573332
 30
0.0
  0
VERTEX
  5
151C
  8
DATA
  6
CONTINUOUS
 62
     7
 10
-402.13746119438662
 20
-151.4464180397963
 30
0.0
  0
VERTEX
  5
151D
  8
DATA
  6
CONTINUOUS
 62
     7
 10
-402.65795578949519
 20
-151.59516058771871
 30
0.0
  0
VERTEX
  5
151E
  8
DATA
  6
CONTINUOUS
 62
     7
 10
-403.1796773801799
 20
-151.7411229011004
 30
0.0
  0
VERTEX
  5
151F
  8
DATA
  6
CONTINUOUS
 62
     7
 10
-403.70262596644108
 20
-151.88430497994159
 30
0.0
  0
VERTEX
  5
1520
  8
DATA
  6
CONTINUOUS
 62
     7
 10
-404.2268015482789
 20
-152.02470682424229
 30
0.0
  0
VERTEX
  5
1521
  8
DATA
  6
CONTINUOUS
 62
     7
 10
-404.75220412569291
 20
-152.16232843400229
 30
0.0
  0
VERTEX
  5
1522
  8
DATA
  6
CONTINUOUS
 62
     7
 10
-405.278833698683
 20
-152.29716980922171
 30
0.0
  0
VERTEX
  5
1523
  8
DATA
  6
CONTINUOUS
 62
     7
 10
-405.80669026724962
 20
-152.4292309499005
 30
0.0
  0
VERTEX
  5
1524
  8
DATA
  6
CONTINUOUS
 62
     7
 10
-406.33577383139283
 20
-152.55851185603871
 30
0.0
  0
VERTEX
  5
1525
  8
DATA
  6
CONTINUOUS
 62
     7
 10
-406.866084391112
 20
-152.6850125276363
 30
0.0
  0
VERTEX
  5
1526
  8
DATA
  6
CONTINUOUS
 62
     7
 10
-407.3976219464077
 20
-152.80873296469309
 30
0.0
  0
VERTEX
  5
1527
  8
DATA
  6
CONTINUOUS
 62
     7
 10
-407.93038649727959
 20
-152.9296731672095
 30
0.0
  0
VERTEX
  5
1528
  8
DATA
  6
CONTINUOUS
 62
     7
 10
-408.46437804372789
 20
-153.04783313518541
 30
0.0
  0
VERTEX
  5
1529
  8
DATA
  6
CONTINUOUS
 62
     7
 10
-408.99959658575278
 20
-153.16321286862041
 30
0.0
  0
VERTEX
  5
152A
  8
DATA
  6
CONTINUOUS
 62
     7
 10
-409.53604212335358
 20
-153.2758123675151
 30
0.0
  0
VERTEX
  5
152B
  8
DATA
  6
CONTINUOUS
 62
     7
 10
-410.07371465653119
 20
-153.38563163186899
 30
0.0
  0
VERTEX
  5
152C
  8
DATA
  6
CONTINUOUS
 62
     7
 10
-410.612614185285
 20
-153.4926706616823
 30
0.0
  0
VERTEX
  5
152D
  8
DATA
  6
CONTINUOUS
 62
     7
 10
-411.1527407096151
 20
-153.596929456955
 30
0.0
  0
VERTEX
  5
152E
  8
DATA
  6
CONTINUOUS
 62
     7
 10
-411.69409422952128
 20
-153.6984080176872
 30
0.0
  0
VERTEX
  5
152F
  8
DATA
  6
CONTINUOUS
 62
     7
 10
-412.23667474500422
 20
-153.79710634387871
 30
0.0
  0
VERTEX
  5
1530
  8
DATA
  6
CONTINUOUS
 62
     7
 10
-412.78048225606341
 20
-153.89302443552961
 30
0.0
  0
VERTEX
  5
1531
  8
DATA
  6
CONTINUOUS
 62
     7
 10
-413.32551676269878
 20
-153.9861622926399
 30
0.0
  0
VERTEX
  5
1532
  8
DATA
  6
CONTINUOUS
 62
     7
 10
-413.87177826491069
 20
-154.07651991520959
 30
0.0
  0
VERTEX
  5
1533
  8
DATA
  6
CONTINUOUS
 62
     7
 10
-414.41926676269878
 20
-154.16409730323869
 30
0.0
  0
VERTEX
  5
1534
  8
DATA
  6
CONTINUOUS
 62
     7
 10
-414.96798225606329
 20
-154.24889445672719
 30
0.0
  0
VERTEX
  5
1535
  8
DATA
  6
CONTINUOUS
 62
     7
 10
-415.51792474500428
 20
-154.3309113756751
 30
0.0
  0
VERTEX
  5
1536
  8
DATA
  6
CONTINUOUS
 62
     7
 10
-416.0690942295214
 20
-154.41014806008241
 30
0.0
  0
VERTEX
  5
1537
  8
DATA
  6
CONTINUOUS
 62
     7
 10
-416.6214907096151
 20
-154.4866045099491
 30
0.0
  0
VERTEX
  5
1538
  8
DATA
  6
CONTINUOUS
 62
     7
 10
-417.17511418528488
 20
-154.56028072527511
 30
0.0
  0
VERTEX
  5
1539
  8
DATA
  6
CONTINUOUS
 62
     7
 10
-417.72996465653119
 20
-154.63117670606059
 30
0.0
  0
VERTEX
  5
153A
  8
DATA
  6
CONTINUOUS
 62
     7
 10
-418.28604212335358
 20
-154.6992924523054
 30
0.0
  0
VERTEX
  5
153B
  8
DATA
  6
CONTINUOUS
 62
     7
 10
-418.84334658575273
 20
-154.76462796400969
 30
0.0
  0
VERTEX
  5
153C
  8
DATA
  6
CONTINUOUS
 62
     7
 10
-419.40187804372789
 20
-154.82718324117329
 30
0.0
  0
VERTEX
  5
153D
  8
DATA
  6
CONTINUOUS
 62
     7
 10
-419.96163649727959
 20
-154.88695828379639
 30
0.0
  0
VERTEX
  5
153E
  8
DATA
  6
CONTINUOUS
 62
     7
 10
-420.52262194640758
 20
-154.9439530918788
 30
0.0
  0
VERTEX
  5
153F
  8
DATA
  6
CONTINUOUS
 62
     7
 10
-421.084834391112
 20
-154.9981676654206
 30
0.0
  0
VERTEX
  5
1540
  8
DATA
  6
CONTINUOUS
 62
     7
 10
-421.64827383139271
 20
-155.04960200442181
 30
0.0
  0
VERTEX
  5
1541
  8
DATA
  6
CONTINUOUS
 62
     7
 10
-422.21294026724962
 20
-155.0982561088824
 30
0.0
  0
VERTEX
  5
1542
  8
DATA
  6
CONTINUOUS
 62
     7
 10
-422.77883369868277
 20
-155.1441299788024
 30
0.0
  0
VERTEX
  5
1543
  8
DATA
  6
CONTINUOUS
 62
     7
 10
-423.3459541256928
 20
-155.18722361418179
 30
0.0
  0
VERTEX
  5
1544
  8
DATA
  6
CONTINUOUS
 62
     7
 10
-423.91430154827862
 20
-155.2275370150206
 30
0.0
  0
VERTEX
  5
1545
  8
DATA
  6
CONTINUOUS
 62
     7
 10
-424.48387596644108
 20
-155.2650701813188
 30
0.0
  0
VERTEX
  5
1546
  8
DATA
  6
CONTINUOUS
 62
     7
 10
-425.0546773801799
 20
-155.29982311307629
 30
0.0
  0
VERTEX
  5
1547
  8
DATA
  6
CONTINUOUS
 62
     7
 10
-425.62670578949479
 20
-155.3317958102933
 30
0.0
  0
VERTEX
  5
1548
  8
DATA
  6
CONTINUOUS
 62
     7
 10
-426.19996119438628
 20
-155.36098827296971
 30
0.0
  0
VERTEX
  5
1549
  8
DATA
  6
CONTINUOUS
 62
     7
 10
-426.77444359485412
 20
-155.38740050110539
 30
0.0
  0
VERTEX
  5
154A
  8
DATA
  6
CONTINUOUS
 62
     7
 10
-427.35015299089821
 20
-155.41103249470061
 30
0.0
  0
VERTEX
  5
154B
  8
DATA
  6
CONTINUOUS
 62
     7
 10
-427.92708938251877
 20
-155.43188425375519
 30
0.0
  0
VERTEX
  5
154C
  8
DATA
  6
CONTINUOUS
 62
     7
 10
-428.50525276971558
 20
-155.4499557782691
 30
0.0
  0
VERTEX
  5
154D
  8
DATA
  6
CONTINUOUS
 62
     7
 10
-429.08464315248881
 20
-155.46524706824241
 30
0.0
  0
VERTEX
  5
154E
  8
DATA
  6
CONTINUOUS
 62
     7
 10
-429.66526053083828
 20
-155.4777581236751
 30
0.0
  0
VERTEX
  5
154F
  8
DATA
  6
CONTINUOUS
 62
     7
 10
-430.24710490476423
 20
-155.4874889445673
 30
0.0
  0
VERTEX
  5
1550
  8
DATA
  6
CONTINUOUS
 62
     7
 10
-430.83017627426648
 20
-155.49443953091881
 30
0.0
  0
VERTEX
  5
1551
  8
DATA
  6
CONTINUOUS
 62
     7
 10
-431.41447463934492
 20
-155.4986098827296
 30
0.0
  0
VERTEX
  5
1552
  8
DATA
  6
CONTINUOUS
 62
     7
 10
-432.0
 20
-155.5
 30
0.0
  0
VERTEX
  5
1553
  8
DATA
  6
CONTINUOUS
 62
     7
 10
-432.5855253606548
 20
-155.4986098827296
 30
0.0
  0
VERTEX
  5
1554
  8
DATA
  6
CONTINUOUS
 62
     7
 10
-433.16982372573341
 20
-155.49443953091881
 30
0.0
  0
VERTEX
  5
1555
  8
DATA
  6
CONTINUOUS
 62
     7
 10
-433.75289509523549
 20
-155.4874889445673
 30
0.0
  0
VERTEX
  5
1556
  8
DATA
  6
CONTINUOUS
 62
     7
 10
-434.33473946916149
 20
-155.4777581236751
 30
0.0
  0
VERTEX
  5
1557
  8
DATA
  6
CONTINUOUS
 62
     7
 10
-434.91535684751102
 20
-155.46524706824241
 30
0.0
  0
VERTEX
  5
1558
  8
DATA
  6
CONTINUOUS
 62
     7
 10
-435.49474723028419
 20
-155.4499557782691
 30
0.0
  0
VERTEX
  5
1559
  8
DATA
  6
CONTINUOUS
 62
     7
 10
-436.072910617481
 20
-155.43188425375519
 30
0.0
  0
VERTEX
  5
155A
  8
DATA
  6
CONTINUOUS
 62
     7
 10
-436.64984700910139
 20
-155.41103249470061
 30
0.0
  0
VERTEX
  5
155B
  8
DATA
  6
CONTINUOUS
 62
     7
 10
-437.22555640514571
 20
-155.38740050110539
 30
0.0
  0
VERTEX
  5
155C
  8
DATA
  6
CONTINUOUS
 62
     7
 10
-437.80003880561338
 20
-155.36098827296971
 30
0.0
  0
VERTEX
  5
155D
  8
DATA
  6
CONTINUOUS
 62
     7
 10
-438.37329421050481
 20
-155.3317958102933
 30
0.0
  0
VERTEX
  5
155E
  8
DATA
  6
CONTINUOUS
 62
     7
 10
-438.9453226198201
 20
-155.29982311307629
 30
0.0
  0
VERTEX
  5
155F
  8
DATA
  6
CONTINUOUS
 62
     7
 10
-439.51612403355881
 20
-155.2650701813188
 30
0.0
  0
VERTEX
  5
1560
  8
DATA
  6
CONTINUOUS
 62
     7
 10
-440.08569845172099
 20
-155.2275370150206
 30
0.0
  0
VERTEX
  5
1561
  8
DATA
  6
CONTINUOUS
 62
     7
 10
-440.6540458743072
 20
-155.18722361418179
 30
0.0
  0
VERTEX
  5
1562
  8
DATA
  6
CONTINUOUS
 62
     7
 10
-441.22116630131683
 20
-155.1441299788024
 30
0.0
  0
VERTEX
  5
1563
  8
DATA
  6
CONTINUOUS
 62
     7
 10
-441.78705973275032
 20
-155.0982561088824
 30
0.0
  0
VERTEX
  5
1564
  8
DATA
  6
CONTINUOUS
 62
     7
 10
-442.3517261686074
 20
-155.04960200442181
 30
0.0
  0
VERTEX
  5
1565
  8
DATA
  6
CONTINUOUS
 62
     7
 10
-442.915165608888
 20
-154.9981676654206
 30
0.0
  0
VERTEX
  5
1566
  8
DATA
  6
CONTINUOUS
 62
     7
 10
-443.47737805359219
 20
-154.9439530918788
 30
0.0
  0
VERTEX
  5
1567
  8
DATA
  6
CONTINUOUS
 62
     7
 10
-444.0383635027203
 20
-154.88695828379639
 30
0.0
  0
VERTEX
  5
1568
  8
DATA
  6
CONTINUOUS
 62
     7
 10
-444.59812195627188
 20
-154.82718324117329
 30
0.0
  0
VERTEX
  5
1569
  8
DATA
  6
CONTINUOUS
 62
     7
 10
-445.15665341424722
 20
-154.76462796400969
 30
0.0
  0
VERTEX
  5
156A
  8
DATA
  6
CONTINUOUS
 62
     7
 10
-445.71395787664619
 20
-154.6992924523054
 30
0.0
  0
VERTEX
  5
156B
  8
DATA
  6
CONTINUOUS
 62
     7
 10
-446.27003534346881
 20
-154.63117670606059
 30
0.0
  0
VERTEX
  5
156C
  8
DATA
  6
CONTINUOUS
 62
     7
 10
-446.82488581471512
 20
-154.56028072527511
 30
0.0
  0
VERTEX
  5
156D
  8
DATA
  6
CONTINUOUS
 62
     7
 10
-447.3785092903849
 20
-154.4866045099491
 30
0.0
  0
VERTEX
  5
156E
  8
DATA
  6
CONTINUOUS
 62
     7
 10
-447.93090577047832
 20
-154.41014806008241
 30
0.0
  0
VERTEX
  5
156F
  8
DATA
  6
CONTINUOUS
 62
     7
 10
-448.48207525499561
 20
-154.3309113756751
 30
0.0
  0
VERTEX
  5
1570
  8
DATA
  6
CONTINUOUS
 62
     7
 10
-449.03201774393648
 20
-154.24889445672719
 30
0.0
  0
VERTEX
  5
1571
  8
DATA
  6
CONTINUOUS
 62
     7
 10
-449.5807332373011
 20
-154.16409730323869
 30
0.0
  0
VERTEX
  5
1572
  8
DATA
  6
CONTINUOUS
 62
     7
 10
-450.12822173508908
 20
-154.07651991520959
 30
0.0
  0
VERTEX
  5
1573
  8
DATA
  6
CONTINUOUS
 62
     7
 10
-450.67448323730088
 20
-153.9861622926399
 30
0.0
  0
VERTEX
  5
1574
  8
DATA
  6
CONTINUOUS
 62
     7
 10
-451.21951774393631
 20
-153.89302443552961
 30
0.0
  0
VERTEX
  5
1575
  8
DATA
  6
CONTINUOUS
 62
     7
 10
-451.76332525499561
 20
-153.79710634387871
 30
0.0
  0
VERTEX
  5
1576
  8
DATA
  6
CONTINUOUS
 62
     7
 10
-452.30590577047838
 20
-153.6984080176872
 30
0.0
  0
VERTEX
  5
1577
  8
DATA
  6
CONTINUOUS
 62
     7
 10
-452.8472592903849
 20
-153.596929456955
 30
0.0
  0
VERTEX
  5
1578
  8
DATA
  6
CONTINUOUS
 62
     7
 10
-453.38738581471512
 20
-153.4926706616823
 30
0.0
  0
VERTEX
  5
1579
  8
DATA
  6
CONTINUOUS
 62
     7
 10
-453.92628534346892
 20
-153.38563163186899
 30
0.0
  0
VERTEX
  5
157A
  8
DATA
  6
CONTINUOUS
 62
     7
 10
-454.46395787664619
 20
-153.2758123675151
 30
0.0
  0
VERTEX
  5
157B
  8
DATA
  6
CONTINUOUS
 62
     7
 10
-455.00040341424722
 20
-153.16321286862041
 30
0.0
  0
VERTEX
  5
157C
  8
DATA
  6
CONTINUOUS
 62
     7
 10
-455.53562195627188
 20
-153.04783313518541
 30
0.0
  0
VERTEX
  5
157D
  8
DATA
  6
CONTINUOUS
 62
     7
 10
-456.0696135027203
 20
-152.9296731672095
 30
0.0
  0
VERTEX
  5
157E
  8
DATA
  6
CONTINUOUS
 62
     7
 10
-456.6023780535923
 20
-152.80873296469309
 30
0.0
  0
VERTEX
  5
157F
  8
DATA
  6
CONTINUOUS
 62
     7
 10
-457.133915608888
 20
-152.6850125276363
 30
0.0
  0
VERTEX
  5
1580
  8
DATA
  6
CONTINUOUS
 62
     7
 10
-457.6642261686074
 20
-152.55851185603871
 30
0.0
  0
VERTEX
  5
1581
  8
DATA
  6
CONTINUOUS
 62
     7
 10
-458.19330973275032
 20
-152.4292309499005
 30
0.0
  0
VERTEX
  5
1582
  8
DATA
  6
CONTINUOUS
 62
     7
 10
-458.721166301317
 20
-152.29716980922171
 30
0.0
  0
VERTEX
  5
1583
  8
DATA
  6
CONTINUOUS
 62
     7
 10
-459.24779587430731
 20
-152.16232843400229
 30
0.0
  0
VERTEX
  5
1584
  8
DATA
  6
CONTINUOUS
 62
     7
 10
-459.77319845172121
 20
-152.02470682424229
 30
0.0
  0
VERTEX
  5
1585
  8
DATA
  6
CONTINUOUS
 62
     7
 10
-460.29737403355858
 20
-151.88430497994159
 30
0.0
  0
VERTEX
  5
1586
  8
DATA
  6
CONTINUOUS
 62
     7
 10
-460.8203226198201
 20
-151.7411229011004
 30
0.0
  0
VERTEX
  5
1587
  8
DATA
  6
CONTINUOUS
 62
     7
 10
-461.34204421050481
 20
-151.59516058771871
 30
0.0
  0
VERTEX
  5
1588
  8
DATA
  6
CONTINUOUS
 62
     7
 10
-461.86253880561361
 20
-151.4464180397963
 30
0.0
  0
VERTEX
  5
1589
  8
DATA
  6
CONTINUOUS
 62
     7
 10
-462.38180640514571
 20
-151.2948952573332
 30
0.0
  0
VERTEX
  5
158A
  8
DATA
  6
CONTINUOUS
 62
     7
 10
-462.89984700910162
 20
-151.1405922403296
 30
0.0
  0
VERTEX
  5
158B
  8
DATA
  6
CONTINUOUS
 62
     7
 10
-463.416660617481
 20
-150.98350898878539
 30
0.0
  0
VERTEX
  5
158C
  8
DATA
  6
CONTINUOUS
 62
     7
 10
-463.9322472302843
 20
-150.8236455027004
 30
0.0
  0
VERTEX
  5
158D
  8
DATA
  6
CONTINUOUS
 62
     7
 10
-464.44660684751102
 20
-150.661001782075
 30
0.0
  0
VERTEX
  5
158E
  8
DATA
  6
CONTINUOUS
 62
     7
 10
-464.95973946916149
 20
-150.49557782690891
 30
0.0
  0
VERTEX
  5
158F
  8
DATA
  6
CONTINUOUS
 62
     7
 10
-465.47164509523549
 20
-150.3273736372023
 30
0.0
  0
VERTEX
  5
1590
  8
DATA
  6
CONTINUOUS
 62
     7
 10
-465.98232372573341
 20
-150.15638921295499
 30
0.0
  0
VERTEX
  5
1591
  8
DATA
  6
CONTINUOUS
 62
     7
 10
-466.49177536065491
 20
-149.9826245541671
 30
0.0
  0
VERTEX
  5
1592
  8
DATA
  6
CONTINUOUS
 62
     7
 10
-467.0
 20
-149.80607966083861
 30
0.0
  0
VERTEX
  5
1593
  8
DATA
  6
CONTINUOUS
 62
     7
 10
-467.50593503442911
 20
-149.6271270137695
 30
0.0
  0
VERTEX
  5
1594
  8
DATA
  6
CONTINUOUS
 62
     7
 10
-468.00851785460333
 20
-149.4461390937596
 30
0.0
  0
VERTEX
  5
1595
  8
DATA
  6
CONTINUOUS
 62
     7
 10
-468.50774846052218
 20
-149.26311590080911
 30
0.0
  0
VERTEX
  5
1596
  8
DATA
  6
CONTINUOUS
 62
     7
 10
-469.00362685218568
 20
-149.07805743491781
 30
0.0
  0
VERTEX
  5
1597
  8
DATA
  6
CONTINUOUS
 62
     7
 10
-469.49615302959393
 20
-148.89096369608609
 30
0.0
  0
VERTEX
  5
1598
  8
DATA
  6
CONTINUOUS
 62
     7
 10
-469.98532699274722
 20
-148.70183468431361
 30
0.0
  0
VERTEX
  5
1599
  8
DATA
  6
CONTINUOUS
 62
     7
 10
-470.47114874164492
 20
-148.51067039960029
 30
0.0
  0
VERTEX
  5
159A
  8
DATA
  6
CONTINUOUS
 62
     7
 10
-470.9536182762875
 20
-148.3174708419464
 30
0.0
  0
VERTEX
  5
159B
  8
DATA
  6
CONTINUOUS
 62
     7
 10
-471.43273559667512
 20
-148.1222360113519
 30
0.0
  0
VERTEX
  5
159C
  8
DATA
  6
CONTINUOUS
 62
     7
 10
-471.90850070280709
 20
-147.92496590781661
 30
0.0
  0
VERTEX
  5
159D
  8
DATA
  6
CONTINUOUS
 62
     7
 10
-472.38091359468388
 20
-147.72566053134071
 30
0.0
  0
VERTEX
  5
159E
  8
DATA
  6
CONTINUOUS
 62
     7
 10
-472.84997427230547
 20
-147.52431988192399
 30
0.0
  0
VERTEX
  5
159F
  8
DATA
  6
CONTINUOUS
 62
     7
 10
-473.315682735672
 20
-147.3209439595667
 30
0.0
  0
VERTEX
  5
15A0
  8
DATA
  6
CONTINUOUS
 62
     7
 10
-473.77803898478322
 20
-147.11553276426869
 30
0.0
  0
VERTEX
  5
15A1
  8
DATA
  6
CONTINUOUS
 62
     7
 10
-474.2370430196392
 20
-146.90808629603009
 30
0.0
  0
VERTEX
  5
15A2
  8
DATA
  6
CONTINUOUS
 62
     7
 10
-474.69269484023999
 20
-146.6986045548507
 30
0.0
  0
VERTEX
  5
15A3
  8
DATA
  6
CONTINUOUS
 62
     7
 10
-475.14499444658532
 20
-146.4870875407307
 30
0.0
  0
VERTEX
  5
15A4
  8
DATA
  6
CONTINUOUS
 62
     7
 10
-475.59394183867562
 20
-146.27353525366991
 30
0.0
  0
VERTEX
  5
15A5
  8
DATA
  6
CONTINUOUS
 62
     7
 10
-476.03953701651039
 20
-146.0579476936685
 30
0.0
  0
VERTEX
  5
15A6
  8
DATA
  6
CONTINUOUS
 62
     7
 10
-476.48177998009032
 20
-145.84032486072641
 30
0.0
  0
VERTEX
  5
15A7
  8
DATA
  6
CONTINUOUS
 62
     7
 10
-476.92067072941489
 20
-145.62066675484371
 30
0.0
  0
VERTEX
  5
15A8
  8
DATA
  6
CONTINUOUS
 62
     7
 10
-477.35620926448411
 20
-145.39897337602019
 30
0.0
  0
VERTEX
  5
15A9
  8
DATA
  6
CONTINUOUS
 62
     7
 10
-477.78839558529791
 20
-145.17524472425609
 30
0.0
  0
VERTEX
  5
15AA
  8
DATA
  6
CONTINUOUS
 62
     7
 10
-478.2172296918568
 20
-144.94948079955131
 30
0.0
  0
VERTEX
  5
15AB
  8
DATA
  6
CONTINUOUS
 62
     7
 10
-478.64271158416051
 20
-144.72168160190591
 30
0.0
  0
VERTEX
  5
15AC
  8
DATA
  6
CONTINUOUS
 62
     7
 10
-479.0648412622088
 20
-144.4918471313197
 30
0.0
  0
VERTEX
  5
15AD
  8
DATA
  6
CONTINUOUS
 62
     7
 10
-479.48361872600162
 20
-144.25997738779279
 30
0.0
  0
VERTEX
  5
15AE
  8
DATA
  6
CONTINUOUS
 62
     7
 10
-479.8990439755396
 20
-144.0260723713252
 30
0.0
  0
VERTEX
  5
15AF
  8
DATA
  6
CONTINUOUS
 62
     7
 10
-480.31111701082222
 20
-143.79013208191699
 30
0.0
  0
VERTEX
  5
15B0
  8
DATA
  6
CONTINUOUS
 62
     7
 10
-480.71983783184942
 20
-143.55215651956809
 30
0.0
  0
VERTEX
  5
15B1
  8
DATA
  6
CONTINUOUS
 62
     7
 10
-481.12520643862149
 20
-143.31214568427851
 30
0.0
  0
VERTEX
  5
15B2
  8
DATA
  6
CONTINUOUS
 62
     7
 10
-481.52722283113837
 20
-143.07009957604819
 30
0.0
  0
VERTEX
  5
15B3
  8
DATA
  6
CONTINUOUS
 62
     7
 10
-481.92588700940001
 20
-142.82601819487729
 30
0.0
  0
VERTEX
  5
15B4
  8
DATA
  6
CONTINUOUS
 62
     7
 10
-482.3211989734063
 20
-142.57990154076569
 30
0.0
  0
VERTEX
  5
15B5
  8
DATA
  6
CONTINUOUS
 62
     7
 10
-482.71315872315728
 20
-142.3317496137133
 30
0.0
  0
VERTEX
  5
15B6
  8
DATA
  6
CONTINUOUS
 62
     7
 10
-483.10176625865307
 20
-142.08156241372041
 30
0.0
  0
VERTEX
  5
15B7
  8
DATA
  6
CONTINUOUS
 62
     7
 10
-483.48702157989402
 20
-141.82933994078681
 30
0.0
  0
VERTEX
  5
15B8
  8
DATA
  6
CONTINUOUS
 62
     7
 10
-483.86892468687921
 20
-141.5750821949124
 30
0.0
  0
VERTEX
  5
15B9
  8
DATA
  6
CONTINUOUS
 62
     7
 10
-484.2474755796095
 20
-141.31878917609731
 30
0.0
  0
VERTEX
  5
15BA
  8
DATA
  6
CONTINUOUS
 62
     7
 10
-484.62267425808437
 20
-141.06046088434161
 30
0.0
  0
VERTEX
  5
15BB
  8
DATA
  6
CONTINUOUS
 62
     7
 10
-484.994520722304
 20
-140.8000973196452
 30
0.0
  0
VERTEX
  5
15BC
  8
DATA
  6
CONTINUOUS
 62
     7
 10
-485.36301497226827
 20
-140.53769848200821
 30
0.0
  0
VERTEX
  5
15BD
  8
DATA
  6
CONTINUOUS
 62
     7
 10
-485.72815700797759
 20
-140.2732643714304
 30
0.0
  0
VERTEX
  5
15BE
  8
DATA
  6
CONTINUOUS
 62
     7
 10
-486.0899468294316
 20
-140.0067949879118
 30
0.0
  0
VERTEX
  5
15BF
  8
DATA
  6
CONTINUOUS
 62
     7
 10
-486.44838443663031
 20
-139.73829033145279
 30
0.0
  0
VERTEX
  5
15C0
  8
DATA
  6
CONTINUOUS
 62
     7
 10
-486.803469829574
 20
-139.4677504020529
 30
0.0
  0
VERTEX
  5
15C1
  8
DATA
  6
CONTINUOUS
 62
     7
 10
-487.15520300826211
 20
-139.19517519971239
 30
0.0
  0
VERTEX
  5
15C2
  8
DATA
  6
CONTINUOUS
 62
     7
 10
-487.50358397269508
 20
-138.9205647244313
 30
0.0
  0
VERTEX
  5
15C3
  8
DATA
  6
CONTINUOUS
 62
     7
 10
-487.84861272287282
 20
-138.64391897620951
 30
0.0
  0
VERTEX
  5
15C4
  8
DATA
  6
CONTINUOUS
 62
     7
 10
-488.1902892587953
 20
-138.36523795504701
 30
0.0
  0
VERTEX
  5
15C5
  8
DATA
  6
CONTINUOUS
 62
     7
 10
-488.5286135804626
 20
-138.08452166094381
 30
0.0
  0
VERTEX
  5
15C6
  8
DATA
  6
CONTINUOUS
 62
     7
 10
-488.86358568787477
 20
-137.8017700938999
 30
0.0
  0
VERTEX
  5
15C7
  8
DATA
  6
CONTINUOUS
 62
     7
 10
-489.19520558103159
 20
-137.5169832539153
 30
0.0
  0
VERTEX
  5
15C8
  8
DATA
  6
CONTINUOUS
 62
     7
 10
-489.52347325993298
 20
-137.23016114098999
 30
0.0
  0
VERTEX
  5
15C9
  8
DATA
  6
CONTINUOUS
 62
     7
 10
-489.84838872457931
 20
-136.94130375512401
 30
0.0
  0
VERTEX
  5
15CA
  8
DATA
  6
CONTINUOUS
 62
     7
 10
-490.1699519749705
 20
-136.6504110963175
 30
0.0
  0
VERTEX
  5
15CB
  8
DATA
  6
CONTINUOUS
 62
     7
 10
-490.48816301110651
 20
-136.3574831645702
 30
0.0
  0
VERTEX
  5
15CC
  8
DATA
  6
CONTINUOUS
 62
     7
 10
-490.80302183298721
 20
-136.0625199598822
 30
0.0
  0
VERTEX
  5
15CD
  8
DATA
  6
CONTINUOUS
 62
     7
 10
-491.11452844061228
 20
-135.7655214822536
 30
0.0
  0
VERTEX
  5
15CE
  8
DATA
  6
CONTINUOUS
 62
     7
 10
-491.42268283398249
 20
-135.4664877316842
 30
0.0
  0
VERTEX
  5
15CF
  8
DATA
  6
CONTINUOUS
 62
     7
 10
-491.72748501309752
 20
-135.16541870817409
 30
0.0
  0
VERTEX
  5
15D0
  8
DATA
  6
CONTINUOUS
 62
     7
 10
-492.02893497795702
 20
-134.86231441172339
 30
0.0
  0
VERTEX
  5
15D1
  8
DATA
  6
CONTINUOUS
 62
     7
 10
-492.32703272856151
 20
-134.55717484233199
 30
0.0
  0
VERTEX
  5
15D2
  8
DATA
  6
CONTINUOUS
 62
     7
 10
-492.62177826491057
 20
-134.25
 30
0.0
  0
VERTEX
  5
15D3
  8
DATA
  6
CONTINUOUS
 62
     7
 10
-492.91255808921619
 20
-133.94143504039749
 30
0.0
  0
VERTEX
  5
15D4
  8
DATA
  6
CONTINUOUS
 62
     7
 10
-493.1987587036906
 20
-133.63212511919531
 30
0.0
  0
VERTEX
  5
15D5
  8
DATA
  6
CONTINUOUS
 62
     7
 10
-493.48038010833312
 20
-133.3220702363931
 30
0.0
  0
VERTEX
  5
15D6
  8
DATA
  6
CONTINUOUS
 62
     7
 10
-493.7574223031441
 20
-133.01127039199091
 30
0.0
  0
VERTEX
  5
15D7
  8
DATA
  6
CONTINUOUS
 62
     7
 10
-494.02988528812341
 20
-132.6997255859888
 30
0.0
  0
VERTEX
  5
15D8
  8
DATA
  6
CONTINUOUS
 62
     7
 10
-494.2977690632714
 20
-132.38743581838679
 30
0.0
  0
VERTEX
  5
15D9
  8
DATA
  6
CONTINUOUS
 62
     7
 10
-494.56107362858768
 20
-132.0744010891849
 30
0.0
  0
VERTEX
  5
15DA
  8
DATA
  6
CONTINUOUS
 62
     7
 10
-494.81979898407201
 20
-131.76062139838311
 30
0.0
  0
VERTEX
  5
15DB
  8
DATA
  6
CONTINUOUS
 62
     7
 10
-495.07394512972502
 20
-131.44609674598141
 30
0.0
  0
VERTEX
  5
15DC
  8
DATA
  6
CONTINUOUS
 62
     7
 10
-495.32351206554682
 20
-131.13082713197969
 30
0.0
  0
VERTEX
  5
15DD
  8
DATA
  6
CONTINUOUS
 62
     7
 10
-495.56849979153662
 20
-130.814812556378
 30
0.0
  0
VERTEX
  5
15DE
  8
DATA
  6
CONTINUOUS
 62
     7
 10
-495.80890830769488
 20
-130.4980530191765
 30
0.0
  0
VERTEX
  5
15DF
  8
DATA
  6
CONTINUOUS
 62
     7
 10
-496.04473761402159
 20
-130.180548520375
 30
0.0
  0
VERTEX
  5
15E0
  8
DATA
  6
CONTINUOUS
 62
     7
 10
-496.2759877105168
 20
-129.86229905997351
 30
0.0
  0
VERTEX
  5
15E1
  8
DATA
  6
CONTINUOUS
 62
     7
 10
-496.50265859718002
 20
-129.5433046379722
 30
0.0
  0
VERTEX
  5
15E2
  8
DATA
  6
CONTINUOUS
 62
     7
 10
-496.72475027401208
 20
-129.2235652543709
 30
0.0
  0
VERTEX
  5
15E3
  8
DATA
  6
CONTINUOUS
 62
     7
 10
-496.94226274101283
 20
-128.9030809091698
 30
0.0
  0
VERTEX
  5
15E4
  8
DATA
  6
CONTINUOUS
 62
     7
 10
-497.15519599818151
 20
-128.58185160236869
 30
0.0
  0
VERTEX
  5
15E5
  8
DATA
  6
CONTINUOUS
 62
     7
 10
-497.36355004551859
 20
-128.25987733396769
 30
0.0
  0
VERTEX
  5
15E6
  8
DATA
  6
CONTINUOUS
 62
     7
 10
-497.5673248830243
 20
-127.93715810396679
 30
0.0
  0
VERTEX
  5
15E7
  8
DATA
  6
CONTINUOUS
 62
     7
 10
-497.76652051069829
 20
-127.6136939123659
 30
0.0
  0
VERTEX
  5
15E8
  8
DATA
  6
CONTINUOUS
 62
     7
 10
-497.96113692854061
 20
-127.28948475916511
 30
0.0
  0
VERTEX
  5
15E9
  8
DATA
  6
CONTINUOUS
 62
     7
 10
-498.1511741365515
 20
-126.9645306443644
 30
0.0
  0
VERTEX
  5
15EA
  8
DATA
  6
CONTINUOUS
 62
     7
 10
-498.33663213473079
 20
-126.63883156796371
 30
0.0
  0
VERTEX
  5
15EB
  8
DATA
  6
CONTINUOUS
 62
     7
 10
-498.51751092307848
 20
-126.3123875299632
 30
0.0
  0
VERTEX
  5
15EC
  8
DATA
  6
CONTINUOUS
 62
     7
 10
-498.69381050159433
 20
-125.9851985303626
 30
0.0
  0
VERTEX
  5
15ED
  8
DATA
  6
CONTINUOUS
 62
     7
 10
-498.86553087027892
 20
-125.65726456916229
 30
0.0
  0
VERTEX
  5
15EE
  8
DATA
  6
CONTINUOUS
 62
     7
 10
-499.03267202913202
 20
-125.3285856463619
 30
0.0
  0
VERTEX
  5
15EF
  8
DATA
  6
CONTINUOUS
 62
     7
 10
-499.19523397815323
 20
-124.9991617619617
 30
0.0
  0
VERTEX
  5
15F0
  8
DATA
  6
CONTINUOUS
 62
     7
 10
-499.35321671734278
 20
-124.6689929159615
 30
0.0
  0
VERTEX
  5
15F1
  8
DATA
  6
CONTINUOUS
 62
     7
 10
-499.50662024670112
 20
-124.3380791083614
 30
0.0
  0
VERTEX
  5
15F2
  8
DATA
  6
CONTINUOUS
 62
     7
 10
-499.65544456622769
 20
-124.00642033916129
 30
0.0
  0
VERTEX
  5
15F3
  8
DATA
  6
CONTINUOUS
 62
     7
 10
-499.79968967592271
 20
-123.6740166083614
 30
0.0
  0
VERTEX
  5
15F4
  8
DATA
  6
CONTINUOUS
 62
     7
 10
-499.9393555757859
 20
-123.3408679159615
 30
0.0
  0
VERTEX
  5
15F5
  8
DATA
  6
CONTINUOUS
 62
     7
 10
-500.07444226581759
 20
-123.0069742619617
 30
0.0
  0
VERTEX
  5
15F6
  8
DATA
  6
CONTINUOUS
 62
     7
 10
-500.20494974601809
 20
-122.6723356463619
 30
0.0
  0
VERTEX
  5
15F7
  8
DATA
  6
CONTINUOUS
 62
     7
 10
-500.33087801638641
 20
-122.33695206916229
 30
0.0
  0
VERTEX
  5
15F8
  8
DATA
  6
CONTINUOUS
 62
     7
 10
-500.45222707692358
 20
-122.00082353036269
 30
0.0
  0
VERTEX
  5
15F9
  8
DATA
  6
CONTINUOUS
 62
     7
 10
-500.5689969276288
 20
-121.6639500299632
 30
0.0
  0
VERTEX
  5
15FA
  8
DATA
  6
CONTINUOUS
 62
     7
 10
-500.68118756850311
 20
-121.32633156796371
 30
0.0
  0
VERTEX
  5
15FB
  8
DATA
  6
CONTINUOUS
 62
     7
 10
-500.78879899954541
 20
-120.9879681443644
 30
0.0
  0
VERTEX
  5
15FC
  8
DATA
  6
CONTINUOUS
 62
     7
 10
-500.8918312207561
 20
-120.64885975916511
 30
0.0
  0
VERTEX
  5
15FD
  8
DATA
  6
CONTINUOUS
 62
     7
 10
-500.99028423213508
 20
-120.3090064123659
 30
0.0
  0
VERTEX
  5
15FE
  8
DATA
  6
CONTINUOUS
 62
     7
 10
-501.0841580336828
 20
-119.96840810396679
 30
0.0
  0
VERTEX
  5
15FF
  8
DATA
  6
CONTINUOUS
 62
     7
 10
-501.17345262539851
 20
-119.62706483396769
 30
0.0
  0
VERTEX
  5
1600
  8
DATA
  6
CONTINUOUS
 62
     7
 10
-501.25816800728302
 20
-119.2849766023687
 30
0.0
  0
VERTEX
  5
1601
  8
DATA
  6
CONTINUOUS
 62
     7
 10
-501.33830417933569
 20
-118.9421434091698
 30
0.0
  0
VERTEX
  5
1602
  8
DATA
  6
CONTINUOUS
 62
     7
 10
-501.41386114155682
 20
-118.598565254371
 30
0.0
  0
VERTEX
  5
1603
  8
DATA
  6
CONTINUOUS
 62
     7
 10
-501.48483889394652
 20
-118.2542421379722
 30
0.0
  0
VERTEX
  5
1604
  8
DATA
  6
CONTINUOUS
 62
     7
 10
-501.55123743650438
 20
-117.90917405997349
 30
0.0
  0
VERTEX
  5
1605
  8
DATA
  6
CONTINUOUS
 62
     7
 10
-501.61305676923081
 20
-117.563361020375
 30
0.0
  0
VERTEX
  5
1606
  8
DATA
  6
CONTINUOUS
 62
     7
 10
-501.6702968921258
 20
-117.2168030191765
 30
0.0
  0
VERTEX
  5
1607
  8
DATA
  6
CONTINUOUS
 62
     7
 10
-501.72295780518891
 20
-116.869500056378
 30
0.0
  0
VERTEX
  5
1608
  8
DATA
  6
CONTINUOUS
 62
     7
 10
-501.7710395084207
 20
-116.5214521319797
 30
0.0
  0
VERTEX
  5
1609
  8
DATA
  6
CONTINUOUS
 62
     7
 10
-501.81454200182083
 20
-116.17265924598129
 30
0.0
  0
VERTEX
  5
160A
  8
DATA
  6
CONTINUOUS
 62
     7
 10
-501.85346528538912
 20
-115.82312139838309
 30
0.0
  0
VERTEX
  5
160B
  8
DATA
  6
CONTINUOUS
 62
     7
 10
-501.88780935912598
 20
-115.4728385891849
 30
0.0
  0
VERTEX
  5
160C
  8
DATA
  6
CONTINUOUS
 62
     7
 10
-501.91757422303152
 20
-115.1218108183869
 30
0.0
  0
VERTEX
  5
160D
  8
DATA
  6
CONTINUOUS
 62
     7
 10
-501.94275987710512
 20
-114.7700380859888
 30
0.0
  0
VERTEX
  5
160E
  8
DATA
  6
CONTINUOUS
 62
     7
 10
-501.96336632134728
 20
-114.41752039199091
 30
0.0
  0
VERTEX
  5
160F
  8
DATA
  6
CONTINUOUS
 62
     7
 10
-501.97939355575772
 20
-114.0642577363931
 30
0.0
  0
VERTEX
  5
1610
  8
DATA
  6
CONTINUOUS
 62
     7
 10
-501.99084158033679
 20
-113.71025011919529
 30
0.0
  0
VERTEX
  5
1611
  8
DATA
  6
CONTINUOUS
 62
     7
 10
-501.99771039508403
 20
-113.35549754039759
 30
0.0
  0
VERTEX
  5
1612
  8
DATA
  6
CONTINUOUS
 62
     7
 10
-502.0
 20
-113.0
 30
0.0
  0
VERTEX
  5
1613
  8
DATA
  6
CONTINUOUS
 62
     7
 10
-501.99771039508403
 20
-112.64450245960241
 30
0.0
  0
VERTEX
  5
1614
  8
DATA
  6
CONTINUOUS
 62
     7
 10
-501.99084158033679
 20
-112.28974988080471
 30
0.0
  0
VERTEX
  5
1615
  8
DATA
  6
CONTINUOUS
 62
     7
 10
-501.97939355575772
 20
-111.9357422636069
 30
0.0
  0
VERTEX
  5
1616
  8
DATA
  6
CONTINUOUS
 62
     7
 10
-501.96336632134728
 20
-111.582479608009
 30
0.0
  0
VERTEX
  5
1617
  8
DATA
  6
CONTINUOUS
 62
     7
 10
-501.94275987710512
 20
-111.2299619140111
 30
0.0
  0
VERTEX
  5
1618
  8
DATA
  6
CONTINUOUS
 62
     7
 10
-501.91757422303152
 20
-110.8781891816131
 30
0.0
  0
VERTEX
  5
1619
  8
DATA
  6
CONTINUOUS
 62
     7
 10
-501.88780935912598
 20
-110.527161410815
 30
0.0
  0
VERTEX
  5
161A
  8
DATA
  6
CONTINUOUS
 62
     7
 10
-501.85346528538912
 20
-110.17687860161691
 30
0.0
  0
VERTEX
  5
161B
  8
DATA
  6
CONTINUOUS
 62
     7
 10
-501.81454200182083
 20
-109.82734075401871
 30
0.0
  0
VERTEX
  5
161C
  8
DATA
  6
CONTINUOUS
 62
     7
 10
-501.7710395084207
 20
-109.4785478680203
 30
0.0
  0
VERTEX
  5
161D
  8
DATA
  6
CONTINUOUS
 62
     7
 10
-501.72295780518891
 20
-109.130499943622
 30
0.0
  0
VERTEX
  5
161E
  8
DATA
  6
CONTINUOUS
 62
     7
 10
-501.6702968921258
 20
-108.7831969808235
 30
0.0
  0
VERTEX
  5
161F
  8
DATA
  6
CONTINUOUS
 62
     7
 10
-501.61305676923081
 20
-108.436638979625
 30
0.0
  0
VERTEX
  5
1620
  8
DATA
  6
CONTINUOUS
 62
     7
 10
-501.55123743650438
 20
-108.09082594002641
 30
0.0
  0
VERTEX
  5
1621
  8
DATA
  6
CONTINUOUS
 62
     7
 10
-501.48483889394652
 20
-107.7457578620277
 30
0.0
  0
VERTEX
  5
1622
  8
DATA
  6
CONTINUOUS
 62
     7
 10
-501.41386114155682
 20
-107.401434745629
 30
0.0
  0
VERTEX
  5
1623
  8
DATA
  6
CONTINUOUS
 62
     7
 10
-501.33830417933569
 20
-107.0578565908301
 30
0.0
  0
VERTEX
  5
1624
  8
DATA
  6
CONTINUOUS
 62
     7
 10
-501.25816800728302
 20
-106.7150233976313
 30
0.0
  0
VERTEX
  5
1625
  8
DATA
  6
CONTINUOUS
 62
     7
 10
-501.17345262539851
 20
-106.37293516603231
 30
0.0
  0
VERTEX
  5
1626
  8
DATA
  6
CONTINUOUS
 62
     7
 10
-501.0841580336828
 20
-106.03159189603321
 30
0.0
  0
VERTEX
  5
1627
  8
DATA
  6
CONTINUOUS
 62
     7
 10
-500.99028423213508
 20
-105.690993587634
 30
0.0
  0
VERTEX
  5
1628
  8
DATA
  6
CONTINUOUS
 62
     7
 10
-500.8918312207561
 20
-105.35114024083479
 30
0.0
  0
VERTEX
  5
1629
  8
DATA
  6
CONTINUOUS
 62
     7
 10
-500.78879899954541
 20
-105.0120318556355
 30
0.0
  0
VERTEX
  5
162A
  8
DATA
  6
CONTINUOUS
 62
     7
 10
-500.68118756850311
 20
-104.67366843203619
 30
0.0
  0
VERTEX
  5
162B
  8
DATA
  6
CONTINUOUS
 62
     7
 10
-500.5689969276288
 20
-104.3360499700367
 30
0.0
  0
VERTEX
  5
162C
  8
DATA
  6
CONTINUOUS
 62
     7
 10
-500.45222707692358
 20
-103.99917646963731
 30
0.0
  0
VERTEX
  5
162D
  8
DATA
  6
CONTINUOUS
 62
     7
 10
-500.33087801638641
 20
-103.66304793083771
 30
0.0
  0
VERTEX
  5
162E
  8
DATA
  6
CONTINUOUS
 62
     7
 10
-500.20494974601809
 20
-103.327664353638
 30
0.0
  0
VERTEX
  5
162F
  8
DATA
  6
CONTINUOUS
 62
     7
 10
-500.07444226581759
 20
-102.9930257380383
 30
0.0
  0
VERTEX
  5
1630
  8
DATA
  6
CONTINUOUS
 62
     7
 10
-499.9393555757859
 20
-102.6591320840385
 30
0.0
  0
VERTEX
  5
1631
  8
DATA
  6
CONTINUOUS
 62
     7
 10
-499.79968967592271
 20
-102.3259833916386
 30
0.0
  0
VERTEX
  5
1632
  8
DATA
  6
CONTINUOUS
 62
     7
 10
-499.65544456622769
 20
-101.99357966083861
 30
0.0
  0
VERTEX
  5
1633
  8
DATA
  6
CONTINUOUS
 62
     7
 10
-499.50662024670112
 20
-101.6619208916386
 30
0.0
  0
VERTEX
  5
1634
  8
DATA
  6
CONTINUOUS
 62
     7
 10
-499.35321671734278
 20
-101.3310070840385
 30
0.0
  0
VERTEX
  5
1635
  8
DATA
  6
CONTINUOUS
 62
     7
 10
-499.19523397815323
 20
-101.0008382380382
 30
0.0
  0
VERTEX
  5
1636
  8
DATA
  6
CONTINUOUS
 62
     7
 10
-499.03267202913202
 20
-100.671414353638
 30
0.0
  0
VERTEX
  5
1637
  8
DATA
  6
CONTINUOUS
 62
     7
 10
-498.86553087027892
 20
-100.34273543083771
 30
0.0
  0
VERTEX
  5
1638
  8
DATA
  6
CONTINUOUS
 62
     7
 10
-498.69381050159433
 20
-100.01480146963731
 30
0.0
  0
VERTEX
  5
1639
  8
DATA
  6
CONTINUOUS
 62
     7
 10
-498.51751092307848
 20
-99.687612470036754
 30
0.0
  0
VERTEX
  5
163A
  8
DATA
  6
CONTINUOUS
 62
     7
 10
-498.33663213473079
 20
-99.361168432036195
 30
0.0
  0
VERTEX
  5
163B
  8
DATA
  6
CONTINUOUS
 62
     7
 10
-498.1511741365515
 20
-99.03546935563557
 30
0.0
  0
VERTEX
  5
163C
  8
DATA
  6
CONTINUOUS
 62
     7
 10
-497.96113692854061
 20
-98.710515240834866
 30
0.0
  0
VERTEX
  5
163D
  8
DATA
  6
CONTINUOUS
 62
     7
 10
-497.76652051069829
 20
-98.386306087634097
 30
0.0
  0
VERTEX
  5
163E
  8
DATA
  6
CONTINUOUS
 62
     7
 10
-497.5673248830243
 20
-98.062841896033206
 30
0.0
  0
VERTEX
  5
163F
  8
DATA
  6
CONTINUOUS
 62
     7
 10
-497.36355004551859
 20
-97.740122666032292
 30
0.0
  0
VERTEX
  5
1640
  8
DATA
  6
CONTINUOUS
 62
     7
 10
-497.15519599818151
 20
-97.418148397631214
 30
0.0
  0
VERTEX
  5
1641
  8
DATA
  6
CONTINUOUS
 62
     7
 10
-496.94226274101283
 20
-97.096919090830156
 30
0.0
  0
VERTEX
  5
1642
  8
DATA
  6
CONTINUOUS
 62
     7
 10
-496.72475027401208
 20
-96.776434745629004
 30
0.0
  0
VERTEX
  5
1643
  8
DATA
  6
CONTINUOUS
 62
     7
 10
-496.50265859718002
 20
-96.456695362027745
 30
0.0
  0
VERTEX
  5
1644
  8
DATA
  6
CONTINUOUS
 62
     7
 10
-496.2759877105168
 20
-96.137700940026392
 30
0.0
  0
VERTEX
  5
1645
  8
DATA
  6
CONTINUOUS
 62
     7
 10
-496.04473761402159
 20
-95.819451479625002
 30
0.0
  0
VERTEX
  5
1646
  8
DATA
  6
CONTINUOUS
 62
     7
 10
-495.80890830769488
 20
-95.501946980823547
 30
0.0
  0
VERTEX
  5
1647
  8
DATA
  6
CONTINUOUS
 62
     7
 10
-495.56849979153662
 20
-95.185187443622027
 30
0.0
  0
VERTEX
  5
1648
  8
DATA
  6
CONTINUOUS
 62
     7
 10
-495.32351206554682
 20
-94.869172868020357
 30
0.0
  0
VERTEX
  5
1649
  8
DATA
  6
CONTINUOUS
 62
     7
 10
-495.07394512972502
 20
-94.553903254018707
 30
0.0
  0
VERTEX
  5
164A
  8
DATA
  6
CONTINUOUS
 62
     7
 10
-494.81979898407201
 20
-94.239378601616892
 30
0.0
  0
VERTEX
  5
164B
  8
DATA
  6
CONTINUOUS
 62
     7
 10
-494.56107362858768
 20
-93.925598910815054
 30
0.0
  0
VERTEX
  5
164C
  8
DATA
  6
CONTINUOUS
 62
     7
 10
-494.2977690632714
 20
-93.612564181613124
 30
0.0
  0
VERTEX
  5
164D
  8
DATA
  6
CONTINUOUS
 62
     7
 10
-494.02988528812341
 20
-93.300274414011142
 30
0.0
  0
VERTEX
  5
164E
  8
DATA
  6
CONTINUOUS
 62
     7
 10
-493.7574223031441
 20
-92.988729608009066
 30
0.0
  0
VERTEX
  5
164F
  8
DATA
  6
CONTINUOUS
 62
     7
 10
-493.48038010833312
 20
-92.677929763606926
 30
0.0
  0
VERTEX
  5
1650
  8
DATA
  6
CONTINUOUS
 62
     7
 10
-493.1987587036906
 20
-92.367874880804692
 30
0.0
  0
VERTEX
  5
1651
  8
DATA
  6
CONTINUOUS
 62
     7
 10
-492.91255808921619
 20
-92.058564959602407
 30
0.0
  0
VERTEX
  5
1652
  8
DATA
  6
CONTINUOUS
 62
     7
 10
-492.62177826491057
 20
-91.75
 30
0.0
  0
VERTEX
  5
1653
  8
DATA
  6
CONTINUOUS
 62
     7
 10
-492.32703272856151
 20
-91.442825157667926
 30
0.0
  0
VERTEX
  5
1654
  8
DATA
  6
CONTINUOUS
 62
     7
 10
-492.02893497795702
 20
-91.137685588276526
 30
0.0
  0
VERTEX
  5
1655
  8
DATA
  6
CONTINUOUS
 62
     7
 10
-491.72748501309752
 20
-90.834581291825785
 30
0.0
  0
VERTEX
  5
1656
  8
DATA
  6
CONTINUOUS
 62
     7
 10
-491.42268283398249
 20
-90.533512268315775
 30
0.0
  0
VERTEX
  5
1657
  8
DATA
  6
CONTINUOUS
 62
     7
 10
-491.11452844061228
 20
-90.234478517746481
 30
0.0
  0
VERTEX
  5
1658
  8
DATA
  6
CONTINUOUS
 62
     7
 10
-490.80302183298721
 20
-89.937480040117805
 30
0.0
  0
VERTEX
  5
1659
  8
DATA
  6
CONTINUOUS
 62
     7
 10
-490.48816301110651
 20
-89.642516835429817
 30
0.0
  0
VERTEX
  5
165A
  8
DATA
  6
CONTINUOUS
 62
     7
 10
-490.1699519749705
 20
-89.349588903682502
 30
0.0
  0
VERTEX
  5
165B
  8
DATA
  6
CONTINUOUS
 62
     7
 10
-489.84838872457931
 20
-89.058696244875875
 30
0.0
  0
VERTEX
  5
165C
  8
DATA
  6
CONTINUOUS
 62
     7
 10
-489.52347325993298
 20
-88.769838859009894
 30
0.0
  0
VERTEX
  5
165D
  8
DATA
  6
CONTINUOUS
 62
     7
 10
-489.19520558103159
 20
-88.483016746084672
 30
0.0
  0
VERTEX
  5
165E
  8
DATA
  6
CONTINUOUS
 62
     7
 10
-488.86358568787477
 20
-88.198229906100096
 30
0.0
  0
VERTEX
  5
165F
  8
DATA
  6
CONTINUOUS
 62
     7
 10
-488.5286135804626
 20
-87.915478339056236
 30
0.0
  0
VERTEX
  5
1660
  8
DATA
  6
CONTINUOUS
 62
     7
 10
-488.1902892587953
 20
-87.634762044952964
 30
0.0
  0
VERTEX
  5
1661
  8
DATA
  6
CONTINUOUS
 62
     7
 10
-487.84861272287282
 20
-87.356081023790438
 30
0.0
  0
VERTEX
  5
1662
  8
DATA
  6
CONTINUOUS
 62
     7
 10
-487.50358397269508
 20
-87.079435275568585
 30
0.0
  0
VERTEX
  5
1663
  8
DATA
  6
CONTINUOUS
 62
     7
 10
-487.15520300826211
 20
-86.804824800287406
 30
0.0
  0
VERTEX
  5
1664
  8
DATA
  6
CONTINUOUS
 62
     7
 10
-486.803469829574
 20
-86.532249597946929
 30
0.0
  0
VERTEX
  5
1665
  8
DATA
  6
CONTINUOUS
 62
     7
 10
-486.44838443663031
 20
-86.261709668547127
 30
0.0
  0
VERTEX
  5
1666
  8
DATA
  6
CONTINUOUS
 62
     7
 10
-486.0899468294316
 20
-85.993205012087984
 30
0.0
  0
VERTEX
  5
1667
  8
DATA
  6
CONTINUOUS
 62
     7
 10
-485.72815700797759
 20
-85.726735628569529
 30
0.0
  0
VERTEX
  5
1668
  8
DATA
  6
CONTINUOUS
 62
     7
 10
-485.36301497226827
 20
-85.462301517991776
 30
0.0
  0
VERTEX
  5
1669
  8
DATA
  6
CONTINUOUS
 62
     7
 10
-484.994520722304
 20
-85.199902680354697
 30
0.0
  0
VERTEX
  5
166A
  8
DATA
  6
CONTINUOUS
 62
     7
 10
-484.62267425808437
 20
-84.939539115658306
 30
0.0
  0
VERTEX
  5
166B
  8
DATA
  6
CONTINUOUS
 62
     7
 10
-484.2474755796095
 20
-84.681210823902589
 30
0.0
  0
VERTEX
  5
166C
  8
DATA
  6
CONTINUOUS
 62
     7
 10
-483.86892468687921
 20
-84.424917805087546
 30
0.0
  0
VERTEX
  5
166D
  8
DATA
  6
CONTINUOUS
 62
     7
 10
-483.48702157989402
 20
-84.170660059213233
 30
0.0
  0
VERTEX
  5
166E
  8
DATA
  6
CONTINUOUS
 62
     7
 10
-483.10176625865307
 20
-83.918437586279538
 30
0.0
  0
VERTEX
  5
166F
  8
DATA
  6
CONTINUOUS
 62
     7
 10
-482.71315872315728
 20
-83.668250386286559
 30
0.0
  0
VERTEX
  5
1670
  8
DATA
  6
CONTINUOUS
 62
     7
 10
-482.3211989734063
 20
-83.420098459234254
 30
0.0
  0
VERTEX
  5
1671
  8
DATA
  6
CONTINUOUS
 62
     7
 10
-481.92588700940001
 20
-83.173981805122594
 30
0.0
  0
VERTEX
  5
1672
  8
DATA
  6
CONTINUOUS
 62
     7
 10
-481.52722283113837
 20
-82.929900423951707
 30
0.0
  0
VERTEX
  5
1673
  8
DATA
  6
CONTINUOUS
 62
     7
 10
-481.12520643862149
 20
-82.687854315721438
 30
0.0
  0
VERTEX
  5
1674
  8
DATA
  6
CONTINUOUS
 62
     7
 10
-480.71983783184942
 20
-82.447843480431857
 30
0.0
  0
VERTEX
  5
1675
  8
DATA
  6
CONTINUOUS
 62
     7
 10
-480.31111701082222
 20
-82.209867918082978
 30
0.0
  0
VERTEX
  5
1676
  8
DATA
  6
CONTINUOUS
 62
     7
 10
-479.8990439755396
 20
-81.973927628674716
 30
0.0
  0
VERTEX
  5
1677
  8
DATA
  6
CONTINUOUS
 62
     7
 10
-479.48361872600162
 20
-81.740022612207227
 30
0.0
  0
VERTEX
  5
1678
  8
DATA
  6
CONTINUOUS
 62
     7
 10
-479.0648412622088
 20
-81.508152868680341
 30
0.0
  0
VERTEX
  5
1679
  8
DATA
  6
CONTINUOUS
 62
     7
 10
-478.64271158416051
 20
-81.2783183980942
 30
0.0
  0
VERTEX
  5
167A
  8
DATA
  6
CONTINUOUS
 62
     7
 10
-478.2172296918568
 20
-81.050519200448704
 30
0.0
  0
VERTEX
  5
167B
  8
DATA
  6
CONTINUOUS
 62
     7
 10
-477.78839558529791
 20
-80.824755275743883
 30
0.0
  0
VERTEX
  5
167C
  8
DATA
  6
CONTINUOUS
 62
     7
 10
-477.35620926448411
 20
-80.601026623979763
 30
0.0
  0
VERTEX
  5
167D
  8
DATA
  6
CONTINUOUS
 62
     7
 10
-476.92067072941489
 20
-80.379333245156303
 30
0.0
  0
VERTEX
  5
167E
  8
DATA
  6
CONTINUOUS
 62
     7
 10
-476.48177998009032
 20
-80.159675139273546
 30
0.0
  0
VERTEX
  5
167F
  8
DATA
  6
CONTINUOUS
 62
     7
 10
-476.03953701651039
 20
-79.942052306331448
 30
0.0
  0
VERTEX
  5
1680
  8
DATA
  6
CONTINUOUS
 62
     7
 10
-475.59394183867562
 20
-79.726464746330052
 30
0.0
  0
VERTEX
  5
1681
  8
DATA
  6
CONTINUOUS
 62
     7
 10
-475.14499444658532
 20
-79.51291245926933
 30
0.0
  0
VERTEX
  5
1682
  8
DATA
  6
CONTINUOUS
 62
     7
 10
-474.69269484023999
 20
-79.301395445149296
 30
0.0
  0
VERTEX
  5
1683
  8
DATA
  6
CONTINUOUS
 62
     7
 10
-474.2370430196392
 20
-79.091913703969951
 30
0.0
  0
VERTEX
  5
1684
  8
DATA
  6
CONTINUOUS
 62
     7
 10
-473.77803898478322
 20
-78.884467235731279
 30
0.0
  0
VERTEX
  5
1685
  8
DATA
  6
CONTINUOUS
 62
     7
 10
-473.315682735672
 20
-78.679056040433295
 30
0.0
  0
VERTEX
  5
1686
  8
DATA
  6
CONTINUOUS
 62
     7
 10
-472.84997427230547
 20
-78.475680118075957
 30
0.0
  0
VERTEX
  5
1687
  8
DATA
  6
CONTINUOUS
 62
     7
 10
-472.38091359468388
 20
-78.274339468659321
 30
0.0
  0
VERTEX
  5
1688
  8
DATA
  6
CONTINUOUS
 62
     7
 10
-471.90850070280709
 20
-78.075034092183358
 30
0.0
  0
VERTEX
  5
1689
  8
DATA
  6
CONTINUOUS
 62
     7
 10
-471.43273559667512
 20
-77.877763988648084
 30
0.0
  0
VERTEX
  5
168A
  8
DATA
  6
CONTINUOUS
 62
     7
 10
-470.9536182762875
 20
-77.682529158053498
 30
0.0
  0
VERTEX
  5
168B
  8
DATA
  6
CONTINUOUS
 62
     7
 10
-470.47114874164492
 20
-77.489329600399628
 30
0.0
  0
VERTEX
  5
168C
  8
DATA
  6
CONTINUOUS
 62
     7
 10
-469.98532699274722
 20
-77.29816531568639
 30
0.0
  0
VERTEX
  5
168D
  8
DATA
  6
CONTINUOUS
 62
     7
 10
-469.49615302959393
 20
-77.109036303913854
 30
0.0
  0
VERTEX
  5
168E
  8
DATA
  6
CONTINUOUS
 62
     7
 10
-469.00362685218568
 20
-76.921942565081935
 30
0.0
  0
VERTEX
  5
168F
  8
DATA
  6
CONTINUOUS
 62
     7
 10
-468.50774846052218
 20
-76.736884099190775
 30
0.0
  0
VERTEX
  5
1690
  8
DATA
  6
CONTINUOUS
 62
     7
 10
-468.00851785460333
 20
-76.553860906240303
 30
0.0
  0
VERTEX
  5
1691
  8
DATA
  6
CONTINUOUS
 62
     7
 10
-467.50593503442911
 20
-76.37287298623049
 30
0.0
  0
VERTEX
  5
1692
  8
DATA
  6
CONTINUOUS
 62
     7
 10
-467.0
 20
-76.193920339161352
 30
0.0
  0
VERTEX
  5
1693
  8
DATA
  6
CONTINUOUS
 62
     7
 10
-467.0
 20
-76.193920339161352
 30
0.0
  0
SEQEND
  5
1694
  8
DATA
  6
CONTINUOUS
 62
     7
  0
TEXT
  5
8C7
  8
DATA
 62
     7
 10
210.22213478894869
 20
612.29999999999995
 30
0.0
 40
27.147352430555561
  1
コネクターパネル拡大図
 41
0.7
 11
210.22213478894869
 21
639.4473524305555
 31
0.0
 73
     3
  0
LINE
  5
8C8
  8
DATA
  6
CONTINUOUS
 62
     7
 10
200.0
 20
600.0
 30
0.0
 11
625.0
 21
600.0
 31
0.0
  0
ARC
  5
8C9
  8
DATA
  6
CONTINUOUS
 62
     7
 10
483.61354729167027
 20
-340.47100406339149
 30
0.0
 40
3.0
 50
270.0
 51
0.0
  0
TEXT
  5
8CA
  8
DATA
 62
     7
 10
597.87604677748118
 20
-1118.138064653122
 30
0.0
 40
19.003146701388879
  1
ohtake
 41
0.7
 11
597.87604677748118
 21
-1099.1349179517331
 31
0.0
 73
     3
  0
CIRCLE
  5
8CB
  8
DATA
  6
CONTINUOUS
 62
     7
 10
-457.39999999999981
 20
-795.0
 30
0.0
 40
6.5
  0
CIRCLE
  5
8CC
  8
DATA
  6
CONTINUOUS
 62
     7
 10
-457.39999999999981
 20
-795.0
 30
0.0
 40
4.5
  0
LINE
  5
8CD
  8
DATA
  6
CONTINUOUS
 62
     7
 10
-457.39999999999981
 20
-792.25
 30
0.0
 11
-457.39999999999981
 21
-797.75
 31
0.0
  0
LINE
  5
8CE
  8
DATA
  6
CONTINUOUS
 62
     7
 10
-460.14999999999992
 20
-795.0
 30
0.0
 11
-454.64999999999992
 21
-795.0
 31
0.0
  0
CIRCLE
  5
8CF
  8
DATA
  6
CONTINUOUS
 62
     7
 10
-406.60000000000002
 20
-795.0
 30
0.0
 40
6.5
  0
CIRCLE
  5
8D0
  8
DATA
  6
CONTINUOUS
 62
     7
 10
-406.60000000000002
 20
-795.0
 30
0.0
 40
4.5
  0
LINE
  5
8D1
  8
DATA
  6
CONTINUOUS
 62
     7
 10
-406.60000000000002
 20
-792.25
 30
0.0
 11
-406.60000000000002
 21
-797.75
 31
0.0
  0
LINE
  5
8D2
  8
DATA
  6
CONTINUOUS
 62
     7
 10
-409.35000000000002
 20
-795.0
 30
0.0
 11
-403.84999999999991
 21
-795.0
 31
0.0
  0
CIRCLE
  5
8D3
  8
DATA
  6
CONTINUOUS
 62
     7
 10
-457.39999999999981
 20
-687.04999999999995
 30
0.0
 40
6.5
  0
CIRCLE
  5
8D4
  8
DATA
  6
CONTINUOUS
 62
     7
 10
-457.39999999999981
 20
-687.04999999999995
 30
0.0
 40
4.5
  0
LINE
  5
8D5
  8
DATA
  6
CONTINUOUS
 62
     7
 10
-457.39999999999981
 20
-684.29999999999995
 30
0.0
 11
-457.39999999999981
 21
-689.79999999999995
 31
0.0
  0
LINE
  5
8D6
  8
DATA
  6
CONTINUOUS
 62
     7
 10
-460.14999999999992
 20
-687.04999999999995
 30
0.0
 11
-454.64999999999992
 21
-687.04999999999995
 31
0.0
  0
CIRCLE
  5
8D7
  8
DATA
  6
CONTINUOUS
 62
     7
 10
-406.60000000000002
 20
-687.04999999999995
 30
0.0
 40
6.5
  0
CIRCLE
  5
8D8
  8
DATA
  6
CONTINUOUS
 62
     7
 10
-406.60000000000002
 20
-687.04999999999995
 30
0.0
 40
4.5
  0
LINE
  5
8D9
  8
DATA
  6
CONTINUOUS
 62
     7
 10
-406.60000000000002
 20
-684.29999999999995
 30
0.0
 11
-406.60000000000002
 21
-689.79999999999995
 31
0.0
  0
LINE
  5
8DA
  8
DATA
  6
CONTINUOUS
 62
     7
 10
-409.35000000000002
 20
-687.04999999999995
 30
0.0
 11
-403.84999999999991
 21
-687.04999999999995
 31
0.0
  0
LINE
  5
8DB
  8
DATA
  6
CONTINUOUS
 62
     7
 10
-35.000000000000007
 20
65.0
 30
0.0
 11
835.0
 21
65.0
 31
0.0
  0
LINE
  5
8DC
  8
DATA
  6
CONTINUOUS
 62
     7
 10
-35.000000000000007
 20
575.0
 30
0.0
 11
835.0
 21
575.0
 31
0.0
  0
LINE
  5
8DD
  8
DATA
  6
CONTINUOUS
 62
     7
 10
-95.0
 20
125.0
 30
0.0
 11
-95.0
 21
515.0
 31
0.0
  0
LINE
  5
8DE
  8
DATA
  6
CONTINUOUS
 62
     7
 10
895.0
 20
125.0
 30
0.0
 11
895.0
 21
515.0
 31
0.0
  0
ARC
  5
8DF
  8
DATA
  6
CONTINUOUS
 62
     7
 10
-35.000000000000007
 20
125.0
 30
0.0
 40
60.0
 50
180.0
 51
270.0
  0
ARC
  5
8E0
  8
DATA
  6
CONTINUOUS
 62
     7
 10
-35.000000000000007
 20
515.0
 30
0.0
 40
60.0
 50
90.0
 51
180.0
  0
ARC
  5
8E1
  8
DATA
  6
CONTINUOUS
 62
     7
 10
835.0
 20
515.0
 30
0.0
 40
60.0
 50
0.0
 51
90.0
  0
ARC
  5
8E2
  8
DATA
  6
CONTINUOUS
 62
     7
 10
835.0
 20
125.0
 30
0.0
 40
60.0
 50
270.0
 51
0.0
  0
LINE
  5
8E3
  8
DATA
  6
CONTINUOUS
 62
     7
 10
830.94599593797079
 20
104.0
 30
0.0
 11
614.94599593797045
 21
104.0
 31
0.0
  0
LINE
  5
8E4
  8
DATA
  6
CONTINUOUS
 62
     7
 10
872.94599593797079
 20
146.0
 30
0.0
 11
872.94599593797079
 21
272.0
 31
0.0
  0
LINE
  5
8E5
  8
DATA
  6
CONTINUOUS
 62
     7
 10
572.94599593797045
 20
146.0
 30
0.0
 11
572.94599593797045
 21
272.0
 31
0.0
  0
LINE
  5
8E6
  8
DATA
  6
CONTINUOUS
 62
     7
 10
830.94599593797079
 20
314.0
 30
0.0
 11
614.94599593797045
 21
314.0
 31
0.0
  0
ARC
  5
8E7
  8
DATA
  6
CONTINUOUS
 62
     7
 10
614.94599593797045
 20
146.0
 30
0.0
 40
42.0
 50
180.0
 51
270.0
  0
ARC
  5
8E8
  8
DATA
  6
CONTINUOUS
 62
     7
 10
614.94599593797045
 20
272.0
 30
0.0
 40
42.0
 50
90.0
 51
180.0
  0
ARC
  5
8E9
  8
DATA
  6
CONTINUOUS
 62
     7
 10
830.94599593797079
 20
272.0
 30
0.0
 40
42.0
 50
0.0
 51
90.0
  0
ARC
  5
8EA
  8
DATA
  6
CONTINUOUS
 62
     7
 10
830.94599593797079
 20
146.0
 30
0.0
 40
42.0
 50
270.0
 51
0.0
  0
POLYLINE
  5
8EB
  8
DATA
  6
CONTINUOUS
 62
     7
 66
     1
 10
0.0
 20
0.0
 30
0.0
 70
     1
  0
VERTEX
  5
1695
  8
DATA
  6
CONTINUOUS
 62
     7
 10
620.70742513352911
 20
299.0
 30
0.0
  0
VERTEX
  5
1696
  8
DATA
  6
CONTINUOUS
 62
     7
 10
818.70742513352889
 20
299.0
 30
0.0
  0
VERTEX
  5
1697
  8
DATA
  6
CONTINUOUS
 62
     7
 10
818.70742513352889
 20
119.0
 30
0.0
  0
VERTEX
  5
1698
  8
DATA
  6
CONTINUOUS
 62
     7
 10
620.70742513352911
 20
119.0
 30
0.0
  0
SEQEND
  5
1699
  8
DATA
  6
CONTINUOUS
 62
     7
  0
CIRCLE
  5
8F2
  8
DATA
  6
CONTINUOUS
 62
     7
 10
596.34599593797066
 20
209.0
 30
0.0
 40
15.89999999999986
  0
POLYLINE
  5
8F3
  8
DATA
  6
CONTINUOUS
 62
     7
 66
     1
 10
0.0
 20
0.0
 30
0.0
  0
VERTEX
  5
169A
  8
DATA
  6
CONTINUOUS
 62
     7
 10
593.94599593797045
 20
211.39999999999981
 30
0.0
  0
VERTEX
  5
169B
  8
DATA
  6
CONTINUOUS
 62
     7
 10
593.94599593797045
 20
219.5
 30
0.0
  0
VERTEX
  5
169C
  8
DATA
  6
CONTINUOUS
 62
     7
 10
598.74599593797052
 20
219.5
 30
0.0
  0
VERTEX
  5
169D
  8
DATA
  6
CONTINUOUS
 62
     7
 10
598.74599593797052
 20
211.39999999999981
 30
0.0
  0
SEQEND
  5
169E
  8
DATA
  6
CONTINUOUS
 62
     7
  0
POLYLINE
  5
8FA
  8
DATA
  6
CONTINUOUS
 62
     7
 66
     1
 10
0.0
 20
0.0
 30
0.0
  0
VERTEX
  5
169F
  8
DATA
  6
CONTINUOUS
 62
     7
 10
598.74599593797052
 20
206.60000000000011
 30
0.0
  0
VERTEX
  5
16A0
  8
DATA
  6
CONTINUOUS
 62
     7
 10
598.74599593797052
 20
198.5
 30
0.0
  0
VERTEX
  5
16A1
  8
DATA
  6
CONTINUOUS
 62
     7
 10
593.94599593797045
 20
198.5
 30
0.0
  0
VERTEX
  5
16A2
  8
DATA
  6
CONTINUOUS
 62
     7
 10
593.94599593797045
 20
206.60000000000011
 30
0.0
  0
SEQEND
  5
16A3
  8
DATA
  6
CONTINUOUS
 62
     7
  0
POLYLINE
  5
901
  8
DATA
  6
CONTINUOUS
 62
     7
 66
     1
 10
0.0
 20
0.0
 30
0.0
  0
VERTEX
  5
16A4
  8
DATA
  6
CONTINUOUS
 62
     7
 10
598.74599593797052
 20
211.39999999999981
 30
0.0
  0
VERTEX
  5
16A5
  8
DATA
  6
CONTINUOUS
 62
     7
 10
606.84599593797066
 20
211.39999999999981
 30
0.0
  0
VERTEX
  5
16A6
  8
DATA
  6
CONTINUOUS
 62
     7
 10
606.84599593797066
 20
206.60000000000011
 30
0.0
  0
VERTEX
  5
16A7
  8
DATA
  6
CONTINUOUS
 62
     7
 10
598.74599593797052
 20
206.60000000000011
 30
0.0
  0
SEQEND
  5
16A8
  8
DATA
  6
CONTINUOUS
 62
     7
  0
POLYLINE
  5
908
  8
DATA
  6
CONTINUOUS
 62
     7
 66
     1
 10
0.0
 20
0.0
 30
0.0
  0
VERTEX
  5
16A9
  8
DATA
  6
CONTINUOUS
 62
     7
 10
593.94599593797045
 20
206.60000000000011
 30
0.0
  0
VERTEX
  5
16AA
  8
DATA
  6
CONTINUOUS
 62
     7
 10
585.84599593797066
 20
206.60000000000011
 30
0.0
  0
VERTEX
  5
16AB
  8
DATA
  6
CONTINUOUS
 62
     7
 10
585.84599593797066
 20
211.39999999999981
 30
0.0
  0
VERTEX
  5
16AC
  8
DATA
  6
CONTINUOUS
 62
     7
 10
593.94599593797045
 20
211.39999999999981
 30
0.0
  0
SEQEND
  5
16AD
  8
DATA
  6
CONTINUOUS
 62
     7
  0
CIRCLE
  5
90F
  8
DATA
  6
CONTINUOUS
 62
     7
 10
846.72283695384249
 20
209.3000000000001
 30
0.0
 40
15.89999999999986
  0
POLYLINE
  5
910
  8
DATA
  6
CONTINUOUS
 62
     7
 66
     1
 10
0.0
 20
0.0
 30
0.0
  0
VERTEX
  5
16AE
  8
DATA
  6
CONTINUOUS
 62
     7
 10
844.32283695384263
 20
211.6999999999999
 30
0.0
  0
VERTEX
  5
16AF
  8
DATA
  6
CONTINUOUS
 62
     7
 10
844.32283695384263
 20
219.8000000000001
 30
0.0
  0
VERTEX
  5
16B0
  8
DATA
  6
CONTINUOUS
 62
     7
 10
849.12283695384235
 20
219.8000000000001
 30
0.0
  0
VERTEX
  5
16B1
  8
DATA
  6
CONTINUOUS
 62
     7
 10
849.12283695384235
 20
211.6999999999999
 30
0.0
  0
SEQEND
  5
16B2
  8
DATA
  6
CONTINUOUS
 62
     7
  0
POLYLINE
  5
917
  8
DATA
  6
CONTINUOUS
 62
     7
 66
     1
 10
0.0
 20
0.0
 30
0.0
  0
VERTEX
  5
16B3
  8
DATA
  6
CONTINUOUS
 62
     7
 10
849.12283695384235
 20
206.9000000000002
 30
0.0
  0
VERTEX
  5
16B4
  8
DATA
  6
CONTINUOUS
 62
     7
 10
849.12283695384235
 20
198.80000000000001
 30
0.0
  0
VERTEX
  5
16B5
  8
DATA
  6
CONTINUOUS
 62
     7
 10
844.32283695384263
 20
198.80000000000001
 30
0.0
  0
VERTEX
  5
16B6
  8
DATA
  6
CONTINUOUS
 62
     7
 10
844.32283695384263
 20
206.9000000000002
 30
0.0
  0
SEQEND
  5
16B7
  8
DATA
  6
CONTINUOUS
 62
     7
  0
POLYLINE
  5
91E
  8
DATA
  6
CONTINUOUS
 62
     7
 66
     1
 10
0.0
 20
0.0
 30
0.0
  0
VERTEX
  5
16B8
  8
DATA
  6
CONTINUOUS
 62
     7
 10
849.12283695384235
 20
211.6999999999999
 30
0.0
  0
VERTEX
  5
16B9
  8
DATA
  6
CONTINUOUS
 62
     7
 10
857.22283695384249
 20
211.6999999999999
 30
0.0
  0
VERTEX
  5
16BA
  8
DATA
  6
CONTINUOUS
 62
     7
 10
857.22283695384249
 20
206.9000000000002
 30
0.0
  0
VERTEX
  5
16BB
  8
DATA
  6
CONTINUOUS
 62
     7
 10
849.12283695384235
 20
206.9000000000002
 30
0.0
  0
SEQEND
  5
16BC
  8
DATA
  6
CONTINUOUS
 62
     7
  0
POLYLINE
  5
925
  8
DATA
  6
CONTINUOUS
 62
     7
 66
     1
 10
0.0
 20
0.0
 30
0.0
  0
VERTEX
  5
16BD
  8
DATA
  6
CONTINUOUS
 62
     7
 10
844.32283695384263
 20
206.9000000000002
 30
0.0
  0
VERTEX
  5
16BE
  8
DATA
  6
CONTINUOUS
 62
     7
 10
836.22283695384215
 20
206.9000000000002
 30
0.0
  0
VERTEX
  5
16BF
  8
DATA
  6
CONTINUOUS
 62
     7
 10
836.22283695384215
 20
211.6999999999999
 30
0.0
  0
VERTEX
  5
16C0
  8
DATA
  6
CONTINUOUS
 62
     7
 10
844.32283695384263
 20
211.6999999999999
 30
0.0
  0
SEQEND
  5
16C1
  8
DATA
  6
CONTINUOUS
 62
     7
  0
LINE
  5
92C
  8
DATA
  6
CONTINUOUS
 62
     7
 10
637.95751904408633
 20
155.0
 30
0.0
 11
637.95751904408633
 21
263.0
 31
0.0
  0
POLYLINE
  5
92D
  8
DATA
  6
CONTINUOUS
 62
     7
 66
     1
 10
0.0
 20
0.0
 30
0.0
  0
VERTEX
  5
16C2
  8
DATA
  6
CONTINUOUS
 62
     7
 10
661.95751904408633
 20
287.0
 30
0.0
  0
VERTEX
  5
16C3
  8
DATA
  6
CONTINUOUS
 62
     7
 10
739.95751904408633
 20
287.0
 30
0.0
  0
VERTEX
  5
16C4
  8
DATA
  6
CONTINUOUS
 62
     7
 10
739.95751904408633
 20
131.0
 30
0.0
  0
VERTEX
  5
16C5
  8
DATA
  6
CONTINUOUS
 62
     7
 10
661.95751904408633
 20
131.0
 30
0.0
  0
SEQEND
  5
16C6
  8
DATA
  6
CONTINUOUS
 62
     7
  0
LINE
  5
934
  8
DATA
  6
CONTINUOUS
 62
     7
 10
637.95751904408633
 20
263.0
 30
0.0
 11
661.95751904408633
 21
287.0
 31
0.0
  0
LINE
  5
935
  8
DATA
  6
CONTINUOUS
 62
     7
 10
661.95751904408633
 20
131.0
 30
0.0
 11
637.95751904408633
 21
155.0
 31
0.0
  0
POLYLINE
  5
936
  8
DATA
  6
CONTINUOUS
 62
     7
 66
     1
 10
0.0
 20
0.0
 30
0.0
 70
     1
  0
VERTEX
  5
16C7
  8
DATA
  6
CONTINUOUS
 62
     7
 10
650.88346663701145
 20
215.0
 30
0.0
  0
VERTEX
  5
16C8
  8
DATA
  6
CONTINUOUS
 62
     7
 10
680.88346663701145
 20
215.0
 30
0.0
  0
VERTEX
  5
16C9
  8
DATA
  6
CONTINUOUS
 62
     7
 10
680.88346663701145
 20
203.0
 30
0.0
  0
VERTEX
  5
16CA
  8
DATA
  6
CONTINUOUS
 62
     7
 10
650.88346663701145
 20
203.0
 30
0.0
  0
SEQEND
  5
16CB
  8
DATA
  6
CONTINUOUS
 62
     7
  0
POLYLINE
  5
93D
  8
DATA
  6
CONTINUOUS
 62
     7
 66
     1
 10
0.0
 20
0.0
 30
0.0
 70
     1
  0
VERTEX
  5
16CC
  8
DATA
  6
CONTINUOUS
 62
     7
 10
695.08695712516635
 20
252.23091337748639
 30
0.0
  0
VERTEX
  5
16CD
  8
DATA
  6
CONTINUOUS
 62
     7
 10
725.08695712516669
 20
252.23091337748639
 30
0.0
  0
VERTEX
  5
16CE
  8
DATA
  6
CONTINUOUS
 62
     7
 10
725.08695712516669
 20
240.23091337748639
 30
0.0
  0
VERTEX
  5
16CF
  8
DATA
  6
CONTINUOUS
 62
     7
 10
695.08695712516635
 20
240.23091337748639
 30
0.0
  0
SEQEND
  5
16D0
  8
DATA
  6
CONTINUOUS
 62
     7
  0
POLYLINE
  5
944
  8
DATA
  6
CONTINUOUS
 62
     7
 66
     1
 10
0.0
 20
0.0
 30
0.0
 70
     1
  0
VERTEX
  5
16D1
  8
DATA
  6
CONTINUOUS
 62
     7
 10
695.08695712516635
 20
177.76908662251361
 30
0.0
  0
VERTEX
  5
16D2
  8
DATA
  6
CONTINUOUS
 62
     7
 10
725.08695712516669
 20
177.76908662251361
 30
0.0
  0
VERTEX
  5
16D3
  8
DATA
  6
CONTINUOUS
 62
     7
 10
725.08695712516669
 20
165.7690866225135
 30
0.0
  0
VERTEX
  5
16D4
  8
DATA
  6
CONTINUOUS
 62
     7
 10
695.08695712516635
 20
165.7690866225135
 30
0.0
  0
SEQEND
  5
16D5
  8
DATA
  6
CONTINUOUS
 62
     7
  0
CIRCLE
  5
94B
  8
DATA
  6
CONTINUOUS
 62
     7
 10
478.0
 20
174.61816208366321
 30
0.0
 40
8.7000000000002728
  0
CIRCLE
  5
94C
  8
DATA
  6
CONTINUOUS
 62
     7
 10
448.0
 20
174.61816208366321
 30
0.0
 40
8.7000000000002728
  0
CIRCLE
  5
94D
  8
DATA
  6
CONTINUOUS
 62
     7
 10
418.0
 20
174.61816208366321
 30
0.0
 40
8.7000000000002728
  0
CIRCLE
  5
94E
  8
DATA
  6
CONTINUOUS
 62
     7
 10
388.0
 20
174.61816208366321
 30
0.0
 40
8.7000000000002728
  0
CIRCLE
  5
94F
  8
DATA
  6
CONTINUOUS
 62
     7
 10
358.0
 20
174.61816208366321
 30
0.0
 40
8.7000000000002728
  0
CIRCLE
  5
950
  8
DATA
  6
CONTINUOUS
 62
     7
 10
284.13841524771692
 20
172.79532545125841
 30
0.0
 40
21.89999999999986
  0
CIRCLE
  5
951
  8
DATA
  6
CONTINUOUS
 62
     7
 10
284.13841524771692
 20
172.79532545125841
 30
0.0
 40
10.19999999999993
  0
LINE
  5
952
  8
DATA
  6
CONTINUOUS
 62
     7
 10
-45.03214510929093
 20
167.3000000000001
 30
0.0
 11
-45.03214510929093
 21
196.6999999999999
 31
0.0
  0
LINE
  5
953
  8
DATA
  6
CONTINUOUS
 62
     7
 10
-15.63214510929107
 20
167.3000000000001
 30
0.0
 11
-45.03214510929093
 21
167.3000000000001
 31
0.0
  0
LINE
  5
954
  8
DATA
  6
CONTINUOUS
 62
     7
 10
-15.63214510929107
 20
196.6999999999999
 30
0.0
 11
-15.63214510929107
 21
167.3000000000001
 31
0.0
  0
LINE
  5
955
  8
DATA
  6
CONTINUOUS
 62
     7
 10
-45.03214510929093
 20
196.6999999999999
 30
0.0
 11
-15.63214510929107
 21
196.6999999999999
 31
0.0
  0
CIRCLE
  5
956
  8
DATA
  6
CONTINUOUS
 62
     7
 10
72.999999999999986
 20
236.0
 30
0.0
 40
66.0
  0
CIRCLE
  5
957
  8
DATA
  6
CONTINUOUS
 62
     7
 10
13.603030380330191
 20
295.39696961966979
 30
0.0
 40
16.5
  0
POLYLINE
  5
958
  8
DATA
  6
CONTINUOUS
 62
     7
 66
     1
 10
0.0
 20
0.0
 30
0.0
  0
VERTEX
  5
16D6
  8
DATA
  6
CONTINUOUS
 62
     7
 10
10.603030380330191
 20
298.39696961966979
 30
0.0
  0
VERTEX
  5
16D7
  8
DATA
  6
CONTINUOUS
 62
     7
 10
10.603030380330191
 20
307.39696961966979
 30
0.0
  0
VERTEX
  5
16D8
  8
DATA
  6
CONTINUOUS
 62
     7
 10
16.603030380330189
 20
307.39696961966979
 30
0.0
  0
VERTEX
  5
16D9
  8
DATA
  6
CONTINUOUS
 62
     7
 10
16.603030380330189
 20
298.39696961966979
 30
0.0
  0
SEQEND
  5
16DA
  8
DATA
  6
CONTINUOUS
 62
     7
  0
POLYLINE
  5
95F
  8
DATA
  6
CONTINUOUS
 62
     7
 66
     1
 10
0.0
 20
0.0
 30
0.0
  0
VERTEX
  5
16DB
  8
DATA
  6
CONTINUOUS
 62
     7
 10
16.603030380330189
 20
292.39696961966979
 30
0.0
  0
VERTEX
  5
16DC
  8
DATA
  6
CONTINUOUS
 62
     7
 10
16.603030380330189
 20
283.39696961966979
 30
0.0
  0
VERTEX
  5
16DD
  8
DATA
  6
CONTINUOUS
 62
     7
 10
10.603030380330191
 20
283.39696961966979
 30
0.0
  0
VERTEX
  5
16DE
  8
DATA
  6
CONTINUOUS
 62
     7
 10
10.603030380330191
 20
292.39696961966979
 30
0.0
  0
SEQEND
  5
16DF
  8
DATA
  6
CONTINUOUS
 62
     7
  0
POLYLINE
  5
966
  8
DATA
  6
CONTINUOUS
 62
     7
 66
     1
 10
0.0
 20
0.0
 30
0.0
  0
VERTEX
  5
16E0
  8
DATA
  6
CONTINUOUS
 62
     7
 10
16.603030380330189
 20
298.39696961966979
 30
0.0
  0
VERTEX
  5
16E1
  8
DATA
  6
CONTINUOUS
 62
     7
 10
25.6030303803302
 20
298.39696961966979
 30
0.0
  0
VERTEX
  5
16E2
  8
DATA
  6
CONTINUOUS
 62
     7
 10
25.6030303803302
 20
292.39696961966979
 30
0.0
  0
VERTEX
  5
16E3
  8
DATA
  6
CONTINUOUS
 62
     7
 10
16.603030380330189
 20
292.39696961966979
 30
0.0
  0
SEQEND
  5
16E4
  8
DATA
  6
CONTINUOUS
 62
     7
  0
POLYLINE
  5
96D
  8
DATA
  6
CONTINUOUS
 62
     7
 66
     1
 10
0.0
 20
0.0
 30
0.0
  0
VERTEX
  5
16E5
  8
DATA
  6
CONTINUOUS
 62
     7
 10
10.603030380330191
 20
292.39696961966979
 30
0.0
  0
VERTEX
  5
16E6
  8
DATA
  6
CONTINUOUS
 62
     7
 10
1.603030380330196
 20
292.39696961966979
 30
0.0
  0
VERTEX
  5
16E7
  8
DATA
  6
CONTINUOUS
 62
     7
 10
1.603030380330196
 20
298.39696961966979
 30
0.0
  0
VERTEX
  5
16E8
  8
DATA
  6
CONTINUOUS
 62
     7
 10
10.603030380330191
 20
298.39696961966979
 30
0.0
  0
SEQEND
  5
16E9
  8
DATA
  6
CONTINUOUS
 62
     7
  0
CIRCLE
  5
974
  8
DATA
  6
CONTINUOUS
 62
     7
 10
132.39696961966979
 20
176.60303038033021
 30
0.0
 40
16.5
  0
POLYLINE
  5
975
  8
DATA
  6
CONTINUOUS
 62
     7
 66
     1
 10
0.0
 20
0.0
 30
0.0
  0
VERTEX
  5
16EA
  8
DATA
  6
CONTINUOUS
 62
     7
 10
129.39696961966979
 20
179.60303038033021
 30
0.0
  0
VERTEX
  5
16EB
  8
DATA
  6
CONTINUOUS
 62
     7
 10
129.39696961966979
 20
188.60303038033021
 30
0.0
  0
VERTEX
  5
16EC
  8
DATA
  6
CONTINUOUS
 62
     7
 10
135.39696961966979
 20
188.60303038033021
 30
0.0
  0
VERTEX
  5
16ED
  8
DATA
  6
CONTINUOUS
 62
     7
 10
135.39696961966979
 20
179.60303038033021
 30
0.0
  0
SEQEND
  5
16EE
  8
DATA
  6
CONTINUOUS
 62
     7
  0
POLYLINE
  5
97C
  8
DATA
  6
CONTINUOUS
 62
     7
 66
     1
 10
0.0
 20
0.0
 30
0.0
  0
VERTEX
  5
16EF
  8
DATA
  6
CONTINUOUS
 62
     7
 10
135.39696961966979
 20
173.60303038033021
 30
0.0
  0
VERTEX
  5
16F0
  8
DATA
  6
CONTINUOUS
 62
     7
 10
135.39696961966979
 20
164.60303038033021
 30
0.0
  0
VERTEX
  5
16F1
  8
DATA
  6
CONTINUOUS
 62
     7
 10
129.39696961966979
 20
164.60303038033021
 30
0.0
  0
VERTEX
  5
16F2
  8
DATA
  6
CONTINUOUS
 62
     7
 10
129.39696961966979
 20
173.60303038033021
 30
0.0
  0
SEQEND
  5
16F3
  8
DATA
  6
CONTINUOUS
 62
     7
  0
POLYLINE
  5
983
  8
DATA
  6
CONTINUOUS
 62
     7
 66
     1
 10
0.0
 20
0.0
 30
0.0
  0
VERTEX
  5
16F4
  8
DATA
  6
CONTINUOUS
 62
     7
 10
135.39696961966979
 20
179.60303038033021
 30
0.0
  0
VERTEX
  5
16F5
  8
DATA
  6
CONTINUOUS
 62
     7
 10
144.39696961966979
 20
179.60303038033021
 30
0.0
  0
VERTEX
  5
16F6
  8
DATA
  6
CONTINUOUS
 62
     7
 10
144.39696961966979
 20
173.60303038033021
 30
0.0
  0
VERTEX
  5
16F7
  8
DATA
  6
CONTINUOUS
 62
     7
 10
135.39696961966979
 20
173.60303038033021
 30
0.0
  0
SEQEND
  5
16F8
  8
DATA
  6
CONTINUOUS
 62
     7
  0
POLYLINE
  5
98A
  8
DATA
  6
CONTINUOUS
 62
     7
 66
     1
 10
0.0
 20
0.0
 30
0.0
  0
VERTEX
  5
16F9
  8
DATA
  6
CONTINUOUS
 62
     7
 10
129.39696961966979
 20
173.60303038033021
 30
0.0
  0
VERTEX
  5
16FA
  8
DATA
  6
CONTINUOUS
 62
     7
 10
120.3969696196697
 20
173.60303038033021
 30
0.0
  0
VERTEX
  5
16FB
  8
DATA
  6
CONTINUOUS
 62
     7
 10
120.3969696196697
 20
179.60303038033021
 30
0.0
  0
VERTEX
  5
16FC
  8
DATA
  6
CONTINUOUS
 62
     7
 10
129.39696961966979
 20
179.60303038033021
 30
0.0
  0
SEQEND
  5
16FD
  8
DATA
  6
CONTINUOUS
 62
     7
  0
CIRCLE
  5
991
  8
DATA
  6
CONTINUOUS
 62
     7
 10
72.999999999999986
 20
236.0
 30
0.0
 40
46.5
  0
ARC
  5
992
  8
DATA
  6
CONTINUOUS
 62
     7
 10
72.999999999998622
 20
235.99999999999861
 30
0.0
 40
61.500000000000469
 50
120.4852859990973
 51
59.514714000900099
  0
CIRCLE
  5
993
  8
DATA
  6
CONTINUOUS
 62
     7
 10
72.999999999999986
 20
211.6999999999999
 30
0.0
 40
7.8000000000000673
  0
CIRCLE
  5
994
  8
DATA
  6
CONTINUOUS
 62
     7
 10
48.699999999999932
 20
236.0
 30
0.0
 40
7.8000000000000673
  0
CIRCLE
  5
995
  8
DATA
  6
CONTINUOUS
 62
     7
 10
97.300000000000026
 20
236.0
 30
0.0
 40
7.8000000000000673
  0
LINE
  5
996
  8
DATA
  6
CONTINUOUS
 62
     7
 10
41.800000000000047
 20
288.99820751685422
 30
0.0
 11
41.800000000000047
 21
294.15977991705017
 31
0.0
  0
LINE
  5
997
  8
DATA
  6
CONTINUOUS
 62
     7
 10
104.1999999999999
 20
294.15977991705017
 30
0.0
 11
104.1999999999999
 21
288.99820751685422
 31
0.0
  0
ARC
  5
998
  8
DATA
  6
CONTINUOUS
 62
     7
 10
40.11953467482509
 20
268.8804653251745
 30
0.0
 40
4.5000000000006963
 50
42.226540597911033
 51
227.77345940208889
  0
CIRCLE
  5
999
  8
DATA
  6
CONTINUOUS
 62
     7
 10
190.0
 20
206.0
 30
0.0
 40
15.0
  0
CIRCLE
  5
99A
  8
DATA
  6
CONTINUOUS
 62
     7
 10
190.0
 20
206.0
 30
0.0
 40
30.0
  0
POLYLINE
  5
99B
  8
DATA
  6
CONTINUOUS
 62
     7
 66
     1
 10
0.0
 20
0.0
 30
0.0
 70
     1
  0
VERTEX
  5
16FE
  8
DATA
  6
CONTINUOUS
 62
     7
 10
139.0
 20
206.0
 30
0.0
  0
VERTEX
  5
16FF
  8
DATA
  6
CONTINUOUS
 62
     7
 10
164.5
 20
161.83270440699351
 30
0.0
  0
VERTEX
  5
1700
  8
DATA
  6
CONTINUOUS
 62
     7
 10
215.5
 20
161.83270440699351
 30
0.0
  0
VERTEX
  5
1701
  8
DATA
  6
CONTINUOUS
 62
     7
 10
241.0
 20
206.0
 30
0.0
  0
VERTEX
  5
1702
  8
DATA
  6
CONTINUOUS
 62
     7
 10
215.5
 20
250.16729559300649
 30
0.0
  0
VERTEX
  5
1703
  8
DATA
  6
CONTINUOUS
 62
     7
 10
164.5
 20
250.16729559300649
 30
0.0
  0
SEQEND
  5
1704
  8
DATA
  6
CONTINUOUS
 62
     7
  0
CIRCLE
  5
9A4
  8
DATA
  6
CONTINUOUS
 62
     7
 10
160.0
 20
422.0
 30
0.0
 40
66.0
  0
CIRCLE
  5
9A5
  8
DATA
  6
CONTINUOUS
 62
     7
 10
100.6030303803302
 20
481.39696961966968
 30
0.0
 40
16.5
  0
POLYLINE
  5
9A6
  8
DATA
  6
CONTINUOUS
 62
     7
 66
     1
 10
0.0
 20
0.0
 30
0.0
  0
VERTEX
  5
1705
  8
DATA
  6
CONTINUOUS
 62
     7
 10
97.603030380330196
 20
484.39696961966968
 30
0.0
  0
VERTEX
  5
1706
  8
DATA
  6
CONTINUOUS
 62
     7
 10
97.603030380330196
 20
493.39696961966968
 30
0.0
  0
VERTEX
  5
1707
  8
DATA
  6
CONTINUOUS
 62
     7
 10
103.6030303803302
 20
493.39696961966968
 30
0.0
  0
VERTEX
  5
1708
  8
DATA
  6
CONTINUOUS
 62
     7
 10
103.6030303803302
 20
484.39696961966968
 30
0.0
  0
SEQEND
  5
1709
  8
DATA
  6
CONTINUOUS
 62
     7
  0
POLYLINE
  5
9AD
  8
DATA
  6
CONTINUOUS
 62
     7
 66
     1
 10
0.0
 20
0.0
 30
0.0
  0
VERTEX
  5
170A
  8
DATA
  6
CONTINUOUS
 62
     7
 10
103.6030303803302
 20
478.39696961966968
 30
0.0
  0
VERTEX
  5
170B
  8
DATA
  6
CONTINUOUS
 62
     7
 10
103.6030303803302
 20
469.39696961966968
 30
0.0
  0
VERTEX
  5
170C
  8
DATA
  6
CONTINUOUS
 62
     7
 10
97.603030380330196
 20
469.39696961966968
 30
0.0
  0
VERTEX
  5
170D
  8
DATA
  6
CONTINUOUS
 62
     7
 10
97.603030380330196
 20
478.39696961966968
 30
0.0
  0
SEQEND
  5
170E
  8
DATA
  6
CONTINUOUS
 62
     7
  0
POLYLINE
  5
9B4
  8
DATA
  6
CONTINUOUS
 62
     7
 66
     1
 10
0.0
 20
0.0
 30
0.0
  0
VERTEX
  5
170F
  8
DATA
  6
CONTINUOUS
 62
     7
 10
103.6030303803302
 20
484.39696961966968
 30
0.0
  0
VERTEX
  5
1710
  8
DATA
  6
CONTINUOUS
 62
     7
 10
112.6030303803302
 20
484.39696961966968
 30
0.0
  0
VERTEX
  5
1711
  8
DATA
  6
CONTINUOUS
 62
     7
 10
112.6030303803302
 20
478.39696961966968
 30
0.0
  0
VERTEX
  5
1712
  8
DATA
  6
CONTINUOUS
 62
     7
 10
103.6030303803302
 20
478.39696961966968
 30
0.0
  0
SEQEND
  5
1713
  8
DATA
  6
CONTINUOUS
 62
     7
  0
POLYLINE
  5
9BB
  8
DATA
  6
CONTINUOUS
 62
     7
 66
     1
 10
0.0
 20
0.0
 30
0.0
  0
VERTEX
  5
1714
  8
DATA
  6
CONTINUOUS
 62
     7
 10
97.603030380330196
 20
478.39696961966968
 30
0.0
  0
VERTEX
  5
1715
  8
DATA
  6
CONTINUOUS
 62
     7
 10
88.603030380330182
 20
478.39696961966968
 30
0.0
  0
VERTEX
  5
1716
  8
DATA
  6
CONTINUOUS
 62
     7
 10
88.603030380330182
 20
484.39696961966968
 30
0.0
  0
VERTEX
  5
1717
  8
DATA
  6
CONTINUOUS
 62
     7
 10
97.603030380330196
 20
484.39696961966968
 30
0.0
  0
SEQEND
  5
1718
  8
DATA
  6
CONTINUOUS
 62
     7
  0
CIRCLE
  5
9C2
  8
DATA
  6
CONTINUOUS
 62
     7
 10
219.39696961966979
 20
362.60303038033032
 30
0.0
 40
16.5
  0
POLYLINE
  5
9C3
  8
DATA
  6
CONTINUOUS
 62
     7
 66
     1
 10
0.0
 20
0.0
 30
0.0
  0
VERTEX
  5
1719
  8
DATA
  6
CONTINUOUS
 62
     7
 10
216.39696961966979
 20
365.60303038033032
 30
0.0
  0
VERTEX
  5
171A
  8
DATA
  6
CONTINUOUS
 62
     7
 10
216.39696961966979
 20
374.60303038033032
 30
0.0
  0
VERTEX
  5
171B
  8
DATA
  6
CONTINUOUS
 62
     7
 10
222.3969696196697
 20
374.60303038033032
 30
0.0
  0
VERTEX
  5
171C
  8
DATA
  6
CONTINUOUS
 62
     7
 10
222.3969696196697
 20
365.60303038033032
 30
0.0
  0
SEQEND
  5
171D
  8
DATA
  6
CONTINUOUS
 62
     7
  0
POLYLINE
  5
9CA
  8
DATA
  6
CONTINUOUS
 62
     7
 66
     1
 10
0.0
 20
0.0
 30
0.0
  0
VERTEX
  5
171E
  8
DATA
  6
CONTINUOUS
 62
     7
 10
222.3969696196697
 20
359.60303038033021
 30
0.0
  0
VERTEX
  5
171F
  8
DATA
  6
CONTINUOUS
 62
     7
 10
222.3969696196697
 20
350.60303038033021
 30
0.0
  0
VERTEX
  5
1720
  8
DATA
  6
CONTINUOUS
 62
     7
 10
216.39696961966979
 20
350.60303038033021
 30
0.0
  0
VERTEX
  5
1721
  8
DATA
  6
CONTINUOUS
 62
     7
 10
216.39696961966979
 20
359.60303038033021
 30
0.0
  0
SEQEND
  5
1722
  8
DATA
  6
CONTINUOUS
 62
     7
  0
POLYLINE
  5
9D1
  8
DATA
  6
CONTINUOUS
 62
     7
 66
     1
 10
0.0
 20
0.0
 30
0.0
  0
VERTEX
  5
1723
  8
DATA
  6
CONTINUOUS
 62
     7
 10
222.3969696196697
 20
365.60303038033032
 30
0.0
  0
VERTEX
  5
1724
  8
DATA
  6
CONTINUOUS
 62
     7
 10
231.39696961966979
 20
365.60303038033032
 30
0.0
  0
VERTEX
  5
1725
  8
DATA
  6
CONTINUOUS
 62
     7
 10
231.39696961966979
 20
359.60303038033021
 30
0.0
  0
VERTEX
  5
1726
  8
DATA
  6
CONTINUOUS
 62
     7
 10
222.3969696196697
 20
359.60303038033021
 30
0.0
  0
SEQEND
  5
1727
  8
DATA
  6
CONTINUOUS
 62
     7
  0
POLYLINE
  5
9D8
  8
DATA
  6
CONTINUOUS
 62
     7
 66
     1
 10
0.0
 20
0.0
 30
0.0
  0
VERTEX
  5
1728
  8
DATA
  6
CONTINUOUS
 62
     7
 10
216.39696961966979
 20
359.60303038033021
 30
0.0
  0
VERTEX
  5
1729
  8
DATA
  6
CONTINUOUS
 62
     7
 10
207.39696961966979
 20
359.60303038033021
 30
0.0
  0
VERTEX
  5
172A
  8
DATA
  6
CONTINUOUS
 62
     7
 10
207.39696961966979
 20
365.60303038033032
 30
0.0
  0
VERTEX
  5
172B
  8
DATA
  6
CONTINUOUS
 62
     7
 10
216.39696961966979
 20
365.60303038033032
 30
0.0
  0
SEQEND
  5
172C
  8
DATA
  6
CONTINUOUS
 62
     7
  0
CIRCLE
  5
9DF
  8
DATA
  6
CONTINUOUS
 62
     7
 10
160.0
 20
422.0
 30
0.0
 40
46.5
  0
ARC
  5
9E0
  8
DATA
  6
CONTINUOUS
 62
     7
 10
159.99999999999861
 20
421.99999999999841
 30
0.0
 40
61.500000000000469
 50
120.4852859990973
 51
59.514714000900099
  0
CIRCLE
  5
9E1
  8
DATA
  6
CONTINUOUS
 62
     7
 10
160.0
 20
397.69999999999987
 30
0.0
 40
7.8000000000000673
  0
CIRCLE
  5
9E2
  8
DATA
  6
CONTINUOUS
 62
     7
 10
135.6999999999999
 20
422.0
 30
0.0
 40
7.8000000000000673
  0
CIRCLE
  5
9E3
  8
DATA
  6
CONTINUOUS
 62
     7
 10
184.30000000000001
 20
422.0
 30
0.0
 40
7.8000000000000673
  0
LINE
  5
9E4
  8
DATA
  6
CONTINUOUS
 62
     7
 10
128.80000000000001
 20
474.99820751685439
 30
0.0
 11
128.80000000000001
 21
480.15977991705012
 31
0.0
  0
LINE
  5
9E5
  8
DATA
  6
CONTINUOUS
 62
     7
 10
191.1999999999999
 20
480.15977991705012
 30
0.0
 11
191.1999999999999
 21
474.99820751685439
 31
0.0
  0
ARC
  5
9E6
  8
DATA
  6
CONTINUOUS
 62
     7
 10
127.1195346748251
 20
454.88046532517438
 30
0.0
 40
4.5000000000006963
 50
42.226540597911033
 51
227.77345940208889
  0
CIRCLE
  5
9E7
  8
DATA
  6
CONTINUOUS
 62
     7
 10
316.0
 20
422.0
 30
0.0
 40
66.0
  0
CIRCLE
  5
9E8
  8
DATA
  6
CONTINUOUS
 62
     7
 10
316.0
 20
422.0
 30
0.0
 40
48.0
  0
CIRCLE
  5
9E9
  8
DATA
  6
CONTINUOUS
 62
     7
 10
316.0
 20
398.0
 30
0.0
 40
7.8000000000000673
  0
CIRCLE
  5
9EA
  8
DATA
  6
CONTINUOUS
 62
     7
 10
292.0
 20
422.0
 30
0.0
 40
7.8000000000000673
  0
CIRCLE
  5
9EB
  8
DATA
  6
CONTINUOUS
 62
     7
 10
340.0
 20
422.0
 30
0.0
 40
7.8000000000000673
  0
CIRCLE
  5
9EC
  8
DATA
  6
CONTINUOUS
 62
     7
 10
256.60303038033021
 20
481.39696961966968
 30
0.0
 40
16.5
  0
POLYLINE
  5
9ED
  8
DATA
  6
CONTINUOUS
 62
     7
 66
     1
 10
0.0
 20
0.0
 30
0.0
  0
VERTEX
  5
172D
  8
DATA
  6
CONTINUOUS
 62
     7
 10
253.60303038033021
 20
484.39696961966968
 30
0.0
  0
VERTEX
  5
172E
  8
DATA
  6
CONTINUOUS
 62
     7
 10
253.60303038033021
 20
493.39696961966968
 30
0.0
  0
VERTEX
  5
172F
  8
DATA
  6
CONTINUOUS
 62
     7
 10
259.60303038033021
 20
493.39696961966968
 30
0.0
  0
VERTEX
  5
1730
  8
DATA
  6
CONTINUOUS
 62
     7
 10
259.60303038033021
 20
484.39696961966968
 30
0.0
  0
SEQEND
  5
1731
  8
DATA
  6
CONTINUOUS
 62
     7
  0
POLYLINE
  5
9F4
  8
DATA
  6
CONTINUOUS
 62
     7
 66
     1
 10
0.0
 20
0.0
 30
0.0
  0
VERTEX
  5
1732
  8
DATA
  6
CONTINUOUS
 62
     7
 10
259.60303038033021
 20
478.39696961966968
 30
0.0
  0
VERTEX
  5
1733
  8
DATA
  6
CONTINUOUS
 62
     7
 10
259.60303038033021
 20
469.39696961966968
 30
0.0
  0
VERTEX
  5
1734
  8
DATA
  6
CONTINUOUS
 62
     7
 10
253.60303038033021
 20
469.39696961966968
 30
0.0
  0
VERTEX
  5
1735
  8
DATA
  6
CONTINUOUS
 62
     7
 10
253.60303038033021
 20
478.39696961966968
 30
0.0
  0
SEQEND
  5
1736
  8
DATA
  6
CONTINUOUS
 62
     7
  0
POLYLINE
  5
9FB
  8
DATA
  6
CONTINUOUS
 62
     7
 66
     1
 10
0.0
 20
0.0
 30
0.0
  0
VERTEX
  5
1737
  8
DATA
  6
CONTINUOUS
 62
     7
 10
259.60303038033021
 20
484.39696961966968
 30
0.0
  0
VERTEX
  5
1738
  8
DATA
  6
CONTINUOUS
 62
     7
 10
268.60303038033021
 20
484.39696961966968
 30
0.0
  0
VERTEX
  5
1739
  8
DATA
  6
CONTINUOUS
 62
     7
 10
268.60303038033021
 20
478.39696961966968
 30
0.0
  0
VERTEX
  5
173A
  8
DATA
  6
CONTINUOUS
 62
     7
 10
259.60303038033021
 20
478.39696961966968
 30
0.0
  0
SEQEND
  5
173B
  8
DATA
  6
CONTINUOUS
 62
     7
  0
POLYLINE
  5
A02
  8
DATA
  6
CONTINUOUS
 62
     7
 66
     1
 10
0.0
 20
0.0
 30
0.0
  0
VERTEX
  5
173C
  8
DATA
  6
CONTINUOUS
 62
     7
 10
253.60303038033021
 20
478.39696961966968
 30
0.0
  0
VERTEX
  5
173D
  8
DATA
  6
CONTINUOUS
 62
     7
 10
244.60303038033021
 20
478.39696961966968
 30
0.0
  0
VERTEX
  5
173E
  8
DATA
  6
CONTINUOUS
 62
     7
 10
244.60303038033021
 20
484.39696961966968
 30
0.0
  0
VERTEX
  5
173F
  8
DATA
  6
CONTINUOUS
 62
     7
 10
253.60303038033021
 20
484.39696961966968
 30
0.0
  0
SEQEND
  5
1740
  8
DATA
  6
CONTINUOUS
 62
     7
  0
CIRCLE
  5
A09
  8
DATA
  6
CONTINUOUS
 62
     7
 10
375.39696961966968
 20
362.60303038033032
 30
0.0
 40
16.5
  0
POLYLINE
  5
A0A
  8
DATA
  6
CONTINUOUS
 62
     7
 66
     1
 10
0.0
 20
0.0
 30
0.0
  0
VERTEX
  5
1741
  8
DATA
  6
CONTINUOUS
 62
     7
 10
372.39696961966968
 20
365.60303038033032
 30
0.0
  0
VERTEX
  5
1742
  8
DATA
  6
CONTINUOUS
 62
     7
 10
372.39696961966968
 20
374.60303038033032
 30
0.0
  0
VERTEX
  5
1743
  8
DATA
  6
CONTINUOUS
 62
     7
 10
378.39696961966968
 20
374.60303038033032
 30
0.0
  0
VERTEX
  5
1744
  8
DATA
  6
CONTINUOUS
 62
     7
 10
378.39696961966968
 20
365.60303038033032
 30
0.0
  0
SEQEND
  5
1745
  8
DATA
  6
CONTINUOUS
 62
     7
  0
POLYLINE
  5
A11
  8
DATA
  6
CONTINUOUS
 62
     7
 66
     1
 10
0.0
 20
0.0
 30
0.0
  0
VERTEX
  5
1746
  8
DATA
  6
CONTINUOUS
 62
     7
 10
378.39696961966968
 20
359.60303038033021
 30
0.0
  0
VERTEX
  5
1747
  8
DATA
  6
CONTINUOUS
 62
     7
 10
378.39696961966968
 20
350.60303038033021
 30
0.0
  0
VERTEX
  5
1748
  8
DATA
  6
CONTINUOUS
 62
     7
 10
372.39696961966968
 20
350.60303038033021
 30
0.0
  0
VERTEX
  5
1749
  8
DATA
  6
CONTINUOUS
 62
     7
 10
372.39696961966968
 20
359.60303038033021
 30
0.0
  0
SEQEND
  5
174A
  8
DATA
  6
CONTINUOUS
 62
     7
  0
POLYLINE
  5
A18
  8
DATA
  6
CONTINUOUS
 62
     7
 66
     1
 10
0.0
 20
0.0
 30
0.0
  0
VERTEX
  5
174B
  8
DATA
  6
CONTINUOUS
 62
     7
 10
378.39696961966968
 20
365.60303038033032
 30
0.0
  0
VERTEX
  5
174C
  8
DATA
  6
CONTINUOUS
 62
     7
 10
387.39696961966968
 20
365.60303038033032
 30
0.0
  0
VERTEX
  5
174D
  8
DATA
  6
CONTINUOUS
 62
     7
 10
387.39696961966968
 20
359.60303038033021
 30
0.0
  0
VERTEX
  5
174E
  8
DATA
  6
CONTINUOUS
 62
     7
 10
378.39696961966968
 20
359.60303038033021
 30
0.0
  0
SEQEND
  5
174F
  8
DATA
  6
CONTINUOUS
 62
     7
  0
POLYLINE
  5
A1F
  8
DATA
  6
CONTINUOUS
 62
     7
 66
     1
 10
0.0
 20
0.0
 30
0.0
  0
VERTEX
  5
1750
  8
DATA
  6
CONTINUOUS
 62
     7
 10
372.39696961966968
 20
359.60303038033021
 30
0.0
  0
VERTEX
  5
1751
  8
DATA
  6
CONTINUOUS
 62
     7
 10
363.39696961966968
 20
359.60303038033021
 30
0.0
  0
VERTEX
  5
1752
  8
DATA
  6
CONTINUOUS
 62
     7
 10
363.39696961966968
 20
365.60303038033032
 30
0.0
  0
VERTEX
  5
1753
  8
DATA
  6
CONTINUOUS
 62
     7
 10
372.39696961966968
 20
365.60303038033032
 30
0.0
  0
SEQEND
  5
1754
  8
DATA
  6
CONTINUOUS
 62
     7
  0
CIRCLE
  5
A26
  8
DATA
  6
CONTINUOUS
 62
     7
 10
-9.7746973143757856
 20
380.0
 30
0.0
 40
24.89999999999986
  0
CIRCLE
  5
A27
  8
DATA
  6
CONTINUOUS
 62
     7
 10
-9.7746973143757856
 20
464.0
 30
0.0
 40
24.89999999999986
  0
CIRCLE
  5
A28
  8
DATA
  6
CONTINUOUS
 62
     7
 10
-9.7746973143757856
 20
464.0
 30
0.0
 40
9.8999999999998636
  0
CIRCLE
  5
A29
  8
DATA
  6
CONTINUOUS
 62
     7
 10
-9.7746973143757856
 20
380.0
 30
0.0
 40
9.8999999999998636
  0
CIRCLE
  5
A2A
  8
DATA
  6
CONTINUOUS
 62
     7
 10
61.187616293679064
 20
422.2999999999999
 30
0.0
 40
16.5
  0
POLYLINE
  5
A2B
  8
DATA
  6
CONTINUOUS
 62
     7
 66
     1
 10
0.0
 20
0.0
 30
0.0
  0
VERTEX
  5
1755
  8
DATA
  6
CONTINUOUS
 62
     7
 10
58.187616293679064
 20
425.30000000000013
 30
0.0
  0
VERTEX
  5
1756
  8
DATA
  6
CONTINUOUS
 62
     7
 10
58.187616293679064
 20
434.2999999999999
 30
0.0
  0
VERTEX
  5
1757
  8
DATA
  6
CONTINUOUS
 62
     7
 10
64.187616293679071
 20
434.2999999999999
 30
0.0
  0
VERTEX
  5
1758
  8
DATA
  6
CONTINUOUS
 62
     7
 10
64.187616293679071
 20
425.30000000000013
 30
0.0
  0
SEQEND
  5
1759
  8
DATA
  6
CONTINUOUS
 62
     7
  0
POLYLINE
  5
A32
  8
DATA
  6
CONTINUOUS
 62
     7
 66
     1
 10
0.0
 20
0.0
 30
0.0
  0
VERTEX
  5
175A
  8
DATA
  6
CONTINUOUS
 62
     7
 10
64.187616293679071
 20
419.30000000000001
 30
0.0
  0
VERTEX
  5
175B
  8
DATA
  6
CONTINUOUS
 62
     7
 10
64.187616293679071
 20
410.2999999999999
 30
0.0
  0
VERTEX
  5
175C
  8
DATA
  6
CONTINUOUS
 62
     7
 10
58.187616293679064
 20
410.2999999999999
 30
0.0
  0
VERTEX
  5
175D
  8
DATA
  6
CONTINUOUS
 62
     7
 10
58.187616293679064
 20
419.30000000000001
 30
0.0
  0
SEQEND
  5
175E
  8
DATA
  6
CONTINUOUS
 62
     7
  0
POLYLINE
  5
A39
  8
DATA
  6
CONTINUOUS
 62
     7
 66
     1
 10
0.0
 20
0.0
 30
0.0
  0
VERTEX
  5
175F
  8
DATA
  6
CONTINUOUS
 62
     7
 10
64.187616293679071
 20
425.30000000000013
 30
0.0
  0
VERTEX
  5
1760
  8
DATA
  6
CONTINUOUS
 62
     7
 10
73.187616293679071
 20
425.30000000000013
 30
0.0
  0
VERTEX
  5
1761
  8
DATA
  6
CONTINUOUS
 62
     7
 10
73.187616293679071
 20
419.30000000000001
 30
0.0
  0
VERTEX
  5
1762
  8
DATA
  6
CONTINUOUS
 62
     7
 10
64.187616293679071
 20
419.30000000000001
 30
0.0
  0
SEQEND
  5
1763
  8
DATA
  6
CONTINUOUS
 62
     7
  0
POLYLINE
  5
A40
  8
DATA
  6
CONTINUOUS
 62
     7
 66
     1
 10
0.0
 20
0.0
 30
0.0
  0
VERTEX
  5
1764
  8
DATA
  6
CONTINUOUS
 62
     7
 10
58.187616293679064
 20
419.30000000000001
 30
0.0
  0
VERTEX
  5
1765
  8
DATA
  6
CONTINUOUS
 62
     7
 10
49.187616293679071
 20
419.30000000000001
 30
0.0
  0
VERTEX
  5
1766
  8
DATA
  6
CONTINUOUS
 62
     7
 10
49.187616293679071
 20
425.30000000000013
 30
0.0
  0
VERTEX
  5
1767
  8
DATA
  6
CONTINUOUS
 62
     7
 10
58.187616293679064
 20
425.30000000000013
 30
0.0
  0
SEQEND
  5
1768
  8
DATA
  6
CONTINUOUS
 62
     7
  0
POLYLINE
  5
A47
  8
DATA
  6
CONTINUOUS
 62
     7
 66
     1
 10
0.0
 20
0.0
 30
0.0
 70
     1
  0
VERTEX
  5
1769
  8
DATA
  6
CONTINUOUS
 62
     7
 10
519.12513500009118
 20
416.11537674763599
 30
0.0
  0
VERTEX
  5
176A
  8
DATA
  6
CONTINUOUS
 62
     7
 10
591.12513500009118
 20
416.11537674763599
 30
0.0
  0
VERTEX
  5
176B
  8
DATA
  6
CONTINUOUS
 62
     7
 10
591.12513500009118
 20
350.11537674763611
 30
0.0
  0
VERTEX
  5
176C
  8
DATA
  6
CONTINUOUS
 62
     7
 10
519.12513500009118
 20
350.11537674763611
 30
0.0
  0
SEQEND
  5
176D
  8
DATA
  6
CONTINUOUS
 62
     7
  0
POLYLINE
  5
A4E
  8
DATA
  6
CONTINUOUS
 62
     7
 66
     1
 10
0.0
 20
0.0
 30
0.0
 70
     1
  0
VERTEX
  5
176E
  8
DATA
  6
CONTINUOUS
 62
     7
 10
540.12513500009118
 20
392.11537674763611
 30
0.0
  0
VERTEX
  5
176F
  8
DATA
  6
CONTINUOUS
 62
     7
 10
570.12513500009118
 20
392.11537674763611
 30
0.0
  0
VERTEX
  5
1770
  8
DATA
  6
CONTINUOUS
 62
     7
 10
570.12513500009118
 20
374.11537674763599
 30
0.0
  0
VERTEX
  5
1771
  8
DATA
  6
CONTINUOUS
 62
     7
 10
540.12513500009118
 20
374.11537674763599
 30
0.0
  0
SEQEND
  5
1772
  8
DATA
  6
CONTINUOUS
 62
     7
  0
LINE
  5
A55
  8
DATA
  6
CONTINUOUS
 62
     7
 10
538.92513500009079
 20
405.915376747636
 30
0.0
 11
571.32513500009145
 21
405.915376747636
 31
0.0
  0
POLYLINE
  5
A56
  8
DATA
  6
CONTINUOUS
 62
     7
 66
     1
 10
0.0
 20
0.0
 30
0.0
  0
VERTEX
  5
1773
  8
DATA
  6
CONTINUOUS
 62
     7
 10
579.12513500009118
 20
398.11537674763599
 30
0.0
  0
VERTEX
  5
1774
  8
DATA
  6
CONTINUOUS
 62
     7
 10
579.12513500009118
 20
360.31537674763598
 30
0.0
  0
VERTEX
  5
1775
  8
DATA
  6
CONTINUOUS
 62
     7
 10
531.12513500009118
 20
360.31537674763598
 30
0.0
  0
VERTEX
  5
1776
  8
DATA
  6
CONTINUOUS
 62
     7
 10
531.12513500009118
 20
398.11537674763599
 30
0.0
  0
SEQEND
  5
1777
  8
DATA
  6
CONTINUOUS
 62
     7
  0
LINE
  5
A5D
  8
DATA
  6
CONTINUOUS
 62
     7
 10
531.12513500009118
 20
398.11537674763599
 30
0.0
 11
538.92513500009079
 21
405.915376747636
 31
0.0
  0
LINE
  5
A5E
  8
DATA
  6
CONTINUOUS
 62
     7
 10
579.12513500009118
 20
398.11537674763599
 30
0.0
 11
571.32513500009145
 21
405.915376747636
 31
0.0
  0
LINE
  5
A5F
  8
DATA
  6
CONTINUOUS
 62
     7
 10
730.0
 20
356.0
 30
0.0
 11
730.0
 21
392.0
 31
0.0
  0
LINE
  5
A60
  8
DATA
  6
CONTINUOUS
 62
     7
 10
610.0
 20
392.0
 30
0.0
 11
730.0
 21
392.0
 31
0.0
  0
LINE
  5
A61
  8
DATA
  6
CONTINUOUS
 62
     7
 10
610.0
 20
356.0
 30
0.0
 11
610.0
 21
392.0
 31
0.0
  0
LINE
  5
A62
  8
DATA
  6
CONTINUOUS
 62
     7
 10
610.0
 20
356.0
 30
0.0
 11
730.0
 21
356.0
 31
0.0
  0
POLYLINE
  5
A63
  8
DATA
  6
CONTINUOUS
 62
     7
 66
     1
 10
0.0
 20
0.0
 30
0.0
 70
     1
  0
VERTEX
  5
1778
  8
DATA
  6
CONTINUOUS
 62
     7
 10
619.43320000000017
 20
383.0
 30
0.0
  0
VERTEX
  5
1779
  8
DATA
  6
CONTINUOUS
 62
     7
 10
627.23320000000012
 20
383.0
 30
0.0
  0
VERTEX
  5
177A
  8
DATA
  6
CONTINUOUS
 62
     7
 10
627.23320000000012
 20
365.0
 30
0.0
  0
VERTEX
  5
177B
  8
DATA
  6
CONTINUOUS
 62
     7
 10
619.43320000000017
 20
365.0
 30
0.0
  0
SEQEND
  5
177C
  8
DATA
  6
CONTINUOUS
 62
     7
  0
LINE
  5
A6A
  8
DATA
  6
CONTINUOUS
 62
     7
 10
619.43320000000017
 20
374.06
 30
0.0
 11
627.23320000000012
 21
374.06
 31
0.0
  0
POLYLINE
  5
A6B
  8
DATA
  6
CONTINUOUS
 62
     7
 66
     1
 10
0.0
 20
0.0
 30
0.0
 70
     1
  0
VERTEX
  5
177D
  8
DATA
  6
CONTINUOUS
 62
     7
 10
632.76640000000066
 20
383.0
 30
0.0
  0
VERTEX
  5
177E
  8
DATA
  6
CONTINUOUS
 62
     7
 10
640.56640000000039
 20
383.0
 30
0.0
  0
VERTEX
  5
177F
  8
DATA
  6
CONTINUOUS
 62
     7
 10
640.56640000000039
 20
365.0
 30
0.0
  0
VERTEX
  5
1780
  8
DATA
  6
CONTINUOUS
 62
     7
 10
632.76640000000066
 20
365.0
 30
0.0
  0
SEQEND
  5
1781
  8
DATA
  6
CONTINUOUS
 62
     7
  0
LINE
  5
A72
  8
DATA
  6
CONTINUOUS
 62
     7
 10
632.76640000000066
 20
374.06
 30
0.0
 11
640.56640000000039
 21
374.06
 31
0.0
  0
POLYLINE
  5
A73
  8
DATA
  6
CONTINUOUS
 62
     7
 66
     1
 10
0.0
 20
0.0
 30
0.0
 70
     1
  0
VERTEX
  5
1782
  8
DATA
  6
CONTINUOUS
 62
     7
 10
646.09960000000012
 20
383.0
 30
0.0
  0
VERTEX
  5
1783
  8
DATA
  6
CONTINUOUS
 62
     7
 10
653.89959999999996
 20
383.0
 30
0.0
  0
VERTEX
  5
1784
  8
DATA
  6
CONTINUOUS
 62
     7
 10
653.89959999999996
 20
365.0
 30
0.0
  0
VERTEX
  5
1785
  8
DATA
  6
CONTINUOUS
 62
     7
 10
646.09960000000012
 20
365.0
 30
0.0
  0
SEQEND
  5
1786
  8
DATA
  6
CONTINUOUS
 62
     7
  0
LINE
  5
A7A
  8
DATA
  6
CONTINUOUS
 62
     7
 10
646.09960000000012
 20
374.06
 30
0.0
 11
653.89959999999996
 21
374.06
 31
0.0
  0
POLYLINE
  5
A7B
  8
DATA
  6
CONTINUOUS
 62
     7
 66
     1
 10
0.0
 20
0.0
 30
0.0
 70
     1
  0
VERTEX
  5
1787
  8
DATA
  6
CONTINUOUS
 62
     7
 10
659.4328000000005
 20
383.0
 30
0.0
  0
VERTEX
  5
1788
  8
DATA
  6
CONTINUOUS
 62
     7
 10
667.23280000000011
 20
383.0
 30
0.0
  0
VERTEX
  5
1789
  8
DATA
  6
CONTINUOUS
 62
     7
 10
667.23280000000011
 20
365.0
 30
0.0
  0
VERTEX
  5
178A
  8
DATA
  6
CONTINUOUS
 62
     7
 10
659.4328000000005
 20
365.0
 30
0.0
  0
SEQEND
  5
178B
  8
DATA
  6
CONTINUOUS
 62
     7
  0
LINE
  5
A82
  8
DATA
  6
CONTINUOUS
 62
     7
 10
659.4328000000005
 20
374.06
 30
0.0
 11
667.23280000000011
 21
374.06
 31
0.0
  0
POLYLINE
  5
A83
  8
DATA
  6
CONTINUOUS
 62
     7
 66
     1
 10
0.0
 20
0.0
 30
0.0
 70
     1
  0
VERTEX
  5
178C
  8
DATA
  6
CONTINUOUS
 62
     7
 10
672.76600000000008
 20
383.0
 30
0.0
  0
VERTEX
  5
178D
  8
DATA
  6
CONTINUOUS
 62
     7
 10
680.56599999999958
 20
383.0
 30
0.0
  0
VERTEX
  5
178E
  8
DATA
  6
CONTINUOUS
 62
     7
 10
680.56599999999958
 20
365.0
 30
0.0
  0
VERTEX
  5
178F
  8
DATA
  6
CONTINUOUS
 62
     7
 10
672.76600000000008
 20
365.0
 30
0.0
  0
SEQEND
  5
1790
  8
DATA
  6
CONTINUOUS
 62
     7
  0
LINE
  5
A8A
  8
DATA
  6
CONTINUOUS
 62
     7
 10
672.76600000000008
 20
374.06
 30
0.0
 11
680.56599999999958
 21
374.06
 31
0.0
  0
POLYLINE
  5
A8B
  8
DATA
  6
CONTINUOUS
 62
     7
 66
     1
 10
0.0
 20
0.0
 30
0.0
 70
     1
  0
VERTEX
  5
1791
  8
DATA
  6
CONTINUOUS
 62
     7
 10
686.09920000000034
 20
383.0
 30
0.0
  0
VERTEX
  5
1792
  8
DATA
  6
CONTINUOUS
 62
     7
 10
693.89920000000006
 20
383.0
 30
0.0
  0
VERTEX
  5
1793
  8
DATA
  6
CONTINUOUS
 62
     7
 10
693.89920000000006
 20
365.0
 30
0.0
  0
VERTEX
  5
1794
  8
DATA
  6
CONTINUOUS
 62
     7
 10
686.09920000000034
 20
365.0
 30
0.0
  0
SEQEND
  5
1795
  8
DATA
  6
CONTINUOUS
 62
     7
  0
LINE
  5
A92
  8
DATA
  6
CONTINUOUS
 62
     7
 10
686.09920000000034
 20
374.06
 30
0.0
 11
693.89920000000006
 21
374.06
 31
0.0
  0
POLYLINE
  5
A93
  8
DATA
  6
CONTINUOUS
 62
     7
 66
     1
 10
0.0
 20
0.0
 30
0.0
 70
     1
  0
VERTEX
  5
1796
  8
DATA
  6
CONTINUOUS
 62
     7
 10
699.43240000000048
 20
383.0
 30
0.0
  0
VERTEX
  5
1797
  8
DATA
  6
CONTINUOUS
 62
     7
 10
707.23240000000033
 20
383.0
 30
0.0
  0
VERTEX
  5
1798
  8
DATA
  6
CONTINUOUS
 62
     7
 10
707.23240000000033
 20
365.0
 30
0.0
  0
VERTEX
  5
1799
  8
DATA
  6
CONTINUOUS
 62
     7
 10
699.43240000000048
 20
365.0
 30
0.0
  0
SEQEND
  5
179A
  8
DATA
  6
CONTINUOUS
 62
     7
  0
LINE
  5
A9A
  8
DATA
  6
CONTINUOUS
 62
     7
 10
699.43240000000048
 20
374.06
 30
0.0
 11
707.23240000000033
 21
374.06
 31
0.0
  0
POLYLINE
  5
A9B
  8
DATA
  6
CONTINUOUS
 62
     7
 66
     1
 10
0.0
 20
0.0
 30
0.0
 70
     1
  0
VERTEX
  5
179B
  8
DATA
  6
CONTINUOUS
 62
     7
 10
712.76560000000006
 20
383.0
 30
0.0
  0
VERTEX
  5
179C
  8
DATA
  6
CONTINUOUS
 62
     7
 10
720.5655999999999
 20
383.0
 30
0.0
  0
VERTEX
  5
179D
  8
DATA
  6
CONTINUOUS
 62
     7
 10
720.5655999999999
 20
365.0
 30
0.0
  0
VERTEX
  5
179E
  8
DATA
  6
CONTINUOUS
 62
     7
 10
712.76560000000006
 20
365.0
 30
0.0
  0
SEQEND
  5
179F
  8
DATA
  6
CONTINUOUS
 62
     7
  0
LINE
  5
AA2
  8
DATA
  6
CONTINUOUS
 62
     7
 10
712.76560000000006
 20
374.06
 30
0.0
 11
720.5655999999999
 21
374.06
 31
0.0
  0
POLYLINE
  5
AA3
  8
DATA
  6
CONTINUOUS
 62
     7
 66
     1
 10
0.0
 20
0.0
 30
0.0
 70
     1
  0
VERTEX
  5
17A0
  8
DATA
  6
CONTINUOUS
 62
     7
 10
400.9828844373535
 20
500.61533367488641
 30
0.0
  0
VERTEX
  5
17A1
  8
DATA
  6
CONTINUOUS
 62
     7
 10
502.98288443735328
 20
500.61533367488641
 30
0.0
  0
VERTEX
  5
17A2
  8
DATA
  6
CONTINUOUS
 62
     7
 10
502.98288443735328
 20
350.61533367488641
 30
0.0
  0
VERTEX
  5
17A3
  8
DATA
  6
CONTINUOUS
 62
     7
 10
400.9828844373535
 20
350.61533367488641
 30
0.0
  0
SEQEND
  5
17A4
  8
DATA
  6
CONTINUOUS
 62
     7
  0
LINE
  5
AAA
  8
DATA
  6
CONTINUOUS
 62
     7
 10
487.9828844373535
 20
484.41533367488643
 30
0.0
 11
487.9828844373535
 21
366.8153336748864
 31
0.0
  0
LINE
  5
AAB
  8
DATA
  6
CONTINUOUS
 62
     7
 10
415.98288443735328
 20
366.8153336748864
 30
0.0
 11
415.98288443735328
 21
484.41533367488643
 31
0.0
  0
LINE
  5
AAC
  8
DATA
  6
CONTINUOUS
 62
     7
 10
415.98288443735328
 20
441.8153336748864
 30
0.0
 11
487.9828844373535
 21
441.8153336748864
 31
0.0
  0
LINE
  5
AAD
  8
DATA
  6
CONTINUOUS
 62
     7
 10
487.9828844373535
 20
409.41533367488609
 30
0.0
 11
415.98288443735328
 21
409.41533367488609
 31
0.0
  0
LINE
  5
AAE
  8
DATA
  6
CONTINUOUS
 62
     7
 10
432.9328844373531
 20
484.41533367488643
 30
0.0
 11
432.9328844373531
 21
500.61533367488641
 31
0.0
  0
LINE
  5
AAF
  8
DATA
  6
CONTINUOUS
 62
     7
 10
471.03288443735318
 20
500.61533367488641
 30
0.0
 11
471.03288443735318
 21
484.41533367488643
 31
0.0
  0
LINE
  5
AB0
  8
DATA
  6
CONTINUOUS
 62
     7
 10
432.9328844373531
 20
350.61533367488641
 30
0.0
 11
432.9328844373531
 21
366.8153336748864
 31
0.0
  0
LINE
  5
AB1
  8
DATA
  6
CONTINUOUS
 62
     7
 10
471.03288443735318
 20
366.8153336748864
 30
0.0
 11
471.03288443735318
 21
350.61533367488641
 31
0.0
  0
LINE
  5
AB2
  8
DATA
  6
CONTINUOUS
 62
     7
 10
415.98288443735328
 20
484.41533367488643
 30
0.0
 11
432.9328844373531
 21
484.41533367488643
 31
0.0
  0
LINE
  5
AB3
  8
DATA
  6
CONTINUOUS
 62
     7
 10
471.03288443735318
 20
484.41533367488643
 30
0.0
 11
487.9828844373535
 21
484.41533367488643
 31
0.0
  0
LINE
  5
AB4
  8
DATA
  6
CONTINUOUS
 62
     7
 10
415.98288443735328
 20
366.8153336748864
 30
0.0
 11
432.9328844373531
 21
366.8153336748864
 31
0.0
  0
LINE
  5
AB5
  8
DATA
  6
CONTINUOUS
 62
     7
 10
471.03288443735318
 20
366.8153336748864
 30
0.0
 11
487.9828844373535
 21
366.8153336748864
 31
0.0
  0
LINE
  5
AB6
  8
DATA
  6
CONTINUOUS
 62
     7
 10
377.42531776846931
 20
323.17397561965078
 30
0.0
 11
-43.688672275246972
 21
323.17397561965078
 31
0.0
  0
LINE
  5
AB7
  8
DATA
  6
CONTINUOUS
 62
     7
 10
-61.688672275246972
 20
134.0
 30
0.0
 11
318.82178037377821
 21
134.0
 31
0.0
  0
LINE
  5
AB8
  8
DATA
  6
CONTINUOUS
 62
     7
 10
-61.688672275246972
 20
341.17397561965078
 30
0.0
 11
-61.688672275246972
 21
536.0
 31
0.0
  0
LINE
  5
AB9
  8
DATA
  6
CONTINUOUS
 62
     7
 10
511.6812837500226
 20
554.0
 30
0.0
 11
-43.688672275246972
 21
554.0
 31
0.0
  0
LINE
  5
ABA
  8
DATA
  6
CONTINUOUS
 62
     7
 10
511.6812837500226
 20
341.17397561965078
 30
0.0
 11
511.6812837500226
 21
554.0
 31
0.0
  0
LINE
  5
ABB
  8
DATA
  6
CONTINUOUS
 62
     7
 10
395.42531776846931
 20
341.17397561965078
 30
0.0
 11
395.42531776846931
 21
554.0
 31
0.0
  0
LINE
  5
ABC
  8
DATA
  6
CONTINUOUS
 62
     7
 10
49.037552961411713
 20
323.17397561965078
 30
0.0
 11
49.037552961411713
 21
411.13640017637221
 31
0.0
  0
LINE
  5
ABD
  8
DATA
  6
CONTINUOUS
 62
     7
 10
49.037552961411713
 20
433.46359982362782
 30
0.0
 11
49.037552961411713
 21
554.0
 31
0.0
  0
LINE
  5
ABE
  8
DATA
  6
CONTINUOUS
 62
     7
 10
318.82178037377821
 20
134.0
 30
0.0
 11
318.82178037377821
 21
323.17397561965078
 31
0.0
  0
LINE
  5
ABF
  8
DATA
  6
CONTINUOUS
 62
     7
 10
-61.688672275246972
 20
522.93760810200865
 30
0.0
 11
511.6812837500226
 21
522.93760810200865
 31
0.0
  0
LINE
  5
AC0
  8
DATA
  6
CONTINUOUS
 62
     7
 10
-43.688672275246972
 20
104.0
 30
0.0
 11
318.82178037377821
 21
104.0
 31
0.0
  0
LINE
  5
AC1
  8
DATA
  6
CONTINUOUS
 62
     7
 10
-61.688672275246972
 20
122.0
 30
0.0
 11
-61.688672275246972
 21
134.5999999999994
 31
0.0
  0
LINE
  5
AC2
  8
DATA
  6
CONTINUOUS
 62
     7
 10
318.82178037377821
 20
104.0
 30
0.0
 11
318.82178037377821
 21
134.5999999999994
 31
0.0
  0
TEXT
  5
AC3
  8
DATA
 62
     7
 10
-21.59360991662745
 20
415.79406776851368
 30
0.0
 40
14.6595703125
  1
IN
 41
0.7
 11
-21.59360991662745
 21
430.45363808101359
 31
0.0
 73
     3
  0
TEXT
  5
AC4
  8
DATA
 62
     7
 10
-22.537593388915091
 20
334.28579669445747
 30
0.0
 40
14.6595703125
  1
OUT
 41
0.7
 11
-22.537593388915091
 21
348.9453670069575
 31
0.0
 73
     3
  0
TEXT
  5
AC5
  8
DATA
 62
     7
 10
149.1082710740568
 20
331.65647437959927
 30
0.0
 40
14.6595703125
  1
IN
 41
0.7
 11
149.1082710740568
 21
346.3160446920993
 31
0.0
 73
     3
  0
TEXT
  5
AC6
  8
DATA
 62
     7
 10
303.81654214811317
 20
332.46286446297148
 30
0.0
 40
14.6595703125
  1
OUT
 41
0.7
 11
303.81654214811317
 21
347.1224347754715
 31
0.0
 73
     3
  0
TEXT
  5
AC7
  8
DATA
 62
     7
 10
539.98129770376204
 20
425.9419999999995
 30
0.0
 40
14.6595703125
  1
USB
 41
0.7
 11
539.98129770376204
 21
440.60157031249958
 31
0.0
 73
     3
  0
TEXT
  5
AC8
  8
DATA
 62
     7
 10
-37.633084296226471
 20
530.99406776851401
 30
0.0
 40
14.6595703125
  1
S/PDIF
 41
0.7
 11
-37.633084296226471
 21
545.65363808101415
 31
0.0
 73
     3
  0
TEXT
  5
AC9
  8
DATA
 62
     7
 10
181.59999999999999
 20
529.08301781242733
 30
0.0
 40
14.6595703125
  1
AES/EBU
 41
0.7
 11
181.59999999999999
 21
543.74258812492735
 31
0.0
 73
     3
  0
TEXT
  5
ACA
  8
DATA
 62
     7
 10
420.31359838569477
 20
529.8859881250479
 30
0.0
 40
16.288411458333329
  1
HIQnet
 41
0.7
 11
420.31359838569477
 21
546.17439958338127
 31
0.0
 73
     3
  0
TEXT
  5
ACB
  8
DATA
 62
     7
 10
63.26482424548589
 20
111.6177950414616
 30
0.0
 40
16.288411458333329
  1
ANALOG IN
 41
0.7
 11
63.26482424548589
 21
127.906206499795
 31
0.0
 73
     3
  0
TEXT
  5
ACC
  8
DATA
 62
     7
 10
240.8926780182646
 20
110.72745904280779
 30
0.0
 40
16.288411458333329
  1
RMC MIC
 41
0.7
 11
240.8926780182646
 21
127.01587050114119
 31
0.0
 73
     3
  0
LINE
  5
ACD
  8
DATA
  6
CONTINUOUS
 62
     7
 10
249.33841524771719
 20
134.0
 30
0.0
 11
249.33841524771719
 21
323.17397561965078
 31
0.0
  0
TEXT
  5
ACE
  8
DATA
 62
     7
 10
616.66158475228406
 20
326.99666666666661
 30
0.0
 40
16.288411458333329
  1
SPEAKER ID
 41
0.7
 11
616.66158475228406
 21
343.28507812499993
 31
0.0
 73
     3
  0
TEXT
  5
ACF
  8
DATA
 62
     7
 10
759.70792376141833
 20
355.79666666666668
 30
0.0
 40
16.288411458333329
  1
120V～,60HZ
 41
0.7
 11
759.70792376141833
 21
372.085078125
 31
0.0
 73
     3
  0
TEXT
  5
AD0
  8
DATA
 62
     7
 10
759.7307923761424
 20
330.18142092351559
 30
0.0
 40
16.288411458333329
  1
130 Watts
 41
0.7
 11
759.7307923761424
 21
346.4698323818489
 31
0.0
 73
     3
  0
TEXT
  5
AD1
  8
DATA
 62
     7
 10
262.0
 20
205.25825141894981
 30
0.0
 40
16.288411458333329
  1
+15V
 41
0.7
 11
262.0
 21
221.54666287728321
 31
0.0
 73
     3
  0
TEXT
  5
AD2
  8
DATA
 62
     7
 10
-51.506286434973063
 20
216.99123764480831
 30
0.0
 40
11.401888020833329
  1
+4dBu/
 41
0.7
 11
-51.506286434973063
 21
228.39312566564161
 31
0.0
 73
     3
  0
TEXT
  5
AD3
  8
DATA
 62
     7
 10
-51.506286434973063
 20
202.1745709781415
 30
0.0
 40
11.401888020833329
  1
-10dbV
 41
0.7
 11
-51.506286434973063
 21
213.57645899897491
 31
0.0
 73
     3
  0
TEXT
  5
AD4
  8
DATA
 62
     7
 10
351.2529387417473
 20
111.6511529176565
 30
0.0
 40
16.288411458333329
  1
ACTIVE INPUT
 41
0.7
 11
351.2529387417473
 21
127.9395643759898
 31
0.0
 73
     3
  0
TEXT
  5
AD5
  8
DATA
 62
     7
 10
366.82413301209527
 20
190.89671279447239
 30
0.0
 40
16.288411458333329
  1
ANALOG
 50
90.0
 41
0.7
 11
350.53572155376202
 21
190.89671279447239
 31
0.0
 73
     3
  0
TEXT
  5
AD6
  8
DATA
 62
     7
 10
396.91991859511108
 20
190.62871246405729
 30
0.0
 40
16.288411458333329
  1
S/PDIF
 50
90.0
 41
0.7
 11
380.63150713677783
 21
190.62871246405729
 31
0.0
 73
     3
  0
TEXT
  5
AD7
  8
DATA
 62
     7
 10
426.77325068531059
 20
190.87831799445411
 30
0.0
 40
16.288411458333329
  1
AES/EBU
 50
90.0
 41
0.7
 11
410.48483922697727
 21
190.87831799445411
 31
0.0
 73
     3
  0
TEXT
  5
AD8
  8
DATA
 62
     7
 10
455.14534385364038
 20
191.04961962614249
 30
0.0
 40
16.288411458333329
  1
Ch.A
 50
90.0
 41
0.7
 11
438.85693239530713
 21
191.04961962614249
 31
0.0
 73
     3
  0
TEXT
  5
AD9
  8
DATA
 62
     7
 10
483.93019608497133
 20
190.8592156601176
 30
0.0
 40
16.288411458333329
  1
Ch.B
 50
90.0
 41
0.7
 11
467.64178462663801
 21
190.8592156601176
 31
0.0
 73
     3
  0
TEXT
  5
ADA
  8
DATA
 62
     7
 10
611.67654589548169
 20
384.4803937189256
 30
0.0
 40
6.5153645833333318
  1
ON
 41
0.7
 11
611.67654589548169
 21
390.99575830225888
 31
0.0
 73
     3
  0
TEXT
  5
ADB
  8
DATA
 62
     7
 10
627.74813302023142
 20
394.57828858253288
 30
0.0
 40
8.1442057291666661
  1
Left
 50
90.0
 41
0.7
 11
619.60392729106468
 21
394.57828858253288
 31
0.0
 73
     3
  0
TEXT
  5
ADC
  8
DATA
 62
     7
 10
640.72866789883028
 20
394.79173059637861
 30
0.0
 40
8.1442057291666661
  1
Right
 50
90.0
 41
0.7
 11
632.58446216966377
 21
394.79173059637861
 31
0.0
 73
     3
  0
TEXT
  5
ADD
  8
DATA
 62
     7
 10
654.24926244515927
 20
394.80174551331118
 30
0.0
 40
8.1442057291666661
  1
Center
 50
90.0
 41
0.7
 11
646.10505671599276
 21
394.80174551331118
 31
0.0
 73
     3
  0
TEXT
  5
ADE
  8
DATA
 62
     7
 10
667.43838447710425
 20
394.79995738019232
 30
0.0
 40
8.1442057291666661
  1
Lsurround
 50
90.0
 41
0.7
 11
659.29417874793762
 21
394.79995738019232
 31
0.0
 73
     3
  0
TEXT
  5
ADF
  8
DATA
 62
     7
 10
680.60179452609464
 20
394.90998295207669
 30
0.0
 40
8.1442057291666661
  1
Rsurround
 50
90.0
 41
0.7
 11
672.45758879692801
 21
394.90998295207669
 31
0.0
 73
     3
  0
TEXT
  5
AE0
  8
DATA
 62
     7
 10
693.38187124175215
 20
395.02994885623087
 30
0.0
 40
8.1442057291666661
  1
Csurround
 50
90.0
 41
0.7
 11
685.23766551258552
 21
395.02994885623087
 31
0.0
 73
     3
  0
TEXT
  5
AE1
  8
DATA
 62
     7
 10
706.67518752716103
 20
394.92000852396097
 30
0.0
 40
8.1442057291666661
  1
Left Extra
 50
90.0
 41
0.7
 11
698.5309817979944
 21
394.92000852396097
 31
0.0
 73
     3
  0
TEXT
  5
AE2
  8
DATA
 62
     7
 10
719.37517441218506
 20
395.15305969017891
 30
0.0
 40
8.1442057291666661
  1
Right Extra
 50
90.0
 41
0.7
 11
711.23096868301855
 21
395.15305969017891
 31
0.0
 73
     3
  0
TEXT
  5
AE3
  8
DATA
 62
     7
 10
621.04313526397186
 20
357.33567473087788
 30
0.0
 40
6.5153645833333318
  1
1
 41
0.7
 11
621.04313526397186
 21
363.85103931421122
 31
0.0
 73
     3
  0
TEXT
  5
AE4
  8
DATA
 62
     7
 10
634.36313526397225
 20
357.33567473087788
 30
0.0
 40
6.5153645833333318
  1
2
 41
0.7
 11
634.36313526397225
 21
363.85103931421122
 31
0.0
 73
     3
  0
TEXT
  5
AE5
  8
DATA
 62
     7
 10
647.68313526397242
 20
357.33567473087788
 30
0.0
 40
6.5153645833333318
  1
3
 41
0.7
 11
647.68313526397242
 21
363.85103931421122
 31
0.0
 73
     3
  0
TEXT
  5
AE6
  8
DATA
 62
     7
 10
661.0031352639719
 20
357.33567473087788
 30
0.0
 40
6.5153645833333318
  1
4
 41
0.7
 11
661.0031352639719
 21
363.85103931421122
 31
0.0
 73
     3
  0
TEXT
  5
AE7
  8
DATA
 62
     7
 10
674.32313526397195
 20
357.33567473087788
 30
0.0
 40
6.5153645833333318
  1
5
 41
0.7
 11
674.32313526397195
 21
363.85103931421122
 31
0.0
 73
     3
  0
TEXT
  5
AE8
  8
DATA
 62
     7
 10
687.64313526397211
 20
357.33567473087788
 30
0.0
 40
6.5153645833333318
  1
6
 41
0.7
 11
687.64313526397211
 21
363.85103931421122
 31
0.0
 73
     3
  0
TEXT
  5
AE9
  8
DATA
 62
     7
 10
700.96313526397205
 20
357.33567473087788
 30
0.0
 40
6.5153645833333318
  1
7
 41
0.7
 11
700.96313526397205
 21
363.85103931421122
 31
0.0
 73
     3
  0
TEXT
  5
AEA
  8
DATA
 62
     7
 10
714.28313526397164
 20
357.33567473087788
 30
0.0
 40
6.5153645833333318
  1
8
 41
0.7
 11
714.28313526397164
 21
363.85103931421122
 31
0.0
 73
     3
  0
ARC
  5
AEB
  8
DATA
  6
CONTINUOUS
 62
     7
 10
-43.688672275246972
 20
122.0
 30
0.0
 40
18.0
 50
180.0
 51
270.0
  0
ARC
  5
AEC
  8
DATA
  6
CONTINUOUS
 62
     7
 10
-43.688672275246972
 20
536.0
 30
0.0
 40
18.0
 50
90.0
 51
180.0
  0
ARC
  5
AED
  8
DATA
  6
CONTINUOUS
 62
     7
 10
-43.688672275246972
 20
341.17397561965078
 30
0.0
 40
18.0
 50
180.0
 51
270.0
  0
LINE
  5
AEE
  8
DATA
  6
CONTINUOUS
 62
     7
 10
-61.688672275246972
 20
131.45000000000019
 30
0.0
 11
-61.688672275246972
 21
305.17397561965078
 31
0.0
  0
ARC
  5
AEF
  8
DATA
  6
CONTINUOUS
 62
     7
 10
-43.688672275246972
 20
305.17397561965078
 30
0.0
 40
18.0
 50
90.0
 51
180.0
  0
ARC
  5
AF0
  8
DATA
  6
CONTINUOUS
 62
     7
 10
377.42531776846931
 20
341.17397561965078
 30
0.0
 40
18.0
 50
270.0
 51
0.0
  0
LINE
  5
AF1
  8
DATA
  6
CONTINUOUS
 62
     7
 10
493.6812837500226
 20
323.17397561965078
 30
0.0
 11
413.42531776846909
 21
323.17397561965078
 31
0.0
  0
ARC
  5
AF2
  8
DATA
  6
CONTINUOUS
 62
     7
 10
413.42531776846909
 20
341.17397561965078
 30
0.0
 40
18.0
 50
180.0
 51
270.0
  0
ARC
  5
AF3
  8
DATA
  6
CONTINUOUS
 62
     7
 10
493.6812837500226
 20
341.17397561965078
 30
0.0
 40
18.0
 50
270.0
 51
0.0
  0
ENDSEC
  0
EOF
