  0
SECTION
  2
HEADER
  9
$ACADVER
  1
AC1009
  9
$INSBASE
 10
0.0
 20
0.0
 30
0.0
  9
$EXTMIN
 10
-1350.0823911746049
 20
-1996.4713128984381
 30
-0.0015258207003583
  9
$EXTMAX
 10
1350.082403747462
 20
2017.7813363551249
 30
0.0000000349246037
  9
$LIMMIN
 10
0.0
 20
0.0
  9
$LIMMAX
 10
0.0
 20
0.0
  9
$ORTHOMODE
 70
     0
  9
$REGENMODE
 70
     1
  9
$FILLMODE
 70
     1
  9
$QTEXTMODE
 70
     0
  9
$MIRRTEXT
 70
     1
  9
$DRAGMODE
 70
     2
  9
$LTSCALE
 40
190.5
  9
$OSMODE
 70
   231
  9
$ATTMODE
 70
     1
  9
$TEXTSIZE
 40
0.0
  9
$TRACEWID
 40
1.0
  9
$TEXTSTYLE
  7
STANDARD
  9
$CLAYER
  8
DATA
  9
$CELTYPE
  6
BYLAYER
  9
$CECOLOR
 62
   256
  9
$DIMSCALE
 40
1.0
  9
$DIMASZ
 40
0.18
  9
$DIMEXO
 40
0.0625
  9
$DIMDLI
 40
0.38
  9
$DIMRND
 40
0.0
  9
$DIMDLE
 40
0.0
  9
$DIMEXE
 40
0.18
  9
$DIMTP
 40
0.0
  9
$DIMTM
 40
0.0
  9
$DIMTXT
 40
0.18
  9
$DIMCEN
 40
0.09
  9
$DIMTSZ
 40
0.0
  9
$DIMTOL
 70
     0
  9
$DIMLIM
 70
     0
  9
$DIMTIH
 70
     1
  9
$DIMTOH
 70
     1
  9
$DIMSE1
 70
     0
  9
$DIMSE2
 70
     0
  9
$DIMTAD
 70
     0
  9
$DIMZIN
 70
     0
  9
$DIMBLK
  1

  9
$DIMASO
 70
     1
  9
$DIMSHO
 70
     1
  9
$DIMPOST
  1

  9
$DIMAPOST
  1

  9
$DIMALT
 70
     0
  9
$DIMALTD
 70
     2
  9
$DIMALTF
 40
25.399999999999999
  9
$DIMLFAC
 40
1.0
  9
$DIMTOFL
 70
     0
  9
$DIMTVP
 40
0.0
  9
$DIMTIX
 70
     0
  9
$DIMSOXD
 70
     0
  9
$DIMSAH
 70
     0
  9
$DIMBLK1
  1

  9
$DIMBLK2
  1

  9
$DIMSTYLE
  2
STANDARD
  9
$DIMCLRD
 70
     0
  9
$DIMCLRE
 70
     0
  9
$DIMCLRT
 70
     0
  9
$DIMTFAC
 40
1.0
  9
$DIMGAP
 40
0.09
  9
$LUNITS
 70
     2
  9
$LUPREC
 70
     4
  9
$SKETCHINC
 40
0.1
  9
$FILLETRAD
 40
0.0
  9
$AUNITS
 70
     0
  9
$AUPREC
 70
     0
  9
$MENU
  1
acad
  9
$ELEVATION
 40
0.0
  9
$PELEVATION
 40
0.0
  9
$THICKNESS
 40
0.0
  9
$LIMCHECK
 70
     0
  9
$BLIPMODE
 70
     0
  9
$CHAMFERA
 40
0.0
  9
$CHAMFERB
 40
0.0
  9
$SKPOLY
 70
     0
  9
$TDCREATE
 40
2456391.7177430559
  9
$TDUPDATE
 40
2456391.7237883219
  9
$TDINDWG
 40
0.0058546065
  9
$TDUSRTIMER
 40
0.0058544213
  9
$USRTIMER
 70
     1
  9
$ANGBASE
 50
0.0
  9
$ANGDIR
 70
     0
  9
$PDMODE
 70
     1
  9
$PDSIZE
 40
-2.0
  9
$PLINEWID
 40
0.0
  9
$COORDS
 70
     0
  9
$SPLFRAME
 70
     0
  9
$SPLINETYPE
 70
     6
  9
$SPLINESEGS
 70
     8
  9
$ATTDIA
 70
     0
  9
$ATTREQ
 70
     1
  9
$HANDLING
 70
     1
  9
$HANDSEED
  5
573
  9
$SURFTAB1
 70
     6
  9
$SURFTAB2
 70
     6
  9
$SURFTYPE
 70
     6
  9
$SURFU
 70
     6
  9
$SURFV
 70
     6
  9
$UCSNAME
  2

  9
$UCSORG
 10
0.0
 20
0.0
 30
0.0
  9
$UCSXDIR
 10
1.0
 20
0.0
 30
0.0
  9
$UCSYDIR
 10
0.0
 20
1.0
 30
0.0
  9
$PUCSNAME
  2

  9
$PUCSORG
 10
0.0
 20
0.0
 30
0.0
  9
$PUCSXDIR
 10
1.0
 20
0.0
 30
0.0
  9
$PUCSYDIR
 10
0.0
 20
1.0
 30
0.0
  9
$USERI1
 70
     0
  9
$USERI2
 70
     0
  9
$USERI3
 70
     0
  9
$USERI4
 70
     0
  9
$USERI5
 70
     0
  9
$USERR1
 40
0.0
  9
$USERR2
 40
0.0
  9
$USERR3
 40
0.0
  9
$USERR4
 40
0.0
  9
$USERR5
 40
0.0
  9
$WORLDVIEW
 70
     1
  9
$SHADEDGE
 70
     3
  9
$SHADEDIF
 70
    70
  9
$TILEMODE
 70
     1
  9
$MAXACTVP
 70
    64
  9
$PLIMCHECK
 70
     0
  9
$PEXTMIN
 10
1.0000000000000000E+020
 20
1.0000000000000000E+020
 30
1.0000000000000000E+020
  9
$PEXTMAX
 10
-1.0000000000000000E+020
 20
-1.0000000000000000E+020
 30
-1.0000000000000000E+020
  9
$PLIMMIN
 10
0.0
 20
0.0
  9
$PLIMMAX
 10
12.0
 20
9.0
  9
$UNITMODE
 70
     0
  9
$VISRETAIN
 70
     0
  9
$PLINEGEN
 70
     1
  9
$PSLTSCALE
 70
     0
  0
ENDSEC
  0
SECTION
  2
TABLES
  0
TABLE
  2
VPORT
 70
     1
  0
VPORT
  2
*ACTIVE
 70
     0
 10
0.0
 20
0.0
 11
1.0
 21
1.0
 12
0.0000062864287429
 22
14.681859327089111
 13
0.0
 23
0.0
 14
1.0
 24
1.0
 15
0.0
 25
0.0
 16
0.0
 26
0.0
 36
1.0
 17
0.0
 27
0.0
 37
0.0
 40
4037.5381896810209
 41
2.1866840731070489
 42
50.0
 43
0.0
 44
0.0
 50
0.0
 51
0.0
 71
     0
 72
  2000
 73
     1
 74
     1
 75
     0
 76
     0
 77
     0
 78
     0
  0
ENDTAB
  0
TABLE
  2
LTYPE
 70
    14
  0
LTYPE
  2
CONTINUOUS
 70
     0
  3
Solid line
 72
    65
 73
     0
 40
0.0
  0
LTYPE
  2
PHANTOM2
 70
     0
  3
___ _ _ ___ _ _ ___ _ _ ___ _ _
 72
    65
 73
     6
 40
1.25
 49
0.625
 49
-0.125
 49
0.125
 49
-0.125
 49
0.125
 49
-0.125
  0
LTYPE
  2
STYLE_12
 70
     0
  3

 72
    65
 73
     4
 40
2.1826771653543311
 49
1.364173228346456
 49
-0.2728346456692914
 49
0.2728346456692914
 49
-0.2728346456692914
  0
ENDTAB
  0
TABLE
  2
LAYER
 70
     5
  0
LAYER
  2
0
 70
     0
 62
     7
  6
CONTINUOUS
  0
LAYER
  2
DATA
 70
     0
 62
     7
  6
CONTINUOUS
  0
LAYER
  2
HIBINO-BASE
 70
     0
 62
     7
  6
CONTINUOUS
  0
LAYER
  2
SPEC
 70
     0
 62
     7
  6
CONTINUOUS
  0
LAYER
  2
DIMNSIONS
 70
     0
 62
     7
  6
CONTINUOUS
  0
ENDTAB
  0
TABLE
  2
STYLE
 70
     3
  0
STYLE
  2
STANDARD
 70
     0
 40
0.0
 41
1.0
 50
0.0
 71
     0
 42
0.0
  3
txt
  4
BIGFONT.SHX
  0
ENDTAB
  0
TABLE
  2
VIEW
 70
     0
  0
ENDTAB
  0
TABLE
  2
UCS
 70
     0
  0
ENDTAB
  0
TABLE
  2
APPID
 70
     4
  0
APPID
  2
ACAD
 70
     0
  0
APPID
  2
ACADANNOTATIVE
 70
     0
  0
APPID
  2
ACAD_NAV_VCDISPLAY
 70
     0
  0
APPID
  2
ACAD_MLEADERVER
 70
     0
  0
ENDTAB
  0
TABLE
  2
DIMSTYLE
 70
     2
  0
DIMSTYLE
  2
STANDARD
 70
     0
  3

  4

  5

  6

  7

 40
1.0
 41
0.18
 42
0.0625
 43
0.38
 44
0.18
 45
0.0
 46
0.0
 47
0.0
 48
0.0
140
0.18
141
0.09
142
0.0
143
25.399999999999999
144
1.0
145
0.0
146
1.0
147
0.09
 71
     0
 72
     0
 73
     1
 74
     1
 75
     0
 76
     0
 77
     0
 78
     0
170
     0
171
     2
172
     0
173
     0
174
     0
175
     0
176
     0
177
     0
178
     0
  0
ENDTAB
  0
ENDSEC
  0
SECTION
  2
BLOCKS
  0
BLOCK
  8
0
  2
$MODEL_SPACE
 70
     0
 10
0.0
 20
0.0
 30
0.0
  3
$MODEL_SPACE
  1

  0
ENDBLK
  5
45A
  8
0
  0
BLOCK
 67
     1
  8
0
  2
$PAPER_SPACE
 70
     0
 10
0.0
 20
0.0
 30
0.0
  3
$PAPER_SPACE
  1

  0
ENDBLK
  5
456
 67
     1
  8
0
  0
ENDSEC
  0
SECTION
  2
ENTITIES
  0
LINE
  5
2E
  8
HIBINO-BASE
  6
CONTINUOUS
 62
     7
 10
-1349.9999999999991
 20
2017.659075
 30
0.0
 11
1350.0
 21
2017.659075
 31
0.0
  0
LINE
  5
2F
  8
HIBINO-BASE
  6
CONTINUOUS
 62
     7
 10
1350.0
 20
-1882.340925
 30
0.0
 11
-1349.9999999999991
 21
-1882.340925
 31
0.0
  0
LINE
  5
30
  8
HIBINO-BASE
  6
CONTINUOUS
 62
     7
 10
-1349.9999999999991
 20
-1882.340925
 30
0.0
 11
-1349.9999999999991
 21
2017.659075
 31
0.0
  0
LINE
  5
31
  8
HIBINO-BASE
  6
CONTINUOUS
 62
     7
 10
1350.0
 20
2017.659075
 30
0.0
 11
1350.0
 21
-1882.340925
 31
0.0
  0
LINE
  5
32
  8
HIBINO-BASE
  6
CONTINUOUS
 62
     7
 10
0.0000000000002203
 20
-1544.840925
 30
0.0
 11
1350.0
 21
-1544.840925
 31
0.0
  0
LINE
  5
33
  8
HIBINO-BASE
  6
CONTINUOUS
 62
     7
 10
0.0000000000002203
 20
-1882.340925
 30
0.0
 11
0.0000000000002203
 21
-1544.840925
 31
0.0
  0
TEXT
  5
34
  8
HIBINO-BASE
 62
     7
 10
13.5000000000003
 20
-1582.471325
 30
0.0
 40
24.4326171875
  1
NOTE
 41
0.7
 11
13.5000000000003
 21
-1558.0387078125
 31
0.0
 73
     3
  0
LINE
  5
35
  8
HIBINO-BASE
  6
CONTINUOUS
 62
     7
 10
525.00000000000057
 20
-1882.340925
 30
0.0
 11
525.00000000000057
 21
-1544.840925
 31
0.0
  0
TEXT
  5
36
  8
HIBINO-BASE
 62
     7
 10
538.50000000000011
 20
-1582.471325
 30
0.0
 40
24.4326171875
  1
TITLE
 41
0.7
 11
538.50000000000011
 21
-1558.0387078125
 31
0.0
 73
     3
  0
LINE
  5
37
  8
HIBINO-BASE
  6
CONTINUOUS
 62
     7
 10
0.0000000000002203
 20
-1732.340925
 30
0.0
 11
1350.0
 21
-1732.340925
 31
0.0
  0
TEXT
  5
38
  8
HIBINO-BASE
 62
     7
 10
726.0
 20
-1769.1265249999999
 30
0.0
 40
24.4326171875
  1
DRAWN
 41
0.7
 11
726.0
 21
-1744.6939078124999
 31
0.0
 73
     3
  0
TEXT
  5
39
  8
HIBINO-BASE
 62
     7
 10
351.00000000000011
 20
-1769.1265249999999
 30
0.0
 40
24.4326171875
  1
DATE
 41
0.7
 11
351.00000000000011
 21
-1744.6939078124999
 31
0.0
 73
     3
  0
TEXT
  5
3A
  8
HIBINO-BASE
 62
     7
 10
201.00000000000011
 20
-1769.1265249999999
 30
0.0
 40
24.4326171875
  1
SCALE
 41
0.7
 11
201.00000000000011
 21
-1744.6939078124999
 31
0.0
 73
     3
  0
TEXT
  5
3B
  8
HIBINO-BASE
 62
     7
 10
538.50000000000011
 20
-1769.1265249999999
 30
0.0
 40
24.4326171875
  1
DESIGN
 41
0.7
 11
538.50000000000011
 21
-1744.6939078124999
 31
0.0
 73
     3
  0
TEXT
  5
3C
  8
HIBINO-BASE
 62
     7
 10
1101.0
 20
-1769.1265249999999
 30
0.0
 40
24.4326171875
  1
DRAWING NO.
 41
0.7
 11
1101.0
 21
-1744.6939078124999
 31
0.0
 73
     3
  0
TEXT
  5
3D
  8
HIBINO-BASE
 62
     7
 10
913.49999999999989
 20
-1769.1265249999999
 30
0.0
 40
24.4326171875
  1
CHECK
 41
0.7
 11
913.49999999999989
 21
-1744.6939078124999
 31
0.0
 73
     3
  0
LINE
  5
3E
  8
HIBINO-BASE
  6
CONTINUOUS
 62
     7
 10
215.6250000000002
 20
-1863.590925
 30
0.0
 11
271.8750000000004
 21
-1807.340925
 31
0.0
  0
TEXT
  5
3F
  8
HIBINO-BASE
 62
     7
 10
206.2500000000002
 20
-1823.9750750000001
 30
0.0
 40
24.4326171875
  1
1
 41
0.7
 11
206.2500000000002
 21
-1799.5424578125001
 31
0.0
 73
     3
  0
LINE
  5
40
  8
HIBINO-BASE
  6
CONTINUOUS
 62
     7
 10
187.5000000000002
 20
-1882.340925
 30
0.0
 11
187.5000000000002
 21
-1732.340925
 31
0.0
  0
LINE
  5
41
  8
HIBINO-BASE
  6
CONTINUOUS
 62
     7
 10
337.5
 20
-1882.340925
 30
0.0
 11
337.5
 21
-1732.340925
 31
0.0
  0
LINE
  5
42
  8
HIBINO-BASE
  6
CONTINUOUS
 62
     7
 10
712.49999999999989
 20
-1732.340925
 30
0.0
 11
712.49999999999989
 21
-1882.340925
 31
0.0
  0
LINE
  5
43
  8
HIBINO-BASE
  6
CONTINUOUS
 62
     7
 10
1087.5
 20
-1732.340925
 30
0.0
 11
1087.5
 21
-1882.340925
 31
0.0
  0
LINE
  5
44
  8
HIBINO-BASE
  6
CONTINUOUS
 62
     7
 10
900.0
 20
-1882.340925
 30
0.0
 11
900.0
 21
-1732.340925
 31
0.0
  0
TEXT
  5
45
  8
HIBINO-BASE
 62
     7
 10
350.34810000000039
 20
-1839.3862249999991
 30
0.0
 40
24.4326171875
  1
'13.01.
 41
0.7
 11
350.34810000000039
 21
-1814.9536078124991
 31
0.0
 73
     3
  0
TEXT
  5
46
  8
HIBINO-BASE
 62
     7
 10
262.50000000000028
 20
-1852.1000750000001
 30
0.0
 40
24.4326171875
  1
15
 41
0.7
 11
262.50000000000028
 21
-1827.6674578125001
 31
0.0
 73
     3
  0
TEXT
  5
47
  8
HIBINO-BASE
 62
     7
 10
735.08715016551935
 20
-1839.3862249999991
 30
0.0
 40
24.4326171875
  1
N.Sasaki
 41
0.7
 11
735.08715016551935
 21
-1814.9536078124991
 31
0.0
 73
     3
  0
TEXT
  5
48
  8
HIBINO-BASE
 62
     7
 10
58.250000000000533
 20
-1852.7009250000001
 30
0.0
 40
48.865234375
  1
A4
 41
0.7
 11
58.250000000000533
 21
-1803.8356906250001
 31
0.0
 73
     3
  0
TEXT
  5
49
  8
HIBINO-BASE
 62
     7
 10
14.37500000000014
 20
-1771.63275
 30
0.0
 40
24.4326171875
  1
PAPER SIZE
 41
0.7
 11
14.375000000000149
 21
-1747.2001328125
 31
0.0
 73
     3
  0
TEXT
  5
4A
  8
HIBINO-BASE
 62
     7
 10
-1242.2399999999991
 20
-1978.471092
 30
0.0
 40
54.000662695312492
  1
Hibino Corporation
 41
0.7
 11
-1242.2399999999991
 21
-1924.470429304688
 31
0.0
 73
     3
  0
TEXT
  5
4B
  8
HIBINO-BASE
 62
     7
 10
751.02585000000033
 20
-1978.471092
 30
0.0
 40
54.000662695312492
  1
ヒビノ株式会社
 41
0.7
 11
751.02585000000033
 21
-1924.470429304688
 31
0.0
 73
     3
  0
TEXT
  5
4C
  8
SPEC
 62
     7
 10
-1224.0
 20
1580.0141766666659
 30
0.0
 40
28.504720052083329
  1
クロスオーバー
 41
0.7
 11
-1224.0
 21
1608.5188967187489
 31
0.0
 73
     3
  0
TEXT
  5
4D
  8
SPEC
 62
     7
 10
-1224.0
 20
1636.2641766666659
 30
0.0
 40
28.504720052083329
  1
ドライバー構成
 41
0.7
 11
-1224.0
 21
1664.7688967187489
 31
0.0
 73
     3
  0
LINE
  5
4E
  8
SPEC
  6
CONTINUOUS
 62
     7
 10
-1237.5
 20
1849.44541
 30
0.0
 11
975.00000000000034
 21
1849.44541
 31
0.0
  0
LINE
  5
4F
  8
SPEC
  6
CONTINUOUS
 62
     7
 10
-1237.5
 20
1793.1954099999989
 30
0.0
 11
975.00000000000034
 21
1793.1954099999989
 31
0.0
  0
LINE
  5
50
  8
SPEC
  6
CONTINUOUS
 62
     7
 10
-1237.5
 20
1624.4454099999989
 30
0.0
 11
975.00000000000034
 21
1624.4454099999989
 31
0.0
  0
LINE
  5
51
  8
SPEC
  6
CONTINUOUS
 62
     7
 10
-1237.5
 20
1680.6954099999989
 30
0.0
 11
975.00000000000034
 21
1680.6954099999989
 31
0.0
  0
LINE
  5
52
  8
SPEC
  6
CONTINUOUS
 62
     7
 10
-1237.5
 20
1736.9454099999989
 30
0.0
 11
975.00000000000034
 21
1736.9454099999989
 31
0.0
  0
TEXT
  5
53
  8
SPEC
 62
     7
 10
-686.5
 20
1805.014176666665
 30
0.0
 40
28.504720052083329
  1
パワード・サブウーファー
 41
0.7
 11
-686.5
 21
1833.518896718748
 31
0.0
 73
     3
  0
LINE
  5
54
  8
SPEC
  6
CONTINUOUS
 62
     7
 10
-1237.5
 20
1849.44541
 30
0.0
 11
-1237.5
 21
836.94540999999981
 31
0.0
  0
TEXT
  5
55
  8
SPEC
 62
     7
 10
-1218.75
 20
1870.3444599999989
 30
0.0
 40
36.64892578125
  1
仕様
 41
0.7
 11
-1218.75
 21
1906.9933857812489
 31
0.0
 73
     3
  0
LINE
  5
56
  8
SPEC
  6
CONTINUOUS
 62
     7
 10
-700.0
 20
1849.44541
 30
0.0
 11
-700.0
 21
836.94540999999981
 31
0.0
  0
LINE
  5
57
  8
SPEC
  6
CONTINUOUS
 62
     7
 10
975.00000000000034
 20
1849.44541
 30
0.0
 11
975.00000000000034
 21
836.94540999999981
 31
0.0
  0
TEXT
  5
58
  8
SPEC
 62
     7
 10
-1224.0
 20
1805.014176666665
 30
0.0
 40
28.504720052083329
  1
形式
 41
0.7
 11
-1224.0
 21
1833.518896718748
 31
0.0
 73
     3
  0
TEXT
  5
59
  8
SPEC
 62
     7
 10
-1224.0
 20
1692.5141766666659
 30
0.0
 40
28.504720052083329
  1
最大音圧レベル(1m、ピーク)
 41
0.7
 11
-1224.0
 21
1721.0188967187489
 31
0.0
 73
     3
  0
TEXT
  5
5A
  8
SPEC
 62
     7
 10
-1224.0
 20
1748.7641766666659
 30
0.0
 40
28.504720052083329
  1
周波数レンジ(-10dB)
 41
0.7
 11
-1224.0
 21
1777.2688967187489
 31
0.0
 73
     3
  0
TEXT
  5
5B
  8
SPEC
 62
     7
 10
-686.5
 20
1636.2641766666659
 30
0.0
 40
28.504720052083329
  1
460mm\U+00D71（2268FF/デュアルボイスコイル）
 41
0.7
 11
-686.5
 21
1664.7688967187489
 31
0.0
 73
     3
  0
TEXT
  5
5C
  8
SPEC
 62
     7
 10
-686.5
 20
1692.5141766666659
 30
0.0
 40
28.504720052083329
  1
133dB SPL
 41
0.7
 11
-686.5
 21
1721.0188967187489
 31
0.0
 73
     3
  0
TEXT
  5
5D
  8
SPEC
 62
     7
 10
-686.5
 20
1580.0141766666659
 30
0.0
 40
28.504720052083329
  1
DSP制御　48dB/Oct
 41
0.7
 11
-686.5
 21
1608.5188967187489
 31
0.0
 73
     3
  0
TEXT
  5
5E
  8
SPEC
 62
     7
 10
-686.5
 20
1748.7641766666659
 30
0.0
 40
28.504720052083329
  1
30Hz～105Hz
 41
0.7
 11
-686.5
 21
1777.2688967187489
 31
0.0
 73
     3
  0
LINE
  5
5F
  8
SPEC
  6
CONTINUOUS
 62
     7
 10
-1237.5
 20
1568.1954099999989
 30
0.0
 11
975.00000000000034
 21
1568.1954099999989
 31
0.0
  0
TEXT
  5
60
  8
SPEC
 62
     7
 10
-686.5
 20
1467.5141766666659
 30
0.0
 40
28.504720052083329
  1
1000W(500W\U+00D72)、class D
 41
0.7
 11
-686.5
 21
1496.0188967187489
 31
0.0
 73
     3
  0
TEXT
  5
61
  8
SPEC
 62
     7
 10
-686.5
 20
1523.7641766666659
 30
0.0
 40
28.504720052083329
  1
90Hz
 41
0.7
 11
-686.5
 21
1552.2688967187489
 31
0.0
 73
     3
  0
LINE
  5
62
  8
SPEC
  6
CONTINUOUS
 62
     7
 10
-1237.5
 20
1511.9454099999989
 30
0.0
 11
975.00000000000034
 21
1511.9454099999989
 31
0.0
  0
LINE
  5
63
  8
SPEC
  6
CONTINUOUS
 62
     7
 10
-1237.5
 20
1455.6954099999989
 30
0.0
 11
975.00000000000034
 21
1455.6954099999989
 31
0.0
  0
TEXT
  5
64
  8
SPEC
 62
     7
 10
-1225.0
 20
1523.2053438064031
 30
0.0
 40
28.504720052083329
  1
クロスオーバー周波数
 41
0.7
 11
-1225.0
 21
1551.7100638584859
 31
0.0
 73
     3
  0
TEXT
  5
65
  8
SPEC
 62
     7
 10
-1225.0
 20
1468.6957399757739
 30
0.0
 40
28.504720052083329
  1
パワーアンプ
 41
0.7
 11
-1225.0
 21
1497.2004600278569
 31
0.0
 73
     3
  0
LINE
  5
66
  8
SPEC
  6
CONTINUOUS
 62
     7
 10
-1237.5
 20
1399.4454099999989
 30
0.0
 11
975.00000000000034
 21
1399.4454099999989
 31
0.0
  0
TEXT
  5
67
  8
SPEC
 62
     7
 10
-1225.0
 20
1358.252694155994
 30
0.0
 40
28.504720052083329
  1
入力端子
 41
0.7
 11
-1225.0
 21
1386.7574142080771
 31
0.0
 73
     3
  0
LINE
  5
68
  8
SPEC
  6
CONTINUOUS
 62
     7
 10
-1237.5
 20
1230.69541
 30
0.0
 11
975.00000000000034
 21
1230.69541
 31
0.0
  0
LINE
  5
69
  8
SPEC
  6
CONTINUOUS
 62
     7
 10
-1237.5
 20
1286.9454099999989
 30
0.0
 11
975.00000000000034
 21
1286.9454099999989
 31
0.0
  0
LINE
  5
6A
  8
SPEC
  6
CONTINUOUS
 62
     7
 10
-1237.5
 20
1174.4454099999989
 30
0.0
 11
975.00000000000034
 21
1174.4454099999989
 31
0.0
  0
LINE
  5
6B
  8
SPEC
  6
CONTINUOUS
 62
     7
 10
-1237.5
 20
1118.1954099999989
 30
0.0
 11
975.00000000000034
 21
1118.1954099999989
 31
0.0
  0
TEXT
  5
6C
  8
SPEC
 62
     7
 10
-686.5
 20
1130.0141766666659
 30
0.0
 40
28.504720052083329
  1
正極性/逆極性切替
 41
0.7
 11
-686.5
 21
1158.5188967187489
 31
0.0
 73
     3
  0
TEXT
  5
6D
  8
SPEC
 62
     7
 10
-686.5
 20
1186.2641766666659
 30
0.0
 40
28.504720052083329
  1
Limit、Signal、Power(前面)
 41
0.7
 11
-686.5
 21
1214.7688967187489
 31
0.0
 73
     3
  0
TEXT
  5
6E
  8
SPEC
 62
     7
 10
-686.5
 20
1242.5141766666659
 30
0.0
 40
28.504720052083329
  1
XLR(オス)\U+00D72
 41
0.7
 11
-686.5
 21
1271.0188967187489
 31
0.0
 73
     3
  0
LINE
  5
6F
  8
SPEC
  6
CONTINUOUS
 62
     7
 10
-1237.5
 20
1005.695409999999
 30
0.0
 11
975.00000000000034
 21
1005.695409999999
 31
0.0
  0
TEXT
  5
70
  8
SPEC
 62
     7
 10
-686.5
 20
1017.514176666666
 30
0.0
 40
28.504720052083329
  1
18mm合板、黒色DuraFlex仕上げ
 41
0.7
 11
-686.5
 21
1046.0188967187501
 31
0.0
 73
     3
  0
TEXT
  5
71
  8
SPEC
 62
     7
 10
-1224.0
 20
1017.514176666666
 30
0.0
 40
28.504720052083329
  1
エンクロージャー
 41
0.7
 11
-1224.0
 21
1046.0188967187501
 31
0.0
 73
     3
  0
LINE
  5
72
  8
SPEC
  6
CONTINUOUS
 62
     7
 10
-1237.5
 20
949.44540999999981
 30
0.0
 11
975.00000000000034
 21
949.44540999999981
 31
0.0
  0
TEXT
  5
73
  8
SPEC
 62
     7
 10
-1224.0
 20
961.26417666666634
 30
0.0
 40
28.504720052083329
  1
ポールソケット
 41
0.7
 11
-1224.0
 21
989.7688967187496
 31
0.0
 73
     3
  0
TEXT
  5
74
  8
SPEC
 62
     7
 10
-686.5
 20
961.26417666666634
 30
0.0
 40
28.504720052083329
  1
M20ねじ込み式ソケット
 41
0.7
 11
-686.5
 21
989.7688967187496
 31
0.0
 73
     3
  0
LINE
  5
75
  8
SPEC
  6
CONTINUOUS
 62
     7
 10
-1237.5
 20
893.19540999999981
 30
0.0
 11
975.00000000000034
 21
893.19540999999981
 31
0.0
  0
LINE
  5
76
  8
SPEC
  6
CONTINUOUS
 62
     7
 10
-1237.5
 20
1061.9454099999989
 30
0.0
 11
975.00000000000034
 21
1061.9454099999989
 31
0.0
  0
TEXT
  5
77
  8
SPEC
 62
     7
 10
-1224.2095590180461
 20
1073.4896089196741
 30
0.0
 40
28.504720052083329
  1
電源
 41
0.7
 11
-1224.2095590180461
 21
1101.9943289717571
 31
0.0
 73
     3
  0
TEXT
  5
78
  8
SPEC
 62
     7
 10
-685.36638087836332
 20
1074.9956958100679
 30
0.0
 40
28.504720052083329
  1
AC100V、50/60Hz
 41
0.7
 11
-685.36638087836332
 21
1103.5004158621521
 31
0.0
 73
     3
  0
TEXT
  5
79
  8
SPEC
 62
     7
 10
-1225.0
 20
1246.8277715080819
 30
0.0
 40
28.504720052083329
  1
出力端子
 41
0.7
 11
-1225.0
 21
1275.332491560165
 31
0.0
 73
     3
  0
TEXT
  5
7A
  8
SPEC
 62
     7
 10
-1225.0
 20
1186.8941666666669
 30
0.0
 40
28.504720052083329
  1
インジケーター
 41
0.7
 11
-1225.0
 21
1215.39888671875
 31
0.0
 73
     3
  0
TEXT
  5
7B
  8
SPEC
 62
     7
 10
-1225.0
 20
1132.8127385460509
 30
0.0
 40
28.504720052083329
  1
極性
 41
0.7
 11
-1225.0
 21
1161.317458598134
 31
0.0
 73
     3
  0
TEXT
  5
7C
  8
SPEC
 62
     7
 10
-1224.0
 20
905.01417666666634
 30
0.0
 40
28.504720052083329
  1
寸法(幅\U+00D7高\U+00D7奥行)
 41
0.7
 11
-1224.0
 21
933.5188967187496
 31
0.0
 73
     3
  0
LINE
  5
7D
  8
SPEC
  6
CONTINUOUS
 62
     7
 10
-1237.5
 20
836.94540999999981
 30
0.0
 11
975.00000000000034
 21
836.94540999999981
 31
0.0
  0
TEXT
  5
7E
  8
SPEC
 62
     7
 10
-682.52744952734531
 20
910.14416666666671
 30
0.0
 40
28.504720052083329
  1
533\U+00D7687\U+00D7714mm(除突起部)
 41
0.7
 11
-682.52744952734531
 21
938.64888671875019
 31
0.0
 73
     3
  0
TEXT
  5
7F
  8
SPEC
 62
     7
 10
-1224.0
 20
848.76417666666634
 30
0.0
 40
28.504720052083329
  1
質量
 41
0.7
 11
-1224.0
 21
877.2688967187496
 31
0.0
 73
     3
  0
TEXT
  5
80
  8
SPEC
 62
     7
 10
-682.52744952734531
 20
853.89416666666637
 30
0.0
 40
28.504720052083329
  1
37kg
 41
0.7
 11
-682.52744952734531
 21
882.39888671874985
 31
0.0
 73
     3
  0
TEXT
  5
81
  8
SPEC
 62
     7
 10
-686.5
 20
1298.7641766666659
 30
0.0
 40
28.504720052083329
  1
[インピーダンス]20k\U+03A9(バランス),10k\U+03A9(アンバランス)
 41
0.7
 11
-686.5
 21
1327.2688967187501
 31
0.0
 73
     3
  0
TEXT
  5
82
  8
SPEC
 62
     7
 10
-686.5
 20
1355.014143333332
 30
0.0
 40
28.504720052083329
  1
XLR(メス)と標準フォーンジャック(3P)対応の複合型 端子\U+00D72
 41
0.7
 11
-686.5
 21
1383.5188633854159
 31
0.0
 73
     3
  0
TEXT
  5
83
  8
SPEC
 62
     7
 10
-1225.0
 20
1414.502694155994
 30
0.0
 40
28.504720052083329
  1
金具用取付穴
 41
0.7
 11
-1225.0
 21
1443.0074142080771
 31
0.0
 73
     3
  0
TEXT
  5
84
  8
SPEC
 62
     7
 10
-686.5
 20
1411.2641766666659
 30
0.0
 40
28.504720052083329
  1
SS4-BK用M20ねじ込み式 ポールソケット
 41
0.7
 11
-686.5
 21
1439.7688967187489
 31
0.0
 73
     3
  0
LINE
  5
85
  8
DIMNSIONS
  6
CONTINUOUS
 62
     7
 10
-1166.75
 20
-1313.819660112501
 30
0.0
 11
-1166.75
 21
-1430.0
 31
0.0
  0
LINE
  5
86
  8
DIMNSIONS
  6
CONTINUOUS
 62
     7
 10
-633.75
 20
-1313.819660112501
 30
0.0
 11
-633.75
 21
-1430.0
 31
0.0
  0
LINE
  5
87
  8
DIMNSIONS
  6
CONTINUOUS
 62
     7
 10
-1166.75
 20
-1400.0
 30
0.0
 11
-633.75
 21
-1400.0
 31
0.0
  0
LINE
  5
88
  8
DIMNSIONS
  6
CONTINUOUS
 62
     7
 10
-1166.75
 20
-1400.0
 30
0.0
 11
-1129.2406616210931
 21
-1389.9494030727469
 31
0.0
  0
LINE
  5
89
  8
DIMNSIONS
  6
CONTINUOUS
 62
     7
 10
-1166.75
 20
-1400.0
 30
0.0
 11
-1129.2406616210931
 21
-1410.050596927254
 31
0.0
  0
LINE
  5
8A
  8
DIMNSIONS
  6
CONTINUOUS
 62
     7
 10
-633.75
 20
-1400.0
 30
0.0
 11
-671.25933837890625
 21
-1410.050596927254
 31
0.0
  0
LINE
  5
8B
  8
DIMNSIONS
  6
CONTINUOUS
 62
     7
 10
-633.75
 20
-1400.0
 30
0.0
 11
-671.25933837890625
 21
-1389.9494030727469
 31
0.0
  0
TEXT
  5
8C
  8
DIMNSIONS
 62
     7
 10
-947.87499999999989
 20
-1383.6099999999999
 30
0.0
 40
48.865234375000092
  1
533
 41
0.7
 11
-947.87499999999989
 21
-1334.7447656249999
 31
0.0
 73
     3
  0
LINE
  5
8D
  8
DIMNSIONS
  6
CONTINUOUS
 62
     7
 10
-625.61067977499795
 20
-1300.0
 30
0.0
 11
-470.0
 21
-1300.0
 31
0.0
  0
LINE
  5
8E
  8
DIMNSIONS
  6
CONTINUOUS
 62
     7
 10
-626.11067977499795
 20
-613.0
 30
0.0
 11
-470.0
 21
-613.0
 31
0.0
  0
LINE
  5
8F
  8
DIMNSIONS
  6
CONTINUOUS
 62
     7
 10
-500.0
 20
-1300.0
 30
0.0
 11
-500.0
 21
-613.0
 31
0.0
  0
LINE
  5
90
  8
DIMNSIONS
  6
CONTINUOUS
 62
     7
 10
-500.0
 20
-1300.0
 30
0.0
 11
-510.05059692725359
 21
-1262.4906616210931
 31
0.0
  0
LINE
  5
91
  8
DIMNSIONS
  6
CONTINUOUS
 62
     7
 10
-500.0
 20
-1300.0
 30
0.0
 11
-489.94940307274629
 21
-1262.4906616210931
 31
0.0
  0
LINE
  5
92
  8
DIMNSIONS
  6
CONTINUOUS
 62
     7
 10
-500.0
 20
-613.0
 30
0.0
 11
-489.94940307274629
 21
-650.50933837890636
 31
0.0
  0
LINE
  5
93
  8
DIMNSIONS
  6
CONTINUOUS
 62
     7
 10
-500.0
 20
-613.0
 30
0.0
 11
-510.05059692725359
 21
-650.50933837890636
 31
0.0
  0
TEXT
  5
94
  8
DIMNSIONS
 62
     7
 10
-516.38999999999987
 20
-1004.125
 30
0.0
 40
48.865234375000092
  1
687
 50
90.0
 41
0.7
 11
-565.25523437499999
 21
-1004.125
 31
0.0
 73
     3
  0
LINE
  5
95
  8
DIMNSIONS
  6
CONTINUOUS
 62
     7
 10
-300.0
 20
-1315.8810504107009
 30
0.0
 11
-300.0
 21
-1430.0
 31
0.0
  0
LINE
  5
96
  8
DIMNSIONS
  6
CONTINUOUS
 62
     7
 10
413.49999999999989
 20
-1315.8810504107009
 30
0.0
 11
413.49999999999989
 21
-1430.0
 31
0.0
  0
LINE
  5
97
  8
DIMNSIONS
  6
CONTINUOUS
 62
     7
 10
-300.0
 20
-1400.0
 30
0.0
 11
413.49999999999989
 21
-1400.0
 31
0.0
  0
LINE
  5
98
  8
DIMNSIONS
  6
CONTINUOUS
 62
     7
 10
-300.0
 20
-1400.0
 30
0.0
 11
-262.49066162109369
 21
-1389.9494030727469
 31
0.0
  0
LINE
  5
99
  8
DIMNSIONS
  6
CONTINUOUS
 62
     7
 10
-300.0
 20
-1400.0
 30
0.0
 11
-262.49066162109369
 21
-1410.0505969272531
 31
0.0
  0
LINE
  5
9A
  8
DIMNSIONS
  6
CONTINUOUS
 62
     7
 10
413.49999999999989
 20
-1400.0
 30
0.0
 11
375.99066162109369
 21
-1410.050596927254
 31
0.0
  0
LINE
  5
9B
  8
DIMNSIONS
  6
CONTINUOUS
 62
     7
 10
413.49999999999989
 20
-1400.0
 30
0.0
 11
375.99066162109369
 21
-1389.9494030727469
 31
0.0
  0
TEXT
  5
9C
  8
DIMNSIONS
 62
     7
 10
9.1249999999999964
 20
-1383.6099999999999
 30
0.0
 40
48.865234375000092
  1
714
 41
0.7
 11
9.125
 21
-1334.7447656249999
 31
0.0
 73
     3
  0
TEXT
  5
9D
  8
DIMNSIONS
 62
     7
 10
-299.99999999999972
 20
-1698.2985749999989
 30
0.0
 40
36.64892578125
  1
(単位：mm)
 41
0.7
 11
-299.99999999999972
 21
-1661.6496492187489
 31
0.0
 73
     3
  0
TEXT
  5
9E
  8
DIMNSIONS
 62
     7
 10
-520.0
 20
-69.049999999999997
 30
0.0
 40
40.721028645833343
  1
ポールソケット
 41
0.7
 11
-520.0
 21
-28.328971354166651
 31
0.0
 73
     3
  0
LINE
  5
9F
  8
DIMNSIONS
  6
CONTINUOUS
 62
     7
 10
-890.7754809619438
 20
142.6388798883566
 30
0.0
 11
-550.0
 21
0.0000000000000284
 31
0.0
  0
LINE
  5
A0
  8
DIMNSIONS
  6
CONTINUOUS
 62
     7
 10
-890.7754809619438
 20
142.6388798883566
 30
0.0
 11
-852.2324081448246
 21
137.9063856166579
 31
0.0
  0
LINE
  5
A1
  8
DIMNSIONS
  6
CONTINUOUS
 62
     7
 10
-890.7754809619438
 20
142.6388798883566
 30
0.0
 11
-859.76244789825466
 21
119.26888321724159
 31
0.0
  0
LINE
  5
A2
  8
DIMNSIONS
  6
CONTINUOUS
 62
     7
 10
-550.0
 20
0.0000000000000284
 30
0.0
 11
35.625000000000121
 21
0.0000000000000284
 31
0.0
  0
TEXT
  5
A3
  8
DIMNSIONS
 62
     7
 10
-520.0
 20
14.908333333333371
 30
0.0
 40
40.721028645833343
  1
SS4-BK用M20ねじ込み式
 41
0.7
 11
-520.0
 21
55.62936197916671
 31
0.0
 73
     3
  0
LINE
  5
A4
  8
DIMNSIONS
  6
CONTINUOUS
 62
     7
 10
-656.25
 20
-1305.0
 30
0.0
 11
-470.0
 21
-1305.0
 31
0.0
  0
LINE
  5
A5
  8
DIMNSIONS
  6
CONTINUOUS
 62
     7
 10
-626.11067977499795
 20
-1300.0
 30
0.0
 11
-470.0
 21
-1300.0
 31
0.0
  0
LINE
  5
A6
  8
DIMNSIONS
  6
CONTINUOUS
 62
     7
 10
-500.0
 20
-1300.0
 30
0.0
 11
-500.0
 21
-1305.0
 31
0.0
  0
LINE
  5
A7
  8
DIMNSIONS
  6
CONTINUOUS
 62
     7
 10
-500.0
 20
-1305.0
 30
0.0
 11
-500.0
 21
-1429.375
 31
0.0
  0
LINE
  5
A8
  8
DIMNSIONS
  6
CONTINUOUS
 62
     7
 10
-500.0
 20
-1305.0
 30
0.0
 11
-489.94940307274629
 21
-1342.509338378906
 31
0.0
  0
LINE
  5
A9
  8
DIMNSIONS
  6
CONTINUOUS
 62
     7
 10
-500.0
 20
-1305.0
 30
0.0
 11
-510.05059692725359
 21
-1342.509338378906
 31
0.0
  0
LINE
  5
AA
  8
DIMNSIONS
  6
CONTINUOUS
 62
     7
 10
-500.0
 20
-1300.0
 30
0.0
 11
-500.0
 21
-1225.0
 31
0.0
  0
LINE
  5
AB
  8
DIMNSIONS
  6
CONTINUOUS
 62
     7
 10
-500.0
 20
-1300.0
 30
0.0
 11
-510.05059692725359
 21
-1262.4906616210931
 31
0.0
  0
LINE
  5
AC
  8
DIMNSIONS
  6
CONTINUOUS
 62
     7
 10
-500.0
 20
-1300.0
 30
0.0
 11
-489.94940307274629
 21
-1262.4906616210931
 31
0.0
  0
TEXT
  5
AD
  8
DIMNSIONS
 62
     7
 10
-514.90833333333342
 20
-1429.375
 30
0.0
 40
40.721028645833343
  1
5.0
 50
90.0
 41
0.7
 11
-555.62936197916667
 21
-1429.375
 31
0.0
 73
     3
  0
CIRCLE
  5
AE
  8
DATA
  6
CONTINUOUS
 62
     7
 10
858.0012795833336
 20
-1129.9999999997499
 30
0.0
 40
11.999999998799691
  0
CIRCLE
  5
AF
  8
DATA
  6
CONTINUOUS
 62
     7
 10
858.0012795833336
 20
-1088.9999999997499
 30
0.0
 40
7.899999852375986
  0
TEXT
  5
B0
  8
DATA
 62
     7
 10
889.67806370876758
 20
-1110.9252360024791
 30
0.0
 40
2.8504720052083332
  1
RIGHT
 41
0.7
 72
     1
 11
894.0012795833336
 21
-1109.499999999874
 31
0.0
 73
     2
  0
TEXT
  5
B1
  8
DATA
 62
     7
 10
214.04520000000031
 20
637.49990399999956
 30
0.0
 40
54.000778124999997
  1
コネクターパネル拡大図
 41
0.7
 11
214.04520000000031
 21
691.50068212499957
 31
0.0
 73
     3
  0
LINE
  5
B2
  8
DATA
  6
CONTINUOUS
 62
     7
 10
74.999999999999659
 20
600.0
 30
0.0
 11
1125.0
 21
600.0
 31
0.0
  0
LINE
  5
B3
  8
DATA
  6
CONTINUOUS
 62
     7
 10
-1166.75
 20
-1283.819660112501
 30
0.0
 11
-1166.75
 21
-629.18033988749903
 31
0.0
  0
LINE
  5
B4
  8
DATA
  6
CONTINUOUS
 62
     7
 10
-655.61067977499795
 20
-1300.0
 30
0.0
 11
-1144.3893202250019
 21
-1300.0
 31
0.0
  0
LINE
  5
B5
  8
DATA
  6
CONTINUOUS
 62
     7
 10
-651.63854381999943
 20
-1298.9442719099991
 30
0.0
 11
-639.27786404500137
 21
-1292.7639320225001
 31
0.0
  0
LINE
  5
B6
  8
DATA
  6
CONTINUOUS
 62
     7
 10
-1148.8614561800021
 20
-1298.9442719099991
 30
0.0
 11
-1161.2221359550001
 21
-1292.7639320225001
 31
0.0
  0
LINE
  5
B7
  8
DATA
  6
CONTINUOUS
 62
     7
 10
-633.75
 20
-629.18033988749903
 30
0.0
 11
-633.75
 21
-1283.819660112501
 31
0.0
  0
LINE
  5
B8
  8
DATA
  6
CONTINUOUS
 62
     7
 10
-651.63854381999943
 20
-614.0557280900008
 30
0.0
 11
-639.27786404500137
 21
-620.23606797749949
 31
0.0
  0
LINE
  5
B9
  8
DATA
  6
CONTINUOUS
 62
     7
 10
-1144.3893202250019
 20
-613.0
 30
0.0
 11
-656.11067977499795
 21
-613.0
 31
0.0
  0
LINE
  5
BA
  8
DATA
  6
CONTINUOUS
 62
     7
 10
-1161.2221359550001
 20
-620.23606797749949
 30
0.0
 11
-1148.8614561800021
 21
-614.0557280900008
 31
0.0
  0
LINE
  5
BB
  8
DATA
  6
CONTINUOUS
 62
     7
 10
-1164.6115137775739
 20
-623.0
 30
0.0
 11
-635.88848622242585
 21
-623.0
 31
0.0
  0
LINE
  5
BC
  8
DATA
  6
CONTINUOUS
 62
     7
 10
-1166.75
 20
-633.0
 30
0.0
 11
-633.75
 21
-633.0
 31
0.0
  0
LINE
  5
BD
  8
DATA
  6
CONTINUOUS
 62
     7
 10
-1166.75
 20
-1280.0
 30
0.0
 11
-633.75
 21
-1280.0
 31
0.0
  0
LINE
  5
BE
  8
DATA
  6
CONTINUOUS
 62
     7
 10
-1166.75
 20
-1270.0
 30
0.0
 11
-633.75
 21
-1270.0
 31
0.0
  0
LINE
  5
BF
  8
DATA
  6
CONTINUOUS
 62
     7
 10
-1056.75
 20
-613.0
 30
0.0
 11
-1056.75
 21
-1300.0
 31
0.0
  0
LINE
  5
C0
  8
DATA
  6
CONTINUOUS
 62
     7
 10
-743.75
 20
-613.0
 30
0.0
 11
-743.75
 21
-1300.0
 31
0.0
  0
LINE
  5
C1
  8
DATA
  6
CONTINUOUS
 62
     7
 10
-1059.457906243736
 20
-198.655497161939
 30
0.0
 11
-1157.707044164518
 21
-153.99679810703739
 31
0.0
  0
LINE
  5
C2
  8
DATA
  6
CONTINUOUS
 62
     7
 10
-746.74913792078416
 20
-200.0
 30
0.0
 11
-1053.250862079218
 21
-200.0
 31
0.0
  0
LINE
  5
C3
  8
DATA
  6
CONTINUOUS
 62
     7
 10
-642.2929558354823
 20
-153.99679810703751
 30
0.0
 11
-740.54209375626647
 21
-198.65549716193911
 31
0.0
  0
LINE
  5
C4
  8
DATA
  6
CONTINUOUS
 62
     7
 10
-633.49999999999989
 20
498.5
 30
0.0
 11
-633.49999999999989
 21
-140.3413009450984
 31
0.0
  0
LINE
  5
C5
  8
DATA
  6
CONTINUOUS
 62
     7
 10
-1151.5
 20
513.49999999999989
 30
0.0
 11
-648.5
 21
513.49999999999989
 31
0.0
  0
LINE
  5
C6
  8
DATA
  6
CONTINUOUS
 62
     7
 10
-1166.5
 20
-140.3413009450984
 30
0.0
 11
-1166.5
 21
498.5
 31
0.0
  0
LINE
  5
C7
  8
DATA
  6
CONTINUOUS
 62
     7
 10
-1131.5
 20
493.5
 30
0.0
 11
-668.5
 21
493.5
 31
0.0
  0
LINE
  5
C8
  8
DATA
  6
CONTINUOUS
 62
     7
 10
-1146.5
 20
-127.46303553856281
 30
0.0
 11
-1146.5
 21
478.5
 31
0.0
  0
LINE
  5
C9
  8
DATA
  6
CONTINUOUS
 62
     7
 10
-1055.1257223493569
 20
-178.655497161939
 30
0.0
 11
-1137.707044164518
 21
-141.1185327005019
 31
0.0
  0
LINE
  5
CA
  8
DATA
  6
CONTINUOUS
 62
     7
 10
-751.08132181516191
 20
-180.0
 30
0.0
 11
-1048.9186781848391
 21
-180.0
 31
0.0
  0
LINE
  5
CB
  8
DATA
  6
CONTINUOUS
 62
     7
 10
-662.29295583548208
 20
-141.11853270050179
 30
0.0
 11
-744.8742776506441
 21
-178.65549716193911
 31
0.0
  0
LINE
  5
CC
  8
DATA
  6
CONTINUOUS
 62
     7
 10
-653.5
 20
478.5
 30
0.0
 11
-653.5
 21
-127.46303553856271
 31
0.0
  0
LINE
  5
CD
  8
DATA
  6
CONTINUOUS
 62
     7
 10
-1091.5
 20
453.5
 30
0.0
 11
-708.49999999999989
 21
453.5
 31
0.0
  0
LINE
  5
CE
  8
DATA
  6
CONTINUOUS
 62
     7
 10
-1106.5
 20
-101.7065047254921
 30
0.0
 11
-1106.5
 21
438.49999999999989
 31
0.0
  0
LINE
  5
CF
  8
DATA
  6
CONTINUOUS
 62
     7
 10
-1046.461354560601
 20
-138.655497161939
 30
0.0
 11
-1097.707044164518
 21
-115.36200188743111
 31
0.0
  0
LINE
  5
D0
  8
DATA
  6
CONTINUOUS
 62
     7
 10
-759.74568960391866
 20
-140.0
 30
0.0
 11
-1040.2543103960829
 21
-140.0
 31
0.0
  0
LINE
  5
D1
  8
DATA
  6
CONTINUOUS
 62
     7
 10
-702.29295583548219
 20
-115.36200188743111
 30
0.0
 11
-753.53864543940085
 21
-138.65549716193911
 31
0.0
  0
LINE
  5
D2
  8
DATA
  6
CONTINUOUS
 62
     7
 10
-693.5
 20
438.49999999999989
 30
0.0
 11
-693.5
 21
-101.7065047254919
 31
0.0
  0
LINE
  5
D3
  8
DATA
  6
CONTINUOUS
 62
     7
 10
-1071.5
 20
433.49999999999989
 30
0.0
 11
-728.5
 21
433.49999999999989
 31
0.0
  0
LINE
  5
D4
  8
DATA
  6
CONTINUOUS
 62
     7
 10
-1086.5
 20
-88.828239318956605
 30
0.0
 11
-1086.5
 21
418.5
 31
0.0
  0
LINE
  5
D5
  8
DATA
  6
CONTINUOUS
 62
     7
 10
-1042.129170666223
 20
-118.655497161939
 30
0.0
 11
-1077.707044164518
 21
-102.4837364808956
 31
0.0
  0
LINE
  5
D6
  8
DATA
  6
CONTINUOUS
 62
     7
 10
-764.07787349829789
 20
-120.0
 30
0.0
 11
-1035.922126501705
 21
-120.0
 31
0.0
  0
LINE
  5
D7
  8
DATA
  6
CONTINUOUS
 62
     7
 10
-722.29295583548253
 20
-102.4837364808954
 30
0.0
 11
-757.87082933378053
 21
-118.65549716193919
 31
0.0
  0
LINE
  5
D8
  8
DATA
  6
CONTINUOUS
 62
     7
 10
-713.49999999999989
 20
418.5
 30
0.0
 11
-713.49999999999989
 21
-88.828239318956221
 31
0.0
  0
CIRCLE
  5
D9
  8
DATA
  6
CONTINUOUS
 62
     7
 10
-900.0
 20
146.5
 30
0.0
 40
53.500000000000277
  0
CIRCLE
  5
DA
  8
DATA
  6
CONTINUOUS
 62
     7
 10
-900.0
 20
146.5
 30
0.0
 40
51.499999999998913
  0
CIRCLE
  5
DB
  8
DATA
  6
CONTINUOUS
 62
     7
 10
-900.0
 20
146.5
 30
0.0
 40
10.999999999999719
  0
CIRCLE
  5
DC
  8
DATA
  6
CONTINUOUS
 62
     7
 10
-860.0
 20
146.5
 30
0.0
 40
6.0
  0
CIRCLE
  5
DD
  8
DATA
  6
CONTINUOUS
 62
     7
 10
-940.0
 20
146.5
 30
0.0
 40
6.0
  0
CIRCLE
  5
DE
  8
DATA
  6
CONTINUOUS
 62
     7
 10
-900.0
 20
106.5
 30
0.0
 40
6.0
  0
CIRCLE
  5
DF
  8
DATA
  6
CONTINUOUS
 62
     7
 10
-900.0
 20
186.5
 30
0.0
 40
6.0
  0
POLYLINE
  5
E0
  8
DATA
  6
CONTINUOUS
 62
     7
 66
     1
 10
0.0
 20
0.0
 30
0.0
 70
     1
  0
VERTEX
  5
48C
  8
DATA
  6
CONTINUOUS
 62
     7
 10
-898.12650060048156
 20
185.7999999999999
 30
0.0
  0
VERTEX
  5
48D
  8
DATA
  6
CONTINUOUS
 62
     7
 10
-898.45703251759187
 20
187.77249807395879
 30
0.0
  0
VERTEX
  5
48E
  8
DATA
  6
CONTINUOUS
 62
     7
 10
-900.33053191711042
 20
188.47249807395889
 30
0.0
  0
VERTEX
  5
48F
  8
DATA
  6
CONTINUOUS
 62
     7
 10
-901.87349939952037
 20
187.19999999999999
 30
0.0
  0
VERTEX
  5
490
  8
DATA
  6
CONTINUOUS
 62
     7
 10
-901.54296748240984
 20
185.22750192604121
 30
0.0
  0
VERTEX
  5
491
  8
DATA
  6
CONTINUOUS
 62
     7
 10
-899.66946808288947
 20
184.5275019260412
 30
0.0
  0
SEQEND
  5
492
  8
DATA
  6
CONTINUOUS
 62
     7
  0
POLYLINE
  5
E9
  8
DATA
  6
CONTINUOUS
 62
     7
 66
     1
 10
0.0
 20
0.0
 30
0.0
 70
     1
  0
VERTEX
  5
493
  8
DATA
  6
CONTINUOUS
 62
     7
 10
-858.12650060048156
 20
145.7999999999999
 30
0.0
  0
VERTEX
  5
494
  8
DATA
  6
CONTINUOUS
 62
     7
 10
-858.45703251759187
 20
147.77249807395879
 30
0.0
  0
VERTEX
  5
495
  8
DATA
  6
CONTINUOUS
 62
     7
 10
-860.33053191711042
 20
148.4724980739588
 30
0.0
  0
VERTEX
  5
496
  8
DATA
  6
CONTINUOUS
 62
     7
 10
-861.87349939952037
 20
147.19999999999999
 30
0.0
  0
VERTEX
  5
497
  8
DATA
  6
CONTINUOUS
 62
     7
 10
-861.54296748240972
 20
145.22750192604121
 30
0.0
  0
VERTEX
  5
498
  8
DATA
  6
CONTINUOUS
 62
     7
 10
-859.66946808288958
 20
144.5275019260412
 30
0.0
  0
SEQEND
  5
499
  8
DATA
  6
CONTINUOUS
 62
     7
  0
POLYLINE
  5
F2
  8
DATA
  6
CONTINUOUS
 62
     7
 66
     1
 10
0.0
 20
0.0
 30
0.0
 70
     1
  0
VERTEX
  5
49A
  8
DATA
  6
CONTINUOUS
 62
     7
 10
-898.12650060048156
 20
105.7999999999999
 30
0.0
  0
VERTEX
  5
49B
  8
DATA
  6
CONTINUOUS
 62
     7
 10
-898.45703251759187
 20
107.7724980739588
 30
0.0
  0
VERTEX
  5
49C
  8
DATA
  6
CONTINUOUS
 62
     7
 10
-900.33053191711042
 20
108.4724980739588
 30
0.0
  0
VERTEX
  5
49D
  8
DATA
  6
CONTINUOUS
 62
     7
 10
-901.87349939952037
 20
107.2
 30
0.0
  0
VERTEX
  5
49E
  8
DATA
  6
CONTINUOUS
 62
     7
 10
-901.54296748240984
 20
105.2275019260412
 30
0.0
  0
VERTEX
  5
49F
  8
DATA
  6
CONTINUOUS
 62
     7
 10
-899.66946808288947
 20
104.5275019260411
 30
0.0
  0
SEQEND
  5
4A0
  8
DATA
  6
CONTINUOUS
 62
     7
  0
POLYLINE
  5
FB
  8
DATA
  6
CONTINUOUS
 62
     7
 66
     1
 10
0.0
 20
0.0
 30
0.0
 70
     1
  0
VERTEX
  5
4A1
  8
DATA
  6
CONTINUOUS
 62
     7
 10
-938.12650060048145
 20
145.7999999999999
 30
0.0
  0
VERTEX
  5
4A2
  8
DATA
  6
CONTINUOUS
 62
     7
 10
-938.45703251759176
 20
147.77249807395879
 30
0.0
  0
VERTEX
  5
4A3
  8
DATA
  6
CONTINUOUS
 62
     7
 10
-940.33053191711053
 20
148.4724980739588
 30
0.0
  0
VERTEX
  5
4A4
  8
DATA
  6
CONTINUOUS
 62
     7
 10
-941.87349939952026
 20
147.19999999999999
 30
0.0
  0
VERTEX
  5
4A5
  8
DATA
  6
CONTINUOUS
 62
     7
 10
-941.54296748240984
 20
145.22750192604121
 30
0.0
  0
VERTEX
  5
4A6
  8
DATA
  6
CONTINUOUS
 62
     7
 10
-939.66946808288947
 20
144.5275019260412
 30
0.0
  0
SEQEND
  5
4A7
  8
DATA
  6
CONTINUOUS
 62
     7
  0
CIRCLE
  5
104
  8
DATA
  6
CONTINUOUS
 62
     7
 10
-900.0
 20
146.5
 30
0.0
 40
9.9999999999995985
  0
ARC
  5
105
  8
DATA
  6
CONTINUOUS
 62
     7
 10
-656.11067977499988
 20
-623.0
 30
0.0
 40
10.00000000000027
 50
63.434948822917939
 51
89.999999999989583
  0
ARC
  5
106
  8
DATA
  6
CONTINUOUS
 62
     7
 10
-643.75000000000159
 20
-629.18033988749835
 30
0.0
 40
10.000000000001821
 50
359.99999999999739
 51
63.434948822917299
  0
ARC
  5
107
  8
DATA
  6
CONTINUOUS
 62
     7
 10
-1144.3893202250019
 20
-623.0
 30
0.0
 40
10.0
 50
90.0
 51
116.5650511770821
  0
ARC
  5
108
  8
DATA
  6
CONTINUOUS
 62
     7
 10
-1156.75
 20
-629.18033988749949
 30
0.0
 40
10.000000000000879
 50
116.56505117708031
 51
179.99999999999741
  0
ARC
  5
109
  8
DATA
  6
CONTINUOUS
 62
     7
 10
-1156.75
 20
-1283.819660112501
 30
0.0
 40
10.0
 50
180.0
 51
243.43494882291739
  0
ARC
  5
10A
  8
DATA
  6
CONTINUOUS
 62
     7
 10
-1144.3893202250019
 20
-1290.0
 30
0.0
 40
10.00000000000048
 50
243.4349488229185
 51
270.0
  0
ARC
  5
10B
  8
DATA
  6
CONTINUOUS
 62
     7
 10
-656.11067977499795
 20
-1290.0
 30
0.0
 40
10.0
 50
270.0
 51
296.56505117707212
  0
ARC
  5
10C
  8
DATA
  6
CONTINUOUS
 62
     7
 10
-643.75
 20
-1283.8196601125001
 30
0.0
 40
10.000000000000069
 50
296.5650511770711
 51
359.9999999999975
  0
LINE
  5
10D
  8
DATA
  6
CONTINUOUS
 62
     7
 10
-1164.6115137775739
 20
-1290.0
 30
0.0
 11
-635.88848622242585
 21
-1290.0
 31
0.0
  0
LINE
  5
10E
  8
DATA
  6
CONTINUOUS
 62
     7
 10
-300.0
 20
-1285.8810504107009
 30
0.0
 11
-300.0
 21
-1280.0
 31
0.0
  0
LINE
  5
10F
  8
DATA
  6
CONTINUOUS
 62
     7
 10
-284.0379872018608
 20
-1299.2226975155629
 30
0.0
 11
-293.86546899307592
 21
-1295.1037479262629
 31
0.0
  0
LINE
  5
110
  8
DATA
  6
CONTINUOUS
 62
     7
 10
393.67251820878488
 20
-1300.0
 30
0.0
 11
-280.17251820878488
 21
-1300.0
 31
0.0
  0
LINE
  5
111
  8
DATA
  6
CONTINUOUS
 62
     7
 10
407.36546899307592
 20
-1295.1037479262629
 30
0.0
 11
397.5379872018608
 21
-1299.2226975155629
 31
0.0
  0
LINE
  5
112
  8
DATA
  6
CONTINUOUS
 62
     7
 10
413.49999999999989
 20
-627.11894958929929
 30
0.0
 11
413.49999999999989
 21
-1285.8810504107009
 31
0.0
  0
LINE
  5
113
  8
DATA
  6
CONTINUOUS
 62
     7
 10
397.53798720186018
 20
-613.77730248443697
 30
0.0
 11
407.36546899307569
 21
-617.89625207373615
 31
0.0
  0
LINE
  5
114
  8
DATA
  6
CONTINUOUS
 62
     7
 10
-280.1725182087846
 20
-613.0
 30
0.0
 11
393.67251820878471
 21
-613.0
 31
0.0
  0
LINE
  5
115
  8
DATA
  6
CONTINUOUS
 62
     7
 10
-293.86546899307569
 20
-617.89625207373615
 30
0.0
 11
-284.03798720186018
 21
-613.77730248443697
 31
0.0
  0
LINE
  5
116
  8
DATA
  6
CONTINUOUS
 62
     7
 10
-300.0
 20
-633.0
 30
0.0
 11
-300.0
 21
-627.11894958929929
 31
0.0
  0
LINE
  5
117
  8
DATA
  6
CONTINUOUS
 62
     7
 10
1.5
 20
-1028.594020329529
 30
0.0
 11
1.5
 21
-879.40597967047108
 31
0.0
  0
LINE
  5
118
  8
DATA
  6
CONTINUOUS
 62
     7
 10
126.0280180706923
 20
-1085.0
 30
0.0
 11
54.971981929307731
 21
-1085.0
 31
0.0
  0
LINE
  5
119
  8
DATA
  6
CONTINUOUS
 62
     7
 10
179.5
 20
-879.40597967047108
 30
0.0
 11
179.5
 21
-1028.594020329529
 31
0.0
  0
LINE
  5
11A
  8
DATA
  6
CONTINUOUS
 62
     7
 10
54.971981929307731
 20
-823.0
 30
0.0
 11
126.0280180706923
 21
-823.0
 31
0.0
  0
LINE
  5
11B
  8
DATA
  6
CONTINUOUS
 62
     7
 10
148.4502976312024
 20
-1074.930915164897
 30
0.0
 11
171.92227956051011
 21
-1048.5249354944269
 31
0.0
  0
LINE
  5
11C
  8
DATA
  6
CONTINUOUS
 62
     7
 10
32.549702368797632
 20
-1074.930915164897
 30
0.0
 11
9.0777204394898945
 21
-1048.5249354944269
 31
0.0
  0
LINE
  5
11D
  8
DATA
  6
CONTINUOUS
 62
     7
 10
148.4502976312024
 20
-833.06908483510222
 30
0.0
 11
171.92227956051011
 21
-859.47506450557376
 31
0.0
  0
LINE
  5
11E
  8
DATA
  6
CONTINUOUS
 62
     7
 10
32.549702368797632
 20
-833.06908483510222
 30
0.0
 11
9.0777204394898945
 21
-859.47506450557376
 31
0.0
  0
LINE
  5
11F
  8
DATA
  6
CONTINUOUS
 62
     7
 10
35.0
 20
-930.49999999999989
 30
0.0
 11
35.0
 21
-889.43074902771991
 31
0.0
  0
LINE
  5
120
  8
DATA
  6
CONTINUOUS
 62
     7
 10
67.025624189766859
 20
-854.0
 30
0.0
 11
113.9743758102331
 21
-854.0
 31
0.0
  0
LINE
  5
121
  8
DATA
  6
CONTINUOUS
 62
     7
 10
125.4976950041937
 20
-859.39723400503306
 30
0.0
 11
142.5233191939605
 21
-879.82798303275285
 31
0.0
  0
LINE
  5
122
  8
DATA
  6
CONTINUOUS
 62
     7
 10
55.502304995806291
 20
-859.39723400503306
 30
0.0
 11
38.47668080603944
 21
-879.82798303275285
 31
0.0
  0
CIRCLE
  5
123
  8
DATA
  6
CONTINUOUS
 62
     7
 10
16.5
 20
-928.74999999999989
 30
0.0
 40
3.5
  0
POLYLINE
  5
124
  8
DATA
  6
CONTINUOUS
 62
     7
 66
     1
 10
0.0
 20
0.0
 30
0.0
 70
     1
  0
VERTEX
  5
4A8
  8
DATA
  6
CONTINUOUS
 62
     7
 10
14.50814157129571
 20
-927.59999999999991
 30
0.0
  0
VERTEX
  5
4A9
  8
DATA
  6
CONTINUOUS
 62
     7
 10
14.50814157129571
 20
-929.90000000000032
 30
0.0
  0
VERTEX
  5
4AA
  8
DATA
  6
CONTINUOUS
 62
     7
 10
16.5
 20
-931.04999999999995
 30
0.0
  0
VERTEX
  5
4AB
  8
DATA
  6
CONTINUOUS
 62
     7
 10
18.49185842870429
 20
-929.90000000000032
 30
0.0
  0
VERTEX
  5
4AC
  8
DATA
  6
CONTINUOUS
 62
     7
 10
18.49185842870429
 20
-927.59999999999991
 30
0.0
  0
VERTEX
  5
4AD
  8
DATA
  6
CONTINUOUS
 62
     7
 10
16.5
 20
-926.44999999999993
 30
0.0
  0
SEQEND
  5
4AE
  8
DATA
  6
CONTINUOUS
 62
     7
  0
CIRCLE
  5
12D
  8
DATA
  6
CONTINUOUS
 62
     7
 10
164.5
 20
-928.74999999999989
 30
0.0
 40
3.5
  0
POLYLINE
  5
12E
  8
DATA
  6
CONTINUOUS
 62
     7
 66
     1
 10
0.0
 20
0.0
 30
0.0
 70
     1
  0
VERTEX
  5
4AF
  8
DATA
  6
CONTINUOUS
 62
     7
 10
162.50814157129571
 20
-927.59999999999991
 30
0.0
  0
VERTEX
  5
4B0
  8
DATA
  6
CONTINUOUS
 62
     7
 10
162.50814157129571
 20
-929.90000000000032
 30
0.0
  0
VERTEX
  5
4B1
  8
DATA
  6
CONTINUOUS
 62
     7
 10
164.5
 20
-931.04999999999995
 30
0.0
  0
VERTEX
  5
4B2
  8
DATA
  6
CONTINUOUS
 62
     7
 10
166.49185842870429
 20
-929.90000000000032
 30
0.0
  0
VERTEX
  5
4B3
  8
DATA
  6
CONTINUOUS
 62
     7
 10
166.49185842870429
 20
-927.59999999999991
 30
0.0
  0
VERTEX
  5
4B4
  8
DATA
  6
CONTINUOUS
 62
     7
 10
164.5
 20
-926.44999999999993
 30
0.0
  0
SEQEND
  5
4B5
  8
DATA
  6
CONTINUOUS
 62
     7
  0
CIRCLE
  5
137
  8
DATA
  6
CONTINUOUS
 62
     7
 10
16.5
 20
-979.25
 30
0.0
 40
3.5
  0
POLYLINE
  5
138
  8
DATA
  6
CONTINUOUS
 62
     7
 66
     1
 10
0.0
 20
0.0
 30
0.0
 70
     1
  0
VERTEX
  5
4B6
  8
DATA
  6
CONTINUOUS
 62
     7
 10
14.50814157129571
 20
-978.10000000000002
 30
0.0
  0
VERTEX
  5
4B7
  8
DATA
  6
CONTINUOUS
 62
     7
 10
14.50814157129571
 20
-980.4000000000002
 30
0.0
  0
VERTEX
  5
4B8
  8
DATA
  6
CONTINUOUS
 62
     7
 10
16.5
 20
-981.54999999999984
 30
0.0
  0
VERTEX
  5
4B9
  8
DATA
  6
CONTINUOUS
 62
     7
 10
18.49185842870429
 20
-980.4000000000002
 30
0.0
  0
VERTEX
  5
4BA
  8
DATA
  6
CONTINUOUS
 62
     7
 10
18.49185842870429
 20
-978.10000000000002
 30
0.0
  0
VERTEX
  5
4BB
  8
DATA
  6
CONTINUOUS
 62
     7
 10
16.5
 20
-976.95000000000016
 30
0.0
  0
SEQEND
  5
4BC
  8
DATA
  6
CONTINUOUS
 62
     7
  0
CIRCLE
  5
141
  8
DATA
  6
CONTINUOUS
 62
     7
 10
164.5
 20
-979.25
 30
0.0
 40
3.5
  0
POLYLINE
  5
142
  8
DATA
  6
CONTINUOUS
 62
     7
 66
     1
 10
0.0
 20
0.0
 30
0.0
 70
     1
  0
VERTEX
  5
4BD
  8
DATA
  6
CONTINUOUS
 62
     7
 10
162.50814157129571
 20
-978.10000000000002
 30
0.0
  0
VERTEX
  5
4BE
  8
DATA
  6
CONTINUOUS
 62
     7
 10
162.50814157129571
 20
-980.4000000000002
 30
0.0
  0
VERTEX
  5
4BF
  8
DATA
  6
CONTINUOUS
 62
     7
 10
164.5
 20
-981.54999999999984
 30
0.0
  0
VERTEX
  5
4C0
  8
DATA
  6
CONTINUOUS
 62
     7
 10
166.49185842870429
 20
-980.4000000000002
 30
0.0
  0
VERTEX
  5
4C1
  8
DATA
  6
CONTINUOUS
 62
     7
 10
166.49185842870429
 20
-978.10000000000002
 30
0.0
  0
VERTEX
  5
4C2
  8
DATA
  6
CONTINUOUS
 62
     7
 10
164.5
 20
-976.95000000000016
 30
0.0
  0
SEQEND
  5
4C3
  8
DATA
  6
CONTINUOUS
 62
     7
  0
ARC
  5
14B
  8
DATA
  6
CONTINUOUS
 62
     7
 10
42.5
 20
-930.49999999999989
 30
0.0
 40
7.5
 50
180.0
 51
279.05407761439278
  0
ARC
  5
14C
  8
DATA
  6
CONTINUOUS
 62
     7
 10
138.5
 20
-930.49999999999989
 30
0.0
 40
7.5000000000001572
 50
260.94592238560728
 51
0.0
  0
LINE
  5
14D
  8
DATA
  6
CONTINUOUS
 62
     7
 10
146.0
 20
-889.43074902771991
 30
0.0
 11
146.0
 21
-930.49999999999989
 31
0.0
  0
LINE
  5
14E
  8
DATA
  6
CONTINUOUS
 62
     7
 10
35.0
 20
-977.50000000000034
 30
0.0
 11
35.0
 21
-1018.56925097228
 31
0.0
  0
LINE
  5
14F
  8
DATA
  6
CONTINUOUS
 62
     7
 10
67.025624189766859
 20
-1054.0
 30
0.0
 11
113.9743758102331
 21
-1054.0
 31
0.0
  0
LINE
  5
150
  8
DATA
  6
CONTINUOUS
 62
     7
 10
125.4976950041937
 20
-1048.6027659949671
 30
0.0
 11
142.5233191939605
 21
-1028.1720169672469
 31
0.0
  0
LINE
  5
151
  8
DATA
  6
CONTINUOUS
 62
     7
 10
55.502304995806291
 20
-1048.6027659949671
 30
0.0
 11
38.47668080603944
 21
-1028.1720169672469
 31
0.0
  0
ARC
  5
152
  8
DATA
  6
CONTINUOUS
 62
     7
 10
42.5
 20
-977.5
 30
0.0
 40
7.4999999999999316
 50
80.94592238560702
 51
180.0
  0
ARC
  5
153
  8
DATA
  6
CONTINUOUS
 62
     7
 10
138.5
 20
-977.5
 30
0.0
 40
7.5
 50
0.0
 51
99.054077614393009
  0
LINE
  5
154
  8
DATA
  6
CONTINUOUS
 62
     7
 10
146.0
 20
-1018.56925097228
 30
0.0
 11
146.0
 21
-977.50000000000034
 31
0.0
  0
LINE
  5
155
  8
DATA
  6
CONTINUOUS
 62
     7
 10
179.5
 20
-917.5
 30
0.0
 11
146.0
 21
-917.5
 31
0.0
  0
LINE
  5
156
  8
DATA
  6
CONTINUOUS
 62
     7
 10
35.0
 20
-917.5
 30
0.0
 11
1.5
 21
-917.5
 31
0.0
  0
LINE
  5
157
  8
DATA
  6
CONTINUOUS
 62
     7
 10
179.5
 20
-990.49999999999989
 30
0.0
 11
146.0
 21
-990.49999999999989
 31
0.0
  0
LINE
  5
158
  8
DATA
  6
CONTINUOUS
 62
     7
 10
35.0
 20
-990.49999999999989
 30
0.0
 11
1.5
 21
-990.49999999999989
 31
0.0
  0
ARC
  5
159
  8
DATA
  6
CONTINUOUS
 62
     7
 10
31.5
 20
-879.40597967047108
 30
0.0
 40
30.000000000000131
 50
138.36646066343039
 51
180.0
  0
ARC
  5
15A
  8
DATA
  6
CONTINUOUS
 62
     7
 10
54.971981929307731
 20
-853.0
 30
0.0
 40
30.0
 50
90.0
 51
138.3664606634301
  0
ARC
  5
15B
  8
DATA
  6
CONTINUOUS
 62
     7
 10
126.0280180706923
 20
-853.0
 30
0.0
 40
30.000000000000291
 50
41.633539336569932
 51
90.0
  0
ARC
  5
15C
  8
DATA
  6
CONTINUOUS
 62
     7
 10
149.5
 20
-879.40597967047108
 30
0.0
 40
30.0
 50
0.0
 51
41.633539336569577
  0
ARC
  5
15D
  8
DATA
  6
CONTINUOUS
 62
     7
 10
149.5
 20
-1028.594020329529
 30
0.0
 40
30.000000000000291
 50
318.36646066343008
 51
0.0
  0
ARC
  5
15E
  8
DATA
  6
CONTINUOUS
 62
     7
 10
126.0280180706923
 20
-1055.0
 30
0.0
 40
29.999999999999549
 50
270.0
 51
318.36646066343081
  0
ARC
  5
15F
  8
DATA
  6
CONTINUOUS
 62
     7
 10
54.971981929307731
 20
-1055.0
 30
0.0
 40
30.000000000000291
 50
221.6335393365699
 51
270.0
  0
ARC
  5
160
  8
DATA
  6
CONTINUOUS
 62
     7
 10
31.5
 20
-1028.594020329529
 30
0.0
 40
30.0
 50
180.0
 51
221.6335393365699
  0
ARC
  5
161
  8
DATA
  6
CONTINUOUS
 62
     7
 10
67.025624189766859
 20
-1039.0
 30
0.0
 40
14.999999999999989
 50
219.80557109226561
 51
270.0
  0
ARC
  5
162
  8
DATA
  6
CONTINUOUS
 62
     7
 10
113.9743758102331
 20
-1039.0
 30
0.0
 40
14.99999999999954
 50
270.0
 51
320.1944289077357
  0
ARC
  5
163
  8
DATA
  6
CONTINUOUS
 62
     7
 10
131.0
 20
-1018.56925097228
 30
0.0
 40
15.000000000000281
 50
320.19442890773308
 51
0.0
  0
ARC
  5
164
  8
DATA
  6
CONTINUOUS
 62
     7
 10
50.0
 20
-1018.56925097228
 30
0.0
 40
15.0
 50
180.0
 51
219.805571092267
  0
ARC
  5
165
  8
DATA
  6
CONTINUOUS
 62
     7
 10
50.0
 20
-889.43074902771991
 30
0.0
 40
14.999999999999851
 50
140.19442890773499
 51
180.0
  0
ARC
  5
166
  8
DATA
  6
CONTINUOUS
 62
     7
 10
67.025624189766859
 20
-869.0
 30
0.0
 40
15.0
 50
90.0
 51
140.19442890773499
  0
ARC
  5
167
  8
DATA
  6
CONTINUOUS
 62
     7
 10
113.9743758102331
 20
-869.0
 30
0.0
 40
14.999999999999851
 50
39.805571092264977
 51
90.0
  0
ARC
  5
168
  8
DATA
  6
CONTINUOUS
 62
     7
 10
131.0
 20
-889.43074902771991
 30
0.0
 40
15.0
 50
0.0
 51
39.805571092264977
  0
TEXT
  5
169
  8
DATA
 62
     7
 10
65.59375
 20
-960.10815429687489
 30
0.0
 40
12.21630859375
  1
PRX
 41
0.7
 11
65.59375
 21
-954.0
 31
0.0
 73
     2
  0
TEXT
  5
16A
  8
DATA
 62
     7
 10
95.5625
 20
-958.07210286458337
 30
0.0
 40
8.1442057291666661
  1
series
 41
0.7
 11
95.5625
 21
-954.0
 31
0.0
 73
     2
  0
LINE
  5
16B
  8
DATA
  6
CONTINUOUS
 62
     7
 10
-272.5
 20
-613.0
 30
0.0
 11
-272.5
 21
-1300.0
 31
0.0
  0
LINE
  5
16C
  8
DATA
  6
CONTINUOUS
 62
     7
 10
-300.0
 20
-633.0
 30
0.0
 11
413.49999999999989
 21
-633.0
 31
0.0
  0
LINE
  5
16D
  8
DATA
  6
CONTINUOUS
 62
     7
 10
-300.0
 20
-1280.0
 30
0.0
 11
413.49999999999989
 21
-1280.0
 31
0.0
  0
POLYLINE
  5
16E
  8
DATA
  6
CONTINUOUS
 62
     7
 66
     1
 10
0.0
 20
0.0
 30
0.0
 70
     1
  0
VERTEX
  5
4C4
  8
DATA
  6
CONTINUOUS
 62
     7
 10
312.0
 20
-1300.0
 30
0.0
  0
VERTEX
  5
4C5
  8
DATA
  6
CONTINUOUS
 62
     7
 10
350.0
 20
-1300.0
 30
0.0
  0
VERTEX
  5
4C6
  8
DATA
  6
CONTINUOUS
 62
     7
 10
350.0
 20
-1305.0
 30
0.0
  0
VERTEX
  5
4C7
  8
DATA
  6
CONTINUOUS
 62
     7
 10
312.0
 20
-1305.0
 30
0.0
  0
SEQEND
  5
4C8
  8
DATA
  6
CONTINUOUS
 62
     7
  0
POLYLINE
  5
175
  8
DATA
  6
CONTINUOUS
 62
     7
 66
     1
 10
0.0
 20
0.0
 30
0.0
 70
     1
  0
VERTEX
  5
4C9
  8
DATA
  6
CONTINUOUS
 62
     7
 10
-207.0
 20
-1300.0
 30
0.0
  0
VERTEX
  5
4CA
  8
DATA
  6
CONTINUOUS
 62
     7
 10
-169.0
 20
-1300.0
 30
0.0
  0
VERTEX
  5
4CB
  8
DATA
  6
CONTINUOUS
 62
     7
 10
-169.0
 20
-1305.0
 30
0.0
  0
VERTEX
  5
4CC
  8
DATA
  6
CONTINUOUS
 62
     7
 10
-207.0
 20
-1305.0
 30
0.0
  0
SEQEND
  5
4CD
  8
DATA
  6
CONTINUOUS
 62
     7
  0
LINE
  5
17C
  8
DATA
  6
CONTINUOUS
 62
     7
 10
633.25
 20
-1283.819660112501
 30
0.0
 11
633.25
 21
-629.18033988749903
 31
0.0
  0
LINE
  5
17D
  8
DATA
  6
CONTINUOUS
 62
     7
 10
1144.3893202250019
 20
-1300.0
 30
0.0
 11
655.61067977499795
 21
-1300.0
 31
0.0
  0
LINE
  5
17E
  8
DATA
  6
CONTINUOUS
 62
     7
 10
1148.3614561800009
 20
-1298.9442719099991
 30
0.0
 11
1160.722135954999
 21
-1292.7639320225001
 31
0.0
  0
LINE
  5
17F
  8
DATA
  6
CONTINUOUS
 62
     7
 10
651.13854381999852
 20
-1298.9442719099991
 30
0.0
 11
638.77786404500046
 21
-1292.7639320225001
 31
0.0
  0
LINE
  5
180
  8
DATA
  6
CONTINUOUS
 62
     7
 10
1166.25
 20
-639.39509760302815
 30
0.0
 11
1166.25
 21
-1283.819660112501
 31
0.0
  0
LINE
  5
181
  8
DATA
  6
CONTINUOUS
 62
     7
 10
657.97135954999612
 20
-613.0
 30
0.0
 11
1137.4121924739879
 21
-613.0
 31
0.0
  0
LINE
  5
182
  8
DATA
  6
CONTINUOUS
 62
     7
 10
638.77786404500046
 20
-620.23606797749949
 30
0.0
 11
649.02708763999715
 21
-615.1114561800016
 31
0.0
  0
LINE
  5
183
  8
DATA
  6
CONTINUOUS
 62
     7
 10
635.38848622242585
 20
-623.0
 30
0.0
 11
1157.7089803375029
 21
-623.0
 31
0.0
  0
LINE
  5
184
  8
DATA
  6
CONTINUOUS
 62
     7
 10
633.25
 20
-633.0
 30
0.0
 11
1165.2000059801501
 21
-633.0
 31
0.0
  0
LINE
  5
185
  8
DATA
  6
CONTINUOUS
 62
     7
 10
633.25
 20
-1280.0
 30
0.0
 11
1166.25
 21
-1280.0
 31
0.0
  0
LINE
  5
186
  8
DATA
  6
CONTINUOUS
 62
     7
 10
633.25
 20
-1270.0
 30
0.0
 11
1166.25
 21
-1270.0
 31
0.0
  0
ARC
  5
187
  8
DATA
  6
CONTINUOUS
 62
     7
 10
643.25
 20
-629.18033988749949
 30
0.0
 40
10.00000000000048
 50
116.5650511770756
 51
179.9999999999973
  0
ARC
  5
188
  8
DATA
  6
CONTINUOUS
 62
     7
 10
643.2500000000008
 20
-1283.819660112501
 30
0.0
 40
10.000000000000909
 50
180.0
 51
243.43494882291739
  0
ARC
  5
189
  8
DATA
  6
CONTINUOUS
 62
     7
 10
655.61067977499897
 20
-1290.0
 30
0.0
 40
10.00000000000048
 50
243.4349488229185
 51
269.99999999999483
  0
ARC
  5
18A
  8
DATA
  6
CONTINUOUS
 62
     7
 10
1143.8893202250019
 20
-1290.0
 30
0.0
 40
10.0
 50
270.0
 51
296.56505117707678
  0
ARC
  5
18B
  8
DATA
  6
CONTINUOUS
 62
     7
 10
1156.25
 20
-1283.8196601125001
 30
0.0
 40
10.00000000000048
 50
296.56505117707559
 51
359.99999999999488
  0
LINE
  5
18C
  8
DATA
  6
CONTINUOUS
 62
     7
 10
635.38848622242585
 20
-1290.0
 30
0.0
 11
1164.1115137775739
 21
-1290.0
 31
0.0
  0
LINE
  5
18D
  8
DATA
  6
CONTINUOUS
 62
     7
 10
971.0
 20
-1180.0
 30
0.0
 11
829.0
 21
-1180.0
 31
0.0
  0
LINE
  5
18E
  8
DATA
  6
CONTINUOUS
 62
     7
 10
991.0
 20
-738.0
 30
0.0
 11
991.0
 21
-1160.0
 31
0.0
  0
LINE
  5
18F
  8
DATA
  6
CONTINUOUS
 62
     7
 10
829.0
 20
-718.0
 30
0.0
 11
971.0
 21
-718.0
 31
0.0
  0
LINE
  5
190
  8
DATA
  6
CONTINUOUS
 62
     7
 10
809.0
 20
-1160.0
 30
0.0
 11
809.0
 21
-738.0
 31
0.0
  0
LINE
  5
191
  8
DATA
  6
CONTINUOUS
 62
     7
 10
832.0
 20
-1147.0
 30
0.0
 11
832.0
 21
-1052.0
 31
0.0
  0
LINE
  5
192
  8
DATA
  6
CONTINUOUS
 62
     7
 10
958.0
 20
-1157.0
 30
0.0
 11
842.0
 21
-1157.0
 31
0.0
  0
LINE
  5
193
  8
DATA
  6
CONTINUOUS
 62
     7
 10
968.0
 20
-1052.0
 30
0.0
 11
968.0
 21
-1147.0
 31
0.0
  0
LINE
  5
194
  8
DATA
  6
CONTINUOUS
 62
     7
 10
968.0
 20
-751.0
 30
0.0
 11
968.0
 21
-1022.0
 31
0.0
  0
LINE
  5
195
  8
DATA
  6
CONTINUOUS
 62
     7
 10
842.0
 20
-741.0
 30
0.0
 11
958.0
 21
-741.0
 31
0.0
  0
LINE
  5
196
  8
DATA
  6
CONTINUOUS
 62
     7
 10
832.0
 20
-1022.0
 30
0.0
 11
832.0
 21
-751.0
 31
0.0
  0
LINE
  5
197
  8
DATA
  6
CONTINUOUS
 62
     7
 10
832.0
 20
-1147.0
 30
0.0
 11
832.0
 21
-1052.0
 31
0.0
  0
LINE
  5
198
  8
DATA
  6
CONTINUOUS
 62
     7
 10
958.0
 20
-1157.0
 30
0.0
 11
842.0
 21
-1157.0
 31
0.0
  0
LINE
  5
199
  8
DATA
  6
CONTINUOUS
 62
     7
 10
968.0
 20
-1052.0
 30
0.0
 11
968.0
 21
-1147.0
 31
0.0
  0
LINE
  5
19A
  8
DATA
  6
CONTINUOUS
 62
     7
 10
842.0
 20
-1042.0
 30
0.0
 11
958.0
 21
-1042.0
 31
0.0
  0
CIRCLE
  5
19B
  8
DATA
  6
CONTINUOUS
 62
     7
 10
849.0
 20
-1059.0
 30
0.0
 40
4.000000000000246
  0
CIRCLE
  5
19C
  8
DATA
  6
CONTINUOUS
 62
     7
 10
864.0
 20
-1059.0
 30
0.0
 40
3.999999999999635
  0
CIRCLE
  5
19D
  8
DATA
  6
CONTINUOUS
 62
     7
 10
882.0
 20
-1059.0
 30
0.0
 40
4.9999999999998881
  0
CIRCLE
  5
19E
  8
DATA
  6
CONTINUOUS
 62
     7
 10
880.58027384973138
 20
-1051.8154610771071
 30
0.0
 40
0.3999999999995988
  0
CIRCLE
  5
19F
  8
DATA
  6
CONTINUOUS
 62
     7
 10
879.30064691072585
 20
-1052.1583360820271
 30
0.0
 40
0.3999999999999602
  0
CIRCLE
  5
1A0
  8
DATA
  6
CONTINUOUS
 62
     7
 10
878.10000000000025
 20
-1052.718206931238
 30
0.0
 40
0.4000000000001431
  0
CIRCLE
  5
1A1
  8
DATA
  6
CONTINUOUS
 62
     7
 10
877.01481416638308
 20
-1053.478062232296
 30
0.0
 40
0.3999999999999877
  0
CIRCLE
  5
1A2
  8
DATA
  6
CONTINUOUS
 62
     7
 10
876.07806223229647
 20
-1054.414814166382
 30
0.0
 40
0.4000000000003434
  0
CIRCLE
  5
1A3
  8
DATA
  6
CONTINUOUS
 62
     7
 10
875.31820693123962
 20
-1055.5
 30
0.0
 40
0.400000000000064
  0
CIRCLE
  5
1A4
  8
DATA
  6
CONTINUOUS
 62
     7
 10
874.75833608202822
 20
-1056.700646910725
 30
0.0
 40
0.3999999999993009
  0
CIRCLE
  5
1A5
  8
DATA
  6
CONTINUOUS
 62
     7
 10
874.75833608202822
 20
-1056.700646910725
 30
0.0
 40
0.3999999999993009
  0
CIRCLE
  5
1A6
  8
DATA
  6
CONTINUOUS
 62
     7
 10
874.41546107710849
 20
-1057.980273849731
 30
0.0
 40
0.3999999999995492
  0
CIRCLE
  5
1A7
  8
DATA
  6
CONTINUOUS
 62
     7
 10
874.30000000000098
 20
-1059.3
 30
0.0
 40
0.3999999999994882
  0
CIRCLE
  5
1A8
  8
DATA
  6
CONTINUOUS
 62
     7
 10
874.41546107710735
 20
-1060.619726150268
 30
0.0
 40
0.4000000000006799
  0
CIRCLE
  5
1A9
  8
DATA
  6
CONTINUOUS
 62
     7
 10
874.75833608202822
 20
-1061.8993530892751
 30
0.0
 40
0.3999999999999602
  0
CIRCLE
  5
1AA
  8
DATA
  6
CONTINUOUS
 62
     7
 10
875.31820693123871
 20
-1063.0999999999999
 30
0.0
 40
0.40000000000047
  0
CIRCLE
  5
1AB
  8
DATA
  6
CONTINUOUS
 62
     7
 10
883.21972615026971
 20
-1051.8154610771071
 30
0.0
 40
0.3999999999995988
  0
CIRCLE
  5
1AC
  8
DATA
  6
CONTINUOUS
 62
     7
 10
884.49935308927525
 20
-1052.1583360820271
 30
0.0
 40
0.3999999999999602
  0
CIRCLE
  5
1AD
  8
DATA
  6
CONTINUOUS
 62
     7
 10
885.70000000000061
 20
-1052.718206931238
 30
0.0
 40
0.4000000000001431
  0
CIRCLE
  5
1AE
  8
DATA
  6
CONTINUOUS
 62
     7
 10
886.78518583361779
 20
-1053.478062232296
 30
0.0
 40
0.3999999999999877
  0
CIRCLE
  5
1AF
  8
DATA
  6
CONTINUOUS
 62
     7
 10
887.72193776770473
 20
-1054.414814166382
 30
0.0
 40
0.4000000000003434
  0
CIRCLE
  5
1B0
  8
DATA
  6
CONTINUOUS
 62
     7
 10
888.48179306876125
 20
-1055.5
 30
0.0
 40
0.400000000000064
  0
CIRCLE
  5
1B1
  8
DATA
  6
CONTINUOUS
 62
     7
 10
889.0416639179731
 20
-1056.700646910725
 30
0.0
 40
0.3999999999993009
  0
CIRCLE
  5
1B2
  8
DATA
  6
CONTINUOUS
 62
     7
 10
889.0416639179731
 20
-1056.700646910725
 30
0.0
 40
0.3999999999993009
  0
CIRCLE
  5
1B3
  8
DATA
  6
CONTINUOUS
 62
     7
 10
889.38453892289272
 20
-1057.980273849731
 30
0.0
 40
0.3999999999995492
  0
CIRCLE
  5
1B4
  8
DATA
  6
CONTINUOUS
 62
     7
 10
889.49999999999989
 20
-1059.3
 30
0.0
 40
0.3999999999994882
  0
CIRCLE
  5
1B5
  8
DATA
  6
CONTINUOUS
 62
     7
 10
889.38453892289351
 20
-1060.619726150268
 30
0.0
 40
0.4000000000006799
  0
CIRCLE
  5
1B6
  8
DATA
  6
CONTINUOUS
 62
     7
 10
889.0416639179731
 20
-1061.8993530892751
 30
0.0
 40
0.3999999999999602
  0
CIRCLE
  5
1B7
  8
DATA
  6
CONTINUOUS
 62
     7
 10
888.48179306876204
 20
-1063.0999999999999
 30
0.0
 40
0.40000000000047
  0
CIRCLE
  5
1B8
  8
DATA
  6
CONTINUOUS
 62
     7
 10
881.90000000000146
 20
-1051.6999999999989
 30
0.0
 40
0.400000000000081
  0
CIRCLE
  5
1B9
  8
DATA
  6
CONTINUOUS
 62
     7
 10
904.0
 20
-1062.5
 30
0.0
 40
1.5000000000000639
  0
CIRCLE
  5
1BA
  8
DATA
  6
CONTINUOUS
 62
     7
 10
904.0
 20
-1055.5
 30
0.0
 40
1.5000000000000639
  0
POLYLINE
  5
1BB
  8
DATA
  6
CONTINUOUS
 62
     7
 66
     1
 10
0.0
 20
0.0
 30
0.0
 70
     1
  0
VERTEX
  5
4CE
  8
DATA
  6
CONTINUOUS
 62
     7
 10
932.0
 20
-1069.0
 30
0.0
  0
VERTEX
  5
4CF
  8
DATA
  6
CONTINUOUS
 62
     7
 10
962.0
 20
-1069.0
 30
0.0
  0
VERTEX
  5
4D0
  8
DATA
  6
CONTINUOUS
 62
     7
 10
962.0
 20
-1083.0
 30
0.0
  0
VERTEX
  5
4D1
  8
DATA
  6
CONTINUOUS
 62
     7
 10
932.0
 20
-1083.0
 30
0.0
  0
SEQEND
  5
4D2
  8
DATA
  6
CONTINUOUS
 62
     7
  0
POLYLINE
  5
1C2
  8
DATA
  6
CONTINUOUS
 62
     7
 66
     1
 10
0.0
 20
0.0
 30
0.0
 70
     1
  0
VERTEX
  5
4D3
  8
DATA
  6
CONTINUOUS
 62
     7
 10
935.0
 20
-1071.0
 30
0.0
  0
VERTEX
  5
4D4
  8
DATA
  6
CONTINUOUS
 62
     7
 10
959.0
 20
-1071.0
 30
0.0
  0
VERTEX
  5
4D5
  8
DATA
  6
CONTINUOUS
 62
     7
 10
959.0
 20
-1081.0
 30
0.0
  0
VERTEX
  5
4D6
  8
DATA
  6
CONTINUOUS
 62
     7
 10
935.0
 20
-1081.0
 30
0.0
  0
SEQEND
  5
4D7
  8
DATA
  6
CONTINUOUS
 62
     7
  0
LINE
  5
1C9
  8
DATA
  6
CONTINUOUS
 62
     7
 10
943.0
 20
-1071.0
 30
0.0
 11
943.0
 21
-1081.0
 31
0.0
  0
LINE
  5
1CA
  8
DATA
  6
CONTINUOUS
 62
     7
 10
947.0
 20
-1076.0
 30
0.0
 11
952.0
 21
-1076.0
 31
0.0
  0
POLYLINE
  5
1CB
  8
DATA
  6
CONTINUOUS
 62
     7
 66
     1
 10
0.0
 20
0.0
 30
0.0
 70
     1
  0
VERTEX
  5
4D8
  8
DATA
  6
CONTINUOUS
 62
     7
 10
930.0
 20
-1090.0
 30
0.0
  0
VERTEX
  5
4D9
  8
DATA
  6
CONTINUOUS
 62
     7
 10
962.0
 20
-1090.0
 30
0.0
  0
VERTEX
  5
4DA
  8
DATA
  6
CONTINUOUS
 62
     7
 10
962.0
 20
-1105.0
 30
0.0
  0
VERTEX
  5
4DB
  8
DATA
  6
CONTINUOUS
 62
     7
 10
930.0
 20
-1105.0
 30
0.0
  0
SEQEND
  5
4DC
  8
DATA
  6
CONTINUOUS
 62
     7
  0
POLYLINE
  5
1D2
  8
DATA
  6
CONTINUOUS
 62
     7
 66
     1
 10
0.0
 20
0.0
 30
0.0
 70
     1
  0
VERTEX
  5
4DD
  8
DATA
  6
CONTINUOUS
 62
     7
 10
940.49999999999989
 20
-1093.5
 30
0.0
  0
VERTEX
  5
4DE
  8
DATA
  6
CONTINUOUS
 62
     7
 10
951.5
 20
-1093.5
 30
0.0
  0
VERTEX
  5
4DF
  8
DATA
  6
CONTINUOUS
 62
     7
 10
951.5
 20
-1101.5
 30
0.0
  0
VERTEX
  5
4E0
  8
DATA
  6
CONTINUOUS
 62
     7
 10
940.49999999999989
 20
-1101.5
 30
0.0
  0
SEQEND
  5
4E1
  8
DATA
  6
CONTINUOUS
 62
     7
  0
POLYLINE
  5
1D9
  8
DATA
  6
CONTINUOUS
 62
     7
 66
     1
 10
0.0
 20
0.0
 30
0.0
 70
     1
  0
VERTEX
  5
4E2
  8
DATA
  6
CONTINUOUS
 62
     7
 10
947.49999999999989
 20
-1093.5
 30
0.0
  0
VERTEX
  5
4E3
  8
DATA
  6
CONTINUOUS
 62
     7
 10
951.5
 20
-1093.5
 30
0.0
  0
VERTEX
  5
4E4
  8
DATA
  6
CONTINUOUS
 62
     7
 10
951.5
 20
-1101.5
 30
0.0
  0
VERTEX
  5
4E5
  8
DATA
  6
CONTINUOUS
 62
     7
 10
947.49999999999989
 20
-1101.5
 30
0.0
  0
SEQEND
  5
4E6
  8
DATA
  6
CONTINUOUS
 62
     7
  0
POLYLINE
  5
1E0
  8
DATA
  6
CONTINUOUS
 62
     7
 66
     1
 10
0.0
 20
0.0
 30
0.0
 70
     1
  0
VERTEX
  5
4E7
  8
DATA
  6
CONTINUOUS
 62
     7
 10
949.0
 20
-1094.5
 30
0.0
  0
VERTEX
  5
4E8
  8
DATA
  6
CONTINUOUS
 62
     7
 10
950.0
 20
-1094.5
 30
0.0
  0
VERTEX
  5
4E9
  8
DATA
  6
CONTINUOUS
 62
     7
 10
950.0
 20
-1100.5
 30
0.0
  0
VERTEX
  5
4EA
  8
DATA
  6
CONTINUOUS
 62
     7
 10
949.0
 20
-1100.5
 30
0.0
  0
SEQEND
  5
4EB
  8
DATA
  6
CONTINUOUS
 62
     7
  0
POLYLINE
  5
1E7
  8
DATA
  6
CONTINUOUS
 62
     7
 66
     1
 10
0.0
 20
0.0
 30
0.0
 70
     1
  0
VERTEX
  5
4EC
  8
DATA
  6
CONTINUOUS
 62
     7
 10
931.0
 20
-1115.0
 30
0.0
  0
VERTEX
  5
4ED
  8
DATA
  6
CONTINUOUS
 62
     7
 10
962.0
 20
-1115.0
 30
0.0
  0
VERTEX
  5
4EE
  8
DATA
  6
CONTINUOUS
 62
     7
 10
962.0
 20
-1149.0
 30
0.0
  0
VERTEX
  5
4EF
  8
DATA
  6
CONTINUOUS
 62
     7
 10
931.0
 20
-1149.0
 30
0.0
  0
SEQEND
  5
4F0
  8
DATA
  6
CONTINUOUS
 62
     7
  0
POLYLINE
  5
1EE
  8
DATA
  6
CONTINUOUS
 62
     7
 66
     1
 10
0.0
 20
0.0
 30
0.0
 70
     1
  0
VERTEX
  5
4F1
  8
DATA
  6
CONTINUOUS
 62
     7
 10
934.5
 20
-1130.0
 30
0.0
  0
VERTEX
  5
4F2
  8
DATA
  6
CONTINUOUS
 62
     7
 10
958.5
 20
-1130.0
 30
0.0
  0
VERTEX
  5
4F3
  8
DATA
  6
CONTINUOUS
 62
     7
 10
958.5
 20
-1141.0
 30
0.0
  0
VERTEX
  5
4F4
  8
DATA
  6
CONTINUOUS
 62
     7
 10
953.5
 20
-1146.0
 30
0.0
  0
VERTEX
  5
4F5
  8
DATA
  6
CONTINUOUS
 62
     7
 10
939.49999999999989
 20
-1146.0
 30
0.0
  0
VERTEX
  5
4F6
  8
DATA
  6
CONTINUOUS
 62
     7
 10
934.5
 20
-1141.0
 30
0.0
  0
SEQEND
  5
4F7
  8
DATA
  6
CONTINUOUS
 62
     7
  0
LINE
  5
1F7
  8
DATA
  6
CONTINUOUS
 62
     7
 10
853.00127958383291
 20
-1074.5838016678581
 30
0.0
 11
853.00127958383291
 21
-1075.400000001109
 31
0.0
  0
LINE
  5
1F8
  8
DATA
  6
CONTINUOUS
 62
     7
 10
855.60127958357316
 20
-1077.70000000088
 30
0.0
 11
855.60127958357316
 21
-1079.550000000695
 31
0.0
  0
LINE
  5
1F9
  8
DATA
  6
CONTINUOUS
 62
     7
 10
860.40127958309301
 20
-1077.70000000088
 30
0.0
 11
860.40127958309301
 21
-1079.550000000695
 31
0.0
  0
LINE
  5
1FA
  8
DATA
  6
CONTINUOUS
 62
     7
 10
860.40127958309301
 20
-1081.473380573429
 30
0.0
 11
860.40127958309301
 21
-1081.473380727547
 31
0.0
  0
LINE
  5
1FB
  8
DATA
  6
CONTINUOUS
 62
     7
 10
863.00127958283326
 20
-1074.5838016678581
 30
0.0
 11
863.00127958283326
 21
-1075.400000001109
 31
0.0
  0
LINE
  5
1FC
  8
DATA
  6
CONTINUOUS
 62
     7
 10
855.00127958363294
 20
-1077.40000000091
 30
0.0
 11
855.30127958360299
 21
-1077.40000000091
 31
0.0
  0
LINE
  5
1FD
  8
DATA
  6
CONTINUOUS
 62
     7
 10
860.70127958306318
 20
-1077.40000000091
 30
0.0
 11
861.00127958303335
 21
-1077.40000000091
 31
0.0
  0
ARC
  5
1FE
  8
DATA
  6
CONTINUOUS
 62
     7
 10
855.00127958363294
 20
-1075.400000001109
 30
0.0
 40
1.9999999997999109
 50
180.0
 51
270.0
  0
ARC
  5
1FF
  8
DATA
  6
CONTINUOUS
 62
     7
 10
858.0012795833336
 20
-1082.00000000045
 30
0.0
 40
9.9999999989995398
 50
67.97568700000113
 51
112.0243130000037
  0
ARC
  5
200
  8
DATA
  6
CONTINUOUS
 62
     7
 10
855.00127958363294
 20
-1074.5838016678581
 30
0.0
 40
1.99999999979994
 50
112.0243129999872
 51
180.0
  0
ARC
  5
201
  8
DATA
  6
CONTINUOUS
 62
     7
 10
855.30127958360299
 20
-1077.70000000088
 30
0.0
 40
0.2999999999701686
 50
0.0
 51
90.0
  0
ARC
  5
202
  8
DATA
  6
CONTINUOUS
 62
     7
 10
861.00127958303335
 20
-1074.5838016678581
 30
0.0
 40
1.9999999997999109
 50
0.0
 51
67.975687000012726
  0
ARC
  5
203
  8
DATA
  6
CONTINUOUS
 62
     7
 10
861.00127958303335
 20
-1075.400000001109
 30
0.0
 40
1.999999999800365
 50
270.0
 51
0.0
  0
ARC
  5
204
  8
DATA
  6
CONTINUOUS
 62
     7
 10
860.70127958306318
 20
-1077.70000000088
 30
0.0
 40
0.2999999999697138
 50
90.0
 51
180.0
  0
LINE
  5
205
  8
DATA
  6
CONTINUOUS
 62
     7
 10
855.15127958361791
 20
-1081.631995000487
 30
0.0
 11
855.15127958361791
 21
-1081.6319951579219
 31
0.0
  0
ARC
  5
206
  8
DATA
  6
CONTINUOUS
 62
     7
 10
858.0012795833336
 20
-1088.9999999997499
 30
0.0
 40
11.999999998800201
 50
104.81348243040669
 51
75.186517569593278
  0
ARC
  5
207
  8
DATA
  6
CONTINUOUS
 62
     7
 10
858.0012795833336
 20
-1088.9999999997499
 30
0.0
 40
9.7499999990254071
 50
104.25003269780569
 51
75.749967302199551
  0
ARC
  5
208
  8
DATA
  6
CONTINUOUS
 62
     7
 10
853.50127958378266
 20
-1088.9999999997499
 30
0.0
 40
1.999999999800095
 50
32.089183874050867
 51
327.91081612594922
  0
ARC
  5
209
  8
DATA
  6
CONTINUOUS
 62
     7
 10
862.50127958288329
 20
-1088.9999999997499
 30
0.0
 40
1.999999999800095
 50
212.0891838740508
 51
147.91081612594911
  0
ARC
  5
20A
  8
DATA
  6
CONTINUOUS
 62
     7
 10
858.0012795833336
 20
-1092.949999999355
 30
0.0
 40
1.99999999980077
 50
137.8522840898888
 51
42.147715910128611
  0
ARC
  5
20B
  8
DATA
  6
CONTINUOUS
 62
     7
 10
852.55655725054385
 20
-1083.555278000294
 30
0.0
 40
0.7999999999207108
 50
56.612913999968789
 51
213.3870860000219
  0
ARC
  5
20C
  8
DATA
  6
CONTINUOUS
 62
     7
 10
858.0012795833336
 20
-1088.9999999997499
 30
0.0
 40
2.9999999999997442
 50
20.741916485081301
 51
159.25808351492489
  0
ARC
  5
20D
  8
DATA
  6
CONTINUOUS
 62
     7
 10
858.0012795833336
 20
-1088.9999999997499
 30
0.0
 40
3.0000000000005942
 50
200.74191648507511
 51
240.3778367991917
  0
ARC
  5
20E
  8
DATA
  6
CONTINUOUS
 62
     7
 10
858.0012795833336
 20
-1088.9999999997499
 30
0.0
 40
2.999999999999643
 50
299.6221632007933
 51
339.25808351491872
  0
CIRCLE
  5
20F
  8
DATA
  6
CONTINUOUS
 62
     7
 10
867.50127958238295
 20
-1100.99999999855
 30
0.0
 40
2.5
  0
LINE
  5
210
  8
DATA
  6
STYLE_12
 62
     7
 10
865.998720415717
 20
-1100.99999999855
 30
0.0
 11
868.99872041571689
 21
-1100.99999999855
 31
0.0
  0
LINE
  5
211
  8
DATA
  6
STYLE_12
 62
     7
 10
867.50127958238295
 20
-1099.4988283318839
 30
0.0
 11
867.50127958238295
 21
-1102.498828331883
 31
0.0
  0
CIRCLE
  5
212
  8
DATA
  6
CONTINUOUS
 62
     7
 10
848.49872041761671
 20
-1076.998828334283
 30
0.0
 40
2.5
  0
LINE
  5
213
  8
DATA
  6
STYLE_12
 62
     7
 10
846.99616125095042
 20
-1076.998828334283
 30
0.0
 11
849.99616125095054
 21
-1076.998828334283
 31
0.0
  0
LINE
  5
214
  8
DATA
  6
STYLE_12
 62
     7
 10
848.49872041761671
 20
-1075.497656667616
 30
0.0
 11
848.49872041761671
 21
-1078.497656667616
 31
0.0
  0
LINE
  5
215
  8
DATA
  6
CONTINUOUS
 62
     7
 10
855.60127958357316
 20
-1118.7000000008791
 30
0.0
 11
855.60127958357316
 21
-1120.550000000695
 31
0.0
  0
LINE
  5
216
  8
DATA
  6
CONTINUOUS
 62
     7
 10
856.45127958348814
 20
-1118.8000000014099
 30
0.0
 11
856.45127958348814
 21
-1121.30000000116
 31
0.0
  0
LINE
  5
217
  8
DATA
  6
CONTINUOUS
 62
     7
 10
859.55127958317814
 20
-1118.8000000014099
 30
0.0
 11
859.55127958317814
 21
-1121.30000000116
 31
0.0
  0
LINE
  5
218
  8
DATA
  6
CONTINUOUS
 62
     7
 10
860.40127958309301
 20
-1118.7000000008791
 30
0.0
 11
860.40127958309301
 21
-1120.5500000006939
 31
0.0
  0
LINE
  5
219
  8
DATA
  6
CONTINUOUS
 62
     7
 10
856.85127958344845
 20
-1118.4000000014501
 30
0.0
 11
859.15127958321852
 21
-1118.4000000014501
 31
0.0
  0
LINE
  5
21A
  8
DATA
  6
CONTINUOUS
 62
     7
 10
855.00127958363294
 20
-1118.40000000091
 30
0.0
 11
855.30127958360299
 21
-1118.40000000091
 31
0.0
  0
LINE
  5
21B
  8
DATA
  6
CONTINUOUS
 62
     7
 10
860.70127958306318
 20
-1118.40000000091
 30
0.0
 11
861.00127958303335
 21
-1118.40000000091
 31
0.0
  0
CIRCLE
  5
21C
  8
DATA
  6
CONTINUOUS
 62
     7
 10
853.50127958378266
 20
-1129.9999999997499
 30
0.0
 40
1.649999999835017
  0
CIRCLE
  5
21D
  8
DATA
  6
CONTINUOUS
 62
     7
 10
862.50127958288329
 20
-1129.9999999997499
 30
0.0
 40
1.649999999835017
  0
CIRCLE
  5
21E
  8
DATA
  6
CONTINUOUS
 62
     7
 10
858.0012795833336
 20
-1133.949999999355
 30
0.0
 40
1.6499999998341079
  0
ARC
  5
21F
  8
DATA
  6
CONTINUOUS
 62
     7
 10
859.15127958321852
 20
-1118.8000000014099
 30
0.0
 40
0.3999999999596184
 50
0.0
 51
90.0
  0
ARC
  5
220
  8
DATA
  6
CONTINUOUS
 62
     7
 10
856.85127958344845
 20
-1118.8000000014099
 30
0.0
 40
0.3999999999600732
 50
90.0
 51
180.0
  0
ARC
  5
221
  8
DATA
  6
CONTINUOUS
 62
     7
 10
855.30127958360299
 20
-1118.7000000008791
 30
0.0
 40
0.2999999999701686
 50
0.0
 51
90.0
  0
ARC
  5
222
  8
DATA
  6
CONTINUOUS
 62
     7
 10
860.70127958306318
 20
-1118.7000000008791
 30
0.0
 40
0.2999999999697138
 50
90.0
 51
180.0
  0
LINE
  5
223
  8
DATA
  6
CONTINUOUS
 62
     7
 10
855.90127958354344
 20
-1139.5211606654641
 30
0.0
 11
855.90127958354344
 21
-1141.052262331978
 31
0.0
  0
LINE
  5
224
  8
DATA
  6
CONTINUOUS
 62
     7
 10
865.19684658261383
 20
-1123.4207663337411
 30
0.0
 11
866.52281924914769
 21
-1122.655215667151
 31
0.0
  0
LINE
  5
225
  8
DATA
  6
CONTINUOUS
 62
     7
 10
860.10127958312285
 20
-1139.5211606654641
 30
0.0
 11
860.10127958312285
 21
-1141.052262331978
 31
0.0
  0
LINE
  5
226
  8
DATA
  6
CONTINUOUS
 62
     7
 10
867.29684658240319
 20
-1127.058073000044
 30
0.0
 11
868.62281924893784
 21
-1126.2925223334539
 31
0.0
  0
LINE
  5
227
  8
DATA
  6
CONTINUOUS
 62
     7
 10
848.70571258426298
 20
-1127.058073000044
 30
0.0
 11
847.37973958439591
 21
-1126.2925223334539
 31
0.0
  0
LINE
  5
228
  8
DATA
  6
CONTINUOUS
 62
     7
 10
850.80571258405234
 20
-1123.4207663337411
 30
0.0
 11
849.47973958418515
 21
-1122.655215667151
 31
0.0
  0
ARC
  5
229
  8
DATA
  6
CONTINUOUS
 62
     7
 10
858.0012795833336
 20
-1129.9999999997499
 30
0.0
 40
9.7499999990254071
 50
104.25003269780569
 51
137.56190722847211
  0
ARC
  5
22A
  8
DATA
  6
CONTINUOUS
 62
     7
 10
858.0012795833336
 20
-1129.9999999997499
 30
0.0
 40
9.7499999990256292
 50
162.43809270625761
 51
257.56190718494372
  0
ARC
  5
22B
  8
DATA
  6
CONTINUOUS
 62
     7
 10
858.0012795833336
 20
-1129.9999999997499
 30
0.0
 40
9.7499999990252135
 50
282.43809281505088
 51
17.56190729374395
  0
ARC
  5
22C
  8
DATA
  6
CONTINUOUS
 62
     7
 10
858.0012795833336
 20
-1129.9999999997499
 30
0.0
 40
9.7499999990249702
 50
42.438092771531529
 51
75.749967302199551
  0
ARC
  5
22D
  8
DATA
  6
CONTINUOUS
 62
     7
 10
858.0012795833336
 20
-1129.9999999997499
 30
0.0
 40
11.24999999887515
 50
259.24168199999627
 51
280.75831799999912
  0
ARC
  5
22E
  8
DATA
  6
CONTINUOUS
 62
     7
 10
858.0012795833336
 20
-1129.9999999997499
 30
0.0
 40
11.24999999887458
 50
19.24168199999982
 51
40.758317999999718
  0
ARC
  5
22F
  8
DATA
  6
CONTINUOUS
 62
     7
 10
858.0012795833336
 20
-1129.9999999997499
 30
0.0
 40
11.249999998875349
 50
139.24168200000329
 51
160.75831800000171
  0
LINE
  5
230
  8
DATA
  6
CONTINUOUS
 62
     7
 10
856.45127958348814
 20
-1121.30000000116
 30
0.0
 11
859.55127958317814
 21
-1121.30000000116
 31
0.0
  0
CIRCLE
  5
231
  8
DATA
  6
CONTINUOUS
 62
     7
 10
867.498720415717
 20
-1141.9999999985489
 30
0.0
 40
2.5
  0
LINE
  5
232
  8
DATA
  6
STYLE_12
 62
     7
 10
865.99616124904958
 20
-1141.9999999985489
 30
0.0
 11
868.99616124904969
 21
-1141.9999999985489
 31
0.0
  0
LINE
  5
233
  8
DATA
  6
STYLE_12
 62
     7
 10
867.498720415717
 20
-1140.498828331883
 30
0.0
 11
867.498720415717
 21
-1143.498828331883
 31
0.0
  0
CIRCLE
  5
234
  8
DATA
  6
CONTINUOUS
 62
     7
 10
848.5038387509494
 20
-1118.00000000095
 30
0.0
 40
2.5
  0
LINE
  5
235
  8
DATA
  6
STYLE_12
 62
     7
 10
847.001279584283
 20
-1118.00000000095
 30
0.0
 11
850.00127958428288
 21
-1118.00000000095
 31
0.0
  0
LINE
  5
236
  8
DATA
  6
STYLE_12
 62
     7
 10
848.5038387509494
 20
-1116.498828334283
 30
0.0
 11
848.5038387509494
 21
-1119.498828334283
 31
0.0
  0
LINE
  5
237
  8
DATA
  6
CONTINUOUS
 62
     7
 10
858.0012795833336
 20
-1116.9999999997499
 30
0.0
 11
858.0012795833336
 21
-1111.9999999997499
 31
0.0
  0
TEXT
  5
238
  8
DATA
 62
     7
 10
916.39999999999975
 20
-1050.2677777777781
 30
0.0
 40
5.4294704861111107
  1
PRX618S-XLF
 41
0.7
 11
916.39999999999975
 21
-1044.838307291667
 31
0.0
 73
     3
  0
TEXT
  5
239
  8
DATA
 62
     7
 10
848.04984266493045
 20
-1053.136081271701
 30
0.0
 40
2.0360514322916661
  1
IN
 41
0.7
 72
     1
 11
849.0
 21
-1052.118055555555
 31
0.0
 73
     2
  0
TEXT
  5
23A
  8
DATA
 62
     7
 10
845.43690999348951
 20
-1050.077747938368
 30
0.0
 40
2.0360514322916661
  1
XOVER
 41
0.7
 72
     1
 11
849.0
 21
-1049.059722222222
 31
0.0
 73
     2
  0
TEXT
  5
23B
  8
DATA
 62
     7
 10
859.9618313259549
 20
-1053.1360812717021
 30
0.0
 40
2.0360514322916661
  1
NORMAL
 41
0.7
 72
     1
 11
864.0
 21
-1052.1180555555561
 31
0.0
 73
     2
  0
TEXT
  5
23C
  8
DATA
 62
     7
 10
858.77413465711811
 20
-1050.077747938368
 30
0.0
 40
2.0360514322916661
  1
POLARITY
 41
0.7
 72
     1
 11
864.0
 21
-1049.0597222222229
 31
0.0
 73
     2
  0
TEXT
  5
23D
  8
DATA
 62
     7
 10
878.33690999349119
 20
-1050.4360812717009
 30
0.0
 40
2.0360514322916661
  1
LEVEL
 41
0.7
 72
     1
 11
881.90000000000146
 21
-1049.4180555555561
 31
0.0
 73
     2
  0
TEXT
  5
23E
  8
DATA
 62
     7
 10
899.72429199218755
 20
-1053.136081271701
 30
0.0
 40
2.0360514322916661
  1
LIMITER
 41
0.7
 72
     1
 11
904.0
 21
-1052.118055555555
 31
0.0
 73
     2
  0
TEXT
  5
23F
  8
DATA
 62
     7
 10
900.19937065972215
 20
-1060.136081271701
 30
0.0
 40
2.0360514322916661
  1
SIGNAL
 41
0.7
 72
     1
 11
904.0
 21
-1059.118055555555
 31
0.0
 73
     2
  0
TEXT
  5
240
  8
DATA
 62
     7
 10
942.01167399088536
 20
-1067.750819697354
 30
0.0
 40
2.8504720052083332
  1
POWER
 41
0.7
 72
     1
 11
947.0
 21
-1066.3255836947501
 31
0.0
 73
     2
  0
TEXT
  5
241
  8
DATA
 62
     7
 10
936.08985899522565
 20
-1088.8008196973531
 30
0.0
 40
2.8504720052083332
  1
LINE SELECT
 41
0.7
 72
     1
 11
946.0
 21
-1087.3755836947489
 31
0.0
 73
     2
  0
TEXT
  5
242
  8
DATA
 62
     7
 10
936.92241406250002
 20
-1108.080505672988
 30
0.0
 40
2.4432617187500001
  1
AC LINE INPUT
 41
0.7
 72
     1
 11
946.49999999999989
 21
-1106.8588748136131
 31
0.0
 73
     2
  0
TEXT
  5
243
  8
DATA
 62
     7
 10
874.67105931423635
 20
-1091.3071804467979
 30
0.0
 40
2.8504720052083332
  1
IN
 41
0.7
 72
     1
 11
876.0012795833336
 21
-1089.881944444194
 31
0.0
 73
     2
  0
TEXT
  5
244
  8
DATA
 62
     7
 10
873.34083904513921
 20
-1132.307180447048
 30
0.0
 40
2.8504720052083332
  1
OUT
 41
0.7
 72
     1
 11
876.0012795833336
 21
-1130.8819444444439
 31
0.0
 73
     2
  0
TEXT
  5
245
  8
DATA
 62
     7
 10
854.34317384331609
 20
-1110.925236002354
 30
0.0
 40
2.8504720052083332
  1
LEFT
 41
0.7
 72
     1
 11
858.0012795833336
 21
-1109.4999999997499
 31
0.0
 73
     2
  0
TEXT
  5
246
  8
DATA
 62
     7
 10
847.09968532986113
 20
-1066.8999701605901
 30
0.0
 40
2.0360514322916661
  1
OUT
 41
0.7
 72
     1
 11
849.0
 21
-1065.8819444444439
 31
0.0
 73
     2
  0
TEXT
  5
247
  8
DATA
 62
     7
 10
859.01167399088536
 20
-1066.8999701605901
 30
0.0
 40
2.0360514322916661
  1
REVERSE
 41
0.7
 72
     1
 11
864.0
 21
-1065.881944444445
 31
0.0
 73
     2
  0
LINE
  5
248
  8
DATA
  6
CONTINUOUS
 62
     7
 10
842.0
 20
-1032.0
 30
0.0
 11
958.0
 21
-1032.0
 31
0.0
  0
POLYLINE
  5
249
  8
DATA
  6
CONTINUOUS
 62
     7
 66
     1
 10
0.0
 20
0.0
 30
0.0
 70
     1
  0
VERTEX
  5
4F8
  8
DATA
  6
CONTINUOUS
 62
     7
 10
686.24999999999989
 20
-1300.0
 30
0.0
  0
VERTEX
  5
4F9
  8
DATA
  6
CONTINUOUS
 62
     7
 10
724.24999999999989
 20
-1300.0
 30
0.0
  0
VERTEX
  5
4FA
  8
DATA
  6
CONTINUOUS
 62
     7
 10
724.24999999999989
 20
-1305.0
 30
0.0
  0
VERTEX
  5
4FB
  8
DATA
  6
CONTINUOUS
 62
     7
 10
686.24999999999989
 20
-1305.0
 30
0.0
  0
SEQEND
  5
4FC
  8
DATA
  6
CONTINUOUS
 62
     7
  0
POLYLINE
  5
250
  8
DATA
  6
CONTINUOUS
 62
     7
 66
     1
 10
0.0
 20
0.0
 30
0.0
 70
     1
  0
VERTEX
  5
4FD
  8
DATA
  6
CONTINUOUS
 62
     7
 10
1075.75
 20
-1300.0
 30
0.0
  0
VERTEX
  5
4FE
  8
DATA
  6
CONTINUOUS
 62
     7
 10
1113.75
 20
-1300.0
 30
0.0
  0
VERTEX
  5
4FF
  8
DATA
  6
CONTINUOUS
 62
     7
 10
1113.75
 20
-1305.0
 30
0.0
  0
VERTEX
  5
500
  8
DATA
  6
CONTINUOUS
 62
     7
 10
1075.75
 20
-1305.0
 30
0.0
  0
SEQEND
  5
501
  8
DATA
  6
CONTINUOUS
 62
     7
  0
POLYLINE
  5
257
  8
DATA
  6
CONTINUOUS
 62
     7
 66
     1
 10
0.0
 20
0.0
 30
0.0
 70
     1
  0
VERTEX
  5
502
  8
DATA
  6
CONTINUOUS
 62
     7
 10
-1113.75
 20
-1300.0
 30
0.0
  0
VERTEX
  5
503
  8
DATA
  6
CONTINUOUS
 62
     7
 10
-1075.75
 20
-1300.0
 30
0.0
  0
VERTEX
  5
504
  8
DATA
  6
CONTINUOUS
 62
     7
 10
-1075.75
 20
-1305.0
 30
0.0
  0
VERTEX
  5
505
  8
DATA
  6
CONTINUOUS
 62
     7
 10
-1113.75
 20
-1305.0
 30
0.0
  0
SEQEND
  5
506
  8
DATA
  6
CONTINUOUS
 62
     7
  0
POLYLINE
  5
25E
  8
DATA
  6
CONTINUOUS
 62
     7
 66
     1
 10
0.0
 20
0.0
 30
0.0
 70
     1
  0
VERTEX
  5
507
  8
DATA
  6
CONTINUOUS
 62
     7
 10
-724.24999999999989
 20
-1300.0
 30
0.0
  0
VERTEX
  5
508
  8
DATA
  6
CONTINUOUS
 62
     7
 10
-686.24999999999989
 20
-1300.0
 30
0.0
  0
VERTEX
  5
509
  8
DATA
  6
CONTINUOUS
 62
     7
 10
-686.24999999999989
 20
-1305.0
 30
0.0
  0
VERTEX
  5
50A
  8
DATA
  6
CONTINUOUS
 62
     7
 10
-724.24999999999989
 20
-1305.0
 30
0.0
  0
SEQEND
  5
50B
  8
DATA
  6
CONTINUOUS
 62
     7
  0
LINE
  5
265
  8
DATA
  6
CONTINUOUS
 62
     7
 10
-207.5
 20
-613.0
 30
0.0
 11
-207.5
 21
-1300.0
 31
0.0
  0
LINE
  5
266
  8
DATA
  6
CONTINUOUS
 62
     7
 10
-298.0
 20
-1280.0
 30
0.0
 11
-298.0
 21
-633.0
 31
0.0
  0
LINE
  5
267
  8
DATA
  6
CONTINUOUS
 62
     7
 10
1149.1367424705529
 20
-616.79707040754488
 30
0.0
 11
1157.974549996565
 21
-623.19216801057325
 31
0.0
  0
ARC
  5
268
  8
DATA
  6
CONTINUOUS
 62
     7
 10
1137.412192473987
 20
-633.0
 30
0.0
 40
20.000000000000149
 50
54.110245340415382
 51
89.999999999999346
  0
ARC
  5
269
  8
DATA
  6
CONTINUOUS
 62
     7
 10
1146.25
 20
-639.39509760302815
 30
0.0
 40
20.0
 50
0.0
 51
54.110245340415943
  0
ARC
  5
26A
  8
DATA
  6
CONTINUOUS
 62
     7
 10
657.97135954999612
 20
-633.0
 30
0.0
 40
20.0
 50
90.000000000000298
 51
116.56505117707739
  0
ARC
  5
26B
  8
DATA
  6
CONTINUOUS
 62
     7
 10
-728.5
 20
-88.828239318956136
 30
0.0
 40
15.00000000000005
 50
294.4439547804152
 51
359.99999999999972
  0
ARC
  5
26C
  8
DATA
  6
CONTINUOUS
 62
     7
 10
-708.49999999999989
 20
-101.706504725492
 30
0.0
 40
14.99999999999994
 50
294.44395478041639
 51
0.0000000000003411
  0
ARC
  5
26D
  8
DATA
  6
CONTINUOUS
 62
     7
 10
-668.5
 20
-127.46303553856271
 30
0.0
 40
15.000000000000011
 50
294.44395478041668
 51
0.0
  0
ARC
  5
26E
  8
DATA
  6
CONTINUOUS
 62
     7
 10
-648.5
 20
-140.3413009450984
 30
0.0
 40
14.99999999999995
 50
294.44395478041639
 51
0.0000000000001137
  0
ARC
  5
26F
  8
DATA
  6
CONTINUOUS
 62
     7
 10
-746.74913792078416
 20
-185.0
 30
0.0
 40
15.0
 50
270.0
 51
294.44395478041628
  0
ARC
  5
270
  8
DATA
  6
CONTINUOUS
 62
     7
 10
-751.08132181516169
 20
-165.0
 30
0.0
 40
15.0
 50
269.9999999999996
 51
294.44395478041628
  0
ARC
  5
271
  8
DATA
  6
CONTINUOUS
 62
     7
 10
-759.74568960391866
 20
-125.0
 30
0.0
 40
14.99999999999997
 50
270.0
 51
294.44395478041628
  0
ARC
  5
272
  8
DATA
  6
CONTINUOUS
 62
     7
 10
-764.077873498298
 20
-105.0
 30
0.0
 40
14.99999999999998
 50
270.0000000000004
 51
294.44395478041582
  0
ARC
  5
273
  8
DATA
  6
CONTINUOUS
 62
     7
 10
-1035.922126501705
 20
-105.0
 30
0.0
 40
14.99999999999998
 50
245.55604521958321
 51
270.0
  0
ARC
  5
274
  8
DATA
  6
CONTINUOUS
 62
     7
 10
-1040.2543103960829
 20
-125.0
 30
0.0
 40
15.0
 50
245.5560452195833
 51
270.0
  0
ARC
  5
275
  8
DATA
  6
CONTINUOUS
 62
     7
 10
-1048.9186781848391
 20
-165.0
 30
0.0
 40
14.99999999999998
 50
245.55604521958321
 51
270.0
  0
ARC
  5
276
  8
DATA
  6
CONTINUOUS
 62
     7
 10
-1053.250862079218
 20
-185.0
 30
0.0
 40
14.99999999999998
 50
245.55604521958321
 51
270.0
  0
ARC
  5
277
  8
DATA
  6
CONTINUOUS
 62
     7
 10
-1151.5
 20
-140.3413009450984
 30
0.0
 40
15.0
 50
180.00000000000011
 51
245.5560452195833
  0
ARC
  5
278
  8
DATA
  6
CONTINUOUS
 62
     7
 10
-1131.5
 20
-127.46303553856281
 30
0.0
 40
15.0
 50
180.0
 51
245.5560452195833
  0
ARC
  5
279
  8
DATA
  6
CONTINUOUS
 62
     7
 10
-1091.5
 20
-101.7065047254921
 30
0.0
 40
15.0
 50
180.0
 51
245.5560452195833
  0
ARC
  5
27A
  8
DATA
  6
CONTINUOUS
 62
     7
 10
-1071.5
 20
-88.828239318956591
 30
0.0
 40
15.0
 50
180.00000000000011
 51
245.5560452195833
  0
ARC
  5
27B
  8
DATA
  6
CONTINUOUS
 62
     7
 10
-290.0
 20
-627.11894958929929
 30
0.0
 40
9.9999999999999751
 50
112.7398072884538
 51
180.0
  0
ARC
  5
27C
  8
DATA
  6
CONTINUOUS
 62
     7
 10
-280.1725182087846
 20
-623.0
 30
0.0
 40
10.0
 50
90.000000000000298
 51
112.739807288454
  0
ARC
  5
27D
  8
DATA
  6
CONTINUOUS
 62
     7
 10
393.67251820878448
 20
-623.0
 30
0.0
 40
9.9999999999999982
 50
67.260192711545926
 51
89.999999999999659
  0
ARC
  5
27E
  8
DATA
  6
CONTINUOUS
 62
     7
 10
403.5
 20
-627.11894958929929
 30
0.0
 40
10.0
 50
0.0
 51
67.260192711546253
  0
ARC
  5
27F
  8
DATA
  6
CONTINUOUS
 62
     7
 10
403.5
 20
-1285.8810504107009
 30
0.0
 40
9.9999999999998543
 50
292.73980728845549
 51
0.0000000000013642
  0
ARC
  5
280
  8
DATA
  6
CONTINUOUS
 62
     7
 10
393.67251820878562
 20
-1290.0
 30
0.0
 40
10.000000000000229
 50
269.99999999999642
 51
292.73980728845089
  0
ARC
  5
281
  8
DATA
  6
CONTINUOUS
 62
     7
 10
-290.0
 20
-1285.8810504107009
 30
0.0
 40
10.0
 50
180.0
 51
247.26019271154499
  0
ARC
  5
282
  8
DATA
  6
CONTINUOUS
 62
     7
 10
-280.1725182087846
 20
-1290.0
 30
0.0
 40
10.00000000000019
 50
247.2601927115432
 51
269.99999999999812
  0
ARC
  5
283
  8
DATA
  6
CONTINUOUS
 62
     7
 10
829.0
 20
-1160.0
 30
0.0
 40
20.0
 50
180.0
 51
270.0
  0
ARC
  5
284
  8
DATA
  6
CONTINUOUS
 62
     7
 10
971.0
 20
-1160.0
 30
0.0
 40
20.0
 50
270.0
 51
0.0
  0
ARC
  5
285
  8
DATA
  6
CONTINUOUS
 62
     7
 10
971.0
 20
-738.0
 30
0.0
 40
20.0
 50
0.0
 51
90.0
  0
ARC
  5
286
  8
DATA
  6
CONTINUOUS
 62
     7
 10
829.0
 20
-738.0
 30
0.0
 40
20.0
 50
90.0
 51
180.0
  0
ARC
  5
287
  8
DATA
  6
CONTINUOUS
 62
     7
 10
842.0
 20
-751.0
 30
0.0
 40
10.0
 50
90.0
 51
180.0
  0
ARC
  5
288
  8
DATA
  6
CONTINUOUS
 62
     7
 10
958.0
 20
-751.0
 30
0.0
 40
10.0
 50
0.0
 51
90.0
  0
ARC
  5
289
  8
DATA
  6
CONTINUOUS
 62
     7
 10
958.0
 20
-1022.0
 30
0.0
 40
10.0
 50
270.0
 51
0.0
  0
ARC
  5
28A
  8
DATA
  6
CONTINUOUS
 62
     7
 10
842.0
 20
-1022.0
 30
0.0
 40
10.0
 50
180.0
 51
270.0
  0
ARC
  5
28B
  8
DATA
  6
CONTINUOUS
 62
     7
 10
842.0
 20
-1052.0
 30
0.0
 40
10.0
 50
90.0
 51
180.0
  0
ARC
  5
28C
  8
DATA
  6
CONTINUOUS
 62
     7
 10
842.0
 20
-1147.0
 30
0.0
 40
10.0
 50
180.0
 51
270.0
  0
ARC
  5
28D
  8
DATA
  6
CONTINUOUS
 62
     7
 10
958.0
 20
-1147.0
 30
0.0
 40
10.0
 50
270.0
 51
0.0
  0
ARC
  5
28E
  8
DATA
  6
CONTINUOUS
 62
     7
 10
958.0
 20
-1052.0
 30
0.0
 40
10.0
 50
0.0
 51
90.0
  0
LINE
  5
28F
  8
DATA
  6
CONTINUOUS
 62
     7
 10
858.0012795833336
 20
-1106.9999999997499
 30
0.0
 11
858.0012795833336
 21
-1101.9999999997499
 31
0.0
  0
LINE
  5
290
  8
DATA
  6
CONTINUOUS
 62
     7
 10
894.0012795833336
 20
-1116.9999999997499
 30
0.0
 11
894.0012795833336
 21
-1111.9999999997499
 31
0.0
  0
LINE
  5
291
  8
DATA
  6
CONTINUOUS
 62
     7
 10
894.0012795833336
 20
-1106.9999999997499
 30
0.0
 11
894.0012795833336
 21
-1101.9999999997499
 31
0.0
  0
TEXT
  5
292
  8
DATA
 62
     7
 10
936.42073098958326
 20
-1113.8199928398531
 30
0.0
 40
1.954609375
  1
50/60Hz　5A　600W
 41
0.7
 72
     1
 11
946.49999999999989
 21
-1112.842688152353
 31
0.0
 73
     2
  0
TEXT
  5
293
  8
DATA
 62
     7
 10
940.54821445312496
 20
-1111.279992839854
 30
0.0
 40
1.954609375
  1
100V～240V
 41
0.7
 72
     1
 11
946.49999999999989
 21
-1110.302688152354
 31
0.0
 73
     2
  0
CIRCLE
  5
294
  8
DATA
  6
CONTINUOUS
 62
     7
 10
894.00128092410705
 20
-1088.9999999997499
 30
0.0
 40
7.899999852375986
  0
LINE
  5
295
  8
DATA
  6
CONTINUOUS
 62
     7
 10
889.00128092460636
 20
-1074.5838016678581
 30
0.0
 11
889.00128092460636
 21
-1075.400000001109
 31
0.0
  0
LINE
  5
296
  8
DATA
  6
CONTINUOUS
 62
     7
 10
891.6012809243465
 20
-1077.70000000088
 30
0.0
 11
891.6012809243465
 21
-1079.550000000695
 31
0.0
  0
LINE
  5
297
  8
DATA
  6
CONTINUOUS
 62
     7
 10
896.40128092386647
 20
-1077.70000000088
 30
0.0
 11
896.40128092386647
 21
-1079.550000000695
 31
0.0
  0
LINE
  5
298
  8
DATA
  6
CONTINUOUS
 62
     7
 10
896.40128092386647
 20
-1081.473380573429
 30
0.0
 11
896.40128092386647
 21
-1081.473380727547
 31
0.0
  0
LINE
  5
299
  8
DATA
  6
CONTINUOUS
 62
     7
 10
899.0012809236066
 20
-1074.5838016678581
 30
0.0
 11
899.0012809236066
 21
-1075.400000001109
 31
0.0
  0
LINE
  5
29A
  8
DATA
  6
CONTINUOUS
 62
     7
 10
891.00128092440616
 20
-1077.40000000091
 30
0.0
 11
891.30128092437633
 21
-1077.40000000091
 31
0.0
  0
LINE
  5
29B
  8
DATA
  6
CONTINUOUS
 62
     7
 10
896.70128092383675
 20
-1077.40000000091
 30
0.0
 11
897.00128092380692
 21
-1077.40000000091
 31
0.0
  0
ARC
  5
29C
  8
DATA
  6
CONTINUOUS
 62
     7
 10
891.00128092440616
 20
-1075.400000001109
 30
0.0
 40
1.9999999997999109
 50
180.0
 51
270.0
  0
ARC
  5
29D
  8
DATA
  6
CONTINUOUS
 62
     7
 10
894.00128092410705
 20
-1082.00000000045
 30
0.0
 40
9.9999999989995398
 50
67.97568700000113
 51
112.0243130000037
  0
ARC
  5
29E
  8
DATA
  6
CONTINUOUS
 62
     7
 10
891.00128092440616
 20
-1074.5838016678581
 30
0.0
 40
1.99999999979994
 50
112.0243129999872
 51
180.0
  0
ARC
  5
29F
  8
DATA
  6
CONTINUOUS
 62
     7
 10
891.30128092437633
 20
-1077.70000000088
 30
0.0
 40
0.2999999999701686
 50
0.0
 51
90.0
  0
ARC
  5
2A0
  8
DATA
  6
CONTINUOUS
 62
     7
 10
897.00128092380692
 20
-1074.5838016678581
 30
0.0
 40
1.9999999997999109
 50
0.0
 51
67.975687000012726
  0
ARC
  5
2A1
  8
DATA
  6
CONTINUOUS
 62
     7
 10
897.00128092380692
 20
-1075.400000001109
 30
0.0
 40
1.999999999800365
 50
270.0
 51
0.0
  0
ARC
  5
2A2
  8
DATA
  6
CONTINUOUS
 62
     7
 10
896.70128092383675
 20
-1077.70000000088
 30
0.0
 40
0.2999999999697138
 50
90.0
 51
180.0
  0
LINE
  5
2A3
  8
DATA
  6
CONTINUOUS
 62
     7
 10
891.15128092439113
 20
-1081.631995000487
 30
0.0
 11
891.15128092439113
 21
-1081.6319951579219
 31
0.0
  0
ARC
  5
2A4
  8
DATA
  6
CONTINUOUS
 62
     7
 10
894.00128092410705
 20
-1088.9999999997499
 30
0.0
 40
11.999999998800201
 50
104.81348243040669
 51
75.186517569593278
  0
ARC
  5
2A5
  8
DATA
  6
CONTINUOUS
 62
     7
 10
894.00128092410705
 20
-1088.9999999997499
 30
0.0
 40
9.7499999990254071
 50
104.25003269780569
 51
75.749967302199551
  0
ARC
  5
2A6
  8
DATA
  6
CONTINUOUS
 62
     7
 10
889.501280924556
 20
-1088.9999999997499
 30
0.0
 40
1.999999999800095
 50
32.089183874050867
 51
327.91081612594922
  0
ARC
  5
2A7
  8
DATA
  6
CONTINUOUS
 62
     7
 10
898.50128092365662
 20
-1088.9999999997499
 30
0.0
 40
1.999999999800095
 50
212.0891838740508
 51
147.91081612594911
  0
ARC
  5
2A8
  8
DATA
  6
CONTINUOUS
 62
     7
 10
894.00128092410705
 20
-1092.949999999355
 30
0.0
 40
1.99999999980077
 50
137.8522840898888
 51
42.147715910128611
  0
ARC
  5
2A9
  8
DATA
  6
CONTINUOUS
 62
     7
 10
888.55655859131707
 20
-1083.555278000294
 30
0.0
 40
0.7999999999207108
 50
56.612913999968789
 51
213.3870860000219
  0
ARC
  5
2AA
  8
DATA
  6
CONTINUOUS
 62
     7
 10
894.00128092410705
 20
-1088.9999999997499
 30
0.0
 40
2.9999999999997442
 50
20.741916485081301
 51
159.25808351492489
  0
ARC
  5
2AB
  8
DATA
  6
CONTINUOUS
 62
     7
 10
894.00128092410705
 20
-1088.9999999997499
 30
0.0
 40
3.0000000000005942
 50
200.74191648507511
 51
240.3778367991917
  0
ARC
  5
2AC
  8
DATA
  6
CONTINUOUS
 62
     7
 10
894.00128092410705
 20
-1088.9999999997499
 30
0.0
 40
2.999999999999643
 50
299.6221632007933
 51
339.25808351491872
  0
CIRCLE
  5
2AD
  8
DATA
  6
CONTINUOUS
 62
     7
 10
903.50128092315629
 20
-1100.99999999855
 30
0.0
 40
2.5
  0
LINE
  5
2AE
  8
DATA
  6
STYLE_12
 62
     7
 10
901.99872175649034
 20
-1100.99999999855
 30
0.0
 11
904.99872175649023
 21
-1100.99999999855
 31
0.0
  0
LINE
  5
2AF
  8
DATA
  6
STYLE_12
 62
     7
 10
903.50128092315629
 20
-1099.4988283318839
 30
0.0
 11
903.50128092315629
 21
-1102.498828331883
 31
0.0
  0
CIRCLE
  5
2B0
  8
DATA
  6
CONTINUOUS
 62
     7
 10
884.49872175839016
 20
-1076.998828334283
 30
0.0
 40
2.5
  0
LINE
  5
2B1
  8
DATA
  6
STYLE_12
 62
     7
 10
882.99616259172399
 20
-1076.998828334283
 30
0.0
 11
885.99616259172399
 21
-1076.998828334283
 31
0.0
  0
LINE
  5
2B2
  8
DATA
  6
STYLE_12
 62
     7
 10
884.49872175839016
 20
-1075.497656667616
 30
0.0
 11
884.49872175839016
 21
-1078.497656667616
 31
0.0
  0
CIRCLE
  5
2B3
  8
DATA
  6
CONTINUOUS
 62
     7
 10
894.0012795833336
 20
-1130.0
 30
0.0
 40
11.999999998799691
  0
LINE
  5
2B4
  8
DATA
  6
CONTINUOUS
 62
     7
 10
891.60127958357305
 20
-1118.7000000011301
 30
0.0
 11
891.60127958357305
 21
-1120.5500000009449
 31
0.0
  0
LINE
  5
2B5
  8
DATA
  6
CONTINUOUS
 62
     7
 10
892.45127958348803
 20
-1118.80000000166
 30
0.0
 11
892.45127958348803
 21
-1121.3000000014099
 31
0.0
  0
LINE
  5
2B6
  8
DATA
  6
CONTINUOUS
 62
     7
 10
895.55127958317826
 20
-1118.80000000166
 30
0.0
 11
895.55127958317826
 21
-1121.3000000014099
 31
0.0
  0
LINE
  5
2B7
  8
DATA
  6
CONTINUOUS
 62
     7
 10
896.40127958309324
 20
-1118.7000000011301
 30
0.0
 11
896.40127958309324
 21
-1120.5500000009449
 31
0.0
  0
LINE
  5
2B8
  8
DATA
  6
CONTINUOUS
 62
     7
 10
892.85127958344845
 20
-1118.4000000016999
 30
0.0
 11
895.15127958321852
 21
-1118.4000000016999
 31
0.0
  0
LINE
  5
2B9
  8
DATA
  6
CONTINUOUS
 62
     7
 10
891.00127958363282
 20
-1118.4000000011599
 30
0.0
 11
891.3012795836031
 21
-1118.4000000011599
 31
0.0
  0
LINE
  5
2BA
  8
DATA
  6
CONTINUOUS
 62
     7
 10
896.70127958306318
 20
-1118.4000000011599
 30
0.0
 11
897.00127958303347
 21
-1118.4000000011599
 31
0.0
  0
CIRCLE
  5
2BB
  8
DATA
  6
CONTINUOUS
 62
     7
 10
889.50127958378266
 20
-1130.0
 30
0.0
 40
1.649999999835017
  0
CIRCLE
  5
2BC
  8
DATA
  6
CONTINUOUS
 62
     7
 10
898.50127958288329
 20
-1130.0
 30
0.0
 40
1.649999999835017
  0
CIRCLE
  5
2BD
  8
DATA
  6
CONTINUOUS
 62
     7
 10
894.0012795833336
 20
-1133.9499999996051
 30
0.0
 40
1.6499999998341079
  0
ARC
  5
2BE
  8
DATA
  6
CONTINUOUS
 62
     7
 10
895.15127958321852
 20
-1118.80000000166
 30
0.0
 40
0.3999999999596184
 50
0.0
 51
90.0
  0
ARC
  5
2BF
  8
DATA
  6
CONTINUOUS
 62
     7
 10
892.85127958344845
 20
-1118.80000000166
 30
0.0
 40
0.3999999999600732
 50
90.0
 51
180.0
  0
ARC
  5
2C0
  8
DATA
  6
CONTINUOUS
 62
     7
 10
891.3012795836031
 20
-1118.7000000011301
 30
0.0
 40
0.2999999999701686
 50
0.0
 51
90.0
  0
ARC
  5
2C1
  8
DATA
  6
CONTINUOUS
 62
     7
 10
896.70127958306318
 20
-1118.7000000011301
 30
0.0
 40
0.2999999999697138
 50
90.0
 51
180.0
  0
LINE
  5
2C2
  8
DATA
  6
CONTINUOUS
 62
     7
 10
891.90127958354356
 20
-1139.521160665714
 30
0.0
 11
891.90127958354356
 21
-1141.0522623322281
 31
0.0
  0
LINE
  5
2C3
  8
DATA
  6
CONTINUOUS
 62
     7
 10
901.19684658261406
 20
-1123.420766333991
 30
0.0
 11
902.52281924914769
 21
-1122.6552156674011
 31
0.0
  0
LINE
  5
2C4
  8
DATA
  6
CONTINUOUS
 62
     7
 10
896.10127958312285
 20
-1139.521160665714
 30
0.0
 11
896.10127958312285
 21
-1141.0522623322281
 31
0.0
  0
LINE
  5
2C5
  8
DATA
  6
CONTINUOUS
 62
     7
 10
903.2968465824033
 20
-1127.0580730002939
 30
0.0
 11
904.62281924893784
 21
-1126.292522333704
 31
0.0
  0
LINE
  5
2C6
  8
DATA
  6
CONTINUOUS
 62
     7
 10
884.70571258426298
 20
-1127.0580730002939
 30
0.0
 11
883.37973958439591
 21
-1126.292522333704
 31
0.0
  0
LINE
  5
2C7
  8
DATA
  6
CONTINUOUS
 62
     7
 10
886.80571258405234
 20
-1123.420766333991
 30
0.0
 11
885.47973958418515
 21
-1122.6552156674011
 31
0.0
  0
ARC
  5
2C8
  8
DATA
  6
CONTINUOUS
 62
     7
 10
894.0012795833336
 20
-1130.0
 30
0.0
 40
9.7499999990254071
 50
104.25003269780569
 51
137.56190722847211
  0
ARC
  5
2C9
  8
DATA
  6
CONTINUOUS
 62
     7
 10
894.0012795833336
 20
-1130.0
 30
0.0
 40
9.7499999990256292
 50
162.43809270625761
 51
257.56190718494372
  0
ARC
  5
2CA
  8
DATA
  6
CONTINUOUS
 62
     7
 10
894.0012795833336
 20
-1130.0
 30
0.0
 40
9.7499999990252135
 50
282.43809281505088
 51
17.56190729374395
  0
ARC
  5
2CB
  8
DATA
  6
CONTINUOUS
 62
     7
 10
894.0012795833336
 20
-1130.0
 30
0.0
 40
9.7499999990249702
 50
42.438092771531529
 51
75.749967302199551
  0
ARC
  5
2CC
  8
DATA
  6
CONTINUOUS
 62
     7
 10
894.0012795833336
 20
-1130.0
 30
0.0
 40
11.24999999887515
 50
259.24168199999627
 51
280.75831799999912
  0
ARC
  5
2CD
  8
DATA
  6
CONTINUOUS
 62
     7
 10
894.0012795833336
 20
-1130.0
 30
0.0
 40
11.24999999887458
 50
19.24168199999982
 51
40.758317999999718
  0
ARC
  5
2CE
  8
DATA
  6
CONTINUOUS
 62
     7
 10
894.0012795833336
 20
-1130.0
 30
0.0
 40
11.249999998875349
 50
139.24168200000329
 51
160.75831800000171
  0
LINE
  5
2CF
  8
DATA
  6
CONTINUOUS
 62
     7
 10
892.45127958348803
 20
-1121.3000000014099
 30
0.0
 11
895.55127958317826
 21
-1121.3000000014099
 31
0.0
  0
CIRCLE
  5
2D0
  8
DATA
  6
CONTINUOUS
 62
     7
 10
903.498720415717
 20
-1141.9999999987999
 30
0.0
 40
2.5
  0
LINE
  5
2D1
  8
DATA
  6
STYLE_12
 62
     7
 10
901.99616124904969
 20
-1141.9999999987999
 30
0.0
 11
904.99616124904969
 21
-1141.9999999987999
 31
0.0
  0
LINE
  5
2D2
  8
DATA
  6
STYLE_12
 62
     7
 10
903.498720415717
 20
-1140.4988283321329
 30
0.0
 11
903.498720415717
 21
-1143.4988283321329
 31
0.0
  0
CIRCLE
  5
2D3
  8
DATA
  6
CONTINUOUS
 62
     7
 10
884.50383875094928
 20
-1118.0000000012001
 30
0.0
 40
2.5
  0
LINE
  5
2D4
  8
DATA
  6
STYLE_12
 62
     7
 10
883.00127958428288
 20
-1118.0000000012001
 30
0.0
 11
886.001279584283
 21
-1118.0000000012001
 31
0.0
  0
LINE
  5
2D5
  8
DATA
  6
STYLE_12
 62
     7
 10
884.50383875094928
 20
-1116.4988283345331
 30
0.0
 11
884.50383875094928
 21
-1119.4988283345331
 31
0.0
  0
CIRCLE
  5
2D6
  8
DATA
  6
CONTINUOUS
 62
     7
 10
306.00895708333519
 20
-110.99999999824919
 30
0.0
 40
83.999999991597875
  0
CIRCLE
  5
2D7
  8
DATA
  6
CONTINUOUS
 62
     7
 10
306.00895708333519
 20
176.00000000175081
 30
0.0
 40
55.299998966631897
  0
TEXT
  5
2D8
  8
DATA
 62
     7
 10
527.7464459613733
 20
22.523347982646222
 30
0.0
 40
19.953304036458331
  1
RIGHT
 41
0.7
 72
     1
 11
558.00895708333519
 21
32.500000000875389
 31
0.0
 73
     2
  0
LINE
  5
2D9
  8
DATA
  6
CONTINUOUS
 62
     7
 10
124.0
 20
-230.0
 30
0.0
 11
124.0
 21
435.0
 31
0.0
  0
LINE
  5
2DA
  8
DATA
  6
CONTINUOUS
 62
     7
 10
1006.0
 20
-300.0
 30
0.0
 11
194.0
 21
-300.0
 31
0.0
  0
LINE
  5
2DB
  8
DATA
  6
CONTINUOUS
 62
     7
 10
1076.0
 20
435.0
 30
0.0
 11
1076.0
 21
-230.0
 31
0.0
  0
LINE
  5
2DC
  8
DATA
  6
CONTINUOUS
 62
     7
 10
124.0
 20
-230.0
 30
0.0
 11
124.0
 21
435.0
 31
0.0
  0
LINE
  5
2DD
  8
DATA
  6
CONTINUOUS
 62
     7
 10
1006.0
 20
-300.0
 30
0.0
 11
194.0
 21
-300.0
 31
0.0
  0
LINE
  5
2DE
  8
DATA
  6
CONTINUOUS
 62
     7
 10
1076.0
 20
435.0
 30
0.0
 11
1076.0
 21
-230.0
 31
0.0
  0
LINE
  5
2DF
  8
DATA
  6
CONTINUOUS
 62
     7
 10
194.0
 20
505.0
 30
0.0
 11
1006.0
 21
505.0
 31
0.0
  0
CIRCLE
  5
2E0
  8
DATA
  6
CONTINUOUS
 62
     7
 10
243.0
 20
386.0
 30
0.0
 40
28.00000000000173
  0
CIRCLE
  5
2E1
  8
DATA
  6
CONTINUOUS
 62
     7
 10
348.0
 20
386.0
 30
0.0
 40
27.999999999997449
  0
CIRCLE
  5
2E2
  8
DATA
  6
CONTINUOUS
 62
     7
 10
474.0
 20
386.0
 30
0.0
 40
34.999999999999211
  0
CIRCLE
  5
2E3
  8
DATA
  6
CONTINUOUS
 62
     7
 10
464.06191694811969
 20
436.29177246024699
 30
0.0
 40
2.799999999997191
  0
CIRCLE
  5
2E4
  8
DATA
  6
CONTINUOUS
 62
     7
 10
455.1045283750808
 20
433.89164742580891
 30
0.0
 40
2.79999999999972
  0
CIRCLE
  5
2E5
  8
DATA
  6
CONTINUOUS
 62
     7
 10
446.7000000000026
 20
429.97255148133081
 30
0.0
 40
2.8000000000010008
  0
CIRCLE
  5
2E6
  8
DATA
  6
CONTINUOUS
 62
     7
 10
439.10369916468147
 20
424.65356437392802
 30
0.0
 40
2.7999999999999141
  0
CIRCLE
  5
2E7
  8
DATA
  6
CONTINUOUS
 62
     7
 10
432.54643562607453
 20
418.09630083532409
 30
0.0
 40
2.8000000000024028
  0
CIRCLE
  5
2E8
  8
DATA
  6
CONTINUOUS
 62
     7
 10
427.2274485186781
 20
410.5
 30
0.0
 40
2.8000000000004461
  0
CIRCLE
  5
2E9
  8
DATA
  6
CONTINUOUS
 62
     7
 10
423.3083525741967
 20
402.09547162492481
 30
0.0
 40
2.799999999995106
  0
CIRCLE
  5
2EA
  8
DATA
  6
CONTINUOUS
 62
     7
 10
423.3083525741967
 20
402.09547162492481
 30
0.0
 40
2.799999999995106
  0
CIRCLE
  5
2EB
  8
DATA
  6
CONTINUOUS
 62
     7
 10
420.90822753975851
 20
393.13808305187968
 30
0.0
 40
2.799999999996845
  0
CIRCLE
  5
2EC
  8
DATA
  6
CONTINUOUS
 62
     7
 10
420.10000000000758
 20
383.90000000000191
 30
0.0
 40
2.7999999999964169
  0
CIRCLE
  5
2ED
  8
DATA
  6
CONTINUOUS
 62
     7
 10
420.9082275397522
 20
374.66191694811778
 30
0.0
 40
2.8000000000047578
  0
CIRCLE
  5
2EE
  8
DATA
  6
CONTINUOUS
 62
     7
 10
423.3083525741967
 20
365.7045283750727
 30
0.0
 40
2.79999999999972
  0
CIRCLE
  5
2EF
  8
DATA
  6
CONTINUOUS
 62
     7
 10
427.22744851867168
 20
357.30000000000069
 30
0.0
 40
2.8000000000032879
  0
CIRCLE
  5
2F0
  8
DATA
  6
CONTINUOUS
 62
     7
 10
482.5380830518879
 20
436.29177246024699
 30
0.0
 40
2.799999999997191
  0
CIRCLE
  5
2F1
  8
DATA
  6
CONTINUOUS
 62
     7
 10
491.49547162492672
 20
433.89164742580891
 30
0.0
 40
2.79999999999972
  0
CIRCLE
  5
2F2
  8
DATA
  6
CONTINUOUS
 62
     7
 10
499.90000000000498
 20
429.97255148133081
 30
0.0
 40
2.8000000000010008
  0
CIRCLE
  5
2F3
  8
DATA
  6
CONTINUOUS
 62
     7
 10
507.496300835326
 20
424.65356437392802
 30
0.0
 40
2.7999999999999141
  0
CIRCLE
  5
2F4
  8
DATA
  6
CONTINUOUS
 62
     7
 10
514.05356437393311
 20
418.09630083532409
 30
0.0
 40
2.8000000000024028
  0
CIRCLE
  5
2F5
  8
DATA
  6
CONTINUOUS
 62
     7
 10
519.37255148132965
 20
410.5
 30
0.0
 40
2.8000000000004461
  0
CIRCLE
  5
2F6
  8
DATA
  6
CONTINUOUS
 62
     7
 10
523.29164742581077
 20
402.09547162492481
 30
0.0
 40
2.799999999995106
  0
CIRCLE
  5
2F7
  8
DATA
  6
CONTINUOUS
 62
     7
 10
523.29164742581077
 20
402.09547162492481
 30
0.0
 40
2.799999999995106
  0
CIRCLE
  5
2F8
  8
DATA
  6
CONTINUOUS
 62
     7
 10
525.69177246024879
 20
393.13808305187968
 30
0.0
 40
2.799999999996845
  0
CIRCLE
  5
2F9
  8
DATA
  6
CONTINUOUS
 62
     7
 10
526.49999999999989
 20
383.90000000000191
 30
0.0
 40
2.7999999999964169
  0
CIRCLE
  5
2FA
  8
DATA
  6
CONTINUOUS
 62
     7
 10
525.69177246025527
 20
374.66191694811778
 30
0.0
 40
2.8000000000047578
  0
CIRCLE
  5
2FB
  8
DATA
  6
CONTINUOUS
 62
     7
 10
523.29164742581077
 20
365.7045283750727
 30
0.0
 40
2.79999999999972
  0
CIRCLE
  5
2FC
  8
DATA
  6
CONTINUOUS
 62
     7
 10
519.37255148133579
 20
357.30000000000069
 30
0.0
 40
2.8000000000032879
  0
CIRCLE
  5
2FD
  8
DATA
  6
CONTINUOUS
 62
     7
 10
473.30000000001019
 20
437.1000000000011
 30
0.0
 40
2.8000000000005669
  0
CIRCLE
  5
2FE
  8
DATA
  6
CONTINUOUS
 62
     7
 10
628.0
 20
361.5
 30
0.0
 40
10.500000000000449
  0
CIRCLE
  5
2FF
  8
DATA
  6
CONTINUOUS
 62
     7
 10
628.0
 20
410.5
 30
0.0
 40
10.500000000000449
  0
POLYLINE
  5
300
  8
DATA
  6
CONTINUOUS
 62
     7
 66
     1
 10
0.0
 20
0.0
 30
0.0
 70
     1
  0
VERTEX
  5
50C
  8
DATA
  6
CONTINUOUS
 62
     7
 10
824.0
 20
316.0
 30
0.0
  0
VERTEX
  5
50D
  8
DATA
  6
CONTINUOUS
 62
     7
 10
1034.0
 20
316.0
 30
0.0
  0
VERTEX
  5
50E
  8
DATA
  6
CONTINUOUS
 62
     7
 10
1034.0
 20
218.0
 30
0.0
  0
VERTEX
  5
50F
  8
DATA
  6
CONTINUOUS
 62
     7
 10
824.0
 20
218.0
 30
0.0
  0
SEQEND
  5
510
  8
DATA
  6
CONTINUOUS
 62
     7
  0
POLYLINE
  5
307
  8
DATA
  6
CONTINUOUS
 62
     7
 66
     1
 10
0.0
 20
0.0
 30
0.0
 70
     1
  0
VERTEX
  5
511
  8
DATA
  6
CONTINUOUS
 62
     7
 10
845.0
 20
302.0
 30
0.0
  0
VERTEX
  5
512
  8
DATA
  6
CONTINUOUS
 62
     7
 10
1013.0
 20
302.0
 30
0.0
  0
VERTEX
  5
513
  8
DATA
  6
CONTINUOUS
 62
     7
 10
1013.0
 20
232.0
 30
0.0
  0
VERTEX
  5
514
  8
DATA
  6
CONTINUOUS
 62
     7
 10
845.0
 20
232.0
 30
0.0
  0
SEQEND
  5
515
  8
DATA
  6
CONTINUOUS
 62
     7
  0
LINE
  5
30E
  8
DATA
  6
CONTINUOUS
 62
     7
 10
901.0
 20
302.0
 30
0.0
 11
901.0
 21
232.0
 31
0.0
  0
LINE
  5
30F
  8
DATA
  6
CONTINUOUS
 62
     7
 10
929.0
 20
267.0
 30
0.0
 11
964.0
 21
267.0
 31
0.0
  0
POLYLINE
  5
310
  8
DATA
  6
CONTINUOUS
 62
     7
 66
     1
 10
0.0
 20
0.0
 30
0.0
 70
     1
  0
VERTEX
  5
516
  8
DATA
  6
CONTINUOUS
 62
     7
 10
810.0
 20
169.0
 30
0.0
  0
VERTEX
  5
517
  8
DATA
  6
CONTINUOUS
 62
     7
 10
1034.0
 20
169.0
 30
0.0
  0
VERTEX
  5
518
  8
DATA
  6
CONTINUOUS
 62
     7
 10
1034.0
 20
64.0
 30
0.0
  0
VERTEX
  5
519
  8
DATA
  6
CONTINUOUS
 62
     7
 10
810.0
 20
64.0
 30
0.0
  0
SEQEND
  5
51A
  8
DATA
  6
CONTINUOUS
 62
     7
  0
POLYLINE
  5
317
  8
DATA
  6
CONTINUOUS
 62
     7
 66
     1
 10
0.0
 20
0.0
 30
0.0
 70
     1
  0
VERTEX
  5
51B
  8
DATA
  6
CONTINUOUS
 62
     7
 10
883.5
 20
144.5
 30
0.0
  0
VERTEX
  5
51C
  8
DATA
  6
CONTINUOUS
 62
     7
 10
960.5
 20
144.5
 30
0.0
  0
VERTEX
  5
51D
  8
DATA
  6
CONTINUOUS
 62
     7
 10
960.5
 20
88.499999999999986
 30
0.0
  0
VERTEX
  5
51E
  8
DATA
  6
CONTINUOUS
 62
     7
 10
883.5
 20
88.499999999999986
 30
0.0
  0
SEQEND
  5
51F
  8
DATA
  6
CONTINUOUS
 62
     7
  0
POLYLINE
  5
31E
  8
DATA
  6
CONTINUOUS
 62
     7
 66
     1
 10
0.0
 20
0.0
 30
0.0
 70
     1
  0
VERTEX
  5
520
  8
DATA
  6
CONTINUOUS
 62
     7
 10
932.50000000000011
 20
144.5
 30
0.0
  0
VERTEX
  5
521
  8
DATA
  6
CONTINUOUS
 62
     7
 10
960.5
 20
144.5
 30
0.0
  0
VERTEX
  5
522
  8
DATA
  6
CONTINUOUS
 62
     7
 10
960.5
 20
88.499999999999986
 30
0.0
  0
VERTEX
  5
523
  8
DATA
  6
CONTINUOUS
 62
     7
 10
932.50000000000011
 20
88.499999999999986
 30
0.0
  0
SEQEND
  5
524
  8
DATA
  6
CONTINUOUS
 62
     7
  0
POLYLINE
  5
325
  8
DATA
  6
CONTINUOUS
 62
     7
 66
     1
 10
0.0
 20
0.0
 30
0.0
 70
     1
  0
VERTEX
  5
525
  8
DATA
  6
CONTINUOUS
 62
     7
 10
943.0
 20
137.5
 30
0.0
  0
VERTEX
  5
526
  8
DATA
  6
CONTINUOUS
 62
     7
 10
950.0
 20
137.5
 30
0.0
  0
VERTEX
  5
527
  8
DATA
  6
CONTINUOUS
 62
     7
 10
950.0
 20
95.5
 30
0.0
  0
VERTEX
  5
528
  8
DATA
  6
CONTINUOUS
 62
     7
 10
943.0
 20
95.5
 30
0.0
  0
SEQEND
  5
529
  8
DATA
  6
CONTINUOUS
 62
     7
  0
POLYLINE
  5
32C
  8
DATA
  6
CONTINUOUS
 62
     7
 66
     1
 10
0.0
 20
0.0
 30
0.0
 70
     1
  0
VERTEX
  5
52A
  8
DATA
  6
CONTINUOUS
 62
     7
 10
817.0
 20
-6.0
 30
0.0
  0
VERTEX
  5
52B
  8
DATA
  6
CONTINUOUS
 62
     7
 10
1034.0
 20
-6.0
 30
0.0
  0
VERTEX
  5
52C
  8
DATA
  6
CONTINUOUS
 62
     7
 10
1034.0
 20
-244.0
 30
0.0
  0
VERTEX
  5
52D
  8
DATA
  6
CONTINUOUS
 62
     7
 10
817.0
 20
-244.0
 30
0.0
  0
SEQEND
  5
52E
  8
DATA
  6
CONTINUOUS
 62
     7
  0
POLYLINE
  5
333
  8
DATA
  6
CONTINUOUS
 62
     7
 66
     1
 10
0.0
 20
0.0
 30
0.0
 70
     1
  0
VERTEX
  5
52F
  8
DATA
  6
CONTINUOUS
 62
     7
 10
841.5
 20
-111.0
 30
0.0
  0
VERTEX
  5
530
  8
DATA
  6
CONTINUOUS
 62
     7
 10
1009.5
 20
-111.0
 30
0.0
  0
VERTEX
  5
531
  8
DATA
  6
CONTINUOUS
 62
     7
 10
1009.5
 20
-188.0
 30
0.0
  0
VERTEX
  5
532
  8
DATA
  6
CONTINUOUS
 62
     7
 10
974.5
 20
-223.0
 30
0.0
  0
VERTEX
  5
533
  8
DATA
  6
CONTINUOUS
 62
     7
 10
876.5
 20
-223.0
 30
0.0
  0
VERTEX
  5
534
  8
DATA
  6
CONTINUOUS
 62
     7
 10
841.5
 20
-188.0
 30
0.0
  0
SEQEND
  5
535
  8
DATA
  6
CONTINUOUS
 62
     7
  0
LINE
  5
33C
  8
DATA
  6
CONTINUOUS
 62
     7
 10
271.00895708683038
 20
276.91338832499008
 30
0.0
 11
271.00895708683038
 21
271.19999999223228
 31
0.0
  0
LINE
  5
33D
  8
DATA
  6
CONTINUOUS
 62
     7
 10
289.20895708501212
 20
255.09999999384169
 30
0.0
 11
289.20895708501212
 21
242.14999999513469
 31
0.0
  0
LINE
  5
33E
  8
DATA
  6
CONTINUOUS
 62
     7
 10
322.8089570816519
 20
255.09999999384169
 30
0.0
 11
322.8089570816519
 21
242.14999999513469
 31
0.0
  0
LINE
  5
33F
  8
DATA
  6
CONTINUOUS
 62
     7
 10
322.8089570816519
 20
228.68633598599669
 30
0.0
 11
322.8089570816519
 21
228.6863349071709
 31
0.0
  0
LINE
  5
340
  8
DATA
  6
CONTINUOUS
 62
     7
 10
341.00895707983358
 20
276.91338832499008
 30
0.0
 11
341.00895707983358
 21
271.19999999223228
 31
0.0
  0
LINE
  5
341
  8
DATA
  6
CONTINUOUS
 62
     7
 10
285.00895708542981
 20
257.19999999362972
 30
0.0
 11
287.10895708522088
 21
257.19999999362972
 31
0.0
  0
LINE
  5
342
  8
DATA
  6
CONTINUOUS
 62
     7
 10
324.90895708144308
 20
257.19999999362972
 30
0.0
 11
327.00895708123431
 21
257.19999999362972
 31
0.0
  0
ARC
  5
343
  8
DATA
  6
CONTINUOUS
 62
     7
 10
285.00895708542981
 20
271.19999999223228
 30
0.0
 40
13.999999998599369
 50
180.0
 51
270.0
  0
ARC
  5
344
  8
DATA
  6
CONTINUOUS
 62
     7
 10
306.00895708333519
 20
224.99999999685181
 30
0.0
 40
69.999999992996791
 50
67.97568700000113
 51
112.0243130000037
  0
ARC
  5
345
  8
DATA
  6
CONTINUOUS
 62
     7
 10
285.00895708542981
 20
276.91338832499008
 30
0.0
 40
13.999999998599581
 50
112.0243129999872
 51
180.0
  0
ARC
  5
346
  8
DATA
  6
CONTINUOUS
 62
     7
 10
287.10895708522088
 20
255.09999999384169
 30
0.0
 40
2.09999999979118
 50
0.0
 51
90.0
  0
ARC
  5
347
  8
DATA
  6
CONTINUOUS
 62
     7
 10
327.00895708123431
 20
276.91338832499008
 30
0.0
 40
13.999999998599369
 50
0.0
 51
67.975687000012371
  0
ARC
  5
348
  8
DATA
  6
CONTINUOUS
 62
     7
 10
327.00895708123431
 20
271.19999999223228
 30
0.0
 40
13.99999999860256
 50
270.0
 51
0.0
  0
ARC
  5
349
  8
DATA
  6
CONTINUOUS
 62
     7
 10
324.90895708144308
 20
255.09999999384169
 30
0.0
 40
2.0999999997879959
 50
90.0
 51
180.0
  0
LINE
  5
34A
  8
DATA
  6
CONTINUOUS
 62
     7
 10
286.05895708532529
 20
227.5760349965926
 30
0.0
 11
286.05895708532529
 21
227.57603389454201
 31
0.0
  0
ARC
  5
34B
  8
DATA
  6
CONTINUOUS
 62
     7
 10
306.00895708333519
 20
176.00000000175081
 30
0.0
 40
83.999999991601456
 50
104.81348243040669
 51
75.186517569593278
  0
ARC
  5
34C
  8
DATA
  6
CONTINUOUS
 62
     7
 10
306.00895708333519
 20
176.00000000175081
 30
0.0
 40
68.249999993177852
 50
104.25003269780569
 51
75.749967302199494
  0
ARC
  5
34D
  8
DATA
  6
CONTINUOUS
 62
     7
 10
274.50895708648028
 20
176.00000000175081
 30
0.0
 40
13.999999998600661
 50
32.089183874050867
 51
327.91081612594922
  0
ARC
  5
34E
  8
DATA
  6
CONTINUOUS
 62
     7
 10
337.50895708018368
 20
176.00000000175081
 30
0.0
 40
13.999999998600661
 50
212.0891838740508
 51
147.91081612594911
  0
ARC
  5
34F
  8
DATA
  6
CONTINUOUS
 62
     7
 10
306.00895708333519
 20
148.35000000451191
 30
0.0
 40
13.999999998605389
 50
137.8522840898888
 51
42.147715910128291
  0
ARC
  5
350
  8
DATA
  6
CONTINUOUS
 62
     7
 10
267.89590075380693
 20
214.11305399793861
 30
0.0
 40
5.5999999994449752
 50
56.612913999968789
 51
213.38708600002229
  0
ARC
  5
351
  8
DATA
  6
CONTINUOUS
 62
     7
 10
306.00895708333519
 20
176.00000000175081
 30
0.0
 40
20.999999999998209
 50
20.741916485081301
 51
159.258083514925
  0
ARC
  5
352
  8
DATA
  6
CONTINUOUS
 62
     7
 10
306.00895708333519
 20
176.00000000175081
 30
0.0
 40
21.00000000000416
 50
200.74191648507511
 51
240.3778367991915
  0
ARC
  5
353
  8
DATA
  6
CONTINUOUS
 62
     7
 10
306.00895708333519
 20
176.00000000175081
 30
0.0
 40
20.999999999997499
 50
299.6221632007933
 51
339.25808351491872
  0
CIRCLE
  5
354
  8
DATA
  6
CONTINUOUS
 62
     7
 10
372.50895707668229
 20
92.000000010151325
 30
0.0
 40
17.5
  0
LINE
  5
355
  8
DATA
  6
STYLE_12
 62
     7
 10
361.99104291001822
 20
92.000000010151325
 30
0.0
 11
382.99104291001822
 21
92.000000010151325
 31
0.0
  0
LINE
  5
356
  8
DATA
  6
STYLE_12
 62
     7
 10
372.50895707668229
 20
102.5082016768156
 30
0.0
 11
372.50895707668229
 21
81.508201676815574
 31
0.0
  0
CIRCLE
  5
357
  8
DATA
  6
CONTINUOUS
 62
     7
 10
239.49104292331779
 20
260.00820166001768
 30
0.0
 40
17.5
  0
LINE
  5
358
  8
DATA
  6
STYLE_12
 62
     7
 10
228.97312875665369
 20
260.00820166001768
 30
0.0
 11
249.97312875665369
 21
260.00820166001768
 31
0.0
  0
LINE
  5
359
  8
DATA
  6
STYLE_12
 62
     7
 10
239.49104292331779
 20
270.516403326682
 30
0.0
 11
239.49104292331779
 21
249.516403326682
 31
0.0
  0
LINE
  5
35A
  8
DATA
  6
CONTINUOUS
 62
     7
 10
289.20895708501212
 20
-31.90000000615828
 30
0.0
 11
289.20895708501212
 21
-44.850000004865237
 31
0.0
  0
LINE
  5
35B
  8
DATA
  6
CONTINUOUS
 62
     7
 10
295.15895708441622
 20
-32.600000009869291
 30
0.0
 11
295.15895708441622
 21
-50.10000000812169
 31
0.0
  0
LINE
  5
35C
  8
DATA
  6
CONTINUOUS
 62
     7
 10
316.8589570822478
 20
-32.600000009869291
 30
0.0
 11
316.8589570822478
 21
-50.10000000812169
 31
0.0
  0
LINE
  5
35D
  8
DATA
  6
CONTINUOUS
 62
     7
 10
322.8089570816519
 20
-31.90000000615828
 30
0.0
 11
322.8089570816519
 21
-44.850000004862061
 31
0.0
  0
LINE
  5
35E
  8
DATA
  6
CONTINUOUS
 62
     7
 10
297.95895708413991
 20
-29.800000010148771
 30
0.0
 11
314.05895708253053
 21
-29.800000010148771
 31
0.0
  0
LINE
  5
35F
  8
DATA
  6
CONTINUOUS
 62
     7
 10
285.00895708542981
 20
-29.800000006370279
 30
0.0
 11
287.10895708522088
 21
-29.800000006370279
 31
0.0
  0
LINE
  5
360
  8
DATA
  6
CONTINUOUS
 62
     7
 10
324.90895708144308
 20
-29.800000006370279
 30
0.0
 11
327.00895708123431
 21
-29.800000006370279
 31
0.0
  0
CIRCLE
  5
361
  8
DATA
  6
CONTINUOUS
 62
     7
 10
274.50895708648028
 20
-110.99999999824919
 30
0.0
 40
11.54999999884512
  0
CIRCLE
  5
362
  8
DATA
  6
CONTINUOUS
 62
     7
 10
337.50895708018368
 20
-110.99999999824919
 30
0.0
 40
11.54999999884512
  0
CIRCLE
  5
363
  8
DATA
  6
CONTINUOUS
 62
     7
 10
306.00895708333519
 20
-138.6499999954849
 30
0.0
 40
11.54999999883875
  0
ARC
  5
364
  8
DATA
  6
CONTINUOUS
 62
     7
 10
314.05895708253053
 20
-32.600000009869291
 30
0.0
 40
2.799999999717329
 50
0.0
 51
90.0
  0
ARC
  5
365
  8
DATA
  6
CONTINUOUS
 62
     7
 10
297.95895708413991
 20
-32.600000009869291
 30
0.0
 40
2.7999999997205118
 50
90.0
 51
180.0
  0
ARC
  5
366
  8
DATA
  6
CONTINUOUS
 62
     7
 10
287.10895708522088
 20
-31.90000000615828
 30
0.0
 40
2.09999999979118
 50
0.0
 51
90.0
  0
ARC
  5
367
  8
DATA
  6
CONTINUOUS
 62
     7
 10
324.90895708144308
 20
-31.90000000615828
 30
0.0
 40
2.0999999997879959
 50
90.0
 51
180.0
  0
LINE
  5
368
  8
DATA
  6
CONTINUOUS
 62
     7
 10
291.3089570848033
 20
-177.6481246582502
 30
0.0
 11
291.3089570848033
 21
-188.365836323846
 31
0.0
  0
LINE
  5
369
  8
DATA
  6
CONTINUOUS
 62
     7
 10
356.37792607829772
 20
-64.945364336190778
 30
0.0
 11
365.6597347440337
 21
-59.586509670056792
 31
0.0
  0
LINE
  5
36A
  8
DATA
  6
CONTINUOUS
 62
     7
 10
320.70895708186072
 20
-177.6481246582502
 30
0.0
 11
320.70895708186072
 21
-188.365836323846
 31
0.0
  0
LINE
  5
36B
  8
DATA
  6
CONTINUOUS
 62
     7
 10
371.07792607682308
 20
-90.406511000309806
 30
0.0
 11
380.35973474256571
 21
-85.047656334179024
 31
0.0
  0
LINE
  5
36C
  8
DATA
  6
CONTINUOUS
 62
     7
 10
240.93998808984091
 20
-90.406511000309806
 30
0.0
 11
231.65817709077049
 21
-85.047656334179024
 31
0.0
  0
LINE
  5
36D
  8
DATA
  6
CONTINUOUS
 62
     7
 10
255.63998808836641
 20
-64.945364336190778
 30
0.0
 11
246.35817708929611
 21
-59.586509670056792
 31
0.0
  0
ARC
  5
36E
  8
DATA
  6
CONTINUOUS
 62
     7
 10
306.00895708333519
 20
-110.99999999824919
 30
0.0
 40
68.249999993177852
 50
104.25003269780569
 51
137.56190722847199
  0
ARC
  5
36F
  8
DATA
  6
CONTINUOUS
 62
     7
 10
306.00895708333519
 20
-110.99999999824919
 30
0.0
 40
68.249999993179372
 50
162.43809270625761
 51
257.56190718494361
  0
ARC
  5
370
  8
DATA
  6
CONTINUOUS
 62
     7
 10
306.00895708333519
 20
-110.99999999824919
 30
0.0
 40
68.249999993176502
 50
282.43809281505088
 51
17.56190729374395
  0
ARC
  5
371
  8
DATA
  6
CONTINUOUS
 62
     7
 10
306.00895708333519
 20
-110.99999999824919
 30
0.0
 40
68.249999993174811
 50
42.438092771531529
 51
75.749967302199593
  0
ARC
  5
372
  8
DATA
  6
CONTINUOUS
 62
     7
 10
306.00895708333519
 20
-110.99999999824919
 30
0.0
 40
78.749999992126092
 50
259.24168199999627
 51
280.75831799999912
  0
ARC
  5
373
  8
DATA
  6
CONTINUOUS
 62
     7
 10
306.00895708333519
 20
-110.99999999824919
 30
0.0
 40
78.749999992122014
 50
19.24168199999982
 51
40.758317999999718
  0
ARC
  5
374
  8
DATA
  6
CONTINUOUS
 62
     7
 10
306.00895708333519
 20
-110.99999999824919
 30
0.0
 40
78.749999992127442
 50
139.24168200000329
 51
160.75831800000171
  0
LINE
  5
375
  8
DATA
  6
CONTINUOUS
 62
     7
 10
295.15895708441622
 20
-50.10000000812169
 30
0.0
 11
316.8589570822478
 21
-50.10000000812169
 31
0.0
  0
CIRCLE
  5
376
  8
DATA
  6
CONTINUOUS
 62
     7
 10
372.49104291001822
 20
-194.99999998984859
 30
0.0
 40
17.5
  0
LINE
  5
377
  8
DATA
  6
STYLE_12
 62
     7
 10
361.97312874334779
 20
-194.99999998984859
 30
0.0
 11
382.97312874334779
 21
-194.99999998984859
 31
0.0
  0
LINE
  5
378
  8
DATA
  6
STYLE_12
 62
     7
 10
372.49104291001822
 20
-184.49179832318441
 30
0.0
 11
372.49104291001822
 21
-205.49179832318441
 31
0.0
  0
CIRCLE
  5
379
  8
DATA
  6
CONTINUOUS
 62
     7
 10
239.52687125664579
 20
-27.000000006649771
 30
0.0
 40
17.5
  0
LINE
  5
37A
  8
DATA
  6
STYLE_12
 62
     7
 10
229.00895708998181
 20
-27.000000006649771
 30
0.0
 11
250.00895708998181
 21
-27.000000006649771
 31
0.0
  0
LINE
  5
37B
  8
DATA
  6
STYLE_12
 62
     7
 10
239.52687125664579
 20
-16.491798339982321
 30
0.0
 11
239.52687125664579
 21
-37.491798339982317
 31
0.0
  0
LINE
  5
37C
  8
DATA
  6
CONTINUOUS
 62
     7
 10
306.00895708333519
 20
-19.999999998249219
 30
0.0
 11
306.00895708333519
 21
15.00000000175077
 31
0.0
  0
TEXT
  5
37D
  8
DATA
 62
     7
 10
714.79999999999745
 20
447.12555555555349
 30
0.0
 40
38.006293402777771
  1
PRX618S-XLF
 41
0.7
 11
714.79999999999745
 21
485.13184895833132
 31
0.0
 73
     3
  0
TEXT
  5
37E
  8
DATA
 62
     7
 10
236.3488986545139
 20
427.04743109808959
 30
0.0
 40
14.252360026041661
  1
IN
 41
0.7
 72
     1
 11
243.0
 21
434.1736111111104
 31
0.0
 73
     2
  0
TEXT
  5
37F
  8
DATA
 62
     7
 10
218.05836995442709
 20
448.4557644314234
 30
0.0
 40
14.252360026041661
  1
XOVER
 41
0.7
 72
     1
 11
243.0
 21
455.58194444444422
 31
0.0
 73
     2
  0
TEXT
  5
380
  8
DATA
 62
     7
 10
319.73281928168399
 20
427.04743109808629
 30
0.0
 40
14.252360026041661
  1
NORMAL
 41
0.7
 72
     1
 11
348.0
 21
434.17361111110711
 31
0.0
 73
     2
  0
TEXT
  5
381
  8
DATA
 62
     7
 10
311.41894259982638
 20
448.45576443141999
 30
0.0
 40
14.252360026041661
  1
POLARITY
 41
0.7
 72
     1
 11
348.0
 21
455.58194444444081
 31
0.0
 73
     2
  0
TEXT
  5
382
  8
DATA
 62
     7
 10
448.35836995443719
 20
445.94743109808832
 30
0.0
 40
14.252360026041661
  1
LEVEL
 41
0.7
 72
     1
 11
473.30000000001019
 21
453.07361111110907
 31
0.0
 73
     2
  0
TEXT
  5
383
  8
DATA
 62
     7
 10
598.07004394531248
 20
427.04743109808959
 30
0.0
 40
14.252360026041661
  1
LIMITER
 41
0.7
 72
     1
 11
628.0
 21
434.1736111111104
 31
0.0
 73
     2
  0
TEXT
  5
384
  8
DATA
 62
     7
 10
601.39559461805561
 20
378.04743109808959
 30
0.0
 40
14.252360026041661
  1
SIGNAL
 41
0.7
 72
     1
 11
628.0
 21
385.1736111111104
 31
0.0
 73
     2
  0
TEXT
  5
385
  8
DATA
 62
     7
 10
894.08171793619795
 20
324.74426211852182
 30
0.0
 40
19.953304036458331
  1
POWER
 41
0.7
 72
     1
 11
929.0
 21
334.72091413675099
 31
0.0
 73
     2
  0
TEXT
  5
386
  8
DATA
 62
     7
 10
852.62901296657992
 20
177.39426211852361
 30
0.0
 40
19.953304036458331
  1
LINE SELECT
 41
0.7
 72
     1
 11
922.0
 21
187.37091413675279
 31
0.0
 73
     2
  0
TEXT
  5
387
  8
DATA
 62
     7
 10
858.45689843749994
 20
42.436460289078823
 30
0.0
 40
17.102832031249989
  1
AC LINE INPUT
 41
0.7
 72
     1
 11
925.5
 21
50.987876304703832
 31
0.0
 73
     2
  0
TEXT
  5
388
  8
DATA
 62
     7
 10
422.69741519965459
 20
159.8497368724112
 30
0.0
 40
19.953304036458331
  1
IN
 41
0.7
 72
     1
 11
432.00895708333519
 21
169.82638889064029
 31
0.0
 73
     2
  0
TEXT
  5
389
  8
DATA
 62
     7
 10
413.38587331597398
 20
-127.15026312933961
 30
0.0
 40
19.953304036458331
  1
OUT
 41
0.7
 72
     1
 11
432.00895708333519
 21
-117.1736111111104
 31
0.0
 73
     2
  0
TEXT
  5
38A
  8
DATA
 62
     7
 10
280.40221690321368
 20
22.52334798352161
 30
0.0
 40
19.953304036458331
  1
LEFT
 41
0.7
 72
     1
 11
306.00895708333519
 21
32.500000001750777
 31
0.0
 73
     2
  0
TEXT
  5
38B
  8
DATA
 62
     7
 10
229.69779730902781
 20
330.70020887586878
 30
0.0
 40
14.252360026041661
  1
OUT
 41
0.7
 72
     1
 11
243.0
 21
337.8263888888896
 31
0.0
 73
     2
  0
TEXT
  5
38C
  8
DATA
 62
     7
 10
313.08171793619789
 20
330.70020887586548
 30
0.0
 40
14.252360026041661
  1
REVERSE
 41
0.7
 72
     1
 11
348.0
 21
337.8263888888863
 31
0.0
 73
     2
  0
ARC
  5
38D
  8
DATA
  6
CONTINUOUS
 62
     7
 10
194.0
 20
435.0
 30
0.0
 40
70.0
 50
90.0
 51
180.0
  0
ARC
  5
38E
  8
DATA
  6
CONTINUOUS
 62
     7
 10
194.0
 20
-230.0
 30
0.0
 40
70.0
 50
180.0
 51
270.0
  0
ARC
  5
38F
  8
DATA
  6
CONTINUOUS
 62
     7
 10
1006.0
 20
-230.0
 30
0.0
 40
70.0
 50
270.0
 51
0.0
  0
ARC
  5
390
  8
DATA
  6
CONTINUOUS
 62
     7
 10
1006.0
 20
435.0
 30
0.0
 40
70.0
 50
0.0
 51
90.0
  0
LINE
  5
391
  8
DATA
  6
CONTINUOUS
 62
     7
 10
306.00895708333519
 20
50.000000001750777
 30
0.0
 11
306.00895708333519
 21
85.000000001750749
 31
0.0
  0
LINE
  5
392
  8
DATA
  6
CONTINUOUS
 62
     7
 10
558.00895708333519
 20
-19.999999998249219
 30
0.0
 11
558.00895708333519
 21
15.00000000175077
 31
0.0
  0
LINE
  5
393
  8
DATA
  6
CONTINUOUS
 62
     7
 10
558.00895708333519
 20
50.000000001750777
 30
0.0
 11
558.00895708333519
 21
85.000000001750749
 31
0.0
  0
TEXT
  5
394
  8
DATA
 62
     7
 10
854.94511692708329
 20
2.2600501210286619
 30
0.0
 40
13.682265624999999
  1
50/60Hz　5A　600W
 41
0.7
 72
     1
 11
925.5
 21
9.101182933528662
 31
0.0
 73
     2
  0
TEXT
  5
395
  8
DATA
 62
     7
 10
883.83750117187515
 20
20.040050121025232
 30
0.0
 40
13.682265624999999
  1
100V～240V
 41
0.7
 72
     1
 11
925.5
 21
26.881182933525231
 31
0.0
 73
     2
  0
CIRCLE
  5
396
  8
DATA
  6
CONTINUOUS
 62
     7
 10
558.00896646874935
 20
176.00000000175081
 30
0.0
 40
55.299998966631897
  0
LINE
  5
397
  8
DATA
  6
CONTINUOUS
 62
     7
 10
523.00896647224454
 20
276.91338832499008
 30
0.0
 11
523.00896647224454
 21
271.19999999223228
 31
0.0
  0
LINE
  5
398
  8
DATA
  6
CONTINUOUS
 62
     7
 10
541.20896647042628
 20
255.09999999384169
 30
0.0
 11
541.20896647042628
 21
242.14999999513469
 31
0.0
  0
LINE
  5
399
  8
DATA
  6
CONTINUOUS
 62
     7
 10
574.80896646706606
 20
255.09999999384169
 30
0.0
 11
574.80896646706606
 21
242.14999999513469
 31
0.0
  0
LINE
  5
39A
  8
DATA
  6
CONTINUOUS
 62
     7
 10
574.80896646706606
 20
228.68633598599669
 30
0.0
 11
574.80896646706606
 21
228.6863349071709
 31
0.0
  0
LINE
  5
39B
  8
DATA
  6
CONTINUOUS
 62
     7
 10
593.00896646524757
 20
276.91338832499008
 30
0.0
 11
593.00896646524757
 21
271.19999999223228
 31
0.0
  0
LINE
  5
39C
  8
DATA
  6
CONTINUOUS
 62
     7
 10
537.00896647084392
 20
257.19999999362972
 30
0.0
 11
539.1089664706351
 21
257.19999999362972
 31
0.0
  0
LINE
  5
39D
  8
DATA
  6
CONTINUOUS
 62
     7
 10
576.90896646685724
 20
257.19999999362972
 30
0.0
 11
579.00896646664842
 21
257.19999999362972
 31
0.0
  0
ARC
  5
39E
  8
DATA
  6
CONTINUOUS
 62
     7
 10
537.00896647084392
 20
271.19999999223228
 30
0.0
 40
13.999999998599369
 50
180.0
 51
270.0
  0
ARC
  5
39F
  8
DATA
  6
CONTINUOUS
 62
     7
 10
558.00896646874935
 20
224.99999999685181
 30
0.0
 40
69.999999992996791
 50
67.97568700000113
 51
112.0243130000037
  0
ARC
  5
3A0
  8
DATA
  6
CONTINUOUS
 62
     7
 10
537.00896647084392
 20
276.91338832499008
 30
0.0
 40
13.999999998599581
 50
112.0243129999872
 51
180.0
  0
ARC
  5
3A1
  8
DATA
  6
CONTINUOUS
 62
     7
 10
539.1089664706351
 20
255.09999999384169
 30
0.0
 40
2.09999999979118
 50
0.0
 51
90.0
  0
ARC
  5
3A2
  8
DATA
  6
CONTINUOUS
 62
     7
 10
579.00896646664842
 20
276.91338832499008
 30
0.0
 40
13.999999998599369
 50
0.0
 51
67.975687000012371
  0
ARC
  5
3A3
  8
DATA
  6
CONTINUOUS
 62
     7
 10
579.00896646664842
 20
271.19999999223228
 30
0.0
 40
13.99999999860256
 50
270.0
 51
0.0
  0
ARC
  5
3A4
  8
DATA
  6
CONTINUOUS
 62
     7
 10
576.90896646685724
 20
255.09999999384169
 30
0.0
 40
2.0999999997879959
 50
90.0
 51
180.0
  0
LINE
  5
3A5
  8
DATA
  6
CONTINUOUS
 62
     7
 10
538.05896647073951
 20
227.5760349965926
 30
0.0
 11
538.05896647073951
 21
227.57603389454201
 31
0.0
  0
ARC
  5
3A6
  8
DATA
  6
CONTINUOUS
 62
     7
 10
558.00896646874935
 20
176.00000000175081
 30
0.0
 40
83.999999991601456
 50
104.81348243040669
 51
75.186517569593278
  0
ARC
  5
3A7
  8
DATA
  6
CONTINUOUS
 62
     7
 10
558.00896646874935
 20
176.00000000175081
 30
0.0
 40
68.249999993177852
 50
104.25003269780569
 51
75.749967302199494
  0
ARC
  5
3A8
  8
DATA
  6
CONTINUOUS
 62
     7
 10
526.50896647189427
 20
176.00000000175081
 30
0.0
 40
13.999999998600661
 50
32.089183874050867
 51
327.91081612594922
  0
ARC
  5
3A9
  8
DATA
  6
CONTINUOUS
 62
     7
 10
589.50896646559795
 20
176.00000000175081
 30
0.0
 40
13.999999998600661
 50
212.0891838740508
 51
147.91081612594911
  0
ARC
  5
3AA
  8
DATA
  6
CONTINUOUS
 62
     7
 10
558.00896646874935
 20
148.35000000451191
 30
0.0
 40
13.999999998605389
 50
137.8522840898888
 51
42.14771591012893
  0
ARC
  5
3AB
  8
DATA
  6
CONTINUOUS
 62
     7
 10
519.89591013922109
 20
214.11305399793861
 30
0.0
 40
5.5999999994449752
 50
56.612913999968789
 51
213.38708600002229
  0
ARC
  5
3AC
  8
DATA
  6
CONTINUOUS
 62
     7
 10
558.00896646874935
 20
176.00000000175081
 30
0.0
 40
20.999999999998209
 50
20.741916485081301
 51
159.258083514925
  0
ARC
  5
3AD
  8
DATA
  6
CONTINUOUS
 62
     7
 10
558.00896646874935
 20
176.00000000175081
 30
0.0
 40
21.00000000000416
 50
200.74191648507511
 51
240.3778367991915
  0
ARC
  5
3AE
  8
DATA
  6
CONTINUOUS
 62
     7
 10
558.00896646874935
 20
176.00000000175081
 30
0.0
 40
20.999999999997499
 50
299.6221632007933
 51
339.25808351491872
  0
CIRCLE
  5
3AF
  8
DATA
  6
CONTINUOUS
 62
     7
 10
624.50896646209628
 20
92.000000010151325
 30
0.0
 40
17.5
  0
LINE
  5
3B0
  8
DATA
  6
STYLE_12
 62
     7
 10
613.99105229543227
 20
92.000000010151325
 30
0.0
 11
634.99105229543227
 21
92.000000010151325
 31
0.0
  0
LINE
  5
3B1
  8
DATA
  6
STYLE_12
 62
     7
 10
624.50896646209628
 20
102.5082016768156
 30
0.0
 11
624.50896646209628
 21
81.508201676815574
 31
0.0
  0
CIRCLE
  5
3B2
  8
DATA
  6
CONTINUOUS
 62
     7
 10
491.49105230873192
 20
260.00820166001768
 30
0.0
 40
17.5
  0
LINE
  5
3B3
  8
DATA
  6
STYLE_12
 62
     7
 10
480.97313814206802
 20
260.00820166001768
 30
0.0
 11
501.97313814206802
 21
260.00820166001768
 31
0.0
  0
LINE
  5
3B4
  8
DATA
  6
STYLE_12
 62
     7
 10
491.49105230873192
 20
270.516403326682
 30
0.0
 11
491.49105230873192
 21
249.516403326682
 31
0.0
  0
CIRCLE
  5
3B5
  8
DATA
  6
CONTINUOUS
 62
     7
 10
558.00895708333519
 20
-111.0
 30
0.0
 40
83.999999991597875
  0
LINE
  5
3B6
  8
DATA
  6
CONTINUOUS
 62
     7
 10
541.20895708501189
 20
-31.90000000790905
 30
0.0
 11
541.20895708501189
 21
-44.850000006616021
 31
0.0
  0
LINE
  5
3B7
  8
DATA
  6
CONTINUOUS
 62
     7
 10
547.1589570844161
 20
-32.600000011620068
 30
0.0
 11
547.1589570844161
 21
-50.100000009872467
 31
0.0
  0
LINE
  5
3B8
  8
DATA
  6
CONTINUOUS
 62
     7
 10
568.8589570822478
 20
-32.600000011620068
 30
0.0
 11
568.8589570822478
 21
-50.100000009872467
 31
0.0
  0
LINE
  5
3B9
  8
DATA
  6
CONTINUOUS
 62
     7
 10
574.80895708165167
 20
-31.90000000790905
 30
0.0
 11
574.80895708165167
 21
-44.850000006612852
 31
0.0
  0
LINE
  5
3BA
  8
DATA
  6
CONTINUOUS
 62
     7
 10
549.95895708413991
 20
-29.800000011899559
 30
0.0
 11
566.05895708253047
 21
-29.800000011899559
 31
0.0
  0
LINE
  5
3BB
  8
DATA
  6
CONTINUOUS
 62
     7
 10
537.00895708542976
 20
-29.80000000812106
 30
0.0
 11
539.10895708522094
 21
-29.80000000812106
 31
0.0
  0
LINE
  5
3BC
  8
DATA
  6
CONTINUOUS
 62
     7
 10
576.90895708144296
 20
-29.80000000812106
 30
0.0
 11
579.00895708123437
 21
-29.80000000812106
 31
0.0
  0
CIRCLE
  5
3BD
  8
DATA
  6
CONTINUOUS
 62
     7
 10
526.50895708648022
 20
-111.0
 30
0.0
 40
11.54999999884512
  0
CIRCLE
  5
3BE
  8
DATA
  6
CONTINUOUS
 62
     7
 10
589.50895708018356
 20
-111.0
 30
0.0
 40
11.54999999884512
  0
CIRCLE
  5
3BF
  8
DATA
  6
CONTINUOUS
 62
     7
 10
558.00895708333519
 20
-138.64999999723571
 30
0.0
 40
11.54999999883875
  0
ARC
  5
3C0
  8
DATA
  6
CONTINUOUS
 62
     7
 10
566.05895708253047
 20
-32.600000011620068
 30
0.0
 40
2.799999999717329
 50
0.0
 51
90.0
  0
ARC
  5
3C1
  8
DATA
  6
CONTINUOUS
 62
     7
 10
549.95895708413991
 20
-32.600000011620068
 30
0.0
 40
2.7999999997205118
 50
90.0
 51
180.0
  0
ARC
  5
3C2
  8
DATA
  6
CONTINUOUS
 62
     7
 10
539.10895708522094
 20
-31.90000000790905
 30
0.0
 40
2.09999999979118
 50
0.0
 51
90.0
  0
ARC
  5
3C3
  8
DATA
  6
CONTINUOUS
 62
     7
 10
576.90895708144296
 20
-31.90000000790905
 30
0.0
 40
2.0999999997879959
 50
90.0
 51
180.0
  0
LINE
  5
3C4
  8
DATA
  6
CONTINUOUS
 62
     7
 10
543.30895708480318
 20
-177.648124660001
 30
0.0
 11
543.30895708480318
 21
-188.3658363255968
 31
0.0
  0
LINE
  5
3C5
  8
DATA
  6
CONTINUOUS
 62
     7
 10
608.37792607829761
 20
-64.945364337941555
 30
0.0
 11
617.6597347440337
 21
-59.586509671807569
 31
0.0
  0
LINE
  5
3C6
  8
DATA
  6
CONTINUOUS
 62
     7
 10
572.7089570818606
 20
-177.648124660001
 30
0.0
 11
572.7089570818606
 21
-188.3658363255968
 31
0.0
  0
LINE
  5
3C7
  8
DATA
  6
CONTINUOUS
 62
     7
 10
623.07792607682313
 20
-90.406511002060583
 30
0.0
 11
632.35973474256548
 21
-85.047656335929787
 31
0.0
  0
LINE
  5
3C8
  8
DATA
  6
CONTINUOUS
 62
     7
 10
492.93998808984082
 20
-90.406511002060583
 30
0.0
 11
483.65817709077049
 21
-85.047656335929787
 31
0.0
  0
LINE
  5
3C9
  8
DATA
  6
CONTINUOUS
 62
     7
 10
507.63998808836641
 20
-64.945364337941555
 30
0.0
 11
498.35817708929602
 21
-59.586509671807569
 31
0.0
  0
ARC
  5
3CA
  8
DATA
  6
CONTINUOUS
 62
     7
 10
558.00895708333519
 20
-111.0
 30
0.0
 40
68.249999993177852
 50
104.25003269780569
 51
137.56190722847211
  0
ARC
  5
3CB
  8
DATA
  6
CONTINUOUS
 62
     7
 10
558.00895708333519
 20
-111.0
 30
0.0
 40
68.249999993179372
 50
162.43809270625761
 51
257.56190718494378
  0
ARC
  5
3CC
  8
DATA
  6
CONTINUOUS
 62
     7
 10
558.00895708333519
 20
-111.0
 30
0.0
 40
68.249999993176502
 50
282.43809281505088
 51
17.56190729374395
  0
ARC
  5
3CD
  8
DATA
  6
CONTINUOUS
 62
     7
 10
558.00895708333519
 20
-111.0
 30
0.0
 40
68.249999993174811
 50
42.438092771531529
 51
75.749967302199593
  0
ARC
  5
3CE
  8
DATA
  6
CONTINUOUS
 62
     7
 10
558.00895708333519
 20
-111.0
 30
0.0
 40
78.749999992126092
 50
259.24168199999627
 51
280.75831799999912
  0
ARC
  5
3CF
  8
DATA
  6
CONTINUOUS
 62
     7
 10
558.00895708333519
 20
-111.0
 30
0.0
 40
78.749999992122014
 50
19.24168199999982
 51
40.758317999999718
  0
ARC
  5
3D0
  8
DATA
  6
CONTINUOUS
 62
     7
 10
558.00895708333519
 20
-111.0
 30
0.0
 40
78.749999992127442
 50
139.24168200000329
 51
160.75831800000171
  0
LINE
  5
3D1
  8
DATA
  6
CONTINUOUS
 62
     7
 10
547.1589570844161
 20
-50.100000009872467
 30
0.0
 11
568.8589570822478
 21
-50.100000009872467
 31
0.0
  0
CIRCLE
  5
3D2
  8
DATA
  6
CONTINUOUS
 62
     7
 10
624.49104291001822
 20
-194.9999999915994
 30
0.0
 40
17.5
  0
LINE
  5
3D3
  8
DATA
  6
STYLE_12
 62
     7
 10
613.97312874334784
 20
-194.9999999915994
 30
0.0
 11
634.97312874334784
 21
-194.9999999915994
 31
0.0
  0
LINE
  5
3D4
  8
DATA
  6
STYLE_12
 62
     7
 10
624.49104291001822
 20
-184.49179832493519
 30
0.0
 11
624.49104291001822
 21
-205.49179832493519
 31
0.0
  0
CIRCLE
  5
3D5
  8
DATA
  6
CONTINUOUS
 62
     7
 10
491.52687125664568
 20
-27.000000008400551
 30
0.0
 40
17.5
  0
LINE
  5
3D6
  8
DATA
  6
STYLE_12
 62
     7
 10
481.00895708998172
 20
-27.000000008400551
 30
0.0
 11
502.00895708998172
 21
-27.000000008400551
 31
0.0
  0
LINE
  5
3D7
  8
DATA
  6
STYLE_12
 62
     7
 10
491.52687125664568
 20
-16.491798341733102
 30
0.0
 11
491.52687125664568
 21
-37.491798341733102
 31
0.0
  0
TEXT
  5
3D8
  8
DATA
 62
     7
 10
-1312.5
 20
-1764.196758333333
 30
0.0
 40
28.504720052083339
  1
※仕様及び外観は予告なく変更されることがあります。
 41
0.7
 11
-1312.5
 21
-1735.69203828125
 31
0.0
 73
     3
  0
TEXT
  5
3D9
  8
DATA
 62
     7
 10
-1312.5
 20
-1801.238425
 30
0.0
 40
28.504720052083339
  1
　また、同一商品でも若干の個体差があることがあります。ご了承ください。
 41
0.7
 11
-1312.5
 21
-1772.7337049479161
 31
0.0
 73
     3
  0
TEXT
  5
3DA
  8
DATA
 62
     7
 10
750.0
 20
-1715.3775749999991
 30
0.0
 40
36.64892578125
  1
PRX618S-XLF
 41
0.7
 11
750.0
 21
-1678.7286492187491
 31
0.0
 73
     3
  0
TEXT
  5
3DB
  8
DATA
 62
     7
 10
750.0
 20
-1606.6275749999991
 30
0.0
 40
36.64892578125
  1
JBL PROFESSIONAL
 41
0.7
 11
750.0
 21
-1569.9786492187491
 31
0.0
 73
     3
  0
TEXT
  5
3DC
  8
DATA
 62
     7
 10
712.5
 20
-1658.781917999999
 30
0.0
 40
24.432655664062501
  1
パワード・サブウーファー
 41
0.7
 11
712.5
 21
-1634.3492623359371
 31
0.0
 73
     3
  0
ARC
  5
3DD
  8
DATA
  6
CONTINUOUS
 62
     7
 10
90.476967611113409
 20
-1513.369538024418
 30
0.0
 40
577.36634358749279
 50
85.346374203050914
 51
94.766559657599288
  0
ARC
  5
3DE
  8
DATA
  6
CONTINUOUS
 62
     7
 10
90.5
 20
-395.19702447540288
 30
0.0
 40
576.79978062826535
 50
265.34408855081301
 51
274.6559114491871
  0
ARC
  5
3DF
  8
DATA
  6
CONTINUOUS
 62
     7
 10
-1071.5
 20
418.5
 30
0.0
 40
15.0
 50
90.0
 51
180.0
  0
ARC
  5
3E0
  8
DATA
  6
CONTINUOUS
 62
     7
 10
-1091.5
 20
438.49999999999989
 30
0.0
 40
15.0
 50
90.0
 51
180.0
  0
ARC
  5
3E1
  8
DATA
  6
CONTINUOUS
 62
     7
 10
-1131.5
 20
478.5
 30
0.0
 40
15.0
 50
90.0
 51
180.0
  0
ARC
  5
3E2
  8
DATA
  6
CONTINUOUS
 62
     7
 10
-1151.5
 20
498.5
 30
0.0
 40
15.0
 50
90.0
 51
180.0
  0
ARC
  5
3E3
  8
DATA
  6
CONTINUOUS
 62
     7
 10
-648.5
 20
498.5
 30
0.0
 40
15.0
 50
0.0
 51
90.0
  0
ARC
  5
3E4
  8
DATA
  6
CONTINUOUS
 62
     7
 10
-668.5
 20
478.5
 30
0.0
 40
15.0
 50
0.0
 51
90.0
  0
ARC
  5
3E5
  8
DATA
  6
CONTINUOUS
 62
     7
 10
-708.49999999999989
 20
438.49999999999989
 30
0.0
 40
15.0
 50
0.0
 51
90.0
  0
ARC
  5
3E6
  8
DATA
  6
CONTINUOUS
 62
     7
 10
-728.5
 20
418.5
 30
0.0
 40
15.0
 50
0.0
 51
90.0
  0
ENDSEC
  0
EOF
