  0
SECTION
  2
HEADER
  9
$ACADVER
  1
AC1009
  9
$INSBASE
 10
0.0
 20
0.0
 30
0.0
  9
$EXTMIN
 10
-325.08301617460529
 20
-1009.975340843332
 30
-0.0033426916993164
  9
$EXTMAX
 10
2375.0817787474598
 20
3004.4756251051281
 30
0.0000000765110713
  9
$LIMMIN
 10
0.0
 20
0.0
  9
$LIMMAX
 10
0.0
 20
0.0
  9
$ORTHOMODE
 70
     0
  9
$REGENMODE
 70
     1
  9
$FILLMODE
 70
     1
  9
$QTEXTMODE
 70
     0
  9
$MIRRTEXT
 70
     1
  9
$DRAGMODE
 70
     2
  9
$LTSCALE
 40
76.200000000000003
  9
$OSMODE
 70
   231
  9
$ATTMODE
 70
     1
  9
$TEXTSIZE
 40
0.0
  9
$TRACEWID
 40
1.0
  9
$TEXTSTYLE
  7
STANDARD
  9
$CLAYER
  8
DATA
  9
$CELTYPE
  6
CONTINUOUS
  9
$CECOLOR
 62
   256
  9
$DIMSCALE
 40
1.0
  9
$DIMASZ
 40
0.18
  9
$DIMEXO
 40
0.0625
  9
$DIMDLI
 40
0.38
  9
$DIMRND
 40
0.0
  9
$DIMDLE
 40
0.0
  9
$DIMEXE
 40
0.18
  9
$DIMTP
 40
0.0
  9
$DIMTM
 40
0.0
  9
$DIMTXT
 40
0.18
  9
$DIMCEN
 40
0.09
  9
$DIMTSZ
 40
0.0
  9
$DIMTOL
 70
     0
  9
$DIMLIM
 70
     0
  9
$DIMTIH
 70
     1
  9
$DIMTOH
 70
     1
  9
$DIMSE1
 70
     0
  9
$DIMSE2
 70
     0
  9
$DIMTAD
 70
     0
  9
$DIMZIN
 70
     0
  9
$DIMBLK
  1

  9
$DIMASO
 70
     1
  9
$DIMSHO
 70
     1
  9
$DIMPOST
  1

  9
$DIMAPOST
  1

  9
$DIMALT
 70
     0
  9
$DIMALTD
 70
     2
  9
$DIMALTF
 40
25.399999999999999
  9
$DIMLFAC
 40
1.0
  9
$DIMTOFL
 70
     0
  9
$DIMTVP
 40
0.0
  9
$DIMTIX
 70
     0
  9
$DIMSOXD
 70
     0
  9
$DIMSAH
 70
     0
  9
$DIMBLK1
  1

  9
$DIMBLK2
  1

  9
$DIMSTYLE
  2
STANDARD
  9
$DIMCLRD
 70
     0
  9
$DIMCLRE
 70
     0
  9
$DIMCLRT
 70
     0
  9
$DIMTFAC
 40
1.0
  9
$DIMGAP
 40
0.09
  9
$LUNITS
 70
     2
  9
$LUPREC
 70
     4
  9
$SKETCHINC
 40
0.1
  9
$FILLETRAD
 40
0.0
  9
$AUNITS
 70
     0
  9
$AUPREC
 70
     0
  9
$MENU
  1
acad
  9
$ELEVATION
 40
0.0
  9
$PELEVATION
 40
0.0
  9
$THICKNESS
 40
0.0
  9
$LIMCHECK
 70
     0
  9
$BLIPMODE
 70
     0
  9
$CHAMFERA
 40
0.0
  9
$CHAMFERB
 40
0.0
  9
$SKPOLY
 70
     0
  9
$TDCREATE
 40
2453685.7685648152
  9
$TDUPDATE
 40
2453685.7745120372
  9
$TDINDWG
 40
0.0002695718
  9
$TDUSRTIMER
 40
0.000268125
  9
$USRTIMER
 70
     1
  9
$ANGBASE
 50
0.0
  9
$ANGDIR
 70
     0
  9
$PDMODE
 70
     1
  9
$PDSIZE
 40
-2.0
  9
$PLINEWID
 40
0.0
  9
$COORDS
 70
     2
  9
$SPLFRAME
 70
     0
  9
$SPLINETYPE
 70
     6
  9
$SPLINESEGS
 70
     8
  9
$ATTDIA
 70
     0
  9
$ATTREQ
 70
     1
  9
$HANDLING
 70
     1
  9
$HANDSEED
  5
5BA
  9
$SURFTAB1
 70
     6
  9
$SURFTAB2
 70
     6
  9
$SURFTYPE
 70
     6
  9
$SURFU
 70
     6
  9
$SURFV
 70
     6
  9
$UCSNAME
  2

  9
$UCSORG
 10
0.0
 20
0.0
 30
0.0
  9
$UCSXDIR
 10
1.0
 20
0.0
 30
0.0
  9
$UCSYDIR
 10
0.0
 20
1.0
 30
0.0
  9
$PUCSNAME
  2

  9
$PUCSORG
 10
0.0
 20
0.0
 30
0.0
  9
$PUCSXDIR
 10
1.0
 20
0.0
 30
0.0
  9
$PUCSYDIR
 10
0.0
 20
1.0
 30
0.0
  9
$USERI1
 70
     0
  9
$USERI2
 70
     0
  9
$USERI3
 70
     0
  9
$USERI4
 70
     0
  9
$USERI5
 70
     0
  9
$USERR1
 40
0.0
  9
$USERR2
 40
0.0
  9
$USERR3
 40
0.0
  9
$USERR4
 40
0.0
  9
$USERR5
 40
0.0
  9
$WORLDVIEW
 70
     1
  9
$SHADEDGE
 70
     3
  9
$SHADEDIF
 70
    70
  9
$TILEMODE
 70
     1
  9
$MAXACTVP
 70
    64
  9
$PLIMCHECK
 70
     0
  9
$PEXTMIN
 10
1.0000000000000000E+020
 20
1.0000000000000000E+020
 30
1.0000000000000000E+020
  9
$PEXTMAX
 10
-1.0000000000000000E+020
 20
-1.0000000000000000E+020
 30
-1.0000000000000000E+020
  9
$PLIMMIN
 10
0.0
 20
0.0
  9
$PLIMMAX
 10
12.0
 20
9.0
  9
$UNITMODE
 70
     0
  9
$VISRETAIN
 70
     0
  9
$PLINEGEN
 70
     1
  9
$PSLTSCALE
 70
     0
  0
ENDSEC
  0
SECTION
  2
TABLES
  0
TABLE
  2
VPORT
 70
     2
  0
VPORT
  2
*ACTIVE
 70
     0
 10
0.0
 20
0.0
 11
1.0
 21
1.0
 12
1024.999381286427
 22
997.25014213089742
 13
0.0
 23
0.0
 14
1.0
 24
1.0
 15
0.0
 25
0.0
 16
0.0
 26
0.0
 36
1.0
 17
0.0
 27
0.0
 37
0.0
 40
4047.6740084252751
 41
1.665745856353591
 42
50.0
 43
0.0
 44
0.0
 50
0.0
 51
0.0
 71
     0
 72
  2000
 73
     1
 74
     1
 75
     0
 76
     0
 77
     0
 78
     0
  0
ENDTAB
  0
TABLE
  2
LTYPE
 70
    12
  0
LTYPE
  2
CONTINUOUS
 70
     0
  3
Solid line
 72
    65
 73
     0
 40
0.0
  0
ENDTAB
  0
TABLE
  2
LAYER
 70
     6
  0
LAYER
  2
0
 70
     0
 62
     7
  6
CONTINUOUS
  0
LAYER
  2
DATA
 70
     0
 62
     7
  6
CONTINUOUS
  0
LAYER
  2
HIBINO-BASE
 70
     0
 62
     7
  6
CONTINUOUS
  0
LAYER
  2
SPEC
 70
     0
 62
     7
  6
CONTINUOUS
  0
LAYER
  2
PATTERN_FILL
 70
     0
 62
     7
  6
CONTINUOUS
  0
LAYER
  2
DIMNSIONS
 70
     0
 62
     7
  6
CONTINUOUS
  0
ENDTAB
  0
TABLE
  2
STYLE
 70
     2
  0
STYLE
  2
STANDARD
 70
     0
 40
0.0
 41
1.0
 50
0.0
 71
     0
 42
0.0
  3
txt
  4
BIGFONT.SHX
  0
ENDTAB
  0
TABLE
  2
VIEW
 70
     0
  0
ENDTAB
  0
TABLE
  2
UCS
 70
     0
  0
ENDTAB
  0
TABLE
  2
APPID
 70
     1
  0
APPID
  2
ACAD
 70
     0
  0
ENDTAB
  0
TABLE
  2
DIMSTYLE
 70
     1
  0
DIMSTYLE
  2
STANDARD
 70
     0
  3

  4

  5

  6

  7

 40
1.0
 41
0.18
 42
0.0625
 43
0.38
 44
0.18
 45
0.0
 46
0.0
 47
0.0
 48
0.0
140
0.18
141
0.09
142
0.0
143
25.399999999999999
144
1.0
145
0.0
146
1.0
147
0.09
 71
     0
 72
     0
 73
     1
 74
     1
 75
     0
 76
     0
 77
     0
 78
     0
170
     0
171
     2
172
     0
173
     0
174
     0
175
     0
176
     0
177
     0
178
     0
  0
ENDTAB
  0
ENDSEC
  0
SECTION
  2
BLOCKS
  0
BLOCK
  8
0
  2
$MODEL_SPACE
 70
     0
 10
0.0
 20
0.0
 30
0.0
  3
$MODEL_SPACE
  1

  0
ENDBLK
  5
569
  8
0
  0
BLOCK
 67
     1
  8
0
  2
$PAPER_SPACE
 70
     0
 10
0.0
 20
0.0
 30
0.0
  3
$PAPER_SPACE
  1

  0
ENDBLK
  5
565
 67
     1
  8
0
  0
BLOCK
  8
PATTERN_FILL
  2
____
 70
     0
 10
0.0
 20
0.0
 30
0.0
  3
____
  1

  0
CIRCLE
  5
31
  8
0
  6
CONTINUOUS
 62
     7
 10
-516.37437499999965
 20
-724.22500000000014
 30
0.0
 40
3.25
  0
CIRCLE
  5
32
  8
0
  6
CONTINUOUS
 62
     7
 10
-516.37437499999965
 20
-710.42500000000018
 30
0.0
 40
3.25
  0
CIRCLE
  5
33
  8
0
  6
CONTINUOUS
 62
     7
 10
-516.37437499999965
 20
-696.62500000000011
 30
0.0
 40
3.25
  0
CIRCLE
  5
34
  8
0
  6
CONTINUOUS
 62
     7
 10
-516.37437499999965
 20
-682.8249999999997
 30
0.0
 40
3.25
  0
CIRCLE
  5
35
  8
0
  6
CONTINUOUS
 62
     7
 10
-516.37437499999965
 20
-669.02499999999986
 30
0.0
 40
3.25
  0
CIRCLE
  5
36
  8
0
  6
CONTINUOUS
 62
     7
 10
-516.37437499999965
 20
-655.22500000000014
 30
0.0
 40
3.25
  0
CIRCLE
  5
37
  8
0
  6
CONTINUOUS
 62
     7
 10
-516.37437499999965
 20
-641.42500000000007
 30
0.0
 40
3.25
  0
CIRCLE
  5
38
  8
0
  6
CONTINUOUS
 62
     7
 10
-516.37437499999965
 20
-627.625
 30
0.0
 40
3.25
  0
CIRCLE
  5
39
  8
0
  6
CONTINUOUS
 62
     7
 10
-516.37437499999965
 20
-613.82499999999982
 30
0.0
 40
3.25
  0
CIRCLE
  5
3A
  8
0
  6
CONTINUOUS
 62
     7
 10
-516.37437499999965
 20
-600.0250000000002
 30
0.0
 40
3.25
  0
CIRCLE
  5
3B
  8
0
  6
CONTINUOUS
 62
     7
 10
-516.37437499999965
 20
-586.22500000000014
 30
0.0
 40
3.25
  0
CIRCLE
  5
3C
  8
0
  6
CONTINUOUS
 62
     7
 10
-516.37437499999965
 20
-572.42500000000018
 30
0.0
 40
3.25
  0
CIRCLE
  5
3D
  8
0
  6
CONTINUOUS
 62
     7
 10
-516.37437499999965
 20
-558.62500000000011
 30
0.0
 40
3.25
  0
CIRCLE
  5
3E
  8
0
  6
CONTINUOUS
 62
     7
 10
-516.37437499999965
 20
-544.82499999999993
 30
0.0
 40
3.25
  0
CIRCLE
  5
3F
  8
0
  6
CONTINUOUS
 62
     7
 10
-516.37437499999965
 20
-531.02499999999998
 30
0.0
 40
3.25
  0
CIRCLE
  5
40
  8
0
  6
CONTINUOUS
 62
     7
 10
-516.37437499999965
 20
-517.22500000000014
 30
0.0
 40
3.25
  0
CIRCLE
  5
41
  8
0
  6
CONTINUOUS
 62
     7
 10
-516.37437499999965
 20
-503.42500000000001
 30
0.0
 40
3.25
  0
CIRCLE
  5
42
  8
0
  6
CONTINUOUS
 62
     7
 10
-516.37437499999965
 20
-737.72500000000014
 30
0.0
 40
3.25
  0
CIRCLE
  5
43
  8
0
  6
CONTINUOUS
 62
     7
 10
-516.37437499999965
 20
-751.52499999999975
 30
0.0
 40
3.25
  0
CIRCLE
  5
44
  8
0
  6
CONTINUOUS
 62
     7
 10
-516.37437499999965
 20
-765.32499999999982
 30
0.0
 40
3.25
  0
CIRCLE
  5
45
  8
0
  6
CONTINUOUS
 62
     7
 10
-516.37437499999965
 20
-779.12500000000011
 30
0.0
 40
3.25
  0
CIRCLE
  5
46
  8
0
  6
CONTINUOUS
 62
     7
 10
-516.37437499999965
 20
-792.92499999999984
 30
0.0
 40
3.25
  0
CIRCLE
  5
47
  8
0
  6
CONTINUOUS
 62
     7
 10
-516.37437499999965
 20
-806.72500000000014
 30
0.0
 40
3.25
  0
CIRCLE
  5
48
  8
0
  6
CONTINUOUS
 62
     7
 10
-516.37437499999965
 20
-820.52499999999975
 30
0.0
 40
3.25
  0
CIRCLE
  5
49
  8
0
  6
CONTINUOUS
 62
     7
 10
-516.37437499999965
 20
-834.3249999999997
 30
0.0
 40
3.25
  0
CIRCLE
  5
4A
  8
0
  6
CONTINUOUS
 62
     7
 10
-516.37437499999965
 20
-848.12500000000011
 30
0.0
 40
3.25
  0
CIRCLE
  5
4B
  8
0
  6
CONTINUOUS
 62
     7
 10
-516.37437499999965
 20
-861.92499999999995
 30
0.0
 40
3.25
  0
CIRCLE
  5
4C
  8
0
  6
CONTINUOUS
 62
     7
 10
-516.37437499999965
 20
-875.72500000000002
 30
0.0
 40
3.25
  0
CIRCLE
  5
4D
  8
0
  6
CONTINUOUS
 62
     7
 10
-516.37437499999965
 20
-889.52499999999975
 30
0.0
 40
3.25
  0
CIRCLE
  5
4E
  8
0
  6
CONTINUOUS
 62
     7
 10
-516.37437499999965
 20
-903.32499999999982
 30
0.0
 40
3.25
  0
CIRCLE
  5
4F
  8
0
  6
CONTINUOUS
 62
     7
 10
-516.37437499999965
 20
-917.125
 30
0.0
 40
3.25
  0
CIRCLE
  5
50
  8
0
  6
CONTINUOUS
 62
     7
 10
-516.37437499999965
 20
-930.92499999999995
 30
0.0
 40
3.25
  0
CIRCLE
  5
51
  8
0
  6
CONTINUOUS
 62
     7
 10
-516.37437499999965
 20
-944.72500000000002
 30
0.0
 40
3.25
  0
CIRCLE
  5
52
  8
0
  6
CONTINUOUS
 62
     7
 10
-516.37437499999965
 20
-958.52500000000032
 30
0.0
 40
3.25
  0
ENDBLK
  5
53
  8
PATTERN_FILL
  0
BLOCK
  8
PATTERN_FILL
  2
____-1
 70
     0
 10
0.0
 20
0.0
 30
0.0
  3
____-1
  1

  0
CIRCLE
  5
55
  8
0
  6
CONTINUOUS
 62
     7
 10
-810.37437499999965
 20
-724.22500000000014
 30
0.0
 40
3.25
  0
CIRCLE
  5
56
  8
0
  6
CONTINUOUS
 62
     7
 10
-794.37437499999965
 20
-724.22500000000014
 30
0.0
 40
3.25
  0
CIRCLE
  5
57
  8
0
  6
CONTINUOUS
 62
     7
 10
-778.37437499999965
 20
-724.22500000000014
 30
0.0
 40
3.25
  0
CIRCLE
  5
58
  8
0
  6
CONTINUOUS
 62
     7
 10
-762.37437499999965
 20
-724.22500000000014
 30
0.0
 40
3.25
  0
CIRCLE
  5
59
  8
0
  6
CONTINUOUS
 62
     7
 10
-746.37437499999965
 20
-724.22500000000014
 30
0.0
 40
3.25
  0
CIRCLE
  5
5A
  8
0
  6
CONTINUOUS
 62
     7
 10
-730.37437499999965
 20
-724.22500000000014
 30
0.0
 40
3.25
  0
CIRCLE
  5
5B
  8
0
  6
CONTINUOUS
 62
     7
 10
-714.37437499999965
 20
-724.22500000000014
 30
0.0
 40
3.25
  0
CIRCLE
  5
5C
  8
0
  6
CONTINUOUS
 62
     7
 10
-698.37437499999965
 20
-724.22500000000014
 30
0.0
 40
3.25
  0
CIRCLE
  5
5D
  8
0
  6
CONTINUOUS
 62
     7
 10
-906.37437499999965
 20
-724.22500000000014
 30
0.0
 40
3.25
  0
CIRCLE
  5
5E
  8
0
  6
CONTINUOUS
 62
     7
 10
-922.37437499999965
 20
-724.22500000000014
 30
0.0
 40
3.25
  0
CIRCLE
  5
5F
  8
0
  6
CONTINUOUS
 62
     7
 10
-938.37437499999965
 20
-724.22500000000014
 30
0.0
 40
3.25
  0
CIRCLE
  5
60
  8
0
  6
CONTINUOUS
 62
     7
 10
-954.37437499999965
 20
-724.22500000000014
 30
0.0
 40
3.25
  0
CIRCLE
  5
61
  8
0
  6
CONTINUOUS
 62
     7
 10
-970.37437499999965
 20
-724.22500000000014
 30
0.0
 40
3.25
  0
CIRCLE
  5
62
  8
0
  6
CONTINUOUS
 62
     7
 10
-986.37437499999953
 20
-724.22500000000014
 30
0.0
 40
3.25
  0
CIRCLE
  5
63
  8
0
  6
CONTINUOUS
 62
     7
 10
-1002.374374999999
 20
-724.22500000000014
 30
0.0
 40
3.25
  0
CIRCLE
  5
64
  8
0
  6
CONTINUOUS
 62
     7
 10
-810.37437499999965
 20
-710.42500000000018
 30
0.0
 40
3.25
  0
CIRCLE
  5
65
  8
0
  6
CONTINUOUS
 62
     7
 10
-794.37437499999965
 20
-710.42500000000018
 30
0.0
 40
3.25
  0
CIRCLE
  5
66
  8
0
  6
CONTINUOUS
 62
     7
 10
-778.37437499999965
 20
-710.42500000000018
 30
0.0
 40
3.25
  0
CIRCLE
  5
67
  8
0
  6
CONTINUOUS
 62
     7
 10
-762.37437499999965
 20
-710.42500000000018
 30
0.0
 40
3.25
  0
CIRCLE
  5
68
  8
0
  6
CONTINUOUS
 62
     7
 10
-746.37437499999965
 20
-710.42500000000018
 30
0.0
 40
3.25
  0
CIRCLE
  5
69
  8
0
  6
CONTINUOUS
 62
     7
 10
-730.37437499999965
 20
-710.42500000000018
 30
0.0
 40
3.25
  0
CIRCLE
  5
6A
  8
0
  6
CONTINUOUS
 62
     7
 10
-714.37437499999965
 20
-710.42500000000018
 30
0.0
 40
3.25
  0
CIRCLE
  5
6B
  8
0
  6
CONTINUOUS
 62
     7
 10
-698.37437499999965
 20
-710.42500000000018
 30
0.0
 40
3.25
  0
CIRCLE
  5
6C
  8
0
  6
CONTINUOUS
 62
     7
 10
-906.37437499999965
 20
-710.42500000000018
 30
0.0
 40
3.25
  0
CIRCLE
  5
6D
  8
0
  6
CONTINUOUS
 62
     7
 10
-922.37437499999965
 20
-710.42500000000018
 30
0.0
 40
3.25
  0
CIRCLE
  5
6E
  8
0
  6
CONTINUOUS
 62
     7
 10
-938.37437499999965
 20
-710.42500000000018
 30
0.0
 40
3.25
  0
CIRCLE
  5
6F
  8
0
  6
CONTINUOUS
 62
     7
 10
-954.37437499999965
 20
-710.42500000000018
 30
0.0
 40
3.25
  0
CIRCLE
  5
70
  8
0
  6
CONTINUOUS
 62
     7
 10
-970.37437499999965
 20
-710.42500000000018
 30
0.0
 40
3.25
  0
CIRCLE
  5
71
  8
0
  6
CONTINUOUS
 62
     7
 10
-986.37437499999953
 20
-710.42500000000018
 30
0.0
 40
3.25
  0
CIRCLE
  5
72
  8
0
  6
CONTINUOUS
 62
     7
 10
-1002.374374999999
 20
-710.42500000000018
 30
0.0
 40
3.25
  0
CIRCLE
  5
73
  8
0
  6
CONTINUOUS
 62
     7
 10
-842.37437499999965
 20
-696.62500000000011
 30
0.0
 40
3.25
  0
CIRCLE
  5
74
  8
0
  6
CONTINUOUS
 62
     7
 10
-826.37437499999965
 20
-696.62500000000011
 30
0.0
 40
3.25
  0
CIRCLE
  5
75
  8
0
  6
CONTINUOUS
 62
     7
 10
-810.37437499999965
 20
-696.62500000000011
 30
0.0
 40
3.25
  0
CIRCLE
  5
76
  8
0
  6
CONTINUOUS
 62
     7
 10
-794.37437499999965
 20
-696.62500000000011
 30
0.0
 40
3.25
  0
CIRCLE
  5
77
  8
0
  6
CONTINUOUS
 62
     7
 10
-778.37437499999965
 20
-696.62500000000011
 30
0.0
 40
3.25
  0
CIRCLE
  5
78
  8
0
  6
CONTINUOUS
 62
     7
 10
-762.37437499999965
 20
-696.62500000000011
 30
0.0
 40
3.25
  0
CIRCLE
  5
79
  8
0
  6
CONTINUOUS
 62
     7
 10
-746.37437499999965
 20
-696.62500000000011
 30
0.0
 40
3.25
  0
CIRCLE
  5
7A
  8
0
  6
CONTINUOUS
 62
     7
 10
-730.37437499999965
 20
-696.62500000000011
 30
0.0
 40
3.25
  0
CIRCLE
  5
7B
  8
0
  6
CONTINUOUS
 62
     7
 10
-714.37437499999965
 20
-696.62500000000011
 30
0.0
 40
3.25
  0
CIRCLE
  5
7C
  8
0
  6
CONTINUOUS
 62
     7
 10
-698.37437499999965
 20
-696.62500000000011
 30
0.0
 40
3.25
  0
CIRCLE
  5
7D
  8
0
  6
CONTINUOUS
 62
     7
 10
-858.37437499999965
 20
-696.62500000000011
 30
0.0
 40
3.25
  0
CIRCLE
  5
7E
  8
0
  6
CONTINUOUS
 62
     7
 10
-874.37437499999965
 20
-696.62500000000011
 30
0.0
 40
3.25
  0
CIRCLE
  5
7F
  8
0
  6
CONTINUOUS
 62
     7
 10
-890.37437499999965
 20
-696.62500000000011
 30
0.0
 40
3.25
  0
CIRCLE
  5
80
  8
0
  6
CONTINUOUS
 62
     7
 10
-906.37437499999965
 20
-696.62500000000011
 30
0.0
 40
3.25
  0
CIRCLE
  5
81
  8
0
  6
CONTINUOUS
 62
     7
 10
-922.37437499999965
 20
-696.62500000000011
 30
0.0
 40
3.25
  0
CIRCLE
  5
82
  8
0
  6
CONTINUOUS
 62
     7
 10
-938.37437499999965
 20
-696.62500000000011
 30
0.0
 40
3.25
  0
CIRCLE
  5
83
  8
0
  6
CONTINUOUS
 62
     7
 10
-954.37437499999965
 20
-696.62500000000011
 30
0.0
 40
3.25
  0
CIRCLE
  5
84
  8
0
  6
CONTINUOUS
 62
     7
 10
-970.37437499999965
 20
-696.62500000000011
 30
0.0
 40
3.25
  0
CIRCLE
  5
85
  8
0
  6
CONTINUOUS
 62
     7
 10
-986.37437499999953
 20
-696.62500000000011
 30
0.0
 40
3.25
  0
CIRCLE
  5
86
  8
0
  6
CONTINUOUS
 62
     7
 10
-1002.374374999999
 20
-696.62500000000011
 30
0.0
 40
3.25
  0
CIRCLE
  5
87
  8
0
  6
CONTINUOUS
 62
     7
 10
-842.37437499999965
 20
-682.8249999999997
 30
0.0
 40
3.25
  0
CIRCLE
  5
88
  8
0
  6
CONTINUOUS
 62
     7
 10
-826.37437499999965
 20
-682.8249999999997
 30
0.0
 40
3.25
  0
CIRCLE
  5
89
  8
0
  6
CONTINUOUS
 62
     7
 10
-810.37437499999965
 20
-682.8249999999997
 30
0.0
 40
3.25
  0
CIRCLE
  5
8A
  8
0
  6
CONTINUOUS
 62
     7
 10
-794.37437499999965
 20
-682.8249999999997
 30
0.0
 40
3.25
  0
CIRCLE
  5
8B
  8
0
  6
CONTINUOUS
 62
     7
 10
-778.37437499999965
 20
-682.8249999999997
 30
0.0
 40
3.25
  0
CIRCLE
  5
8C
  8
0
  6
CONTINUOUS
 62
     7
 10
-762.37437499999965
 20
-682.8249999999997
 30
0.0
 40
3.25
  0
CIRCLE
  5
8D
  8
0
  6
CONTINUOUS
 62
     7
 10
-746.37437499999965
 20
-682.8249999999997
 30
0.0
 40
3.25
  0
CIRCLE
  5
8E
  8
0
  6
CONTINUOUS
 62
     7
 10
-730.37437499999965
 20
-682.8249999999997
 30
0.0
 40
3.25
  0
CIRCLE
  5
8F
  8
0
  6
CONTINUOUS
 62
     7
 10
-714.37437499999965
 20
-682.8249999999997
 30
0.0
 40
3.25
  0
CIRCLE
  5
90
  8
0
  6
CONTINUOUS
 62
     7
 10
-698.37437499999965
 20
-682.8249999999997
 30
0.0
 40
3.25
  0
CIRCLE
  5
91
  8
0
  6
CONTINUOUS
 62
     7
 10
-858.37437499999965
 20
-682.8249999999997
 30
0.0
 40
3.25
  0
CIRCLE
  5
92
  8
0
  6
CONTINUOUS
 62
     7
 10
-874.37437499999965
 20
-682.8249999999997
 30
0.0
 40
3.25
  0
CIRCLE
  5
93
  8
0
  6
CONTINUOUS
 62
     7
 10
-890.37437499999965
 20
-682.8249999999997
 30
0.0
 40
3.25
  0
CIRCLE
  5
94
  8
0
  6
CONTINUOUS
 62
     7
 10
-906.37437499999965
 20
-682.8249999999997
 30
0.0
 40
3.25
  0
CIRCLE
  5
95
  8
0
  6
CONTINUOUS
 62
     7
 10
-922.37437499999965
 20
-682.8249999999997
 30
0.0
 40
3.25
  0
CIRCLE
  5
96
  8
0
  6
CONTINUOUS
 62
     7
 10
-938.37437499999965
 20
-682.8249999999997
 30
0.0
 40
3.25
  0
CIRCLE
  5
97
  8
0
  6
CONTINUOUS
 62
     7
 10
-954.37437499999965
 20
-682.8249999999997
 30
0.0
 40
3.25
  0
CIRCLE
  5
98
  8
0
  6
CONTINUOUS
 62
     7
 10
-970.37437499999965
 20
-682.8249999999997
 30
0.0
 40
3.25
  0
CIRCLE
  5
99
  8
0
  6
CONTINUOUS
 62
     7
 10
-986.37437499999953
 20
-682.8249999999997
 30
0.0
 40
3.25
  0
CIRCLE
  5
9A
  8
0
  6
CONTINUOUS
 62
     7
 10
-1002.374374999999
 20
-682.8249999999997
 30
0.0
 40
3.25
  0
CIRCLE
  5
9B
  8
0
  6
CONTINUOUS
 62
     7
 10
-842.37437499999965
 20
-669.02499999999986
 30
0.0
 40
3.25
  0
CIRCLE
  5
9C
  8
0
  6
CONTINUOUS
 62
     7
 10
-826.37437499999965
 20
-669.02499999999986
 30
0.0
 40
3.25
  0
CIRCLE
  5
9D
  8
0
  6
CONTINUOUS
 62
     7
 10
-810.37437499999965
 20
-669.02499999999986
 30
0.0
 40
3.25
  0
CIRCLE
  5
9E
  8
0
  6
CONTINUOUS
 62
     7
 10
-794.37437499999965
 20
-669.02499999999986
 30
0.0
 40
3.25
  0
CIRCLE
  5
9F
  8
0
  6
CONTINUOUS
 62
     7
 10
-778.37437499999965
 20
-669.02499999999986
 30
0.0
 40
3.25
  0
CIRCLE
  5
A0
  8
0
  6
CONTINUOUS
 62
     7
 10
-762.37437499999965
 20
-669.02499999999986
 30
0.0
 40
3.25
  0
CIRCLE
  5
A1
  8
0
  6
CONTINUOUS
 62
     7
 10
-746.37437499999965
 20
-669.02499999999986
 30
0.0
 40
3.25
  0
CIRCLE
  5
A2
  8
0
  6
CONTINUOUS
 62
     7
 10
-730.37437499999965
 20
-669.02499999999986
 30
0.0
 40
3.25
  0
CIRCLE
  5
A3
  8
0
  6
CONTINUOUS
 62
     7
 10
-714.37437499999965
 20
-669.02499999999986
 30
0.0
 40
3.25
  0
CIRCLE
  5
A4
  8
0
  6
CONTINUOUS
 62
     7
 10
-698.37437499999965
 20
-669.02499999999986
 30
0.0
 40
3.25
  0
CIRCLE
  5
A5
  8
0
  6
CONTINUOUS
 62
     7
 10
-858.37437499999965
 20
-669.02499999999986
 30
0.0
 40
3.25
  0
CIRCLE
  5
A6
  8
0
  6
CONTINUOUS
 62
     7
 10
-874.37437499999965
 20
-669.02499999999986
 30
0.0
 40
3.25
  0
CIRCLE
  5
A7
  8
0
  6
CONTINUOUS
 62
     7
 10
-890.37437499999965
 20
-669.02499999999986
 30
0.0
 40
3.25
  0
CIRCLE
  5
A8
  8
0
  6
CONTINUOUS
 62
     7
 10
-906.37437499999965
 20
-669.02499999999986
 30
0.0
 40
3.25
  0
CIRCLE
  5
A9
  8
0
  6
CONTINUOUS
 62
     7
 10
-922.37437499999965
 20
-669.02499999999986
 30
0.0
 40
3.25
  0
CIRCLE
  5
AA
  8
0
  6
CONTINUOUS
 62
     7
 10
-938.37437499999965
 20
-669.02499999999986
 30
0.0
 40
3.25
  0
CIRCLE
  5
AB
  8
0
  6
CONTINUOUS
 62
     7
 10
-954.37437499999965
 20
-669.02499999999986
 30
0.0
 40
3.25
  0
CIRCLE
  5
AC
  8
0
  6
CONTINUOUS
 62
     7
 10
-970.37437499999965
 20
-669.02499999999986
 30
0.0
 40
3.25
  0
CIRCLE
  5
AD
  8
0
  6
CONTINUOUS
 62
     7
 10
-986.37437499999953
 20
-669.02499999999986
 30
0.0
 40
3.25
  0
CIRCLE
  5
AE
  8
0
  6
CONTINUOUS
 62
     7
 10
-1002.374374999999
 20
-669.02499999999986
 30
0.0
 40
3.25
  0
CIRCLE
  5
AF
  8
0
  6
CONTINUOUS
 62
     7
 10
-842.37437499999965
 20
-655.22500000000014
 30
0.0
 40
3.25
  0
CIRCLE
  5
B0
  8
0
  6
CONTINUOUS
 62
     7
 10
-826.37437499999965
 20
-655.22500000000014
 30
0.0
 40
3.25
  0
CIRCLE
  5
B1
  8
0
  6
CONTINUOUS
 62
     7
 10
-810.37437499999965
 20
-655.22500000000014
 30
0.0
 40
3.25
  0
CIRCLE
  5
B2
  8
0
  6
CONTINUOUS
 62
     7
 10
-794.37437499999965
 20
-655.22500000000014
 30
0.0
 40
3.25
  0
CIRCLE
  5
B3
  8
0
  6
CONTINUOUS
 62
     7
 10
-778.37437499999965
 20
-655.22500000000014
 30
0.0
 40
3.25
  0
CIRCLE
  5
B4
  8
0
  6
CONTINUOUS
 62
     7
 10
-762.37437499999965
 20
-655.22500000000014
 30
0.0
 40
3.25
  0
CIRCLE
  5
B5
  8
0
  6
CONTINUOUS
 62
     7
 10
-746.37437499999965
 20
-655.22500000000014
 30
0.0
 40
3.25
  0
CIRCLE
  5
B6
  8
0
  6
CONTINUOUS
 62
     7
 10
-730.37437499999965
 20
-655.22500000000014
 30
0.0
 40
3.25
  0
CIRCLE
  5
B7
  8
0
  6
CONTINUOUS
 62
     7
 10
-714.37437499999965
 20
-655.22500000000014
 30
0.0
 40
3.25
  0
CIRCLE
  5
B8
  8
0
  6
CONTINUOUS
 62
     7
 10
-698.37437499999965
 20
-655.22500000000014
 30
0.0
 40
3.25
  0
CIRCLE
  5
B9
  8
0
  6
CONTINUOUS
 62
     7
 10
-858.37437499999965
 20
-655.22500000000014
 30
0.0
 40
3.25
  0
CIRCLE
  5
BA
  8
0
  6
CONTINUOUS
 62
     7
 10
-874.37437499999965
 20
-655.22500000000014
 30
0.0
 40
3.25
  0
CIRCLE
  5
BB
  8
0
  6
CONTINUOUS
 62
     7
 10
-890.37437499999965
 20
-655.22500000000014
 30
0.0
 40
3.25
  0
CIRCLE
  5
BC
  8
0
  6
CONTINUOUS
 62
     7
 10
-906.37437499999965
 20
-655.22500000000014
 30
0.0
 40
3.25
  0
CIRCLE
  5
BD
  8
0
  6
CONTINUOUS
 62
     7
 10
-922.37437499999965
 20
-655.22500000000014
 30
0.0
 40
3.25
  0
CIRCLE
  5
BE
  8
0
  6
CONTINUOUS
 62
     7
 10
-938.37437499999965
 20
-655.22500000000014
 30
0.0
 40
3.25
  0
CIRCLE
  5
BF
  8
0
  6
CONTINUOUS
 62
     7
 10
-954.37437499999965
 20
-655.22500000000014
 30
0.0
 40
3.25
  0
CIRCLE
  5
C0
  8
0
  6
CONTINUOUS
 62
     7
 10
-970.37437499999965
 20
-655.22500000000014
 30
0.0
 40
3.25
  0
CIRCLE
  5
C1
  8
0
  6
CONTINUOUS
 62
     7
 10
-986.37437499999953
 20
-655.22500000000014
 30
0.0
 40
3.25
  0
CIRCLE
  5
C2
  8
0
  6
CONTINUOUS
 62
     7
 10
-1002.374374999999
 20
-655.22500000000014
 30
0.0
 40
3.25
  0
CIRCLE
  5
C3
  8
0
  6
CONTINUOUS
 62
     7
 10
-842.37437499999965
 20
-641.42500000000007
 30
0.0
 40
3.25
  0
CIRCLE
  5
C4
  8
0
  6
CONTINUOUS
 62
     7
 10
-826.37437499999965
 20
-641.42500000000007
 30
0.0
 40
3.25
  0
CIRCLE
  5
C5
  8
0
  6
CONTINUOUS
 62
     7
 10
-810.37437499999965
 20
-641.42500000000007
 30
0.0
 40
3.25
  0
CIRCLE
  5
C6
  8
0
  6
CONTINUOUS
 62
     7
 10
-794.37437499999965
 20
-641.42500000000007
 30
0.0
 40
3.25
  0
CIRCLE
  5
C7
  8
0
  6
CONTINUOUS
 62
     7
 10
-778.37437499999965
 20
-641.42500000000007
 30
0.0
 40
3.25
  0
CIRCLE
  5
C8
  8
0
  6
CONTINUOUS
 62
     7
 10
-762.37437499999965
 20
-641.42500000000007
 30
0.0
 40
3.25
  0
CIRCLE
  5
C9
  8
0
  6
CONTINUOUS
 62
     7
 10
-746.37437499999965
 20
-641.42500000000007
 30
0.0
 40
3.25
  0
CIRCLE
  5
CA
  8
0
  6
CONTINUOUS
 62
     7
 10
-730.37437499999965
 20
-641.42500000000007
 30
0.0
 40
3.25
  0
CIRCLE
  5
CB
  8
0
  6
CONTINUOUS
 62
     7
 10
-714.37437499999965
 20
-641.42500000000007
 30
0.0
 40
3.25
  0
CIRCLE
  5
CC
  8
0
  6
CONTINUOUS
 62
     7
 10
-698.37437499999965
 20
-641.42500000000007
 30
0.0
 40
3.25
  0
CIRCLE
  5
CD
  8
0
  6
CONTINUOUS
 62
     7
 10
-858.37437499999965
 20
-641.42500000000007
 30
0.0
 40
3.25
  0
CIRCLE
  5
CE
  8
0
  6
CONTINUOUS
 62
     7
 10
-874.37437499999965
 20
-641.42500000000007
 30
0.0
 40
3.25
  0
CIRCLE
  5
CF
  8
0
  6
CONTINUOUS
 62
     7
 10
-890.37437499999965
 20
-641.42500000000007
 30
0.0
 40
3.25
  0
CIRCLE
  5
D0
  8
0
  6
CONTINUOUS
 62
     7
 10
-906.37437499999965
 20
-641.42500000000007
 30
0.0
 40
3.25
  0
CIRCLE
  5
D1
  8
0
  6
CONTINUOUS
 62
     7
 10
-922.37437499999965
 20
-641.42500000000007
 30
0.0
 40
3.25
  0
CIRCLE
  5
D2
  8
0
  6
CONTINUOUS
 62
     7
 10
-938.37437499999965
 20
-641.42500000000007
 30
0.0
 40
3.25
  0
CIRCLE
  5
D3
  8
0
  6
CONTINUOUS
 62
     7
 10
-954.37437499999965
 20
-641.42500000000007
 30
0.0
 40
3.25
  0
CIRCLE
  5
D4
  8
0
  6
CONTINUOUS
 62
     7
 10
-970.37437499999965
 20
-641.42500000000007
 30
0.0
 40
3.25
  0
CIRCLE
  5
D5
  8
0
  6
CONTINUOUS
 62
     7
 10
-986.37437499999953
 20
-641.42500000000007
 30
0.0
 40
3.25
  0
CIRCLE
  5
D6
  8
0
  6
CONTINUOUS
 62
     7
 10
-1002.374374999999
 20
-641.42500000000007
 30
0.0
 40
3.25
  0
CIRCLE
  5
D7
  8
0
  6
CONTINUOUS
 62
     7
 10
-842.37437499999965
 20
-627.625
 30
0.0
 40
3.25
  0
CIRCLE
  5
D8
  8
0
  6
CONTINUOUS
 62
     7
 10
-826.37437499999965
 20
-627.625
 30
0.0
 40
3.25
  0
CIRCLE
  5
D9
  8
0
  6
CONTINUOUS
 62
     7
 10
-810.37437499999965
 20
-627.625
 30
0.0
 40
3.25
  0
CIRCLE
  5
DA
  8
0
  6
CONTINUOUS
 62
     7
 10
-794.37437499999965
 20
-627.625
 30
0.0
 40
3.25
  0
CIRCLE
  5
DB
  8
0
  6
CONTINUOUS
 62
     7
 10
-778.37437499999965
 20
-627.625
 30
0.0
 40
3.25
  0
CIRCLE
  5
DC
  8
0
  6
CONTINUOUS
 62
     7
 10
-762.37437499999965
 20
-627.625
 30
0.0
 40
3.25
  0
CIRCLE
  5
DD
  8
0
  6
CONTINUOUS
 62
     7
 10
-746.37437499999965
 20
-627.625
 30
0.0
 40
3.25
  0
CIRCLE
  5
DE
  8
0
  6
CONTINUOUS
 62
     7
 10
-730.37437499999965
 20
-627.625
 30
0.0
 40
3.25
  0
CIRCLE
  5
DF
  8
0
  6
CONTINUOUS
 62
     7
 10
-714.37437499999965
 20
-627.625
 30
0.0
 40
3.25
  0
CIRCLE
  5
E0
  8
0
  6
CONTINUOUS
 62
     7
 10
-698.37437499999965
 20
-627.625
 30
0.0
 40
3.25
  0
CIRCLE
  5
E1
  8
0
  6
CONTINUOUS
 62
     7
 10
-858.37437499999965
 20
-627.625
 30
0.0
 40
3.25
  0
CIRCLE
  5
E2
  8
0
  6
CONTINUOUS
 62
     7
 10
-874.37437499999965
 20
-627.625
 30
0.0
 40
3.25
  0
CIRCLE
  5
E3
  8
0
  6
CONTINUOUS
 62
     7
 10
-890.37437499999965
 20
-627.625
 30
0.0
 40
3.25
  0
CIRCLE
  5
E4
  8
0
  6
CONTINUOUS
 62
     7
 10
-906.37437499999965
 20
-627.625
 30
0.0
 40
3.25
  0
CIRCLE
  5
E5
  8
0
  6
CONTINUOUS
 62
     7
 10
-922.37437499999965
 20
-627.625
 30
0.0
 40
3.25
  0
CIRCLE
  5
E6
  8
0
  6
CONTINUOUS
 62
     7
 10
-938.37437499999965
 20
-627.625
 30
0.0
 40
3.25
  0
CIRCLE
  5
E7
  8
0
  6
CONTINUOUS
 62
     7
 10
-954.37437499999965
 20
-627.625
 30
0.0
 40
3.25
  0
CIRCLE
  5
E8
  8
0
  6
CONTINUOUS
 62
     7
 10
-970.37437499999965
 20
-627.625
 30
0.0
 40
3.25
  0
CIRCLE
  5
E9
  8
0
  6
CONTINUOUS
 62
     7
 10
-986.37437499999953
 20
-627.625
 30
0.0
 40
3.25
  0
CIRCLE
  5
EA
  8
0
  6
CONTINUOUS
 62
     7
 10
-1002.374374999999
 20
-627.625
 30
0.0
 40
3.25
  0
CIRCLE
  5
EB
  8
0
  6
CONTINUOUS
 62
     7
 10
-842.37437499999965
 20
-613.82499999999982
 30
0.0
 40
3.25
  0
CIRCLE
  5
EC
  8
0
  6
CONTINUOUS
 62
     7
 10
-826.37437499999965
 20
-613.82499999999982
 30
0.0
 40
3.25
  0
CIRCLE
  5
ED
  8
0
  6
CONTINUOUS
 62
     7
 10
-810.37437499999965
 20
-613.82499999999982
 30
0.0
 40
3.25
  0
CIRCLE
  5
EE
  8
0
  6
CONTINUOUS
 62
     7
 10
-794.37437499999965
 20
-613.82499999999982
 30
0.0
 40
3.25
  0
CIRCLE
  5
EF
  8
0
  6
CONTINUOUS
 62
     7
 10
-778.37437499999965
 20
-613.82499999999982
 30
0.0
 40
3.25
  0
CIRCLE
  5
F0
  8
0
  6
CONTINUOUS
 62
     7
 10
-762.37437499999965
 20
-613.82499999999982
 30
0.0
 40
3.25
  0
CIRCLE
  5
F1
  8
0
  6
CONTINUOUS
 62
     7
 10
-746.37437499999965
 20
-613.82499999999982
 30
0.0
 40
3.25
  0
CIRCLE
  5
F2
  8
0
  6
CONTINUOUS
 62
     7
 10
-730.37437499999965
 20
-613.82499999999982
 30
0.0
 40
3.25
  0
CIRCLE
  5
F3
  8
0
  6
CONTINUOUS
 62
     7
 10
-714.37437499999965
 20
-613.82499999999982
 30
0.0
 40
3.25
  0
CIRCLE
  5
F4
  8
0
  6
CONTINUOUS
 62
     7
 10
-698.37437499999965
 20
-613.82499999999982
 30
0.0
 40
3.25
  0
CIRCLE
  5
F5
  8
0
  6
CONTINUOUS
 62
     7
 10
-858.37437499999965
 20
-613.82499999999982
 30
0.0
 40
3.25
  0
CIRCLE
  5
F6
  8
0
  6
CONTINUOUS
 62
     7
 10
-874.37437499999965
 20
-613.82499999999982
 30
0.0
 40
3.25
  0
CIRCLE
  5
F7
  8
0
  6
CONTINUOUS
 62
     7
 10
-890.37437499999965
 20
-613.82499999999982
 30
0.0
 40
3.25
  0
CIRCLE
  5
F8
  8
0
  6
CONTINUOUS
 62
     7
 10
-906.37437499999965
 20
-613.82499999999982
 30
0.0
 40
3.25
  0
CIRCLE
  5
F9
  8
0
  6
CONTINUOUS
 62
     7
 10
-922.37437499999965
 20
-613.82499999999982
 30
0.0
 40
3.25
  0
CIRCLE
  5
FA
  8
0
  6
CONTINUOUS
 62
     7
 10
-938.37437499999965
 20
-613.82499999999982
 30
0.0
 40
3.25
  0
CIRCLE
  5
FB
  8
0
  6
CONTINUOUS
 62
     7
 10
-954.37437499999965
 20
-613.82499999999982
 30
0.0
 40
3.25
  0
CIRCLE
  5
FC
  8
0
  6
CONTINUOUS
 62
     7
 10
-970.37437499999965
 20
-613.82499999999982
 30
0.0
 40
3.25
  0
CIRCLE
  5
FD
  8
0
  6
CONTINUOUS
 62
     7
 10
-986.37437499999953
 20
-613.82499999999982
 30
0.0
 40
3.25
  0
CIRCLE
  5
FE
  8
0
  6
CONTINUOUS
 62
     7
 10
-1002.374374999999
 20
-613.82499999999982
 30
0.0
 40
3.25
  0
CIRCLE
  5
FF
  8
0
  6
CONTINUOUS
 62
     7
 10
-842.37437499999965
 20
-600.0250000000002
 30
0.0
 40
3.25
  0
CIRCLE
  5
100
  8
0
  6
CONTINUOUS
 62
     7
 10
-826.37437499999965
 20
-600.0250000000002
 30
0.0
 40
3.25
  0
CIRCLE
  5
101
  8
0
  6
CONTINUOUS
 62
     7
 10
-810.37437499999965
 20
-600.0250000000002
 30
0.0
 40
3.25
  0
CIRCLE
  5
102
  8
0
  6
CONTINUOUS
 62
     7
 10
-794.37437499999965
 20
-600.0250000000002
 30
0.0
 40
3.25
  0
CIRCLE
  5
103
  8
0
  6
CONTINUOUS
 62
     7
 10
-778.37437499999965
 20
-600.0250000000002
 30
0.0
 40
3.25
  0
CIRCLE
  5
104
  8
0
  6
CONTINUOUS
 62
     7
 10
-762.37437499999965
 20
-600.0250000000002
 30
0.0
 40
3.25
  0
CIRCLE
  5
105
  8
0
  6
CONTINUOUS
 62
     7
 10
-746.37437499999965
 20
-600.0250000000002
 30
0.0
 40
3.25
  0
CIRCLE
  5
106
  8
0
  6
CONTINUOUS
 62
     7
 10
-730.37437499999965
 20
-600.0250000000002
 30
0.0
 40
3.25
  0
CIRCLE
  5
107
  8
0
  6
CONTINUOUS
 62
     7
 10
-714.37437499999965
 20
-600.0250000000002
 30
0.0
 40
3.25
  0
CIRCLE
  5
108
  8
0
  6
CONTINUOUS
 62
     7
 10
-698.37437499999965
 20
-600.0250000000002
 30
0.0
 40
3.25
  0
CIRCLE
  5
109
  8
0
  6
CONTINUOUS
 62
     7
 10
-858.37437499999965
 20
-600.0250000000002
 30
0.0
 40
3.25
  0
CIRCLE
  5
10A
  8
0
  6
CONTINUOUS
 62
     7
 10
-874.37437499999965
 20
-600.0250000000002
 30
0.0
 40
3.25
  0
CIRCLE
  5
10B
  8
0
  6
CONTINUOUS
 62
     7
 10
-890.37437499999965
 20
-600.0250000000002
 30
0.0
 40
3.25
  0
CIRCLE
  5
10C
  8
0
  6
CONTINUOUS
 62
     7
 10
-906.37437499999965
 20
-600.0250000000002
 30
0.0
 40
3.25
  0
CIRCLE
  5
10D
  8
0
  6
CONTINUOUS
 62
     7
 10
-922.37437499999965
 20
-600.0250000000002
 30
0.0
 40
3.25
  0
CIRCLE
  5
10E
  8
0
  6
CONTINUOUS
 62
     7
 10
-938.37437499999965
 20
-600.0250000000002
 30
0.0
 40
3.25
  0
CIRCLE
  5
10F
  8
0
  6
CONTINUOUS
 62
     7
 10
-954.37437499999965
 20
-600.0250000000002
 30
0.0
 40
3.25
  0
CIRCLE
  5
110
  8
0
  6
CONTINUOUS
 62
     7
 10
-970.37437499999965
 20
-600.0250000000002
 30
0.0
 40
3.25
  0
CIRCLE
  5
111
  8
0
  6
CONTINUOUS
 62
     7
 10
-986.37437499999953
 20
-600.0250000000002
 30
0.0
 40
3.25
  0
CIRCLE
  5
112
  8
0
  6
CONTINUOUS
 62
     7
 10
-1002.374374999999
 20
-600.0250000000002
 30
0.0
 40
3.25
  0
CIRCLE
  5
113
  8
0
  6
CONTINUOUS
 62
     7
 10
-842.37437499999965
 20
-586.22500000000014
 30
0.0
 40
3.25
  0
CIRCLE
  5
114
  8
0
  6
CONTINUOUS
 62
     7
 10
-826.37437499999965
 20
-586.22500000000014
 30
0.0
 40
3.25
  0
CIRCLE
  5
115
  8
0
  6
CONTINUOUS
 62
     7
 10
-810.37437499999965
 20
-586.22500000000014
 30
0.0
 40
3.25
  0
CIRCLE
  5
116
  8
0
  6
CONTINUOUS
 62
     7
 10
-794.37437499999965
 20
-586.22500000000014
 30
0.0
 40
3.25
  0
CIRCLE
  5
117
  8
0
  6
CONTINUOUS
 62
     7
 10
-778.37437499999965
 20
-586.22500000000014
 30
0.0
 40
3.25
  0
CIRCLE
  5
118
  8
0
  6
CONTINUOUS
 62
     7
 10
-762.37437499999965
 20
-586.22500000000014
 30
0.0
 40
3.25
  0
CIRCLE
  5
119
  8
0
  6
CONTINUOUS
 62
     7
 10
-746.37437499999965
 20
-586.22500000000014
 30
0.0
 40
3.25
  0
CIRCLE
  5
11A
  8
0
  6
CONTINUOUS
 62
     7
 10
-730.37437499999965
 20
-586.22500000000014
 30
0.0
 40
3.25
  0
CIRCLE
  5
11B
  8
0
  6
CONTINUOUS
 62
     7
 10
-714.37437499999965
 20
-586.22500000000014
 30
0.0
 40
3.25
  0
CIRCLE
  5
11C
  8
0
  6
CONTINUOUS
 62
     7
 10
-698.37437499999965
 20
-586.22500000000014
 30
0.0
 40
3.25
  0
CIRCLE
  5
11D
  8
0
  6
CONTINUOUS
 62
     7
 10
-858.37437499999965
 20
-586.22500000000014
 30
0.0
 40
3.25
  0
CIRCLE
  5
11E
  8
0
  6
CONTINUOUS
 62
     7
 10
-874.37437499999965
 20
-586.22500000000014
 30
0.0
 40
3.25
  0
CIRCLE
  5
11F
  8
0
  6
CONTINUOUS
 62
     7
 10
-890.37437499999965
 20
-586.22500000000014
 30
0.0
 40
3.25
  0
CIRCLE
  5
120
  8
0
  6
CONTINUOUS
 62
     7
 10
-906.37437499999965
 20
-586.22500000000014
 30
0.0
 40
3.25
  0
CIRCLE
  5
121
  8
0
  6
CONTINUOUS
 62
     7
 10
-922.37437499999965
 20
-586.22500000000014
 30
0.0
 40
3.25
  0
CIRCLE
  5
122
  8
0
  6
CONTINUOUS
 62
     7
 10
-938.37437499999965
 20
-586.22500000000014
 30
0.0
 40
3.25
  0
CIRCLE
  5
123
  8
0
  6
CONTINUOUS
 62
     7
 10
-954.37437499999965
 20
-586.22500000000014
 30
0.0
 40
3.25
  0
CIRCLE
  5
124
  8
0
  6
CONTINUOUS
 62
     7
 10
-970.37437499999965
 20
-586.22500000000014
 30
0.0
 40
3.25
  0
CIRCLE
  5
125
  8
0
  6
CONTINUOUS
 62
     7
 10
-986.37437499999953
 20
-586.22500000000014
 30
0.0
 40
3.25
  0
CIRCLE
  5
126
  8
0
  6
CONTINUOUS
 62
     7
 10
-1002.374374999999
 20
-586.22500000000014
 30
0.0
 40
3.25
  0
CIRCLE
  5
127
  8
0
  6
CONTINUOUS
 62
     7
 10
-842.37437499999965
 20
-572.42500000000018
 30
0.0
 40
3.25
  0
CIRCLE
  5
128
  8
0
  6
CONTINUOUS
 62
     7
 10
-826.37437499999965
 20
-572.42500000000018
 30
0.0
 40
3.25
  0
CIRCLE
  5
129
  8
0
  6
CONTINUOUS
 62
     7
 10
-810.37437499999965
 20
-572.42500000000018
 30
0.0
 40
3.25
  0
CIRCLE
  5
12A
  8
0
  6
CONTINUOUS
 62
     7
 10
-794.37437499999965
 20
-572.42500000000018
 30
0.0
 40
3.25
  0
CIRCLE
  5
12B
  8
0
  6
CONTINUOUS
 62
     7
 10
-778.37437499999965
 20
-572.42500000000018
 30
0.0
 40
3.25
  0
CIRCLE
  5
12C
  8
0
  6
CONTINUOUS
 62
     7
 10
-762.37437499999965
 20
-572.42500000000018
 30
0.0
 40
3.25
  0
CIRCLE
  5
12D
  8
0
  6
CONTINUOUS
 62
     7
 10
-746.37437499999965
 20
-572.42500000000018
 30
0.0
 40
3.25
  0
CIRCLE
  5
12E
  8
0
  6
CONTINUOUS
 62
     7
 10
-730.37437499999965
 20
-572.42500000000018
 30
0.0
 40
3.25
  0
CIRCLE
  5
12F
  8
0
  6
CONTINUOUS
 62
     7
 10
-714.37437499999965
 20
-572.42500000000018
 30
0.0
 40
3.25
  0
CIRCLE
  5
130
  8
0
  6
CONTINUOUS
 62
     7
 10
-698.37437499999965
 20
-572.42500000000018
 30
0.0
 40
3.25
  0
CIRCLE
  5
131
  8
0
  6
CONTINUOUS
 62
     7
 10
-858.37437499999965
 20
-572.42500000000018
 30
0.0
 40
3.25
  0
CIRCLE
  5
132
  8
0
  6
CONTINUOUS
 62
     7
 10
-874.37437499999965
 20
-572.42500000000018
 30
0.0
 40
3.25
  0
CIRCLE
  5
133
  8
0
  6
CONTINUOUS
 62
     7
 10
-890.37437499999965
 20
-572.42500000000018
 30
0.0
 40
3.25
  0
CIRCLE
  5
134
  8
0
  6
CONTINUOUS
 62
     7
 10
-906.37437499999965
 20
-572.42500000000018
 30
0.0
 40
3.25
  0
CIRCLE
  5
135
  8
0
  6
CONTINUOUS
 62
     7
 10
-922.37437499999965
 20
-572.42500000000018
 30
0.0
 40
3.25
  0
CIRCLE
  5
136
  8
0
  6
CONTINUOUS
 62
     7
 10
-938.37437499999965
 20
-572.42500000000018
 30
0.0
 40
3.25
  0
CIRCLE
  5
137
  8
0
  6
CONTINUOUS
 62
     7
 10
-954.37437499999965
 20
-572.42500000000018
 30
0.0
 40
3.25
  0
CIRCLE
  5
138
  8
0
  6
CONTINUOUS
 62
     7
 10
-970.37437499999965
 20
-572.42500000000018
 30
0.0
 40
3.25
  0
CIRCLE
  5
139
  8
0
  6
CONTINUOUS
 62
     7
 10
-986.37437499999953
 20
-572.42500000000018
 30
0.0
 40
3.25
  0
CIRCLE
  5
13A
  8
0
  6
CONTINUOUS
 62
     7
 10
-1002.374374999999
 20
-572.42500000000018
 30
0.0
 40
3.25
  0
CIRCLE
  5
13B
  8
0
  6
CONTINUOUS
 62
     7
 10
-842.37437499999965
 20
-558.62500000000011
 30
0.0
 40
3.25
  0
CIRCLE
  5
13C
  8
0
  6
CONTINUOUS
 62
     7
 10
-826.37437499999965
 20
-558.62500000000011
 30
0.0
 40
3.25
  0
CIRCLE
  5
13D
  8
0
  6
CONTINUOUS
 62
     7
 10
-810.37437499999965
 20
-558.62500000000011
 30
0.0
 40
3.25
  0
CIRCLE
  5
13E
  8
0
  6
CONTINUOUS
 62
     7
 10
-794.37437499999965
 20
-558.62500000000011
 30
0.0
 40
3.25
  0
CIRCLE
  5
13F
  8
0
  6
CONTINUOUS
 62
     7
 10
-778.37437499999965
 20
-558.62500000000011
 30
0.0
 40
3.25
  0
CIRCLE
  5
140
  8
0
  6
CONTINUOUS
 62
     7
 10
-762.37437499999965
 20
-558.62500000000011
 30
0.0
 40
3.25
  0
CIRCLE
  5
141
  8
0
  6
CONTINUOUS
 62
     7
 10
-746.37437499999965
 20
-558.62500000000011
 30
0.0
 40
3.25
  0
CIRCLE
  5
142
  8
0
  6
CONTINUOUS
 62
     7
 10
-730.37437499999965
 20
-558.62500000000011
 30
0.0
 40
3.25
  0
CIRCLE
  5
143
  8
0
  6
CONTINUOUS
 62
     7
 10
-714.37437499999965
 20
-558.62500000000011
 30
0.0
 40
3.25
  0
CIRCLE
  5
144
  8
0
  6
CONTINUOUS
 62
     7
 10
-698.37437499999965
 20
-558.62500000000011
 30
0.0
 40
3.25
  0
CIRCLE
  5
145
  8
0
  6
CONTINUOUS
 62
     7
 10
-858.37437499999965
 20
-558.62500000000011
 30
0.0
 40
3.25
  0
CIRCLE
  5
146
  8
0
  6
CONTINUOUS
 62
     7
 10
-874.37437499999965
 20
-558.62500000000011
 30
0.0
 40
3.25
  0
CIRCLE
  5
147
  8
0
  6
CONTINUOUS
 62
     7
 10
-890.37437499999965
 20
-558.62500000000011
 30
0.0
 40
3.25
  0
CIRCLE
  5
148
  8
0
  6
CONTINUOUS
 62
     7
 10
-906.37437499999965
 20
-558.62500000000011
 30
0.0
 40
3.25
  0
CIRCLE
  5
149
  8
0
  6
CONTINUOUS
 62
     7
 10
-922.37437499999965
 20
-558.62500000000011
 30
0.0
 40
3.25
  0
CIRCLE
  5
14A
  8
0
  6
CONTINUOUS
 62
     7
 10
-938.37437499999965
 20
-558.62500000000011
 30
0.0
 40
3.25
  0
CIRCLE
  5
14B
  8
0
  6
CONTINUOUS
 62
     7
 10
-954.37437499999965
 20
-558.62500000000011
 30
0.0
 40
3.25
  0
CIRCLE
  5
14C
  8
0
  6
CONTINUOUS
 62
     7
 10
-970.37437499999965
 20
-558.62500000000011
 30
0.0
 40
3.25
  0
CIRCLE
  5
14D
  8
0
  6
CONTINUOUS
 62
     7
 10
-986.37437499999953
 20
-558.62500000000011
 30
0.0
 40
3.25
  0
CIRCLE
  5
14E
  8
0
  6
CONTINUOUS
 62
     7
 10
-1002.374374999999
 20
-558.62500000000011
 30
0.0
 40
3.25
  0
CIRCLE
  5
14F
  8
0
  6
CONTINUOUS
 62
     7
 10
-842.37437499999965
 20
-544.82499999999993
 30
0.0
 40
3.25
  0
CIRCLE
  5
150
  8
0
  6
CONTINUOUS
 62
     7
 10
-826.37437499999965
 20
-544.82499999999993
 30
0.0
 40
3.25
  0
CIRCLE
  5
151
  8
0
  6
CONTINUOUS
 62
     7
 10
-810.37437499999965
 20
-544.82499999999993
 30
0.0
 40
3.25
  0
CIRCLE
  5
152
  8
0
  6
CONTINUOUS
 62
     7
 10
-794.37437499999965
 20
-544.82499999999993
 30
0.0
 40
3.25
  0
CIRCLE
  5
153
  8
0
  6
CONTINUOUS
 62
     7
 10
-778.37437499999965
 20
-544.82499999999993
 30
0.0
 40
3.25
  0
CIRCLE
  5
154
  8
0
  6
CONTINUOUS
 62
     7
 10
-762.37437499999965
 20
-544.82499999999993
 30
0.0
 40
3.25
  0
CIRCLE
  5
155
  8
0
  6
CONTINUOUS
 62
     7
 10
-746.37437499999965
 20
-544.82499999999993
 30
0.0
 40
3.25
  0
CIRCLE
  5
156
  8
0
  6
CONTINUOUS
 62
     7
 10
-730.37437499999965
 20
-544.82499999999993
 30
0.0
 40
3.25
  0
CIRCLE
  5
157
  8
0
  6
CONTINUOUS
 62
     7
 10
-714.37437499999965
 20
-544.82499999999993
 30
0.0
 40
3.25
  0
CIRCLE
  5
158
  8
0
  6
CONTINUOUS
 62
     7
 10
-698.37437499999965
 20
-544.82499999999993
 30
0.0
 40
3.25
  0
CIRCLE
  5
159
  8
0
  6
CONTINUOUS
 62
     7
 10
-858.37437499999965
 20
-544.82499999999993
 30
0.0
 40
3.25
  0
CIRCLE
  5
15A
  8
0
  6
CONTINUOUS
 62
     7
 10
-874.37437499999965
 20
-544.82499999999993
 30
0.0
 40
3.25
  0
CIRCLE
  5
15B
  8
0
  6
CONTINUOUS
 62
     7
 10
-890.37437499999965
 20
-544.82499999999993
 30
0.0
 40
3.25
  0
CIRCLE
  5
15C
  8
0
  6
CONTINUOUS
 62
     7
 10
-906.37437499999965
 20
-544.82499999999993
 30
0.0
 40
3.25
  0
CIRCLE
  5
15D
  8
0
  6
CONTINUOUS
 62
     7
 10
-922.37437499999965
 20
-544.82499999999993
 30
0.0
 40
3.25
  0
CIRCLE
  5
15E
  8
0
  6
CONTINUOUS
 62
     7
 10
-938.37437499999965
 20
-544.82499999999993
 30
0.0
 40
3.25
  0
CIRCLE
  5
15F
  8
0
  6
CONTINUOUS
 62
     7
 10
-954.37437499999965
 20
-544.82499999999993
 30
0.0
 40
3.25
  0
CIRCLE
  5
160
  8
0
  6
CONTINUOUS
 62
     7
 10
-970.37437499999965
 20
-544.82499999999993
 30
0.0
 40
3.25
  0
CIRCLE
  5
161
  8
0
  6
CONTINUOUS
 62
     7
 10
-986.37437499999953
 20
-544.82499999999993
 30
0.0
 40
3.25
  0
CIRCLE
  5
162
  8
0
  6
CONTINUOUS
 62
     7
 10
-1002.374374999999
 20
-544.82499999999993
 30
0.0
 40
3.25
  0
CIRCLE
  5
163
  8
0
  6
CONTINUOUS
 62
     7
 10
-842.37437499999965
 20
-531.02499999999998
 30
0.0
 40
3.25
  0
CIRCLE
  5
164
  8
0
  6
CONTINUOUS
 62
     7
 10
-826.37437499999965
 20
-531.02499999999998
 30
0.0
 40
3.25
  0
CIRCLE
  5
165
  8
0
  6
CONTINUOUS
 62
     7
 10
-810.37437499999965
 20
-531.02499999999998
 30
0.0
 40
3.25
  0
CIRCLE
  5
166
  8
0
  6
CONTINUOUS
 62
     7
 10
-794.37437499999965
 20
-531.02499999999998
 30
0.0
 40
3.25
  0
CIRCLE
  5
167
  8
0
  6
CONTINUOUS
 62
     7
 10
-778.37437499999965
 20
-531.02499999999998
 30
0.0
 40
3.25
  0
CIRCLE
  5
168
  8
0
  6
CONTINUOUS
 62
     7
 10
-762.37437499999965
 20
-531.02499999999998
 30
0.0
 40
3.25
  0
CIRCLE
  5
169
  8
0
  6
CONTINUOUS
 62
     7
 10
-746.37437499999965
 20
-531.02499999999998
 30
0.0
 40
3.25
  0
CIRCLE
  5
16A
  8
0
  6
CONTINUOUS
 62
     7
 10
-730.37437499999965
 20
-531.02499999999998
 30
0.0
 40
3.25
  0
CIRCLE
  5
16B
  8
0
  6
CONTINUOUS
 62
     7
 10
-714.37437499999965
 20
-531.02499999999998
 30
0.0
 40
3.25
  0
CIRCLE
  5
16C
  8
0
  6
CONTINUOUS
 62
     7
 10
-698.37437499999965
 20
-531.02499999999998
 30
0.0
 40
3.25
  0
CIRCLE
  5
16D
  8
0
  6
CONTINUOUS
 62
     7
 10
-858.37437499999965
 20
-531.02499999999998
 30
0.0
 40
3.25
  0
CIRCLE
  5
16E
  8
0
  6
CONTINUOUS
 62
     7
 10
-874.37437499999965
 20
-531.02499999999998
 30
0.0
 40
3.25
  0
CIRCLE
  5
16F
  8
0
  6
CONTINUOUS
 62
     7
 10
-890.37437499999965
 20
-531.02499999999998
 30
0.0
 40
3.25
  0
CIRCLE
  5
170
  8
0
  6
CONTINUOUS
 62
     7
 10
-906.37437499999965
 20
-531.02499999999998
 30
0.0
 40
3.25
  0
CIRCLE
  5
171
  8
0
  6
CONTINUOUS
 62
     7
 10
-922.37437499999965
 20
-531.02499999999998
 30
0.0
 40
3.25
  0
CIRCLE
  5
172
  8
0
  6
CONTINUOUS
 62
     7
 10
-938.37437499999965
 20
-531.02499999999998
 30
0.0
 40
3.25
  0
CIRCLE
  5
173
  8
0
  6
CONTINUOUS
 62
     7
 10
-954.37437499999965
 20
-531.02499999999998
 30
0.0
 40
3.25
  0
CIRCLE
  5
174
  8
0
  6
CONTINUOUS
 62
     7
 10
-970.37437499999965
 20
-531.02499999999998
 30
0.0
 40
3.25
  0
CIRCLE
  5
175
  8
0
  6
CONTINUOUS
 62
     7
 10
-986.37437499999953
 20
-531.02499999999998
 30
0.0
 40
3.25
  0
CIRCLE
  5
176
  8
0
  6
CONTINUOUS
 62
     7
 10
-1002.374374999999
 20
-531.02499999999998
 30
0.0
 40
3.25
  0
CIRCLE
  5
177
  8
0
  6
CONTINUOUS
 62
     7
 10
-842.37437499999965
 20
-517.22500000000014
 30
0.0
 40
3.25
  0
CIRCLE
  5
178
  8
0
  6
CONTINUOUS
 62
     7
 10
-826.37437499999965
 20
-517.22500000000014
 30
0.0
 40
3.25
  0
CIRCLE
  5
179
  8
0
  6
CONTINUOUS
 62
     7
 10
-810.37437499999965
 20
-517.22500000000014
 30
0.0
 40
3.25
  0
CIRCLE
  5
17A
  8
0
  6
CONTINUOUS
 62
     7
 10
-794.37437499999965
 20
-517.22500000000014
 30
0.0
 40
3.25
  0
CIRCLE
  5
17B
  8
0
  6
CONTINUOUS
 62
     7
 10
-778.37437499999965
 20
-517.22500000000014
 30
0.0
 40
3.25
  0
CIRCLE
  5
17C
  8
0
  6
CONTINUOUS
 62
     7
 10
-762.37437499999965
 20
-517.22500000000014
 30
0.0
 40
3.25
  0
CIRCLE
  5
17D
  8
0
  6
CONTINUOUS
 62
     7
 10
-746.37437499999965
 20
-517.22500000000014
 30
0.0
 40
3.25
  0
CIRCLE
  5
17E
  8
0
  6
CONTINUOUS
 62
     7
 10
-730.37437499999965
 20
-517.22500000000014
 30
0.0
 40
3.25
  0
CIRCLE
  5
17F
  8
0
  6
CONTINUOUS
 62
     7
 10
-714.37437499999965
 20
-517.22500000000014
 30
0.0
 40
3.25
  0
CIRCLE
  5
180
  8
0
  6
CONTINUOUS
 62
     7
 10
-698.37437499999965
 20
-517.22500000000014
 30
0.0
 40
3.25
  0
CIRCLE
  5
181
  8
0
  6
CONTINUOUS
 62
     7
 10
-858.37437499999965
 20
-517.22500000000014
 30
0.0
 40
3.25
  0
CIRCLE
  5
182
  8
0
  6
CONTINUOUS
 62
     7
 10
-874.37437499999965
 20
-517.22500000000014
 30
0.0
 40
3.25
  0
CIRCLE
  5
183
  8
0
  6
CONTINUOUS
 62
     7
 10
-890.37437499999965
 20
-517.22500000000014
 30
0.0
 40
3.25
  0
CIRCLE
  5
184
  8
0
  6
CONTINUOUS
 62
     7
 10
-906.37437499999965
 20
-517.22500000000014
 30
0.0
 40
3.25
  0
CIRCLE
  5
185
  8
0
  6
CONTINUOUS
 62
     7
 10
-922.37437499999965
 20
-517.22500000000014
 30
0.0
 40
3.25
  0
CIRCLE
  5
186
  8
0
  6
CONTINUOUS
 62
     7
 10
-938.37437499999965
 20
-517.22500000000014
 30
0.0
 40
3.25
  0
CIRCLE
  5
187
  8
0
  6
CONTINUOUS
 62
     7
 10
-954.37437499999965
 20
-517.22500000000014
 30
0.0
 40
3.25
  0
CIRCLE
  5
188
  8
0
  6
CONTINUOUS
 62
     7
 10
-970.37437499999965
 20
-517.22500000000014
 30
0.0
 40
3.25
  0
CIRCLE
  5
189
  8
0
  6
CONTINUOUS
 62
     7
 10
-986.37437499999953
 20
-517.22500000000014
 30
0.0
 40
3.25
  0
CIRCLE
  5
18A
  8
0
  6
CONTINUOUS
 62
     7
 10
-1002.374374999999
 20
-517.22500000000014
 30
0.0
 40
3.25
  0
CIRCLE
  5
18B
  8
0
  6
CONTINUOUS
 62
     7
 10
-842.37437499999965
 20
-503.42500000000001
 30
0.0
 40
3.25
  0
CIRCLE
  5
18C
  8
0
  6
CONTINUOUS
 62
     7
 10
-826.37437499999965
 20
-503.42500000000001
 30
0.0
 40
3.25
  0
CIRCLE
  5
18D
  8
0
  6
CONTINUOUS
 62
     7
 10
-810.37437499999965
 20
-503.42500000000001
 30
0.0
 40
3.25
  0
CIRCLE
  5
18E
  8
0
  6
CONTINUOUS
 62
     7
 10
-794.37437499999965
 20
-503.42500000000001
 30
0.0
 40
3.25
  0
CIRCLE
  5
18F
  8
0
  6
CONTINUOUS
 62
     7
 10
-778.37437499999965
 20
-503.42500000000001
 30
0.0
 40
3.25
  0
CIRCLE
  5
190
  8
0
  6
CONTINUOUS
 62
     7
 10
-762.37437499999965
 20
-503.42500000000001
 30
0.0
 40
3.25
  0
CIRCLE
  5
191
  8
0
  6
CONTINUOUS
 62
     7
 10
-746.37437499999965
 20
-503.42500000000001
 30
0.0
 40
3.25
  0
CIRCLE
  5
192
  8
0
  6
CONTINUOUS
 62
     7
 10
-730.37437499999965
 20
-503.42500000000001
 30
0.0
 40
3.25
  0
CIRCLE
  5
193
  8
0
  6
CONTINUOUS
 62
     7
 10
-714.37437499999965
 20
-503.42500000000001
 30
0.0
 40
3.25
  0
CIRCLE
  5
194
  8
0
  6
CONTINUOUS
 62
     7
 10
-698.37437499999965
 20
-503.42500000000001
 30
0.0
 40
3.25
  0
CIRCLE
  5
195
  8
0
  6
CONTINUOUS
 62
     7
 10
-858.37437499999965
 20
-503.42500000000001
 30
0.0
 40
3.25
  0
CIRCLE
  5
196
  8
0
  6
CONTINUOUS
 62
     7
 10
-874.37437499999965
 20
-503.42500000000001
 30
0.0
 40
3.25
  0
CIRCLE
  5
197
  8
0
  6
CONTINUOUS
 62
     7
 10
-890.37437499999965
 20
-503.42500000000001
 30
0.0
 40
3.25
  0
CIRCLE
  5
198
  8
0
  6
CONTINUOUS
 62
     7
 10
-906.37437499999965
 20
-503.42500000000001
 30
0.0
 40
3.25
  0
CIRCLE
  5
199
  8
0
  6
CONTINUOUS
 62
     7
 10
-922.37437499999965
 20
-503.42500000000001
 30
0.0
 40
3.25
  0
CIRCLE
  5
19A
  8
0
  6
CONTINUOUS
 62
     7
 10
-938.37437499999965
 20
-503.42500000000001
 30
0.0
 40
3.25
  0
CIRCLE
  5
19B
  8
0
  6
CONTINUOUS
 62
     7
 10
-954.37437499999965
 20
-503.42500000000001
 30
0.0
 40
3.25
  0
CIRCLE
  5
19C
  8
0
  6
CONTINUOUS
 62
     7
 10
-970.37437499999965
 20
-503.42500000000001
 30
0.0
 40
3.25
  0
CIRCLE
  5
19D
  8
0
  6
CONTINUOUS
 62
     7
 10
-986.37437499999953
 20
-503.42500000000001
 30
0.0
 40
3.25
  0
CIRCLE
  5
19E
  8
0
  6
CONTINUOUS
 62
     7
 10
-1002.374374999999
 20
-503.42500000000001
 30
0.0
 40
3.25
  0
CIRCLE
  5
19F
  8
0
  6
CONTINUOUS
 62
     7
 10
-810.37437499999965
 20
-737.72500000000014
 30
0.0
 40
3.25
  0
CIRCLE
  5
1A0
  8
0
  6
CONTINUOUS
 62
     7
 10
-794.37437499999965
 20
-737.72500000000014
 30
0.0
 40
3.25
  0
CIRCLE
  5
1A1
  8
0
  6
CONTINUOUS
 62
     7
 10
-778.37437499999965
 20
-737.72500000000014
 30
0.0
 40
3.25
  0
CIRCLE
  5
1A2
  8
0
  6
CONTINUOUS
 62
     7
 10
-762.37437499999965
 20
-737.72500000000014
 30
0.0
 40
3.25
  0
CIRCLE
  5
1A3
  8
0
  6
CONTINUOUS
 62
     7
 10
-746.37437499999965
 20
-737.72500000000014
 30
0.0
 40
3.25
  0
CIRCLE
  5
1A4
  8
0
  6
CONTINUOUS
 62
     7
 10
-730.37437499999965
 20
-737.72500000000014
 30
0.0
 40
3.25
  0
CIRCLE
  5
1A5
  8
0
  6
CONTINUOUS
 62
     7
 10
-714.37437499999965
 20
-737.72500000000014
 30
0.0
 40
3.25
  0
CIRCLE
  5
1A6
  8
0
  6
CONTINUOUS
 62
     7
 10
-698.37437499999965
 20
-737.72500000000014
 30
0.0
 40
3.25
  0
CIRCLE
  5
1A7
  8
0
  6
CONTINUOUS
 62
     7
 10
-906.37437499999965
 20
-737.72500000000014
 30
0.0
 40
3.25
  0
CIRCLE
  5
1A8
  8
0
  6
CONTINUOUS
 62
     7
 10
-922.37437499999965
 20
-737.72500000000014
 30
0.0
 40
3.25
  0
CIRCLE
  5
1A9
  8
0
  6
CONTINUOUS
 62
     7
 10
-938.37437499999965
 20
-737.72500000000014
 30
0.0
 40
3.25
  0
CIRCLE
  5
1AA
  8
0
  6
CONTINUOUS
 62
     7
 10
-954.37437499999965
 20
-737.72500000000014
 30
0.0
 40
3.25
  0
CIRCLE
  5
1AB
  8
0
  6
CONTINUOUS
 62
     7
 10
-970.37437499999965
 20
-737.72500000000014
 30
0.0
 40
3.25
  0
CIRCLE
  5
1AC
  8
0
  6
CONTINUOUS
 62
     7
 10
-986.37437499999953
 20
-737.72500000000014
 30
0.0
 40
3.25
  0
CIRCLE
  5
1AD
  8
0
  6
CONTINUOUS
 62
     7
 10
-1002.374374999999
 20
-737.72500000000014
 30
0.0
 40
3.25
  0
CIRCLE
  5
1AE
  8
0
  6
CONTINUOUS
 62
     7
 10
-810.37437499999965
 20
-751.52499999999975
 30
0.0
 40
3.25
  0
CIRCLE
  5
1AF
  8
0
  6
CONTINUOUS
 62
     7
 10
-794.37437499999965
 20
-751.52499999999975
 30
0.0
 40
3.25
  0
CIRCLE
  5
1B0
  8
0
  6
CONTINUOUS
 62
     7
 10
-778.37437499999965
 20
-751.52499999999975
 30
0.0
 40
3.25
  0
CIRCLE
  5
1B1
  8
0
  6
CONTINUOUS
 62
     7
 10
-762.37437499999965
 20
-751.52499999999975
 30
0.0
 40
3.25
  0
CIRCLE
  5
1B2
  8
0
  6
CONTINUOUS
 62
     7
 10
-746.37437499999965
 20
-751.52499999999975
 30
0.0
 40
3.25
  0
CIRCLE
  5
1B3
  8
0
  6
CONTINUOUS
 62
     7
 10
-730.37437499999965
 20
-751.52499999999975
 30
0.0
 40
3.25
  0
CIRCLE
  5
1B4
  8
0
  6
CONTINUOUS
 62
     7
 10
-714.37437499999965
 20
-751.52499999999975
 30
0.0
 40
3.25
  0
CIRCLE
  5
1B5
  8
0
  6
CONTINUOUS
 62
     7
 10
-698.37437499999965
 20
-751.52499999999975
 30
0.0
 40
3.25
  0
CIRCLE
  5
1B6
  8
0
  6
CONTINUOUS
 62
     7
 10
-906.37437499999965
 20
-751.52499999999975
 30
0.0
 40
3.25
  0
CIRCLE
  5
1B7
  8
0
  6
CONTINUOUS
 62
     7
 10
-922.37437499999965
 20
-751.52499999999975
 30
0.0
 40
3.25
  0
CIRCLE
  5
1B8
  8
0
  6
CONTINUOUS
 62
     7
 10
-938.37437499999965
 20
-751.52499999999975
 30
0.0
 40
3.25
  0
CIRCLE
  5
1B9
  8
0
  6
CONTINUOUS
 62
     7
 10
-954.37437499999965
 20
-751.52499999999975
 30
0.0
 40
3.25
  0
CIRCLE
  5
1BA
  8
0
  6
CONTINUOUS
 62
     7
 10
-970.37437499999965
 20
-751.52499999999975
 30
0.0
 40
3.25
  0
CIRCLE
  5
1BB
  8
0
  6
CONTINUOUS
 62
     7
 10
-986.37437499999953
 20
-751.52499999999975
 30
0.0
 40
3.25
  0
CIRCLE
  5
1BC
  8
0
  6
CONTINUOUS
 62
     7
 10
-1002.374374999999
 20
-751.52499999999975
 30
0.0
 40
3.25
  0
CIRCLE
  5
1BD
  8
0
  6
CONTINUOUS
 62
     7
 10
-842.37437499999965
 20
-765.32499999999982
 30
0.0
 40
3.25
  0
CIRCLE
  5
1BE
  8
0
  6
CONTINUOUS
 62
     7
 10
-826.37437499999965
 20
-765.32499999999982
 30
0.0
 40
3.25
  0
CIRCLE
  5
1BF
  8
0
  6
CONTINUOUS
 62
     7
 10
-810.37437499999965
 20
-765.32499999999982
 30
0.0
 40
3.25
  0
CIRCLE
  5
1C0
  8
0
  6
CONTINUOUS
 62
     7
 10
-794.37437499999965
 20
-765.32499999999982
 30
0.0
 40
3.25
  0
CIRCLE
  5
1C1
  8
0
  6
CONTINUOUS
 62
     7
 10
-778.37437499999965
 20
-765.32499999999982
 30
0.0
 40
3.25
  0
CIRCLE
  5
1C2
  8
0
  6
CONTINUOUS
 62
     7
 10
-762.37437499999965
 20
-765.32499999999982
 30
0.0
 40
3.25
  0
CIRCLE
  5
1C3
  8
0
  6
CONTINUOUS
 62
     7
 10
-746.37437499999965
 20
-765.32499999999982
 30
0.0
 40
3.25
  0
CIRCLE
  5
1C4
  8
0
  6
CONTINUOUS
 62
     7
 10
-730.37437499999965
 20
-765.32499999999982
 30
0.0
 40
3.25
  0
CIRCLE
  5
1C5
  8
0
  6
CONTINUOUS
 62
     7
 10
-714.37437499999965
 20
-765.32499999999982
 30
0.0
 40
3.25
  0
CIRCLE
  5
1C6
  8
0
  6
CONTINUOUS
 62
     7
 10
-698.37437499999965
 20
-765.32499999999982
 30
0.0
 40
3.25
  0
CIRCLE
  5
1C7
  8
0
  6
CONTINUOUS
 62
     7
 10
-858.37437499999965
 20
-765.32499999999982
 30
0.0
 40
3.25
  0
CIRCLE
  5
1C8
  8
0
  6
CONTINUOUS
 62
     7
 10
-874.37437499999965
 20
-765.32499999999982
 30
0.0
 40
3.25
  0
CIRCLE
  5
1C9
  8
0
  6
CONTINUOUS
 62
     7
 10
-890.37437499999965
 20
-765.32499999999982
 30
0.0
 40
3.25
  0
CIRCLE
  5
1CA
  8
0
  6
CONTINUOUS
 62
     7
 10
-906.37437499999965
 20
-765.32499999999982
 30
0.0
 40
3.25
  0
CIRCLE
  5
1CB
  8
0
  6
CONTINUOUS
 62
     7
 10
-922.37437499999965
 20
-765.32499999999982
 30
0.0
 40
3.25
  0
CIRCLE
  5
1CC
  8
0
  6
CONTINUOUS
 62
     7
 10
-938.37437499999965
 20
-765.32499999999982
 30
0.0
 40
3.25
  0
CIRCLE
  5
1CD
  8
0
  6
CONTINUOUS
 62
     7
 10
-954.37437499999965
 20
-765.32499999999982
 30
0.0
 40
3.25
  0
CIRCLE
  5
1CE
  8
0
  6
CONTINUOUS
 62
     7
 10
-970.37437499999965
 20
-765.32499999999982
 30
0.0
 40
3.25
  0
CIRCLE
  5
1CF
  8
0
  6
CONTINUOUS
 62
     7
 10
-986.37437499999953
 20
-765.32499999999982
 30
0.0
 40
3.25
  0
CIRCLE
  5
1D0
  8
0
  6
CONTINUOUS
 62
     7
 10
-1002.374374999999
 20
-765.32499999999982
 30
0.0
 40
3.25
  0
CIRCLE
  5
1D1
  8
0
  6
CONTINUOUS
 62
     7
 10
-842.37437499999965
 20
-779.12500000000011
 30
0.0
 40
3.25
  0
CIRCLE
  5
1D2
  8
0
  6
CONTINUOUS
 62
     7
 10
-826.37437499999965
 20
-779.12500000000011
 30
0.0
 40
3.25
  0
CIRCLE
  5
1D3
  8
0
  6
CONTINUOUS
 62
     7
 10
-810.37437499999965
 20
-779.12500000000011
 30
0.0
 40
3.25
  0
CIRCLE
  5
1D4
  8
0
  6
CONTINUOUS
 62
     7
 10
-794.37437499999965
 20
-779.12500000000011
 30
0.0
 40
3.25
  0
CIRCLE
  5
1D5
  8
0
  6
CONTINUOUS
 62
     7
 10
-778.37437499999965
 20
-779.12500000000011
 30
0.0
 40
3.25
  0
CIRCLE
  5
1D6
  8
0
  6
CONTINUOUS
 62
     7
 10
-762.37437499999965
 20
-779.12500000000011
 30
0.0
 40
3.25
  0
CIRCLE
  5
1D7
  8
0
  6
CONTINUOUS
 62
     7
 10
-746.37437499999965
 20
-779.12500000000011
 30
0.0
 40
3.25
  0
CIRCLE
  5
1D8
  8
0
  6
CONTINUOUS
 62
     7
 10
-730.37437499999965
 20
-779.12500000000011
 30
0.0
 40
3.25
  0
CIRCLE
  5
1D9
  8
0
  6
CONTINUOUS
 62
     7
 10
-714.37437499999965
 20
-779.12500000000011
 30
0.0
 40
3.25
  0
CIRCLE
  5
1DA
  8
0
  6
CONTINUOUS
 62
     7
 10
-698.37437499999965
 20
-779.12500000000011
 30
0.0
 40
3.25
  0
CIRCLE
  5
1DB
  8
0
  6
CONTINUOUS
 62
     7
 10
-858.37437499999965
 20
-779.12500000000011
 30
0.0
 40
3.25
  0
CIRCLE
  5
1DC
  8
0
  6
CONTINUOUS
 62
     7
 10
-874.37437499999965
 20
-779.12500000000011
 30
0.0
 40
3.25
  0
CIRCLE
  5
1DD
  8
0
  6
CONTINUOUS
 62
     7
 10
-890.37437499999965
 20
-779.12500000000011
 30
0.0
 40
3.25
  0
CIRCLE
  5
1DE
  8
0
  6
CONTINUOUS
 62
     7
 10
-906.37437499999965
 20
-779.12500000000011
 30
0.0
 40
3.25
  0
CIRCLE
  5
1DF
  8
0
  6
CONTINUOUS
 62
     7
 10
-922.37437499999965
 20
-779.12500000000011
 30
0.0
 40
3.25
  0
CIRCLE
  5
1E0
  8
0
  6
CONTINUOUS
 62
     7
 10
-938.37437499999965
 20
-779.12500000000011
 30
0.0
 40
3.25
  0
CIRCLE
  5
1E1
  8
0
  6
CONTINUOUS
 62
     7
 10
-954.37437499999965
 20
-779.12500000000011
 30
0.0
 40
3.25
  0
CIRCLE
  5
1E2
  8
0
  6
CONTINUOUS
 62
     7
 10
-970.37437499999965
 20
-779.12500000000011
 30
0.0
 40
3.25
  0
CIRCLE
  5
1E3
  8
0
  6
CONTINUOUS
 62
     7
 10
-986.37437499999953
 20
-779.12500000000011
 30
0.0
 40
3.25
  0
CIRCLE
  5
1E4
  8
0
  6
CONTINUOUS
 62
     7
 10
-1002.374374999999
 20
-779.12500000000011
 30
0.0
 40
3.25
  0
CIRCLE
  5
1E5
  8
0
  6
CONTINUOUS
 62
     7
 10
-842.37437499999965
 20
-792.92499999999984
 30
0.0
 40
3.25
  0
CIRCLE
  5
1E6
  8
0
  6
CONTINUOUS
 62
     7
 10
-826.37437499999965
 20
-792.92499999999984
 30
0.0
 40
3.25
  0
CIRCLE
  5
1E7
  8
0
  6
CONTINUOUS
 62
     7
 10
-810.37437499999965
 20
-792.92499999999984
 30
0.0
 40
3.25
  0
CIRCLE
  5
1E8
  8
0
  6
CONTINUOUS
 62
     7
 10
-794.37437499999965
 20
-792.92499999999984
 30
0.0
 40
3.25
  0
CIRCLE
  5
1E9
  8
0
  6
CONTINUOUS
 62
     7
 10
-778.37437499999965
 20
-792.92499999999984
 30
0.0
 40
3.25
  0
CIRCLE
  5
1EA
  8
0
  6
CONTINUOUS
 62
     7
 10
-762.37437499999965
 20
-792.92499999999984
 30
0.0
 40
3.25
  0
CIRCLE
  5
1EB
  8
0
  6
CONTINUOUS
 62
     7
 10
-746.37437499999965
 20
-792.92499999999984
 30
0.0
 40
3.25
  0
CIRCLE
  5
1EC
  8
0
  6
CONTINUOUS
 62
     7
 10
-730.37437499999965
 20
-792.92499999999984
 30
0.0
 40
3.25
  0
CIRCLE
  5
1ED
  8
0
  6
CONTINUOUS
 62
     7
 10
-714.37437499999965
 20
-792.92499999999984
 30
0.0
 40
3.25
  0
CIRCLE
  5
1EE
  8
0
  6
CONTINUOUS
 62
     7
 10
-698.37437499999965
 20
-792.92499999999984
 30
0.0
 40
3.25
  0
CIRCLE
  5
1EF
  8
0
  6
CONTINUOUS
 62
     7
 10
-858.37437499999965
 20
-792.92499999999984
 30
0.0
 40
3.25
  0
CIRCLE
  5
1F0
  8
0
  6
CONTINUOUS
 62
     7
 10
-874.37437499999965
 20
-792.92499999999984
 30
0.0
 40
3.25
  0
CIRCLE
  5
1F1
  8
0
  6
CONTINUOUS
 62
     7
 10
-890.37437499999965
 20
-792.92499999999984
 30
0.0
 40
3.25
  0
CIRCLE
  5
1F2
  8
0
  6
CONTINUOUS
 62
     7
 10
-906.37437499999965
 20
-792.92499999999984
 30
0.0
 40
3.25
  0
CIRCLE
  5
1F3
  8
0
  6
CONTINUOUS
 62
     7
 10
-922.37437499999965
 20
-792.92499999999984
 30
0.0
 40
3.25
  0
CIRCLE
  5
1F4
  8
0
  6
CONTINUOUS
 62
     7
 10
-938.37437499999965
 20
-792.92499999999984
 30
0.0
 40
3.25
  0
CIRCLE
  5
1F5
  8
0
  6
CONTINUOUS
 62
     7
 10
-954.37437499999965
 20
-792.92499999999984
 30
0.0
 40
3.25
  0
CIRCLE
  5
1F6
  8
0
  6
CONTINUOUS
 62
     7
 10
-970.37437499999965
 20
-792.92499999999984
 30
0.0
 40
3.25
  0
CIRCLE
  5
1F7
  8
0
  6
CONTINUOUS
 62
     7
 10
-986.37437499999953
 20
-792.92499999999984
 30
0.0
 40
3.25
  0
CIRCLE
  5
1F8
  8
0
  6
CONTINUOUS
 62
     7
 10
-1002.374374999999
 20
-792.92499999999984
 30
0.0
 40
3.25
  0
CIRCLE
  5
1F9
  8
0
  6
CONTINUOUS
 62
     7
 10
-842.37437499999965
 20
-806.72500000000014
 30
0.0
 40
3.25
  0
CIRCLE
  5
1FA
  8
0
  6
CONTINUOUS
 62
     7
 10
-826.37437499999965
 20
-806.72500000000014
 30
0.0
 40
3.25
  0
CIRCLE
  5
1FB
  8
0
  6
CONTINUOUS
 62
     7
 10
-810.37437499999965
 20
-806.72500000000014
 30
0.0
 40
3.25
  0
CIRCLE
  5
1FC
  8
0
  6
CONTINUOUS
 62
     7
 10
-794.37437499999965
 20
-806.72500000000014
 30
0.0
 40
3.25
  0
CIRCLE
  5
1FD
  8
0
  6
CONTINUOUS
 62
     7
 10
-778.37437499999965
 20
-806.72500000000014
 30
0.0
 40
3.25
  0
CIRCLE
  5
1FE
  8
0
  6
CONTINUOUS
 62
     7
 10
-762.37437499999965
 20
-806.72500000000014
 30
0.0
 40
3.25
  0
CIRCLE
  5
1FF
  8
0
  6
CONTINUOUS
 62
     7
 10
-746.37437499999965
 20
-806.72500000000014
 30
0.0
 40
3.25
  0
CIRCLE
  5
200
  8
0
  6
CONTINUOUS
 62
     7
 10
-730.37437499999965
 20
-806.72500000000014
 30
0.0
 40
3.25
  0
CIRCLE
  5
201
  8
0
  6
CONTINUOUS
 62
     7
 10
-714.37437499999965
 20
-806.72500000000014
 30
0.0
 40
3.25
  0
CIRCLE
  5
202
  8
0
  6
CONTINUOUS
 62
     7
 10
-698.37437499999965
 20
-806.72500000000014
 30
0.0
 40
3.25
  0
CIRCLE
  5
203
  8
0
  6
CONTINUOUS
 62
     7
 10
-858.37437499999965
 20
-806.72500000000014
 30
0.0
 40
3.25
  0
CIRCLE
  5
204
  8
0
  6
CONTINUOUS
 62
     7
 10
-874.37437499999965
 20
-806.72500000000014
 30
0.0
 40
3.25
  0
CIRCLE
  5
205
  8
0
  6
CONTINUOUS
 62
     7
 10
-890.37437499999965
 20
-806.72500000000014
 30
0.0
 40
3.25
  0
CIRCLE
  5
206
  8
0
  6
CONTINUOUS
 62
     7
 10
-906.37437499999965
 20
-806.72500000000014
 30
0.0
 40
3.25
  0
CIRCLE
  5
207
  8
0
  6
CONTINUOUS
 62
     7
 10
-922.37437499999965
 20
-806.72500000000014
 30
0.0
 40
3.25
  0
CIRCLE
  5
208
  8
0
  6
CONTINUOUS
 62
     7
 10
-938.37437499999965
 20
-806.72500000000014
 30
0.0
 40
3.25
  0
CIRCLE
  5
209
  8
0
  6
CONTINUOUS
 62
     7
 10
-954.37437499999965
 20
-806.72500000000014
 30
0.0
 40
3.25
  0
CIRCLE
  5
20A
  8
0
  6
CONTINUOUS
 62
     7
 10
-970.37437499999965
 20
-806.72500000000014
 30
0.0
 40
3.25
  0
CIRCLE
  5
20B
  8
0
  6
CONTINUOUS
 62
     7
 10
-986.37437499999953
 20
-806.72500000000014
 30
0.0
 40
3.25
  0
CIRCLE
  5
20C
  8
0
  6
CONTINUOUS
 62
     7
 10
-1002.374374999999
 20
-806.72500000000014
 30
0.0
 40
3.25
  0
CIRCLE
  5
20D
  8
0
  6
CONTINUOUS
 62
     7
 10
-842.37437499999965
 20
-820.52499999999975
 30
0.0
 40
3.25
  0
CIRCLE
  5
20E
  8
0
  6
CONTINUOUS
 62
     7
 10
-826.37437499999965
 20
-820.52499999999975
 30
0.0
 40
3.25
  0
CIRCLE
  5
20F
  8
0
  6
CONTINUOUS
 62
     7
 10
-810.37437499999965
 20
-820.52499999999975
 30
0.0
 40
3.25
  0
CIRCLE
  5
210
  8
0
  6
CONTINUOUS
 62
     7
 10
-794.37437499999965
 20
-820.52499999999975
 30
0.0
 40
3.25
  0
CIRCLE
  5
211
  8
0
  6
CONTINUOUS
 62
     7
 10
-778.37437499999965
 20
-820.52499999999975
 30
0.0
 40
3.25
  0
CIRCLE
  5
212
  8
0
  6
CONTINUOUS
 62
     7
 10
-762.37437499999965
 20
-820.52499999999975
 30
0.0
 40
3.25
  0
CIRCLE
  5
213
  8
0
  6
CONTINUOUS
 62
     7
 10
-746.37437499999965
 20
-820.52499999999975
 30
0.0
 40
3.25
  0
CIRCLE
  5
214
  8
0
  6
CONTINUOUS
 62
     7
 10
-730.37437499999965
 20
-820.52499999999975
 30
0.0
 40
3.25
  0
CIRCLE
  5
215
  8
0
  6
CONTINUOUS
 62
     7
 10
-714.37437499999965
 20
-820.52499999999975
 30
0.0
 40
3.25
  0
CIRCLE
  5
216
  8
0
  6
CONTINUOUS
 62
     7
 10
-698.37437499999965
 20
-820.52499999999975
 30
0.0
 40
3.25
  0
CIRCLE
  5
217
  8
0
  6
CONTINUOUS
 62
     7
 10
-858.37437499999965
 20
-820.52499999999975
 30
0.0
 40
3.25
  0
CIRCLE
  5
218
  8
0
  6
CONTINUOUS
 62
     7
 10
-874.37437499999965
 20
-820.52499999999975
 30
0.0
 40
3.25
  0
CIRCLE
  5
219
  8
0
  6
CONTINUOUS
 62
     7
 10
-890.37437499999965
 20
-820.52499999999975
 30
0.0
 40
3.25
  0
CIRCLE
  5
21A
  8
0
  6
CONTINUOUS
 62
     7
 10
-906.37437499999965
 20
-820.52499999999975
 30
0.0
 40
3.25
  0
CIRCLE
  5
21B
  8
0
  6
CONTINUOUS
 62
     7
 10
-922.37437499999965
 20
-820.52499999999975
 30
0.0
 40
3.25
  0
CIRCLE
  5
21C
  8
0
  6
CONTINUOUS
 62
     7
 10
-938.37437499999965
 20
-820.52499999999975
 30
0.0
 40
3.25
  0
CIRCLE
  5
21D
  8
0
  6
CONTINUOUS
 62
     7
 10
-954.37437499999965
 20
-820.52499999999975
 30
0.0
 40
3.25
  0
CIRCLE
  5
21E
  8
0
  6
CONTINUOUS
 62
     7
 10
-970.37437499999965
 20
-820.52499999999975
 30
0.0
 40
3.25
  0
CIRCLE
  5
21F
  8
0
  6
CONTINUOUS
 62
     7
 10
-986.37437499999953
 20
-820.52499999999975
 30
0.0
 40
3.25
  0
CIRCLE
  5
220
  8
0
  6
CONTINUOUS
 62
     7
 10
-1002.374374999999
 20
-820.52499999999975
 30
0.0
 40
3.25
  0
CIRCLE
  5
221
  8
0
  6
CONTINUOUS
 62
     7
 10
-842.37437499999965
 20
-834.3249999999997
 30
0.0
 40
3.25
  0
CIRCLE
  5
222
  8
0
  6
CONTINUOUS
 62
     7
 10
-826.37437499999965
 20
-834.3249999999997
 30
0.0
 40
3.25
  0
CIRCLE
  5
223
  8
0
  6
CONTINUOUS
 62
     7
 10
-810.37437499999965
 20
-834.3249999999997
 30
0.0
 40
3.25
  0
CIRCLE
  5
224
  8
0
  6
CONTINUOUS
 62
     7
 10
-794.37437499999965
 20
-834.3249999999997
 30
0.0
 40
3.25
  0
CIRCLE
  5
225
  8
0
  6
CONTINUOUS
 62
     7
 10
-778.37437499999965
 20
-834.3249999999997
 30
0.0
 40
3.25
  0
CIRCLE
  5
226
  8
0
  6
CONTINUOUS
 62
     7
 10
-762.37437499999965
 20
-834.3249999999997
 30
0.0
 40
3.25
  0
CIRCLE
  5
227
  8
0
  6
CONTINUOUS
 62
     7
 10
-746.37437499999965
 20
-834.3249999999997
 30
0.0
 40
3.25
  0
CIRCLE
  5
228
  8
0
  6
CONTINUOUS
 62
     7
 10
-730.37437499999965
 20
-834.3249999999997
 30
0.0
 40
3.25
  0
CIRCLE
  5
229
  8
0
  6
CONTINUOUS
 62
     7
 10
-714.37437499999965
 20
-834.3249999999997
 30
0.0
 40
3.25
  0
CIRCLE
  5
22A
  8
0
  6
CONTINUOUS
 62
     7
 10
-698.37437499999965
 20
-834.3249999999997
 30
0.0
 40
3.25
  0
CIRCLE
  5
22B
  8
0
  6
CONTINUOUS
 62
     7
 10
-858.37437499999965
 20
-834.3249999999997
 30
0.0
 40
3.25
  0
CIRCLE
  5
22C
  8
0
  6
CONTINUOUS
 62
     7
 10
-874.37437499999965
 20
-834.3249999999997
 30
0.0
 40
3.25
  0
CIRCLE
  5
22D
  8
0
  6
CONTINUOUS
 62
     7
 10
-890.37437499999965
 20
-834.3249999999997
 30
0.0
 40
3.25
  0
CIRCLE
  5
22E
  8
0
  6
CONTINUOUS
 62
     7
 10
-906.37437499999965
 20
-834.3249999999997
 30
0.0
 40
3.25
  0
CIRCLE
  5
22F
  8
0
  6
CONTINUOUS
 62
     7
 10
-922.37437499999965
 20
-834.3249999999997
 30
0.0
 40
3.25
  0
CIRCLE
  5
230
  8
0
  6
CONTINUOUS
 62
     7
 10
-938.37437499999965
 20
-834.3249999999997
 30
0.0
 40
3.25
  0
CIRCLE
  5
231
  8
0
  6
CONTINUOUS
 62
     7
 10
-954.37437499999965
 20
-834.3249999999997
 30
0.0
 40
3.25
  0
CIRCLE
  5
232
  8
0
  6
CONTINUOUS
 62
     7
 10
-970.37437499999965
 20
-834.3249999999997
 30
0.0
 40
3.25
  0
CIRCLE
  5
233
  8
0
  6
CONTINUOUS
 62
     7
 10
-986.37437499999953
 20
-834.3249999999997
 30
0.0
 40
3.25
  0
CIRCLE
  5
234
  8
0
  6
CONTINUOUS
 62
     7
 10
-1002.374374999999
 20
-834.3249999999997
 30
0.0
 40
3.25
  0
CIRCLE
  5
235
  8
0
  6
CONTINUOUS
 62
     7
 10
-842.37437499999965
 20
-848.12500000000011
 30
0.0
 40
3.25
  0
CIRCLE
  5
236
  8
0
  6
CONTINUOUS
 62
     7
 10
-826.37437499999965
 20
-848.12500000000011
 30
0.0
 40
3.25
  0
CIRCLE
  5
237
  8
0
  6
CONTINUOUS
 62
     7
 10
-810.37437499999965
 20
-848.12500000000011
 30
0.0
 40
3.25
  0
CIRCLE
  5
238
  8
0
  6
CONTINUOUS
 62
     7
 10
-794.37437499999965
 20
-848.12500000000011
 30
0.0
 40
3.25
  0
CIRCLE
  5
239
  8
0
  6
CONTINUOUS
 62
     7
 10
-778.37437499999965
 20
-848.12500000000011
 30
0.0
 40
3.25
  0
CIRCLE
  5
23A
  8
0
  6
CONTINUOUS
 62
     7
 10
-762.37437499999965
 20
-848.12500000000011
 30
0.0
 40
3.25
  0
CIRCLE
  5
23B
  8
0
  6
CONTINUOUS
 62
     7
 10
-746.37437499999965
 20
-848.12500000000011
 30
0.0
 40
3.25
  0
CIRCLE
  5
23C
  8
0
  6
CONTINUOUS
 62
     7
 10
-730.37437499999965
 20
-848.12500000000011
 30
0.0
 40
3.25
  0
CIRCLE
  5
23D
  8
0
  6
CONTINUOUS
 62
     7
 10
-714.37437499999965
 20
-848.12500000000011
 30
0.0
 40
3.25
  0
CIRCLE
  5
23E
  8
0
  6
CONTINUOUS
 62
     7
 10
-698.37437499999965
 20
-848.12500000000011
 30
0.0
 40
3.25
  0
CIRCLE
  5
23F
  8
0
  6
CONTINUOUS
 62
     7
 10
-858.37437499999965
 20
-848.12500000000011
 30
0.0
 40
3.25
  0
CIRCLE
  5
240
  8
0
  6
CONTINUOUS
 62
     7
 10
-874.37437499999965
 20
-848.12500000000011
 30
0.0
 40
3.25
  0
CIRCLE
  5
241
  8
0
  6
CONTINUOUS
 62
     7
 10
-890.37437499999965
 20
-848.12500000000011
 30
0.0
 40
3.25
  0
CIRCLE
  5
242
  8
0
  6
CONTINUOUS
 62
     7
 10
-906.37437499999965
 20
-848.12500000000011
 30
0.0
 40
3.25
  0
CIRCLE
  5
243
  8
0
  6
CONTINUOUS
 62
     7
 10
-922.37437499999965
 20
-848.12500000000011
 30
0.0
 40
3.25
  0
CIRCLE
  5
244
  8
0
  6
CONTINUOUS
 62
     7
 10
-938.37437499999965
 20
-848.12500000000011
 30
0.0
 40
3.25
  0
CIRCLE
  5
245
  8
0
  6
CONTINUOUS
 62
     7
 10
-954.37437499999965
 20
-848.12500000000011
 30
0.0
 40
3.25
  0
CIRCLE
  5
246
  8
0
  6
CONTINUOUS
 62
     7
 10
-970.37437499999965
 20
-848.12500000000011
 30
0.0
 40
3.25
  0
CIRCLE
  5
247
  8
0
  6
CONTINUOUS
 62
     7
 10
-986.37437499999953
 20
-848.12500000000011
 30
0.0
 40
3.25
  0
CIRCLE
  5
248
  8
0
  6
CONTINUOUS
 62
     7
 10
-1002.374374999999
 20
-848.12500000000011
 30
0.0
 40
3.25
  0
CIRCLE
  5
249
  8
0
  6
CONTINUOUS
 62
     7
 10
-842.37437499999965
 20
-861.92499999999995
 30
0.0
 40
3.25
  0
CIRCLE
  5
24A
  8
0
  6
CONTINUOUS
 62
     7
 10
-826.37437499999965
 20
-861.92499999999995
 30
0.0
 40
3.25
  0
CIRCLE
  5
24B
  8
0
  6
CONTINUOUS
 62
     7
 10
-810.37437499999965
 20
-861.92499999999995
 30
0.0
 40
3.25
  0
CIRCLE
  5
24C
  8
0
  6
CONTINUOUS
 62
     7
 10
-794.37437499999965
 20
-861.92499999999995
 30
0.0
 40
3.25
  0
CIRCLE
  5
24D
  8
0
  6
CONTINUOUS
 62
     7
 10
-778.37437499999965
 20
-861.92499999999995
 30
0.0
 40
3.25
  0
CIRCLE
  5
24E
  8
0
  6
CONTINUOUS
 62
     7
 10
-762.37437499999965
 20
-861.92499999999995
 30
0.0
 40
3.25
  0
CIRCLE
  5
24F
  8
0
  6
CONTINUOUS
 62
     7
 10
-746.37437499999965
 20
-861.92499999999995
 30
0.0
 40
3.25
  0
CIRCLE
  5
250
  8
0
  6
CONTINUOUS
 62
     7
 10
-730.37437499999965
 20
-861.92499999999995
 30
0.0
 40
3.25
  0
CIRCLE
  5
251
  8
0
  6
CONTINUOUS
 62
     7
 10
-714.37437499999965
 20
-861.92499999999995
 30
0.0
 40
3.25
  0
CIRCLE
  5
252
  8
0
  6
CONTINUOUS
 62
     7
 10
-698.37437499999965
 20
-861.92499999999995
 30
0.0
 40
3.25
  0
CIRCLE
  5
253
  8
0
  6
CONTINUOUS
 62
     7
 10
-858.37437499999965
 20
-861.92499999999995
 30
0.0
 40
3.25
  0
CIRCLE
  5
254
  8
0
  6
CONTINUOUS
 62
     7
 10
-874.37437499999965
 20
-861.92499999999995
 30
0.0
 40
3.25
  0
CIRCLE
  5
255
  8
0
  6
CONTINUOUS
 62
     7
 10
-890.37437499999965
 20
-861.92499999999995
 30
0.0
 40
3.25
  0
CIRCLE
  5
256
  8
0
  6
CONTINUOUS
 62
     7
 10
-906.37437499999965
 20
-861.92499999999995
 30
0.0
 40
3.25
  0
CIRCLE
  5
257
  8
0
  6
CONTINUOUS
 62
     7
 10
-922.37437499999965
 20
-861.92499999999995
 30
0.0
 40
3.25
  0
CIRCLE
  5
258
  8
0
  6
CONTINUOUS
 62
     7
 10
-938.37437499999965
 20
-861.92499999999995
 30
0.0
 40
3.25
  0
CIRCLE
  5
259
  8
0
  6
CONTINUOUS
 62
     7
 10
-954.37437499999965
 20
-861.92499999999995
 30
0.0
 40
3.25
  0
CIRCLE
  5
25A
  8
0
  6
CONTINUOUS
 62
     7
 10
-970.37437499999965
 20
-861.92499999999995
 30
0.0
 40
3.25
  0
CIRCLE
  5
25B
  8
0
  6
CONTINUOUS
 62
     7
 10
-986.37437499999953
 20
-861.92499999999995
 30
0.0
 40
3.25
  0
CIRCLE
  5
25C
  8
0
  6
CONTINUOUS
 62
     7
 10
-1002.374374999999
 20
-861.92499999999995
 30
0.0
 40
3.25
  0
CIRCLE
  5
25D
  8
0
  6
CONTINUOUS
 62
     7
 10
-842.37437499999965
 20
-875.72500000000002
 30
0.0
 40
3.25
  0
CIRCLE
  5
25E
  8
0
  6
CONTINUOUS
 62
     7
 10
-826.37437499999965
 20
-875.72500000000002
 30
0.0
 40
3.25
  0
CIRCLE
  5
25F
  8
0
  6
CONTINUOUS
 62
     7
 10
-810.37437499999965
 20
-875.72500000000002
 30
0.0
 40
3.25
  0
CIRCLE
  5
260
  8
0
  6
CONTINUOUS
 62
     7
 10
-794.37437499999965
 20
-875.72500000000002
 30
0.0
 40
3.25
  0
CIRCLE
  5
261
  8
0
  6
CONTINUOUS
 62
     7
 10
-778.37437499999965
 20
-875.72500000000002
 30
0.0
 40
3.25
  0
CIRCLE
  5
262
  8
0
  6
CONTINUOUS
 62
     7
 10
-762.37437499999965
 20
-875.72500000000002
 30
0.0
 40
3.25
  0
CIRCLE
  5
263
  8
0
  6
CONTINUOUS
 62
     7
 10
-746.37437499999965
 20
-875.72500000000002
 30
0.0
 40
3.25
  0
CIRCLE
  5
264
  8
0
  6
CONTINUOUS
 62
     7
 10
-730.37437499999965
 20
-875.72500000000002
 30
0.0
 40
3.25
  0
CIRCLE
  5
265
  8
0
  6
CONTINUOUS
 62
     7
 10
-714.37437499999965
 20
-875.72500000000002
 30
0.0
 40
3.25
  0
CIRCLE
  5
266
  8
0
  6
CONTINUOUS
 62
     7
 10
-698.37437499999965
 20
-875.72500000000002
 30
0.0
 40
3.25
  0
CIRCLE
  5
267
  8
0
  6
CONTINUOUS
 62
     7
 10
-858.37437499999965
 20
-875.72500000000002
 30
0.0
 40
3.25
  0
CIRCLE
  5
268
  8
0
  6
CONTINUOUS
 62
     7
 10
-874.37437499999965
 20
-875.72500000000002
 30
0.0
 40
3.25
  0
CIRCLE
  5
269
  8
0
  6
CONTINUOUS
 62
     7
 10
-890.37437499999965
 20
-875.72500000000002
 30
0.0
 40
3.25
  0
CIRCLE
  5
26A
  8
0
  6
CONTINUOUS
 62
     7
 10
-906.37437499999965
 20
-875.72500000000002
 30
0.0
 40
3.25
  0
CIRCLE
  5
26B
  8
0
  6
CONTINUOUS
 62
     7
 10
-922.37437499999965
 20
-875.72500000000002
 30
0.0
 40
3.25
  0
CIRCLE
  5
26C
  8
0
  6
CONTINUOUS
 62
     7
 10
-938.37437499999965
 20
-875.72500000000002
 30
0.0
 40
3.25
  0
CIRCLE
  5
26D
  8
0
  6
CONTINUOUS
 62
     7
 10
-954.37437499999965
 20
-875.72500000000002
 30
0.0
 40
3.25
  0
CIRCLE
  5
26E
  8
0
  6
CONTINUOUS
 62
     7
 10
-970.37437499999965
 20
-875.72500000000002
 30
0.0
 40
3.25
  0
CIRCLE
  5
26F
  8
0
  6
CONTINUOUS
 62
     7
 10
-986.37437499999953
 20
-875.72500000000002
 30
0.0
 40
3.25
  0
CIRCLE
  5
270
  8
0
  6
CONTINUOUS
 62
     7
 10
-1002.374374999999
 20
-875.72500000000002
 30
0.0
 40
3.25
  0
CIRCLE
  5
271
  8
0
  6
CONTINUOUS
 62
     7
 10
-842.37437499999965
 20
-889.52499999999975
 30
0.0
 40
3.25
  0
CIRCLE
  5
272
  8
0
  6
CONTINUOUS
 62
     7
 10
-826.37437499999965
 20
-889.52499999999975
 30
0.0
 40
3.25
  0
CIRCLE
  5
273
  8
0
  6
CONTINUOUS
 62
     7
 10
-810.37437499999965
 20
-889.52499999999975
 30
0.0
 40
3.25
  0
CIRCLE
  5
274
  8
0
  6
CONTINUOUS
 62
     7
 10
-794.37437499999965
 20
-889.52499999999975
 30
0.0
 40
3.25
  0
CIRCLE
  5
275
  8
0
  6
CONTINUOUS
 62
     7
 10
-778.37437499999965
 20
-889.52499999999975
 30
0.0
 40
3.25
  0
CIRCLE
  5
276
  8
0
  6
CONTINUOUS
 62
     7
 10
-762.37437499999965
 20
-889.52499999999975
 30
0.0
 40
3.25
  0
CIRCLE
  5
277
  8
0
  6
CONTINUOUS
 62
     7
 10
-746.37437499999965
 20
-889.52499999999975
 30
0.0
 40
3.25
  0
CIRCLE
  5
278
  8
0
  6
CONTINUOUS
 62
     7
 10
-730.37437499999965
 20
-889.52499999999975
 30
0.0
 40
3.25
  0
CIRCLE
  5
279
  8
0
  6
CONTINUOUS
 62
     7
 10
-714.37437499999965
 20
-889.52499999999975
 30
0.0
 40
3.25
  0
CIRCLE
  5
27A
  8
0
  6
CONTINUOUS
 62
     7
 10
-698.37437499999965
 20
-889.52499999999975
 30
0.0
 40
3.25
  0
CIRCLE
  5
27B
  8
0
  6
CONTINUOUS
 62
     7
 10
-858.37437499999965
 20
-889.52499999999975
 30
0.0
 40
3.25
  0
CIRCLE
  5
27C
  8
0
  6
CONTINUOUS
 62
     7
 10
-874.37437499999965
 20
-889.52499999999975
 30
0.0
 40
3.25
  0
CIRCLE
  5
27D
  8
0
  6
CONTINUOUS
 62
     7
 10
-890.37437499999965
 20
-889.52499999999975
 30
0.0
 40
3.25
  0
CIRCLE
  5
27E
  8
0
  6
CONTINUOUS
 62
     7
 10
-906.37437499999965
 20
-889.52499999999975
 30
0.0
 40
3.25
  0
CIRCLE
  5
27F
  8
0
  6
CONTINUOUS
 62
     7
 10
-922.37437499999965
 20
-889.52499999999975
 30
0.0
 40
3.25
  0
CIRCLE
  5
280
  8
0
  6
CONTINUOUS
 62
     7
 10
-938.37437499999965
 20
-889.52499999999975
 30
0.0
 40
3.25
  0
CIRCLE
  5
281
  8
0
  6
CONTINUOUS
 62
     7
 10
-954.37437499999965
 20
-889.52499999999975
 30
0.0
 40
3.25
  0
CIRCLE
  5
282
  8
0
  6
CONTINUOUS
 62
     7
 10
-970.37437499999965
 20
-889.52499999999975
 30
0.0
 40
3.25
  0
CIRCLE
  5
283
  8
0
  6
CONTINUOUS
 62
     7
 10
-986.37437499999953
 20
-889.52499999999975
 30
0.0
 40
3.25
  0
CIRCLE
  5
284
  8
0
  6
CONTINUOUS
 62
     7
 10
-1002.374374999999
 20
-889.52499999999975
 30
0.0
 40
3.25
  0
CIRCLE
  5
285
  8
0
  6
CONTINUOUS
 62
     7
 10
-842.37437499999965
 20
-903.32499999999982
 30
0.0
 40
3.25
  0
CIRCLE
  5
286
  8
0
  6
CONTINUOUS
 62
     7
 10
-826.37437499999965
 20
-903.32499999999982
 30
0.0
 40
3.25
  0
CIRCLE
  5
287
  8
0
  6
CONTINUOUS
 62
     7
 10
-810.37437499999965
 20
-903.32499999999982
 30
0.0
 40
3.25
  0
CIRCLE
  5
288
  8
0
  6
CONTINUOUS
 62
     7
 10
-794.37437499999965
 20
-903.32499999999982
 30
0.0
 40
3.25
  0
CIRCLE
  5
289
  8
0
  6
CONTINUOUS
 62
     7
 10
-778.37437499999965
 20
-903.32499999999982
 30
0.0
 40
3.25
  0
CIRCLE
  5
28A
  8
0
  6
CONTINUOUS
 62
     7
 10
-762.37437499999965
 20
-903.32499999999982
 30
0.0
 40
3.25
  0
CIRCLE
  5
28B
  8
0
  6
CONTINUOUS
 62
     7
 10
-746.37437499999965
 20
-903.32499999999982
 30
0.0
 40
3.25
  0
CIRCLE
  5
28C
  8
0
  6
CONTINUOUS
 62
     7
 10
-730.37437499999965
 20
-903.32499999999982
 30
0.0
 40
3.25
  0
CIRCLE
  5
28D
  8
0
  6
CONTINUOUS
 62
     7
 10
-714.37437499999965
 20
-903.32499999999982
 30
0.0
 40
3.25
  0
CIRCLE
  5
28E
  8
0
  6
CONTINUOUS
 62
     7
 10
-698.37437499999965
 20
-903.32499999999982
 30
0.0
 40
3.25
  0
CIRCLE
  5
28F
  8
0
  6
CONTINUOUS
 62
     7
 10
-858.37437499999965
 20
-903.32499999999982
 30
0.0
 40
3.25
  0
CIRCLE
  5
290
  8
0
  6
CONTINUOUS
 62
     7
 10
-874.37437499999965
 20
-903.32499999999982
 30
0.0
 40
3.25
  0
CIRCLE
  5
291
  8
0
  6
CONTINUOUS
 62
     7
 10
-890.37437499999965
 20
-903.32499999999982
 30
0.0
 40
3.25
  0
CIRCLE
  5
292
  8
0
  6
CONTINUOUS
 62
     7
 10
-906.37437499999965
 20
-903.32499999999982
 30
0.0
 40
3.25
  0
CIRCLE
  5
293
  8
0
  6
CONTINUOUS
 62
     7
 10
-922.37437499999965
 20
-903.32499999999982
 30
0.0
 40
3.25
  0
CIRCLE
  5
294
  8
0
  6
CONTINUOUS
 62
     7
 10
-938.37437499999965
 20
-903.32499999999982
 30
0.0
 40
3.25
  0
CIRCLE
  5
295
  8
0
  6
CONTINUOUS
 62
     7
 10
-954.37437499999965
 20
-903.32499999999982
 30
0.0
 40
3.25
  0
CIRCLE
  5
296
  8
0
  6
CONTINUOUS
 62
     7
 10
-970.37437499999965
 20
-903.32499999999982
 30
0.0
 40
3.25
  0
CIRCLE
  5
297
  8
0
  6
CONTINUOUS
 62
     7
 10
-986.37437499999953
 20
-903.32499999999982
 30
0.0
 40
3.25
  0
CIRCLE
  5
298
  8
0
  6
CONTINUOUS
 62
     7
 10
-1002.374374999999
 20
-903.32499999999982
 30
0.0
 40
3.25
  0
CIRCLE
  5
299
  8
0
  6
CONTINUOUS
 62
     7
 10
-842.37437499999965
 20
-917.125
 30
0.0
 40
3.25
  0
CIRCLE
  5
29A
  8
0
  6
CONTINUOUS
 62
     7
 10
-826.37437499999965
 20
-917.125
 30
0.0
 40
3.25
  0
CIRCLE
  5
29B
  8
0
  6
CONTINUOUS
 62
     7
 10
-810.37437499999965
 20
-917.125
 30
0.0
 40
3.25
  0
CIRCLE
  5
29C
  8
0
  6
CONTINUOUS
 62
     7
 10
-794.37437499999965
 20
-917.125
 30
0.0
 40
3.25
  0
CIRCLE
  5
29D
  8
0
  6
CONTINUOUS
 62
     7
 10
-778.37437499999965
 20
-917.125
 30
0.0
 40
3.25
  0
CIRCLE
  5
29E
  8
0
  6
CONTINUOUS
 62
     7
 10
-762.37437499999965
 20
-917.125
 30
0.0
 40
3.25
  0
CIRCLE
  5
29F
  8
0
  6
CONTINUOUS
 62
     7
 10
-746.37437499999965
 20
-917.125
 30
0.0
 40
3.25
  0
CIRCLE
  5
2A0
  8
0
  6
CONTINUOUS
 62
     7
 10
-730.37437499999965
 20
-917.125
 30
0.0
 40
3.25
  0
CIRCLE
  5
2A1
  8
0
  6
CONTINUOUS
 62
     7
 10
-714.37437499999965
 20
-917.125
 30
0.0
 40
3.25
  0
CIRCLE
  5
2A2
  8
0
  6
CONTINUOUS
 62
     7
 10
-698.37437499999965
 20
-917.125
 30
0.0
 40
3.25
  0
CIRCLE
  5
2A3
  8
0
  6
CONTINUOUS
 62
     7
 10
-858.37437499999965
 20
-917.125
 30
0.0
 40
3.25
  0
CIRCLE
  5
2A4
  8
0
  6
CONTINUOUS
 62
     7
 10
-874.37437499999965
 20
-917.125
 30
0.0
 40
3.25
  0
CIRCLE
  5
2A5
  8
0
  6
CONTINUOUS
 62
     7
 10
-890.37437499999965
 20
-917.125
 30
0.0
 40
3.25
  0
CIRCLE
  5
2A6
  8
0
  6
CONTINUOUS
 62
     7
 10
-906.37437499999965
 20
-917.125
 30
0.0
 40
3.25
  0
CIRCLE
  5
2A7
  8
0
  6
CONTINUOUS
 62
     7
 10
-922.37437499999965
 20
-917.125
 30
0.0
 40
3.25
  0
CIRCLE
  5
2A8
  8
0
  6
CONTINUOUS
 62
     7
 10
-938.37437499999965
 20
-917.125
 30
0.0
 40
3.25
  0
CIRCLE
  5
2A9
  8
0
  6
CONTINUOUS
 62
     7
 10
-954.37437499999965
 20
-917.125
 30
0.0
 40
3.25
  0
CIRCLE
  5
2AA
  8
0
  6
CONTINUOUS
 62
     7
 10
-970.37437499999965
 20
-917.125
 30
0.0
 40
3.25
  0
CIRCLE
  5
2AB
  8
0
  6
CONTINUOUS
 62
     7
 10
-986.37437499999953
 20
-917.125
 30
0.0
 40
3.25
  0
CIRCLE
  5
2AC
  8
0
  6
CONTINUOUS
 62
     7
 10
-1002.374374999999
 20
-917.125
 30
0.0
 40
3.25
  0
CIRCLE
  5
2AD
  8
0
  6
CONTINUOUS
 62
     7
 10
-842.37437499999965
 20
-930.92499999999995
 30
0.0
 40
3.25
  0
CIRCLE
  5
2AE
  8
0
  6
CONTINUOUS
 62
     7
 10
-826.37437499999965
 20
-930.92499999999995
 30
0.0
 40
3.25
  0
CIRCLE
  5
2AF
  8
0
  6
CONTINUOUS
 62
     7
 10
-810.37437499999965
 20
-930.92499999999995
 30
0.0
 40
3.25
  0
CIRCLE
  5
2B0
  8
0
  6
CONTINUOUS
 62
     7
 10
-794.37437499999965
 20
-930.92499999999995
 30
0.0
 40
3.25
  0
CIRCLE
  5
2B1
  8
0
  6
CONTINUOUS
 62
     7
 10
-778.37437499999965
 20
-930.92499999999995
 30
0.0
 40
3.25
  0
CIRCLE
  5
2B2
  8
0
  6
CONTINUOUS
 62
     7
 10
-762.37437499999965
 20
-930.92499999999995
 30
0.0
 40
3.25
  0
CIRCLE
  5
2B3
  8
0
  6
CONTINUOUS
 62
     7
 10
-746.37437499999965
 20
-930.92499999999995
 30
0.0
 40
3.25
  0
CIRCLE
  5
2B4
  8
0
  6
CONTINUOUS
 62
     7
 10
-730.37437499999965
 20
-930.92499999999995
 30
0.0
 40
3.25
  0
CIRCLE
  5
2B5
  8
0
  6
CONTINUOUS
 62
     7
 10
-714.37437499999965
 20
-930.92499999999995
 30
0.0
 40
3.25
  0
CIRCLE
  5
2B6
  8
0
  6
CONTINUOUS
 62
     7
 10
-698.37437499999965
 20
-930.92499999999995
 30
0.0
 40
3.25
  0
CIRCLE
  5
2B7
  8
0
  6
CONTINUOUS
 62
     7
 10
-858.37437499999965
 20
-930.92499999999995
 30
0.0
 40
3.25
  0
CIRCLE
  5
2B8
  8
0
  6
CONTINUOUS
 62
     7
 10
-874.37437499999965
 20
-930.92499999999995
 30
0.0
 40
3.25
  0
CIRCLE
  5
2B9
  8
0
  6
CONTINUOUS
 62
     7
 10
-890.37437499999965
 20
-930.92499999999995
 30
0.0
 40
3.25
  0
CIRCLE
  5
2BA
  8
0
  6
CONTINUOUS
 62
     7
 10
-906.37437499999965
 20
-930.92499999999995
 30
0.0
 40
3.25
  0
CIRCLE
  5
2BB
  8
0
  6
CONTINUOUS
 62
     7
 10
-922.37437499999965
 20
-930.92499999999995
 30
0.0
 40
3.25
  0
CIRCLE
  5
2BC
  8
0
  6
CONTINUOUS
 62
     7
 10
-938.37437499999965
 20
-930.92499999999995
 30
0.0
 40
3.25
  0
CIRCLE
  5
2BD
  8
0
  6
CONTINUOUS
 62
     7
 10
-954.37437499999965
 20
-930.92499999999995
 30
0.0
 40
3.25
  0
CIRCLE
  5
2BE
  8
0
  6
CONTINUOUS
 62
     7
 10
-970.37437499999965
 20
-930.92499999999995
 30
0.0
 40
3.25
  0
CIRCLE
  5
2BF
  8
0
  6
CONTINUOUS
 62
     7
 10
-986.37437499999953
 20
-930.92499999999995
 30
0.0
 40
3.25
  0
CIRCLE
  5
2C0
  8
0
  6
CONTINUOUS
 62
     7
 10
-1002.374374999999
 20
-930.92499999999995
 30
0.0
 40
3.25
  0
CIRCLE
  5
2C1
  8
0
  6
CONTINUOUS
 62
     7
 10
-842.37437499999965
 20
-944.72500000000002
 30
0.0
 40
3.25
  0
CIRCLE
  5
2C2
  8
0
  6
CONTINUOUS
 62
     7
 10
-826.37437499999965
 20
-944.72500000000002
 30
0.0
 40
3.25
  0
CIRCLE
  5
2C3
  8
0
  6
CONTINUOUS
 62
     7
 10
-810.37437499999965
 20
-944.72500000000002
 30
0.0
 40
3.25
  0
CIRCLE
  5
2C4
  8
0
  6
CONTINUOUS
 62
     7
 10
-794.37437499999965
 20
-944.72500000000002
 30
0.0
 40
3.25
  0
CIRCLE
  5
2C5
  8
0
  6
CONTINUOUS
 62
     7
 10
-778.37437499999965
 20
-944.72500000000002
 30
0.0
 40
3.25
  0
CIRCLE
  5
2C6
  8
0
  6
CONTINUOUS
 62
     7
 10
-762.37437499999965
 20
-944.72500000000002
 30
0.0
 40
3.25
  0
CIRCLE
  5
2C7
  8
0
  6
CONTINUOUS
 62
     7
 10
-746.37437499999965
 20
-944.72500000000002
 30
0.0
 40
3.25
  0
CIRCLE
  5
2C8
  8
0
  6
CONTINUOUS
 62
     7
 10
-730.37437499999965
 20
-944.72500000000002
 30
0.0
 40
3.25
  0
CIRCLE
  5
2C9
  8
0
  6
CONTINUOUS
 62
     7
 10
-714.37437499999965
 20
-944.72500000000002
 30
0.0
 40
3.25
  0
CIRCLE
  5
2CA
  8
0
  6
CONTINUOUS
 62
     7
 10
-698.37437499999965
 20
-944.72500000000002
 30
0.0
 40
3.25
  0
CIRCLE
  5
2CB
  8
0
  6
CONTINUOUS
 62
     7
 10
-858.37437499999965
 20
-944.72500000000002
 30
0.0
 40
3.25
  0
CIRCLE
  5
2CC
  8
0
  6
CONTINUOUS
 62
     7
 10
-874.37437499999965
 20
-944.72500000000002
 30
0.0
 40
3.25
  0
CIRCLE
  5
2CD
  8
0
  6
CONTINUOUS
 62
     7
 10
-890.37437499999965
 20
-944.72500000000002
 30
0.0
 40
3.25
  0
CIRCLE
  5
2CE
  8
0
  6
CONTINUOUS
 62
     7
 10
-906.37437499999965
 20
-944.72500000000002
 30
0.0
 40
3.25
  0
CIRCLE
  5
2CF
  8
0
  6
CONTINUOUS
 62
     7
 10
-922.37437499999965
 20
-944.72500000000002
 30
0.0
 40
3.25
  0
CIRCLE
  5
2D0
  8
0
  6
CONTINUOUS
 62
     7
 10
-938.37437499999965
 20
-944.72500000000002
 30
0.0
 40
3.25
  0
CIRCLE
  5
2D1
  8
0
  6
CONTINUOUS
 62
     7
 10
-954.37437499999965
 20
-944.72500000000002
 30
0.0
 40
3.25
  0
CIRCLE
  5
2D2
  8
0
  6
CONTINUOUS
 62
     7
 10
-970.37437499999965
 20
-944.72500000000002
 30
0.0
 40
3.25
  0
CIRCLE
  5
2D3
  8
0
  6
CONTINUOUS
 62
     7
 10
-986.37437499999953
 20
-944.72500000000002
 30
0.0
 40
3.25
  0
CIRCLE
  5
2D4
  8
0
  6
CONTINUOUS
 62
     7
 10
-1002.374374999999
 20
-944.72500000000002
 30
0.0
 40
3.25
  0
CIRCLE
  5
2D5
  8
0
  6
CONTINUOUS
 62
     7
 10
-842.37437499999965
 20
-958.52500000000032
 30
0.0
 40
3.25
  0
CIRCLE
  5
2D6
  8
0
  6
CONTINUOUS
 62
     7
 10
-826.37437499999965
 20
-958.52500000000032
 30
0.0
 40
3.25
  0
CIRCLE
  5
2D7
  8
0
  6
CONTINUOUS
 62
     7
 10
-810.37437499999965
 20
-958.52500000000032
 30
0.0
 40
3.25
  0
CIRCLE
  5
2D8
  8
0
  6
CONTINUOUS
 62
     7
 10
-794.37437499999965
 20
-958.52500000000032
 30
0.0
 40
3.25
  0
CIRCLE
  5
2D9
  8
0
  6
CONTINUOUS
 62
     7
 10
-778.37437499999965
 20
-958.52500000000032
 30
0.0
 40
3.25
  0
CIRCLE
  5
2DA
  8
0
  6
CONTINUOUS
 62
     7
 10
-762.37437499999965
 20
-958.52500000000032
 30
0.0
 40
3.25
  0
CIRCLE
  5
2DB
  8
0
  6
CONTINUOUS
 62
     7
 10
-746.37437499999965
 20
-958.52500000000032
 30
0.0
 40
3.25
  0
CIRCLE
  5
2DC
  8
0
  6
CONTINUOUS
 62
     7
 10
-730.37437499999965
 20
-958.52500000000032
 30
0.0
 40
3.25
  0
CIRCLE
  5
2DD
  8
0
  6
CONTINUOUS
 62
     7
 10
-714.37437499999965
 20
-958.52500000000032
 30
0.0
 40
3.25
  0
CIRCLE
  5
2DE
  8
0
  6
CONTINUOUS
 62
     7
 10
-698.37437499999965
 20
-958.52500000000032
 30
0.0
 40
3.25
  0
CIRCLE
  5
2DF
  8
0
  6
CONTINUOUS
 62
     7
 10
-858.37437499999965
 20
-958.52500000000032
 30
0.0
 40
3.25
  0
CIRCLE
  5
2E0
  8
0
  6
CONTINUOUS
 62
     7
 10
-874.37437499999965
 20
-958.52500000000032
 30
0.0
 40
3.25
  0
CIRCLE
  5
2E1
  8
0
  6
CONTINUOUS
 62
     7
 10
-890.37437499999965
 20
-958.52500000000032
 30
0.0
 40
3.25
  0
CIRCLE
  5
2E2
  8
0
  6
CONTINUOUS
 62
     7
 10
-906.37437499999965
 20
-958.52500000000032
 30
0.0
 40
3.25
  0
CIRCLE
  5
2E3
  8
0
  6
CONTINUOUS
 62
     7
 10
-922.37437499999965
 20
-958.52500000000032
 30
0.0
 40
3.25
  0
CIRCLE
  5
2E4
  8
0
  6
CONTINUOUS
 62
     7
 10
-938.37437499999965
 20
-958.52500000000032
 30
0.0
 40
3.25
  0
CIRCLE
  5
2E5
  8
0
  6
CONTINUOUS
 62
     7
 10
-954.37437499999965
 20
-958.52500000000032
 30
0.0
 40
3.25
  0
CIRCLE
  5
2E6
  8
0
  6
CONTINUOUS
 62
     7
 10
-970.37437499999965
 20
-958.52500000000032
 30
0.0
 40
3.25
  0
CIRCLE
  5
2E7
  8
0
  6
CONTINUOUS
 62
     7
 10
-986.37437499999953
 20
-958.52500000000032
 30
0.0
 40
3.25
  0
CIRCLE
  5
2E8
  8
0
  6
CONTINUOUS
 62
     7
 10
-1002.374374999999
 20
-958.52500000000032
 30
0.0
 40
3.25
  0
POLYLINE
  5
2E9
  8
0
  6
CONTINUOUS
 62
     7
 66
     1
 10
0.0
 20
0.0
 30
0.0
 70
     1
  0
VERTEX
  5
58A
  8
0
  6
CONTINUOUS
 62
     7
 10
-882.37437499999965
 20
-708.47500000000014
 30
0.0
  0
VERTEX
  5
58B
  8
0
  6
CONTINUOUS
 62
     7
 10
-826.37437499999965
 20
-708.47500000000014
 30
0.0
  0
VERTEX
  5
58C
  8
0
  6
CONTINUOUS
 62
     7
 10
-826.37437499999965
 20
-753.47500000000014
 30
0.0
  0
VERTEX
  5
58D
  8
0
  6
CONTINUOUS
 62
     7
 10
-882.37437499999965
 20
-753.47500000000014
 30
0.0
  0
SEQEND
  5
58E
  8
0
  6
CONTINUOUS
 62
     7
  0
ENDBLK
  5
2EF
  8
PATTERN_FILL
  0
ENDSEC
  0
SECTION
  2
ENTITIES
  0
LINE
  5
2F0
  8
HIBINO-BASE
  6
CONTINUOUS
 62
     7
 10
-325.0006249999999
 20
3004.3533637500009
 30
0.0
 11
2374.999374999999
 21
3004.3533637500009
 31
0.0
  0
LINE
  5
2F1
  8
HIBINO-BASE
  6
CONTINUOUS
 62
     7
 10
2374.999374999999
 20
-895.64663624999946
 30
0.0
 11
-325.0006249999999
 21
-895.64663624999946
 31
0.0
  0
LINE
  5
2F2
  8
HIBINO-BASE
  6
CONTINUOUS
 62
     7
 10
-325.0006249999999
 20
-895.64663624999946
 30
0.0
 11
-325.0006249999999
 21
3004.3533637500009
 31
0.0
  0
TEXT
  5
2F3
  8
HIBINO-BASE
 62
     7
 10
-217.24062499999991
 20
-991.77680324999972
 30
0.0
 40
54.000662695312492
  1
Hibino Corporation
 41
0.8
 11
-217.24062499999991
 21
-937.77614055468723
 31
0.0
 73
     3
  0
LINE
  5
2F4
  8
HIBINO-BASE
  6
CONTINUOUS
 62
     7
 10
2374.999374999999
 20
3004.3533637500009
 30
0.0
 11
2374.999374999999
 21
-895.64663624999946
 31
0.0
  0
LINE
  5
2F5
  8
HIBINO-BASE
  6
CONTINUOUS
 62
     7
 10
1024.9993750000001
 20
-558.14663624999957
 30
0.0
 11
2374.999374999999
 21
-558.14663624999957
 31
0.0
  0
LINE
  5
2F6
  8
HIBINO-BASE
  6
CONTINUOUS
 62
     7
 10
1024.9993750000001
 20
-895.64663624999946
 30
0.0
 11
1024.9993750000001
 21
-558.14663624999957
 31
0.0
  0
TEXT
  5
2F7
  8
HIBINO-BASE
 62
     7
 10
1038.4993750000001
 20
-598.64668424999968
 30
0.0
 40
27.000389062499998
  1
NOTE
 41
0.8
 11
1038.4993750000001
 21
-571.64629518749985
 31
0.0
 73
     3
  0
LINE
  5
2F8
  8
HIBINO-BASE
  6
CONTINUOUS
 62
     7
 10
1549.9993750000001
 20
-895.64663624999946
 30
0.0
 11
1549.9993750000001
 21
-558.14663624999957
 31
0.0
  0
TEXT
  5
2F9
  8
HIBINO-BASE
 62
     7
 10
1563.4993750000001
 20
-598.64668424999968
 30
0.0
 40
27.000389062499998
  1
TITLE
 41
0.8
 11
1563.4993750000001
 21
-571.64629518749985
 31
0.0
 73
     3
  0
TEXT
  5
2FA
  8
HIBINO-BASE
 62
     7
 10
1776.0252250000001
 20
-991.77680324999972
 30
0.0
 40
54.000662695312492
  1
ヒビノ株式会社
 41
0.8
 11
1776.0252250000001
 21
-937.77614055468723
 31
0.0
 73
     3
  0
LINE
  5
2FB
  8
HIBINO-BASE
  6
CONTINUOUS
 62
     7
 10
1024.9993750000001
 20
-745.64663624999957
 30
0.0
 11
2374.999374999999
 21
-745.64663624999957
 31
0.0
  0
TEXT
  5
2FC
  8
HIBINO-BASE
 62
     7
 10
1750.9993750000001
 20
-785.30188424999994
 30
0.0
 40
27.000389062499998
  1
DRAWN
 41
0.8
 11
1750.9993750000001
 21
-758.3014951875
 31
0.0
 73
     3
  0
TEXT
  5
2FD
  8
HIBINO-BASE
 62
     7
 10
1375.9993750000001
 20
-785.30188424999994
 30
0.0
 40
27.000389062499998
  1
DATE
 41
0.8
 11
1375.9993750000001
 21
-758.3014951875
 31
0.0
 73
     3
  0
TEXT
  5
2FE
  8
HIBINO-BASE
 62
     7
 10
1041.4993750000001
 20
-784.93847924999955
 30
0.0
 40
24.432655664062501
  1
図面サイズ
 41
0.8
 11
1041.4993750000001
 21
-760.50582358593715
 31
0.0
 73
     3
  0
TEXT
  5
2FF
  8
HIBINO-BASE
 62
     7
 10
1225.9993750000001
 20
-785.30188424999994
 30
0.0
 40
27.000389062499998
  1
SCALE
 41
0.8
 11
1225.9993750000001
 21
-758.3014951875
 31
0.0
 73
     3
  0
TEXT
  5
300
  8
HIBINO-BASE
 62
     7
 10
1563.4993750000001
 20
-785.30188424999994
 30
0.0
 40
27.000389062499998
  1
DESIGN
 41
0.8
 11
1563.4993750000001
 21
-758.3014951875
 31
0.0
 73
     3
  0
TEXT
  5
301
  8
HIBINO-BASE
 62
     7
 10
2125.9993749999999
 20
-785.30188424999994
 30
0.0
 40
27.000389062499998
  1
DRAWING NO.
 41
0.8
 11
2125.9993749999999
 21
-758.3014951875
 31
0.0
 73
     3
  0
TEXT
  5
302
  8
HIBINO-BASE
 62
     7
 10
1938.4993750000001
 20
-785.30188424999994
 30
0.0
 40
27.000389062499998
  1
CHECK
 41
0.8
 11
1938.4993750000001
 21
-758.3014951875
 31
0.0
 73
     3
  0
LINE
  5
303
  8
HIBINO-BASE
  6
CONTINUOUS
 62
     7
 10
1240.6243750000001
 20
-876.89663624999946
 30
0.0
 11
1296.8743750000001
 21
-820.64663624999946
 31
0.0
  0
TEXT
  5
304
  8
HIBINO-BASE
 62
     7
 10
1231.2493750000001
 20
-846.38242424999953
 30
0.0
 40
32.576797265624997
  1
1
 41
0.8
 11
1231.2493750000001
 21
-813.80562698437438
 31
0.0
 73
     3
  0
LINE
  5
305
  8
HIBINO-BASE
  6
CONTINUOUS
 62
     7
 10
1212.4993750000001
 20
-895.64663624999946
 30
0.0
 11
1212.4993750000001
 21
-745.64663624999957
 31
0.0
  0
LINE
  5
306
  8
HIBINO-BASE
  6
CONTINUOUS
 62
     7
 10
1362.4993750000001
 20
-895.64663624999946
 30
0.0
 11
1362.4993750000001
 21
-745.64663624999957
 31
0.0
  0
LINE
  5
307
  8
HIBINO-BASE
  6
CONTINUOUS
 62
     7
 10
1737.4993750000001
 20
-745.64663624999957
 30
0.0
 11
1737.4993750000001
 21
-895.64663624999946
 31
0.0
  0
LINE
  5
308
  8
HIBINO-BASE
  6
CONTINUOUS
 62
     7
 10
2112.4993749999999
 20
-745.64663624999957
 30
0.0
 11
2112.4993749999999
 21
-895.64663624999946
 31
0.0
  0
LINE
  5
309
  8
HIBINO-BASE
  6
CONTINUOUS
 62
     7
 10
1924.9993750000001
 20
-895.64663624999946
 30
0.0
 11
1924.9993750000001
 21
-745.64663624999957
 31
0.0
  0
TEXT
  5
30A
  8
HIBINO-BASE
 62
     7
 10
1083.6627249999999
 20
-858.16979324999932
 30
0.0
 40
48.865195898437499
  1
A4
 41
0.8
 11
1083.6627249999999
 21
-809.30459735156205
 31
0.0
 73
     3
  0
TEXT
  5
30B
  8
HIBINO-BASE
 62
     7
 10
1375.347475
 20
-855.56158424999978
 30
0.0
 40
27.000389062499998
  1
'04.11.
 41
0.8
 11
1375.347475
 21
-828.56119518749972
 31
0.0
 73
     3
  0
TEXT
  5
30C
  8
HIBINO-BASE
 62
     7
 10
1287.4993750000001
 20
-874.50742424999953
 30
0.0
 40
32.576797265624997
  1
15
 41
0.8
 11
1287.4993750000001
 21
-841.93062698437438
 31
0.0
 73
     3
  0
TEXT
  5
30D
  8
HIBINO-BASE
 62
     7
 10
1760.0865251655191
 20
-855.56158424999978
 30
0.0
 40
27.000389062499998
  1
N.Sasaki
 41
0.8
 11
1760.0865251655191
 21
-828.56119518749972
 31
0.0
 73
     3
  0
TEXT
  5
30E
  8
HIBINO-BASE
 62
     7
 10
1947.5865251655191
 20
-852.69193624999969
 30
0.0
 40
24.4326171875
  1
T.Taki
 41
0.8
 11
1947.5865251655191
 21
-828.25931906249957
 31
0.0
 73
     3
  0
LINE
  5
30F
  8
SPEC
  6
CONTINUOUS
 62
     7
 10
-212.5006249999999
 20
2886.525000000001
 30
0.0
 11
1899.9999999999991
 21
2886.525000000001
 31
0.0
  0
LINE
  5
310
  8
SPEC
  6
CONTINUOUS
 62
     7
 10
-212.5006249999999
 20
2830.2750000000001
 30
0.0
 11
1900.0
 21
2830.2750000000001
 31
0.0
  0
LINE
  5
311
  8
SPEC
  6
CONTINUOUS
 62
     7
 10
-212.5006249999999
 20
2605.275000000001
 30
0.0
 11
1900.0
 21
2605.275000000001
 31
0.0
  0
LINE
  5
312
  8
SPEC
  6
CONTINUOUS
 62
     7
 10
-212.5006249999999
 20
2661.525000000001
 30
0.0
 11
1900.0
 21
2661.525000000001
 31
0.0
  0
LINE
  5
313
  8
SPEC
  6
CONTINUOUS
 62
     7
 10
-212.5006249999999
 20
2717.7750000000001
 30
0.0
 11
1900.0
 21
2717.7750000000001
 31
0.0
  0
LINE
  5
314
  8
SPEC
  6
CONTINUOUS
 62
     7
 10
-212.5006249999999
 20
2549.0250000000001
 30
0.0
 11
1900.0
 21
2549.0250000000001
 31
0.0
  0
LINE
  5
315
  8
SPEC
  6
CONTINUOUS
 62
     7
 10
-212.5006249999999
 20
2774.0250000000001
 30
0.0
 11
1900.0
 21
2774.0250000000001
 31
0.0
  0
LINE
  5
316
  8
SPEC
  6
CONTINUOUS
 62
     7
 10
-212.5006250000001
 20
2886.525000000001
 30
0.0
 11
-212.5006250000001
 21
1375.27163625
 31
0.0
  0
TEXT
  5
317
  8
SPEC
 62
     7
 10
-193.7506249999999
 20
2907.424050000001
 30
0.0
 40
36.64892578125
  1
仕様
 41
0.8
 11
-193.7506249999999
 21
2944.072975781251
 31
0.0
 73
     3
  0
LINE
  5
318
  8
SPEC
  6
CONTINUOUS
 62
     7
 10
274.99937499999987
 20
2886.525000000001
 30
0.0
 11
274.99937499999987
 21
1375.27163625
 31
0.0
  0
LINE
  5
319
  8
SPEC
  6
CONTINUOUS
 62
     7
 10
1899.9999999999991
 20
2886.525000000001
 30
0.0
 11
1899.9999999999991
 21
1375.27163625
 31
0.0
  0
TEXT
  5
31A
  8
SPEC
 62
     7
 10
288.49937499999999
 20
2842.0938333333329
 30
0.0
 40
28.504720052083329
  1
2Wayフロアモニタ/ユーティリティー　スピーカ (12" Stage monitor/Utility speaker)
 41
0.8
 11
288.49937499999999
 21
2870.5985533854168
 31
0.0
 73
     3
  0
TEXT
  5
31B
  8
SPEC
 62
     7
 10
288.49937499999999
 20
2617.0938333333329
 30
0.0
 40
28.504720052083329
  1
2262H(口径:12インチ)
 41
0.8
 11
288.49937499999999
 21
2645.5985533854168
 31
0.0
 73
     3
  0
TEXT
  5
31C
  8
SPEC
 62
     7
 10
288.49937499999999
 20
2560.8438333333329
 30
0.0
 40
28.504720052083329
  1
2431H(ダイアフラム径:3インチ)
 41
0.8
 11
288.49937499999999
 21
2589.3485533854168
 31
0.0
 73
     3
  0
TEXT
  5
31D
  8
SPEC
 62
     7
 10
288.49937499999999
 20
2504.5938333333329
 30
0.0
 40
28.504720052083329
  1
96dB SPL(PASSIVE駆動時)
 41
0.8
 11
288.49937499999999
 21
2533.0985533854159
 31
0.0
 73
     3
  0
TEXT
  5
31E
  8
SPEC
 62
     7
 10
288.49937499999999
 20
2673.3438333333329
 30
0.0
 40
28.504720052083329
  1
90゜×50゜
 41
0.8
 11
288.49937499999999
 21
2701.8485533854168
 31
0.0
 73
     3
  0
TEXT
  5
31F
  8
SPEC
 62
     7
 10
288.49937499999999
 20
2785.8438333333329
 30
0.0
 40
28.504720052083329
  1
70Hz～20kHz
 41
0.8
 11
288.49937499999999
 21
2814.3485533854159
 31
0.0
 73
     3
  0
TEXT
  5
320
  8
SPEC
 62
     7
 10
288.49937499999999
 20
2729.5938333333329
 30
0.0
 40
28.504720052083329
  1
83Hz～18kHz
 41
0.8
 11
288.49937499999999
 21
2758.0985533854159
 31
0.0
 73
     3
  0
TEXT
  5
321
  8
SPEC
 62
     7
 10
-199.00062500000561
 20
2504.5938333333329
 30
0.0
 40
28.504720052083329
  1
音圧レベル (1W/1m)
 41
0.8
 11
-199.00062500000561
 21
2533.0985533854159
 31
0.0
 73
     3
  0
TEXT
  5
322
  8
SPEC
 62
     7
 10
-199.00062500000891
 20
2617.093833333332
 30
0.0
 40
28.504720052083329
  1
低域ユニット
 41
0.8
 11
-199.00062500000891
 21
2645.598553385415
 31
0.0
 73
     3
  0
TEXT
  5
323
  8
SPEC
 62
     7
 10
-199.00062500000081
 20
2560.8438333333329
 30
0.0
 40
28.504720052083329
  1
高域ユニット
 41
0.8
 11
-199.00062500000081
 21
2589.3485533854168
 31
0.0
 73
     3
  0
TEXT
  5
324
  8
SPEC
 62
     7
 10
-199.00062500000331
 20
2673.3438333333338
 30
0.0
 40
28.504720052083329
  1
公称カバレージ
 41
0.8
 11
-199.00062500000331
 21
2701.8485533854168
 31
0.0
 73
     3
  0
TEXT
  5
325
  8
SPEC
 62
     7
 10
-199.00062500000209
 20
2785.8438333333329
 30
0.0
 40
28.504720052083329
  1
周波数レンジ(-10dB)
 41
0.8
 11
-199.00062500000209
 21
2814.3485533854159
 31
0.0
 73
     3
  0
TEXT
  5
326
  8
SPEC
 62
     7
 10
-199.00062500000209
 20
2729.5938333333329
 30
0.0
 40
28.504720052083329
  1
周波数特性(±3dB)
 41
0.8
 11
-199.00062500000209
 21
2758.0985533854159
 31
0.0
 73
     3
  0
TEXT
  5
327
  8
SPEC
 62
     7
 10
-199.00062500000101
 20
2842.0938333333329
 30
0.0
 40
28.504720052083329
  1
形式
 41
0.8
 11
-199.00062500000101
 21
2870.5985533854168
 31
0.0
 73
     3
  0
TEXT
  5
328
  8
SPEC
 62
     7
 10
288.49937499999987
 20
2343.3449695833328
 30
0.0
 40
28.504720052083329
  1
BI-AMP駆動時:8Ω(低域),8Ω(高域)
 41
0.8
 11
288.49937499999987
 21
2371.8496896354168
 31
0.0
 73
     3
  0
TEXT
  5
329
  8
SPEC
 62
     7
 10
288.49937499999999
 20
2392.0938333333329
 30
0.0
 40
28.504720052083329
  1
PASSIVE駆動時:8Ω
 41
0.8
 11
288.49937499999999
 21
2420.5985533854168
 31
0.0
 73
     3
  0
TEXT
  5
32A
  8
SPEC
 62
     7
 10
-199.00062500000561
 20
2392.0938333333329
 30
0.0
 40
28.504720052083329
  1
公称インピーダンス
 41
0.8
 11
-199.00062500000561
 21
2420.5985533854168
 31
0.0
 73
     3
  0
TEXT
  5
32B
  8
SPEC
 62
     7
 10
288.49937499999987
 20
2189.5949695833342
 30
0.0
 40
28.504720052083329
  1
BI-AMP駆動時(IEC):800W(低域),75W(高域)
 41
0.8
 11
288.49937499999987
 21
2218.0996896354168
 31
0.0
 73
     3
  0
TEXT
  5
32C
  8
SPEC
 62
     7
 10
288.49937499999999
 20
2287.0938333333329
 30
0.0
 40
28.504720052083329
  1
PASSIVE駆動時(IEC):800W
 41
0.8
 11
288.49937499999999
 21
2315.5985533854168
 31
0.0
 73
     3
  0
TEXT
  5
32D
  8
SPEC
 62
     7
 10
-199.00062500000561
 20
2287.0938333333329
 30
0.0
 40
28.504720052083329
  1
許容入力
 41
0.8
 11
-199.00062500000561
 21
2315.5985533854168
 31
0.0
 73
     3
  0
TEXT
  5
32E
  8
SPEC
 62
     7
 10
512.29535695632467
 20
2140.8449695833342
 30
0.0
 40
28.504720052083329
  1
Peak:3200W(低域),300W(高域)
 41
0.8
 11
512.29535695632467
 21
2169.3496896354168
 31
0.0
 73
     3
  0
TEXT
  5
32F
  8
SPEC
 62
     7
 10
529.27020833333313
 20
2238.3449695833342
 30
0.0
 40
28.504720052083329
  1
Peak:3200W
 41
0.8
 11
529.27020833333313
 21
2266.8496896354168
 31
0.0
 73
     3
  0
LINE
  5
330
  8
SPEC
  6
CONTINUOUS
 62
     7
 10
-212.5006249999999
 20
2121.5250000000001
 30
0.0
 11
1900.0
 21
2121.5250000000001
 31
0.0
  0
TEXT
  5
331
  8
SPEC
 62
     7
 10
288.49937499999987
 20
1975.8449695833331
 30
0.0
 40
28.504720052083329
  1
BI-AMP駆動推奨コントローラー:dbx DriveRackシリーズ
 41
0.8
 11
288.49937499999987
 21
2004.349689635417
 31
0.0
 73
     3
  0
TEXT
  5
332
  8
SPEC
 62
     7
 10
288.49937499999999
 20
2077.0938333333329
 30
0.0
 40
28.504720052083329
  1
PASSIVE/BI-AMPスイッチ切替
 41
0.8
 11
288.49937499999999
 21
2105.5985533854168
 31
0.0
 73
     3
  0
TEXT
  5
333
  8
SPEC
 62
     7
 10
-199.00062500000561
 20
2077.0938333333329
 30
0.0
 40
28.504720052083329
  1
クロスオーバー
 41
0.8
 11
-199.00062500000561
 21
2105.5985533854168
 31
0.0
 73
     3
  0
LINE
  5
334
  8
SPEC
  6
CONTINUOUS
 62
     7
 10
-212.5006249999999
 20
1802.7750000000001
 30
0.0
 11
1900.0
 21
1802.7750000000001
 31
0.0
  0
LINE
  5
335
  8
SPEC
  6
CONTINUOUS
 62
     7
 10
-212.5006249999999
 20
1697.7750000000001
 30
0.0
 11
1900.0
 21
1697.7750000000001
 31
0.0
  0
TEXT
  5
336
  8
SPEC
 62
     7
 10
288.49937499999999
 20
1919.5938333333329
 30
0.0
 40
28.504720052083329
  1
黒のデュラフレックス塗装
 41
0.8
 11
288.49937499999999
 21
1948.0985533854171
 31
0.0
 73
     3
  0
TEXT
  5
337
  8
SPEC
 62
     7
 10
-199.00062500000561
 20
1919.5938333333329
 30
0.0
 40
28.504720052083329
  1
仕上げ
 41
0.8
 11
-199.00062500000561
 21
1948.0985533854171
 31
0.0
 73
     3
  0
LINE
  5
338
  8
SPEC
  6
CONTINUOUS
 62
     7
 10
-212.5006249999999
 20
1964.0250000000001
 30
0.0
 11
1900.0
 21
1964.0250000000001
 31
0.0
  0
TEXT
  5
339
  8
SPEC
 62
     7
 10
288.49937499999999
 20
1758.343833333334
 30
0.0
 40
28.504720052083329
  1
35mmポールソケット(0°,-10°)
 41
0.8
 11
288.49937499999999
 21
1786.8485533854171
 31
0.0
 73
     3
  0
TEXT
  5
33A
  8
SPEC
 62
     7
 10
288.49937499999987
 20
1548.3449695833331
 30
0.0
 40
28.504720052083329
  1
＊ PASSIVE---±1:Full Range,±2:N/C
 41
0.8
 11
288.49937499999987
 21
1576.849689635417
 31
0.0
 73
     3
  0
TEXT
  5
33B
  8
SPEC
 62
     7
 10
288.49937499999999
 20
1597.0938333333329
 30
0.0
 40
28.504720052083329
  1
NEUTRIK NL4×2(IN,THRU)
 41
0.8
 11
288.49937499999999
 21
1625.5985533854171
 31
0.0
 73
     3
  0
TEXT
  5
33C
  8
SPEC
 62
     7
 10
-199.00062500000891
 20
1758.343833333334
 30
0.0
 40
28.504720052083329
  1
金具用取付穴
 41
0.8
 11
-199.00062500000891
 21
1786.8485533854171
 31
0.0
 73
     3
  0
TEXT
  5
33D
  8
SPEC
 62
     7
 10
-199.00062500000891
 20
1597.0938333333329
 30
0.0
 40
28.504720052083329
  1
コネクター
 41
0.8
 11
-199.00062500000891
 21
1625.5985533854171
 31
0.0
 73
     3
  0
TEXT
  5
33E
  8
SPEC
 62
     7
 10
288.49937499999987
 20
1499.5949695833331
 30
0.0
 40
28.504720052083329
  1
＊ BI-AMP  ---±1:LF(低域),±2:HF(高域)
 41
0.8
 11
288.49937499999987
 21
1528.099689635417
 31
0.0
 73
     3
  0
LINE
  5
33F
  8
SPEC
  6
CONTINUOUS
 62
     7
 10
-212.5006249999997
 20
1431.5216362500009
 30
0.0
 11
1900.0
 21
1431.5216362500009
 31
0.0
  0
LINE
  5
340
  8
SPEC
  6
CONTINUOUS
 62
     7
 10
-212.5006249999997
 20
1487.7716362500009
 30
0.0
 11
1900.0
 21
1487.7716362500009
 31
0.0
  0
TEXT
  5
341
  8
SPEC
 62
     7
 10
288.4993750000001
 20
1443.3404695833331
 30
0.0
 40
28.504720052083329
  1
546(W)×349(H)×260(D)mm (ゴム足、コネクタは含まず)
 41
0.8
 11
288.4993750000001
 21
1471.8451896354161
 31
0.0
 73
     3
  0
TEXT
  5
342
  8
SPEC
 62
     7
 10
288.4993750000001
 20
1387.0904695833331
 30
0.0
 40
28.504720052083329
  1
約15.4kg
 41
0.8
 11
288.4993750000001
 21
1415.595189635417
 31
0.0
 73
     3
  0
TEXT
  5
343
  8
SPEC
 62
     7
 10
-199.00062500000891
 20
1443.3404695833331
 30
0.0
 40
28.504720052083329
  1
寸法
 41
0.8
 11
-199.00062500000891
 21
1471.8451896354161
 31
0.0
 73
     3
  0
TEXT
  5
344
  8
SPEC
 62
     7
 10
-199.00062500000101
 20
1387.0904695833331
 30
0.0
 40
28.504720052083329
  1
重量
 41
0.8
 11
-199.00062500000101
 21
1415.595189635417
 31
0.0
 73
     3
  0
LINE
  5
345
  8
SPEC
  6
CONTINUOUS
 62
     7
 10
-212.5006249999997
 20
1375.2716362500009
 30
0.0
 11
1899.9999999999991
 21
1375.27163625
 31
0.0
  0
LINE
  5
346
  8
SPEC
  6
CONTINUOUS
 62
     7
 10
-212.5006249999999
 20
2492.7750000000001
 30
0.0
 11
1900.0
 21
2492.7750000000001
 31
0.0
  0
TEXT
  5
347
  8
SPEC
 62
     7
 10
288.49937499999999
 20
2448.3438333333329
 30
0.0
 40
28.504720052083329
  1
131dB SPL peak(計算値)
 41
0.8
 11
288.49937499999999
 21
2476.8485533854159
 31
0.0
 73
     3
  0
TEXT
  5
348
  8
SPEC
 62
     7
 10
-199.00062500000561
 20
2448.3438333333329
 30
0.0
 40
28.504720052083329
  1
最大音圧 (＠/1m)
 41
0.8
 11
-199.00062500000561
 21
2476.8485533854159
 31
0.0
 73
     3
  0
LINE
  5
349
  8
SPEC
  6
CONTINUOUS
 62
     7
 10
-212.5006249999999
 20
2436.5250000000001
 30
0.0
 11
1900.0
 21
2436.5250000000001
 31
0.0
  0
LINE
  5
34A
  8
SPEC
  6
CONTINUOUS
 62
     7
 10
-212.5006249999999
 20
2331.5250000000001
 30
0.0
 11
1900.0
 21
2331.5250000000001
 31
0.0
  0
TEXT
  5
34B
  8
SPEC
 62
     7
 10
288.49937499999999
 20
1709.5938333333329
 30
0.0
 40
28.504720052083329
  1
M10---2ヶ所(SRX712M-YK取付用)
 41
0.8
 11
288.49937499999999
 21
1738.0985533854171
 31
0.0
 73
     3
  0
LINE
  5
34C
  8
SPEC
  6
CONTINUOUS
 62
     7
 10
-212.5006249999999
 20
1641.5250000000001
 30
0.0
 11
1900.0
 21
1641.5250000000001
 31
0.0
  0
TEXT
  5
34D
  8
SPEC
 62
     7
 10
288.49937499999999
 20
1653.3438333333329
 30
0.0
 40
28.504720052083329
  1
SPユニットは前面側で交換
 41
0.8
 11
288.49937499999999
 21
1681.8485533854171
 31
0.0
 73
     3
  0
TEXT
  5
34E
  8
SPEC
 62
     7
 10
-199.00062500000891
 20
1653.3438333333329
 30
0.0
 40
28.504720052083329
  1
メンテナンス
 41
0.8
 11
-199.00062500000891
 21
1681.8485533854171
 31
0.0
 73
     3
  0
LINE
  5
34F
  8
SPEC
  6
CONTINUOUS
 62
     7
 10
1300.0
 20
2549.0250000000001
 30
0.0
 11
1300.0
 21
2661.525000000001
 31
0.0
  0
TEXT
  5
350
  8
SPEC
 62
     7
 10
1316.994482395118
 20
2617.0938333333329
 30
0.0
 40
28.504720052083329
  1
振動板交換パーツ:C8R2262
 41
0.8
 11
1316.994482395118
 21
2645.5985533854168
 31
0.0
 73
     3
  0
TEXT
  5
351
  8
SPEC
 62
     7
 10
1316.994482395118
 20
2560.8438333333329
 30
0.0
 40
28.504720052083329
  1
振動板交換パーツ:D8R2431
 41
0.8
 11
1316.994482395118
 21
2589.3485533854168
 31
0.0
 73
     3
  0
TEXT
  5
352
  8
SPEC
 62
     7
 10
288.49937499999999
 20
2024.5938333333329
 30
0.0
 40
28.504720052083329
  1
PASSIVE駆動時(ネットワーク):1.2kHz
 41
0.8
 11
288.49937499999999
 21
2053.0985533854159
 31
0.0
 73
     3
  0
LINE
  5
353
  8
SPEC
  6
CONTINUOUS
 62
     7
 10
-212.5006249999999
 20
1907.7750000000001
 30
0.0
 11
1900.0
 21
1907.7750000000001
 31
0.0
  0
TEXT
  5
354
  8
SPEC
 62
     7
 10
288.49937499999999
 20
1863.343833333334
 30
0.0
 40
28.504720052083329
  1
PASSIVE駆動時:正相(低域),逆相(高域)
 41
0.8
 11
288.49937499999999
 21
1891.8485533854171
 31
0.0
 73
     3
  0
TEXT
  5
355
  8
SPEC
 62
     7
 10
-199.00062500000891
 20
1863.343833333334
 30
0.0
 40
28.504720052083329
  1
極性
 41
0.8
 11
-199.00062500000891
 21
1891.8485533854171
 31
0.0
 73
     3
  0
TEXT
  5
356
  8
SPEC
 62
     7
 10
288.49937499999999
 20
1814.593833333334
 30
0.0
 40
28.504720052083329
  1
BI-AMP駆動時:正相(低域),逆相(高域)
 41
0.8
 11
288.49937499999999
 21
1843.0985533854171
 31
0.0
 73
     3
  0
INSERT
  5
357
  8
PATTERN_FILL
 62
     7
  2
____
 10
1024.9993750000001
 20
1004.025
 30
0.0
  0
INSERT
  5
358
  8
PATTERN_FILL
 62
     7
  2
____-1
 10
1024.9993750000001
 20
1004.025
 30
0.0
  0
LINE
  5
359
  8
DIMNSIONS
  6
CONTINUOUS
 62
     7
 10
371.2307621135331
 20
892.93961031951721
 30
0.0
 11
440.74602051625249
 21
852.80495716791881
 31
0.0
  0
LINE
  5
35A
  8
DIMNSIONS
  6
CONTINUOUS
 62
     7
 10
405.0
 20
1006.45
 30
0.0
 11
481.91508566415558
 21
1006.45
 31
0.0
  0
ARC
  5
35B
  8
DIMNSIONS
  6
CONTINUOUS
 62
     7
 10
174.6250000000046
 20
1006.45
 30
0.0
 40
277.29008566415109
 50
329.99999999999881
 51
0.0
  0
LINE
  5
35C
  8
DIMNSIONS
  6
CONTINUOUS
 62
     7
 10
451.91508566415558
 20
1006.45
 30
0.0
 11
464.67616595368781
 21
958.82500000000005
 31
0.0
  0
LINE
  5
35D
  8
DIMNSIONS
  6
CONTINUOUS
 62
     7
 10
451.91508566415558
 20
1006.45
 30
0.0
 11
439.15400537462341
 21
958.82500000000005
 31
0.0
  0
LINE
  5
35E
  8
DIMNSIONS
  6
CONTINUOUS
 62
     7
 10
414.76525840271972
 20
867.80495716791916
 30
0.0
 11
428.35556597448971
 21
915.19999208995068
 31
0.0
  0
LINE
  5
35F
  8
DIMNSIONS
  6
CONTINUOUS
 62
     7
 10
414.76525840271972
 20
867.80495716791916
 30
0.0
 11
450.23232746613229
 21
902.05510763776408
 31
0.0
  0
TEXT
  5
360
  8
DIMNSIONS
 62
     7
 10
504.0134756889326
 20
869.44587545785282
 30
0.0
 40
40.721028645833343
  1
30°
 50
75.94614873314606
 41
0.8
 11
464.51131214134477
 21
879.3343156298115
 31
0.0
 73
     3
  0
TEXT
  5
361
  8
DIMNSIONS
 62
     7
 10
724.99937499999976
 20
-711.60428624999963
 30
0.0
 40
36.64892578125
  1
(単位：mm)
 41
0.8
 11
724.99937499999976
 21
-674.95536046874963
 31
0.0
 73
     3
  0
LINE
  5
362
  8
DIMNSIONS
  6
CONTINUOUS
 62
     7
 10
0.0
 20
-22.0
 30
0.0
 11
0.0
 21
-130.0
 31
0.0
  0
LINE
  5
363
  8
DIMNSIONS
  6
CONTINUOUS
 62
     7
 10
349.25000000000011
 20
-22.0
 30
0.0
 11
349.25000000000011
 21
-130.0
 31
0.0
  0
LINE
  5
364
  8
DIMNSIONS
  6
CONTINUOUS
 62
     7
 10
0.0
 20
-100.0
 30
0.0
 11
349.25000000000011
 21
-100.0
 31
0.0
  0
LINE
  5
365
  8
DIMNSIONS
  6
CONTINUOUS
 62
     7
 10
0.0
 20
-100.0
 30
0.0
 11
47.625
 21
-87.238919710467798
 31
0.0
  0
LINE
  5
366
  8
DIMNSIONS
  6
CONTINUOUS
 62
     7
 10
0.0
 20
-100.0
 30
0.0
 11
47.625
 21
-112.7610802895321
 31
0.0
  0
LINE
  5
367
  8
DIMNSIONS
  6
CONTINUOUS
 62
     7
 10
349.25000000000011
 20
-100.0
 30
0.0
 11
301.62500000000011
 21
-112.7610802895321
 31
0.0
  0
LINE
  5
368
  8
DIMNSIONS
  6
CONTINUOUS
 62
     7
 10
349.25000000000011
 20
-100.0
 30
0.0
 11
301.62500000000011
 21
-87.238919710467798
 31
0.0
  0
TEXT
  5
369
  8
DIMNSIONS
 62
     7
 10
134.9375
 20
-85.091666666666555
 30
0.0
 40
40.721028645833343
  1
349
 41
0.8
 11
134.9375
 21
-44.370638020833198
 31
0.0
 73
     3
  0
LINE
  5
36A
  8
DIMNSIONS
  6
CONTINUOUS
 62
     7
 10
-22.0
 20
546.10000000000014
 30
0.0
 11
-130.0
 21
546.10000000000014
 31
0.0
  0
LINE
  5
36B
  8
DIMNSIONS
  6
CONTINUOUS
 62
     7
 10
-22.0
 20
0.0
 30
0.0
 11
-130.0
 21
0.0
 31
0.0
  0
LINE
  5
36C
  8
DIMNSIONS
  6
CONTINUOUS
 62
     7
 10
-100.0
 20
546.10000000000014
 30
0.0
 11
-100.0
 21
0.0
 31
0.0
  0
LINE
  5
36D
  8
DIMNSIONS
  6
CONTINUOUS
 62
     7
 10
-100.0
 20
546.10000000000014
 30
0.0
 11
-87.238919710467798
 21
498.47500000000008
 31
0.0
  0
LINE
  5
36E
  8
DIMNSIONS
  6
CONTINUOUS
 62
     7
 10
-100.0
 20
546.10000000000014
 30
0.0
 11
-112.7610802895321
 21
498.47500000000008
 31
0.0
  0
LINE
  5
36F
  8
DIMNSIONS
  6
CONTINUOUS
 62
     7
 10
-100.0
 20
0.0
 30
0.0
 11
-112.7610802895321
 21
47.625
 31
0.0
  0
LINE
  5
370
  8
DIMNSIONS
  6
CONTINUOUS
 62
     7
 10
-100.0
 20
0.0
 30
0.0
 11
-87.238919710467798
 21
47.625
 31
0.0
  0
TEXT
  5
371
  8
DIMNSIONS
 62
     7
 10
-114.9083333333332
 20
233.3625000000001
 30
0.0
 40
40.721028645833343
  1
546
 50
90.0
 41
0.8
 11
-155.6293619791665
 21
233.3625000000001
 31
0.0
 73
     3
  0
LINE
  5
372
  8
DIMNSIONS
  6
CONTINUOUS
 62
     7
 10
500.0
 20
-22.0
 30
0.0
 11
500.0
 21
-130.0
 31
0.0
  0
LINE
  5
373
  8
DIMNSIONS
  6
CONTINUOUS
 62
     7
 10
760.34999999999968
 20
-22.0
 30
0.0
 11
760.34999999999968
 21
-130.0
 31
0.0
  0
LINE
  5
374
  8
DIMNSIONS
  6
CONTINUOUS
 62
     7
 10
500.0
 20
-100.0
 30
0.0
 11
760.34999999999968
 21
-100.0
 31
0.0
  0
LINE
  5
375
  8
DIMNSIONS
  6
CONTINUOUS
 62
     7
 10
500.0
 20
-100.0
 30
0.0
 11
547.625
 21
-87.238919710467798
 31
0.0
  0
LINE
  5
376
  8
DIMNSIONS
  6
CONTINUOUS
 62
     7
 10
500.0
 20
-100.0
 30
0.0
 11
547.625
 21
-112.7610802895321
 31
0.0
  0
LINE
  5
377
  8
DIMNSIONS
  6
CONTINUOUS
 62
     7
 10
760.34999999999968
 20
-100.0
 30
0.0
 11
712.7249999999998
 21
-112.7610802895321
 31
0.0
  0
LINE
  5
378
  8
DIMNSIONS
  6
CONTINUOUS
 62
     7
 10
760.34999999999968
 20
-100.0
 30
0.0
 11
712.7249999999998
 21
-87.238919710467798
 31
0.0
  0
TEXT
  5
379
  8
DIMNSIONS
 62
     7
 10
590.48749999999995
 20
-85.091666666666555
 30
0.0
 40
40.721028645833343
  1
260
 41
0.8
 11
590.48749999999995
 21
-44.370638020833198
 31
0.0
 73
     3
  0
LINE
  5
37A
  8
DIMNSIONS
  6
CONTINUOUS
 62
     7
 10
184.65029633447591
 20
1006.45
 30
0.0
 11
375.0
 21
1006.45
 31
0.0
  0
LINE
  5
37B
  8
DIMNSIONS
  6
CONTINUOUS
 62
     7
 10
192.56924107090521
 20
-288.08429791647882
 30
0.0
 11
629.85775533667618
 21
-253.58463541666839
 31
0.0
  0
LINE
  5
37C
  8
DIMNSIONS
  6
CONTINUOUS
 62
     7
 10
192.56924107090521
 20
-288.08429791647882
 30
0.0
 11
239.188061002366
 21
-272.03215091509838
 31
0.0
  0
LINE
  5
37D
  8
DIMNSIONS
  6
CONTINUOUS
 62
     7
 10
192.56924107090521
 20
-288.08429791647882
 30
0.0
 11
240.9683969266928
 21
-297.49214079373121
 31
0.0
  0
LINE
  5
37E
  8
DIMNSIONS
  6
CONTINUOUS
 62
     7
 10
192.2683971879363
 20
-340.93481618023719
 30
0.0
 11
612.15920011073536
 21
-256.0878969224359
 31
0.0
  0
LINE
  5
37F
  8
DIMNSIONS
  6
CONTINUOUS
 62
     7
 10
192.2683971879363
 20
-340.93481618023719
 30
0.0
 11
236.58346288966629
 21
-319.3209144730663
 31
0.0
  0
LINE
  5
380
  8
DIMNSIONS
  6
CONTINUOUS
 62
     7
 10
192.2683971879363
 20
-340.93481618023719
 30
0.0
 11
241.4533207095964
 21
-344.37416107779228
 31
0.0
  0
TEXT
  5
381
  8
DIMNSIONS
 62
     7
 10
437.76842963958762
 20
-247.25081826805291
 30
0.0
 40
40.721028645833343
  1
-10°
 41
0.8
 11
437.76842963958762
 21
-206.5297896222196
 31
0.0
 73
     3
  0
TEXT
  5
382
  8
DIMNSIONS
 62
     7
 10
493.096663117074
 20
-342.5119825056567
 30
0.0
 40
40.721028645833343
  1
0°
 41
0.8
 11
493.096663117074
 21
-301.79095385982328
 31
0.0
 73
     3
  0
TEXT
  5
383
  8
DIMNSIONS
 62
     7
 10
642.329452664668
 20
-275.80485148443017
 30
0.0
 40
54.294704861111107
  1
Φ35 別売スタ ンドポールマウント穴
 41
0.8
 11
642.329452664668
 21
-221.51014662331909
 31
0.0
 73
     3
  0
TEXT
  5
384
  8
DIMNSIONS
 62
     7
 10
642.329452664668
 20
-375.80485148443017
 30
0.0
 40
54.294704861111107
  1
(穴:Φ36 - 深さ70)
 41
0.8
 11
642.329452664668
 21
-321.51014662331897
 31
0.0
 73
     3
  0
TEXT
  5
385
  8
DATA
 62
     7
 10
1774.9993750000001
 20
-619.93328624999947
 30
0.0
 40
36.64892578125
  1
JBL
 41
0.8
 11
1774.9993750000001
 21
-583.28436046874958
 31
0.0
 73
     3
  0
TEXT
  5
386
  8
DATA
 62
     7
 10
-175.0006249999999
 20
-832.07663624999975
 30
0.0
 40
24.4326171875
  1
仕様および外観は予告なく変更されることがありますので、ご了承ください。
 41
0.8
 11
-175.0006249999999
 21
-807.64401906249975
 31
0.0
 73
     3
  0
TEXT
  5
387
  8
DATA
 62
     7
 10
1774.9993750000001
 20
-728.6832862499997
 30
0.0
 40
36.64892578125
  1
SRX712M
 41
0.8
 11
1774.9993750000001
 21
-692.0343604687497
 31
0.0
 73
     3
  0
LINE
  5
388
  8
DATA
  6
CONTINUOUS
 62
     7
 10
8.0000000000001137
 20
0.0
 30
0.0
 11
341.25
 21
0.0
 31
0.0
  0
LINE
  5
389
  8
DATA
  6
CONTINUOUS
 62
     7
 10
0.0
 20
538.10000000000014
 30
0.0
 11
0.0
 21
8.0
 31
0.0
  0
ARC
  5
38A
  8
DATA
  6
CONTINUOUS
 62
     7
 10
8.0000000000001137
 20
8.0
 30
0.0
 40
8.0000000000001137
 50
180.0
 51
270.0
  0
LINE
  5
38B
  8
DATA
  6
CONTINUOUS
 62
     7
 10
0.0
 20
17.0
 30
0.0
 11
349.25000000000011
 21
17.0
 31
0.0
  0
LINE
  5
38C
  8
DATA
  6
CONTINUOUS
 62
     7
 10
32.000000000000121
 20
546.10000000000014
 30
0.0
 11
32.000000000000121
 21
0.0
 31
0.0
  0
LINE
  5
38D
  8
DATA
  6
CONTINUOUS
 62
     7
 10
349.25000000000011
 20
8.0
 30
0.0
 11
349.25000000000011
 21
538.10000000000014
 31
0.0
  0
LINE
  5
38E
  8
DATA
  6
CONTINUOUS
 62
     7
 10
8.0000000000001137
 20
546.10000000000014
 30
0.0
 11
341.25
 21
546.10000000000014
 31
0.0
  0
LINE
  5
38F
  8
DATA
  6
CONTINUOUS
 62
     7
 10
317.25000000000011
 20
546.10000000000014
 30
0.0
 11
317.25000000000011
 21
0.0
 31
0.0
  0
LINE
  5
390
  8
DATA
  6
CONTINUOUS
 62
     7
 10
0.0
 20
17.0
 30
0.0
 11
349.25000000000011
 21
17.0
 31
0.0
  0
LINE
  5
391
  8
DATA
  6
CONTINUOUS
 62
     7
 10
0.0
 20
529.09999999999991
 30
0.0
 11
349.25000000000011
 21
529.09999999999991
 31
0.0
  0
ARC
  5
392
  8
DATA
  6
CONTINUOUS
 62
     7
 10
8.0000000000001137
 20
538.10000000000014
 30
0.0
 40
8.0
 50
90.0
 51
180.0
  0
ARC
  5
393
  8
DATA
  6
CONTINUOUS
 62
     7
 10
341.25
 20
538.10000000000014
 30
0.0
 40
8.0
 50
0.0
 51
90.0
  0
ARC
  5
394
  8
DATA
  6
CONTINUOUS
 62
     7
 10
341.25
 20
8.0
 30
0.0
 40
8.0
 50
270.0
 51
0.0
  0
LINE
  5
395
  8
DATA
  6
CONTINUOUS
 62
     7
 10
349.25000000000011
 20
768.77877987534305
 30
0.0
 11
349.25000000000011
 21
901.01140708924243
 31
0.0
  0
LINE
  5
396
  8
DATA
  6
CONTINUOUS
 62
     7
 10
34.095608667276679
 20
746.10000000000014
 30
0.0
 11
315.15439133272389
 21
746.10000000000014
 31
0.0
  0
LINE
  5
397
  8
DATA
  6
CONTINUOUS
 62
     7
 10
319.07648124978442
 20
747.12739570300357
 30
0.0
 11
345.17208991706048
 21
761.8061755783466
 31
0.0
  0
LINE
  5
398
  8
DATA
  6
CONTINUOUS
 62
     7
 10
30.173518750216211
 20
747.12739570300357
 30
0.0
 11
4.0779100829395238
 21
761.8061755783466
 31
0.0
  0
LINE
  5
399
  8
DATA
  6
CONTINUOUS
 62
     7
 10
0.0
 20
768.77877987534271
 30
0.0
 11
0.0
 21
901.01140708924243
 31
0.0
  0
LINE
  5
39A
  8
DATA
  6
CONTINUOUS
 62
     7
 10
125.6250000000001
 20
868.10000000000002
 30
0.0
 11
223.62500000000011
 21
868.10000000000002
 31
0.0
  0
LINE
  5
39B
  8
DATA
  6
CONTINUOUS
 62
     7
 10
178.62500000000031
 20
961.7905989232413
 30
0.0
 11
227.62500000000011
 21
933.50043573294874
 31
0.0
  0
LINE
  5
39C
  8
DATA
  6
CONTINUOUS
 62
     7
 10
170.62500000000011
 20
961.7905989232413
 30
0.0
 11
121.6250000000001
 21
933.50043573294909
 31
0.0
  0
LINE
  5
39D
  8
DATA
  6
CONTINUOUS
 62
     7
 10
231.62500000000011
 20
876.10000000000014
 30
0.0
 11
231.62500000000011
 21
926.57223250267361
 31
0.0
  0
LINE
  5
39E
  8
DATA
  6
CONTINUOUS
 62
     7
 10
117.6250000000001
 20
876.10000000000014
 30
0.0
 11
117.6250000000001
 21
926.57223250267361
 31
0.0
  0
POLYLINE
  5
39F
  8
DATA
  6
CONTINUOUS
 62
     7
 66
     1
 10
0.0
 20
0.0
 30
0.0
 70
   129
  0
VERTEX
  5
58F
  8
DATA
  6
CONTINUOUS
 62
     7
 10
205.12500000000011
 20
927.10000000000002
 30
0.0
 42
-0.4142135623730951
  0
VERTEX
  5
590
  8
DATA
  6
CONTINUOUS
 62
     7
 10
207.12500000000011
 20
925.10000000000014
 30
0.0
  0
VERTEX
  5
591
  8
DATA
  6
CONTINUOUS
 62
     7
 10
207.12500000000011
 20
917.10000000000014
 30
0.0
 42
-0.4142135623730951
  0
VERTEX
  5
592
  8
DATA
  6
CONTINUOUS
 62
     7
 10
205.12500000000011
 20
915.09999999999991
 30
0.0
  0
VERTEX
  5
593
  8
DATA
  6
CONTINUOUS
 62
     7
 10
197.12500000000011
 20
915.09999999999991
 30
0.0
 42
-0.4142135623730951
  0
VERTEX
  5
594
  8
DATA
  6
CONTINUOUS
 62
     7
 10
195.125
 20
917.10000000000014
 30
0.0
  0
VERTEX
  5
595
  8
DATA
  6
CONTINUOUS
 62
     7
 10
195.125
 20
925.10000000000014
 30
0.0
 42
-0.4142135623730951
  0
VERTEX
  5
596
  8
DATA
  6
CONTINUOUS
 62
     7
 10
197.12500000000011
 20
927.10000000000002
 30
0.0
  0
SEQEND
  5
597
  8
DATA
  6
CONTINUOUS
 62
     7
  0
POLYLINE
  5
3A9
  8
DATA
  6
CONTINUOUS
 62
     7
 66
     1
 10
0.0
 20
0.0
 30
0.0
 70
     1
  0
VERTEX
  5
598
  8
DATA
  6
CONTINUOUS
 62
     7
 10
202.62500000000011
 20
925.60000000000002
 30
0.0
  0
VERTEX
  5
599
  8
DATA
  6
CONTINUOUS
 62
     7
 10
205.62500000000011
 20
925.60000000000002
 30
0.0
  0
VERTEX
  5
59A
  8
DATA
  6
CONTINUOUS
 62
     7
 10
205.62500000000011
 20
916.60000000000002
 30
0.0
  0
VERTEX
  5
59B
  8
DATA
  6
CONTINUOUS
 62
     7
 10
202.62500000000011
 20
916.60000000000002
 30
0.0
  0
SEQEND
  5
59C
  8
DATA
  6
CONTINUOUS
 62
     7
  0
LINE
  5
3AF
  8
DATA
  6
CONTINUOUS
 62
     7
 10
213.62500000000011
 20
930.60000000000002
 30
0.0
 11
213.62500000000011
 21
911.59999999999991
 31
0.0
  0
LINE
  5
3B0
  8
DATA
  6
CONTINUOUS
 62
     7
 10
188.62500000000011
 20
911.59999999999991
 30
0.0
 11
213.62500000000011
 21
911.59999999999991
 31
0.0
  0
LINE
  5
3B1
  8
DATA
  6
CONTINUOUS
 62
     7
 10
188.62500000000011
 20
930.60000000000002
 30
0.0
 11
213.62500000000011
 21
930.60000000000002
 31
0.0
  0
LINE
  5
3B2
  8
DATA
  6
CONTINUOUS
 62
     7
 10
188.62500000000011
 20
930.60000000000002
 30
0.0
 11
188.62500000000011
 21
911.59999999999991
 31
0.0
  0
ARC
  5
3B3
  8
DATA
  6
CONTINUOUS
 62
     7
 10
125.6250000000001
 20
876.10000000000014
 30
0.0
 40
8.0
 50
180.0
 51
270.0
  0
ARC
  5
3B4
  8
DATA
  6
CONTINUOUS
 62
     7
 10
223.62500000000011
 20
876.10000000000014
 30
0.0
 40
8.0
 50
270.0
 51
0.0
  0
ARC
  5
3B5
  8
DATA
  6
CONTINUOUS
 62
     7
 10
125.6250000000001
 20
926.57223250267361
 30
0.0
 40
8.0000000000000657
 50
119.9999999999997
 51
180.0
  0
ARC
  5
3B6
  8
DATA
  6
CONTINUOUS
 62
     7
 10
174.62500000000011
 20
954.86239569296583
 30
0.0
 40
8.0000000000000782
 50
59.999999999998472
 51
119.9999999999997
  0
ARC
  5
3B7
  8
DATA
  6
CONTINUOUS
 62
     7
 10
223.625
 20
926.57223250267361
 30
0.0
 40
8.0000000000001137
 50
359.9999999999992
 51
59.999999999998472
  0
LINE
  5
3B8
  8
DATA
  6
CONTINUOUS
 62
     7
 10
178.62500000000011
 20
1004.1405989232441
 30
0.0
 11
345.25000000000023
 21
907.9396103195179
 31
0.0
  0
LINE
  5
3B9
  8
DATA
  6
CONTINUOUS
 62
     7
 10
184.36778579257489
 20
1000.825
 30
0.0
 11
186.86778579257489
 21
1005.155127018922
 31
0.0
  0
LINE
  5
3BA
  8
DATA
  6
CONTINUOUS
 62
     7
 10
219.34373843449109
 20
986.40512701892214
 30
0.0
 11
216.84373843449109
 21
982.07500000000005
 31
0.0
  0
LINE
  5
3BB
  8
DATA
  6
CONTINUOUS
 62
     7
 10
308.2094185337495
 20
929.32500000000005
 30
0.0
 11
310.7094185337495
 21
933.65512701892214
 31
0.0
  0
LINE
  5
3BC
  8
DATA
  6
CONTINUOUS
 62
     7
 10
343.18537117566598
 20
914.90512701892214
 30
0.0
 11
340.68537117566609
 21
910.57500000000005
 31
0.0
  0
LINE
  5
3BD
  8
DATA
  6
CONTINUOUS
 62
     7
 10
186.86778579257489
 20
1005.155127018922
 30
0.0
 11
219.34373843449109
 21
986.40512701892214
 31
0.0
  0
LINE
  5
3BE
  8
DATA
  6
CONTINUOUS
 62
     7
 10
310.7094185337495
 20
933.65512701892214
 30
0.0
 11
343.18537117566598
 21
914.90512701892214
 31
0.0
  0
LINE
  5
3BF
  8
DATA
  6
CONTINUOUS
 62
     7
 10
170.6249999999998
 20
1004.1405989232441
 30
0.0
 11
3.9999999999998859
 21
907.9396103195179
 31
0.0
  0
LINE
  5
3C0
  8
DATA
  6
CONTINUOUS
 62
     7
 10
164.88221420742539
 20
1000.825
 30
0.0
 11
162.38221420742539
 21
1005.155127018922
 31
0.0
  0
LINE
  5
3C1
  8
DATA
  6
CONTINUOUS
 62
     7
 10
129.90626156550891
 20
986.40512701892214
 30
0.0
 11
132.40626156550891
 21
982.07500000000005
 31
0.0
  0
LINE
  5
3C2
  8
DATA
  6
CONTINUOUS
 62
     7
 10
41.040581466250728
 20
929.32500000000005
 30
0.0
 11
38.540581466250728
 21
933.65512701892214
 31
0.0
  0
LINE
  5
3C3
  8
DATA
  6
CONTINUOUS
 62
     7
 10
6.0646288243341351
 20
914.90512701892214
 30
0.0
 11
8.5646288243341342
 21
910.57500000000005
 31
0.0
  0
LINE
  5
3C4
  8
DATA
  6
CONTINUOUS
 62
     7
 10
162.38221420742539
 20
1005.155127018922
 30
0.0
 11
129.90626156550891
 21
986.40512701892214
 31
0.0
  0
LINE
  5
3C5
  8
DATA
  6
CONTINUOUS
 62
     7
 10
38.540581466250728
 20
933.65512701892214
 30
0.0
 11
6.0646288243341351
 21
914.90512701892214
 31
0.0
  0
LINE
  5
3C6
  8
DATA
  6
CONTINUOUS
 62
     7
 10
508.0
 20
546.10000000000014
 30
0.0
 11
752.3499999999998
 21
546.10000000000014
 31
0.0
  0
LINE
  5
3C7
  8
DATA
  6
CONTINUOUS
 62
     7
 10
500.0
 20
17.0
 30
0.0
 11
500.0
 21
8.0
 31
0.0
  0
LINE
  5
3C8
  8
DATA
  6
CONTINUOUS
 62
     7
 10
508.0
 20
0.0
 30
0.0
 11
752.3499999999998
 21
0.0
 31
0.0
  0
LINE
  5
3C9
  8
DATA
  6
CONTINUOUS
 62
     7
 10
760.34999999999968
 20
8.0
 30
0.0
 11
760.34999999999968
 21
538.10000000000014
 31
0.0
  0
LINE
  5
3CA
  8
DATA
  6
CONTINUOUS
 62
     7
 10
518.0
 20
546.10000000000014
 30
0.0
 11
518.0
 21
0.0
 31
0.0
  0
LINE
  5
3CB
  8
DATA
  6
CONTINUOUS
 62
     7
 10
659.53020924275927
 20
546.10000000000014
 30
0.0
 11
659.53020924275927
 21
0.0
 31
0.0
  0
LINE
  5
3CC
  8
DATA
  6
CONTINUOUS
 62
     7
 10
500.0
 20
529.09999999999991
 30
0.0
 11
548.0
 21
529.09999999999991
 31
0.0
  0
LINE
  5
3CD
  8
DATA
  6
CONTINUOUS
 62
     7
 10
500.0
 20
17.0
 30
0.0
 11
548.0
 21
17.0
 31
0.0
  0
LINE
  5
3CE
  8
DATA
  6
CONTINUOUS
 62
     7
 10
548.0
 20
529.09999999999991
 30
0.0
 11
548.0
 21
17.0
 31
0.0
  0
CIRCLE
  5
3CF
  8
DATA
  6
CONTINUOUS
 62
     7
 10
539.0
 20
273.05000000000001
 30
0.0
 40
3.5
  0
LINE
  5
3D0
  8
DATA
  6
CONTINUOUS
 62
     7
 10
539.0
 20
271.05000000000001
 30
0.0
 11
539.0
 21
275.05000000000001
 31
0.0
  0
LINE
  5
3D1
  8
DATA
  6
CONTINUOUS
 62
     7
 10
541.0
 20
273.05000000000001
 30
0.0
 11
537.0
 21
273.05000000000001
 31
0.0
  0
LINE
  5
3D2
  8
DATA
  6
CONTINUOUS
 62
     7
 10
502.0
 20
529.09999999999991
 30
0.0
 11
502.0
 21
17.0
 31
0.0
  0
LINE
  5
3D3
  8
DATA
  6
CONTINUOUS
 62
     7
 10
500.0
 20
538.10000000000014
 30
0.0
 11
500.0
 21
529.09999999999991
 31
0.0
  0
CIRCLE
  5
3D4
  8
DATA
  6
CONTINUOUS
 62
     7
 10
539.0
 20
440.05000000000001
 30
0.0
 40
3.5
  0
LINE
  5
3D5
  8
DATA
  6
CONTINUOUS
 62
     7
 10
539.0
 20
438.05000000000001
 30
0.0
 11
539.0
 21
442.05000000000001
 31
0.0
  0
LINE
  5
3D6
  8
DATA
  6
CONTINUOUS
 62
     7
 10
541.0
 20
440.05000000000001
 30
0.0
 11
537.0
 21
440.05000000000001
 31
0.0
  0
CIRCLE
  5
3D7
  8
DATA
  6
CONTINUOUS
 62
     7
 10
539.0
 20
106.0499999999999
 30
0.0
 40
3.5
  0
LINE
  5
3D8
  8
DATA
  6
CONTINUOUS
 62
     7
 10
539.0
 20
104.0499999999999
 30
0.0
 11
539.0
 21
108.05
 31
0.0
  0
LINE
  5
3D9
  8
DATA
  6
CONTINUOUS
 62
     7
 10
541.0
 20
106.0499999999999
 30
0.0
 11
537.0
 21
106.0499999999999
 31
0.0
  0
ARC
  5
3DA
  8
DATA
  6
CONTINUOUS
 62
     7
 10
508.0
 20
538.10000000000014
 30
0.0
 40
8.0
 50
90.0
 51
180.0
  0
ARC
  5
3DB
  8
DATA
  6
CONTINUOUS
 62
     7
 10
508.0
 20
8.0
 30
0.0
 40
8.0
 50
180.0
 51
270.0
  0
ARC
  5
3DC
  8
DATA
  6
CONTINUOUS
 62
     7
 10
752.3499999999998
 20
8.0
 30
0.0
 40
8.0
 50
270.0
 51
0.0
  0
ARC
  5
3DD
  8
DATA
  6
CONTINUOUS
 62
     7
 10
752.3499999999998
 20
538.10000000000014
 30
0.0
 40
8.0
 50
0.0
 51
90.0
  0
ARC
  5
3DE
  8
DATA
  6
CONTINUOUS
 62
     7
 10
678.18010911660713
 20
44.251870112593217
 30
0.0
 40
1.048129887559299
 50
46.8246586687467
 51
133.17534133125551
  0
ARC
  5
3DF
  8
DATA
  6
CONTINUOUS
 62
     7
 10
682.07258058117577
 20
41.54999999999972
 30
0.0
 40
5.767453562253551
 50
143.05853541851511
 51
216.9414645814831
  0
ARC
  5
3E0
  8
DATA
  6
CONTINUOUS
 62
     7
 10
678.18010911660713
 20
38.848129887406223
 30
0.0
 40
1.048129887559172
 50
226.82465866873591
 51
313.17534133126168
  0
ARC
  5
3E1
  8
DATA
  6
CONTINUOUS
 62
     7
 10
674.28767345666836
 20
41.54999999999972
 30
0.0
 40
5.7674535622534151
 50
323.0585354185169
 51
36.941464581484823
  0
ARC
  5
3E2
  8
DATA
  6
CONTINUOUS
 62
     7
 10
678.18003750734727
 20
55.05935056296812
 30
0.0
 40
5.2406494377959989
 50
46.824658668741598
 51
133.17534133125881
  0
ARC
  5
3E3
  8
DATA
  6
CONTINUOUS
 62
     7
 10
697.64239483019048
 20
41.54999999999972
 30
0.0
 40
28.837267811268031
 50
143.05853541851499
 51
216.94146458148501
  0
ARC
  5
3E4
  8
DATA
  6
CONTINUOUS
 62
     7
 10
678.18003750734727
 20
28.040649437031561
 30
0.0
 40
5.240649437796244
 50
226.82465866874239
 51
313.17534133125719
  0
ARC
  5
3E5
  8
DATA
  6
CONTINUOUS
 62
     7
 10
658.7178592076541
 20
41.54999999999972
 30
0.0
 40
28.837267811268031
 50
323.05853541851502
 51
36.941464581484979
  0
ARC
  5
3E6
  8
DATA
  6
CONTINUOUS
 62
     7
 10
673.88003750734731
 20
55.05935056296812
 30
0.0
 40
5.2406494377959252
 50
89.999020869956055
 51
133.17534133125841
  0
ARC
  5
3E7
  8
DATA
  6
CONTINUOUS
 62
     7
 10
693.34239483018996
 20
41.54999999999972
 30
0.0
 40
28.837267811267989
 50
143.05853541851491
 51
216.94146458148501
  0
ARC
  5
3E8
  8
DATA
  6
CONTINUOUS
 62
     7
 10
673.88003750734731
 20
28.040649437031561
 30
0.0
 40
5.240649437796244
 50
226.82465866874239
 51
270.00097913004328
  0
LINE
  5
3E9
  8
DATA
  6
CONTINUOUS
 62
     7
 10
678.18012701892201
 20
60.300000000000857
 30
0.0
 11
673.87994794966312
 21
60.300000000000857
 31
0.0
  0
LINE
  5
3EA
  8
DATA
  6
CONTINUOUS
 62
     7
 10
678.18012701892201
 20
22.799999999998821
 30
0.0
 11
673.87994794966312
 21
22.799999999998821
 31
0.0
  0
ARC
  5
3EB
  8
DATA
  6
CONTINUOUS
 62
     7
 10
749.6801091166069
 20
507.25187011259362
 30
0.0
 40
1.0481298875592551
 50
46.824658668740177
 51
133.1753413312575
  0
ARC
  5
3EC
  8
DATA
  6
CONTINUOUS
 62
     7
 10
753.57258058117566
 20
504.55000000000001
 30
0.0
 40
5.767453562253551
 50
143.05853541851511
 51
216.9414645814845
  0
ARC
  5
3ED
  8
DATA
  6
CONTINUOUS
 62
     7
 10
749.6801091166069
 20
501.8481298874064
 30
0.0
 40
1.048129887559299
 50
226.82465866874679
 51
313.17534133125559
  0
ARC
  5
3EE
  8
DATA
  6
CONTINUOUS
 62
     7
 10
745.7876734566687
 20
504.55000000000001
 30
0.0
 40
5.767453562253551
 50
323.05853541851519
 51
36.941464581485562
  0
ARC
  5
3EF
  8
DATA
  6
CONTINUOUS
 62
     7
 10
749.68003750734727
 20
518.05935056296801
 30
0.0
 40
5.2406494377962476
 50
46.824658668744149
 51
133.17534133125719
  0
ARC
  5
3F0
  8
DATA
  6
CONTINUOUS
 62
     7
 10
769.14239483019026
 20
504.55000000000001
 30
0.0
 40
28.837267811268099
 50
143.05853541851479
 51
216.94146458148481
  0
ARC
  5
3F1
  8
DATA
  6
CONTINUOUS
 62
     7
 10
749.68003750734727
 20
491.04064943703179
 30
0.0
 40
5.2406494377961614
 50
226.82465866874159
 51
313.17534133125798
  0
ARC
  5
3F2
  8
DATA
  6
CONTINUOUS
 62
     7
 10
730.2178592076541
 20
504.55000000000001
 30
0.0
 40
28.837267811267971
 50
323.05853541851519
 51
36.94146458148515
  0
ARC
  5
3F3
  8
DATA
  6
CONTINUOUS
 62
     7
 10
745.3800375073472
 20
518.05935056296801
 30
0.0
 40
5.2406494377961517
 50
89.999020869955444
 51
133.17534133125619
  0
ARC
  5
3F4
  8
DATA
  6
CONTINUOUS
 62
     7
 10
764.84239483019019
 20
504.55000000000001
 30
0.0
 40
28.837267811268049
 50
143.05853541851471
 51
216.94146458148481
  0
ARC
  5
3F5
  8
DATA
  6
CONTINUOUS
 62
     7
 10
745.3800375073472
 20
491.04064943703179
 30
0.0
 40
5.2406494377961206
 50
226.82465866874199
 51
270.0009791300439
  0
LINE
  5
3F6
  8
DATA
  6
CONTINUOUS
 62
     7
 10
749.68012701892212
 20
523.30000000000109
 30
0.0
 11
745.37994794966289
 21
523.30000000000109
 31
0.0
  0
LINE
  5
3F7
  8
DATA
  6
CONTINUOUS
 62
     7
 10
749.68012701892212
 20
485.79999999999882
 30
0.0
 11
745.37994794966289
 21
485.79999999999882
 31
0.0
  0
ARC
  5
3F8
  8
DATA
  6
CONTINUOUS
 62
     7
 10
749.6801091166069
 20
44.251870112593217
 30
0.0
 40
1.0481298875593379
 50
46.824658668744433
 51
133.17534133125329
  0
ARC
  5
3F9
  8
DATA
  6
CONTINUOUS
 62
     7
 10
753.57258058117566
 20
41.54999999999972
 30
0.0
 40
5.767453562253551
 50
143.05853541851511
 51
216.9414645814831
  0
ARC
  5
3FA
  8
DATA
  6
CONTINUOUS
 62
     7
 10
749.6801091166069
 20
38.848129887406223
 30
0.0
 40
1.0481298875591329
 50
226.82465866873821
 51
313.17534133126412
  0
ARC
  5
3FB
  8
DATA
  6
CONTINUOUS
 62
     7
 10
745.7876734566687
 20
41.54999999999972
 30
0.0
 40
5.7674535622534151
 50
323.0585354185169
 51
36.941464581484823
  0
ARC
  5
3FC
  8
DATA
  6
CONTINUOUS
 62
     7
 10
749.68003750734727
 20
55.05935056296812
 30
0.0
 40
5.2406494377959989
 50
46.824658668741598
 51
133.17534133125881
  0
ARC
  5
3FD
  8
DATA
  6
CONTINUOUS
 62
     7
 10
769.14239483019026
 20
41.54999999999972
 30
0.0
 40
28.837267811268031
 50
143.05853541851499
 51
216.94146458148501
  0
ARC
  5
3FE
  8
DATA
  6
CONTINUOUS
 62
     7
 10
749.68003750734727
 20
28.040649437031561
 30
0.0
 40
5.240649437796244
 50
226.82465866874239
 51
313.17534133125719
  0
ARC
  5
3FF
  8
DATA
  6
CONTINUOUS
 62
     7
 10
730.2178592076541
 20
41.54999999999972
 30
0.0
 40
28.837267811268031
 50
323.05853541851502
 51
36.941464581484979
  0
ARC
  5
400
  8
DATA
  6
CONTINUOUS
 62
     7
 10
745.3800375073472
 20
55.05935056296812
 30
0.0
 40
5.2406494377959252
 50
89.999020869955444
 51
133.1753413312579
  0
ARC
  5
401
  8
DATA
  6
CONTINUOUS
 62
     7
 10
764.84239483019019
 20
41.54999999999972
 30
0.0
 40
28.837267811267989
 50
143.05853541851491
 51
216.94146458148501
  0
ARC
  5
402
  8
DATA
  6
CONTINUOUS
 62
     7
 10
745.3800375073472
 20
28.040649437031561
 30
0.0
 40
5.2406494377962041
 50
226.8246586687429
 51
270.0009791300439
  0
LINE
  5
403
  8
DATA
  6
CONTINUOUS
 62
     7
 10
749.68012701892212
 20
60.300000000000857
 30
0.0
 11
745.37994794966289
 21
60.300000000000857
 31
0.0
  0
LINE
  5
404
  8
DATA
  6
CONTINUOUS
 62
     7
 10
749.68012701892212
 20
22.799999999998821
 30
0.0
 11
745.37994794966289
 21
22.799999999998821
 31
0.0
  0
ARC
  5
405
  8
DATA
  6
CONTINUOUS
 62
     7
 10
678.18010911660713
 20
507.25187011259362
 30
0.0
 40
1.048129887559216
 50
46.824658668742451
 51
133.1753413312598
  0
ARC
  5
406
  8
DATA
  6
CONTINUOUS
 62
     7
 10
682.07258058117577
 20
504.55000000000001
 30
0.0
 40
5.767453562253551
 50
143.05853541851511
 51
216.9414645814845
  0
ARC
  5
407
  8
DATA
  6
CONTINUOUS
 62
     7
 10
678.18010911660713
 20
501.8481298874064
 30
0.0
 40
1.0481298875593379
 50
226.82465866874441
 51
313.17534133125332
  0
ARC
  5
408
  8
DATA
  6
CONTINUOUS
 62
     7
 10
674.28767345666836
 20
504.55000000000001
 30
0.0
 40
5.767453562253551
 50
323.05853541851519
 51
36.941464581485562
  0
ARC
  5
409
  8
DATA
  6
CONTINUOUS
 62
     7
 10
678.18003750734727
 20
518.05935056296801
 30
0.0
 40
5.2406494377962476
 50
46.824658668744149
 51
133.17534133125719
  0
ARC
  5
40A
  8
DATA
  6
CONTINUOUS
 62
     7
 10
697.64239483019048
 20
504.55000000000001
 30
0.0
 40
28.837267811268099
 50
143.05853541851479
 51
216.94146458148481
  0
ARC
  5
40B
  8
DATA
  6
CONTINUOUS
 62
     7
 10
678.18003750734727
 20
491.04064943703179
 30
0.0
 40
5.2406494377961614
 50
226.82465866874159
 51
313.17534133125798
  0
ARC
  5
40C
  8
DATA
  6
CONTINUOUS
 62
     7
 10
658.7178592076541
 20
504.55000000000001
 30
0.0
 40
28.837267811267971
 50
323.05853541851519
 51
36.94146458148515
  0
ARC
  5
40D
  8
DATA
  6
CONTINUOUS
 62
     7
 10
673.88003750734731
 20
518.05935056296801
 30
0.0
 40
5.2406494377961517
 50
89.999020869956055
 51
133.1753413312567
  0
ARC
  5
40E
  8
DATA
  6
CONTINUOUS
 62
     7
 10
693.34239483018996
 20
504.55000000000001
 30
0.0
 40
28.837267811268049
 50
143.05853541851471
 51
216.94146458148481
  0
ARC
  5
40F
  8
DATA
  6
CONTINUOUS
 62
     7
 10
673.88003750734731
 20
491.04064943703179
 30
0.0
 40
5.2406494377961614
 50
226.82465866874159
 51
270.00097913004328
  0
LINE
  5
410
  8
DATA
  6
CONTINUOUS
 62
     7
 10
678.18012701892201
 20
523.30000000000109
 30
0.0
 11
673.87994794966312
 21
523.30000000000109
 31
0.0
  0
LINE
  5
411
  8
DATA
  6
CONTINUOUS
 62
     7
 10
678.18012701892201
 20
485.79999999999882
 30
0.0
 11
673.87994794966312
 21
485.79999999999882
 31
0.0
  0
LINE
  5
412
  8
DATA
  6
CONTINUOUS
 62
     7
 10
908.0
 20
546.10000000000014
 30
0.0
 11
1241.25
 21
546.10000000000014
 31
0.0
  0
LINE
  5
413
  8
DATA
  6
CONTINUOUS
 62
     7
 10
900.0
 20
538.10000000000014
 30
0.0
 11
900.0
 21
8.0
 31
0.0
  0
LINE
  5
414
  8
DATA
  6
CONTINUOUS
 62
     7
 10
908.0
 20
0.0
 30
0.0
 11
1241.25
 21
0.0
 31
0.0
  0
LINE
  5
415
  8
DATA
  6
CONTINUOUS
 62
     7
 10
1249.25
 20
8.0
 30
0.0
 11
1249.25
 21
538.10000000000014
 31
0.0
  0
LINE
  5
416
  8
DATA
  6
CONTINUOUS
 62
     7
 10
1074.625
 20
546.10000000000014
 30
0.0
 11
1074.625
 21
0.0
 31
0.0
  0
ARC
  5
417
  8
DATA
  6
CONTINUOUS
 62
     7
 10
924.80260292079447
 20
508.72428316820918
 30
0.0
 40
14.575843389393469
 50
51.963681332795858
 51
94.919633263263734
  0
ARC
  5
418
  8
DATA
  6
CONTINUOUS
 62
     7
 10
924.80260292079447
 20
500.37571683179061
 30
0.0
 40
14.575843389393331
 50
265.08036673673729
 51
308.03631866720377
  0
ARC
  5
419
  8
DATA
  6
CONTINUOUS
 62
     7
 10
920.52727545295181
 20
504.55000000000001
 30
0.0
 40
20.513306013298781
 50
310.2582443888104
 51
49.741755611189539
  0
ARC
  5
41A
  8
DATA
  6
CONTINUOUS
 62
     7
 10
922.30260292079447
 20
508.72428316820918
 30
0.0
 40
14.575843389393469
 50
51.963681332795858
 51
128.03631866720411
  0
ARC
  5
41B
  8
DATA
  6
CONTINUOUS
 62
     7
 10
922.30260292079447
 20
500.37571683179061
 30
0.0
 40
14.57584338939343
 50
231.96368133279611
 51
308.03631866720451
  0
ARC
  5
41C
  8
DATA
  6
CONTINUOUS
 62
     7
 10
926.49530512331285
 20
504.51169185588731
 30
0.0
 40
20.430712213419302
 50
127.1878876312032
 51
229.84916002129481
  0
ARC
  5
41D
  8
DATA
  6
CONTINUOUS
 62
     7
 10
918.02727545295204
 20
504.55000000000001
 30
0.0
 40
20.513306013298781
 50
310.2582443888104
 51
49.741755611189539
  0
ARC
  5
41E
  8
DATA
  6
CONTINUOUS
 62
     7
 10
922.30259033461675
 20
505.38485663364179
 30
0.0
 40
2.915168677878726
 50
51.963681332797222
 51
128.03631866720369
  0
ARC
  5
41F
  8
DATA
  6
CONTINUOUS
 62
     7
 10
922.30259033461675
 20
503.71514336635801
 30
0.0
 40
2.9151686778785821
 50
231.96368133279361
 51
308.03631866720548
  0
ARC
  5
420
  8
DATA
  6
CONTINUOUS
 62
     7
 10
923.14113077512013
 20
504.54233837117738
 30
0.0
 40
4.0861424426838244
 50
127.18788763120359
 51
229.84916002129529
  0
ARC
  5
421
  8
DATA
  6
CONTINUOUS
 62
     7
 10
921.44752484104788
 20
504.55000000000001
 30
0.0
 40
4.1026612026597107
 50
310.25824438881119
 51
49.741755611191707
  0
ARC
  5
422
  8
DATA
  6
CONTINUOUS
 62
     7
 10
924.80260292079447
 20
45.72428316820924
 30
0.0
 40
14.575843389393469
 50
51.963681332795858
 51
94.919633263263734
  0
ARC
  5
423
  8
DATA
  6
CONTINUOUS
 62
     7
 10
924.80260292079447
 20
37.375716831790662
 30
0.0
 40
14.575843389393111
 50
265.08036673673718
 51
308.03631866720389
  0
ARC
  5
424
  8
DATA
  6
CONTINUOUS
 62
     7
 10
920.52727545295181
 20
41.549999999999962
 30
0.0
 40
20.513306013298781
 50
310.2582443888104
 51
49.741755611189653
  0
ARC
  5
425
  8
DATA
  6
CONTINUOUS
 62
     7
 10
922.30260292079447
 20
45.72428316820924
 30
0.0
 40
14.575843389393469
 50
51.963681332795858
 51
128.03631866720411
  0
ARC
  5
426
  8
DATA
  6
CONTINUOUS
 62
     7
 10
922.30260292079447
 20
37.375716831790662
 30
0.0
 40
14.57584338939343
 50
231.96368133279611
 51
308.03631866720411
  0
ARC
  5
427
  8
DATA
  6
CONTINUOUS
 62
     7
 10
926.49530512331285
 20
41.51169185588742
 30
0.0
 40
20.430712213419302
 50
127.1878876312032
 51
229.84916002129481
  0
ARC
  5
428
  8
DATA
  6
CONTINUOUS
 62
     7
 10
918.02727545295204
 20
41.549999999999962
 30
0.0
 40
20.513306013298781
 50
310.2582443888104
 51
49.741755611189653
  0
ARC
  5
429
  8
DATA
  6
CONTINUOUS
 62
     7
 10
922.30259033461675
 20
42.384856633641903
 30
0.0
 40
2.9151686778788162
 50
51.963681332798593
 51
128.03631866720229
  0
ARC
  5
42A
  8
DATA
  6
CONTINUOUS
 62
     7
 10
922.30259033461675
 20
40.715143366357999
 30
0.0
 40
2.9151686778784929
 50
231.96368133279211
 51
308.0363186672069
  0
ARC
  5
42B
  8
DATA
  6
CONTINUOUS
 62
     7
 10
923.14113077512013
 20
41.542338371177493
 30
0.0
 40
4.0861424426838244
 50
127.18788763120359
 51
229.84916002129421
  0
ARC
  5
42C
  8
DATA
  6
CONTINUOUS
 62
     7
 10
921.44752484104788
 20
41.549999999999962
 30
0.0
 40
4.1026612026596236
 50
310.25824438881227
 51
49.741755611191707
  0
ARC
  5
42D
  8
DATA
  6
CONTINUOUS
 62
     7
 10
1048.6426029207939
 20
508.72428316820918
 30
0.0
 40
14.575843389393469
 50
51.963681332795858
 51
94.919633263263734
  0
ARC
  5
42E
  8
DATA
  6
CONTINUOUS
 62
     7
 10
1048.6426029207939
 20
500.37571683179061
 30
0.0
 40
14.575843389393331
 50
265.08036673673729
 51
308.03631866720377
  0
ARC
  5
42F
  8
DATA
  6
CONTINUOUS
 62
     7
 10
1044.3672754529521
 20
504.55000000000001
 30
0.0
 40
20.513306013298781
 50
310.2582443888104
 51
49.741755611189539
  0
ARC
  5
430
  8
DATA
  6
CONTINUOUS
 62
     7
 10
1046.1426029207939
 20
508.72428316820918
 30
0.0
 40
14.575843389393469
 50
51.963681332795858
 51
128.036318667204
  0
ARC
  5
431
  8
DATA
  6
CONTINUOUS
 62
     7
 10
1046.1426029207939
 20
500.37571683179061
 30
0.0
 40
14.575843389393359
 50
231.9636813327964
 51
308.03631866720423
  0
ARC
  5
432
  8
DATA
  6
CONTINUOUS
 62
     7
 10
1050.335305123313
 20
504.51169185588731
 30
0.0
 40
20.430712213419302
 50
127.1878876312032
 51
229.84916002129509
  0
ARC
  5
433
  8
DATA
  6
CONTINUOUS
 62
     7
 10
1041.8672754529521
 20
504.55000000000001
 30
0.0
 40
20.513306013298781
 50
310.2582443888104
 51
49.741755611189539
  0
ARC
  5
434
  8
DATA
  6
CONTINUOUS
 62
     7
 10
1046.142590334616
 20
505.38485663364179
 30
0.0
 40
2.9151686778787962
 50
51.96368133279546
 51
128.03631866720229
  0
ARC
  5
435
  8
DATA
  6
CONTINUOUS
 62
     7
 10
1046.142590334616
 20
503.71514336635801
 30
0.0
 40
2.9151686778785471
 50
231.96368133279449
 51
308.03631866720548
  0
ARC
  5
436
  8
DATA
  6
CONTINUOUS
 62
     7
 10
1046.9811307751199
 20
504.54233837117738
 30
0.0
 40
4.0861424426837889
 50
127.187887631203
 51
229.84916002129421
  0
ARC
  5
437
  8
DATA
  6
CONTINUOUS
 62
     7
 10
1045.287524841048
 20
504.55000000000001
 30
0.0
 40
4.1026612026597844
 50
310.25824438881239
 51
49.74175561119047
  0
ARC
  5
438
  8
DATA
  6
CONTINUOUS
 62
     7
 10
1048.6426029207939
 20
45.72428316820924
 30
0.0
 40
14.575843389393469
 50
51.963681332795858
 51
94.919633263263734
  0
ARC
  5
439
  8
DATA
  6
CONTINUOUS
 62
     7
 10
1048.6426029207939
 20
37.375716831790662
 30
0.0
 40
14.575843389393111
 50
265.08036673673718
 51
308.03631866720389
  0
ARC
  5
43A
  8
DATA
  6
CONTINUOUS
 62
     7
 10
1044.3672754529521
 20
41.549999999999962
 30
0.0
 40
20.513306013298781
 50
310.2582443888104
 51
49.741755611189539
  0
ARC
  5
43B
  8
DATA
  6
CONTINUOUS
 62
     7
 10
1046.1426029207939
 20
45.72428316820924
 30
0.0
 40
14.575843389393469
 50
51.963681332795858
 51
128.036318667204
  0
ARC
  5
43C
  8
DATA
  6
CONTINUOUS
 62
     7
 10
1046.1426029207939
 20
37.375716831790662
 30
0.0
 40
14.575843389393359
 50
231.9636813327964
 51
308.03631866720451
  0
ARC
  5
43D
  8
DATA
  6
CONTINUOUS
 62
     7
 10
1050.335305123313
 20
41.51169185588742
 30
0.0
 40
20.430712213419302
 50
127.1878876312032
 51
229.84916002129501
  0
ARC
  5
43E
  8
DATA
  6
CONTINUOUS
 62
     7
 10
1041.8672754529521
 20
41.549999999999962
 30
0.0
 40
20.513306013298781
 50
310.2582443888104
 51
49.741755611189539
  0
ARC
  5
43F
  8
DATA
  6
CONTINUOUS
 62
     7
 10
1046.142590334616
 20
42.384856633641903
 30
0.0
 40
2.9151686778788859
 50
51.963681332796831
 51
128.03631866720229
  0
ARC
  5
440
  8
DATA
  6
CONTINUOUS
 62
     7
 10
1046.142590334616
 20
40.715143366357999
 30
0.0
 40
2.9151686778784578
 50
231.9636813327931
 51
308.0363186672069
  0
ARC
  5
441
  8
DATA
  6
CONTINUOUS
 62
     7
 10
1046.9811307751199
 20
41.542338371177493
 30
0.0
 40
4.0861424426837889
 50
127.187887631203
 51
229.84916002129421
  0
ARC
  5
442
  8
DATA
  6
CONTINUOUS
 62
     7
 10
1045.287524841048
 20
41.549999999999962
 30
0.0
 40
4.1026612026596974
 50
310.25824438881341
 51
49.74175561119047
  0
ARC
  5
443
  8
DATA
  6
CONTINUOUS
 62
     7
 10
1224.4473970792051
 20
508.72428316820918
 30
0.0
 40
14.575843389393359
 50
85.080366736736181
 51
128.0363186672044
  0
ARC
  5
444
  8
DATA
  6
CONTINUOUS
 62
     7
 10
1224.4473970792051
 20
500.37571683179061
 30
0.0
 40
14.5758433893934
 50
231.96368133279631
 51
274.91963326326299
  0
ARC
  5
445
  8
DATA
  6
CONTINUOUS
 62
     7
 10
1228.7227245470481
 20
504.55000000000001
 30
0.0
 40
20.513306013298809
 50
130.25824438881051
 51
229.74175561118949
  0
ARC
  5
446
  8
DATA
  6
CONTINUOUS
 62
     7
 10
1226.9473970792051
 20
508.72428316820918
 30
0.0
 40
14.575843389393469
 50
51.963681332795858
 51
128.03631866720411
  0
ARC
  5
447
  8
DATA
  6
CONTINUOUS
 62
     7
 10
1226.9473970792051
 20
500.37571683179061
 30
0.0
 40
14.575843389393469
 50
231.9636813327958
 51
308.03631866720423
  0
ARC
  5
448
  8
DATA
  6
CONTINUOUS
 62
     7
 10
1222.7546948766869
 20
504.51169185588731
 30
0.0
 40
20.43071221341933
 50
310.15083997870482
 51
52.812112368796647
  0
ARC
  5
449
  8
DATA
  6
CONTINUOUS
 62
     7
 10
1231.2227245470481
 20
504.55000000000001
 30
0.0
 40
20.513306013298809
 50
130.25824438881051
 51
229.74175561118949
  0
ARC
  5
44A
  8
DATA
  6
CONTINUOUS
 62
     7
 10
1226.947409665383
 20
505.38485663364179
 30
0.0
 40
2.915168677878762
 50
51.963681332796341
 51
128.0363186672005
  0
ARC
  5
44B
  8
DATA
  6
CONTINUOUS
 62
     7
 10
1226.947409665383
 20
503.71514336635801
 30
0.0
 40
2.915168677878512
 50
231.96368133279529
 51
308.03631866720769
  0
ARC
  5
44C
  8
DATA
  6
CONTINUOUS
 62
     7
 10
1226.10886922488
 20
504.54233837117738
 30
0.0
 40
4.0861424426838351
 50
310.15083997870482
 51
52.812112368795788
  0
ARC
  5
44D
  8
DATA
  6
CONTINUOUS
 62
     7
 10
1227.8024751589519
 20
504.55000000000001
 30
0.0
 40
4.1026612026598839
 50
130.25824438880909
 51
229.74175561118739
  0
ARC
  5
44E
  8
DATA
  6
CONTINUOUS
 62
     7
 10
1224.4473970792051
 20
45.72428316820924
 30
0.0
 40
14.575843389393359
 50
85.080366736736181
 51
128.03631866720411
  0
ARC
  5
44F
  8
DATA
  6
CONTINUOUS
 62
     7
 10
1224.4473970792051
 20
37.375716831790662
 30
0.0
 40
14.5758433893934
 50
231.96368133279631
 51
274.91963326326299
  0
ARC
  5
450
  8
DATA
  6
CONTINUOUS
 62
     7
 10
1228.7227245470481
 20
41.549999999999962
 30
0.0
 40
20.513306013298809
 50
130.25824438881051
 51
229.74175561118921
  0
ARC
  5
451
  8
DATA
  6
CONTINUOUS
 62
     7
 10
1226.9473970792051
 20
45.72428316820924
 30
0.0
 40
14.575843389393469
 50
51.963681332795858
 51
128.03631866720411
  0
ARC
  5
452
  8
DATA
  6
CONTINUOUS
 62
     7
 10
1226.9473970792051
 20
37.375716831790662
 30
0.0
 40
14.575843389393469
 50
231.9636813327958
 51
308.03631866720423
  0
ARC
  5
453
  8
DATA
  6
CONTINUOUS
 62
     7
 10
1222.7546948766869
 20
41.51169185588742
 30
0.0
 40
20.43071221341933
 50
310.15083997870482
 51
52.812112368796647
  0
ARC
  5
454
  8
DATA
  6
CONTINUOUS
 62
     7
 10
1231.2227245470481
 20
41.549999999999962
 30
0.0
 40
20.513306013298809
 50
130.25824438881051
 51
229.74175561118921
  0
ARC
  5
455
  8
DATA
  6
CONTINUOUS
 62
     7
 10
1226.947409665383
 20
42.384856633641903
 30
0.0
 40
2.9151686778788508
 50
51.963681332797691
 51
128.0363186672005
  0
ARC
  5
456
  8
DATA
  6
CONTINUOUS
 62
     7
 10
1226.947409665383
 20
40.715143366357999
 30
0.0
 40
2.9151686778784232
 50
231.96368133279401
 51
308.03631866720769
  0
ARC
  5
457
  8
DATA
  6
CONTINUOUS
 62
     7
 10
1226.10886922488
 20
41.542338371177493
 30
0.0
 40
4.086142442683748
 50
310.15083997870579
 51
52.812112368795788
  0
ARC
  5
458
  8
DATA
  6
CONTINUOUS
 62
     7
 10
1227.8024751589519
 20
41.549999999999962
 30
0.0
 40
4.1026612026599709
 50
130.25824438880801
 51
229.74175561118739
  0
ARC
  5
459
  8
DATA
  6
CONTINUOUS
 62
     7
 10
1100.6073970792049
 20
508.72428316820918
 30
0.0
 40
14.575843389393359
 50
85.080366736736181
 51
128.0363186672044
  0
ARC
  5
45A
  8
DATA
  6
CONTINUOUS
 62
     7
 10
1100.6073970792049
 20
500.37571683179061
 30
0.0
 40
14.57584338939343
 50
231.96368133279611
 51
274.91963326326248
  0
ARC
  5
45B
  8
DATA
  6
CONTINUOUS
 62
     7
 10
1104.8827245470479
 20
504.55000000000001
 30
0.0
 40
20.513306013298809
 50
130.25824438881051
 51
229.74175561118949
  0
ARC
  5
45C
  8
DATA
  6
CONTINUOUS
 62
     7
 10
1103.1073970792049
 20
508.72428316820918
 30
0.0
 40
14.5758433893934
 50
51.963681332796213
 51
128.03631866720389
  0
ARC
  5
45D
  8
DATA
  6
CONTINUOUS
 62
     7
 10
1103.1073970792049
 20
500.37571683179061
 30
0.0
 40
14.57584338939354
 50
231.9636813327956
 51
308.03631866720423
  0
ARC
  5
45E
  8
DATA
  6
CONTINUOUS
 62
     7
 10
1098.914694876687
 20
504.51169185588731
 30
0.0
 40
20.43071221341933
 50
310.15083997870482
 51
52.812112368796647
  0
ARC
  5
45F
  8
DATA
  6
CONTINUOUS
 62
     7
 10
1107.3827245470479
 20
504.55000000000001
 30
0.0
 40
20.513306013298809
 50
130.25824438881051
 51
229.74175561118949
  0
ARC
  5
460
  8
DATA
  6
CONTINUOUS
 62
     7
 10
1103.1074096653831
 20
505.38485663364179
 30
0.0
 40
2.915168677878726
 50
51.963681332797222
 51
128.03631866720369
  0
ARC
  5
461
  8
DATA
  6
CONTINUOUS
 62
     7
 10
1103.1074096653831
 20
503.71514336635801
 30
0.0
 40
2.9151686778785821
 50
231.96368133279361
 51
308.03631866720548
  0
ARC
  5
462
  8
DATA
  6
CONTINUOUS
 62
     7
 10
1102.2688692248801
 20
504.54233837117738
 30
0.0
 40
4.0861424426838351
 50
310.15083997870482
 51
52.812112368797052
  0
ARC
  5
463
  8
DATA
  6
CONTINUOUS
 62
     7
 10
1103.962475158952
 20
504.55000000000001
 30
0.0
 40
4.1026612026598839
 50
130.25824438880909
 51
229.74175561118861
  0
ARC
  5
464
  8
DATA
  6
CONTINUOUS
 62
     7
 10
1100.6073970792049
 20
45.72428316820924
 30
0.0
 40
14.575843389393359
 50
85.080366736736181
 51
128.03631866720411
  0
ARC
  5
465
  8
DATA
  6
CONTINUOUS
 62
     7
 10
1100.6073970792049
 20
37.375716831790662
 30
0.0
 40
14.57584338939343
 50
231.96368133279611
 51
274.91963326326248
  0
ARC
  5
466
  8
DATA
  6
CONTINUOUS
 62
     7
 10
1104.8827245470479
 20
41.549999999999962
 30
0.0
 40
20.513306013298809
 50
130.25824438881051
 51
229.7417556111894
  0
ARC
  5
467
  8
DATA
  6
CONTINUOUS
 62
     7
 10
1103.1073970792049
 20
45.72428316820924
 30
0.0
 40
14.5758433893934
 50
51.963681332796213
 51
128.03631866720389
  0
ARC
  5
468
  8
DATA
  6
CONTINUOUS
 62
     7
 10
1103.1073970792049
 20
37.375716831790662
 30
0.0
 40
14.57584338939354
 50
231.9636813327956
 51
308.03631866720423
  0
ARC
  5
469
  8
DATA
  6
CONTINUOUS
 62
     7
 10
1098.914694876687
 20
41.51169185588742
 30
0.0
 40
20.43071221341933
 50
310.15083997870482
 51
52.812112368796569
  0
ARC
  5
46A
  8
DATA
  6
CONTINUOUS
 62
     7
 10
1107.3827245470479
 20
41.549999999999962
 30
0.0
 40
20.513306013298809
 50
130.25824438881051
 51
229.7417556111894
  0
ARC
  5
46B
  8
DATA
  6
CONTINUOUS
 62
     7
 10
1103.1074096653831
 20
42.384856633641903
 30
0.0
 40
2.9151686778788162
 50
51.963681332798593
 51
128.03631866720229
  0
ARC
  5
46C
  8
DATA
  6
CONTINUOUS
 62
     7
 10
1103.1074096653831
 20
40.715143366357999
 30
0.0
 40
2.9151686778784929
 50
231.96368133279211
 51
308.0363186672069
  0
ARC
  5
46D
  8
DATA
  6
CONTINUOUS
 62
     7
 10
1102.2688692248801
 20
41.542338371177493
 30
0.0
 40
4.086142442683748
 50
310.15083997870579
 51
52.812112368797102
  0
ARC
  5
46E
  8
DATA
  6
CONTINUOUS
 62
     7
 10
1103.962475158952
 20
41.549999999999962
 30
0.0
 40
4.1026612026599709
 50
130.25824438880801
 51
229.74175561118801
  0
LINE
  5
46F
  8
DATA
  6
CONTINUOUS
 62
     7
 10
349.25000000000011
 20
-222.6787798753428
 30
0.0
 11
349.25000000000011
 21
-354.9114070892424
 31
0.0
  0
LINE
  5
470
  8
DATA
  6
CONTINUOUS
 62
     7
 10
34.095608667276451
 20
-200.0
 30
0.0
 11
315.15439133272372
 21
-200.0
 31
0.0
  0
LINE
  5
471
  8
DATA
  6
CONTINUOUS
 62
     7
 10
319.07648124978419
 20
-201.02739570300361
 30
0.0
 11
345.17208991706048
 21
-215.7061755783464
 31
0.0
  0
LINE
  5
472
  8
DATA
  6
CONTINUOUS
 62
     7
 10
30.17351875021598
 20
-201.02739570300361
 30
0.0
 11
4.0779100829395238
 21
-215.7061755783466
 31
0.0
  0
LINE
  5
473
  8
DATA
  6
CONTINUOUS
 62
     7
 10
0.0
 20
-222.678779875343
 30
0.0
 11
0.0
 21
-354.9114070892424
 31
0.0
  0
LINE
  5
474
  8
DATA
  6
CONTINUOUS
 62
     7
 10
178.6250000000002
 20
-458.04059892324142
 30
0.0
 11
345.25000000000023
 21
-361.8396103195177
 31
0.0
  0
LINE
  5
475
  8
DATA
  6
CONTINUOUS
 62
     7
 10
184.36778579257489
 20
-454.72499999999991
 30
0.0
 11
186.86778579257489
 21
-459.05512701892201
 31
0.0
  0
LINE
  5
476
  8
DATA
  6
CONTINUOUS
 62
     7
 10
219.34373843449109
 20
-440.30512701892201
 30
0.0
 11
216.84373843449109
 21
-435.97499999999991
 31
0.0
  0
LINE
  5
477
  8
DATA
  6
CONTINUOUS
 62
     7
 10
308.2094185337495
 20
-383.22499999999991
 30
0.0
 11
310.7094185337495
 21
-387.55512701892201
 31
0.0
  0
LINE
  5
478
  8
DATA
  6
CONTINUOUS
 62
     7
 10
343.18537117566598
 20
-368.80512701892201
 30
0.0
 11
340.68537117566609
 21
-364.47499999999991
 31
0.0
  0
LINE
  5
479
  8
DATA
  6
CONTINUOUS
 62
     7
 10
186.86778579257489
 20
-459.05512701892201
 30
0.0
 11
219.34373843449109
 21
-440.30512701892201
 31
0.0
  0
LINE
  5
47A
  8
DATA
  6
CONTINUOUS
 62
     7
 10
310.7094185337495
 20
-387.55512701892201
 30
0.0
 11
343.18537117566598
 21
-368.80512701892201
 31
0.0
  0
LINE
  5
47B
  8
DATA
  6
CONTINUOUS
 62
     7
 10
170.625
 20
-458.04059892324142
 30
0.0
 11
3.9999999999998859
 21
-361.8396103195177
 31
0.0
  0
LINE
  5
47C
  8
DATA
  6
CONTINUOUS
 62
     7
 10
164.88221420742539
 20
-454.72499999999991
 30
0.0
 11
162.38221420742539
 21
-459.05512701892201
 31
0.0
  0
LINE
  5
47D
  8
DATA
  6
CONTINUOUS
 62
     7
 10
129.90626156550891
 20
-440.30512701892201
 30
0.0
 11
132.40626156550891
 21
-435.97499999999991
 31
0.0
  0
LINE
  5
47E
  8
DATA
  6
CONTINUOUS
 62
     7
 10
41.040581466250728
 20
-383.22499999999991
 30
0.0
 11
38.540581466250728
 21
-387.55512701892201
 31
0.0
  0
LINE
  5
47F
  8
DATA
  6
CONTINUOUS
 62
     7
 10
6.0646288243341351
 20
-368.80512701892201
 30
0.0
 11
8.5646288243341342
 21
-364.47499999999991
 31
0.0
  0
LINE
  5
480
  8
DATA
  6
CONTINUOUS
 62
     7
 10
162.38221420742539
 20
-459.05512701892201
 30
0.0
 11
129.90626156550891
 21
-440.30512701892201
 31
0.0
  0
LINE
  5
481
  8
DATA
  6
CONTINUOUS
 62
     7
 10
38.540581466250728
 20
-387.55512701892201
 30
0.0
 11
6.0646288243341351
 21
-368.80512701892201
 31
0.0
  0
ARC
  5
482
  8
DATA
  6
CONTINUOUS
 62
     7
 10
174.62500000000011
 20
-289.5
 30
0.0
 40
43.5
 50
0.0
 51
180.0
  0
ARC
  5
483
  8
DATA
  6
CONTINUOUS
 62
     7
 10
174.62500000000011
 20
-344.49999999999977
 30
0.0
 40
43.5
 50
180.0
 51
0.0
  0
LINE
  5
484
  8
DATA
  6
CONTINUOUS
 62
     7
 10
218.12500000000011
 20
-289.5
 30
0.0
 11
218.12500000000011
 21
-344.49999999999977
 31
0.0
  0
LINE
  5
485
  8
DATA
  6
CONTINUOUS
 62
     7
 10
131.12500000000011
 20
-289.5
 30
0.0
 11
131.12500000000011
 21
-344.49999999999977
 31
0.0
  0
CIRCLE
  5
486
  8
DATA
  6
CONTINUOUS
 62
     7
 10
139.62500000000011
 20
-289.5
 30
0.0
 40
4.5000000000000524
  0
LINE
  5
487
  8
DATA
  6
CONTINUOUS
 62
     7
 10
136.79657287525379
 20
-289.5
 30
0.0
 11
142.45342712474621
 21
-289.5
 31
0.0
  0
LINE
  5
488
  8
DATA
  6
CONTINUOUS
 62
     7
 10
139.62500000000011
 20
-286.67157287525379
 30
0.0
 11
139.62500000000011
 21
-292.32842712474621
 31
0.0
  0
CIRCLE
  5
489
  8
DATA
  6
CONTINUOUS
 62
     7
 10
139.62500000000011
 20
-344.49999999999977
 30
0.0
 40
4.4999999999999671
  0
LINE
  5
48A
  8
DATA
  6
CONTINUOUS
 62
     7
 10
136.79657287525379
 20
-344.49999999999977
 30
0.0
 11
142.45342712474621
 21
-344.49999999999977
 31
0.0
  0
LINE
  5
48B
  8
DATA
  6
CONTINUOUS
 62
     7
 10
139.62500000000011
 20
-341.67157287525401
 30
0.0
 11
139.62500000000011
 21
-347.3284271247465
 31
0.0
  0
CIRCLE
  5
48C
  8
DATA
  6
CONTINUOUS
 62
     7
 10
209.62500000000011
 20
-289.5
 30
0.0
 40
4.5000000000000524
  0
LINE
  5
48D
  8
DATA
  6
CONTINUOUS
 62
     7
 10
206.7965728752537
 20
-289.5
 30
0.0
 11
212.4534271247461
 21
-289.5
 31
0.0
  0
LINE
  5
48E
  8
DATA
  6
CONTINUOUS
 62
     7
 10
209.62500000000011
 20
-286.67157287525379
 30
0.0
 11
209.62500000000011
 21
-292.32842712474621
 31
0.0
  0
CIRCLE
  5
48F
  8
DATA
  6
CONTINUOUS
 62
     7
 10
209.62500000000011
 20
-344.49999999999977
 30
0.0
 40
4.4999999999999671
  0
LINE
  5
490
  8
DATA
  6
CONTINUOUS
 62
     7
 10
206.7965728752537
 20
-344.49999999999977
 30
0.0
 11
212.4534271247461
 21
-344.49999999999977
 31
0.0
  0
LINE
  5
491
  8
DATA
  6
CONTINUOUS
 62
     7
 10
209.62500000000011
 20
-341.67157287525401
 30
0.0
 11
209.62500000000011
 21
-347.3284271247465
 31
0.0
  0
CIRCLE
  5
492
  8
DATA
  6
CONTINUOUS
 62
     7
 10
174.62500000000011
 20
-254.5
 30
0.0
 40
4.5000000000000524
  0
LINE
  5
493
  8
DATA
  6
CONTINUOUS
 62
     7
 10
171.79657287525379
 20
-254.5
 30
0.0
 11
177.4534271247461
 21
-254.5
 31
0.0
  0
LINE
  5
494
  8
DATA
  6
CONTINUOUS
 62
     7
 10
174.62500000000011
 20
-251.6715728752537
 30
0.0
 11
174.62500000000011
 21
-257.3284271247461
 31
0.0
  0
CIRCLE
  5
495
  8
DATA
  6
CONTINUOUS
 62
     7
 10
174.62500000000011
 20
-379.4999999999996
 30
0.0
 40
4.4999999999999671
  0
LINE
  5
496
  8
DATA
  6
CONTINUOUS
 62
     7
 10
171.79657287525379
 20
-379.4999999999996
 30
0.0
 11
177.4534271247461
 21
-379.4999999999996
 31
0.0
  0
LINE
  5
497
  8
DATA
  6
CONTINUOUS
 62
     7
 10
174.62500000000011
 20
-376.67157287525367
 30
0.0
 11
174.62500000000011
 21
-382.32842712474633
 31
0.0
  0
CIRCLE
  5
498
  8
DATA
  6
CONTINUOUS
 62
     7
 10
174.62500000000011
 20
-289.5
 30
0.0
 40
18.0
  0
CIRCLE
  5
499
  8
DATA
  6
CONTINUOUS
 62
     7
 10
174.62500000000011
 20
-344.49999999999977
 30
0.0
 40
18.0
  0
ARC
  5
49A
  8
DATA
  6
CONTINUOUS
 62
     7
 10
174.62500000000011
 20
-299.5
 30
0.0
 40
18.00000000000011
 50
16.1276202131614
 51
163.87237978683859
  0
CIRCLE
  5
49B
  8
DATA
  6
CONTINUOUS
 62
     7
 10
174.62500000000011
 20
-419.0
 30
0.0
 40
24.99999999999989
  0
CIRCLE
  5
49C
  8
DATA
  6
CONTINUOUS
 62
     7
 10
189.4742424049187
 20
-404.15075759508358
 30
0.0
 40
3.0
  0
LINE
  5
49D
  8
DATA
  6
CONTINUOUS
 62
     7
 10
189.4742424049187
 20
-406.15075759508358
 30
0.0
 11
189.4742424049187
 21
-402.15075759508358
 31
0.0
  0
LINE
  5
49E
  8
DATA
  6
CONTINUOUS
 62
     7
 10
191.4742424049187
 20
-404.15075759508358
 30
0.0
 11
187.4742424049187
 21
-404.15075759508358
 31
0.0
  0
CIRCLE
  5
49F
  8
DATA
  6
CONTINUOUS
 62
     7
 10
159.77575759508369
 20
-404.15075759508079
 30
0.0
 40
3.0
  0
LINE
  5
4A0
  8
DATA
  6
CONTINUOUS
 62
     7
 10
159.77575759508369
 20
-406.15075759508079
 30
0.0
 11
159.77575759508369
 21
-402.15075759508079
 31
0.0
  0
LINE
  5
4A1
  8
DATA
  6
CONTINUOUS
 62
     7
 10
161.77575759508369
 20
-404.15075759508079
 30
0.0
 11
157.77575759508369
 21
-404.15075759508079
 31
0.0
  0
CIRCLE
  5
4A2
  8
DATA
  6
CONTINUOUS
 62
     7
 10
159.7757575950813
 20
-433.84924240491631
 30
0.0
 40
3.0
  0
LINE
  5
4A3
  8
DATA
  6
CONTINUOUS
 62
     7
 10
159.7757575950813
 20
-435.84924240491631
 30
0.0
 11
159.7757575950813
 21
-431.84924240491631
 31
0.0
  0
LINE
  5
4A4
  8
DATA
  6
CONTINUOUS
 62
     7
 10
161.7757575950813
 20
-433.84924240491631
 30
0.0
 11
157.7757575950813
 21
-433.84924240491631
 31
0.0
  0
CIRCLE
  5
4A5
  8
DATA
  6
CONTINUOUS
 62
     7
 10
189.4742424049164
 20
-433.84924240491893
 30
0.0
 40
3.0
  0
LINE
  5
4A6
  8
DATA
  6
CONTINUOUS
 62
     7
 10
189.4742424049164
 20
-435.84924240491893
 30
0.0
 11
189.4742424049164
 21
-431.84924240491893
 31
0.0
  0
LINE
  5
4A7
  8
DATA
  6
CONTINUOUS
 62
     7
 10
191.4742424049164
 20
-433.84924240491893
 30
0.0
 11
187.4742424049164
 21
-433.84924240491893
 31
0.0
  0
ARC
  5
4A8
  8
DATA
  6
CONTINUOUS
 62
     7
 10
8.0
 20
768.77877987534271
 30
0.0
 40
8.0
 50
180.0
 51
240.64224645720881
  0
ARC
  5
4A9
  8
DATA
  6
CONTINUOUS
 62
     7
 10
8.0
 20
901.01140708924243
 30
0.0
 40
8.0000000000000604
 50
120.0000000000007
 51
179.99999999999969
  0
ARC
  5
4AA
  8
DATA
  6
CONTINUOUS
 62
     7
 10
34.095608667276572
 20
754.10000000000014
 30
0.0
 40
7.9999999999999449
 50
240.6422464572095
 51
270.0000000000008
  0
ARC
  5
4AB
  8
DATA
  6
CONTINUOUS
 62
     7
 10
315.15439133272372
 20
754.10000000000014
 30
0.0
 40
7.9999999999999423
 50
270.0000000000008
 51
299.35775354279218
  0
ARC
  5
4AC
  8
DATA
  6
CONTINUOUS
 62
     7
 10
341.25
 20
768.77877987534305
 30
0.0
 40
8.0000000000000036
 50
299.35775354279127
 51
0.0
  0
ARC
  5
4AD
  8
DATA
  6
CONTINUOUS
 62
     7
 10
341.25000000000028
 20
901.01140708924243
 30
0.0
 40
7.9999999999998863
 50
0.0000000000002842
 51
60.0
  0
ARC
  5
4AE
  8
DATA
  6
CONTINUOUS
 62
     7
 10
908.0
 20
8.0
 30
0.0
 40
8.0
 50
180.0
 51
270.0
  0
ARC
  5
4AF
  8
DATA
  6
CONTINUOUS
 62
     7
 10
1241.25
 20
8.0
 30
0.0
 40
8.0
 50
270.0
 51
0.0
  0
ARC
  5
4B0
  8
DATA
  6
CONTINUOUS
 62
     7
 10
908.0
 20
538.10000000000014
 30
0.0
 40
8.0
 50
90.0
 51
180.0
  0
ARC
  5
4B1
  8
DATA
  6
CONTINUOUS
 62
     7
 10
1241.25
 20
538.10000000000014
 30
0.0
 40
8.0
 50
0.0
 51
90.0
  0
ARC
  5
4B2
  8
DATA
  6
CONTINUOUS
 62
     7
 10
34.095608667276338
 20
-208.0
 30
0.0
 40
8.0
 50
89.999999999999176
 51
119.35775354279041
  0
ARC
  5
4B3
  8
DATA
  6
CONTINUOUS
 62
     7
 10
8.0
 20
-222.678779875343
 30
0.0
 40
8.0000000000000515
 50
119.3577535427911
 51
180.0
  0
ARC
  5
4B4
  8
DATA
  6
CONTINUOUS
 62
     7
 10
8.0000000000001137
 20
-354.9114070892424
 30
0.0
 40
8.0000000000001137
 50
180.0
 51
239.9999999999981
  0
ARC
  5
4B5
  8
DATA
  6
CONTINUOUS
 62
     7
 10
174.62500000000011
 20
-451.112395692966
 30
0.0
 40
7.9999999999999236
 50
239.99999999999869
 51
300.00000000000119
  0
ARC
  5
4B6
  8
DATA
  6
CONTINUOUS
 62
     7
 10
341.25
 20
-354.9114070892424
 30
0.0
 40
7.9999999999999236
 50
300.00000000000119
 51
0.0
  0
ARC
  5
4B7
  8
DATA
  6
CONTINUOUS
 62
     7
 10
341.25
 20
-222.6787798753428
 30
0.0
 40
8.0
 50
0.0
 51
60.642246457208948
  0
ARC
  5
4B8
  8
DATA
  6
CONTINUOUS
 62
     7
 10
315.15439133272389
 20
-208.0
 30
0.0
 40
7.9999999999999947
 50
60.642246457209623
 51
90.00000000000081
  0
LINE
  5
4B9
  8
DATA
  6
CONTINUOUS
 62
     7
 10
2152.0000000000009
 20
314.52479138593128
 30
0.0
 11
1662.0
 21
314.52479138593128
 31
0.0
  0
LINE
  5
4BA
  8
DATA
  6
CONTINUOUS
 62
     7
 10
1886.9999999999991
 20
-153.92820323027439
 30
0.0
 11
1642.0000000000009
 21
-12.477387278812779
 31
0.0
  0
LINE
  5
4BB
  8
DATA
  6
CONTINUOUS
 62
     7
 10
1927.0000000000009
 20
-153.92820323027439
 30
0.0
 11
2172.0000000000009
 21
-12.47738727881392
 31
0.0
  0
LINE
  5
4BC
  8
DATA
  6
CONTINUOUS
 62
     7
 10
1622.0
 20
274.52479138593128
 30
0.0
 11
1622.0
 21
22.163628872564569
 31
0.0
  0
LINE
  5
4BD
  8
DATA
  6
CONTINUOUS
 62
     7
 10
2192.0000000000009
 20
274.52479138593128
 30
0.0
 11
2192.0000000000009
 21
22.163628872564001
 31
0.0
  0
POLYLINE
  5
4BE
  8
DATA
  6
CONTINUOUS
 62
     7
 66
     1
 10
0.0
 20
0.0
 30
0.0
 70
   129
  0
VERTEX
  5
59D
  8
DATA
  6
CONTINUOUS
 62
     7
 10
1794.5000000000009
 20
79.524791385931394
 30
0.0
 42
-0.4142135623730951
  0
VERTEX
  5
59E
  8
DATA
  6
CONTINUOUS
 62
     7
 10
1804.5000000000009
 20
69.524791385931394
 30
0.0
  0
VERTEX
  5
59F
  8
DATA
  6
CONTINUOUS
 62
     7
 10
1804.5000000000009
 20
29.524791385931401
 30
0.0
 42
-0.4142135623730951
  0
VERTEX
  5
5A0
  8
DATA
  6
CONTINUOUS
 62
     7
 10
1794.5000000000009
 20
19.52479138593139
 30
0.0
  0
VERTEX
  5
5A1
  8
DATA
  6
CONTINUOUS
 62
     7
 10
1754.5000000000009
 20
19.52479138593139
 30
0.0
 42
-0.4142135623730984
  0
VERTEX
  5
5A2
  8
DATA
  6
CONTINUOUS
 62
     7
 10
1744.5000000000009
 20
29.524791385931401
 30
0.0
  0
VERTEX
  5
5A3
  8
DATA
  6
CONTINUOUS
 62
     7
 10
1744.5000000000009
 20
69.524791385931394
 30
0.0
 42
-0.4142135623730951
  0
VERTEX
  5
5A4
  8
DATA
  6
CONTINUOUS
 62
     7
 10
1754.5000000000009
 20
79.524791385931394
 30
0.0
  0
SEQEND
  5
5A5
  8
DATA
  6
CONTINUOUS
 62
     7
  0
POLYLINE
  5
4C8
  8
DATA
  6
CONTINUOUS
 62
     7
 66
     1
 10
0.0
 20
0.0
 30
0.0
 70
     1
  0
VERTEX
  5
5A6
  8
DATA
  6
CONTINUOUS
 62
     7
 10
1782.0000000000009
 20
72.024791385931394
 30
0.0
  0
VERTEX
  5
5A7
  8
DATA
  6
CONTINUOUS
 62
     7
 10
1797.0
 20
72.024791385931394
 30
0.0
  0
VERTEX
  5
5A8
  8
DATA
  6
CONTINUOUS
 62
     7
 10
1797.0
 20
27.024791385931401
 30
0.0
  0
VERTEX
  5
5A9
  8
DATA
  6
CONTINUOUS
 62
     7
 10
1782.0000000000009
 20
27.024791385931401
 30
0.0
  0
SEQEND
  5
5AA
  8
DATA
  6
CONTINUOUS
 62
     7
  0
LINE
  5
4CE
  8
DATA
  6
CONTINUOUS
 62
     7
 10
1712.0000000000009
 20
2.0247913859313931
 30
0.0
 11
1712.0000000000009
 21
97.024791385931422
 31
0.0
  0
LINE
  5
4CF
  8
DATA
  6
CONTINUOUS
 62
     7
 10
1837.0000000000009
 20
97.024791385931422
 30
0.0
 11
1712.0000000000009
 21
97.024791385931422
 31
0.0
  0
LINE
  5
4D0
  8
DATA
  6
CONTINUOUS
 62
     7
 10
1837.0000000000009
 20
2.0247913859313931
 30
0.0
 11
1712.0000000000009
 21
2.0247913859313931
 31
0.0
  0
LINE
  5
4D1
  8
DATA
  6
CONTINUOUS
 62
     7
 10
1837.0000000000009
 20
2.0247913859313931
 30
0.0
 11
1837.0000000000009
 21
97.024791385931422
 31
0.0
  0
ARC
  5
4D2
  8
DATA
  6
CONTINUOUS
 62
     7
 10
2152.0000000000009
 20
274.52479138593128
 30
0.0
 40
40.0
 50
0.0
 51
90.0
  0
ARC
  5
4D3
  8
DATA
  6
CONTINUOUS
 62
     7
 10
1662.0
 20
274.52479138593128
 30
0.0
 40
40.0
 50
90.0
 51
180.0
  0
ARC
  5
4D4
  8
DATA
  6
CONTINUOUS
 62
     7
 10
2152.0000000000009
 20
22.163628872564001
 30
0.0
 40
40.00000000000032
 50
299.99999999999972
 51
0.0
  0
ARC
  5
4D5
  8
DATA
  6
CONTINUOUS
 62
     7
 10
1907.0000000000009
 20
-119.2871870788972
 30
0.0
 40
40.000000000000313
 50
239.99999999999841
 51
299.99999999999972
  0
ARC
  5
4D6
  8
DATA
  6
CONTINUOUS
 62
     7
 10
1662.0000000000009
 20
22.163628872564001
 30
0.0
 40
40.000000000000682
 50
179.9999999999992
 51
239.99999999999849
  0
TEXT
  5
4D7
  8
DATA
 62
     7
 10
1711.9062499999991
 20
149.75874999999979
 30
0.0
 40
28.504720052083329
  1
SRX712M
 41
0.8
 11
1711.9062499999991
 21
178.26347005208311
 31
0.0
 73
     3
  0
TEXT
  5
4D8
  8
DATA
 62
     7
 10
1872.2841666666659
 20
-6.8854166666669716
 30
0.0
 40
24.4326171875
  1
PASSIVE
 50
90.0
 41
0.8
 11
1847.8515494791659
 21
-6.8854166666669689
 31
0.0
 73
     3
  0
TEXT
  5
4D9
  8
DATA
 62
     7
 10
2020.625
 20
161.50625000000019
 30
0.0
 40
20.360514322916671
  1
±1 IN:8Ω
 41
0.8
 11
2020.625
 21
181.86676432291691
 31
0.0
 73
     3
  0
TEXT
  5
4DA
  8
DATA
 62
     7
 10
2020.625
 20
129.7262500000007
 30
0.0
 40
20.360514322916671
  1
±2 N/C
 41
0.8
 11
2020.625
 21
150.0867643229173
 31
0.0
 73
     3
  0
TEXT
  5
4DB
  8
DATA
 62
     7
 10
1699.5237500000001
 20
4.6870833333338142
 30
0.0
 40
24.4326171875
  1
BI-AMP
 50
90.0
 41
0.8
 11
1675.0911328125001
 21
4.687083333333816
 31
0.0
 73
     3
  0
TEXT
  5
4DC
  8
DATA
 62
     7
 10
1870.625
 20
160.46707660359189
 30
0.0
 40
20.360514322916671
  1
±1 LF:8Ω
 41
0.8
 11
1870.625
 21
180.82759092650861
 31
0.0
 73
     3
  0
TEXT
  5
4DD
  8
DATA
 62
     7
 10
1870.625
 20
128.6870766035924
 30
0.0
 40
20.360514322916671
  1
±2 HF:8Ω
 41
0.8
 11
1870.625
 21
149.04759092650909
 31
0.0
 73
     3
  0
TEXT
  5
4DE
  8
DATA
 62
     7
 10
2025.916666666667
 20
195.63124999999991
 30
0.0
 40
20.360514322916671
  1
PASSIVE
 41
0.8
 11
2025.916666666667
 21
215.99176432291659
 31
0.0
 73
     3
  0
TEXT
  5
4DF
  8
DATA
 62
     7
 10
1874.59375
 20
194.45358758074141
 30
0.0
 40
20.360514322916671
  1
BI-AMP
 41
0.8
 11
1874.59375
 21
214.8141019036581
 31
0.0
 73
     3
  0
TEXT
  5
4E0
  8
DATA
 62
     7
 10
1936.9062499999991
 20
246.55416666666699
 30
0.0
 40
40.721028645833343
  1
SRX700
 41
0.8
 11
1936.9062499999991
 21
287.27519531250039
 31
0.0
 73
     3
  0
LINE
  5
4E1
  8
DATA
  6
CONTINUOUS
 62
     7
 10
1550.0
 20
400.0
 30
0.0
 11
2250.0
 21
400.0
 31
0.0
  0
TEXT
  5
4E2
  8
DATA
 62
     7
 10
1596.609204852828
 20
421.455078125
 30
0.0
 40
45.46546936035157
  1
コネクターパネル拡大図
 41
0.8
 11
1596.609204852828
 21
466.92054748535162
 31
0.0
 73
     3
  0
ARC
  5
4E3
  8
DATA
  6
CONTINUOUS
 62
     7
 10
174.625
 20
997.21239569296847
 30
0.0
 40
7.9999999999999982
 50
59.999999999999069
 51
120.0000000000009
  0
LINE
  5
4E4
  8
DATA
  6
CONTINUOUS
 62
     7
 10
2.0
 20
529.09999999999991
 30
0.0
 11
2.0
 21
17.0
 31
0.0
  0
LINE
  5
4E5
  8
DATA
  6
CONTINUOUS
 62
     7
 10
347.25000000000011
 20
529.09999999999991
 30
0.0
 11
347.25000000000011
 21
17.0
 31
0.0
  0
CIRCLE
  5
4E6
  8
DATA
  6
CONTINUOUS
 62
     7
 10
620.0
 20
273.05000000000013
 30
0.0
 40
9.5
  0
POLYLINE
  5
4E7
  8
DATA
  6
CONTINUOUS
 62
     7
 66
     1
 10
0.0
 20
0.0
 30
0.0
 70
     1
  0
VERTEX
  5
5AB
  8
DATA
  6
CONTINUOUS
 62
     7
 10
624.0
 20
273.05000000000013
 30
0.0
  0
VERTEX
  5
5AC
  8
DATA
  6
CONTINUOUS
 62
     7
 10
622.0
 20
276.5141016151378
 30
0.0
  0
VERTEX
  5
5AD
  8
DATA
  6
CONTINUOUS
 62
     7
 10
618.0
 20
276.5141016151378
 30
0.0
  0
VERTEX
  5
5AE
  8
DATA
  6
CONTINUOUS
 62
     7
 10
616.0
 20
273.05000000000013
 30
0.0
  0
VERTEX
  5
5AF
  8
DATA
  6
CONTINUOUS
 62
     7
 10
618.0
 20
269.58589838486228
 30
0.0
  0
VERTEX
  5
5B0
  8
DATA
  6
CONTINUOUS
 62
     7
 10
622.0
 20
269.58589838486228
 30
0.0
  0
SEQEND
  5
5B1
  8
DATA
  6
CONTINUOUS
 62
     7
  0
LINE
  5
4EF
  8
DATA
  6
CONTINUOUS
 62
     7
 10
163.125
 20
-2.0
 30
0.0
 11
163.125
 21
0.0
 31
0.0
  0
LINE
  5
4F0
  8
DATA
  6
CONTINUOUS
 62
     7
 10
186.125
 20
-2.0
 30
0.0
 11
186.125
 21
0.0
 31
0.0
  0
LINE
  5
4F1
  8
DATA
  6
CONTINUOUS
 62
     7
 10
163.125
 20
-2.0
 30
0.0
 11
186.125
 21
-2.0
 31
0.0
  0
LINE
  5
4F2
  8
DATA
  6
CONTINUOUS
 62
     7
 10
707.5
 20
-2.0
 30
0.0
 11
730.49999999999989
 21
-2.0
 31
0.0
  0
LINE
  5
4F3
  8
DATA
  6
CONTINUOUS
 62
     7
 10
707.5
 20
-2.0
 30
0.0
 11
707.5
 21
0.0
 31
0.0
  0
LINE
  5
4F4
  8
DATA
  6
CONTINUOUS
 62
     7
 10
730.49999999999989
 20
-2.0
 30
0.0
 11
730.49999999999989
 21
0.0
 31
0.0
  0
LINE
  5
4F5
  8
DATA
  6
CONTINUOUS
 62
     7
 10
1063.125
 20
-2.0
 30
0.0
 11
1086.125
 21
-2.0
 31
0.0
  0
LINE
  5
4F6
  8
DATA
  6
CONTINUOUS
 62
     7
 10
1086.125
 20
-2.0
 30
0.0
 11
1086.125
 21
0.0
 31
0.0
  0
LINE
  5
4F7
  8
DATA
  6
CONTINUOUS
 62
     7
 10
1063.125
 20
-2.0
 30
0.0
 11
1063.125
 21
0.0
 31
0.0
  0
TEXT
  5
4F8
  8
DATA
 62
     7
 10
1650.0
 20
-672.08761124999978
 30
0.0
 40
24.4326171875
  1
2Wayフロアモニタ/ユーティリティー　スピーカ
 41
0.8
 11
1650.0
 21
-647.65499406249967
 31
0.0
 73
     3
  0
LINE
  5
4F9
  8
DATA
  6
CONTINUOUS
 62
     7
 10
176.07500095348871
 20
-416.48900970566331
 30
0.0
 11
176.4253892223424
 21
-415.882233882842
 31
0.0
  0
LINE
  5
4FA
  8
DATA
  6
CONTINUOUS
 62
     7
 10
177.4370009534893
 20
-414.12900970566392
 30
0.0
 11
177.72462032279611
 21
-413.63078995178802
 31
0.0
  0
LINE
  5
4FB
  8
DATA
  6
CONTINUOUS
 62
     7
 10
169.75359244491489
 20
-416.1873512565989
 30
0.0
 11
169.25575098089769
 21
-415.90044268238029
 31
0.0
  0
ARC
  5
4FC
  8
DATA
  6
CONTINUOUS
 62
     7
 10
174.62500095348889
 20
-419.00000970566362
 30
0.0
 40
6.199690395495332
 50
60.002409879683043
 51
150.00296847067909
  0
LINE
  5
4FD
  8
DATA
  6
CONTINUOUS
 62
     7
 10
172.12500095348929
 20
-410.56244317259279
 30
0.0
 11
172.12500095348929
 21
-409.5241025520445
 31
0.0
  0
LINE
  5
4FE
  8
DATA
  6
CONTINUOUS
 62
     7
 10
177.12500095348889
 20
-410.56244317259279
 30
0.0
 11
177.12500095348889
 21
-409.5241025520445
 31
0.0
  0
ARC
  5
4FF
  8
DATA
  6
CONTINUOUS
 62
     7
 10
174.62500095348889
 20
-419.00000970566362
 30
0.0
 40
9.8001436920087368
 50
75.220590009595696
 51
104.7794099904043
  0
LINE
  5
500
  8
DATA
  6
CONTINUOUS
 62
     7
 10
173.1753136581693
 20
-421.51119025388988
 30
0.0
 11
172.82500095348871
 21
-422.11800970566321
 31
0.0
  0
LINE
  5
501
  8
DATA
  6
CONTINUOUS
 62
     7
 10
172.11375099473719
 20
-417.55044265144761
 30
0.0
 11
171.5070009534889
 21
-417.20000970566309
 31
0.0
  0
LINE
  5
502
  8
DATA
  6
CONTINUOUS
 62
     7
 10
177.13600095348889
 20
-420.4500097056636
 30
0.0
 11
177.7427509003779
 21
-420.80044278375181
 31
0.0
  0
LINE
  5
503
  8
DATA
  6
CONTINUOUS
 62
     7
 10
179.4958424366701
 20
-421.81191820421748
 30
0.0
 11
179.99400095348861
 21
-422.1000097056633
 31
0.0
  0
ARC
  5
504
  8
DATA
  6
CONTINUOUS
 62
     7
 10
174.62500095348889
 20
-419.00000970566362
 30
0.0
 40
3.600267212305257
 50
240.00245515180839
 51
329.99449667149338
  0
ARC
  5
505
  8
DATA
  6
CONTINUOUS
 62
     7
 10
174.62500095348889
 20
-419.00000970566362
 30
0.0
 40
2.899589798575168
 50
150.0051985676777
 51
240.00245515180671
  0
ARC
  5
506
  8
DATA
  6
CONTINUOUS
 62
     7
 10
174.62500095348889
 20
-419.00000970566362
 30
0.0
 40
5.6246597452645331
 50
330.00495624442863
 51
59.997998874590678
  0
ARC
  5
507
  8
DATA
  6
CONTINUOUS
 62
     7
 10
174.62500095348889
 20
-419.00000970566362
 30
0.0
 40
2.8995897985749579
 50
329.99532014014738
 51
59.995320140151293
  0
ARC
  5
508
  8
DATA
  6
CONTINUOUS
 62
     7
 10
174.62500095348889
 20
-419.00000970566362
 30
0.0
 40
5.6246597452647791
 50
149.9961350790791
 51
240.00234990249601
  0
ARC
  5
509
  8
DATA
  6
CONTINUOUS
 62
     7
 10
174.62500095348889
 20
-419.00000970566362
 30
0.0
 40
3.6002672123051309
 50
59.99532014015233
 51
150.00245515181149
  0
LINE
  5
50A
  8
DATA
  6
CONTINUOUS
 62
     7
 10
173.12500095348889
 20
-428.68467884735429
 30
0.0
 11
173.12500095348889
 21
-427.67137228602002
 31
0.0
  0
LINE
  5
50B
  8
DATA
  6
CONTINUOUS
 62
     7
 10
176.12500095348889
 20
-428.68467884735429
 30
0.0
 11
176.12500095348889
 21
-427.67137228602002
 31
0.0
  0
ARC
  5
50C
  8
DATA
  6
CONTINUOUS
 62
     7
 10
174.62500095348889
 20
-419.00000970566362
 30
0.0
 40
9.8001436920087528
 50
261.19575921336138
 51
278.80424078663862
  0
LINE
  5
50D
  8
DATA
  6
CONTINUOUS
 62
     7
 10
171.81237086418301
 20
-423.87122327220089
 30
0.0
 11
171.5250009534889
 21
-424.36900970566347
 31
0.0
  0
ARC
  5
50E
  8
DATA
  6
CONTINUOUS
 62
     7
 10
174.62500095348889
 20
-419.00000970566362
 30
0.0
 40
6.1996903954956757
 50
239.99834802721119
 51
329.99834802721421
  0
ARC
  5
50F
  8
DATA
  6
CONTINUOUS
 62
     7
 10
174.62500095348889
 20
-419.00000970566362
 30
0.0
 40
8.8001436920085272
 50
278.8042407866364
 51
73.495761680205845
  0
ARC
  5
510
  8
DATA
  6
CONTINUOUS
 62
     7
 10
174.62500095348889
 20
-419.00000970566362
 30
0.0
 40
8.8001436920087048
 50
106.5042383197937
 51
260.18591350361152
  0
CIRCLE
  5
511
  8
DATA
  6
CONTINUOUS
 62
     7
 10
174.62500095348889
 20
-419.00000970566362
 30
0.0
 40
11.75
  0
LINE
  5
512
  8
DATA
  6
CONTINUOUS
 62
     7
 10
156.07499904651061
 20
923.61099029433672
 30
0.0
 11
156.4253873153643
 21
924.21776611715791
 31
0.0
  0
LINE
  5
513
  8
DATA
  6
CONTINUOUS
 62
     7
 10
157.43699904651109
 20
925.97099029433605
 30
0.0
 11
157.72461841581799
 21
926.46921004821195
 31
0.0
  0
LINE
  5
514
  8
DATA
  6
CONTINUOUS
 62
     7
 10
149.75359053793679
 20
923.91264874340106
 30
0.0
 11
149.2557490739195
 21
924.19955731761968
 31
0.0
  0
ARC
  5
515
  8
DATA
  6
CONTINUOUS
 62
     7
 10
154.62499904651071
 20
921.09999029433629
 30
0.0
 40
6.199690395495332
 50
60.002409879683043
 51
150.00296847067909
  0
LINE
  5
516
  8
DATA
  6
CONTINUOUS
 62
     7
 10
152.12499904651119
 20
929.53755682740734
 30
0.0
 11
152.12499904651119
 21
930.57589744795553
 31
0.0
  0
LINE
  5
517
  8
DATA
  6
CONTINUOUS
 62
     7
 10
157.12499904651071
 20
929.53755682740734
 30
0.0
 11
157.12499904651071
 21
930.57589744795553
 31
0.0
  0
ARC
  5
518
  8
DATA
  6
CONTINUOUS
 62
     7
 10
154.62499904651071
 20
921.09999029433629
 30
0.0
 40
9.8001436920087368
 50
75.220590009595696
 51
104.7794099904043
  0
LINE
  5
519
  8
DATA
  6
CONTINUOUS
 62
     7
 10
153.1753117511912
 20
918.5888097461102
 30
0.0
 11
152.82499904651061
 21
917.98199029433658
 31
0.0
  0
LINE
  5
51A
  8
DATA
  6
CONTINUOUS
 62
     7
 10
152.113749087759
 20
922.54955734855241
 30
0.0
 11
151.5069990465108
 21
922.89999029433682
 31
0.0
  0
LINE
  5
51B
  8
DATA
  6
CONTINUOUS
 62
     7
 10
157.1359990465107
 20
919.64999029433625
 30
0.0
 11
157.7427489933998
 21
919.29955721624845
 31
0.0
  0
LINE
  5
51C
  8
DATA
  6
CONTINUOUS
 62
     7
 10
159.495840529692
 20
918.28808179578232
 30
0.0
 11
159.9939990465104
 21
917.99999029433661
 31
0.0
  0
ARC
  5
51D
  8
DATA
  6
CONTINUOUS
 62
     7
 10
154.62499904651071
 20
921.09999029433629
 30
0.0
 40
3.600267212305257
 50
240.00245515180839
 51
329.99449667149338
  0
ARC
  5
51E
  8
DATA
  6
CONTINUOUS
 62
     7
 10
154.62499904651071
 20
921.09999029433629
 30
0.0
 40
2.899589798575168
 50
150.0051985676777
 51
240.00245515180671
  0
ARC
  5
51F
  8
DATA
  6
CONTINUOUS
 62
     7
 10
154.62499904651071
 20
921.09999029433629
 30
0.0
 40
5.6246597452645331
 50
330.00495624442863
 51
59.997998874590678
  0
ARC
  5
520
  8
DATA
  6
CONTINUOUS
 62
     7
 10
154.62499904651071
 20
921.09999029433629
 30
0.0
 40
2.8995897985749579
 50
329.99532014014738
 51
59.995320140151293
  0
ARC
  5
521
  8
DATA
  6
CONTINUOUS
 62
     7
 10
154.62499904651071
 20
921.09999029433629
 30
0.0
 40
5.6246597452647791
 50
149.9961350790791
 51
240.00234990249601
  0
ARC
  5
522
  8
DATA
  6
CONTINUOUS
 62
     7
 10
154.62499904651071
 20
921.09999029433629
 30
0.0
 40
3.6002672123051309
 50
59.99532014015233
 51
150.00245515181149
  0
LINE
  5
523
  8
DATA
  6
CONTINUOUS
 62
     7
 10
153.12499904651079
 20
911.41532115264602
 30
0.0
 11
153.12499904651079
 21
912.42862771397995
 31
0.0
  0
LINE
  5
524
  8
DATA
  6
CONTINUOUS
 62
     7
 10
156.12499904651071
 20
911.41532115264602
 30
0.0
 11
156.12499904651071
 21
912.42862771397995
 31
0.0
  0
ARC
  5
525
  8
DATA
  6
CONTINUOUS
 62
     7
 10
154.62499904651071
 20
921.09999029433629
 30
0.0
 40
9.8001436920087528
 50
261.19575921336138
 51
278.80424078663862
  0
LINE
  5
526
  8
DATA
  6
CONTINUOUS
 62
     7
 10
151.8123689572048
 20
916.22877672779941
 30
0.0
 11
151.5249990465108
 21
915.73099029433672
 31
0.0
  0
ARC
  5
527
  8
DATA
  6
CONTINUOUS
 62
     7
 10
154.62499904651071
 20
921.09999029433629
 30
0.0
 40
6.1996903954956757
 50
239.99834802721119
 51
329.99834802721421
  0
ARC
  5
528
  8
DATA
  6
CONTINUOUS
 62
     7
 10
154.62499904651071
 20
921.09999029433629
 30
0.0
 40
8.8001436920085272
 50
278.8042407866364
 51
73.495761680205845
  0
ARC
  5
529
  8
DATA
  6
CONTINUOUS
 62
     7
 10
154.62499904651071
 20
921.09999029433629
 30
0.0
 40
8.8001436920087048
 50
106.5042383197937
 51
260.18591350361152
  0
CIRCLE
  5
52A
  8
DATA
  6
CONTINUOUS
 62
     7
 10
154.62499904651071
 20
921.09999029433629
 30
0.0
 40
11.75
  0
LINE
  5
52B
  8
DATA
  6
CONTINUOUS
 62
     7
 10
2014.250000000003
 20
62.079742857614278
 30
0.0
 11
2016.001941344271
 21
65.113621971721386
 31
0.0
  0
LINE
  5
52C
  8
DATA
  6
CONTINUOUS
 62
     7
 10
2021.0600000000049
 20
73.879742857611518
 30
0.0
 11
2022.49809684654
 21
76.370841626991009
 31
0.0
  0
LINE
  5
52D
  8
DATA
  6
CONTINUOUS
 62
     7
 10
1982.642957457133
 20
63.588035102936601
 30
0.0
 11
1980.1537501370469
 21
65.022577974029673
 31
0.0
  0
ARC
  5
52E
  8
DATA
  6
CONTINUOUS
 62
     7
 10
2007.0000000000041
 20
49.524742857613319
 30
0.0
 40
30.998451977476659
 50
60.002409879683043
 51
150.00296847067909
  0
LINE
  5
52F
  8
DATA
  6
CONTINUOUS
 62
     7
 10
1994.500000000005
 20
91.712575522967427
 30
0.0
 11
1994.500000000005
 21
96.904278625708926
 31
0.0
  0
LINE
  5
530
  8
DATA
  6
CONTINUOUS
 62
     7
 10
2019.5000000000041
 20
91.712575522967427
 30
0.0
 11
2019.5000000000041
 21
96.904278625708926
 31
0.0
  0
ARC
  5
531
  8
DATA
  6
CONTINUOUS
 62
     7
 10
2007.0000000000041
 20
49.524742857613319
 30
0.0
 40
49.000718460043679
 50
75.220590009595696
 51
104.7794099904043
  0
LINE
  5
532
  8
DATA
  6
CONTINUOUS
 62
     7
 10
1999.7515635234049
 20
36.968840116481722
 30
0.0
 11
1998.000000000002
 21
33.934742857614772
 31
0.0
  0
LINE
  5
533
  8
DATA
  6
CONTINUOUS
 62
     7
 10
1994.4437502062451
 20
56.77257812869334
 30
0.0
 11
1991.4100000000039
 21
58.524742857615372
 31
0.0
  0
LINE
  5
534
  8
DATA
  6
CONTINUOUS
 62
     7
 10
2019.555000000003
 20
42.274742857613091
 30
0.0
 11
2022.588749734449
 21
40.522577467172368
 31
0.0
  0
LINE
  5
535
  8
DATA
  6
CONTINUOUS
 62
     7
 10
2031.35420741591
 20
35.46520036484344
 30
0.0
 11
2033.8450000000021
 21
34.02474285761491
 31
0.0
  0
ARC
  5
536
  8
DATA
  6
CONTINUOUS
 62
     7
 10
2007.0000000000041
 20
49.524742857613319
 30
0.0
 40
18.001336061526288
 50
240.00245515180839
 51
329.99449667149321
  0
ARC
  5
537
  8
DATA
  6
CONTINUOUS
 62
     7
 10
2007.0000000000041
 20
49.524742857613319
 30
0.0
 40
14.497948992875839
 50
150.0051985676777
 51
240.00245515180691
  0
ARC
  5
538
  8
DATA
  6
CONTINUOUS
 62
     7
 10
2007.0000000000041
 20
49.524742857613319
 30
0.0
 40
28.12329872632267
 50
330.00495624442863
 51
59.997998874590678
  0
ARC
  5
539
  8
DATA
  6
CONTINUOUS
 62
     7
 10
2007.0000000000041
 20
49.524742857613319
 30
0.0
 40
14.49794899287479
 50
329.99532014014738
 51
59.995320140151421
  0
ARC
  5
53A
  8
DATA
  6
CONTINUOUS
 62
     7
 10
2007.0000000000041
 20
49.524742857613319
 30
0.0
 40
28.123298726323888
 50
149.9961350790791
 51
240.00234990249601
  0
ARC
  5
53B
  8
DATA
  6
CONTINUOUS
 62
     7
 10
2007.0000000000041
 20
49.524742857613319
 30
0.0
 40
18.001336061525659
 50
59.99532014015233
 51
150.00245515181149
  0
LINE
  5
53C
  8
DATA
  6
CONTINUOUS
 62
     7
 10
1999.500000000003
 20
1.1013971491602199
 30
0.0
 11
1999.500000000003
 21
6.1679299558315961
 31
0.0
  0
LINE
  5
53D
  8
DATA
  6
CONTINUOUS
 62
     7
 10
2014.500000000003
 20
1.1013971491602199
 30
0.0
 11
2014.500000000003
 21
6.1679299558315961
 31
0.0
  0
ARC
  5
53E
  8
DATA
  6
CONTINUOUS
 62
     7
 10
2007.0000000000041
 20
49.524742857613319
 30
0.0
 40
49.000718460043757
 50
261.19575921336138
 51
278.80424078663862
  0
LINE
  5
53F
  8
DATA
  6
CONTINUOUS
 62
     7
 10
1992.9368495534729
 20
25.168675024926639
 30
0.0
 11
1991.5000000000041
 21
22.67974285761375
 31
0.0
  0
ARC
  5
540
  8
DATA
  6
CONTINUOUS
 62
     7
 10
2007.0000000000041
 20
49.524742857613319
 30
0.0
 40
30.998451977478389
 50
239.99834802721119
 51
329.99834802721421
  0
ARC
  5
541
  8
DATA
  6
CONTINUOUS
 62
     7
 10
2007.0000000000041
 20
49.524742857613319
 30
0.0
 40
44.000718460042648
 50
278.8042407866364
 51
73.495761680205817
  0
ARC
  5
542
  8
DATA
  6
CONTINUOUS
 62
     7
 10
2007.0000000000041
 20
49.524742857613319
 30
0.0
 40
44.000718460043522
 50
106.5042383197937
 51
260.18591350361152
  0
CIRCLE
  5
543
  8
DATA
  6
CONTINUOUS
 62
     7
 10
2007.0000000000041
 20
49.524742857613319
 30
0.0
 40
58.75
  0
ENDSEC
  0
EOF
