  0
SECTION
  2
HEADER
  9
$ACADVER
  1
AC1009
  9
$INSBASE
 10
0.0
 20
0.0
 30
0.0
  9
$EXTMIN
 10
-1800.109854854471
 20
-2667.120122724069
 30
-0.0015258207003583
  9
$EXTMAX
 10
1800.1098716182789
 20
2685.4811650733959
 30
0.0000000349246037
  9
$LIMMIN
 10
0.0
 20
0.0
  9
$LIMMAX
 10
0.0
 20
0.0
  9
$ORTHOMODE
 70
     0
  9
$REGENMODE
 70
     1
  9
$FILLMODE
 70
     1
  9
$QTEXTMODE
 70
     0
  9
$MIRRTEXT
 70
     1
  9
$DRAGMODE
 70
     2
  9
$LTSCALE
 40
254.0
  9
$OSMODE
 70
   231
  9
$ATTMODE
 70
     1
  9
$TEXTSIZE
 40
0.0
  9
$TRACEWID
 40
1.0
  9
$TEXTSTYLE
  7
STANDARD
  9
$CLAYER
  8
DATA
  9
$CELTYPE
  6
BYLAYER
  9
$CECOLOR
 62
   256
  9
$DIMSCALE
 40
1.0
  9
$DIMASZ
 40
0.18
  9
$DIMEXO
 40
0.0625
  9
$DIMDLI
 40
0.38
  9
$DIMRND
 40
0.0
  9
$DIMDLE
 40
0.0
  9
$DIMEXE
 40
0.18
  9
$DIMTP
 40
0.0
  9
$DIMTM
 40
0.0
  9
$DIMTXT
 40
0.18
  9
$DIMCEN
 40
0.09
  9
$DIMTSZ
 40
0.0
  9
$DIMTOL
 70
     0
  9
$DIMLIM
 70
     0
  9
$DIMTIH
 70
     1
  9
$DIMTOH
 70
     1
  9
$DIMSE1
 70
     0
  9
$DIMSE2
 70
     0
  9
$DIMTAD
 70
     0
  9
$DIMZIN
 70
     0
  9
$DIMBLK
  1

  9
$DIMASO
 70
     1
  9
$DIMSHO
 70
     1
  9
$DIMPOST
  1

  9
$DIMAPOST
  1

  9
$DIMALT
 70
     0
  9
$DIMALTD
 70
     2
  9
$DIMALTF
 40
25.399999999999999
  9
$DIMLFAC
 40
1.0
  9
$DIMTOFL
 70
     0
  9
$DIMTVP
 40
0.0
  9
$DIMTIX
 70
     0
  9
$DIMSOXD
 70
     0
  9
$DIMSAH
 70
     0
  9
$DIMBLK1
  1

  9
$DIMBLK2
  1

  9
$DIMSTYLE
  2
STANDARD
  9
$DIMCLRD
 70
     0
  9
$DIMCLRE
 70
     0
  9
$DIMCLRT
 70
     0
  9
$DIMTFAC
 40
1.0
  9
$DIMGAP
 40
0.09
  9
$LUNITS
 70
     2
  9
$LUPREC
 70
     4
  9
$SKETCHINC
 40
0.1
  9
$FILLETRAD
 40
0.0
  9
$AUNITS
 70
     0
  9
$AUPREC
 70
     0
  9
$MENU
  1
acad
  9
$ELEVATION
 40
0.0
  9
$PELEVATION
 40
0.0
  9
$THICKNESS
 40
0.0
  9
$LIMCHECK
 70
     0
  9
$BLIPMODE
 70
     0
  9
$CHAMFERA
 40
0.0
  9
$CHAMFERB
 40
0.0
  9
$SKPOLY
 70
     0
  9
$TDCREATE
 40
2456479.6605439819
  9
$TDUPDATE
 40
2456479.6612333101
  9
$TDINDWG
 40
0.0003053588
  9
$TDUSRTIMER
 40
0.0003052778
  9
$USRTIMER
 70
     1
  9
$ANGBASE
 50
0.0
  9
$ANGDIR
 70
     0
  9
$PDMODE
 70
     1
  9
$PDSIZE
 40
-2.0
  9
$PLINEWID
 40
0.0
  9
$COORDS
 70
     2
  9
$SPLFRAME
 70
     0
  9
$SPLINETYPE
 70
     6
  9
$SPLINESEGS
 70
     8
  9
$ATTDIA
 70
     0
  9
$ATTREQ
 70
     1
  9
$HANDLING
 70
     1
  9
$HANDSEED
  5
3B5
  9
$SURFTAB1
 70
     6
  9
$SURFTAB2
 70
     6
  9
$SURFTYPE
 70
     6
  9
$SURFU
 70
     6
  9
$SURFV
 70
     6
  9
$UCSNAME
  2

  9
$UCSORG
 10
0.0
 20
0.0
 30
0.0
  9
$UCSXDIR
 10
1.0
 20
0.0
 30
0.0
  9
$UCSYDIR
 10
0.0
 20
1.0
 30
0.0
  9
$PUCSNAME
  2

  9
$PUCSORG
 10
0.0
 20
0.0
 30
0.0
  9
$PUCSXDIR
 10
1.0
 20
0.0
 30
0.0
  9
$PUCSYDIR
 10
0.0
 20
1.0
 30
0.0
  9
$USERI1
 70
     0
  9
$USERI2
 70
     0
  9
$USERI3
 70
     0
  9
$USERI4
 70
     0
  9
$USERI5
 70
     0
  9
$USERR1
 40
0.0
  9
$USERR2
 40
0.0
  9
$USERR3
 40
0.0
  9
$USERR4
 40
0.0
  9
$USERR5
 40
0.0
  9
$WORLDVIEW
 70
     1
  9
$SHADEDGE
 70
     3
  9
$SHADEDIF
 70
    70
  9
$TILEMODE
 70
     1
  9
$MAXACTVP
 70
    64
  9
$PLIMCHECK
 70
     0
  9
$PEXTMIN
 10
1.0000000000000000E+020
 20
1.0000000000000000E+020
 30
1.0000000000000000E+020
  9
$PEXTMAX
 10
-1.0000000000000000E+020
 20
-1.0000000000000000E+020
 30
-1.0000000000000000E+020
  9
$PLIMMIN
 10
0.0
 20
0.0
  9
$PLIMMAX
 10
12.0
 20
9.0
  9
$UNITMODE
 70
     0
  9
$VISRETAIN
 70
     0
  9
$PLINEGEN
 70
     1
  9
$PSLTSCALE
 70
     0
  0
ENDSEC
  0
SECTION
  2
TABLES
  0
TABLE
  2
VPORT
 70
     1
  0
VPORT
  2
*ACTIVE
 70
     0
 10
0.0
 20
0.0
 11
1.0
 21
1.0
 12
0.000008381904081
 22
9.1805211746632267
 13
0.0
 23
0.0
 14
1.0
 24
1.0
 15
0.0
 25
0.0
 16
0.0
 26
0.0
 36
1.0
 17
0.0
 27
0.0
 37
0.0
 40
5393.934116274665
 41
2.1585051546391751
 42
50.0
 43
0.0
 44
0.0
 50
0.0
 51
0.0
 71
     0
 72
  2000
 73
     1
 74
     1
 75
     0
 76
     0
 77
     0
 78
     0
  0
ENDTAB
  0
TABLE
  2
LTYPE
 70
    13
  0
LTYPE
  2
CONTINUOUS
 70
     0
  3
Solid line
 72
    65
 73
     0
 40
0.0
  0
ENDTAB
  0
TABLE
  2
LAYER
 70
     5
  0
LAYER
  2
0
 70
     0
 62
     7
  6
CONTINUOUS
  0
LAYER
  2
DATA
 70
     0
 62
     7
  6
CONTINUOUS
  0
LAYER
  2
HIBINO-BASE
 70
     0
 62
     7
  6
CONTINUOUS
  0
LAYER
  2
SPEC
 70
     0
 62
     7
  6
CONTINUOUS
  0
LAYER
  2
DIMNSIONS
 70
     0
 62
     7
  6
CONTINUOUS
  0
ENDTAB
  0
TABLE
  2
STYLE
 70
     3
  0
STYLE
  2
STANDARD
 70
     0
 40
0.0
 41
1.0
 50
0.0
 71
     0
 42
0.0
  3
txt
  4
BIGFONT.SHX
  0
ENDTAB
  0
TABLE
  2
VIEW
 70
     0
  0
ENDTAB
  0
TABLE
  2
UCS
 70
     0
  0
ENDTAB
  0
TABLE
  2
APPID
 70
     4
  0
APPID
  2
ACAD
 70
     0
  0
APPID
  2
ACADANNOTATIVE
 70
     0
  0
APPID
  2
ACAD_NAV_VCDISPLAY
 70
     0
  0
APPID
  2
ACAD_MLEADERVER
 70
     0
  0
ENDTAB
  0
TABLE
  2
DIMSTYLE
 70
     2
  0
DIMSTYLE
  2
STANDARD
 70
     0
  3

  4

  5

  6

  7

 40
1.0
 41
0.18
 42
0.0625
 43
0.38
 44
0.18
 45
0.0
 46
0.0
 47
0.0
 48
0.0
140
0.18
141
0.09
142
0.0
143
25.399999999999999
144
1.0
145
0.0
146
1.0
147
0.09
 71
     0
 72
     0
 73
     1
 74
     1
 75
     0
 76
     0
 77
     0
 78
     0
170
     0
171
     2
172
     0
173
     0
174
     0
175
     0
176
     0
177
     0
178
     0
  0
ENDTAB
  0
ENDSEC
  0
SECTION
  2
BLOCKS
  0
BLOCK
  8
0
  2
$MODEL_SPACE
 70
     0
 10
0.0
 20
0.0
 30
0.0
  3
$MODEL_SPACE
  1

  0
ENDBLK
  5
33D
  8
0
  0
BLOCK
 67
     1
  8
0
  2
$PAPER_SPACE
 70
     0
 10
0.0
 20
0.0
 30
0.0
  3
$PAPER_SPACE
  1

  0
ENDBLK
  5
339
 67
     1
  8
0
  0
ENDSEC
  0
SECTION
  2
ENTITIES
  0
LINE
  5
2E
  8
HIBINO-BASE
  6
CONTINUOUS
 62
     7
 10
1799.999999955
 20
-2514.681849936765
 30
0.0
 11
-1799.9999999549991
 21
-2514.681849936765
 31
0.0
  0
LINE
  5
2F
  8
HIBINO-BASE
  6
CONTINUOUS
 62
     7
 10
-1799.9999999549991
 20
-2514.681849936765
 30
0.0
 11
-1799.9999999549991
 21
2685.3181499332341
 31
0.0
  0
LINE
  5
30
  8
HIBINO-BASE
  6
CONTINUOUS
 62
     7
 10
1799.999999955
 20
2685.3181499332341
 30
0.0
 11
1799.999999955
 21
-2514.681849936765
 31
0.0
  0
LINE
  5
31
  8
HIBINO-BASE
  6
CONTINUOUS
 62
     7
 10
0.0000000000002179
 20
-2064.681849948016
 30
0.0
 11
1799.999999955
 21
-2064.681849948016
 31
0.0
  0
LINE
  5
32
  8
HIBINO-BASE
  6
CONTINUOUS
 62
     7
 10
0.0000000000002179
 20
-2514.681849936765
 30
0.0
 11
0.0000000000002179
 21
-2064.681849948016
 31
0.0
  0
TEXT
  5
33
  8
HIBINO-BASE
 62
     7
 10
17.999999999550319
 20
-2114.8557166134278
 30
0.0
 40
32.57682291585224
  1
NOTE
 41
0.7
 11
17.999999999550329
 21
-2082.2788936975762
 31
0.0
 73
     3
  0
LINE
  5
34
  8
HIBINO-BASE
  6
CONTINUOUS
 62
     7
 10
699.9999999825003
 20
-2514.681849936765
 30
0.0
 11
699.9999999825003
 21
-2064.681849948016
 31
0.0
  0
TEXT
  5
35
  8
HIBINO-BASE
 62
     7
 10
717.99999998204987
 20
-2114.8557166134278
 30
0.0
 40
32.57682291585224
  1
TITLE
 41
0.7
 11
717.99999998204987
 21
-2082.2788936975762
 31
0.0
 73
     3
  0
LINE
  5
36
  8
HIBINO-BASE
  6
CONTINUOUS
 62
     7
 10
0.0000000000002179
 20
-2314.6818499417659
 30
0.0
 11
1799.999999955
 21
-2314.6818499417659
 31
0.0
  0
TEXT
  5
37
  8
HIBINO-BASE
 62
     7
 10
967.99999997579948
 20
-2363.729316607205
 30
0.0
 40
32.57682291585224
  1
DRAWN
 41
0.7
 11
967.99999997579948
 21
-2331.1524936913529
 31
0.0
 73
     3
  0
TEXT
  5
38
  8
HIBINO-BASE
 62
     7
 10
467.99999998829998
 20
-2363.729316607205
 30
0.0
 40
32.57682291585224
  1
DATE
 41
0.7
 11
467.99999998829998
 21
-2331.1524936913529
 31
0.0
 73
     3
  0
TEXT
  5
39
  8
HIBINO-BASE
 62
     7
 10
267.99999999329998
 20
-2363.729316607205
 30
0.0
 40
32.57682291585224
  1
SCALE
 41
0.7
 11
267.99999999329998
 21
-2331.1524936913529
 31
0.0
 73
     3
  0
TEXT
  5
3A
  8
HIBINO-BASE
 62
     7
 10
717.99999998204987
 20
-2363.729316607205
 30
0.0
 40
32.57682291585224
  1
DESIGN
 41
0.7
 11
717.99999998204987
 21
-2331.1524936913529
 31
0.0
 73
     3
  0
TEXT
  5
3B
  8
HIBINO-BASE
 62
     7
 10
1467.9999999633001
 20
-2363.729316607205
 30
0.0
 40
32.57682291585224
  1
DRAWING NO.
 41
0.7
 11
1467.9999999633001
 21
-2331.1524936913529
 31
0.0
 73
     3
  0
TEXT
  5
3C
  8
HIBINO-BASE
 62
     7
 10
1217.999999969549
 20
-2363.729316607205
 30
0.0
 40
32.57682291585224
  1
CHECK
 41
0.7
 11
1217.999999969549
 21
-2331.1524936913529
 31
0.0
 73
     3
  0
LINE
  5
3D
  8
HIBINO-BASE
  6
CONTINUOUS
 62
     7
 10
287.4999999928126
 20
-2489.6818499373921
 30
0.0
 11
362.49999999093802
 21
-2414.6818499392648
 31
0.0
  0
TEXT
  5
3E
  8
HIBINO-BASE
 62
     7
 10
274.99999999312519
 20
-2436.860716605378
 30
0.0
 40
32.57682291585224
  1
1
 41
0.7
 11
274.99999999312519
 21
-2404.283893689525
 31
0.0
 73
     3
  0
LINE
  5
3F
  8
HIBINO-BASE
  6
CONTINUOUS
 62
     7
 10
249.99999999375021
 20
-2514.681849936765
 30
0.0
 11
249.99999999375021
 21
-2314.6818499417659
 31
0.0
  0
LINE
  5
40
  8
HIBINO-BASE
  6
CONTINUOUS
 62
     7
 10
449.99999998874978
 20
-2514.681849936765
 30
0.0
 11
449.99999998874978
 21
-2314.6818499417659
 31
0.0
  0
LINE
  5
41
  8
HIBINO-BASE
  6
CONTINUOUS
 62
     7
 10
949.99999997624968
 20
-2314.6818499417659
 30
0.0
 11
949.99999997624968
 21
-2514.681849936765
 31
0.0
  0
LINE
  5
42
  8
HIBINO-BASE
  6
CONTINUOUS
 62
     7
 10
1449.99999996375
 20
-2314.6818499417659
 30
0.0
 11
1449.99999996375
 21
-2514.681849936765
 31
0.0
  0
LINE
  5
43
  8
HIBINO-BASE
  6
CONTINUOUS
 62
     7
 10
1199.999999969999
 20
-2514.681849936765
 30
0.0
 11
1199.999999969999
 21
-2314.6818499417659
 31
0.0
  0
TEXT
  5
44
  8
HIBINO-BASE
 62
     7
 10
467.13079998832222
 20
-2457.4089166048639
 30
0.0
 40
32.57682291585224
  1
'13.07.
 41
0.7
 11
467.13079998832222
 21
-2424.8320936890109
 31
0.0
 73
     3
  0
TEXT
  5
45
  8
HIBINO-BASE
 62
     7
 10
349.99999999125009
 20
-2474.3607166044412
 30
0.0
 40
32.57682291585224
  1
20
 41
0.7
 11
349.99999999125009
 21
-2441.7838936885892
 31
0.0
 73
     3
  0
TEXT
  5
46
  8
HIBINO-BASE
 62
     7
 10
980.11620019618954
 20
-2457.4089166048639
 30
0.0
 40
32.57682291585224
  1
N.Sasaki
 41
0.7
 11
980.11620019618954
 21
-2424.8320936890109
 31
0.0
 73
     3
  0
TEXT
  5
47
  8
HIBINO-BASE
 62
     7
 10
77.666666664725625
 20
-2475.1618499377541
 30
0.0
 40
65.15364583170448
  1
A4
 41
0.7
 11
77.666666664725625
 21
-2410.0082041060491
 31
0.0
 73
     3
  0
TEXT
  5
48
  8
HIBINO-BASE
 62
     7
 10
19.16666666618762
 20
-2367.0709499404561
 30
0.0
 40
32.57682291585224
  1
PAPER SIZE
 41
0.7
 11
19.16666666618762
 21
-2334.494127024604
 31
0.0
 73
     3
  0
TEXT
  5
49
  8
HIBINO-BASE
 62
     7
 10
-1656.3199999585911
 20
-2642.855405933562
 30
0.0
 40
72.000883591949972
  1
Hibino Corporation
 41
0.7
 11
-1656.3199999585911
 21
-2570.8545223416122
 31
0.0
 73
     3
  0
TEXT
  5
4A
  8
HIBINO-BASE
 62
     7
 10
1001.367799974966
 20
-2642.855405933562
 30
0.0
 40
72.000883591949972
  1
ヒビノ株式会社
 41
0.7
 11
1001.367799974966
 21
-2570.8545223416122
 31
0.0
 73
     3
  0
LINE
  5
4B
  8
HIBINO-BASE
  6
CONTINUOUS
 62
     7
 10
1799.999999955
 20
2685.3181499332341
 30
0.0
 11
-1799.9999999549991
 21
2685.3181499332341
 31
0.0
  0
LINE
  5
4C
  8
SPEC
  6
CONTINUOUS
 62
     7
 10
-1649.999999958749
 20
1411.0332632946729
 30
0.0
 11
1299.9999999674999
 21
1411.0332632946729
 31
0.0
  0
TEXT
  5
4D
  8
SPEC
 62
     7
 10
-1631.9999999592001
 20
1351.791663296154
 30
0.0
 40
38.00629340182762
  1
入力端子
 41
0.7
 11
-1631.9999999592001
 21
1389.797956697982
 31
0.0
 73
     3
  0
TEXT
  5
4E
  8
SPEC
 62
     7
 10
-715.33333331545055
 20
1351.7916188517111
 30
0.0
 40
38.00629340182762
  1
4Pスピコン\U+00D72
 41
0.7
 11
-715.33333331545055
 21
1389.7979122535389
 31
0.0
 73
     3
  0
LINE
  5
4F
  8
SPEC
  6
CONTINUOUS
 62
     7
 10
-1649.999999958749
 20
1486.0332632946729
 30
0.0
 11
1299.9999999674999
 21
1486.0332632946729
 31
0.0
  0
TEXT
  5
50
  8
SPEC
 62
     7
 10
-1631.9999999592001
 20
1426.791663296154
 30
0.0
 40
38.00629340182762
  1
金具取付穴
 41
0.7
 11
-1631.9999999592001
 21
1464.797956697982
 31
0.0
 73
     3
  0
TEXT
  5
51
  8
SPEC
 62
     7
 10
-715.33333331545055
 20
1426.7916188517111
 30
0.0
 40
38.00629340182762
  1
M10---12ヶ所
 41
0.7
 11
-715.33333331545055
 21
1464.7979122535389
 31
0.0
 73
     3
  0
LINE
  5
52
  8
SPEC
  6
CONTINUOUS
 62
     7
 10
-1649.999999958749
 20
2461.0332632721738
 30
0.0
 11
1299.9999999674999
 21
2461.0332632721738
 31
0.0
  0
LINE
  5
53
  8
SPEC
  6
CONTINUOUS
 62
     7
 10
-1649.999999958749
 20
2386.0332632740492
 30
0.0
 11
1299.9999999674999
 21
2386.0332632740492
 31
0.0
  0
LINE
  5
54
  8
SPEC
  6
CONTINUOUS
 62
     7
 10
-1649.999999958749
 20
2461.0332632721738
 30
0.0
 11
-1649.999999958749
 21
1111.033263304048
 31
0.0
  0
TEXT
  5
55
  8
SPEC
 62
     7
 10
-1624.999999959374
 20
2488.8986632714768
 30
0.0
 40
48.865234373778371
  1
仕様
 41
0.7
 11
-1624.999999959374
 21
2537.7638976452558
 31
0.0
 73
     3
  0
LINE
  5
56
  8
SPEC
  6
CONTINUOUS
 62
     7
 10
-733.333333315
 20
2461.0332632721738
 30
0.0
 11
-733.333333315
 21
1111.033263304048
 31
0.0
  0
LINE
  5
57
  8
SPEC
  6
CONTINUOUS
 62
     7
 10
1299.9999999674999
 20
2461.0332632721738
 30
0.0
 11
1299.9999999674999
 21
1111.033263304048
 31
0.0
  0
TEXT
  5
58
  8
SPEC
 62
     7
 10
-715.33333331545055
 20
2401.791618829212
 30
0.0
 40
38.00629340182762
  1
2-Wayフルレンジ
 41
0.7
 11
-715.33333331545055
 21
2439.7979122310389
 31
0.0
 73
     3
  0
TEXT
  5
59
  8
SPEC
 62
     7
 10
-1631.9999999592001
 20
2401.791618829212
 30
0.0
 40
38.00629340182762
  1
形式
 41
0.7
 11
-1631.9999999592001
 21
2439.7979122310389
 31
0.0
 73
     3
  0
TEXT
  5
5A
  8
SPEC
 62
     7
 10
-1631.9999999592001
 20
2326.791618831086
 30
0.0
 40
38.00629340182762
  1
駆動方式
 41
0.7
 11
-1631.9999999592001
 21
2364.7979122329129
 31
0.0
 73
     3
  0
LINE
  5
5B
  8
SPEC
  6
CONTINUOUS
 62
     7
 10
-1649.999999958749
 20
2086.0332632796731
 30
0.0
 11
1299.9999999674999
 21
2086.0332632796731
 31
0.0
  0
LINE
  5
5C
  8
SPEC
  6
CONTINUOUS
 62
     7
 10
-1649.999999958749
 20
2161.0332632777991
 30
0.0
 11
1299.9999999674999
 21
2161.0332632777991
 31
0.0
  0
LINE
  5
5D
  8
SPEC
  6
CONTINUOUS
 62
     7
 10
-1649.999999958749
 20
2236.0332632759241
 30
0.0
 11
1299.9999999674999
 21
2236.0332632759241
 31
0.0
  0
LINE
  5
5E
  8
SPEC
  6
CONTINUOUS
 62
     7
 10
-1649.999999958749
 20
2011.03326328155
 30
0.0
 11
1299.9999999674999
 21
2011.03326328155
 31
0.0
  0
LINE
  5
5F
  8
SPEC
  6
CONTINUOUS
 62
     7
 10
-1066.6666666399999
 20
1786.033263287173
 30
0.0
 11
1299.9999999674999
 21
1786.033263287173
 31
0.0
  0
LINE
  5
60
  8
SPEC
  6
CONTINUOUS
 62
     7
 10
-1649.999999958749
 20
1636.0332632909231
 30
0.0
 11
1299.9999999674999
 21
1636.0332632909231
 31
0.0
  0
LINE
  5
61
  8
SPEC
  6
CONTINUOUS
 62
     7
 10
-1066.6666666399999
 20
1936.033263283424
 30
0.0
 11
1299.9999999674999
 21
1936.033263283424
 31
0.0
  0
LINE
  5
62
  8
SPEC
  6
CONTINUOUS
 62
     7
 10
-1649.999999958749
 20
1861.033263285299
 30
0.0
 11
1299.9999999674999
 21
1861.033263285299
 31
0.0
  0
TEXT
  5
63
  8
SPEC
 62
     7
 10
-1631.9999999592001
 20
2176.7916188329609
 30
0.0
 40
38.00629340182762
  1
指向角度(水平\U+00D7垂直)
 41
0.7
 11
-1631.9999999592001
 21
2214.7979122347888
 31
0.0
 73
     3
  0
TEXT
  5
64
  8
SPEC
 62
     7
 10
-715.33333331545055
 20
2176.7916188329609
 30
0.0
 40
38.00629340182762
  1
90\U+00B0\U+00D750\U+00B0
 41
0.7
 11
-715.33333331545055
 21
2214.7979122347888
 31
0.0
 73
     3
  0
TEXT
  5
65
  8
SPEC
 62
     7
 10
-715.33333331545055
 20
2101.7916188348372
 30
0.0
 40
38.00629340182762
  1
136dB SPL(ピーク)
 41
0.7
 11
-715.33333331545055
 21
2139.7979122366642
 31
0.0
 73
     3
  0
TEXT
  5
66
  8
SPEC
 62
     7
 10
-1631.9999999592001
 20
2101.7916188348372
 30
0.0
 40
38.00629340182762
  1
最大音圧レベル
 41
0.7
 11
-1631.9999999592001
 21
2139.7979122366642
 31
0.0
 73
     3
  0
TEXT
  5
67
  8
SPEC
 62
     7
 10
-715.33333331545055
 20
2026.791618836711
 30
0.0
 40
38.00629340182762
  1
98dB SPL(パッシブモード)
 41
0.7
 11
-715.33333331545055
 21
2064.7979122385391
 31
0.0
 73
     3
  0
TEXT
  5
68
  8
SPEC
 62
     7
 10
-1631.9999999592001
 20
2026.791618836711
 30
0.0
 40
38.00629340182762
  1
感度(1W、1m)
 41
0.7
 11
-1631.9999999592001
 21
2064.7979122385391
 31
0.0
 73
     3
  0
TEXT
  5
69
  8
SPEC
 62
     7
 10
-1631.9999999592001
 20
1951.7916188385859
 30
0.0
 40
38.00629340182762
  1
公称インピーダンス
 41
0.7
 11
-1631.9999999592001
 21
1989.797912240414
 31
0.0
 73
     3
  0
LINE
  5
6A
  8
SPEC
  6
CONTINUOUS
 62
     7
 10
-1066.6666666399999
 20
2011.03326328155
 30
0.0
 11
-1066.6666666399999
 21
1636.0332632909231
 31
0.0
  0
TEXT
  5
6B
  8
SPEC
 62
     7
 10
-1048.6666666404501
 20
1951.7916188385859
 30
0.0
 40
38.00629340182762
  1
パッシブ
 41
0.7
 11
-1048.6666666404501
 21
1989.797912240414
 31
0.0
 73
     3
  0
TEXT
  5
6C
  8
SPEC
 62
     7
 10
-1048.6666666404501
 20
1876.7916188404611
 30
0.0
 40
38.00629340182762
  1
バイアンプ
 41
0.7
 11
-1048.6666666404501
 21
1914.7979122422889
 31
0.0
 73
     3
  0
TEXT
  5
6D
  8
SPEC
 62
     7
 10
-715.33333331545055
 20
1951.7916188385859
 30
0.0
 40
38.00629340182762
  1
4\U+03A9
 41
0.7
 11
-715.33333331545055
 21
1989.797912240414
 31
0.0
 73
     3
  0
TEXT
  5
6E
  8
SPEC
 62
     7
 10
-715.33333331545055
 20
1876.7916188404611
 30
0.0
 40
38.00629340182762
  1
LF：4\U+03A9、HF：8\U+03A9
 41
0.7
 11
-715.33333331545055
 21
1914.7979122422889
 31
0.0
 73
     3
  0
LINE
  5
6F
  8
SPEC
  6
CONTINUOUS
 62
     7
 10
-1649.999999958749
 20
1561.033263292798
 30
0.0
 11
1299.9999999674999
 21
1561.033263292798
 31
0.0
  0
LINE
  5
70
  8
SPEC
  6
CONTINUOUS
 62
     7
 10
-1649.999999958749
 20
1336.033263298423
 30
0.0
 11
1299.9999999674999
 21
1336.033263298423
 31
0.0
  0
LINE
  5
71
  8
SPEC
  6
CONTINUOUS
 62
     7
 10
-1649.999999958749
 20
1261.0332633002979
 30
0.0
 11
1299.9999999674999
 21
1261.0332633002979
 31
0.0
  0
TEXT
  5
72
  8
SPEC
 62
     7
 10
-1631.9999999592001
 20
1801.791618842336
 30
0.0
 40
38.00629340182762
  1
許容入力
 41
0.7
 11
-1631.9999999592001
 21
1839.7979122441641
 31
0.0
 73
     3
  0
TEXT
  5
73
  8
SPEC
 62
     7
 10
-715.33333331545055
 20
1801.791618842336
 30
0.0
 40
38.00629340182762
  1
1,600W(連続)、6,400W(ピーク)
 41
0.7
 11
-715.33333331545055
 21
1839.7979122441641
 31
0.0
 73
     3
  0
TEXT
  5
74
  8
SPEC
 62
     7
 10
-715.33333331545055
 20
1726.7916188442109
 30
0.0
 40
38.00629340182762
  1
LF：1,600W(連続)、6,400W(ピーク)
 41
0.7
 11
-715.33333331545055
 21
1764.797912246039
 31
0.0
 73
     3
  0
TEXT
  5
75
  8
SPEC
 62
     7
 10
-1048.6666666404501
 20
1801.791618842336
 30
0.0
 40
38.00629340182762
  1
パッシブ
 41
0.7
 11
-1048.6666666404501
 21
1839.7979122441641
 31
0.0
 73
     3
  0
TEXT
  5
76
  8
SPEC
 62
     7
 10
-1048.6666666404501
 20
1726.7916188442109
 30
0.0
 40
38.00629340182762
  1
バイアンプ
 41
0.7
 11
-1048.6666666404501
 21
1764.797912246039
 31
0.0
 73
     3
  0
TEXT
  5
77
  8
SPEC
 62
     7
 10
-715.33333331545055
 20
1651.7916188460861
 30
0.0
 40
38.00629340182762
  1
HF：75W(連続)、300W(ピーク)
 41
0.7
 11
-715.33333331545055
 21
1689.797912247913
 31
0.0
 73
     3
  0
TEXT
  5
78
  8
SPEC
 62
     7
 10
-1631.9999999592001
 20
1576.791663292405
 30
0.0
 40
38.00629340182762
  1
ドライバー構成
 41
0.7
 11
-1631.9999999592001
 21
1614.7979566942331
 31
0.0
 73
     3
  0
TEXT
  5
79
  8
SPEC
 62
     7
 10
-715.33333331545055
 20
1576.791618847961
 30
0.0
 40
38.00629340182762
  1
LF 380mm(2226H)\U+00D72、HF 102mm(2453H)
 41
0.7
 11
-715.33333331545055
 21
1614.7979122497891
 31
0.0
 73
     3
  0
TEXT
  5
7A
  8
SPEC
 62
     7
 10
-1631.9999999592001
 20
1501.791663294279
 30
0.0
 40
38.00629340182762
  1
クロスオーバー周波数
 41
0.7
 11
-1631.9999999592001
 21
1539.7979566961069
 31
0.0
 73
     3
  0
TEXT
  5
7B
  8
SPEC
 62
     7
 10
-715.33333331545055
 20
1501.7916188498371
 30
0.0
 40
38.00629340182762
  1
1.3kHz
 41
0.7
 11
-715.33333331545055
 21
1539.797912251664
 31
0.0
 73
     3
  0
LINE
  5
7C
  8
SPEC
  6
CONTINUOUS
 62
     7
 10
-1649.999999958749
 20
1186.0332633021731
 30
0.0
 11
1299.9999999674999
 21
1186.0332633021731
 31
0.0
  0
LINE
  5
7D
  8
SPEC
  6
CONTINUOUS
 62
     7
 10
-1649.999999958749
 20
1111.033263304048
 30
0.0
 11
1299.9999999674999
 21
1111.033263304048
 31
0.0
  0
TEXT
  5
7E
  8
SPEC
 62
     7
 10
-715.33333331545055
 20
1126.7916508592109
 30
0.0
 40
38.006224999049842
  1
56kg
 41
0.7
 11
-715.33333331545055
 21
1164.797875858261
 31
0.0
 73
     3
  0
TEXT
  5
7F
  8
SPEC
 62
     7
 10
-1631.9999999592001
 20
1276.791663299904
 30
0.0
 40
38.00629340182762
  1
エンクロージャー
 41
0.7
 11
-1631.9999999592001
 21
1314.7979567017319
 31
0.0
 73
     3
  0
TEXT
  5
80
  8
SPEC
 62
     7
 10
-715.33333331545055
 20
1276.7916188554609
 30
0.0
 40
38.00629340182762
  1
18mmカバ/ポプラ合板、黒、DuraFlex仕上げ
 41
0.7
 11
-715.33333331545055
 21
1314.797912257289
 31
0.0
 73
     3
  0
TEXT
  5
81
  8
SPEC
 62
     7
 10
-1631.9999999592001
 20
1201.791663301779
 30
0.0
 40
38.00629340182762
  1
寸法(W\U+00D7H\U+00D7D)
 41
0.7
 11
-1631.9999999592001
 21
1239.797956703607
 31
0.0
 73
     3
  0
TEXT
  5
82
  8
SPEC
 62
     7
 10
-1631.9999999592001
 20
1126.7916633036541
 30
0.0
 40
38.00629340182762
  1
質量
 41
0.7
 11
-1631.9999999592001
 21
1164.797956705482
 31
0.0
 73
     3
  0
TEXT
  5
83
  8
SPEC
 62
     7
 10
-715.33333331545055
 20
1201.7916188573361
 30
0.0
 40
38.00629340182762
  1
570\U+00D71065\U+00D7580mm(除突起部)
 41
0.7
 11
-715.33333331545055
 21
1239.797912259163
 31
0.0
 73
     3
  0
LINE
  5
84
  8
SPEC
  6
CONTINUOUS
 62
     7
 10
-1649.999999958749
 20
2311.0332632740492
 30
0.0
 11
1299.9999999674999
 21
2311.0332632740492
 31
0.0
  0
TEXT
  5
85
  8
SPEC
 62
     7
 10
-715.33333331545055
 20
2251.791618831086
 30
0.0
 40
38.00629340182762
  1
34Hz～20kHz
 41
0.7
 11
-715.33333331545055
 21
2289.7979122329129
 31
0.0
 73
     3
  0
TEXT
  5
86
  8
SPEC
 62
     7
 10
-1631.9999999592001
 20
2251.791618831086
 30
0.0
 40
38.00629340182762
  1
周波数レンジ(－10dB)
 41
0.7
 11
-1631.9999999592001
 21
2289.7979122329129
 31
0.0
 73
     3
  0
TEXT
  5
87
  8
SPEC
 62
     7
 10
-715.33333331545055
 20
2326.7916188306408
 30
0.0
 40
38.006293402777779
  1
バイアンプ/パッシブ（内部ジャンパー切替）
 41
0.7
 11
-715.33333331545055
 21
2364.7979122334191
 31
0.0
 73
     3
  0
LINE
  5
88
  8
DIMNSIONS
  6
CONTINUOUS
 62
     7
 10
-998.54101966249607
 20
-34.99999999999995
 30
0.0
 11
-860.0
 21
-34.99999999999995
 31
0.0
  0
LINE
  5
89
  8
DIMNSIONS
  6
CONTINUOUS
 62
     7
 10
-998.54101966249812
 20
-1100.0
 30
0.0
 11
-860.0
 21
-1100.0
 31
0.0
  0
LINE
  5
8A
  8
DIMNSIONS
  6
CONTINUOUS
 62
     7
 10
-900.0
 20
-34.99999999999995
 30
0.0
 11
-900.0
 21
-1100.0
 31
0.0
  0
LINE
  5
8B
  8
DIMNSIONS
  6
CONTINUOUS
 62
     7
 10
-900.0
 20
-34.99999999999995
 30
0.0
 11
-886.59920409699532
 21
-85.012451171874915
 31
0.0
  0
LINE
  5
8C
  8
DIMNSIONS
  6
CONTINUOUS
 62
     7
 10
-900.0
 20
-34.99999999999995
 30
0.0
 11
-913.40079590300479
 21
-85.012451171874915
 31
0.0
  0
LINE
  5
8D
  8
DIMNSIONS
  6
CONTINUOUS
 62
     7
 10
-900.0
 20
-1100.0
 30
0.0
 11
-913.40079590300479
 21
-1049.987548828125
 31
0.0
  0
LINE
  5
8E
  8
DIMNSIONS
  6
CONTINUOUS
 62
     7
 10
-900.0
 20
-1100.0
 30
0.0
 11
-886.59920409699532
 21
-1049.987548828125
 31
0.0
  0
TEXT
  5
8F
  8
DIMNSIONS
 62
     7
 10
-917.37777777777751
 20
-638.05555555555566
 30
0.0
 40
54.294704861111107
  1
1065
 50
90.0
 41
0.7
 11
-971.67248263888871
 21
-638.05555555555566
 31
0.0
 73
     3
  0
LINE
  5
90
  8
DIMNSIONS
  6
CONTINUOUS
 62
     7
 10
-1585.0
 20
-1120.729490168751
 30
0.0
 11
-1585.0
 21
-1240.0
 31
0.0
  0
LINE
  5
91
  8
DIMNSIONS
  6
CONTINUOUS
 62
     7
 10
-1015.0
 20
-1120.729490168751
 30
0.0
 11
-1015.0
 21
-1240.0
 31
0.0
  0
LINE
  5
92
  8
DIMNSIONS
  6
CONTINUOUS
 62
     7
 10
-1585.0
 20
-1200.0
 30
0.0
 11
-1015.0
 21
-1200.0
 31
0.0
  0
LINE
  5
93
  8
DIMNSIONS
  6
CONTINUOUS
 62
     7
 10
-1585.0
 20
-1200.0
 30
0.0
 11
-1534.987548828125
 21
-1186.599204096995
 31
0.0
  0
LINE
  5
94
  8
DIMNSIONS
  6
CONTINUOUS
 62
     7
 10
-1585.0
 20
-1200.0
 30
0.0
 11
-1534.987548828125
 21
-1213.400795903005
 31
0.0
  0
LINE
  5
95
  8
DIMNSIONS
  6
CONTINUOUS
 62
     7
 10
-1015.0
 20
-1200.0
 30
0.0
 11
-1065.012451171875
 21
-1213.400795903005
 31
0.0
  0
LINE
  5
96
  8
DIMNSIONS
  6
CONTINUOUS
 62
     7
 10
-1015.0
 20
-1200.0
 30
0.0
 11
-1065.012451171875
 21
-1186.599204096995
 31
0.0
  0
TEXT
  5
97
  8
DIMNSIONS
 62
     7
 10
-1352.916666666667
 20
-1182.622222222222
 30
0.0
 40
54.294704861111107
  1
570
 41
0.7
 11
-1352.916666666667
 21
-1128.32751736111
 31
0.0
 73
     3
  0
LINE
  5
98
  8
DIMNSIONS
  6
CONTINUOUS
 62
     7
 10
-1055.595499893783
 20
200.0
 30
0.0
 11
-860.0
 21
200.0
 31
0.0
  0
LINE
  5
99
  8
DIMNSIONS
  6
CONTINUOUS
 62
     7
 10
-1106.4307086391841
 20
780.0
 30
0.0
 11
-860.0
 21
780.0
 31
0.0
  0
LINE
  5
9A
  8
DIMNSIONS
  6
CONTINUOUS
 62
     7
 10
-900.0
 20
200.0
 30
0.0
 11
-900.0
 21
780.0
 31
0.0
  0
LINE
  5
9B
  8
DIMNSIONS
  6
CONTINUOUS
 62
     7
 10
-900.0
 20
200.0
 30
0.0
 11
-913.40079590300479
 21
250.012451171875
 31
0.0
  0
LINE
  5
9C
  8
DIMNSIONS
  6
CONTINUOUS
 62
     7
 10
-900.0
 20
200.0
 30
0.0
 11
-886.59920409699532
 21
250.012451171875
 31
0.0
  0
LINE
  5
9D
  8
DIMNSIONS
  6
CONTINUOUS
 62
     7
 10
-900.0
 20
780.0
 30
0.0
 11
-886.59920409699532
 21
729.987548828125
 31
0.0
  0
LINE
  5
9E
  8
DIMNSIONS
  6
CONTINUOUS
 62
     7
 10
-900.0
 20
780.0
 30
0.0
 11
-913.40079590300479
 21
729.987548828125
 31
0.0
  0
TEXT
  5
9F
  8
DIMNSIONS
 62
     7
 10
-917.37777777777751
 20
437.0833333333332
 30
0.0
 40
54.294704861111107
  1
580
 50
90.0
 41
0.7
 11
-971.67248263888871
 21
437.0833333333332
 31
0.0
 73
     3
  0
LINE
  5
A0
  8
DIMNSIONS
  6
CONTINUOUS
 62
     7
 10
-750.0
 20
-1120.729490168751
 30
0.0
 11
-750.0
 21
-1240.0
 31
0.0
  0
LINE
  5
A1
  8
DIMNSIONS
  6
CONTINUOUS
 62
     7
 10
-170.0
 20
-1120.729490168751
 30
0.0
 11
-170.0
 21
-1240.0
 31
0.0
  0
LINE
  5
A2
  8
DIMNSIONS
  6
CONTINUOUS
 62
     7
 10
-750.0
 20
-1200.0
 30
0.0
 11
-170.0
 21
-1200.0
 31
0.0
  0
LINE
  5
A3
  8
DIMNSIONS
  6
CONTINUOUS
 62
     7
 10
-750.0
 20
-1200.0
 30
0.0
 11
-699.987548828125
 21
-1186.599204096995
 31
0.0
  0
LINE
  5
A4
  8
DIMNSIONS
  6
CONTINUOUS
 62
     7
 10
-750.0
 20
-1200.0
 30
0.0
 11
-699.987548828125
 21
-1213.400795903005
 31
0.0
  0
LINE
  5
A5
  8
DIMNSIONS
  6
CONTINUOUS
 62
     7
 10
-170.0
 20
-1200.0
 30
0.0
 11
-220.012451171875
 21
-1213.400795903005
 31
0.0
  0
LINE
  5
A6
  8
DIMNSIONS
  6
CONTINUOUS
 62
     7
 10
-170.0
 20
-1200.0
 30
0.0
 11
-220.012451171875
 21
-1186.599204096995
 31
0.0
  0
TEXT
  5
A7
  8
DIMNSIONS
 62
     7
 10
-512.91666666666652
 20
-1182.622222222222
 30
0.0
 40
54.294704861111107
  1
580
 41
0.7
 11
-512.91666666666652
 21
-1128.32751736111
 31
0.0
 73
     3
  0
LINE
  5
A8
  8
DIMNSIONS
  6
CONTINUOUS
 62
     7
 10
-1493.5692913608159
 20
780.0
 30
0.0
 11
-1590.0
 21
780.0
 31
0.0
  0
LINE
  5
A9
  8
DIMNSIONS
  6
CONTINUOUS
 62
     7
 10
-1340.0
 20
735.0
 30
0.0
 11
-1590.0
 21
735.0
 31
0.0
  0
LINE
  5
AA
  8
DIMNSIONS
  6
CONTINUOUS
 62
     7
 10
-1550.0
 20
735.0
 30
0.0
 11
-1550.0
 21
780.0
 31
0.0
  0
LINE
  5
AB
  8
DIMNSIONS
  6
CONTINUOUS
 62
     7
 10
-1550.0
 20
780.0
 30
0.0
 11
-1550.0
 21
973.07263533817763
 31
0.0
  0
LINE
  5
AC
  8
DIMNSIONS
  6
CONTINUOUS
 62
     7
 10
-1550.0
 20
780.0
 30
0.0
 11
-1563.400795903005
 21
830.01245117187489
 31
0.0
  0
LINE
  5
AD
  8
DIMNSIONS
  6
CONTINUOUS
 62
     7
 10
-1550.0
 20
780.0
 30
0.0
 11
-1536.599204096995
 21
830.01245117187489
 31
0.0
  0
LINE
  5
AE
  8
DIMNSIONS
  6
CONTINUOUS
 62
     7
 10
-1550.0
 20
735.0
 30
0.0
 11
-1550.0
 21
635.0
 31
0.0
  0
LINE
  5
AF
  8
DIMNSIONS
  6
CONTINUOUS
 62
     7
 10
-1550.0
 20
735.0
 30
0.0
 11
-1536.599204096995
 21
684.987548828125
 31
0.0
  0
LINE
  5
B0
  8
DIMNSIONS
  6
CONTINUOUS
 62
     7
 10
-1550.0
 20
735.0
 30
0.0
 11
-1563.400795903005
 21
684.987548828125
 31
0.0
  0
TEXT
  5
B1
  8
DIMNSIONS
 62
     7
 10
-1569.877777777778
 20
831.96152422706621
 30
0.0
 40
54.294704861111107
  1
45.0
 50
90.0
 41
0.7
 11
-1624.1724826388891
 21
831.96152422706621
 31
0.0
 73
     3
  0
LINE
  5
B2
  8
DIMNSIONS
  6
CONTINUOUS
 62
     7
 10
-1493.5692913608159
 20
780.0
 30
0.0
 11
-1690.0
 21
780.0
 31
0.0
  0
LINE
  5
B3
  8
DIMNSIONS
  6
CONTINUOUS
 62
     7
 10
-1582.5
 20
315.0
 30
0.0
 11
-1690.0
 21
315.0
 31
0.0
  0
LINE
  5
B4
  8
DIMNSIONS
  6
CONTINUOUS
 62
     7
 10
-1650.0
 20
780.0
 30
0.0
 11
-1650.0
 21
315.0
 31
0.0
  0
LINE
  5
B5
  8
DIMNSIONS
  6
CONTINUOUS
 62
     7
 10
-1650.0
 20
780.0
 30
0.0
 11
-1636.599204096995
 21
729.987548828125
 31
0.0
  0
LINE
  5
B6
  8
DIMNSIONS
  6
CONTINUOUS
 62
     7
 10
-1650.0
 20
780.0
 30
0.0
 11
-1663.400795903005
 21
729.987548828125
 31
0.0
  0
LINE
  5
B7
  8
DIMNSIONS
  6
CONTINUOUS
 62
     7
 10
-1650.0
 20
315.0
 30
0.0
 11
-1663.400795903005
 21
365.012451171875
 31
0.0
  0
LINE
  5
B8
  8
DIMNSIONS
  6
CONTINUOUS
 62
     7
 10
-1650.0
 20
315.0
 30
0.0
 11
-1636.599204096995
 21
365.012451171875
 31
0.0
  0
TEXT
  5
B9
  8
DIMNSIONS
 62
     7
 10
-1669.877777777778
 20
494.5833333333332
 30
0.0
 40
54.294704861111107
  1
465
 50
90.0
 41
0.7
 11
-1724.1724826388891
 21
494.5833333333332
 31
0.0
 73
     3
  0
LINE
  5
BA
  8
DIMNSIONS
  6
CONTINUOUS
 62
     7
 10
-1542.5
 20
275.0
 30
0.0
 11
-1542.5
 21
60.0
 31
0.0
  0
LINE
  5
BB
  8
DIMNSIONS
  6
CONTINUOUS
 62
     7
 10
-1057.5
 20
275.0
 30
0.0
 11
-1057.5
 21
60.0
 31
0.0
  0
LINE
  5
BC
  8
DIMNSIONS
  6
CONTINUOUS
 62
     7
 10
-1542.5
 20
100.0
 30
0.0
 11
-1057.5
 21
100.0
 31
0.0
  0
LINE
  5
BD
  8
DIMNSIONS
  6
CONTINUOUS
 62
     7
 10
-1542.5
 20
100.0
 30
0.0
 11
-1492.487548828125
 21
113.40079590300481
 31
0.0
  0
LINE
  5
BE
  8
DIMNSIONS
  6
CONTINUOUS
 62
     7
 10
-1542.5
 20
100.0
 30
0.0
 11
-1492.487548828125
 21
86.599204096995138
 31
0.0
  0
LINE
  5
BF
  8
DIMNSIONS
  6
CONTINUOUS
 62
     7
 10
-1057.5
 20
100.0
 30
0.0
 11
-1107.512451171875
 21
86.599204096995123
 31
0.0
  0
LINE
  5
C0
  8
DIMNSIONS
  6
CONTINUOUS
 62
     7
 10
-1057.5
 20
100.0
 30
0.0
 11
-1107.512451171875
 21
113.40079590300481
 31
0.0
  0
TEXT
  5
C1
  8
DIMNSIONS
 62
     7
 10
-1352.916666666667
 20
119.87777777777769
 30
0.0
 40
54.294704861111107
  1
485
 41
0.7
 11
-1352.916666666667
 21
174.17248263888891
 31
0.0
 73
     3
  0
LINE
  5
C2
  8
DIMNSIONS
  6
CONTINUOUS
 62
     7
 10
-160.0
 20
-1100.0
 30
0.0
 11
-10.0
 21
-1100.0
 31
0.0
  0
LINE
  5
C3
  8
DIMNSIONS
  6
CONTINUOUS
 62
     7
 10
-605.0
 20
-1050.0
 30
0.0
 11
-10.0
 21
-1050.0
 31
0.0
  0
LINE
  5
C4
  8
DIMNSIONS
  6
CONTINUOUS
 62
     7
 10
-50.0
 20
-1050.0
 30
0.0
 11
-50.0
 21
-1100.0
 31
0.0
  0
LINE
  5
C5
  8
DIMNSIONS
  6
CONTINUOUS
 62
     7
 10
-50.0
 20
-1100.0
 30
0.0
 11
-50.0
 21
-1266.1111111111111
 31
0.0
  0
LINE
  5
C6
  8
DIMNSIONS
  6
CONTINUOUS
 62
     7
 10
-50.0
 20
-1100.0
 30
0.0
 11
-36.599204096995138
 21
-1150.012451171875
 31
0.0
  0
LINE
  5
C7
  8
DIMNSIONS
  6
CONTINUOUS
 62
     7
 10
-50.0
 20
-1100.0
 30
0.0
 11
-63.400795903004862
 21
-1150.012451171875
 31
0.0
  0
LINE
  5
C8
  8
DIMNSIONS
  6
CONTINUOUS
 62
     7
 10
-50.0
 20
-1050.0
 30
0.0
 11
-50.0
 21
-949.99999999999955
 31
0.0
  0
LINE
  5
C9
  8
DIMNSIONS
  6
CONTINUOUS
 62
     7
 10
-50.0
 20
-1050.0
 30
0.0
 11
-63.400795903004862
 21
-999.98754882812455
 31
0.0
  0
LINE
  5
CA
  8
DIMNSIONS
  6
CONTINUOUS
 62
     7
 10
-50.0
 20
-1050.0
 30
0.0
 11
-36.599204096995138
 21
-999.98754882812455
 31
0.0
  0
TEXT
  5
CB
  8
DIMNSIONS
 62
     7
 10
-69.877777777777766
 20
-1266.1111111111111
 30
0.0
 40
54.294704861111107
  1
50.0
 50
90.0
 41
0.7
 11
-124.17248263888889
 21
-1266.1111111111111
 31
0.0
 73
     3
  0
LINE
  5
CC
  8
DIMNSIONS
  6
CONTINUOUS
 62
     7
 10
-605.0
 20
-1050.0
 30
0.0
 11
-10.0
 21
-1050.0
 31
0.0
  0
LINE
  5
CD
  8
DIMNSIONS
  6
CONTINUOUS
 62
     7
 10
-605.0
 20
-84.999999999999787
 30
0.0
 11
-10.0
 21
-84.999999999999787
 31
0.0
  0
LINE
  5
CE
  8
DIMNSIONS
  6
CONTINUOUS
 62
     7
 10
-50.0
 20
-1050.0
 30
0.0
 11
-50.0
 21
-84.999999999999787
 31
0.0
  0
LINE
  5
CF
  8
DIMNSIONS
  6
CONTINUOUS
 62
     7
 10
-50.0
 20
-1050.0
 30
0.0
 11
-63.400795903004862
 21
-999.98754882812455
 31
0.0
  0
LINE
  5
D0
  8
DIMNSIONS
  6
CONTINUOUS
 62
     7
 10
-50.0
 20
-1050.0
 30
0.0
 11
-36.599204096995138
 21
-999.98754882812455
 31
0.0
  0
LINE
  5
D1
  8
DIMNSIONS
  6
CONTINUOUS
 62
     7
 10
-50.0
 20
-84.999999999999787
 30
0.0
 11
-36.599204096995138
 21
-135.01245117187469
 31
0.0
  0
LINE
  5
D2
  8
DIMNSIONS
  6
CONTINUOUS
 62
     7
 10
-50.0
 20
-84.999999999999787
 30
0.0
 11
-63.400795903004862
 21
-135.01245117187469
 31
0.0
  0
TEXT
  5
D3
  8
DIMNSIONS
 62
     7
 10
-69.877777777777766
 20
-620.41666666666652
 30
0.0
 40
54.294704861111107
  1
965
 50
90.0
 41
0.7
 11
-124.17248263888889
 21
-620.41666666666652
 31
0.0
 73
     3
  0
LINE
  5
D4
  8
DIMNSIONS
  6
CONTINUOUS
 62
     7
 10
606.458980337502
 20
-1100.0
 30
0.0
 11
739.99999999999955
 21
-1100.0
 31
0.0
  0
LINE
  5
D5
  8
DIMNSIONS
  6
CONTINUOUS
 62
     7
 10
340.0
 20
-1050.0
 30
0.0
 11
739.99999999999955
 21
-1050.0
 31
0.0
  0
LINE
  5
D6
  8
DIMNSIONS
  6
CONTINUOUS
 62
     7
 10
699.99999999999955
 20
-1050.0
 30
0.0
 11
699.99999999999955
 21
-1100.0
 31
0.0
  0
LINE
  5
D7
  8
DIMNSIONS
  6
CONTINUOUS
 62
     7
 10
699.99999999999955
 20
-1100.0
 30
0.0
 11
699.99999999999955
 21
-1266.1111111111111
 31
0.0
  0
LINE
  5
D8
  8
DIMNSIONS
  6
CONTINUOUS
 62
     7
 10
699.99999999999955
 20
-1100.0
 30
0.0
 11
713.40079590300468
 21
-1150.012451171875
 31
0.0
  0
LINE
  5
D9
  8
DIMNSIONS
  6
CONTINUOUS
 62
     7
 10
699.99999999999955
 20
-1100.0
 30
0.0
 11
686.59920409699475
 21
-1150.012451171875
 31
0.0
  0
LINE
  5
DA
  8
DIMNSIONS
  6
CONTINUOUS
 62
     7
 10
699.99999999999955
 20
-1050.0
 30
0.0
 11
699.99999999999955
 21
-949.99999999999955
 31
0.0
  0
LINE
  5
DB
  8
DIMNSIONS
  6
CONTINUOUS
 62
     7
 10
699.99999999999955
 20
-1050.0
 30
0.0
 11
686.59920409699475
 21
-999.98754882812455
 31
0.0
  0
LINE
  5
DC
  8
DIMNSIONS
  6
CONTINUOUS
 62
     7
 10
699.99999999999955
 20
-1050.0
 30
0.0
 11
713.40079590300468
 21
-999.98754882812455
 31
0.0
  0
TEXT
  5
DD
  8
DIMNSIONS
 62
     7
 10
680.12222222222204
 20
-1266.1111111111111
 30
0.0
 40
54.294704861111107
  1
50.0
 50
90.0
 41
0.7
 11
625.82751736111095
 21
-1266.1111111111111
 31
0.0
 73
     3
  0
LINE
  5
DE
  8
DIMNSIONS
  6
CONTINUOUS
 62
     7
 10
340.0
 20
-1050.0
 30
0.0
 11
740.0
 21
-1050.0
 31
0.0
  0
LINE
  5
DF
  8
DIMNSIONS
  6
CONTINUOUS
 62
     7
 10
340.0
 20
-84.999999999999659
 30
0.0
 11
740.0
 21
-84.999999999999659
 31
0.0
  0
LINE
  5
E0
  8
DIMNSIONS
  6
CONTINUOUS
 62
     7
 10
700.0
 20
-1050.0
 30
0.0
 11
700.0
 21
-84.999999999999659
 31
0.0
  0
LINE
  5
E1
  8
DIMNSIONS
  6
CONTINUOUS
 62
     7
 10
700.0
 20
-1050.0
 30
0.0
 11
686.59920409699521
 21
-999.98754882812455
 31
0.0
  0
LINE
  5
E2
  8
DIMNSIONS
  6
CONTINUOUS
 62
     7
 10
700.0
 20
-1050.0
 30
0.0
 11
713.40079590300491
 21
-999.98754882812455
 31
0.0
  0
LINE
  5
E3
  8
DIMNSIONS
  6
CONTINUOUS
 62
     7
 10
700.0
 20
-84.999999999999659
 30
0.0
 11
713.40079590300491
 21
-135.0124511718746
 31
0.0
  0
LINE
  5
E4
  8
DIMNSIONS
  6
CONTINUOUS
 62
     7
 10
700.0
 20
-84.999999999999659
 30
0.0
 11
686.59920409699521
 21
-135.0124511718746
 31
0.0
  0
TEXT
  5
E5
  8
DIMNSIONS
 62
     7
 10
680.12222222222215
 20
-620.41666666666652
 30
0.0
 40
54.294704861111107
  1
965
 50
90.0
 41
0.7
 11
625.82751736111106
 21
-620.41666666666652
 31
0.0
 73
     3
  0
LINE
  5
E6
  8
DIMNSIONS
  6
CONTINUOUS
 62
     7
 10
-1047.591113837143
 20
316.34683889592219
 30
0.0
 11
-800.0
 21
350.0
 31
0.0
  0
LINE
  5
E7
  8
DIMNSIONS
  6
CONTINUOUS
 62
     7
 10
-1047.591113837143
 20
316.34683889592219
 30
0.0
 11
-999.58459409015438
 21
335.74273188477889
 31
0.0
  0
LINE
  5
E8
  8
DIMNSIONS
  6
CONTINUOUS
 62
     7
 10
-1047.591113837143
 20
316.34683889592219
 30
0.0
 11
-996.31830169454315
 21
309.14091507986228
 31
0.0
  0
LINE
  5
E9
  8
DIMNSIONS
  6
CONTINUOUS
 62
     7
 10
-800.0
 20
350.0
 30
0.0
 11
-583.6111111111112
 21
350.0
 31
0.0
  0
TEXT
  5
EA
  8
DIMNSIONS
 62
     7
 10
-760.0
 20
369.87777777777779
 30
0.0
 40
54.294704861111107
  1
3-M10
 41
0.7
 11
-760.0
 21
424.17248263888888
 31
0.0
 73
     3
  0
LINE
  5
EB
  8
DIMNSIONS
  6
CONTINUOUS
 62
     7
 10
-1493.5692913608159
 20
-1980.0
 30
0.0
 11
-1590.0
 21
-1980.0
 31
0.0
  0
LINE
  5
EC
  8
DIMNSIONS
  6
CONTINUOUS
 62
     7
 10
-1340.0
 20
-1935.0
 30
0.0
 11
-1590.0
 21
-1935.0
 31
0.0
  0
LINE
  5
ED
  8
DIMNSIONS
  6
CONTINUOUS
 62
     7
 10
-1550.0
 20
-1935.0
 30
0.0
 11
-1550.0
 21
-1980.0
 31
0.0
  0
LINE
  5
EE
  8
DIMNSIONS
  6
CONTINUOUS
 62
     7
 10
-1550.0
 20
-1980.0
 30
0.0
 11
-1550.0
 21
-2166.1111111111122
 31
0.0
  0
LINE
  5
EF
  8
DIMNSIONS
  6
CONTINUOUS
 62
     7
 10
-1550.0
 20
-1980.0
 30
0.0
 11
-1536.599204096995
 21
-2030.012451171875
 31
0.0
  0
LINE
  5
F0
  8
DIMNSIONS
  6
CONTINUOUS
 62
     7
 10
-1550.0
 20
-1980.0
 30
0.0
 11
-1563.400795903005
 21
-2030.012451171875
 31
0.0
  0
LINE
  5
F1
  8
DIMNSIONS
  6
CONTINUOUS
 62
     7
 10
-1550.0
 20
-1935.0
 30
0.0
 11
-1550.0
 21
-1835.0
 31
0.0
  0
LINE
  5
F2
  8
DIMNSIONS
  6
CONTINUOUS
 62
     7
 10
-1550.0
 20
-1935.0
 30
0.0
 11
-1563.400795903005
 21
-1884.987548828125
 31
0.0
  0
LINE
  5
F3
  8
DIMNSIONS
  6
CONTINUOUS
 62
     7
 10
-1550.0
 20
-1935.0
 30
0.0
 11
-1536.599204096995
 21
-1884.987548828125
 31
0.0
  0
TEXT
  5
F4
  8
DIMNSIONS
 62
     7
 10
-1569.877777777778
 20
-2166.1111111111122
 30
0.0
 40
54.294704861111107
  1
45.0
 50
90.0
 41
0.7
 11
-1624.1724826388891
 21
-2166.1111111111122
 31
0.0
 73
     3
  0
LINE
  5
F5
  8
DIMNSIONS
  6
CONTINUOUS
 62
     7
 10
-1493.5692913608159
 20
-1980.0
 30
0.0
 11
-1690.0
 21
-1980.0
 31
0.0
  0
LINE
  5
F6
  8
DIMNSIONS
  6
CONTINUOUS
 62
     7
 10
-1582.5
 20
-1515.0
 30
0.0
 11
-1690.0
 21
-1515.0
 31
0.0
  0
LINE
  5
F7
  8
DIMNSIONS
  6
CONTINUOUS
 62
     7
 10
-1650.0
 20
-1980.0
 30
0.0
 11
-1650.0
 21
-1515.0
 31
0.0
  0
LINE
  5
F8
  8
DIMNSIONS
  6
CONTINUOUS
 62
     7
 10
-1650.0
 20
-1980.0
 30
0.0
 11
-1663.400795903005
 21
-1929.987548828125
 31
0.0
  0
LINE
  5
F9
  8
DIMNSIONS
  6
CONTINUOUS
 62
     7
 10
-1650.0
 20
-1980.0
 30
0.0
 11
-1636.599204096995
 21
-1929.987548828125
 31
0.0
  0
LINE
  5
FA
  8
DIMNSIONS
  6
CONTINUOUS
 62
     7
 10
-1650.0
 20
-1515.0
 30
0.0
 11
-1636.599204096995
 21
-1565.012451171875
 31
0.0
  0
LINE
  5
FB
  8
DIMNSIONS
  6
CONTINUOUS
 62
     7
 10
-1650.0
 20
-1515.0
 30
0.0
 11
-1663.400795903005
 21
-1565.012451171875
 31
0.0
  0
TEXT
  5
FC
  8
DIMNSIONS
 62
     7
 10
-1669.877777777778
 20
-1800.416666666667
 30
0.0
 40
54.294704861111107
  1
465
 50
90.0
 41
0.7
 11
-1724.1724826388891
 21
-1800.416666666667
 31
0.0
 73
     3
  0
LINE
  5
FD
  8
DIMNSIONS
  6
CONTINUOUS
 62
     7
 10
-1542.5
 20
-1475.0
 30
0.0
 11
-1542.5
 21
-1310.0
 31
0.0
  0
LINE
  5
FE
  8
DIMNSIONS
  6
CONTINUOUS
 62
     7
 10
-1057.5
 20
-1475.0
 30
0.0
 11
-1057.5
 21
-1310.0
 31
0.0
  0
LINE
  5
FF
  8
DIMNSIONS
  6
CONTINUOUS
 62
     7
 10
-1542.5
 20
-1350.0
 30
0.0
 11
-1057.5
 21
-1350.0
 31
0.0
  0
LINE
  5
100
  8
DIMNSIONS
  6
CONTINUOUS
 62
     7
 10
-1542.5
 20
-1350.0
 30
0.0
 11
-1492.487548828125
 21
-1336.599204096995
 31
0.0
  0
LINE
  5
101
  8
DIMNSIONS
  6
CONTINUOUS
 62
     7
 10
-1542.5
 20
-1350.0
 30
0.0
 11
-1492.487548828125
 21
-1363.400795903005
 31
0.0
  0
LINE
  5
102
  8
DIMNSIONS
  6
CONTINUOUS
 62
     7
 10
-1057.5
 20
-1350.0
 30
0.0
 11
-1107.512451171875
 21
-1363.400795903005
 31
0.0
  0
LINE
  5
103
  8
DIMNSIONS
  6
CONTINUOUS
 62
     7
 10
-1057.5
 20
-1350.0
 30
0.0
 11
-1107.512451171875
 21
-1336.599204096995
 31
0.0
  0
TEXT
  5
104
  8
DIMNSIONS
 62
     7
 10
-1352.916666666667
 20
-1330.122222222222
 30
0.0
 40
54.294704861111107
  1
485
 41
0.7
 11
-1352.916666666667
 21
-1275.8275173611109
 31
0.0
 73
     3
  0
LINE
  5
105
  8
DIMNSIONS
  6
CONTINUOUS
 62
     7
 10
-1048.699778273322
 20
-1519.749326011223
 30
0.0
 11
-900.0
 21
-1600.0
 31
0.0
  0
LINE
  5
106
  8
DIMNSIONS
  6
CONTINUOUS
 62
     7
 10
-1048.699778273322
 20
-1519.749326011223
 30
0.0
 11
-998.2501123029823
 21
-1531.3965491366839
 31
0.0
  0
LINE
  5
107
  8
DIMNSIONS
  6
CONTINUOUS
 62
     7
 10
-1048.699778273322
 20
-1519.749326011223
 30
0.0
 11
-1010.832697493299
 21
-1555.0609501065881
 31
0.0
  0
LINE
  5
108
  8
DIMNSIONS
  6
CONTINUOUS
 62
     7
 10
-900.0
 20
-1600.0
 30
0.0
 11
-683.6111111111112
 21
-1600.0
 31
0.0
  0
TEXT
  5
109
  8
DIMNSIONS
 62
     7
 10
-860.0
 20
-1580.122222222222
 30
0.0
 40
54.294704861111107
  1
3-M10
 41
0.7
 11
-860.0
 21
-1525.8275173611109
 31
0.0
 73
     3
  0
LINE
  5
10A
  8
DIMNSIONS
  6
CONTINUOUS
 62
     7
 10
-642.63648420847881
 20
-75.283323968190857
 30
0.0
 11
-599.99999999999989
 21
99.999999999999957
 31
0.0
  0
LINE
  5
10B
  8
DIMNSIONS
  6
CONTINUOUS
 62
     7
 10
-642.63648420847881
 20
-75.283323968190857
 30
0.0
 11
-643.54011221077553
 21
-23.514510388134411
 31
0.0
  0
LINE
  5
10C
  8
DIMNSIONS
  6
CONTINUOUS
 62
     7
 10
-642.63648420847881
 20
-75.283323968190857
 30
0.0
 11
-617.53464222401044
 21
-29.998402282932808
 31
0.0
  0
LINE
  5
10D
  8
DIMNSIONS
  6
CONTINUOUS
 62
     7
 10
-599.99999999999989
 20
99.999999999999957
 30
0.0
 11
-383.61111111111092
 21
99.999999999999957
 31
0.0
  0
TEXT
  5
10E
  8
DIMNSIONS
 62
     7
 10
-559.99999999999977
 20
119.87777777777769
 30
0.0
 40
54.294704861111107
  1
4-M10
 41
0.7
 11
-559.99999999999977
 21
174.17248263888891
 31
0.0
 73
     3
  0
LINE
  5
10F
  8
DIMNSIONS
  6
CONTINUOUS
 62
     7
 10
302.60909025142507
 20
-75.346366069727054
 30
0.0
 11
350.0
 21
99.999999999999957
 31
0.0
  0
LINE
  5
110
  8
DIMNSIONS
  6
CONTINUOUS
 62
     7
 10
302.60909025142507
 20
-75.346366069727054
 30
0.0
 11
303.51271825372169
 21
-23.57755248967063
 31
0.0
  0
LINE
  5
111
  8
DIMNSIONS
  6
CONTINUOUS
 62
     7
 10
302.60909025142507
 20
-75.346366069727054
 30
0.0
 11
329.27606184701318
 21
-30.965072386765691
 31
0.0
  0
LINE
  5
112
  8
DIMNSIONS
  6
CONTINUOUS
 62
     7
 10
350.0
 20
99.999999999999957
 30
0.0
 11
566.38888888888869
 21
99.999999999999957
 31
0.0
  0
TEXT
  5
113
  8
DIMNSIONS
 62
     7
 10
390.00000000000011
 20
119.87777777777769
 30
0.0
 40
54.294704861111107
  1
2-M10
 41
0.7
 11
390.00000000000011
 21
174.17248263888891
 31
0.0
 73
     3
  0
TEXT
  5
114
  8
DIMNSIONS
 62
     7
 10
-399.99999998999982
 20
-2269.2920499428992
 30
0.0
 40
48.865234373778371
  1
(単位：mm)
 41
0.7
 11
-399.99999998999982
 21
-2220.4268155691211
 31
0.0
 73
     3
  0
LINE
  5
115
  8
DIMNSIONS
  6
CONTINUOUS
 62
     7
 10
-1057.5
 20
-1104.0
 30
0.0
 11
-860.0
 21
-1104.0
 31
0.0
  0
LINE
  5
116
  8
DIMNSIONS
  6
CONTINUOUS
 62
     7
 10
-998.54101966249812
 20
-1100.0
 30
0.0
 11
-860.0
 21
-1100.0
 31
0.0
  0
LINE
  5
117
  8
DIMNSIONS
  6
CONTINUOUS
 62
     7
 10
-900.0
 20
-1100.0
 30
0.0
 11
-900.0
 21
-1104.0
 31
0.0
  0
LINE
  5
118
  8
DIMNSIONS
  6
CONTINUOUS
 62
     7
 10
-900.0
 20
-1104.0
 30
0.0
 11
-900.0
 21
-1254.833333333333
 31
0.0
  0
LINE
  5
119
  8
DIMNSIONS
  6
CONTINUOUS
 62
     7
 10
-900.0
 20
-1104.0
 30
0.0
 11
-886.59920409699532
 21
-1154.012451171875
 31
0.0
  0
LINE
  5
11A
  8
DIMNSIONS
  6
CONTINUOUS
 62
     7
 10
-900.0
 20
-1104.0
 30
0.0
 11
-913.40079590300479
 21
-1154.012451171875
 31
0.0
  0
LINE
  5
11B
  8
DIMNSIONS
  6
CONTINUOUS
 62
     7
 10
-900.0
 20
-1100.0
 30
0.0
 11
-900.0
 21
-1000.0
 31
0.0
  0
LINE
  5
11C
  8
DIMNSIONS
  6
CONTINUOUS
 62
     7
 10
-900.0
 20
-1100.0
 30
0.0
 11
-913.40079590300479
 21
-1049.987548828125
 31
0.0
  0
LINE
  5
11D
  8
DIMNSIONS
  6
CONTINUOUS
 62
     7
 10
-900.0
 20
-1100.0
 30
0.0
 11
-886.59920409699532
 21
-1049.987548828125
 31
0.0
  0
TEXT
  5
11E
  8
DIMNSIONS
 62
     7
 10
-919.87777777777762
 20
-1254.833333333333
 30
0.0
 40
54.294704861111107
  1
4.0
 50
90.0
 41
0.7
 11
-974.17248263888871
 21
-1254.833333333333
 31
0.0
 73
     3
  0
LINE
  5
11F
  8
DATA
  6
CONTINUOUS
 62
     7
 10
-750.0
 20
-54.270509831248319
 30
0.0
 11
-750.0
 21
-1080.729490168751
 31
0.0
  0
TEXT
  5
120
  8
DATA
 62
     7
 10
911.94439062452875
 20
824.60000000063485
 30
0.0
 40
54.294704859753743
  1
コネクターパネル拡大図
 41
0.7
 11
911.94439062452875
 21
878.89470486038852
 31
0.0
 73
     3
  0
LINE
  5
121
  8
DATA
  6
CONTINUOUS
 62
     7
 10
900.0
 20
800.0
 30
0.0
 11
1700.0
 21
800.0
 31
0.0
  0
LINE
  5
122
  8
DATA
  6
CONTINUOUS
 62
     7
 10
-1404.0362205910201
 20
715.0
 30
0.0
 11
-1195.9637794089799
 21
715.0
 31
0.0
  0
LINE
  5
123
  8
DATA
  6
CONTINUOUS
 62
     7
 10
-1585.0
 20
271.84943324127931
 30
0.0
 11
-1585.0
 21
341.77516686469312
 31
0.0
  0
LINE
  5
124
  8
DATA
  6
CONTINUOUS
 62
     7
 10
-1514.228458182484
 20
203.66466375815281
 30
0.0
 11
-1579.823958076267
 21
260.51409699943179
 31
0.0
  0
LINE
  5
125
  8
DATA
  6
CONTINUOUS
 62
     7
 10
-1488.5718059152609
 20
267.44310917210191
 30
0.0
 11
-1516.5493053841781
 21
291.69027537849769
 31
0.0
  0
LINE
  5
126
  8
DATA
  6
CONTINUOUS
 62
     7
 10
-1506.7677916574401
 20
223.66466375815281
 30
0.0
 11
-1559.823958076267
 21
269.64667465447059
 31
0.0
  0
ARC
  5
127
  8
DATA
  6
CONTINUOUS
 62
     7
 10
-1504.4045001062159
 20
215.00000000000199
 30
0.0
 40
15.000000000002
 50
229.0856167799779
 51
269.99999999999648
  0
LINE
  5
128
  8
DATA
  6
CONTINUOUS
 62
     7
 10
-1095.595499893783
 20
200.0
 30
0.0
 11
-1504.404500106217
 21
200.0
 31
0.0
  0
LINE
  5
129
  8
DATA
  6
CONTINUOUS
 62
     7
 10
-1117.9774994689169
 20
265.0
 30
0.0
 11
-1482.022500531082
 21
265.0
 31
0.0
  0
LINE
  5
12A
  8
DATA
  6
CONTINUOUS
 62
     7
 10
-1103.0561664188269
 20
220.0
 30
0.0
 11
-1496.9438335811731
 21
220.0
 31
0.0
  0
ARC
  5
12B
  8
DATA
  6
CONTINUOUS
 62
     7
 10
-1095.595499893783
 20
215.00000000000031
 30
0.0
 40
15.000000000000229
 50
270.0
 51
310.91438322002409
  0
LINE
  5
12C
  8
DATA
  6
CONTINUOUS
 62
     7
 10
-1020.176041923732
 20
260.51409699943179
 30
0.0
 11
-1085.771541817516
 21
203.66466375815281
 31
0.0
  0
LINE
  5
12D
  8
DATA
  6
CONTINUOUS
 62
     7
 10
-1083.450694615821
 20
291.69027537849752
 30
0.0
 11
-1111.42819408474
 21
267.44310917210191
 31
0.0
  0
LINE
  5
12E
  8
DATA
  6
CONTINUOUS
 62
     7
 10
-1040.1760419237321
 20
269.64667465447042
 30
0.0
 11
-1093.2322083425599
 21
223.66466375815281
 31
0.0
  0
LINE
  5
12F
  8
DATA
  6
CONTINUOUS
 62
     7
 10
-1015.0
 20
341.77516686469289
 30
0.0
 11
-1015.0
 21
271.84943324127931
 31
0.0
  0
LINE
  5
130
  8
DATA
  6
CONTINUOUS
 62
     7
 10
-1585.0
 20
271.84943324127897
 30
0.0
 11
-1585.0
 21
341.77516686469312
 31
0.0
  0
LINE
  5
131
  8
DATA
  6
CONTINUOUS
 62
     7
 10
-1520.0
 20
299.24716620639578
 30
0.0
 11
-1520.0
 21
338.53150720762801
 31
0.0
  0
LINE
  5
132
  8
DATA
  6
CONTINUOUS
 62
     7
 10
-1565.0
 20
280.98201089631789
 30
0.0
 11
-1565.0
 21
339.07429992272671
 31
0.0
  0
LINE
  5
133
  8
DATA
  6
CONTINUOUS
 62
     7
 10
-1015.537302539634
 20
345.75390814428653
 30
0.0
 11
-1131.968011178818
 21
768.97874127959324
 31
0.0
  0
LINE
  5
134
  8
DATA
  6
CONTINUOUS
 62
     7
 10
-1120.9782725688749
 20
483.97874127959329
 30
0.0
 11
-1181.501081948614
 21
703.97874127959335
 31
0.0
  0
LINE
  5
135
  8
DATA
  6
CONTINUOUS
 62
     7
 10
-1035.5373025396341
 20
343.05304120232
 30
0.0
 11
-1147.2089560310631
 21
748.97874127959324
 31
0.0
  0
LINE
  5
136
  8
DATA
  6
CONTINUOUS
 62
     7
 10
-1015.0
 20
271.84943324127897
 30
0.0
 11
-1015.0
 21
341.77516686469312
 31
0.0
  0
LINE
  5
137
  8
DATA
  6
CONTINUOUS
 62
     7
 10
-1080.0
 20
299.24716620639578
 30
0.0
 11
-1080.0
 21
338.53150720762801
 31
0.0
  0
LINE
  5
138
  8
DATA
  6
CONTINUOUS
 62
     7
 10
-1035.0
 20
280.9820108963176
 30
0.0
 11
-1035.0
 21
339.07429992272671
 31
0.0
  0
ARC
  5
139
  8
DATA
  6
CONTINUOUS
 62
     7
 10
-1570.0
 20
271.84943324127931
 30
0.0
 40
15.0
 50
180.00000000000091
 51
229.08561677997591
  0
ARC
  5
13A
  8
DATA
  6
CONTINUOUS
 62
     7
 10
-1030.0
 20
271.84943324127931
 30
0.0
 40
15.00000000000003
 50
310.91438322002409
 51
359.99999999999909
  0
CIRCLE
  5
13B
  8
DATA
  6
CONTINUOUS
 62
     7
 10
-1300.0
 20
735.0
 30
0.0
 40
10.00000000000051
  0
CIRCLE
  5
13C
  8
DATA
  6
CONTINUOUS
 62
     7
 10
-1057.5
 20
315.0
 30
0.0
 40
10.00000000000133
  0
ARC
  5
13D
  8
DATA
  6
CONTINUOUS
 62
     7
 10
-1550.0
 20
280.98201089631789
 30
0.0
 40
15.0
 50
180.0
 51
229.0856167799754
  0
ARC
  5
13E
  8
DATA
  6
CONTINUOUS
 62
     7
 10
-1496.9438335811731
 20
235.0
 30
0.0
 40
14.99999999999986
 50
229.0856167799754
 51
270.0
  0
ARC
  5
13F
  8
DATA
  6
CONTINUOUS
 62
     7
 10
-1103.0561664188269
 20
235.0
 30
0.0
 40
15.0
 50
270.0
 51
310.9143832200246
  0
ARC
  5
140
  8
DATA
  6
CONTINUOUS
 62
     7
 10
-1050.0
 20
280.98201089631789
 30
0.0
 40
15.00000000000003
 50
310.91438322002409
 51
359.99999999999909
  0
CIRCLE
  5
141
  8
DATA
  6
CONTINUOUS
 62
     7
 10
-1445.0
 20
-1885.0
 30
0.0
 40
20.00000000000048
  0
CIRCLE
  5
142
  8
DATA
  6
CONTINUOUS
 62
     7
 10
-1445.0
 20
-1885.0
 30
0.0
 40
9.999999999999666
  0
CIRCLE
  5
143
  8
DATA
  6
CONTINUOUS
 62
     7
 10
-1445.0
 20
-1885.0
 30
0.0
 40
5.5
  0
CIRCLE
  5
144
  8
DATA
  6
CONTINUOUS
 62
     7
 10
-1155.0
 20
-1885.0
 30
0.0
 40
20.00000000000048
  0
CIRCLE
  5
145
  8
DATA
  6
CONTINUOUS
 62
     7
 10
-1155.0
 20
-1885.0
 30
0.0
 40
9.999999999999666
  0
CIRCLE
  5
146
  8
DATA
  6
CONTINUOUS
 62
     7
 10
-1155.0
 20
-1885.0
 30
0.0
 40
5.5
  0
CIRCLE
  5
147
  8
DATA
  6
CONTINUOUS
 62
     7
 10
-1300.0
 20
-1935.0
 30
0.0
 40
10.00000000000051
  0
CIRCLE
  5
148
  8
DATA
  6
CONTINUOUS
 62
     7
 10
-1117.5
 20
-1503.0
 30
0.0
 40
19.99999999999995
  0
CIRCLE
  5
149
  8
DATA
  6
CONTINUOUS
 62
     7
 10
-1117.5
 20
-1503.0
 30
0.0
 40
10.000000000000099
  0
CIRCLE
  5
14A
  8
DATA
  6
CONTINUOUS
 62
     7
 10
-1117.5
 20
-1503.0
 30
0.0
 40
5.5000000000000888
  0
CIRCLE
  5
14B
  8
DATA
  6
CONTINUOUS
 62
     7
 10
-1482.5
 20
-1503.0
 30
0.0
 40
19.99999999999995
  0
CIRCLE
  5
14C
  8
DATA
  6
CONTINUOUS
 62
     7
 10
-1482.5
 20
-1503.0
 30
0.0
 40
10.000000000000099
  0
CIRCLE
  5
14D
  8
DATA
  6
CONTINUOUS
 62
     7
 10
-1482.5
 20
-1503.0
 30
0.0
 40
5.5000000000000888
  0
CIRCLE
  5
14E
  8
DATA
  6
CONTINUOUS
 62
     7
 10
-1057.5
 20
-1515.0
 30
0.0
 40
10.0000000000013
  0
CIRCLE
  5
14F
  8
DATA
  6
CONTINUOUS
 62
     7
 10
-1542.5
 20
-1515.0
 30
0.0
 40
10.0000000000013
  0
LINE
  5
150
  8
DATA
  6
CONTINUOUS
 62
     7
 10
-1464.5590299707601
 20
465.0
 30
0.0
 11
-1135.4409700292399
 21
465.0
 31
0.0
  0
LINE
  5
151
  8
DATA
  6
CONTINUOUS
 62
     7
 10
-1510.644335574505
 20
345.0
 30
0.0
 11
-1089.355664425495
 21
345.0
 31
0.0
  0
ARC
  5
152
  8
DATA
  6
CONTINUOUS
 62
     7
 10
-1510.644335574505
 20
335.0
 30
0.0
 40
10.0
 50
90.0
 51
159.31985117770799
  0
ARC
  5
153
  8
DATA
  6
CONTINUOUS
 62
     7
 10
-1510.0
 20
299.24716620639612
 30
0.0
 40
10.0
 50
180.00000000000131
 51
229.08561677997599
  0
ARC
  5
154
  8
DATA
  6
CONTINUOUS
 62
     7
 10
-1482.022500531082
 20
275.0
 30
0.0
 40
9.9999999999998543
 50
229.08561677997511
 51
270.0
  0
ARC
  5
155
  8
DATA
  6
CONTINUOUS
 62
     7
 10
-1117.9774994689169
 20
275.0
 30
0.0
 40
10.0
 50
270.0
 51
310.914383220025
  0
ARC
  5
156
  8
DATA
  6
CONTINUOUS
 62
     7
 10
-1090.0
 20
299.24716620639578
 30
0.0
 40
10.00000000000002
 50
310.91438322002409
 51
0.0
  0
ARC
  5
157
  8
DATA
  6
CONTINUOUS
 62
     7
 10
-1089.355664425495
 20
335.0
 30
0.0
 40
10.000000000000041
 50
20.68014882229199
 51
90.0
  0
LINE
  5
158
  8
DATA
  6
CONTINUOUS
 62
     7
 10
-1585.0
 20
-1080.729490168751
 30
0.0
 11
-1585.0
 21
-54.270509831248091
 31
0.0
  0
LINE
  5
159
  8
DATA
  6
CONTINUOUS
 62
     7
 10
-1580.0
 20
-1075.0
 30
0.0
 11
-1580.0
 21
-59.999999999999929
 31
0.0
  0
LINE
  5
15A
  8
DATA
  6
CONTINUOUS
 62
     7
 10
-1568.1671842700009
 20
-1098.4164078649981
 30
0.0
 11
-1576.7082039324989
 21
-1094.14589803375
 31
0.0
  0
LINE
  5
15B
  8
DATA
  6
CONTINUOUS
 62
     7
 10
-1038.541019662498
 20
-1100.0
 30
0.0
 11
-1561.458980337502
 21
-1100.0
 31
0.0
  0
LINE
  5
15C
  8
DATA
  6
CONTINUOUS
 62
     7
 10
-1015.0
 20
-1075.0
 30
0.0
 11
-1585.0
 21
-1075.0
 31
0.0
  0
LINE
  5
15D
  8
DATA
  6
CONTINUOUS
 62
     7
 10
-1023.2917960674999
 20
-1094.14589803375
 30
0.0
 11
-1031.8328157299979
 21
-1098.4164078649981
 31
0.0
  0
LINE
  5
15E
  8
DATA
  6
CONTINUOUS
 62
     7
 10
-1015.0
 20
-54.270509831248091
 30
0.0
 11
-1015.0
 21
-1080.729490168751
 31
0.0
  0
LINE
  5
15F
  8
DATA
  6
CONTINUOUS
 62
     7
 10
-1020.0
 20
-59.999999999999929
 30
0.0
 11
-1020.0
 21
-1075.0
 31
0.0
  0
LINE
  5
160
  8
DATA
  6
CONTINUOUS
 62
     7
 10
-1031.8328157299959
 20
-36.583592135001211
 30
0.0
 11
-1023.2917960674999
 21
-40.854101966249523
 31
0.0
  0
LINE
  5
161
  8
DATA
  6
CONTINUOUS
 62
     7
 10
-1561.4589803375029
 20
-34.99999999999995
 30
0.0
 11
-1038.541019662496
 21
-34.99999999999995
 31
0.0
  0
LINE
  5
162
  8
DATA
  6
CONTINUOUS
 62
     7
 10
-1581.792270666361
 20
-44.999999999999929
 30
0.0
 11
-1018.207729333639
 21
-44.999999999999929
 31
0.0
  0
LINE
  5
163
  8
DATA
  6
CONTINUOUS
 62
     7
 10
-1585.0
 20
-59.999999999999929
 30
0.0
 11
-1015.0
 21
-59.999999999999929
 31
0.0
  0
LINE
  5
164
  8
DATA
  6
CONTINUOUS
 62
     7
 10
-1576.7082039324989
 20
-40.854101966249523
 30
0.0
 11
-1568.167184270003
 21
-36.583592135001211
 31
0.0
  0
CIRCLE
  5
165
  8
DATA
  6
CONTINUOUS
 62
     7
 10
-1542.5
 20
315.0
 30
0.0
 40
10.00000000000133
  0
ARC
  5
166
  8
DATA
  6
CONTINUOUS
 62
     7
 10
-1561.4589803375029
 20
-49.999999999999929
 30
0.0
 40
15.0
 50
90.0
 51
116.5650511770788
  0
ARC
  5
167
  8
DATA
  6
CONTINUOUS
 62
     7
 10
-1570.0
 20
-54.270509831248141
 30
0.0
 40
15.000000000000011
 50
116.5650511770789
 51
179.9999999999998
  0
ARC
  5
168
  8
DATA
  6
CONTINUOUS
 62
     7
 10
-1038.541019662496
 20
-49.999999999999929
 30
0.0
 40
15.00000000000011
 50
63.434948822921228
 51
90.0
  0
ARC
  5
169
  8
DATA
  6
CONTINUOUS
 62
     7
 10
-1030.0
 20
-54.270509831248141
 30
0.0
 40
15.0
 50
0.0000000000002274
 51
63.434948822921051
  0
ARC
  5
16A
  8
DATA
  6
CONTINUOUS
 62
     7
 10
-1030.0
 20
-1080.729490168751
 30
0.0
 40
14.999999999999909
 50
296.56505117707923
 51
0.0000000000008527
  0
ARC
  5
16B
  8
DATA
  6
CONTINUOUS
 62
     7
 10
-1038.541019662498
 20
-1085.0
 30
0.0
 40
15.0
 50
270.0
 51
296.56505117707889
  0
ARC
  5
16C
  8
DATA
  6
CONTINUOUS
 62
     7
 10
-1570.0
 20
-1080.729490168751
 30
0.0
 40
15.0
 50
179.9999999999992
 51
243.43494882292089
  0
ARC
  5
16D
  8
DATA
  6
CONTINUOUS
 62
     7
 10
-1561.458980337502
 20
-1085.0
 30
0.0
 40
15.00000000000011
 50
243.43494882292131
 51
270.0
  0
LINE
  5
16E
  8
DATA
  6
CONTINUOUS
 62
     7
 10
-1581.792270666361
 20
-1090.0
 30
0.0
 11
-1018.207729333639
 21
-1090.0
 31
0.0
  0
POLYLINE
  5
16F
  8
DATA
  6
CONTINUOUS
 62
     7
 66
     1
 10
0.0
 20
0.0
 30
0.0
 70
     1
  0
VERTEX
  5
36F
  8
DATA
  6
CONTINUOUS
 62
     7
 10
-1324.0
 20
-894.0
 30
0.0
  0
VERTEX
  5
370
  8
DATA
  6
CONTINUOUS
 62
     7
 10
-1276.0
 20
-894.0
 30
0.0
  0
VERTEX
  5
371
  8
DATA
  6
CONTINUOUS
 62
     7
 10
-1276.0
 20
-930.0
 30
0.0
  0
VERTEX
  5
372
  8
DATA
  6
CONTINUOUS
 62
     7
 10
-1324.0
 20
-930.0
 30
0.0
  0
SEQEND
  5
373
  8
DATA
  6
CONTINUOUS
 62
     7
  0
LINE
  5
176
  8
DATA
  6
CONTINUOUS
 62
     7
 10
-1090.0
 20
-34.99999999999995
 30
0.0
 11
-1090.0
 21
-1100.0
 31
0.0
  0
LINE
  5
177
  8
DATA
  6
CONTINUOUS
 62
     7
 10
-1510.0
 20
-34.99999999999995
 30
0.0
 11
-1510.0
 21
-1100.0
 31
0.0
  0
LINE
  5
178
  8
DATA
  6
CONTINUOUS
 62
     7
 10
-170.0
 20
-1080.7294901687501
 30
0.0
 11
-170.0
 21
-54.270509831248319
 31
0.0
  0
ARC
  5
179
  8
DATA
  6
CONTINUOUS
 62
     7
 10
-185.0000000000008
 20
-1080.7294901687501
 30
0.0
 40
15.00000000000092
 50
296.5650511770811
 51
0.0
  0
LINE
  5
17A
  8
DATA
  6
CONTINUOUS
 62
     7
 10
-186.8328157299965
 20
-1098.4164078649981
 30
0.0
 11
-178.2917960675004
 21
-1094.14589803375
 31
0.0
  0
ARC
  5
17B
  8
DATA
  6
CONTINUOUS
 62
     7
 10
-193.54101966249249
 20
-1085.0000000000171
 30
0.0
 40
14.99999999998227
 50
269.99999999998607
 51
296.56505117709742
  0
LINE
  5
17C
  8
DATA
  6
CONTINUOUS
 62
     7
 10
-726.45898033750291
 20
-1100.0
 30
0.0
 11
-193.54101966249709
 21
-1100.0
 31
0.0
  0
LINE
  5
17D
  8
DATA
  6
CONTINUOUS
 62
     7
 10
-750.0
 20
-1075.0
 30
0.0
 11
-170.0
 21
-1075.0
 31
0.0
  0
LINE
  5
17E
  8
DATA
  6
CONTINUOUS
 62
     7
 10
-746.79227066636122
 20
-1090.0
 30
0.0
 11
-173.2077293336387
 21
-1090.0
 31
0.0
  0
ARC
  5
17F
  8
DATA
  6
CONTINUOUS
 62
     7
 10
-726.45898033750291
 20
-1085.000000000003
 30
0.0
 40
14.99999999999746
 50
243.43494882291611
 51
270.0
  0
LINE
  5
180
  8
DATA
  6
CONTINUOUS
 62
     7
 10
-741.70820393249971
 20
-1094.14589803375
 30
0.0
 11
-733.16718427000239
 21
-1098.4164078649981
 31
0.0
  0
ARC
  5
181
  8
DATA
  6
CONTINUOUS
 62
     7
 10
-735.00000000000102
 20
-1080.7294901687519
 30
0.0
 40
14.999999999999091
 50
179.9999999999948
 51
243.43494882292319
  0
ARC
  5
182
  8
DATA
  6
CONTINUOUS
 62
     7
 10
-735.0
 20
-54.270509831248319
 30
0.0
 40
15.00000000000011
 50
116.5650511770788
 51
180.0
  0
LINE
  5
183
  8
DATA
  6
CONTINUOUS
 62
     7
 10
-733.16718427000239
 20
-36.583592135001027
 30
0.0
 11
-741.70820393249971
 21
-40.854101966249573
 31
0.0
  0
ARC
  5
184
  8
DATA
  6
CONTINUOUS
 62
     7
 10
-726.45898033750461
 20
-49.999999999988738
 30
0.0
 40
14.999999999988971
 50
89.999999999993051
 51
116.56505117709141
  0
LINE
  5
185
  8
DATA
  6
CONTINUOUS
 62
     7
 10
-193.54101966249709
 20
-34.999999999999773
 30
0.0
 11
-726.45898033750291
 21
-34.999999999999773
 31
0.0
  0
LINE
  5
186
  8
DATA
  6
CONTINUOUS
 62
     7
 10
-170.0
 20
-59.999999999999773
 30
0.0
 11
-750.0
 21
-59.999999999999773
 31
0.0
  0
LINE
  5
187
  8
DATA
  6
CONTINUOUS
 62
     7
 10
-173.2077293336387
 20
-44.999999999999773
 30
0.0
 11
-746.79227066636122
 21
-44.999999999999773
 31
0.0
  0
ARC
  5
188
  8
DATA
  6
CONTINUOUS
 62
     7
 10
-193.54101966249709
 20
-49.99999999999676
 30
0.0
 40
14.99999999999741
 50
63.434948822916112
 51
90.0
  0
LINE
  5
189
  8
DATA
  6
CONTINUOUS
 62
     7
 10
-178.2917960675004
 20
-40.854101966249573
 30
0.0
 11
-186.83281572999749
 21
-36.583592135001027
 31
0.0
  0
ARC
  5
18A
  8
DATA
  6
CONTINUOUS
 62
     7
 10
-185.0
 20
-54.270509831248091
 30
0.0
 40
15.0
 50
0.0
 51
63.434948822920852
  0
LINE
  5
18B
  8
DATA
  6
CONTINUOUS
 62
     7
 10
-685.0
 20
-34.999999999999773
 30
0.0
 11
-685.0
 21
-1100.0
 31
0.0
  0
LINE
  5
18C
  8
DATA
  6
CONTINUOUS
 62
     7
 10
-605.0
 20
-34.999999999999773
 30
0.0
 11
-605.0
 21
-1100.0
 31
0.0
  0
CIRCLE
  5
18D
  8
DATA
  6
CONTINUOUS
 62
     7
 10
-645.0
 20
-84.999999999999787
 30
0.0
 40
10.000000000000229
  0
CIRCLE
  5
18E
  8
DATA
  6
CONTINUOUS
 62
     7
 10
-645.0
 20
-1050.0
 30
0.0
 40
10.0000000000004
  0
LINE
  5
18F
  8
DATA
  6
CONTINUOUS
 62
     7
 10
-1502.5
 20
-1104.0
 30
0.0
 11
-1502.5
 21
-1100.0
 31
0.0
  0
LINE
  5
190
  8
DATA
  6
CONTINUOUS
 62
     7
 10
-1462.5
 20
-1104.0
 30
0.0
 11
-1502.5
 21
-1104.0
 31
0.0
  0
LINE
  5
191
  8
DATA
  6
CONTINUOUS
 62
     7
 10
-1462.5
 20
-1100.0
 30
0.0
 11
-1462.5
 21
-1104.0
 31
0.0
  0
LINE
  5
192
  8
DATA
  6
CONTINUOUS
 62
     7
 10
-1097.5
 20
-1104.0
 30
0.0
 11
-1097.5
 21
-1100.0
 31
0.0
  0
LINE
  5
193
  8
DATA
  6
CONTINUOUS
 62
     7
 10
-1137.5
 20
-1104.0
 30
0.0
 11
-1097.5
 21
-1104.0
 31
0.0
  0
LINE
  5
194
  8
DATA
  6
CONTINUOUS
 62
     7
 10
-1137.5
 20
-1100.0
 30
0.0
 11
-1137.5
 21
-1104.0
 31
0.0
  0
LINE
  5
195
  8
DATA
  6
CONTINUOUS
 62
     7
 10
-1425.0
 20
-1104.0
 30
0.0
 11
-1465.0
 21
-1104.0
 31
0.0
  0
LINE
  5
196
  8
DATA
  6
CONTINUOUS
 62
     7
 10
-1425.0
 20
-1100.0
 30
0.0
 11
-1425.0
 21
-1104.0
 31
0.0
  0
LINE
  5
197
  8
DATA
  6
CONTINUOUS
 62
     7
 10
-1175.0
 20
-1104.0
 30
0.0
 11
-1135.0
 21
-1104.0
 31
0.0
  0
LINE
  5
198
  8
DATA
  6
CONTINUOUS
 62
     7
 10
-1175.0
 20
-1100.0
 30
0.0
 11
-1175.0
 21
-1104.0
 31
0.0
  0
LINE
  5
199
  8
DATA
  6
CONTINUOUS
 62
     7
 10
-363.06838794521002
 20
-660.49999999999955
 30
0.0
 11
-496.93161205478998
 21
-660.49999999999955
 31
0.0
  0
LINE
  5
19A
  8
DATA
  6
CONTINUOUS
 62
     7
 10
-374.0755710416106
 20
-645.49999999999955
 30
0.0
 11
-485.92442895838929
 21
-645.49999999999955
 31
0.0
  0
LINE
  5
19B
  8
DATA
  6
CONTINUOUS
 62
     7
 10
-374.0755710416106
 20
-637.49999999999955
 30
0.0
 11
-485.92442895838929
 21
-637.49999999999955
 31
0.0
  0
LINE
  5
19C
  8
DATA
  6
CONTINUOUS
 62
     7
 10
-496.93161205478998
 20
-454.4999999999996
 30
0.0
 11
-363.06838794521002
 21
-454.4999999999996
 31
0.0
  0
LINE
  5
19D
  8
DATA
  6
CONTINUOUS
 62
     7
 10
-485.92442895838929
 20
-469.49999999999949
 30
0.0
 11
-374.0755710416106
 21
-469.49999999999949
 31
0.0
  0
LINE
  5
19E
  8
DATA
  6
CONTINUOUS
 62
     7
 10
-485.92442895838929
 20
-477.49999999999949
 30
0.0
 11
-374.0755710416106
 21
-477.49999999999949
 31
0.0
  0
LINE
  5
19F
  8
DATA
  6
CONTINUOUS
 62
     7
 10
-490.00552727474849
 20
-560.49999999999955
 30
0.0
 11
-369.9944727252514
 21
-560.49999999999955
 31
0.0
  0
LINE
  5
1A0
  8
DATA
  6
CONTINUOUS
 62
     7
 10
-490.00552727474849
 20
-552.49999999999955
 30
0.0
 11
-369.9944727252514
 21
-552.49999999999955
 31
0.0
  0
LINE
  5
1A1
  8
DATA
  6
CONTINUOUS
 62
     7
 10
-517.49999999999989
 20
-574.49999999999955
 30
0.0
 11
-517.36582096683924
 21
-574.49999999999955
 31
0.0
  0
LINE
  5
1A2
  8
DATA
  6
CONTINUOUS
 62
     7
 10
-489.43954912530887
 20
-574.49999999999955
 30
0.0
 11
-370.56045087469113
 21
-574.49999999999955
 31
0.0
  0
LINE
  5
1A3
  8
DATA
  6
CONTINUOUS
 62
     7
 10
-489.43954912530887
 20
-582.49999999999955
 30
0.0
 11
-370.56045087469113
 21
-582.49999999999955
 31
0.0
  0
LINE
  5
1A4
  8
DATA
  6
CONTINUOUS
 62
     7
 10
-342.63417903316082
 20
-574.49999999999955
 30
0.0
 11
-342.5
 21
-574.49999999999955
 31
0.0
  0
ARC
  5
1A5
  8
DATA
  6
CONTINUOUS
 62
     7
 10
-1046.8499999999999
 20
-557.49999999999955
 30
0.0
 40
704.42098385837448
 50
352.66656866709002
 51
7.3334313329099787
  0
ARC
  5
1A6
  8
DATA
  6
CONTINUOUS
 62
     7
 10
-1046.8499999999999
 20
-557.49999999999955
 30
0.0
 40
689.42098385837426
 50
353.48109737401433
 51
357.54759612915598
  0
ARC
  5
1A7
  8
DATA
  6
CONTINUOUS
 62
     7
 10
-1046.8499999999999
 20
-557.49999999999955
 30
0.0
 40
681.42098385837335
 50
353.48109737401433
 51
357.54759612915598
  0
ARC
  5
1A8
  8
DATA
  6
CONTINUOUS
 62
     7
 10
-1046.8499999999999
 20
-557.49999999999955
 30
0.0
 40
689.42098385837437
 50
0.7895566874362966
 51
6.518902625988912
  0
ARC
  5
1A9
  8
DATA
  6
CONTINUOUS
 62
     7
 10
-1046.8499999999999
 20
-557.49999999999955
 30
0.0
 40
681.42098385837392
 50
0.7895566874362952
 51
6.5189026259889227
  0
ARC
  5
1AA
  8
DATA
  6
CONTINUOUS
 62
     7
 10
186.85000000000039
 20
-557.49999999999955
 30
0.0
 40
704.42098385837448
 50
172.66656866708999
 51
187.33343133291001
  0
ARC
  5
1AB
  8
DATA
  6
CONTINUOUS
 62
     7
 10
186.85000000000039
 20
-557.49999999999955
 30
0.0
 40
689.42098385837346
 50
173.4810973740108
 51
179.2104866720847
  0
ARC
  5
1AC
  8
DATA
  6
CONTINUOUS
 62
     7
 10
186.85000000000039
 20
-557.49999999999955
 30
0.0
 40
681.42098385837437
 50
173.4810973740108
 51
179.21048667208481
  0
ARC
  5
1AD
  8
DATA
  6
CONTINUOUS
 62
     7
 10
186.85000000000039
 20
-557.49999999999955
 30
0.0
 40
689.42098385837437
 50
182.4523973684436
 51
186.51890262597729
  0
ARC
  5
1AE
  8
DATA
  6
CONTINUOUS
 62
     7
 10
186.85000000000039
 20
-557.49999999999955
 30
0.0
 40
681.42098385837426
 50
182.4523973684436
 51
186.51890262597709
  0
ARC
  5
1AF
  8
DATA
  6
CONTINUOUS
 62
     7
 10
-363.06838794521002
 20
-645.49999999999795
 30
0.0
 40
15.000000000001361
 50
270.0
 51
352.66656866708468
  0
ARC
  5
1B0
  8
DATA
  6
CONTINUOUS
 62
     7
 10
-496.93161205478998
 20
-645.49999999999795
 30
0.0
 40
15.000000000000959
 50
187.3334313329153
 51
270.0
  0
ARC
  5
1B1
  8
DATA
  6
CONTINUOUS
 62
     7
 10
-496.93161205478998
 20
-469.5000000000008
 30
0.0
 40
15.000000000001361
 50
90.0
 51
172.66656866708459
  0
ARC
  5
1B2
  8
DATA
  6
CONTINUOUS
 62
     7
 10
-363.06838794521002
 20
-469.5000000000008
 30
0.0
 40
15.000000000000959
 50
7.3334313329153584
 51
90.0
  0
ARC
  5
1B3
  8
DATA
  6
CONTINUOUS
 62
     7
 10
-485.92442895838929
 20
-481.9999999999992
 30
0.0
 40
12.499999999999771
 50
90.0
 51
180.0000000214938
  0
ARC
  5
1B4
  8
DATA
  6
CONTINUOUS
 62
     7
 10
-485.92442895838929
 20
-481.9999999999992
 30
0.0
 40
4.5
 50
90.0
 51
180.000000021494
  0
ARC
  5
1B5
  8
DATA
  6
CONTINUOUS
 62
     7
 10
-374.0755710416106
 20
-481.9999999999992
 30
0.0
 40
12.5
 50
0.0000000090895836
 51
90.000000000000028
  0
ARC
  5
1B6
  8
DATA
  6
CONTINUOUS
 62
     7
 10
-374.0755710416106
 20
-481.9999999999992
 30
0.0
 40
4.5
 50
0.0000000090888888
 51
90.0
  0
ARC
  5
1B7
  8
DATA
  6
CONTINUOUS
 62
     7
 10
-485.92442895838929
 20
-632.99999999999841
 30
0.0
 40
12.5
 50
180.00000000909219
 51
270.0
  0
ARC
  5
1B8
  8
DATA
  6
CONTINUOUS
 62
     7
 10
-374.0755710416106
 20
-632.99999999999841
 30
0.0
 40
12.499999999999771
 50
270.0
 51
0.0000000112995622
  0
ARC
  5
1B9
  8
DATA
  6
CONTINUOUS
 62
     7
 10
-374.0755710416106
 20
-632.99999999999841
 30
0.0
 40
4.5
 50
270.0
 51
0.0000000112992211
  0
ARC
  5
1BA
  8
DATA
  6
CONTINUOUS
 62
     7
 10
-489.43954912530887
 20
-586.9999999999992
 30
0.0
 40
12.499999999999771
 50
90.0
 51
184.99535975900201
  0
ARC
  5
1BB
  8
DATA
  6
CONTINUOUS
 62
     7
 10
-489.43954912530887
 20
-586.9999999999992
 30
0.0
 40
4.5
 50
90.0
 51
184.99535975900031
  0
ARC
  5
1BC
  8
DATA
  6
CONTINUOUS
 62
     7
 10
-370.56045087469113
 20
-586.9999999999992
 30
0.0
 40
12.49999999999976
 50
355.00464040666532
 51
90.0
  0
ARC
  5
1BD
  8
DATA
  6
CONTINUOUS
 62
     7
 10
-490.00552727474849
 20
-547.99999999999966
 30
0.0
 40
12.49999999999973
 50
178.3917598544397
 51
270.0
  0
ARC
  5
1BE
  8
DATA
  6
CONTINUOUS
 62
     7
 10
-490.00552727474849
 20
-547.99999999999966
 30
0.0
 40
4.4999999999997566
 50
178.39175985444029
 51
270.0
  0
ARC
  5
1BF
  8
DATA
  6
CONTINUOUS
 62
     7
 10
-369.9944727252514
 20
-547.99999999999966
 30
0.0
 40
12.499999999999771
 50
270.0
 51
1.608245109610265
  0
ARC
  5
1C0
  8
DATA
  6
CONTINUOUS
 62
     7
 10
-369.9944727252514
 20
-547.99999999999966
 30
0.0
 40
4.5
 50
270.0
 51
1.6082401455597051
  0
ARC
  5
1C1
  8
DATA
  6
CONTINUOUS
 62
     7
 10
-370.56045087469113
 20
-586.99999999999955
 30
0.0
 40
4.5000000000005969
 50
355.00464024099961
 51
90.0
  0
ARC
  5
1C2
  8
DATA
  6
CONTINUOUS
 62
     7
 10
-485.92442895838929
 20
-632.99999999999841
 30
0.0
 40
4.5
 50
179.99999998870069
 51
270.0
  0
LINE
  5
1C3
  8
DATA
  6
CONTINUOUS
 62
     7
 10
-627.0
 20
-1100.0
 30
0.0
 11
-627.0
 21
-1104.0
 31
0.0
  0
LINE
  5
1C4
  8
DATA
  6
CONTINUOUS
 62
     7
 10
-667.0
 20
-1104.0
 30
0.0
 11
-627.0
 21
-1104.0
 31
0.0
  0
LINE
  5
1C5
  8
DATA
  6
CONTINUOUS
 62
     7
 10
-667.0
 20
-1100.0
 30
0.0
 11
-667.0
 21
-1104.0
 31
0.0
  0
LINE
  5
1C6
  8
DATA
  6
CONTINUOUS
 62
     7
 10
-245.0
 20
-1100.0
 30
0.0
 11
-245.0
 21
-1104.0
 31
0.0
  0
LINE
  5
1C7
  8
DATA
  6
CONTINUOUS
 62
     7
 10
-285.0
 20
-1104.0
 30
0.0
 11
-245.0
 21
-1104.0
 31
0.0
  0
LINE
  5
1C8
  8
DATA
  6
CONTINUOUS
 62
     7
 10
-285.0
 20
-1100.0
 30
0.0
 11
-285.0
 21
-1104.0
 31
0.0
  0
LINE
  5
1C9
  8
DATA
  6
CONTINUOUS
 62
     7
 10
590.0
 20
-1080.729490168751
 30
0.0
 11
590.0
 21
-54.270509831247857
 31
0.0
  0
LINE
  5
1CA
  8
DATA
  6
CONTINUOUS
 62
     7
 10
573.16718427000148
 20
-1098.4164078649981
 30
0.0
 11
581.70820393249949
 21
-1094.14589803375
 31
0.0
  0
LINE
  5
1CB
  8
DATA
  6
CONTINUOUS
 62
     7
 10
33.541019662498002
 20
-1100.0
 30
0.0
 11
566.458980337502
 21
-1100.0
 31
0.0
  0
LINE
  5
1CC
  8
DATA
  6
CONTINUOUS
 62
     7
 10
10.0
 20
-1075.0
 30
0.0
 11
590.0
 21
-1075.0
 31
0.0
  0
LINE
  5
1CD
  8
DATA
  6
CONTINUOUS
 62
     7
 10
18.2917960675004
 20
-1094.14589803375
 30
0.0
 11
26.832815729998401
 21
-1098.4164078649981
 31
0.0
  0
LINE
  5
1CE
  8
DATA
  6
CONTINUOUS
 62
     7
 10
10.0
 20
-54.270509831247857
 30
0.0
 11
10.0
 21
-1080.729490168751
 31
0.0
  0
LINE
  5
1CF
  8
DATA
  6
CONTINUOUS
 62
     7
 10
26.832815729996589
 20
-36.583592135000913
 30
0.0
 11
18.2917960675004
 21
-40.854101966249218
 31
0.0
  0
LINE
  5
1D0
  8
DATA
  6
CONTINUOUS
 62
     7
 10
566.45898033750393
 20
-34.999999999999659
 30
0.0
 11
33.541019662496183
 21
-34.999999999999659
 31
0.0
  0
LINE
  5
1D1
  8
DATA
  6
CONTINUOUS
 62
     7
 10
586.79227066636122
 20
-44.999999999999659
 30
0.0
 11
13.207729333638779
 21
-44.999999999999659
 31
0.0
  0
LINE
  5
1D2
  8
DATA
  6
CONTINUOUS
 62
     7
 10
590.0
 20
-59.999999999999659
 30
0.0
 11
10.0
 21
-59.999999999999659
 31
0.0
  0
LINE
  5
1D3
  8
DATA
  6
CONTINUOUS
 62
     7
 10
581.70820393249949
 20
-40.854101966249218
 30
0.0
 11
573.16718427000319
 21
-36.583592135000913
 31
0.0
  0
ARC
  5
1D4
  8
DATA
  6
CONTINUOUS
 62
     7
 10
566.45898033750393
 20
-49.999999999999659
 30
0.0
 40
15.00000000000011
 50
63.434948822921228
 51
90.0
  0
ARC
  5
1D5
  8
DATA
  6
CONTINUOUS
 62
     7
 10
575.0
 20
-54.270509831247857
 30
0.0
 40
15.0
 50
0.0
 51
63.434948822921051
  0
ARC
  5
1D6
  8
DATA
  6
CONTINUOUS
 62
     7
 10
33.541019662496183
 20
-49.999999999999659
 30
0.0
 40
15.0
 50
90.0
 51
116.5650511770788
  0
ARC
  5
1D7
  8
DATA
  6
CONTINUOUS
 62
     7
 10
25.0
 20
-54.270509831247857
 30
0.0
 40
15.000000000000011
 50
116.5650511770789
 51
180.0
  0
ARC
  5
1D8
  8
DATA
  6
CONTINUOUS
 62
     7
 10
25.0
 20
-1080.729490168751
 30
0.0
 40
15.0
 50
179.9999999999992
 51
243.43494882292089
  0
ARC
  5
1D9
  8
DATA
  6
CONTINUOUS
 62
     7
 10
33.541019662498002
 20
-1084.9999999999991
 30
0.0
 40
15.00000000000011
 50
243.43494882292131
 51
270.0
  0
ARC
  5
1DA
  8
DATA
  6
CONTINUOUS
 62
     7
 10
575.0
 20
-1080.729490168751
 30
0.0
 40
14.999999999999909
 50
296.56505117707923
 51
0.0000000000008527
  0
ARC
  5
1DB
  8
DATA
  6
CONTINUOUS
 62
     7
 10
566.458980337502
 20
-1084.9999999999991
 30
0.0
 40
15.0
 50
270.0
 51
296.56505117707889
  0
LINE
  5
1DC
  8
DATA
  6
CONTINUOUS
 62
     7
 10
586.79227066636122
 20
-1090.0
 30
0.0
 11
13.207729333638779
 21
-1090.0
 31
0.0
  0
LINE
  5
1DD
  8
DATA
  6
CONTINUOUS
 62
     7
 10
85.0
 20
-34.999999999999659
 30
0.0
 11
85.0
 21
-1100.0
 31
0.0
  0
LINE
  5
1DE
  8
DATA
  6
CONTINUOUS
 62
     7
 10
515.0
 20
-34.999999999999659
 30
0.0
 11
515.0
 21
-1100.0
 31
0.0
  0
LINE
  5
1DF
  8
DATA
  6
CONTINUOUS
 62
     7
 10
507.5
 20
-1104.0
 30
0.0
 11
507.5
 21
-1100.0
 31
0.0
  0
LINE
  5
1E0
  8
DATA
  6
CONTINUOUS
 62
     7
 10
467.49999999999989
 20
-1104.0
 30
0.0
 11
507.5
 21
-1104.0
 31
0.0
  0
LINE
  5
1E1
  8
DATA
  6
CONTINUOUS
 62
     7
 10
467.49999999999989
 20
-1100.0
 30
0.0
 11
467.49999999999989
 21
-1104.0
 31
0.0
  0
LINE
  5
1E2
  8
DATA
  6
CONTINUOUS
 62
     7
 10
92.5
 20
-1104.0
 30
0.0
 11
92.5
 21
-1100.0
 31
0.0
  0
LINE
  5
1E3
  8
DATA
  6
CONTINUOUS
 62
     7
 10
132.5
 20
-1104.0
 30
0.0
 11
92.5
 21
-1104.0
 31
0.0
  0
LINE
  5
1E4
  8
DATA
  6
CONTINUOUS
 62
     7
 10
132.5
 20
-1100.0
 30
0.0
 11
132.5
 21
-1104.0
 31
0.0
  0
LINE
  5
1E5
  8
DATA
  6
CONTINUOUS
 62
     7
 10
430.0
 20
-1104.0
 30
0.0
 11
470.0
 21
-1104.0
 31
0.0
  0
LINE
  5
1E6
  8
DATA
  6
CONTINUOUS
 62
     7
 10
430.0
 20
-1100.0
 30
0.0
 11
430.0
 21
-1104.0
 31
0.0
  0
LINE
  5
1E7
  8
DATA
  6
CONTINUOUS
 62
     7
 10
170.0
 20
-1104.0
 30
0.0
 11
130.0
 21
-1104.0
 31
0.0
  0
LINE
  5
1E8
  8
DATA
  6
CONTINUOUS
 62
     7
 10
170.0
 20
-1100.0
 30
0.0
 11
170.0
 21
-1104.0
 31
0.0
  0
CIRCLE
  5
1E9
  8
DATA
  6
CONTINUOUS
 62
     7
 10
300.0
 20
-1050.0
 30
0.0
 40
9.9999999999998952
  0
CIRCLE
  5
1EA
  8
DATA
  6
CONTINUOUS
 62
     7
 10
300.0
 20
-84.999999999999659
 30
0.0
 40
10.000000000000069
  0
LINE
  5
1EB
  8
DATA
  6
CONTINUOUS
 62
     7
 10
237.5
 20
-844.99999999999966
 30
0.0
 11
237.5
 21
-654.99999999999977
 31
0.0
  0
LINE
  5
1EC
  8
DATA
  6
CONTINUOUS
 62
     7
 10
357.5
 20
-849.99999999999955
 30
0.0
 11
242.5
 21
-849.99999999999955
 31
0.0
  0
LINE
  5
1ED
  8
DATA
  6
CONTINUOUS
 62
     7
 10
362.5
 20
-654.99999999999977
 30
0.0
 11
362.5
 21
-844.99999999999966
 31
0.0
  0
LINE
  5
1EE
  8
DATA
  6
CONTINUOUS
 62
     7
 10
242.5
 20
-649.99999999999977
 30
0.0
 11
357.5
 21
-649.99999999999977
 31
0.0
  0
ARC
  5
1EF
  8
DATA
  6
CONTINUOUS
 62
     7
 10
242.5
 20
-654.99999999999977
 30
0.0
 40
5.0
 50
90.0
 51
180.0
  0
ARC
  5
1F0
  8
DATA
  6
CONTINUOUS
 62
     7
 10
357.5
 20
-654.99999999999977
 30
0.0
 40
5.0
 50
0.0
 51
90.0
  0
ARC
  5
1F1
  8
DATA
  6
CONTINUOUS
 62
     7
 10
242.5
 20
-844.99999999999966
 30
0.0
 40
5.0
 50
180.0
 51
270.0
  0
ARC
  5
1F2
  8
DATA
  6
CONTINUOUS
 62
     7
 10
357.5
 20
-844.99999999999966
 30
0.0
 40
5.0
 50
270.0
 51
0.0
  0
LINE
  5
1F3
  8
DATA
  6
CONTINUOUS
 62
     7
 10
-1453.5692913608159
 20
780.0
 30
0.0
 11
-1146.430708639183
 21
780.0
 31
0.0
  0
LINE
  5
1F4
  8
DATA
  6
CONTINUOUS
 62
     7
 10
-1438.328346508571
 20
760.0
 30
0.0
 11
-1161.671653491429
 21
760.0
 31
0.0
  0
ARC
  5
1F5
  8
DATA
  6
CONTINUOUS
 62
     7
 10
-1030.0
 20
341.77516686469289
 30
0.0
 40
15.0
 50
0.0000000000008527
 51
15.38177381624587
  0
LINE
  5
1F6
  8
DATA
  6
CONTINUOUS
 62
     7
 10
-1584.4626974603659
 20
345.75390814428653
 30
0.0
 11
-1468.0319888211809
 21
768.97874127959324
 31
0.0
  0
LINE
  5
1F7
  8
DATA
  6
CONTINUOUS
 62
     7
 10
-1479.0217274311251
 20
483.97874127959329
 30
0.0
 11
-1418.4989180513851
 21
703.97874127959335
 31
0.0
  0
LINE
  5
1F8
  8
DATA
  6
CONTINUOUS
 62
     7
 10
-1564.462697460365
 20
343.05304120232
 30
0.0
 11
-1452.7910439689369
 21
748.97874127959324
 31
0.0
  0
ARC
  5
1F9
  8
DATA
  6
CONTINUOUS
 62
     7
 10
-1146.4307086391841
 20
765.0
 30
0.0
 40
15.00000000000005
 50
15.38177381624503
 51
89.999999999999133
  0
ARC
  5
1FA
  8
DATA
  6
CONTINUOUS
 62
     7
 10
-1161.671653491429
 20
745.0
 30
0.0
 40
15.00000000000027
 50
15.381773816244801
 51
89.999999999999133
  0
ARC
  5
1FB
  8
DATA
  6
CONTINUOUS
 62
     7
 10
-1195.963779408979
 20
700.0
 30
0.0
 40
14.999999999999829
 50
15.381773816245261
 51
90.000000000000867
  0
ARC
  5
1FC
  8
DATA
  6
CONTINUOUS
 62
     7
 10
-1135.4409700292399
 20
480.0
 30
0.0
 40
15.0
 50
270.0
 51
15.38177381624527
  0
ARC
  5
1FD
  8
DATA
  6
CONTINUOUS
 62
     7
 10
-1050.0
 20
339.07429992272642
 30
0.0
 40
15.0
 50
0.0000000000008527
 51
15.38177381624587
  0
ARC
  5
1FE
  8
DATA
  6
CONTINUOUS
 62
     7
 10
-1030.0
 20
341.77516686469289
 30
0.0
 40
15.0
 50
0.0000000000008527
 51
15.38177381624587
  0
ARC
  5
1FF
  8
DATA
  6
CONTINUOUS
 62
     7
 10
-1438.328346508571
 20
744.99999999999955
 30
0.0
 40
15.000000000000229
 50
90.0
 51
164.6182261837541
  0
ARC
  5
200
  8
DATA
  6
CONTINUOUS
 62
     7
 10
-1453.5692913608159
 20
764.99999999999955
 30
0.0
 40
15.000000000000229
 50
90.0
 51
164.6182261837539
  0
ARC
  5
201
  8
DATA
  6
CONTINUOUS
 62
     7
 10
-1404.0362205910201
 20
700.0
 30
0.0
 40
15.0
 50
90.0
 51
164.61822618375501
  0
ARC
  5
202
  8
DATA
  6
CONTINUOUS
 62
     7
 10
-1464.5590299707601
 20
480.0
 30
0.0
 40
14.999999999999829
 50
164.6182261837547
 51
270.0
  0
ARC
  5
203
  8
DATA
  6
CONTINUOUS
 62
     7
 10
-1550.0
 20
339.07429992272608
 30
0.0
 40
14.999999999999959
 50
164.61822618375299
 51
179.99999999999829
  0
ARC
  5
204
  8
DATA
  6
CONTINUOUS
 62
     7
 10
-1570.0
 20
341.77516686469261
 30
0.0
 40
15.000000000000179
 50
164.61822618375331
 51
179.99999999999829
  0
LINE
  5
205
  8
DATA
  6
CONTINUOUS
 62
     7
 10
-1585.0
 20
-1471.849433241279
 30
0.0
 11
-1585.0
 21
-1541.7751668646929
 31
0.0
  0
LINE
  5
206
  8
DATA
  6
CONTINUOUS
 62
     7
 10
-1514.228458182484
 20
-1403.664663758153
 30
0.0
 11
-1579.823958076267
 21
-1460.514096999432
 31
0.0
  0
LINE
  5
207
  8
DATA
  6
CONTINUOUS
 62
     7
 10
-1506.7677916574401
 20
-1423.664663758153
 30
0.0
 11
-1559.823958076267
 21
-1469.64667465447
 31
0.0
  0
ARC
  5
208
  8
DATA
  6
CONTINUOUS
 62
     7
 10
-1504.4045001062159
 20
-1415.000000000002
 30
0.0
 40
15.000000000002039
 50
90.000000000003496
 51
130.9143832200221
  0
LINE
  5
209
  8
DATA
  6
CONTINUOUS
 62
     7
 10
-1095.595499893783
 20
-1400.0
 30
0.0
 11
-1504.404500106217
 21
-1400.0
 31
0.0
  0
LINE
  5
20A
  8
DATA
  6
CONTINUOUS
 62
     7
 10
-1103.0561664188269
 20
-1420.0
 30
0.0
 11
-1496.9438335811731
 21
-1420.0
 31
0.0
  0
ARC
  5
20B
  8
DATA
  6
CONTINUOUS
 62
     7
 10
-1095.595499893783
 20
-1415.0
 30
0.0
 40
15.00000000000003
 50
49.085616779975922
 51
90.0
  0
LINE
  5
20C
  8
DATA
  6
CONTINUOUS
 62
     7
 10
-1020.176041923732
 20
-1460.514096999432
 30
0.0
 11
-1085.771541817516
 21
-1403.664663758153
 31
0.0
  0
LINE
  5
20D
  8
DATA
  6
CONTINUOUS
 62
     7
 10
-1040.1760419237321
 20
-1469.64667465447
 30
0.0
 11
-1093.2322083425599
 21
-1423.664663758153
 31
0.0
  0
LINE
  5
20E
  8
DATA
  6
CONTINUOUS
 62
     7
 10
-1015.0
 20
-1541.7751668646929
 30
0.0
 11
-1015.0
 21
-1471.849433241279
 31
0.0
  0
LINE
  5
20F
  8
DATA
  6
CONTINUOUS
 62
     7
 10
-1585.0
 20
-1471.849433241279
 30
0.0
 11
-1585.0
 21
-1541.7751668646929
 31
0.0
  0
LINE
  5
210
  8
DATA
  6
CONTINUOUS
 62
     7
 10
-1565.0
 20
-1480.9820108963179
 30
0.0
 11
-1565.0
 21
-1539.0742999227259
 31
0.0
  0
LINE
  5
211
  8
DATA
  6
CONTINUOUS
 62
     7
 10
-1015.537302539634
 20
-1545.7539081442869
 30
0.0
 11
-1131.968011178818
 21
-1968.9787412795929
 31
0.0
  0
LINE
  5
212
  8
DATA
  6
CONTINUOUS
 62
     7
 10
-1035.5373025396341
 20
-1543.0530412023199
 30
0.0
 11
-1147.2089560310631
 21
-1948.9787412795929
 31
0.0
  0
LINE
  5
213
  8
DATA
  6
CONTINUOUS
 62
     7
 10
-1015.0
 20
-1471.849433241279
 30
0.0
 11
-1015.0
 21
-1541.7751668646929
 31
0.0
  0
LINE
  5
214
  8
DATA
  6
CONTINUOUS
 62
     7
 10
-1035.0
 20
-1480.982010896317
 30
0.0
 11
-1035.0
 21
-1539.0742999227259
 31
0.0
  0
ARC
  5
215
  8
DATA
  6
CONTINUOUS
 62
     7
 10
-1570.0
 20
-1471.849433241279
 30
0.0
 40
15.00000000000003
 50
130.91438322002401
 51
179.9999999999992
  0
ARC
  5
216
  8
DATA
  6
CONTINUOUS
 62
     7
 10
-1030.0
 20
-1471.849433241279
 30
0.0
 40
15.0
 50
0.0000000000008527
 51
49.085616779975901
  0
ARC
  5
217
  8
DATA
  6
CONTINUOUS
 62
     7
 10
-1550.0
 20
-1480.9820108963179
 30
0.0
 40
14.99999999999986
 50
130.9143832200246
 51
180.0
  0
ARC
  5
218
  8
DATA
  6
CONTINUOUS
 62
     7
 10
-1496.9438335811731
 20
-1435.0
 30
0.0
 40
15.0
 50
90.0
 51
130.91438322002469
  0
ARC
  5
219
  8
DATA
  6
CONTINUOUS
 62
     7
 10
-1103.0561664188269
 20
-1435.0
 30
0.0
 40
14.99999999999986
 50
49.085616779975361
 51
90.0
  0
ARC
  5
21A
  8
DATA
  6
CONTINUOUS
 62
     7
 10
-1050.0
 20
-1480.9820108963179
 30
0.0
 40
15.0
 50
0.0000000000008527
 51
49.085616779975901
  0
LINE
  5
21B
  8
DATA
  6
CONTINUOUS
 62
     7
 10
-1453.5692913608159
 20
-1980.0
 30
0.0
 11
-1146.430708639183
 21
-1980.0
 31
0.0
  0
LINE
  5
21C
  8
DATA
  6
CONTINUOUS
 62
     7
 10
-1438.328346508571
 20
-1960.0
 30
0.0
 11
-1161.671653491429
 21
-1960.0
 31
0.0
  0
ARC
  5
21D
  8
DATA
  6
CONTINUOUS
 62
     7
 10
-1244.9999999785
 20
-1960.5941724443751
 30
0.0
 40
19.999999999500101
 50
344.61822618375368
 51
0.0
  0
LINE
  5
21E
  8
DATA
  6
CONTINUOUS
 62
     7
 10
-1584.4626974603659
 20
-1545.7539081442869
 30
0.0
 11
-1468.0319888211809
 21
-1968.9787412795929
 31
0.0
  0
LINE
  5
21F
  8
DATA
  6
CONTINUOUS
 62
     7
 10
-1564.462697460365
 20
-1543.0530412023199
 30
0.0
 11
-1452.7910439689369
 21
-1948.9787412795929
 31
0.0
  0
ARC
  5
220
  8
DATA
  6
CONTINUOUS
 62
     7
 10
-1146.4307086391841
 20
-1965.0
 30
0.0
 40
15.0
 50
270.00000000000091
 51
344.61822618375498
  0
ARC
  5
221
  8
DATA
  6
CONTINUOUS
 62
     7
 10
-1161.671653491429
 20
-1945.0
 30
0.0
 40
15.0
 50
270.00000000000091
 51
344.61822618375521
  0
ARC
  5
222
  8
DATA
  6
CONTINUOUS
 62
     7
 10
-1050.0
 20
-1539.0742999227259
 30
0.0
 40
15.00000000000011
 50
344.61822618375408
 51
359.9999999999992
  0
ARC
  5
223
  8
DATA
  6
CONTINUOUS
 62
     7
 10
-1244.9999999785
 20
-1960.5941724443751
 30
0.0
 40
19.999999999500101
 50
344.61822618375368
 51
0.0
  0
ARC
  5
224
  8
DATA
  6
CONTINUOUS
 62
     7
 10
-1438.328346508571
 20
-1945.0
 30
0.0
 40
15.00000000000011
 50
195.38177381624581
 51
270.0
  0
ARC
  5
225
  8
DATA
  6
CONTINUOUS
 62
     7
 10
-1453.5692913608159
 20
-1965.0
 30
0.0
 40
14.99999999999989
 50
195.38177381624601
 51
270.0
  0
ARC
  5
226
  8
DATA
  6
CONTINUOUS
 62
     7
 10
-1550.0
 20
-1539.0742999227259
 30
0.0
 40
15.0
 50
180.00000000000171
 51
195.38177381624769
  0
ARC
  5
227
  8
DATA
  6
CONTINUOUS
 62
     7
 10
-1570.0
 20
-1541.7751668646929
 30
0.0
 40
15.0
 50
180.00000000000171
 51
195.38177381624749
  0
TEXT
  5
228
  8
DATA
 62
     7
 10
290.9735053168402
 20
-716.03605143229117
 30
0.0
 40
4.072102864583333
  1
IN/THRU
 41
0.7
 72
     1
 11
300.0
 21
-713.99999999999966
 31
0.0
 73
     2
  0
LINE
  5
229
  8
DATA
  6
CONTINUOUS
 62
     7
 10
252.5
 20
-829.99999999999966
 30
0.0
 11
252.5
 21
-669.99999999999966
 31
0.0
  0
LINE
  5
22A
  8
DATA
  6
CONTINUOUS
 62
     7
 10
342.5
 20
-834.99999999999955
 30
0.0
 11
257.5
 21
-834.99999999999955
 31
0.0
  0
LINE
  5
22B
  8
DATA
  6
CONTINUOUS
 62
     7
 10
347.5
 20
-669.99999999999966
 30
0.0
 11
347.5
 21
-829.99999999999966
 31
0.0
  0
LINE
  5
22C
  8
DATA
  6
CONTINUOUS
 62
     7
 10
257.5
 20
-664.99999999999966
 30
0.0
 11
342.5
 21
-664.99999999999966
 31
0.0
  0
ARC
  5
22D
  8
DATA
  6
CONTINUOUS
 62
     7
 10
257.5
 20
-669.99999999999966
 30
0.0
 40
5.0
 50
90.0
 51
180.0
  0
ARC
  5
22E
  8
DATA
  6
CONTINUOUS
 62
     7
 10
342.5
 20
-669.99999999999966
 30
0.0
 40
5.0
 50
0.0
 51
90.0
  0
ARC
  5
22F
  8
DATA
  6
CONTINUOUS
 62
     7
 10
342.5
 20
-829.99999999999966
 30
0.0
 40
5.0
 50
270.0
 51
0.0
  0
ARC
  5
230
  8
DATA
  6
CONTINUOUS
 62
     7
 10
257.5
 20
-829.99999999999966
 30
0.0
 40
5.0
 50
180.0
 51
270.0
  0
CIRCLE
  5
231
  8
DATA
  6
CONTINUOUS
 62
     7
 10
300.0
 20
-694.99999999999955
 30
0.0
 40
11.75
  0
LINE
  5
232
  8
DATA
  6
CONTINUOUS
 62
     7
 10
297.0
 20
-684.99999999999966
 30
0.0
 11
303.0
 21
-684.99999999999966
 31
0.0
  0
LINE
  5
233
  8
DATA
  6
CONTINUOUS
 62
     7
 10
298.0
 20
-704.99999999999966
 30
0.0
 11
302.0
 21
-704.99999999999966
 31
0.0
  0
LINE
  5
234
  8
DATA
  6
CONTINUOUS
 62
     7
 10
298.0
 20
-704.99999999999966
 30
0.0
 11
298.0
 21
-703.79999999999995
 31
0.0
  0
LINE
  5
235
  8
DATA
  6
CONTINUOUS
 62
     7
 10
302.0
 20
-704.99999999999966
 30
0.0
 11
302.0
 21
-703.79999999999995
 31
0.0
  0
LINE
  5
236
  8
DATA
  6
CONTINUOUS
 62
     7
 10
297.0
 20
-684.99999999999966
 30
0.0
 11
297.0
 21
-686.72714999999937
 31
0.0
  0
LINE
  5
237
  8
DATA
  6
CONTINUOUS
 62
     7
 10
303.0
 20
-684.99999999999966
 30
0.0
 11
303.0
 21
-686.72714999999937
 31
0.0
  0
ARC
  5
238
  8
DATA
  6
CONTINUOUS
 62
     7
 10
300.0
 20
-694.99999999999955
 30
0.0
 40
8.8000026774146374
 50
109.93226415067829
 51
257.19616681969887
  0
ARC
  5
239
  8
DATA
  6
CONTINUOUS
 62
     7
 10
300.0
 20
-694.99999999999955
 30
0.0
 40
8.8000035043457085
 50
282.99999955542148
 51
69.999994237962227
  0
ARC
  5
23A
  8
DATA
  6
CONTINUOUS
 62
     7
 10
300.0
 20
-694.99999999999955
 30
0.0
 40
6.2000021620638233
 50
60.000011535560077
 51
150.00001153556289
  0
LINE
  5
23B
  8
DATA
  6
CONTINUOUS
 62
     7
 10
294.63065999999981
 20
-691.8999699999996
 30
0.0
 11
295.12862000000001
 21
-692.18746999999973
 31
0.0
  0
LINE
  5
23C
  8
DATA
  6
CONTINUOUS
 62
     7
 10
303.09997000000021
 20
-689.63061999999968
 30
0.0
 11
302.81246999999979
 21
-690.12859000000003
 31
0.0
  0
ARC
  5
23D
  8
DATA
  6
CONTINUOUS
 62
     7
 10
300.0
 20
-694.99999999999955
 30
0.0
 40
6.2000021620638233
 50
240.00001153556011
 51
330.00001153556292
  0
LINE
  5
23E
  8
DATA
  6
CONTINUOUS
 62
     7
 10
296.90000000000009
 20
-700.36935999999946
 30
0.0
 11
297.1875
 21
-699.87139000000002
 31
0.0
  0
LINE
  5
23F
  8
DATA
  6
CONTINUOUS
 62
     7
 10
305.36936999999989
 20
-698.09997999999973
 30
0.0
 11
304.87139999999999
 21
-697.81247999999982
 31
0.0
  0
ARC
  5
240
  8
DATA
  6
CONTINUOUS
 62
     7
 10
300.0
 20
-694.99999999999955
 30
0.0
 40
5.625003831581032
 50
149.99966968210131
 51
240.0002126043062
  0
ARC
  5
241
  8
DATA
  6
CONTINUOUS
 62
     7
 10
300.0
 20
-694.99999999999955
 30
0.0
 40
5.6249961520342593
 50
330.00021260430242
 51
60.000718243121653
  0
ARC
  5
242
  8
DATA
  6
CONTINUOUS
 62
     7
 10
300.0
 20
-694.99999999999955
 30
0.0
 40
3.5999900808755672
 50
59.999908854705069
 51
149.9999088547001
  0
ARC
  5
243
  8
DATA
  6
CONTINUOUS
 62
     7
 10
300.0
 20
-694.99999999999955
 30
0.0
 40
3.5999900808755672
 50
239.99990885470501
 51
329.9999088547001
  0
LINE
  5
244
  8
DATA
  6
CONTINUOUS
 62
     7
 10
301.79997999999972
 20
-691.88230999999973
 30
0.0
 11
301.44999000000013
 21
-692.48851999999965
 31
0.0
  0
LINE
  5
245
  8
DATA
  6
CONTINUOUS
 62
     7
 10
296.88232999999991
 20
-693.19998999999984
 30
0.0
 11
297.48853000000008
 21
-693.54998999999964
 31
0.0
  0
LINE
  5
246
  8
DATA
  6
CONTINUOUS
 62
     7
 10
298.19999999999982
 20
-698.11768000000006
 30
0.0
 11
298.55000000000018
 21
-697.51146999999969
 31
0.0
  0
LINE
  5
247
  8
DATA
  6
CONTINUOUS
 62
     7
 10
303.1176900000001
 20
-696.79997999999955
 30
0.0
 11
302.51148000000012
 21
-696.44998999999984
 31
0.0
  0
ARC
  5
248
  8
DATA
  6
CONTINUOUS
 62
     7
 10
300.0
 20
-694.99999999999955
 30
0.0
 40
2.9000018208614362
 50
149.99979263402921
 51
240.00023362383041
  0
ARC
  5
249
  8
DATA
  6
CONTINUOUS
 62
     7
 10
300.0
 20
-694.99999999999955
 30
0.0
 40
2.900000481120788
 50
330.0002336238303
 51
59.999792634027649
  0
CIRCLE
  5
24A
  8
DATA
  6
CONTINUOUS
 62
     7
 10
300.0
 20
-732.99999999999955
 30
0.0
 40
11.75
  0
LINE
  5
24B
  8
DATA
  6
CONTINUOUS
 62
     7
 10
297.0
 20
-722.99999999999955
 30
0.0
 11
303.0
 21
-722.99999999999955
 31
0.0
  0
LINE
  5
24C
  8
DATA
  6
CONTINUOUS
 62
     7
 10
298.0
 20
-742.99999999999966
 30
0.0
 11
302.0
 21
-742.99999999999966
 31
0.0
  0
LINE
  5
24D
  8
DATA
  6
CONTINUOUS
 62
     7
 10
298.0
 20
-742.99999999999966
 30
0.0
 11
298.0
 21
-741.79999999999984
 31
0.0
  0
LINE
  5
24E
  8
DATA
  6
CONTINUOUS
 62
     7
 10
302.0
 20
-742.99999999999966
 30
0.0
 11
302.0
 21
-741.79999999999984
 31
0.0
  0
LINE
  5
24F
  8
DATA
  6
CONTINUOUS
 62
     7
 10
297.0
 20
-722.99999999999955
 30
0.0
 11
297.0
 21
-724.72714999999926
 31
0.0
  0
LINE
  5
250
  8
DATA
  6
CONTINUOUS
 62
     7
 10
303.0
 20
-722.99999999999955
 30
0.0
 11
303.0
 21
-724.72714999999926
 31
0.0
  0
ARC
  5
251
  8
DATA
  6
CONTINUOUS
 62
     7
 10
300.0
 20
-732.99999999999955
 30
0.0
 40
8.8000026774146374
 50
109.93226415067829
 51
257.19616681969887
  0
ARC
  5
252
  8
DATA
  6
CONTINUOUS
 62
     7
 10
300.0
 20
-732.99999999999955
 30
0.0
 40
8.8000035043457085
 50
282.99999955542148
 51
69.999994237962227
  0
ARC
  5
253
  8
DATA
  6
CONTINUOUS
 62
     7
 10
300.0
 20
-732.99999999999955
 30
0.0
 40
6.2000021620638233
 50
60.000011535560077
 51
150.00001153556289
  0
LINE
  5
254
  8
DATA
  6
CONTINUOUS
 62
     7
 10
294.63065999999981
 20
-729.8999699999996
 30
0.0
 11
295.12862000000001
 21
-730.18746999999973
 31
0.0
  0
LINE
  5
255
  8
DATA
  6
CONTINUOUS
 62
     7
 10
303.09997000000021
 20
-727.63061999999957
 30
0.0
 11
302.81246999999979
 21
-728.12859000000003
 31
0.0
  0
ARC
  5
256
  8
DATA
  6
CONTINUOUS
 62
     7
 10
300.0
 20
-732.99999999999955
 30
0.0
 40
6.2000021620638233
 50
240.00001153556011
 51
330.00001153556292
  0
LINE
  5
257
  8
DATA
  6
CONTINUOUS
 62
     7
 10
296.90000000000009
 20
-738.36935999999935
 30
0.0
 11
297.1875
 21
-737.87139000000002
 31
0.0
  0
LINE
  5
258
  8
DATA
  6
CONTINUOUS
 62
     7
 10
305.36936999999989
 20
-736.09997999999973
 30
0.0
 11
304.87139999999999
 21
-735.81247999999982
 31
0.0
  0
ARC
  5
259
  8
DATA
  6
CONTINUOUS
 62
     7
 10
300.0
 20
-732.99999999999955
 30
0.0
 40
5.625003831581032
 50
149.99966968210131
 51
240.0002126043062
  0
ARC
  5
25A
  8
DATA
  6
CONTINUOUS
 62
     7
 10
300.0
 20
-732.99999999999955
 30
0.0
 40
5.6249961520342593
 50
330.00021260430242
 51
60.000718243121653
  0
ARC
  5
25B
  8
DATA
  6
CONTINUOUS
 62
     7
 10
300.0
 20
-732.99999999999955
 30
0.0
 40
3.5999900808755672
 50
59.999908854705069
 51
149.9999088547001
  0
ARC
  5
25C
  8
DATA
  6
CONTINUOUS
 62
     7
 10
300.0
 20
-732.99999999999955
 30
0.0
 40
3.5999900808755672
 50
239.99990885470501
 51
329.9999088547001
  0
LINE
  5
25D
  8
DATA
  6
CONTINUOUS
 62
     7
 10
301.79997999999972
 20
-729.88230999999973
 30
0.0
 11
301.44999000000013
 21
-730.48851999999965
 31
0.0
  0
LINE
  5
25E
  8
DATA
  6
CONTINUOUS
 62
     7
 10
296.88232999999991
 20
-731.19998999999984
 30
0.0
 11
297.48853000000008
 21
-731.54998999999964
 31
0.0
  0
LINE
  5
25F
  8
DATA
  6
CONTINUOUS
 62
     7
 10
298.19999999999982
 20
-736.11767999999995
 30
0.0
 11
298.55000000000018
 21
-735.51146999999969
 31
0.0
  0
LINE
  5
260
  8
DATA
  6
CONTINUOUS
 62
     7
 10
303.1176900000001
 20
-734.79997999999955
 30
0.0
 11
302.51148000000012
 21
-734.44998999999984
 31
0.0
  0
ARC
  5
261
  8
DATA
  6
CONTINUOUS
 62
     7
 10
300.0
 20
-732.99999999999955
 30
0.0
 40
2.9000018208614362
 50
149.99979263402921
 51
240.00023362383041
  0
ARC
  5
262
  8
DATA
  6
CONTINUOUS
 62
     7
 10
300.0
 20
-732.99999999999955
 30
0.0
 40
2.900000481120788
 50
330.0002336238303
 51
59.999792634027649
  0
TEXT
  5
263
  8
DATA
 62
     7
 10
271.52408122715502
 20
-775.75916666666626
 30
0.0
 40
4.072102864583333
  1
\U+00B12 N/C
 41
0.7
 11
271.52408122715502
 21
-771.687063802083
 31
0.0
 73
     3
  0
LINE
  5
264
  8
DATA
  6
CONTINUOUS
 62
     7
 10
300.0
 20
-710.8249999999997
 30
0.0
 11
300.0
 21
-707.99999999999955
 31
0.0
  0
LINE
  5
265
  8
DATA
  6
CONTINUOUS
 62
     7
 10
300.0
 20
-719.99999999999955
 30
0.0
 11
300.0
 21
-717.17499999999995
 31
0.0
  0
TEXT
  5
266
  8
DATA
 62
     7
 10
266.7403293185763
 20
-689.33605143229113
 30
0.0
 40
4.072102864583333
  1
STX825
 41
0.7
 72
     1
 11
274.81666666666661
 21
-687.29999999999939
 31
0.0
 73
     2
  0
CIRCLE
  5
267
  8
DATA
  6
CONTINUOUS
 62
     7
 10
285.0
 20
-779.99999999999966
 30
0.0
 40
3.5000000000000902
  0
CIRCLE
  5
268
  8
DATA
  6
CONTINUOUS
 62
     7
 10
315.0
 20
-779.99999999999966
 30
0.0
 40
3.5000000000000902
  0
TEXT
  5
269
  8
DATA
 62
     7
 10
271.52408122715502
 20
-770.46749999999952
 30
0.0
 40
4.072102864583333
  1
\U+00B11 IN:4\U+03A9
 41
0.7
 11
271.52408122715502
 21
-766.39539713541615
 31
0.0
 73
     3
  0
TEXT
  5
26A
  8
DATA
 62
     7
 10
271.7928130425347
 20
-765.37371961805525
 30
0.0
 40
4.072102864583333
  1
FULL RANGE
 41
0.7
 72
     1
 11
285.0
 21
-765.9166666666664
 31
0.0
 73
     1
  0
TEXT
  5
26B
  8
DATA
 62
     7
 10
305.30839518229169
 20
-775.9570529513885
 30
0.0
 40
4.072102864583333
  1
\U+00B12 HF:8\U+03A9
 41
0.7
 72
     1
 11
315.0
 21
-776.49999999999966
 31
0.0
 73
     1
  0
TEXT
  5
26C
  8
DATA
 62
     7
 10
301.03268717447918
 20
-770.66538628472176
 30
0.0
 40
4.072102864583333
  1
\U+00B11 LF:4\U+03A9     
 41
0.7
 72
     1
 11
315.0
 21
-771.20833333333303
 31
0.0
 73
     1
  0
TEXT
  5
26D
  8
DATA
 62
     7
 10
307.39874131944453
 20
-765.37371961805525
 30
0.0
 40
4.072102864583333
  1
BI-AMP
 41
0.7
 72
     1
 11
315.0
 21
-765.9166666666664
 31
0.0
 73
     1
  0
CIRCLE
  5
26E
  8
DATA
  6
CONTINUOUS
 62
     7
 10
246.5
 20
-656.99999999999966
 30
0.0
 40
4.0
  0
LINE
  5
26F
  8
DATA
  6
CONTINUOUS
 62
     7
 10
244.5
 20
-656.99999999999966
 30
0.0
 11
248.5
 21
-656.99999999999966
 31
0.0
  0
LINE
  5
270
  8
DATA
  6
CONTINUOUS
 62
     7
 10
246.5
 20
-658.99999999999977
 30
0.0
 11
246.5
 21
-654.99999999999977
 31
0.0
  0
CIRCLE
  5
271
  8
DATA
  6
CONTINUOUS
 62
     7
 10
353.5
 20
-656.99999999999966
 30
0.0
 40
4.0
  0
LINE
  5
272
  8
DATA
  6
CONTINUOUS
 62
     7
 10
351.5
 20
-656.99999999999966
 30
0.0
 11
355.5
 21
-656.99999999999966
 31
0.0
  0
LINE
  5
273
  8
DATA
  6
CONTINUOUS
 62
     7
 10
353.5
 20
-658.99999999999977
 30
0.0
 11
353.5
 21
-654.99999999999977
 31
0.0
  0
CIRCLE
  5
274
  8
DATA
  6
CONTINUOUS
 62
     7
 10
246.5
 20
-749.99999999999955
 30
0.0
 40
4.0
  0
LINE
  5
275
  8
DATA
  6
CONTINUOUS
 62
     7
 10
244.5
 20
-749.99999999999955
 30
0.0
 11
248.5
 21
-749.99999999999955
 31
0.0
  0
LINE
  5
276
  8
DATA
  6
CONTINUOUS
 62
     7
 10
246.5
 20
-751.99999999999955
 30
0.0
 11
246.5
 21
-747.99999999999955
 31
0.0
  0
CIRCLE
  5
277
  8
DATA
  6
CONTINUOUS
 62
     7
 10
353.5
 20
-749.99999999999955
 30
0.0
 40
4.0
  0
LINE
  5
278
  8
DATA
  6
CONTINUOUS
 62
     7
 10
351.5
 20
-749.99999999999955
 30
0.0
 11
355.5
 21
-749.99999999999955
 31
0.0
  0
LINE
  5
279
  8
DATA
  6
CONTINUOUS
 62
     7
 10
353.5
 20
-751.99999999999955
 30
0.0
 11
353.5
 21
-747.99999999999955
 31
0.0
  0
CIRCLE
  5
27A
  8
DATA
  6
CONTINUOUS
 62
     7
 10
246.5
 20
-842.99999999999955
 30
0.0
 40
4.0
  0
LINE
  5
27B
  8
DATA
  6
CONTINUOUS
 62
     7
 10
244.5
 20
-842.99999999999955
 30
0.0
 11
248.5
 21
-842.99999999999955
 31
0.0
  0
LINE
  5
27C
  8
DATA
  6
CONTINUOUS
 62
     7
 10
246.5
 20
-844.99999999999966
 30
0.0
 11
246.5
 21
-840.99999999999955
 31
0.0
  0
CIRCLE
  5
27D
  8
DATA
  6
CONTINUOUS
 62
     7
 10
353.5
 20
-842.99999999999955
 30
0.0
 40
4.0
  0
LINE
  5
27E
  8
DATA
  6
CONTINUOUS
 62
     7
 10
351.5
 20
-842.99999999999955
 30
0.0
 11
355.5
 21
-842.99999999999955
 31
0.0
  0
LINE
  5
27F
  8
DATA
  6
CONTINUOUS
 62
     7
 10
353.5
 20
-844.99999999999966
 30
0.0
 11
353.5
 21
-840.99999999999955
 31
0.0
  0
TEXT
  5
280
  8
DATA
 62
     7
 10
949.99999998072678
 20
-2216.6031499471428
 30
0.0
 40
32.576822916666671
  1
2-Wayフルレンジ・スピーカー
 41
0.7
 11
949.99999998072678
 21
-2184.0263270304758
 31
0.0
 73
     3
  0
TEXT
  5
281
  8
DATA
 62
     7
 10
-1749.999999956249
 20
-2357.1562943851482
 30
0.0
 40
38.006293401827627
  1
※仕様及び外観は予告なく変更されることがあります。
 41
0.7
 11
-1749.999999956249
 21
-2319.1500009833212
 31
0.0
 73
     3
  0
TEXT
  5
282
  8
DATA
 62
     7
 10
-1749.999999956249
 20
-2406.5451832728031
 30
0.0
 40
38.006293401827627
  1
　また、同一商品でも若干の個体差があることがあります。ご了承ください。
 41
0.7
 11
-1749.999999956249
 21
-2368.5388898709762
 31
0.0
 73
     3
  0
TEXT
  5
283
  8
DATA
 62
     7
 10
999.99999998072678
 20
-2292.0640499465708
 30
0.0
 40
48.865234373778371
  1
STX825
 41
0.7
 11
999.99999998072678
 21
-2243.1988155727931
 31
0.0
 73
     3
  0
TEXT
  5
284
  8
DATA
 62
     7
 10
999.99999998072678
 20
-2147.0640499465708
 30
0.0
 40
48.865234373778371
  1
JBL PROFESSIONAL
 41
0.7
 11
999.99999998072678
 21
-2098.1988155727931
 31
0.0
 73
     3
  0
TEXT
  5
285
  8
DATA
 62
     7
 10
1209.7350531684031
 20
189.63948567708329
 30
0.0
 40
40.721028645833329
  1
IN/THRU
 41
0.7
 72
     1
 11
1300.0
 21
210.0
 31
0.0
 73
     2
  0
LINE
  5
286
  8
DATA
  6
CONTINUOUS
 62
     7
 10
825.0
 20
-950.0
 30
0.0
 11
825.0
 21
650.0
 31
0.0
  0
LINE
  5
287
  8
DATA
  6
CONTINUOUS
 62
     7
 10
1725.0
 20
-1000.0
 30
0.0
 11
875.0
 21
-1000.0
 31
0.0
  0
LINE
  5
288
  8
DATA
  6
CONTINUOUS
 62
     7
 10
1775.0
 20
650.0
 30
0.0
 11
1775.0
 21
-950.0
 31
0.0
  0
LINE
  5
289
  8
DATA
  6
CONTINUOUS
 62
     7
 10
875.0
 20
700.0
 30
0.0
 11
1725.0
 21
700.0
 31
0.0
  0
ARC
  5
28A
  8
DATA
  6
CONTINUOUS
 62
     7
 10
875.0
 20
650.0
 30
0.0
 40
50.0
 50
90.0
 51
180.0
  0
ARC
  5
28B
  8
DATA
  6
CONTINUOUS
 62
     7
 10
1725.0
 20
650.0
 30
0.0
 40
50.0
 50
0.0
 51
90.0
  0
ARC
  5
28C
  8
DATA
  6
CONTINUOUS
 62
     7
 10
1725.0
 20
-950.0
 30
0.0
 40
50.0
 50
270.0
 51
0.0
  0
ARC
  5
28D
  8
DATA
  6
CONTINUOUS
 62
     7
 10
875.0
 20
-950.0
 30
0.0
 40
50.0
 50
180.0
 51
270.0
  0
CIRCLE
  5
28E
  8
DATA
  6
CONTINUOUS
 62
     7
 10
1300.0
 20
400.0
 30
0.0
 40
117.5
  0
LINE
  5
28F
  8
DATA
  6
CONTINUOUS
 62
     7
 10
1270.0
 20
500.0
 30
0.0
 11
1330.0
 21
500.0
 31
0.0
  0
LINE
  5
290
  8
DATA
  6
CONTINUOUS
 62
     7
 10
1280.0
 20
300.0
 30
0.0
 11
1320.0
 21
300.0
 31
0.0
  0
LINE
  5
291
  8
DATA
  6
CONTINUOUS
 62
     7
 10
1280.0
 20
300.0
 30
0.0
 11
1280.0
 21
311.99999999999818
 31
0.0
  0
LINE
  5
292
  8
DATA
  6
CONTINUOUS
 62
     7
 10
1320.0
 20
300.0
 30
0.0
 11
1320.0
 21
311.99999999999818
 31
0.0
  0
LINE
  5
293
  8
DATA
  6
CONTINUOUS
 62
     7
 10
1270.0
 20
500.0
 30
0.0
 11
1270.0
 21
482.7285000000029
 31
0.0
  0
LINE
  5
294
  8
DATA
  6
CONTINUOUS
 62
     7
 10
1330.0
 20
500.0
 30
0.0
 11
1330.0
 21
482.7285000000029
 31
0.0
  0
ARC
  5
295
  8
DATA
  6
CONTINUOUS
 62
     7
 10
1300.0
 20
400.0
 30
0.0
 40
88.000026774146363
 50
109.93226415067829
 51
257.1961668196991
  0
ARC
  5
296
  8
DATA
  6
CONTINUOUS
 62
     7
 10
1300.0
 20
400.0
 30
0.0
 40
88.000035043457075
 50
282.99999955542148
 51
69.999994237960706
  0
ARC
  5
297
  8
DATA
  6
CONTINUOUS
 62
     7
 10
1300.0
 20
400.0
 30
0.0
 40
62.00002162063825
 50
60.000011535560077
 51
150.00001153556181
  0
LINE
  5
298
  8
DATA
  6
CONTINUOUS
 62
     7
 10
1246.3065999999981
 20
431.00030000000061
 30
0.0
 11
1251.2862
 21
428.12530000000152
 31
0.0
  0
LINE
  5
299
  8
DATA
  6
CONTINUOUS
 62
     7
 10
1330.9997000000019
 20
453.69380000000092
 30
0.0
 11
1328.124699999998
 21
448.71409999999742
 31
0.0
  0
ARC
  5
29A
  8
DATA
  6
CONTINUOUS
 62
     7
 10
1300.0
 20
400.0
 30
0.0
 40
62.00002162063825
 50
240.00001153556011
 51
330.0000115355619
  0
LINE
  5
29B
  8
DATA
  6
CONTINUOUS
 62
     7
 10
1269.0000000000009
 20
346.30640000000312
 30
0.0
 11
1271.875
 21
351.28609999999759
 31
0.0
  0
LINE
  5
29C
  8
DATA
  6
CONTINUOUS
 62
     7
 10
1353.6936999999989
 20
369.0002000000004
 30
0.0
 11
1348.7139999999999
 21
371.87519999999938
 31
0.0
  0
ARC
  5
29D
  8
DATA
  6
CONTINUOUS
 62
     7
 10
1300.0
 20
400.0
 30
0.0
 40
56.250038315810322
 50
149.99966968210131
 51
240.0002126043062
  0
ARC
  5
29E
  8
DATA
  6
CONTINUOUS
 62
     7
 10
1300.0
 20
400.0
 30
0.0
 40
56.249961520342602
 50
330.00021260430242
 51
60.000718243121447
  0
ARC
  5
29F
  8
DATA
  6
CONTINUOUS
 62
     7
 10
1300.0
 20
400.0
 30
0.0
 40
35.999900808755669
 50
59.999908854705069
 51
149.99990885470211
  0
ARC
  5
2A0
  8
DATA
  6
CONTINUOUS
 62
     7
 10
1300.0
 20
400.0
 30
0.0
 40
35.999900808755669
 50
239.99990885470501
 51
329.99990885470203
  0
LINE
  5
2A1
  8
DATA
  6
CONTINUOUS
 62
     7
 10
1317.999799999998
 20
431.17690000000039
 30
0.0
 11
1314.4999000000009
 21
425.1148000000012
 31
0.0
  0
LINE
  5
2A2
  8
DATA
  6
CONTINUOUS
 62
     7
 10
1268.8232999999991
 20
418.00009999999918
 30
0.0
 11
1274.8853000000011
 21
414.50010000000009
 31
0.0
  0
LINE
  5
2A3
  8
DATA
  6
CONTINUOUS
 62
     7
 10
1281.999999999998
 20
368.82319999999697
 30
0.0
 11
1285.5000000000009
 21
374.88530000000083
 31
0.0
  0
LINE
  5
2A4
  8
DATA
  6
CONTINUOUS
 62
     7
 10
1331.1768999999999
 20
382.00020000000222
 30
0.0
 11
1325.114800000001
 21
385.50009999999918
 31
0.0
  0
ARC
  5
2A5
  8
DATA
  6
CONTINUOUS
 62
     7
 10
1300.0
 20
400.0
 30
0.0
 40
29.00001820861436
 50
149.99979263402921
 51
240.00023362383041
  0
ARC
  5
2A6
  8
DATA
  6
CONTINUOUS
 62
     7
 10
1300.0
 20
400.0
 30
0.0
 40
29.000004811207891
 50
330.0002336238303
 51
59.999792634023663
  0
CIRCLE
  5
2A7
  8
DATA
  6
CONTINUOUS
 62
     7
 10
1300.0
 20
20.0
 30
0.0
 40
117.5
  0
LINE
  5
2A8
  8
DATA
  6
CONTINUOUS
 62
     7
 10
1270.0
 20
120.0
 30
0.0
 11
1330.0
 21
120.0
 31
0.0
  0
LINE
  5
2A9
  8
DATA
  6
CONTINUOUS
 62
     7
 10
1280.0
 20
-80.0
 30
0.0
 11
1320.0
 21
-80.0
 31
0.0
  0
LINE
  5
2AA
  8
DATA
  6
CONTINUOUS
 62
     7
 10
1280.0
 20
-80.0
 30
0.0
 11
1280.0
 21
-68.000000000001805
 31
0.0
  0
LINE
  5
2AB
  8
DATA
  6
CONTINUOUS
 62
     7
 10
1320.0
 20
-80.0
 30
0.0
 11
1320.0
 21
-68.000000000001805
 31
0.0
  0
LINE
  5
2AC
  8
DATA
  6
CONTINUOUS
 62
     7
 10
1270.0
 20
120.0
 30
0.0
 11
1270.0
 21
102.7285000000029
 31
0.0
  0
LINE
  5
2AD
  8
DATA
  6
CONTINUOUS
 62
     7
 10
1330.0
 20
120.0
 30
0.0
 11
1330.0
 21
102.7285000000029
 31
0.0
  0
ARC
  5
2AE
  8
DATA
  6
CONTINUOUS
 62
     7
 10
1300.0
 20
20.0
 30
0.0
 40
88.000026774146363
 50
109.93226415067829
 51
257.19616681969899
  0
ARC
  5
2AF
  8
DATA
  6
CONTINUOUS
 62
     7
 10
1300.0
 20
20.0
 30
0.0
 40
88.000035043457075
 50
282.99999955542148
 51
69.999994237960777
  0
ARC
  5
2B0
  8
DATA
  6
CONTINUOUS
 62
     7
 10
1300.0
 20
20.0
 30
0.0
 40
62.00002162063825
 50
60.000011535560077
 51
150.00001153556181
  0
LINE
  5
2B1
  8
DATA
  6
CONTINUOUS
 62
     7
 10
1246.3065999999981
 20
51.0003000000006
 30
0.0
 11
1251.2862
 21
48.125300000001523
 31
0.0
  0
LINE
  5
2B2
  8
DATA
  6
CONTINUOUS
 62
     7
 10
1330.9997000000019
 20
73.693800000000905
 30
0.0
 11
1328.124699999998
 21
68.71409999999743
 31
0.0
  0
ARC
  5
2B3
  8
DATA
  6
CONTINUOUS
 62
     7
 10
1300.0
 20
20.0
 30
0.0
 40
62.00002162063825
 50
240.00001153556011
 51
330.0000115355619
  0
LINE
  5
2B4
  8
DATA
  6
CONTINUOUS
 62
     7
 10
1269.0000000000009
 20
-33.693599999996877
 30
0.0
 11
1271.875
 21
-28.713900000002472
 31
0.0
  0
LINE
  5
2B5
  8
DATA
  6
CONTINUOUS
 62
     7
 10
1353.6936999999989
 20
-10.99979999999959
 30
0.0
 11
1348.7139999999999
 21
-8.1248000000005032
 31
0.0
  0
ARC
  5
2B6
  8
DATA
  6
CONTINUOUS
 62
     7
 10
1300.0
 20
20.0
 30
0.0
 40
56.250038315810322
 50
149.99966968210131
 51
240.0002126043062
  0
ARC
  5
2B7
  8
DATA
  6
CONTINUOUS
 62
     7
 10
1300.0
 20
20.0
 30
0.0
 40
56.249961520342602
 50
330.00021260430242
 51
60.000718243121447
  0
ARC
  5
2B8
  8
DATA
  6
CONTINUOUS
 62
     7
 10
1300.0
 20
20.0
 30
0.0
 40
35.999900808755669
 50
59.999908854705069
 51
149.999908854702
  0
ARC
  5
2B9
  8
DATA
  6
CONTINUOUS
 62
     7
 10
1300.0
 20
20.0
 30
0.0
 40
35.999900808755669
 50
239.99990885470501
 51
329.99990885470203
  0
LINE
  5
2BA
  8
DATA
  6
CONTINUOUS
 62
     7
 10
1317.999799999998
 20
51.176900000000387
 30
0.0
 11
1314.4999000000009
 21
45.114800000001203
 31
0.0
  0
LINE
  5
2BB
  8
DATA
  6
CONTINUOUS
 62
     7
 10
1268.8232999999991
 20
38.000099999999293
 30
0.0
 11
1274.8853000000011
 21
34.500100000000202
 31
0.0
  0
LINE
  5
2BC
  8
DATA
  6
CONTINUOUS
 62
     7
 10
1281.999999999998
 20
-11.17680000000291
 30
0.0
 11
1285.5000000000009
 21
-5.114699999999174
 31
0.0
  0
LINE
  5
2BD
  8
DATA
  6
CONTINUOUS
 62
     7
 10
1331.1768999999999
 20
2.0002000000022231
 30
0.0
 11
1325.114800000001
 21
5.5000999999992919
 31
0.0
  0
ARC
  5
2BE
  8
DATA
  6
CONTINUOUS
 62
     7
 10
1300.0
 20
20.0
 30
0.0
 40
29.00001820861436
 50
149.99979263402921
 51
240.00023362383041
  0
ARC
  5
2BF
  8
DATA
  6
CONTINUOUS
 62
     7
 10
1300.0
 20
20.0
 30
0.0
 40
29.000004811207891
 50
330.0002336238303
 51
59.999792634023663
  0
TEXT
  5
2C0
  8
DATA
 62
     7
 10
1015.240812271549
 20
-407.5916666666659
 30
0.0
 40
40.721028645833329
  1
\U+00B12 N/C
 41
0.7
 11
1015.240812271549
 21
-366.87063802083259
 31
0.0
 73
     3
  0
LINE
  5
2C1
  8
DATA
  6
CONTINUOUS
 62
     7
 10
1300.0
 20
241.75000000000179
 30
0.0
 11
1300.0
 21
270.0
 31
0.0
  0
LINE
  5
2C2
  8
DATA
  6
CONTINUOUS
 62
     7
 10
1300.0
 20
150.0
 30
0.0
 11
1300.0
 21
178.2499999999981
 31
0.0
  0
TEXT
  5
2C3
  8
DATA
 62
     7
 10
967.40329318576335
 20
456.63948567708599
 30
0.0
 40
40.721028645833329
  1
STX825
 41
0.7
 72
     1
 11
1048.1666666666661
 21
477.00000000000267
 31
0.0
 73
     2
  0
CIRCLE
  5
2C4
  8
DATA
  6
CONTINUOUS
 62
     7
 10
1150.0
 20
-450.0
 30
0.0
 40
35.000000000000909
  0
CIRCLE
  5
2C5
  8
DATA
  6
CONTINUOUS
 62
     7
 10
1450.0
 20
-450.0
 30
0.0
 40
35.000000000000909
  0
TEXT
  5
2C6
  8
DATA
 62
     7
 10
1015.240812271549
 20
-354.67499999999848
 30
0.0
 40
40.721028645833329
  1
\U+00B11 IN:4\U+03A9
 41
0.7
 11
1015.240812271549
 21
-313.95397135416522
 31
0.0
 73
     3
  0
TEXT
  5
2C7
  8
DATA
 62
     7
 10
1017.928130425347
 20
-303.73719618055412
 30
0.0
 40
40.721028645833329
  1
FULL RANGE
 41
0.7
 72
     1
 11
1150.0
 21
-309.16666666666521
 31
0.0
 73
     1
  0
TEXT
  5
2C8
  8
DATA
 62
     7
 10
1353.083951822917
 20
-409.57052951388772
 30
0.0
 40
40.721028645833329
  1
\U+00B12 HF:8\U+03A9
 41
0.7
 72
     1
 11
1450.0
 21
-414.99999999999881
 31
0.0
 73
     1
  0
TEXT
  5
2C9
  8
DATA
 62
     7
 10
1310.326871744792
 20
-356.65386284722149
 30
0.0
 40
40.721028645833329
  1
\U+00B11 LF:4\U+03A9     
 41
0.7
 72
     1
 11
1450.0
 21
-362.08333333333258
 31
0.0
 73
     1
  0
TEXT
  5
2CA
  8
DATA
 62
     7
 10
1373.9874131944439
 20
-303.73719618055412
 30
0.0
 40
40.721028645833329
  1
BI-AMP
 41
0.7
 72
     1
 11
1450.0
 21
-309.16666666666521
 31
0.0
 73
     1
  0
ENDSEC
  0
EOF
