  0
SECTION
  2
HEADER
  9
$ACADVER
  1
AC1015
  9
$ACADMAINTVER
 70
    20
  9
$DWGCODEPAGE
  3
ANSI_932
  9
$INSBASE
 10
0.0
 20
0.0
 30
0.0
  9
$EXTMIN
 10
-1350.082391174606
 20
-2014.883294593333
 30
-0.0015258207003583
  9
$EXTMAX
 10
1350.082403747461
 20
1999.567671355127
 30
0.0000000349246037
  9
$LIMMIN
 10
0.0
 20
0.0
  9
$LIMMAX
 10
0.0
 20
0.0
  9
$ORTHOMODE
 70
     0
  9
$REGENMODE
 70
     1
  9
$FILLMODE
 70
     1
  9
$QTEXTMODE
 70
     0
  9
$MIRRTEXT
 70
     1
  9
$LTSCALE
 40
190.5
  9
$ATTMODE
 70
     1
  9
$TEXTSIZE
 40
0.0
  9
$TRACEWID
 40
1.0
  9
$TEXTSTYLE
  7
STANDARD
  9
$CLAYER
  8
DATA
  9
$CELTYPE
  6
ByLayer
  9
$CECOLOR
 62
   256
  9
$CELTSCALE
 40
1.0
  9
$DISPSILH
 70
     0
  9
$DIMSCALE
 40
1.0
  9
$DIMASZ
 40
0.18
  9
$DIMEXO
 40
0.0625
  9
$DIMDLI
 40
0.38
  9
$DIMRND
 40
0.0
  9
$DIMDLE
 40
0.0
  9
$DIMEXE
 40
0.18
  9
$DIMTP
 40
0.0
  9
$DIMTM
 40
0.0
  9
$DIMTXT
 40
0.18
  9
$DIMCEN
 40
0.09
  9
$DIMTSZ
 40
0.0
  9
$DIMTOL
 70
     0
  9
$DIMLIM
 70
     0
  9
$DIMTIH
 70
     1
  9
$DIMTOH
 70
     1
  9
$DIMSE1
 70
     0
  9
$DIMSE2
 70
     0
  9
$DIMTAD
 70
     0
  9
$DIMZIN
 70
     0
  9
$DIMBLK
  1

  9
$DIMASO
 70
     1
  9
$DIMSHO
 70
     1
  9
$DIMPOST
  1

  9
$DIMAPOST
  1

  9
$DIMALT
 70
     0
  9
$DIMALTD
 70
     2
  9
$DIMALTF
 40
25.4
  9
$DIMLFAC
 40
1.0
  9
$DIMTOFL
 70
     0
  9
$DIMTVP
 40
0.0
  9
$DIMTIX
 70
     0
  9
$DIMSOXD
 70
     0
  9
$DIMSAH
 70
     0
  9
$DIMBLK1
  1

  9
$DIMBLK2
  1

  9
$DIMSTYLE
  2
STANDARD
  9
$DIMCLRD
 70
     0
  9
$DIMCLRE
 70
     0
  9
$DIMCLRT
 70
     0
  9
$DIMTFAC
 40
1.0
  9
$DIMGAP
 40
0.09
  9
$DIMJUST
 70
     0
  9
$DIMSD1
 70
     0
  9
$DIMSD2
 70
     0
  9
$DIMTOLJ
 70
     1
  9
$DIMTZIN
 70
     0
  9
$DIMALTZ
 70
     0
  9
$DIMALTTZ
 70
     0
  9
$DIMUPT
 70
     0
  9
$DIMDEC
 70
     4
  9
$DIMTDEC
 70
     4
  9
$DIMALTU
 70
     2
  9
$DIMALTTD
 70
     2
  9
$DIMTXSTY
  7
STANDARD
  9
$DIMAUNIT
 70
     0
  9
$DIMADEC
 70
     0
  9
$DIMALTRND
 40
0.0
  9
$DIMAZIN
 70
     0
  9
$DIMDSEP
 70
    46
  9
$DIMATFIT
 70
     3
  9
$DIMFRAC
 70
     0
  9
$DIMLDRBLK
  1

  9
$DIMLUNIT
 70
     2
  9
$DIMLWD
 70
    -2
  9
$DIMLWE
 70
    -2
  9
$DIMTMOVE
 70
     0
  9
$LUNITS
 70
     2
  9
$LUPREC
 70
     4
  9
$SKETCHINC
 40
0.1
  9
$FILLETRAD
 40
0.0
  9
$AUNITS
 70
     0
  9
$AUPREC
 70
     0
  9
$MENU
  1
acad
  9
$ELEVATION
 40
0.0
  9
$PELEVATION
 40
0.0
  9
$THICKNESS
 40
0.0
  9
$LIMCHECK
 70
     0
  9
$CHAMFERA
 40
0.0
  9
$CHAMFERB
 40
0.0
  9
$CHAMFERC
 40
0.0
  9
$CHAMFERD
 40
0.0
  9
$SKPOLY
 70
     0
  9
$TDCREATE
 40
2457812.429456019
  9
$TDUCREATE
 40
2457812.054456018
  9
$TDUPDATE
 40
2457812.450254630
  9
$TDUUPDATE
 40
2457812.075254630
  9
$TDINDWG
 40
0.0003125000
  9
$TDUSRTIMER
 40
0.0003125000
  9
$USRTIMER
 70
     1
  9
$ANGBASE
 50
0.0
  9
$ANGDIR
 70
     0
  9
$PDMODE
 70
     1
  9
$PDSIZE
 40
-2.0
  9
$PLINEWID
 40
0.0
  9
$SPLFRAME
 70
     0
  9
$SPLINETYPE
 70
     6
  9
$SPLINESEGS
 70
     8
  9
$HANDSEED
  5
608
  9
$SURFTAB1
 70
     6
  9
$SURFTAB2
 70
     6
  9
$SURFTYPE
 70
     6
  9
$SURFU
 70
     6
  9
$SURFV
 70
     6
  9
$UCSBASE
  2

  9
$UCSNAME
  2

  9
$UCSORG
 10
0.0
 20
0.0
 30
0.0
  9
$UCSXDIR
 10
1.0
 20
0.0
 30
0.0
  9
$UCSYDIR
 10
0.0
 20
1.0
 30
0.0
  9
$UCSORTHOREF
  2

  9
$UCSORTHOVIEW
 70
     0
  9
$UCSORGTOP
 10
0.0
 20
0.0
 30
0.0
  9
$UCSORGBOTTOM
 10
0.0
 20
0.0
 30
0.0
  9
$UCSORGLEFT
 10
0.0
 20
0.0
 30
0.0
  9
$UCSORGRIGHT
 10
0.0
 20
0.0
 30
0.0
  9
$UCSORGFRONT
 10
0.0
 20
0.0
 30
0.0
  9
$UCSORGBACK
 10
0.0
 20
0.0
 30
0.0
  9
$PUCSBASE
  2

  9
$PUCSNAME
  2

  9
$PUCSORG
 10
0.0
 20
0.0
 30
0.0
  9
$PUCSXDIR
 10
1.0
 20
0.0
 30
0.0
  9
$PUCSYDIR
 10
0.0
 20
1.0
 30
0.0
  9
$PUCSORTHOREF
  2

  9
$PUCSORTHOVIEW
 70
     0
  9
$PUCSORGTOP
 10
0.0
 20
0.0
 30
0.0
  9
$PUCSORGBOTTOM
 10
0.0
 20
0.0
 30
0.0
  9
$PUCSORGLEFT
 10
0.0
 20
0.0
 30
0.0
  9
$PUCSORGRIGHT
 10
0.0
 20
0.0
 30
0.0
  9
$PUCSORGFRONT
 10
0.0
 20
0.0
 30
0.0
  9
$PUCSORGBACK
 10
0.0
 20
0.0
 30
0.0
  9
$USERI1
 70
     0
  9
$USERI2
 70
     0
  9
$USERI3
 70
     0
  9
$USERI4
 70
     0
  9
$USERI5
 70
     0
  9
$USERR1
 40
0.0
  9
$USERR2
 40
0.0
  9
$USERR3
 40
0.0
  9
$USERR4
 40
0.0
  9
$USERR5
 40
0.0
  9
$WORLDVIEW
 70
     1
  9
$SHADEDGE
 70
     3
  9
$SHADEDIF
 70
    70
  9
$TILEMODE
 70
     1
  9
$MAXACTVP
 70
    64
  9
$PINSBASE
 10
0.0
 20
0.0
 30
0.0
  9
$PLIMCHECK
 70
     0
  9
$PEXTMIN
 10
1.000000000000000E+20
 20
1.000000000000000E+20
 30
1.000000000000000E+20
  9
$PEXTMAX
 10
-1.000000000000000E+20
 20
-1.000000000000000E+20
 30
-1.000000000000000E+20
  9
$PLIMMIN
 10
0.0
 20
0.0
  9
$PLIMMAX
 10
12.0
 20
9.0
  9
$UNITMODE
 70
     0
  9
$VISRETAIN
 70
     0
  9
$PLINEGEN
 70
     1
  9
$PSLTSCALE
 70
     0
  9
$TREEDEPTH
 70
  3020
  9
$CMLSTYLE
  2
Standard
  9
$CMLJUST
 70
     0
  9
$CMLSCALE
 40
1.0
  9
$PROXYGRAPHICS
 70
     1
  9
$MEASUREMENT
 70
     0
  9
$CELWEIGHT
370
    -1
  9
$ENDCAPS
280
     0
  9
$JOINSTYLE
280
     0
  9
$LWDISPLAY
290
     0
  9
$INSUNITS
 70
     0
  9
$HYPERLINKBASE
  1

  9
$STYLESHEET
  1

  9
$XEDIT
290
     1
  9
$CEPSNTYPE
380
     0
  9
$PSTYLEMODE
290
     1
  9
$FINGERPRINTGUID
  2
{A5877006-7BBF-8F43-8ECD-DEAFBBDE3A70}
  9
$VERSIONGUID
  2
{E1E11E20-19E3-C444-B530-3AA9C549C289}
  9
$EXTNAMES
290
     1
  9
$PSVPSCALE
 40
0.0
  9
$OLESTARTUP
290
     0
  0
ENDSEC
  0
SECTION
  2
CLASSES
  0
CLASS
  1
ACDBDICTIONARYWDFLT
  2
AcDbDictionaryWithDefault
  3
ObjectDBX Classes
 90
        0
280
     0
281
     0
  0
CLASS
  1
MATERIAL
  2
AcDbMaterial
  3
ObjectDBX Classes
 90
     1153
280
     0
281
     0
  0
CLASS
  1
VISUALSTYLE
  2
AcDbVisualStyle
  3
ObjectDBX Classes
 90
     4095
280
     0
281
     0
  0
CLASS
  1
SCALE
  2
AcDbScale
  3
ObjectDBX Classes
 90
     1153
280
     0
281
     0
  0
CLASS
  1
TABLESTYLE
  2
AcDbTableStyle
  3
ObjectDBX Classes
 90
     4095
280
     0
281
     0
  0
CLASS
  1
MLEADERSTYLE
  2
AcDbMLeaderStyle
  3
ACDB_MLEADERSTYLE_CLASS
 90
     4095
280
     0
281
     0
  0
CLASS
  1
ACDBSECTIONVIEWSTYLE
  2
AcDbSectionViewStyle
  3
ObjectDBX Classes
 90
     1025
280
     0
281
     0
  0
CLASS
  1
ACDBDETAILVIEWSTYLE
  2
AcDbDetailViewStyle
  3
ObjectDBX Classes
 90
     1025
280
     0
281
     0
  0
CLASS
  1
DICTIONARYVAR
  2
AcDbDictionaryVar
  3
ObjectDBX Classes
 90
        0
280
     0
281
     0
  0
CLASS
  1
CELLSTYLEMAP
  2
AcDbCellStyleMap
  3
ObjectDBX Classes
 90
     1152
280
     0
281
     0
  0
CLASS
  1
ACDBPLACEHOLDER
  2
AcDbPlaceHolder
  3
ObjectDBX Classes
 90
        0
280
     0
281
     0
  0
CLASS
  1
LAYOUT
  2
AcDbLayout
  3
ObjectDBX Classes
 90
        0
280
     0
281
     0
  0
ENDSEC
  0
SECTION
  2
TABLES
  0
TABLE
  2
VPORT
  5
52E
330
0
100
AcDbSymbolTable
 70
     1
  0
VPORT
  5
59A
330
52E
100
AcDbSymbolTableRecord
100
AcDbViewportTableRecord
  2
*ACTIVE
 70
     0
 10
0.0
 20
0.0
 11
1.0
 21
1.0
 12
0.0000062864282881
 22
-7.657811619102631
 13
0.0
 23
0.0
 14
1.0
 24
1.0
 15
0.0
 25
0.0
 16
0.0
 26
0.0
 36
1.0
 17
0.0
 27
0.0
 37
0.0
 40
4036.794848875817
 41
2.358402971216341
 42
50.0
 43
0.0
 44
0.0
 50
0.0
 51
0.0
 71
     0
 72
  2000
 73
     1
 74
     1
 75
     0
 76
     0
 77
     0
 78
     0
281
     0
 65
     1
110
0.0
120
0.0
130
0.0
111
1.0
121
0.0
131
0.0
112
0.0
122
1.0
132
0.0
 79
     0
146
0.0
1001
ACAD_NAV_VCDISPLAY
1070
     3
  0
ENDTAB
  0
TABLE
  2
LTYPE
  5
52B
330
0
100
AcDbSymbolTable
 70
    12
  0
LTYPE
  5
580
330
52B
100
AcDbSymbolTableRecord
100
AcDbLinetypeTableRecord
  2
ByBlock
 70
     0
  3

 72
    65
 73
     0
 40
0.0
  0
LTYPE
  5
581
330
52B
100
AcDbSymbolTableRecord
100
AcDbLinetypeTableRecord
  2
ByLayer
 70
     0
  3

 72
    65
 73
     0
 40
0.0
  0
LTYPE
  5
582
330
52B
100
AcDbSymbolTableRecord
100
AcDbLinetypeTableRecord
  2
CONTINUOUS
 70
     0
  3
Solid line
 72
    65
 73
     0
 40
0.0
  0
LTYPE
  5
5A0
330
52B
100
AcDbSymbolTableRecord
100
AcDbLinetypeTableRecord
  2
STYLE_06
 70
     0
  3

 72
    65
 73
     4
 40
0.416656494140625
 49
0.25
 74
     0
 49
-0.08331298828125
 74
     0
 49
0.02777099609375
 74
     0
 49
-0.055572509765625
 74
     0
  0
ENDTAB
  0
TABLE
  2
LAYER
  5
528
330
0
100
AcDbSymbolTable
 70
     6
  0
LAYER
  5
57A
102
{ACAD_XDICTIONARY
360
5B0
102
}
330
528
100
AcDbSymbolTableRecord
100
AcDbLayerTableRecord
  2
0
 70
     0
 62
     7
  6
CONTINUOUS
370
    -3
390
535
  0
LAYER
  5
599
102
{ACAD_XDICTIONARY
360
5B2
102
}
330
528
100
AcDbSymbolTableRecord
100
AcDbLayerTableRecord
  2
DATA
 70
     0
 62
     7
  6
CONTINUOUS
370
    -3
390
535
  0
LAYER
  5
5A6
102
{ACAD_XDICTIONARY
360
5B4
102
}
330
528
100
AcDbSymbolTableRecord
100
AcDbLayerTableRecord
  2
HIBINO-BASE
 70
     0
 62
     7
  6
CONTINUOUS
370
    -3
390
535
  0
LAYER
  5
5A7
102
{ACAD_XDICTIONARY
360
5B6
102
}
330
528
100
AcDbSymbolTableRecord
100
AcDbLayerTableRecord
  2
PATTERN_FILL
 70
     0
 62
     7
  6
CONTINUOUS
370
    -3
390
535
  0
LAYER
  5
5A8
102
{ACAD_XDICTIONARY
360
5B8
102
}
330
528
100
AcDbSymbolTableRecord
100
AcDbLayerTableRecord
  2
SPEC
 70
     0
 62
     7
  6
CONTINUOUS
370
    -3
390
535
  0
LAYER
  5
5A9
102
{ACAD_XDICTIONARY
360
5BA
102
}
330
528
100
AcDbSymbolTableRecord
100
AcDbLayerTableRecord
  2
DIMNSIONS
 70
     0
 62
     7
  6
CONTINUOUS
370
    -3
390
535
  0
ENDTAB
  0
TABLE
  2
STYLE
  5
529
330
0
100
AcDbSymbolTable
 70
     3
  0
STYLE
  5
57B
330
529
100
AcDbSymbolTableRecord
100
AcDbTextStyleTableRecord
  2
STANDARD
 70
     0
 40
0.0
 41
1.0
 50
0.0
 71
     0
 42
0.0
  3
txt
  4
BIGFONT.SHX
  0
ENDTAB
  0
TABLE
  2
VIEW
  5
52C
330
0
100
AcDbSymbolTable
 70
     0
  0
ENDTAB
  0
TABLE
  2
UCS
  5
52D
330
0
100
AcDbSymbolTable
 70
     0
  0
ENDTAB
  0
TABLE
  2
APPID
  5
52F
330
0
100
AcDbSymbolTable
 70
     4
  0
APPID
  5
57C
330
52F
100
AcDbSymbolTableRecord
100
AcDbRegAppTableRecord
  2
ACAD
 70
     0
  0
APPID
  5
583
330
52F
100
AcDbSymbolTableRecord
100
AcDbRegAppTableRecord
  2
AcadAnnotative
 70
     0
  0
APPID
  5
5C6
330
52F
100
AcDbSymbolTableRecord
100
AcDbRegAppTableRecord
  2
ACAD_NAV_VCDISPLAY
 70
     0
  0
APPID
  5
5FF
330
52F
100
AcDbSymbolTableRecord
100
AcDbRegAppTableRecord
  2
ACAD_MLEADERVER
 70
     0
  0
ENDTAB
  0
TABLE
  2
DIMSTYLE
  5
530
330
0
100
AcDbSymbolTable
 70
     2
100
AcDbDimStyleTable
 71
     0
  0
DIMSTYLE
105
57D
330
530
100
AcDbSymbolTableRecord
100
AcDbDimStyleTableRecord
  2
STANDARD
 70
     0
279
     2
340
57B
  0
ENDTAB
  0
TABLE
  2
BLOCK_RECORD
  5
527
330
0
100
AcDbSymbolTable
 70
     0
  0
BLOCK_RECORD
  5
595
330
527
100
AcDbSymbolTableRecord
100
AcDbBlockTableRecord
  2
*Model_Space
340
598
  0
BLOCK_RECORD
  5
591
330
527
100
AcDbSymbolTableRecord
100
AcDbBlockTableRecord
  2
*Paper_Space
340
594
  0
ENDTAB
  0
ENDSEC
  0
SECTION
  2
BLOCKS
  0
BLOCK
  5
596
330
595
100
AcDbEntity
  8
0
100
AcDbBlockBegin
  2
*Model_Space
 70
     0
 10
0.0
 20
0.0
 30
0.0
  3
*Model_Space
  1

  0
ENDBLK
  5
597
330
595
100
AcDbEntity
  8
0
100
AcDbBlockEnd
  0
BLOCK
  5
592
330
591
100
AcDbEntity
 67
     1
  8
0
100
AcDbBlockBegin
  2
*Paper_Space
 70
     0
 10
0.0
 20
0.0
 30
0.0
  3
*Paper_Space
  1

  0
ENDBLK
  5
593
330
591
100
AcDbEntity
 67
     1
  8
0
100
AcDbBlockEnd
  0
ENDSEC
  0
SECTION
  2
ENTITIES
  0
LINE
  5
2E
330
595
100
AcDbEntity
  8
HIBINO-BASE
  6
Continuous
 62
     7
100
AcDbLine
 10
-1350.0
 20
1999.44541
 30
0.0
 11
1350.0
 21
1999.44541
 31
0.0
  0
LINE
  5
2F
330
595
100
AcDbEntity
  8
HIBINO-BASE
  6
Continuous
 62
     7
100
AcDbLine
 10
1350.0
 20
-1900.554590000001
 30
0.0
 11
-1350.0
 21
-1900.554590000001
 31
0.0
  0
LINE
  5
30
330
595
100
AcDbEntity
  8
HIBINO-BASE
  6
Continuous
 62
     7
100
AcDbLine
 10
-1350.0
 20
-1900.554590000001
 30
0.0
 11
-1350.0
 21
1999.44541
 31
0.0
  0
LINE
  5
31
330
595
100
AcDbEntity
  8
HIBINO-BASE
  6
Continuous
 62
     7
100
AcDbLine
 10
1350.0
 20
1999.44541
 30
0.0
 11
1350.0
 21
-1900.554590000001
 31
0.0
  0
LINE
  5
32
330
595
100
AcDbEntity
  8
HIBINO-BASE
  6
Continuous
 62
     7
100
AcDbLine
 10
0.0000000000001066
 20
-1563.054590000001
 30
0.0
 11
1350.0
 21
-1563.054590000001
 31
0.0
  0
LINE
  5
33
330
595
100
AcDbEntity
  8
HIBINO-BASE
  6
Continuous
 62
     7
100
AcDbLine
 10
0.0000000000001066
 20
-1900.554590000001
 30
0.0
 11
0.0000000000001066
 21
-1563.054590000001
 31
0.0
  0
TEXT
  5
34
330
595
100
AcDbEntity
  8
HIBINO-BASE
 62
     7
100
AcDbText
 10
13.50000000000019
 20
-1600.68499
 30
0.0
 40
24.4326171875
  1
NOTE
 41
0.7
 11
13.50000000000019
 21
-1576.2523728125
 31
0.0
100
AcDbText
 73
     3
  0
LINE
  5
35
330
595
100
AcDbEntity
  8
HIBINO-BASE
  6
Continuous
 62
     7
100
AcDbLine
 10
525.0000000000003
 20
-1900.554590000001
 30
0.0
 11
525.0000000000003
 21
-1563.054590000001
 31
0.0
  0
TEXT
  5
36
330
595
100
AcDbEntity
  8
HIBINO-BASE
 62
     7
100
AcDbText
 10
538.4999999999999
 20
-1600.68499
 30
0.0
 40
24.4326171875
  1
TITLE
 41
0.7
 11
538.4999999999999
 21
-1576.2523728125
 31
0.0
100
AcDbText
 73
     3
  0
LINE
  5
37
330
595
100
AcDbEntity
  8
HIBINO-BASE
  6
Continuous
 62
     7
100
AcDbLine
 10
0.0000000000001066
 20
-1750.554590000001
 30
0.0
 11
1350.0
 21
-1750.554590000001
 31
0.0
  0
TEXT
  5
38
330
595
100
AcDbEntity
  8
HIBINO-BASE
 62
     7
100
AcDbText
 10
726.0
 20
-1787.34019
 30
0.0
 40
24.4326171875
  1
DRAWN
 41
0.7
 11
726.0
 21
-1762.9075728125
 31
0.0
100
AcDbText
 73
     3
  0
TEXT
  5
39
330
595
100
AcDbEntity
  8
HIBINO-BASE
 62
     7
100
AcDbText
 10
351.0
 20
-1787.34019
 30
0.0
 40
24.4326171875
  1
DATE
 41
0.7
 11
351.0
 21
-1762.9075728125
 31
0.0
100
AcDbText
 73
     3
  0
TEXT
  5
3A
330
595
100
AcDbEntity
  8
HIBINO-BASE
 62
     7
100
AcDbText
 10
201.0
 20
-1787.34019
 30
0.0
 40
24.4326171875
  1
SCALE
 41
0.7
 11
201.0
 21
-1762.9075728125
 31
0.0
100
AcDbText
 73
     3
  0
TEXT
  5
3B
330
595
100
AcDbEntity
  8
HIBINO-BASE
 62
     7
100
AcDbText
 10
538.4999999999999
 20
-1787.34019
 30
0.0
 40
24.4326171875
  1
DESIGN
 41
0.7
 11
538.4999999999999
 21
-1762.9075728125
 31
0.0
100
AcDbText
 73
     3
  0
TEXT
  5
3C
330
595
100
AcDbEntity
  8
HIBINO-BASE
 62
     7
100
AcDbText
 10
1100.999999999999
 20
-1787.34019
 30
0.0
 40
24.4326171875
  1
DRAWING NO.
 41
0.7
 11
1100.999999999999
 21
-1762.9075728125
 31
0.0
100
AcDbText
 73
     3
  0
TEXT
  5
3D
330
595
100
AcDbEntity
  8
HIBINO-BASE
 62
     7
100
AcDbText
 10
913.4999999999999
 20
-1787.34019
 30
0.0
 40
24.4326171875
  1
CHECK
 41
0.7
 11
913.4999999999999
 21
-1762.9075728125
 31
0.0
100
AcDbText
 73
     3
  0
LINE
  5
3E
330
595
100
AcDbEntity
  8
HIBINO-BASE
  6
Continuous
 62
     7
100
AcDbLine
 10
215.6250000000001
 20
-1881.804590000001
 30
0.0
 11
271.8750000000004
 21
-1825.554590000001
 31
0.0
  0
TEXT
  5
3F
330
595
100
AcDbEntity
  8
HIBINO-BASE
 62
     7
100
AcDbText
 10
206.2500000000001
 20
-1842.18874
 30
0.0
 40
24.4326171875
  1
1
 41
0.7
 11
206.2500000000001
 21
-1817.7561228125
 31
0.0
100
AcDbText
 73
     3
  0
LINE
  5
40
330
595
100
AcDbEntity
  8
HIBINO-BASE
  6
Continuous
 62
     7
100
AcDbLine
 10
187.5000000000001
 20
-1900.554590000001
 30
0.0
 11
187.5000000000001
 21
-1750.554590000001
 31
0.0
  0
LINE
  5
41
330
595
100
AcDbEntity
  8
HIBINO-BASE
  6
Continuous
 62
     7
100
AcDbLine
 10
337.4999999999999
 20
-1900.554590000001
 30
0.0
 11
337.4999999999999
 21
-1750.554590000001
 31
0.0
  0
LINE
  5
42
330
595
100
AcDbEntity
  8
HIBINO-BASE
  6
Continuous
 62
     7
100
AcDbLine
 10
712.4999999999996
 20
-1750.554590000001
 30
0.0
 11
712.4999999999996
 21
-1900.554590000001
 31
0.0
  0
LINE
  5
43
330
595
100
AcDbEntity
  8
HIBINO-BASE
  6
Continuous
 62
     7
100
AcDbLine
 10
1087.5
 20
-1750.554590000001
 30
0.0
 11
1087.5
 21
-1900.554590000001
 31
0.0
  0
LINE
  5
44
330
595
100
AcDbEntity
  8
HIBINO-BASE
  6
Continuous
 62
     7
100
AcDbLine
 10
899.9999999999996
 20
-1900.554590000001
 30
0.0
 11
899.9999999999996
 21
-1750.554590000001
 31
0.0
  0
TEXT
  5
45
330
595
100
AcDbEntity
  8
HIBINO-BASE
 62
     7
100
AcDbText
 10
350.3481000000002
 20
-1857.59989
 30
0.0
 40
24.4326171875
  1
'17.01.
 41
0.7
 11
350.3481000000002
 21
-1833.1672728125
 31
0.0
100
AcDbText
 73
     3
  0
TEXT
  5
46
330
595
100
AcDbEntity
  8
HIBINO-BASE
 62
     7
100
AcDbText
 10
262.5
 20
-1870.31374
 30
0.0
 40
24.4326171875
  1
15
 41
0.7
 11
262.5
 21
-1845.8811228125
 31
0.0
100
AcDbText
 73
     3
  0
TEXT
  5
47
330
595
100
AcDbEntity
  8
HIBINO-BASE
 62
     7
100
AcDbText
 10
735.0871501655194
 20
-1857.59989
 30
0.0
 40
24.4326171875
  1
N.Sasaki
 41
0.7
 11
735.0871501655194
 21
-1833.1672728125
 31
0.0
100
AcDbText
 73
     3
  0
TEXT
  5
48
330
595
100
AcDbEntity
  8
HIBINO-BASE
 62
     7
100
AcDbText
 10
58.25000000000041
 20
-1870.91459
 30
0.0
 40
48.86523437499999
  1
A4
 41
0.7
 11
58.25000000000041
 21
-1822.049355625
 31
0.0
100
AcDbText
 73
     3
  0
TEXT
  5
49
330
595
100
AcDbEntity
  8
HIBINO-BASE
 62
     7
100
AcDbText
 10
14.37500000000003
 20
-1789.846415
 30
0.0
 40
24.4326171875
  1
PAPER SIZE
 41
0.7
 11
14.37500000000003
 21
-1765.4137978125
 31
0.0
100
AcDbText
 73
     3
  0
TEXT
  5
4A
330
595
100
AcDbEntity
  8
HIBINO-BASE
 62
     7
100
AcDbText
 10
-1242.24
 20
-1996.684757
 30
0.0
 40
54.00066269531249
  1
Hibino Corporation
 41
0.7
 11
-1242.24
 21
-1942.684094304688
 31
0.0
100
AcDbText
 73
     3
  0
TEXT
  5
4B
330
595
100
AcDbEntity
  8
HIBINO-BASE
 62
     7
100
AcDbText
 10
751.02585
 20
-1996.684757
 30
0.0
 40
54.00066269531249
  1
ヒビノ株式会社
 41
0.7
 11
751.02585
 21
-1942.684094304688
 31
0.0
100
AcDbText
 73
     3
  0
CIRCLE
  5
4C
330
595
100
AcDbEntity
  8
PATTERN_FILL
  6
Continuous
 62
     7
100
AcDbCircle
 10
-661.0999999999944
 20
-1222.409565906671
 30
0.0
 40
3.15000000000009
  0
CIRCLE
  5
4D
330
595
100
AcDbEntity
  8
PATTERN_FILL
  6
Continuous
 62
     7
100
AcDbCircle
 10
-667.9999999999945
 20
-1226.393282764078
 30
0.0
 40
3.15000000000009
  0
CIRCLE
  5
4E
330
595
100
AcDbEntity
  8
PATTERN_FILL
  6
Continuous
 62
     7
100
AcDbCircle
 10
-647.2999999999947
 20
-1222.409565906671
 30
0.0
 40
3.15000000000009
  0
CIRCLE
  5
4F
330
595
100
AcDbEntity
  8
PATTERN_FILL
  6
Continuous
 62
     7
100
AcDbCircle
 10
-654.1999999999943
 20
-1218.425849049263
 30
0.0
 40
3.15000000000009
  0
CIRCLE
  5
50
330
595
100
AcDbEntity
  8
PATTERN_FILL
  6
Continuous
 62
     7
100
AcDbCircle
 10
-654.1999999999943
 20
-1226.393282764078
 30
0.0
 40
3.15000000000009
  0
ARC
  5
51
330
595
100
AcDbEntity
  8
PATTERN_FILL
  6
Continuous
 62
     7
100
AcDbCircle
 10
-598.6299787143866
 20
-1271.925792546213
 30
0.0
 40
87.8041332274909
100
AcDbArc
 50
92.88749893611445
 51
152.1934313269809
  0
ARC
  5
52
330
595
100
AcDbEntity
  8
PATTERN_FILL
  6
Continuous
 62
     7
100
AcDbCircle
 10
-674.8999999999945
 20
-1230.376999621486
 30
0.0
 40
3.150000000000241
100
AcDbArc
 50
349.2020899531445
 51
78.0097683200123
  0
ARC
  5
53
330
595
100
AcDbEntity
  8
PATTERN_FILL
  6
Continuous
 62
     7
100
AcDbCircle
 10
-661.0999999999944
 20
-1230.376999621486
 30
0.0
 40
3.150000000000308
100
AcDbArc
 50
349.5016072789251
 51
189.6077794772787
  0
ARC
  5
54
330
595
100
AcDbEntity
  8
PATTERN_FILL
  6
Continuous
 62
     7
100
AcDbCircle
 10
-647.2999999999936
 20
-1230.376999621486
 30
0.0
 40
3.150000000000004
100
AcDbArc
 50
349.5016072799084
 51
190.5204548038797
  0
CIRCLE
  5
55
330
595
100
AcDbEntity
  8
PATTERN_FILL
  6
Continuous
 62
     7
100
AcDbCircle
 10
-654.1999999999943
 20
-1210.458415334448
 30
0.0
 40
3.15000000000009
  0
CIRCLE
  5
56
330
595
100
AcDbEntity
  8
PATTERN_FILL
  6
Continuous
 62
     7
100
AcDbCircle
 10
-640.3999999999951
 20
-1218.425849049263
 30
0.0
 40
3.15000000000009
  0
CIRCLE
  5
57
330
595
100
AcDbEntity
  8
PATTERN_FILL
  6
Continuous
 62
     7
100
AcDbCircle
 10
-640.3999999999951
 20
-1210.458415334448
 30
0.0
 40
3.15000000000009
  0
CIRCLE
  5
58
330
595
100
AcDbEntity
  8
PATTERN_FILL
  6
Continuous
 62
     7
100
AcDbCircle
 10
-647.2999999999943
 20
-1214.442132191856
 30
0.0
 40
3.15000000000009
  0
CIRCLE
  5
59
330
595
100
AcDbEntity
  8
PATTERN_FILL
  6
Continuous
 62
     7
100
AcDbCircle
 10
-647.2999999999943
 20
-1206.47469847704
 30
0.0
 40
3.15000000000009
  0
CIRCLE
  5
5A
330
595
100
AcDbEntity
  8
PATTERN_FILL
  6
Continuous
 62
     7
100
AcDbCircle
 10
-640.3999999999951
 20
-1202.490981619633
 30
0.0
 40
3.15000000000009
  0
CIRCLE
  5
5B
330
595
100
AcDbEntity
  8
PATTERN_FILL
  6
Continuous
 62
     7
100
AcDbCircle
 10
-640.3999999999951
 20
-1226.393282764078
 30
0.0
 40
3.15000000000009
  0
ARC
  5
5C
330
595
100
AcDbEntity
  8
PATTERN_FILL
  6
Continuous
 62
     7
100
AcDbCircle
 10
-633.499999999995
 20
-1230.376999621486
 30
0.0
 40
3.150000000000086
100
AcDbArc
 50
349.5016072799003
 51
190.4983927200997
  0
CIRCLE
  5
5D
330
595
100
AcDbEntity
  8
PATTERN_FILL
  6
Continuous
 62
     7
100
AcDbCircle
 10
-633.4999999999954
 20
-1222.409565906671
 30
0.0
 40
3.15000000000009
  0
CIRCLE
  5
5E
330
595
100
AcDbEntity
  8
PATTERN_FILL
  6
Continuous
 62
     7
100
AcDbCircle
 10
-633.4999999999959
 20
-1214.442132191856
 30
0.0
 40
3.15000000000009
  0
CIRCLE
  5
5F
330
595
100
AcDbEntity
  8
PATTERN_FILL
  6
Continuous
 62
     7
100
AcDbCircle
 10
-633.4999999999959
 20
-1206.47469847704
 30
0.0
 40
3.15000000000009
  0
CIRCLE
  5
60
330
595
100
AcDbEntity
  8
PATTERN_FILL
  6
Continuous
 62
     7
100
AcDbCircle
 10
-633.4999999999959
 20
-1198.507264762226
 30
0.0
 40
3.15000000000009
  0
CIRCLE
  5
61
330
595
100
AcDbEntity
  8
PATTERN_FILL
  6
Continuous
 62
     7
100
AcDbCircle
 10
-619.6999999999969
 20
-1222.409565906671
 30
0.0
 40
3.15000000000009
  0
ARC
  5
62
330
595
100
AcDbEntity
  8
PATTERN_FILL
  6
Continuous
 62
     7
100
AcDbCircle
 10
-619.699999999998
 20
-1230.376999621486
 30
0.0
 40
3.150000000000654
100
AcDbArc
 50
349.5016072792544
 51
189.8940662909117
  0
CIRCLE
  5
63
330
595
100
AcDbEntity
  8
PATTERN_FILL
  6
Continuous
 62
     7
100
AcDbCircle
 10
-626.5999999999967
 20
-1218.425849049263
 30
0.0
 40
3.15000000000009
  0
CIRCLE
  5
64
330
595
100
AcDbEntity
  8
PATTERN_FILL
  6
Continuous
 62
     7
100
AcDbCircle
 10
-626.5999999999967
 20
-1210.458415334448
 30
0.0
 40
3.15000000000009
  0
CIRCLE
  5
65
330
595
100
AcDbEntity
  8
PATTERN_FILL
  6
Continuous
 62
     7
100
AcDbCircle
 10
-619.6999999999976
 20
-1214.442132191856
 30
0.0
 40
3.15000000000009
  0
CIRCLE
  5
66
330
595
100
AcDbEntity
  8
PATTERN_FILL
  6
Continuous
 62
     7
100
AcDbCircle
 10
-619.6999999999976
 20
-1206.47469847704
 30
0.0
 40
3.15000000000009
  0
CIRCLE
  5
67
330
595
100
AcDbEntity
  8
PATTERN_FILL
  6
Continuous
 62
     7
100
AcDbCircle
 10
-626.5999999999967
 20
-1202.490981619633
 30
0.0
 40
3.15000000000009
  0
CIRCLE
  5
68
330
595
100
AcDbEntity
  8
PATTERN_FILL
  6
Continuous
 62
     7
100
AcDbCircle
 10
-619.6999999999976
 20
-1198.507264762226
 30
0.0
 40
3.15000000000009
  0
CIRCLE
  5
69
330
595
100
AcDbEntity
  8
PATTERN_FILL
  6
Continuous
 62
     7
100
AcDbCircle
 10
-626.5999999999967
 20
-1226.393282764078
 30
0.0
 40
3.15000000000009
  0
CIRCLE
  5
6A
330
595
100
AcDbEntity
  8
PATTERN_FILL
  6
Continuous
 62
     7
100
AcDbCircle
 10
-626.5999999999967
 20
-1194.523547904818
 30
0.0
 40
3.15000000000009
  0
CIRCLE
  5
6B
330
595
100
AcDbEntity
  8
PATTERN_FILL
  6
Continuous
 62
     7
100
AcDbCircle
 10
-619.6999999999976
 20
-1190.53983104741
 30
0.0
 40
3.15000000000009
  0
ARC
  5
6C
330
595
100
AcDbEntity
  8
PATTERN_FILL
  6
Continuous
 62
     7
100
AcDbCircle
 10
-605.9000000000001
 20
-1230.376999621486
 30
0.0
 40
3.150000000000242
100
AcDbArc
 50
348.453370164865
 51
190.5204548039081
  0
CIRCLE
  5
6D
330
595
100
AcDbEntity
  8
PATTERN_FILL
  6
Continuous
 62
     7
100
AcDbCircle
 10
-605.8999999999996
 20
-1222.409565906671
 30
0.0
 40
3.15000000000009
  0
CIRCLE
  5
6E
330
595
100
AcDbEntity
  8
PATTERN_FILL
  6
Continuous
 62
     7
100
AcDbCircle
 10
-605.8999999999992
 20
-1214.442132191856
 30
0.0
 40
3.15000000000009
  0
CIRCLE
  5
6F
330
595
100
AcDbEntity
  8
PATTERN_FILL
  6
Continuous
 62
     7
100
AcDbCircle
 10
-605.8999999999992
 20
-1206.47469847704
 30
0.0
 40
3.15000000000009
  0
CIRCLE
  5
70
330
595
100
AcDbEntity
  8
PATTERN_FILL
  6
Continuous
 62
     7
100
AcDbCircle
 10
-605.8999999999992
 20
-1198.507264762226
 30
0.0
 40
3.15000000000009
  0
CIRCLE
  5
71
330
595
100
AcDbEntity
  8
PATTERN_FILL
  6
Continuous
 62
     7
100
AcDbCircle
 10
-605.8999999999992
 20
-1190.53983104741
 30
0.0
 40
3.15000000000009
  0
CIRCLE
  5
72
330
595
100
AcDbEntity
  8
PATTERN_FILL
  6
Continuous
 62
     7
100
AcDbCircle
 10
-612.7999999999984
 20
-1218.425849049263
 30
0.0
 40
3.15000000000009
  0
CIRCLE
  5
73
330
595
100
AcDbEntity
  8
PATTERN_FILL
  6
Continuous
 62
     7
100
AcDbCircle
 10
-612.7999999999984
 20
-1210.458415334448
 30
0.0
 40
3.15000000000009
  0
CIRCLE
  5
74
330
595
100
AcDbEntity
  8
PATTERN_FILL
  6
Continuous
 62
     7
100
AcDbCircle
 10
-612.7999999999984
 20
-1202.490981619633
 30
0.0
 40
3.15000000000009
  0
CIRCLE
  5
75
330
595
100
AcDbEntity
  8
PATTERN_FILL
  6
Continuous
 62
     7
100
AcDbCircle
 10
-612.7999999999984
 20
-1226.393282764078
 30
0.0
 40
3.15000000000009
  0
CIRCLE
  5
76
330
595
100
AcDbEntity
  8
PATTERN_FILL
  6
Continuous
 62
     7
100
AcDbCircle
 10
-612.7999999999984
 20
-1194.523547904818
 30
0.0
 40
3.15000000000009
  0
CIRCLE
  5
77
330
595
100
AcDbEntity
  8
PATTERN_FILL
  6
Continuous
 62
     7
100
AcDbCircle
 10
-571.4000000000033
 20
-1218.425849049263
 30
0.0
 40
3.15000000000009
  0
CIRCLE
  5
78
330
595
100
AcDbEntity
  8
PATTERN_FILL
  6
Continuous
 62
     7
100
AcDbCircle
 10
-571.4000000000033
 20
-1210.458415334448
 30
0.0
 40
3.15000000000009
  0
CIRCLE
  5
79
330
595
100
AcDbEntity
  8
PATTERN_FILL
  6
Continuous
 62
     7
100
AcDbCircle
 10
-571.4000000000033
 20
-1202.490981619633
 30
0.0
 40
3.15000000000009
  0
ARC
  5
7A
330
595
100
AcDbEntity
  8
PATTERN_FILL
  6
Continuous
 62
     7
100
AcDbCircle
 10
-578.3000000000034
 20
-1230.376999621486
 30
0.0
 40
3.149999999999861
100
AcDbArc
 50
349.5016072789236
 51
189.8940662909348
  0
CIRCLE
  5
7B
330
595
100
AcDbEntity
  8
PATTERN_FILL
  6
Continuous
 62
     7
100
AcDbCircle
 10
-571.4000000000033
 20
-1194.523547904818
 30
0.0
 40
3.15000000000009
  0
CIRCLE
  5
7C
330
595
100
AcDbEntity
  8
PATTERN_FILL
  6
Continuous
 62
     7
100
AcDbCircle
 10
-578.3000000000028
 20
-1222.409565906671
 30
0.0
 40
3.15000000000009
  0
CIRCLE
  5
7D
330
595
100
AcDbEntity
  8
PATTERN_FILL
  6
Continuous
 62
     7
100
AcDbCircle
 10
-578.3000000000026
 20
-1214.442132191856
 30
0.0
 40
3.15000000000009
  0
CIRCLE
  5
7E
330
595
100
AcDbEntity
  8
PATTERN_FILL
  6
Continuous
 62
     7
100
AcDbCircle
 10
-578.3000000000026
 20
-1206.47469847704
 30
0.0
 40
3.15000000000009
  0
CIRCLE
  5
7F
330
595
100
AcDbEntity
  8
PATTERN_FILL
  6
Continuous
 62
     7
100
AcDbCircle
 10
-578.3000000000026
 20
-1198.507264762226
 30
0.0
 40
3.15000000000009
  0
CIRCLE
  5
80
330
595
100
AcDbEntity
  8
PATTERN_FILL
  6
Continuous
 62
     7
100
AcDbCircle
 10
-578.3000000000026
 20
-1190.53983104741
 30
0.0
 40
3.15000000000009
  0
CIRCLE
  5
81
330
595
100
AcDbEntity
  8
PATTERN_FILL
  6
Continuous
 62
     7
100
AcDbCircle
 10
-592.1000000000012
 20
-1222.409565906671
 30
0.0
 40
3.15000000000009
  0
ARC
  5
82
330
595
100
AcDbEntity
  8
PATTERN_FILL
  6
Continuous
 62
     7
100
AcDbCircle
 10
-592.1000000000003
 20
-1230.376999621486
 30
0.0
 40
3.150000000000064
100
AcDbArc
 50
349.5016072795848
 51
191.2304313572845
  0
CIRCLE
  5
83
330
595
100
AcDbEntity
  8
PATTERN_FILL
  6
Continuous
 62
     7
100
AcDbCircle
 10
-585.2000000000016
 20
-1218.425849049263
 30
0.0
 40
3.15000000000009
  0
CIRCLE
  5
84
330
595
100
AcDbEntity
  8
PATTERN_FILL
  6
Continuous
 62
     7
100
AcDbCircle
 10
-585.2000000000016
 20
-1210.458415334448
 30
0.0
 40
3.15000000000009
  0
CIRCLE
  5
85
330
595
100
AcDbEntity
  8
PATTERN_FILL
  6
Continuous
 62
     7
100
AcDbCircle
 10
-592.1000000000008
 20
-1214.442132191856
 30
0.0
 40
3.15000000000009
  0
CIRCLE
  5
86
330
595
100
AcDbEntity
  8
PATTERN_FILL
  6
Continuous
 62
     7
100
AcDbCircle
 10
-592.1000000000008
 20
-1206.47469847704
 30
0.0
 40
3.15000000000009
  0
CIRCLE
  5
87
330
595
100
AcDbEntity
  8
PATTERN_FILL
  6
Continuous
 62
     7
100
AcDbCircle
 10
-585.2000000000016
 20
-1202.490981619633
 30
0.0
 40
3.15000000000009
  0
CIRCLE
  5
88
330
595
100
AcDbEntity
  8
PATTERN_FILL
  6
Continuous
 62
     7
100
AcDbCircle
 10
-592.1000000000008
 20
-1198.507264762226
 30
0.0
 40
3.15000000000009
  0
CIRCLE
  5
89
330
595
100
AcDbEntity
  8
PATTERN_FILL
  6
Continuous
 62
     7
100
AcDbCircle
 10
-585.2000000000016
 20
-1194.523547904818
 30
0.0
 40
3.15000000000009
  0
CIRCLE
  5
8A
330
595
100
AcDbEntity
  8
PATTERN_FILL
  6
Continuous
 62
     7
100
AcDbCircle
 10
-585.2000000000016
 20
-1186.556114190003
 30
0.0
 40
3.15000000000009
  0
CIRCLE
  5
8B
330
595
100
AcDbEntity
  8
PATTERN_FILL
  6
Continuous
 62
     7
100
AcDbCircle
 10
-592.1000000000008
 20
-1190.53983104741
 30
0.0
 40
3.15000000000009
  0
CIRCLE
  5
8C
330
595
100
AcDbEntity
  8
PATTERN_FILL
  6
Continuous
 62
     7
100
AcDbCircle
 10
-599.0
 20
-1218.425849049263
 30
0.0
 40
3.15000000000009
  0
CIRCLE
  5
8D
330
595
100
AcDbEntity
  8
PATTERN_FILL
  6
Continuous
 62
     7
100
AcDbCircle
 10
-599.0
 20
-1210.458415334448
 30
0.0
 40
3.15000000000009
  0
CIRCLE
  5
8E
330
595
100
AcDbEntity
  8
PATTERN_FILL
  6
Continuous
 62
     7
100
AcDbCircle
 10
-599.0
 20
-1202.490981619633
 30
0.0
 40
3.15000000000009
  0
CIRCLE
  5
8F
330
595
100
AcDbEntity
  8
PATTERN_FILL
  6
Continuous
 62
     7
100
AcDbCircle
 10
-599.0
 20
-1194.523547904818
 30
0.0
 40
3.15000000000009
  0
ARC
  5
90
330
595
100
AcDbEntity
  8
PATTERN_FILL
  6
Continuous
 62
     7
100
AcDbCircle
 10
-564.5000000000033
 20
-1230.376999621486
 30
0.0
 40
3.150000000000046
100
AcDbArc
 50
350.1059337090651
 51
190.4983927210763
  0
CIRCLE
  5
91
330
595
100
AcDbEntity
  8
PATTERN_FILL
  6
Continuous
 62
     7
100
AcDbCircle
 10
-564.5000000000036
 20
-1222.409565906671
 30
0.0
 40
3.15000000000009
  0
CIRCLE
  5
92
330
595
100
AcDbEntity
  8
PATTERN_FILL
  6
Continuous
 62
     7
100
AcDbCircle
 10
-564.5000000000041
 20
-1214.442132191856
 30
0.0
 40
3.15000000000009
  0
CIRCLE
  5
93
330
595
100
AcDbEntity
  8
PATTERN_FILL
  6
Continuous
 62
     7
100
AcDbCircle
 10
-564.5000000000041
 20
-1206.47469847704
 30
0.0
 40
3.15000000000009
  0
CIRCLE
  5
94
330
595
100
AcDbEntity
  8
PATTERN_FILL
  6
Continuous
 62
     7
100
AcDbCircle
 10
-564.5000000000041
 20
-1198.507264762226
 30
0.0
 40
3.15000000000009
  0
CIRCLE
  5
95
330
595
100
AcDbEntity
  8
PATTERN_FILL
  6
Continuous
 62
     7
100
AcDbCircle
 10
-564.5000000000041
 20
-1190.53983104741
 30
0.0
 40
3.15000000000009
  0
CIRCLE
  5
96
330
595
100
AcDbEntity
  8
PATTERN_FILL
  6
Continuous
 62
     7
100
AcDbCircle
 10
-550.7000000000052
 20
-1222.409565906671
 30
0.0
 40
3.15000000000009
  0
ARC
  5
97
330
595
100
AcDbEntity
  8
PATTERN_FILL
  6
Continuous
 62
     7
100
AcDbCircle
 10
-550.7000000000061
 20
-1230.376999621486
 30
0.0
 40
3.149999999999902
100
AcDbArc
 50
348.7695686427154
 51
190.4983927204153
  0
CIRCLE
  5
98
330
595
100
AcDbEntity
  8
PATTERN_FILL
  6
Continuous
 62
     7
100
AcDbCircle
 10
-557.6000000000049
 20
-1218.425849049263
 30
0.0
 40
3.15000000000009
  0
CIRCLE
  5
99
330
595
100
AcDbEntity
  8
PATTERN_FILL
  6
Continuous
 62
     7
100
AcDbCircle
 10
-557.6000000000049
 20
-1210.458415334448
 30
0.0
 40
3.15000000000009
  0
CIRCLE
  5
9A
330
595
100
AcDbEntity
  8
PATTERN_FILL
  6
Continuous
 62
     7
100
AcDbCircle
 10
-550.7000000000057
 20
-1214.442132191856
 30
0.0
 40
3.15000000000009
  0
CIRCLE
  5
9B
330
595
100
AcDbEntity
  8
PATTERN_FILL
  6
Continuous
 62
     7
100
AcDbCircle
 10
-550.7000000000057
 20
-1206.47469847704
 30
0.0
 40
3.15000000000009
  0
CIRCLE
  5
9C
330
595
100
AcDbEntity
  8
PATTERN_FILL
  6
Continuous
 62
     7
100
AcDbCircle
 10
-557.6000000000049
 20
-1202.490981619633
 30
0.0
 40
3.15000000000009
  0
CIRCLE
  5
9D
330
595
100
AcDbEntity
  8
PATTERN_FILL
  6
Continuous
 62
     7
100
AcDbCircle
 10
-550.7000000000057
 20
-1198.507264762226
 30
0.0
 40
3.15000000000009
  0
CIRCLE
  5
9E
330
595
100
AcDbEntity
  8
PATTERN_FILL
  6
Continuous
 62
     7
100
AcDbCircle
 10
-557.6000000000049
 20
-1226.393282764078
 30
0.0
 40
3.15000000000009
  0
CIRCLE
  5
9F
330
595
100
AcDbEntity
  8
PATTERN_FILL
  6
Continuous
 62
     7
100
AcDbCircle
 10
-557.6000000000049
 20
-1194.523547904818
 30
0.0
 40
3.15000000000009
  0
CIRCLE
  5
A0
330
595
100
AcDbEntity
  8
PATTERN_FILL
  6
Continuous
 62
     7
100
AcDbCircle
 10
-557.6000000000049
 20
-1186.556114190003
 30
0.0
 40
3.15000000000009
  0
CIRCLE
  5
A1
330
595
100
AcDbEntity
  8
PATTERN_FILL
  6
Continuous
 62
     7
100
AcDbCircle
 10
-550.7000000000057
 20
-1182.572397332595
 30
0.0
 40
3.15000000000009
  0
CIRCLE
  5
A2
330
595
100
AcDbEntity
  8
PATTERN_FILL
  6
Continuous
 62
     7
100
AcDbCircle
 10
-550.7000000000057
 20
-1190.53983104741
 30
0.0
 40
3.15000000000009
  0
ARC
  5
A3
330
595
100
AcDbEntity
  8
PATTERN_FILL
  6
Continuous
 62
     7
100
AcDbCircle
 10
-602.7621394235008
 20
-1023.317282806471
 30
0.0
 40
160.9161181740233
100
AcDbArc
 50
269.8963952494582
 51
291.2569977805665
  0
CIRCLE
  5
A4
330
595
100
AcDbEntity
  8
PATTERN_FILL
  6
Continuous
 62
     7
100
AcDbCircle
 10
-571.4000000000033
 20
-1186.556114190003
 30
0.0
 40
3.15000000000009
  0
ARC
  5
A5
330
595
100
AcDbEntity
  8
PATTERN_FILL
  6
Continuous
 62
     7
100
AcDbCircle
 10
-550.6688608590725
 20
-1174.69545103275
 30
0.0
 40
3.124229276882443
100
AcDbArc
 50
213.7689255206213
 51
4.21049669643699
  0
ARC
  5
A6
330
595
100
AcDbEntity
  8
PATTERN_FILL
  6
Continuous
 62
     7
100
AcDbCircle
 10
-557.600000000003
 20
-1178.588680475191
 30
0.0
 40
3.150000000001783
100
AcDbArc
 50
181.1546813300653
 51
31.28045194178627
  0
ARC
  5
A7
330
595
100
AcDbEntity
  8
PATTERN_FILL
  6
Continuous
 62
     7
100
AcDbCircle
 10
-564.490596877114
 20
-1182.611535118285
 30
0.0
 40
3.186792785675312
100
AcDbArc
 50
127.28820759595
 51
79.73109212559911
  0
ARC
  5
A8
330
595
100
AcDbEntity
  8
PATTERN_FILL
  6
Continuous
 62
     7
100
AcDbCircle
 10
-571.3321937077515
 20
-1178.924383904935
 30
0.0
 40
2.886001522690034
100
AcDbArc
 50
239.7294705745005
 51
323.1087753726272
  0
ARC
  5
A9
330
595
100
AcDbEntity
  8
PATTERN_FILL
  6
Continuous
 62
     7
100
AcDbCircle
 10
-578.3000000000196
 20
-1182.57239733262
 30
0.0
 40
3.149999999980817
100
AcDbArc
 50
184.4096988690539
 51
11.86089741537489
  0
ARC
  5
AA
330
595
100
AcDbEntity
  8
PATTERN_FILL
  6
Continuous
 62
     7
100
AcDbCircle
 10
-592.1000000000003
 20
-1182.572397332599
 30
0.0
 40
3.149999999998893
100
AcDbArc
 50
207.7807578049866
 51
339.8797220107644
  0
ARC
  5
AB
330
595
100
AcDbEntity
  8
PATTERN_FILL
  6
Continuous
 62
     7
100
AcDbCircle
 10
-599.0
 20
-1186.556114190003
 30
0.0
 40
3.150000000000096
100
AcDbArc
 50
132.2656975793283
 51
50.37480844220085
  0
ARC
  5
AC
330
595
100
AcDbEntity
  8
PATTERN_FILL
  6
Continuous
 62
     7
100
AcDbCircle
 10
-605.8999999999864
 20
-1182.572397332771
 30
0.0
 40
3.149999999893757
100
AcDbArc
 50
221.3146089575396
 51
328.3561144756844
  0
ARC
  5
AD
330
595
100
AcDbEntity
  8
PATTERN_FILL
  6
Continuous
 62
     7
100
AcDbCircle
 10
-612.7999999999984
 20
-1186.556114190004
 30
0.0
 40
3.150000000000453
100
AcDbArc
 50
166.6695032789269
 51
32.17904605090313
  0
ARC
  5
AE
330
595
100
AcDbEntity
  8
PATTERN_FILL
  6
Continuous
 62
     7
100
AcDbCircle
 10
-626.6000000000008
 20
-1186.55611418999
 30
0.0
 40
3.150000000008294
100
AcDbArc
 50
239.0544738317903
 51
337.226650986635
  0
ARC
  5
AF
330
595
100
AcDbEntity
  8
PATTERN_FILL
  6
Continuous
 62
     7
100
AcDbCircle
 10
-633.4868391584231
 20
-1190.494577566131
 30
0.0
 40
3.18821877080188
100
AcDbArc
 50
218.2216362909523
 51
8.125327848565689
  0
ARC
  5
B0
330
595
100
AcDbEntity
  8
PATTERN_FILL
  6
Continuous
 62
     7
100
AcDbCircle
 10
-640.3999999999077
 20
-1194.52354790498
 30
0.0
 40
3.149999999987882
100
AcDbArc
 50
212.0991550783569
 51
24.60776604905459
  0
ARC
  5
B1
330
595
100
AcDbEntity
  8
PATTERN_FILL
  6
Continuous
 62
     7
100
AcDbCircle
 10
-647.3000000000943
 20
-1198.507264762075
 30
0.0
 40
3.1500000000192
100
AcDbArc
 50
219.6863414398081
 51
27.39540771649322
  0
ARC
  5
B2
330
595
100
AcDbEntity
  8
PATTERN_FILL
  6
Continuous
 62
     7
100
AcDbCircle
 10
-654.2000000000046
 20
-1202.49098161962
 30
0.0
 40
3.150000000006884
100
AcDbArc
 50
240.6369133082564
 51
16.70501216402047
  0
ARC
  5
B3
330
595
100
AcDbEntity
  8
PATTERN_FILL
  6
Continuous
 62
     7
100
AcDbCircle
 10
-661.0999999999976
 20
-1206.474698477038
 30
0.0
 40
3.150000000003818
100
AcDbArc
 50
282.2978102244965
 51
345.0322321401109
  0
ARC
  5
B4
330
595
100
AcDbEntity
  8
PATTERN_FILL
  6
Continuous
 62
     7
100
AcDbCircle
 10
-661.1000000000163
 20
-1214.442132191838
 30
0.0
 40
3.149999999972991
100
AcDbArc
 50
160.2547687212982
 51
114.505952960315
  0
ARC
  5
B5
330
595
100
AcDbEntity
  8
PATTERN_FILL
  6
Continuous
 62
     7
100
AcDbCircle
 10
-667.9999999999964
 20
-1218.425849049262
 30
0.0
 40
3.150000000000378
100
AcDbArc
 50
229.7426795637309
 51
54.97665451509516
  0
CIRCLE
  5
B6
330
595
100
AcDbEntity
  8
PATTERN_FILL
  6
Continuous
 62
     7
100
AcDbCircle
 10
-571.4000000000033
 20
-1226.393282764079
 30
0.0
 40
3.15000000000009
  0
CIRCLE
  5
B7
330
595
100
AcDbEntity
  8
PATTERN_FILL
  6
Continuous
 62
     7
100
AcDbCircle
 10
-585.2000000000025
 20
-1226.393282764079
 30
0.0
 40
3.15000000000009
  0
LINE
  5
B8
330
595
100
AcDbEntity
  8
SPEC
  6
Continuous
 62
     7
100
AcDbLine
 10
-1237.5
 20
1849.445409999999
 30
0.0
 11
975.0
 21
1849.445409999999
 31
0.0
  0
LINE
  5
B9
330
595
100
AcDbEntity
  8
SPEC
  6
Continuous
 62
     7
100
AcDbLine
 10
-1237.5
 20
1849.445409999999
 30
0.0
 11
-1237.5
 21
1174.445409999999
 31
0.0
  0
TEXT
  5
BA
330
595
100
AcDbEntity
  8
SPEC
 62
     7
100
AcDbText
 10
-1218.75
 20
1870.344459999999
 30
0.0
 40
36.64892578125
  1
仕様
 41
0.7
 11
-1218.75
 21
1906.993385781249
 31
0.0
100
AcDbText
 73
     3
  0
LINE
  5
BB
330
595
100
AcDbEntity
  8
SPEC
  6
Continuous
 62
     7
100
AcDbLine
 10
-750.0
 20
1849.445409999999
 30
0.0
 11
-750.0
 21
1174.445409999999
 31
0.0
  0
LINE
  5
BC
330
595
100
AcDbEntity
  8
SPEC
  6
Continuous
 62
     7
100
AcDbLine
 10
975.0
 20
1849.445409999999
 30
0.0
 11
975.0
 21
1174.445409999999
 31
0.0
  0
TEXT
  5
BD
330
595
100
AcDbEntity
  8
SPEC
 62
     7
100
AcDbText
 10
-1224.0
 20
1242.514176666666
 30
0.0
 40
28.50472005208333
  1
寸法(W×H×D)
 41
0.7
 11
-1224.0
 21
1271.018896718749
 31
0.0
100
AcDbText
 73
     3
  0
TEXT
  5
BE
330
595
100
AcDbEntity
  8
SPEC
 62
     7
100
AcDbText
 10
-1224.0
 20
1186.264176666666
 30
0.0
 40
28.50472005208333
  1
質量
 41
0.7
 11
-1224.0
 21
1214.768896718749
 31
0.0
100
AcDbText
 73
     3
  0
TEXT
  5
BF
330
595
100
AcDbEntity
  8
SPEC
 62
     7
100
AcDbText
 10
-736.5
 20
1242.514176666666
 30
0.0
 40
28.50472005208333
  1
419×483×600mm(除突起部)
 41
0.7
 11
-736.5
 21
1271.018896718749
 31
0.0
100
AcDbText
 73
     3
  0
TEXT
  5
C0
330
595
100
AcDbEntity
  8
SPEC
 62
     7
100
AcDbText
 10
-736.5
 20
1186.264176666666
 30
0.0
 40
28.50472005208333
  1
24kg
 41
0.7
 11
-736.5
 21
1214.768896718749
 31
0.0
100
AcDbText
 73
     3
  0
LINE
  5
C1
330
595
100
AcDbEntity
  8
SPEC
  6
Continuous
 62
     7
100
AcDbLine
 10
-975.0
 20
1736.945409999999
 30
0.0
 11
975.0
 21
1736.945409999999
 31
0.0
  0
LINE
  5
C2
330
595
100
AcDbEntity
  8
SPEC
  6
Continuous
 62
     7
100
AcDbLine
 10
-975.0
 20
1680.695409999999
 30
0.0
 11
975.0
 21
1680.695409999999
 31
0.0
  0
LINE
  5
C3
330
595
100
AcDbEntity
  8
SPEC
  6
Continuous
 62
     7
100
AcDbLine
 10
-1237.5
 20
1568.195409999999
 30
0.0
 11
975.0
 21
1568.195409999999
 31
0.0
  0
LINE
  5
C4
330
595
100
AcDbEntity
  8
SPEC
  6
Continuous
 62
     7
100
AcDbLine
 10
-1237.5
 20
1511.945409999999
 30
0.0
 11
975.0
 21
1511.945409999999
 31
0.0
  0
LINE
  5
C5
330
595
100
AcDbEntity
  8
SPEC
  6
Continuous
 62
     7
100
AcDbLine
 10
-1237.5
 20
1455.695409999999
 30
0.0
 11
975.0
 21
1455.695409999999
 31
0.0
  0
LINE
  5
C6
330
595
100
AcDbEntity
  8
SPEC
  6
Continuous
 62
     7
100
AcDbLine
 10
-1237.5
 20
1399.445409999999
 30
0.0
 11
975.0
 21
1399.445409999999
 31
0.0
  0
LINE
  5
C7
330
595
100
AcDbEntity
  8
SPEC
  6
Continuous
 62
     7
100
AcDbLine
 10
-1237.5
 20
1343.19541
 30
0.0
 11
975.0
 21
1343.19541
 31
0.0
  0
LINE
  5
C8
330
595
100
AcDbEntity
  8
SPEC
  6
Continuous
 62
     7
100
AcDbLine
 10
-1237.5
 20
1286.945409999999
 30
0.0
 11
975.0
 21
1286.945409999999
 31
0.0
  0
LINE
  5
C9
330
595
100
AcDbEntity
  8
SPEC
  6
Continuous
 62
     7
100
AcDbLine
 10
-1237.5
 20
1230.69541
 30
0.0
 11
975.0
 21
1230.69541
 31
0.0
  0
LINE
  5
CA
330
595
100
AcDbEntity
  8
SPEC
  6
Continuous
 62
     7
100
AcDbLine
 10
-1237.5
 20
1174.445409999999
 30
0.0
 11
975.0
 21
1174.445409999999
 31
0.0
  0
TEXT
  5
CB
330
595
100
AcDbEntity
  8
SPEC
 62
     7
100
AcDbText
 10
-1224.0
 20
1580.014176666665
 30
0.0
 40
28.50472005208333
  1
感度(1W、1m)
 41
0.7
 11
-1224.0
 21
1608.518896718749
 31
0.0
100
AcDbText
 73
     3
  0
TEXT
  5
CC
330
595
100
AcDbEntity
  8
SPEC
 62
     7
100
AcDbText
 10
-1224.0
 20
1805.014176666665
 30
0.0
 40
28.50472005208333
  1
周波数レンジ(-10dB)
 41
0.7
 11
-1224.0
 21
1833.518896718748
 31
0.0
100
AcDbText
 73
     3
  0
TEXT
  5
CD
330
595
100
AcDbEntity
  8
SPEC
 62
     7
100
AcDbText
 10
-961.5
 20
1748.764176666665
 30
0.0
 40
28.50472005208333
  1
Peak
 41
0.7
 11
-961.5
 21
1777.268896718749
 31
0.0
100
AcDbText
 73
     3
  0
TEXT
  5
CE
330
595
100
AcDbEntity
  8
SPEC
 62
     7
100
AcDbText
 10
-736.5
 20
1805.014176666665
 30
0.0
 40
28.50472005208333
  1
32Hz～250Hz
 41
0.7
 11
-736.5
 21
1833.518896718748
 31
0.0
100
AcDbText
 73
     3
  0
TEXT
  5
CF
330
595
100
AcDbEntity
  8
SPEC
 62
     7
100
AcDbText
 10
-1224.0
 20
1748.764176666665
 30
0.0
 40
28.50472005208333
  1
許容入力※
 41
0.7
 11
-1224.0
 21
1777.268896718749
 31
0.0
100
AcDbText
 73
     3
  0
TEXT
  5
D0
330
595
100
AcDbEntity
  8
SPEC
 62
     7
100
AcDbText
 10
-961.5
 20
1692.514176666665
 30
0.0
 40
28.50472005208333
  1
Program
 41
0.7
 11
-961.5
 21
1721.018896718749
 31
0.0
100
AcDbText
 73
     3
  0
TEXT
  5
D1
330
595
100
AcDbEntity
  8
SPEC
 62
     7
100
AcDbText
 10
-961.5
 20
1636.264176666665
 30
0.0
 40
28.50472005208333
  1
Continuous
 41
0.7
 11
-961.5
 21
1664.768896718749
 31
0.0
100
AcDbText
 73
     3
  0
TEXT
  5
D2
330
595
100
AcDbEntity
  8
SPEC
 62
     7
100
AcDbText
 10
-736.5
 20
1748.764176666665
 30
0.0
 40
28.50472005208333
  1
1,600W
 41
0.7
 11
-736.5
 21
1777.268896718749
 31
0.0
100
AcDbText
 73
     3
  0
TEXT
  5
D3
330
595
100
AcDbEntity
  8
SPEC
 62
     7
100
AcDbText
 10
-736.5
 20
1692.514176666665
 30
0.0
 40
28.50472005208333
  1
800W
 41
0.7
 11
-736.5
 21
1721.018896718749
 31
0.0
100
AcDbText
 73
     3
  0
TEXT
  5
D4
330
595
100
AcDbEntity
  8
SPEC
 62
     7
100
AcDbText
 10
-736.5
 20
1636.264176666665
 30
0.0
 40
28.50472005208333
  1
400W
 41
0.7
 11
-736.5
 21
1664.768896718749
 31
0.0
100
AcDbText
 73
     3
  0
LINE
  5
D5
330
595
100
AcDbEntity
  8
SPEC
  6
Continuous
 62
     7
100
AcDbLine
 10
-1237.5
 20
1793.195409999999
 30
0.0
 11
975.0
 21
1793.195409999999
 31
0.0
  0
LINE
  5
D6
330
595
100
AcDbEntity
  8
SPEC
  6
Continuous
 62
     7
100
AcDbLine
 10
-1237.5
 20
1624.445409999999
 30
0.0
 11
975.0
 21
1624.445409999999
 31
0.0
  0
LINE
  5
D7
330
595
100
AcDbEntity
  8
SPEC
  6
Continuous
 62
     7
100
AcDbLine
 10
-975.0
 20
1793.195409999999
 30
0.0
 11
-975.0
 21
1624.445409999999
 31
0.0
  0
TEXT
  5
D8
330
595
100
AcDbEntity
  8
SPEC
 62
     7
100
AcDbText
 10
-1224.0
 20
1411.264176666665
 30
0.0
 40
28.50472005208333
  1
ドライバー構成
 41
0.7
 11
-1224.0
 21
1439.768896718749
 31
0.0
100
AcDbText
 73
     3
  0
TEXT
  5
D9
330
595
100
AcDbEntity
  8
SPEC
 62
     7
100
AcDbText
 10
-736.5
 20
1580.014176666665
 30
0.0
 40
28.50472005208333
  1
94dB SPL
 41
0.7
 11
-736.5
 21
1608.518896718749
 31
0.0
100
AcDbText
 73
     3
  0
TEXT
  5
DA
330
595
100
AcDbEntity
  8
SPEC
 62
     7
100
AcDbText
 10
-1224.0
 20
1523.764176666665
 30
0.0
 40
28.50472005208333
  1
公称インピーダンス
 41
0.7
 11
-1224.0
 21
1552.268896718748
 31
0.0
100
AcDbText
 73
     3
  0
TEXT
  5
DB
330
595
100
AcDbEntity
  8
SPEC
 62
     7
100
AcDbText
 10
-736.5
 20
1523.764176666665
 30
0.0
 40
28.50472005208333
  1
8Ω
 41
0.7
 11
-736.5
 21
1552.268896718748
 31
0.0
100
AcDbText
 73
     3
  0
TEXT
  5
DC
330
595
100
AcDbEntity
  8
SPEC
 62
     7
100
AcDbText
 10
-1225.0
 20
1111.665
 30
0.0
 40
28.50472005208333
  1
※IECピンクノイズ、クレストファクタ ー6dB、100時間
 41
0.7
 11
-1225.0
 21
1140.169720052083
 31
0.0
100
AcDbText
 73
     3
  0
TEXT
  5
DD
330
595
100
AcDbEntity
  8
SPEC
 62
     7
100
AcDbText
 10
-1224.0
 20
1467.514176666665
 30
0.0
 40
28.50472005208333
  1
最大音圧(1m)
 41
0.7
 11
-1224.0
 21
1496.018896718749
 31
0.0
100
AcDbText
 73
     3
  0
TEXT
  5
DE
330
595
100
AcDbEntity
  8
SPEC
 62
     7
100
AcDbText
 10
-1224.0
 20
1355.014176666665
 30
0.0
 40
28.50472005208333
  1
入力端子
 41
0.7
 11
-1224.0
 21
1383.518896718749
 31
0.0
100
AcDbText
 73
     3
  0
TEXT
  5
DF
330
595
100
AcDbEntity
  8
SPEC
 62
     7
100
AcDbText
 10
-1224.0
 20
1298.764176666665
 30
0.0
 40
28.50472005208333
  1
色
 41
0.7
 11
-1224.0
 21
1327.268896718749
 31
0.0
100
AcDbText
 73
     3
  0
TEXT
  5
E0
330
595
100
AcDbEntity
  8
SPEC
 62
     7
100
AcDbText
 10
-736.5
 20
1411.264176666665
 30
0.0
 40
28.50472005208333
  1
15インチ(381mm)
 41
0.7
 11
-736.5
 21
1439.768896718749
 31
0.0
100
AcDbText
 73
     3
  0
TEXT
  5
E1
330
595
100
AcDbEntity
  8
SPEC
 62
     7
100
AcDbText
 10
-736.5
 20
1467.514176666665
 30
0.0
 40
28.50472005208333
  1
120dB SPL
 41
0.7
 11
-736.5
 21
1496.018896718749
 31
0.0
100
AcDbText
 73
     3
  0
TEXT
  5
E2
330
595
100
AcDbEntity
  8
SPEC
 62
     7
100
AcDbText
 10
-736.5
 20
1355.014176666665
 30
0.0
 40
28.50472005208333
  1
ねじ止め端子、4Pスピコン
 41
0.7
 11
-736.5
 21
1383.518896718749
 31
0.0
100
AcDbText
 73
     3
  0
TEXT
  5
E3
330
595
100
AcDbEntity
  8
SPEC
 62
     7
100
AcDbText
 10
-736.5
 20
1298.764176666665
 30
0.0
 40
28.50472005208333
  1
黒または白(-WH)
 41
0.7
 11
-736.5
 21
1327.268896718749
 31
0.0
100
AcDbText
 73
     3
  0
TEXT
  5
E4
330
595
100
AcDbEntity
  8
DIMNSIONS
 62
     7
100
AcDbText
 10
-299.9999999999999
 20
-1716.51224
 30
0.0
 40
36.64892578125
  1
(単位：mm)
 41
0.7
 11
-299.9999999999999
 21
-1679.86331421875
 31
0.0
100
AcDbText
 73
     3
  0
LINE
  5
E5
330
595
100
AcDbEntity
  8
DIMNSIONS
  6
Continuous
 62
     7
100
AcDbLine
 10
-977.2561271244269
 20
-0.2016741546835874
 30
0.0
 11
-1055.117766589439
 21
-0.2016741546835874
 31
0.0
  0
LINE
  5
E6
330
595
100
AcDbEntity
  8
DIMNSIONS
  6
Continuous
 62
     7
100
AcDbLine
 10
-780.0
 20
-600.0
 30
0.0
 11
-1055.117766589439
 21
-600.0
 31
0.0
  0
LINE
  5
E7
330
595
100
AcDbEntity
  8
DIMNSIONS
  6
Continuous
 62
     7
100
AcDbLine
 10
-1025.117766589439
 20
-0.2016741546835874
 30
0.0
 11
-1025.117766589439
 21
-600.0
 31
0.0
  0
LINE
  5
E8
330
595
100
AcDbEntity
  8
DIMNSIONS
  6
Continuous
 62
     7
100
AcDbLine
 10
-1025.117766589439
 20
-0.2016741546835874
 30
0.0
 11
-1015.067169662185
 21
-37.71101253358985
 31
0.0
  0
LINE
  5
E9
330
595
100
AcDbEntity
  8
DIMNSIONS
  6
Continuous
 62
     7
100
AcDbLine
 10
-1025.117766589439
 20
-0.2016741546835874
 30
0.0
 11
-1035.168363516693
 21
-37.71101253358985
 31
0.0
  0
LINE
  5
EA
330
595
100
AcDbEntity
  8
DIMNSIONS
  6
Continuous
 62
     7
100
AcDbLine
 10
-1025.117766589439
 20
-600.0
 30
0.0
 11
-1035.168363516693
 21
-562.4906616210937
 31
0.0
  0
LINE
  5
EB
330
595
100
AcDbEntity
  8
DIMNSIONS
  6
Continuous
 62
     7
100
AcDbLine
 10
-1025.117766589439
 20
-600.0
 30
0.0
 11
-1015.067169662185
 21
-562.4906616210937
 31
0.0
  0
TEXT
  5
EC
330
595
100
AcDbEntity
  8
DIMNSIONS
 62
     7
100
AcDbText
 10
-1040.026099922772
 20
-339.7883370773418
 30
0.0
 40
40.72102864583334
  1
600
 50
90.0
 41
0.7
 11
-1080.747128568606
 21
-339.7883370773418
 31
0.0
100
AcDbText
 73
     3
  0
LINE
  5
ED
330
595
100
AcDbEntity
  8
DIMNSIONS
  6
Continuous
 62
     7
100
AcDbLine
 10
-522.7438728755733
 20
-0.2016741546835874
 30
0.0
 11
-420.0
 21
-0.2016741546835874
 31
0.0
  0
LINE
  5
EE
330
595
100
AcDbEntity
  8
DIMNSIONS
  6
Continuous
 62
     7
100
AcDbLine
 10
-720.0
 20
-44.20167415468358
 30
0.0
 11
-420.0
 21
-44.20167415468358
 31
0.0
  0
LINE
  5
EF
330
595
100
AcDbEntity
  8
DIMNSIONS
  6
Continuous
 62
     7
100
AcDbLine
 10
-450.0
 20
-44.20167415468358
 30
0.0
 11
-450.0
 21
-0.2016741546835874
 31
0.0
  0
LINE
  5
F0
330
595
100
AcDbEntity
  8
DIMNSIONS
  6
Continuous
 62
     7
100
AcDbLine
 10
-450.0
 20
-0.2016741546835874
 30
0.0
 11
-450.0
 21
111.2244772375
 31
0.0
  0
LINE
  5
F1
330
595
100
AcDbEntity
  8
DIMNSIONS
  6
Continuous
 62
     7
100
AcDbLine
 10
-450.0
 20
-0.2016741546835874
 30
0.0
 11
-460.0505969272536
 21
37.30766422422266
 31
0.0
  0
LINE
  5
F2
330
595
100
AcDbEntity
  8
DIMNSIONS
  6
Continuous
 62
     7
100
AcDbLine
 10
-450.0
 20
-0.2016741546835874
 30
0.0
 11
-439.9494030727463
 21
37.30766422422266
 31
0.0
  0
LINE
  5
F3
330
595
100
AcDbEntity
  8
DIMNSIONS
  6
Continuous
 62
     7
100
AcDbLine
 10
-450.0
 20
-44.20167415468358
 30
0.0
 11
-450.0
 21
-119.2016741546836
 31
0.0
  0
LINE
  5
F4
330
595
100
AcDbEntity
  8
DIMNSIONS
  6
Continuous
 62
     7
100
AcDbLine
 10
-450.0
 20
-44.20167415468358
 30
0.0
 11
-439.9494030727463
 21
-81.71101253358981
 31
0.0
  0
LINE
  5
F5
330
595
100
AcDbEntity
  8
DIMNSIONS
  6
Continuous
 62
     7
100
AcDbLine
 10
-450.0
 20
-44.20167415468358
 30
0.0
 11
-460.0505969272536
 21
-81.71101253358981
 31
0.0
  0
TEXT
  5
F6
330
595
100
AcDbEntity
  8
DIMNSIONS
 62
     7
100
AcDbText
 10
-464.9083333333333
 20
5.391143904166705
 30
0.0
 40
40.72102864583334
  1
44.0
 50
90.0
 41
0.7
 11
-505.6293619791666
 21
5.39114390416671
 31
0.0
100
AcDbText
 73
     3
  0
LINE
  5
F7
330
595
100
AcDbEntity
  8
DIMNSIONS
  6
Continuous
 62
     7
100
AcDbLine
 10
-720.0
 20
-44.20167415468358
 30
0.0
 11
-420.0
 21
-44.20167415468358
 31
0.0
  0
LINE
  5
F8
330
595
100
AcDbEntity
  8
DIMNSIONS
  6
Continuous
 62
     7
100
AcDbLine
 10
-554.75
 20
-445.2016741546835
 30
0.0
 11
-420.0
 21
-445.2016741546835
 31
0.0
  0
LINE
  5
F9
330
595
100
AcDbEntity
  8
DIMNSIONS
  6
Continuous
 62
     7
100
AcDbLine
 10
-450.0
 20
-44.20167415468358
 30
0.0
 11
-450.0
 21
-445.2016741546835
 31
0.0
  0
LINE
  5
FA
330
595
100
AcDbEntity
  8
DIMNSIONS
  6
Continuous
 62
     7
100
AcDbLine
 10
-450.0
 20
-44.20167415468358
 30
0.0
 11
-439.9494030727463
 21
-81.71101253358981
 31
0.0
  0
LINE
  5
FB
330
595
100
AcDbEntity
  8
DIMNSIONS
  6
Continuous
 62
     7
100
AcDbLine
 10
-450.0
 20
-44.20167415468358
 30
0.0
 11
-460.0505969272536
 21
-81.71101253358981
 31
0.0
  0
LINE
  5
FC
330
595
100
AcDbEntity
  8
DIMNSIONS
  6
Continuous
 62
     7
100
AcDbLine
 10
-450.0
 20
-445.2016741546835
 30
0.0
 11
-460.0505969272536
 21
-407.6923357757772
 31
0.0
  0
LINE
  5
FD
330
595
100
AcDbEntity
  8
DIMNSIONS
  6
Continuous
 62
     7
100
AcDbLine
 10
-450.0
 20
-445.2016741546835
 30
0.0
 11
-439.9494030727463
 21
-407.6923357757772
 31
0.0
  0
TEXT
  5
FE
330
595
100
AcDbEntity
  8
DIMNSIONS
 62
     7
100
AcDbText
 10
-464.9083333333331
 20
-284.3891741546836
 30
0.0
 40
40.72102864583334
  1
401
 50
90.0
 41
0.7
 11
-505.6293619791666
 21
-284.3891741546836
 31
0.0
100
AcDbText
 73
     3
  0
LINE
  5
FF
330
595
100
AcDbEntity
  8
DIMNSIONS
  6
Continuous
 62
     7
100
AcDbLine
 10
-977.2561271244269
 20
-1250.0
 30
0.0
 11
-1055.0
 21
-1250.0
 31
0.0
  0
LINE
  5
100
330
595
100
AcDbEntity
  8
DIMNSIONS
  6
Continuous
 62
     7
100
AcDbLine
 10
-976.5521446231108
 20
-767.0208974617535
 30
0.0
 11
-1055.0
 21
-767.0208974617535
 31
0.0
  0
LINE
  5
101
330
595
100
AcDbEntity
  8
DIMNSIONS
  6
Continuous
 62
     7
100
AcDbLine
 10
-1025.0
 20
-1250.0
 30
0.0
 11
-1025.0
 21
-767.0208974617535
 31
0.0
  0
LINE
  5
102
330
595
100
AcDbEntity
  8
DIMNSIONS
  6
Continuous
 62
     7
100
AcDbLine
 10
-1025.0
 20
-1250.0
 30
0.0
 11
-1035.050596927253
 21
-1212.490661621093
 31
0.0
  0
LINE
  5
103
330
595
100
AcDbEntity
  8
DIMNSIONS
  6
Continuous
 62
     7
100
AcDbLine
 10
-1025.0
 20
-1250.0
 30
0.0
 11
-1014.949403072746
 21
-1212.490661621093
 31
0.0
  0
LINE
  5
104
330
595
100
AcDbEntity
  8
DIMNSIONS
  6
Continuous
 62
     7
100
AcDbLine
 10
-1025.0
 20
-767.0208974617535
 30
0.0
 11
-1014.949403072746
 21
-804.5302358406596
 31
0.0
  0
LINE
  5
105
330
595
100
AcDbEntity
  8
DIMNSIONS
  6
Continuous
 62
     7
100
AcDbLine
 10
-1025.0
 20
-767.0208974617535
 30
0.0
 11
-1035.050596927253
 21
-804.5302358406596
 31
0.0
  0
TEXT
  5
106
330
595
100
AcDbEntity
  8
DIMNSIONS
 62
     7
100
AcDbText
 10
-1039.908333333333
 20
-1048.197948730877
 30
0.0
 40
40.72102864583334
  1
483
 50
90.0
 41
0.7
 11
-1080.629361979166
 21
-1048.197948730877
 31
0.0
100
AcDbText
 73
     3
  0
LINE
  5
107
330
595
100
AcDbEntity
  8
DIMNSIONS
  6
Continuous
 62
     7
100
AcDbLine
 10
-959.2499999999999
 20
-1268.008202120729
 30
0.0
 11
-959.2499999999999
 21
-1367.5
 31
0.0
  0
LINE
  5
108
330
595
100
AcDbEntity
  8
DIMNSIONS
  6
Continuous
 62
     7
100
AcDbLine
 10
-540.7499999999999
 20
-1268.006127124427
 30
0.0
 11
-540.7499999999999
 21
-1367.5
 31
0.0
  0
LINE
  5
109
330
595
100
AcDbEntity
  8
DIMNSIONS
  6
Continuous
 62
     7
100
AcDbLine
 10
-959.2499999999999
 20
-1337.5
 30
0.0
 11
-540.7499999999999
 21
-1337.5
 31
0.0
  0
LINE
  5
10A
330
595
100
AcDbEntity
  8
DIMNSIONS
  6
Continuous
 62
     7
100
AcDbLine
 10
-959.2499999999999
 20
-1337.5
 30
0.0
 11
-921.7406616210936
 21
-1327.449403072746
 31
0.0
  0
LINE
  5
10B
330
595
100
AcDbEntity
  8
DIMNSIONS
  6
Continuous
 62
     7
100
AcDbLine
 10
-959.2499999999999
 20
-1337.5
 30
0.0
 11
-921.7406616210936
 21
-1347.550596927253
 31
0.0
  0
LINE
  5
10C
330
595
100
AcDbEntity
  8
DIMNSIONS
  6
Continuous
 62
     7
100
AcDbLine
 10
-540.7499999999999
 20
-1337.5
 30
0.0
 11
-578.2593383789063
 21
-1347.550596927254
 31
0.0
  0
LINE
  5
10D
330
595
100
AcDbEntity
  8
DIMNSIONS
  6
Continuous
 62
     7
100
AcDbLine
 10
-540.7499999999999
 20
-1337.5
 30
0.0
 11
-578.2593383789063
 21
-1327.449403072746
 31
0.0
  0
TEXT
  5
10E
330
595
100
AcDbEntity
  8
DIMNSIONS
 62
     7
100
AcDbText
 10
-789.6875
 20
-1322.591666666666
 30
0.0
 40
40.72102864583334
  1
419
 41
0.7
 11
-789.6875
 21
-1281.870638020833
 31
0.0
100
AcDbText
 73
     3
  0
LINE
  5
10F
330
595
100
AcDbEntity
  8
DIMNSIONS
  6
Continuous
 62
     7
100
AcDbLine
 10
-314.9373542410968
 20
-1206.0
 30
0.0
 11
217.5
 21
-1206.0
 31
0.0
  0
LINE
  5
110
330
595
100
AcDbEntity
  8
DIMNSIONS
  6
Continuous
 62
     7
100
AcDbLine
 10
118.0713899186512
 20
-1250.0
 30
0.0
 11
217.5
 21
-1250.0
 31
0.0
  0
LINE
  5
111
330
595
100
AcDbEntity
  8
DIMNSIONS
  6
Continuous
 62
     7
100
AcDbLine
 10
187.5
 20
-1250.0
 30
0.0
 11
187.5
 21
-1206.0
 31
0.0
  0
LINE
  5
112
330
595
100
AcDbEntity
  8
DIMNSIONS
  6
Continuous
 62
     7
100
AcDbLine
 10
187.5
 20
-1206.0
 30
0.0
 11
187.5
 21
-1069.166666666667
 31
0.0
  0
LINE
  5
113
330
595
100
AcDbEntity
  8
DIMNSIONS
  6
Continuous
 62
     7
100
AcDbLine
 10
187.5
 20
-1206.0
 30
0.0
 11
177.4494030727464
 21
-1168.490661621093
 31
0.0
  0
LINE
  5
114
330
595
100
AcDbEntity
  8
DIMNSIONS
  6
Continuous
 62
     7
100
AcDbLine
 10
187.5
 20
-1206.0
 30
0.0
 11
197.5505969272536
 21
-1168.490661621093
 31
0.0
  0
LINE
  5
115
330
595
100
AcDbEntity
  8
DIMNSIONS
  6
Continuous
 62
     7
100
AcDbLine
 10
187.5
 20
-1250.0
 30
0.0
 11
187.5
 21
-1325.0
 31
0.0
  0
LINE
  5
116
330
595
100
AcDbEntity
  8
DIMNSIONS
  6
Continuous
 62
     7
100
AcDbLine
 10
187.5
 20
-1250.0
 30
0.0
 11
197.5505969272536
 21
-1287.509338378906
 31
0.0
  0
LINE
  5
117
330
595
100
AcDbEntity
  8
DIMNSIONS
  6
Continuous
 62
     7
100
AcDbLine
 10
187.5
 20
-1250.0
 30
0.0
 11
177.4494030727464
 21
-1287.509338378906
 31
0.0
  0
TEXT
  5
118
330
595
100
AcDbEntity
  8
DIMNSIONS
 62
     7
100
AcDbText
 10
172.5916666666666
 20
-1175.0
 30
0.0
 40
40.72102864583334
  1
44.0
 50
90.0
 41
0.7
 11
131.8706380208333
 21
-1175.0
 31
0.0
100
AcDbText
 73
     3
  0
LINE
  5
119
330
595
100
AcDbEntity
  8
DIMNSIONS
  6
Continuous
 62
     7
100
AcDbLine
 10
505.0
 20
-1206.0
 30
0.0
 11
804.8822334105606
 21
-1206.0
 31
0.0
  0
LINE
  5
11A
330
595
100
AcDbEntity
  8
DIMNSIONS
  6
Continuous
 62
     7
100
AcDbLine
 10
702.258744159748
 20
-1250.0
 30
0.0
 11
804.8822334105606
 21
-1250.0
 31
0.0
  0
LINE
  5
11B
330
595
100
AcDbEntity
  8
DIMNSIONS
  6
Continuous
 62
     7
100
AcDbLine
 10
774.8822334105605
 20
-1250.0
 30
0.0
 11
774.8822334105605
 21
-1206.0
 31
0.0
  0
LINE
  5
11C
330
595
100
AcDbEntity
  8
DIMNSIONS
  6
Continuous
 62
     7
100
AcDbLine
 10
774.8822334105605
 20
-1206.0
 30
0.0
 11
774.8822334105605
 21
-1069.166666666667
 31
0.0
  0
LINE
  5
11D
330
595
100
AcDbEntity
  8
DIMNSIONS
  6
Continuous
 62
     7
100
AcDbLine
 10
774.8822334105605
 20
-1206.0
 30
0.0
 11
764.8316364833071
 21
-1168.490661621093
 31
0.0
  0
LINE
  5
11E
330
595
100
AcDbEntity
  8
DIMNSIONS
  6
Continuous
 62
     7
100
AcDbLine
 10
774.8822334105605
 20
-1206.0
 30
0.0
 11
784.9328303378143
 21
-1168.490661621093
 31
0.0
  0
LINE
  5
11F
330
595
100
AcDbEntity
  8
DIMNSIONS
  6
Continuous
 62
     7
100
AcDbLine
 10
774.8822334105605
 20
-1250.0
 30
0.0
 11
774.8822334105605
 21
-1325.0
 31
0.0
  0
LINE
  5
120
330
595
100
AcDbEntity
  8
DIMNSIONS
  6
Continuous
 62
     7
100
AcDbLine
 10
774.8822334105605
 20
-1250.0
 30
0.0
 11
784.9328303378143
 21
-1287.509338378906
 31
0.0
  0
LINE
  5
121
330
595
100
AcDbEntity
  8
DIMNSIONS
  6
Continuous
 62
     7
100
AcDbLine
 10
774.8822334105605
 20
-1250.0
 30
0.0
 11
764.8316364833071
 21
-1287.509338378906
 31
0.0
  0
TEXT
  5
122
330
595
100
AcDbEntity
  8
DIMNSIONS
 62
     7
100
AcDbText
 10
759.9739000772275
 20
-1175.0
 30
0.0
 40
40.72102864583334
  1
44.0
 50
90.0
 41
0.7
 11
719.2528714313941
 21
-1175.0
 31
0.0
100
AcDbText
 73
     3
  0
LINE
  5
123
330
595
100
AcDbEntity
  8
DIMNSIONS
  6
Continuous
 62
     7
100
AcDbLine
 10
-977.2561271244269
 20
-0.2016741546835874
 30
0.0
 11
-1055.0
 21
-0.2016741546835874
 31
0.0
  0
LINE
  5
124
330
595
100
AcDbEntity
  8
DIMNSIONS
  6
Continuous
 62
     7
100
AcDbLine
 10
-818.8527665894403
 20
1.298325845316412
 30
0.0
 11
-1055.0
 21
1.298325845316412
 31
0.0
  0
LINE
  5
125
330
595
100
AcDbEntity
  8
DIMNSIONS
  6
Continuous
 62
     7
100
AcDbLine
 10
-1025.0
 20
1.298325845316412
 30
0.0
 11
-1025.0
 21
-0.2016741546835874
 31
0.0
  0
LINE
  5
126
330
595
100
AcDbEntity
  8
DIMNSIONS
  6
Continuous
 62
     7
100
AcDbLine
 10
-1025.0
 20
-0.2016741546835874
 30
0.0
 11
-1025.0
 21
-75.20167415468359
 31
0.0
  0
LINE
  5
127
330
595
100
AcDbEntity
  8
DIMNSIONS
  6
Continuous
 62
     7
100
AcDbLine
 10
-1025.0
 20
-0.2016741546835874
 30
0.0
 11
-1014.949403072746
 21
-37.71101253358985
 31
0.0
  0
LINE
  5
128
330
595
100
AcDbEntity
  8
DIMNSIONS
  6
Continuous
 62
     7
100
AcDbLine
 10
-1025.0
 20
-0.2016741546835874
 30
0.0
 11
-1035.050596927253
 21
-37.71101253358985
 31
0.0
  0
LINE
  5
129
330
595
100
AcDbEntity
  8
DIMNSIONS
  6
Continuous
 62
     7
100
AcDbLine
 10
-1025.0
 20
1.298325845316412
 30
0.0
 11
-1025.0
 21
97.51435321356805
 31
0.0
  0
LINE
  5
12A
330
595
100
AcDbEntity
  8
DIMNSIONS
  6
Continuous
 62
     7
100
AcDbLine
 10
-1025.0
 20
1.298325845316412
 30
0.0
 11
-1035.050596927253
 21
38.80766422422265
 31
0.0
  0
LINE
  5
12B
330
595
100
AcDbEntity
  8
DIMNSIONS
  6
Continuous
 62
     7
100
AcDbLine
 10
-1025.0
 20
1.298325845316412
 30
0.0
 11
-1014.949403072746
 21
38.80766422422265
 31
0.0
  0
TEXT
  5
12C
330
595
100
AcDbEntity
  8
DIMNSIONS
 62
     7
100
AcDbText
 10
-1039.908333333333
 20
18.13935321356802
 30
0.0
 40
40.72102864583334
  1
1.5
 50
90.0
 41
0.7
 11
-1080.629361979166
 21
18.13935321356802
 31
0.0
100
AcDbText
 73
     3
  0
LINE
  5
12D
330
595
100
AcDbEntity
  8
DIMNSIONS
  6
Continuous
 62
     7
100
AcDbLine
 10
-583.3892623453603
 20
-456.2945263142228
 30
0.0
 11
-561.1611547563624
 21
-637.5
 31
0.0
  0
LINE
  5
12E
330
595
100
AcDbEntity
  8
DIMNSIONS
  6
Continuous
 62
     7
100
AcDbLine
 10
-583.3892623453603
 20
-456.2945263142228
 30
0.0
 11
-568.8423426037177
 21
-492.2994161244641
 31
0.0
  0
LINE
  5
12F
330
595
100
AcDbEntity
  8
DIMNSIONS
  6
Continuous
 62
     7
100
AcDbLine
 10
-583.3892623453603
 20
-456.2945263142228
 30
0.0
 11
-588.7937052074051
 21
-494.7491354211726
 31
0.0
  0
LINE
  5
130
330
595
100
AcDbEntity
  8
DIMNSIONS
  6
Continuous
 62
     7
100
AcDbLine
 10
-561.1611547563624
 20
-637.5
 30
0.0
 11
-531.1611547563623
 21
-637.5
 31
0.0
  0
TEXT
  5
131
330
595
100
AcDbEntity
  8
DIMNSIONS
 62
     7
100
AcDbText
 10
-531.1611547563623
 20
-656.5500000000001
 30
0.0
 40
40.72102864583334
  1
M10(6ヵ所)
 41
0.7
 11
-531.1611547563623
 21
-615.8289713541667
 31
0.0
100
AcDbText
 73
     3
  0
LINE
  5
132
330
595
100
AcDbEntity
  8
DIMNSIONS
  6
Continuous
 62
     7
100
AcDbLine
 10
-344.9373542410967
 20
-1247.176
 30
0.0
 11
-344.9373542410967
 21
-1367.5
 31
0.0
  0
LINE
  5
133
330
595
100
AcDbEntity
  8
DIMNSIONS
  6
Continuous
 62
     7
100
AcDbLine
 10
100.0626457589032
 20
-1268.006127124427
 30
0.0
 11
100.0626457589032
 21
-1367.5
 31
0.0
  0
LINE
  5
134
330
595
100
AcDbEntity
  8
DIMNSIONS
  6
Continuous
 62
     7
100
AcDbLine
 10
-344.9373542410967
 20
-1337.5
 30
0.0
 11
100.0626457589032
 21
-1337.5
 31
0.0
  0
LINE
  5
135
330
595
100
AcDbEntity
  8
DIMNSIONS
  6
Continuous
 62
     7
100
AcDbLine
 10
-344.9373542410967
 20
-1337.5
 30
0.0
 11
-307.4280158621905
 21
-1327.449403072746
 31
0.0
  0
LINE
  5
136
330
595
100
AcDbEntity
  8
DIMNSIONS
  6
Continuous
 62
     7
100
AcDbLine
 10
-344.9373542410967
 20
-1337.5
 30
0.0
 11
-307.4280158621905
 21
-1347.550596927253
 31
0.0
  0
LINE
  5
137
330
595
100
AcDbEntity
  8
DIMNSIONS
  6
Continuous
 62
     7
100
AcDbLine
 10
100.0626457589032
 20
-1337.5
 30
0.0
 11
62.55330737999702
 21
-1347.550596927254
 31
0.0
  0
LINE
  5
138
330
595
100
AcDbEntity
  8
DIMNSIONS
  6
Continuous
 62
     7
100
AcDbLine
 10
100.0626457589032
 20
-1337.5
 30
0.0
 11
62.55330737999702
 21
-1327.449403072746
 31
0.0
  0
TEXT
  5
139
330
595
100
AcDbEntity
  8
DIMNSIONS
 62
     7
100
AcDbText
 10
-162.1248542410967
 20
-1322.591666666666
 30
0.0
 40
40.72102864583334
  1
445
 41
0.7
 11
-162.1248542410967
 21
-1281.870638020833
 31
0.0
100
AcDbText
 73
     3
  0
LINE
  5
13A
330
595
100
AcDbEntity
  8
DIMNSIONS
  6
Continuous
 62
     7
100
AcDbLine
 10
-342.7206377922733
 20
-800.0669418207317
 30
0.0
 11
-325.0
 21
-712.5
 31
0.0
  0
LINE
  5
13B
330
595
100
AcDbEntity
  8
DIMNSIONS
  6
Continuous
 62
     7
100
AcDbLine
 10
-342.7206377922733
 20
-800.0669418207317
 30
0.0
 11
-344.7529750987952
 21
-761.2876358794189
 31
0.0
  0
LINE
  5
13C
330
595
100
AcDbEntity
  8
DIMNSIONS
  6
Continuous
 62
     7
100
AcDbLine
 10
-342.7206377922733
 20
-800.0669418207317
 30
0.0
 11
-325.0910405581237
 21
-765.4669090811651
 31
0.0
  0
LINE
  5
13D
330
595
100
AcDbEntity
  8
DIMNSIONS
  6
Continuous
 62
     7
100
AcDbLine
 10
-325.0
 20
-712.5
 30
0.0
 11
-295.0
 21
-712.5
 31
0.0
  0
TEXT
  5
13E
330
595
100
AcDbEntity
  8
DIMNSIONS
 62
     7
100
AcDbText
 10
-295.0
 20
-731.5500000000001
 30
0.0
 40
40.72102864583334
  1
M10(4ヵ所)
 41
0.7
 11
-295.0
 21
-690.8289713541667
 31
0.0
100
AcDbText
 73
     3
  0
LINE
  5
13F
330
595
100
AcDbEntity
  8
DIMNSIONS
  6
Continuous
 62
     7
100
AcDbLine
 10
469.9421821882824
 20
-801.0548824615842
 30
0.0
 11
425.0
 21
-712.5
 31
0.0
  0
LINE
  5
140
330
595
100
AcDbEntity
  8
DIMNSIONS
  6
Continuous
 62
     7
100
AcDbLine
 10
469.9421821882824
 20
-801.0548824615842
 30
0.0
 11
444.4657538278534
 21
-771.7476041469173
 31
0.0
  0
LINE
  5
141
330
595
100
AcDbEntity
  8
DIMNSIONS
  6
Continuous
 62
     7
100
AcDbLine
 10
469.9421821882824
 20
-801.0548824615842
 30
0.0
 11
462.5325871877899
 21
-762.9358207450874
 31
0.0
  0
LINE
  5
142
330
595
100
AcDbEntity
  8
DIMNSIONS
  6
Continuous
 62
     7
100
AcDbLine
 10
425.0
 20
-712.5
 30
0.0
 11
455.0
 21
-712.5
 31
0.0
  0
TEXT
  5
143
330
595
100
AcDbEntity
  8
DIMNSIONS
 62
     7
100
AcDbText
 10
455.0
 20
-731.5500000000001
 30
0.0
 40
40.72102864583334
  1
M10(2ヵ所)
 41
0.7
 11
455.0
 21
-690.8289713541667
 31
0.0
100
AcDbText
 73
     3
  0
LINE
  5
144
330
595
100
AcDbEntity
  8
DIMNSIONS
  6
Continuous
 62
     7
100
AcDbLine
 10
100.0626457589032
 20
-1268.006127124427
 30
0.0
 11
100.0626457589032
 21
-1342.5
 31
0.0
  0
LINE
  5
145
330
595
100
AcDbEntity
  8
DIMNSIONS
  6
Continuous
 62
     7
100
AcDbLine
 10
101.5626457589029
 20
-1180.96
 30
0.0
 11
101.5626457589029
 21
-1342.5
 31
0.0
  0
LINE
  5
146
330
595
100
AcDbEntity
  8
DIMNSIONS
  6
Continuous
 62
     7
100
AcDbLine
 10
101.5626457589029
 20
-1312.5
 30
0.0
 11
100.0626457589032
 21
-1312.5
 31
0.0
  0
LINE
  5
147
330
595
100
AcDbEntity
  8
DIMNSIONS
  6
Continuous
 62
     7
100
AcDbLine
 10
100.0626457589032
 20
-1312.5
 30
0.0
 11
-4.375
 21
-1312.5
 31
0.0
  0
LINE
  5
148
330
595
100
AcDbEntity
  8
DIMNSIONS
  6
Continuous
 62
     7
100
AcDbLine
 10
100.0626457589032
 20
-1312.5
 30
0.0
 11
62.55330737999702
 21
-1322.550596927254
 31
0.0
  0
LINE
  5
149
330
595
100
AcDbEntity
  8
DIMNSIONS
  6
Continuous
 62
     7
100
AcDbLine
 10
100.0626457589032
 20
-1312.5
 30
0.0
 11
62.55330737999702
 21
-1302.449403072746
 31
0.0
  0
LINE
  5
14A
330
595
100
AcDbEntity
  8
DIMNSIONS
  6
Continuous
 62
     7
100
AcDbLine
 10
101.5626457589029
 20
-1312.5
 30
0.0
 11
176.5626457589029
 21
-1312.5
 31
0.0
  0
LINE
  5
14B
330
595
100
AcDbEntity
  8
DIMNSIONS
  6
Continuous
 62
     7
100
AcDbLine
 10
101.5626457589029
 20
-1312.5
 30
0.0
 11
139.0719841378092
 21
-1302.449403072746
 31
0.0
  0
LINE
  5
14C
330
595
100
AcDbEntity
  8
DIMNSIONS
  6
Continuous
 62
     7
100
AcDbLine
 10
101.5626457589029
 20
-1312.5
 30
0.0
 11
139.0719841378092
 21
-1322.550596927253
 31
0.0
  0
TEXT
  5
14D
330
595
100
AcDbEntity
  8
DIMNSIONS
 62
     7
100
AcDbText
 10
-4.375000000000002
 20
-1297.591666666666
 30
0.0
 40
40.72102864583334
  1
1.5
 41
0.7
 11
-4.375
 21
-1256.870638020833
 31
0.0
100
AcDbText
 73
     3
  0
LINE
  5
14E
330
595
100
AcDbEntity
  8
DIMNSIONS
  6
Continuous
 62
     7
100
AcDbLine
 10
118.0713899186512
 20
-767.0208974617535
 30
0.0
 11
217.5
 21
-767.0208974617535
 31
0.0
  0
LINE
  5
14F
330
595
100
AcDbEntity
  8
DIMNSIONS
  6
Continuous
 62
     7
100
AcDbLine
 10
-314.9373542410968
 20
-811.0208974617535
 30
0.0
 11
217.5
 21
-811.0208974617535
 31
0.0
  0
LINE
  5
150
330
595
100
AcDbEntity
  8
DIMNSIONS
  6
Continuous
 62
     7
100
AcDbLine
 10
187.5
 20
-811.0208974617535
 30
0.0
 11
187.5
 21
-767.0208974617535
 31
0.0
  0
LINE
  5
151
330
595
100
AcDbEntity
  8
DIMNSIONS
  6
Continuous
 62
     7
100
AcDbLine
 10
187.5
 20
-767.0208974617535
 30
0.0
 11
187.5
 21
-692.0208974617535
 31
0.0
  0
LINE
  5
152
330
595
100
AcDbEntity
  8
DIMNSIONS
  6
Continuous
 62
     7
100
AcDbLine
 10
187.5
 20
-767.0208974617535
 30
0.0
 11
177.4494030727464
 21
-729.5115590828473
 31
0.0
  0
LINE
  5
153
330
595
100
AcDbEntity
  8
DIMNSIONS
  6
Continuous
 62
     7
100
AcDbLine
 10
187.5
 20
-767.0208974617535
 30
0.0
 11
197.5505969272536
 21
-729.5115590828473
 31
0.0
  0
LINE
  5
154
330
595
100
AcDbEntity
  8
DIMNSIONS
  6
Continuous
 62
     7
100
AcDbLine
 10
187.5
 20
-811.0208974617535
 30
0.0
 11
187.5
 21
-938.0101137952628
 31
0.0
  0
LINE
  5
155
330
595
100
AcDbEntity
  8
DIMNSIONS
  6
Continuous
 62
     7
100
AcDbLine
 10
187.5
 20
-811.0208974617535
 30
0.0
 11
197.5505969272536
 21
-848.5302358406595
 31
0.0
  0
LINE
  5
156
330
595
100
AcDbEntity
  8
DIMNSIONS
  6
Continuous
 62
     7
100
AcDbLine
 10
187.5
 20
-811.0208974617535
 30
0.0
 11
177.4494030727464
 21
-848.5302358406595
 31
0.0
  0
TEXT
  5
157
330
595
100
AcDbEntity
  8
DIMNSIONS
 62
     7
100
AcDbText
 10
172.5916666666666
 20
-938.0101137952628
 30
0.0
 40
40.72102864583334
  1
44.0
 50
90.0
 41
0.7
 11
131.8706380208333
 21
-938.0101137952628
 31
0.0
100
AcDbText
 73
     3
  0
LINE
  5
158
330
595
100
AcDbEntity
  8
DIMNSIONS
  6
Continuous
 62
     7
100
AcDbLine
 10
505.0
 20
-811.0208974617535
 30
0.0
 11
804.8822334105606
 21
-811.0208974617535
 31
0.0
  0
LINE
  5
159
330
595
100
AcDbEntity
  8
DIMNSIONS
  6
Continuous
 62
     7
100
AcDbLine
 10
702.2407831013532
 20
-767.0208974617535
 30
0.0
 11
804.8822334105606
 21
-767.0208974617535
 31
0.0
  0
LINE
  5
15A
330
595
100
AcDbEntity
  8
DIMNSIONS
  6
Continuous
 62
     7
100
AcDbLine
 10
774.8822334105605
 20
-767.0208974617535
 30
0.0
 11
774.8822334105605
 21
-811.0208974617535
 31
0.0
  0
LINE
  5
15B
330
595
100
AcDbEntity
  8
DIMNSIONS
  6
Continuous
 62
     7
100
AcDbLine
 10
774.8822334105605
 20
-811.0208974617535
 30
0.0
 11
774.8822334105605
 21
-943.3333333333331
 31
0.0
  0
LINE
  5
15C
330
595
100
AcDbEntity
  8
DIMNSIONS
  6
Continuous
 62
     7
100
AcDbLine
 10
774.8822334105605
 20
-811.0208974617535
 30
0.0
 11
784.9328303378143
 21
-848.5302358406595
 31
0.0
  0
LINE
  5
15D
330
595
100
AcDbEntity
  8
DIMNSIONS
  6
Continuous
 62
     7
100
AcDbLine
 10
774.8822334105605
 20
-811.0208974617535
 30
0.0
 11
764.8316364833071
 21
-848.5302358406595
 31
0.0
  0
LINE
  5
15E
330
595
100
AcDbEntity
  8
DIMNSIONS
  6
Continuous
 62
     7
100
AcDbLine
 10
774.8822334105605
 20
-767.0208974617535
 30
0.0
 11
774.8822334105605
 21
-692.0208974617535
 31
0.0
  0
LINE
  5
15F
330
595
100
AcDbEntity
  8
DIMNSIONS
  6
Continuous
 62
     7
100
AcDbLine
 10
774.8822334105605
 20
-767.0208974617535
 30
0.0
 11
764.8316364833071
 21
-729.5115590828473
 31
0.0
  0
LINE
  5
160
330
595
100
AcDbEntity
  8
DIMNSIONS
  6
Continuous
 62
     7
100
AcDbLine
 10
774.8822334105605
 20
-767.0208974617535
 30
0.0
 11
784.9328303378143
 21
-729.5115590828473
 31
0.0
  0
TEXT
  5
161
330
595
100
AcDbEntity
  8
DIMNSIONS
 62
     7
100
AcDbText
 10
759.9739000772275
 20
-943.3333333333331
 30
0.0
 40
40.72102864583334
  1
44.0
 50
90.0
 41
0.7
 11
719.2528714313941
 21
-943.3333333333331
 31
0.0
100
AcDbText
 73
     3
  0
LINE
  5
162
330
595
100
AcDbEntity
  8
DIMNSIONS
  6
Continuous
 62
     7
100
AcDbLine
 10
-915.2499999999999
 20
-475.2016741546835
 30
0.0
 11
-915.2499999999999
 21
-712.1088560958333
 31
0.0
  0
LINE
  5
163
330
595
100
AcDbEntity
  8
DIMNSIONS
  6
Continuous
 62
     7
100
AcDbLine
 10
-750.0
 20
-630.0
 30
0.0
 11
-750.0
 21
-712.1088560958333
 31
0.0
  0
LINE
  5
164
330
595
100
AcDbEntity
  8
DIMNSIONS
  6
Continuous
 62
     7
100
AcDbLine
 10
-915.2499999999999
 20
-682.1088560958332
 30
0.0
 11
-750.0
 21
-682.1088560958332
 31
0.0
  0
LINE
  5
165
330
595
100
AcDbEntity
  8
DIMNSIONS
  6
Continuous
 62
     7
100
AcDbLine
 10
-915.2499999999999
 20
-682.1088560958332
 30
0.0
 11
-877.7406616210937
 21
-672.0582591685796
 31
0.0
  0
LINE
  5
166
330
595
100
AcDbEntity
  8
DIMNSIONS
  6
Continuous
 62
     7
100
AcDbLine
 10
-915.2499999999999
 20
-682.1088560958332
 30
0.0
 11
-877.7406616210937
 21
-692.1594530230868
 31
0.0
  0
LINE
  5
167
330
595
100
AcDbEntity
  8
DIMNSIONS
  6
Continuous
 62
     7
100
AcDbLine
 10
-750.0
 20
-682.1088560958332
 30
0.0
 11
-787.5093383789062
 21
-692.1594530230868
 31
0.0
  0
LINE
  5
168
330
595
100
AcDbEntity
  8
DIMNSIONS
  6
Continuous
 62
     7
100
AcDbLine
 10
-750.0
 20
-682.1088560958332
 30
0.0
 11
-787.5093383789062
 21
-672.0582591685796
 31
0.0
  0
TEXT
  5
169
330
595
100
AcDbEntity
  8
DIMNSIONS
 62
     7
100
AcDbText
 10
-872.3124999999999
 20
-667.2005227624999
 30
0.0
 40
40.72102864583334
  1
165
 41
0.7
 11
-872.3124999999999
 21
-626.4794941166664
 31
0.0
100
AcDbText
 73
     3
  0
LINE
  5
16A
330
595
100
AcDbEntity
  8
DIMNSIONS
  6
Continuous
 62
     7
100
AcDbLine
 10
-584.75
 20
-475.2016741546835
 30
0.0
 11
-584.75
 21
-712.1088560958333
 31
0.0
  0
LINE
  5
16B
330
595
100
AcDbEntity
  8
DIMNSIONS
  6
Continuous
 62
     7
100
AcDbLine
 10
-750.0
 20
-630.0
 30
0.0
 11
-750.0
 21
-712.1088560958333
 31
0.0
  0
LINE
  5
16C
330
595
100
AcDbEntity
  8
DIMNSIONS
  6
Continuous
 62
     7
100
AcDbLine
 10
-584.75
 20
-682.1088560958332
 30
0.0
 11
-750.0
 21
-682.1088560958332
 31
0.0
  0
LINE
  5
16D
330
595
100
AcDbEntity
  8
DIMNSIONS
  6
Continuous
 62
     7
100
AcDbLine
 10
-584.75
 20
-682.1088560958332
 30
0.0
 11
-622.2593383789063
 21
-692.1594530230868
 31
0.0
  0
LINE
  5
16E
330
595
100
AcDbEntity
  8
DIMNSIONS
  6
Continuous
 62
     7
100
AcDbLine
 10
-584.75
 20
-682.1088560958332
 30
0.0
 11
-622.2593383789063
 21
-672.0582591685796
 31
0.0
  0
LINE
  5
16F
330
595
100
AcDbEntity
  8
DIMNSIONS
  6
Continuous
 62
     7
100
AcDbLine
 10
-750.0
 20
-682.1088560958332
 30
0.0
 11
-712.4906616210937
 21
-672.0582591685796
 31
0.0
  0
LINE
  5
170
330
595
100
AcDbEntity
  8
DIMNSIONS
  6
Continuous
 62
     7
100
AcDbLine
 10
-750.0
 20
-682.1088560958332
 30
0.0
 11
-712.4906616210937
 21
-692.1594530230868
 31
0.0
  0
TEXT
  5
171
330
595
100
AcDbEntity
  8
DIMNSIONS
 62
     7
100
AcDbText
 10
-707.0624999999999
 20
-667.2005227624999
 30
0.0
 40
40.72102864583334
  1
165
 41
0.7
 11
-707.0624999999999
 21
-626.4794941166664
 31
0.0
100
AcDbText
 73
     3
  0
TEXT
  5
172
330
595
100
AcDbEntity
  8
DATA
 62
     7
100
AcDbText
 10
919.2366265190971
 20
-370.3605143229167
 30
0.0
 40
40.72102864583334
  1
端子拡大図
 41
0.7
 72
     1
 11
1000.0
 21
-350.0
 31
0.0
100
AcDbText
 73
     2
  0
LINE
  5
173
330
595
100
AcDbEntity
  8
DATA
  6
Continuous
 62
     7
100
AcDbLine
 10
850.0
 20
-400.0
 30
0.0
 11
1150.0
 21
-400.0
 31
0.0
  0
TEXT
  5
174
330
595
100
AcDbEntity
  8
DATA
 62
     7
100
AcDbText
 10
-1312.5
 20
-1782.410423333334
 30
0.0
 40
28.50472005208334
  1
※仕様及び外観は予告なく変更されることがあります。
 41
0.7
 11
-1312.5
 21
-1753.905703281251
 31
0.0
100
AcDbText
 73
     3
  0
TEXT
  5
175
330
595
100
AcDbEntity
  8
DATA
 62
     7
100
AcDbText
 10
-1312.5
 20
-1819.45209
 30
0.0
 40
28.50472005208334
  1
　また、同一商品でも若干の個体差があることがあります。ご了承ください。
 41
0.7
 11
-1312.5
 21
-1790.947369947917
 31
0.0
100
AcDbText
 73
     3
  0
TEXT
  5
176
330
595
100
AcDbEntity
  8
DATA
 62
     7
100
AcDbText
 10
749.9999999999996
 20
-1733.59124
 30
0.0
 40
36.64892578125
  1
AC115S
 41
0.7
 11
749.9999999999996
 21
-1696.94231421875
 31
0.0
100
AcDbText
 73
     3
  0
TEXT
  5
177
330
595
100
AcDbEntity
  8
DATA
 62
     7
100
AcDbText
 10
749.9999999999996
 20
-1624.84124
 30
0.0
 40
36.64892578125
  1
JBL PROFESSIONAL
 41
0.7
 11
749.9999999999996
 21
-1588.19231421875
 31
0.0
100
AcDbText
 73
     3
  0
LINE
  5
178
330
595
100
AcDbEntity
  8
DATA
  6
Continuous
 62
     7
100
AcDbLine
 10
277.6000009705203
 20
-767.0208974617535
 30
0.0
 11
672.2407831013534
 21
-767.0208974617535
 31
0.0
  0
LINE
  5
179
330
595
100
AcDbEntity
  8
DATA
  6
Continuous
 62
     7
100
AcDbLine
 10
684.1087451302683
 20
-779.0147703373268
 30
0.0
 11
265.6087451302683
 21
-779.0147703373268
 31
0.0
  0
LINE
  5
17A
330
595
100
AcDbEntity
  8
DATA
  6
Continuous
 62
     7
100
AcDbLine
 10
672.2407831013534
 20
-1250.0
 30
0.0
 11
277.7592168986466
 21
-1250.0
 31
0.0
  0
LINE
  5
17B
330
595
100
AcDbEntity
  8
DATA
  6
Continuous
 62
     7
100
AcDbLine
 10
265.6087451302683
 20
-1238.008744159748
 30
0.0
 11
684.1087451302683
 21
-1238.006127124427
 31
0.0
  0
LINE
  5
17C
330
595
100
AcDbEntity
  8
DATA
  6
Continuous
 62
     7
100
AcDbLine
 10
277.6000009705203
 20
-1250.0
 30
0.0
 11
277.6000009705203
 21
-767.0208974617535
 31
0.0
  0
LINE
  5
17D
330
595
100
AcDbEntity
  8
DATA
  6
Continuous
 62
     7
100
AcDbLine
 10
265.6087451302683
 20
-1238.008744159748
 30
0.0
 11
265.6087451302683
 21
-779.0147703373268
 31
0.0
  0
LINE
  5
17E
330
595
100
AcDbEntity
  8
DATA
  6
Continuous
 62
     7
100
AcDbLine
 10
-458.9622691333492
 20
-1231.937222215316
 30
0.0
 11
-458.9622691333492
 21
-1230.947982864026
 31
0.0
  0
LINE
  5
17F
330
595
100
AcDbEntity
  8
DATA
  6
Continuous
 62
     7
100
AcDbLine
 10
-484.7819396091076
 20
-1231.937222215316
 30
0.0
 11
-484.7819396091076
 21
-1230.947982864026
 31
0.0
  0
LINE
  5
180
330
595
100
AcDbEntity
  8
DATA
  6
Continuous
 62
     7
100
AcDbLine
 10
-484.7819396091076
 20
-785.0810582111171
 30
0.0
 11
-484.7819396091076
 21
-786.0676805270879
 31
0.0
  0
LINE
  5
181
330
595
100
AcDbEntity
  8
DATA
  6
Continuous
 62
     7
100
AcDbLine
 10
-458.9622691333492
 20
-785.0810582111171
 30
0.0
 11
-458.9622691333492
 21
-786.0676805270879
 31
0.0
  0
LINE
  5
182
330
595
100
AcDbEntity
  8
DATA
  6
Continuous
 62
     7
100
AcDbLine
 10
-489.4402624802679
 20
-785.0810582111171
 30
0.0
 11
-489.4402624802679
 21
-779.0147703373268
 31
0.0
  0
LINE
  5
183
330
595
100
AcDbEntity
  8
DATA
  6
Continuous
 62
     7
100
AcDbLine
 10
100.0626457589032
 20
-779.0147703373268
 30
0.0
 11
100.0626457589032
 21
-785.0810582111171
 31
0.0
  0
LINE
  5
184
330
595
100
AcDbEntity
  8
DATA
  6
Continuous
 62
     7
100
AcDbLine
 10
-499.8822334105607
 20
-785.0810582111171
 30
0.0
 11
88.07138991865121
 21
-785.0810582111171
 31
0.0
  0
LINE
  5
185
330
595
100
AcDbEntity
  8
DATA
  6
Continuous
 62
     7
100
AcDbLine
 10
88.07138991865121
 20
-785.0810582111171
 30
0.0
 11
88.07138991865121
 21
-767.0208974617535
 31
0.0
  0
LINE
  5
186
330
595
100
AcDbEntity
  8
DATA
  6
Continuous
 62
     7
100
AcDbLine
 10
-487.8857434996661
 20
-767.0208974617535
 30
0.0
 11
88.07138991865121
 21
-767.0208974617535
 31
0.0
  0
LINE
  5
187
330
595
100
AcDbEntity
  8
DATA
  6
Continuous
 62
     7
100
AcDbLine
 10
-456.1411050574448
 20
-1231.937222215316
 30
0.0
 11
-456.1411050574448
 21
-1230.947982864026
 31
0.0
  0
LINE
  5
188
330
595
100
AcDbEntity
  8
DATA
  6
Continuous
 62
     7
100
AcDbLine
 10
-456.1411050574448
 20
-785.0810582111171
 30
0.0
 11
-456.1411050574448
 21
-786.0676805270879
 31
0.0
  0
LINE
  5
189
330
595
100
AcDbEntity
  8
DATA
  6
Continuous
 62
     7
100
AcDbLine
 10
-458.6848633893368
 20
-1230.947982864026
 30
0.0
 11
-458.6848633893368
 21
-786.0676805270879
 31
0.0
  0
LINE
  5
18A
330
595
100
AcDbEntity
  8
DATA
  6
Continuous
 62
     7
100
AcDbLine
 10
-496.9197494273303
 20
-1230.947982864026
 30
0.0
 11
-455.0105457988266
 21
-1230.947982864026
 31
0.0
  0
LINE
  5
18B
330
595
100
AcDbEntity
  8
DATA
  6
Continuous
 62
     7
100
AcDbLine
 10
-496.9197494273303
 20
-786.0676805270879
 30
0.0
 11
-455.0105457988266
 21
-786.0676805270879
 31
0.0
  0
LINE
  5
18C
330
595
100
AcDbEntity
  8
DATA
  6
Continuous
 62
     7
100
AcDbLine
 10
-444.5685748685331
 20
-786.0676805270879
 30
0.0
 11
-444.5685748685331
 21
-1230.947982864026
 31
0.0
  0
LINE
  5
18D
330
595
100
AcDbEntity
  8
DATA
  6
Continuous
 62
     7
100
AcDbLine
 10
-455.0105457988266
 20
-786.0676805270879
 30
0.0
 11
-444.5685748685331
 21
-786.0676805270879
 31
0.0
  0
LINE
  5
18E
330
595
100
AcDbEntity
  8
DATA
  6
Continuous
 62
     7
100
AcDbLine
 10
-455.0105457988266
 20
-786.0676805270879
 30
0.0
 11
-455.0105457988266
 21
-1230.947982864026
 31
0.0
  0
LINE
  5
18F
330
595
100
AcDbEntity
  8
DATA
  6
Continuous
 62
     7
100
AcDbLine
 10
-455.0105457988266
 20
-1230.947982864026
 30
0.0
 11
-444.5685748685331
 21
-1230.947982864026
 31
0.0
  0
LINE
  5
190
330
595
100
AcDbEntity
  8
DATA
  6
Continuous
 62
     7
100
AcDbLine
 10
100.0626457589032
 20
-1231.937222215316
 30
0.0
 11
100.0626457589032
 21
-785.0810582111171
 31
0.0
  0
LINE
  5
191
330
595
100
AcDbEntity
  8
DATA
  6
Continuous
 62
     7
100
AcDbLine
 10
-455.5810594987783
 20
-1230.947982864026
 30
0.0
 11
-455.5810594987783
 21
-1231.937222215316
 31
0.0
  0
LINE
  5
192
330
595
100
AcDbEntity
  8
DATA
  6
Continuous
 62
     7
100
AcDbLine
 10
-455.5810594987783
 20
-785.0810582111171
 30
0.0
 11
-455.5810594987783
 21
-786.0676805270879
 31
0.0
  0
LINE
  5
193
330
595
100
AcDbEntity
  8
DATA
  6
Continuous
 62
     7
100
AcDbLine
 10
100.0626457589032
 20
-785.0810582111171
 30
0.0
 11
-443.5845695878838
 21
-785.0810582111171
 31
0.0
  0
LINE
  5
194
330
595
100
AcDbEntity
  8
DATA
  6
Continuous
 62
     7
100
AcDbLine
 10
88.07138991865121
 20
-1231.937222215316
 30
0.0
 11
88.07138991865121
 21
-785.0810582111171
 31
0.0
  0
LINE
  5
195
330
595
100
AcDbEntity
  8
DATA
  6
Continuous
 62
     7
100
AcDbLine
 10
-443.5845695878838
 20
-1231.937222215316
 30
0.0
 11
-443.5845695878838
 21
-785.0810582111171
 31
0.0
  0
LINE
  5
196
330
595
100
AcDbEntity
  8
DATA
  6
Continuous
 62
     7
100
AcDbLine
 10
-499.8822334105607
 20
-779.0147703373268
 30
0.0
 11
-499.8822334105607
 21
-785.0810582111171
 31
0.0
  0
LINE
  5
197
330
595
100
AcDbEntity
  8
DATA
  6
Continuous
 62
     7
100
AcDbLine
 10
-494.7999508174212
 20
-1230.947982864026
 30
0.0
 11
-494.7999508174212
 21
-1231.937222215316
 31
0.0
  0
LINE
  5
198
330
595
100
AcDbEntity
  8
DATA
  6
Continuous
 62
     7
100
AcDbLine
 10
-494.7999508174212
 20
-785.0810582111171
 30
0.0
 11
-494.7999508174212
 21
-786.0676805270879
 31
0.0
  0
LINE
  5
199
330
595
100
AcDbEntity
  8
DATA
  6
Continuous
 62
     7
100
AcDbLine
 10
-496.9197494273303
 20
-786.0676805270879
 30
0.0
 11
-496.9197494273303
 21
-1230.947982864026
 31
0.0
  0
LINE
  5
19A
330
595
100
AcDbEntity
  8
DATA
  6
Continuous
 62
     7
100
AcDbLine
 10
-929.0546464677364
 20
-785.0810582111171
 30
0.0
 11
-929.0546464677364
 21
-786.0676805270879
 31
0.0
  0
LINE
  5
19B
330
595
100
AcDbEntity
  8
DATA
  6
Continuous
 62
     7
100
AcDbLine
 10
-571.0866734395908
 20
-785.0810582111171
 30
0.0
 11
-571.0866734395908
 21
-786.0676805270879
 31
0.0
  0
LINE
  5
19C
330
595
100
AcDbEntity
  8
DATA
  6
Continuous
 62
     7
100
AcDbLine
 10
-959.2499999999999
 20
-785.0810582111171
 30
0.0
 11
-959.2499999999999
 21
-779.0147703373268
 31
0.0
  0
LINE
  5
19D
330
595
100
AcDbEntity
  8
DATA
  6
Continuous
 62
     7
100
AcDbLine
 10
-932.7263470229247
 20
-785.0810582111171
 30
0.0
 11
-932.7263470229247
 21
-779.0147703373268
 31
0.0
  0
LINE
  5
19E
330
595
100
AcDbEntity
  8
DATA
  6
Continuous
 62
     7
100
AcDbLine
 10
-952.0583869382337
 20
-785.0810582111171
 30
0.0
 11
-952.0583869382337
 21
-786.0676805270879
 31
0.0
  0
LINE
  5
19F
330
595
100
AcDbEntity
  8
DATA
  6
Continuous
 62
     7
100
AcDbLine
 10
-547.9494641677292
 20
-785.0810582111171
 30
0.0
 11
-547.9494641677292
 21
-786.0676805270879
 31
0.0
  0
LINE
  5
1A0
330
595
100
AcDbEntity
  8
DATA
  6
Continuous
 62
     7
100
AcDbLine
 10
-544.4217005551886
 20
-1230.947982864026
 30
0.0
 11
-544.4217005551886
 21
-786.0676805270879
 31
0.0
  0
LINE
  5
1A1
330
595
100
AcDbEntity
  8
DATA
  6
Continuous
 62
     7
100
AcDbLine
 10
-955.7248534227801
 20
-1230.947982864026
 30
0.0
 11
-955.7248534227801
 21
-786.0676805270879
 31
0.0
  0
LINE
  5
1A2
330
595
100
AcDbEntity
  8
DATA
  6
Continuous
 62
     7
100
AcDbLine
 10
-930.8918052629916
 20
-1230.947982864026
 30
0.0
 11
-930.8918052629916
 21
-786.0676805270879
 31
0.0
  0
LINE
  5
1A3
330
595
100
AcDbEntity
  8
DATA
  6
Continuous
 62
     7
100
AcDbLine
 10
-569.1134288076502
 20
-1230.947982864026
 30
0.0
 11
-569.1134288076502
 21
-786.0676805270879
 31
0.0
  0
LINE
  5
1A4
330
595
100
AcDbEntity
  8
DATA
  6
Continuous
 62
     7
100
AcDbLine
 10
-542.7284787025818
 20
-786.0676805270879
 30
0.0
 11
-542.7284787025818
 21
-1230.947982864026
 31
0.0
  0
LINE
  5
1A5
330
595
100
AcDbEntity
  8
DATA
  6
Continuous
 62
     7
100
AcDbLine
 10
-544.2777636125406
 20
-786.0676805270879
 30
0.0
 11
-544.2777636125406
 21
-1230.947982864026
 31
0.0
  0
LINE
  5
1A6
330
595
100
AcDbEntity
  8
DATA
  6
Continuous
 62
     7
100
AcDbLine
 10
-542.7284787025818
 20
-786.0676805270879
 30
0.0
 11
-957.2715212974175
 21
-786.0676805270879
 31
0.0
  0
LINE
  5
1A7
330
595
100
AcDbEntity
  8
DATA
  6
Continuous
 62
     7
100
AcDbLine
 10
-957.2715212974175
 20
-1230.947982864026
 30
0.0
 11
-957.2715212974175
 21
-786.0676805270879
 31
0.0
  0
LINE
  5
1A8
330
595
100
AcDbEntity
  8
DATA
  6
Continuous
 62
     7
100
AcDbLine
 10
-955.8635562947866
 20
-1230.947982864026
 30
0.0
 11
-955.8635562947866
 21
-786.0676805270879
 31
0.0
  0
LINE
  5
1A9
330
595
100
AcDbEntity
  8
DATA
  6
Continuous
 62
     7
100
AcDbLine
 10
-959.2499999999999
 20
-785.0810582111171
 30
0.0
 11
-959.2499999999999
 21
-1231.937222215316
 31
0.0
  0
LINE
  5
1AA
330
595
100
AcDbEntity
  8
DATA
  6
Continuous
 62
     7
100
AcDbLine
 10
-540.7499999999999
 20
-1231.937222215316
 30
0.0
 11
-540.7499999999999
 21
-785.0810582111171
 31
0.0
  0
LINE
  5
1AB
330
595
100
AcDbEntity
  8
DATA
  6
Continuous
 62
     7
100
AcDbLine
 10
-959.2499999999999
 20
-12.19292999493564
 30
0.0
 11
-959.2499999999999
 21
-559.7866346056025
 31
0.0
  0
LINE
  5
1AC
330
595
100
AcDbEntity
  8
DATA
  6
Continuous
 62
     7
100
AcDbLine
 10
-947.2561271244268
 20
-559.7866346056025
 30
0.0
 11
-947.2561271244268
 21
-0.2016741546835874
 31
0.0
  0
LINE
  5
1AD
330
595
100
AcDbEntity
  8
DATA
  6
Continuous
 62
     7
100
AcDbLine
 10
-552.7438728755733
 20
-0.2016741546835874
 30
0.0
 11
-947.2561271244268
 21
-0.2016741546835874
 31
0.0
  0
LINE
  5
1AE
330
595
100
AcDbEntity
  8
DATA
  6
Continuous
 62
     7
100
AcDbLine
 10
-959.2499999999999
 20
-12.19292999493564
 30
0.0
 11
-540.7499999999999
 21
-12.19292999493564
 31
0.0
  0
ARC
  5
1AF
330
595
100
AcDbEntity
  8
DATA
  6
Continuous
 62
     7
100
AcDbCircle
 10
-947.2074502756141
 20
-12.24423478814105
 30
0.0
 40
12.04265901062177
100
AcDbArc
 50
90.23159217486485
 51
179.7559046545317
  0
ARC
  5
1B0
330
595
100
AcDbEntity
  8
DATA
  6
Continuous
 62
     7
100
AcDbCircle
 10
-929.2559811441895
 20
-559.7654424774876
 30
0.0
 40
29.99402634240686
100
AcDbArc
 50
180.0404820475602
 51
263.35588870824
  0
ARC
  5
1B1
330
595
100
AcDbEntity
  8
DATA
  6
Continuous
 62
     7
100
AcDbCircle
 10
-929.2300057595262
 20
-559.8504423090739
 30
0.0
 40
18.02623429574644
100
AcDbArc
 50
179.797188936752
 51
263.3360056873033
  0
LINE
  5
1B2
330
595
100
AcDbEntity
  8
DATA
  6
Continuous
 62
     7
100
AcDbLine
 10
-947.2561271244268
 20
-559.7866346056025
 30
0.0
 11
-959.2499999999999
 21
-559.7866346056025
 31
0.0
  0
LINE
  5
1B3
330
595
100
AcDbEntity
  8
DATA
  6
Continuous
 62
     7
100
AcDbLine
 10
-931.3218887439587
 20
-577.7548872450275
 30
0.0
 11
-932.7263470229247
 21
-589.5580284158834
 31
0.0
  0
ARC
  5
1B4
330
595
100
AcDbEntity
  8
DATA
  6
Continuous
 62
     7
100
AcDbCircle
 10
-570.7440188558104
 20
-559.7654424774876
 30
0.0
 40
29.9940263424068
100
AcDbArc
 50
276.64411129176
 51
359.9595179524398
  0
ARC
  5
1B5
330
595
100
AcDbEntity
  8
DATA
  6
Continuous
 62
     7
100
AcDbCircle
 10
-570.8615901528965
 20
-559.8484640867621
 30
0.0
 40
18.02623429574657
100
AcDbArc
 50
276.6639943126967
 51
0.2028110632480207
  0
LINE
  5
1B6
330
595
100
AcDbEntity
  8
DATA
  6
Continuous
 62
     7
100
AcDbLine
 10
-552.835468787996
 20
-559.7846563832907
 30
0.0
 11
-540.7499999999999
 21
-559.7866346056025
 31
0.0
  0
LINE
  5
1B7
330
595
100
AcDbEntity
  8
DATA
  6
Continuous
 62
     7
100
AcDbLine
 10
-568.7697071684639
 20
-577.7529090227155
 30
0.0
 11
-567.273652977075
 21
-589.5580284158834
 31
0.0
  0
LINE
  5
1B8
330
595
100
AcDbEntity
  8
DATA
  6
Continuous
 62
     7
100
AcDbLine
 10
-540.7499999999999
 20
-559.7866346056025
 30
0.0
 11
-540.7499999999999
 21
-12.19292999493564
 31
0.0
  0
LINE
  5
1B9
330
595
100
AcDbEntity
  8
DATA
  6
Continuous
 62
     7
100
AcDbLine
 10
-552.7438728755733
 20
-0.2016741546835874
 30
0.0
 11
-552.8354691118034
 21
-559.7866346056025
 31
0.0
  0
ARC
  5
1BA
330
595
100
AcDbEntity
  8
DATA
  6
Continuous
 62
     7
100
AcDbCircle
 10
-552.7925497243859
 20
-12.24423478814105
 30
0.0
 40
12.04265901062193
100
AcDbArc
 50
0.2440953454682804
 51
89.76840782513516
  0
ARC
  5
1BB
330
595
100
AcDbEntity
  8
DATA
  6
Continuous
 62
     7
100
AcDbCircle
 10
-750.0000000000003
 20
1004.005163060368
 30
0.0
 40
1604.005163060368
100
AcDbArc
 50
263.4587328413844
 51
276.5412671586156
  0
ARC
  5
1BC
330
595
100
AcDbEntity
  8
DATA
  6
Continuous
 62
     7
100
AcDbCircle
 10
-750.0545122943021
 20
1019.337726609713
 30
0.0
 40
1607.346471360269
100
AcDbArc
 50
263.5247332167244
 51
276.4758920383156
  0
ARC
  5
1BD
330
595
100
AcDbEntity
  8
DATA
  6
Continuous
 62
     7
100
AcDbCircle
 10
-947.0633108831892
 20
-779.2090259064123
 30
0.0
 40
12.18823723332897
100
AcDbArc
 50
90.24208023814024
 51
179.0867838144717
  0
LINE
  5
1BE
330
595
100
AcDbEntity
  8
DATA
  6
Continuous
 62
     7
100
AcDbLine
 10
-932.7263470229247
 20
-779.0147703373268
 30
0.0
 11
-932.3023873009427
 21
-769.8446785729795
 31
0.0
  0
LINE
  5
1BF
330
595
100
AcDbEntity
  8
DATA
  6
Continuous
 62
     7
100
AcDbLine
 10
-932.3023873009427
 20
-769.8446785729795
 30
0.0
 11
-931.8784275789612
 21
-767.7274969983905
 31
0.0
  0
LINE
  5
1C0
330
595
100
AcDbEntity
  8
DATA
  6
Continuous
 62
     7
100
AcDbLine
 10
-931.8784275789612
 20
-767.7274969983905
 30
0.0
 11
-931.3157649849726
 21
-767.0208974617535
 31
0.0
  0
LINE
  5
1C1
330
595
100
AcDbEntity
  8
DATA
  6
Continuous
 62
     7
100
AcDbLine
 10
-540.7499999999999
 20
-785.0810582111171
 30
0.0
 11
-959.2499999999999
 21
-785.0810582111171
 31
0.0
  0
LINE
  5
1C2
330
595
100
AcDbEntity
  8
DATA
  6
Continuous
 62
     7
100
AcDbLine
 10
-540.7499999999999
 20
-785.0810582111171
 30
0.0
 11
-540.7499999999999
 21
-779.0147703373268
 31
0.0
  0
LINE
  5
1C3
330
595
100
AcDbEntity
  8
DATA
  6
Continuous
 62
     7
100
AcDbLine
 10
-567.273652977075
 20
-785.0810582111171
 30
0.0
 11
-567.273652977075
 21
-779.0147703373268
 31
0.0
  0
ARC
  5
1C4
330
595
100
AcDbEntity
  8
DATA
  6
Continuous
 62
     7
100
AcDbCircle
 10
-552.9366891168105
 20
-779.2090259064123
 30
0.0
 40
12.18823723332915
100
AcDbArc
 50
0.9132161855283392
 51
89.75791976185979
  0
LINE
  5
1C5
330
595
100
AcDbEntity
  8
DATA
  6
Continuous
 62
     7
100
AcDbLine
 10
-567.273652977075
 20
-779.0147703373268
 30
0.0
 11
-567.6976126990571
 21
-769.8446785729795
 31
0.0
  0
LINE
  5
1C6
330
595
100
AcDbEntity
  8
DATA
  6
Continuous
 62
     7
100
AcDbLine
 10
-567.6976126990571
 20
-769.8446785729795
 30
0.0
 11
-568.1215724210387
 21
-767.7274969983905
 31
0.0
  0
LINE
  5
1C7
330
595
100
AcDbEntity
  8
DATA
  6
Continuous
 62
     7
100
AcDbLine
 10
-568.1215724210387
 20
-767.7274969983905
 30
0.0
 11
-568.6842350150271
 21
-767.0208974617535
 31
0.0
  0
LINE
  5
1C8
330
595
100
AcDbEntity
  8
DATA
  6
Continuous
 62
     7
100
AcDbLine
 10
-929.0546464677364
 20
-1231.939839250636
 30
0.0
 11
-929.0546464677364
 21
-1230.953216934665
 31
0.0
  0
LINE
  5
1C9
330
595
100
AcDbEntity
  8
DATA
  6
Continuous
 62
     7
100
AcDbLine
 10
-571.0866734395908
 20
-1231.939839250636
 30
0.0
 11
-571.0866734395908
 21
-1230.953216934665
 31
0.0
  0
LINE
  5
1CA
330
595
100
AcDbEntity
  8
DATA
  6
Continuous
 62
     7
100
AcDbLine
 10
-959.2499999999999
 20
-1231.939839250636
 30
0.0
 11
-959.2499999999999
 21
-1238.006127124427
 31
0.0
  0
LINE
  5
1CB
330
595
100
AcDbEntity
  8
DATA
  6
Continuous
 62
     7
100
AcDbLine
 10
-932.7263470229247
 20
-1231.939839250636
 30
0.0
 11
-932.7263470229247
 21
-1238.006127124427
 31
0.0
  0
LINE
  5
1CC
330
595
100
AcDbEntity
  8
DATA
  6
Continuous
 62
     7
100
AcDbLine
 10
-952.0583869382337
 20
-1231.939839250636
 30
0.0
 11
-952.0583869382337
 21
-1230.953216934665
 31
0.0
  0
LINE
  5
1CD
330
595
100
AcDbEntity
  8
DATA
  6
Continuous
 62
     7
100
AcDbLine
 10
-547.9494641677292
 20
-1231.939839250636
 30
0.0
 11
-547.9494641677292
 21
-1230.953216934665
 31
0.0
  0
CIRCLE
  5
1CE
330
595
100
AcDbEntity
  8
DATA
  6
Continuous
 62
     7
100
AcDbCircle
 10
-599.0
 20
-1227.395545057294
 30
0.0
 40
2.557671877370921
  0
ARC
  5
1CF
330
595
100
AcDbEntity
  8
DATA
  6
Continuous
 62
     7
100
AcDbCircle
 10
-947.0633108831892
 20
-1237.811871555341
 30
0.0
 40
12.18823723332915
100
AcDbArc
 50
180.9132161855282
 51
269.7579197618597
  0
LINE
  5
1D0
330
595
100
AcDbEntity
  8
DATA
  6
Continuous
 62
     7
100
AcDbLine
 10
-932.7263470229247
 20
-1238.006127124427
 30
0.0
 11
-932.3023873009427
 21
-1247.176218888773
 31
0.0
  0
LINE
  5
1D1
330
595
100
AcDbEntity
  8
DATA
  6
Continuous
 62
     7
100
AcDbLine
 10
-932.3023873009427
 20
-1247.176218888773
 30
0.0
 11
-931.8784275789612
 21
-1249.293400463363
 31
0.0
  0
LINE
  5
1D2
330
595
100
AcDbEntity
  8
DATA
  6
Continuous
 62
     7
100
AcDbLine
 10
-931.8784275789612
 20
-1249.293400463363
 30
0.0
 11
-931.3157649849726
 21
-1250.0
 31
0.0
  0
LINE
  5
1D3
330
595
100
AcDbEntity
  8
DATA
  6
Continuous
 62
     7
100
AcDbLine
 10
-540.7499999999999
 20
-1231.939839250636
 30
0.0
 11
-959.2499999999999
 21
-1231.939839250636
 31
0.0
  0
LINE
  5
1D4
330
595
100
AcDbEntity
  8
DATA
  6
Continuous
 62
     7
100
AcDbLine
 10
-540.7499999999999
 20
-1231.939839250636
 30
0.0
 11
-540.7499999999999
 21
-1238.006127124427
 31
0.0
  0
LINE
  5
1D5
330
595
100
AcDbEntity
  8
DATA
  6
Continuous
 62
     7
100
AcDbLine
 10
-567.273652977075
 20
-1231.939839250636
 30
0.0
 11
-567.273652977075
 21
-1238.006127124427
 31
0.0
  0
ARC
  5
1D6
330
595
100
AcDbEntity
  8
DATA
  6
Continuous
 62
     7
100
AcDbCircle
 10
-552.9366891168105
 20
-1237.811871555341
 30
0.0
 40
12.18823723332897
100
AcDbArc
 50
270.2420802381403
 51
359.0867838144716
  0
LINE
  5
1D7
330
595
100
AcDbEntity
  8
DATA
  6
Continuous
 62
     7
100
AcDbLine
 10
-567.273652977075
 20
-1238.006127124427
 30
0.0
 11
-567.6976126990571
 21
-1247.176218888773
 31
0.0
  0
LINE
  5
1D8
330
595
100
AcDbEntity
  8
DATA
  6
Continuous
 62
     7
100
AcDbLine
 10
-567.6976126990571
 20
-1247.176218888773
 30
0.0
 11
-568.1215724210387
 21
-1249.293400463363
 31
0.0
  0
LINE
  5
1D9
330
595
100
AcDbEntity
  8
DATA
  6
Continuous
 62
     7
100
AcDbLine
 10
-568.1215724210387
 20
-1249.293400463363
 30
0.0
 11
-568.6842350150271
 21
-1250.0
 31
0.0
  0
ARC
  5
1DA
330
595
100
AcDbEntity
  8
DATA
  6
Continuous
 62
     7
100
AcDbCircle
 10
-487.5960484244597
 20
-779.3071459441655
 30
0.0
 40
12.2896633399036
100
AcDbArc
 50
91.35071581906728
 51
178.6367837381924
  0
ARC
  5
1DB
330
595
100
AcDbEntity
  8
DATA
  6
Continuous
 62
     7
100
AcDbCircle
 10
-477.1502228771705
 20
-779.3108721564402
 30
0.0
 40
12.2936060508289
100
AcDbArc
 50
91.39265357135812
 51
178.6198495992394
  0
ARC
  5
1DC
330
595
100
AcDbEntity
  8
DATA
  6
Continuous
 62
     7
100
AcDbCircle
 10
87.90829091621798
 20
-779.1752170021291
 30
0.0
 40
12.15541380513857
100
AcDbArc
 50
0.7563036392501092
 51
89.2311931901473
  0
LINE
  5
1DD
330
595
100
AcDbEntity
  8
DATA
  6
Continuous
 62
     7
100
AcDbLine
 10
-489.4402624802679
 20
-1231.939839250636
 30
0.0
 11
-489.4402624802679
 21
-1238.006127124427
 31
0.0
  0
LINE
  5
1DE
330
595
100
AcDbEntity
  8
DATA
  6
Continuous
 62
     7
100
AcDbLine
 10
100.0626457589032
 20
-1238.006127124427
 30
0.0
 11
100.0626457589032
 21
-1231.939839250636
 31
0.0
  0
LINE
  5
1DF
330
595
100
AcDbEntity
  8
DATA
  6
Continuous
 62
     7
100
AcDbLine
 10
-499.8822334105607
 20
-1231.939839250636
 30
0.0
 11
88.07138991865121
 21
-1231.939839250636
 31
0.0
  0
LINE
  5
1E0
330
595
100
AcDbEntity
  8
DATA
  6
Continuous
 62
     7
100
AcDbLine
 10
88.07138991865121
 20
-1231.939839250636
 30
0.0
 11
88.07138991865121
 21
-1250.0
 31
0.0
  0
LINE
  5
1E1
330
595
100
AcDbEntity
  8
DATA
  6
Continuous
 62
     7
100
AcDbLine
 10
-487.8857434996661
 20
-1250.0
 30
0.0
 11
88.07138991865121
 21
-1250.0
 31
0.0
  0
LINE
  5
1E2
330
595
100
AcDbEntity
  8
DATA
  6
Continuous
 62
     7
100
AcDbLine
 10
100.0626457589032
 20
-1231.939839250636
 30
0.0
 11
-443.5845695878838
 21
-1231.939839250636
 31
0.0
  0
LINE
  5
1E3
330
595
100
AcDbEntity
  8
DATA
  6
Continuous
 62
     7
100
AcDbLine
 10
-499.8822334105607
 20
-1238.006127124427
 30
0.0
 11
-499.8822334105607
 21
-1231.939839250636
 31
0.0
  0
ARC
  5
1E4
330
595
100
AcDbEntity
  8
DATA
  6
Continuous
 62
     7
100
AcDbCircle
 10
-487.5960484244597
 20
-1237.713751517588
 30
0.0
 40
12.28966333990353
100
AcDbArc
 50
181.3632162618076
 51
268.6492841809327
  0
ARC
  5
1E5
330
595
100
AcDbEntity
  8
DATA
  6
Continuous
 62
     7
100
AcDbCircle
 10
-477.1502228771705
 20
-1237.710025305313
 30
0.0
 40
12.29360605082911
100
AcDbArc
 50
181.3801504007605
 51
268.6073464286419
  0
ARC
  5
1E6
330
595
100
AcDbEntity
  8
DATA
  6
Continuous
 62
     7
100
AcDbCircle
 10
87.90829091621798
 20
-1237.845680459624
 30
0.0
 40
12.15541380513867
100
AcDbArc
 50
270.7688068098527
 51
359.24369636075
  0
LINE
  5
1E7
330
595
100
AcDbEntity
  8
DATA
  6
Continuous
 62
     7
100
AcDbLine
 10
-957.2715212974175
 20
-1230.947982864026
 30
0.0
 11
-542.7284787025818
 21
-1230.947982864026
 31
0.0
  0
ARC
  5
1E8
330
595
100
AcDbEntity
  8
DATA
  6
Continuous
 62
     7
100
AcDbCircle
 10
277.7720857065625
 20
-779.1842007750722
 30
0.0
 40
12.16452056795368
100
AcDbArc
 50
90.81055870031136
 51
179.2019444702896
  0
ARC
  5
1E9
330
595
100
AcDbEntity
  8
DATA
  6
Continuous
 62
     7
100
AcDbCircle
 10
277.7720857065625
 20
-1237.836696686681
 30
0.0
 40
12.16452056795323
100
AcDbArc
 50
180.7980555297104
 51
269.1894412996887
  0
LINE
  5
1EA
330
595
100
AcDbEntity
  8
DATA
  6
Continuous
 62
     7
100
AcDbLine
 10
672.1174892900161
 20
-1250.0
 30
0.0
 11
672.1174892900161
 21
-767.0208974617535
 31
0.0
  0
LINE
  5
1EB
330
595
100
AcDbEntity
  8
DATA
  6
Continuous
 62
     7
100
AcDbLine
 10
684.1087451302683
 20
-1238.008744159748
 30
0.0
 11
684.1087451302683
 21
-779.0147703373268
 31
0.0
  0
ARC
  5
1EC
330
595
100
AcDbEntity
  8
DATA
  6
Continuous
 62
     7
100
AcDbCircle
 10
671.9454045539741
 20
-779.1842007750722
 30
0.0
 40
12.16452056795323
100
AcDbArc
 50
0.7980555297104512
 51
89.18944129968863
  0
ARC
  5
1ED
330
595
100
AcDbEntity
  8
DATA
  6
Continuous
 62
     7
100
AcDbCircle
 10
671.9454045539741
 20
-1237.836696686681
 30
0.0
 40
12.16452056795368
100
AcDbArc
 50
270.8105587003113
 51
359.2019444702895
  0
ARC
  5
1EE
330
595
100
AcDbEntity
  8
DATA
  6
Continuous
 62
     7
100
AcDbCircle
 10
96.29114942556988
 20
-1029.04
 30
0.0
 40
5.271496333333377
100
AcDbArc
 50
315.6801570483698
 51
44.31984295163021
  0
ARC
  5
1EF
330
595
100
AcDbEntity
  8
DATA
  6
Continuous
 62
     7
100
AcDbCircle
 10
96.29114942556988
 20
-1150.96
 30
0.0
 40
5.271496333333377
100
AcDbArc
 50
315.6801570483698
 51
44.31984295163021
  0
ARC
  5
1F0
330
595
100
AcDbEntity
  8
DATA
  6
Continuous
 62
     7
100
AcDbCircle
 10
-788.8527665894403
 20
-3.97317048801699
 30
0.0
 40
5.271496333333377
100
AcDbArc
 50
45.68015704836978
 51
134.3198429516302
  0
ARC
  5
1F1
330
595
100
AcDbEntity
  8
DATA
  6
Continuous
 62
     7
100
AcDbCircle
 10
-711.3827665894392
 20
-3.97317048801699
 30
0.0
 40
5.271496333333377
100
AcDbArc
 50
45.68015704836978
 51
134.3198429516302
  0
TEXT
  5
1F2
330
595
100
AcDbEntity
  8
DATA
 62
     7
100
AcDbText
 10
712.4999999999996
 20
-1678.900565
 30
0.0
 40
28.50472005208333
  1
サブウーファー
 41
0.7
 11
712.4999999999996
 21
-1650.395844947917
 31
0.0
100
AcDbText
 73
     3
  0
ARC
  5
1F3
330
595
100
AcDbEntity
  8
DATA
  6
Continuous
 62
     7
100
AcDbCircle
 10
452.7749999999994
 20
-1045.549999999999
 30
0.0
 40
15.36414132905984
100
AcDbArc
 50
90.1073853577
 51
180.0
  0
ARC
  5
1F4
330
595
100
AcDbEntity
  8
DATA
  6
Continuous
 62
     7
100
AcDbCircle
 10
452.7749999999994
 20
-1134.449999999999
 30
0.0
 40
15.36413849950008
100
AcDbArc
 50
180.0
 51
270.0
  0
ARC
  5
1F5
330
595
100
AcDbEntity
  8
DATA
  6
Continuous
 62
     7
100
AcDbCircle
 10
497.2250000000002
 20
-1134.449999999999
 30
0.0
 40
15.36413849950031
100
AcDbArc
 50
270.0
 51
0.0
  0
ARC
  5
1F6
330
595
100
AcDbEntity
  8
DATA
  6
Continuous
 62
     7
100
AcDbCircle
 10
497.2250000000002
 20
-1045.549999999999
 30
0.0
 40
15.36414132906043
100
AcDbArc
 50
0.0
 51
89.89261524240072
  0
LINE
  5
1F7
330
595
100
AcDbEntity
  8
DATA
  6
Continuous
 62
     7
100
AcDbLine
 10
437.410858670939
 20
-1045.549999999999
 30
0.0
 11
439.9994624835703
 21
-1090.577649122605
 31
0.0
  0
LINE
  5
1F8
330
595
100
AcDbEntity
  8
DATA
  6
Continuous
 62
     7
100
AcDbLine
 10
437.4108615004993
 20
-1134.449999999999
 30
0.0
 11
439.9994624835703
 21
-1090.577649122605
 31
0.0
  0
LINE
  5
1F9
330
595
100
AcDbEntity
  8
DATA
  6
Continuous
 62
     7
100
AcDbLine
 10
512.5891413290608
 20
-1045.549999999999
 30
0.0
 11
510.0005375164295
 21
-1090.577649122605
 31
0.0
  0
LINE
  5
1FA
330
595
100
AcDbEntity
  8
DATA
  6
Continuous
 62
     7
100
AcDbLine
 10
512.5891384995002
 20
-1134.449999999999
 30
0.0
 11
510.0005375164295
 21
-1090.577649122605
 31
0.0
  0
LINE
  5
1FB
330
595
100
AcDbEntity
  8
DATA
  6
Continuous
 62
     7
100
AcDbLine
 10
436.8999999999992
 20
-1161.120000000001
 30
0.0
 11
513.1000000000007
 21
-1161.120000000001
 31
0.0
  0
LINE
  5
1FC
330
595
100
AcDbEntity
  8
DATA
  6
Continuous
 62
     7
100
AcDbLine
 10
497.2250000000002
 20
-1149.81414132906
 30
0.0
 11
452.7749999999994
 21
-1149.81414132906
 31
0.0
  0
LINE
  5
1FD
330
595
100
AcDbEntity
  8
DATA
  6
Continuous
 62
     7
100
AcDbLine
 10
464.3091399999992
 20
-1117.030040313465
 30
0.0
 11
472.7139999999995
 21
-1117.030040313465
 31
0.0
  0
LINE
  5
1FE
330
595
100
AcDbEntity
  8
DATA
  6
Continuous
 62
     7
100
AcDbLine
 10
477.2859999999992
 20
-1117.030040313465
 30
0.0
 11
485.6908599999996
 21
-1117.030040313465
 31
0.0
  0
LINE
  5
1FF
330
595
100
AcDbEntity
  8
DATA
  6
Continuous
 62
     7
100
AcDbLine
 10
485.6908599999996
 20
-1108.378800313465
 30
0.0
 11
477.2859999999992
 21
-1108.378800313465
 31
0.0
  0
LINE
  5
200
330
595
100
AcDbEntity
  8
DATA
  6
Continuous
 62
     7
100
AcDbLine
 10
472.7139999999995
 20
-1108.378800313465
 30
0.0
 11
464.3091399999992
 21
-1108.378800313465
 31
0.0
  0
LINE
  5
201
330
595
100
AcDbEntity
  8
DATA
  6
Continuous
 62
     7
100
AcDbLine
 10
426.104999999999
 20
-1029.675
 30
0.0
 11
426.104999999999
 21
-1150.325
 31
0.0
  0
LINE
  5
202
330
595
100
AcDbEntity
  8
DATA
  6
Continuous
 62
     7
100
AcDbLine
 10
457.2199999999991
 20
-1044.34862230116
 30
0.0
 11
457.2199999999991
 21
-1045.66658100636
 31
0.0
  0
LINE
  5
203
330
595
100
AcDbEntity
  8
DATA
  6
Continuous
 62
     7
100
AcDbLine
 10
458.3629999999997
 20
-1062.965549588439
 30
0.0
 11
458.3629999999997
 21
-1064.249497950179
 31
0.0
  0
LINE
  5
204
330
595
100
AcDbEntity
  8
DATA
  6
Continuous
 62
     7
100
AcDbLine
 10
513.1000000000007
 20
-1018.88
 30
0.0
 11
436.8999999999992
 21
-1018.88
 31
0.0
  0
LINE
  5
205
330
595
100
AcDbEntity
  8
DATA
  6
Continuous
 62
     7
100
AcDbLine
 10
460.2147969618793
 20
-1103.243057275344
 30
0.0
 11
460.2147969618793
 21
-1122.145463351585
 31
0.0
  0
LINE
  5
206
330
595
100
AcDbEntity
  8
DATA
  6
Continuous
 62
     7
100
AcDbLine
 10
461.1569999999992
 20
-1064.249497950179
 30
0.0
 11
461.1569999999992
 21
-1062.965549588439
 31
0.0
  0
LINE
  5
207
330
595
100
AcDbEntity
  8
DATA
  6
Continuous
 62
     7
100
AcDbLine
 10
462.2999999999996
 20
-1045.66658100636
 30
0.0
 11
462.2999999999996
 21
-1044.34862230116
 31
0.0
  0
LINE
  5
208
330
595
100
AcDbEntity
  8
DATA
  6
Continuous
 62
     7
100
AcDbLine
 10
464.3091399999992
 20
-1108.378800313465
 30
0.0
 11
464.3091399999992
 21
-1117.030040313465
 31
0.0
  0
LINE
  5
209
330
595
100
AcDbEntity
  8
DATA
  6
Continuous
 62
     7
100
AcDbLine
 10
472.7139999999995
 20
-1117.030040313465
 30
0.0
 11
472.7139999999995
 21
-1108.378800313465
 31
0.0
  0
LINE
  5
20A
330
595
100
AcDbEntity
  8
DATA
  6
Continuous
 62
     7
100
AcDbLine
 10
477.2859999999992
 20
-1108.378800313465
 30
0.0
 11
477.2859999999992
 21
-1117.030040313465
 31
0.0
  0
LINE
  5
20B
330
595
100
AcDbEntity
  8
DATA
  6
Continuous
 62
     7
100
AcDbLine
 10
485.6908599999996
 20
-1117.030040313465
 30
0.0
 11
485.6908599999996
 21
-1108.378800313465
 31
0.0
  0
LINE
  5
20C
330
595
100
AcDbEntity
  8
DATA
  6
Continuous
 62
     7
100
AcDbLine
 10
487.6999999999997
 20
-1044.34862230116
 30
0.0
 11
487.6999999999997
 21
-1045.66658100636
 31
0.0
  0
LINE
  5
20D
330
595
100
AcDbEntity
  8
DATA
  6
Continuous
 62
     7
100
AcDbLine
 10
488.8429999999996
 20
-1062.965549588439
 30
0.0
 11
488.8429999999996
 21
-1064.249497950179
 31
0.0
  0
LINE
  5
20E
330
595
100
AcDbEntity
  8
DATA
  6
Continuous
 62
     7
100
AcDbLine
 10
489.7852030381199
 20
-1122.145463351585
 30
0.0
 11
489.7852030381199
 21
-1103.243057275344
 31
0.0
  0
LINE
  5
20F
330
595
100
AcDbEntity
  8
DATA
  6
Continuous
 62
     7
100
AcDbLine
 10
491.6369999999991
 20
-1064.249497950179
 30
0.0
 11
491.6369999999991
 21
-1062.965549588439
 31
0.0
  0
LINE
  5
210
330
595
100
AcDbEntity
  8
DATA
  6
Continuous
 62
     7
100
AcDbLine
 10
492.7799999999996
 20
-1045.66658100636
 30
0.0
 11
492.7799999999996
 21
-1044.34862230116
 31
0.0
  0
LINE
  5
211
330
595
100
AcDbEntity
  8
DATA
  6
Continuous
 62
     7
100
AcDbLine
 10
523.8949999999999
 20
-1150.325
 30
0.0
 11
523.8949999999999
 21
-1029.675
 31
0.0
  0
CIRCLE
  5
212
330
595
100
AcDbEntity
  8
DATA
  6
Continuous
 62
     7
100
AcDbCircle
 10
468.5115699999998
 20
-1112.694260313465
 30
0.0
 40
2.793999999999869
  0
ARC
  5
213
330
595
100
AcDbEntity
  8
DATA
  6
Continuous
 62
     7
100
AcDbCircle
 10
490.2399999999996
 20
-1054.186
 30
0.0
 40
8.890000000000128
100
AcDbArc
 50
106.6015495990014
 51
260.9589038514013
  0
ARC
  5
214
330
595
100
AcDbEntity
  8
DATA
  6
Continuous
 62
     7
100
AcDbCircle
 10
490.2399999999996
 20
-1054.186
 30
0.0
 40
8.889999999999837
100
AcDbArc
 50
279.0410961485986
 51
73.39845040099863
  0
ARC
  5
215
330
595
100
AcDbEntity
  8
DATA
  6
Continuous
 62
     7
100
AcDbCircle
 10
490.2399999999996
 20
-1054.186
 30
0.0
 40
10.16000000000004
100
AcDbArc
 50
262.0967922665004
 51
277.9032077334997
  0
ARC
  5
216
330
595
100
AcDbEntity
  8
DATA
  6
Continuous
 62
     7
100
AcDbCircle
 10
490.2399999999996
 20
-1054.186
 30
0.0
 40
10.16000000000014
100
AcDbArc
 50
75.52248781409962
 51
104.4775121859004
  0
CIRCLE
  5
217
330
595
100
AcDbEntity
  8
DATA
  6
Continuous
 62
     7
100
AcDbCircle
 10
490.2399999999996
 20
-1054.186
 30
0.0
 40
6.096000000000003
  0
CIRCLE
  5
218
330
595
100
AcDbEntity
  8
DATA
  6
Continuous
 62
     7
100
AcDbCircle
 10
490.2399999999996
 20
-1054.186
 30
0.0
 40
3.302000000000134
  0
ARC
  5
219
330
595
100
AcDbEntity
  8
DATA
  6
Continuous
 62
     7
100
AcDbCircle
 10
459.7599999999991
 20
-1054.186
 30
0.0
 40
8.890000000000128
100
AcDbArc
 50
106.6015495990014
 51
260.9589038514013
  0
ARC
  5
21A
330
595
100
AcDbEntity
  8
DATA
  6
Continuous
 62
     7
100
AcDbCircle
 10
459.7599999999991
 20
-1054.186
 30
0.0
 40
8.889999999999837
100
AcDbArc
 50
279.0410961485986
 51
73.39845040099863
  0
ARC
  5
21B
330
595
100
AcDbEntity
  8
DATA
  6
Continuous
 62
     7
100
AcDbCircle
 10
459.7599999999991
 20
-1054.186
 30
0.0
 40
10.16000000000004
100
AcDbArc
 50
262.0967922665004
 51
277.9032077334997
  0
ARC
  5
21C
330
595
100
AcDbEntity
  8
DATA
  6
Continuous
 62
     7
100
AcDbCircle
 10
459.7599999999991
 20
-1054.186
 30
0.0
 40
10.16000000000014
100
AcDbArc
 50
75.52248781409962
 51
104.4775121859004
  0
CIRCLE
  5
21D
330
595
100
AcDbEntity
  8
DATA
  6
Continuous
 62
     7
100
AcDbCircle
 10
459.7599999999991
 20
-1054.186
 30
0.0
 40
6.096000000000003
  0
CIRCLE
  5
21E
330
595
100
AcDbEntity
  8
DATA
  6
Continuous
 62
     7
100
AcDbCircle
 10
459.7599999999991
 20
-1054.186
 30
0.0
 40
3.302000000000134
  0
CIRCLE
  5
21F
330
595
100
AcDbEntity
  8
DATA
  6
Continuous
 62
     7
100
AcDbCircle
 10
436.2649999999991
 20
-1029.04
 30
0.0
 40
3.682999999999992
  0
ARC
  5
220
330
595
100
AcDbEntity
  8
DATA
  6
Continuous
 62
     7
100
AcDbCircle
 10
490.2399999999996
 20
-1054.186
 30
0.0
 40
12.0192329947602
100
AcDbArc
 50
311.6710695931018
 51
123.7809344450993
  0
ARC
  5
221
330
595
100
AcDbEntity
  8
DATA
  6
Continuous
 62
     7
100
AcDbCircle
 10
480.7403999999993
 20
-1042.240379999999
 30
0.0
 40
3.429000000000279
100
AcDbArc
 50
325.2280175225006
 51
291.7580260589016
  0
ARC
  5
222
330
595
100
AcDbEntity
  8
DATA
  6
Continuous
 62
     7
100
AcDbCircle
 10
490.2399999999996
 20
-1054.186
 30
0.0
 40
12.01923299476016
100
AcDbArc
 50
133.2051091362996
 51
304.7956780787006
  0
ARC
  5
223
330
595
100
AcDbEntity
  8
DATA
  6
Continuous
 62
     7
100
AcDbCircle
 10
499.7396
 20
-1066.243379999999
 30
0.0
 40
3.429000000000104
100
AcDbArc
 50
140.3663339330041
 51
116.1004137387004
  0
ARC
  5
224
330
595
100
AcDbEntity
  8
DATA
  6
Continuous
 62
     7
100
AcDbCircle
 10
459.7599999999991
 20
-1054.186
 30
0.0
 40
12.01923299476001
100
AcDbArc
 50
133.2051091362988
 51
304.7956780787006
  0
ARC
  5
225
330
595
100
AcDbEntity
  8
DATA
  6
Continuous
 62
     7
100
AcDbCircle
 10
469.2595999999999
 20
-1066.243379999999
 30
0.0
 40
3.429000000000104
100
AcDbArc
 50
140.3663339330041
 51
116.1004137387004
  0
ARC
  5
226
330
595
100
AcDbEntity
  8
DATA
  6
Continuous
 62
     7
100
AcDbCircle
 10
459.7599999999991
 20
-1054.186
 30
0.0
 40
12.0192329947602
100
AcDbArc
 50
311.6710695931018
 51
123.7809344450993
  0
ARC
  5
227
330
595
100
AcDbEntity
  8
DATA
  6
Continuous
 62
     7
100
AcDbCircle
 10
450.2603999999989
 20
-1042.240379999999
 30
0.0
 40
3.429000000000279
100
AcDbArc
 50
325.2280175225006
 51
291.7580260589052
  0
ARC
  5
228
330
595
100
AcDbEntity
  8
DATA
  6
Continuous
 62
     7
100
AcDbCircle
 10
436.8999999999992
 20
-1029.675
 30
0.0
 40
10.79499999999984
100
AcDbArc
 50
90.0
 51
180.0
  0
ARC
  5
229
330
595
100
AcDbEntity
  8
DATA
  6
Continuous
 62
     7
100
AcDbCircle
 10
436.8999999999992
 20
-1150.325
 30
0.0
 40
10.7950000000003
100
AcDbArc
 50
180.0
 51
270.0
  0
ARC
  5
22A
330
595
100
AcDbEntity
  8
DATA
  6
Continuous
 62
     7
100
AcDbCircle
 10
513.1000000000007
 20
-1150.325
 30
0.0
 40
10.79500000000121
100
AcDbArc
 50
270.0
 51
0.0
  0
ARC
  5
22B
330
595
100
AcDbEntity
  8
DATA
  6
Continuous
 62
     7
100
AcDbCircle
 10
513.1000000000007
 20
-1029.675
 30
0.0
 40
10.79500000000007
100
AcDbArc
 50
0.0
 51
90.0
  0
LINE
  5
22C
330
595
100
AcDbEntity
  8
DATA
  6
Continuous
 62
     7
100
AcDbLine
 10
498.2304902285219
 20
-1063.164529260544
 30
0.0
 11
498.2310263496402
 21
-1063.16405433494
 31
0.0
  0
ARC
  5
22D
330
595
100
AcDbEntity
  8
DATA
  6
Continuous
 62
     7
100
AcDbCircle
 10
489.953976397933
 20
-1053.821010591041
 30
0.0
 40
12.4820680303903
100
AcDbArc
 50
310.7455526025384
 51
311.5346085864688
  0
LINE
  5
22E
330
595
100
AcDbEntity
  8
DATA
  6
Continuous
 62
     7
100
AcDbLine
 10
498.0739093168232
 20
-1063.300989153418
 30
0.0
 11
498.1010340217935
 21
-1063.27762068075
 31
0.0
  0
ARC
  5
22F
330
595
100
AcDbEntity
  8
DATA
  6
Continuous
 62
     7
100
AcDbCircle
 10
491.7669363972912
 20
-1055.980237723865
 30
0.0
 40
9.662883053262248
100
AcDbArc
 50
309.3017642542057
 51
310.7455526024608
  0
LINE
  5
230
330
595
100
AcDbEntity
  8
DATA
  6
Continuous
 62
     7
100
AcDbLine
 10
497.8548181039896
 20
-1063.484288878643
 30
0.0
 11
497.8874519431224
 21
-1063.457576712721
 31
0.0
  0
ARC
  5
231
330
595
100
AcDbEntity
  8
DATA
  6
Continuous
 62
     7
100
AcDbCircle
 10
490.4973660557408
 20
-1054.495803734385
 30
0.0
 40
11.61572063329885
100
AcDbArc
 50
308.4924308691585
 51
309.3017642542549
  0
LWPOLYLINE
  5
232
330
595
100
AcDbEntity
  8
DATA
  6
Continuous
 62
     7
100
AcDbPolyline
 90
       66
 70
   128
 43
0.0
 10
497.5796038832968
 20
-1063.702996504255
 10
497.5822025033004
 20
-1063.700980533334
 10
497.5847918006943
 20
-1063.698971180597
 10
497.5873717754785
 20
-1063.696968446044
 10
497.589942427653
 20
-1063.694972329676
 10
497.592503757218
 20
-1063.692982831492
 10
497.5950557641731
 20
-1063.690999951492
 10
497.5975984485187
 20
-1063.689023689677
 10
497.6001318102546
 20
-1063.687054046046
 10
497.6026558493808
 20
-1063.6850910206
 10
497.6051705658973
 20
-1063.683134613337
 10
497.6076759598043
 20
-1063.681184824259
 10
497.6101720311016
 20
-1063.679241653366
 10
497.6126587797891
 20
-1063.677305100656
 10
497.6151362058669
 20
-1063.675375166132
 10
497.6176043093351
 20
-1063.673451849791
 10
497.6200630901938
 20
-1063.671535151635
 10
497.6225125484427
 20
-1063.669625071663
 10
497.624952684082
 20
-1063.667721609876
 10
497.6273834971115
 20
-1063.665824766272
 10
497.6298049875313
 20
-1063.663934540854
 10
497.6322171553416
 20
-1063.662050933619
 10
497.6346200005421
 20
-1063.660173944569
 10
497.6370135231329
 20
-1063.658303573703
 10
497.6393977231142
 20
-1063.656439821022
 10
497.6417726004857
 20
-1063.654582686525
 10
497.6441381552477
 20
-1063.652732170212
 10
497.6464943873999
 20
-1063.650888272083
 10
497.6488412969425
 20
-1063.649050992139
 10
497.6511788838752
 20
-1063.64722033038
 10
497.6535071481985
 20
-1063.645396286804
 10
497.6558260899119
 20
-1063.643578861413
 10
497.658135709016
 20
-1063.641768054206
 10
497.6604360055103
 20
-1063.639963865184
 10
497.6627269793949
 20
-1063.638166294346
 10
497.6650086306697
 20
-1063.636375341693
 10
497.6672809593348
 20
-1063.634591007223
 10
497.6695439653904
 20
-1063.632813290938
 10
497.6717976488362
 20
-1063.631042192837
 10
497.6740420096724
 20
-1063.629277712921
 10
497.676277047899
 20
-1063.627519851189
 10
497.6785027635159
 20
-1063.625768607642
 10
497.6807191565231
 20
-1063.624023982278
 10
497.6829262269206
 20
-1063.6222859751
 10
497.6851239747084
 20
-1063.620554586105
 10
497.6873123998867
 20
-1063.618829815295
 10
497.6894915024551
 20
-1063.617111662669
 10
497.6916612824141
 20
-1063.615400128227
 10
497.6938217397633
 20
-1063.61369521197
 10
497.6959728745028
 20
-1063.611996913897
 10
497.6981146866328
 20
-1063.610305234009
 10
497.7002471761529
 20
-1063.608620172304
 10
497.7023703430635
 20
-1063.606941728785
 10
497.7044841873643
 20
-1063.605269903449
 10
497.7065887090556
 20
-1063.603604696298
 10
497.7086839081372
 20
-1063.601946107332
 10
497.710769784609
 20
-1063.600294136549
 10
497.7128463384712
 20
-1063.59864878395
 10
497.7149135697238
 20
-1063.597010049537
 10
497.7169714783665
 20
-1063.595377933308
 10
497.7190200643997
 20
-1063.593752435262
 10
497.7210593278234
 20
-1063.592133555402
 10
497.7230892686372
 20
-1063.590521293725
 10
497.7251098868414
 20
-1063.588915650233
 10
497.7271211824359
 20
-1063.587316624926
 10
497.7271211824359
 20
-1063.587316624926
  0
ARC
  5
276
330
595
100
AcDbEntity
  8
DATA
  6
Continuous
 62
     7
100
AcDbCircle
 10
491.5981170624777
 20
-1055.991588114614
 30
0.0
 40
9.759303455649888
100
AcDbArc
 50
306.5616963380191
 51
307.7995608418262
  0
LINE
  5
277
330
595
100
AcDbEntity
  8
DATA
  6
Continuous
 62
     7
100
AcDbLine
 10
497.3762085032709
 20
-1063.856675948297
 30
0.0
 11
497.4116173922223
 21
-1063.830415696307
 31
0.0
  0
ARC
  5
278
330
595
100
AcDbEntity
  8
DATA
  6
Continuous
 62
     7
100
AcDbCircle
 10
490.9649443167068
 20
-1055.211833480103
 30
0.0
 40
10.76278819682893
100
AcDbArc
 50
305.616036687048
 51
306.5616963378711
  0
LWPOLYLINE
  5
279
330
595
100
AcDbEntity
  8
DATA
  6
Continuous
 62
     7
100
AcDbPolyline
 90
       66
 70
   128
 43
0.0
 10
497.0987948421996
 20
-1064.05610106748
 10
497.1007242521896
 20
-1064.054753167043
 10
497.1026588122941
 20
-1064.053401038118
 10
497.1045985225127
 20
-1064.052044680704
 10
497.1065433828455
 20
-1064.050684094802
 10
497.1084933932925
 20
-1064.049319280412
 10
497.1104485538537
 20
-1064.047950237534
 10
497.1124088645292
 20
-1064.046576966167
 10
497.114374325319
 20
-1064.045199466312
 10
497.1163449362228
 20
-1064.043817737969
 10
497.1183206972411
 20
-1064.042431781138
 10
497.1203016083737
 20
-1064.041041595817
 10
497.1222876696203
 20
-1064.039647182009
 10
497.1242788809812
 20
-1064.038248539712
 10
497.1262752424565
 20
-1064.036845668927
 10
497.1282767540457
 20
-1064.035438569654
 10
497.1302834157494
 20
-1064.034027241892
 10
497.1322952275672
 20
-1064.032611685642
 10
497.1343121894993
 20
-1064.031191900904
 10
497.1363343015457
 20
-1064.029767887677
 10
497.1383615637062
 20
-1064.028339645962
 10
497.140393975981
 20
-1064.026907175759
 10
497.14243153837
 20
-1064.025470477067
 10
497.1444742508734
 20
-1064.024029549888
 10
497.1465221134908
 20
-1064.02258439422
 10
497.1485751262226
 20
-1064.021135010063
 10
497.1506332890688
 20
-1064.019681397419
 10
497.1526966020288
 20
-1064.018223556286
 10
497.1547650651031
 20
-1064.016761486664
 10
497.1568386782919
 20
-1064.015295188554
 10
497.1589174415948
 20
-1064.013824661956
 10
497.161001355012
 20
-1064.01234990687
 10
497.1630904185434
 20
-1064.010870923295
 10
497.1651846321891
 20
-1064.009387711232
 10
497.1672839959489
 20
-1064.007900270681
 10
497.1693885098231
 20
-1064.00640860164
 10
497.1714981738113
 20
-1064.004912704112
 10
497.173612987914
 20
-1064.003412578097
 10
497.1757329521308
 20
-1064.001908223592
 10
497.1778580664617
 20
-1064.000399640599
 10
497.1799883309071
 20
-1063.998886829117
 10
497.1821237454665
 20
-1063.997369789148
 10
497.1842643101403
 20
-1063.995848520689
 10
497.1864100249283
 20
-1063.994323023743
 10
497.1885608898305
 20
-1063.992793298309
 10
497.190716904847
 20
-1063.991259344386
 10
497.1928780699776
 20
-1063.989721161975
 10
497.1950443852225
 20
-1063.988178751075
 10
497.1972158505817
 20
-1063.986632111687
 10
497.1993924660552
 20
-1063.985081243812
 10
497.2015742316428
 20
-1063.983526147447
 10
497.2037611473446
 20
-1063.981966822594
 10
497.2059532131607
 20
-1063.980403269253
 10
497.2081504290911
 20
-1063.978835487423
 10
497.2103527951356
 20
-1063.977263477105
 10
497.2125603112944
 20
-1063.975687238299
 10
497.2147729775675
 20
-1063.974106771005
 10
497.2169907939548
 20
-1063.972522075222
 10
497.2192137604562
 20
-1063.970933150951
 10
497.2214418770719
 20
-1063.969339998192
 10
497.223675143802
 20
-1063.967742616944
 10
497.2259135606463
 20
-1063.966141007208
 10
497.2281571276047
 20
-1063.964535168984
 10
497.2304058446773
 20
-1063.962925102271
 10
497.2326597118644
 20
-1063.96131080707
 10
497.2326597118644
 20
-1063.96131080707
  0
LINE
  5
2BD
330
595
100
AcDbEntity
  8
DATA
  6
Continuous
 62
     7
100
AcDbLine
 10
482.0120926904215
 20
-1045.424525228971
 30
0.0
 11
482.0114875822793
 21
-1045.42508993232
 31
0.0
  0
LWPOLYLINE
  5
2BE
330
595
100
AcDbEntity
  8
DATA
  6
Continuous
 62
     7
100
AcDbPolyline
 90
       66
 70
   128
 43
0.0
 10
482.1412102664588
 20
-1045.305698404036
 10
482.1389194827967
 20
-1045.307784579125
 10
482.136637376009
 20
-1045.30986346831
 10
482.1343639460953
 20
-1045.311935071592
 10
482.1320991930559
 20
-1045.313999388971
 10
482.1298431168905
 20
-1045.316056420447
 10
482.1275957175994
 20
-1045.318106166019
 10
482.1253569951824
 20
-1045.320148625688
 10
482.1231269496397
 20
-1045.322183799455
 10
482.1209055809712
 20
-1045.324211687318
 10
482.1186928891767
 20
-1045.326232289278
 10
482.1164888742565
 20
-1045.328245605335
 10
482.1142935362104
 20
-1045.330251635489
 10
482.1121068750385
 20
-1045.33225037974
 10
482.1099288907408
 20
-1045.334241838087
 10
482.1077595833171
 20
-1045.336226010532
 10
482.1055989527676
 20
-1045.338202897073
 10
482.1034469990925
 20
-1045.340172497711
 10
482.1013037222914
 20
-1045.342134812446
 10
482.0991691223645
 20
-1045.344089841278
 10
482.0970431993117
 20
-1045.346037584206
 10
482.0949259531331
 20
-1045.347978041232
 10
482.0928173838288
 20
-1045.349911212355
 10
482.0907174913985
 20
-1045.351837097574
 10
482.0886262758426
 20
-1045.35375569689
 10
482.0865437371606
 20
-1045.355667010303
 10
482.0844698753528
 20
-1045.357571037813
 10
482.0824046904195
 20
-1045.35946777942
 10
482.0803481823601
 20
-1045.361357235124
 10
482.078300351175
 20
-1045.363239404925
 10
482.076261196864
 20
-1045.365114288822
 10
482.0742307194271
 20
-1045.366981886816
 10
482.0722089188645
 20
-1045.368842198908
 10
482.070195795176
 20
-1045.370695225096
 10
482.0681913483617
 20
-1045.37254096538
 10
482.0661955784214
 20
-1045.374379419762
 10
482.0642084853554
 20
-1045.376210588241
 10
482.0622300691637
 20
-1045.378034470816
 10
482.060260329846
 20
-1045.379851067488
 10
482.0582992674025
 20
-1045.381660378258
 10
482.0563468818333
 20
-1045.383462403124
 10
482.0544031731382
 20
-1045.385257142087
 10
482.0524681413171
 20
-1045.387044595146
 10
482.0505417863704
 20
-1045.388824762303
 10
482.0486241082978
 20
-1045.390597643557
 10
482.0467151070993
 20
-1045.392363238907
 10
482.0448147827751
 20
-1045.394121548354
 10
482.0429231353251
 20
-1045.395872571899
 10
482.0410401647491
 20
-1045.39761630954
 10
482.0391658710472
 20
-1045.399352761278
 10
482.0373002542197
 20
-1045.401081927113
 10
482.0354433142663
 20
-1045.402803807044
 10
482.0335950511871
 20
-1045.404518401073
 10
482.0317554649821
 20
-1045.406225709198
 10
482.0299245556511
 20
-1045.407925731421
 10
482.0281023231943
 20
-1045.40961846774
 10
482.0262887676118
 20
-1045.411303918156
 10
482.0244838889033
 20
-1045.412982082669
 10
482.0226876870692
 20
-1045.414652961278
 10
482.0209001621092
 20
-1045.416316553985
 10
482.0191213140232
 20
-1045.417972860788
 10
482.0173511428116
 20
-1045.419621881689
 10
482.015589648474
 20
-1045.421263616686
 10
482.0138368310107
 20
-1045.42289806578
 10
482.0120926904215
 20
-1045.424525228971
 10
482.0120926904215
 20
-1045.424525228971
  0
ARC
  5
302
330
595
100
AcDbEntity
  8
DATA
  6
Continuous
 62
     7
100
AcDbCircle
 10
488.955337418238
 20
-1052.78924649955
 30
0.0
 40
10.12105829142745
100
AcDbArc
 50
131.19478299469
 51
132.3193540582409
  0
LINE
  5
303
330
595
100
AcDbEntity
  8
DATA
  6
Continuous
 62
     7
100
AcDbLine
 10
482.2984958879762
 20
-1045.16543983796
 30
0.0
 11
482.2893964210734
 21
-1045.17340435565
 31
0.0
  0
ARC
  5
304
330
595
100
AcDbEntity
  8
DATA
  6
Continuous
 62
     7
100
AcDbCircle
 10
491.4462003994795
 20
-1055.616698492732
 30
0.0
 40
13.88917943215937
100
AcDbArc
 50
130.2755303968609
 51
131.1947829946211
  0
LINE
  5
305
330
595
100
AcDbEntity
  8
DATA
  6
Continuous
 62
     7
100
AcDbLine
 10
482.469026149991
 20
-1045.018601840808
 30
0.0
 11
482.4673458535668
 21
-1045.020025602524
 31
0.0
  0
ARC
  5
306
330
595
100
AcDbEntity
  8
DATA
  6
Continuous
 62
     7
100
AcDbCircle
 10
489.7148688362389
 20
-1053.570007186266
 30
0.0
 40
11.20842404694765
100
AcDbArc
 50
129.1139159999325
 51
130.2755303968823
  0
LINE
  5
307
330
595
100
AcDbEntity
  8
DATA
  6
Continuous
 62
     7
100
AcDbLine
 10
482.671949301684
 20
-1044.850640046709
 30
0.0
 11
482.6438745260541
 21
-1044.873467122452
 31
0.0
  0
ARC
  5
308
330
595
100
AcDbEntity
  8
DATA
  6
Continuous
 62
     7
100
AcDbCircle
 10
489.3966003128079
 20
-1053.121216201643
 30
0.0
 40
10.65942592994416
100
AcDbArc
 50
127.7107328517914
 51
129.1139159998953
  0
LINE
  5
309
330
595
100
AcDbEntity
  8
DATA
  6
Continuous
 62
     7
100
AcDbLine
 10
482.8795005048569
 20
-1044.686123688921
 30
0.0
 11
482.8764933530352
 21
-1044.688448779907
 31
0.0
  0
ARC
  5
30A
330
595
100
AcDbEntity
  8
DATA
  6
Continuous
 62
     7
100
AcDbCircle
 10
491.8953930677205
 20
-1056.3468104769
 30
0.0
 40
14.7396721494221
100
AcDbArc
 50
126.7255051814559
 51
127.7107328517754
  0
ARC
  5
30B
330
595
100
AcDbEntity
  8
DATA
  6
Continuous
 62
     7
100
AcDbCircle
 10
489.5792927729011
 20
-1053.242408552915
 30
0.0
 40
10.86647813397363
100
AcDbArc
 50
125.3891354628054
 51
126.7255051813916
  0
LINE
  5
30C
330
595
100
AcDbEntity
  8
DATA
  6
Continuous
 62
     7
100
AcDbLine
 10
483.3054544183777
 20
-1044.369987483476
 30
0.0
 11
483.286226282724
 21
-1044.383646721465
 31
0.0
  0
ARC
  5
30D
330
595
100
AcDbEntity
  8
DATA
  6
Continuous
 62
     7
100
AcDbCircle
 10
490.3174314321264
 20
-1054.240761045042
 30
0.0
 40
12.1078483780172
100
AcDbArc
 50
123.9665743684027
 51
125.3891354627939
  0
LINE
  5
30E
330
595
100
AcDbEntity
  8
DATA
  6
Continuous
 62
     7
100
AcDbLine
 10
483.5570772596997
 20
-1044.1959797083
 30
0.0
 11
483.5526656556866
 21
-1044.198951629654
 31
0.0
  0
LINE
  5
30F
330
595
100
AcDbEntity
  8
DATA
  6
Continuous
 62
     7
100
AcDbLine
 10
467.7504902264292
 20
-1063.164529262021
 30
0.0
 11
467.7510263496393
 21
-1063.16405433494
 31
0.0
  0
ARC
  5
310
330
595
100
AcDbEntity
  8
DATA
  6
Continuous
 62
     7
100
AcDbCircle
 10
459.4719307908905
 20
-1053.818686468354
 30
0.0
 40
12.48516414996984
100
AcDbArc
 50
310.5682048147992
 51
311.5345635494181
  0
LINE
  5
311
330
595
100
AcDbEntity
  8
DATA
  6
Continuous
 62
     7
100
AcDbLine
 10
467.5826676676924
 20
-1063.310546786338
 30
0.0
 11
467.5916919315585
 21
-1063.302820739345
 31
0.0
  0
ARC
  5
312
330
595
100
AcDbEntity
  8
DATA
  6
Continuous
 62
     7
100
AcDbCircle
 10
460.3091040982008
 20
-1054.814797671719
 30
0.0
 40
11.18402789776503
100
AcDbArc
 50
309.5376938814752
 51
310.5682048147572
  0
ARC
  5
313
330
595
100
AcDbEntity
  8
DATA
  6
Continuous
 62
     7
100
AcDbCircle
 10
458.3948153066988
 20
-1052.495689873199
 30
0.0
 40
14.19114654497942
100
AcDbArc
 50
308.72554098667
 51
309.5376938814895
  0
LINE
  5
314
330
595
100
AcDbEntity
  8
DATA
  6
Continuous
 62
     7
100
AcDbLine
 10
467.2624561907416
 20
-1063.57511930501
 30
0.0
 11
467.2726616278503
 21
-1063.566935736204
 31
0.0
  0
ARC
  5
315
330
595
100
AcDbEntity
  8
DATA
  6
Continuous
 62
     7
100
AcDbCircle
 10
460.8427093342648
 20
-1055.569281711595
 30
0.0
 40
10.26189969125463
100
AcDbArc
 50
307.4563750467443
 51
308.7255409866196
  0
LINE
  5
316
330
595
100
AcDbEntity
  8
DATA
  6
Continuous
 62
     7
100
AcDbLine
 10
467.0505522478452
 20
-1063.74063413047
 30
0.0
 11
467.083557456769
 21
-1063.715348246139
 31
0.0
  0
ARC
  5
317
330
595
100
AcDbEntity
  8
DATA
  6
Continuous
 62
     7
100
AcDbCircle
 10
460.40425133792
 20
-1055.065337382617
 30
0.0
 40
10.92859046028229
100
AcDbArc
 50
306.2532092559195
 51
307.4563750466666
  0
ARC
  5
318
330
595
100
AcDbEntity
  8
DATA
  6
Continuous
 62
     7
100
AcDbCircle
 10
459.114288585196
 20
-1053.306256803573
 30
0.0
 40
13.10995892686134
100
AcDbArc
 50
305.2502271968206
 51
306.2532092559737
  0
LINE
  5
319
330
595
100
AcDbEntity
  8
DATA
  6
Continuous
 62
     7
100
AcDbLine
 10
466.6187948421991
 20
-1064.05610106748
 30
0.0
 11
466.6806807747549
 21
-1064.012364046534
 31
0.0
  0
LWPOLYLINE
  5
31A
330
595
100
AcDbEntity
  8
DATA
  6
Continuous
 62
     7
100
AcDbPolyline
 90
        3
 70
     0
 43
0.0
 10
451.54645362148
 20
-1045.411124284485
 10
451.5320927036458
 20
-1045.424525219835
 10
451.5314875822794
 20
-1045.42508993232
  0
ARC
  5
320
330
595
100
AcDbEntity
  8
DATA
  6
Continuous
 62
     7
100
AcDbCircle
 10
459.0395608888617
 20
-1053.441003914297
 30
0.0
 40
10.98296969811752
100
AcDbArc
 50
131.5059215314645
 51
133.0195472771267
  0
LINE
  5
321
330
595
100
AcDbEntity
  8
DATA
  6
Continuous
 62
     7
100
AcDbLine
 10
451.7846569308791
 20
-1045.195218618529
 30
0.0
 11
451.7611748829071
 21
-1045.215998106512
 31
0.0
  0
ARC
  5
322
330
595
100
AcDbEntity
  8
DATA
  6
Continuous
 62
     7
100
AcDbCircle
 10
459.2974234858255
 20
-1053.685088281465
 30
0.0
 40
11.33664625022571
100
AcDbArc
 50
130.3564182778445
 51
131.5059215314061
  0
LINE
  5
323
330
595
100
AcDbEntity
  8
DATA
  6
Continuous
 62
     7
100
AcDbLine
 10
451.9660238203254
 20
-1045.038107086188
 30
0.0
 11
451.9564864299183
 21
-1045.046211540593
 31
0.0
  0
ARC
  5
324
330
595
100
AcDbEntity
  8
DATA
  6
Continuous
 62
     7
100
AcDbCircle
 10
460.0081400765422
 20
-1054.502137433297
 30
0.0
 40
12.41948083816288
100
AcDbArc
 50
129.4226036522137
 51
130.3564182778026
  0
ARC
  5
325
330
595
100
AcDbEntity
  8
DATA
  6
Continuous
 62
     7
100
AcDbCircle
 10
460.1403241488108
 20
-1054.66293158235
 30
0.0
 40
12.62763315578486
100
AcDbArc
 50
128.5041812447829
 51
129.4226036521701
  0
LINE
  5
326
330
595
100
AcDbEntity
  8
DATA
  6
Continuous
 62
     7
100
AcDbLine
 10
452.2978898281692
 20
-1044.765763132411
 30
0.0
 11
452.2787165148551
 21
-1044.781016559096
 31
0.0
  0
ARC
  5
327
330
595
100
AcDbEntity
  8
DATA
  6
Continuous
 62
     7
100
AcDbCircle
 10
458.7894020543306
 20
-1052.925490147356
 30
0.0
 40
10.42693032204704
100
AcDbArc
 50
127.1226987248638
 51
128.5041812446313
  0
LINE
  5
328
330
595
100
AcDbEntity
  8
DATA
  6
Continuous
 62
     7
100
AcDbLine
 10
452.5360002181423
 20
-1044.581732266808
 30
0.0
 11
452.4965002217916
 21
-1044.611630486113
 31
0.0
  0
ARC
  5
329
330
595
100
AcDbEntity
  8
DATA
  6
Continuous
 62
     7
100
AcDbCircle
 10
458.8048470137336
 20
-1052.863811645032
 30
0.0
 40
10.38707268549723
100
AcDbArc
 50
125.8142461550373
 51
127.1226987248212
  0
LINE
  5
32A
330
595
100
AcDbEntity
  8
DATA
  6
Continuous
 62
     7
100
AcDbLine
 10
452.7413734479436
 20
-1044.430194847833
 30
0.0
 11
452.7267546067884
 21
-1044.440743815171
 31
0.0
  0
ARC
  5
32B
330
595
100
AcDbEntity
  8
DATA
  6
Continuous
 62
     7
100
AcDbCircle
 10
460.5287079947924
 20
-1055.221943756914
 30
0.0
 40
13.30805860601733
100
AcDbArc
 50
124.9481872729611
 51
125.8142461550307
  0
ARC
  5
32C
330
595
100
AcDbEntity
  8
DATA
  6
Continuous
 62
     7
100
AcDbCircle
 10
459.6295084456383
 20
-1053.935278864359
 30
0.0
 40
11.73832411415821
100
AcDbArc
 50
123.9663180017923
 51
124.9481872730582
  0
LINE
  5
32D
330
595
100
AcDbEntity
  8
DATA
  6
Continuous
 62
     7
100
AcDbLine
 10
453.0770772596992
 20
-1044.1959797083
 30
0.0
 11
453.0712428199128
 21
-1044.199910099312
 31
0.0
  0
LINE
  5
32E
330
595
100
AcDbEntity
  8
DATA
  6
Continuous
 62
     7
100
AcDbLine
 10
452.7462041120569
 20
-1030.185885655978
 30
0.0
 11
497.2537958937421
 21
-1030.185885655978
 31
0.0
  0
LINE
  5
32F
330
595
100
AcDbEntity
  8
DATA
  6
Continuous
 62
     7
100
AcDbLine
 10
448.2603999999988
 20
-1042.240379999999
 30
0.0
 11
452.2603999999988
 21
-1042.240379999999
 31
0.0
  0
LINE
  5
330
330
595
100
AcDbEntity
  8
DATA
  6
Continuous
 62
     7
100
AcDbLine
 10
450.2603999999989
 20
-1044.240379999999
 30
0.0
 11
450.2603999999989
 21
-1040.24038
 31
0.0
  0
LINE
  5
331
330
595
100
AcDbEntity
  8
DATA
  6
Continuous
 62
     7
100
AcDbLine
 10
478.7403999999994
 20
-1042.240379999999
 30
0.0
 11
482.7403999999994
 21
-1042.240379999999
 31
0.0
  0
LINE
  5
332
330
595
100
AcDbEntity
  8
DATA
  6
Continuous
 62
     7
100
AcDbLine
 10
480.7403999999993
 20
-1044.240379999999
 30
0.0
 11
480.7403999999993
 21
-1040.24038
 31
0.0
  0
LINE
  5
333
330
595
100
AcDbEntity
  8
DATA
  6
Continuous
 62
     7
100
AcDbLine
 10
467.2595999999999
 20
-1066.243379999999
 30
0.0
 11
471.2595999999999
 21
-1066.243379999999
 31
0.0
  0
LINE
  5
334
330
595
100
AcDbEntity
  8
DATA
  6
Continuous
 62
     7
100
AcDbLine
 10
469.2595999999999
 20
-1068.243379999999
 30
0.0
 11
469.2595999999999
 21
-1064.243379999999
 31
0.0
  0
LINE
  5
335
330
595
100
AcDbEntity
  8
DATA
  6
Continuous
 62
     7
100
AcDbLine
 10
497.7395999999999
 20
-1066.243379999999
 30
0.0
 11
501.7395999999999
 21
-1066.243379999999
 31
0.0
  0
LINE
  5
336
330
595
100
AcDbEntity
  8
DATA
  6
Continuous
 62
     7
100
AcDbLine
 10
499.7396
 20
-1068.243379999999
 30
0.0
 11
499.7396
 21
-1064.243379999999
 31
0.0
  0
ARC
  5
337
330
595
100
AcDbEntity
  8
DATA
  6
Continuous
 62
     7
100
AcDbCircle
 10
452.7749999999994
 20
-1087.877087306327
 30
0.0
 40
15.36414132905984
100
AcDbArc
 50
90.1073853577
 51
150.4551144743449
  0
ARC
  5
338
330
595
100
AcDbEntity
  8
DATA
  6
Continuous
 62
     7
100
AcDbCircle
 10
497.2250000000002
 20
-1087.877087306327
 30
0.0
 40
15.36414132906045
100
AcDbArc
 50
29.54488552287525
 51
89.89261524240069
  0
LINE
  5
339
330
595
100
AcDbEntity
  8
DATA
  6
Continuous
 62
     7
100
AcDbLine
 10
452.7462041120569
 20
-1072.512972962306
 30
0.0
 11
497.2537958937421
 21
-1072.512972962306
 31
0.0
  0
TEXT
  5
33A
330
595
100
AcDbEntity
  8
DATA
 62
     7
100
AcDbText
 10
454.6973300409836
 20
-1079.57969155666
 30
0.0
 40
3.952654513888889
  1
2+/2- LOOP THRU
 41
0.7
 11
454.6973300409836
 21
-1075.627037042771
 31
0.0
100
AcDbText
 73
     3
  0
TEXT
  5
33B
330
595
100
AcDbEntity
  8
DATA
 62
     7
100
AcDbText
 10
464.6061809340432
 20
-1100.350046090073
 30
0.0
 40
5.429470486111111
  1
+1
 41
0.7
 11
464.6061809340432
 21
-1094.920575603962
 31
0.0
100
AcDbText
 73
     3
  0
TEXT
  5
33C
330
595
100
AcDbEntity
  8
DATA
 62
     7
100
AcDbText
 10
478.5279539102815
 20
-1100.25543515603
 30
0.0
 40
5.429470486111111
  1
-1
 41
0.7
 11
478.5279539102815
 21
-1094.825964669919
 31
0.0
100
AcDbText
 73
     3
  0
TEXT
  5
33D
330
595
100
AcDbEntity
  8
DATA
 62
     7
100
AcDbText
 10
452.2067562768962
 20
-1087.917164041907
 30
0.0
 40
4.072102864583333
  1
PARALLEL WITH NL4 
 41
0.7
 11
452.2067562768962
 21
-1083.845061177324
 31
0.0
100
AcDbText
 73
     3
  0
LINE
  5
33E
330
595
100
AcDbEntity
  8
DATA
  6
Continuous
 62
     7
100
AcDbLine
 10
460.2147969618793
 20
-1103.243057275344
 30
0.0
 11
489.7852030381199
 21
-1103.243057275344
 31
0.0
  0
LINE
  5
33F
330
595
100
AcDbEntity
  8
DATA
  6
Continuous
 62
     7
100
AcDbLine
 10
489.7852030381199
 20
-1122.145463351585
 30
0.0
 11
460.2147969618793
 21
-1122.145463351585
 31
0.0
  0
LINE
  5
340
330
595
100
AcDbEntity
  8
DATA
  6
Continuous
 62
     7
100
AcDbLine
 10
473.4759999999997
 20
-1122.145463351585
 30
0.0
 11
473.4759999999997
 21
-1103.243057275344
 31
0.0
  0
LINE
  5
341
330
595
100
AcDbEntity
  8
DATA
  6
Continuous
 62
     7
100
AcDbLine
 10
476.524
 20
-1122.145463351585
 30
0.0
 11
476.524
 21
-1103.243057275344
 31
0.0
  0
LINE
  5
342
330
595
100
AcDbEntity
  8
DATA
  6
Continuous
 62
     7
100
AcDbLine
 10
463.2147969618793
 20
-1103.243057275344
 30
0.0
 11
463.2147969618793
 21
-1122.145463351585
 31
0.0
  0
LINE
  5
343
330
595
100
AcDbEntity
  8
DATA
  6
Continuous
 62
     7
100
AcDbLine
 10
486.7852030381198
 20
-1122.145463351585
 30
0.0
 11
486.7852030381198
 21
-1103.243057275344
 31
0.0
  0
LINE
  5
344
330
595
100
AcDbEntity
  8
DATA
  6
Continuous
 62
     7
100
AcDbLine
 10
453.4049999999989
 20
-1081.128600902194
 30
0.0
 11
495.4049999999991
 21
-1081.128600902194
 31
0.0
  0
LINE
  5
345
330
595
100
AcDbEntity
  8
DATA
  6
Continuous
 62
     7
100
AcDbLine
 10
466.7686557328845
 20
-1112.694260313465
 30
0.0
 11
470.2544842671151
 21
-1112.694260313465
 31
0.0
  0
LINE
  5
346
330
595
100
AcDbEntity
  8
DATA
  6
Continuous
 62
     7
100
AcDbLine
 10
468.5115699999998
 20
-1114.43717458058
 30
0.0
 11
468.5115699999998
 21
-1110.95134604635
 31
0.0
  0
CIRCLE
  5
347
330
595
100
AcDbEntity
  8
DATA
  6
Continuous
 62
     7
100
AcDbCircle
 10
481.6984299997701
 20
-1112.694260313465
 30
0.0
 40
2.793999999999869
  0
LINE
  5
348
330
595
100
AcDbEntity
  8
DATA
  6
Continuous
 62
     7
100
AcDbLine
 10
483.4413442668855
 20
-1112.694260313465
 30
0.0
 11
479.9555157326548
 21
-1112.694260313465
 31
0.0
  0
LINE
  5
349
330
595
100
AcDbEntity
  8
DATA
  6
Continuous
 62
     7
100
AcDbLine
 10
481.6984299997701
 20
-1114.43717458058
 30
0.0
 11
481.6984299997701
 21
-1110.95134604635
 31
0.0
  0
LINE
  5
34A
330
595
100
AcDbEntity
  8
DATA
  6
Continuous
 62
     7
100
AcDbLine
 10
436.2649999999991
 20
-1031.049178936779
 30
0.0
 11
436.2649999999991
 21
-1027.03082106322
 31
0.0
  0
LINE
  5
34B
330
595
100
AcDbEntity
  8
DATA
  6
Continuous
 62
     7
100
AcDbLine
 10
434.2558210632192
 20
-1029.04
 30
0.0
 11
438.2741789367789
 21
-1029.04
 31
0.0
  0
CIRCLE
  5
34C
330
595
100
AcDbEntity
  8
DATA
  6
Continuous
 62
     7
100
AcDbCircle
 10
513.735
 20
-1029.04
 30
0.0
 40
3.682999999999992
  0
LINE
  5
34D
330
595
100
AcDbEntity
  8
DATA
  6
Continuous
 62
     7
100
AcDbLine
 10
513.735
 20
-1031.049178936779
 30
0.0
 11
513.735
 21
-1027.03082106322
 31
0.0
  0
LINE
  5
34E
330
595
100
AcDbEntity
  8
DATA
  6
Continuous
 62
     7
100
AcDbLine
 10
511.7258210632201
 20
-1029.04
 30
0.0
 11
515.7441789367798
 21
-1029.04
 31
0.0
  0
CIRCLE
  5
34F
330
595
100
AcDbEntity
  8
DATA
  6
Continuous
 62
     7
100
AcDbCircle
 10
436.2649999999991
 20
-1150.96
 30
0.0
 40
3.682999999999992
  0
LINE
  5
350
330
595
100
AcDbEntity
  8
DATA
  6
Continuous
 62
     7
100
AcDbLine
 10
436.2649999999991
 20
-1152.96917893678
 30
0.0
 11
436.2649999999991
 21
-1148.95082106322
 31
0.0
  0
LINE
  5
351
330
595
100
AcDbEntity
  8
DATA
  6
Continuous
 62
     7
100
AcDbLine
 10
434.2558210632192
 20
-1150.96
 30
0.0
 11
438.2741789367789
 21
-1150.96
 31
0.0
  0
CIRCLE
  5
352
330
595
100
AcDbEntity
  8
DATA
  6
Continuous
 62
     7
100
AcDbCircle
 10
513.735
 20
-1150.96
 30
0.0
 40
3.682999999999992
  0
LINE
  5
353
330
595
100
AcDbEntity
  8
DATA
  6
Continuous
 62
     7
100
AcDbLine
 10
513.735
 20
-1152.96917893678
 30
0.0
 11
513.735
 21
-1148.95082106322
 31
0.0
  0
LINE
  5
354
330
595
100
AcDbEntity
  8
DATA
  6
Continuous
 62
     7
100
AcDbLine
 10
511.7258210632201
 20
-1150.96
 30
0.0
 11
515.7441789367798
 21
-1150.96
 31
0.0
  0
ARC
  5
355
330
595
100
AcDbEntity
  8
DATA
  6
Continuous
 62
     7
100
AcDbCircle
 10
866.649999999997
 20
439.9800000000007
 30
0.0
 40
92.18484797435907
100
AcDbArc
 50
90.1073853577
 51
180.0
  0
ARC
  5
356
330
595
100
AcDbEntity
  8
DATA
  6
Continuous
 62
     7
100
AcDbCircle
 10
866.649999999997
 20
-93.41999999999822
 30
0.0
 40
92.18483099700051
100
AcDbArc
 50
180.0
 51
270.0
  0
ARC
  5
357
330
595
100
AcDbEntity
  8
DATA
  6
Continuous
 62
     7
100
AcDbCircle
 10
1133.350000000001
 20
-93.41999999999822
 30
0.0
 40
92.18483099700188
100
AcDbArc
 50
270.0
 51
0.0
  0
ARC
  5
358
330
595
100
AcDbEntity
  8
DATA
  6
Continuous
 62
     7
100
AcDbCircle
 10
1133.350000000001
 20
439.9800000000007
 30
0.0
 40
92.18484797436259
100
AcDbArc
 50
0.0
 51
89.89261524240072
  0
LINE
  5
359
330
595
100
AcDbEntity
  8
DATA
  6
Continuous
 62
     7
100
AcDbLine
 10
774.4651520256344
 20
439.9800000000007
 30
0.0
 11
789.9967749014215
 21
169.8141052643668
 31
0.0
  0
LINE
  5
35A
330
595
100
AcDbEntity
  8
DATA
  6
Continuous
 62
     7
100
AcDbLine
 10
774.4651690029966
 20
-93.41999999999822
 30
0.0
 11
789.9967749014215
 21
169.8141052643668
 31
0.0
  0
LINE
  5
35B
330
595
100
AcDbEntity
  8
DATA
  6
Continuous
 62
     7
100
AcDbLine
 10
1225.534847974364
 20
439.9800000000007
 30
0.0
 11
1210.003225098577
 21
169.8141052643668
 31
0.0
  0
LINE
  5
35C
330
595
100
AcDbEntity
  8
DATA
  6
Continuous
 62
     7
100
AcDbLine
 10
1225.534830997002
 20
-93.41999999999822
 30
0.0
 11
1210.003225098577
 21
169.8141052643668
 31
0.0
  0
LINE
  5
35D
330
595
100
AcDbEntity
  8
DATA
  6
Continuous
 62
     7
100
AcDbLine
 10
771.3999999999956
 20
-253.4400000000082
 30
0.0
 11
1228.600000000004
 21
-253.4400000000082
 31
0.0
  0
LINE
  5
35E
330
595
100
AcDbEntity
  8
DATA
  6
Continuous
 62
     7
100
AcDbLine
 10
1133.350000000001
 20
-185.6048479743608
 30
0.0
 11
866.649999999997
 21
-185.6048479743608
 31
0.0
  0
LINE
  5
35F
330
595
100
AcDbEntity
  8
DATA
  6
Continuous
 62
     7
100
AcDbLine
 10
935.8548399999955
 20
11.09975811920958
 30
0.0
 11
986.2839999999975
 21
11.09975811920958
 31
0.0
  0
LINE
  5
360
330
595
100
AcDbEntity
  8
DATA
  6
Continuous
 62
     7
100
AcDbLine
 10
1013.715999999995
 20
11.09975811920958
 30
0.0
 11
1064.145159999997
 21
11.09975811920958
 31
0.0
  0
LINE
  5
361
330
595
100
AcDbEntity
  8
DATA
  6
Continuous
 62
     7
100
AcDbLine
 10
1064.145159999997
 20
63.00719811921044
 30
0.0
 11
1013.715999999995
 21
63.00719811921044
 31
0.0
  0
LINE
  5
362
330
595
100
AcDbEntity
  8
DATA
  6
Continuous
 62
     7
100
AcDbLine
 10
986.2839999999975
 20
63.00719811921044
 30
0.0
 11
935.8548399999955
 21
63.00719811921044
 31
0.0
  0
LINE
  5
363
330
595
100
AcDbEntity
  8
DATA
  6
Continuous
 62
     7
100
AcDbLine
 10
706.6299999999941
 20
535.2300000000008
 30
0.0
 11
706.6299999999941
 21
-188.6700000000009
 31
0.0
  0
LINE
  5
364
330
595
100
AcDbEntity
  8
DATA
  6
Continuous
 62
     7
100
AcDbLine
 10
893.3199999999956
 20
447.1882661930403
 30
0.0
 11
893.3199999999956
 21
439.2805139618404
 31
0.0
  0
LINE
  5
365
330
595
100
AcDbEntity
  8
DATA
  6
Continuous
 62
     7
100
AcDbLine
 10
900.1779999999982
 20
335.4867024693612
 30
0.0
 11
900.1779999999982
 21
327.7830122989203
 31
0.0
  0
LINE
  5
366
330
595
100
AcDbEntity
  8
DATA
  6
Continuous
 62
     7
100
AcDbLine
 10
1228.600000000004
 20
600.0
 30
0.0
 11
771.3999999999956
 21
600.0
 31
0.0
  0
LINE
  5
367
330
595
100
AcDbEntity
  8
DATA
  6
Continuous
 62
     7
100
AcDbLine
 10
911.2887817712765
 20
93.82165634793137
 30
0.0
 11
911.2887817712765
 21
-19.59278010951084
 31
0.0
  0
LINE
  5
368
330
595
100
AcDbEntity
  8
DATA
  6
Continuous
 62
     7
100
AcDbLine
 10
916.9419999999947
 20
327.7830122989203
 30
0.0
 11
916.9419999999947
 21
335.4867024693612
 31
0.0
  0
LINE
  5
369
330
595
100
AcDbEntity
  8
DATA
  6
Continuous
 62
     7
100
AcDbLine
 10
923.7999999999976
 20
439.2805139618404
 30
0.0
 11
923.7999999999976
 21
447.1882661930403
 31
0.0
  0
LINE
  5
36A
330
595
100
AcDbEntity
  8
DATA
  6
Continuous
 62
     7
100
AcDbLine
 10
935.8548399999955
 20
63.00719811921044
 30
0.0
 11
935.8548399999955
 21
11.09975811920958
 31
0.0
  0
LINE
  5
36B
330
595
100
AcDbEntity
  8
DATA
  6
Continuous
 62
     7
100
AcDbLine
 10
986.2839999999975
 20
11.09975811920958
 30
0.0
 11
986.2839999999975
 21
63.00719811921044
 31
0.0
  0
LINE
  5
36C
330
595
100
AcDbEntity
  8
DATA
  6
Continuous
 62
     7
100
AcDbLine
 10
1013.715999999995
 20
63.00719811921044
 30
0.0
 11
1013.715999999995
 21
11.09975811920958
 31
0.0
  0
LINE
  5
36D
330
595
100
AcDbEntity
  8
DATA
  6
Continuous
 62
     7
100
AcDbLine
 10
1064.145159999997
 20
11.09975811920958
 30
0.0
 11
1064.145159999997
 21
63.00719811921044
 31
0.0
  0
LINE
  5
36E
330
595
100
AcDbEntity
  8
DATA
  6
Continuous
 62
     7
100
AcDbLine
 10
1076.199999999998
 20
447.1882661930403
 30
0.0
 11
1076.199999999998
 21
439.2805139618404
 31
0.0
  0
LINE
  5
36F
330
595
100
AcDbEntity
  8
DATA
  6
Continuous
 62
     7
100
AcDbLine
 10
1083.057999999998
 20
335.4867024693612
 30
0.0
 11
1083.057999999998
 21
327.7830122989203
 31
0.0
  0
LINE
  5
370
330
595
100
AcDbEntity
  8
DATA
  6
Continuous
 62
     7
100
AcDbLine
 10
1088.711218228719
 20
-19.59278010951084
 30
0.0
 11
1088.711218228719
 21
93.82165634793137
 31
0.0
  0
LINE
  5
371
330
595
100
AcDbEntity
  8
DATA
  6
Continuous
 62
     7
100
AcDbLine
 10
1099.821999999995
 20
327.7830122989203
 30
0.0
 11
1099.821999999995
 21
335.4867024693612
 31
0.0
  0
LINE
  5
372
330
595
100
AcDbEntity
  8
DATA
  6
Continuous
 62
     7
100
AcDbLine
 10
1106.679999999998
 20
439.2805139618404
 30
0.0
 11
1106.679999999998
 21
447.1882661930403
 31
0.0
  0
LINE
  5
373
330
595
100
AcDbEntity
  8
DATA
  6
Continuous
 62
     7
100
AcDbLine
 10
1293.369999999999
 20
-188.6700000000009
 30
0.0
 11
1293.369999999999
 21
535.2300000000008
 31
0.0
  0
CIRCLE
  5
374
330
595
100
AcDbEntity
  8
DATA
  6
Continuous
 62
     7
100
AcDbCircle
 10
961.0694199999985
 20
37.1144381192089
 30
0.0
 40
16.76399999999921
  0
ARC
  5
375
330
595
100
AcDbEntity
  8
DATA
  6
Continuous
 62
     7
100
AcDbCircle
 10
1091.439999999998
 20
388.1639999999998
 30
0.0
 40
53.34000000000077
100
AcDbArc
 50
106.6015495990014
 51
260.9589038514014
  0
ARC
  5
376
330
595
100
AcDbEntity
  8
DATA
  6
Continuous
 62
     7
100
AcDbCircle
 10
1091.439999999998
 20
388.1639999999998
 30
0.0
 40
53.33999999999903
100
AcDbArc
 50
279.0410961485986
 51
73.39845040099858
  0
ARC
  5
377
330
595
100
AcDbEntity
  8
DATA
  6
Continuous
 62
     7
100
AcDbCircle
 10
1091.439999999998
 20
388.1639999999998
 30
0.0
 40
60.96000000000021
100
AcDbArc
 50
262.0967922665004
 51
277.9032077334997
  0
ARC
  5
378
330
595
100
AcDbEntity
  8
DATA
  6
Continuous
 62
     7
100
AcDbCircle
 10
1091.439999999998
 20
388.1639999999998
 30
0.0
 40
60.96000000000087
100
AcDbArc
 50
75.52248781409962
 51
104.4775121859004
  0
CIRCLE
  5
379
330
595
100
AcDbEntity
  8
DATA
  6
Continuous
 62
     7
100
AcDbCircle
 10
1091.439999999998
 20
388.1639999999998
 30
0.0
 40
36.57600000000002
  0
CIRCLE
  5
37A
330
595
100
AcDbEntity
  8
DATA
  6
Continuous
 62
     7
100
AcDbCircle
 10
1091.439999999998
 20
388.1639999999998
 30
0.0
 40
19.81200000000081
  0
ARC
  5
37B
330
595
100
AcDbEntity
  8
DATA
  6
Continuous
 62
     7
100
AcDbCircle
 10
908.5599999999953
 20
388.1639999999998
 30
0.0
 40
53.34000000000077
100
AcDbArc
 50
106.6015495990014
 51
260.9589038514014
  0
ARC
  5
37C
330
595
100
AcDbEntity
  8
DATA
  6
Continuous
 62
     7
100
AcDbCircle
 10
908.5599999999953
 20
388.1639999999998
 30
0.0
 40
53.33999999999903
100
AcDbArc
 50
279.0410961485986
 51
73.39845040099858
  0
ARC
  5
37D
330
595
100
AcDbEntity
  8
DATA
  6
Continuous
 62
     7
100
AcDbCircle
 10
908.5599999999953
 20
388.1639999999998
 30
0.0
 40
60.96000000000021
100
AcDbArc
 50
262.0967922665004
 51
277.9032077334997
  0
ARC
  5
37E
330
595
100
AcDbEntity
  8
DATA
  6
Continuous
 62
     7
100
AcDbCircle
 10
908.5599999999953
 20
388.1639999999998
 30
0.0
 40
60.96000000000087
100
AcDbArc
 50
75.52248781409962
 51
104.4775121859004
  0
CIRCLE
  5
37F
330
595
100
AcDbEntity
  8
DATA
  6
Continuous
 62
     7
100
AcDbCircle
 10
908.5599999999953
 20
388.1639999999998
 30
0.0
 40
36.57600000000002
  0
CIRCLE
  5
380
330
595
100
AcDbEntity
  8
DATA
  6
Continuous
 62
     7
100
AcDbCircle
 10
908.5599999999953
 20
388.1639999999998
 30
0.0
 40
19.81200000000081
  0
CIRCLE
  5
381
330
595
100
AcDbEntity
  8
DATA
  6
Continuous
 62
     7
100
AcDbCircle
 10
767.5899999999943
 20
539.0400000000008
 30
0.0
 40
22.09799999999996
  0
ARC
  5
382
330
595
100
AcDbEntity
  8
DATA
  6
Continuous
 62
     7
100
AcDbCircle
 10
1091.439999999998
 20
388.1639999999998
 30
0.0
 40
72.11539796856122
100
AcDbArc
 50
311.6710695931018
 51
123.7809344450993
  0
ARC
  5
383
330
595
100
AcDbEntity
  8
DATA
  6
Continuous
 62
     7
100
AcDbCircle
 10
1034.442399999996
 20
459.8377200000008
 30
0.0
 40
20.57400000000168
100
AcDbArc
 50
325.2280175225006
 51
291.7580260589016
  0
ARC
  5
384
330
595
100
AcDbEntity
  8
DATA
  6
Continuous
 62
     7
100
AcDbCircle
 10
1091.439999999998
 20
388.1639999999998
 30
0.0
 40
72.11539796856098
100
AcDbArc
 50
133.2051091362996
 51
304.7956780787006
  0
ARC
  5
385
330
595
100
AcDbEntity
  8
DATA
  6
Continuous
 62
     7
100
AcDbCircle
 10
1148.4376
 20
315.8197200000013
 30
0.0
 40
20.57400000000063
100
AcDbArc
 50
140.3663339330041
 51
116.1004137387006
  0
ARC
  5
386
330
595
100
AcDbEntity
  8
DATA
  6
Continuous
 62
     7
100
AcDbCircle
 10
908.5599999999953
 20
388.1639999999998
 30
0.0
 40
72.11539796856006
100
AcDbArc
 50
133.2051091362988
 51
304.7956780787004
  0
ARC
  5
387
330
595
100
AcDbEntity
  8
DATA
  6
Continuous
 62
     7
100
AcDbCircle
 10
965.5575999999998
 20
315.8197200000013
 30
0.0
 40
20.57400000000063
100
AcDbArc
 50
140.3663339330041
 51
116.1004137387006
  0
ARC
  5
388
330
595
100
AcDbEntity
  8
DATA
  6
Continuous
 62
     7
100
AcDbCircle
 10
908.5599999999953
 20
388.1639999999998
 30
0.0
 40
72.11539796856122
100
AcDbArc
 50
311.6710695931018
 51
123.7809344450993
  0
ARC
  5
389
330
595
100
AcDbEntity
  8
DATA
  6
Continuous
 62
     7
100
AcDbCircle
 10
851.5623999999933
 20
459.8377200000008
 30
0.0
 40
20.57400000000168
100
AcDbArc
 50
325.2280175225006
 51
291.7580260589052
  0
ARC
  5
38A
330
595
100
AcDbEntity
  8
DATA
  6
Continuous
 62
     7
100
AcDbCircle
 10
771.3999999999956
 20
535.2300000000008
 30
0.0
 40
64.76999999999907
100
AcDbArc
 50
90.0
 51
180.0
  0
ARC
  5
38B
330
595
100
AcDbEntity
  8
DATA
  6
Continuous
 62
     7
100
AcDbCircle
 10
771.3999999999956
 20
-188.6700000000009
 30
0.0
 40
64.77000000000178
100
AcDbArc
 50
180.0
 51
270.0
  0
ARC
  5
38C
330
595
100
AcDbEntity
  8
DATA
  6
Continuous
 62
     7
100
AcDbCircle
 10
1228.600000000004
 20
-188.6700000000009
 30
0.0
 40
64.77000000000725
100
AcDbArc
 50
270.0
 51
0.0
  0
ARC
  5
38D
330
595
100
AcDbEntity
  8
DATA
  6
Continuous
 62
     7
100
AcDbCircle
 10
1228.600000000004
 20
535.2300000000008
 30
0.0
 40
64.77000000000043
100
AcDbArc
 50
0.0
 51
90.0
  0
LINE
  5
38E
330
595
100
AcDbEntity
  8
DATA
  6
Continuous
 62
     7
100
AcDbLine
 10
1139.382941371131
 20
334.292824436734
 30
0.0
 11
1139.386158097841
 21
334.2956739903598
 31
0.0
  0
ARC
  5
38F
330
595
100
AcDbEntity
  8
DATA
  6
Continuous
 62
     7
100
AcDbCircle
 10
1089.72385837804
 20
390.3539364647068
 30
0.0
 40
74.89240819687691
100
AcDbArc
 50
310.7455526025274
 51
311.5346085863866
  0
LINE
  5
390
330
595
100
AcDbEntity
  8
DATA
  6
Continuous
 62
     7
100
AcDbLine
 10
1138.443455900939
 20
333.4740650794868
 30
0.0
 11
1138.606204130679
 21
333.6142759154307
 31
0.0
  0
ARC
  5
391
330
595
100
AcDbEntity
  8
DATA
  6
Continuous
 62
     7
100
AcDbCircle
 10
1100.601618385755
 20
377.3985736543762
 30
0.0
 40
57.97729831641976
100
AcDbArc
 50
309.3017642542163
 51
310.745552602526
  0
LINE
  5
392
330
595
100
AcDbEntity
  8
DATA
  6
Continuous
 62
     7
100
AcDbLine
 10
1137.128908623978
 20
332.374266728169
 30
0.0
 11
1137.324711658754
 21
332.5345397236902
 31
0.0
  0
ARC
  5
393
330
595
100
AcDbEntity
  8
DATA
  6
Continuous
 62
     7
100
AcDbCircle
 10
1092.984196329608
 20
386.3051775997728
 30
0.0
 40
69.69432380756356
100
AcDbArc
 50
308.4924308691585
 51
309.3017642542058
  0
LWPOLYLINE
  5
394
330
595
100
AcDbEntity
  8
DATA
  6
Continuous
 62
     7
100
AcDbPolyline
 90
       66
 70
   128
 43
0.0
 10
1135.477623299781
 20
331.0620209744686
 10
1135.493215019802
 20
331.0741167999966
 10
1135.508750804166
 20
331.0861729164185
 10
1135.524230652871
 20
331.0981893237342
 10
1135.539654565919
 20
331.1101660219441
 10
1135.555022543308
 20
331.1221030110477
 10
1135.570334585039
 20
331.1340002910455
 10
1135.585590691113
 20
331.1458578619371
 10
1135.600790861528
 20
331.1576757237226
 10
1135.615935096285
 20
331.169453876402
 10
1135.631023395385
 20
331.1811923199755
 10
1135.646055758826
 20
331.192891054443
 10
1135.661032186609
 20
331.2045500798043
 10
1135.675952678735
 20
331.2161693960595
 10
1135.690817235202
 20
331.2277490032087
 10
1135.705625856011
 20
331.2392889012519
 10
1135.720378541163
 20
331.250789090189
 10
1135.735075290656
 20
331.26224957002
 10
1135.749716104491
 20
331.273670340745
 10
1135.764300982669
 20
331.2850514023639
 10
1135.778829925188
 20
331.2963927548768
 10
1135.793302932049
 20
331.3076943982836
 10
1135.807720003253
 20
331.3189563325843
 10
1135.822081138798
 20
331.3301785577789
 10
1135.836386338685
 20
331.3413610738676
 10
1135.850635602915
 20
331.3525038808502
 10
1135.864828931486
 20
331.3636069787268
 10
1135.8789663244
 20
331.3746703674973
 10
1135.893047781655
 20
331.3856940471616
 10
1135.907073303252
 20
331.39667801772
 10
1135.921042889192
 20
331.4076222791722
 10
1135.934956539473
 20
331.4185268315185
 10
1135.948814254096
 20
331.4293916747586
 10
1135.962616033061
 20
331.4402168088927
 10
1135.976361876368
 20
331.4510022339208
 10
1135.990051784018
 20
331.4617479498427
 10
1136.003685756009
 20
331.4724539566587
 10
1136.017263792342
 20
331.4831202543687
 10
1136.030785893018
 20
331.4937468429725
 10
1136.044252058035
 20
331.5043337224702
 10
1136.057662287394
 20
331.514880892862
 10
1136.071016581096
 20
331.5253883541477
 10
1136.084314939139
 20
331.5358561063272
 10
1136.097557361524
 20
331.5462841494008
 10
1136.110743848251
 20
331.5566724833683
 10
1136.12387439932
 20
331.5670211082296
 10
1136.136949014732
 20
331.5773300239852
 10
1136.149967694485
 20
331.5875992306345
 10
1136.16293043858
 20
331.5978287281776
 10
1136.175837247018
 20
331.6080185166149
 10
1136.188688119797
 20
331.618168595946
 10
1136.201483056918
 20
331.6282789661712
 10
1136.214222058381
 20
331.6383496272902
 10
1136.226905124186
 20
331.6483805793032
 10
1136.239532254334
 20
331.65837182221
 10
1136.252103448823
 20
331.6683233560109
 10
1136.264618707654
 20
331.6782351807058
 10
1136.277078030827
 20
331.6881072962945
 10
1136.289481418343
 20
331.6979397027771
 10
1136.3018288702
 20
331.7077324001539
 10
1136.314120386399
 20
331.7174853884245
 10
1136.32635596694
 20
331.7271986675889
 10
1136.338535611824
 20
331.7368722376475
 10
1136.350659321048
 20
331.7465060985999
 10
1136.362727094616
 20
331.7561002504462
 10
1136.362727094616
 20
331.7561002504462
  0
ARC
  5
3D8
330
595
100
AcDbEntity
  8
DATA
  6
Continuous
 62
     7
100
AcDbCircle
 10
1099.588702376764
 20
377.3304713097707
 30
0.0
 40
58.55582073072572
100
AcDbArc
 50
306.5616963379834
 51
307.799560841885
  0
LINE
  5
3D9
330
595
100
AcDbEntity
  8
DATA
  6
Continuous
 62
     7
100
AcDbLine
 10
1134.257251019642
 20
330.1399443102312
 30
0.0
 11
1134.469704353311
 21
330.2975058221369
 31
0.0
  0
ARC
  5
3DA
330
595
100
AcDbEntity
  8
DATA
  6
Continuous
 62
     7
100
AcDbCircle
 10
1095.789665903442
 20
382.0089991149091
 30
0.0
 40
64.57672917547608
100
AcDbArc
 50
305.6160366870486
 51
306.5616963379714
  0
LWPOLYLINE
  5
3DB
330
595
100
AcDbEntity
  8
DATA
  6
Continuous
 62
     7
100
AcDbPolyline
 90
       66
 70
   128
 43
0.0
 10
1132.592769053198
 20
328.9433935951202
 10
1132.604345513138
 20
328.9514809977411
 10
1132.615952873765
 20
328.959593771292
 10
1132.627591135076
 20
328.9677319157727
 10
1132.639260297073
 20
328.9758954311835
 10
1132.650960359755
 20
328.9840843175241
 10
1132.662691323123
 20
328.9922985747946
 10
1132.674453187176
 20
329.0005382029952
 10
1132.686245951914
 20
329.0088032021255
 10
1132.698069617338
 20
329.0170935721857
 10
1132.709924183447
 20
329.025409313176
 10
1132.721809650242
 20
329.0337504250962
 10
1132.733726017722
 20
329.0421169079462
 10
1132.745673285887
 20
329.0505087617262
 10
1132.757651454738
 20
329.0589259864361
 10
1132.769660524275
 20
329.0673685820759
 10
1132.781700494496
 20
329.0758365486456
 10
1132.793771365403
 20
329.0843298861453
 10
1132.805873136996
 20
329.0928485945749
 10
1132.818005809274
 20
329.1013926739343
 10
1132.830169382237
 20
329.1099621242237
 10
1132.842363855886
 20
329.1185569454431
 10
1132.854589230221
 20
329.1271771375923
 10
1132.86684550524
 20
329.1358227006715
 10
1132.879132680945
 20
329.1444936346807
 10
1132.891450757336
 20
329.1531899396196
 10
1132.903799734411
 20
329.1619116154885
 10
1132.916179612173
 20
329.1706586622873
 10
1132.928590390619
 20
329.1794310800161
 10
1132.941032069751
 20
329.1882288686749
 10
1132.953504649569
 20
329.1970520282634
 10
1132.966008130072
 20
329.205900558782
 10
1132.978542511261
 20
329.2147744602304
 10
1132.991107793134
 20
329.2236737326088
 10
1133.003703975694
 20
329.232598375917
 10
1133.016331058938
 20
329.2415483901552
 10
1133.028989042868
 20
329.2505237753234
 10
1133.041677927484
 20
329.2595245314213
 10
1133.054397712784
 20
329.2685506584493
 10
1133.067148398771
 20
329.2776021564072
 10
1133.079929985442
 20
329.286679025295
 10
1133.092742472799
 20
329.2957812651127
 10
1133.105585860842
 20
329.3049088758603
 10
1133.11846014957
 20
329.3140618575378
 10
1133.131365338983
 20
329.3232402101453
 10
1133.144301429082
 20
329.3324439336827
 10
1133.157268419866
 20
329.34167302815
 10
1133.170266311335
 20
329.3509274935473
 10
1133.18329510349
 20
329.3602073298743
 10
1133.196354796331
 20
329.3695125371314
 10
1133.209445389856
 20
329.3788431153184
 10
1133.222566884068
 20
329.3881990644353
 10
1133.235719278964
 20
329.3975803844821
 10
1133.248902574546
 20
329.4069870754589
 10
1133.262116770813
 20
329.4164191373655
 10
1133.275361867766
 20
329.4258765702021
 10
1133.288637865405
 20
329.4353593739685
 10
1133.301944763729
 20
329.444867548665
 10
1133.315282562738
 20
329.4544010942912
 10
1133.328651262432
 20
329.4639600108476
 10
1133.342050862812
 20
329.4735442983338
 10
1133.355481363877
 20
329.4831539567499
 10
1133.368942765629
 20
329.4927889860959
 10
1133.382435068065
 20
329.5024493863718
 10
1133.395958271186
 20
329.5121351575776
 10
1133.395958271186
 20
329.5121351575776
  0
LINE
  5
41F
330
595
100
AcDbEntity
  8
DATA
  6
Continuous
 62
     7
100
AcDbLine
 10
1042.072556142529
 20
440.7328486261727
 30
0.0
 11
1042.068925493675
 21
440.7294604060799
 31
0.0
  0
LWPOLYLINE
  5
420
330
595
100
AcDbEntity
  8
DATA
  6
Continuous
 62
     7
100
AcDbPolyline
 90
       66
 70
   128
 43
0.0
 10
1042.847261598752
 20
441.4458095757792
 10
1042.833516896781
 20
441.4332925252497
 10
1042.819824256054
 20
441.4208191901391
 10
1042.806183676572
 20
441.4083895704472
 10
1042.792595158335
 20
441.3960036661738
 10
1042.779058701343
 20
441.3836614773194
 10
1042.765574305597
 20
441.371363003884
 10
1042.752141971095
 20
441.3591082458672
 10
1042.738761697838
 20
441.346897203269
 10
1042.725433485826
 20
441.3347298760897
 10
1042.71215733506
 20
441.3226062643294
 10
1042.698933245538
 20
441.3105263679877
 10
1042.685761217262
 20
441.2984901870649
 10
1042.672641250231
 20
441.2864977215609
 10
1042.659573344444
 20
441.2745489714755
 10
1042.646557499903
 20
441.2626439368091
 10
1042.633593716606
 20
441.2507826175614
 10
1042.620681994555
 20
441.2389650137326
 10
1042.607822333748
 20
441.2271911253225
 10
1042.595014734187
 20
441.2154609523311
 10
1042.582259195871
 20
441.2037744947588
 10
1042.569555718799
 20
441.192131752605
 10
1042.556904302973
 20
441.1805327258701
 10
1042.544304948392
 20
441.1689774145539
 10
1042.531757655056
 20
441.1574658186567
 10
1042.519262422964
 20
441.1459979381781
 10
1042.506819252118
 20
441.1345737731185
 10
1042.494428142517
 20
441.1231933234774
 10
1042.482089094161
 20
441.1118565892553
 10
1042.46980210705
 20
441.1005635704519
 10
1042.457567181184
 20
441.0893142670672
 10
1042.445384316563
 20
441.0781086791017
 10
1042.433253513187
 20
441.0669468065545
 10
1042.421174771056
 20
441.0558286494263
 10
1042.40914809017
 20
441.0447542077169
 10
1042.397173470529
 20
441.0337234814263
 10
1042.385250912133
 20
441.0227364705544
 10
1042.373380414982
 20
441.0117931751013
 10
1042.361561979076
 20
441.0008935950672
 10
1042.349795604415
 20
440.9900377304516
 10
1042.338081291
 20
440.979225581255
 10
1042.326419038829
 20
440.968457147477
 10
1042.314808847903
 20
440.9577324291181
 10
1042.303250718222
 20
440.9470514261776
 10
1042.291744649787
 20
440.9364141386563
 10
1042.280290642596
 20
440.9258205665536
 10
1042.268888696651
 20
440.9152707098696
 10
1042.25753881195
 20
440.9047645686047
 10
1042.246240988494
 20
440.8943021427583
 10
1042.234995226284
 20
440.8838834323307
 10
1042.223801525318
 20
440.873508437322
 10
1042.212659885598
 20
440.863177157732
 10
1042.201570307123
 20
440.8528895935608
 10
1042.190532789892
 20
440.8426457448085
 10
1042.179547333907
 20
440.8324456114748
 10
1042.168613939167
 20
440.8222891935601
 10
1042.157732605671
 20
440.8121764910641
 10
1042.146903333421
 20
440.8021075039869
 10
1042.136126122415
 20
440.7920822323284
 10
1042.125400972655
 20
440.7821006760888
 10
1042.11472788414
 20
440.772162835268
 10
1042.10410685687
 20
440.762268709866
 10
1042.093537890845
 20
440.7524182998828
 10
1042.083020986064
 20
440.7426116053183
 10
1042.072556142529
 20
440.7328486261727
 10
1042.072556142529
 20
440.7328486261727
  0
ARC
  5
464
330
595
100
AcDbEntity
  8
DATA
  6
Continuous
 62
     7
100
AcDbCircle
 10
1083.732024502098
 20
396.5445210108712
 30
0.0
 40
60.72634973758889
100
AcDbArc
 50
131.1947829946458
 51
132.3193540583174
  0
LINE
  5
465
330
595
100
AcDbEntity
  8
DATA
  6
Continuous
 62
     7
100
AcDbLine
 10
1043.790975327857
 20
442.2873609722359
 30
0.0
 11
1043.736378526375
 21
442.2395738660386
 31
0.0
  0
ARC
  5
466
330
595
100
AcDbEntity
  8
DATA
  6
Continuous
 62
     7
100
AcDbCircle
 10
1098.677202393045
 20
379.5798090480232
 30
0.0
 40
83.33507658710891
100
AcDbArc
 50
130.2755303968319
 51
131.194782994639
  0
LINE
  5
467
330
595
100
AcDbEntity
  8
DATA
  6
Continuous
 62
     7
100
AcDbLine
 10
1044.814156899946
 20
443.1683889551522
 30
0.0
 11
1044.804075121382
 21
443.1598463848351
 31
0.0
  0
ARC
  5
468
330
595
100
AcDbEntity
  8
DATA
  6
Continuous
 62
     7
100
AcDbCircle
 10
1088.289213019375
 20
391.8599568800262
 30
0.0
 40
67.25054428475153
100
AcDbArc
 50
129.1139159998941
 51
130.2755303968369
  0
LINE
  5
469
330
595
100
AcDbEntity
  8
DATA
  6
Continuous
 62
     7
100
AcDbLine
 10
1046.031695810136
 20
444.1761597197695
 30
0.0
 11
1045.863247156367
 21
444.0391972653194
 31
0.0
  0
ARC
  5
46A
330
595
100
AcDbEntity
  8
DATA
  6
Continuous
 62
     7
100
AcDbCircle
 10
1086.379601875945
 20
394.5527027913086
 30
0.0
 40
63.95655557818981
100
AcDbArc
 50
127.7107328517912
 51
129.1139159998902
  0
LINE
  5
46B
330
595
100
AcDbEntity
  8
DATA
  6
Continuous
 62
     7
100
AcDbLine
 10
1047.277003029079
 20
445.163257866426
 30
0.0
 11
1047.258960118211
 21
445.1493073205569
 31
0.0
  0
ARC
  5
46C
330
595
100
AcDbEntity
  8
DATA
  6
Continuous
 62
     7
100
AcDbCircle
 10
1101.372358406183
 20
375.199137138681
 30
0.0
 40
88.43803289638332
100
AcDbArc
 50
126.725505181415
 51
127.7107328517871
  0
ARC
  5
46D
330
595
100
AcDbEntity
  8
DATA
  6
Continuous
 62
     7
100
AcDbCircle
 10
1087.475756636966
 20
393.8255486831497
 30
0.0
 40
65.19886880306573
100
AcDbArc
 50
125.3891354627977
 51
126.7255051814165
  0
LINE
  5
46E
330
595
100
AcDbEntity
  8
DATA
  6
Continuous
 62
     7
100
AcDbLine
 10
1049.832726510266
 20
447.0600750991436
 30
0.0
 11
1049.717357696359
 21
446.9781196712152
 31
0.0
  0
ARC
  5
46F
330
595
100
AcDbEntity
  8
DATA
  6
Continuous
 62
     7
100
AcDbCircle
 10
1091.904588590374
 20
387.8354337331065
 30
0.0
 40
72.64709026398323
100
AcDbArc
 50
123.9665743683616
 51
125.3891354627958
  0
LINE
  5
470
330
595
100
AcDbEntity
  8
DATA
  6
Continuous
 62
     7
100
AcDbLine
 10
1051.342463558198
 20
448.1041217502006
 30
0.0
 11
1051.315993934081
 21
448.0862902220431
 31
0.0
  0
LINE
  5
471
330
595
100
AcDbEntity
  8
DATA
  6
Continuous
 62
     7
100
AcDbLine
 10
956.5029413585749
 20
334.2928244278705
 30
0.0
 11
956.5061580978362
 21
334.2956739903598
 31
0.0
  0
ARC
  5
472
330
595
100
AcDbEntity
  8
DATA
  6
Continuous
 62
     7
100
AcDbCircle
 10
906.831584743821
 20
390.3678811916848
 30
0.0
 40
74.91098490218281
100
AcDbArc
 50
310.5682048147389
 51
311.5345635493722
  0
LINE
  5
473
330
595
100
AcDbEntity
  8
DATA
  6
Continuous
 62
     7
100
AcDbLine
 10
955.4960060061079
 20
333.4167192819328
 30
0.0
 11
955.5501515893059
 21
333.4630755638904
 31
0.0
  0
ARC
  5
474
330
595
100
AcDbEntity
  8
DATA
  6
Continuous
 62
     7
100
AcDbCircle
 10
911.8546245908257
 20
384.3912139677243
 30
0.0
 40
67.10416738404503
100
AcDbArc
 50
309.5376938814752
 51
310.5682048147451
  0
ARC
  5
475
330
595
100
AcDbEntity
  8
DATA
  6
Continuous
 62
     7
100
AcDbCircle
 10
900.3688918364995
 20
398.3058607653072
 30
0.0
 40
85.14687927570042
100
AcDbArc
 50
308.7255409867017
 51
309.5376938814776
  0
LINE
  5
476
330
595
100
AcDbEntity
  8
DATA
  6
Continuous
 62
     7
100
AcDbLine
 10
953.5747371444493
 20
331.8292841699376
 30
0.0
 11
953.6359697670874
 21
331.8783855827642
 31
0.0
  0
ARC
  5
477
330
595
100
AcDbEntity
  8
DATA
  6
Continuous
 62
     7
100
AcDbCircle
 10
915.0562560116572
 20
379.8643097227249
 30
0.0
 40
61.5713981377246
100
AcDbArc
 50
307.4563750466997
 51
308.7255409866983
  0
LINE
  5
478
330
595
100
AcDbEntity
  8
DATA
  6
Continuous
 62
     7
100
AcDbLine
 10
952.3033134870164
 20
330.8361952171375
 30
0.0
 11
952.5013447406816
 21
330.9879105232168
 31
0.0
  0
ARC
  5
479
330
595
100
AcDbEntity
  8
DATA
  6
Continuous
 62
     7
100
AcDbCircle
 10
912.4255080300073
 20
382.8879757008768
 30
0.0
 40
65.57154275746798
100
AcDbArc
 50
306.2532092559321
 51
307.4563750466965
  0
ARC
  5
47A
330
595
100
AcDbEntity
  8
DATA
  6
Continuous
 62
     7
100
AcDbCircle
 10
904.6857315105233
 20
393.4424591795285
 30
0.0
 40
78.65975356233683
100
AcDbArc
 50
305.2502271968376
 51
306.253209255939
  0
LINE
  5
47B
330
595
100
AcDbEntity
  8
DATA
  6
Continuous
 62
     7
100
AcDbLine
 10
949.7127690531952
 20
328.9433935951202
 30
0.0
 11
950.0840846485704
 21
329.2058157208241
 31
0.0
  0
LINE
  5
47C
330
595
100
AcDbEntity
  8
DATA
  6
Continuous
 62
     7
100
AcDbLine
 10
859.1925562218749
 20
440.7328486809878
 30
0.0
 11
859.188925493677
 21
440.7294604060799
 31
0.0
  0
LINE
  5
47D
330
595
100
AcDbEntity
  8
DATA
  6
Continuous
 62
     7
100
AcDbLine
 10
859.2787217288861
 20
440.8132542930952
 30
0.0
 11
859.1925562218749
 21
440.7328486809878
 31
0.0
  0
ARC
  5
47E
330
595
100
AcDbEntity
  8
DATA
  6
Continuous
 62
     7
100
AcDbCircle
 10
904.2373653320519
 20
392.6339765154202
 30
0.0
 40
65.89781818706009
100
AcDbArc
 50
131.5059215314308
 51
133.0195472771233
  0
LINE
  5
47F
330
595
100
AcDbEntity
  8
DATA
  6
Continuous
 62
     7
100
AcDbLine
 10
860.7079415852744
 20
442.1086882888247
 30
0.0
 11
860.5670492974425
 21
441.9840113609214
 31
0.0
  0
ARC
  5
480
330
595
100
AcDbEntity
  8
DATA
  6
Continuous
 62
     7
100
AcDbCircle
 10
905.7845409140425
 20
391.1694703122823
 30
0.0
 40
68.01987749994833
100
AcDbArc
 50
130.3564182778442
 51
131.50592153143
  0
LINE
  5
481
330
595
100
AcDbEntity
  8
DATA
  6
Continuous
 62
     7
100
AcDbLine
 10
861.796142921916
 20
443.0513574828368
 30
0.0
 11
861.7389185795097
 21
443.0027307564382
 31
0.0
  0
ARC
  5
482
330
595
100
AcDbEntity
  8
DATA
  6
Continuous
 62
     7
100
AcDbCircle
 10
910.0488404591855
 20
386.267175400302
 30
0.0
 40
74.51688502886907
100
AcDbArc
 50
129.4226036522142
 51
130.3564182778409
  0
ARC
  5
483
330
595
100
AcDbEntity
  8
DATA
  6
Continuous
 62
     7
100
AcDbCircle
 10
910.8419448882282
 20
385.3024105116351
 30
0.0
 40
75.76579892733104
100
AcDbArc
 50
128.5041812447074
 51
129.4226036522169
  0
LINE
  5
484
330
595
100
AcDbEntity
  8
DATA
  6
Continuous
 62
     7
100
AcDbLine
 10
863.787338969016
 20
444.6854212055303
 30
0.0
 11
863.6722990891653
 21
444.5939006454453
 31
0.0
  0
ARC
  5
485
330
595
100
AcDbEntity
  8
DATA
  6
Continuous
 62
     7
100
AcDbCircle
 10
902.7364123225025
 20
395.7270591203512
 30
0.0
 40
62.56158192660072
100
AcDbArc
 50
127.1226987248355
 51
128.504181244697
  0
LINE
  5
486
330
595
100
AcDbEntity
  8
DATA
  6
Continuous
 62
     7
100
AcDbLine
 10
865.216001308859
 20
445.7896063991533
 30
0.0
 11
864.9790013307217
 21
445.6102170833004
 31
0.0
  0
ARC
  5
487
330
595
100
AcDbEntity
  8
DATA
  6
Continuous
 62
     7
100
AcDbCircle
 10
902.8290820818925
 20
396.0971301305098
 30
0.0
 40
62.32243611211344
100
AcDbArc
 50
125.8142461550371
 51
127.1226987248345
  0
LINE
  5
488
330
595
100
AcDbEntity
  8
DATA
  6
Continuous
 62
     7
100
AcDbLine
 10
866.4482406876574
 20
446.6988309129952
 30
0.0
 11
866.3605276407304
 21
446.6355371089697
 31
0.0
  0
ARC
  5
489
330
595
100
AcDbEntity
  8
DATA
  6
Continuous
 62
     7
100
AcDbCircle
 10
913.1722479718032
 20
381.9483374542812
 30
0.0
 40
79.84835164131992
100
AcDbArc
 50
124.9481872730138
 51
125.8142461550309
  0
ARC
  5
48A
330
595
100
AcDbEntity
  8
DATA
  6
Continuous
 62
     7
100
AcDbCircle
 10
907.7770506772621
 20
389.6683268088428
 30
0.0
 40
70.42994469101431
100
AcDbArc
 50
123.9663180018469
 51
124.948187273016
  0
LINE
  5
48B
330
595
100
AcDbEntity
  8
DATA
  6
Continuous
 62
     7
100
AcDbLine
 10
868.462463558195
 20
448.1041217502006
 30
0.0
 11
868.427456919464
 21
448.0805394041176
 31
0.0
  0
LINE
  5
48C
330
595
100
AcDbEntity
  8
DATA
  6
Continuous
 62
     7
100
AcDbLine
 10
866.4772246723416
 20
532.164686064129
 30
0.0
 11
1133.522775362453
 21
532.164686064129
 31
0.0
  0
LINE
  5
48D
330
595
100
AcDbEntity
  8
DATA
  6
Continuous
 62
     7
100
AcDbLine
 10
839.5623999999934
 20
459.8377200000008
 30
0.0
 11
863.5623999999934
 21
459.8377200000008
 31
0.0
  0
LINE
  5
48E
330
595
100
AcDbEntity
  8
DATA
  6
Continuous
 62
     7
100
AcDbLine
 10
851.5623999999933
 20
447.8377200000008
 30
0.0
 11
851.5623999999933
 21
471.8377200000008
 31
0.0
  0
LINE
  5
48F
330
595
100
AcDbEntity
  8
DATA
  6
Continuous
 62
     7
100
AcDbLine
 10
1022.442399999996
 20
459.8377200000008
 30
0.0
 11
1046.442399999996
 21
459.8377200000008
 31
0.0
  0
LINE
  5
490
330
595
100
AcDbEntity
  8
DATA
  6
Continuous
 62
     7
100
AcDbLine
 10
1034.442399999996
 20
447.8377200000008
 30
0.0
 11
1034.442399999996
 21
471.8377200000008
 31
0.0
  0
LINE
  5
491
330
595
100
AcDbEntity
  8
DATA
  6
Continuous
 62
     7
100
AcDbLine
 10
953.5575999999998
 20
315.8197200000013
 30
0.0
 11
977.5575999999999
 21
315.8197200000013
 31
0.0
  0
LINE
  5
492
330
595
100
AcDbEntity
  8
DATA
  6
Continuous
 62
     7
100
AcDbLine
 10
965.5575999999998
 20
303.8197200000013
 30
0.0
 11
965.5575999999998
 21
327.8197200000013
 31
0.0
  0
LINE
  5
493
330
595
100
AcDbEntity
  8
DATA
  6
Continuous
 62
     7
100
AcDbLine
 10
1136.4376
 20
315.8197200000013
 30
0.0
 11
1160.4376
 21
315.8197200000013
 31
0.0
  0
LINE
  5
494
330
595
100
AcDbEntity
  8
DATA
  6
Continuous
 62
     7
100
AcDbLine
 10
1148.4376
 20
303.8197200000013
 30
0.0
 11
1148.4376
 21
327.8197200000013
 31
0.0
  0
ARC
  5
495
330
595
100
AcDbEntity
  8
DATA
  6
Continuous
 62
     7
100
AcDbCircle
 10
866.649999999997
 20
186.0174761620332
 30
0.0
 40
92.18484797435907
100
AcDbArc
 50
90.1073853577
 51
150.455114474345
  0
ARC
  5
496
330
595
100
AcDbEntity
  8
DATA
  6
Continuous
 62
     7
100
AcDbCircle
 10
1133.350000000001
 20
186.0174761620332
 30
0.0
 40
92.18484797436268
100
AcDbArc
 50
29.54488552287525
 51
89.89261524240069
  0
LINE
  5
497
330
595
100
AcDbEntity
  8
DATA
  6
Continuous
 62
     7
100
AcDbLine
 10
866.4772246723416
 20
278.2021622261614
 30
0.0
 11
1133.522775362453
 21
278.2021622261614
 31
0.0
  0
TEXT
  5
498
330
595
100
AcDbEntity
  8
DATA
 62
     7
100
AcDbText
 10
878.1839802459023
 20
235.8018506600381
 30
0.0
 40
23.71592708333333
  1
2+/2- LOOP THRU
 41
0.7
 11
878.1839802459023
 21
259.5177777433714
 31
0.0
100
AcDbText
 73
     3
  0
TEXT
  5
499
330
595
100
AcDbEntity
  8
DATA
 62
     7
100
AcDbText
 10
937.63708560426
 20
111.1797234595575
 30
0.0
 40
32.57682291666667
  1
+1
 41
0.7
 11
937.63708560426
 21
143.7565463762241
 31
0.0
100
AcDbText
 73
     3
  0
TEXT
  5
49A
330
595
100
AcDbEntity
  8
DATA
 62
     7
100
AcDbText
 10
1021.167723461689
 20
111.7473890638208
 30
0.0
 40
32.57682291666667
  1
-1
 41
0.7
 11
1021.167723461689
 21
144.3242119804874
 31
0.0
100
AcDbText
 73
     3
  0
TEXT
  5
49B
330
595
100
AcDbEntity
  8
DATA
 62
     7
100
AcDbText
 10
863.2405376613775
 20
185.7770157485554
 30
0.0
 40
24.4326171875
  1
PARALLEL WITH NL4 
 41
0.7
 11
863.2405376613775
 21
210.2096329360554
 31
0.0
100
AcDbText
 73
     3
  0
LINE
  5
49C
330
595
100
AcDbEntity
  8
DATA
  6
Continuous
 62
     7
100
AcDbLine
 10
911.2887817712765
 20
93.82165634793137
 30
0.0
 11
1088.711218228719
 21
93.82165634793137
 31
0.0
  0
LINE
  5
49D
330
595
100
AcDbEntity
  8
DATA
  6
Continuous
 62
     7
100
AcDbLine
 10
1088.711218228719
 20
-19.59278010951084
 30
0.0
 11
911.2887817712765
 21
-19.59278010951084
 31
0.0
  0
LINE
  5
49E
330
595
100
AcDbEntity
  8
DATA
  6
Continuous
 62
     7
100
AcDbLine
 10
990.8559999999985
 20
-19.59278010951084
 30
0.0
 11
990.8559999999985
 21
93.82165634793137
 31
0.0
  0
LINE
  5
49F
330
595
100
AcDbEntity
  8
DATA
  6
Continuous
 62
     7
100
AcDbLine
 10
1009.144
 20
-19.59278010951084
 30
0.0
 11
1009.144
 21
93.82165634793137
 31
0.0
  0
LINE
  5
4A0
330
595
100
AcDbEntity
  8
DATA
  6
Continuous
 62
     7
100
AcDbLine
 10
929.2887817712765
 20
93.82165634793137
 30
0.0
 11
929.2887817712765
 21
-19.59278010951084
 31
0.0
  0
LINE
  5
4A1
330
595
100
AcDbEntity
  8
DATA
  6
Continuous
 62
     7
100
AcDbLine
 10
1070.711218228719
 20
-19.59278010951084
 30
0.0
 11
1070.711218228719
 21
93.82165634793137
 31
0.0
  0
LINE
  5
4A2
330
595
100
AcDbEntity
  8
DATA
  6
Continuous
 62
     7
100
AcDbLine
 10
870.4299999999937
 20
226.5083945868355
 30
0.0
 11
1122.429999999994
 21
226.5083945868355
 31
0.0
  0
LINE
  5
4A3
330
595
100
AcDbEntity
  8
DATA
  6
Continuous
 62
     7
100
AcDbLine
 10
950.6119343973065
 20
37.1144381192089
 30
0.0
 11
971.5269056026906
 21
37.1144381192089
 31
0.0
  0
LINE
  5
4A4
330
595
100
AcDbEntity
  8
DATA
  6
Continuous
 62
     7
100
AcDbLine
 10
961.0694199999985
 20
26.65695251651823
 30
0.0
 11
961.0694199999985
 21
47.57192372190092
 31
0.0
  0
CIRCLE
  5
4A5
330
595
100
AcDbEntity
  8
DATA
  6
Continuous
 62
     7
100
AcDbCircle
 10
1040.190579998621
 20
37.1144381192089
 30
0.0
 40
16.76399999999921
  0
LINE
  5
4A6
330
595
100
AcDbEntity
  8
DATA
  6
Continuous
 62
     7
100
AcDbLine
 10
1050.648065601313
 20
37.1144381192089
 30
0.0
 11
1029.733094395929
 21
37.1144381192089
 31
0.0
  0
LINE
  5
4A7
330
595
100
AcDbEntity
  8
DATA
  6
Continuous
 62
     7
100
AcDbLine
 10
1040.190579998621
 20
26.65695251651823
 30
0.0
 11
1040.190579998621
 21
47.57192372190092
 31
0.0
  0
LINE
  5
4A8
330
595
100
AcDbEntity
  8
DATA
  6
Continuous
 62
     7
100
AcDbLine
 10
767.5899999999943
 20
526.9849263793219
 30
0.0
 11
767.5899999999943
 21
551.0950736206796
 31
0.0
  0
LINE
  5
4A9
330
595
100
AcDbEntity
  8
DATA
  6
Continuous
 62
     7
100
AcDbLine
 10
755.5349263793155
 20
539.0400000000008
 30
0.0
 11
779.6450736206732
 21
539.0400000000008
 31
0.0
  0
CIRCLE
  5
4AA
330
595
100
AcDbEntity
  8
DATA
  6
Continuous
 62
     7
100
AcDbCircle
 10
1232.41
 20
539.0400000000008
 30
0.0
 40
22.09799999999996
  0
LINE
  5
4AB
330
595
100
AcDbEntity
  8
DATA
  6
Continuous
 62
     7
100
AcDbLine
 10
1232.41
 20
526.9849263793219
 30
0.0
 11
1232.41
 21
551.0950736206796
 31
0.0
  0
LINE
  5
4AC
330
595
100
AcDbEntity
  8
DATA
  6
Continuous
 62
     7
100
AcDbLine
 10
1220.354926379321
 20
539.0400000000008
 30
0.0
 11
1244.465073620679
 21
539.0400000000008
 31
0.0
  0
CIRCLE
  5
4AD
330
595
100
AcDbEntity
  8
DATA
  6
Continuous
 62
     7
100
AcDbCircle
 10
767.5899999999943
 20
-192.4800000000009
 30
0.0
 40
22.09799999999996
  0
LINE
  5
4AE
330
595
100
AcDbEntity
  8
DATA
  6
Continuous
 62
     7
100
AcDbLine
 10
767.5899999999943
 20
-204.5350736206797
 30
0.0
 11
767.5899999999943
 21
-180.4249263793222
 31
0.0
  0
LINE
  5
4AF
330
595
100
AcDbEntity
  8
DATA
  6
Continuous
 62
     7
100
AcDbLine
 10
755.5349263793155
 20
-192.4800000000009
 30
0.0
 11
779.6450736206732
 21
-192.4800000000009
 31
0.0
  0
CIRCLE
  5
4B0
330
595
100
AcDbEntity
  8
DATA
  6
Continuous
 62
     7
100
AcDbCircle
 10
1232.41
 20
-192.4800000000009
 30
0.0
 40
22.09799999999996
  0
LINE
  5
4B1
330
595
100
AcDbEntity
  8
DATA
  6
Continuous
 62
     7
100
AcDbLine
 10
1232.41
 20
-204.5350736206797
 30
0.0
 11
1232.41
 21
-180.4249263793222
 31
0.0
  0
LINE
  5
4B2
330
595
100
AcDbEntity
  8
DATA
  6
Continuous
 62
     7
100
AcDbLine
 10
1220.354926379321
 20
-192.4800000000009
 30
0.0
 11
1244.465073620679
 21
-192.4800000000009
 31
0.0
  0
CIRCLE
  5
4B3
330
595
100
AcDbEntity
  8
DATA
  6
Continuous
 62
     7
100
AcDbCircle
 10
-750.0
 20
-44.20167415468358
 30
0.0
 40
11.17600000000038
  0
LINE
  5
4B4
330
595
100
AcDbEntity
  8
DATA
  6
Continuous
 62
     7
100
AcDbLine
 10
-747.2060000000001
 20
-42.42367415468379
 30
0.0
 11
-750.0
 21
-40.64567415468355
 31
0.0
  0
LINE
  5
4B5
330
595
100
AcDbEntity
  8
DATA
  6
Continuous
 62
     7
100
AcDbLine
 10
-752.7939999999999
 20
-45.72567415468347
 30
0.0
 11
-750.0
 21
-47.50367415468327
 31
0.0
  0
LINE
  5
4B6
330
595
100
AcDbEntity
  8
DATA
  6
Continuous
 62
     7
100
AcDbLine
 10
-747.2060000000001
 20
-45.72567415468347
 30
0.0
 11
-747.2060000000001
 21
-42.42367415468379
 31
0.0
  0
LINE
  5
4B7
330
595
100
AcDbEntity
  8
DATA
  6
Continuous
 62
     7
100
AcDbLine
 10
-752.7939999999999
 20
-42.42367415468379
 30
0.0
 11
-752.7939999999999
 21
-45.72567415468347
 31
0.0
  0
LINE
  5
4B8
330
595
100
AcDbEntity
  8
DATA
  6
Continuous
 62
     7
100
AcDbLine
 10
-750.0
 20
-47.50367415468327
 30
0.0
 11
-747.2060000000001
 21
-45.72567415468347
 31
0.0
  0
LINE
  5
4B9
330
595
100
AcDbEntity
  8
DATA
  6
Continuous
 62
     7
100
AcDbLine
 10
-750.0
 20
-40.64567415468355
 30
0.0
 11
-752.7939999999999
 21
-42.42367415468379
 31
0.0
  0
CIRCLE
  5
4BA
330
595
100
AcDbEntity
  8
DATA
  6
Continuous
 62
     7
100
AcDbCircle
 10
-915.2499999999999
 20
-445.2016741546835
 30
0.0
 40
11.17600000000038
  0
LINE
  5
4BB
330
595
100
AcDbEntity
  8
DATA
  6
Continuous
 62
     7
100
AcDbLine
 10
-912.456
 20
-443.4236741546837
 30
0.0
 11
-915.2499999999999
 21
-441.6456741546836
 31
0.0
  0
LINE
  5
4BC
330
595
100
AcDbEntity
  8
DATA
  6
Continuous
 62
     7
100
AcDbLine
 10
-918.0439999999999
 20
-446.7256741546834
 30
0.0
 11
-915.2499999999999
 21
-448.5036741546831
 31
0.0
  0
LINE
  5
4BD
330
595
100
AcDbEntity
  8
DATA
  6
Continuous
 62
     7
100
AcDbLine
 10
-912.456
 20
-446.7256741546834
 30
0.0
 11
-912.456
 21
-443.4236741546837
 31
0.0
  0
LINE
  5
4BE
330
595
100
AcDbEntity
  8
DATA
  6
Continuous
 62
     7
100
AcDbLine
 10
-918.0439999999999
 20
-443.4236741546837
 30
0.0
 11
-918.0439999999999
 21
-446.7256741546834
 31
0.0
  0
LINE
  5
4BF
330
595
100
AcDbEntity
  8
DATA
  6
Continuous
 62
     7
100
AcDbLine
 10
-915.2499999999999
 20
-448.5036741546831
 30
0.0
 11
-912.456
 21
-446.7256741546834
 31
0.0
  0
LINE
  5
4C0
330
595
100
AcDbEntity
  8
DATA
  6
Continuous
 62
     7
100
AcDbLine
 10
-915.2499999999999
 20
-441.6456741546836
 30
0.0
 11
-918.0439999999999
 21
-443.4236741546837
 31
0.0
  0
CIRCLE
  5
4C1
330
595
100
AcDbEntity
  8
DATA
  6
Continuous
 62
     7
100
AcDbCircle
 10
-584.75
 20
-445.2016741546835
 30
0.0
 40
11.17600000000038
  0
LINE
  5
4C2
330
595
100
AcDbEntity
  8
DATA
  6
Continuous
 62
     7
100
AcDbLine
 10
-581.9560000000001
 20
-443.4236741546837
 30
0.0
 11
-584.75
 21
-441.6456741546836
 31
0.0
  0
LINE
  5
4C3
330
595
100
AcDbEntity
  8
DATA
  6
Continuous
 62
     7
100
AcDbLine
 10
-587.5439999999998
 20
-446.7256741546834
 30
0.0
 11
-584.75
 21
-448.5036741546831
 31
0.0
  0
LINE
  5
4C4
330
595
100
AcDbEntity
  8
DATA
  6
Continuous
 62
     7
100
AcDbLine
 10
-581.9560000000001
 20
-446.7256741546834
 30
0.0
 11
-581.9560000000001
 21
-443.4236741546837
 31
0.0
  0
LINE
  5
4C5
330
595
100
AcDbEntity
  8
DATA
  6
Continuous
 62
     7
100
AcDbLine
 10
-587.5439999999998
 20
-443.4236741546837
 30
0.0
 11
-587.5439999999998
 21
-446.7256741546834
 31
0.0
  0
LINE
  5
4C6
330
595
100
AcDbEntity
  8
DATA
  6
Continuous
 62
     7
100
AcDbLine
 10
-584.75
 20
-448.5036741546831
 30
0.0
 11
-581.9560000000001
 21
-446.7256741546834
 31
0.0
  0
LINE
  5
4C7
330
595
100
AcDbEntity
  8
DATA
  6
Continuous
 62
     7
100
AcDbLine
 10
-584.75
 20
-441.6456741546836
 30
0.0
 11
-587.5439999999998
 21
-443.4236741546837
 31
0.0
  0
CIRCLE
  5
4C8
330
595
100
AcDbEntity
  8
DATA
  6
Continuous
 62
     7
100
AcDbCircle
 10
475.0
 20
-811.0208974617535
 30
0.0
 40
11.17600000000038
  0
LINE
  5
4C9
330
595
100
AcDbEntity
  8
DATA
  6
Continuous
 62
     7
100
AcDbLine
 10
477.7939999999999
 20
-809.2428974617536
 30
0.0
 11
475.0
 21
-807.4648974617536
 31
0.0
  0
LINE
  5
4CA
330
595
100
AcDbEntity
  8
DATA
  6
Continuous
 62
     7
100
AcDbLine
 10
472.206
 20
-812.5448974617535
 30
0.0
 11
475.0
 21
-814.3228974617532
 31
0.0
  0
LINE
  5
4CB
330
595
100
AcDbEntity
  8
DATA
  6
Continuous
 62
     7
100
AcDbLine
 10
477.7939999999999
 20
-812.5448974617535
 30
0.0
 11
477.7939999999999
 21
-809.2428974617536
 31
0.0
  0
LINE
  5
4CC
330
595
100
AcDbEntity
  8
DATA
  6
Continuous
 62
     7
100
AcDbLine
 10
472.206
 20
-809.2428974617536
 30
0.0
 11
472.206
 21
-812.5448974617535
 31
0.0
  0
LINE
  5
4CD
330
595
100
AcDbEntity
  8
DATA
  6
Continuous
 62
     7
100
AcDbLine
 10
475.0
 20
-814.3228974617532
 30
0.0
 11
477.7939999999999
 21
-812.5448974617535
 31
0.0
  0
LINE
  5
4CE
330
595
100
AcDbEntity
  8
DATA
  6
Continuous
 62
     7
100
AcDbLine
 10
475.0
 20
-807.4648974617536
 30
0.0
 11
472.206
 21
-809.2428974617536
 31
0.0
  0
CIRCLE
  5
4CF
330
595
100
AcDbEntity
  8
DATA
  6
Continuous
 62
     7
100
AcDbCircle
 10
475.0
 20
-1206.0
 30
0.0
 40
11.17600000000038
  0
LINE
  5
4D0
330
595
100
AcDbEntity
  8
DATA
  6
Continuous
 62
     7
100
AcDbLine
 10
477.7939999999999
 20
-1204.222
 30
0.0
 11
475.0
 21
-1202.444
 31
0.0
  0
LINE
  5
4D1
330
595
100
AcDbEntity
  8
DATA
  6
Continuous
 62
     7
100
AcDbLine
 10
472.206
 20
-1207.524
 30
0.0
 11
475.0
 21
-1209.301999999999
 31
0.0
  0
LINE
  5
4D2
330
595
100
AcDbEntity
  8
DATA
  6
Continuous
 62
     7
100
AcDbLine
 10
477.7939999999999
 20
-1207.524
 30
0.0
 11
477.7939999999999
 21
-1204.222
 31
0.0
  0
LINE
  5
4D3
330
595
100
AcDbEntity
  8
DATA
  6
Continuous
 62
     7
100
AcDbLine
 10
472.206
 20
-1204.222
 30
0.0
 11
472.206
 21
-1207.524
 31
0.0
  0
LINE
  5
4D4
330
595
100
AcDbEntity
  8
DATA
  6
Continuous
 62
     7
100
AcDbLine
 10
475.0
 20
-1209.301999999999
 30
0.0
 11
477.7939999999999
 21
-1207.524
 31
0.0
  0
LINE
  5
4D5
330
595
100
AcDbEntity
  8
DATA
  6
Continuous
 62
     7
100
AcDbLine
 10
475.0
 20
-1202.444
 30
0.0
 11
472.206
 21
-1204.222
 31
0.0
  0
CIRCLE
  5
4D6
330
595
100
AcDbEntity
  8
DATA
  6
Continuous
 62
     7
100
AcDbCircle
 10
-344.9373542410967
 20
-811.0208974617535
 30
0.0
 40
11.17600000000038
  0
LINE
  5
4D7
330
595
100
AcDbEntity
  8
DATA
  6
Continuous
 62
     7
100
AcDbLine
 10
-342.1433542410968
 20
-809.2428974617536
 30
0.0
 11
-344.9373542410967
 21
-807.4648974617536
 31
0.0
  0
LINE
  5
4D8
330
595
100
AcDbEntity
  8
DATA
  6
Continuous
 62
     7
100
AcDbLine
 10
-347.7313542410966
 20
-812.5448974617535
 30
0.0
 11
-344.9373542410967
 21
-814.3228974617532
 31
0.0
  0
LINE
  5
4D9
330
595
100
AcDbEntity
  8
DATA
  6
Continuous
 62
     7
100
AcDbLine
 10
-342.1433542410968
 20
-812.5448974617535
 30
0.0
 11
-342.1433542410968
 21
-809.2428974617536
 31
0.0
  0
LINE
  5
4DA
330
595
100
AcDbEntity
  8
DATA
  6
Continuous
 62
     7
100
AcDbLine
 10
-347.7313542410966
 20
-809.2428974617536
 30
0.0
 11
-347.7313542410966
 21
-812.5448974617535
 31
0.0
  0
LINE
  5
4DB
330
595
100
AcDbEntity
  8
DATA
  6
Continuous
 62
     7
100
AcDbLine
 10
-344.9373542410967
 20
-814.3228974617532
 30
0.0
 11
-342.1433542410968
 21
-812.5448974617535
 31
0.0
  0
LINE
  5
4DC
330
595
100
AcDbEntity
  8
DATA
  6
Continuous
 62
     7
100
AcDbLine
 10
-344.9373542410967
 20
-807.4648974617536
 30
0.0
 11
-347.7313542410966
 21
-809.2428974617536
 31
0.0
  0
CIRCLE
  5
4DD
330
595
100
AcDbEntity
  8
DATA
  6
Continuous
 62
     7
100
AcDbCircle
 10
-344.9373542410967
 20
-1206.0
 30
0.0
 40
11.17600000000038
  0
LINE
  5
4DE
330
595
100
AcDbEntity
  8
DATA
  6
Continuous
 62
     7
100
AcDbLine
 10
-342.1433542410968
 20
-1204.222
 30
0.0
 11
-344.9373542410967
 21
-1202.444
 31
0.0
  0
LINE
  5
4DF
330
595
100
AcDbEntity
  8
DATA
  6
Continuous
 62
     7
100
AcDbLine
 10
-347.7313542410966
 20
-1207.524
 30
0.0
 11
-344.9373542410967
 21
-1209.301999999999
 31
0.0
  0
LINE
  5
4E0
330
595
100
AcDbEntity
  8
DATA
  6
Continuous
 62
     7
100
AcDbLine
 10
-342.1433542410968
 20
-1207.524
 30
0.0
 11
-342.1433542410968
 21
-1204.222
 31
0.0
  0
LINE
  5
4E1
330
595
100
AcDbEntity
  8
DATA
  6
Continuous
 62
     7
100
AcDbLine
 10
-347.7313542410966
 20
-1204.222
 30
0.0
 11
-347.7313542410966
 21
-1207.524
 31
0.0
  0
LINE
  5
4E2
330
595
100
AcDbEntity
  8
DATA
  6
Continuous
 62
     7
100
AcDbLine
 10
-344.9373542410967
 20
-1209.301999999999
 30
0.0
 11
-342.1433542410968
 21
-1207.524
 31
0.0
  0
LINE
  5
4E3
330
595
100
AcDbEntity
  8
DATA
  6
Continuous
 62
     7
100
AcDbLine
 10
-344.9373542410967
 20
-1202.444
 30
0.0
 11
-347.7313542410966
 21
-1204.222
 31
0.0
  0
LINE
  5
4E4
330
595
100
AcDbEntity
  8
DATA
  6
Continuous
 62
     7
100
AcDbLine
 10
-774.5
 20
-1156.0
 30
0.0
 11
-774.5
 21
-1107.0
 31
0.0
  0
LINE
  5
4E5
330
595
100
AcDbEntity
  8
DATA
  6
Continuous
 62
     7
100
AcDbLine
 10
-725.4999999999999
 20
-1156.0
 30
0.0
 11
-774.5
 21
-1156.0
 31
0.0
  0
LINE
  5
4E6
330
595
100
AcDbEntity
  8
DATA
  6
Continuous
 62
     7
100
AcDbLine
 10
-725.4999999999999
 20
-1107.0
 30
0.0
 11
-725.4999999999999
 21
-1156.0
 31
0.0
  0
LINE
  5
4E7
330
595
100
AcDbEntity
  8
DATA
  6
Continuous
 62
     7
100
AcDbLine
 10
-774.5
 20
-1107.0
 30
0.0
 11
-725.4999999999999
 21
-1107.0
 31
0.0
  0
LINE
  5
4E8
330
595
100
AcDbEntity
  8
DATA
  6
Continuous
 62
     7
100
AcDbLine
 10
-774.5
 20
-1148.34375
 30
0.0
 11
-725.4999999999999
 21
-1148.34375
 31
0.0
  0
ARC
  5
4E9
330
595
100
AcDbEntity
  8
DATA
  6
Continuous
 62
     7
100
AcDbCircle
 10
-749.1901838907311
 20
-1133.700010498856
 30
0.0
 40
0.5369503090223667
100
AcDbArc
 50
307.6419024975202
 51
354.2670192894167
  0
LINE
  5
4EA
330
595
100
AcDbEntity
  8
DATA
  6
Continuous
 62
     7
100
AcDbLine
 10
-762.9824045312501
 20
-1125.238542656249
 30
0.0
 11
-760.4651734687496
 21
-1119.24068540625
 31
0.0
  0
LINE
  5
4EB
330
595
100
AcDbEntity
  8
DATA
  6
Continuous
 62
     7
100
AcDbLine
 10
-762.9824045312501
 20
-1125.238542656249
 30
0.0
 11
-765.4685757187503
 21
-1119.24068540625
 31
0.0
  0
LINE
  5
4EC
330
595
100
AcDbEntity
  8
DATA
  6
Continuous
 62
     7
100
AcDbLine
 10
-743.9011307812499
 20
-1136.08443540625
 30
0.0
 11
-743.9011307812499
 21
-1119.24068540625
 31
0.0
  0
LINE
  5
4ED
330
595
100
AcDbEntity
  8
DATA
  6
Continuous
 62
     7
100
AcDbLine
 10
-740.6691183437501
 20
-1119.24068540625
 30
0.0
 11
-740.6691183437501
 21
-1133.505050906249
 31
0.0
  0
LINE
  5
4EE
330
595
100
AcDbEntity
  8
DATA
  6
Continuous
 62
     7
100
AcDbLine
 10
-759.2842413124998
 20
-1119.24068540625
 30
0.0
 11
-759.2842413124998
 21
-1133.505050906249
 31
0.0
  0
LINE
  5
4EF
330
595
100
AcDbEntity
  8
DATA
  6
Continuous
 62
     7
100
AcDbLine
 10
-756.1765357499999
 20
-1119.24068540625
 30
0.0
 11
-756.1765357499999
 21
-1133.505050906249
 31
0.0
  0
LINE
  5
4F0
330
595
100
AcDbEntity
  8
DATA
  6
Continuous
 62
     7
100
AcDbLine
 10
-754.5605295312501
 20
-1119.24068540625
 30
0.0
 11
-754.5605295312501
 21
-1136.08443540625
 31
0.0
  0
LINE
  5
4F1
330
595
100
AcDbEntity
  8
DATA
  6
Continuous
 62
     7
100
AcDbLine
 10
-751.7325144374998
 20
-1120.825598062499
 30
0.0
 11
-751.7325144374998
 21
-1126.2330145
 31
0.0
  0
LINE
  5
4F2
330
595
100
AcDbEntity
  8
DATA
  6
Continuous
 62
     7
100
AcDbLine
 10
-745.6711562499997
 20
-1125.920125
 30
0.0
 11
-745.6711562499997
 21
-1121.97547034375
 31
0.0
  0
LINE
  5
4F3
330
595
100
AcDbEntity
  8
DATA
  6
Continuous
 62
     7
100
AcDbLine
 10
-748.6559192812501
 20
-1121.571456156249
 30
0.0
 11
-748.6559192812501
 21
-1125.48717325
 31
0.0
  0
ARC
  5
4F4
330
595
100
AcDbEntity
  8
DATA
  6
Continuous
 62
     7
100
AcDbCircle
 10
-759.9078643124995
 20
-1131.759297281249
 30
0.0
 40
4.343756238017759
100
AcDbArc
 50
264.6908562215336
 51
323.9911991542367
  0
LINE
  5
4F5
330
595
100
AcDbEntity
  8
DATA
  6
Continuous
 62
     7
100
AcDbLine
 10
-761.6460887812503
 20
-1130.80132584375
 30
0.0
 11
-761.6460887812503
 21
-1133.50501721875
 31
0.0
  0
LINE
  5
4F6
330
595
100
AcDbEntity
  8
DATA
  6
Continuous
 62
     7
100
AcDbLine
 10
-761.6460887812503
 20
-1130.80132584375
 30
0.0
 11
-764.4430271562502
 21
-1130.80132584375
 31
0.0
  0
LINE
  5
4F7
330
595
100
AcDbEntity
  8
DATA
  6
Continuous
 62
     7
100
AcDbLine
 10
-764.4430271562502
 20
-1130.80132584375
 30
0.0
 11
-764.4430271562502
 21
-1133.50501721875
 31
0.0
  0
ARC
  5
4F8
330
595
100
AcDbEntity
  8
DATA
  6
Continuous
 62
     7
100
AcDbCircle
 10
-760.4592444687502
 20
-1133.541467093749
 30
0.0
 40
1.175573866702406
100
AcDbArc
 50
269.7118487927389
 51
1.775987005684669
  0
ARC
  5
4F9
330
595
100
AcDbEntity
  8
DATA
  6
Continuous
 62
     7
100
AcDbCircle
 10
-760.471085625
 20
-1133.541467093749
 30
0.0
 40
1.175567855533674
100
AcDbArc
 50
178.2240129943251
 51
270.2881512072564
  0
ARC
  5
4FA
330
595
100
AcDbEntity
  8
DATA
  6
Continuous
 62
     7
100
AcDbCircle
 10
-760.7116985937497
 20
-1131.759297281249
 30
0.0
 40
4.343749183482049
100
AcDbArc
 50
216.0088008457549
 51
275.3091437784644
  0
ARC
  5
4FB
330
595
100
AcDbEntity
  8
DATA
  6
Continuous
 62
     7
100
AcDbCircle
 10
-762.4799891562496
 20
-1133.4097995
 30
0.0
 40
1.965329100646954
100
AcDbArc
 50
182.7769954499886
 51
207.3596066671218
  0
CIRCLE
  5
4FC
330
595
100
AcDbEntity
  8
DATA
  6
Continuous
 62
     7
100
AcDbCircle
 10
-762.8114741562498
 20
-1127.56933025
 30
0.0
 40
1.600459437499694
  0
LINE
  5
4FD
330
595
100
AcDbEntity
  8
DATA
  6
Continuous
 62
     7
100
AcDbLine
 10
-735.4792557812499
 20
-1136.0844185625
 30
0.0
 11
-743.9011307812499
 21
-1136.0844185625
 31
0.0
  0
LINE
  5
4FE
330
595
100
AcDbEntity
  8
DATA
  6
Continuous
 62
     7
100
AcDbLine
 10
-735.4792557812499
 20
-1136.0844185625
 30
0.0
 11
-735.4792557812499
 21
-1130.801309
 31
0.0
  0
LINE
  5
4FF
330
595
100
AcDbEntity
  8
DATA
  6
Continuous
 62
     7
100
AcDbLine
 10
-735.4792557812499
 20
-1130.80132584375
 30
0.0
 11
-738.3072540312503
 21
-1130.80132584375
 31
0.0
  0
LINE
  5
500
330
595
100
AcDbEntity
  8
DATA
  6
Continuous
 62
     7
100
AcDbLine
 10
-738.3072540312503
 20
-1130.80132584375
 30
0.0
 11
-738.3072540312503
 21
-1133.50501721875
 31
0.0
  0
LINE
  5
501
330
595
100
AcDbEntity
  8
DATA
  6
Continuous
 62
     7
100
AcDbLine
 10
-754.5605295312501
 20
-1136.0844185625
 30
0.0
 11
-748.6559192812501
 21
-1136.08440171875
 31
0.0
  0
LINE
  5
502
330
595
100
AcDbEntity
  8
DATA
  6
Continuous
 62
     7
100
AcDbLine
 10
-751.7325312812499
 20
-1134.4994890625
 30
0.0
 11
-750.2097552187505
 21
-1134.4994890625
 31
0.0
  0
LINE
  5
503
330
595
100
AcDbEntity
  8
DATA
  6
Continuous
 62
     7
100
AcDbLine
 10
-751.7325144374998
 20
-1134.4994890625
 30
0.0
 11
-751.7325144374998
 21
-1127.849003875
 31
0.0
  0
LINE
  5
504
330
595
100
AcDbEntity
  8
DATA
  6
Continuous
 62
     7
100
AcDbLine
 10
-751.7325312812499
 20
-1127.849003875
 30
0.0
 11
-750.2097552187505
 21
-1127.849003875
 31
0.0
  0
LINE
  5
505
330
595
100
AcDbEntity
  8
DATA
  6
Continuous
 62
     7
100
AcDbLine
 10
-748.6559192812501
 20
-1133.753647812499
 30
0.0
 11
-748.6559192812501
 21
-1128.594845124999
 31
0.0
  0
ARC
  5
506
330
595
100
AcDbEntity
  8
DATA
  6
Continuous
 62
     7
100
AcDbCircle
 10
-758.1395737499997
 20
-1133.4097995
 30
0.0
 40
1.965326304060299
100
AcDbArc
 50
332.6403933328573
 51
357.2230045500236
  0
ARC
  5
507
330
595
100
AcDbEntity
  8
DATA
  6
Continuous
 62
     7
100
AcDbCircle
 10
-739.4822740312498
 20
-1133.541467093749
 30
0.0
 40
1.175573866702405
100
AcDbArc
 50
269.7118487927444
 51
1.775987005684498
  0
ARC
  5
508
330
595
100
AcDbEntity
  8
DATA
  6
Continuous
 62
     7
100
AcDbCircle
 10
-739.4940983437503
 20
-1133.541467093749
 30
0.0
 40
1.175567855532992
100
AcDbArc
 50
178.2240129943241
 51
270.2881512072565
  0
LINE
  5
509
330
595
100
AcDbEntity
  8
DATA
  6
Continuous
 62
     7
100
AcDbLine
 10
-745.6725205937496
 20
-1133.38071034375
 30
0.0
 11
-745.6725205937496
 21
-1128.905629156249
 31
0.0
  0
LINE
  5
50A
330
595
100
AcDbEntity
  8
DATA
  6
Continuous
 62
     7
100
AcDbLine
 10
-751.7325312812499
 20
-1126.2330145
 30
0.0
 11
-750.2097552187505
 21
-1126.2330145
 31
0.0
  0
ARC
  5
50B
330
595
100
AcDbEntity
  8
DATA
  6
Continuous
 62
     7
100
AcDbCircle
 10
-748.8700370312496
 20
-1132.88685159375
 30
0.0
 40
3.204711096612812
100
AcDbArc
 50
273.8309816091089
 51
351.135147309795
  0
LINE
  5
50C
330
595
100
AcDbEntity
  8
DATA
  6
Continuous
 62
     7
100
AcDbLine
 10
-759.2842413124998
 20
-1119.24068540625
 30
0.0
 11
-756.1765357499999
 21
-1119.24068540625
 31
0.0
  0
LINE
  5
50D
330
595
100
AcDbEntity
  8
DATA
  6
Continuous
 62
     7
100
AcDbLine
 10
-765.4685757187503
 20
-1119.24068540625
 30
0.0
 11
-760.4651734687496
 21
-1119.24068540625
 31
0.0
  0
LINE
  5
50E
330
595
100
AcDbEntity
  8
DATA
  6
Continuous
 62
     7
100
AcDbLine
 10
-743.9011307812499
 20
-1119.24068540625
 30
0.0
 11
-740.6691183437501
 21
-1119.24068540625
 31
0.0
  0
LINE
  5
50F
330
595
100
AcDbEntity
  8
DATA
  6
Continuous
 62
     7
100
AcDbLine
 10
-754.5605295312501
 20
-1119.24068540625
 30
0.0
 11
-748.6234611591533
 21
-1119.240699039144
 31
0.0
  0
LINE
  5
510
330
595
100
AcDbEntity
  8
DATA
  6
Continuous
 62
     7
100
AcDbLine
 10
-751.7325312812499
 20
-1120.82561490625
 30
0.0
 11
-750.2097552187505
 21
-1120.82561490625
 31
0.0
  0
ARC
  5
511
330
595
100
AcDbEntity
  8
DATA
  6
Continuous
 62
     7
100
AcDbCircle
 10
-748.8380844374995
 20
-1122.43335084375
 30
0.0
 40
3.199857605747852
100
AcDbArc
 50
8.226923859025827
 51
86.15412669216475
  0
ARC
  5
512
330
595
100
AcDbEntity
  8
DATA
  6
Continuous
 62
     7
100
AcDbCircle
 10
-750.1917737364274
 20
-1131.545620903886
 30
0.0
 40
2.953922888664637
100
AcDbArc
 50
269.6512199376045
 51
282.8264828068762
  0
ARC
  5
513
330
595
100
AcDbEntity
  8
DATA
  6
Continuous
 62
     7
100
AcDbCircle
 10
-749.8600014412358
 20
-1132.794480992973
 30
0.0
 40
1.663215719033649
100
AcDbArc
 50
281.2331036226672
 51
306.8620088940745
  0
ARC
  5
514
330
595
100
AcDbEntity
  8
DATA
  6
Continuous
 62
     7
100
AcDbCircle
 10
-749.1901838907311
 20
-1128.648482438643
 30
0.0
 40
0.5369503090221095
100
AcDbArc
 50
5.732980710584504
 51
52.35809750243101
  0
ARC
  5
515
330
595
100
AcDbEntity
  8
DATA
  6
Continuous
 62
     7
100
AcDbCircle
 10
-750.1917737364274
 20
-1130.802872033614
 30
0.0
 40
2.953922888665326
100
AcDbArc
 50
77.1735171931277
 51
90.34878006239535
  0
ARC
  5
516
330
595
100
AcDbEntity
  8
DATA
  6
Continuous
 62
     7
100
AcDbCircle
 10
-749.8600014412358
 20
-1129.554011944526
 30
0.0
 40
1.663215719032758
100
AcDbArc
 50
53.13799110593337
 51
78.76689637732667
  0
ARC
  5
517
330
595
100
AcDbEntity
  8
DATA
  6
Continuous
 62
     7
100
AcDbCircle
 10
-747.3024565937501
 20
-1129.015804125
 30
0.0
 40
1.633655376092423
100
AcDbArc
 50
3.867006359838072
 51
88.36163456789309
  0
ARC
  5
518
330
595
100
AcDbEntity
  8
DATA
  6
Continuous
 62
     7
100
AcDbCircle
 10
-747.3039556874998
 20
-1125.748251375
 30
0.0
 40
1.635278736348489
100
AcDbArc
 50
271.6892821046406
 51
356.0782829826858
  0
ARC
  5
519
330
595
100
AcDbEntity
  8
DATA
  6
Continuous
 62
     7
100
AcDbCircle
 10
-749.1901838907311
 20
-1125.433535936356
 30
0.0
 40
0.5369503090218265
100
AcDbArc
 50
307.6419024975647
 51
354.2670192894108
  0
ARC
  5
51A
330
595
100
AcDbEntity
  8
DATA
  6
Continuous
 62
     7
100
AcDbCircle
 10
-750.1917737364274
 20
-1123.279146341386
 30
0.0
 40
2.953922888665319
100
AcDbArc
 50
269.6512199376047
 51
282.8264828068723
  0
ARC
  5
51B
330
595
100
AcDbEntity
  8
DATA
  6
Continuous
 62
     7
100
AcDbCircle
 10
-749.8600014412358
 20
-1124.528006430473
 30
0.0
 40
1.663215719032979
100
AcDbArc
 50
281.2331036226719
 51
306.8620088940682
  0
ARC
  5
51C
330
595
100
AcDbEntity
  8
DATA
  6
Continuous
 62
     7
100
AcDbCircle
 10
-749.1901838907311
 20
-1121.625093469893
 30
0.0
 40
0.5369503090221777
100
AcDbArc
 50
5.732980710656927
 51
52.35809750246503
  0
ARC
  5
51D
330
595
100
AcDbEntity
  8
DATA
  6
Continuous
 62
     7
100
AcDbCircle
 10
-750.1917737364274
 20
-1123.779483064864
 30
0.0
 40
2.953922888665326
100
AcDbArc
 50
77.1735171931277
 51
90.34878006239535
  0
ARC
  5
51E
330
595
100
AcDbEntity
  8
DATA
  6
Continuous
 62
     7
100
AcDbCircle
 10
-749.8600014412358
 20
-1122.530622975777
 30
0.0
 40
1.663215719033303
100
AcDbArc
 50
53.13799110594747
 51
78.76689637732972
  0
TEXT
  5
51F
330
595
100
AcDbEntity
  8
DATA
 62
     7
100
AcDbText
 10
-771.0334533691406
 20
-1154.823150634765
 30
0.0
 40
5.30255126953125
  1
PROFESSIONAL
 41
0.7
 72
     1
 11
-750.0
 21
-1152.171875
 31
0.0
100
AcDbText
 73
     2
  0
LINE
  5
520
330
595
100
AcDbEntity
  8
DATA
  6
Continuous
 62
     7
100
AcDbLine
 10
-552.8851927829009
 20
-767.0208974617535
 30
0.0
 11
-947.114807217099
 21
-767.0208974617535
 31
0.0
  0
LINE
  5
521
330
595
100
AcDbEntity
  8
DATA
  6
STYLE_06
 62
     7
100
AcDbLine
 10
-750.0
 20
67.89114390416671
 30
0.0
 11
-750.0
 21
-632.1088560958332
 31
0.0
  0
LINE
  5
522
330
595
100
AcDbEntity
  8
DATA
  6
STYLE_06
 62
     7
100
AcDbLine
 10
474.8822334105607
 20
-850.0
 30
0.0
 11
474.8822334105607
 21
-750.0
 31
0.0
  0
LINE
  5
523
330
595
100
AcDbEntity
  8
DATA
  6
STYLE_06
 62
     7
100
AcDbLine
 10
474.8822334105607
 20
-1275.0
 30
0.0
 11
474.8822334105607
 21
-1175.0
 31
0.0
  0
LINE
  5
524
330
595
100
AcDbEntity
  8
DATA
  6
Continuous
 62
     7
100
AcDbLine
 10
-947.114807217099
 20
-1250.0
 30
0.0
 11
-552.8851927829009
 21
-1250.0
 31
0.0
  0
ENDSEC
  0
SECTION
  2
OBJECTS
  0
DICTIONARY
  5
532
330
0
100
AcDbDictionary
281
     1
  3
ACAD_CIP_PREVIOUS_PRODUCT_INFO
350
5AF
  3
ACAD_COLOR
350
588
  3
ACAD_DETAILVIEWSTYLE
350
58F
  3
ACAD_GROUP
350
533
  3
ACAD_LAYOUT
350
587
  3
ACAD_MATERIAL
350
536
  3
ACAD_MLEADERSTYLE
350
58B
  3
ACAD_MLINESTYLE
350
584
  3
ACAD_PLOTSETTINGS
350
586
  3
ACAD_PLOTSTYLENAME
350
534
  3
ACAD_SCALELIST
350
568
  3
ACAD_SECTIONVIEWSTYLE
350
58D
  3
ACAD_TABLESTYLE
350
589
  3
ACAD_VISUALSTYLE
350
54F
  3
ACDB_RECOMPOSE_DATA
350
5C9
  3
AcDbVariableDictionary
350
5BC
  3
DWGPROPS
350
5CA
  0
DICTIONARY
  5
5B0
330
57A
100
AcDbDictionary
280
     1
281
     1
  3
ADSK_XREC_LAYER_RECONCILED
360
5B1
  0
DICTIONARY
  5
5B2
330
599
100
AcDbDictionary
280
     1
281
     1
  3
ADSK_XREC_LAYER_RECONCILED
360
5B3
  0
DICTIONARY
  5
5B4
330
5A6
100
AcDbDictionary
280
     1
281
     1
  3
ADSK_XREC_LAYER_RECONCILED
360
5B5
  0
DICTIONARY
  5
5B6
330
5A7
100
AcDbDictionary
280
     1
281
     1
  3
ADSK_XREC_LAYER_RECONCILED
360
5B7
  0
DICTIONARY
  5
5B8
330
5A8
100
AcDbDictionary
280
     1
281
     1
  3
ADSK_XREC_LAYER_RECONCILED
360
5B9
  0
DICTIONARY
  5
5BA
330
5A9
100
AcDbDictionary
280
     1
281
     1
  3
ADSK_XREC_LAYER_RECONCILED
360
5BB
  0
XRECORD
  5
5AF
102
{ACAD_REACTORS
330
532
102
}
330
532
100
AcDbXrecord
280
     1
300
ACDLT
300
2017
300
ACDLT_F_S
  0
DICTIONARY
  5
588
102
{ACAD_REACTORS
330
532
102
}
330
532
100
AcDbDictionary
281
     1
  0
DICTIONARY
  5
58F
102
{ACAD_REACTORS
330
532
102
}
330
532
100
AcDbDictionary
281
     1
  3
Imperial24
350
590
  0
DICTIONARY
  5
533
102
{ACAD_REACTORS
330
532
102
}
330
532
100
AcDbDictionary
281
     1
  0
DICTIONARY
  5
587
102
{ACAD_REACTORS
330
532
102
}
330
532
100
AcDbDictionary
281
     1
  3
Model
350
598
  3
レイアウト1
350
594
  0
DICTIONARY
  5
536
102
{ACAD_REACTORS
330
532
102
}
330
532
100
AcDbDictionary
281
     1
  3
ByBlock
350
53F
  3
ByLayer
350
537
  3
Global
350
547
  0
DICTIONARY
  5
58B
102
{ACAD_REACTORS
330
532
102
}
330
532
100
AcDbDictionary
281
     1
  3
Standard
350
58C
  0
DICTIONARY
  5
584
102
{ACAD_REACTORS
330
532
102
}
330
532
100
AcDbDictionary
281
     1
  3
Standard
350
585
  0
DICTIONARY
  5
586
102
{ACAD_REACTORS
330
532
102
}
330
532
100
AcDbDictionary
281
     1
  0
ACDBDICTIONARYWDFLT
  5
534
102
{ACAD_REACTORS
330
532
102
}
330
532
100
AcDbDictionary
281
     1
  3
Normal
350
535
100
AcDbDictionaryWithDefault
340
535
  0
DICTIONARY
  5
568
102
{ACAD_REACTORS
330
532
102
}
330
532
100
AcDbDictionary
281
     1
  3
A0
350
569
  3
A1
350
56A
  3
A2
350
56B
  3
A3
350
56C
  3
A4
350
56D
  3
A5
350
56E
  3
A6
350
56F
  3
A7
350
570
  3
A8
350
571
  3
A9
350
572
  3
B0
350
573
  3
B1
350
574
  3
B2
350
575
  3
B3
350
576
  3
B4
350
577
  3
B5
350
578
  3
B6
350
579
  0
DICTIONARY
  5
58D
102
{ACAD_REACTORS
330
532
102
}
330
532
100
AcDbDictionary
281
     1
  3
Imperial24
350
58E
  0
DICTIONARY
  5
589
102
{ACAD_REACTORS
330
532
102
}
330
532
100
AcDbDictionary
281
     1
  3
Standard
350
58A
  0
DICTIONARY
  5
54F
102
{ACAD_REACTORS
330
532
102
}
330
532
100
AcDbDictionary
281
     1
  3
2dWireframe
350
555
  3
Basic
350
554
  3
Brighten
350
55B
  3
ColorChange
350
55F
  3
Conceptual
350
558
  3
Dim
350
55A
  3
EdgeColorOff
350
567
  3
Facepattern
350
55E
  3
Flat
350
550
  3
FlatWithEdges
350
551
  3
Gouraud
350
552
  3
GouraudWithEdges
350
553
  3
Hidden
350
557
  3
JitterOff
350
565
  3
Linepattern
350
55D
  3
OverhangOff
350
566
  3
Realistic
350
559
  3
Shaded
350
564
  3
Shaded with edges
350
563
  3
Shades of Gray
350
560
  3
Sketchy
350
561
  3
Thicken
350
55C
  3
Wireframe
350
556
  3
X-Ray
350
562
  0
XRECORD
  5
5C9
102
{ACAD_REACTORS
330
532
102
}
330
532
100
AcDbXrecord
280
     1
 90
        1
330
58A
  0
DICTIONARY
  5
5BC
102
{ACAD_REACTORS
330
532
102
}
330
532
100
AcDbDictionary
281
     1
  3
CANNOSCALE
350
5C1
  3
CMLEADERSTYLE
350
5BE
  3
CTABLESTYLE
350
5BD
  3
CVIEWDETAILSTYLE
350
5BF
  3
CVIEWSECTIONSTYLE
350
5C0
  3
DIMASSOC
350
5C4
  3
INDEXCTL
350
5C3
  3
SORTENTS
350
5C2
  3
XCLIPFRAME
350
5C5
  0
XRECORD
  5
5CA
102
{ACAD_REACTORS
330
532
102
}
330
532
100
AcDbXrecord
280
     1
  1
DWGPROPS COOKIE
  2

  3

  4

  6

  7

  8
sasaki_n
  9

300
=
301
=
302
=
303
=
304
=
305
=
306
=
307
=
308
=
309
=
 40
0.0003125
 41
2457812.429456019
 42
2457812.45025463
  1

 90
        0
  0
XRECORD
  5
5B1
102
{ACAD_REACTORS
330
5B0
102
}
330
5B0
100
AcDbXrecord
280
     1
290
     1
  0
XRECORD
  5
5B3
102
{ACAD_REACTORS
330
5B2
102
}
330
5B2
100
AcDbXrecord
280
     1
290
     1
  0
XRECORD
  5
5B5
102
{ACAD_REACTORS
330
5B4
102
}
330
5B4
100
AcDbXrecord
280
     1
290
     1
  0
XRECORD
  5
5B7
102
{ACAD_REACTORS
330
5B6
102
}
330
5B6
100
AcDbXrecord
280
     1
290
     1
  0
XRECORD
  5
5B9
102
{ACAD_REACTORS
330
5B8
102
}
330
5B8
100
AcDbXrecord
280
     1
290
     1
  0
XRECORD
  5
5BB
102
{ACAD_REACTORS
330
5BA
102
}
330
5BA
100
AcDbXrecord
280
     1
290
     1
  0
ACDBDETAILVIEWSTYLE
  5
590
102
{ACAD_XDICTIONARY
360
602
102
}
102
{ACAD_REACTORS
330
58F
102
}
330
58F
100
AcDbModelDocViewStyle
 70
     0
  3
Imperial24
290
     0
100
AcDbDetailViewStyle
 70
     0
 71
     0
 90
        3
 71
     1
340
57B
 40
0.24
340
0
 40
0.24
300

 40
0.36
280
     3
 71
     2
340
582
 90
       25
 71
     3
340
57B
 40
0.24
 90
        1
 40
0.75
 90
        1
300
%<\AcVar ViewType \f "%tc1">% %<\AcVar ViewDetailId>%\PSCALE %<\AcVar ViewScale \f "%sn">%
 71
     4
340
582
 90
       25
340
582
 90
       25
280
     0
  0
LAYOUT
  5
598
102
{ACAD_XDICTIONARY
360
606
102
}
102
{ACAD_REACTORS
330
587
102
}
330
587
100
AcDbPlotSettings
  1

  2
DocuPrint 3000-2
  4

  6

 40
0.0
 41
0.0
 42
0.0
 43
0.0
 44
0.0
 45
0.0
 46
0.0
 47
0.0
 48
0.0
 49
0.0
140
0.0
141
0.0
142
1.0
143
1.0
 70
  1712
 72
     0
 73
     0
 74
     0
  7

 75
     0
147
1.0
148
0.0
149
0.0
100
AcDbLayout
  1
Model
 70
     1
 71
     0
 10
0.0
 20
0.0
 11
12.0
 21
9.0
 12
0.0
 22
0.0
 32
0.0
 14
0.0
 24
0.0
 34
0.0
 15
0.0
 25
0.0
 35
0.0
146
0.0
 13
0.0
 23
0.0
 33
0.0
 16
1.0
 26
0.0
 36
0.0
 17
0.0
 27
1.0
 37
0.0
 76
     0
330
595
331
59A
  0
LAYOUT
  5
594
102
{ACAD_XDICTIONARY
360
604
102
}
102
{ACAD_REACTORS
330
587
102
}
330
587
100
AcDbPlotSettings
  1

  2
DocuPrint 3000-2
  4

  6

 40
0.0
 41
0.0
 42
0.0
 43
0.0
 44
0.0
 45
0.0
 46
0.0
 47
0.0
 48
0.0
 49
0.0
140
0.0
141
0.0
142
1.0
143
1.0
 70
   688
 72
     0
 73
     0
 74
     5
  7

 75
    16
147
1.0
148
0.0
149
0.0
100
AcDbLayout
  1
レイアウト1
 70
     0
 71
     1
 10
0.0
 20
0.0
 11
12.0
 21
9.0
 12
0.0
 22
0.0
 32
0.0
 14
1.000000000000000E+20
 24
1.000000000000000E+20
 34
1.000000000000000E+20
 15
-1.000000000000000E+20
 25
-1.000000000000000E+20
 35
-1.000000000000000E+20
146
0.0
 13
0.0
 23
0.0
 33
0.0
 16
1.0
 26
0.0
 36
0.0
 17
0.0
 27
1.0
 37
0.0
 76
     0
330
591
  0
MATERIAL
  5
53F
102
{ACAD_XDICTIONARY
360
540
102
}
102
{ACAD_REACTORS
330
536
102
}
330
536
100
AcDbMaterial
  1
ByBlock
 72
     0
 43
0.0208333333333333
 43
0.0
 43
0.0
 43
0.0
 43
0.0
 43
0.0208333333333333
 43
0.0
 43
0.0
 43
0.0
 43
0.0
 43
1.0
 43
0.0
 43
0.0
 43
0.0
 43
0.0
 43
1.0
 77
     0
 47
0.0208333333333333
 47
0.0
 47
0.0
 47
0.0
 47
0.0
 47
0.0208333333333333
 47
0.0
 47
0.0
 47
0.0
 47
0.0
 47
1.0
 47
0.0
 47
0.0
 47
0.0
 47
0.0
 47
1.0
171
     0
 49
0.0208333333333333
 49
0.0
 49
0.0
 49
0.0
 49
0.0
 49
0.0208333333333333
 49
0.0
 49
0.0
 49
0.0
 49
0.0
 49
1.0
 49
0.0
 49
0.0
 49
0.0
 49
0.0
 49
1.0
175
     0
142
0.0208333333333333
142
0.0
142
0.0
142
0.0
142
0.0
142
0.0208333333333333
142
0.0
142
0.0
142
0.0
142
0.0
142
1.0
142
0.0
142
0.0
142
0.0
142
0.0
142
1.0
179
     0
144
0.0208333333333333
144
0.0
144
0.0
144
0.0
144
0.0
144
0.0208333333333333
144
0.0
144
0.0
144
0.0
144
0.0
144
1.0
144
0.0
144
0.0
144
0.0
144
0.0
144
1.0
147
0.0208333333333333
147
0.0
147
0.0
147
0.0
147
0.0
147
0.0208333333333333
147
0.0
147
0.0
147
0.0
147
0.0
147
1.0
147
0.0
147
0.0
147
0.0
147
0.0
147
1.0
  0
MATERIAL
  5
537
102
{ACAD_XDICTIONARY
360
538
102
}
102
{ACAD_REACTORS
330
536
102
}
330
536
100
AcDbMaterial
  1
ByLayer
 72
     0
 43
0.0208333333333333
 43
0.0
 43
0.0
 43
0.0
 43
0.0
 43
0.0208333333333333
 43
0.0
 43
0.0
 43
0.0
 43
0.0
 43
1.0
 43
0.0
 43
0.0
 43
0.0
 43
0.0
 43
1.0
 77
     0
 47
0.0208333333333333
 47
0.0
 47
0.0
 47
0.0
 47
0.0
 47
0.0208333333333333
 47
0.0
 47
0.0
 47
0.0
 47
0.0
 47
1.0
 47
0.0
 47
0.0
 47
0.0
 47
0.0
 47
1.0
171
     0
 49
0.0208333333333333
 49
0.0
 49
0.0
 49
0.0
 49
0.0
 49
0.0208333333333333
 49
0.0
 49
0.0
 49
0.0
 49
0.0
 49
1.0
 49
0.0
 49
0.0
 49
0.0
 49
0.0
 49
1.0
175
     0
142
0.0208333333333333
142
0.0
142
0.0
142
0.0
142
0.0
142
0.0208333333333333
142
0.0
142
0.0
142
0.0
142
0.0
142
1.0
142
0.0
142
0.0
142
0.0
142
0.0
142
1.0
179
     0
144
0.0208333333333333
144
0.0
144
0.0
144
0.0
144
0.0
144
0.0208333333333333
144
0.0
144
0.0
144
0.0
144
0.0
144
1.0
144
0.0
144
0.0
144
0.0
144
0.0
144
1.0
147
0.0208333333333333
147
0.0
147
0.0
147
0.0
147
0.0
147
0.0208333333333333
147
0.0
147
0.0
147
0.0
147
0.0
147
1.0
147
0.0
147
0.0
147
0.0
147
0.0
147
1.0
  0
MATERIAL
  5
547
102
{ACAD_XDICTIONARY
360
548
102
}
102
{ACAD_REACTORS
330
536
102
}
330
536
100
AcDbMaterial
  1
Global
 72
     0
 43
0.0208333333333333
 43
0.0
 43
0.0
 43
0.0
 43
0.0
 43
0.0208333333333333
 43
0.0
 43
0.0
 43
0.0
 43
0.0
 43
1.0
 43
0.0
 43
0.0
 43
0.0
 43
0.0
 43
1.0
 77
     0
 47
0.0208333333333333
 47
0.0
 47
0.0
 47
0.0
 47
0.0
 47
0.0208333333333333
 47
0.0
 47
0.0
 47
0.0
 47
0.0
 47
1.0
 47
0.0
 47
0.0
 47
0.0
 47
0.0
 47
1.0
171
     0
 49
0.0208333333333333
 49
0.0
 49
0.0
 49
0.0
 49
0.0
 49
0.0208333333333333
 49
0.0
 49
0.0
 49
0.0
 49
0.0
 49
1.0
 49
0.0
 49
0.0
 49
0.0
 49
0.0
 49
1.0
175
     0
142
0.0208333333333333
142
0.0
142
0.0
142
0.0
142
0.0
142
0.0208333333333333
142
0.0
142
0.0
142
0.0
142
0.0
142
1.0
142
0.0
142
0.0
142
0.0
142
0.0
142
1.0
179
     0
144
0.0208333333333333
144
0.0
144
0.0
144
0.0
144
0.0
144
0.0208333333333333
144
0.0
144
0.0
144
0.0
144
0.0
144
1.0
144
0.0
144
0.0
144
0.0
144
0.0
144
1.0
147
0.0208333333333333
147
0.0
147
0.0
147
0.0
147
0.0
147
0.0208333333333333
147
0.0
147
0.0
147
0.0
147
0.0
147
1.0
147
0.0
147
0.0
147
0.0
147
0.0
147
1.0
  0
MLEADERSTYLE
  5
58C
102
{ACAD_REACTORS
330
58B
102
}
330
58B
100
AcDbMLeaderStyle
170
     2
171
     1
172
     0
 90
        2
 40
0.0
 41
0.0
173
     1
 91
-1056964608
340
580
 92
       -2
290
     1
 42
0.09
291
     1
 43
0.36
  3
Standard
 44
0.18
300

342
57B
174
     1
178
     6
175
     1
176
     0
 93
-1056964608
 45
0.18
292
     0
297
     0
 46
0.18
 94
-1056964608
 47
1.0
 49
1.0
140
1.0
293
     1
141
0.0
294
     1
177
     0
142
1.0
295
     0
296
     0
143
0.125
1001
ACAD_MLEADERVER
1070
     2
  0
MLINESTYLE
  5
585
102
{ACAD_REACTORS
330
584
102
}
330
584
100
AcDbMlineStyle
  2
STANDARD
 70
     0
  3

 62
   256
 51
90.0
 52
90.0
 71
     2
 49
0.5
 62
   256
  6
BYLAYER
 49
-0.5
 62
   256
  6
BYLAYER
  0
ACDBPLACEHOLDER
  5
535
102
{ACAD_REACTORS
330
534
102
}
330
534
  0
SCALE
  5
569
102
{ACAD_REACTORS
330
568
102
}
330
568
100
AcDbScale
 70
     0
300
1:1
140
1.0
141
1.0
290
     1
  0
SCALE
  5
56A
102
{ACAD_REACTORS
330
568
102
}
330
568
100
AcDbScale
 70
     0
300
1/128" = 1'-0"
140
0.0078125
141
12.0
290
     0
  0
SCALE
  5
56B
102
{ACAD_REACTORS
330
568
102
}
330
568
100
AcDbScale
 70
     0
300
1/64" = 1'-0"
140
0.015625
141
12.0
290
     0
  0
SCALE
  5
56C
102
{ACAD_REACTORS
330
568
102
}
330
568
100
AcDbScale
 70
     0
300
1/32" = 1'-0"
140
0.03125
141
12.0
290
     0
  0
SCALE
  5
56D
102
{ACAD_REACTORS
330
568
102
}
330
568
100
AcDbScale
 70
     0
300
1/16" = 1'-0"
140
0.0625
141
12.0
290
     0
  0
SCALE
  5
56E
102
{ACAD_REACTORS
330
568
102
}
330
568
100
AcDbScale
 70
     0
300
3/32" = 1'-0"
140
0.09375
141
12.0
290
     0
  0
SCALE
  5
56F
102
{ACAD_REACTORS
330
568
102
}
330
568
100
AcDbScale
 70
     0
300
1/8" = 1'-0"
140
0.125
141
12.0
290
     0
  0
SCALE
  5
570
102
{ACAD_REACTORS
330
568
102
}
330
568
100
AcDbScale
 70
     0
300
3/16" = 1'-0"
140
0.1875
141
12.0
290
     0
  0
SCALE
  5
571
102
{ACAD_REACTORS
330
568
102
}
330
568
100
AcDbScale
 70
     0
300
1/4" = 1'-0"
140
0.25
141
12.0
290
     0
  0
SCALE
  5
572
102
{ACAD_REACTORS
330
568
102
}
330
568
100
AcDbScale
 70
     0
300
3/8" = 1'-0"
140
0.375
141
12.0
290
     0
  0
SCALE
  5
573
102
{ACAD_REACTORS
330
568
102
}
330
568
100
AcDbScale
 70
     0
300
1/2" = 1'-0"
140
0.5
141
12.0
290
     0
  0
SCALE
  5
574
102
{ACAD_REACTORS
330
568
102
}
330
568
100
AcDbScale
 70
     0
300
3/4" = 1'-0"
140
0.75
141
12.0
290
     0
  0
SCALE
  5
575
102
{ACAD_REACTORS
330
568
102
}
330
568
100
AcDbScale
 70
     0
300
1" = 1'-0"
140
1.0
141
12.0
290
     0
  0
SCALE
  5
576
102
{ACAD_REACTORS
330
568
102
}
330
568
100
AcDbScale
 70
     0
300
1-1/2" = 1'-0"
140
1.5
141
12.0
290
     0
  0
SCALE
  5
577
102
{ACAD_REACTORS
330
568
102
}
330
568
100
AcDbScale
 70
     0
300
3" = 1'-0"
140
3.0
141
12.0
290
     0
  0
SCALE
  5
578
102
{ACAD_REACTORS
330
568
102
}
330
568
100
AcDbScale
 70
     0
300
6" = 1'-0"
140
6.0
141
12.0
290
     0
  0
SCALE
  5
579
102
{ACAD_REACTORS
330
568
102
}
330
568
100
AcDbScale
 70
     0
300
1'-0" = 1'-0"
140
12.0
141
12.0
290
     0
  0
ACDBSECTIONVIEWSTYLE
  5
58E
102
{ACAD_XDICTIONARY
360
600
102
}
102
{ACAD_REACTORS
330
58D
102
}
330
58D
100
AcDbModelDocViewStyle
 70
     0
  3
Imperial24
290
     0
100
AcDbSectionViewStyle
 70
     0
 71
     0
 90
       78
 71
     1
340
57B
 40
0.24
340
0
340
0
 40
0.24
300
I, O, Q, S, X, Z
 40
0.48
 90
        3
 40
0.18
 90
        1
 71
     2
340
582
 90
       25
340
582
 90
       50
 40
0.24
 40
0.0
 40
0.24
 71
     3
340
57B
 40
0.24
 90
        1
 40
0.75
 90
        1
300
%<\AcVar ViewType \f "%tc1">% %<\AcVar ViewSectionStartId>%-%<\AcVar ViewSectionEndId>%\PSCALE %<\AcVar ViewScale \f "%sn">%
 71
     4
300
ANSI31
 40
1.0
 90
        0
290
     0
290
     0
 90
        6
 40
0.0
 40
1.570796326794896
 40
0.2617993877991494
 40
1.308996938995747
 40
-0.2617993877991494
 40
1.832595714594046
  0
TABLESTYLE
  5
58A
102
{ACAD_XDICTIONARY
360
5C7
102
}
102
{ACAD_REACTORS
330
589
102
}
330
589
100
AcDbTableStyle
  3
Standard
 70
     0
 71
     0
 40
0.06
 41
0.06
280
     0
281
     0
  7
STANDARD
140
0.18
170
     2
 62
     0
 63
     7
283
     0
274
    -2
284
     1
 64
     0
275
    -2
285
     1
 65
     0
276
    -2
286
     1
 66
     0
277
    -2
287
     1
 67
     0
278
    -2
288
     1
 68
     0
279
    -2
289
     1
 69
     0
  7
STANDARD
140
0.25
170
     5
 62
     0
 63
     7
283
     0
274
    -2
284
     1
 64
     0
275
    -2
285
     1
 65
     0
276
    -2
286
     1
 66
     0
277
    -2
287
     1
 67
     0
278
    -2
288
     1
 68
     0
279
    -2
289
     1
 69
     0
  7
STANDARD
140
0.18
170
     5
 62
     0
 63
     7
283
     0
274
    -2
284
     1
 64
     0
275
    -2
285
     1
 65
     0
276
    -2
286
     1
 66
     0
277
    -2
287
     1
 67
     0
278
    -2
288
     1
 68
     0
279
    -2
289
     1
 69
     0
  0
VISUALSTYLE
  5
555
102
{ACAD_XDICTIONARY
360
5D8
102
}
102
{ACAD_REACTORS
330
54F
102
}
330
54F
100
AcDbVisualStyle
  2
2dWireframe
 70
     4
 71
     0
 72
     2
 73
     0
 90
        0
 40
-0.6
 41
-30.0
 62
     5
 63
     7
 74
     1
 91
        4
 64
     7
 65
   257
 75
     1
175
     1
 42
1.0
 92
        0
 66
   257
 43
1.0
 76
     1
 77
     6
 78
     2
 67
     7
 79
     5
170
     0
171
     0
290
     0
174
     0
 93
        1
 44
0.0
173
     0
291
     0
 45
0.0
1001
ACAD
1000
AcDbSavedByObjectVersion
1070
     0
  0
VISUALSTYLE
  5
554
102
{ACAD_XDICTIONARY
360
5D6
102
}
102
{ACAD_REACTORS
330
54F
102
}
330
54F
100
AcDbVisualStyle
  2
Basic
 70
     7
 71
     1
 72
     0
 73
     1
 90
        0
 40
-0.6
 41
-30.0
 62
     5
 63
     7
 74
     0
 91
        4
 64
     7
 65
   257
 75
     1
175
     1
 42
1.0
 92
        8
 66
     7
 43
1.0
 76
     1
 77
     6
 78
     2
 67
     7
 79
     5
170
     0
171
     0
290
     0
174
     0
 93
        1
 44
0.0
173
     0
291
     1
 45
0.0
1001
ACAD
1000
AcDbSavedByObjectVersion
1070
     0
  0
VISUALSTYLE
  5
55B
102
{ACAD_XDICTIONARY
360
5E4
102
}
102
{ACAD_REACTORS
330
54F
102
}
330
54F
100
AcDbVisualStyle
  2
Brighten
 70
    12
 71
     2
 72
     2
 73
     0
 90
        0
 40
-0.6
 41
-30.0
 62
     5
 63
     7
 74
     1
 91
        4
 64
     7
 65
   257
 75
     1
175
     1
 42
1.0
 92
        8
 66
     7
 43
1.0
 76
     1
 77
     6
 78
     2
 67
     7
 79
     5
170
     0
171
     0
290
     0
174
     0
 93
        1
 44
50.0
173
     0
291
     1
 45
0.0
1001
ACAD
1000
AcDbSavedByObjectVersion
1070
     0
  0
VISUALSTYLE
  5
55F
102
{ACAD_XDICTIONARY
360
5EC
102
}
102
{ACAD_REACTORS
330
54F
102
}
330
54F
100
AcDbVisualStyle
  2
ColorChange
 70
    16
 71
     2
 72
     2
 73
     3
 90
        0
 40
-0.6
 41
-30.0
 62
     5
 63
     8
 74
     1
 91
        4
 64
     7
 65
   257
 75
     1
175
     1
 42
1.0
 92
        8
 66
     8
 43
1.0
 76
     1
 77
     6
 78
     2
 67
     7
 79
     5
170
     0
171
     0
290
     0
174
     0
 93
        1
 44
0.0
173
     0
291
     1
 45
0.0
1001
ACAD
1000
AcDbSavedByObjectVersion
1070
     0
  0
VISUALSTYLE
  5
558
102
{ACAD_XDICTIONARY
360
5DE
102
}
102
{ACAD_REACTORS
330
54F
102
}
330
54F
100
AcDbVisualStyle
  2
Conceptual
 70
     9
 71
     3
 72
     2
 73
     0
 90
        0
 40
-0.6
 41
-30.0
 62
     5
 63
     7
 74
     2
 91
        2
 64
     7
 65
   257
 75
     1
175
     1
 42
179.0
 92
        8
 66
     7
 43
1.0
 76
     1
 77
     6
 78
     2
 67
     7
 79
     3
170
     0
171
     0
290
     0
174
     0
 93
        1
 44
0.0
173
     0
291
     0
 45
0.0
1001
ACAD
1000
AcDbSavedByObjectVersion
1070
     0
  0
VISUALSTYLE
  5
55A
102
{ACAD_XDICTIONARY
360
5E2
102
}
102
{ACAD_REACTORS
330
54F
102
}
330
54F
100
AcDbVisualStyle
  2
Dim
 70
    11
 71
     2
 72
     2
 73
     0
 90
        0
 40
-0.6
 41
-30.0
 62
     5
 63
     7
 74
     1
 91
        4
 64
     7
 65
   257
 75
     1
175
     1
 42
1.0
 92
        8
 66
     7
 43
1.0
 76
     1
 77
     6
 78
     2
 67
     7
 79
     5
170
     0
171
     0
290
     0
174
     0
 93
        1
 44
-50.0
173
     0
291
     1
 45
0.0
1001
ACAD
1000
AcDbSavedByObjectVersion
1070
     0
  0
VISUALSTYLE
  5
567
102
{ACAD_XDICTIONARY
360
5FC
102
}
102
{ACAD_REACTORS
330
54F
102
}
330
54F
100
AcDbVisualStyle
  2
EdgeColorOff
 70
    22
 71
     2
 72
     2
 73
     0
 90
        0
 40
-0.6
 41
-30.0
 62
     5
 63
     7
 74
     1
 91
        4
 64
     7
 65
   257
 75
     1
175
     1
 42
1.0
 92
        8
 66
     7
 43
1.0
 76
     1
 77
     6
 78
     2
 67
     7
 79
     5
170
     0
171
     0
290
     0
174
     0
 93
        1
 44
0.0
173
     0
291
     1
 45
0.0
1001
ACAD
1000
AcDbSavedByObjectVersion
1070
     0
  0
VISUALSTYLE
  5
55E
102
{ACAD_XDICTIONARY
360
5EA
102
}
102
{ACAD_REACTORS
330
54F
102
}
330
54F
100
AcDbVisualStyle
  2
Facepattern
 70
    15
 71
     2
 72
     2
 73
     0
 90
        0
 40
-0.6
 41
-30.0
 62
     5
 63
     7
 74
     1
 91
        4
 64
     7
 65
   257
 75
     1
175
     1
 42
1.0
 92
        8
 66
     7
 43
1.0
 76
     1
 77
     6
 78
     2
 67
     7
 79
     5
170
     0
171
     0
290
     0
174
     0
 93
        1
 44
0.0
173
     0
291
     1
 45
0.0
1001
ACAD
1000
AcDbSavedByObjectVersion
1070
     0
  0
VISUALSTYLE
  5
550
102
{ACAD_XDICTIONARY
360
5CE
102
}
102
{ACAD_REACTORS
330
54F
102
}
330
54F
100
AcDbVisualStyle
  2
Flat
 70
     0
 71
     2
 72
     1
 73
     1
 90
        2
 40
-0.6
 41
30.0
 62
     5
 63
     7
 74
     0
 91
        0
 64
     7
 65
   257
 75
     1
175
     1
 42
1.0
 92
        8
 66
     7
 43
1.0
 76
     1
 77
     6
 78
     2
 67
     7
 79
     5
170
     0
171
     0
290
     0
174
     0
 93
       13
 44
0.0
173
     0
291
     1
 45
0.0
1001
ACAD
1000
AcDbSavedByObjectVersion
1070
     0
  0
VISUALSTYLE
  5
551
102
{ACAD_XDICTIONARY
360
5D0
102
}
102
{ACAD_REACTORS
330
54F
102
}
330
54F
100
AcDbVisualStyle
  2
FlatWithEdges
 70
     1
 71
     2
 72
     1
 73
     1
 90
        2
 40
-0.6
 41
30.0
 62
     5
 63
     7
 74
     1
 91
        0
 64
     7
 65
   257
 75
     1
175
     1
 42
1.0
 92
        0
 66
   257
 43
1.0
 76
     1
 77
     6
 78
     2
 67
     7
 79
     5
170
     0
171
     0
290
     0
174
     0
 93
       13
 44
0.0
173
     0
291
     1
 45
0.0
1001
ACAD
1000
AcDbSavedByObjectVersion
1070
     0
  0
VISUALSTYLE
  5
552
102
{ACAD_XDICTIONARY
360
5D2
102
}
102
{ACAD_REACTORS
330
54F
102
}
330
54F
100
AcDbVisualStyle
  2
Gouraud
 70
     2
 71
     2
 72
     2
 73
     1
 90
        2
 40
-0.6
 41
30.0
 62
     5
 63
     7
 74
     0
 91
        0
 64
     7
 65
   257
 75
     1
175
     1
 42
1.0
 92
        0
 66
     7
 43
1.0
 76
     1
 77
     6
 78
     2
 67
     7
 79
     5
170
     0
171
     0
290
     0
174
     0
 93
       13
 44
0.0
173
     0
291
     1
 45
0.0
1001
ACAD
1000
AcDbSavedByObjectVersion
1070
     0
  0
VISUALSTYLE
  5
553
102
{ACAD_XDICTIONARY
360
5D4
102
}
102
{ACAD_REACTORS
330
54F
102
}
330
54F
100
AcDbVisualStyle
  2
GouraudWithEdges
 70
     3
 71
     2
 72
     2
 73
     1
 90
        2
 40
-0.6
 41
30.0
 62
     5
 63
     7
 74
     1
 91
        0
 64
     7
 65
   257
 75
     1
175
     1
 42
1.0
 92
        0
 66
   257
 43
1.0
 76
     1
 77
     6
 78
     2
 67
     7
 79
     5
170
     0
171
     0
290
     0
174
     0
 93
       13
 44
0.0
173
     0
291
     1
 45
0.0
1001
ACAD
1000
AcDbSavedByObjectVersion
1070
     0
  0
VISUALSTYLE
  5
557
102
{ACAD_XDICTIONARY
360
5DC
102
}
102
{ACAD_REACTORS
330
54F
102
}
330
54F
100
AcDbVisualStyle
  2
Hidden
 70
     6
 71
     1
 72
     2
 73
     2
 90
        0
 40
-0.6
 41
-30.0
 62
     5
 63
     7
 74
     2
 91
        2
 64
     7
 65
   257
 75
     2
175
     1
 42
40.0
 92
        0
 66
   257
 43
1.0
 76
     1
 77
     6
 78
     2
 67
     7
 79
     3
170
     0
171
     0
290
     0
174
     0
 93
        1
 44
0.0
173
     0
291
     0
 45
0.0
1001
ACAD
1000
AcDbSavedByObjectVersion
1070
     0
  0
VISUALSTYLE
  5
565
102
{ACAD_XDICTIONARY
360
5F8
102
}
102
{ACAD_REACTORS
330
54F
102
}
330
54F
100
AcDbVisualStyle
  2
JitterOff
 70
    20
 71
     2
 72
     2
 73
     0
 90
        0
 40
-0.6
 41
-30.0
 62
     5
 63
     7
 74
     1
 91
        4
 64
     7
 65
   257
 75
     1
175
     1
 42
1.0
 92
       10
 66
     7
 43
1.0
 76
     1
 77
     6
 78
     2
 67
     7
 79
     5
170
     0
171
     0
290
     0
174
     0
 93
        1
 44
0.0
173
     0
291
     1
 45
0.0
1001
ACAD
1000
AcDbSavedByObjectVersion
1070
     0
  0
VISUALSTYLE
  5
55D
102
{ACAD_XDICTIONARY
360
5E8
102
}
102
{ACAD_REACTORS
330
54F
102
}
330
54F
100
AcDbVisualStyle
  2
Linepattern
 70
    14
 71
     2
 72
     2
 73
     0
 90
        0
 40
-0.6
 41
-30.0
 62
     5
 63
     7
 74
     1
 91
        4
 64
     7
 65
   257
 75
     7
175
     7
 42
1.0
 92
        8
 66
     7
 43
1.0
 76
     1
 77
     6
 78
     2
 67
     7
 79
     5
170
     0
171
     0
290
     0
174
     0
 93
        1
 44
0.0
173
     0
291
     1
 45
0.0
1001
ACAD
1000
AcDbSavedByObjectVersion
1070
     0
  0
VISUALSTYLE
  5
566
102
{ACAD_XDICTIONARY
360
5FA
102
}
102
{ACAD_REACTORS
330
54F
102
}
330
54F
100
AcDbVisualStyle
  2
OverhangOff
 70
    21
 71
     2
 72
     2
 73
     0
 90
        0
 40
-0.6
 41
-30.0
 62
     5
 63
     7
 74
     1
 91
        4
 64
     7
 65
   257
 75
     1
175
     1
 42
1.0
 92
        9
 66
     7
 43
1.0
 76
     1
 77
     6
 78
     2
 67
     7
 79
     5
170
     0
171
     0
290
     0
174
     0
 93
        1
 44
0.0
173
     0
291
     1
 45
0.0
1001
ACAD
1000
AcDbSavedByObjectVersion
1070
     0
  0
VISUALSTYLE
  5
559
102
{ACAD_XDICTIONARY
360
5E0
102
}
102
{ACAD_REACTORS
330
54F
102
}
330
54F
100
AcDbVisualStyle
  2
Realistic
 70
     8
 71
     2
 72
     3
 73
     0
 90
        2
 40
-0.6
 41
30.0
 62
     5
 63
     7
 74
     0
 91
        0
 64
     7
 65
   257
 75
     1
175
     1
 42
1.0
 92
        8
 66
   257
 43
1.0
 76
     1
 77
     6
 78
     2
 67
     7
 79
     3
170
     0
171
     0
290
     0
174
     0
 93
       13
 44
0.0
173
     0
291
     0
 45
0.0
1001
ACAD
1000
AcDbSavedByObjectVersion
1070
     0
  0
VISUALSTYLE
  5
564
102
{ACAD_XDICTIONARY
360
5F6
102
}
102
{ACAD_REACTORS
330
54F
102
}
330
54F
100
AcDbVisualStyle
  2
Shaded
 70
    27
 71
     2
 72
     2
 73
     1
 90
        2
 40
-0.6
 41
30.0
 62
     5
 63
     7
 74
     0
 91
        4
 64
     7
 65
   257
 75
     1
175
     1
 42
1.0
 92
        8
 66
   257
 43
1.0
 76
     1
 77
     6
 78
     2
 67
     8
 79
     3
170
     0
171
     0
290
     0
174
     0
 93
        5
 44
0.0
173
     0
291
     0
 45
0.0
1001
ACAD
1000
AcDbSavedByObjectVersion
1070
     0
  0
VISUALSTYLE
  5
563
102
{ACAD_XDICTIONARY
360
5F4
102
}
102
{ACAD_REACTORS
330
54F
102
}
330
54F
100
AcDbVisualStyle
  2
Shaded with edges
 70
    26
 71
     2
 72
     2
 73
     1
 90
        2
 40
-0.6
 41
30.0
 62
     5
 63
     7
 74
     1
 91
        2
 64
     7
 65
   257
 75
     2
175
     1
 42
1.0
 92
        8
 66
   257
 43
1.0
 76
     1
 77
     6
 78
     2
 67
     7
 79
     3
170
     0
171
     0
290
     0
174
     0
 93
        5
 44
0.0
173
     0
291
     0
 45
0.0
1001
ACAD
1000
AcDbSavedByObjectVersion
1070
     0
  0
VISUALSTYLE
  5
560
102
{ACAD_XDICTIONARY
360
5EE
102
}
102
{ACAD_REACTORS
330
54F
102
}
330
54F
100
AcDbVisualStyle
  2
Shades of Gray
 70
    23
 71
     2
 72
     2
 73
     3
 90
        0
 40
-0.6
 41
-30.0
 62
     5
 63
     7
 74
     2
 91
        2
 64
     7
 65
     7
 75
     1
175
     1
 42
40.0
 92
        8
 66
     7
 43
1.0
 76
     1
 77
     6
 78
     2
 67
     7
 79
     3
170
     0
171
     0
290
     0
174
     0
 93
        1
 44
0.0
173
     0
291
     0
 45
0.0
1001
ACAD
1000
AcDbSavedByObjectVersion
1070
     0
  0
VISUALSTYLE
  5
561
102
{ACAD_XDICTIONARY
360
5F0
102
}
102
{ACAD_REACTORS
330
54F
102
}
330
54F
100
AcDbVisualStyle
  2
Sketchy
 70
    24
 71
     1
 72
     2
 73
     2
 90
        0
 40
-0.6
 41
-30.0
 62
     5
 63
     7
 74
     2
 91
        2
 64
     7
 65
     7
 75
     1
175
     1
 42
40.0
 92
       11
 66
     7
 43
1.0
 76
     1
 77
     6
 78
     2
 67
     7
 79
     6
170
     0
171
     0
290
     0
174
     0
 93
        1
 44
0.0
173
     0
291
     0
 45
0.0
1001
ACAD
1000
AcDbSavedByObjectVersion
1070
     0
  0
VISUALSTYLE
  5
55C
102
{ACAD_XDICTIONARY
360
5E6
102
}
102
{ACAD_REACTORS
330
54F
102
}
330
54F
100
AcDbVisualStyle
  2
Thicken
 70
    13
 71
     2
 72
     2
 73
     0
 90
        0
 40
-0.6
 41
-30.0
 62
     5
 63
     7
 74
     1
 91
        4
 64
     7
 65
   257
 75
     1
175
     1
 42
1.0
 92
       12
 66
     7
 43
1.0
 76
     1
 77
     6
 78
     2
 67
     7
 79
     5
170
     0
171
     0
290
     0
174
     0
 93
        1
 44
0.0
173
     0
291
     1
 45
0.0
1001
ACAD
1000
AcDbSavedByObjectVersion
1070
     0
  0
VISUALSTYLE
  5
556
102
{ACAD_XDICTIONARY
360
5DA
102
}
102
{ACAD_REACTORS
330
54F
102
}
330
54F
100
AcDbVisualStyle
  2
Wireframe
 70
     5
 71
     0
 72
     2
 73
     0
 90
        0
 40
-0.6
 41
-30.0
 62
     5
 63
     7
 74
     1
 91
        4
 64
     7
 65
   257
 75
     1
175
     1
 42
1.0
 92
        0
 66
   257
 43
1.0
 76
     1
 77
     6
 78
     2
 67
     7
 79
     3
170
     0
171
     0
290
     0
174
     0
 93
        1
 44
0.0
173
     0
291
     0
 45
0.0
1001
ACAD
1000
AcDbSavedByObjectVersion
1070
     0
  0
VISUALSTYLE
  5
562
102
{ACAD_XDICTIONARY
360
5F2
102
}
102
{ACAD_REACTORS
330
54F
102
}
330
54F
100
AcDbVisualStyle
  2
X-Ray
 70
    25
 71
     2
 72
     2
 73
     1
 90
        1
 40
0.5
 41
-30.0
 62
     5
 63
     7
 74
     1
 91
        0
 64
     7
 65
   257
 75
     1
175
     1
 42
1.0
 92
        8
 66
     7
 43
1.0
 76
     1
 77
     6
 78
     2
 67
     7
 79
     3
170
     0
171
     0
290
     0
174
     0
 93
       13
 44
0.0
173
     0
291
     0
 45
0.0
1001
ACAD
1000
AcDbSavedByObjectVersion
1070
     0
  0
DICTIONARYVAR
  5
5C1
102
{ACAD_REACTORS
330
5BC
102
}
330
5BC
100
DictionaryVariables
280
     0
  1
1:1
  0
DICTIONARYVAR
  5
5BE
102
{ACAD_REACTORS
330
5BC
102
}
330
5BC
100
DictionaryVariables
280
     0
  1
STANDARD
  0
DICTIONARYVAR
  5
5BD
102
{ACAD_REACTORS
330
5BC
102
}
330
5BC
100
DictionaryVariables
280
     0
  1
STANDARD
  0
DICTIONARYVAR
  5
5BF
102
{ACAD_REACTORS
330
5BC
102
}
330
5BC
100
DictionaryVariables
280
     0
  1
Imperial24
  0
DICTIONARYVAR
  5
5C0
102
{ACAD_REACTORS
330
5BC
102
}
330
5BC
100
DictionaryVariables
280
     0
  1
Imperial24
  0
DICTIONARYVAR
  5
5C4
102
{ACAD_REACTORS
330
5BC
102
}
330
5BC
100
DictionaryVariables
280
     0
  1
1
  0
DICTIONARYVAR
  5
5C3
102
{ACAD_REACTORS
330
5BC
102
}
330
5BC
100
DictionaryVariables
280
     0
  1
0
  0
DICTIONARYVAR
  5
5C2
102
{ACAD_REACTORS
330
5BC
102
}
330
5BC
100
DictionaryVariables
280
     0
  1
127
  0
DICTIONARYVAR
  5
5C5
102
{ACAD_REACTORS
330
5BC
102
}
330
5BC
100
DictionaryVariables
280
     0
  1
2
  0
DICTIONARY
  5
602
330
590
100
AcDbDictionary
280
     1
281
     1
  3
ACAD_XREC_ROUNDTRIP
360
603
  0
DICTIONARY
  5
606
330
598
100
AcDbDictionary
280
     1
281
     1
  3
ACAD_XREC_ROUNDTRIP
360
607
  0
DICTIONARY
  5
604
330
594
100
AcDbDictionary
280
     1
281
     1
  3
ACAD_XREC_ROUNDTRIP
360
605
  0
DICTIONARY
  5
540
330
53F
100
AcDbDictionary
280
     1
281
     1
  3
ACAD_XREC_ROUNDTRIP
360
5CC
  3
BUMPTILE
360
542
  3
DIFFUSETILE
360
541
  3
OPACITYTILE
360
545
  3
REFLECTIONTILE
360
544
  3
REFRACTIONTILE
360
546
  3
SPECULARTILE
360
543
  0
DICTIONARY
  5
538
330
537
100
AcDbDictionary
280
     1
281
     1
  3
ACAD_XREC_ROUNDTRIP
360
5CB
  3
BUMPTILE
360
53A
  3
DIFFUSETILE
360
539
  3
OPACITYTILE
360
53D
  3
REFLECTIONTILE
360
53C
  3
REFRACTIONTILE
360
53E
  3
SPECULARTILE
360
53B
  0
DICTIONARY
  5
548
330
547
100
AcDbDictionary
280
     1
281
     1
  3
ACAD_XREC_ROUNDTRIP
360
5CD
  3
BUMPTILE
360
54A
  3
DIFFUSETILE
360
549
  3
OPACITYTILE
360
54D
  3
REFLECTIONTILE
360
54C
  3
REFRACTIONTILE
360
54E
  3
SPECULARTILE
360
54B
  0
DICTIONARY
  5
600
330
58E
100
AcDbDictionary
280
     1
281
     1
  3
ACAD_XREC_ROUNDTRIP
360
601
  0
DICTIONARY
  5
5C7
330
58A
100
AcDbDictionary
280
     1
281
     1
  3
ACAD_ROUNDTRIP_2008_TABLESTYLE_CELLSTYLEMAP
360
5C8
  3
ACAD_XREC_ROUNDTRIP
360
5FE
  0
DICTIONARY
  5
5D8
330
555
100
AcDbDictionary
280
     1
281
     1
  3
ACAD_XREC_ROUNDTRIP
360
5D9
  0
DICTIONARY
  5
5D6
330
554
100
AcDbDictionary
280
     1
281
     1
  3
ACAD_XREC_ROUNDTRIP
360
5D7
  0
DICTIONARY
  5
5E4
330
55B
100
AcDbDictionary
280
     1
281
     1
  3
ACAD_XREC_ROUNDTRIP
360
5E5
  0
DICTIONARY
  5
5EC
330
55F
100
AcDbDictionary
280
     1
281
     1
  3
ACAD_XREC_ROUNDTRIP
360
5ED
  0
DICTIONARY
  5
5DE
330
558
100
AcDbDictionary
280
     1
281
     1
  3
ACAD_XREC_ROUNDTRIP
360
5DF
  0
DICTIONARY
  5
5E2
330
55A
100
AcDbDictionary
280
     1
281
     1
  3
ACAD_XREC_ROUNDTRIP
360
5E3
  0
DICTIONARY
  5
5FC
330
567
100
AcDbDictionary
280
     1
281
     1
  3
ACAD_XREC_ROUNDTRIP
360
5FD
  0
DICTIONARY
  5
5EA
330
55E
100
AcDbDictionary
280
     1
281
     1
  3
ACAD_XREC_ROUNDTRIP
360
5EB
  0
DICTIONARY
  5
5CE
330
550
100
AcDbDictionary
280
     1
281
     1
  3
ACAD_XREC_ROUNDTRIP
360
5CF
  0
DICTIONARY
  5
5D0
330
551
100
AcDbDictionary
280
     1
281
     1
  3
ACAD_XREC_ROUNDTRIP
360
5D1
  0
DICTIONARY
  5
5D2
330
552
100
AcDbDictionary
280
     1
281
     1
  3
ACAD_XREC_ROUNDTRIP
360
5D3
  0
DICTIONARY
  5
5D4
330
553
100
AcDbDictionary
280
     1
281
     1
  3
ACAD_XREC_ROUNDTRIP
360
5D5
  0
DICTIONARY
  5
5DC
330
557
100
AcDbDictionary
280
     1
281
     1
  3
ACAD_XREC_ROUNDTRIP
360
5DD
  0
DICTIONARY
  5
5F8
330
565
100
AcDbDictionary
280
     1
281
     1
  3
ACAD_XREC_ROUNDTRIP
360
5F9
  0
DICTIONARY
  5
5E8
330
55D
100
AcDbDictionary
280
     1
281
     1
  3
ACAD_XREC_ROUNDTRIP
360
5E9
  0
DICTIONARY
  5
5FA
330
566
100
AcDbDictionary
280
     1
281
     1
  3
ACAD_XREC_ROUNDTRIP
360
5FB
  0
DICTIONARY
  5
5E0
330
559
100
AcDbDictionary
280
     1
281
     1
  3
ACAD_XREC_ROUNDTRIP
360
5E1
  0
DICTIONARY
  5
5F6
330
564
100
AcDbDictionary
280
     1
281
     1
  3
ACAD_XREC_ROUNDTRIP
360
5F7
  0
DICTIONARY
  5
5F4
330
563
100
AcDbDictionary
280
     1
281
     1
  3
ACAD_XREC_ROUNDTRIP
360
5F5
  0
DICTIONARY
  5
5EE
330
560
100
AcDbDictionary
280
     1
281
     1
  3
ACAD_XREC_ROUNDTRIP
360
5EF
  0
DICTIONARY
  5
5F0
330
561
100
AcDbDictionary
280
     1
281
     1
  3
ACAD_XREC_ROUNDTRIP
360
5F1
  0
DICTIONARY
  5
5E6
330
55C
100
AcDbDictionary
280
     1
281
     1
  3
ACAD_XREC_ROUNDTRIP
360
5E7
  0
DICTIONARY
  5
5DA
330
556
100
AcDbDictionary
280
     1
281
     1
  3
ACAD_XREC_ROUNDTRIP
360
5DB
  0
DICTIONARY
  5
5F2
330
562
100
AcDbDictionary
280
     1
281
     1
  3
ACAD_XREC_ROUNDTRIP
360
5F3
  0
XRECORD
  5
603
102
{ACAD_REACTORS
330
602
102
}
330
602
100
AcDbXrecord
280
     1
102
DISPLAYNAME
  1
Imperial24
102
FLAGS
 90
        0
  0
XRECORD
  5
607
102
{ACAD_REACTORS
330
606
102
}
330
606
100
AcDbXrecord
280
     1
102
SHADEPLOT
 70
     0
102
SHADEPLOTRESLEVEL
 70
     2
102
SHADEPLOTCUSTOMDPI
 70
   300
  0
XRECORD
  5
605
102
{ACAD_REACTORS
330
604
102
}
330
604
100
AcDbXrecord
280
     1
102
SHADEPLOT
 70
     0
102
SHADEPLOTRESLEVEL
 70
     2
102
SHADEPLOTCUSTOMDPI
 70
   300
  0
XRECORD
  5
5CC
102
{ACAD_REACTORS
330
540
102
}
330
540
100
AcDbXrecord
280
     1
102
MATERIAL
148
0.0
149
0.0
149
0.0
 93
        0
 94
      127
282
     0
 72
     0
 77
     0
171
     0
175
     0
179
     0
273
     0
  0
XRECORD
  5
542
102
{ACAD_REACTORS
330
540
102
}
330
540
100
AcDbXrecord
280
     1
270
     1
271
     1
  0
XRECORD
  5
541
102
{ACAD_REACTORS
330
540
102
}
330
540
100
AcDbXrecord
280
     1
270
     1
271
     1
  0
XRECORD
  5
545
102
{ACAD_REACTORS
330
540
102
}
330
540
100
AcDbXrecord
280
     1
270
     1
271
     1
  0
XRECORD
  5
544
102
{ACAD_REACTORS
330
540
102
}
330
540
100
AcDbXrecord
280
     1
270
     1
271
     1
  0
XRECORD
  5
546
102
{ACAD_REACTORS
330
540
102
}
330
540
100
AcDbXrecord
280
     1
270
     1
271
     1
  0
XRECORD
  5
543
102
{ACAD_REACTORS
330
540
102
}
330
540
100
AcDbXrecord
280
     1
270
     1
271
     1
  0
XRECORD
  5
5CB
102
{ACAD_REACTORS
330
538
102
}
330
538
100
AcDbXrecord
280
     1
102
MATERIAL
148
0.0
149
0.0
149
0.0
 93
        0
 94
      127
282
     0
 72
     0
 77
     0
171
     0
175
     0
179
     0
273
     0
  0
XRECORD
  5
53A
102
{ACAD_REACTORS
330
538
102
}
330
538
100
AcDbXrecord
280
     1
270
     1
271
     1
  0
XRECORD
  5
539
102
{ACAD_REACTORS
330
538
102
}
330
538
100
AcDbXrecord
280
     1
270
     1
271
     1
  0
XRECORD
  5
53D
102
{ACAD_REACTORS
330
538
102
}
330
538
100
AcDbXrecord
280
     1
270
     1
271
     1
  0
XRECORD
  5
53C
102
{ACAD_REACTORS
330
538
102
}
330
538
100
AcDbXrecord
280
     1
270
     1
271
     1
  0
XRECORD
  5
53E
102
{ACAD_REACTORS
330
538
102
}
330
538
100
AcDbXrecord
280
     1
270
     1
271
     1
  0
XRECORD
  5
53B
102
{ACAD_REACTORS
330
538
102
}
330
538
100
AcDbXrecord
280
     1
270
     1
271
     1
  0
XRECORD
  5
5CD
102
{ACAD_REACTORS
330
548
102
}
330
548
100
AcDbXrecord
280
     1
102
MATERIAL
148
0.0
149
0.0
149
0.0
 93
        0
 94
      127
282
     0
 72
     0
 77
     0
171
     0
175
     0
179
     0
273
     0
  0
XRECORD
  5
54A
102
{ACAD_REACTORS
330
548
102
}
330
548
100
AcDbXrecord
280
     1
270
     1
271
     1
  0
XRECORD
  5
549
102
{ACAD_REACTORS
330
548
102
}
330
548
100
AcDbXrecord
280
     1
270
     1
271
     1
  0
XRECORD
  5
54D
102
{ACAD_REACTORS
330
548
102
}
330
548
100
AcDbXrecord
280
     1
270
     1
271
     1
  0
XRECORD
  5
54C
102
{ACAD_REACTORS
330
548
102
}
330
548
100
AcDbXrecord
280
     1
270
     1
271
     1
  0
XRECORD
  5
54E
102
{ACAD_REACTORS
330
548
102
}
330
548
100
AcDbXrecord
280
     1
270
     1
271
     1
  0
XRECORD
  5
54B
102
{ACAD_REACTORS
330
548
102
}
330
548
100
AcDbXrecord
280
     1
270
     1
271
     1
  0
XRECORD
  5
601
102
{ACAD_REACTORS
330
600
102
}
330
600
100
AcDbXrecord
280
     1
102
DISPLAYNAME
  1
Imperial24
102
FLAGS
 90
        0
  0
CELLSTYLEMAP
  5
5C8
102
{ACAD_REACTORS
330
5C7
102
}
330
5C7
100
AcDbCellStyleMap
 90
        3
300
CELLSTYLE
  1
TABLEFORMAT_BEGIN
 90
        5
170
     1
 91
        0
 92
    32768
 62
   257
 93
        1
300
CONTENTFORMAT
  1
CONTENTFORMAT_BEGIN
 90
        0
 91
        0
 92
      512
 93
        0
300

 40
0.0
140
1.0
 94
        5
 62
     0
340
57B
144
0.25
309
CONTENTFORMAT_END
171
     0
 94
        0
309
TABLEFORMAT_END
  1
CELLSTYLE_BEGIN
 90
        1
 91
        1
300
_TITLE
309
CELLSTYLE_END
300
CELLSTYLE
  1
TABLEFORMAT_BEGIN
 90
        5
170
     1
 91
        0
 92
        0
 62
   257
 93
        1
300
CONTENTFORMAT
  1
CONTENTFORMAT_BEGIN
 90
        0
 91
        0
 92
      512
 93
        0
300

 40
0.0
140
1.0
 94
        5
 62
     0
340
57B
144
0.18
309
CONTENTFORMAT_END
171
     0
 94
        0
309
TABLEFORMAT_END
  1
CELLSTYLE_BEGIN
 90
        2
 91
        1
300
_HEADER
309
CELLSTYLE_END
300
CELLSTYLE
  1
TABLEFORMAT_BEGIN
 90
        5
170
     1
 91
        0
 92
        0
 62
   257
 93
        1
300
CONTENTFORMAT
  1
CONTENTFORMAT_BEGIN
 90
        0
 91
        0
 92
      512
 93
        0
300

 40
0.0
140
1.0
 94
        2
 62
     0
340
57B
144
0.18
309
CONTENTFORMAT_END
171
     0
 94
        0
309
TABLEFORMAT_END
  1
CELLSTYLE_BEGIN
 90
        3
 91
        2
300
_DATA
309
CELLSTYLE_END
  0
XRECORD
  5
5FE
102
{ACAD_REACTORS
330
5C7
102
}
330
5C7
100
AcDbXrecord
280
     1
102
ACAD_ROUNDTRIP_PRE2007_TABLESTYLE
 90
      512
 91
        0
  1

 92
      512
 93
        0
  2

 94
      512
 95
        0
  3

  0
XRECORD
  5
5D9
102
{ACAD_REACTORS
330
5D8
102
}
330
5D8
100
AcDbXrecord
280
     1
102
RTVSPost2010Prop28
280
     1
102
RTVSPost2010PropOp28
 70
     1
102
RTVSPost2010Prop29
280
     1
102
RTVSPost2010PropOp29
 70
     1
102
RTVSPost2010Prop30
280
     0
102
RTVSPost2010PropOp30
 70
     1
102
RTVSPost2010Prop31
280
     0
102
RTVSPost2010PropOp31
 70
     1
102
RTVSPost2010Prop32
280
     0
102
RTVSPost2010PropOp32
 70
     1
102
RTVSPost2010Prop33
280
     0
102
RTVSPost2010PropOp33
 70
     1
102
RTVSPost2010Prop34
280
     0
102
RTVSPost2010PropOp34
 70
     1
102
RTVSPost2010Prop35
280
     0
102
RTVSPost2010PropOp35
 70
     1
102
RTVSPost2010Prop36
280
     0
102
RTVSPost2010PropOp36
 70
     1
102
RTVSPost2010Prop37
 90
       50
102
RTVSPost2010PropOp37
 70
     1
102
RTVSPost2010Prop38
140
0.0
102
RTVSPost2010PropOp38
 70
     1
102
RTVSPost2010Prop39
140
1.0
102
RTVSPost2010PropOp39
 70
     1
102
RTVSPost2010Prop40
 90
        0
102
RTVSPost2010PropOp40
 70
     1
102
RTVSPost2010Prop41ColorIndex
 90
       18
102
RTVSPost2010Prop41ColorRGB
 90
        0
102
RTVSPost2010PropOp41
 70
     1
102
RTVSPost2010Prop42
 90
       50
102
RTVSPost2010PropOp42
 70
     1
102
RTVSPost2010Prop43
 90
        3
102
RTVSPost2010PropOp43
 70
     1
102
RTVSPost2010Prop44ColorIndex
 90
        5
102
RTVSPost2010Prop44ColorRGB
 90
      255
102
RTVSPost2010PropOp44
 70
     1
102
RTVSPost2010Prop45
280
     0
102
RTVSPost2010PropOp45
 70
     1
102
RTVSPost2010Prop46
 90
       50
102
RTVSPost2010PropOp46
 70
     1
102
RTVSPost2010Prop47
 90
       50
102
RTVSPost2010PropOp47
 70
     1
102
RTVSPost2010Prop48
 90
       50
102
RTVSPost2010PropOp48
 70
     1
102
RTVSPost2010Prop49
280
     0
102
RTVSPost2010PropOp49
 70
     1
102
RTVSPost2010Prop50
 90
       50
102
RTVSPost2010PropOp50
 70
     1
102
RTVSPost2010Prop51ColorIndex
 90
      256
102
RTVSPost2010Prop51ColorRGB
 90
-16777216
102
RTVSPost2010PropOp51
 70
     0
102
RTVSPost2010Prop52
140
1.0
102
RTVSPost2010PropOp52
 70
     0
102
RTVSPost2010Prop53
 90
        2
102
RTVSPost2010PropOp53
 70
     1
102
RTVSPost2010Prop54
  1
strokes_ogs.tif
102
RTVSPost2010PropOp54
 70
     1
102
RTVSPost2010Prop55
280
     0
102
RTVSPost2010PropOp55
 70
     1
102
RTVSPost2010Prop56
140
1.0
102
RTVSPost2010PropOp56
 70
     1
102
RTVSPost2010Prop57
140
1.0
102
RTVSPost2010PropOp57
 70
     1
102
RTVSPropertyOp0
 70
     1
102
RTVSPropertyOp1
 70
     1
102
RTVSPropertyOp2
 70
     1
102
RTVSPropertyOp3
 70
     1
102
RTVSPropertyOp4
 70
     1
102
RTVSPropertyOp5
 70
     1
102
RTVSPropertyOp6
 70
     1
102
RTVSPropertyOp7
 70
     1
102
RTVSPropertyOp8
 70
     1
102
RTVSPropertyOp9
 70
     1
102
RTVSPropertyOp10
 70
     1
102
RTVSPropertyOp11
 70
     1
102
RTVSPropertyOp12
 70
     1
102
RTVSPropertyOp13
 70
     1
102
RTVSPropertyOp14
 70
     1
102
RTVSPropertyOp15
 70
     1
102
RTVSPropertyOp16
 70
     1
102
RTVSPropertyOp17
 70
     1
102
RTVSPropertyOp18
 70
     1
102
RTVSPropertyOp19
 70
     1
102
RTVSPropertyOp20
 70
     1
102
RTVSPropertyOp21
 70
     1
102
RTVSPropertyOp22
 70
     1
102
RTVSPropertyOp23
 70
     1
102
RTVSPropertyOp24
 70
     1
102
RTVSPropertyOp25
 70
     1
102
RTVSPropertyOp26
 70
     1
102
RTVSPropertyOp27
 70
     1
102
RTVSPropertyOp28
 70
     1
102
RTVSPropertyOp29
 70
     1
102
RTVSPropertyOp30
 70
     1
102
RTVSPropertyOp31
 70
     1
102
RTVSPropertyOp32
 70
     1
102
RTVSPropertyOp33
 70
     1
102
RTVSPropertyOp34
 70
     1
102
RTVSPropertyOp35
 70
     1
102
RTVSPropertyOp36
 70
     1
102
RTVSPropertyOp37
 70
     1
102
RTVSPropertyOp38
 70
     1
102
RTVSPropertyOp39
 70
     1
102
RTVSPropertyOp40
 70
     1
102
RTVSPropertyOp41
 70
     1
102
RTVSPropertyOp42
 70
     1
102
RTVSPropertyOp43
 70
     1
102
RTVSPropertyOp44
 70
     1
102
RTVSPropertyOp45
 70
     1
102
RTVSPropertyOp46
 70
     1
102
RTVSPropertyOp47
 70
     1
102
RTVSPropertyOp48
 70
     1
102
RTVSPropertyOp49
 70
     1
102
RTVSPropertyOp50
 70
     1
102
RTVSPropertyOp51
 70
     0
102
RTVSPropertyOp52
 70
     0
102
RTVSPropertyOp53
 70
     1
102
RTVSPropertyOp54
 70
     1
102
RTVSPropertyOp55
 70
     1
102
RTVSPropertyOp56
 70
     1
102
RTVSPropertyOp57
 70
     1
102
RTVSPropertyOp58
 70
     1
102
RTVSPropertyOp59
 70
     1
102
RTVSPropertyOp60
 70
     1
102
RTVSPropertyOp61
 70
     1
102
RTVSPropertyOp62
 70
     1
  0
XRECORD
  5
5D7
102
{ACAD_REACTORS
330
5D6
102
}
330
5D6
100
AcDbXrecord
280
     1
102
RTVSPost2010Prop28
280
     0
102
RTVSPost2010PropOp28
 70
     1
102
RTVSPost2010Prop29
280
     1
102
RTVSPost2010PropOp29
 70
     1
102
RTVSPost2010Prop30
280
     1
102
RTVSPost2010PropOp30
 70
     1
102
RTVSPost2010Prop31
280
     0
102
RTVSPost2010PropOp31
 70
     1
102
RTVSPost2010Prop32
280
     0
102
RTVSPost2010PropOp32
 70
     1
102
RTVSPost2010Prop33
280
     0
102
RTVSPost2010PropOp33
 70
     1
102
RTVSPost2010Prop34
280
     0
102
RTVSPost2010PropOp34
 70
     1
102
RTVSPost2010Prop35
280
     0
102
RTVSPost2010PropOp35
 70
     1
102
RTVSPost2010Prop36
280
     0
102
RTVSPost2010PropOp36
 70
     1
102
RTVSPost2010Prop37
 90
       50
102
RTVSPost2010PropOp37
 70
     1
102
RTVSPost2010Prop38
140
0.0
102
RTVSPost2010PropOp38
 70
     1
102
RTVSPost2010Prop39
140
1.0
102
RTVSPost2010PropOp39
 70
     1
102
RTVSPost2010Prop40
 90
        0
102
RTVSPost2010PropOp40
 70
     1
102
RTVSPost2010Prop41ColorIndex
 90
       18
102
RTVSPost2010Prop41ColorRGB
 90
        0
102
RTVSPost2010PropOp41
 70
     1
102
RTVSPost2010Prop42
 90
       50
102
RTVSPost2010PropOp42
 70
     1
102
RTVSPost2010Prop43
 90
        3
102
RTVSPost2010PropOp43
 70
     1
102
RTVSPost2010Prop44ColorIndex
 90
        5
102
RTVSPost2010Prop44ColorRGB
 90
      255
102
RTVSPost2010PropOp44
 70
     1
102
RTVSPost2010Prop45
280
     0
102
RTVSPost2010PropOp45
 70
     1
102
RTVSPost2010Prop46
 90
       50
102
RTVSPost2010PropOp46
 70
     1
102
RTVSPost2010Prop47
 90
       50
102
RTVSPost2010PropOp47
 70
     1
102
RTVSPost2010Prop48
 90
       50
102
RTVSPost2010PropOp48
 70
     1
102
RTVSPost2010Prop49
280
     0
102
RTVSPost2010PropOp49
 70
     1
102
RTVSPost2010Prop50
 90
       50
102
RTVSPost2010PropOp50
 70
     1
102
RTVSPost2010Prop51ColorIndex
 90
      256
102
RTVSPost2010Prop51ColorRGB
 90
-16777216
102
RTVSPost2010PropOp51
 70
     0
102
RTVSPost2010Prop52
140
1.0
102
RTVSPost2010PropOp52
 70
     0
102
RTVSPost2010Prop53
 90
        2
102
RTVSPost2010PropOp53
 70
     1
102
RTVSPost2010Prop54
  1
strokes_ogs.tif
102
RTVSPost2010PropOp54
 70
     1
102
RTVSPost2010Prop55
280
     0
102
RTVSPost2010PropOp55
 70
     1
102
RTVSPost2010Prop56
140
1.0
102
RTVSPost2010PropOp56
 70
     1
102
RTVSPost2010Prop57
140
1.0
102
RTVSPost2010PropOp57
 70
     1
102
RTVSPropertyOp0
 70
     1
102
RTVSPropertyOp1
 70
     1
102
RTVSPropertyOp2
 70
     1
102
RTVSPropertyOp3
 70
     1
102
RTVSPropertyOp4
 70
     1
102
RTVSPropertyOp5
 70
     1
102
RTVSPropertyOp6
 70
     1
102
RTVSPropertyOp7
 70
     1
102
RTVSPropertyOp8
 70
     1
102
RTVSPropertyOp9
 70
     1
102
RTVSPropertyOp10
 70
     1
102
RTVSPropertyOp11
 70
     1
102
RTVSPropertyOp12
 70
     1
102
RTVSPropertyOp13
 70
     1
102
RTVSPropertyOp14
 70
     1
102
RTVSPropertyOp15
 70
     1
102
RTVSPropertyOp16
 70
     1
102
RTVSPropertyOp17
 70
     1
102
RTVSPropertyOp18
 70
     1
102
RTVSPropertyOp19
 70
     1
102
RTVSPropertyOp20
 70
     1
102
RTVSPropertyOp21
 70
     1
102
RTVSPropertyOp22
 70
     1
102
RTVSPropertyOp23
 70
     1
102
RTVSPropertyOp24
 70
     1
102
RTVSPropertyOp25
 70
     1
102
RTVSPropertyOp26
 70
     1
102
RTVSPropertyOp27
 70
     1
102
RTVSPropertyOp28
 70
     1
102
RTVSPropertyOp29
 70
     1
102
RTVSPropertyOp30
 70
     1
102
RTVSPropertyOp31
 70
     1
102
RTVSPropertyOp32
 70
     1
102
RTVSPropertyOp33
 70
     1
102
RTVSPropertyOp34
 70
     1
102
RTVSPropertyOp35
 70
     1
102
RTVSPropertyOp36
 70
     1
102
RTVSPropertyOp37
 70
     1
102
RTVSPropertyOp38
 70
     1
102
RTVSPropertyOp39
 70
     1
102
RTVSPropertyOp40
 70
     1
102
RTVSPropertyOp41
 70
     1
102
RTVSPropertyOp42
 70
     1
102
RTVSPropertyOp43
 70
     1
102
RTVSPropertyOp44
 70
     1
102
RTVSPropertyOp45
 70
     1
102
RTVSPropertyOp46
 70
     1
102
RTVSPropertyOp47
 70
     1
102
RTVSPropertyOp48
 70
     1
102
RTVSPropertyOp49
 70
     1
102
RTVSPropertyOp50
 70
     1
102
RTVSPropertyOp51
 70
     0
102
RTVSPropertyOp52
 70
     0
102
RTVSPropertyOp53
 70
     1
102
RTVSPropertyOp54
 70
     1
102
RTVSPropertyOp55
 70
     1
102
RTVSPropertyOp56
 70
     1
102
RTVSPropertyOp57
 70
     1
102
RTVSPropertyOp58
 70
     1
102
RTVSPropertyOp59
 70
     1
102
RTVSPropertyOp60
 70
     1
102
RTVSPropertyOp61
 70
     1
102
RTVSPropertyOp62
 70
     1
  0
XRECORD
  5
5E5
102
{ACAD_REACTORS
330
5E4
102
}
330
5E4
100
AcDbXrecord
280
     1
102
RTVSPost2010Prop28
280
     0
102
RTVSPost2010PropOp28
 70
     1
102
RTVSPost2010Prop29
280
     1
102
RTVSPost2010PropOp29
 70
     1
102
RTVSPost2010Prop30
280
     1
102
RTVSPost2010PropOp30
 70
     1
102
RTVSPost2010Prop31
280
     0
102
RTVSPost2010PropOp31
 70
     1
102
RTVSPost2010Prop32
280
     0
102
RTVSPost2010PropOp32
 70
     1
102
RTVSPost2010Prop33
280
     0
102
RTVSPost2010PropOp33
 70
     1
102
RTVSPost2010Prop34
280
     0
102
RTVSPost2010PropOp34
 70
     1
102
RTVSPost2010Prop35
280
     0
102
RTVSPost2010PropOp35
 70
     1
102
RTVSPost2010Prop36
280
     0
102
RTVSPost2010PropOp36
 70
     1
102
RTVSPost2010Prop37
 90
       50
102
RTVSPost2010PropOp37
 70
     1
102
RTVSPost2010Prop38
140
0.0
102
RTVSPost2010PropOp38
 70
     1
102
RTVSPost2010Prop39
140
1.0
102
RTVSPost2010PropOp39
 70
     1
102
RTVSPost2010Prop40
 90
        0
102
RTVSPost2010PropOp40
 70
     1
102
RTVSPost2010Prop41ColorIndex
 90
       18
102
RTVSPost2010Prop41ColorRGB
 90
        0
102
RTVSPost2010PropOp41
 70
     1
102
RTVSPost2010Prop42
 90
       50
102
RTVSPost2010PropOp42
 70
     1
102
RTVSPost2010Prop43
 90
        3
102
RTVSPost2010PropOp43
 70
     1
102
RTVSPost2010Prop44ColorIndex
 90
        5
102
RTVSPost2010Prop44ColorRGB
 90
      255
102
RTVSPost2010PropOp44
 70
     1
102
RTVSPost2010Prop45
280
     0
102
RTVSPost2010PropOp45
 70
     1
102
RTVSPost2010Prop46
 90
       50
102
RTVSPost2010PropOp46
 70
     1
102
RTVSPost2010Prop47
 90
       50
102
RTVSPost2010PropOp47
 70
     1
102
RTVSPost2010Prop48
 90
       50
102
RTVSPost2010PropOp48
 70
     1
102
RTVSPost2010Prop49
280
     0
102
RTVSPost2010PropOp49
 70
     1
102
RTVSPost2010Prop50
 90
       50
102
RTVSPost2010PropOp50
 70
     1
102
RTVSPost2010Prop51ColorIndex
 90
      256
102
RTVSPost2010Prop51ColorRGB
 90
-16777216
102
RTVSPost2010PropOp51
 70
     0
102
RTVSPost2010Prop52
140
1.0
102
RTVSPost2010PropOp52
 70
     0
102
RTVSPost2010Prop53
 90
        2
102
RTVSPost2010PropOp53
 70
     1
102
RTVSPost2010Prop54
  1
strokes_ogs.tif
102
RTVSPost2010PropOp54
 70
     1
102
RTVSPost2010Prop55
280
     0
102
RTVSPost2010PropOp55
 70
     1
102
RTVSPost2010Prop56
140
1.0
102
RTVSPost2010PropOp56
 70
     1
102
RTVSPost2010Prop57
140
1.0
102
RTVSPost2010PropOp57
 70
     1
102
RTVSPropertyOp0
 70
     1
102
RTVSPropertyOp1
 70
     1
102
RTVSPropertyOp2
 70
     1
102
RTVSPropertyOp3
 70
     1
102
RTVSPropertyOp4
 70
     1
102
RTVSPropertyOp5
 70
     1
102
RTVSPropertyOp6
 70
     1
102
RTVSPropertyOp7
 70
     1
102
RTVSPropertyOp8
 70
     1
102
RTVSPropertyOp9
 70
     1
102
RTVSPropertyOp10
 70
     1
102
RTVSPropertyOp11
 70
     1
102
RTVSPropertyOp12
 70
     1
102
RTVSPropertyOp13
 70
     1
102
RTVSPropertyOp14
 70
     1
102
RTVSPropertyOp15
 70
     1
102
RTVSPropertyOp16
 70
     1
102
RTVSPropertyOp17
 70
     1
102
RTVSPropertyOp18
 70
     1
102
RTVSPropertyOp19
 70
     1
102
RTVSPropertyOp20
 70
     1
102
RTVSPropertyOp21
 70
     1
102
RTVSPropertyOp22
 70
     1
102
RTVSPropertyOp23
 70
     1
102
RTVSPropertyOp24
 70
     1
102
RTVSPropertyOp25
 70
     1
102
RTVSPropertyOp26
 70
     1
102
RTVSPropertyOp27
 70
     1
102
RTVSPropertyOp28
 70
     1
102
RTVSPropertyOp29
 70
     1
102
RTVSPropertyOp30
 70
     1
102
RTVSPropertyOp31
 70
     1
102
RTVSPropertyOp32
 70
     1
102
RTVSPropertyOp33
 70
     1
102
RTVSPropertyOp34
 70
     1
102
RTVSPropertyOp35
 70
     1
102
RTVSPropertyOp36
 70
     1
102
RTVSPropertyOp37
 70
     1
102
RTVSPropertyOp38
 70
     1
102
RTVSPropertyOp39
 70
     1
102
RTVSPropertyOp40
 70
     1
102
RTVSPropertyOp41
 70
     1
102
RTVSPropertyOp42
 70
     1
102
RTVSPropertyOp43
 70
     1
102
RTVSPropertyOp44
 70
     1
102
RTVSPropertyOp45
 70
     1
102
RTVSPropertyOp46
 70
     1
102
RTVSPropertyOp47
 70
     1
102
RTVSPropertyOp48
 70
     1
102
RTVSPropertyOp49
 70
     1
102
RTVSPropertyOp50
 70
     1
102
RTVSPropertyOp51
 70
     0
102
RTVSPropertyOp52
 70
     0
102
RTVSPropertyOp53
 70
     1
102
RTVSPropertyOp54
 70
     1
102
RTVSPropertyOp55
 70
     1
102
RTVSPropertyOp56
 70
     1
102
RTVSPropertyOp57
 70
     1
102
RTVSPropertyOp58
 70
     1
102
RTVSPropertyOp59
 70
     1
102
RTVSPropertyOp60
 70
     1
102
RTVSPropertyOp61
 70
     1
102
RTVSPropertyOp62
 70
     1
  0
XRECORD
  5
5ED
102
{ACAD_REACTORS
330
5EC
102
}
330
5EC
100
AcDbXrecord
280
     1
102
RTVSPost2010Prop28
280
     0
102
RTVSPost2010PropOp28
 70
     1
102
RTVSPost2010Prop29
280
     1
102
RTVSPost2010PropOp29
 70
     1
102
RTVSPost2010Prop30
280
     1
102
RTVSPost2010PropOp30
 70
     1
102
RTVSPost2010Prop31
280
     0
102
RTVSPost2010PropOp31
 70
     1
102
RTVSPost2010Prop32
280
     0
102
RTVSPost2010PropOp32
 70
     1
102
RTVSPost2010Prop33
280
     0
102
RTVSPost2010PropOp33
 70
     1
102
RTVSPost2010Prop34
280
     0
102
RTVSPost2010PropOp34
 70
     1
102
RTVSPost2010Prop35
280
     0
102
RTVSPost2010PropOp35
 70
     1
102
RTVSPost2010Prop36
280
     0
102
RTVSPost2010PropOp36
 70
     1
102
RTVSPost2010Prop37
 90
       50
102
RTVSPost2010PropOp37
 70
     1
102
RTVSPost2010Prop38
140
0.0
102
RTVSPost2010PropOp38
 70
     1
102
RTVSPost2010Prop39
140
1.0
102
RTVSPost2010PropOp39
 70
     1
102
RTVSPost2010Prop40
 90
        0
102
RTVSPost2010PropOp40
 70
     1
102
RTVSPost2010Prop41ColorIndex
 90
       18
102
RTVSPost2010Prop41ColorRGB
 90
        0
102
RTVSPost2010PropOp41
 70
     1
102
RTVSPost2010Prop42
 90
       50
102
RTVSPost2010PropOp42
 70
     1
102
RTVSPost2010Prop43
 90
        3
102
RTVSPost2010PropOp43
 70
     1
102
RTVSPost2010Prop44ColorIndex
 90
        5
102
RTVSPost2010Prop44ColorRGB
 90
      255
102
RTVSPost2010PropOp44
 70
     1
102
RTVSPost2010Prop45
280
     0
102
RTVSPost2010PropOp45
 70
     1
102
RTVSPost2010Prop46
 90
       50
102
RTVSPost2010PropOp46
 70
     1
102
RTVSPost2010Prop47
 90
       50
102
RTVSPost2010PropOp47
 70
     1
102
RTVSPost2010Prop48
 90
       50
102
RTVSPost2010PropOp48
 70
     1
102
RTVSPost2010Prop49
280
     0
102
RTVSPost2010PropOp49
 70
     1
102
RTVSPost2010Prop50
 90
       50
102
RTVSPost2010PropOp50
 70
     1
102
RTVSPost2010Prop51ColorIndex
 90
      256
102
RTVSPost2010Prop51ColorRGB
 90
-16777216
102
RTVSPost2010PropOp51
 70
     0
102
RTVSPost2010Prop52
140
1.0
102
RTVSPost2010PropOp52
 70
     0
102
RTVSPost2010Prop53
 90
        2
102
RTVSPost2010PropOp53
 70
     1
102
RTVSPost2010Prop54
  1
strokes_ogs.tif
102
RTVSPost2010PropOp54
 70
     1
102
RTVSPost2010Prop55
280
     0
102
RTVSPost2010PropOp55
 70
     1
102
RTVSPost2010Prop56
140
1.0
102
RTVSPost2010PropOp56
 70
     1
102
RTVSPost2010Prop57
140
1.0
102
RTVSPost2010PropOp57
 70
     1
102
RTVSPropertyOp0
 70
     1
102
RTVSPropertyOp1
 70
     1
102
RTVSPropertyOp2
 70
     1
102
RTVSPropertyOp3
 70
     1
102
RTVSPropertyOp4
 70
     1
102
RTVSPropertyOp5
 70
     1
102
RTVSPropertyOp6
 70
     1
102
RTVSPropertyOp7
 70
     1
102
RTVSPropertyOp8
 70
     1
102
RTVSPropertyOp9
 70
     1
102
RTVSPropertyOp10
 70
     1
102
RTVSPropertyOp11
 70
     1
102
RTVSPropertyOp12
 70
     1
102
RTVSPropertyOp13
 70
     1
102
RTVSPropertyOp14
 70
     1
102
RTVSPropertyOp15
 70
     1
102
RTVSPropertyOp16
 70
     1
102
RTVSPropertyOp17
 70
     1
102
RTVSPropertyOp18
 70
     1
102
RTVSPropertyOp19
 70
     1
102
RTVSPropertyOp20
 70
     1
102
RTVSPropertyOp21
 70
     1
102
RTVSPropertyOp22
 70
     1
102
RTVSPropertyOp23
 70
     1
102
RTVSPropertyOp24
 70
     1
102
RTVSPropertyOp25
 70
     1
102
RTVSPropertyOp26
 70
     1
102
RTVSPropertyOp27
 70
     1
102
RTVSPropertyOp28
 70
     1
102
RTVSPropertyOp29
 70
     1
102
RTVSPropertyOp30
 70
     1
102
RTVSPropertyOp31
 70
     1
102
RTVSPropertyOp32
 70
     1
102
RTVSPropertyOp33
 70
     1
102
RTVSPropertyOp34
 70
     1
102
RTVSPropertyOp35
 70
     1
102
RTVSPropertyOp36
 70
     1
102
RTVSPropertyOp37
 70
     1
102
RTVSPropertyOp38
 70
     1
102
RTVSPropertyOp39
 70
     1
102
RTVSPropertyOp40
 70
     1
102
RTVSPropertyOp41
 70
     1
102
RTVSPropertyOp42
 70
     1
102
RTVSPropertyOp43
 70
     1
102
RTVSPropertyOp44
 70
     1
102
RTVSPropertyOp45
 70
     1
102
RTVSPropertyOp46
 70
     1
102
RTVSPropertyOp47
 70
     1
102
RTVSPropertyOp48
 70
     1
102
RTVSPropertyOp49
 70
     1
102
RTVSPropertyOp50
 70
     1
102
RTVSPropertyOp51
 70
     0
102
RTVSPropertyOp52
 70
     0
102
RTVSPropertyOp53
 70
     1
102
RTVSPropertyOp54
 70
     1
102
RTVSPropertyOp55
 70
     1
102
RTVSPropertyOp56
 70
     1
102
RTVSPropertyOp57
 70
     1
102
RTVSPropertyOp58
 70
     1
102
RTVSPropertyOp59
 70
     1
102
RTVSPropertyOp60
 70
     1
102
RTVSPropertyOp61
 70
     1
102
RTVSPropertyOp62
 70
     1
  0
XRECORD
  5
5DF
102
{ACAD_REACTORS
330
5DE
102
}
330
5DE
100
AcDbXrecord
280
     1
102
RTVSPost2010Prop28
280
     0
102
RTVSPost2010PropOp28
 70
     1
102
RTVSPost2010Prop29
280
     1
102
RTVSPost2010PropOp29
 70
     1
102
RTVSPost2010Prop30
280
     1
102
RTVSPost2010PropOp30
 70
     1
102
RTVSPost2010Prop31
280
     0
102
RTVSPost2010PropOp31
 70
     1
102
RTVSPost2010Prop32
280
     0
102
RTVSPost2010PropOp32
 70
     1
102
RTVSPost2010Prop33
280
     0
102
RTVSPost2010PropOp33
 70
     1
102
RTVSPost2010Prop34
280
     0
102
RTVSPost2010PropOp34
 70
     1
102
RTVSPost2010Prop35
280
     0
102
RTVSPost2010PropOp35
 70
     1
102
RTVSPost2010Prop36
280
     0
102
RTVSPost2010PropOp36
 70
     1
102
RTVSPost2010Prop37
 90
       50
102
RTVSPost2010PropOp37
 70
     1
102
RTVSPost2010Prop38
140
0.0
102
RTVSPost2010PropOp38
 70
     1
102
RTVSPost2010Prop39
140
1.0
102
RTVSPost2010PropOp39
 70
     1
102
RTVSPost2010Prop40
 90
        0
102
RTVSPost2010PropOp40
 70
     1
102
RTVSPost2010Prop41ColorIndex
 90
       18
102
RTVSPost2010Prop41ColorRGB
 90
        0
102
RTVSPost2010PropOp41
 70
     1
102
RTVSPost2010Prop42
 90
       50
102
RTVSPost2010PropOp42
 70
     1
102
RTVSPost2010Prop43
 90
        3
102
RTVSPost2010PropOp43
 70
     1
102
RTVSPost2010Prop44ColorIndex
 90
        5
102
RTVSPost2010Prop44ColorRGB
 90
      255
102
RTVSPost2010PropOp44
 70
     1
102
RTVSPost2010Prop45
280
     0
102
RTVSPost2010PropOp45
 70
     1
102
RTVSPost2010Prop46
 90
       50
102
RTVSPost2010PropOp46
 70
     1
102
RTVSPost2010Prop47
 90
       50
102
RTVSPost2010PropOp47
 70
     1
102
RTVSPost2010Prop48
 90
       50
102
RTVSPost2010PropOp48
 70
     1
102
RTVSPost2010Prop49
280
     0
102
RTVSPost2010PropOp49
 70
     1
102
RTVSPost2010Prop50
 90
       50
102
RTVSPost2010PropOp50
 70
     1
102
RTVSPost2010Prop51ColorIndex
 90
      256
102
RTVSPost2010Prop51ColorRGB
 90
-16777216
102
RTVSPost2010PropOp51
 70
     0
102
RTVSPost2010Prop52
140
1.0
102
RTVSPost2010PropOp52
 70
     0
102
RTVSPost2010Prop53
 90
        2
102
RTVSPost2010PropOp53
 70
     1
102
RTVSPost2010Prop54
  1
strokes_ogs.tif
102
RTVSPost2010PropOp54
 70
     1
102
RTVSPost2010Prop55
280
     0
102
RTVSPost2010PropOp55
 70
     1
102
RTVSPost2010Prop56
140
1.0
102
RTVSPost2010PropOp56
 70
     1
102
RTVSPost2010Prop57
140
1.0
102
RTVSPost2010PropOp57
 70
     1
102
RTVSPropertyOp0
 70
     1
102
RTVSPropertyOp1
 70
     1
102
RTVSPropertyOp2
 70
     1
102
RTVSPropertyOp3
 70
     1
102
RTVSPropertyOp4
 70
     1
102
RTVSPropertyOp5
 70
     1
102
RTVSPropertyOp6
 70
     1
102
RTVSPropertyOp7
 70
     1
102
RTVSPropertyOp8
 70
     1
102
RTVSPropertyOp9
 70
     1
102
RTVSPropertyOp10
 70
     1
102
RTVSPropertyOp11
 70
     1
102
RTVSPropertyOp12
 70
     1
102
RTVSPropertyOp13
 70
     1
102
RTVSPropertyOp14
 70
     1
102
RTVSPropertyOp15
 70
     1
102
RTVSPropertyOp16
 70
     1
102
RTVSPropertyOp17
 70
     1
102
RTVSPropertyOp18
 70
     1
102
RTVSPropertyOp19
 70
     1
102
RTVSPropertyOp20
 70
     1
102
RTVSPropertyOp21
 70
     1
102
RTVSPropertyOp22
 70
     1
102
RTVSPropertyOp23
 70
     1
102
RTVSPropertyOp24
 70
     1
102
RTVSPropertyOp25
 70
     1
102
RTVSPropertyOp26
 70
     1
102
RTVSPropertyOp27
 70
     1
102
RTVSPropertyOp28
 70
     1
102
RTVSPropertyOp29
 70
     1
102
RTVSPropertyOp30
 70
     1
102
RTVSPropertyOp31
 70
     1
102
RTVSPropertyOp32
 70
     1
102
RTVSPropertyOp33
 70
     1
102
RTVSPropertyOp34
 70
     1
102
RTVSPropertyOp35
 70
     1
102
RTVSPropertyOp36
 70
     1
102
RTVSPropertyOp37
 70
     1
102
RTVSPropertyOp38
 70
     1
102
RTVSPropertyOp39
 70
     1
102
RTVSPropertyOp40
 70
     1
102
RTVSPropertyOp41
 70
     1
102
RTVSPropertyOp42
 70
     1
102
RTVSPropertyOp43
 70
     1
102
RTVSPropertyOp44
 70
     1
102
RTVSPropertyOp45
 70
     1
102
RTVSPropertyOp46
 70
     1
102
RTVSPropertyOp47
 70
     1
102
RTVSPropertyOp48
 70
     1
102
RTVSPropertyOp49
 70
     1
102
RTVSPropertyOp50
 70
     1
102
RTVSPropertyOp51
 70
     0
102
RTVSPropertyOp52
 70
     0
102
RTVSPropertyOp53
 70
     1
102
RTVSPropertyOp54
 70
     1
102
RTVSPropertyOp55
 70
     1
102
RTVSPropertyOp56
 70
     1
102
RTVSPropertyOp57
 70
     1
102
RTVSPropertyOp58
 70
     1
102
RTVSPropertyOp59
 70
     1
102
RTVSPropertyOp60
 70
     1
102
RTVSPropertyOp61
 70
     1
102
RTVSPropertyOp62
 70
     1
  0
XRECORD
  5
5E3
102
{ACAD_REACTORS
330
5E2
102
}
330
5E2
100
AcDbXrecord
280
     1
102
RTVSPost2010Prop28
280
     0
102
RTVSPost2010PropOp28
 70
     1
102
RTVSPost2010Prop29
280
     1
102
RTVSPost2010PropOp29
 70
     1
102
RTVSPost2010Prop30
280
     1
102
RTVSPost2010PropOp30
 70
     1
102
RTVSPost2010Prop31
280
     0
102
RTVSPost2010PropOp31
 70
     1
102
RTVSPost2010Prop32
280
     0
102
RTVSPost2010PropOp32
 70
     1
102
RTVSPost2010Prop33
280
     0
102
RTVSPost2010PropOp33
 70
     1
102
RTVSPost2010Prop34
280
     0
102
RTVSPost2010PropOp34
 70
     1
102
RTVSPost2010Prop35
280
     0
102
RTVSPost2010PropOp35
 70
     1
102
RTVSPost2010Prop36
280
     0
102
RTVSPost2010PropOp36
 70
     1
102
RTVSPost2010Prop37
 90
       50
102
RTVSPost2010PropOp37
 70
     1
102
RTVSPost2010Prop38
140
0.0
102
RTVSPost2010PropOp38
 70
     1
102
RTVSPost2010Prop39
140
1.0
102
RTVSPost2010PropOp39
 70
     1
102
RTVSPost2010Prop40
 90
        0
102
RTVSPost2010PropOp40
 70
     1
102
RTVSPost2010Prop41ColorIndex
 90
       18
102
RTVSPost2010Prop41ColorRGB
 90
        0
102
RTVSPost2010PropOp41
 70
     1
102
RTVSPost2010Prop42
 90
       50
102
RTVSPost2010PropOp42
 70
     1
102
RTVSPost2010Prop43
 90
        3
102
RTVSPost2010PropOp43
 70
     1
102
RTVSPost2010Prop44ColorIndex
 90
        5
102
RTVSPost2010Prop44ColorRGB
 90
      255
102
RTVSPost2010PropOp44
 70
     1
102
RTVSPost2010Prop45
280
     0
102
RTVSPost2010PropOp45
 70
     1
102
RTVSPost2010Prop46
 90
       50
102
RTVSPost2010PropOp46
 70
     1
102
RTVSPost2010Prop47
 90
       50
102
RTVSPost2010PropOp47
 70
     1
102
RTVSPost2010Prop48
 90
       50
102
RTVSPost2010PropOp48
 70
     1
102
RTVSPost2010Prop49
280
     0
102
RTVSPost2010PropOp49
 70
     1
102
RTVSPost2010Prop50
 90
       50
102
RTVSPost2010PropOp50
 70
     1
102
RTVSPost2010Prop51ColorIndex
 90
      256
102
RTVSPost2010Prop51ColorRGB
 90
-16777216
102
RTVSPost2010PropOp51
 70
     0
102
RTVSPost2010Prop52
140
1.0
102
RTVSPost2010PropOp52
 70
     0
102
RTVSPost2010Prop53
 90
        2
102
RTVSPost2010PropOp53
 70
     1
102
RTVSPost2010Prop54
  1
strokes_ogs.tif
102
RTVSPost2010PropOp54
 70
     1
102
RTVSPost2010Prop55
280
     0
102
RTVSPost2010PropOp55
 70
     1
102
RTVSPost2010Prop56
140
1.0
102
RTVSPost2010PropOp56
 70
     1
102
RTVSPost2010Prop57
140
1.0
102
RTVSPost2010PropOp57
 70
     1
102
RTVSPropertyOp0
 70
     1
102
RTVSPropertyOp1
 70
     1
102
RTVSPropertyOp2
 70
     1
102
RTVSPropertyOp3
 70
     1
102
RTVSPropertyOp4
 70
     1
102
RTVSPropertyOp5
 70
     1
102
RTVSPropertyOp6
 70
     1
102
RTVSPropertyOp7
 70
     1
102
RTVSPropertyOp8
 70
     1
102
RTVSPropertyOp9
 70
     1
102
RTVSPropertyOp10
 70
     1
102
RTVSPropertyOp11
 70
     1
102
RTVSPropertyOp12
 70
     1
102
RTVSPropertyOp13
 70
     1
102
RTVSPropertyOp14
 70
     1
102
RTVSPropertyOp15
 70
     1
102
RTVSPropertyOp16
 70
     1
102
RTVSPropertyOp17
 70
     1
102
RTVSPropertyOp18
 70
     1
102
RTVSPropertyOp19
 70
     1
102
RTVSPropertyOp20
 70
     1
102
RTVSPropertyOp21
 70
     1
102
RTVSPropertyOp22
 70
     1
102
RTVSPropertyOp23
 70
     1
102
RTVSPropertyOp24
 70
     1
102
RTVSPropertyOp25
 70
     1
102
RTVSPropertyOp26
 70
     1
102
RTVSPropertyOp27
 70
     1
102
RTVSPropertyOp28
 70
     1
102
RTVSPropertyOp29
 70
     1
102
RTVSPropertyOp30
 70
     1
102
RTVSPropertyOp31
 70
     1
102
RTVSPropertyOp32
 70
     1
102
RTVSPropertyOp33
 70
     1
102
RTVSPropertyOp34
 70
     1
102
RTVSPropertyOp35
 70
     1
102
RTVSPropertyOp36
 70
     1
102
RTVSPropertyOp37
 70
     1
102
RTVSPropertyOp38
 70
     1
102
RTVSPropertyOp39
 70
     1
102
RTVSPropertyOp40
 70
     1
102
RTVSPropertyOp41
 70
     1
102
RTVSPropertyOp42
 70
     1
102
RTVSPropertyOp43
 70
     1
102
RTVSPropertyOp44
 70
     1
102
RTVSPropertyOp45
 70
     1
102
RTVSPropertyOp46
 70
     1
102
RTVSPropertyOp47
 70
     1
102
RTVSPropertyOp48
 70
     1
102
RTVSPropertyOp49
 70
     1
102
RTVSPropertyOp50
 70
     1
102
RTVSPropertyOp51
 70
     0
102
RTVSPropertyOp52
 70
     0
102
RTVSPropertyOp53
 70
     1
102
RTVSPropertyOp54
 70
     1
102
RTVSPropertyOp55
 70
     1
102
RTVSPropertyOp56
 70
     1
102
RTVSPropertyOp57
 70
     1
102
RTVSPropertyOp58
 70
     1
102
RTVSPropertyOp59
 70
     1
102
RTVSPropertyOp60
 70
     1
102
RTVSPropertyOp61
 70
     1
102
RTVSPropertyOp62
 70
     1
  0
XRECORD
  5
5FD
102
{ACAD_REACTORS
330
5FC
102
}
330
5FC
100
AcDbXrecord
280
     1
102
RTVSPost2010Prop28
280
     0
102
RTVSPost2010PropOp28
 70
     1
102
RTVSPost2010Prop29
280
     1
102
RTVSPost2010PropOp29
 70
     1
102
RTVSPost2010Prop30
280
     1
102
RTVSPost2010PropOp30
 70
     1
102
RTVSPost2010Prop31
280
     0
102
RTVSPost2010PropOp31
 70
     1
102
RTVSPost2010Prop32
280
     0
102
RTVSPost2010PropOp32
 70
     1
102
RTVSPost2010Prop33
280
     0
102
RTVSPost2010PropOp33
 70
     1
102
RTVSPost2010Prop34
280
     0
102
RTVSPost2010PropOp34
 70
     1
102
RTVSPost2010Prop35
280
     0
102
RTVSPost2010PropOp35
 70
     1
102
RTVSPost2010Prop36
280
     0
102
RTVSPost2010PropOp36
 70
     1
102
RTVSPost2010Prop37
 90
       50
102
RTVSPost2010PropOp37
 70
     0
102
RTVSPost2010Prop38
140
0.0
102
RTVSPost2010PropOp38
 70
     0
102
RTVSPost2010Prop39
140
1.0
102
RTVSPost2010PropOp39
 70
     0
102
RTVSPost2010Prop40
 90
        0
102
RTVSPost2010PropOp40
 70
     0
102
RTVSPost2010Prop41ColorIndex
 90
       18
102
RTVSPost2010Prop41ColorRGB
 90
        0
102
RTVSPost2010PropOp41
 70
     0
102
RTVSPost2010Prop42
 90
       50
102
RTVSPost2010PropOp42
 70
     0
102
RTVSPost2010Prop43
 90
        3
102
RTVSPost2010PropOp43
 70
     0
102
RTVSPost2010Prop44ColorIndex
 90
        5
102
RTVSPost2010Prop44ColorRGB
 90
      255
102
RTVSPost2010PropOp44
 70
     0
102
RTVSPost2010Prop45
280
     0
102
RTVSPost2010PropOp45
 70
     1
102
RTVSPost2010Prop46
 90
       50
102
RTVSPost2010PropOp46
 70
     0
102
RTVSPost2010Prop47
 90
       50
102
RTVSPost2010PropOp47
 70
     0
102
RTVSPost2010Prop48
 90
       50
102
RTVSPost2010PropOp48
 70
     0
102
RTVSPost2010Prop49
280
     0
102
RTVSPost2010PropOp49
 70
     1
102
RTVSPost2010Prop50
 90
       50
102
RTVSPost2010PropOp50
 70
     0
102
RTVSPost2010Prop51ColorIndex
 90
      256
102
RTVSPost2010Prop51ColorRGB
 90
-16777216
102
RTVSPost2010PropOp51
 70
     0
102
RTVSPost2010Prop52
140
1.0
102
RTVSPost2010PropOp52
 70
     0
102
RTVSPost2010Prop53
 90
        2
102
RTVSPost2010PropOp53
 70
     0
102
RTVSPost2010Prop54
  1
strokes_ogs.tif
102
RTVSPost2010PropOp54
 70
     0
102
RTVSPost2010Prop55
280
     0
102
RTVSPost2010PropOp55
 70
     1
102
RTVSPost2010Prop56
140
1.0
102
RTVSPost2010PropOp56
 70
     0
102
RTVSPost2010Prop57
140
1.0
102
RTVSPost2010PropOp57
 70
     0
102
RTVSPropertyOp0
 70
     0
102
RTVSPropertyOp1
 70
     0
102
RTVSPropertyOp2
 70
     0
102
RTVSPropertyOp3
 70
     0
102
RTVSPropertyOp4
 70
     0
102
RTVSPropertyOp5
 70
     0
102
RTVSPropertyOp6
 70
     0
102
RTVSPropertyOp7
 70
     0
102
RTVSPropertyOp8
 70
     0
102
RTVSPropertyOp9
 70
     0
102
RTVSPropertyOp10
 70
     0
102
RTVSPropertyOp11
 70
     0
102
RTVSPropertyOp12
 70
     0
102
RTVSPropertyOp13
 70
     0
102
RTVSPropertyOp14
 70
     2
102
RTVSPropertyOp15
 70
     0
102
RTVSPropertyOp16
 70
     0
102
RTVSPropertyOp17
 70
     0
102
RTVSPropertyOp18
 70
     0
102
RTVSPropertyOp19
 70
     0
102
RTVSPropertyOp20
 70
     0
102
RTVSPropertyOp21
 70
     0
102
RTVSPropertyOp22
 70
     0
102
RTVSPropertyOp23
 70
     0
102
RTVSPropertyOp24
 70
     0
102
RTVSPropertyOp25
 70
     0
102
RTVSPropertyOp26
 70
     0
102
RTVSPropertyOp27
 70
     0
102
RTVSPropertyOp28
 70
     1
102
RTVSPropertyOp29
 70
     1
102
RTVSPropertyOp30
 70
     1
102
RTVSPropertyOp31
 70
     1
102
RTVSPropertyOp32
 70
     1
102
RTVSPropertyOp33
 70
     1
102
RTVSPropertyOp34
 70
     1
102
RTVSPropertyOp35
 70
     1
102
RTVSPropertyOp36
 70
     1
102
RTVSPropertyOp37
 70
     0
102
RTVSPropertyOp38
 70
     0
102
RTVSPropertyOp39
 70
     0
102
RTVSPropertyOp40
 70
     0
102
RTVSPropertyOp41
 70
     0
102
RTVSPropertyOp42
 70
     0
102
RTVSPropertyOp43
 70
     0
102
RTVSPropertyOp44
 70
     0
102
RTVSPropertyOp45
 70
     1
102
RTVSPropertyOp46
 70
     0
102
RTVSPropertyOp47
 70
     0
102
RTVSPropertyOp48
 70
     0
102
RTVSPropertyOp49
 70
     1
102
RTVSPropertyOp50
 70
     0
102
RTVSPropertyOp51
 70
     0
102
RTVSPropertyOp52
 70
     0
102
RTVSPropertyOp53
 70
     0
102
RTVSPropertyOp54
 70
     0
102
RTVSPropertyOp55
 70
     1
102
RTVSPropertyOp56
 70
     0
102
RTVSPropertyOp57
 70
     0
102
RTVSPropertyOp58
 70
     0
102
RTVSPropertyOp59
 70
     0
102
RTVSPropertyOp60
 70
     0
102
RTVSPropertyOp61
 70
     0
102
RTVSPropertyOp62
 70
     0
  0
XRECORD
  5
5EB
102
{ACAD_REACTORS
330
5EA
102
}
330
5EA
100
AcDbXrecord
280
     1
102
RTVSPost2010Prop28
280
     0
102
RTVSPost2010PropOp28
 70
     1
102
RTVSPost2010Prop29
280
     1
102
RTVSPost2010PropOp29
 70
     1
102
RTVSPost2010Prop30
280
     1
102
RTVSPost2010PropOp30
 70
     1
102
RTVSPost2010Prop31
280
     0
102
RTVSPost2010PropOp31
 70
     1
102
RTVSPost2010Prop32
280
     0
102
RTVSPost2010PropOp32
 70
     1
102
RTVSPost2010Prop33
280
     0
102
RTVSPost2010PropOp33
 70
     1
102
RTVSPost2010Prop34
280
     0
102
RTVSPost2010PropOp34
 70
     1
102
RTVSPost2010Prop35
280
     0
102
RTVSPost2010PropOp35
 70
     1
102
RTVSPost2010Prop36
280
     0
102
RTVSPost2010PropOp36
 70
     1
102
RTVSPost2010Prop37
 90
       50
102
RTVSPost2010PropOp37
 70
     1
102
RTVSPost2010Prop38
140
0.0
102
RTVSPost2010PropOp38
 70
     1
102
RTVSPost2010Prop39
140
1.0
102
RTVSPost2010PropOp39
 70
     1
102
RTVSPost2010Prop40
 90
        0
102
RTVSPost2010PropOp40
 70
     1
102
RTVSPost2010Prop41ColorIndex
 90
       18
102
RTVSPost2010Prop41ColorRGB
 90
        0
102
RTVSPost2010PropOp41
 70
     1
102
RTVSPost2010Prop42
 90
       50
102
RTVSPost2010PropOp42
 70
     1
102
RTVSPost2010Prop43
 90
        3
102
RTVSPost2010PropOp43
 70
     1
102
RTVSPost2010Prop44ColorIndex
 90
        5
102
RTVSPost2010Prop44ColorRGB
 90
      255
102
RTVSPost2010PropOp44
 70
     1
102
RTVSPost2010Prop45
280
     0
102
RTVSPost2010PropOp45
 70
     1
102
RTVSPost2010Prop46
 90
       50
102
RTVSPost2010PropOp46
 70
     1
102
RTVSPost2010Prop47
 90
       50
102
RTVSPost2010PropOp47
 70
     1
102
RTVSPost2010Prop48
 90
       50
102
RTVSPost2010PropOp48
 70
     1
102
RTVSPost2010Prop49
280
     0
102
RTVSPost2010PropOp49
 70
     1
102
RTVSPost2010Prop50
 90
       50
102
RTVSPost2010PropOp50
 70
     1
102
RTVSPost2010Prop51ColorIndex
 90
      256
102
RTVSPost2010Prop51ColorRGB
 90
-16777216
102
RTVSPost2010PropOp51
 70
     0
102
RTVSPost2010Prop52
140
1.0
102
RTVSPost2010PropOp52
 70
     0
102
RTVSPost2010Prop53
 90
        2
102
RTVSPost2010PropOp53
 70
     1
102
RTVSPost2010Prop54
  1
strokes_ogs.tif
102
RTVSPost2010PropOp54
 70
     1
102
RTVSPost2010Prop55
280
     0
102
RTVSPost2010PropOp55
 70
     1
102
RTVSPost2010Prop56
140
1.0
102
RTVSPost2010PropOp56
 70
     1
102
RTVSPost2010Prop57
140
1.0
102
RTVSPost2010PropOp57
 70
     1
102
RTVSPropertyOp0
 70
     1
102
RTVSPropertyOp1
 70
     1
102
RTVSPropertyOp2
 70
     1
102
RTVSPropertyOp3
 70
     1
102
RTVSPropertyOp4
 70
     1
102
RTVSPropertyOp5
 70
     1
102
RTVSPropertyOp6
 70
     1
102
RTVSPropertyOp7
 70
     1
102
RTVSPropertyOp8
 70
     1
102
RTVSPropertyOp9
 70
     1
102
RTVSPropertyOp10
 70
     1
102
RTVSPropertyOp11
 70
     1
102
RTVSPropertyOp12
 70
     1
102
RTVSPropertyOp13
 70
     1
102
RTVSPropertyOp14
 70
     1
102
RTVSPropertyOp15
 70
     1
102
RTVSPropertyOp16
 70
     1
102
RTVSPropertyOp17
 70
     1
102
RTVSPropertyOp18
 70
     1
102
RTVSPropertyOp19
 70
     1
102
RTVSPropertyOp20
 70
     1
102
RTVSPropertyOp21
 70
     1
102
RTVSPropertyOp22
 70
     1
102
RTVSPropertyOp23
 70
     1
102
RTVSPropertyOp24
 70
     1
102
RTVSPropertyOp25
 70
     1
102
RTVSPropertyOp26
 70
     1
102
RTVSPropertyOp27
 70
     1
102
RTVSPropertyOp28
 70
     1
102
RTVSPropertyOp29
 70
     1
102
RTVSPropertyOp30
 70
     1
102
RTVSPropertyOp31
 70
     1
102
RTVSPropertyOp32
 70
     1
102
RTVSPropertyOp33
 70
     1
102
RTVSPropertyOp34
 70
     1
102
RTVSPropertyOp35
 70
     1
102
RTVSPropertyOp36
 70
     1
102
RTVSPropertyOp37
 70
     1
102
RTVSPropertyOp38
 70
     1
102
RTVSPropertyOp39
 70
     1
102
RTVSPropertyOp40
 70
     1
102
RTVSPropertyOp41
 70
     1
102
RTVSPropertyOp42
 70
     1
102
RTVSPropertyOp43
 70
     1
102
RTVSPropertyOp44
 70
     1
102
RTVSPropertyOp45
 70
     1
102
RTVSPropertyOp46
 70
     1
102
RTVSPropertyOp47
 70
     1
102
RTVSPropertyOp48
 70
     1
102
RTVSPropertyOp49
 70
     1
102
RTVSPropertyOp50
 70
     1
102
RTVSPropertyOp51
 70
     0
102
RTVSPropertyOp52
 70
     0
102
RTVSPropertyOp53
 70
     1
102
RTVSPropertyOp54
 70
     1
102
RTVSPropertyOp55
 70
     1
102
RTVSPropertyOp56
 70
     1
102
RTVSPropertyOp57
 70
     1
102
RTVSPropertyOp58
 70
     1
102
RTVSPropertyOp59
 70
     1
102
RTVSPropertyOp60
 70
     1
102
RTVSPropertyOp61
 70
     1
102
RTVSPropertyOp62
 70
     1
  0
XRECORD
  5
5CF
102
{ACAD_REACTORS
330
5CE
102
}
330
5CE
100
AcDbXrecord
280
     1
102
RTVSPost2010Prop28
280
     0
102
RTVSPost2010PropOp28
 70
     1
102
RTVSPost2010Prop29
280
     1
102
RTVSPost2010PropOp29
 70
     1
102
RTVSPost2010Prop30
280
     1
102
RTVSPost2010PropOp30
 70
     1
102
RTVSPost2010Prop31
280
     0
102
RTVSPost2010PropOp31
 70
     1
102
RTVSPost2010Prop32
280
     0
102
RTVSPost2010PropOp32
 70
     1
102
RTVSPost2010Prop33
280
     0
102
RTVSPost2010PropOp33
 70
     1
102
RTVSPost2010Prop34
280
     0
102
RTVSPost2010PropOp34
 70
     1
102
RTVSPost2010Prop35
280
     0
102
RTVSPost2010PropOp35
 70
     1
102
RTVSPost2010Prop36
280
     0
102
RTVSPost2010PropOp36
 70
     1
102
RTVSPost2010Prop37
 90
       50
102
RTVSPost2010PropOp37
 70
     1
102
RTVSPost2010Prop38
140
0.0
102
RTVSPost2010PropOp38
 70
     1
102
RTVSPost2010Prop39
140
1.0
102
RTVSPost2010PropOp39
 70
     1
102
RTVSPost2010Prop40
 90
        0
102
RTVSPost2010PropOp40
 70
     1
102
RTVSPost2010Prop41ColorIndex
 90
       18
102
RTVSPost2010Prop41ColorRGB
 90
        0
102
RTVSPost2010PropOp41
 70
     1
102
RTVSPost2010Prop42
 90
       50
102
RTVSPost2010PropOp42
 70
     1
102
RTVSPost2010Prop43
 90
        3
102
RTVSPost2010PropOp43
 70
     1
102
RTVSPost2010Prop44ColorIndex
 90
        5
102
RTVSPost2010Prop44ColorRGB
 90
      255
102
RTVSPost2010PropOp44
 70
     1
102
RTVSPost2010Prop45
280
     0
102
RTVSPost2010PropOp45
 70
     1
102
RTVSPost2010Prop46
 90
       50
102
RTVSPost2010PropOp46
 70
     1
102
RTVSPost2010Prop47
 90
       50
102
RTVSPost2010PropOp47
 70
     1
102
RTVSPost2010Prop48
 90
       50
102
RTVSPost2010PropOp48
 70
     1
102
RTVSPost2010Prop49
280
     0
102
RTVSPost2010PropOp49
 70
     1
102
RTVSPost2010Prop50
 90
       50
102
RTVSPost2010PropOp50
 70
     1
102
RTVSPost2010Prop51ColorIndex
 90
      256
102
RTVSPost2010Prop51ColorRGB
 90
-16777216
102
RTVSPost2010PropOp51
 70
     0
102
RTVSPost2010Prop52
140
1.0
102
RTVSPost2010PropOp52
 70
     0
102
RTVSPost2010Prop53
 90
        2
102
RTVSPost2010PropOp53
 70
     1
102
RTVSPost2010Prop54
  1
strokes_ogs.tif
102
RTVSPost2010PropOp54
 70
     1
102
RTVSPost2010Prop55
280
     0
102
RTVSPost2010PropOp55
 70
     1
102
RTVSPost2010Prop56
140
1.0
102
RTVSPost2010PropOp56
 70
     1
102
RTVSPost2010Prop57
140
1.0
102
RTVSPost2010PropOp57
 70
     1
102
RTVSPropertyOp0
 70
     1
102
RTVSPropertyOp1
 70
     1
102
RTVSPropertyOp2
 70
     1
102
RTVSPropertyOp3
 70
     1
102
RTVSPropertyOp4
 70
     1
102
RTVSPropertyOp5
 70
     1
102
RTVSPropertyOp6
 70
     1
102
RTVSPropertyOp7
 70
     1
102
RTVSPropertyOp8
 70
     1
102
RTVSPropertyOp9
 70
     1
102
RTVSPropertyOp10
 70
     1
102
RTVSPropertyOp11
 70
     1
102
RTVSPropertyOp12
 70
     1
102
RTVSPropertyOp13
 70
     1
102
RTVSPropertyOp14
 70
     1
102
RTVSPropertyOp15
 70
     1
102
RTVSPropertyOp16
 70
     1
102
RTVSPropertyOp17
 70
     1
102
RTVSPropertyOp18
 70
     1
102
RTVSPropertyOp19
 70
     1
102
RTVSPropertyOp20
 70
     1
102
RTVSPropertyOp21
 70
     1
102
RTVSPropertyOp22
 70
     1
102
RTVSPropertyOp23
 70
     1
102
RTVSPropertyOp24
 70
     1
102
RTVSPropertyOp25
 70
     1
102
RTVSPropertyOp26
 70
     1
102
RTVSPropertyOp27
 70
     1
102
RTVSPropertyOp28
 70
     1
102
RTVSPropertyOp29
 70
     1
102
RTVSPropertyOp30
 70
     1
102
RTVSPropertyOp31
 70
     1
102
RTVSPropertyOp32
 70
     1
102
RTVSPropertyOp33
 70
     1
102
RTVSPropertyOp34
 70
     1
102
RTVSPropertyOp35
 70
     1
102
RTVSPropertyOp36
 70
     1
102
RTVSPropertyOp37
 70
     1
102
RTVSPropertyOp38
 70
     1
102
RTVSPropertyOp39
 70
     1
102
RTVSPropertyOp40
 70
     1
102
RTVSPropertyOp41
 70
     1
102
RTVSPropertyOp42
 70
     1
102
RTVSPropertyOp43
 70
     1
102
RTVSPropertyOp44
 70
     1
102
RTVSPropertyOp45
 70
     1
102
RTVSPropertyOp46
 70
     1
102
RTVSPropertyOp47
 70
     1
102
RTVSPropertyOp48
 70
     1
102
RTVSPropertyOp49
 70
     1
102
RTVSPropertyOp50
 70
     1
102
RTVSPropertyOp51
 70
     0
102
RTVSPropertyOp52
 70
     0
102
RTVSPropertyOp53
 70
     1
102
RTVSPropertyOp54
 70
     1
102
RTVSPropertyOp55
 70
     1
102
RTVSPropertyOp56
 70
     1
102
RTVSPropertyOp57
 70
     1
102
RTVSPropertyOp58
 70
     1
102
RTVSPropertyOp59
 70
     1
102
RTVSPropertyOp60
 70
     1
102
RTVSPropertyOp61
 70
     1
102
RTVSPropertyOp62
 70
     1
  0
XRECORD
  5
5D1
102
{ACAD_REACTORS
330
5D0
102
}
330
5D0
100
AcDbXrecord
280
     1
102
RTVSPost2010Prop28
280
     0
102
RTVSPost2010PropOp28
 70
     1
102
RTVSPost2010Prop29
280
     1
102
RTVSPost2010PropOp29
 70
     1
102
RTVSPost2010Prop30
280
     1
102
RTVSPost2010PropOp30
 70
     1
102
RTVSPost2010Prop31
280
     0
102
RTVSPost2010PropOp31
 70
     1
102
RTVSPost2010Prop32
280
     0
102
RTVSPost2010PropOp32
 70
     1
102
RTVSPost2010Prop33
280
     0
102
RTVSPost2010PropOp33
 70
     1
102
RTVSPost2010Prop34
280
     0
102
RTVSPost2010PropOp34
 70
     1
102
RTVSPost2010Prop35
280
     0
102
RTVSPost2010PropOp35
 70
     1
102
RTVSPost2010Prop36
280
     0
102
RTVSPost2010PropOp36
 70
     1
102
RTVSPost2010Prop37
 90
       50
102
RTVSPost2010PropOp37
 70
     1
102
RTVSPost2010Prop38
140
0.0
102
RTVSPost2010PropOp38
 70
     1
102
RTVSPost2010Prop39
140
1.0
102
RTVSPost2010PropOp39
 70
     1
102
RTVSPost2010Prop40
 90
        0
102
RTVSPost2010PropOp40
 70
     1
102
RTVSPost2010Prop41ColorIndex
 90
       18
102
RTVSPost2010Prop41ColorRGB
 90
        0
102
RTVSPost2010PropOp41
 70
     1
102
RTVSPost2010Prop42
 90
       50
102
RTVSPost2010PropOp42
 70
     1
102
RTVSPost2010Prop43
 90
        3
102
RTVSPost2010PropOp43
 70
     1
102
RTVSPost2010Prop44ColorIndex
 90
        5
102
RTVSPost2010Prop44ColorRGB
 90
      255
102
RTVSPost2010PropOp44
 70
     1
102
RTVSPost2010Prop45
280
     0
102
RTVSPost2010PropOp45
 70
     1
102
RTVSPost2010Prop46
 90
       50
102
RTVSPost2010PropOp46
 70
     1
102
RTVSPost2010Prop47
 90
       50
102
RTVSPost2010PropOp47
 70
     1
102
RTVSPost2010Prop48
 90
       50
102
RTVSPost2010PropOp48
 70
     1
102
RTVSPost2010Prop49
280
     0
102
RTVSPost2010PropOp49
 70
     1
102
RTVSPost2010Prop50
 90
       50
102
RTVSPost2010PropOp50
 70
     1
102
RTVSPost2010Prop51ColorIndex
 90
      256
102
RTVSPost2010Prop51ColorRGB
 90
-16777216
102
RTVSPost2010PropOp51
 70
     0
102
RTVSPost2010Prop52
140
1.0
102
RTVSPost2010PropOp52
 70
     0
102
RTVSPost2010Prop53
 90
        2
102
RTVSPost2010PropOp53
 70
     1
102
RTVSPost2010Prop54
  1
strokes_ogs.tif
102
RTVSPost2010PropOp54
 70
     1
102
RTVSPost2010Prop55
280
     0
102
RTVSPost2010PropOp55
 70
     1
102
RTVSPost2010Prop56
140
1.0
102
RTVSPost2010PropOp56
 70
     1
102
RTVSPost2010Prop57
140
1.0
102
RTVSPost2010PropOp57
 70
     1
102
RTVSPropertyOp0
 70
     1
102
RTVSPropertyOp1
 70
     1
102
RTVSPropertyOp2
 70
     1
102
RTVSPropertyOp3
 70
     1
102
RTVSPropertyOp4
 70
     1
102
RTVSPropertyOp5
 70
     1
102
RTVSPropertyOp6
 70
     1
102
RTVSPropertyOp7
 70
     1
102
RTVSPropertyOp8
 70
     1
102
RTVSPropertyOp9
 70
     1
102
RTVSPropertyOp10
 70
     1
102
RTVSPropertyOp11
 70
     1
102
RTVSPropertyOp12
 70
     1
102
RTVSPropertyOp13
 70
     1
102
RTVSPropertyOp14
 70
     1
102
RTVSPropertyOp15
 70
     1
102
RTVSPropertyOp16
 70
     1
102
RTVSPropertyOp17
 70
     1
102
RTVSPropertyOp18
 70
     1
102
RTVSPropertyOp19
 70
     1
102
RTVSPropertyOp20
 70
     1
102
RTVSPropertyOp21
 70
     1
102
RTVSPropertyOp22
 70
     1
102
RTVSPropertyOp23
 70
     1
102
RTVSPropertyOp24
 70
     1
102
RTVSPropertyOp25
 70
     1
102
RTVSPropertyOp26
 70
     1
102
RTVSPropertyOp27
 70
     1
102
RTVSPropertyOp28
 70
     1
102
RTVSPropertyOp29
 70
     1
102
RTVSPropertyOp30
 70
     1
102
RTVSPropertyOp31
 70
     1
102
RTVSPropertyOp32
 70
     1
102
RTVSPropertyOp33
 70
     1
102
RTVSPropertyOp34
 70
     1
102
RTVSPropertyOp35
 70
     1
102
RTVSPropertyOp36
 70
     1
102
RTVSPropertyOp37
 70
     1
102
RTVSPropertyOp38
 70
     1
102
RTVSPropertyOp39
 70
     1
102
RTVSPropertyOp40
 70
     1
102
RTVSPropertyOp41
 70
     1
102
RTVSPropertyOp42
 70
     1
102
RTVSPropertyOp43
 70
     1
102
RTVSPropertyOp44
 70
     1
102
RTVSPropertyOp45
 70
     1
102
RTVSPropertyOp46
 70
     1
102
RTVSPropertyOp47
 70
     1
102
RTVSPropertyOp48
 70
     1
102
RTVSPropertyOp49
 70
     1
102
RTVSPropertyOp50
 70
     1
102
RTVSPropertyOp51
 70
     0
102
RTVSPropertyOp52
 70
     0
102
RTVSPropertyOp53
 70
     1
102
RTVSPropertyOp54
 70
     1
102
RTVSPropertyOp55
 70
     1
102
RTVSPropertyOp56
 70
     1
102
RTVSPropertyOp57
 70
     1
102
RTVSPropertyOp58
 70
     1
102
RTVSPropertyOp59
 70
     1
102
RTVSPropertyOp60
 70
     1
102
RTVSPropertyOp61
 70
     1
102
RTVSPropertyOp62
 70
     1
  0
XRECORD
  5
5D3
102
{ACAD_REACTORS
330
5D2
102
}
330
5D2
100
AcDbXrecord
280
     1
102
RTVSPost2010Prop28
280
     0
102
RTVSPost2010PropOp28
 70
     1
102
RTVSPost2010Prop29
280
     1
102
RTVSPost2010PropOp29
 70
     1
102
RTVSPost2010Prop30
280
     1
102
RTVSPost2010PropOp30
 70
     1
102
RTVSPost2010Prop31
280
     0
102
RTVSPost2010PropOp31
 70
     1
102
RTVSPost2010Prop32
280
     0
102
RTVSPost2010PropOp32
 70
     1
102
RTVSPost2010Prop33
280
     0
102
RTVSPost2010PropOp33
 70
     1
102
RTVSPost2010Prop34
280
     0
102
RTVSPost2010PropOp34
 70
     1
102
RTVSPost2010Prop35
280
     0
102
RTVSPost2010PropOp35
 70
     1
102
RTVSPost2010Prop36
280
     0
102
RTVSPost2010PropOp36
 70
     1
102
RTVSPost2010Prop37
 90
       50
102
RTVSPost2010PropOp37
 70
     1
102
RTVSPost2010Prop38
140
0.0
102
RTVSPost2010PropOp38
 70
     1
102
RTVSPost2010Prop39
140
1.0
102
RTVSPost2010PropOp39
 70
     1
102
RTVSPost2010Prop40
 90
        0
102
RTVSPost2010PropOp40
 70
     1
102
RTVSPost2010Prop41ColorIndex
 90
       18
102
RTVSPost2010Prop41ColorRGB
 90
        0
102
RTVSPost2010PropOp41
 70
     1
102
RTVSPost2010Prop42
 90
       50
102
RTVSPost2010PropOp42
 70
     1
102
RTVSPost2010Prop43
 90
        3
102
RTVSPost2010PropOp43
 70
     1
102
RTVSPost2010Prop44ColorIndex
 90
        5
102
RTVSPost2010Prop44ColorRGB
 90
      255
102
RTVSPost2010PropOp44
 70
     1
102
RTVSPost2010Prop45
280
     0
102
RTVSPost2010PropOp45
 70
     1
102
RTVSPost2010Prop46
 90
       50
102
RTVSPost2010PropOp46
 70
     1
102
RTVSPost2010Prop47
 90
       50
102
RTVSPost2010PropOp47
 70
     1
102
RTVSPost2010Prop48
 90
       50
102
RTVSPost2010PropOp48
 70
     1
102
RTVSPost2010Prop49
280
     0
102
RTVSPost2010PropOp49
 70
     1
102
RTVSPost2010Prop50
 90
       50
102
RTVSPost2010PropOp50
 70
     1
102
RTVSPost2010Prop51ColorIndex
 90
      256
102
RTVSPost2010Prop51ColorRGB
 90
-16777216
102
RTVSPost2010PropOp51
 70
     0
102
RTVSPost2010Prop52
140
1.0
102
RTVSPost2010PropOp52
 70
     0
102
RTVSPost2010Prop53
 90
        2
102
RTVSPost2010PropOp53
 70
     1
102
RTVSPost2010Prop54
  1
strokes_ogs.tif
102
RTVSPost2010PropOp54
 70
     1
102
RTVSPost2010Prop55
280
     0
102
RTVSPost2010PropOp55
 70
     1
102
RTVSPost2010Prop56
140
1.0
102
RTVSPost2010PropOp56
 70
     1
102
RTVSPost2010Prop57
140
1.0
102
RTVSPost2010PropOp57
 70
     1
102
RTVSPropertyOp0
 70
     1
102
RTVSPropertyOp1
 70
     1
102
RTVSPropertyOp2
 70
     1
102
RTVSPropertyOp3
 70
     1
102
RTVSPropertyOp4
 70
     1
102
RTVSPropertyOp5
 70
     1
102
RTVSPropertyOp6
 70
     1
102
RTVSPropertyOp7
 70
     1
102
RTVSPropertyOp8
 70
     1
102
RTVSPropertyOp9
 70
     1
102
RTVSPropertyOp10
 70
     1
102
RTVSPropertyOp11
 70
     1
102
RTVSPropertyOp12
 70
     1
102
RTVSPropertyOp13
 70
     1
102
RTVSPropertyOp14
 70
     1
102
RTVSPropertyOp15
 70
     1
102
RTVSPropertyOp16
 70
     1
102
RTVSPropertyOp17
 70
     1
102
RTVSPropertyOp18
 70
     1
102
RTVSPropertyOp19
 70
     1
102
RTVSPropertyOp20
 70
     1
102
RTVSPropertyOp21
 70
     1
102
RTVSPropertyOp22
 70
     1
102
RTVSPropertyOp23
 70
     1
102
RTVSPropertyOp24
 70
     1
102
RTVSPropertyOp25
 70
     1
102
RTVSPropertyOp26
 70
     1
102
RTVSPropertyOp27
 70
     1
102
RTVSPropertyOp28
 70
     1
102
RTVSPropertyOp29
 70
     1
102
RTVSPropertyOp30
 70
     1
102
RTVSPropertyOp31
 70
     1
102
RTVSPropertyOp32
 70
     1
102
RTVSPropertyOp33
 70
     1
102
RTVSPropertyOp34
 70
     1
102
RTVSPropertyOp35
 70
     1
102
RTVSPropertyOp36
 70
     1
102
RTVSPropertyOp37
 70
     1
102
RTVSPropertyOp38
 70
     1
102
RTVSPropertyOp39
 70
     1
102
RTVSPropertyOp40
 70
     1
102
RTVSPropertyOp41
 70
     1
102
RTVSPropertyOp42
 70
     1
102
RTVSPropertyOp43
 70
     1
102
RTVSPropertyOp44
 70
     1
102
RTVSPropertyOp45
 70
     1
102
RTVSPropertyOp46
 70
     1
102
RTVSPropertyOp47
 70
     1
102
RTVSPropertyOp48
 70
     1
102
RTVSPropertyOp49
 70
     1
102
RTVSPropertyOp50
 70
     1
102
RTVSPropertyOp51
 70
     0
102
RTVSPropertyOp52
 70
     0
102
RTVSPropertyOp53
 70
     1
102
RTVSPropertyOp54
 70
     1
102
RTVSPropertyOp55
 70
     1
102
RTVSPropertyOp56
 70
     1
102
RTVSPropertyOp57
 70
     1
102
RTVSPropertyOp58
 70
     1
102
RTVSPropertyOp59
 70
     1
102
RTVSPropertyOp60
 70
     1
102
RTVSPropertyOp61
 70
     1
102
RTVSPropertyOp62
 70
     1
  0
XRECORD
  5
5D5
102
{ACAD_REACTORS
330
5D4
102
}
330
5D4
100
AcDbXrecord
280
     1
102
RTVSPost2010Prop28
280
     0
102
RTVSPost2010PropOp28
 70
     1
102
RTVSPost2010Prop29
280
     1
102
RTVSPost2010PropOp29
 70
     1
102
RTVSPost2010Prop30
280
     1
102
RTVSPost2010PropOp30
 70
     1
102
RTVSPost2010Prop31
280
     0
102
RTVSPost2010PropOp31
 70
     1
102
RTVSPost2010Prop32
280
     0
102
RTVSPost2010PropOp32
 70
     1
102
RTVSPost2010Prop33
280
     0
102
RTVSPost2010PropOp33
 70
     1
102
RTVSPost2010Prop34
280
     0
102
RTVSPost2010PropOp34
 70
     1
102
RTVSPost2010Prop35
280
     0
102
RTVSPost2010PropOp35
 70
     1
102
RTVSPost2010Prop36
280
     0
102
RTVSPost2010PropOp36
 70
     1
102
RTVSPost2010Prop37
 90
       50
102
RTVSPost2010PropOp37
 70
     1
102
RTVSPost2010Prop38
140
0.0
102
RTVSPost2010PropOp38
 70
     1
102
RTVSPost2010Prop39
140
1.0
102
RTVSPost2010PropOp39
 70
     1
102
RTVSPost2010Prop40
 90
        0
102
RTVSPost2010PropOp40
 70
     1
102
RTVSPost2010Prop41ColorIndex
 90
       18
102
RTVSPost2010Prop41ColorRGB
 90
        0
102
RTVSPost2010PropOp41
 70
     1
102
RTVSPost2010Prop42
 90
       50
102
RTVSPost2010PropOp42
 70
     1
102
RTVSPost2010Prop43
 90
        3
102
RTVSPost2010PropOp43
 70
     1
102
RTVSPost2010Prop44ColorIndex
 90
        5
102
RTVSPost2010Prop44ColorRGB
 90
      255
102
RTVSPost2010PropOp44
 70
     1
102
RTVSPost2010Prop45
280
     0
102
RTVSPost2010PropOp45
 70
     1
102
RTVSPost2010Prop46
 90
       50
102
RTVSPost2010PropOp46
 70
     1
102
RTVSPost2010Prop47
 90
       50
102
RTVSPost2010PropOp47
 70
     1
102
RTVSPost2010Prop48
 90
       50
102
RTVSPost2010PropOp48
 70
     1
102
RTVSPost2010Prop49
280
     0
102
RTVSPost2010PropOp49
 70
     1
102
RTVSPost2010Prop50
 90
       50
102
RTVSPost2010PropOp50
 70
     1
102
RTVSPost2010Prop51ColorIndex
 90
      256
102
RTVSPost2010Prop51ColorRGB
 90
-16777216
102
RTVSPost2010PropOp51
 70
     0
102
RTVSPost2010Prop52
140
1.0
102
RTVSPost2010PropOp52
 70
     0
102
RTVSPost2010Prop53
 90
        2
102
RTVSPost2010PropOp53
 70
     1
102
RTVSPost2010Prop54
  1
strokes_ogs.tif
102
RTVSPost2010PropOp54
 70
     1
102
RTVSPost2010Prop55
280
     0
102
RTVSPost2010PropOp55
 70
     1
102
RTVSPost2010Prop56
140
1.0
102
RTVSPost2010PropOp56
 70
     1
102
RTVSPost2010Prop57
140
1.0
102
RTVSPost2010PropOp57
 70
     1
102
RTVSPropertyOp0
 70
     1
102
RTVSPropertyOp1
 70
     1
102
RTVSPropertyOp2
 70
     1
102
RTVSPropertyOp3
 70
     1
102
RTVSPropertyOp4
 70
     1
102
RTVSPropertyOp5
 70
     1
102
RTVSPropertyOp6
 70
     1
102
RTVSPropertyOp7
 70
     1
102
RTVSPropertyOp8
 70
     1
102
RTVSPropertyOp9
 70
     1
102
RTVSPropertyOp10
 70
     1
102
RTVSPropertyOp11
 70
     1
102
RTVSPropertyOp12
 70
     1
102
RTVSPropertyOp13
 70
     1
102
RTVSPropertyOp14
 70
     1
102
RTVSPropertyOp15
 70
     1
102
RTVSPropertyOp16
 70
     1
102
RTVSPropertyOp17
 70
     1
102
RTVSPropertyOp18
 70
     1
102
RTVSPropertyOp19
 70
     1
102
RTVSPropertyOp20
 70
     1
102
RTVSPropertyOp21
 70
     1
102
RTVSPropertyOp22
 70
     1
102
RTVSPropertyOp23
 70
     1
102
RTVSPropertyOp24
 70
     1
102
RTVSPropertyOp25
 70
     1
102
RTVSPropertyOp26
 70
     1
102
RTVSPropertyOp27
 70
     1
102
RTVSPropertyOp28
 70
     1
102
RTVSPropertyOp29
 70
     1
102
RTVSPropertyOp30
 70
     1
102
RTVSPropertyOp31
 70
     1
102
RTVSPropertyOp32
 70
     1
102
RTVSPropertyOp33
 70
     1
102
RTVSPropertyOp34
 70
     1
102
RTVSPropertyOp35
 70
     1
102
RTVSPropertyOp36
 70
     1
102
RTVSPropertyOp37
 70
     1
102
RTVSPropertyOp38
 70
     1
102
RTVSPropertyOp39
 70
     1
102
RTVSPropertyOp40
 70
     1
102
RTVSPropertyOp41
 70
     1
102
RTVSPropertyOp42
 70
     1
102
RTVSPropertyOp43
 70
     1
102
RTVSPropertyOp44
 70
     1
102
RTVSPropertyOp45
 70
     1
102
RTVSPropertyOp46
 70
     1
102
RTVSPropertyOp47
 70
     1
102
RTVSPropertyOp48
 70
     1
102
RTVSPropertyOp49
 70
     1
102
RTVSPropertyOp50
 70
     1
102
RTVSPropertyOp51
 70
     0
102
RTVSPropertyOp52
 70
     0
102
RTVSPropertyOp53
 70
     1
102
RTVSPropertyOp54
 70
     1
102
RTVSPropertyOp55
 70
     1
102
RTVSPropertyOp56
 70
     1
102
RTVSPropertyOp57
 70
     1
102
RTVSPropertyOp58
 70
     1
102
RTVSPropertyOp59
 70
     1
102
RTVSPropertyOp60
 70
     1
102
RTVSPropertyOp61
 70
     1
102
RTVSPropertyOp62
 70
     1
  0
XRECORD
  5
5DD
102
{ACAD_REACTORS
330
5DC
102
}
330
5DC
100
AcDbXrecord
280
     1
102
RTVSPost2010Prop28
280
     0
102
RTVSPost2010PropOp28
 70
     1
102
RTVSPost2010Prop29
280
     1
102
RTVSPost2010PropOp29
 70
     1
102
RTVSPost2010Prop30
280
     1
102
RTVSPost2010PropOp30
 70
     1
102
RTVSPost2010Prop31
280
     0
102
RTVSPost2010PropOp31
 70
     1
102
RTVSPost2010Prop32
280
     0
102
RTVSPost2010PropOp32
 70
     1
102
RTVSPost2010Prop33
280
     0
102
RTVSPost2010PropOp33
 70
     1
102
RTVSPost2010Prop34
280
     0
102
RTVSPost2010PropOp34
 70
     1
102
RTVSPost2010Prop35
280
     0
102
RTVSPost2010PropOp35
 70
     1
102
RTVSPost2010Prop36
280
     0
102
RTVSPost2010PropOp36
 70
     1
102
RTVSPost2010Prop37
 90
       50
102
RTVSPost2010PropOp37
 70
     1
102
RTVSPost2010Prop38
140
0.0
102
RTVSPost2010PropOp38
 70
     1
102
RTVSPost2010Prop39
140
1.0
102
RTVSPost2010PropOp39
 70
     1
102
RTVSPost2010Prop40
 90
        0
102
RTVSPost2010PropOp40
 70
     1
102
RTVSPost2010Prop41ColorIndex
 90
       18
102
RTVSPost2010Prop41ColorRGB
 90
        0
102
RTVSPost2010PropOp41
 70
     1
102
RTVSPost2010Prop42
 90
       50
102
RTVSPost2010PropOp42
 70
     1
102
RTVSPost2010Prop43
 90
        3
102
RTVSPost2010PropOp43
 70
     1
102
RTVSPost2010Prop44ColorIndex
 90
        5
102
RTVSPost2010Prop44ColorRGB
 90
      255
102
RTVSPost2010PropOp44
 70
     1
102
RTVSPost2010Prop45
280
     0
102
RTVSPost2010PropOp45
 70
     1
102
RTVSPost2010Prop46
 90
       50
102
RTVSPost2010PropOp46
 70
     1
102
RTVSPost2010Prop47
 90
       50
102
RTVSPost2010PropOp47
 70
     1
102
RTVSPost2010Prop48
 90
       50
102
RTVSPost2010PropOp48
 70
     1
102
RTVSPost2010Prop49
280
     0
102
RTVSPost2010PropOp49
 70
     1
102
RTVSPost2010Prop50
 90
       50
102
RTVSPost2010PropOp50
 70
     1
102
RTVSPost2010Prop51ColorIndex
 90
      256
102
RTVSPost2010Prop51ColorRGB
 90
-16777216
102
RTVSPost2010PropOp51
 70
     0
102
RTVSPost2010Prop52
140
1.0
102
RTVSPost2010PropOp52
 70
     0
102
RTVSPost2010Prop53
 90
        2
102
RTVSPost2010PropOp53
 70
     1
102
RTVSPost2010Prop54
  1
strokes_ogs.tif
102
RTVSPost2010PropOp54
 70
     1
102
RTVSPost2010Prop55
280
     0
102
RTVSPost2010PropOp55
 70
     1
102
RTVSPost2010Prop56
140
1.0
102
RTVSPost2010PropOp56
 70
     1
102
RTVSPost2010Prop57
140
1.0
102
RTVSPost2010PropOp57
 70
     1
102
RTVSPropertyOp0
 70
     1
102
RTVSPropertyOp1
 70
     1
102
RTVSPropertyOp2
 70
     1
102
RTVSPropertyOp3
 70
     1
102
RTVSPropertyOp4
 70
     1
102
RTVSPropertyOp5
 70
     1
102
RTVSPropertyOp6
 70
     1
102
RTVSPropertyOp7
 70
     1
102
RTVSPropertyOp8
 70
     1
102
RTVSPropertyOp9
 70
     1
102
RTVSPropertyOp10
 70
     1
102
RTVSPropertyOp11
 70
     1
102
RTVSPropertyOp12
 70
     1
102
RTVSPropertyOp13
 70
     1
102
RTVSPropertyOp14
 70
     1
102
RTVSPropertyOp15
 70
     1
102
RTVSPropertyOp16
 70
     1
102
RTVSPropertyOp17
 70
     1
102
RTVSPropertyOp18
 70
     1
102
RTVSPropertyOp19
 70
     1
102
RTVSPropertyOp20
 70
     1
102
RTVSPropertyOp21
 70
     1
102
RTVSPropertyOp22
 70
     1
102
RTVSPropertyOp23
 70
     1
102
RTVSPropertyOp24
 70
     1
102
RTVSPropertyOp25
 70
     1
102
RTVSPropertyOp26
 70
     1
102
RTVSPropertyOp27
 70
     1
102
RTVSPropertyOp28
 70
     1
102
RTVSPropertyOp29
 70
     1
102
RTVSPropertyOp30
 70
     1
102
RTVSPropertyOp31
 70
     1
102
RTVSPropertyOp32
 70
     1
102
RTVSPropertyOp33
 70
     1
102
RTVSPropertyOp34
 70
     1
102
RTVSPropertyOp35
 70
     1
102
RTVSPropertyOp36
 70
     1
102
RTVSPropertyOp37
 70
     1
102
RTVSPropertyOp38
 70
     1
102
RTVSPropertyOp39
 70
     1
102
RTVSPropertyOp40
 70
     1
102
RTVSPropertyOp41
 70
     1
102
RTVSPropertyOp42
 70
     1
102
RTVSPropertyOp43
 70
     1
102
RTVSPropertyOp44
 70
     1
102
RTVSPropertyOp45
 70
     1
102
RTVSPropertyOp46
 70
     1
102
RTVSPropertyOp47
 70
     1
102
RTVSPropertyOp48
 70
     1
102
RTVSPropertyOp49
 70
     1
102
RTVSPropertyOp50
 70
     1
102
RTVSPropertyOp51
 70
     0
102
RTVSPropertyOp52
 70
     0
102
RTVSPropertyOp53
 70
     1
102
RTVSPropertyOp54
 70
     1
102
RTVSPropertyOp55
 70
     1
102
RTVSPropertyOp56
 70
     1
102
RTVSPropertyOp57
 70
     1
102
RTVSPropertyOp58
 70
     1
102
RTVSPropertyOp59
 70
     1
102
RTVSPropertyOp60
 70
     1
102
RTVSPropertyOp61
 70
     1
102
RTVSPropertyOp62
 70
     1
  0
XRECORD
  5
5F9
102
{ACAD_REACTORS
330
5F8
102
}
330
5F8
100
AcDbXrecord
280
     1
102
RTVSPost2010Prop28
280
     0
102
RTVSPost2010PropOp28
 70
     1
102
RTVSPost2010Prop29
280
     1
102
RTVSPost2010PropOp29
 70
     1
102
RTVSPost2010Prop30
280
     1
102
RTVSPost2010PropOp30
 70
     1
102
RTVSPost2010Prop31
280
     0
102
RTVSPost2010PropOp31
 70
     1
102
RTVSPost2010Prop32
280
     0
102
RTVSPost2010PropOp32
 70
     1
102
RTVSPost2010Prop33
280
     0
102
RTVSPost2010PropOp33
 70
     1
102
RTVSPost2010Prop34
280
     0
102
RTVSPost2010PropOp34
 70
     1
102
RTVSPost2010Prop35
280
     0
102
RTVSPost2010PropOp35
 70
     1
102
RTVSPost2010Prop36
280
     0
102
RTVSPost2010PropOp36
 70
     1
102
RTVSPost2010Prop37
 90
       50
102
RTVSPost2010PropOp37
 70
     0
102
RTVSPost2010Prop38
140
0.0
102
RTVSPost2010PropOp38
 70
     0
102
RTVSPost2010Prop39
140
1.0
102
RTVSPost2010PropOp39
 70
     0
102
RTVSPost2010Prop40
 90
        0
102
RTVSPost2010PropOp40
 70
     0
102
RTVSPost2010Prop41ColorIndex
 90
       18
102
RTVSPost2010Prop41ColorRGB
 90
        0
102
RTVSPost2010PropOp41
 70
     0
102
RTVSPost2010Prop42
 90
       50
102
RTVSPost2010PropOp42
 70
     0
102
RTVSPost2010Prop43
 90
        3
102
RTVSPost2010PropOp43
 70
     0
102
RTVSPost2010Prop44ColorIndex
 90
        5
102
RTVSPost2010Prop44ColorRGB
 90
      255
102
RTVSPost2010PropOp44
 70
     0
102
RTVSPost2010Prop45
280
     0
102
RTVSPost2010PropOp45
 70
     1
102
RTVSPost2010Prop46
 90
       50
102
RTVSPost2010PropOp46
 70
     0
102
RTVSPost2010Prop47
 90
       50
102
RTVSPost2010PropOp47
 70
     0
102
RTVSPost2010Prop48
 90
       50
102
RTVSPost2010PropOp48
 70
     0
102
RTVSPost2010Prop49
280
     0
102
RTVSPost2010PropOp49
 70
     1
102
RTVSPost2010Prop50
 90
       50
102
RTVSPost2010PropOp50
 70
     0
102
RTVSPost2010Prop51ColorIndex
 90
      256
102
RTVSPost2010Prop51ColorRGB
 90
-16777216
102
RTVSPost2010PropOp51
 70
     0
102
RTVSPost2010Prop52
140
1.0
102
RTVSPost2010PropOp52
 70
     0
102
RTVSPost2010Prop53
 90
        2
102
RTVSPost2010PropOp53
 70
     0
102
RTVSPost2010Prop54
  1
strokes_ogs.tif
102
RTVSPost2010PropOp54
 70
     0
102
RTVSPost2010Prop55
280
     0
102
RTVSPost2010PropOp55
 70
     1
102
RTVSPost2010Prop56
140
1.0
102
RTVSPost2010PropOp56
 70
     0
102
RTVSPost2010Prop57
140
1.0
102
RTVSPost2010PropOp57
 70
     0
102
RTVSPropertyOp0
 70
     0
102
RTVSPropertyOp1
 70
     0
102
RTVSPropertyOp2
 70
     0
102
RTVSPropertyOp3
 70
     0
102
RTVSPropertyOp4
 70
     0
102
RTVSPropertyOp5
 70
     0
102
RTVSPropertyOp6
 70
     0
102
RTVSPropertyOp7
 70
     0
102
RTVSPropertyOp8
 70
     0
102
RTVSPropertyOp9
 70
     0
102
RTVSPropertyOp10
 70
     0
102
RTVSPropertyOp11
 70
     0
102
RTVSPropertyOp12
 70
     0
102
RTVSPropertyOp13
 70
     0
102
RTVSPropertyOp14
 70
     2
102
RTVSPropertyOp15
 70
     0
102
RTVSPropertyOp16
 70
     0
102
RTVSPropertyOp17
 70
     0
102
RTVSPropertyOp18
 70
     0
102
RTVSPropertyOp19
 70
     0
102
RTVSPropertyOp20
 70
     0
102
RTVSPropertyOp21
 70
     0
102
RTVSPropertyOp22
 70
     0
102
RTVSPropertyOp23
 70
     0
102
RTVSPropertyOp24
 70
     0
102
RTVSPropertyOp25
 70
     0
102
RTVSPropertyOp26
 70
     0
102
RTVSPropertyOp27
 70
     0
102
RTVSPropertyOp28
 70
     1
102
RTVSPropertyOp29
 70
     1
102
RTVSPropertyOp30
 70
     1
102
RTVSPropertyOp31
 70
     1
102
RTVSPropertyOp32
 70
     1
102
RTVSPropertyOp33
 70
     1
102
RTVSPropertyOp34
 70
     1
102
RTVSPropertyOp35
 70
     1
102
RTVSPropertyOp36
 70
     1
102
RTVSPropertyOp37
 70
     0
102
RTVSPropertyOp38
 70
     0
102
RTVSPropertyOp39
 70
     0
102
RTVSPropertyOp40
 70
     0
102
RTVSPropertyOp41
 70
     0
102
RTVSPropertyOp42
 70
     0
102
RTVSPropertyOp43
 70
     0
102
RTVSPropertyOp44
 70
     0
102
RTVSPropertyOp45
 70
     1
102
RTVSPropertyOp46
 70
     0
102
RTVSPropertyOp47
 70
     0
102
RTVSPropertyOp48
 70
     0
102
RTVSPropertyOp49
 70
     1
102
RTVSPropertyOp50
 70
     0
102
RTVSPropertyOp51
 70
     0
102
RTVSPropertyOp52
 70
     0
102
RTVSPropertyOp53
 70
     0
102
RTVSPropertyOp54
 70
     0
102
RTVSPropertyOp55
 70
     1
102
RTVSPropertyOp56
 70
     0
102
RTVSPropertyOp57
 70
     0
102
RTVSPropertyOp58
 70
     0
102
RTVSPropertyOp59
 70
     0
102
RTVSPropertyOp60
 70
     0
102
RTVSPropertyOp61
 70
     0
102
RTVSPropertyOp62
 70
     0
  0
XRECORD
  5
5E9
102
{ACAD_REACTORS
330
5E8
102
}
330
5E8
100
AcDbXrecord
280
     1
102
RTVSPost2010Prop28
280
     0
102
RTVSPost2010PropOp28
 70
     1
102
RTVSPost2010Prop29
280
     1
102
RTVSPost2010PropOp29
 70
     1
102
RTVSPost2010Prop30
280
     1
102
RTVSPost2010PropOp30
 70
     1
102
RTVSPost2010Prop31
280
     0
102
RTVSPost2010PropOp31
 70
     1
102
RTVSPost2010Prop32
280
     0
102
RTVSPost2010PropOp32
 70
     1
102
RTVSPost2010Prop33
280
     0
102
RTVSPost2010PropOp33
 70
     1
102
RTVSPost2010Prop34
280
     0
102
RTVSPost2010PropOp34
 70
     1
102
RTVSPost2010Prop35
280
     0
102
RTVSPost2010PropOp35
 70
     1
102
RTVSPost2010Prop36
280
     0
102
RTVSPost2010PropOp36
 70
     1
102
RTVSPost2010Prop37
 90
       50
102
RTVSPost2010PropOp37
 70
     1
102
RTVSPost2010Prop38
140
0.0
102
RTVSPost2010PropOp38
 70
     1
102
RTVSPost2010Prop39
140
1.0
102
RTVSPost2010PropOp39
 70
     1
102
RTVSPost2010Prop40
 90
        0
102
RTVSPost2010PropOp40
 70
     1
102
RTVSPost2010Prop41ColorIndex
 90
       18
102
RTVSPost2010Prop41ColorRGB
 90
        0
102
RTVSPost2010PropOp41
 70
     1
102
RTVSPost2010Prop42
 90
       50
102
RTVSPost2010PropOp42
 70
     1
102
RTVSPost2010Prop43
 90
        3
102
RTVSPost2010PropOp43
 70
     1
102
RTVSPost2010Prop44ColorIndex
 90
        5
102
RTVSPost2010Prop44ColorRGB
 90
      255
102
RTVSPost2010PropOp44
 70
     1
102
RTVSPost2010Prop45
280
     0
102
RTVSPost2010PropOp45
 70
     1
102
RTVSPost2010Prop46
 90
       50
102
RTVSPost2010PropOp46
 70
     1
102
RTVSPost2010Prop47
 90
       50
102
RTVSPost2010PropOp47
 70
     1
102
RTVSPost2010Prop48
 90
       50
102
RTVSPost2010PropOp48
 70
     1
102
RTVSPost2010Prop49
280
     0
102
RTVSPost2010PropOp49
 70
     1
102
RTVSPost2010Prop50
 90
       50
102
RTVSPost2010PropOp50
 70
     1
102
RTVSPost2010Prop51ColorIndex
 90
      256
102
RTVSPost2010Prop51ColorRGB
 90
-16777216
102
RTVSPost2010PropOp51
 70
     0
102
RTVSPost2010Prop52
140
1.0
102
RTVSPost2010PropOp52
 70
     0
102
RTVSPost2010Prop53
 90
        2
102
RTVSPost2010PropOp53
 70
     1
102
RTVSPost2010Prop54
  1
strokes_ogs.tif
102
RTVSPost2010PropOp54
 70
     1
102
RTVSPost2010Prop55
280
     0
102
RTVSPost2010PropOp55
 70
     1
102
RTVSPost2010Prop56
140
1.0
102
RTVSPost2010PropOp56
 70
     1
102
RTVSPost2010Prop57
140
1.0
102
RTVSPost2010PropOp57
 70
     1
102
RTVSPropertyOp0
 70
     1
102
RTVSPropertyOp1
 70
     1
102
RTVSPropertyOp2
 70
     1
102
RTVSPropertyOp3
 70
     1
102
RTVSPropertyOp4
 70
     1
102
RTVSPropertyOp5
 70
     1
102
RTVSPropertyOp6
 70
     1
102
RTVSPropertyOp7
 70
     1
102
RTVSPropertyOp8
 70
     1
102
RTVSPropertyOp9
 70
     1
102
RTVSPropertyOp10
 70
     1
102
RTVSPropertyOp11
 70
     1
102
RTVSPropertyOp12
 70
     1
102
RTVSPropertyOp13
 70
     1
102
RTVSPropertyOp14
 70
     1
102
RTVSPropertyOp15
 70
     1
102
RTVSPropertyOp16
 70
     1
102
RTVSPropertyOp17
 70
     1
102
RTVSPropertyOp18
 70
     1
102
RTVSPropertyOp19
 70
     1
102
RTVSPropertyOp20
 70
     1
102
RTVSPropertyOp21
 70
     1
102
RTVSPropertyOp22
 70
     1
102
RTVSPropertyOp23
 70
     1
102
RTVSPropertyOp24
 70
     1
102
RTVSPropertyOp25
 70
     1
102
RTVSPropertyOp26
 70
     1
102
RTVSPropertyOp27
 70
     1
102
RTVSPropertyOp28
 70
     1
102
RTVSPropertyOp29
 70
     1
102
RTVSPropertyOp30
 70
     1
102
RTVSPropertyOp31
 70
     1
102
RTVSPropertyOp32
 70
     1
102
RTVSPropertyOp33
 70
     1
102
RTVSPropertyOp34
 70
     1
102
RTVSPropertyOp35
 70
     1
102
RTVSPropertyOp36
 70
     1
102
RTVSPropertyOp37
 70
     1
102
RTVSPropertyOp38
 70
     1
102
RTVSPropertyOp39
 70
     1
102
RTVSPropertyOp40
 70
     1
102
RTVSPropertyOp41
 70
     1
102
RTVSPropertyOp42
 70
     1
102
RTVSPropertyOp43
 70
     1
102
RTVSPropertyOp44
 70
     1
102
RTVSPropertyOp45
 70
     1
102
RTVSPropertyOp46
 70
     1
102
RTVSPropertyOp47
 70
     1
102
RTVSPropertyOp48
 70
     1
102
RTVSPropertyOp49
 70
     1
102
RTVSPropertyOp50
 70
     1
102
RTVSPropertyOp51
 70
     0
102
RTVSPropertyOp52
 70
     0
102
RTVSPropertyOp53
 70
     1
102
RTVSPropertyOp54
 70
     1
102
RTVSPropertyOp55
 70
     1
102
RTVSPropertyOp56
 70
     1
102
RTVSPropertyOp57
 70
     1
102
RTVSPropertyOp58
 70
     1
102
RTVSPropertyOp59
 70
     1
102
RTVSPropertyOp60
 70
     1
102
RTVSPropertyOp61
 70
     1
102
RTVSPropertyOp62
 70
     1
  0
XRECORD
  5
5FB
102
{ACAD_REACTORS
330
5FA
102
}
330
5FA
100
AcDbXrecord
280
     1
102
RTVSPost2010Prop28
280
     0
102
RTVSPost2010PropOp28
 70
     1
102
RTVSPost2010Prop29
280
     1
102
RTVSPost2010PropOp29
 70
     1
102
RTVSPost2010Prop30
280
     1
102
RTVSPost2010PropOp30
 70
     1
102
RTVSPost2010Prop31
280
     0
102
RTVSPost2010PropOp31
 70
     1
102
RTVSPost2010Prop32
280
     0
102
RTVSPost2010PropOp32
 70
     1
102
RTVSPost2010Prop33
280
     0
102
RTVSPost2010PropOp33
 70
     1
102
RTVSPost2010Prop34
280
     0
102
RTVSPost2010PropOp34
 70
     1
102
RTVSPost2010Prop35
280
     0
102
RTVSPost2010PropOp35
 70
     1
102
RTVSPost2010Prop36
280
     0
102
RTVSPost2010PropOp36
 70
     1
102
RTVSPost2010Prop37
 90
       50
102
RTVSPost2010PropOp37
 70
     0
102
RTVSPost2010Prop38
140
0.0
102
RTVSPost2010PropOp38
 70
     0
102
RTVSPost2010Prop39
140
1.0
102
RTVSPost2010PropOp39
 70
     0
102
RTVSPost2010Prop40
 90
        0
102
RTVSPost2010PropOp40
 70
     0
102
RTVSPost2010Prop41ColorIndex
 90
       18
102
RTVSPost2010Prop41ColorRGB
 90
        0
102
RTVSPost2010PropOp41
 70
     0
102
RTVSPost2010Prop42
 90
       50
102
RTVSPost2010PropOp42
 70
     0
102
RTVSPost2010Prop43
 90
        3
102
RTVSPost2010PropOp43
 70
     0
102
RTVSPost2010Prop44ColorIndex
 90
        5
102
RTVSPost2010Prop44ColorRGB
 90
      255
102
RTVSPost2010PropOp44
 70
     0
102
RTVSPost2010Prop45
280
     0
102
RTVSPost2010PropOp45
 70
     1
102
RTVSPost2010Prop46
 90
       50
102
RTVSPost2010PropOp46
 70
     0
102
RTVSPost2010Prop47
 90
       50
102
RTVSPost2010PropOp47
 70
     0
102
RTVSPost2010Prop48
 90
       50
102
RTVSPost2010PropOp48
 70
     0
102
RTVSPost2010Prop49
280
     0
102
RTVSPost2010PropOp49
 70
     1
102
RTVSPost2010Prop50
 90
       50
102
RTVSPost2010PropOp50
 70
     0
102
RTVSPost2010Prop51ColorIndex
 90
      256
102
RTVSPost2010Prop51ColorRGB
 90
-16777216
102
RTVSPost2010PropOp51
 70
     0
102
RTVSPost2010Prop52
140
1.0
102
RTVSPost2010PropOp52
 70
     0
102
RTVSPost2010Prop53
 90
        2
102
RTVSPost2010PropOp53
 70
     0
102
RTVSPost2010Prop54
  1
strokes_ogs.tif
102
RTVSPost2010PropOp54
 70
     0
102
RTVSPost2010Prop55
280
     0
102
RTVSPost2010PropOp55
 70
     1
102
RTVSPost2010Prop56
140
1.0
102
RTVSPost2010PropOp56
 70
     0
102
RTVSPost2010Prop57
140
1.0
102
RTVSPost2010PropOp57
 70
     0
102
RTVSPropertyOp0
 70
     0
102
RTVSPropertyOp1
 70
     0
102
RTVSPropertyOp2
 70
     0
102
RTVSPropertyOp3
 70
     0
102
RTVSPropertyOp4
 70
     0
102
RTVSPropertyOp5
 70
     0
102
RTVSPropertyOp6
 70
     0
102
RTVSPropertyOp7
 70
     0
102
RTVSPropertyOp8
 70
     0
102
RTVSPropertyOp9
 70
     0
102
RTVSPropertyOp10
 70
     0
102
RTVSPropertyOp11
 70
     0
102
RTVSPropertyOp12
 70
     0
102
RTVSPropertyOp13
 70
     0
102
RTVSPropertyOp14
 70
     2
102
RTVSPropertyOp15
 70
     0
102
RTVSPropertyOp16
 70
     0
102
RTVSPropertyOp17
 70
     0
102
RTVSPropertyOp18
 70
     0
102
RTVSPropertyOp19
 70
     0
102
RTVSPropertyOp20
 70
     0
102
RTVSPropertyOp21
 70
     0
102
RTVSPropertyOp22
 70
     0
102
RTVSPropertyOp23
 70
     0
102
RTVSPropertyOp24
 70
     0
102
RTVSPropertyOp25
 70
     0
102
RTVSPropertyOp26
 70
     0
102
RTVSPropertyOp27
 70
     0
102
RTVSPropertyOp28
 70
     1
102
RTVSPropertyOp29
 70
     1
102
RTVSPropertyOp30
 70
     1
102
RTVSPropertyOp31
 70
     1
102
RTVSPropertyOp32
 70
     1
102
RTVSPropertyOp33
 70
     1
102
RTVSPropertyOp34
 70
     1
102
RTVSPropertyOp35
 70
     1
102
RTVSPropertyOp36
 70
     1
102
RTVSPropertyOp37
 70
     0
102
RTVSPropertyOp38
 70
     0
102
RTVSPropertyOp39
 70
     0
102
RTVSPropertyOp40
 70
     0
102
RTVSPropertyOp41
 70
     0
102
RTVSPropertyOp42
 70
     0
102
RTVSPropertyOp43
 70
     0
102
RTVSPropertyOp44
 70
     0
102
RTVSPropertyOp45
 70
     1
102
RTVSPropertyOp46
 70
     0
102
RTVSPropertyOp47
 70
     0
102
RTVSPropertyOp48
 70
     0
102
RTVSPropertyOp49
 70
     1
102
RTVSPropertyOp50
 70
     0
102
RTVSPropertyOp51
 70
     0
102
RTVSPropertyOp52
 70
     0
102
RTVSPropertyOp53
 70
     0
102
RTVSPropertyOp54
 70
     0
102
RTVSPropertyOp55
 70
     1
102
RTVSPropertyOp56
 70
     0
102
RTVSPropertyOp57
 70
     0
102
RTVSPropertyOp58
 70
     0
102
RTVSPropertyOp59
 70
     0
102
RTVSPropertyOp60
 70
     0
102
RTVSPropertyOp61
 70
     0
102
RTVSPropertyOp62
 70
     0
  0
XRECORD
  5
5E1
102
{ACAD_REACTORS
330
5E0
102
}
330
5E0
100
AcDbXrecord
280
     1
102
RTVSPost2010Prop28
280
     0
102
RTVSPost2010PropOp28
 70
     1
102
RTVSPost2010Prop29
280
     1
102
RTVSPost2010PropOp29
 70
     1
102
RTVSPost2010Prop30
280
     1
102
RTVSPost2010PropOp30
 70
     1
102
RTVSPost2010Prop31
280
     0
102
RTVSPost2010PropOp31
 70
     1
102
RTVSPost2010Prop32
280
     0
102
RTVSPost2010PropOp32
 70
     1
102
RTVSPost2010Prop33
280
     0
102
RTVSPost2010PropOp33
 70
     1
102
RTVSPost2010Prop34
280
     0
102
RTVSPost2010PropOp34
 70
     1
102
RTVSPost2010Prop35
280
     0
102
RTVSPost2010PropOp35
 70
     1
102
RTVSPost2010Prop36
280
     0
102
RTVSPost2010PropOp36
 70
     1
102
RTVSPost2010Prop37
 90
       50
102
RTVSPost2010PropOp37
 70
     1
102
RTVSPost2010Prop38
140
0.0
102
RTVSPost2010PropOp38
 70
     1
102
RTVSPost2010Prop39
140
1.0
102
RTVSPost2010PropOp39
 70
     1
102
RTVSPost2010Prop40
 90
        0
102
RTVSPost2010PropOp40
 70
     1
102
RTVSPost2010Prop41ColorIndex
 90
       18
102
RTVSPost2010Prop41ColorRGB
 90
        0
102
RTVSPost2010PropOp41
 70
     1
102
RTVSPost2010Prop42
 90
       50
102
RTVSPost2010PropOp42
 70
     1
102
RTVSPost2010Prop43
 90
        3
102
RTVSPost2010PropOp43
 70
     1
102
RTVSPost2010Prop44ColorIndex
 90
        5
102
RTVSPost2010Prop44ColorRGB
 90
      255
102
RTVSPost2010PropOp44
 70
     1
102
RTVSPost2010Prop45
280
     0
102
RTVSPost2010PropOp45
 70
     1
102
RTVSPost2010Prop46
 90
       50
102
RTVSPost2010PropOp46
 70
     1
102
RTVSPost2010Prop47
 90
       50
102
RTVSPost2010PropOp47
 70
     1
102
RTVSPost2010Prop48
 90
       50
102
RTVSPost2010PropOp48
 70
     1
102
RTVSPost2010Prop49
280
     0
102
RTVSPost2010PropOp49
 70
     1
102
RTVSPost2010Prop50
 90
       50
102
RTVSPost2010PropOp50
 70
     1
102
RTVSPost2010Prop51ColorIndex
 90
      256
102
RTVSPost2010Prop51ColorRGB
 90
-16777216
102
RTVSPost2010PropOp51
 70
     0
102
RTVSPost2010Prop52
140
1.0
102
RTVSPost2010PropOp52
 70
     0
102
RTVSPost2010Prop53
 90
        2
102
RTVSPost2010PropOp53
 70
     1
102
RTVSPost2010Prop54
  1
strokes_ogs.tif
102
RTVSPost2010PropOp54
 70
     1
102
RTVSPost2010Prop55
280
     0
102
RTVSPost2010PropOp55
 70
     1
102
RTVSPost2010Prop56
140
1.0
102
RTVSPost2010PropOp56
 70
     1
102
RTVSPost2010Prop57
140
1.0
102
RTVSPost2010PropOp57
 70
     1
102
RTVSPropertyOp0
 70
     1
102
RTVSPropertyOp1
 70
     1
102
RTVSPropertyOp2
 70
     1
102
RTVSPropertyOp3
 70
     1
102
RTVSPropertyOp4
 70
     1
102
RTVSPropertyOp5
 70
     1
102
RTVSPropertyOp6
 70
     1
102
RTVSPropertyOp7
 70
     1
102
RTVSPropertyOp8
 70
     1
102
RTVSPropertyOp9
 70
     1
102
RTVSPropertyOp10
 70
     1
102
RTVSPropertyOp11
 70
     1
102
RTVSPropertyOp12
 70
     1
102
RTVSPropertyOp13
 70
     1
102
RTVSPropertyOp14
 70
     1
102
RTVSPropertyOp15
 70
     1
102
RTVSPropertyOp16
 70
     1
102
RTVSPropertyOp17
 70
     1
102
RTVSPropertyOp18
 70
     1
102
RTVSPropertyOp19
 70
     1
102
RTVSPropertyOp20
 70
     1
102
RTVSPropertyOp21
 70
     1
102
RTVSPropertyOp22
 70
     1
102
RTVSPropertyOp23
 70
     1
102
RTVSPropertyOp24
 70
     1
102
RTVSPropertyOp25
 70
     1
102
RTVSPropertyOp26
 70
     1
102
RTVSPropertyOp27
 70
     1
102
RTVSPropertyOp28
 70
     1
102
RTVSPropertyOp29
 70
     1
102
RTVSPropertyOp30
 70
     1
102
RTVSPropertyOp31
 70
     1
102
RTVSPropertyOp32
 70
     1
102
RTVSPropertyOp33
 70
     1
102
RTVSPropertyOp34
 70
     1
102
RTVSPropertyOp35
 70
     1
102
RTVSPropertyOp36
 70
     1
102
RTVSPropertyOp37
 70
     1
102
RTVSPropertyOp38
 70
     1
102
RTVSPropertyOp39
 70
     1
102
RTVSPropertyOp40
 70
     1
102
RTVSPropertyOp41
 70
     1
102
RTVSPropertyOp42
 70
     1
102
RTVSPropertyOp43
 70
     1
102
RTVSPropertyOp44
 70
     1
102
RTVSPropertyOp45
 70
     1
102
RTVSPropertyOp46
 70
     1
102
RTVSPropertyOp47
 70
     1
102
RTVSPropertyOp48
 70
     1
102
RTVSPropertyOp49
 70
     1
102
RTVSPropertyOp50
 70
     1
102
RTVSPropertyOp51
 70
     0
102
RTVSPropertyOp52
 70
     0
102
RTVSPropertyOp53
 70
     1
102
RTVSPropertyOp54
 70
     1
102
RTVSPropertyOp55
 70
     1
102
RTVSPropertyOp56
 70
     1
102
RTVSPropertyOp57
 70
     1
102
RTVSPropertyOp58
 70
     1
102
RTVSPropertyOp59
 70
     1
102
RTVSPropertyOp60
 70
     1
102
RTVSPropertyOp61
 70
     1
102
RTVSPropertyOp62
 70
     1
  0
XRECORD
  5
5F7
102
{ACAD_REACTORS
330
5F6
102
}
330
5F6
100
AcDbXrecord
280
     1
102
RTVSPost2010Prop28
280
     0
102
RTVSPost2010PropOp28
 70
     1
102
RTVSPost2010Prop29
280
     1
102
RTVSPost2010PropOp29
 70
     1
102
RTVSPost2010Prop30
280
     1
102
RTVSPost2010PropOp30
 70
     1
102
RTVSPost2010Prop31
280
     0
102
RTVSPost2010PropOp31
 70
     1
102
RTVSPost2010Prop32
280
     0
102
RTVSPost2010PropOp32
 70
     1
102
RTVSPost2010Prop33
280
     0
102
RTVSPost2010PropOp33
 70
     1
102
RTVSPost2010Prop34
280
     0
102
RTVSPost2010PropOp34
 70
     1
102
RTVSPost2010Prop35
280
     0
102
RTVSPost2010PropOp35
 70
     1
102
RTVSPost2010Prop36
280
     0
102
RTVSPost2010PropOp36
 70
     1
102
RTVSPost2010Prop37
 90
       50
102
RTVSPost2010PropOp37
 70
     1
102
RTVSPost2010Prop38
140
0.0
102
RTVSPost2010PropOp38
 70
     1
102
RTVSPost2010Prop39
140
1.0
102
RTVSPost2010PropOp39
 70
     1
102
RTVSPost2010Prop40
 90
        0
102
RTVSPost2010PropOp40
 70
     1
102
RTVSPost2010Prop41ColorIndex
 90
       18
102
RTVSPost2010Prop41ColorRGB
 90
        0
102
RTVSPost2010PropOp41
 70
     1
102
RTVSPost2010Prop42
 90
       50
102
RTVSPost2010PropOp42
 70
     1
102
RTVSPost2010Prop43
 90
        3
102
RTVSPost2010PropOp43
 70
     1
102
RTVSPost2010Prop44ColorIndex
 90
        5
102
RTVSPost2010Prop44ColorRGB
 90
      255
102
RTVSPost2010PropOp44
 70
     1
102
RTVSPost2010Prop45
280
     0
102
RTVSPost2010PropOp45
 70
     1
102
RTVSPost2010Prop46
 90
       50
102
RTVSPost2010PropOp46
 70
     1
102
RTVSPost2010Prop47
 90
       50
102
RTVSPost2010PropOp47
 70
     1
102
RTVSPost2010Prop48
 90
       50
102
RTVSPost2010PropOp48
 70
     1
102
RTVSPost2010Prop49
280
     0
102
RTVSPost2010PropOp49
 70
     1
102
RTVSPost2010Prop50
 90
       50
102
RTVSPost2010PropOp50
 70
     1
102
RTVSPost2010Prop51ColorIndex
 90
      256
102
RTVSPost2010Prop51ColorRGB
 90
-16777216
102
RTVSPost2010PropOp51
 70
     0
102
RTVSPost2010Prop52
140
1.0
102
RTVSPost2010PropOp52
 70
     0
102
RTVSPost2010Prop53
 90
        2
102
RTVSPost2010PropOp53
 70
     1
102
RTVSPost2010Prop54
  1
strokes_ogs.tif
102
RTVSPost2010PropOp54
 70
     1
102
RTVSPost2010Prop55
280
     0
102
RTVSPost2010PropOp55
 70
     1
102
RTVSPost2010Prop56
140
1.0
102
RTVSPost2010PropOp56
 70
     1
102
RTVSPost2010Prop57
140
1.0
102
RTVSPost2010PropOp57
 70
     1
102
RTVSPropertyOp0
 70
     1
102
RTVSPropertyOp1
 70
     1
102
RTVSPropertyOp2
 70
     1
102
RTVSPropertyOp3
 70
     1
102
RTVSPropertyOp4
 70
     1
102
RTVSPropertyOp5
 70
     1
102
RTVSPropertyOp6
 70
     1
102
RTVSPropertyOp7
 70
     1
102
RTVSPropertyOp8
 70
     1
102
RTVSPropertyOp9
 70
     1
102
RTVSPropertyOp10
 70
     1
102
RTVSPropertyOp11
 70
     1
102
RTVSPropertyOp12
 70
     1
102
RTVSPropertyOp13
 70
     1
102
RTVSPropertyOp14
 70
     1
102
RTVSPropertyOp15
 70
     1
102
RTVSPropertyOp16
 70
     1
102
RTVSPropertyOp17
 70
     1
102
RTVSPropertyOp18
 70
     1
102
RTVSPropertyOp19
 70
     1
102
RTVSPropertyOp20
 70
     1
102
RTVSPropertyOp21
 70
     1
102
RTVSPropertyOp22
 70
     1
102
RTVSPropertyOp23
 70
     1
102
RTVSPropertyOp24
 70
     1
102
RTVSPropertyOp25
 70
     1
102
RTVSPropertyOp26
 70
     1
102
RTVSPropertyOp27
 70
     1
102
RTVSPropertyOp28
 70
     1
102
RTVSPropertyOp29
 70
     1
102
RTVSPropertyOp30
 70
     1
102
RTVSPropertyOp31
 70
     1
102
RTVSPropertyOp32
 70
     1
102
RTVSPropertyOp33
 70
     1
102
RTVSPropertyOp34
 70
     1
102
RTVSPropertyOp35
 70
     1
102
RTVSPropertyOp36
 70
     1
102
RTVSPropertyOp37
 70
     1
102
RTVSPropertyOp38
 70
     1
102
RTVSPropertyOp39
 70
     1
102
RTVSPropertyOp40
 70
     1
102
RTVSPropertyOp41
 70
     1
102
RTVSPropertyOp42
 70
     1
102
RTVSPropertyOp43
 70
     1
102
RTVSPropertyOp44
 70
     1
102
RTVSPropertyOp45
 70
     1
102
RTVSPropertyOp46
 70
     1
102
RTVSPropertyOp47
 70
     1
102
RTVSPropertyOp48
 70
     1
102
RTVSPropertyOp49
 70
     1
102
RTVSPropertyOp50
 70
     1
102
RTVSPropertyOp51
 70
     0
102
RTVSPropertyOp52
 70
     0
102
RTVSPropertyOp53
 70
     1
102
RTVSPropertyOp54
 70
     1
102
RTVSPropertyOp55
 70
     1
102
RTVSPropertyOp56
 70
     1
102
RTVSPropertyOp57
 70
     1
102
RTVSPropertyOp58
 70
     1
102
RTVSPropertyOp59
 70
     1
102
RTVSPropertyOp60
 70
     1
102
RTVSPropertyOp61
 70
     1
102
RTVSPropertyOp62
 70
     1
  0
XRECORD
  5
5F5
102
{ACAD_REACTORS
330
5F4
102
}
330
5F4
100
AcDbXrecord
280
     1
102
RTVSPost2010Prop28
280
     0
102
RTVSPost2010PropOp28
 70
     1
102
RTVSPost2010Prop29
280
     1
102
RTVSPost2010PropOp29
 70
     1
102
RTVSPost2010Prop30
280
     1
102
RTVSPost2010PropOp30
 70
     1
102
RTVSPost2010Prop31
280
     0
102
RTVSPost2010PropOp31
 70
     1
102
RTVSPost2010Prop32
280
     0
102
RTVSPost2010PropOp32
 70
     1
102
RTVSPost2010Prop33
280
     0
102
RTVSPost2010PropOp33
 70
     1
102
RTVSPost2010Prop34
280
     0
102
RTVSPost2010PropOp34
 70
     1
102
RTVSPost2010Prop35
280
     0
102
RTVSPost2010PropOp35
 70
     1
102
RTVSPost2010Prop36
280
     0
102
RTVSPost2010PropOp36
 70
     1
102
RTVSPost2010Prop37
 90
       50
102
RTVSPost2010PropOp37
 70
     1
102
RTVSPost2010Prop38
140
0.0
102
RTVSPost2010PropOp38
 70
     1
102
RTVSPost2010Prop39
140
1.0
102
RTVSPost2010PropOp39
 70
     1
102
RTVSPost2010Prop40
 90
        0
102
RTVSPost2010PropOp40
 70
     1
102
RTVSPost2010Prop41ColorIndex
 90
       18
102
RTVSPost2010Prop41ColorRGB
 90
        0
102
RTVSPost2010PropOp41
 70
     1
102
RTVSPost2010Prop42
 90
       50
102
RTVSPost2010PropOp42
 70
     1
102
RTVSPost2010Prop43
 90
        3
102
RTVSPost2010PropOp43
 70
     1
102
RTVSPost2010Prop44ColorIndex
 90
        5
102
RTVSPost2010Prop44ColorRGB
 90
      255
102
RTVSPost2010PropOp44
 70
     1
102
RTVSPost2010Prop45
280
     0
102
RTVSPost2010PropOp45
 70
     1
102
RTVSPost2010Prop46
 90
       50
102
RTVSPost2010PropOp46
 70
     1
102
RTVSPost2010Prop47
 90
       50
102
RTVSPost2010PropOp47
 70
     1
102
RTVSPost2010Prop48
 90
       50
102
RTVSPost2010PropOp48
 70
     1
102
RTVSPost2010Prop49
280
     0
102
RTVSPost2010PropOp49
 70
     1
102
RTVSPost2010Prop50
 90
       50
102
RTVSPost2010PropOp50
 70
     1
102
RTVSPost2010Prop51ColorIndex
 90
      256
102
RTVSPost2010Prop51ColorRGB
 90
-16777216
102
RTVSPost2010PropOp51
 70
     0
102
RTVSPost2010Prop52
140
1.0
102
RTVSPost2010PropOp52
 70
     0
102
RTVSPost2010Prop53
 90
        2
102
RTVSPost2010PropOp53
 70
     1
102
RTVSPost2010Prop54
  1
strokes_ogs.tif
102
RTVSPost2010PropOp54
 70
     1
102
RTVSPost2010Prop55
280
     0
102
RTVSPost2010PropOp55
 70
     1
102
RTVSPost2010Prop56
140
1.0
102
RTVSPost2010PropOp56
 70
     1
102
RTVSPost2010Prop57
140
1.0
102
RTVSPost2010PropOp57
 70
     1
102
RTVSPropertyOp0
 70
     1
102
RTVSPropertyOp1
 70
     1
102
RTVSPropertyOp2
 70
     1
102
RTVSPropertyOp3
 70
     1
102
RTVSPropertyOp4
 70
     1
102
RTVSPropertyOp5
 70
     1
102
RTVSPropertyOp6
 70
     1
102
RTVSPropertyOp7
 70
     1
102
RTVSPropertyOp8
 70
     1
102
RTVSPropertyOp9
 70
     1
102
RTVSPropertyOp10
 70
     1
102
RTVSPropertyOp11
 70
     1
102
RTVSPropertyOp12
 70
     1
102
RTVSPropertyOp13
 70
     1
102
RTVSPropertyOp14
 70
     1
102
RTVSPropertyOp15
 70
     1
102
RTVSPropertyOp16
 70
     1
102
RTVSPropertyOp17
 70
     1
102
RTVSPropertyOp18
 70
     1
102
RTVSPropertyOp19
 70
     1
102
RTVSPropertyOp20
 70
     1
102
RTVSPropertyOp21
 70
     1
102
RTVSPropertyOp22
 70
     1
102
RTVSPropertyOp23
 70
     1
102
RTVSPropertyOp24
 70
     1
102
RTVSPropertyOp25
 70
     1
102
RTVSPropertyOp26
 70
     1
102
RTVSPropertyOp27
 70
     1
102
RTVSPropertyOp28
 70
     1
102
RTVSPropertyOp29
 70
     1
102
RTVSPropertyOp30
 70
     1
102
RTVSPropertyOp31
 70
     1
102
RTVSPropertyOp32
 70
     1
102
RTVSPropertyOp33
 70
     1
102
RTVSPropertyOp34
 70
     1
102
RTVSPropertyOp35
 70
     1
102
RTVSPropertyOp36
 70
     1
102
RTVSPropertyOp37
 70
     1
102
RTVSPropertyOp38
 70
     1
102
RTVSPropertyOp39
 70
     1
102
RTVSPropertyOp40
 70
     1
102
RTVSPropertyOp41
 70
     1
102
RTVSPropertyOp42
 70
     1
102
RTVSPropertyOp43
 70
     1
102
RTVSPropertyOp44
 70
     1
102
RTVSPropertyOp45
 70
     1
102
RTVSPropertyOp46
 70
     1
102
RTVSPropertyOp47
 70
     1
102
RTVSPropertyOp48
 70
     1
102
RTVSPropertyOp49
 70
     1
102
RTVSPropertyOp50
 70
     1
102
RTVSPropertyOp51
 70
     0
102
RTVSPropertyOp52
 70
     0
102
RTVSPropertyOp53
 70
     1
102
RTVSPropertyOp54
 70
     1
102
RTVSPropertyOp55
 70
     1
102
RTVSPropertyOp56
 70
     1
102
RTVSPropertyOp57
 70
     1
102
RTVSPropertyOp58
 70
     1
102
RTVSPropertyOp59
 70
     1
102
RTVSPropertyOp60
 70
     1
102
RTVSPropertyOp61
 70
     1
102
RTVSPropertyOp62
 70
     1
  0
XRECORD
  5
5EF
102
{ACAD_REACTORS
330
5EE
102
}
330
5EE
100
AcDbXrecord
280
     1
102
RTVSPost2010Prop28
280
     0
102
RTVSPost2010PropOp28
 70
     1
102
RTVSPost2010Prop29
280
     1
102
RTVSPost2010PropOp29
 70
     1
102
RTVSPost2010Prop30
280
     1
102
RTVSPost2010PropOp30
 70
     1
102
RTVSPost2010Prop31
280
     0
102
RTVSPost2010PropOp31
 70
     1
102
RTVSPost2010Prop32
280
     0
102
RTVSPost2010PropOp32
 70
     1
102
RTVSPost2010Prop33
280
     0
102
RTVSPost2010PropOp33
 70
     1
102
RTVSPost2010Prop34
280
     0
102
RTVSPost2010PropOp34
 70
     1
102
RTVSPost2010Prop35
280
     0
102
RTVSPost2010PropOp35
 70
     1
102
RTVSPost2010Prop36
280
     0
102
RTVSPost2010PropOp36
 70
     1
102
RTVSPost2010Prop37
 90
       50
102
RTVSPost2010PropOp37
 70
     1
102
RTVSPost2010Prop38
140
0.0
102
RTVSPost2010PropOp38
 70
     1
102
RTVSPost2010Prop39
140
1.0
102
RTVSPost2010PropOp39
 70
     1
102
RTVSPost2010Prop40
 90
        0
102
RTVSPost2010PropOp40
 70
     1
102
RTVSPost2010Prop41ColorIndex
 90
       18
102
RTVSPost2010Prop41ColorRGB
 90
        0
102
RTVSPost2010PropOp41
 70
     1
102
RTVSPost2010Prop42
 90
       50
102
RTVSPost2010PropOp42
 70
     1
102
RTVSPost2010Prop43
 90
        3
102
RTVSPost2010PropOp43
 70
     1
102
RTVSPost2010Prop44ColorIndex
 90
        5
102
RTVSPost2010Prop44ColorRGB
 90
      255
102
RTVSPost2010PropOp44
 70
     1
102
RTVSPost2010Prop45
280
     0
102
RTVSPost2010PropOp45
 70
     1
102
RTVSPost2010Prop46
 90
       50
102
RTVSPost2010PropOp46
 70
     1
102
RTVSPost2010Prop47
 90
       50
102
RTVSPost2010PropOp47
 70
     1
102
RTVSPost2010Prop48
 90
       50
102
RTVSPost2010PropOp48
 70
     1
102
RTVSPost2010Prop49
280
     0
102
RTVSPost2010PropOp49
 70
     1
102
RTVSPost2010Prop50
 90
       50
102
RTVSPost2010PropOp50
 70
     1
102
RTVSPost2010Prop51ColorIndex
 90
      256
102
RTVSPost2010Prop51ColorRGB
 90
-16777216
102
RTVSPost2010PropOp51
 70
     0
102
RTVSPost2010Prop52
140
1.0
102
RTVSPost2010PropOp52
 70
     0
102
RTVSPost2010Prop53
 90
        2
102
RTVSPost2010PropOp53
 70
     1
102
RTVSPost2010Prop54
  1
strokes_ogs.tif
102
RTVSPost2010PropOp54
 70
     1
102
RTVSPost2010Prop55
280
     0
102
RTVSPost2010PropOp55
 70
     1
102
RTVSPost2010Prop56
140
1.0
102
RTVSPost2010PropOp56
 70
     1
102
RTVSPost2010Prop57
140
1.0
102
RTVSPost2010PropOp57
 70
     1
102
RTVSPropertyOp0
 70
     1
102
RTVSPropertyOp1
 70
     1
102
RTVSPropertyOp2
 70
     1
102
RTVSPropertyOp3
 70
     1
102
RTVSPropertyOp4
 70
     1
102
RTVSPropertyOp5
 70
     1
102
RTVSPropertyOp6
 70
     1
102
RTVSPropertyOp7
 70
     1
102
RTVSPropertyOp8
 70
     1
102
RTVSPropertyOp9
 70
     1
102
RTVSPropertyOp10
 70
     1
102
RTVSPropertyOp11
 70
     1
102
RTVSPropertyOp12
 70
     1
102
RTVSPropertyOp13
 70
     1
102
RTVSPropertyOp14
 70
     1
102
RTVSPropertyOp15
 70
     1
102
RTVSPropertyOp16
 70
     1
102
RTVSPropertyOp17
 70
     1
102
RTVSPropertyOp18
 70
     1
102
RTVSPropertyOp19
 70
     1
102
RTVSPropertyOp20
 70
     1
102
RTVSPropertyOp21
 70
     1
102
RTVSPropertyOp22
 70
     1
102
RTVSPropertyOp23
 70
     1
102
RTVSPropertyOp24
 70
     1
102
RTVSPropertyOp25
 70
     1
102
RTVSPropertyOp26
 70
     1
102
RTVSPropertyOp27
 70
     1
102
RTVSPropertyOp28
 70
     1
102
RTVSPropertyOp29
 70
     1
102
RTVSPropertyOp30
 70
     1
102
RTVSPropertyOp31
 70
     1
102
RTVSPropertyOp32
 70
     1
102
RTVSPropertyOp33
 70
     1
102
RTVSPropertyOp34
 70
     1
102
RTVSPropertyOp35
 70
     1
102
RTVSPropertyOp36
 70
     1
102
RTVSPropertyOp37
 70
     1
102
RTVSPropertyOp38
 70
     1
102
RTVSPropertyOp39
 70
     1
102
RTVSPropertyOp40
 70
     1
102
RTVSPropertyOp41
 70
     1
102
RTVSPropertyOp42
 70
     1
102
RTVSPropertyOp43
 70
     1
102
RTVSPropertyOp44
 70
     1
102
RTVSPropertyOp45
 70
     1
102
RTVSPropertyOp46
 70
     1
102
RTVSPropertyOp47
 70
     1
102
RTVSPropertyOp48
 70
     1
102
RTVSPropertyOp49
 70
     1
102
RTVSPropertyOp50
 70
     1
102
RTVSPropertyOp51
 70
     0
102
RTVSPropertyOp52
 70
     0
102
RTVSPropertyOp53
 70
     1
102
RTVSPropertyOp54
 70
     1
102
RTVSPropertyOp55
 70
     1
102
RTVSPropertyOp56
 70
     1
102
RTVSPropertyOp57
 70
     1
102
RTVSPropertyOp58
 70
     1
102
RTVSPropertyOp59
 70
     1
102
RTVSPropertyOp60
 70
     1
102
RTVSPropertyOp61
 70
     1
102
RTVSPropertyOp62
 70
     1
  0
XRECORD
  5
5F1
102
{ACAD_REACTORS
330
5F0
102
}
330
5F0
100
AcDbXrecord
280
     1
102
RTVSPost2010Prop28
280
     0
102
RTVSPost2010PropOp28
 70
     1
102
RTVSPost2010Prop29
280
     1
102
RTVSPost2010PropOp29
 70
     1
102
RTVSPost2010Prop30
280
     1
102
RTVSPost2010PropOp30
 70
     1
102
RTVSPost2010Prop31
280
     0
102
RTVSPost2010PropOp31
 70
     1
102
RTVSPost2010Prop32
280
     0
102
RTVSPost2010PropOp32
 70
     1
102
RTVSPost2010Prop33
280
     0
102
RTVSPost2010PropOp33
 70
     1
102
RTVSPost2010Prop34
280
     0
102
RTVSPost2010PropOp34
 70
     1
102
RTVSPost2010Prop35
280
     0
102
RTVSPost2010PropOp35
 70
     1
102
RTVSPost2010Prop36
280
     0
102
RTVSPost2010PropOp36
 70
     1
102
RTVSPost2010Prop37
 90
       50
102
RTVSPost2010PropOp37
 70
     1
102
RTVSPost2010Prop38
140
0.0
102
RTVSPost2010PropOp38
 70
     1
102
RTVSPost2010Prop39
140
1.0
102
RTVSPost2010PropOp39
 70
     1
102
RTVSPost2010Prop40
 90
        0
102
RTVSPost2010PropOp40
 70
     1
102
RTVSPost2010Prop41ColorIndex
 90
       18
102
RTVSPost2010Prop41ColorRGB
 90
        0
102
RTVSPost2010PropOp41
 70
     1
102
RTVSPost2010Prop42
 90
       50
102
RTVSPost2010PropOp42
 70
     1
102
RTVSPost2010Prop43
 90
        3
102
RTVSPost2010PropOp43
 70
     1
102
RTVSPost2010Prop44ColorIndex
 90
        5
102
RTVSPost2010Prop44ColorRGB
 90
      255
102
RTVSPost2010PropOp44
 70
     1
102
RTVSPost2010Prop45
280
     0
102
RTVSPost2010PropOp45
 70
     1
102
RTVSPost2010Prop46
 90
       50
102
RTVSPost2010PropOp46
 70
     1
102
RTVSPost2010Prop47
 90
       50
102
RTVSPost2010PropOp47
 70
     1
102
RTVSPost2010Prop48
 90
       50
102
RTVSPost2010PropOp48
 70
     1
102
RTVSPost2010Prop49
280
     0
102
RTVSPost2010PropOp49
 70
     1
102
RTVSPost2010Prop50
 90
       50
102
RTVSPost2010PropOp50
 70
     1
102
RTVSPost2010Prop51ColorIndex
 90
      256
102
RTVSPost2010Prop51ColorRGB
 90
-16777216
102
RTVSPost2010PropOp51
 70
     0
102
RTVSPost2010Prop52
140
1.0
102
RTVSPost2010PropOp52
 70
     0
102
RTVSPost2010Prop53
 90
        2
102
RTVSPost2010PropOp53
 70
     1
102
RTVSPost2010Prop54
  1
strokes_ogs.tif
102
RTVSPost2010PropOp54
 70
     1
102
RTVSPost2010Prop55
280
     0
102
RTVSPost2010PropOp55
 70
     1
102
RTVSPost2010Prop56
140
1.0
102
RTVSPost2010PropOp56
 70
     1
102
RTVSPost2010Prop57
140
1.0
102
RTVSPost2010PropOp57
 70
     1
102
RTVSPropertyOp0
 70
     1
102
RTVSPropertyOp1
 70
     1
102
RTVSPropertyOp2
 70
     1
102
RTVSPropertyOp3
 70
     1
102
RTVSPropertyOp4
 70
     1
102
RTVSPropertyOp5
 70
     1
102
RTVSPropertyOp6
 70
     1
102
RTVSPropertyOp7
 70
     1
102
RTVSPropertyOp8
 70
     1
102
RTVSPropertyOp9
 70
     1
102
RTVSPropertyOp10
 70
     1
102
RTVSPropertyOp11
 70
     1
102
RTVSPropertyOp12
 70
     1
102
RTVSPropertyOp13
 70
     1
102
RTVSPropertyOp14
 70
     1
102
RTVSPropertyOp15
 70
     1
102
RTVSPropertyOp16
 70
     1
102
RTVSPropertyOp17
 70
     1
102
RTVSPropertyOp18
 70
     1
102
RTVSPropertyOp19
 70
     1
102
RTVSPropertyOp20
 70
     1
102
RTVSPropertyOp21
 70
     1
102
RTVSPropertyOp22
 70
     1
102
RTVSPropertyOp23
 70
     1
102
RTVSPropertyOp24
 70
     1
102
RTVSPropertyOp25
 70
     1
102
RTVSPropertyOp26
 70
     1
102
RTVSPropertyOp27
 70
     1
102
RTVSPropertyOp28
 70
     1
102
RTVSPropertyOp29
 70
     1
102
RTVSPropertyOp30
 70
     1
102
RTVSPropertyOp31
 70
     1
102
RTVSPropertyOp32
 70
     1
102
RTVSPropertyOp33
 70
     1
102
RTVSPropertyOp34
 70
     1
102
RTVSPropertyOp35
 70
     1
102
RTVSPropertyOp36
 70
     1
102
RTVSPropertyOp37
 70
     1
102
RTVSPropertyOp38
 70
     1
102
RTVSPropertyOp39
 70
     1
102
RTVSPropertyOp40
 70
     1
102
RTVSPropertyOp41
 70
     1
102
RTVSPropertyOp42
 70
     1
102
RTVSPropertyOp43
 70
     1
102
RTVSPropertyOp44
 70
     1
102
RTVSPropertyOp45
 70
     1
102
RTVSPropertyOp46
 70
     1
102
RTVSPropertyOp47
 70
     1
102
RTVSPropertyOp48
 70
     1
102
RTVSPropertyOp49
 70
     1
102
RTVSPropertyOp50
 70
     1
102
RTVSPropertyOp51
 70
     0
102
RTVSPropertyOp52
 70
     0
102
RTVSPropertyOp53
 70
     1
102
RTVSPropertyOp54
 70
     1
102
RTVSPropertyOp55
 70
     1
102
RTVSPropertyOp56
 70
     1
102
RTVSPropertyOp57
 70
     1
102
RTVSPropertyOp58
 70
     1
102
RTVSPropertyOp59
 70
     1
102
RTVSPropertyOp60
 70
     1
102
RTVSPropertyOp61
 70
     1
102
RTVSPropertyOp62
 70
     1
  0
XRECORD
  5
5E7
102
{ACAD_REACTORS
330
5E6
102
}
330
5E6
100
AcDbXrecord
280
     1
102
RTVSPost2010Prop28
280
     0
102
RTVSPost2010PropOp28
 70
     1
102
RTVSPost2010Prop29
280
     1
102
RTVSPost2010PropOp29
 70
     1
102
RTVSPost2010Prop30
280
     1
102
RTVSPost2010PropOp30
 70
     1
102
RTVSPost2010Prop31
280
     0
102
RTVSPost2010PropOp31
 70
     1
102
RTVSPost2010Prop32
280
     0
102
RTVSPost2010PropOp32
 70
     1
102
RTVSPost2010Prop33
280
     0
102
RTVSPost2010PropOp33
 70
     1
102
RTVSPost2010Prop34
280
     0
102
RTVSPost2010PropOp34
 70
     1
102
RTVSPost2010Prop35
280
     0
102
RTVSPost2010PropOp35
 70
     1
102
RTVSPost2010Prop36
280
     0
102
RTVSPost2010PropOp36
 70
     1
102
RTVSPost2010Prop37
 90
       50
102
RTVSPost2010PropOp37
 70
     1
102
RTVSPost2010Prop38
140
0.0
102
RTVSPost2010PropOp38
 70
     1
102
RTVSPost2010Prop39
140
1.0
102
RTVSPost2010PropOp39
 70
     1
102
RTVSPost2010Prop40
 90
        0
102
RTVSPost2010PropOp40
 70
     1
102
RTVSPost2010Prop41ColorIndex
 90
       18
102
RTVSPost2010Prop41ColorRGB
 90
        0
102
RTVSPost2010PropOp41
 70
     1
102
RTVSPost2010Prop42
 90
       50
102
RTVSPost2010PropOp42
 70
     1
102
RTVSPost2010Prop43
 90
        3
102
RTVSPost2010PropOp43
 70
     1
102
RTVSPost2010Prop44ColorIndex
 90
        5
102
RTVSPost2010Prop44ColorRGB
 90
      255
102
RTVSPost2010PropOp44
 70
     1
102
RTVSPost2010Prop45
280
     0
102
RTVSPost2010PropOp45
 70
     1
102
RTVSPost2010Prop46
 90
       50
102
RTVSPost2010PropOp46
 70
     1
102
RTVSPost2010Prop47
 90
       50
102
RTVSPost2010PropOp47
 70
     1
102
RTVSPost2010Prop48
 90
       50
102
RTVSPost2010PropOp48
 70
     1
102
RTVSPost2010Prop49
280
     0
102
RTVSPost2010PropOp49
 70
     1
102
RTVSPost2010Prop50
 90
       50
102
RTVSPost2010PropOp50
 70
     1
102
RTVSPost2010Prop51ColorIndex
 90
      256
102
RTVSPost2010Prop51ColorRGB
 90
-16777216
102
RTVSPost2010PropOp51
 70
     0
102
RTVSPost2010Prop52
140
1.0
102
RTVSPost2010PropOp52
 70
     0
102
RTVSPost2010Prop53
 90
        2
102
RTVSPost2010PropOp53
 70
     1
102
RTVSPost2010Prop54
  1
strokes_ogs.tif
102
RTVSPost2010PropOp54
 70
     1
102
RTVSPost2010Prop55
280
     0
102
RTVSPost2010PropOp55
 70
     1
102
RTVSPost2010Prop56
140
1.0
102
RTVSPost2010PropOp56
 70
     1
102
RTVSPost2010Prop57
140
1.0
102
RTVSPost2010PropOp57
 70
     1
102
RTVSPropertyOp0
 70
     1
102
RTVSPropertyOp1
 70
     1
102
RTVSPropertyOp2
 70
     1
102
RTVSPropertyOp3
 70
     1
102
RTVSPropertyOp4
 70
     1
102
RTVSPropertyOp5
 70
     1
102
RTVSPropertyOp6
 70
     1
102
RTVSPropertyOp7
 70
     1
102
RTVSPropertyOp8
 70
     1
102
RTVSPropertyOp9
 70
     1
102
RTVSPropertyOp10
 70
     1
102
RTVSPropertyOp11
 70
     1
102
RTVSPropertyOp12
 70
     1
102
RTVSPropertyOp13
 70
     1
102
RTVSPropertyOp14
 70
     1
102
RTVSPropertyOp15
 70
     1
102
RTVSPropertyOp16
 70
     1
102
RTVSPropertyOp17
 70
     1
102
RTVSPropertyOp18
 70
     1
102
RTVSPropertyOp19
 70
     1
102
RTVSPropertyOp20
 70
     1
102
RTVSPropertyOp21
 70
     1
102
RTVSPropertyOp22
 70
     1
102
RTVSPropertyOp23
 70
     1
102
RTVSPropertyOp24
 70
     1
102
RTVSPropertyOp25
 70
     1
102
RTVSPropertyOp26
 70
     1
102
RTVSPropertyOp27
 70
     1
102
RTVSPropertyOp28
 70
     1
102
RTVSPropertyOp29
 70
     1
102
RTVSPropertyOp30
 70
     1
102
RTVSPropertyOp31
 70
     1
102
RTVSPropertyOp32
 70
     1
102
RTVSPropertyOp33
 70
     1
102
RTVSPropertyOp34
 70
     1
102
RTVSPropertyOp35
 70
     1
102
RTVSPropertyOp36
 70
     1
102
RTVSPropertyOp37
 70
     1
102
RTVSPropertyOp38
 70
     1
102
RTVSPropertyOp39
 70
     1
102
RTVSPropertyOp40
 70
     1
102
RTVSPropertyOp41
 70
     1
102
RTVSPropertyOp42
 70
     1
102
RTVSPropertyOp43
 70
     1
102
RTVSPropertyOp44
 70
     1
102
RTVSPropertyOp45
 70
     1
102
RTVSPropertyOp46
 70
     1
102
RTVSPropertyOp47
 70
     1
102
RTVSPropertyOp48
 70
     1
102
RTVSPropertyOp49
 70
     1
102
RTVSPropertyOp50
 70
     1
102
RTVSPropertyOp51
 70
     0
102
RTVSPropertyOp52
 70
     0
102
RTVSPropertyOp53
 70
     1
102
RTVSPropertyOp54
 70
     1
102
RTVSPropertyOp55
 70
     1
102
RTVSPropertyOp56
 70
     1
102
RTVSPropertyOp57
 70
     1
102
RTVSPropertyOp58
 70
     1
102
RTVSPropertyOp59
 70
     1
102
RTVSPropertyOp60
 70
     1
102
RTVSPropertyOp61
 70
     1
102
RTVSPropertyOp62
 70
     1
  0
XRECORD
  5
5DB
102
{ACAD_REACTORS
330
5DA
102
}
330
5DA
100
AcDbXrecord
280
     1
102
RTVSPost2010Prop28
280
     0
102
RTVSPost2010PropOp28
 70
     1
102
RTVSPost2010Prop29
280
     1
102
RTVSPost2010PropOp29
 70
     1
102
RTVSPost2010Prop30
280
     1
102
RTVSPost2010PropOp30
 70
     1
102
RTVSPost2010Prop31
280
     0
102
RTVSPost2010PropOp31
 70
     1
102
RTVSPost2010Prop32
280
     0
102
RTVSPost2010PropOp32
 70
     1
102
RTVSPost2010Prop33
280
     0
102
RTVSPost2010PropOp33
 70
     1
102
RTVSPost2010Prop34
280
     0
102
RTVSPost2010PropOp34
 70
     1
102
RTVSPost2010Prop35
280
     0
102
RTVSPost2010PropOp35
 70
     1
102
RTVSPost2010Prop36
280
     0
102
RTVSPost2010PropOp36
 70
     1
102
RTVSPost2010Prop37
 90
       50
102
RTVSPost2010PropOp37
 70
     1
102
RTVSPost2010Prop38
140
0.0
102
RTVSPost2010PropOp38
 70
     1
102
RTVSPost2010Prop39
140
1.0
102
RTVSPost2010PropOp39
 70
     1
102
RTVSPost2010Prop40
 90
        0
102
RTVSPost2010PropOp40
 70
     1
102
RTVSPost2010Prop41ColorIndex
 90
       18
102
RTVSPost2010Prop41ColorRGB
 90
        0
102
RTVSPost2010PropOp41
 70
     1
102
RTVSPost2010Prop42
 90
       50
102
RTVSPost2010PropOp42
 70
     1
102
RTVSPost2010Prop43
 90
        3
102
RTVSPost2010PropOp43
 70
     1
102
RTVSPost2010Prop44ColorIndex
 90
        5
102
RTVSPost2010Prop44ColorRGB
 90
      255
102
RTVSPost2010PropOp44
 70
     1
102
RTVSPost2010Prop45
280
     0
102
RTVSPost2010PropOp45
 70
     1
102
RTVSPost2010Prop46
 90
       50
102
RTVSPost2010PropOp46
 70
     1
102
RTVSPost2010Prop47
 90
       50
102
RTVSPost2010PropOp47
 70
     1
102
RTVSPost2010Prop48
 90
       50
102
RTVSPost2010PropOp48
 70
     1
102
RTVSPost2010Prop49
280
     0
102
RTVSPost2010PropOp49
 70
     1
102
RTVSPost2010Prop50
 90
       50
102
RTVSPost2010PropOp50
 70
     1
102
RTVSPost2010Prop51ColorIndex
 90
      256
102
RTVSPost2010Prop51ColorRGB
 90
-16777216
102
RTVSPost2010PropOp51
 70
     0
102
RTVSPost2010Prop52
140
1.0
102
RTVSPost2010PropOp52
 70
     0
102
RTVSPost2010Prop53
 90
        2
102
RTVSPost2010PropOp53
 70
     1
102
RTVSPost2010Prop54
  1
strokes_ogs.tif
102
RTVSPost2010PropOp54
 70
     1
102
RTVSPost2010Prop55
280
     0
102
RTVSPost2010PropOp55
 70
     1
102
RTVSPost2010Prop56
140
1.0
102
RTVSPost2010PropOp56
 70
     1
102
RTVSPost2010Prop57
140
1.0
102
RTVSPost2010PropOp57
 70
     1
102
RTVSPropertyOp0
 70
     1
102
RTVSPropertyOp1
 70
     1
102
RTVSPropertyOp2
 70
     1
102
RTVSPropertyOp3
 70
     1
102
RTVSPropertyOp4
 70
     1
102
RTVSPropertyOp5
 70
     1
102
RTVSPropertyOp6
 70
     1
102
RTVSPropertyOp7
 70
     1
102
RTVSPropertyOp8
 70
     1
102
RTVSPropertyOp9
 70
     1
102
RTVSPropertyOp10
 70
     1
102
RTVSPropertyOp11
 70
     1
102
RTVSPropertyOp12
 70
     1
102
RTVSPropertyOp13
 70
     1
102
RTVSPropertyOp14
 70
     1
102
RTVSPropertyOp15
 70
     1
102
RTVSPropertyOp16
 70
     1
102
RTVSPropertyOp17
 70
     1
102
RTVSPropertyOp18
 70
     1
102
RTVSPropertyOp19
 70
     1
102
RTVSPropertyOp20
 70
     1
102
RTVSPropertyOp21
 70
     1
102
RTVSPropertyOp22
 70
     1
102
RTVSPropertyOp23
 70
     1
102
RTVSPropertyOp24
 70
     1
102
RTVSPropertyOp25
 70
     1
102
RTVSPropertyOp26
 70
     1
102
RTVSPropertyOp27
 70
     1
102
RTVSPropertyOp28
 70
     1
102
RTVSPropertyOp29
 70
     1
102
RTVSPropertyOp30
 70
     1
102
RTVSPropertyOp31
 70
     1
102
RTVSPropertyOp32
 70
     1
102
RTVSPropertyOp33
 70
     1
102
RTVSPropertyOp34
 70
     1
102
RTVSPropertyOp35
 70
     1
102
RTVSPropertyOp36
 70
     1
102
RTVSPropertyOp37
 70
     1
102
RTVSPropertyOp38
 70
     1
102
RTVSPropertyOp39
 70
     1
102
RTVSPropertyOp40
 70
     1
102
RTVSPropertyOp41
 70
     1
102
RTVSPropertyOp42
 70
     1
102
RTVSPropertyOp43
 70
     1
102
RTVSPropertyOp44
 70
     1
102
RTVSPropertyOp45
 70
     1
102
RTVSPropertyOp46
 70
     1
102
RTVSPropertyOp47
 70
     1
102
RTVSPropertyOp48
 70
     1
102
RTVSPropertyOp49
 70
     1
102
RTVSPropertyOp50
 70
     1
102
RTVSPropertyOp51
 70
     0
102
RTVSPropertyOp52
 70
     0
102
RTVSPropertyOp53
 70
     1
102
RTVSPropertyOp54
 70
     1
102
RTVSPropertyOp55
 70
     1
102
RTVSPropertyOp56
 70
     1
102
RTVSPropertyOp57
 70
     1
102
RTVSPropertyOp58
 70
     1
102
RTVSPropertyOp59
 70
     1
102
RTVSPropertyOp60
 70
     1
102
RTVSPropertyOp61
 70
     1
102
RTVSPropertyOp62
 70
     1
  0
XRECORD
  5
5F3
102
{ACAD_REACTORS
330
5F2
102
}
330
5F2
100
AcDbXrecord
280
     1
102
RTVSPost2010Prop28
280
     0
102
RTVSPost2010PropOp28
 70
     1
102
RTVSPost2010Prop29
280
     1
102
RTVSPost2010PropOp29
 70
     1
102
RTVSPost2010Prop30
280
     1
102
RTVSPost2010PropOp30
 70
     1
102
RTVSPost2010Prop31
280
     0
102
RTVSPost2010PropOp31
 70
     1
102
RTVSPost2010Prop32
280
     0
102
RTVSPost2010PropOp32
 70
     1
102
RTVSPost2010Prop33
280
     0
102
RTVSPost2010PropOp33
 70
     1
102
RTVSPost2010Prop34
280
     0
102
RTVSPost2010PropOp34
 70
     1
102
RTVSPost2010Prop35
280
     0
102
RTVSPost2010PropOp35
 70
     1
102
RTVSPost2010Prop36
280
     0
102
RTVSPost2010PropOp36
 70
     1
102
RTVSPost2010Prop37
 90
       50
102
RTVSPost2010PropOp37
 70
     1
102
RTVSPost2010Prop38
140
0.0
102
RTVSPost2010PropOp38
 70
     1
102
RTVSPost2010Prop39
140
1.0
102
RTVSPost2010PropOp39
 70
     1
102
RTVSPost2010Prop40
 90
        0
102
RTVSPost2010PropOp40
 70
     1
102
RTVSPost2010Prop41ColorIndex
 90
       18
102
RTVSPost2010Prop41ColorRGB
 90
        0
102
RTVSPost2010PropOp41
 70
     1
102
RTVSPost2010Prop42
 90
       50
102
RTVSPost2010PropOp42
 70
     1
102
RTVSPost2010Prop43
 90
        3
102
RTVSPost2010PropOp43
 70
     1
102
RTVSPost2010Prop44ColorIndex
 90
        5
102
RTVSPost2010Prop44ColorRGB
 90
      255
102
RTVSPost2010PropOp44
 70
     1
102
RTVSPost2010Prop45
280
     0
102
RTVSPost2010PropOp45
 70
     1
102
RTVSPost2010Prop46
 90
       50
102
RTVSPost2010PropOp46
 70
     1
102
RTVSPost2010Prop47
 90
       50
102
RTVSPost2010PropOp47
 70
     1
102
RTVSPost2010Prop48
 90
       50
102
RTVSPost2010PropOp48
 70
     1
102
RTVSPost2010Prop49
280
     0
102
RTVSPost2010PropOp49
 70
     1
102
RTVSPost2010Prop50
 90
       50
102
RTVSPost2010PropOp50
 70
     1
102
RTVSPost2010Prop51ColorIndex
 90
      256
102
RTVSPost2010Prop51ColorRGB
 90
-16777216
102
RTVSPost2010PropOp51
 70
     0
102
RTVSPost2010Prop52
140
1.0
102
RTVSPost2010PropOp52
 70
     0
102
RTVSPost2010Prop53
 90
        2
102
RTVSPost2010PropOp53
 70
     1
102
RTVSPost2010Prop54
  1
strokes_ogs.tif
102
RTVSPost2010PropOp54
 70
     1
102
RTVSPost2010Prop55
280
     0
102
RTVSPost2010PropOp55
 70
     1
102
RTVSPost2010Prop56
140
1.0
102
RTVSPost2010PropOp56
 70
     1
102
RTVSPost2010Prop57
140
1.0
102
RTVSPost2010PropOp57
 70
     1
102
RTVSPropertyOp0
 70
     1
102
RTVSPropertyOp1
 70
     1
102
RTVSPropertyOp2
 70
     1
102
RTVSPropertyOp3
 70
     1
102
RTVSPropertyOp4
 70
     1
102
RTVSPropertyOp5
 70
     1
102
RTVSPropertyOp6
 70
     1
102
RTVSPropertyOp7
 70
     1
102
RTVSPropertyOp8
 70
     1
102
RTVSPropertyOp9
 70
     1
102
RTVSPropertyOp10
 70
     1
102
RTVSPropertyOp11
 70
     1
102
RTVSPropertyOp12
 70
     1
102
RTVSPropertyOp13
 70
     1
102
RTVSPropertyOp14
 70
     1
102
RTVSPropertyOp15
 70
     1
102
RTVSPropertyOp16
 70
     1
102
RTVSPropertyOp17
 70
     1
102
RTVSPropertyOp18
 70
     1
102
RTVSPropertyOp19
 70
     1
102
RTVSPropertyOp20
 70
     1
102
RTVSPropertyOp21
 70
     1
102
RTVSPropertyOp22
 70
     1
102
RTVSPropertyOp23
 70
     1
102
RTVSPropertyOp24
 70
     1
102
RTVSPropertyOp25
 70
     1
102
RTVSPropertyOp26
 70
     1
102
RTVSPropertyOp27
 70
     1
102
RTVSPropertyOp28
 70
     1
102
RTVSPropertyOp29
 70
     1
102
RTVSPropertyOp30
 70
     1
102
RTVSPropertyOp31
 70
     1
102
RTVSPropertyOp32
 70
     1
102
RTVSPropertyOp33
 70
     1
102
RTVSPropertyOp34
 70
     1
102
RTVSPropertyOp35
 70
     1
102
RTVSPropertyOp36
 70
     1
102
RTVSPropertyOp37
 70
     1
102
RTVSPropertyOp38
 70
     1
102
RTVSPropertyOp39
 70
     1
102
RTVSPropertyOp40
 70
     1
102
RTVSPropertyOp41
 70
     1
102
RTVSPropertyOp42
 70
     1
102
RTVSPropertyOp43
 70
     1
102
RTVSPropertyOp44
 70
     1
102
RTVSPropertyOp45
 70
     1
102
RTVSPropertyOp46
 70
     1
102
RTVSPropertyOp47
 70
     1
102
RTVSPropertyOp48
 70
     1
102
RTVSPropertyOp49
 70
     1
102
RTVSPropertyOp50
 70
     1
102
RTVSPropertyOp51
 70
     0
102
RTVSPropertyOp52
 70
     0
102
RTVSPropertyOp53
 70
     1
102
RTVSPropertyOp54
 70
     1
102
RTVSPropertyOp55
 70
     1
102
RTVSPropertyOp56
 70
     1
102
RTVSPropertyOp57
 70
     1
102
RTVSPropertyOp58
 70
     1
102
RTVSPropertyOp59
 70
     1
102
RTVSPropertyOp60
 70
     1
102
RTVSPropertyOp61
 70
     1
102
RTVSPropertyOp62
 70
     1
  0
ENDSEC
  0
EOF
