  0
SECTION
  2
HEADER
  9
$ACADVER
  1
AC1015
  9
$ACADMAINTVER
 70
    20
  9
$DWGCODEPAGE
  3
ANSI_932
  9
$INSBASE
 10
0.0
 20
0.0
 30
0.0
  9
$EXTMIN
 10
-800.0549274497375
 20
-1204.306886861128
 30
-0.0015258207003583
  9
$EXTMAX
 10
1000.05493583164
 20
1471.867844940943
 30
0.0000000349246037
  9
$LIMMIN
 10
0.0
 20
0.0
  9
$LIMMAX
 10
0.0
 20
0.0
  9
$ORTHOMODE
 70
     0
  9
$REGENMODE
 70
     1
  9
$FILLMODE
 70
     1
  9
$QTEXTMODE
 70
     0
  9
$MIRRTEXT
 70
     1
  9
$LTSCALE
 40
50.8
  9
$ATTMODE
 70
     1
  9
$TEXTSIZE
 40
0.0
  9
$TRACEWID
 40
1.0
  9
$TEXTSTYLE
  7
STANDARD
  9
$CLAYER
  8
DATA
  9
$CELTYPE
  6
ByLayer
  9
$CECOLOR
 62
   256
  9
$CELTSCALE
 40
1.0
  9
$DISPSILH
 70
     0
  9
$DIMSCALE
 40
1.0
  9
$DIMASZ
 40
0.18
  9
$DIMEXO
 40
0.0625
  9
$DIMDLI
 40
0.38
  9
$DIMRND
 40
0.0
  9
$DIMDLE
 40
0.0
  9
$DIMEXE
 40
0.18
  9
$DIMTP
 40
0.0
  9
$DIMTM
 40
0.0
  9
$DIMTXT
 40
0.18
  9
$DIMCEN
 40
0.09
  9
$DIMTSZ
 40
0.0
  9
$DIMTOL
 70
     0
  9
$DIMLIM
 70
     0
  9
$DIMTIH
 70
     1
  9
$DIMTOH
 70
     1
  9
$DIMSE1
 70
     0
  9
$DIMSE2
 70
     0
  9
$DIMTAD
 70
     0
  9
$DIMZIN
 70
     0
  9
$DIMBLK
  1

  9
$DIMASO
 70
     1
  9
$DIMSHO
 70
     1
  9
$DIMPOST
  1

  9
$DIMAPOST
  1

  9
$DIMALT
 70
     0
  9
$DIMALTD
 70
     2
  9
$DIMALTF
 40
25.4
  9
$DIMLFAC
 40
1.0
  9
$DIMTOFL
 70
     0
  9
$DIMTVP
 40
0.0
  9
$DIMTIX
 70
     0
  9
$DIMSOXD
 70
     0
  9
$DIMSAH
 70
     0
  9
$DIMBLK1
  1

  9
$DIMBLK2
  1

  9
$DIMSTYLE
  2
STANDARD
  9
$DIMCLRD
 70
     0
  9
$DIMCLRE
 70
     0
  9
$DIMCLRT
 70
     0
  9
$DIMTFAC
 40
1.0
  9
$DIMGAP
 40
0.09
  9
$DIMJUST
 70
     0
  9
$DIMSD1
 70
     0
  9
$DIMSD2
 70
     0
  9
$DIMTOLJ
 70
     1
  9
$DIMTZIN
 70
     0
  9
$DIMALTZ
 70
     0
  9
$DIMALTTZ
 70
     0
  9
$DIMUPT
 70
     0
  9
$DIMDEC
 70
     4
  9
$DIMTDEC
 70
     4
  9
$DIMALTU
 70
     2
  9
$DIMALTTD
 70
     2
  9
$DIMTXSTY
  7
STANDARD
  9
$DIMAUNIT
 70
     0
  9
$DIMADEC
 70
     0
  9
$DIMALTRND
 40
0.0
  9
$DIMAZIN
 70
     0
  9
$DIMDSEP
 70
    46
  9
$DIMATFIT
 70
     3
  9
$DIMFRAC
 70
     0
  9
$DIMLDRBLK
  1

  9
$DIMLUNIT
 70
     2
  9
$DIMLWD
 70
    -2
  9
$DIMLWE
 70
    -2
  9
$DIMTMOVE
 70
     0
  9
$LUNITS
 70
     2
  9
$LUPREC
 70
     4
  9
$SKETCHINC
 40
0.1
  9
$FILLETRAD
 40
0.0
  9
$AUNITS
 70
     0
  9
$AUPREC
 70
     0
  9
$MENU
  1
acad
  9
$ELEVATION
 40
0.0
  9
$PELEVATION
 40
0.0
  9
$THICKNESS
 40
0.0
  9
$LIMCHECK
 70
     0
  9
$CHAMFERA
 40
0.0
  9
$CHAMFERB
 40
0.0
  9
$CHAMFERC
 40
0.0
  9
$CHAMFERD
 40
0.0
  9
$SKPOLY
 70
     0
  9
$TDCREATE
 40
2457812.427488426
  9
$TDUCREATE
 40
2457812.052488426
  9
$TDUPDATE
 40
2457812.448321759
  9
$TDUUPDATE
 40
2457812.073321759
  9
$TDINDWG
 40
0.0003935185
  9
$TDUSRTIMER
 40
0.0003935185
  9
$USRTIMER
 70
     1
  9
$ANGBASE
 50
0.0
  9
$ANGDIR
 70
     0
  9
$PDMODE
 70
     1
  9
$PDSIZE
 40
-2.0
  9
$PLINEWID
 40
0.0
  9
$SPLFRAME
 70
     0
  9
$SPLINETYPE
 70
     6
  9
$SPLINESEGS
 70
     8
  9
$HANDSEED
  5
657
  9
$SURFTAB1
 70
     6
  9
$SURFTAB2
 70
     6
  9
$SURFTYPE
 70
     6
  9
$SURFU
 70
     6
  9
$SURFV
 70
     6
  9
$UCSBASE
  2

  9
$UCSNAME
  2

  9
$UCSORG
 10
0.0
 20
0.0
 30
0.0
  9
$UCSXDIR
 10
1.0
 20
0.0
 30
0.0
  9
$UCSYDIR
 10
0.0
 20
1.0
 30
0.0
  9
$UCSORTHOREF
  2

  9
$UCSORTHOVIEW
 70
     0
  9
$UCSORGTOP
 10
0.0
 20
0.0
 30
0.0
  9
$UCSORGBOTTOM
 10
0.0
 20
0.0
 30
0.0
  9
$UCSORGLEFT
 10
0.0
 20
0.0
 30
0.0
  9
$UCSORGRIGHT
 10
0.0
 20
0.0
 30
0.0
  9
$UCSORGFRONT
 10
0.0
 20
0.0
 30
0.0
  9
$UCSORGBACK
 10
0.0
 20
0.0
 30
0.0
  9
$PUCSBASE
  2

  9
$PUCSNAME
  2

  9
$PUCSORG
 10
0.0
 20
0.0
 30
0.0
  9
$PUCSXDIR
 10
1.0
 20
0.0
 30
0.0
  9
$PUCSYDIR
 10
0.0
 20
1.0
 30
0.0
  9
$PUCSORTHOREF
  2

  9
$PUCSORTHOVIEW
 70
     0
  9
$PUCSORGTOP
 10
0.0
 20
0.0
 30
0.0
  9
$PUCSORGBOTTOM
 10
0.0
 20
0.0
 30
0.0
  9
$PUCSORGLEFT
 10
0.0
 20
0.0
 30
0.0
  9
$PUCSORGRIGHT
 10
0.0
 20
0.0
 30
0.0
  9
$PUCSORGFRONT
 10
0.0
 20
0.0
 30
0.0
  9
$PUCSORGBACK
 10
0.0
 20
0.0
 30
0.0
  9
$USERI1
 70
     0
  9
$USERI2
 70
     0
  9
$USERI3
 70
     0
  9
$USERI4
 70
     0
  9
$USERI5
 70
     0
  9
$USERR1
 40
0.0
  9
$USERR2
 40
0.0
  9
$USERR3
 40
0.0
  9
$USERR4
 40
0.0
  9
$USERR5
 40
0.0
  9
$WORLDVIEW
 70
     1
  9
$SHADEDGE
 70
     3
  9
$SHADEDIF
 70
    70
  9
$TILEMODE
 70
     1
  9
$MAXACTVP
 70
    64
  9
$PINSBASE
 10
0.0
 20
0.0
 30
0.0
  9
$PLIMCHECK
 70
     0
  9
$PEXTMIN
 10
1.000000000000000E+20
 20
1.000000000000000E+20
 30
1.000000000000000E+20
  9
$PEXTMAX
 10
-1.000000000000000E+20
 20
-1.000000000000000E+20
 30
-1.000000000000000E+20
  9
$PLIMMIN
 10
0.0
 20
0.0
  9
$PLIMMAX
 10
12.0
 20
9.0
  9
$UNITMODE
 70
     0
  9
$VISRETAIN
 70
     0
  9
$PLINEGEN
 70
     1
  9
$PSLTSCALE
 70
     0
  9
$TREEDEPTH
 70
  3020
  9
$CMLSTYLE
  2
Standard
  9
$CMLJUST
 70
     0
  9
$CMLSCALE
 40
1.0
  9
$PROXYGRAPHICS
 70
     1
  9
$MEASUREMENT
 70
     0
  9
$CELWEIGHT
370
    -1
  9
$ENDCAPS
280
     0
  9
$JOINSTYLE
280
     0
  9
$LWDISPLAY
290
     0
  9
$INSUNITS
 70
     0
  9
$HYPERLINKBASE
  1

  9
$STYLESHEET
  1

  9
$XEDIT
290
     1
  9
$CEPSNTYPE
380
     0
  9
$PSTYLEMODE
290
     1
  9
$FINGERPRINTGUID
  2
{2818F465-B0B7-C047-9D5E-2DA951814437}
  9
$VERSIONGUID
  2
{6139D889-2D2A-4949-8D16-B3C608C37909}
  9
$EXTNAMES
290
     1
  9
$PSVPSCALE
 40
0.0
  9
$OLESTARTUP
290
     0
  0
ENDSEC
  0
SECTION
  2
CLASSES
  0
CLASS
  1
ACDBDICTIONARYWDFLT
  2
AcDbDictionaryWithDefault
  3
ObjectDBX Classes
 90
        0
280
     0
281
     0
  0
CLASS
  1
MATERIAL
  2
AcDbMaterial
  3
ObjectDBX Classes
 90
     1153
280
     0
281
     0
  0
CLASS
  1
VISUALSTYLE
  2
AcDbVisualStyle
  3
ObjectDBX Classes
 90
     4095
280
     0
281
     0
  0
CLASS
  1
SCALE
  2
AcDbScale
  3
ObjectDBX Classes
 90
     1153
280
     0
281
     0
  0
CLASS
  1
TABLESTYLE
  2
AcDbTableStyle
  3
ObjectDBX Classes
 90
     4095
280
     0
281
     0
  0
CLASS
  1
MLEADERSTYLE
  2
AcDbMLeaderStyle
  3
ACDB_MLEADERSTYLE_CLASS
 90
     4095
280
     0
281
     0
  0
CLASS
  1
ACDBSECTIONVIEWSTYLE
  2
AcDbSectionViewStyle
  3
ObjectDBX Classes
 90
     1025
280
     0
281
     0
  0
CLASS
  1
ACDBDETAILVIEWSTYLE
  2
AcDbDetailViewStyle
  3
ObjectDBX Classes
 90
     1025
280
     0
281
     0
  0
CLASS
  1
DICTIONARYVAR
  2
AcDbDictionaryVar
  3
ObjectDBX Classes
 90
        0
280
     0
281
     0
  0
CLASS
  1
CELLSTYLEMAP
  2
AcDbCellStyleMap
  3
ObjectDBX Classes
 90
     1152
280
     0
281
     0
  0
CLASS
  1
ACDBPLACEHOLDER
  2
AcDbPlaceHolder
  3
ObjectDBX Classes
 90
        0
280
     0
281
     0
  0
CLASS
  1
LAYOUT
  2
AcDbLayout
  3
ObjectDBX Classes
 90
        0
280
     0
281
     0
  0
ENDSEC
  0
SECTION
  2
TABLES
  0
TABLE
  2
VPORT
  5
579
330
0
100
AcDbSymbolTable
 70
     1
  0
VPORT
  5
5E5
330
579
100
AcDbSymbolTableRecord
100
AcDbViewportTableRecord
  2
*ACTIVE
 70
     0
 10
0.0
 20
0.0
 11
1.0
 21
1.0
 12
100.0000041909516
 22
133.7804790399077
 13
0.0
 23
0.0
 14
1.0
 24
1.0
 15
0.0
 25
0.0
 16
0.0
 26
0.0
 36
1.0
 17
0.0
 27
0.0
 37
0.0
 40
2691.069952943828
 41
2.358402971216341
 42
50.0
 43
0.0
 44
0.0
 50
0.0
 51
0.0
 71
     0
 72
  2000
 73
     1
 74
     1
 75
     0
 76
     0
 77
     0
 78
     0
281
     0
 65
     1
110
0.0
120
0.0
130
0.0
111
1.0
121
0.0
131
0.0
112
0.0
122
1.0
132
0.0
 79
     0
146
0.0
1001
ACAD_NAV_VCDISPLAY
1070
     3
  0
ENDTAB
  0
TABLE
  2
LTYPE
  5
576
330
0
100
AcDbSymbolTable
 70
    16
  0
LTYPE
  5
5CB
330
576
100
AcDbSymbolTableRecord
100
AcDbLinetypeTableRecord
  2
ByBlock
 70
     0
  3

 72
    65
 73
     0
 40
0.0
  0
LTYPE
  5
5CC
330
576
100
AcDbSymbolTableRecord
100
AcDbLinetypeTableRecord
  2
ByLayer
 70
     0
  3

 72
    65
 73
     0
 40
0.0
  0
LTYPE
  5
5CD
330
576
100
AcDbSymbolTableRecord
100
AcDbLinetypeTableRecord
  2
CONTINUOUS
 70
     0
  3
Solid line
 72
    65
 73
     0
 40
0.0
  0
ENDTAB
  0
TABLE
  2
LAYER
  5
573
330
0
100
AcDbSymbolTable
 70
     6
  0
LAYER
  5
5C5
102
{ACAD_XDICTIONARY
360
5FF
102
}
330
573
100
AcDbSymbolTableRecord
100
AcDbLayerTableRecord
  2
0
 70
     0
 62
     7
  6
CONTINUOUS
370
    -3
390
580
  0
LAYER
  5
5E4
102
{ACAD_XDICTIONARY
360
601
102
}
330
573
100
AcDbSymbolTableRecord
100
AcDbLayerTableRecord
  2
DATA
 70
     0
 62
     7
  6
CONTINUOUS
370
    -3
390
580
  0
LAYER
  5
5F5
102
{ACAD_XDICTIONARY
360
603
102
}
330
573
100
AcDbSymbolTableRecord
100
AcDbLayerTableRecord
  2
HIBINO-BASE
 70
     0
 62
     7
  6
CONTINUOUS
370
    -3
390
580
  0
LAYER
  5
5F6
102
{ACAD_XDICTIONARY
360
605
102
}
330
573
100
AcDbSymbolTableRecord
100
AcDbLayerTableRecord
  2
PATTERN_FILL
 70
     0
 62
     7
  6
CONTINUOUS
370
    -3
390
580
  0
LAYER
  5
5F7
102
{ACAD_XDICTIONARY
360
607
102
}
330
573
100
AcDbSymbolTableRecord
100
AcDbLayerTableRecord
  2
SPEC
 70
     0
 62
     7
  6
CONTINUOUS
370
    -3
390
580
  0
LAYER
  5
5F8
102
{ACAD_XDICTIONARY
360
609
102
}
330
573
100
AcDbSymbolTableRecord
100
AcDbLayerTableRecord
  2
DIMNSIONS
 70
     0
 62
     7
  6
CONTINUOUS
370
    -3
390
580
  0
ENDTAB
  0
TABLE
  2
STYLE
  5
574
330
0
100
AcDbSymbolTable
 70
     3
  0
STYLE
  5
5C6
330
574
100
AcDbSymbolTableRecord
100
AcDbTextStyleTableRecord
  2
STANDARD
 70
     0
 40
0.0
 41
1.0
 50
0.0
 71
     0
 42
0.0
  3
txt
  4
BIGFONT.SHX
  0
ENDTAB
  0
TABLE
  2
VIEW
  5
577
330
0
100
AcDbSymbolTable
 70
     0
  0
ENDTAB
  0
TABLE
  2
UCS
  5
578
330
0
100
AcDbSymbolTable
 70
     0
  0
ENDTAB
  0
TABLE
  2
APPID
  5
57A
330
0
100
AcDbSymbolTable
 70
     4
  0
APPID
  5
5C7
330
57A
100
AcDbSymbolTableRecord
100
AcDbRegAppTableRecord
  2
ACAD
 70
     0
  0
APPID
  5
5CE
330
57A
100
AcDbSymbolTableRecord
100
AcDbRegAppTableRecord
  2
AcadAnnotative
 70
     0
  0
APPID
  5
615
330
57A
100
AcDbSymbolTableRecord
100
AcDbRegAppTableRecord
  2
ACAD_NAV_VCDISPLAY
 70
     0
  0
APPID
  5
64E
330
57A
100
AcDbSymbolTableRecord
100
AcDbRegAppTableRecord
  2
ACAD_MLEADERVER
 70
     0
  0
ENDTAB
  0
TABLE
  2
DIMSTYLE
  5
57B
330
0
100
AcDbSymbolTable
 70
     2
100
AcDbDimStyleTable
 71
     0
  0
DIMSTYLE
105
5C8
330
57B
100
AcDbSymbolTableRecord
100
AcDbDimStyleTableRecord
  2
STANDARD
 70
     0
279
     2
340
5C6
  0
ENDTAB
  0
TABLE
  2
BLOCK_RECORD
  5
572
330
0
100
AcDbSymbolTable
 70
     0
  0
BLOCK_RECORD
  5
5E0
330
572
100
AcDbSymbolTableRecord
100
AcDbBlockTableRecord
  2
*Model_Space
340
5E3
  0
BLOCK_RECORD
  5
5DC
330
572
100
AcDbSymbolTableRecord
100
AcDbBlockTableRecord
  2
*Paper_Space
340
5DF
  0
ENDTAB
  0
ENDSEC
  0
SECTION
  2
BLOCKS
  0
BLOCK
  5
5E1
330
5E0
100
AcDbEntity
  8
0
100
AcDbBlockBegin
  2
*Model_Space
 70
     0
 10
0.0
 20
0.0
 30
0.0
  3
*Model_Space
  1

  0
ENDBLK
  5
5E2
330
5E0
100
AcDbEntity
  8
0
100
AcDbBlockEnd
  0
BLOCK
  5
5DD
330
5DC
100
AcDbEntity
 67
     1
  8
0
100
AcDbBlockBegin
  2
*Paper_Space
 70
     0
 10
0.0
 20
0.0
 30
0.0
  3
*Paper_Space
  1

  0
ENDBLK
  5
5DE
330
5DC
100
AcDbEntity
 67
     1
  8
0
100
AcDbBlockEnd
  0
ENDSEC
  0
SECTION
  2
ENTITIES
  0
LINE
  5
32
330
5E0
100
AcDbEntity
  8
HIBINO-BASE
  6
Continuous
 62
     7
100
AcDbLine
 10
-800.0
 20
1471.786335
 30
0.0
 11
1000.0
 21
1471.786335
 31
0.0
  0
LINE
  5
33
330
5E0
100
AcDbEntity
  8
HIBINO-BASE
  6
Continuous
 62
     7
100
AcDbLine
 10
1000.0
 20
-1128.213665
 30
0.0
 11
-800.0
 21
-1128.213665
 31
0.0
  0
LINE
  5
34
330
5E0
100
AcDbEntity
  8
HIBINO-BASE
  6
Continuous
 62
     7
100
AcDbLine
 10
-800.0
 20
-1128.213665
 30
0.0
 11
-800.0
 21
1471.786335
 31
0.0
  0
TEXT
  5
35
330
5E0
100
AcDbEntity
  8
HIBINO-BASE
 62
     7
100
AcDbText
 10
-728.989433332171
 20
-1192.507091825499
 30
0.0
 40
35.29155815972222
  1
Hibino Corporation
 41
0.7
 11
-728.989433332171
 21
-1157.215533665777
 31
0.0
100
AcDbText
 73
     3
  0
LINE
  5
36
330
5E0
100
AcDbEntity
  8
HIBINO-BASE
  6
Continuous
 62
     7
100
AcDbLine
 10
1000.0
 20
1471.786335
 30
0.0
 11
1000.0
 21
-1128.213665
 31
0.0
  0
LINE
  5
37
330
5E0
100
AcDbEntity
  8
HIBINO-BASE
  6
Continuous
 62
     7
100
AcDbLine
 10
100.0
 20
-903.2136650000001
 30
0.0
 11
1000.0
 21
-903.2136650000001
 31
0.0
  0
LINE
  5
38
330
5E0
100
AcDbEntity
  8
HIBINO-BASE
  6
Continuous
 62
     7
100
AcDbLine
 10
100.0
 20
-1128.213665
 30
0.0
 11
100.0
 21
-903.2136650000001
 31
0.0
  0
TEXT
  5
39
330
5E0
100
AcDbEntity
  8
HIBINO-BASE
 62
     7
100
AcDbText
 10
111.1603150699699
 20
-928.0812219848614
 30
0.0
 40
16.28841145833333
  1
NOTE
 41
0.7
 11
111.1603150699699
 21
-911.7928105265281
 31
0.0
100
AcDbText
 73
     3
  0
LINE
  5
3A
330
5E0
100
AcDbEntity
  8
HIBINO-BASE
  6
Continuous
 62
     7
100
AcDbLine
 10
450.0
 20
-1128.213665
 30
0.0
 11
450.0
 21
-903.2136650000001
 31
0.0
  0
TEXT
  5
3B
330
5E0
100
AcDbEntity
  8
HIBINO-BASE
 62
     7
100
AcDbText
 10
460.2427548140191
 20
-927.9542748061407
 30
0.0
 40
16.28841145833333
  1
TITLE
 41
0.7
 11
460.2427548140191
 21
-911.6658633478072
 31
0.0
100
AcDbText
 73
     3
  0
TEXT
  5
3C
330
5E0
100
AcDbEntity
  8
HIBINO-BASE
 62
     7
100
AcDbText
 10
609.8599107807301
 20
-1188.222108439165
 30
0.0
 40
35.29155815972222
  1
ヒビノ株式会社
 41
0.7
 11
609.8599107807301
 21
-1152.930550279443
 31
0.0
100
AcDbText
 73
     3
  0
LINE
  5
3D
330
5E0
100
AcDbEntity
  8
HIBINO-BASE
  6
Continuous
 62
     7
100
AcDbLine
 10
100.0
 20
-1028.213665
 30
0.0
 11
1000.0
 21
-1028.213665
 31
0.0
  0
TEXT
  5
3E
330
5E0
100
AcDbEntity
  8
HIBINO-BASE
 62
     7
100
AcDbText
 10
585.3098457605175
 20
-1052.380679230467
 30
0.0
 40
16.28841145833333
  1
DRAWN
 41
0.7
 11
585.3098457605175
 21
-1036.092267772134
 31
0.0
100
AcDbText
 73
     3
  0
TEXT
  5
3F
330
5E0
100
AcDbEntity
  8
HIBINO-BASE
 62
     7
100
AcDbText
 10
335.7047133150627
 20
-1052.829820115375
 30
0.0
 40
16.28841145833333
  1
DATE
 41
0.7
 11
335.7047133150627
 21
-1036.541408657042
 31
0.0
100
AcDbText
 73
     3
  0
TEXT
  5
40
330
5E0
100
AcDbEntity
  8
HIBINO-BASE
 62
     7
100
AcDbText
 10
232.3642391862561
 20
-1052.912466903524
 30
0.0
 40
16.28841145833333
  1
SCALE
 41
0.7
 11
232.3642391862561
 21
-1036.624055445191
 31
0.0
100
AcDbText
 73
     3
  0
TEXT
  5
41
330
5E0
100
AcDbEntity
  8
HIBINO-BASE
 62
     7
100
AcDbText
 10
460.9016809692452
 20
-1053.148061618381
 30
0.0
 40
16.28841145833333
  1
DESIGN
 41
0.7
 11
460.9016809692452
 21
-1036.859650160048
 31
0.0
100
AcDbText
 73
     3
  0
TEXT
  5
42
330
5E0
100
AcDbEntity
  8
HIBINO-BASE
 62
     7
100
AcDbText
 10
834.2857763913558
 20
-1052.810649783419
 30
0.0
 40
16.28841145833333
  1
DRAWING NO.
 41
0.7
 11
834.2857763913558
 21
-1036.522238325086
 31
0.0
100
AcDbText
 73
     3
  0
TEXT
  5
43
330
5E0
100
AcDbEntity
  8
HIBINO-BASE
 62
     7
100
AcDbText
 10
708.9713788869159
 20
-1052.882329702134
 30
0.0
 40
16.28841145833333
  1
CHECK
 41
0.7
 11
708.9713788869159
 21
-1036.593918243801
 31
0.0
100
AcDbText
 73
     3
  0
LINE
  5
44
330
5E0
100
AcDbEntity
  8
HIBINO-BASE
  6
Continuous
 62
     7
100
AcDbLine
 10
247.5880135334658
 20
-1109.058582219361
 30
0.0
 11
285.0880135334658
 21
-1071.558582219361
 31
0.0
  0
TEXT
  5
45
330
5E0
100
AcDbEntity
  8
HIBINO-BASE
 62
     7
100
AcDbText
 10
273.7380900590531
 20
-1106.391363167523
 30
0.0
 40
16.28841145833333
  1
10
 41
0.7
 11
273.7380900590531
 21
-1090.10295170919
 31
0.0
100
AcDbText
 73
     3
  0
LINE
  5
46
330
5E0
100
AcDbEntity
  8
HIBINO-BASE
  6
Continuous
 62
     7
100
AcDbLine
 10
225.0
 20
-1128.213665
 30
0.0
 11
225.0
 21
-1028.213665
 31
0.0
  0
LINE
  5
47
330
5E0
100
AcDbEntity
  8
HIBINO-BASE
  6
Continuous
 62
     7
100
AcDbLine
 10
325.0
 20
-1128.213665
 30
0.0
 11
325.0
 21
-1028.213665
 31
0.0
  0
LINE
  5
48
330
5E0
100
AcDbEntity
  8
HIBINO-BASE
  6
Continuous
 62
     7
100
AcDbLine
 10
574.9999999999999
 20
-1028.213665
 30
0.0
 11
574.9999999999999
 21
-1128.213665
 31
0.0
  0
LINE
  5
49
330
5E0
100
AcDbEntity
  8
HIBINO-BASE
  6
Continuous
 62
     7
100
AcDbLine
 10
825.0
 20
-1028.213665
 30
0.0
 11
825.0
 21
-1128.213665
 31
0.0
  0
LINE
  5
4A
330
5E0
100
AcDbEntity
  8
HIBINO-BASE
  6
Continuous
 62
     7
100
AcDbLine
 10
699.9999999999999
 20
-1128.213665
 30
0.0
 11
699.9999999999999
 21
-1028.213665
 31
0.0
  0
TEXT
  5
4B
330
5E0
100
AcDbEntity
  8
HIBINO-BASE
 62
     7
100
AcDbText
 10
340.8294601126457
 20
-1102.312959921285
 30
0.0
 40
16.28841145833333
  1
'17.01.
 41
0.7
 11
340.8294601126457
 21
-1086.024548462952
 31
0.0
100
AcDbText
 73
     3
  0
TEXT
  5
4C
330
5E0
100
AcDbEntity
  8
HIBINO-BASE
 62
     7
100
AcDbText
 10
246.7028153707381
 20
-1091.004453226577
 30
0.0
 40
16.28841145833333
  1
1
 41
0.7
 11
246.7028153707381
 21
-1074.716041768244
 31
0.0
100
AcDbText
 73
     3
  0
TEXT
  5
4D
330
5E0
100
AcDbEntity
  8
HIBINO-BASE
 62
     7
100
AcDbText
 10
592.6666666666667
 20
-1102.752795687211
 30
0.0
 40
16.28841145833333
  1
N.Sasaki
 41
0.7
 11
592.6666666666667
 21
-1086.464384228878
 31
0.0
100
AcDbText
 73
     3
  0
TEXT
  5
4E
330
5E0
100
AcDbEntity
  8
HIBINO-BASE
 62
     7
100
AcDbText
 10
140.8988218670414
 20
-1105.529097034471
 30
0.0
 40
32.57682291666667
  1
A4
 41
0.7
 11
140.8988218670414
 21
-1072.952274117805
 31
0.0
100
AcDbText
 73
     3
  0
TEXT
  5
4F
330
5E0
100
AcDbEntity
  8
HIBINO-BASE
 62
     7
100
AcDbText
 10
108.5941641437178
 20
-1052.880194259598
 30
0.0
 40
16.28841145833333
  1
PAPER SIZE
 41
0.7
 11
108.5941641437178
 21
-1036.591782801265
 31
0.0
100
AcDbText
 73
     3
  0
CIRCLE
  5
50
330
5E0
100
AcDbEntity
  8
PATTERN_FILL
  6
Continuous
 62
     7
100
AcDbCircle
 10
-417.0570069558811
 20
-139.6255875318306
 30
0.0
 40
4.0
  0
CIRCLE
  5
51
330
5E0
100
AcDbEntity
  8
PATTERN_FILL
  6
Continuous
 62
     7
100
AcDbCircle
 10
-404.0570069558811
 20
-139.6255875318306
 30
0.0
 40
4.0
  0
CIRCLE
  5
52
330
5E0
100
AcDbEntity
  8
PATTERN_FILL
  6
Continuous
 62
     7
100
AcDbCircle
 10
-391.0570069558812
 20
-139.6255875318306
 30
0.0
 40
4.0
  0
CIRCLE
  5
53
330
5E0
100
AcDbEntity
  8
PATTERN_FILL
  6
Continuous
 62
     7
100
AcDbCircle
 10
-378.0570069558812
 20
-139.6255875318306
 30
0.0
 40
4.0
  0
CIRCLE
  5
54
330
5E0
100
AcDbEntity
  8
PATTERN_FILL
  6
Continuous
 62
     7
100
AcDbCircle
 10
-365.0570069558812
 20
-139.6255875318306
 30
0.0
 40
4.0
  0
CIRCLE
  5
55
330
5E0
100
AcDbEntity
  8
PATTERN_FILL
  6
Continuous
 62
     7
100
AcDbCircle
 10
-352.0570069558812
 20
-139.6255875318306
 30
0.0
 40
4.0
  0
CIRCLE
  5
56
330
5E0
100
AcDbEntity
  8
PATTERN_FILL
  6
Continuous
 62
     7
100
AcDbCircle
 10
-417.0570069558811
 20
-152.6255875318306
 30
0.0
 40
4.0
  0
CIRCLE
  5
57
330
5E0
100
AcDbEntity
  8
PATTERN_FILL
  6
Continuous
 62
     7
100
AcDbCircle
 10
-404.0570069558811
 20
-152.6255875318306
 30
0.0
 40
4.0
  0
CIRCLE
  5
58
330
5E0
100
AcDbEntity
  8
PATTERN_FILL
  6
Continuous
 62
     7
100
AcDbCircle
 10
-391.0570069558812
 20
-152.6255875318306
 30
0.0
 40
4.0
  0
CIRCLE
  5
59
330
5E0
100
AcDbEntity
  8
PATTERN_FILL
  6
Continuous
 62
     7
100
AcDbCircle
 10
-378.0570069558812
 20
-152.6255875318306
 30
0.0
 40
4.0
  0
CIRCLE
  5
5A
330
5E0
100
AcDbEntity
  8
PATTERN_FILL
  6
Continuous
 62
     7
100
AcDbCircle
 10
-365.0570069558812
 20
-152.6255875318306
 30
0.0
 40
4.0
  0
ARC
  5
5B
330
5E0
100
AcDbEntity
  8
PATTERN_FILL
  6
Continuous
 62
     7
100
AcDbCircle
 10
-352.0570069558812
 20
-152.6255875318306
 30
0.0
 40
3.999999999999967
100
AcDbArc
 50
71.79764298303577
 51
220.1156856366702
  0
CIRCLE
  5
5C
330
5E0
100
AcDbEntity
  8
PATTERN_FILL
  6
Continuous
 62
     7
100
AcDbCircle
 10
-417.0570069558811
 20
-165.6255875318306
 30
0.0
 40
4.0
  0
CIRCLE
  5
5D
330
5E0
100
AcDbEntity
  8
PATTERN_FILL
  6
Continuous
 62
     7
100
AcDbCircle
 10
-404.0570069558811
 20
-165.6255875318306
 30
0.0
 40
4.0
  0
CIRCLE
  5
5E
330
5E0
100
AcDbEntity
  8
PATTERN_FILL
  6
Continuous
 62
     7
100
AcDbCircle
 10
-391.0570069558812
 20
-165.6255875318306
 30
0.0
 40
4.0
  0
CIRCLE
  5
5F
330
5E0
100
AcDbEntity
  8
PATTERN_FILL
  6
Continuous
 62
     7
100
AcDbCircle
 10
-378.0570069558812
 20
-165.6255875318306
 30
0.0
 40
4.0
  0
ARC
  5
60
330
5E0
100
AcDbEntity
  8
PATTERN_FILL
  6
Continuous
 62
     7
100
AcDbCircle
 10
-365.057006955881
 20
-165.6255875318308
 30
0.0
 40
3.999999999999715
100
AcDbArc
 50
358.4417728115923
 51
309.8554229249389
  0
CIRCLE
  5
61
330
5E0
100
AcDbEntity
  8
PATTERN_FILL
  6
Continuous
 62
     7
100
AcDbCircle
 10
-417.0570069558811
 20
-178.6255875318306
 30
0.0
 40
4.0
  0
CIRCLE
  5
62
330
5E0
100
AcDbEntity
  8
PATTERN_FILL
  6
Continuous
 62
     7
100
AcDbCircle
 10
-404.0570069558811
 20
-178.6255875318306
 30
0.0
 40
4.0
  0
CIRCLE
  5
63
330
5E0
100
AcDbEntity
  8
PATTERN_FILL
  6
Continuous
 62
     7
100
AcDbCircle
 10
-391.0570069558812
 20
-178.6255875318306
 30
0.0
 40
4.0
  0
CIRCLE
  5
64
330
5E0
100
AcDbEntity
  8
PATTERN_FILL
  6
Continuous
 62
     7
100
AcDbCircle
 10
-378.0570069558812
 20
-178.6255875318306
 30
0.0
 40
4.0
  0
ARC
  5
65
330
5E0
100
AcDbEntity
  8
PATTERN_FILL
  6
Continuous
 62
     7
100
AcDbCircle
 10
-365.0570069558812
 20
-178.6255875318306
 30
0.0
 40
4.000000000000012
100
AcDbArc
 50
90.35014225743605
 51
228.9917281633508
  0
CIRCLE
  5
66
330
5E0
100
AcDbEntity
  8
PATTERN_FILL
  6
Continuous
 62
     7
100
AcDbCircle
 10
-417.0570069558811
 20
-191.6255875318306
 30
0.0
 40
4.0
  0
CIRCLE
  5
67
330
5E0
100
AcDbEntity
  8
PATTERN_FILL
  6
Continuous
 62
     7
100
AcDbCircle
 10
-404.0570069558811
 20
-191.6255875318306
 30
0.0
 40
4.0
  0
CIRCLE
  5
68
330
5E0
100
AcDbEntity
  8
PATTERN_FILL
  6
Continuous
 62
     7
100
AcDbCircle
 10
-391.0570069558812
 20
-191.6255875318306
 30
0.0
 40
4.0
  0
CIRCLE
  5
69
330
5E0
100
AcDbEntity
  8
PATTERN_FILL
  6
Continuous
 62
     7
100
AcDbCircle
 10
-378.0570069558812
 20
-191.6255875318306
 30
0.0
 40
4.0
  0
CIRCLE
  5
6A
330
5E0
100
AcDbEntity
  8
PATTERN_FILL
  6
Continuous
 62
     7
100
AcDbCircle
 10
-417.0570069558811
 20
-204.6255875318306
 30
0.0
 40
4.0
  0
CIRCLE
  5
6B
330
5E0
100
AcDbEntity
  8
PATTERN_FILL
  6
Continuous
 62
     7
100
AcDbCircle
 10
-404.0570069558811
 20
-204.6255875318306
 30
0.0
 40
4.0
  0
CIRCLE
  5
6C
330
5E0
100
AcDbEntity
  8
PATTERN_FILL
  6
Continuous
 62
     7
100
AcDbCircle
 10
-391.0570069558812
 20
-204.6255875318306
 30
0.0
 40
4.0
  0
CIRCLE
  5
6D
330
5E0
100
AcDbEntity
  8
PATTERN_FILL
  6
Continuous
 62
     7
100
AcDbCircle
 10
-378.0570069558812
 20
-204.6255875318306
 30
0.0
 40
4.0
  0
CIRCLE
  5
6E
330
5E0
100
AcDbEntity
  8
PATTERN_FILL
  6
Continuous
 62
     7
100
AcDbCircle
 10
-417.0570069558811
 20
-217.6255875318306
 30
0.0
 40
4.0
  0
CIRCLE
  5
6F
330
5E0
100
AcDbEntity
  8
PATTERN_FILL
  6
Continuous
 62
     7
100
AcDbCircle
 10
-404.0570069558811
 20
-217.6255875318306
 30
0.0
 40
4.0
  0
CIRCLE
  5
70
330
5E0
100
AcDbEntity
  8
PATTERN_FILL
  6
Continuous
 62
     7
100
AcDbCircle
 10
-391.0570069558812
 20
-217.6255875318306
 30
0.0
 40
4.0
  0
CIRCLE
  5
71
330
5E0
100
AcDbEntity
  8
PATTERN_FILL
  6
Continuous
 62
     7
100
AcDbCircle
 10
-378.1242562427304
 20
-217.6255875318306
 30
0.0
 40
4.0
  0
CIRCLE
  5
72
330
5E0
100
AcDbEntity
  8
PATTERN_FILL
  6
Continuous
 62
     7
100
AcDbCircle
 10
-417.0570069558811
 20
-230.6255875318306
 30
0.0
 40
4.0
  0
CIRCLE
  5
73
330
5E0
100
AcDbEntity
  8
PATTERN_FILL
  6
Continuous
 62
     7
100
AcDbCircle
 10
-404.0570069558811
 20
-230.6255875318306
 30
0.0
 40
4.0
  0
CIRCLE
  5
74
330
5E0
100
AcDbEntity
  8
PATTERN_FILL
  6
Continuous
 62
     7
100
AcDbCircle
 10
-391.0570069558812
 20
-230.6255875318306
 30
0.0
 40
4.0
  0
CIRCLE
  5
75
330
5E0
100
AcDbEntity
  8
PATTERN_FILL
  6
Continuous
 62
     7
100
AcDbCircle
 10
-378.0570069558812
 20
-230.6255875318306
 30
0.0
 40
4.0
  0
CIRCLE
  5
76
330
5E0
100
AcDbEntity
  8
PATTERN_FILL
  6
Continuous
 62
     7
100
AcDbCircle
 10
-417.0570069558811
 20
-243.6255875318306
 30
0.0
 40
4.0
  0
CIRCLE
  5
77
330
5E0
100
AcDbEntity
  8
PATTERN_FILL
  6
Continuous
 62
     7
100
AcDbCircle
 10
-404.0570069558811
 20
-243.6255875318306
 30
0.0
 40
4.0
  0
CIRCLE
  5
78
330
5E0
100
AcDbEntity
  8
PATTERN_FILL
  6
Continuous
 62
     7
100
AcDbCircle
 10
-391.0570069558812
 20
-243.6255875318306
 30
0.0
 40
4.0
  0
CIRCLE
  5
79
330
5E0
100
AcDbEntity
  8
PATTERN_FILL
  6
Continuous
 62
     7
100
AcDbCircle
 10
-378.0570069558812
 20
-243.6255875318306
 30
0.0
 40
4.0
  0
CIRCLE
  5
7A
330
5E0
100
AcDbEntity
  8
PATTERN_FILL
  6
Continuous
 62
     7
100
AcDbCircle
 10
-417.0570069558811
 20
-256.6255875318307
 30
0.0
 40
4.0
  0
CIRCLE
  5
7B
330
5E0
100
AcDbEntity
  8
PATTERN_FILL
  6
Continuous
 62
     7
100
AcDbCircle
 10
-404.0570069558811
 20
-256.6255875318307
 30
0.0
 40
4.0
  0
CIRCLE
  5
7C
330
5E0
100
AcDbEntity
  8
PATTERN_FILL
  6
Continuous
 62
     7
100
AcDbCircle
 10
-391.0570069558812
 20
-256.6255875318307
 30
0.0
 40
4.0
  0
CIRCLE
  5
7D
330
5E0
100
AcDbEntity
  8
PATTERN_FILL
  6
Continuous
 62
     7
100
AcDbCircle
 10
-378.0570069558812
 20
-256.6255875318307
 30
0.0
 40
4.0
  0
CIRCLE
  5
7E
330
5E0
100
AcDbEntity
  8
PATTERN_FILL
  6
Continuous
 62
     7
100
AcDbCircle
 10
-417.0570069558811
 20
-269.6255875318307
 30
0.0
 40
4.0
  0
CIRCLE
  5
7F
330
5E0
100
AcDbEntity
  8
PATTERN_FILL
  6
Continuous
 62
     7
100
AcDbCircle
 10
-404.0570069558811
 20
-269.6255875318307
 30
0.0
 40
4.0
  0
CIRCLE
  5
80
330
5E0
100
AcDbEntity
  8
PATTERN_FILL
  6
Continuous
 62
     7
100
AcDbCircle
 10
-391.0570069558812
 20
-269.6255875318307
 30
0.0
 40
4.0
  0
CIRCLE
  5
81
330
5E0
100
AcDbEntity
  8
PATTERN_FILL
  6
Continuous
 62
     7
100
AcDbCircle
 10
-378.0570069558812
 20
-269.6255875318307
 30
0.0
 40
4.0
  0
ARC
  5
82
330
5E0
100
AcDbEntity
  8
PATTERN_FILL
  6
Continuous
 62
     7
100
AcDbCircle
 10
-365.0570069558812
 20
-269.6255875318307
 30
0.0
 40
3.999999999999992
100
AcDbArc
 50
98.50976979177296
 51
307.8106629362874
  0
CIRCLE
  5
83
330
5E0
100
AcDbEntity
  8
PATTERN_FILL
  6
Continuous
 62
     7
100
AcDbCircle
 10
-417.0570069558811
 20
-282.6255875318306
 30
0.0
 40
4.0
  0
CIRCLE
  5
84
330
5E0
100
AcDbEntity
  8
PATTERN_FILL
  6
Continuous
 62
     7
100
AcDbCircle
 10
-404.0570069558811
 20
-282.6255875318306
 30
0.0
 40
4.0
  0
CIRCLE
  5
85
330
5E0
100
AcDbEntity
  8
PATTERN_FILL
  6
Continuous
 62
     7
100
AcDbCircle
 10
-391.0570069558812
 20
-282.6255875318306
 30
0.0
 40
4.0
  0
CIRCLE
  5
86
330
5E0
100
AcDbEntity
  8
PATTERN_FILL
  6
Continuous
 62
     7
100
AcDbCircle
 10
-378.0570069558812
 20
-282.6255875318306
 30
0.0
 40
4.0
  0
CIRCLE
  5
87
330
5E0
100
AcDbEntity
  8
PATTERN_FILL
  6
Continuous
 62
     7
100
AcDbCircle
 10
-365.0570069558812
 20
-282.6255875318306
 30
0.0
 40
4.0
  0
CIRCLE
  5
88
330
5E0
100
AcDbEntity
  8
PATTERN_FILL
  6
Continuous
 62
     7
100
AcDbCircle
 10
-417.0570069558811
 20
-295.6255875318307
 30
0.0
 40
4.0
  0
CIRCLE
  5
89
330
5E0
100
AcDbEntity
  8
PATTERN_FILL
  6
Continuous
 62
     7
100
AcDbCircle
 10
-404.0570069558811
 20
-295.6255875318307
 30
0.0
 40
4.0
  0
CIRCLE
  5
8A
330
5E0
100
AcDbEntity
  8
PATTERN_FILL
  6
Continuous
 62
     7
100
AcDbCircle
 10
-391.0570069558812
 20
-295.6255875318307
 30
0.0
 40
4.0
  0
CIRCLE
  5
8B
330
5E0
100
AcDbEntity
  8
PATTERN_FILL
  6
Continuous
 62
     7
100
AcDbCircle
 10
-378.0570069558812
 20
-295.6255875318307
 30
0.0
 40
4.0
  0
CIRCLE
  5
8C
330
5E0
100
AcDbEntity
  8
PATTERN_FILL
  6
Continuous
 62
     7
100
AcDbCircle
 10
-365.0570069558812
 20
-295.6255875318307
 30
0.0
 40
4.0
  0
ARC
  5
8D
330
5E0
100
AcDbEntity
  8
PATTERN_FILL
  6
Continuous
 62
     7
100
AcDbCircle
 10
-352.0570069558812
 20
-295.6255875318307
 30
0.0
 40
4.000000000000017
100
AcDbArc
 50
84.88621893112863
 51
341.4960009925528
  0
CIRCLE
  5
8E
330
5E0
100
AcDbEntity
  8
PATTERN_FILL
  6
Continuous
 62
     7
100
AcDbCircle
 10
-417.0570069558811
 20
-308.6255875318307
 30
0.0
 40
4.0
  0
CIRCLE
  5
8F
330
5E0
100
AcDbEntity
  8
PATTERN_FILL
  6
Continuous
 62
     7
100
AcDbCircle
 10
-404.0570069558811
 20
-308.6255875318307
 30
0.0
 40
4.0
  0
CIRCLE
  5
90
330
5E0
100
AcDbEntity
  8
PATTERN_FILL
  6
Continuous
 62
     7
100
AcDbCircle
 10
-391.0570069558812
 20
-308.6255875318307
 30
0.0
 40
4.0
  0
CIRCLE
  5
91
330
5E0
100
AcDbEntity
  8
PATTERN_FILL
  6
Continuous
 62
     7
100
AcDbCircle
 10
-378.0570069558812
 20
-308.6255875318307
 30
0.0
 40
4.0
  0
CIRCLE
  5
92
330
5E0
100
AcDbEntity
  8
PATTERN_FILL
  6
Continuous
 62
     7
100
AcDbCircle
 10
-365.0570069558812
 20
-308.6255875318307
 30
0.0
 40
4.0
  0
CIRCLE
  5
93
330
5E0
100
AcDbEntity
  8
PATTERN_FILL
  6
Continuous
 62
     7
100
AcDbCircle
 10
-352.0570069558812
 20
-308.6255875318307
 30
0.0
 40
4.0
  0
ARC
  5
94
330
5E0
100
AcDbEntity
  8
PATTERN_FILL
  6
Continuous
 62
     7
100
AcDbCircle
 10
-339.0570069558812
 20
-308.6255875318307
 30
0.0
 40
4.000000000000079
100
AcDbArc
 50
159.2177064446708
 51
249.6899799197386
  0
CIRCLE
  5
95
330
5E0
100
AcDbEntity
  8
PATTERN_FILL
  6
Continuous
 62
     7
100
AcDbCircle
 10
-417.0570069558811
 20
-321.6255875318307
 30
0.0
 40
4.0
  0
CIRCLE
  5
96
330
5E0
100
AcDbEntity
  8
PATTERN_FILL
  6
Continuous
 62
     7
100
AcDbCircle
 10
-404.0570069558811
 20
-321.6255875318307
 30
0.0
 40
4.0
  0
CIRCLE
  5
97
330
5E0
100
AcDbEntity
  8
PATTERN_FILL
  6
Continuous
 62
     7
100
AcDbCircle
 10
-391.0570069558812
 20
-321.6255875318307
 30
0.0
 40
4.0
  0
CIRCLE
  5
98
330
5E0
100
AcDbEntity
  8
PATTERN_FILL
  6
Continuous
 62
     7
100
AcDbCircle
 10
-378.0570069558812
 20
-321.6255875318307
 30
0.0
 40
4.0
  0
CIRCLE
  5
99
330
5E0
100
AcDbEntity
  8
PATTERN_FILL
  6
Continuous
 62
     7
100
AcDbCircle
 10
-365.0570069558812
 20
-321.6255875318307
 30
0.0
 40
4.0
  0
CIRCLE
  5
9A
330
5E0
100
AcDbEntity
  8
PATTERN_FILL
  6
Continuous
 62
     7
100
AcDbCircle
 10
-352.0570069558812
 20
-321.6255875318307
 30
0.0
 40
4.0
  0
ARC
  5
9B
330
5E0
100
AcDbEntity
  8
PATTERN_FILL
  6
Continuous
 62
     7
100
AcDbCircle
 10
-339.0570069558812
 20
-321.6255875318307
 30
0.0
 40
3.999999999999983
100
AcDbArc
 50
78.74243994958208
 51
320.5241266618823
  0
CIRCLE
  5
9C
330
5E0
100
AcDbEntity
  8
PATTERN_FILL
  6
Continuous
 62
     7
100
AcDbCircle
 10
-417.0570069558811
 20
-334.6255875318306
 30
0.0
 40
4.0
  0
CIRCLE
  5
9D
330
5E0
100
AcDbEntity
  8
PATTERN_FILL
  6
Continuous
 62
     7
100
AcDbCircle
 10
-404.0570069558811
 20
-334.6255875318306
 30
0.0
 40
4.0
  0
CIRCLE
  5
9E
330
5E0
100
AcDbEntity
  8
PATTERN_FILL
  6
Continuous
 62
     7
100
AcDbCircle
 10
-391.0570069558812
 20
-334.6255875318306
 30
0.0
 40
4.0
  0
CIRCLE
  5
9F
330
5E0
100
AcDbEntity
  8
PATTERN_FILL
  6
Continuous
 62
     7
100
AcDbCircle
 10
-378.0570069558812
 20
-334.6255875318306
 30
0.0
 40
4.0
  0
CIRCLE
  5
A0
330
5E0
100
AcDbEntity
  8
PATTERN_FILL
  6
Continuous
 62
     7
100
AcDbCircle
 10
-365.0570069558812
 20
-334.6255875318306
 30
0.0
 40
4.0
  0
CIRCLE
  5
A1
330
5E0
100
AcDbEntity
  8
PATTERN_FILL
  6
Continuous
 62
     7
100
AcDbCircle
 10
-352.0570069558812
 20
-334.6255875318306
 30
0.0
 40
4.0
  0
CIRCLE
  5
A2
330
5E0
100
AcDbEntity
  8
PATTERN_FILL
  6
Continuous
 62
     7
100
AcDbCircle
 10
-339.0570069558812
 20
-334.6255875318306
 30
0.0
 40
4.0
  0
CIRCLE
  5
A3
330
5E0
100
AcDbEntity
  8
PATTERN_FILL
  6
Continuous
 62
     7
100
AcDbCircle
 10
-417.0570069558811
 20
-347.6255875318306
 30
0.0
 40
4.0
  0
CIRCLE
  5
A4
330
5E0
100
AcDbEntity
  8
PATTERN_FILL
  6
Continuous
 62
     7
100
AcDbCircle
 10
-404.0570069558811
 20
-347.6255875318306
 30
0.0
 40
4.0
  0
CIRCLE
  5
A5
330
5E0
100
AcDbEntity
  8
PATTERN_FILL
  6
Continuous
 62
     7
100
AcDbCircle
 10
-391.0570069558812
 20
-347.6255875318306
 30
0.0
 40
4.0
  0
CIRCLE
  5
A6
330
5E0
100
AcDbEntity
  8
PATTERN_FILL
  6
Continuous
 62
     7
100
AcDbCircle
 10
-378.0570069558812
 20
-347.6255875318306
 30
0.0
 40
4.0
  0
CIRCLE
  5
A7
330
5E0
100
AcDbEntity
  8
PATTERN_FILL
  6
Continuous
 62
     7
100
AcDbCircle
 10
-365.0570069558812
 20
-347.6255875318306
 30
0.0
 40
4.0
  0
CIRCLE
  5
A8
330
5E0
100
AcDbEntity
  8
PATTERN_FILL
  6
Continuous
 62
     7
100
AcDbCircle
 10
-352.0570069558812
 20
-347.6255875318306
 30
0.0
 40
4.0
  0
CIRCLE
  5
A9
330
5E0
100
AcDbEntity
  8
PATTERN_FILL
  6
Continuous
 62
     7
100
AcDbCircle
 10
-339.0570069558812
 20
-347.6255875318306
 30
0.0
 40
4.0
  0
CIRCLE
  5
AA
330
5E0
100
AcDbEntity
  8
PATTERN_FILL
  6
Continuous
 62
     7
100
AcDbCircle
 10
-417.0570069558811
 20
-360.6255875318306
 30
0.0
 40
4.0
  0
CIRCLE
  5
AB
330
5E0
100
AcDbEntity
  8
PATTERN_FILL
  6
Continuous
 62
     7
100
AcDbCircle
 10
-404.0570069558811
 20
-360.6255875318306
 30
0.0
 40
4.0
  0
CIRCLE
  5
AC
330
5E0
100
AcDbEntity
  8
PATTERN_FILL
  6
Continuous
 62
     7
100
AcDbCircle
 10
-391.0570069558812
 20
-360.6255875318306
 30
0.0
 40
4.0
  0
CIRCLE
  5
AD
330
5E0
100
AcDbEntity
  8
PATTERN_FILL
  6
Continuous
 62
     7
100
AcDbCircle
 10
-378.0570069558812
 20
-360.6255875318306
 30
0.0
 40
4.0
  0
CIRCLE
  5
AE
330
5E0
100
AcDbEntity
  8
PATTERN_FILL
  6
Continuous
 62
     7
100
AcDbCircle
 10
-365.0570069558812
 20
-360.6255875318306
 30
0.0
 40
4.0
  0
CIRCLE
  5
AF
330
5E0
100
AcDbEntity
  8
PATTERN_FILL
  6
Continuous
 62
     7
100
AcDbCircle
 10
-352.0570069558812
 20
-360.6255875318306
 30
0.0
 40
4.0
  0
CIRCLE
  5
B0
330
5E0
100
AcDbEntity
  8
PATTERN_FILL
  6
Continuous
 62
     7
100
AcDbCircle
 10
-339.0570069558812
 20
-360.6255875318306
 30
0.0
 40
4.0
  0
CIRCLE
  5
B1
330
5E0
100
AcDbEntity
  8
PATTERN_FILL
  6
Continuous
 62
     7
100
AcDbCircle
 10
-417.0570069558811
 20
-373.6255875318306
 30
0.0
 40
4.0
  0
CIRCLE
  5
B2
330
5E0
100
AcDbEntity
  8
PATTERN_FILL
  6
Continuous
 62
     7
100
AcDbCircle
 10
-404.0570069558811
 20
-373.6255875318306
 30
0.0
 40
4.0
  0
CIRCLE
  5
B3
330
5E0
100
AcDbEntity
  8
PATTERN_FILL
  6
Continuous
 62
     7
100
AcDbCircle
 10
-391.0570069558812
 20
-373.6255875318306
 30
0.0
 40
4.0
  0
CIRCLE
  5
B4
330
5E0
100
AcDbEntity
  8
PATTERN_FILL
  6
Continuous
 62
     7
100
AcDbCircle
 10
-378.0570069558812
 20
-373.6255875318306
 30
0.0
 40
4.0
  0
ARC
  5
B5
330
5E0
100
AcDbEntity
  8
PATTERN_FILL
  6
Continuous
 62
     7
100
AcDbCircle
 10
-365.0570069558812
 20
-373.6255875318306
 30
0.0
 40
3.999999999999961
100
AcDbArc
 50
45.94740158769499
 51
314.0525984123051
  0
ARC
  5
B6
330
5E0
100
AcDbEntity
  8
PATTERN_FILL
  6
Continuous
 62
     7
100
AcDbCircle
 10
-339.0570069558812
 20
-373.6255875318306
 30
0.0
 40
3.999999999999936
100
AcDbArc
 50
292.7644446706574
 51
67.23555532934257
  0
CIRCLE
  5
B7
330
5E0
100
AcDbEntity
  8
PATTERN_FILL
  6
Continuous
 62
     7
100
AcDbCircle
 10
-417.0570069558811
 20
-386.6255875318306
 30
0.0
 40
4.0
  0
CIRCLE
  5
B8
330
5E0
100
AcDbEntity
  8
PATTERN_FILL
  6
Continuous
 62
     7
100
AcDbCircle
 10
-404.0570069558811
 20
-386.6255875318306
 30
0.0
 40
4.0
  0
CIRCLE
  5
B9
330
5E0
100
AcDbEntity
  8
PATTERN_FILL
  6
Continuous
 62
     7
100
AcDbCircle
 10
-391.0570069558812
 20
-386.6255875318306
 30
0.0
 40
4.0
  0
CIRCLE
  5
BA
330
5E0
100
AcDbEntity
  8
PATTERN_FILL
  6
Continuous
 62
     7
100
AcDbCircle
 10
-378.0570069558812
 20
-386.6255875318306
 30
0.0
 40
4.0
  0
ARC
  5
BB
330
5E0
100
AcDbEntity
  8
PATTERN_FILL
  6
Continuous
 62
     7
100
AcDbCircle
 10
-365.0570069558809
 20
-386.6255875318308
 30
0.0
 40
3.999999999999642
100
AcDbArc
 50
45.94740158769738
 51
314.0525984123026
  0
ARC
  5
BC
330
5E0
100
AcDbEntity
  8
PATTERN_FILL
  6
Continuous
 62
     7
100
AcDbCircle
 10
-339.0570069558812
 20
-386.6255875318308
 30
0.0
 40
3.999999999999875
100
AcDbArc
 50
292.7644446706596
 51
67.23555532934103
  0
CIRCLE
  5
BD
330
5E0
100
AcDbEntity
  8
PATTERN_FILL
  6
Continuous
 62
     7
100
AcDbCircle
 10
-417.0570069558811
 20
-399.6255875318306
 30
0.0
 40
4.0
  0
CIRCLE
  5
BE
330
5E0
100
AcDbEntity
  8
PATTERN_FILL
  6
Continuous
 62
     7
100
AcDbCircle
 10
-404.0570069558811
 20
-399.6255875318306
 30
0.0
 40
4.0
  0
CIRCLE
  5
BF
330
5E0
100
AcDbEntity
  8
PATTERN_FILL
  6
Continuous
 62
     7
100
AcDbCircle
 10
-391.0570069558812
 20
-399.6255875318306
 30
0.0
 40
4.0
  0
CIRCLE
  5
C0
330
5E0
100
AcDbEntity
  8
PATTERN_FILL
  6
Continuous
 62
     7
100
AcDbCircle
 10
-378.0570069558812
 20
-399.6255875318306
 30
0.0
 40
4.0
  0
CIRCLE
  5
C1
330
5E0
100
AcDbEntity
  8
PATTERN_FILL
  6
Continuous
 62
     7
100
AcDbCircle
 10
-365.0570069558812
 20
-399.6255875318306
 30
0.0
 40
4.0
  0
CIRCLE
  5
C2
330
5E0
100
AcDbEntity
  8
PATTERN_FILL
  6
Continuous
 62
     7
100
AcDbCircle
 10
-352.0570069558812
 20
-399.6255875318306
 30
0.0
 40
4.0
  0
CIRCLE
  5
C3
330
5E0
100
AcDbEntity
  8
PATTERN_FILL
  6
Continuous
 62
     7
100
AcDbCircle
 10
-339.0570069558812
 20
-399.6255875318306
 30
0.0
 40
4.0
  0
CIRCLE
  5
C4
330
5E0
100
AcDbEntity
  8
PATTERN_FILL
  6
Continuous
 62
     7
100
AcDbCircle
 10
-417.0570069558811
 20
-412.6255875318306
 30
0.0
 40
4.0
  0
CIRCLE
  5
C5
330
5E0
100
AcDbEntity
  8
PATTERN_FILL
  6
Continuous
 62
     7
100
AcDbCircle
 10
-404.0570069558811
 20
-412.6255875318306
 30
0.0
 40
4.0
  0
CIRCLE
  5
C6
330
5E0
100
AcDbEntity
  8
PATTERN_FILL
  6
Continuous
 62
     7
100
AcDbCircle
 10
-391.0570069558812
 20
-412.6255875318306
 30
0.0
 40
4.0
  0
CIRCLE
  5
C7
330
5E0
100
AcDbEntity
  8
PATTERN_FILL
  6
Continuous
 62
     7
100
AcDbCircle
 10
-378.0570069558812
 20
-412.6255875318306
 30
0.0
 40
4.0
  0
CIRCLE
  5
C8
330
5E0
100
AcDbEntity
  8
PATTERN_FILL
  6
Continuous
 62
     7
100
AcDbCircle
 10
-365.0570069558812
 20
-412.6255875318306
 30
0.0
 40
4.0
  0
CIRCLE
  5
C9
330
5E0
100
AcDbEntity
  8
PATTERN_FILL
  6
Continuous
 62
     7
100
AcDbCircle
 10
-352.0570069558812
 20
-412.6255875318306
 30
0.0
 40
4.0
  0
ARC
  5
CA
330
5E0
100
AcDbEntity
  8
PATTERN_FILL
  6
Continuous
 62
     7
100
AcDbCircle
 10
-339.0570069558812
 20
-412.6255875318306
 30
0.0
 40
3.999999999999996
100
AcDbArc
 50
17.33400089002003
 51
306.2056881246093
  0
CIRCLE
  5
CB
330
5E0
100
AcDbEntity
  8
PATTERN_FILL
  6
Continuous
 62
     7
100
AcDbCircle
 10
-417.0570069558811
 20
-425.6255875318306
 30
0.0
 40
4.0
  0
CIRCLE
  5
CC
330
5E0
100
AcDbEntity
  8
PATTERN_FILL
  6
Continuous
 62
     7
100
AcDbCircle
 10
-404.0570069558811
 20
-425.6255875318306
 30
0.0
 40
4.0
  0
CIRCLE
  5
CD
330
5E0
100
AcDbEntity
  8
PATTERN_FILL
  6
Continuous
 62
     7
100
AcDbCircle
 10
-391.0570069558812
 20
-425.6255875318306
 30
0.0
 40
4.0
  0
CIRCLE
  5
CE
330
5E0
100
AcDbEntity
  8
PATTERN_FILL
  6
Continuous
 62
     7
100
AcDbCircle
 10
-378.0570069558812
 20
-425.6255875318306
 30
0.0
 40
4.0
  0
CIRCLE
  5
CF
330
5E0
100
AcDbEntity
  8
PATTERN_FILL
  6
Continuous
 62
     7
100
AcDbCircle
 10
-365.0570069558812
 20
-425.6255875318306
 30
0.0
 40
4.0
  0
CIRCLE
  5
D0
330
5E0
100
AcDbEntity
  8
PATTERN_FILL
  6
Continuous
 62
     7
100
AcDbCircle
 10
-352.0570069558812
 20
-425.6255875318306
 30
0.0
 40
4.0
  0
ARC
  5
D1
330
5E0
100
AcDbEntity
  8
PATTERN_FILL
  6
Continuous
 62
     7
100
AcDbCircle
 10
-339.0570069558812
 20
-425.6255875318306
 30
0.0
 40
4.000000000000016
100
AcDbArc
 50
86.93287804350218
 51
226.785176534932
  0
CIRCLE
  5
D2
330
5E0
100
AcDbEntity
  8
PATTERN_FILL
  6
Continuous
 62
     7
100
AcDbCircle
 10
-417.0570069558811
 20
-438.6255875318306
 30
0.0
 40
4.0
  0
CIRCLE
  5
D3
330
5E0
100
AcDbEntity
  8
PATTERN_FILL
  6
Continuous
 62
     7
100
AcDbCircle
 10
-404.0570069558811
 20
-438.6255875318306
 30
0.0
 40
4.0
  0
CIRCLE
  5
D4
330
5E0
100
AcDbEntity
  8
PATTERN_FILL
  6
Continuous
 62
     7
100
AcDbCircle
 10
-391.0570069558812
 20
-438.6255875318306
 30
0.0
 40
4.0
  0
CIRCLE
  5
D5
330
5E0
100
AcDbEntity
  8
PATTERN_FILL
  6
Continuous
 62
     7
100
AcDbCircle
 10
-378.0570069558812
 20
-438.6255875318306
 30
0.0
 40
4.0
  0
CIRCLE
  5
D6
330
5E0
100
AcDbEntity
  8
PATTERN_FILL
  6
Continuous
 62
     7
100
AcDbCircle
 10
-365.0570069558812
 20
-438.6255875318306
 30
0.0
 40
4.0
  0
CIRCLE
  5
D7
330
5E0
100
AcDbEntity
  8
PATTERN_FILL
  6
Continuous
 62
     7
100
AcDbCircle
 10
-352.0570069558812
 20
-438.6255875318306
 30
0.0
 40
4.0
  0
CIRCLE
  5
D8
330
5E0
100
AcDbEntity
  8
PATTERN_FILL
  6
Continuous
 62
     7
100
AcDbCircle
 10
-417.0570069558811
 20
-451.6255875318305
 30
0.0
 40
4.0
  0
CIRCLE
  5
D9
330
5E0
100
AcDbEntity
  8
PATTERN_FILL
  6
Continuous
 62
     7
100
AcDbCircle
 10
-404.0570069558811
 20
-451.6255875318305
 30
0.0
 40
4.0
  0
CIRCLE
  5
DA
330
5E0
100
AcDbEntity
  8
PATTERN_FILL
  6
Continuous
 62
     7
100
AcDbCircle
 10
-391.0570069558812
 20
-451.6255875318305
 30
0.0
 40
4.0
  0
CIRCLE
  5
DB
330
5E0
100
AcDbEntity
  8
PATTERN_FILL
  6
Continuous
 62
     7
100
AcDbCircle
 10
-378.0570069558812
 20
-451.6255875318305
 30
0.0
 40
4.0
  0
CIRCLE
  5
DC
330
5E0
100
AcDbEntity
  8
PATTERN_FILL
  6
Continuous
 62
     7
100
AcDbCircle
 10
-365.0570069558812
 20
-451.6255875318305
 30
0.0
 40
4.0
  0
ARC
  5
DD
330
5E0
100
AcDbEntity
  8
PATTERN_FILL
  6
Continuous
 62
     7
100
AcDbCircle
 10
-352.0570069558812
 20
-451.6255875318305
 30
0.0
 40
3.999999999999978
100
AcDbArc
 50
94.86193550824006
 51
195.8370743857207
  0
CIRCLE
  5
DE
330
5E0
100
AcDbEntity
  8
PATTERN_FILL
  6
Continuous
 62
     7
100
AcDbCircle
 10
-417.0570069558811
 20
-464.6255875318305
 30
0.0
 40
4.0
  0
CIRCLE
  5
DF
330
5E0
100
AcDbEntity
  8
PATTERN_FILL
  6
Continuous
 62
     7
100
AcDbCircle
 10
-404.0570069558811
 20
-464.6255875318305
 30
0.0
 40
4.0
  0
CIRCLE
  5
E0
330
5E0
100
AcDbEntity
  8
PATTERN_FILL
  6
Continuous
 62
     7
100
AcDbCircle
 10
-391.0570069558812
 20
-464.6255875318305
 30
0.0
 40
4.0
  0
CIRCLE
  5
E1
330
5E0
100
AcDbEntity
  8
PATTERN_FILL
  6
Continuous
 62
     7
100
AcDbCircle
 10
-378.0570069558812
 20
-464.6255875318305
 30
0.0
 40
4.0
  0
ARC
  5
E2
330
5E0
100
AcDbEntity
  8
PATTERN_FILL
  6
Continuous
 62
     7
100
AcDbCircle
 10
-365.0570069558813
 20
-464.6255875318305
 30
0.0
 40
4.000000000000066
100
AcDbArc
 50
53.98491841076184
 51
222.2098887801171
  0
CIRCLE
  5
E3
330
5E0
100
AcDbEntity
  8
PATTERN_FILL
  6
Continuous
 62
     7
100
AcDbCircle
 10
-417.0570069558811
 20
-477.6255875318308
 30
0.0
 40
4.0
  0
CIRCLE
  5
E4
330
5E0
100
AcDbEntity
  8
PATTERN_FILL
  6
Continuous
 62
     7
100
AcDbCircle
 10
-404.0570069558811
 20
-477.6255875318308
 30
0.0
 40
4.0
  0
CIRCLE
  5
E5
330
5E0
100
AcDbEntity
  8
PATTERN_FILL
  6
Continuous
 62
     7
100
AcDbCircle
 10
-391.0570069558812
 20
-477.6255875318308
 30
0.0
 40
4.0
  0
ARC
  5
E6
330
5E0
100
AcDbEntity
  8
PATTERN_FILL
  6
Continuous
 62
     7
100
AcDbCircle
 10
-378.0570069558812
 20
-477.6255875318308
 30
0.0
 40
4.000000000000007
100
AcDbArc
 50
49.31020867084885
 51
212.1800553218097
  0
LINE
  5
E7
330
5E0
100
AcDbEntity
  8
PATTERN_FILL
  6
Continuous
 62
     7
100
AcDbLine
 10
-391.1341483830576
 20
-142.2551607935286
 30
0.0
 11
-391.1341483830576
 21
-137.031295557901
 31
0.0
  0
LINE
  5
E8
330
5E0
100
AcDbEntity
  8
PATTERN_FILL
  6
Continuous
 62
     7
100
AcDbLine
 10
-393.7460810008713
 20
-139.6432281757148
 30
0.0
 11
-388.5222157652437
 21
-139.6432281757148
 31
0.0
  0
LINE
  5
E9
330
5E0
100
AcDbEntity
  8
PATTERN_FILL
  6
Continuous
 62
     7
100
AcDbLine
 10
-391.0070205191922
 20
-480.2238535238625
 30
0.0
 11
-391.0070205191922
 21
-474.9999882882347
 31
0.0
  0
LINE
  5
EA
330
5E0
100
AcDbEntity
  8
PATTERN_FILL
  6
Continuous
 62
     7
100
AcDbLine
 10
-393.618953137006
 20
-477.6119209060487
 30
0.0
 11
-388.3950879013784
 21
-477.6119209060487
 31
0.0
  0
TEXT
  5
EB
330
5E0
100
AcDbEntity
  8
SPEC
 62
     7
100
AcDbText
 10
-712.4999999999999
 20
1385.719034999999
 30
0.0
 40
24.4326171875
  1
仕様
 41
0.7
 11
-712.4999999999999
 21
1410.151652187499
 31
0.0
100
AcDbText
 73
     3
  0
TEXT
  5
EC
330
5E0
100
AcDbEntity
  8
SPEC
 62
     7
100
AcDbText
 10
-289.3197978516614
 20
820.587120864234
 30
0.0
 40
19.00314670138889
  1
7.0kg
 41
0.7
 11
-289.3197978516614
 21
839.5902675656229
 31
0.0
100
AcDbText
 73
     3
  0
TEXT
  5
ED
330
5E0
100
AcDbEntity
  8
SPEC
 62
     7
100
AcDbText
 10
-289.5752241186937
 20
856.1075597695792
 30
0.0
 40
19.00314670138889
  1
151×379×179mm(除突起部) 
 41
0.7
 11
-289.5752241186937
 21
875.1107064709682
 31
0.0
100
AcDbText
 73
     3
  0
LINE
  5
EE
330
5E0
100
AcDbEntity
  8
SPEC
  6
Continuous
 62
     7
100
AcDbLine
 10
-725.0
 20
1371.786334999751
 30
0.0
 11
750.0
 21
1371.786334999751
 31
0.0
  0
LINE
  5
EF
330
5E0
100
AcDbEntity
  8
SPEC
  6
Continuous
 62
     7
100
AcDbLine
 10
-725.0
 20
1334.28633499975
 30
0.0
 11
750.0
 21
1334.28633499975
 31
0.0
  0
LINE
  5
F0
330
5E0
100
AcDbEntity
  8
SPEC
  6
Continuous
 62
     7
100
AcDbLine
 10
-725.0
 20
1184.28633499975
 30
0.0
 11
750.0
 21
1184.28633499975
 31
0.0
  0
LINE
  5
F1
330
5E0
100
AcDbEntity
  8
SPEC
  6
Continuous
 62
     7
100
AcDbLine
 10
-725.0
 20
1221.78633499975
 30
0.0
 11
750.0
 21
1221.78633499975
 31
0.0
  0
LINE
  5
F2
330
5E0
100
AcDbEntity
  8
SPEC
  6
Continuous
 62
     7
100
AcDbLine
 10
-725.0
 20
1259.28633499975
 30
0.0
 11
750.0
 21
1259.28633499975
 31
0.0
  0
LINE
  5
F3
330
5E0
100
AcDbEntity
  8
SPEC
  6
Continuous
 62
     7
100
AcDbLine
 10
-450.0
 20
1146.786334999746
 30
0.0
 11
750.0
 21
1146.786334999746
 31
0.0
  0
LINE
  5
F4
330
5E0
100
AcDbEntity
  8
SPEC
  6
Continuous
 62
     7
100
AcDbLine
 10
-725.0
 20
1071.786334999742
 30
0.0
 11
750.0
 21
1071.786334999742
 31
0.0
  0
LINE
  5
F5
330
5E0
100
AcDbEntity
  8
SPEC
  6
Continuous
 62
     7
100
AcDbLine
 10
-450.0
 20
1109.286334999745
 30
0.0
 11
750.0
 21
1109.286334999745
 31
0.0
  0
LINE
  5
F6
330
5E0
100
AcDbEntity
  8
SPEC
  6
Continuous
 62
     7
100
AcDbLine
 10
-725.0
 20
1034.28633499974
 30
0.0
 11
750.0
 21
1034.28633499974
 31
0.0
  0
LINE
  5
F7
330
5E0
100
AcDbEntity
  8
SPEC
  6
Continuous
 62
     7
100
AcDbLine
 10
-450.0
 20
996.7863349997383
 30
0.0
 11
750.0
 21
996.7863349997383
 31
0.0
  0
LINE
  5
F8
330
5E0
100
AcDbEntity
  8
SPEC
  6
Continuous
 62
     7
100
AcDbLine
 10
-725.0
 20
1296.78633499975
 30
0.0
 11
750.0
 21
1296.78633499975
 31
0.0
  0
TEXT
  5
F9
330
5E0
100
AcDbEntity
  8
SPEC
 62
     7
100
AcDbText
 10
-715.4169915220879
 20
1306.732172602115
 30
0.0
 40
19.00314670138889
  1
カバレージ角(水平×垂直)
 41
0.7
 11
-715.4169915220879
 21
1325.735319303503
 31
0.0
100
AcDbText
 73
     3
  0
TEXT
  5
FA
330
5E0
100
AcDbEntity
  8
SPEC
 62
     7
100
AcDbText
 10
-713.8312146031482
 20
1342.602877918792
 30
0.0
 40
19.00314670138889
  1
周波数レンジ(-10dB)
 41
0.7
 11
-713.8312146031482
 21
1361.606024620181
 31
0.0
100
AcDbText
 73
     3
  0
TEXT
  5
FB
330
5E0
100
AcDbEntity
  8
SPEC
 62
     7
100
AcDbText
 10
-713.6912308044034
 20
1231.920536042608
 30
0.0
 40
19.00314670138889
  1
最大音圧(1m）
 41
0.7
 11
-713.6912308044034
 21
1250.923682743997
 31
0.0
100
AcDbText
 73
     3
  0
LINE
  5
FC
330
5E0
100
AcDbEntity
  8
SPEC
  6
Continuous
 62
     7
100
AcDbLine
 10
-725.0
 20
959.2863349997362
 30
0.0
 11
750.0
 21
959.2863349997362
 31
0.0
  0
LINE
  5
FD
330
5E0
100
AcDbEntity
  8
SPEC
  6
Continuous
 62
     7
100
AcDbLine
 10
-725.0
 20
921.7863349997342
 30
0.0
 11
750.0
 21
921.7863349997342
 31
0.0
  0
LINE
  5
FE
330
5E0
100
AcDbEntity
  8
SPEC
  6
Continuous
 62
     7
100
AcDbLine
 10
-725.0
 20
884.2863349997335
 30
0.0
 11
750.0
 21
884.2863349997335
 31
0.0
  0
LINE
  5
FF
330
5E0
100
AcDbEntity
  8
SPEC
  6
Continuous
 62
     7
100
AcDbLine
 10
-725.0
 20
846.7863349997335
 30
0.0
 11
750.0
 21
846.7863349997335
 31
0.0
  0
LINE
  5
100
330
5E0
100
AcDbEntity
  8
SPEC
  6
Continuous
 62
     7
100
AcDbLine
 10
-725.0
 20
1371.786334999751
 30
0.0
 11
-725.0
 21
809.2863349997333
 31
0.0
  0
LINE
  5
101
330
5E0
100
AcDbEntity
  8
SPEC
  6
Continuous
 62
     7
100
AcDbLine
 10
750.0
 20
1371.786334999751
 30
0.0
 11
750.0
 21
809.2863349997333
 31
0.0
  0
LINE
  5
102
330
5E0
100
AcDbEntity
  8
SPEC
  6
Continuous
 62
     7
100
AcDbLine
 10
-299.999999999999
 20
1371.786334999751
 30
0.0
 11
-299.999999999999
 21
809.2863349997333
 31
0.0
  0
TEXT
  5
103
330
5E0
100
AcDbEntity
  8
SPEC
 62
     7
100
AcDbText
 10
-714.5423258120578
 20
857.2999251711362
 30
0.0
 40
19.00314670138889
  1
寸法(W×H×D)
 41
0.7
 11
-714.5423258120578
 21
876.303071872525
 31
0.0
100
AcDbText
 73
     3
  0
TEXT
  5
104
330
5E0
100
AcDbEntity
  8
SPEC
 62
     7
100
AcDbText
 10
-714.5462904761703
 20
819.4320628802703
 30
0.0
 40
19.00314670138889
  1
質量
 41
0.7
 11
-714.5462904761703
 21
838.4352095816591
 31
0.0
100
AcDbText
 73
     3
  0
TEXT
  5
105
330
5E0
100
AcDbEntity
  8
SPEC
 62
     7
100
AcDbText
 10
-288.5677970534043
 20
1342.61153943062
 30
0.0
 40
19.00314670138889
  1
80Hz～20kHz
 41
0.7
 11
-288.5677970534043
 21
1361.614686132009
 31
0.0
100
AcDbText
 73
     3
  0
TEXT
  5
106
330
5E0
100
AcDbEntity
  8
SPEC
 62
     7
100
AcDbText
 10
-289.9004950740474
 20
1231.817318522935
 30
0.0
 40
19.00314670138889
  1
115dB SPL
 41
0.7
 11
-289.9004950740474
 21
1250.820465224324
 31
0.0
100
AcDbText
 73
     3
  0
TEXT
  5
107
330
5E0
100
AcDbEntity
  8
SPEC
 62
     7
100
AcDbText
 10
-288.6558610261163
 20
1305.806673440679
 30
0.0
 40
19.00314670138889
  1
90°×90°　
 41
0.7
 11
-288.6558610261163
 21
1324.809820142068
 31
0.0
100
AcDbText
 73
     3
  0
TEXT
  5
108
330
5E0
100
AcDbEntity
  8
SPEC
 62
     7
100
AcDbText
 10
-288.9794763003824
 20
932.4042234231157
 30
0.0
 40
19.00314670138889
  1
ねじ止め端子、4Pスピコン
 41
0.7
 11
-288.9794763003824
 21
951.4073701245047
 31
0.0
100
AcDbText
 73
     3
  0
TEXT
  5
109
330
5E0
100
AcDbEntity
  8
SPEC
 62
     7
100
AcDbText
 10
-288.8011504309442
 20
1268.85664001758
 30
0.0
 40
19.00314670138889
  1
91dB SPL
 41
0.7
 11
-288.8011504309442
 21
1287.859786718969
 31
0.0
100
AcDbText
 73
     3
  0
TEXT
  5
10A
330
5E0
100
AcDbEntity
  8
SPEC
 62
     7
100
AcDbText
 10
-289.8009842884332
 20
1193.909439993892
 30
0.0
 40
19.00314670138889
  1
16Ω
 41
0.7
 11
-289.8009842884332
 21
1212.912586695281
 31
0.0
100
AcDbText
 73
     3
  0
TEXT
  5
10B
330
5E0
100
AcDbEntity
  8
SPEC
 62
     7
100
AcDbText
 10
-289.119158685176
 20
1156.060281259084
 30
0.0
 40
19.00314670138889
  1
900W
 41
0.7
 11
-289.119158685176
 21
1175.063427960473
 31
0.0
100
AcDbText
 73
     3
  0
TEXT
  5
10C
330
5E0
100
AcDbEntity
  8
SPEC
 62
     7
100
AcDbText
 10
-289.7959414498282
 20
1006.882055331955
 30
0.0
 40
19.00314670138889
  1
135mm(225H)×2
 41
0.7
 11
-289.7959414498282
 21
1025.885202033345
 31
0.0
100
AcDbText
 73
     3
  0
TEXT
  5
10D
330
5E0
100
AcDbEntity
  8
SPEC
 62
     7
100
AcDbText
 10
-714.0421933877881
 20
931.1217725598599
 30
0.0
 40
19.00314670138889
  1
入力端子
 41
0.7
 11
-714.0421933877881
 21
950.1249192612489
 31
0.0
100
AcDbText
 73
     3
  0
TEXT
  5
10E
330
5E0
100
AcDbEntity
  8
SPEC
 62
     7
100
AcDbText
 10
-713.8759461710413
 20
1268.595969367646
 30
0.0
 40
19.00314670138889
  1
感度(1W、1m)※1
 41
0.7
 11
-713.8759461710413
 21
1287.599116069035
 31
0.0
100
AcDbText
 73
     3
  0
TEXT
  5
10F
330
5E0
100
AcDbEntity
  8
SPEC
 62
     7
100
AcDbText
 10
-713.8668789530919
 20
1194.334142300074
 30
0.0
 40
19.00314670138889
  1
公称インピーダンス
 41
0.7
 11
-713.8668789530919
 21
1213.337289001463
 31
0.0
100
AcDbText
 73
     3
  0
TEXT
  5
110
330
5E0
100
AcDbEntity
  8
SPEC
 62
     7
100
AcDbText
 10
-714.0046661400117
 20
1155.689231546068
 30
0.0
 40
19.00314670138889
  1
許容入力※2
 41
0.7
 11
-714.0046661400117
 21
1174.692378247457
 31
0.0
100
AcDbText
 73
     3
  0
TEXT
  5
111
330
5E0
100
AcDbEntity
  8
SPEC
 62
     7
100
AcDbText
 10
-721.556785326512
 20
1006.4205008998
 30
0.0
 40
19.00314670138889
  1
ドライバー構成
 41
0.7
 11
-721.556785326512
 21
1025.423647601189
 31
0.0
100
AcDbText
 73
     3
  0
TEXT
  5
112
330
5E0
100
AcDbEntity
  8
SPEC
 62
     7
100
AcDbText
 10
-713.6368904479354
 20
893.4923956620716
 30
0.0
 40
19.00314670138889
  1
仕上げ/色
 41
0.7
 11
-713.6368904479354
 21
912.4955423634606
 31
0.0
100
AcDbText
 73
     3
  0
TEXT
  5
113
330
5E0
100
AcDbEntity
  8
SPEC
 62
     7
100
AcDbText
 10
-288.9191302527306
 20
893.4221921485104
 30
0.0
 40
19.00314670138889
  1
DuraFlex/黒または白(-WH)
 41
0.7
 11
-288.9191302527306
 21
912.4253388498992
 31
0.0
100
AcDbText
 73
     3
  0
TEXT
  5
114
330
5E0
100
AcDbEntity
  8
SPEC
 62
     7
100
AcDbText
 10
-438.9266825078197
 20
1083.68937757855
 30
0.0
 40
19.00314670138889
  1
Continuous
 41
0.7
 11
-438.9266825078197
 21
1102.692524279939
 31
0.0
100
AcDbText
 73
     3
  0
TEXT
  5
115
330
5E0
100
AcDbEntity
  8
SPEC
 62
     7
100
AcDbText
 10
-288.2253068449042
 20
1118.701392054786
 30
0.0
 40
19.00314670138889
  1
450W
 41
0.7
 11
-288.2253068449042
 21
1137.704538756175
 31
0.0
100
AcDbText
 73
     3
  0
TEXT
  5
116
330
5E0
100
AcDbEntity
  8
SPEC
 62
     7
100
AcDbText
 10
-288.9151331116418
 20
1080.770268996921
 30
0.0
 40
19.00314670138889
  1
225W
 41
0.7
 11
-288.9151331116418
 21
1099.773415698311
 31
0.0
100
AcDbText
 73
     3
  0
TEXT
  5
117
330
5E0
100
AcDbEntity
  8
SPEC
 62
     7
100
AcDbText
 10
-439.2883363664305
 20
1120.224967960762
 30
0.0
 40
19.00314670138889
  1
Program
 41
0.7
 11
-439.2883363664305
 21
1139.228114662151
 31
0.0
100
AcDbText
 73
     3
  0
TEXT
  5
118
330
5E0
100
AcDbEntity
  8
SPEC
 62
     7
100
AcDbText
 10
-439.2883363664305
 20
1156.278353517913
 30
0.0
 40
19.00314670138889
  1
Peak
 41
0.7
 11
-439.2883363664305
 21
1175.281500219302
 31
0.0
100
AcDbText
 73
     3
  0
TEXT
  5
119
330
5E0
100
AcDbEntity
  8
SPEC
 62
     7
100
AcDbText
 10
-289.0081465751264
 20
968.6568769321489
 30
0.0
 40
19.00314670138889
  1
25mm(201J)
 41
0.7
 11
-289.0081465751264
 21
987.6600236335379
 31
0.0
100
AcDbText
 73
     3
  0
TEXT
  5
11A
330
5E0
100
AcDbEntity
  8
SPEC
 62
     7
100
AcDbText
 10
-438.4680243063745
 20
969.5515712273262
 30
0.0
 40
19.00314670138889
  1
HF
 41
0.7
 11
-438.4680243063745
 21
988.5547179287152
 31
0.0
100
AcDbText
 73
     3
  0
TEXT
  5
11B
330
5E0
100
AcDbEntity
  8
SPEC
 62
     7
100
AcDbText
 10
-438.73926444974
 20
1006.23785079723
 30
0.0
 40
19.00314670138889
  1
LF
 41
0.7
 11
-438.73926444974
 21
1025.240997498619
 31
0.0
100
AcDbText
 73
     3
  0
LINE
  5
11C
330
5E0
100
AcDbEntity
  8
SPEC
  6
Continuous
 62
     7
100
AcDbLine
 10
-450.0
 20
1184.28633499975
 30
0.0
 11
-450.0
 21
1071.786334999742
 31
0.0
  0
LINE
  5
11D
330
5E0
100
AcDbEntity
  8
SPEC
  6
Continuous
 62
     7
100
AcDbLine
 10
-450.0
 20
1034.28633499974
 30
0.0
 11
-450.0
 21
959.2863349997362
 31
0.0
  0
TEXT
  5
11E
330
5E0
100
AcDbEntity
  8
SPEC
 62
     7
100
AcDbText
 10
-288.4723646574084
 20
1044.429462209625
 30
0.0
 40
19.00314670138889
  1
3.3kHz
 41
0.7
 11
-288.4723646574084
 21
1063.432608911014
 31
0.0
100
AcDbText
 73
     3
  0
TEXT
  5
11F
330
5E0
100
AcDbEntity
  8
SPEC
 62
     7
100
AcDbText
 10
-715.2008516647573
 20
1044.100310543303
 30
0.0
 40
19.00314670138889
  1
クロスオーバー周波数
 41
0.7
 11
-715.2008516647573
 21
1063.103457244692
 31
0.0
100
AcDbText
 73
     3
  0
LINE
  5
120
330
5E0
100
AcDbEntity
  8
SPEC
  6
Continuous
 62
     7
100
AcDbLine
 10
-725.0
 20
809.2863349997335
 30
0.0
 11
750.0
 21
809.2863349997335
 31
0.0
  0
TEXT
  5
121
330
5E0
100
AcDbEntity
  8
SPEC
 62
     7
100
AcDbText
 10
-700.0
 20
766.1099999999997
 30
0.0
 40
19.00314670138889
  1
※1 300Hz～16kHz　※2 IECピンクノイズ、クレストファクタ ー6dB、100時間
 41
0.7
 11
-700.0
 21
785.1131467013886
 31
0.0
100
AcDbText
 73
     3
  0
TEXT
  5
122
330
5E0
100
AcDbEntity
  8
DIMNSIONS
 62
     7
100
AcDbText
 10
-78.47402737721309
 20
-1006.520024888375
 30
0.0
 40
24.4326171875
  1
(単位：mm)
 41
0.7
 11
-78.47402737721309
 21
-982.0874077008749
 31
0.0
100
AcDbText
 73
     3
  0
LINE
  5
123
330
5E0
100
AcDbEntity
  8
DIMNSIONS
  6
Continuous
 62
     7
100
AcDbLine
 10
-425.5006084649205
 20
-510.4749846989825
 30
0.0
 11
-425.5006084649205
 21
-569.9999999997348
 31
0.0
  0
LINE
  5
124
330
5E0
100
AcDbEntity
  8
DIMNSIONS
  6
Continuous
 62
     7
100
AcDbLine
 10
-274.4994137873006
 20
-510.4749846989825
 30
0.0
 11
-274.4994137873006
 21
-569.9999999997348
 31
0.0
  0
LINE
  5
125
330
5E0
100
AcDbEntity
  8
DIMNSIONS
  6
Continuous
 62
     7
100
AcDbLine
 10
-425.5006084649205
 20
-549.9999999997347
 30
0.0
 11
-274.4994137873006
 21
-549.9999999997347
 31
0.0
  0
LINE
  5
126
330
5E0
100
AcDbEntity
  8
DIMNSIONS
  6
Continuous
 62
     7
100
AcDbLine
 10
-425.5006084649205
 20
-549.9999999997347
 30
0.0
 11
-400.4943828789832
 21
-543.2996020482323
 31
0.0
  0
LINE
  5
127
330
5E0
100
AcDbEntity
  8
DIMNSIONS
  6
Continuous
 62
     7
100
AcDbLine
 10
-425.5006084649205
 20
-549.9999999997347
 30
0.0
 11
-400.4943828789832
 21
-556.7003979512371
 31
0.0
  0
LINE
  5
128
330
5E0
100
AcDbEntity
  8
DIMNSIONS
  6
Continuous
 62
     7
100
AcDbLine
 10
-274.4994137873006
 20
-549.9999999997347
 30
0.0
 11
-299.5056393732381
 21
-556.7003979512371
 31
0.0
  0
LINE
  5
129
330
5E0
100
AcDbEntity
  8
DIMNSIONS
  6
Continuous
 62
     7
100
AcDbLine
 10
-274.4994137873006
 20
-549.9999999997347
 30
0.0
 11
-299.5056393732381
 21
-543.2996020482323
 31
0.0
  0
TEXT
  5
12A
330
5E0
100
AcDbEntity
  8
DIMNSIONS
 62
     7
100
AcDbText
 10
-376.458344459444
 20
-540.0611111108458
 30
0.0
 40
27.14735243055556
  1
151
 41
0.7
 11
-376.458344459444
 21
-512.9137586802902
 31
0.0
100
AcDbText
 73
     3
  0
LINE
  5
12B
330
5E0
100
AcDbEntity
  8
DIMNSIONS
  6
Continuous
 62
     7
100
AcDbLine
 10
-435.975610673952
 20
-499.9999846989823
 30
0.0
 11
-520.0000086972435
 21
-499.9999846989823
 31
0.0
  0
LINE
  5
12C
330
5E0
100
AcDbEntity
  8
DIMNSIONS
  6
Continuous
 62
     7
100
AcDbLine
 10
-435.9756106739025
 20
-120.9999846989818
 30
0.0
 11
-520.0000086972435
 21
-120.9999846989818
 31
0.0
  0
LINE
  5
12D
330
5E0
100
AcDbEntity
  8
DIMNSIONS
  6
Continuous
 62
     7
100
AcDbLine
 10
-500.0000086972435
 20
-499.9999846989823
 30
0.0
 11
-500.0000086972435
 21
-120.9999846989818
 31
0.0
  0
LINE
  5
12E
330
5E0
100
AcDbEntity
  8
DIMNSIONS
  6
Continuous
 62
     7
100
AcDbLine
 10
-500.0000086972435
 20
-499.9999846989823
 30
0.0
 11
-506.7004066487459
 21
-474.9937591130447
 31
0.0
  0
LINE
  5
12F
330
5E0
100
AcDbEntity
  8
DIMNSIONS
  6
Continuous
 62
     7
100
AcDbLine
 10
-500.0000086972435
 20
-499.9999846989823
 30
0.0
 11
-493.2996107457411
 21
-474.9937591130447
 31
0.0
  0
LINE
  5
130
330
5E0
100
AcDbEntity
  8
DIMNSIONS
  6
Continuous
 62
     7
100
AcDbLine
 10
-500.0000086972435
 20
-120.9999846989818
 30
0.0
 11
-493.2996107457411
 21
-146.0062102849193
 31
0.0
  0
LINE
  5
131
330
5E0
100
AcDbEntity
  8
DIMNSIONS
  6
Continuous
 62
     7
100
AcDbLine
 10
-500.0000086972435
 20
-120.9999846989818
 30
0.0
 11
-506.7004066487459
 21
-146.0062102849193
 31
0.0
  0
TEXT
  5
132
330
5E0
100
AcDbEntity
  8
DIMNSIONS
 62
     7
100
AcDbText
 10
-509.9388975861325
 20
-326.4583216215678
 30
0.0
 40
27.14735243055556
  1
379
 50
90.0
 41
0.7
 11
-537.086250016688
 21
-326.4583216215678
 31
0.0
100
AcDbText
 73
     3
  0
LINE
  5
133
330
5E0
100
AcDbEntity
  8
DIMNSIONS
  6
Continuous
 62
     7
100
AcDbLine
 10
-370.0006084645868
 20
-74.99999999973477
 30
0.0
 11
-520.0000086972435
 21
-74.99999999973477
 31
0.0
  0
LINE
  5
134
330
5E0
100
AcDbEntity
  8
DIMNSIONS
  6
Continuous
 62
     7
100
AcDbLine
 10
-416.5006084645868
 20
104.0000000078961
 30
0.0
 11
-520.0000086972435
 21
104.0000000078961
 31
0.0
  0
LINE
  5
135
330
5E0
100
AcDbEntity
  8
DIMNSIONS
  6
Continuous
 62
     7
100
AcDbLine
 10
-500.0000086972435
 20
-74.99999999973477
 30
0.0
 11
-500.0000086972435
 21
104.0000000078961
 31
0.0
  0
LINE
  5
136
330
5E0
100
AcDbEntity
  8
DIMNSIONS
  6
Continuous
 62
     7
100
AcDbLine
 10
-500.0000086972435
 20
-74.99999999973477
 30
0.0
 11
-506.7004066487459
 21
-49.99377441379728
 31
0.0
  0
LINE
  5
137
330
5E0
100
AcDbEntity
  8
DIMNSIONS
  6
Continuous
 62
     7
100
AcDbLine
 10
-500.0000086972435
 20
-74.99999999973477
 30
0.0
 11
-493.2996107457411
 21
-49.99377441379728
 31
0.0
  0
LINE
  5
138
330
5E0
100
AcDbEntity
  8
DIMNSIONS
  6
Continuous
 62
     7
100
AcDbLine
 10
-500.0000086972435
 20
104.0000000078961
 30
0.0
 11
-493.2996107457411
 21
78.99377442195866
 31
0.0
  0
LINE
  5
139
330
5E0
100
AcDbEntity
  8
DIMNSIONS
  6
Continuous
 62
     7
100
AcDbLine
 10
-500.0000086972435
 20
104.0000000078961
 30
0.0
 11
-506.7004066487459
 21
78.99377442195866
 31
0.0
  0
TEXT
  5
13A
330
5E0
100
AcDbEntity
  8
DIMNSIONS
 62
     7
100
AcDbText
 10
-509.9388975861325
 20
-1.458333332863876
 30
0.0
 40
27.14735243055556
  1
179
 50
90.0
 41
0.7
 11
-537.086250016688
 21
-1.458333332863873
 31
0.0
100
AcDbText
 73
     3
  0
LINE
  5
13B
330
5E0
100
AcDbEntity
  8
DIMNSIONS
  6
Continuous
 62
     7
100
AcDbLine
 10
64.2293894315393
 20
-499.99999999968
 30
0.0
 11
4.999991302756484
 21
-499.99999999968
 31
0.0
  0
LINE
  5
13C
330
5E0
100
AcDbEntity
  8
DIMNSIONS
  6
Continuous
 62
     7
100
AcDbLine
 10
104.5999906200413
 20
-302.0045016343534
 30
0.0
 11
4.999991302756484
 21
-302.0045016343534
 31
0.0
  0
LINE
  5
13D
330
5E0
100
AcDbEntity
  8
DIMNSIONS
  6
Continuous
 62
     7
100
AcDbLine
 10
24.99999130275649
 20
-499.99999999968
 30
0.0
 11
24.99999130275649
 21
-302.0045016343534
 31
0.0
  0
LINE
  5
13E
330
5E0
100
AcDbEntity
  8
DIMNSIONS
  6
Continuous
 62
     7
100
AcDbLine
 10
24.99999130275649
 20
-499.99999999968
 30
0.0
 11
18.29959335125404
 21
-474.9937744137425
 31
0.0
  0
LINE
  5
13F
330
5E0
100
AcDbEntity
  8
DIMNSIONS
  6
Continuous
 62
     7
100
AcDbLine
 10
24.99999130275649
 20
-499.99999999968
 30
0.0
 11
31.70038925425892
 21
-474.9937744137425
 31
0.0
  0
LINE
  5
140
330
5E0
100
AcDbEntity
  8
DIMNSIONS
  6
Continuous
 62
     7
100
AcDbLine
 10
24.99999130275649
 20
-302.0045016343534
 30
0.0
 11
31.70038925425892
 21
-327.0107272202908
 31
0.0
  0
LINE
  5
141
330
5E0
100
AcDbEntity
  8
DIMNSIONS
  6
Continuous
 62
     7
100
AcDbLine
 10
24.99999130275649
 20
-302.0045016343534
 30
0.0
 11
18.29959335125404
 21
-327.0107272202908
 31
0.0
  0
TEXT
  5
142
330
5E0
100
AcDbEntity
  8
DIMNSIONS
 62
     7
100
AcDbText
 10
15.06110241386761
 20
-427.4605841503499
 30
0.0
 40
27.14735243055556
  1
198
 50
90.0
 41
0.7
 11
-12.08625001668794
 21
-427.4605841503499
 31
0.0
100
AcDbText
 73
     3
  0
LINE
  5
143
330
5E0
100
AcDbEntity
  8
DIMNSIONS
  6
Continuous
 62
     7
100
AcDbLine
 10
104.5999906200413
 20
-302.0045016343534
 30
0.0
 11
4.999991302756498
 21
-302.0045016343534
 31
0.0
  0
LINE
  5
144
330
5E0
100
AcDbEntity
  8
DIMNSIONS
  6
Continuous
 62
     7
100
AcDbLine
 10
104.5999906200413
 20
-193.99999999968
 30
0.0
 11
4.999991302756498
 21
-193.99999999968
 31
0.0
  0
LINE
  5
145
330
5E0
100
AcDbEntity
  8
DIMNSIONS
  6
Continuous
 62
     7
100
AcDbLine
 10
24.9999913027565
 20
-302.0045016343534
 30
0.0
 11
24.9999913027565
 21
-193.99999999968
 31
0.0
  0
LINE
  5
146
330
5E0
100
AcDbEntity
  8
DIMNSIONS
  6
Continuous
 62
     7
100
AcDbLine
 10
24.9999913027565
 20
-302.0045016343534
 30
0.0
 11
18.29959335125406
 21
-276.9982760484159
 31
0.0
  0
LINE
  5
147
330
5E0
100
AcDbEntity
  8
DIMNSIONS
  6
Continuous
 62
     7
100
AcDbLine
 10
24.9999913027565
 20
-302.0045016343534
 30
0.0
 11
31.70038925425892
 21
-276.9982760484159
 31
0.0
  0
LINE
  5
148
330
5E0
100
AcDbEntity
  8
DIMNSIONS
  6
Continuous
 62
     7
100
AcDbLine
 10
24.9999913027565
 20
-193.99999999968
 30
0.0
 11
31.70038925425892
 21
-219.0062255856175
 31
0.0
  0
LINE
  5
149
330
5E0
100
AcDbEntity
  8
DIMNSIONS
  6
Continuous
 62
     7
100
AcDbLine
 10
24.9999913027565
 20
-193.99999999968
 30
0.0
 11
18.29959335125406
 21
-219.0062255856175
 31
0.0
  0
TEXT
  5
14A
330
5E0
100
AcDbEntity
  8
DIMNSIONS
 62
     7
100
AcDbText
 10
15.06110241386761
 20
-274.4605841503501
 30
0.0
 40
27.14735243055556
  1
108
 50
90.0
 41
0.7
 11
-12.08625001668794
 21
-274.4605841503501
 31
0.0
100
AcDbText
 73
     3
  0
LINE
  5
14B
330
5E0
100
AcDbEntity
  8
DIMNSIONS
  6
Continuous
 62
     7
100
AcDbLine
 10
130.2043962902858
 20
-151.9999999996818
 30
0.0
 11
29.99998840376746
 21
-151.9999999996818
 31
0.0
  0
LINE
  5
14C
330
5E0
100
AcDbEntity
  8
DIMNSIONS
  6
Continuous
 62
     7
100
AcDbLine
 10
64.22938943148928
 20
-120.9999999996838
 30
0.0
 11
29.99998840376746
 21
-120.9999999996838
 31
0.0
  0
LINE
  5
14D
330
5E0
100
AcDbEntity
  8
DIMNSIONS
  6
Continuous
 62
     7
100
AcDbLine
 10
49.99998840376746
 20
-120.9999999996838
 30
0.0
 11
49.99998840376746
 21
-151.9999999996818
 31
0.0
  0
LINE
  5
14E
330
5E0
100
AcDbEntity
  8
DIMNSIONS
  6
Continuous
 62
     7
100
AcDbLine
 10
49.99998840376746
 20
-151.9999999996818
 30
0.0
 11
49.99998840376746
 21
-201.9999999996819
 31
0.0
  0
LINE
  5
14F
330
5E0
100
AcDbEntity
  8
DIMNSIONS
  6
Continuous
 62
     7
100
AcDbLine
 10
49.99998840376746
 20
-151.9999999996818
 30
0.0
 11
56.70038635526989
 21
-177.0062255856194
 31
0.0
  0
LINE
  5
150
330
5E0
100
AcDbEntity
  8
DIMNSIONS
  6
Continuous
 62
     7
100
AcDbLine
 10
49.99998840376746
 20
-151.9999999996818
 30
0.0
 11
43.29959045226503
 21
-177.0062255856194
 31
0.0
  0
LINE
  5
151
330
5E0
100
AcDbEntity
  8
DIMNSIONS
  6
Continuous
 62
     7
100
AcDbLine
 10
49.99998840376746
 20
-120.9999999996838
 30
0.0
 11
49.99998840376746
 21
-77.22221062598959
 31
0.0
  0
LINE
  5
152
330
5E0
100
AcDbEntity
  8
DIMNSIONS
  6
Continuous
 62
     7
100
AcDbLine
 10
49.99998840376746
 20
-120.9999999996838
 30
0.0
 11
43.29959045226503
 21
-95.9937744137464
 31
0.0
  0
LINE
  5
153
330
5E0
100
AcDbEntity
  8
DIMNSIONS
  6
Continuous
 62
     7
100
AcDbLine
 10
49.99998840376746
 20
-120.9999999996838
 30
0.0
 11
56.70038635526989
 21
-95.9937744137464
 31
0.0
  0
TEXT
  5
154
330
5E0
100
AcDbEntity
  8
DIMNSIONS
 62
     7
100
AcDbText
 10
40.06109951487857
 20
-112.4999884037673
 30
0.0
 40
27.14735243055556
  1
31
 50
90.0
 41
0.7
 11
12.91374708432302
 21
-112.4999884037673
 31
0.0
100
AcDbText
 73
     3
  0
LINE
  5
155
330
5E0
100
AcDbEntity
  8
DIMNSIONS
  6
Continuous
 62
     7
100
AcDbLine
 10
124.5999906200413
 20
-173.9999999996799
 30
0.0
 11
124.5999906200413
 21
-79.99999999973477
 31
0.0
  0
LINE
  5
156
330
5E0
100
AcDbEntity
  8
DIMNSIONS
  6
Continuous
 62
     7
100
AcDbLine
 10
175.3999906200414
 20
-173.9999999996799
 30
0.0
 11
175.3999906200414
 21
-79.99999999973477
 31
0.0
  0
LINE
  5
157
330
5E0
100
AcDbEntity
  8
DIMNSIONS
  6
Continuous
 62
     7
100
AcDbLine
 10
175.3999906200414
 20
-99.99999999973477
 30
0.0
 11
124.5999906200413
 21
-99.99999999973477
 31
0.0
  0
LINE
  5
158
330
5E0
100
AcDbEntity
  8
DIMNSIONS
  6
Continuous
 62
     7
100
AcDbLine
 10
124.5999906200413
 20
-99.99999999973477
 30
0.0
 11
74.59999062004136
 21
-99.99999999973477
 31
0.0
  0
LINE
  5
159
330
5E0
100
AcDbEntity
  8
DIMNSIONS
  6
Continuous
 62
     7
100
AcDbLine
 10
124.5999906200413
 20
-99.99999999973477
 30
0.0
 11
99.59376503410387
 21
-106.7003979512372
 31
0.0
  0
LINE
  5
15A
330
5E0
100
AcDbEntity
  8
DIMNSIONS
  6
Continuous
 62
     7
100
AcDbLine
 10
124.5999906200413
 20
-99.99999999973477
 30
0.0
 11
99.59376503410387
 21
-93.29960204823235
 31
0.0
  0
LINE
  5
15B
330
5E0
100
AcDbEntity
  8
DIMNSIONS
  6
Continuous
 62
     7
100
AcDbLine
 10
175.3999906200414
 20
-99.99999999973477
 30
0.0
 11
225.3999906200414
 21
-99.99999999973477
 31
0.0
  0
LINE
  5
15C
330
5E0
100
AcDbEntity
  8
DIMNSIONS
  6
Continuous
 62
     7
100
AcDbLine
 10
175.3999906200414
 20
-99.99999999973477
 30
0.0
 11
200.4062162059789
 21
-93.29960204823235
 31
0.0
  0
LINE
  5
15D
330
5E0
100
AcDbEntity
  8
DIMNSIONS
  6
Continuous
 62
     7
100
AcDbLine
 10
175.3999906200414
 20
-99.99999999973477
 30
0.0
 11
200.4062162059789
 21
-106.7003979512372
 31
0.0
  0
TEXT
  5
15E
330
5E0
100
AcDbEntity
  8
DIMNSIONS
 62
     7
100
AcDbText
 10
132.3611017311524
 20
-90.06111111084589
 30
0.0
 40
27.14735243055556
  1
51
 41
0.7
 11
132.3611017311524
 21
-62.91375868029033
 31
0.0
100
AcDbText
 73
     3
  0
LINE
  5
15F
330
5E0
100
AcDbEntity
  8
DIMNSIONS
  6
Continuous
 62
     7
100
AcDbLine
 10
64.2293894315393
 20
-499.99999999968
 30
0.0
 11
29.99998840376746
 21
-499.99999999968
 31
0.0
  0
LINE
  5
160
330
5E0
100
AcDbEntity
  8
DIMNSIONS
  6
Continuous
 62
     7
100
AcDbLine
 10
130.2152568294897
 20
-468.99999999968
 30
0.0
 11
29.99998840376746
 21
-468.99999999968
 31
0.0
  0
LINE
  5
161
330
5E0
100
AcDbEntity
  8
DIMNSIONS
  6
Continuous
 62
     7
100
AcDbLine
 10
49.99998840376746
 20
-468.99999999968
 30
0.0
 11
49.99998840376746
 21
-499.99999999968
 31
0.0
  0
LINE
  5
162
330
5E0
100
AcDbEntity
  8
DIMNSIONS
  6
Continuous
 62
     7
100
AcDbLine
 10
49.99998840376746
 20
-499.99999999968
 30
0.0
 11
49.99998840376746
 21
-547.7777661815451
 31
0.0
  0
LINE
  5
163
330
5E0
100
AcDbEntity
  8
DIMNSIONS
  6
Continuous
 62
     7
100
AcDbLine
 10
49.99998840376746
 20
-499.99999999968
 30
0.0
 11
56.70038635526989
 21
-525.0062255856175
 31
0.0
  0
LINE
  5
164
330
5E0
100
AcDbEntity
  8
DIMNSIONS
  6
Continuous
 62
     7
100
AcDbLine
 10
49.99998840376746
 20
-499.99999999968
 30
0.0
 11
43.29959045226503
 21
-525.0062255856175
 31
0.0
  0
LINE
  5
165
330
5E0
100
AcDbEntity
  8
DIMNSIONS
  6
Continuous
 62
     7
100
AcDbLine
 10
49.99998840376746
 20
-468.99999999968
 30
0.0
 11
49.99998840376746
 21
-418.99999999968
 31
0.0
  0
LINE
  5
166
330
5E0
100
AcDbEntity
  8
DIMNSIONS
  6
Continuous
 62
     7
100
AcDbLine
 10
49.99998840376746
 20
-468.99999999968
 30
0.0
 11
43.29959045226503
 21
-443.9937744137425
 31
0.0
  0
LINE
  5
167
330
5E0
100
AcDbEntity
  8
DIMNSIONS
  6
Continuous
 62
     7
100
AcDbLine
 10
49.99998840376746
 20
-468.99999999968
 30
0.0
 11
56.70038635526989
 21
-443.9937744137425
 31
0.0
  0
TEXT
  5
168
330
5E0
100
AcDbEntity
  8
DIMNSIONS
 62
     7
100
AcDbText
 10
40.06109951487857
 20
-547.7777661815451
 30
0.0
 40
27.14735243055556
  1
31
 50
90.0
 41
0.7
 11
12.91374708432302
 21
-547.7777661815451
 31
0.0
100
AcDbText
 73
     3
  0
LINE
  5
169
330
5E0
100
AcDbEntity
  8
DIMNSIONS
  6
Continuous
 62
     7
100
AcDbLine
 10
-342.0941565093666
 20
12.28015678861329
 30
0.0
 11
-262.5000115962325
 21
0.000011596232639
 31
0.0
  0
LINE
  5
16A
330
5E0
100
AcDbEntity
  8
DIMNSIONS
  6
Continuous
 62
     7
100
AcDbLine
 10
-342.0941565093666
 20
12.28015678861329
 30
0.0
 11
-316.3987746312872
 21
15.43515296974571
 31
0.0
  0
LINE
  5
16B
330
5E0
100
AcDbEntity
  8
DIMNSIONS
  6
Continuous
 62
     7
100
AcDbLine
 10
-342.0941565093666
 20
12.28015678861329
 30
0.0
 11
-318.2638049524413
 21
2.164772691277136
 31
0.0
  0
LINE
  5
16C
330
5E0
100
AcDbEntity
  8
DIMNSIONS
  6
Continuous
 62
     7
100
AcDbLine
 10
-262.5000115962325
 20
0.000011596232639
 30
0.0
 11
-242.5000115962325
 21
0.000011596232639
 31
0.0
  0
TEXT
  5
16D
330
5E0
100
AcDbEntity
  8
DIMNSIONS
 62
     7
100
AcDbText
 10
-242.5000115962325
 20
-12.69998840376736
 30
0.0
 40
27.14735243055556
  1
M8×D30
 41
0.7
 11
-242.5000115962325
 21
14.44736402678819
 31
0.0
100
AcDbText
 73
     3
  0
LINE
  5
16E
330
5E0
100
AcDbEntity
  8
DIMNSIONS
  6
Continuous
 62
     7
100
AcDbLine
 10
-342.126536720079
 20
-687.0827746848991
 30
0.0
 11
-275.0000115962325
 21
-674.9999884037674
 31
0.0
  0
LINE
  5
16F
330
5E0
100
AcDbEntity
  8
DIMNSIONS
  6
Continuous
 62
     7
100
AcDbLine
 10
-342.126536720079
 20
-687.0827746848991
 30
0.0
 11
-318.6637237833972
 21
-676.1418853306663
 31
0.0
  0
LINE
  5
170
330
5E0
100
AcDbEntity
  8
DIMNSIONS
  6
Continuous
 62
     7
100
AcDbLine
 10
-342.126536720079
 20
-687.0827746848991
 30
0.0
 11
-316.3366999955539
 21
-689.3390930324798
 31
0.0
  0
LINE
  5
171
330
5E0
100
AcDbEntity
  8
DIMNSIONS
  6
Continuous
 62
     7
100
AcDbLine
 10
-275.0000115962325
 20
-674.9999884037674
 30
0.0
 11
-255.0000115962325
 21
-674.9999884037674
 31
0.0
  0
TEXT
  5
172
330
5E0
100
AcDbEntity
  8
DIMNSIONS
 62
     7
100
AcDbText
 10
-255.0000115962325
 20
-687.6999884037672
 30
0.0
 40
27.14735243055556
  1
M8×D25
 41
0.7
 11
-255.0000115962325
 21
-660.5526359732117
 31
0.0
100
AcDbText
 73
     3
  0
LINE
  5
173
330
5E0
100
AcDbEntity
  8
DIMNSIONS
  6
Continuous
 62
     7
100
AcDbLine
 10
181.0452163010913
 20
-304.3050761299994
 30
0.0
 11
262.4999884037675
 21
-337.4999884037674
 31
0.0
  0
LINE
  5
174
330
5E0
100
AcDbEntity
  8
DIMNSIONS
  6
Continuous
 62
     7
100
AcDbLine
 10
181.0452163010913
 20
-304.3050761299994
 30
0.0
 11
206.7405981791708
 21
-307.4600723111318
 31
0.0
  0
LINE
  5
175
330
5E0
100
AcDbEntity
  8
DIMNSIONS
  6
Continuous
 62
     7
100
AcDbLine
 10
181.0452163010913
 20
-304.3050761299994
 30
0.0
 11
201.7205716768842
 21
-319.8850739107427
 31
0.0
  0
LINE
  5
176
330
5E0
100
AcDbEntity
  8
DIMNSIONS
  6
Continuous
 62
     7
100
AcDbLine
 10
-370.0006084646045
 20
-74.99999999973477
 30
0.0
 11
-470.0000115962325
 21
-74.99999999973477
 31
0.0
  0
LINE
  5
177
330
5E0
100
AcDbEntity
  8
DIMNSIONS
  6
Continuous
 62
     7
100
AcDbLine
 10
-370.0006084646045
 20
13.50000000789629
 30
0.0
 11
-470.0000115962325
 21
13.50000000789629
 31
0.0
  0
LINE
  5
178
330
5E0
100
AcDbEntity
  8
DIMNSIONS
  6
Continuous
 62
     7
100
AcDbLine
 10
-450.0000115962325
 20
-74.99999999973477
 30
0.0
 11
-450.0000115962325
 21
13.50000000789629
 31
0.0
  0
LINE
  5
179
330
5E0
100
AcDbEntity
  8
DIMNSIONS
  6
Continuous
 62
     7
100
AcDbLine
 10
-450.0000115962325
 20
-74.99999999973477
 30
0.0
 11
-456.7004095477349
 21
-49.99377441379728
 31
0.0
  0
LINE
  5
17A
330
5E0
100
AcDbEntity
  8
DIMNSIONS
  6
Continuous
 62
     7
100
AcDbLine
 10
-450.0000115962325
 20
-74.99999999973477
 30
0.0
 11
-443.29961364473
 21
-49.99377441379728
 31
0.0
  0
LINE
  5
17B
330
5E0
100
AcDbEntity
  8
DIMNSIONS
  6
Continuous
 62
     7
100
AcDbLine
 10
-450.0000115962325
 20
13.50000000789629
 30
0.0
 11
-443.29961364473
 21
-11.50622557804121
 31
0.0
  0
LINE
  5
17C
330
5E0
100
AcDbEntity
  8
DIMNSIONS
  6
Continuous
 62
     7
100
AcDbLine
 10
-450.0000115962325
 20
13.50000000789629
 30
0.0
 11
-456.7004095477349
 21
-11.50622557804121
 31
0.0
  0
TEXT
  5
17D
330
5E0
100
AcDbEntity
  8
DIMNSIONS
 62
     7
100
AcDbText
 10
-459.9389004851214
 20
-48.38888888480813
 30
0.0
 40
27.14735243055556
  1
89
 50
90.0
 41
0.7
 11
-487.086252915677
 21
-48.38888888480813
 31
0.0
100
AcDbText
 73
     3
  0
LINE
  5
17E
330
5E0
100
AcDbEntity
  8
DIMNSIONS
  6
Continuous
 62
     7
100
AcDbLine
 10
-370.0000030714045
 20
-599.9999999997347
 30
0.0
 11
-470.0000115962325
 21
-599.9999999997347
 31
0.0
  0
LINE
  5
17F
330
5E0
100
AcDbEntity
  8
DIMNSIONS
  6
Continuous
 62
     7
100
AcDbLine
 10
-370.0000030714045
 20
-688.5000000073667
 30
0.0
 11
-470.0000115962325
 21
-688.5000000073667
 31
0.0
  0
LINE
  5
180
330
5E0
100
AcDbEntity
  8
DIMNSIONS
  6
Continuous
 62
     7
100
AcDbLine
 10
-450.0000115962325
 20
-599.9999999997347
 30
0.0
 11
-450.0000115962325
 21
-688.5000000073667
 31
0.0
  0
LINE
  5
181
330
5E0
100
AcDbEntity
  8
DIMNSIONS
  6
Continuous
 62
     7
100
AcDbLine
 10
-450.0000115962325
 20
-599.9999999997347
 30
0.0
 11
-443.29961364473
 21
-625.0062255856721
 31
0.0
  0
LINE
  5
182
330
5E0
100
AcDbEntity
  8
DIMNSIONS
  6
Continuous
 62
     7
100
AcDbLine
 10
-450.0000115962325
 20
-599.9999999997347
 30
0.0
 11
-456.7004095477349
 21
-625.0062255856721
 31
0.0
  0
LINE
  5
183
330
5E0
100
AcDbEntity
  8
DIMNSIONS
  6
Continuous
 62
     7
100
AcDbLine
 10
-450.0000115962325
 20
-688.5000000073667
 30
0.0
 11
-456.7004095477349
 21
-663.4937744214291
 31
0.0
  0
LINE
  5
184
330
5E0
100
AcDbEntity
  8
DIMNSIONS
  6
Continuous
 62
     7
100
AcDbLine
 10
-450.0000115962325
 20
-688.5000000073667
 30
0.0
 11
-443.29961364473
 21
-663.4937744214291
 31
0.0
  0
TEXT
  5
185
330
5E0
100
AcDbEntity
  8
DIMNSIONS
 62
     7
100
AcDbText
 10
-459.9389004851214
 20
-661.8888888924397
 30
0.0
 40
27.14735243055556
  1
89
 50
90.0
 41
0.7
 11
-487.086252915677
 21
-661.8888888924397
 31
0.0
100
AcDbText
 73
     3
  0
LINE
  5
186
330
5E0
100
AcDbEntity
  8
DIMNSIONS
  6
Continuous
 62
     7
100
AcDbLine
 10
262.4999884037675
 20
-337.4999884037674
 30
0.0
 11
262.4999884037675
 21
-317.4999884037674
 31
0.0
  0
TEXT
  5
187
330
5E0
100
AcDbEntity
  8
DIMNSIONS
 62
     7
100
AcDbText
 10
275.1999884037675
 20
-317.4999884037674
 30
0.0
 40
27.14735243055556
  1
M6×D20(4ヵ所)
 50
90.0
 41
0.7
 11
248.0526359732119
 21
-317.4999884037674
 31
0.0
100
AcDbText
 73
     3
  0
LINE
  5
188
330
5E0
100
AcDbEntity
  8
DIMNSIONS
  6
Continuous
 62
     7
100
AcDbLine
 10
144.8623881618529
 20
-147.1147087948752
 30
0.0
 11
24.99998840376746
 21
-37.49998840376736
 31
0.0
  0
LINE
  5
189
330
5E0
100
AcDbEntity
  8
DIMNSIONS
  6
Continuous
 62
     7
100
AcDbLine
 10
144.8623881618529
 20
-147.1147087948752
 30
0.0
 11
122.0043321013627
 21
-134.9608647980657
 31
0.0
  0
LINE
  5
18A
330
5E0
100
AcDbEntity
  8
DIMNSIONS
  6
Continuous
 62
     7
100
AcDbLine
 10
144.8623881618529
 20
-147.1147087948752
 30
0.0
 11
131.1436529307443
 21
-125.1601431097601
 31
0.0
  0
LINE
  5
18B
330
5E0
100
AcDbEntity
  8
DIMNSIONS
  6
Continuous
 62
     7
100
AcDbLine
 10
24.99998840376746
 20
-37.49998840376736
 30
0.0
 11
44.99998840376746
 21
-37.49998840376736
 31
0.0
  0
TEXT
  5
18C
330
5E0
100
AcDbEntity
  8
DIMNSIONS
 62
     7
100
AcDbText
 10
44.99998840376746
 20
-50.19998840376736
 30
0.0
 40
27.14735243055556
  1
M8×D50(2ヵ所)
 41
0.7
 11
44.99998840376746
 21
-23.05263597321181
 31
0.0
100
AcDbText
 73
     3
  0
TEXT
  5
18D
330
5E0
100
AcDbEntity
  8
DATA
 62
     7
100
AcDbText
 10
599.8090377746893
 20
-1018.169642754292
 30
0.0
 40
24.4326171875
  1
AC25
 41
0.7
 11
599.8090377746893
 21
-993.737025566792
 31
0.0
100
AcDbText
 73
     3
  0
LINE
  5
18E
330
5E0
100
AcDbEntity
  8
DATA
  6
Continuous
 62
     7
100
AcDbLine
 10
-215.4750086972434
 20
-499.9999999996824
 30
0.0
 11
-55.52500869694314
 21
-499.9999999996824
 31
0.0
  0
LINE
  5
18F
330
5E0
100
AcDbEntity
  8
DATA
  6
Continuous
 62
     7
100
AcDbLine
 10
-225.0000086972435
 20
-490.4749999996824
 30
0.0
 11
-225.0000086972435
 21
-486.9999999996824
 31
0.0
  0
LINE
  5
190
330
5E0
100
AcDbEntity
  8
DATA
  6
Continuous
 62
     7
100
AcDbLine
 10
-225.0000086972435
 20
-133.9999999996822
 30
0.0
 11
-225.0000086972435
 21
-130.5249999996814
 31
0.0
  0
LINE
  5
191
330
5E0
100
AcDbEntity
  8
DATA
  6
Continuous
 62
     7
100
AcDbLine
 10
-195.7900086972434
 20
-486.9999999996824
 30
0.0
 11
-195.7900086972434
 21
-133.9999999996822
 31
0.0
  0
LINE
  5
192
330
5E0
100
AcDbEntity
  8
DATA
  6
Continuous
 62
     7
100
AcDbLine
 10
-215.4750086972434
 20
-120.9999999996813
 30
0.0
 11
-55.52500869694314
 21
-120.9999999996813
 31
0.0
  0
LINE
  5
193
330
5E0
100
AcDbEntity
  8
DATA
  6
Continuous
 62
     7
100
AcDbLine
 10
225.2955909649421
 20
-130.5249999996815
 30
0.0
 11
225.2955909649421
 21
-135.9859999996812
 31
0.0
  0
LINE
  5
194
330
5E0
100
AcDbEntity
  8
DATA
  6
Continuous
 62
     7
100
AcDbLine
 10
-400.8679116025824
 20
-779.0000000073668
 30
0.0
 11
-299.1320945402268
 21
-779.0000000073668
 31
0.0
  0
ARC
  5
195
330
5E0
100
AcDbEntity
  8
DATA
  6
Continuous
 62
     7
100
AcDbCircle
 10
-55.52500869694314
 20
-490.4749999996824
 30
0.0
 40
9.524999999999975
100
AcDbArc
 50
270.0
 51
0.0
  0
ARC
  5
196
330
5E0
100
AcDbEntity
  8
DATA
  6
Continuous
 62
     7
100
AcDbCircle
 10
-215.4750086972434
 20
-490.4749999996824
 30
0.0
 40
9.52500000000009
100
AcDbArc
 50
180.0
 51
270.0
  0
ARC
  5
197
330
5E0
100
AcDbEntity
  8
DATA
  6
Continuous
 62
     7
100
AcDbCircle
 10
-55.52500869694314
 20
-130.5249999996814
 30
0.0
 40
9.52500000000009
100
AcDbArc
 50
0.0
 51
90.0
  0
ARC
  5
198
330
5E0
100
AcDbEntity
  8
DATA
  6
Continuous
 62
     7
100
AcDbCircle
 10
-215.4750086972434
 20
-130.5249999996814
 30
0.0
 40
9.52500000000009
100
AcDbArc
 50
90.0
 51
180.0
  0
ARC
  5
199
330
5E0
100
AcDbEntity
  8
DATA
  6
Continuous
 62
     7
100
AcDbCircle
 10
215.770590964942
 20
-490.4749999996824
 30
0.0
 40
9.525000000000003
100
AcDbArc
 50
270.000013287999
 51
0.0
  0
ARC
  5
19A
330
5E0
100
AcDbEntity
  8
DATA
  6
Continuous
 62
     7
100
AcDbCircle
 10
84.22939628986149
 20
-490.4749999996824
 30
0.0
 40
9.525000000000204
100
AcDbArc
 50
180.0
 51
269.9999587451006
  0
ARC
  5
19B
330
5E0
100
AcDbEntity
  8
DATA
  6
Continuous
 62
     7
100
AcDbCircle
 10
215.770590964942
 20
-130.5249999996815
 30
0.0
 40
9.52500000000009
100
AcDbArc
 50
0.0
 51
89.99998671229912
  0
ARC
  5
19C
330
5E0
100
AcDbEntity
  8
DATA
  6
Continuous
 62
     7
100
AcDbCircle
 10
84.22939628986149
 20
-130.5249999996815
 30
0.0
 40
9.52500000000006
100
AcDbArc
 50
90.00004125520023
 51
180.0
  0
ARC
  5
19D
330
5E0
100
AcDbEntity
  8
DATA
  6
Continuous
 62
     7
100
AcDbCircle
 10
-415.9756084649205
 20
-490.4749846989825
 30
0.0
 40
9.52500000000009
100
AcDbArc
 50
180.0
 51
269.9999867120009
  0
ARC
  5
19E
330
5E0
100
AcDbEntity
  8
DATA
  6
Continuous
 62
     7
100
AcDbCircle
 10
-284.0244137873007
 20
-490.4749846989825
 30
0.0
 40
9.524999999999943
100
AcDbArc
 50
270.0000412548994
 51
0.0
  0
ARC
  5
19F
330
5E0
100
AcDbEntity
  8
DATA
  6
Continuous
 62
     7
100
AcDbCircle
 10
-415.9756084649205
 20
-130.5249846989815
 30
0.0
 40
9.524999999999891
100
AcDbArc
 50
90.00001328770094
 51
180.0
  0
ARC
  5
1A0
330
5E0
100
AcDbEntity
  8
DATA
  6
Continuous
 62
     7
100
AcDbCircle
 10
-284.0244137873007
 20
-130.5249846989815
 30
0.0
 40
9.52500000000009
100
AcDbArc
 50
0.0
 51
89.99995874479973
  0
LINE
  5
1A1
330
5E0
100
AcDbEntity
  8
DATA
  6
Continuous
 62
     7
100
AcDbLine
 10
-422.5025996801409
 20
-486.9999846989824
 30
0.0
 11
-422.5025996801409
 21
-133.9999846989822
 31
0.0
  0
LWPOLYLINE
  5
1A2
330
5E0
100
AcDbEntity
  8
DATA
  6
Continuous
 62
     7
100
AcDbPolyline
 90
        4
 70
     1
 43
0.0
 10
-362.2757331849892
 20
-367.6667632873315
 10
-337.5092331849892
 20
-367.6667632873315
 10
-337.5092331849892
 20
-391.9987632873313
 10
-362.2757331849892
 20
-391.9987632873313
  0
TEXT
  5
1A9
330
5E0
100
AcDbEntity
  8
DATA
 62
     7
100
AcDbText
 10
-359.0582535190591
 20
-391.0127619289618
 30
0.0
 40
2.359104926215278
  1
PROFESSIONAL
 41
0.7
 11
-359.0582535190591
 21
-388.6536570027465
 31
0.0
100
AcDbText
 73
     3
  0
ARC
  5
1AA
330
5E0
100
AcDbEntity
  8
DATA
  6
Continuous
 62
     7
100
AcDbCircle
 10
-349.0255892512605
 20
-381.7805887785805
 30
0.0
 40
0.2770225267772297
100
AcDbArc
 50
307.6419024975595
 51
354.2670192894083
  0
LINE
  5
1AB
330
5E0
100
AcDbEntity
  8
DATA
  6
Continuous
 62
     7
100
AcDbLine
 10
-356.1412492062056
 20
-377.4151621038642
 30
0.0
 11
-354.8425634662057
 21
-374.320757383865
 31
0.0
  0
LINE
  5
1AC
330
5E0
100
AcDbEntity
  8
DATA
  6
Continuous
 62
     7
100
AcDbLine
 10
-356.1412492062056
 20
-377.4151621038642
 30
0.0
 11
-357.4239105862056
 21
-374.320757383865
 31
0.0
  0
LINE
  5
1AD
330
5E0
100
AcDbEntity
  8
DATA
  6
Continuous
 62
     7
100
AcDbLine
 10
-346.2968696062056
 20
-383.0107573838642
 30
0.0
 11
-346.2968696062056
 21
-374.320757383865
 31
0.0
  0
LINE
  5
1AE
330
5E0
100
AcDbEntity
  8
DATA
  6
Continuous
 62
     7
100
AcDbLine
 10
-344.6294150262056
 20
-374.320757383865
 30
0.0
 11
-344.6294150262056
 21
-381.6800055438644
 31
0.0
  0
LINE
  5
1AF
330
5E0
100
AcDbEntity
  8
DATA
  6
Continuous
 62
     7
100
AcDbLine
 10
-354.2332988762056
 20
-374.320757383865
 30
0.0
 11
-354.2332988762056
 21
-381.6800055438644
 31
0.0
  0
LINE
  5
1B0
330
5E0
100
AcDbEntity
  8
DATA
  6
Continuous
 62
     7
100
AcDbLine
 10
-352.6299764962056
 20
-374.320757383865
 30
0.0
 11
-352.6299764962056
 21
-381.6800055438644
 31
0.0
  0
LINE
  5
1B1
330
5E0
100
AcDbEntity
  8
DATA
  6
Continuous
 62
     7
100
AcDbLine
 10
-351.7962492062055
 20
-374.320757383865
 30
0.0
 11
-351.7962492062055
 21
-383.0107573838642
 31
0.0
  0
LINE
  5
1B2
330
5E0
100
AcDbEntity
  8
DATA
  6
Continuous
 62
     7
100
AcDbLine
 10
-350.3372242762056
 20
-375.1384429338649
 30
0.0
 11
-350.3372242762056
 21
-377.9282283938642
 31
0.0
  0
LINE
  5
1B3
330
5E0
100
AcDbEntity
  8
DATA
  6
Continuous
 62
     7
100
AcDbLine
 10
-347.2100582562056
 20
-377.7668029538644
 30
0.0
 11
-347.2100582562056
 21
-375.7316831638648
 31
0.0
  0
LINE
  5
1B4
330
5E0
100
AcDbEntity
  8
DATA
  6
Continuous
 62
     7
100
AcDbLine
 10
-348.7499523262056
 20
-375.5232448238647
 30
0.0
 11
-348.7499523262056
 21
-377.5434351938642
 31
0.0
  0
ARC
  5
1B5
330
5E0
100
AcDbEntity
  8
DATA
  6
Continuous
 62
     7
100
AcDbCircle
 10
-354.5550374362056
 20
-380.7793391838643
 30
0.0
 40
2.241023626471035
100
AcDbArc
 50
264.6908562215346
 51
323.9911991542383
  0
LINE
  5
1B6
330
5E0
100
AcDbEntity
  8
DATA
  6
Continuous
 62
     7
100
AcDbLine
 10
-355.4518193662056
 20
-380.2851041238644
 30
0.0
 11
-355.4518193662056
 21
-381.6799881638642
 31
0.0
  0
LINE
  5
1B7
330
5E0
100
AcDbEntity
  8
DATA
  6
Continuous
 62
     7
100
AcDbLine
 10
-355.4518193662056
 20
-380.2851041238644
 30
0.0
 11
-356.8948112462056
 21
-380.2851041238644
 31
0.0
  0
LINE
  5
1B8
330
5E0
100
AcDbEntity
  8
DATA
  6
Continuous
 62
     7
100
AcDbLine
 10
-356.8948112462056
 20
-380.2851041238644
 30
0.0
 11
-356.8948112462056
 21
-381.6799881638642
 31
0.0
  0
ARC
  5
1B9
330
5E0
100
AcDbEntity
  8
DATA
  6
Continuous
 62
     7
100
AcDbCircle
 10
-354.8395045862056
 20
-381.6987933238644
 30
0.0
 40
0.6065001500045158
100
AcDbArc
 50
269.7118487927551
 51
1.775987005702745
  0
ARC
  5
1BA
330
5E0
100
AcDbEntity
  8
DATA
  6
Continuous
 62
     7
100
AcDbCircle
 10
-354.8456136562055
 20
-381.6987933238644
 30
0.0
 40
0.6064970487324017
100
AcDbArc
 50
178.2240129943153
 51
270.2881512072451
  0
ARC
  5
1BB
330
5E0
100
AcDbEntity
  8
DATA
  6
Continuous
 62
     7
100
AcDbCircle
 10
-354.9697503062056
 20
-380.7793391838643
 30
0.0
 40
2.241019986906717
100
AcDbArc
 50
216.0088008457567
 51
275.3091437784663
  0
ARC
  5
1BC
330
5E0
100
AcDbEntity
  8
DATA
  6
Continuous
 62
     7
100
AcDbCircle
 10
-355.8820438862057
 20
-381.6308635938643
 30
0.0
 40
1.013949380905034
100
AcDbArc
 50
182.7769954499941
 51
207.3596066671497
  0
CIRCLE
  5
1BD
330
5E0
100
AcDbEntity
  8
DATA
  6
Continuous
 62
     7
100
AcDbCircle
 10
-356.0530630862056
 20
-378.6176582338642
 30
0.0
 40
0.8257064200000741
  0
LINE
  5
1BE
330
5E0
100
AcDbEntity
  8
DATA
  6
Continuous
 62
     7
100
AcDbLine
 10
-341.9518696062056
 20
-383.0107486938645
 30
0.0
 11
-346.2968696062056
 21
-383.0107486938645
 31
0.0
  0
LINE
  5
1BF
330
5E0
100
AcDbEntity
  8
DATA
  6
Continuous
 62
     7
100
AcDbLine
 10
-341.9518696062056
 20
-383.0107486938645
 30
0.0
 11
-341.9518696062056
 21
-380.2850954338642
 31
0.0
  0
LINE
  5
1C0
330
5E0
100
AcDbEntity
  8
DATA
  6
Continuous
 62
     7
100
AcDbLine
 10
-341.9518696062056
 20
-380.2851041238644
 30
0.0
 11
-343.4108858462057
 21
-380.2851041238644
 31
0.0
  0
LINE
  5
1C1
330
5E0
100
AcDbEntity
  8
DATA
  6
Continuous
 62
     7
100
AcDbLine
 10
-343.4108858462057
 20
-380.2851041238644
 30
0.0
 11
-343.4108858462057
 21
-381.6799881638642
 31
0.0
  0
LINE
  5
1C2
330
5E0
100
AcDbEntity
  8
DATA
  6
Continuous
 62
     7
100
AcDbLine
 10
-351.7962492062055
 20
-383.0107486938645
 30
0.0
 11
-348.7499523262056
 21
-383.0107400038642
 31
0.0
  0
LINE
  5
1C3
330
5E0
100
AcDbEntity
  8
DATA
  6
Continuous
 62
     7
100
AcDbLine
 10
-350.3372329662056
 20
-382.1930544538643
 30
0.0
 11
-349.5516048262056
 21
-382.1930544538643
 31
0.0
  0
LINE
  5
1C4
330
5E0
100
AcDbEntity
  8
DATA
  6
Continuous
 62
     7
100
AcDbLine
 10
-350.3372242762056
 20
-382.1930544538643
 30
0.0
 11
-350.3372242762056
 21
-378.7619469938642
 31
0.0
  0
LINE
  5
1C5
330
5E0
100
AcDbEntity
  8
DATA
  6
Continuous
 62
     7
100
AcDbLine
 10
-350.3372329662056
 20
-378.7619469938642
 30
0.0
 11
-349.5516048262056
 21
-378.7619469938642
 31
0.0
  0
LINE
  5
1C6
330
5E0
100
AcDbEntity
  8
DATA
  6
Continuous
 62
     7
100
AcDbLine
 10
-348.7499523262056
 20
-381.8082612538643
 30
0.0
 11
-348.7499523262056
 21
-379.1467401938642
 31
0.0
  0
ARC
  5
1C7
330
5E0
100
AcDbEntity
  8
DATA
  6
Continuous
 62
     7
100
AcDbCircle
 10
-353.6427438562056
 20
-381.6308635938643
 30
0.0
 40
1.01394793809474
100
AcDbArc
 50
332.6403933328548
 51
357.2230045500024
  0
ARC
  5
1C8
330
5E0
100
AcDbEntity
  8
DATA
  6
Continuous
 62
     7
100
AcDbCircle
 10
-344.0171002462056
 20
-381.6987933238644
 30
0.0
 40
0.6065001500045164
100
AcDbArc
 50
269.7118487927444
 51
1.775987005703086
  0
ARC
  5
1C9
330
5E0
100
AcDbEntity
  8
DATA
  6
Continuous
 62
     7
100
AcDbCircle
 10
-344.0232006262056
 20
-381.6987933238644
 30
0.0
 40
0.6064970487324017
100
AcDbArc
 50
178.2240129943153
 51
270.2881512072557
  0
LINE
  5
1CA
330
5E0
100
AcDbEntity
  8
DATA
  6
Continuous
 62
     7
100
AcDbLine
 10
-347.2107621462055
 20
-381.6158559638643
 30
0.0
 11
-347.2107621462055
 21
-379.3070793838643
 31
0.0
  0
LINE
  5
1CB
330
5E0
100
AcDbEntity
  8
DATA
  6
Continuous
 62
     7
100
AcDbLine
 10
-350.3372329662056
 20
-377.9282283938642
 30
0.0
 11
-349.5516048262056
 21
-377.9282283938642
 31
0.0
  0
ARC
  5
1CC
330
5E0
100
AcDbEntity
  8
DATA
  6
Continuous
 62
     7
100
AcDbCircle
 10
-348.8604196062056
 20
-381.3610651638642
 30
0.0
 40
1.653369316783028
100
AcDbArc
 50
273.8309816091137
 51
351.1351473097997
  0
LINE
  5
1CD
330
5E0
100
AcDbEntity
  8
DATA
  6
Continuous
 62
     7
100
AcDbLine
 10
-354.2332988762056
 20
-374.320757383865
 30
0.0
 11
-352.6299764962056
 21
-374.320757383865
 31
0.0
  0
LINE
  5
1CE
330
5E0
100
AcDbEntity
  8
DATA
  6
Continuous
 62
     7
100
AcDbLine
 10
-357.4239105862056
 20
-374.320757383865
 30
0.0
 11
-354.8425634662057
 21
-374.320757383865
 31
0.0
  0
LINE
  5
1CF
330
5E0
100
AcDbEntity
  8
DATA
  6
Continuous
 62
     7
100
AcDbLine
 10
-346.2968696062056
 20
-374.320757383865
 30
0.0
 11
-344.6294150262056
 21
-374.320757383865
 31
0.0
  0
LINE
  5
1D0
330
5E0
100
AcDbEntity
  8
DATA
  6
Continuous
 62
     7
100
AcDbLine
 10
-351.7962492062055
 20
-374.320757383865
 30
0.0
 11
-348.7332065848463
 21
-374.3207644173255
 31
0.0
  0
LINE
  5
1D1
330
5E0
100
AcDbEntity
  8
DATA
  6
Continuous
 62
     7
100
AcDbLine
 10
-350.3372329662056
 20
-375.1384516238649
 30
0.0
 11
-349.5516048262056
 21
-375.1384516238649
 31
0.0
  0
ARC
  5
1D2
330
5E0
100
AcDbEntity
  8
DATA
  6
Continuous
 62
     7
100
AcDbCircle
 10
-348.8439346762056
 20
-375.9679121238647
 30
0.0
 40
1.65086531170008
100
AcDbArc
 50
8.226923859014146
 51
86.15412669215791
  0
ARC
  5
1D3
330
5E0
100
AcDbEntity
  8
DATA
  6
Continuous
 62
     7
100
AcDbCircle
 10
-349.5423278492034
 20
-380.6690996161144
 30
0.0
 40
1.523983073988672
100
AcDbArc
 50
269.6512199376185
 51
282.826482806876
  0
ARC
  5
1D4
330
5E0
100
AcDbEntity
  8
DATA
  6
Continuous
 62
     7
100
AcDbCircle
 10
-349.3711604283371
 20
-381.3134094743207
 30
0.0
 40
0.8580835383094996
100
AcDbArc
 50
281.2331036226616
 51
306.8620088940627
  0
ARC
  5
1D5
330
5E0
100
AcDbEntity
  8
DATA
  6
Continuous
 62
     7
100
AcDbCircle
 10
-349.0255892512605
 20
-379.1744126691482
 30
0.0
 40
0.2770225267772312
100
AcDbArc
 50
5.732980710617402
 51
52.3580975024075
  0
ARC
  5
1D6
330
5E0
100
AcDbEntity
  8
DATA
  6
Continuous
 62
     7
100
AcDbCircle
 10
-349.5423278492034
 20
-380.2859018316143
 30
0.0
 40
1.523983073988667
100
AcDbArc
 50
77.17351719312309
 51
90.34878006238155
  0
ARC
  5
1D7
330
5E0
100
AcDbEntity
  8
DATA
  6
Continuous
 62
     7
100
AcDbCircle
 10
-349.3711604283371
 20
-379.641591973408
 30
0.0
 40
0.8580835383093402
100
AcDbArc
 50
53.13799110594335
 51
78.76689637733848
  0
ARC
  5
1D8
330
5E0
100
AcDbEntity
  8
DATA
  6
Continuous
 62
     7
100
AcDbCircle
 10
-348.0516760662057
 20
-379.3639206738643
 30
0.0
 40
0.8428328144412144
100
AcDbArc
 50
3.867006359818905
 51
88.36163456789858
  0
ARC
  5
1D9
330
5E0
100
AcDbEntity
  8
DATA
  6
Continuous
 62
     7
100
AcDbCircle
 10
-348.0524494762056
 20
-377.6781301938644
 30
0.0
 40
0.8436703358145249
100
AcDbArc
 50
271.6892821046492
 51
356.0782829826602
  0
ARC
  5
1DA
330
5E0
100
AcDbEntity
  8
DATA
  6
Continuous
 62
     7
100
AcDbCircle
 10
-349.0255892512605
 20
-377.5157627185805
 30
0.0
 40
0.2770225267772297
100
AcDbArc
 50
307.6419024975595
 51
354.2670192894318
  0
ARC
  5
1DB
330
5E0
100
AcDbEntity
  8
DATA
  6
Continuous
 62
     7
100
AcDbCircle
 10
-349.5423278492034
 20
-376.4042735561146
 30
0.0
 40
1.52398307398833
100
AcDbArc
 50
269.6512199376184
 51
282.8264828068788
  0
ARC
  5
1DC
330
5E0
100
AcDbEntity
  8
DATA
  6
Continuous
 62
     7
100
AcDbCircle
 10
-349.3711604283371
 20
-377.0485834143209
 30
0.0
 40
0.8580835383092766
100
AcDbArc
 50
281.2331036226646
 51
306.8620088940718
  0
ARC
  5
1DD
330
5E0
100
AcDbEntity
  8
DATA
  6
Continuous
 62
     7
100
AcDbCircle
 10
-349.0255892512605
 20
-375.5509172991486
 30
0.0
 40
0.2770225267772312
100
AcDbArc
 50
5.732980710617402
 51
52.35809750238889
  0
ARC
  5
1DE
330
5E0
100
AcDbEntity
  8
DATA
  6
Continuous
 62
     7
100
AcDbCircle
 10
-349.5423278492034
 20
-376.6624064616145
 30
0.0
 40
1.523983073988334
100
AcDbArc
 50
77.17351719312022
 51
90.34878006238164
  0
ARC
  5
1DF
330
5E0
100
AcDbEntity
  8
DATA
  6
Continuous
 62
     7
100
AcDbCircle
 10
-349.3711604283371
 20
-376.0180966034084
 30
0.0
 40
0.8580835383092493
100
AcDbArc
 50
53.1379911059388
 51
78.76689637733552
  0
LINE
  5
1E0
330
5E0
100
AcDbEntity
  8
DATA
  6
Continuous
 62
     7
100
AcDbLine
 10
-362.2757331849892
 20
-387.6537632873314
 30
0.0
 11
-337.5092331849892
 21
-387.6537632873314
 31
0.0
  0
LINE
  5
1E1
330
5E0
100
AcDbEntity
  8
DATA
  6
Continuous
 62
     7
100
AcDbLine
 10
-223.0000086972435
 20
-486.9999999996824
 30
0.0
 11
-223.0000086972435
 21
-133.9999999996822
 31
0.0
  0
LINE
  5
1E2
330
5E0
100
AcDbEntity
  8
DATA
  6
Continuous
 62
     7
100
AcDbLine
 10
-207.7900086972435
 20
-486.9999999996824
 30
0.0
 11
-207.7900086972435
 21
-133.9999999996822
 31
0.0
  0
CIRCLE
  5
1E3
330
5E0
100
AcDbEntity
  8
DATA
  6
Continuous
 62
     7
100
AcDbCircle
 10
124.5999906200413
 20
-193.99999999968
 30
0.0
 40
6.096000000000231
  0
LINE
  5
1E4
330
5E0
100
AcDbEntity
  8
DATA
  6
Continuous
 62
     7
100
AcDbLine
 10
122.7658481999406
 20
-192.2428655180205
 30
0.0
 11
122.161196310441
 21
-194.7098466876801
 31
0.0
  0
LINE
  5
1E5
330
5E0
100
AcDbEntity
  8
DATA
  6
Continuous
 62
     7
100
AcDbLine
 10
125.2046425095418
 20
-191.5330188300201
 30
0.0
 11
122.7658481999406
 21
-192.2428655180205
 31
0.0
  0
LINE
  5
1E6
330
5E0
100
AcDbEntity
  8
DATA
  6
Continuous
 62
     7
100
AcDbLine
 10
122.161196310441
 20
-194.7098466876801
 30
0.0
 11
123.9953387305413
 21
-196.4669811718799
 31
0.0
  0
LINE
  5
1E7
330
5E0
100
AcDbEntity
  8
DATA
  6
Continuous
 62
     7
100
AcDbLine
 10
126.4341330376014
 20
-195.7571344838804
 30
0.0
 11
127.0387849271017
 21
-193.29015331422
 31
0.0
  0
LINE
  5
1E8
330
5E0
100
AcDbEntity
  8
DATA
  6
Continuous
 62
     7
100
AcDbLine
 10
123.9953387305413
 20
-196.4669811718799
 30
0.0
 11
126.4341330376014
 21
-195.7571344838804
 31
0.0
  0
LINE
  5
1E9
330
5E0
100
AcDbEntity
  8
DATA
  6
Continuous
 62
     7
100
AcDbLine
 10
127.0387849271017
 20
-193.29015331422
 30
0.0
 11
125.2046425095418
 21
-191.5330188300201
 31
0.0
  0
CIRCLE
  5
1EA
330
5E0
100
AcDbEntity
  8
DATA
  6
Continuous
 62
     7
100
AcDbCircle
 10
175.3999906200414
 20
-193.99999999968
 30
0.0
 40
6.096000000000202
  0
LINE
  5
1EB
330
5E0
100
AcDbEntity
  8
DATA
  6
Continuous
 62
     7
100
AcDbLine
 10
173.5658481999406
 20
-192.2428655180205
 30
0.0
 11
172.961196310441
 21
-194.7098466876801
 31
0.0
  0
LINE
  5
1EC
330
5E0
100
AcDbEntity
  8
DATA
  6
Continuous
 62
     7
100
AcDbLine
 10
176.0046425095418
 20
-191.5330188300201
 30
0.0
 11
173.5658481999406
 21
-192.2428655180205
 31
0.0
  0
LINE
  5
1ED
330
5E0
100
AcDbEntity
  8
DATA
  6
Continuous
 62
     7
100
AcDbLine
 10
172.961196310441
 20
-194.7098466876801
 30
0.0
 11
174.7953387305414
 21
-196.4669811718799
 31
0.0
  0
LINE
  5
1EE
330
5E0
100
AcDbEntity
  8
DATA
  6
Continuous
 62
     7
100
AcDbLine
 10
177.2341330376014
 20
-195.7571344838804
 30
0.0
 11
177.8387849271017
 21
-193.29015331422
 31
0.0
  0
LINE
  5
1EF
330
5E0
100
AcDbEntity
  8
DATA
  6
Continuous
 62
     7
100
AcDbLine
 10
174.7953387305414
 20
-196.4669811718799
 30
0.0
 11
177.2341330376014
 21
-195.7571344838804
 31
0.0
  0
LINE
  5
1F0
330
5E0
100
AcDbEntity
  8
DATA
  6
Continuous
 62
     7
100
AcDbLine
 10
177.8387849271017
 20
-193.29015331422
 30
0.0
 11
176.0046425095418
 21
-191.5330188300201
 31
0.0
  0
CIRCLE
  5
1F1
330
5E0
100
AcDbEntity
  8
DATA
  6
Continuous
 62
     7
100
AcDbCircle
 10
124.5999906200413
 20
-302.0045016343534
 30
0.0
 40
6.096000000000231
  0
LINE
  5
1F2
330
5E0
100
AcDbEntity
  8
DATA
  6
Continuous
 62
     7
100
AcDbLine
 10
122.7658481999406
 20
-300.2473671526939
 30
0.0
 11
122.161196310441
 21
-302.7143483223537
 31
0.0
  0
LINE
  5
1F3
330
5E0
100
AcDbEntity
  8
DATA
  6
Continuous
 62
     7
100
AcDbLine
 10
125.2046425095418
 20
-299.5375204646935
 30
0.0
 11
122.7658481999406
 21
-300.2473671526939
 31
0.0
  0
LINE
  5
1F4
330
5E0
100
AcDbEntity
  8
DATA
  6
Continuous
 62
     7
100
AcDbLine
 10
122.161196310441
 20
-302.7143483223537
 30
0.0
 11
123.9953387305413
 21
-304.4714828065533
 31
0.0
  0
LINE
  5
1F5
330
5E0
100
AcDbEntity
  8
DATA
  6
Continuous
 62
     7
100
AcDbLine
 10
126.4341330376014
 20
-303.7616361185538
 30
0.0
 11
127.0387849271017
 21
-301.2946549488934
 31
0.0
  0
LINE
  5
1F6
330
5E0
100
AcDbEntity
  8
DATA
  6
Continuous
 62
     7
100
AcDbLine
 10
123.9953387305413
 20
-304.4714828065533
 30
0.0
 11
126.4341330376014
 21
-303.7616361185538
 31
0.0
  0
LINE
  5
1F7
330
5E0
100
AcDbEntity
  8
DATA
  6
Continuous
 62
     7
100
AcDbLine
 10
127.0387849271017
 20
-301.2946549488934
 30
0.0
 11
125.2046425095418
 21
-299.5375204646935
 31
0.0
  0
CIRCLE
  5
1F8
330
5E0
100
AcDbEntity
  8
DATA
  6
Continuous
 62
     7
100
AcDbCircle
 10
175.3999906200414
 20
-302.0045016343534
 30
0.0
 40
6.096000000000202
  0
LINE
  5
1F9
330
5E0
100
AcDbEntity
  8
DATA
  6
Continuous
 62
     7
100
AcDbLine
 10
173.5658481999406
 20
-300.2473671526939
 30
0.0
 11
172.961196310441
 21
-302.7143483223537
 31
0.0
  0
LINE
  5
1FA
330
5E0
100
AcDbEntity
  8
DATA
  6
Continuous
 62
     7
100
AcDbLine
 10
176.0046425095418
 20
-299.5375204646935
 30
0.0
 11
173.5658481999406
 21
-300.2473671526939
 31
0.0
  0
LINE
  5
1FB
330
5E0
100
AcDbEntity
  8
DATA
  6
Continuous
 62
     7
100
AcDbLine
 10
172.961196310441
 20
-302.7143483223537
 30
0.0
 11
174.7953387305414
 21
-304.4714828065533
 31
0.0
  0
LINE
  5
1FC
330
5E0
100
AcDbEntity
  8
DATA
  6
Continuous
 62
     7
100
AcDbLine
 10
177.2341330376014
 20
-303.7616361185538
 30
0.0
 11
177.8387849271017
 21
-301.2946549488934
 31
0.0
  0
LINE
  5
1FD
330
5E0
100
AcDbEntity
  8
DATA
  6
Continuous
 62
     7
100
AcDbLine
 10
174.7953387305414
 20
-304.4714828065533
 30
0.0
 11
177.2341330376014
 21
-303.7616361185538
 31
0.0
  0
LINE
  5
1FE
330
5E0
100
AcDbEntity
  8
DATA
  6
Continuous
 62
     7
100
AcDbLine
 10
177.8387849271017
 20
-301.2946549488934
 30
0.0
 11
176.0046425095418
 21
-299.5375204646935
 31
0.0
  0
LINE
  5
1FF
330
5E0
100
AcDbEntity
  8
DATA
  6
Continuous
 62
     7
100
AcDbLine
 10
147.7764625198898
 20
-469.7098466876798
 30
0.0
 11
149.6106049399896
 21
-471.4669811693395
 31
0.0
  0
LINE
  5
200
330
5E0
100
AcDbEntity
  8
DATA
  6
Continuous
 62
     7
100
AcDbLine
 10
152.6540511365489
 20
-468.2901533116798
 30
0.0
 11
150.8199087189897
 21
-466.5330188300201
 31
0.0
  0
LINE
  5
201
330
5E0
100
AcDbEntity
  8
DATA
  6
Continuous
 62
     7
100
AcDbLine
 10
148.3811144093894
 20
-467.2428655180197
 30
0.0
 11
147.7764625198898
 21
-469.7098466876798
 31
0.0
  0
LINE
  5
202
330
5E0
100
AcDbEntity
  8
DATA
  6
Continuous
 62
     7
100
AcDbLine
 10
152.0493992470493
 20
-470.7571344813397
 30
0.0
 11
152.6540511365489
 21
-468.2901533116798
 31
0.0
  0
LINE
  5
203
330
5E0
100
AcDbEntity
  8
DATA
  6
Continuous
 62
     7
100
AcDbLine
 10
150.8199087189897
 20
-466.5330188300201
 30
0.0
 11
148.3811144093894
 21
-467.2428655180197
 31
0.0
  0
LINE
  5
204
330
5E0
100
AcDbEntity
  8
DATA
  6
Continuous
 62
     7
100
AcDbLine
 10
149.6106049399896
 20
-471.4669811693395
 30
0.0
 11
152.0493992470493
 21
-470.7571344813397
 31
0.0
  0
CIRCLE
  5
205
330
5E0
100
AcDbEntity
  8
DATA
  6
Continuous
 62
     7
100
AcDbCircle
 10
150.2152568294897
 20
-468.99999999968
 30
0.0
 40
7.239000000000259
  0
LINE
  5
206
330
5E0
100
AcDbEntity
  8
DATA
  6
Continuous
 62
     7
100
AcDbLine
 10
147.7656019806859
 20
-152.7098466876818
 30
0.0
 11
149.5997444007857
 21
-154.4669811693418
 31
0.0
  0
LINE
  5
207
330
5E0
100
AcDbEntity
  8
DATA
  6
Continuous
 62
     7
100
AcDbLine
 10
152.643190597345
 20
-151.2901533116816
 30
0.0
 11
150.8090481797858
 21
-149.5330188300216
 31
0.0
  0
LINE
  5
208
330
5E0
100
AcDbEntity
  8
DATA
  6
Continuous
 62
     7
100
AcDbLine
 10
148.3702538701854
 20
-150.2428655180214
 30
0.0
 11
147.7656019806859
 21
-152.7098466876818
 31
0.0
  0
LINE
  5
209
330
5E0
100
AcDbEntity
  8
DATA
  6
Continuous
 62
     7
100
AcDbLine
 10
152.0385387078454
 20
-153.7571344813418
 30
0.0
 11
152.643190597345
 21
-151.2901533116816
 31
0.0
  0
LINE
  5
20A
330
5E0
100
AcDbEntity
  8
DATA
  6
Continuous
 62
     7
100
AcDbLine
 10
150.8090481797858
 20
-149.5330188300216
 30
0.0
 11
148.3702538701854
 21
-150.2428655180214
 31
0.0
  0
LINE
  5
20B
330
5E0
100
AcDbEntity
  8
DATA
  6
Continuous
 62
     7
100
AcDbLine
 10
149.5997444007857
 20
-154.4669811693418
 30
0.0
 11
152.0385387078454
 21
-153.7571344813418
 31
0.0
  0
CIRCLE
  5
20C
330
5E0
100
AcDbEntity
  8
DATA
  6
Continuous
 62
     7
100
AcDbCircle
 10
150.2043962902858
 20
-151.9999999996818
 30
0.0
 40
7.239000000000259
  0
LINE
  5
20D
330
5E0
100
AcDbEntity
  8
DATA
  6
Continuous
 62
     7
100
AcDbLine
 10
-42.8023211400315
 20
-304.1569851345512
 30
0.0
 11
-42.8023211400315
 21
-300.1074230660309
 31
0.0
  0
ARC
  5
20E
330
5E0
100
AcDbEntity
  8
DATA
  6
Continuous
 62
     7
100
AcDbCircle
 10
-47.35524831238321
 20
-303.7398063165432
 30
0.0
 40
4.572000000320784
100
AcDbArc
 50
287.2428031115146
 51
354.7646808941676
  0
ARC
  5
20F
330
5E0
100
AcDbEntity
  8
DATA
  6
Continuous
 62
     7
100
AcDbCircle
 10
-47.35524831238321
 20
-300.5246018840389
 30
0.0
 40
4.57200000032076
100
AcDbArc
 50
5.235319105832485
 51
72.75719688843962
  0
ARC
  5
210
330
5E0
100
AcDbEntity
  8
DATA
  6
Continuous
 62
     7
100
AcDbCircle
 10
127.6013769953773
 20
-339.4261406390805
 30
0.0
 40
15.3641413290599
100
AcDbArc
 50
90.1073853577
 51
180.0
  0
ARC
  5
211
330
5E0
100
AcDbEntity
  8
DATA
  6
Continuous
 62
     7
100
AcDbCircle
 10
127.6013769953773
 20
-428.3261406390803
 30
0.0
 40
15.36413849950008
100
AcDbArc
 50
180.0
 51
270.0
  0
ARC
  5
212
330
5E0
100
AcDbEntity
  8
DATA
  6
Continuous
 62
     7
100
AcDbCircle
 10
172.051376995378
 20
-428.3261406390803
 30
0.0
 40
15.36413849950031
100
AcDbArc
 50
270.0
 51
0.0
  0
ARC
  5
213
330
5E0
100
AcDbEntity
  8
DATA
  6
Continuous
 62
     7
100
AcDbCircle
 10
172.051376995378
 20
-339.4261406390805
 30
0.0
 40
15.3641413290604
100
AcDbArc
 50
0.0
 51
89.89261524240072
  0
LINE
  5
214
330
5E0
100
AcDbEntity
  8
DATA
  6
Continuous
 62
     7
100
AcDbLine
 10
112.2372356663168
 20
-339.4261406390805
 30
0.0
 11
114.825839478948
 21
-384.4537897616861
 31
0.0
  0
LINE
  5
215
330
5E0
100
AcDbEntity
  8
DATA
  6
Continuous
 62
     7
100
AcDbLine
 10
112.2372384958772
 20
-428.3261406390803
 30
0.0
 11
114.825839478948
 21
-384.4537897616861
 31
0.0
  0
LINE
  5
216
330
5E0
100
AcDbEntity
  8
DATA
  6
Continuous
 62
     7
100
AcDbLine
 10
187.4155183244384
 20
-339.4261406390805
 30
0.0
 11
184.8269145118073
 21
-384.4537897616861
 31
0.0
  0
LINE
  5
217
330
5E0
100
AcDbEntity
  8
DATA
  6
Continuous
 62
     7
100
AcDbLine
 10
187.4155154948781
 20
-428.3261406390803
 30
0.0
 11
184.8269145118073
 21
-384.4537897616861
 31
0.0
  0
LINE
  5
218
330
5E0
100
AcDbEntity
  8
DATA
  6
Continuous
 62
     7
100
AcDbLine
 10
111.7263769953771
 20
-454.9961406390822
 30
0.0
 11
187.9263769953784
 21
-454.9961406390822
 31
0.0
  0
LINE
  5
219
330
5E0
100
AcDbEntity
  8
DATA
  6
Continuous
 62
     7
100
AcDbLine
 10
172.051376995378
 20
-443.6902819681407
 30
0.0
 11
127.6013769953773
 21
-443.6902819681407
 31
0.0
  0
LINE
  5
21A
330
5E0
100
AcDbEntity
  8
DATA
  6
Continuous
 62
     7
100
AcDbLine
 10
139.135516995377
 20
-410.9061809525456
 30
0.0
 11
147.5403769953773
 21
-410.9061809525456
 31
0.0
  0
LINE
  5
21B
330
5E0
100
AcDbEntity
  8
DATA
  6
Continuous
 62
     7
100
AcDbLine
 10
152.112376995377
 20
-410.9061809525456
 30
0.0
 11
160.5172369953774
 21
-410.9061809525456
 31
0.0
  0
LINE
  5
21C
330
5E0
100
AcDbEntity
  8
DATA
  6
Continuous
 62
     7
100
AcDbLine
 10
160.5172369953774
 20
-402.2549409525455
 30
0.0
 11
152.112376995377
 21
-402.2549409525455
 31
0.0
  0
LINE
  5
21D
330
5E0
100
AcDbEntity
  8
DATA
  6
Continuous
 62
     7
100
AcDbLine
 10
147.5403769953773
 20
-402.2549409525455
 30
0.0
 11
139.135516995377
 21
-402.2549409525455
 31
0.0
  0
LINE
  5
21E
330
5E0
100
AcDbEntity
  8
DATA
  6
Continuous
 62
     7
100
AcDbLine
 10
100.9313769953767
 20
-323.5511406390804
 30
0.0
 11
100.9313769953767
 21
-444.2011406390808
 31
0.0
  0
LINE
  5
21F
330
5E0
100
AcDbEntity
  8
DATA
  6
Continuous
 62
     7
100
AcDbLine
 10
132.046376995377
 20
-338.2247629402406
 30
0.0
 11
132.046376995377
 21
-339.5427216454406
 31
0.0
  0
LINE
  5
220
330
5E0
100
AcDbEntity
  8
DATA
  6
Continuous
 62
     7
100
AcDbLine
 10
133.1893769953774
 20
-356.8416902275203
 30
0.0
 11
133.1893769953774
 21
-358.1256385892606
 31
0.0
  0
LINE
  5
221
330
5E0
100
AcDbEntity
  8
DATA
  6
Continuous
 62
     7
100
AcDbLine
 10
187.9263769953784
 20
-312.7561406390806
 30
0.0
 11
111.7263769953771
 21
-312.7561406390806
 31
0.0
  0
LINE
  5
222
330
5E0
100
AcDbEntity
  8
DATA
  6
Continuous
 62
     7
100
AcDbLine
 10
135.0411739572571
 20
-397.1191979144253
 30
0.0
 11
135.0411739572571
 21
-416.0216039906657
 31
0.0
  0
LINE
  5
223
330
5E0
100
AcDbEntity
  8
DATA
  6
Continuous
 62
     7
100
AcDbLine
 10
135.9833769953769
 20
-358.1256385892606
 30
0.0
 11
135.9833769953769
 21
-356.8416902275203
 31
0.0
  0
LINE
  5
224
330
5E0
100
AcDbEntity
  8
DATA
  6
Continuous
 62
     7
100
AcDbLine
 10
137.1263769953773
 20
-339.5427216454406
 30
0.0
 11
137.1263769953773
 21
-338.2247629402406
 31
0.0
  0
LINE
  5
225
330
5E0
100
AcDbEntity
  8
DATA
  6
Continuous
 62
     7
100
AcDbLine
 10
139.135516995377
 20
-402.2549409525455
 30
0.0
 11
139.135516995377
 21
-410.9061809525456
 31
0.0
  0
LINE
  5
226
330
5E0
100
AcDbEntity
  8
DATA
  6
Continuous
 62
     7
100
AcDbLine
 10
147.5403769953773
 20
-410.9061809525456
 30
0.0
 11
147.5403769953773
 21
-402.2549409525455
 31
0.0
  0
LINE
  5
227
330
5E0
100
AcDbEntity
  8
DATA
  6
Continuous
 62
     7
100
AcDbLine
 10
152.112376995377
 20
-402.2549409525455
 30
0.0
 11
152.112376995377
 21
-410.9061809525456
 31
0.0
  0
LINE
  5
228
330
5E0
100
AcDbEntity
  8
DATA
  6
Continuous
 62
     7
100
AcDbLine
 10
160.5172369953774
 20
-410.9061809525456
 30
0.0
 11
160.5172369953774
 21
-402.2549409525455
 31
0.0
  0
LINE
  5
229
330
5E0
100
AcDbEntity
  8
DATA
  6
Continuous
 62
     7
100
AcDbLine
 10
162.5263769953774
 20
-338.2247629402406
 30
0.0
 11
162.5263769953774
 21
-339.5427216454406
 31
0.0
  0
LINE
  5
22A
330
5E0
100
AcDbEntity
  8
DATA
  6
Continuous
 62
     7
100
AcDbLine
 10
163.6693769953774
 20
-356.8416902275203
 30
0.0
 11
163.6693769953774
 21
-358.1256385892606
 31
0.0
  0
LINE
  5
22B
330
5E0
100
AcDbEntity
  8
DATA
  6
Continuous
 62
     7
100
AcDbLine
 10
164.6115800334976
 20
-416.0216039906657
 30
0.0
 11
164.6115800334976
 21
-397.1191979144253
 31
0.0
  0
LINE
  5
22C
330
5E0
100
AcDbEntity
  8
DATA
  6
Continuous
 62
     7
100
AcDbLine
 10
166.4633769953769
 20
-358.1256385892606
 30
0.0
 11
166.4633769953769
 21
-356.8416902275203
 31
0.0
  0
LINE
  5
22D
330
5E0
100
AcDbEntity
  8
DATA
  6
Continuous
 62
     7
100
AcDbLine
 10
167.6063769953774
 20
-339.5427216454406
 30
0.0
 11
167.6063769953774
 21
-338.2247629402406
 31
0.0
  0
LINE
  5
22E
330
5E0
100
AcDbEntity
  8
DATA
  6
Continuous
 62
     7
100
AcDbLine
 10
198.7213769953776
 20
-444.2011406390808
 30
0.0
 11
198.7213769953776
 21
-323.5511406390804
 31
0.0
  0
CIRCLE
  5
22F
330
5E0
100
AcDbEntity
  8
DATA
  6
Continuous
 62
     7
100
AcDbCircle
 10
143.3379469953775
 20
-406.5704009525457
 30
0.0
 40
2.793999999999869
  0
ARC
  5
230
330
5E0
100
AcDbEntity
  8
DATA
  6
Continuous
 62
     7
100
AcDbCircle
 10
165.0663769953774
 20
-348.0621406390806
 30
0.0
 40
8.890000000000128
100
AcDbArc
 50
106.6015495990014
 51
260.9589038514013
  0
ARC
  5
231
330
5E0
100
AcDbEntity
  8
DATA
  6
Continuous
 62
     7
100
AcDbCircle
 10
165.0663769953774
 20
-348.0621406390806
 30
0.0
 40
8.889999999999837
100
AcDbArc
 50
279.0410961485986
 51
73.39845040099863
  0
ARC
  5
232
330
5E0
100
AcDbEntity
  8
DATA
  6
Continuous
 62
     7
100
AcDbCircle
 10
165.0663769953774
 20
-348.0621406390806
 30
0.0
 40
10.16000000000004
100
AcDbArc
 50
262.0967922665004
 51
277.9032077334997
  0
ARC
  5
233
330
5E0
100
AcDbEntity
  8
DATA
  6
Continuous
 62
     7
100
AcDbCircle
 10
165.0663769953774
 20
-348.0621406390806
 30
0.0
 40
10.16000000000014
100
AcDbArc
 50
75.52248781409962
 51
104.4775121859004
  0
CIRCLE
  5
234
330
5E0
100
AcDbEntity
  8
DATA
  6
Continuous
 62
     7
100
AcDbCircle
 10
165.0663769953774
 20
-348.0621406390806
 30
0.0
 40
6.096000000000003
  0
CIRCLE
  5
235
330
5E0
100
AcDbEntity
  8
DATA
  6
Continuous
 62
     7
100
AcDbCircle
 10
165.0663769953774
 20
-348.0621406390806
 30
0.0
 40
3.302000000000134
  0
ARC
  5
236
330
5E0
100
AcDbEntity
  8
DATA
  6
Continuous
 62
     7
100
AcDbCircle
 10
134.5863769953769
 20
-348.0621406390806
 30
0.0
 40
8.890000000000128
100
AcDbArc
 50
106.6015495990014
 51
260.9589038514013
  0
ARC
  5
237
330
5E0
100
AcDbEntity
  8
DATA
  6
Continuous
 62
     7
100
AcDbCircle
 10
134.5863769953769
 20
-348.0621406390806
 30
0.0
 40
8.889999999999837
100
AcDbArc
 50
279.0410961485986
 51
73.39845040099863
  0
ARC
  5
238
330
5E0
100
AcDbEntity
  8
DATA
  6
Continuous
 62
     7
100
AcDbCircle
 10
134.5863769953769
 20
-348.0621406390806
 30
0.0
 40
10.16000000000004
100
AcDbArc
 50
262.0967922665004
 51
277.9032077334997
  0
ARC
  5
239
330
5E0
100
AcDbEntity
  8
DATA
  6
Continuous
 62
     7
100
AcDbCircle
 10
134.5863769953769
 20
-348.0621406390806
 30
0.0
 40
10.16000000000014
100
AcDbArc
 50
75.52248781409962
 51
104.4775121859004
  0
CIRCLE
  5
23A
330
5E0
100
AcDbEntity
  8
DATA
  6
Continuous
 62
     7
100
AcDbCircle
 10
134.5863769953769
 20
-348.0621406390806
 30
0.0
 40
6.096000000000003
  0
CIRCLE
  5
23B
330
5E0
100
AcDbEntity
  8
DATA
  6
Continuous
 62
     7
100
AcDbCircle
 10
134.5863769953769
 20
-348.0621406390806
 30
0.0
 40
3.302000000000134
  0
CIRCLE
  5
23C
330
5E0
100
AcDbEntity
  8
DATA
  6
Continuous
 62
     7
100
AcDbCircle
 10
111.0913769953768
 20
-322.9161406390805
 30
0.0
 40
3.682999999999992
  0
ARC
  5
23D
330
5E0
100
AcDbEntity
  8
DATA
  6
Continuous
 62
     7
100
AcDbCircle
 10
165.0663769953774
 20
-348.0621406390806
 30
0.0
 40
12.0192329947602
100
AcDbArc
 50
311.6710695931018
 51
123.7809344450993
  0
ARC
  5
23E
330
5E0
100
AcDbEntity
  8
DATA
  6
Continuous
 62
     7
100
AcDbCircle
 10
155.5667769953771
 20
-336.1165206390804
 30
0.0
 40
3.429000000000312
100
AcDbArc
 50
325.2280175224997
 51
291.7580260589014
  0
ARC
  5
23F
330
5E0
100
AcDbEntity
  8
DATA
  6
Continuous
 62
     7
100
AcDbCircle
 10
165.0663769953774
 20
-348.0621406390806
 30
0.0
 40
12.01923299476016
100
AcDbArc
 50
133.2051091362996
 51
304.7956780787006
  0
ARC
  5
240
330
5E0
100
AcDbEntity
  8
DATA
  6
Continuous
 62
     7
100
AcDbCircle
 10
174.5659769953777
 20
-360.1195206390804
 30
0.0
 40
3.429000000000104
100
AcDbArc
 50
140.3663339330041
 51
116.1004137387004
  0
ARC
  5
241
330
5E0
100
AcDbEntity
  8
DATA
  6
Continuous
 62
     7
100
AcDbCircle
 10
134.5863769953769
 20
-348.0621406390806
 30
0.0
 40
12.01923299476001
100
AcDbArc
 50
133.2051091362988
 51
304.7956780787006
  0
ARC
  5
242
330
5E0
100
AcDbEntity
  8
DATA
  6
Continuous
 62
     7
100
AcDbCircle
 10
144.0859769953777
 20
-360.1195206390804
 30
0.0
 40
3.429000000000104
100
AcDbArc
 50
140.3663339330041
 51
116.1004137387004
  0
ARC
  5
243
330
5E0
100
AcDbEntity
  8
DATA
  6
Continuous
 62
     7
100
AcDbCircle
 10
134.5863769953769
 20
-348.0621406390806
 30
0.0
 40
12.0192329947602
100
AcDbArc
 50
311.6710695931018
 51
123.7809344450993
  0
ARC
  5
244
330
5E0
100
AcDbEntity
  8
DATA
  6
Continuous
 62
     7
100
AcDbCircle
 10
125.0867769953766
 20
-336.1165206390804
 30
0.0
 40
3.429000000000312
100
AcDbArc
 50
325.2280175224997
 51
291.7580260589049
  0
ARC
  5
245
330
5E0
100
AcDbEntity
  8
DATA
  6
Continuous
 62
     7
100
AcDbCircle
 10
111.7263769953771
 20
-323.5511406390804
 30
0.0
 40
10.79499999999979
100
AcDbArc
 50
90.0
 51
180.0
  0
ARC
  5
246
330
5E0
100
AcDbEntity
  8
DATA
  6
Continuous
 62
     7
100
AcDbCircle
 10
111.7263769953771
 20
-444.2011406390808
 30
0.0
 40
10.7950000000003
100
AcDbArc
 50
180.0
 51
270.0
  0
ARC
  5
247
330
5E0
100
AcDbEntity
  8
DATA
  6
Continuous
 62
     7
100
AcDbCircle
 10
187.9263769953784
 20
-444.2011406390808
 30
0.0
 40
10.79500000000143
100
AcDbArc
 50
270.0
 51
0.0
  0
ARC
  5
248
330
5E0
100
AcDbEntity
  8
DATA
  6
Continuous
 62
     7
100
AcDbCircle
 10
187.9263769953784
 20
-323.5511406390804
 30
0.0
 40
10.79500000000007
100
AcDbArc
 50
0.0
 51
90.0
  0
LWPOLYLINE
  5
249
330
5E0
100
AcDbEntity
  8
DATA
  6
Continuous
 62
     7
100
AcDbPolyline
 90
      143
 70
   128
 43
0.0
 10
171.9251718375774
 20
-357.9322417065606
 10
171.9271012475676
 20
-357.9308938061237
 10
171.9290358076719
 20
-357.9295416771986
 10
171.9309755178904
 20
-357.9281853197851
 10
171.9329203782232
 20
-357.9268247338833
 10
171.9348703886702
 20
-357.9254599194933
 10
171.9368255492315
 20
-357.9240908766148
 10
171.9387858599071
 20
-357.922717605248
 10
171.9407513206968
 20
-357.9213401053931
 10
171.9427219316008
 20
-357.9199583770496
 10
171.944697692619
 20
-357.918572420218
 10
171.9466786037514
 20
-357.9171822348979
 10
171.9486646649981
 20
-357.9157878210896
 10
171.950655876359
 20
-357.9143891787929
 10
171.9526522378342
 20
-357.912986308008
 10
171.9546537494236
 20
-357.9115792087347
 10
171.9566604111272
 20
-357.9101678809731
 10
171.958672222945
 20
-357.9087523247232
 10
171.9606891848771
 20
-357.9073325399848
 10
171.9627112969235
 20
-357.9059085267583
 10
171.964738559084
 20
-357.9044802850433
 10
171.9667709713588
 20
-357.9030478148401
 10
171.9688085337479
 20
-357.9016111161486
 10
171.9708512462512
 20
-357.9001701889688
 10
171.9728991088687
 20
-357.8987250333006
 10
171.9749521216004
 20
-357.8972756491442
 10
171.9770102844464
 20
-357.8958220364992
 10
171.9790735974066
 20
-357.8943641953661
 10
171.981142060481
 20
-357.8929021257446
 10
171.9832156736697
 20
-357.8914358276348
 10
171.9852944369726
 20
-357.8899653010369
 10
171.9873783503898
 20
-357.8884905459504
 10
171.9894674139212
 20
-357.8870115623756
 10
171.9915616275668
 20
-357.8855283503125
 10
171.9936609913266
 20
-357.8840409097611
 10
171.9957655052008
 20
-357.8825492407213
 10
171.9978751691891
 20
-357.8810533431933
 10
171.9999899832917
 20
-357.8795532171771
 10
172.0021099475085
 20
-357.8780488626724
 10
172.0042350618395
 20
-357.8765402796794
 10
172.0063653262848
 20
-357.8750274681981
 10
172.0085007408443
 20
-357.8735104282285
 10
172.0106413055181
 20
-357.8719891597706
 10
172.012787020306
 20
-357.8704636628243
 10
172.0149378852083
 20
-357.8689339373897
 10
172.0170939002248
 20
-357.8673999834668
 10
172.0192550653554
 20
-357.8658618010556
 10
172.0214213806003
 20
-357.8643193901561
 10
172.0235928459595
 20
-357.8627727507683
 10
172.0257694614329
 20
-357.8612218828922
 10
172.0279512270205
 20
-357.8596667865276
 10
172.0301381427224
 20
-357.8581074616748
 10
172.0323302085385
 20
-357.8565439083336
 10
172.0345274244689
 20
-357.8549761265042
 10
172.0367297905134
 20
-357.8534041161864
 10
172.0389373066723
 20
-357.8518278773803
 10
172.0411499729453
 20
-357.8502474100859
 10
172.0433677893326
 20
-357.8486627143032
 10
172.045590755834
 20
-357.8470737900321
 10
172.0478188724498
 20
-357.8454806372728
 10
172.0500521391798
 20
-357.8438832560251
 10
172.052290556024
 20
-357.842281646289
 10
172.0545341229825
 20
-357.8406758080646
 10
172.0567828400552
 20
-357.8390657413521
 10
172.0590367072421
 20
-357.837451446151
 10
172.0590367072421
 20
-357.837451446151
 10
172.0590367072421
 20
-357.837451446151
 42
0.0041262420455595
 10
172.2025854986581
 20
-357.7328165873705
 10
172.2269593679287
 20
-357.7147402238373
 10
172.2353526784814
 20
-357.7085155029645
 42
0.0054018123286878
 10
172.4085794986781
 20
-357.5771211724145
 10
172.411168796072
 20
-357.5751118196776
 10
172.4137487708563
 20
-357.573109085125
 10
172.4163194230309
 20
-357.5711129687566
 10
172.4188807525958
 20
-357.5691234705727
 10
172.421432759551
 20
-357.567140590573
 10
172.4239754438965
 20
-357.5651643287578
 10
172.4265088056324
 20
-357.5631946851268
 10
172.4290328447587
 20
-357.5612316596803
 10
172.4315475612753
 20
-357.559275252418
 10
172.4340529551821
 20
-357.5573254633401
 10
172.4365490264793
 20
-357.5553822924465
 10
172.4390357751669
 20
-357.5534457397374
 10
172.4415132012448
 20
-357.5515158052125
 10
172.443981304713
 20
-357.549592488872
 10
172.4464400855716
 20
-357.5476757907158
 10
172.4488895438204
 20
-357.5457657107441
 10
172.4513296794597
 20
-357.5438622489565
 10
172.4537604924893
 20
-357.5419654053533
 10
172.4561819829092
 20
-357.5400751799345
 10
172.4585941507193
 20
-357.5381915727001
 10
172.4609969959199
 20
-357.53631458365
 10
172.4633905185108
 20
-357.5344442127842
 10
172.4657747184921
 20
-357.5325804601028
 10
172.4681495958636
 20
-357.5307233256056
 10
172.4705151506254
 20
-357.5288728092929
 10
172.4728713827777
 20
-357.5270289111645
 10
172.4752182923203
 20
-357.5251916312204
 10
172.4775558792531
 20
-357.5233609694607
 10
172.4798841435764
 20
-357.5215369258852
 10
172.4822030852898
 20
-357.5197195004942
 10
172.4845127043938
 20
-357.5179086932875
 10
172.486813000888
 20
-357.5161045042652
 10
172.4891039747725
 20
-357.5143069334271
 10
172.4913856260474
 20
-357.5125159807734
 10
172.4936579547126
 20
-357.5107316463042
 10
172.4959209607682
 20
-357.5089539300192
 10
172.4981746442141
 20
-357.5071828319185
 10
172.5004190050503
 20
-357.5054183520022
 10
172.5026540432768
 20
-357.5036604902703
 10
172.5048797588937
 20
-357.5019092467227
 10
172.5070961519009
 20
-357.5001646213594
 10
172.5093032222984
 20
-357.4984266141805
 10
172.5115009700863
 20
-357.4966952251859
 10
172.5136893952645
 20
-357.4949704543757
 10
172.5158684978331
 20
-357.4932523017498
 10
172.518038277792
 20
-357.4915407673082
 10
172.5201987351411
 20
-357.489835851051
 10
172.5223498698807
 20
-357.4881375529781
 10
172.5244916820106
 20
-357.4864458730896
 10
172.5266241715308
 20
-357.4847608113854
 10
172.5287473384414
 20
-357.4830823678656
 10
172.5308611827422
 20
-357.48141054253
 10
172.5329657044334
 20
-357.4797453353789
 10
172.535060903515
 20
-357.4780867464121
 10
172.5371467799868
 20
-357.4764347756296
 10
172.539223333849
 20
-357.4747894230315
 10
172.5412905651016
 20
-357.4731506886177
 10
172.5433484737444
 20
-357.4715185723882
 10
172.5453970597776
 20
-357.4698930743432
 10
172.5474363232011
 20
-357.4682741944824
 10
172.549466264015
 20
-357.466661932806
 10
172.5514868822192
 20
-357.465056289314
 10
172.5534981778137
 20
-357.4634572640063
 10
172.5534981778137
 20
-357.4634572640063
 10
172.5534981778137
 20
-357.4634572640063
 42
0.0035313977585792
 10
172.6811950993749
 20
-357.3604295177184
 10
172.7128773048246
 20
-357.3344963038745
 10
172.713828938502
 20
-357.3337173518001
 42
0.0062997984339625
 10
172.900286312201
 20
-357.1771297924994
 10
172.927411017158
 20
-357.1537613198419
 42
0.0034429198289777
 10
173.0568672238997
 20
-357.0406698996249
 10
173.057403345018
 20
-357.0401949740206
  0
LWPOLYLINE
  5
2DA
330
5E0
100
AcDbEntity
  8
DATA
  6
Continuous
 62
     7
100
AcDbPolyline
 90
       82
 70
   128
 43
0.0
 10
158.3834542550774
 20
-338.0721203473805
 10
158.3790426510592
 20
-338.0750922687392
 42
0.0062071734439752
 10
158.1318314137554
 20
-338.2461281225567
 10
158.1126032781036
 20
-338.2597873605452
 42
0.0058310789905146
 10
157.9077114658504
 20
-338.4089633846206
 10
157.9077114658504
 20
-338.4089633846206
 42
0.0042988931640865
 10
157.7058775002219
 20
-338.5622643280113
 10
157.702870348413
 20
-338.5645894189877
 10
157.702870348413
 20
-338.5645894189877
 42
0.0061226179889771
 10
157.4983262970702
 20
-338.7267806857833
 10
157.4908484716907
 20
-338.7328607659442
 10
157.4702515214361
 20
-338.7496077615297
 42
0.0050685423695215
 10
157.2954031453687
 20
-338.8947424798886
 10
157.2937228489385
 20
-338.8961662416106
 42
0.0040110176322742
 10
157.1248728833539
 20
-339.0415804770412
 10
157.1181048522757
 20
-339.047504351904
 42
0.0049074611005062
 10
156.9652964781745
 20
-339.1839252182057
 10
156.9630143713867
 20
-339.1860041073908
 10
156.9607409414731
 20
-339.1880757106728
 10
156.9584761884336
 20
-339.1901400280517
 10
156.9562201122684
 20
-339.1921970595273
 10
156.9539727129772
 20
-339.1942468050999
 10
156.9517339905603
 20
-339.1962892647695
 10
156.9495039450175
 20
-339.1983244385358
 10
156.9472825763489
 20
-339.2003523263989
 10
156.9450698845544
 20
-339.2023729283591
 10
156.9428658696342
 20
-339.204386244416
 10
156.9406705315881
 20
-339.2063922745697
 10
156.9384838704162
 20
-339.2083910188205
 10
156.9363058861185
 20
-339.210382477168
 10
156.9341365786949
 20
-339.2123666496125
 10
156.9319759481454
 20
-339.2143435361537
 10
156.9298239944702
 20
-339.2163131367918
 10
156.9276807176692
 20
-339.2182754515269
 10
156.9255461177423
 20
-339.2202304803587
 10
156.9234201946896
 20
-339.2221782232875
 10
156.921302948511
 20
-339.2241186803132
 10
156.9191943792066
 20
-339.2260518514356
 10
156.9170944867764
 20
-339.2279777366549
 10
156.9150032712204
 20
-339.2298963359712
 10
156.9129207325385
 20
-339.2318076493842
 10
156.9108468707308
 20
-339.2337116768942
 10
156.9087816857973
 20
-339.2356084185011
 10
156.906725177738
 20
-339.2374978742048
 10
156.9046773465527
 20
-339.2393800440053
 10
156.9026381922418
 20
-339.2412549279028
 10
156.900607714805
 20
-339.2431225258971
 10
156.8985859142423
 20
-339.2449828379882
 10
156.8965727905537
 20
-339.2468358641763
 10
156.8945683437394
 20
-339.2486816044612
 10
156.8925725737993
 20
-339.2505200588429
 10
156.8905854807333
 20
-339.2523512273216
 10
156.8886070645415
 20
-339.2541751098971
 10
156.8866373252238
 20
-339.2559917065696
 10
156.8846762627804
 20
-339.2578010173387
 10
156.8827238772111
 20
-339.2596030422049
 10
156.8807801685159
 20
-339.2613977811678
 10
156.878845136695
 20
-339.2631852342276
 10
156.8769187817482
 20
-339.2649654013843
 10
156.8750011036756
 20
-339.2667382826378
 10
156.8730921024772
 20
-339.2685038779883
 10
156.8711917781529
 20
-339.2702621874357
 10
156.8693001307028
 20
-339.2720132109798
 10
156.8674171601269
 20
-339.2737569486209
 10
156.8655428664251
 20
-339.2754934003589
 10
156.8636772495975
 20
-339.2772225661937
 10
156.8618203096441
 20
-339.2789444461253
 10
156.8599720465649
 20
-339.2806590401538
 10
156.8581324603598
 20
-339.2823663482792
 10
156.8563015510289
 20
-339.2840663705015
 10
156.8544793185722
 20
-339.2857591068206
 10
156.8526657629896
 20
-339.2874445572366
 10
156.8508608842812
 20
-339.2891227217495
 10
156.849064682447
 20
-339.2907936003592
 10
156.847277157487
 20
-339.2924571930658
 10
156.8454983094011
 20
-339.2941134998693
 10
156.8437281381894
 20
-339.2957625207696
 10
156.8419666438518
 20
-339.2974042557668
 10
156.8402138263885
 20
-339.2990387048609
 10
156.8384696857993
 20
-339.3006658680518
 10
156.8384696857993
 20
-339.3006658680518
 10
156.837864577657
 20
-339.3012305714007
  0
LWPOLYLINE
  5
32E
330
5E0
100
AcDbEntity
  8
DATA
  6
Continuous
 62
     7
100
AcDbPolyline
 90
       12
 70
   128
 43
0.0
 10
141.445171837577
 20
-357.9322417065606
 10
141.5070577701445
 20
-357.8885046856064
 42
0.0043763627566756
 10
141.6933029567821
 20
-357.7544188566039
 42
0.0052498493534135
 10
141.8769292432144
 20
-357.6167747695574
 10
141.9099344521553
 20
-357.5914888852131
 42
0.0055378377114447
 10
142.0888331861193
 20
-357.451259944091
 10
142.0990386232211
 20
-357.4430763752902
 42
0.0035437003444076
 10
142.2550735540688
 20
-357.3161271907324
 42
0.0044964824942382
 10
142.409044663063
 20
-357.1866874254248
 10
142.4180689269282
 20
-357.1789613784328
 42
0.0042165604076695
 10
142.5768672218069
 20
-357.0406699011022
 10
142.5774033450171
 20
-357.0401949740206
  0
LWPOLYLINE
  5
33C
330
5E0
100
AcDbEntity
  8
DATA
  6
Continuous
 62
     7
100
AcDbPolyline
 90
       17
 70
   128
 43
0.0
 10
127.9034542550769
 20
-338.0721203473805
 10
127.8976198152893
 20
-338.0760507383937
 42
0.0042842391132489
 10
127.7317573758985
 20
-338.1898627285243
 42
0.0037789127396197
 10
127.5677504433188
 20
-338.3063354869161
 10
127.5531316021662
 20
-338.3168844542523
 42
0.0057092633935171
 10
127.3623772135217
 20
-338.4578729058878
 10
127.322877217165
 20
-338.487771125197
 42
0.0060279276410828
 10
127.1242668235471
 20
-338.6419037714923
 10
127.1050935102395
 20
-338.6571571981725
 42
0.0040073951855483
 10
126.947708164395
 20
-338.7844389270887
 42
0.0040745575035565
 10
126.7924008156963
 20
-338.9142477252752
 10
126.782863425296
 20
-338.9223521796743
 42
0.0050156961940675
 10
126.6110339262571
 20
-339.0713592576096
 10
126.5875518782848
 20
-339.0921387455937
 42
0.0066045342534618
 10
126.3728306168579
 20
-339.2872649235656
 10
126.3584696990236
 20
-339.300665858916
 10
126.3578645776572
 20
-339.3012305714007
  0
LINE
  5
34F
330
5E0
100
AcDbEntity
  8
DATA
  6
Continuous
 62
     7
100
AcDbLine
 10
127.5725811074347
 20
-324.0620262950591
 30
0.0
 11
172.08017288912
 21
-324.0620262950591
 31
0.0
  0
LINE
  5
350
330
5E0
100
AcDbEntity
  8
DATA
  6
Continuous
 62
     7
100
AcDbLine
 10
123.0867769953766
 20
-336.1165206390804
 30
0.0
 11
127.0867769953766
 21
-336.1165206390804
 31
0.0
  0
LINE
  5
351
330
5E0
100
AcDbEntity
  8
DATA
  6
Continuous
 62
     7
100
AcDbLine
 10
125.0867769953766
 20
-338.1165206390805
 30
0.0
 11
125.0867769953766
 21
-334.1165206390804
 31
0.0
  0
LINE
  5
352
330
5E0
100
AcDbEntity
  8
DATA
  6
Continuous
 62
     7
100
AcDbLine
 10
153.5667769953771
 20
-336.1165206390804
 30
0.0
 11
157.5667769953771
 21
-336.1165206390804
 31
0.0
  0
LINE
  5
353
330
5E0
100
AcDbEntity
  8
DATA
  6
Continuous
 62
     7
100
AcDbLine
 10
155.5667769953771
 20
-338.1165206390805
 30
0.0
 11
155.5667769953771
 21
-334.1165206390804
 31
0.0
  0
LINE
  5
354
330
5E0
100
AcDbEntity
  8
DATA
  6
Continuous
 62
     7
100
AcDbLine
 10
142.0859769953777
 20
-360.1195206390804
 30
0.0
 11
146.0859769953777
 21
-360.1195206390804
 31
0.0
  0
LINE
  5
355
330
5E0
100
AcDbEntity
  8
DATA
  6
Continuous
 62
     7
100
AcDbLine
 10
144.0859769953777
 20
-362.1195206390804
 30
0.0
 11
144.0859769953777
 21
-358.1195206390804
 31
0.0
  0
LINE
  5
356
330
5E0
100
AcDbEntity
  8
DATA
  6
Continuous
 62
     7
100
AcDbLine
 10
172.5659769953777
 20
-360.1195206390804
 30
0.0
 11
176.5659769953777
 21
-360.1195206390804
 31
0.0
  0
LINE
  5
357
330
5E0
100
AcDbEntity
  8
DATA
  6
Continuous
 62
     7
100
AcDbLine
 10
174.5659769953777
 20
-362.1195206390804
 30
0.0
 11
174.5659769953777
 21
-358.1195206390804
 31
0.0
  0
ARC
  5
358
330
5E0
100
AcDbEntity
  8
DATA
  6
Continuous
 62
     7
100
AcDbCircle
 10
127.6013769953773
 20
-381.7532279454084
 30
0.0
 40
15.36414132905984
100
AcDbArc
 50
90.1073853577
 51
150.4551144743448
  0
ARC
  5
359
330
5E0
100
AcDbEntity
  8
DATA
  6
Continuous
 62
     7
100
AcDbCircle
 10
172.051376995378
 20
-381.7532279454084
 30
0.0
 40
15.36414132906042
100
AcDbArc
 50
29.54488552287531
 51
89.89261524240069
  0
LINE
  5
35A
330
5E0
100
AcDbEntity
  8
DATA
  6
Continuous
 62
     7
100
AcDbLine
 10
127.5725811074347
 20
-366.3891136013871
 30
0.0
 11
172.08017288912
 21
-366.3891136013871
 31
0.0
  0
TEXT
  5
35B
330
5E0
100
AcDbEntity
  8
DATA
 62
     7
100
AcDbText
 10
129.5237070363615
 20
-373.4558321957409
 30
0.0
 40
3.952654513888889
  1
2+/2- LOOP THRU
 41
0.7
 11
129.5237070363615
 21
-369.503177681852
 31
0.0
100
AcDbText
 73
     3
  0
TEXT
  5
35C
330
5E0
100
AcDbEntity
  8
DATA
 62
     7
100
AcDbText
 10
139.4325579294211
 20
-394.2261867291543
 30
0.0
 40
5.429470486111111
  1
+1
 41
0.7
 11
139.4325579294211
 21
-388.7967162430432
 31
0.0
100
AcDbText
 73
     3
  0
TEXT
  5
35D
330
5E0
100
AcDbEntity
  8
DATA
 62
     7
100
AcDbText
 10
153.3543309056593
 20
-394.1315757951105
 30
0.0
 40
5.429470486111111
  1
-1
 41
0.7
 11
153.3543309056593
 21
-388.7021053089994
 31
0.0
100
AcDbText
 73
     3
  0
TEXT
  5
35E
330
5E0
100
AcDbEntity
  8
DATA
 62
     7
100
AcDbText
 10
127.033133272274
 20
-381.7933046809881
 30
0.0
 40
4.072102864583333
  1
PARALLEL WITH NL4 
 41
0.7
 11
127.033133272274
 21
-377.7212018164048
 31
0.0
100
AcDbText
 73
     3
  0
LINE
  5
35F
330
5E0
100
AcDbEntity
  8
DATA
  6
Continuous
 62
     7
100
AcDbLine
 10
135.0411739572571
 20
-397.1191979144253
 30
0.0
 11
164.6115800334976
 21
-397.1191979144253
 31
0.0
  0
LINE
  5
360
330
5E0
100
AcDbEntity
  8
DATA
  6
Continuous
 62
     7
100
AcDbLine
 10
164.6115800334976
 20
-416.0216039906657
 30
0.0
 11
135.0411739572571
 21
-416.0216039906657
 31
0.0
  0
LINE
  5
361
330
5E0
100
AcDbEntity
  8
DATA
  6
Continuous
 62
     7
100
AcDbLine
 10
148.3023769953775
 20
-416.0216039906657
 30
0.0
 11
148.3023769953775
 21
-397.1191979144253
 31
0.0
  0
LINE
  5
362
330
5E0
100
AcDbEntity
  8
DATA
  6
Continuous
 62
     7
100
AcDbLine
 10
151.3503769953777
 20
-416.0216039906657
 30
0.0
 11
151.3503769953777
 21
-397.1191979144253
 31
0.0
  0
LINE
  5
363
330
5E0
100
AcDbEntity
  8
DATA
  6
Continuous
 62
     7
100
AcDbLine
 10
138.0411739572571
 20
-397.1191979144253
 30
0.0
 11
138.0411739572571
 21
-416.0216039906657
 31
0.0
  0
LINE
  5
364
330
5E0
100
AcDbEntity
  8
DATA
  6
Continuous
 62
     7
100
AcDbLine
 10
161.6115800334976
 20
-416.0216039906657
 30
0.0
 11
161.6115800334976
 21
-397.1191979144253
 31
0.0
  0
LINE
  5
365
330
5E0
100
AcDbEntity
  8
DATA
  6
Continuous
 62
     7
100
AcDbLine
 10
128.2313769953767
 20
-375.0047415412747
 30
0.0
 11
170.2313769953768
 21
-375.0047415412747
 31
0.0
  0
LINE
  5
366
330
5E0
100
AcDbEntity
  8
DATA
  6
Continuous
 62
     7
100
AcDbLine
 10
141.5950327282622
 20
-406.5704009525457
 30
0.0
 11
145.0808612624928
 21
-406.5704009525457
 31
0.0
  0
LINE
  5
367
330
5E0
100
AcDbEntity
  8
DATA
  6
Continuous
 62
     7
100
AcDbLine
 10
143.3379469953775
 20
-408.3133152196609
 30
0.0
 11
143.3379469953775
 21
-404.8274866854304
 31
0.0
  0
CIRCLE
  5
368
330
5E0
100
AcDbEntity
  8
DATA
  6
Continuous
 62
     7
100
AcDbCircle
 10
156.5248069951479
 20
-406.5704009525457
 30
0.0
 40
2.793999999999869
  0
LINE
  5
369
330
5E0
100
AcDbEntity
  8
DATA
  6
Continuous
 62
     7
100
AcDbLine
 10
158.2677212622632
 20
-406.5704009525457
 30
0.0
 11
154.7818927280325
 21
-406.5704009525457
 31
0.0
  0
LINE
  5
36A
330
5E0
100
AcDbEntity
  8
DATA
  6
Continuous
 62
     7
100
AcDbLine
 10
156.5248069951479
 20
-408.3133152196609
 30
0.0
 11
156.5248069951479
 21
-404.8274866854304
 31
0.0
  0
LINE
  5
36B
330
5E0
100
AcDbEntity
  8
DATA
  6
Continuous
 62
     7
100
AcDbLine
 10
111.0913769953768
 20
-324.9253195758604
 30
0.0
 11
111.0913769953768
 21
-320.9069617023006
 31
0.0
  0
LINE
  5
36C
330
5E0
100
AcDbEntity
  8
DATA
  6
Continuous
 62
     7
100
AcDbLine
 10
109.082198058597
 20
-322.9161406390805
 30
0.0
 11
113.1005559321567
 21
-322.9161406390805
 31
0.0
  0
CIRCLE
  5
36D
330
5E0
100
AcDbEntity
  8
DATA
  6
Continuous
 62
     7
100
AcDbCircle
 10
188.5613769953777
 20
-322.9161406390805
 30
0.0
 40
3.682999999999992
  0
LINE
  5
36E
330
5E0
100
AcDbEntity
  8
DATA
  6
Continuous
 62
     7
100
AcDbLine
 10
188.5613769953777
 20
-324.9253195758604
 30
0.0
 11
188.5613769953777
 21
-320.9069617023006
 31
0.0
  0
LINE
  5
36F
330
5E0
100
AcDbEntity
  8
DATA
  6
Continuous
 62
     7
100
AcDbLine
 10
186.5521980585979
 20
-322.9161406390805
 30
0.0
 11
190.5705559321576
 21
-322.9161406390805
 31
0.0
  0
CIRCLE
  5
370
330
5E0
100
AcDbEntity
  8
DATA
  6
Continuous
 62
     7
100
AcDbCircle
 10
111.0913769953768
 20
-444.8361406390808
 30
0.0
 40
3.682999999999992
  0
LINE
  5
371
330
5E0
100
AcDbEntity
  8
DATA
  6
Continuous
 62
     7
100
AcDbLine
 10
111.0913769953768
 20
-446.8453195758607
 30
0.0
 11
111.0913769953768
 21
-442.8269617023009
 31
0.0
  0
LINE
  5
372
330
5E0
100
AcDbEntity
  8
DATA
  6
Continuous
 62
     7
100
AcDbLine
 10
109.082198058597
 20
-444.8361406390808
 30
0.0
 11
113.1005559321567
 21
-444.8361406390808
 31
0.0
  0
CIRCLE
  5
373
330
5E0
100
AcDbEntity
  8
DATA
  6
Continuous
 62
     7
100
AcDbCircle
 10
188.5613769953777
 20
-444.8361406390808
 30
0.0
 40
3.682999999999992
  0
LINE
  5
374
330
5E0
100
AcDbEntity
  8
DATA
  6
Continuous
 62
     7
100
AcDbLine
 10
188.5613769953777
 20
-446.8453195758607
 30
0.0
 11
188.5613769953777
 21
-442.8269617023009
 31
0.0
  0
LINE
  5
375
330
5E0
100
AcDbEntity
  8
DATA
  6
Continuous
 62
     7
100
AcDbLine
 10
186.5521980585979
 20
-444.8361406390808
 30
0.0
 11
190.5705559321576
 21
-444.8361406390808
 31
0.0
  0
LINE
  5
376
330
5E0
100
AcDbEntity
  8
DATA
  6
Continuous
 62
     7
100
AcDbLine
 10
-377.4168713496223
 20
-782.1976874756594
 30
0.0
 11
-373.3673092811021
 21
-782.1976874756594
 31
0.0
  0
ARC
  5
377
330
5E0
100
AcDbEntity
  8
DATA
  6
Continuous
 62
     7
100
AcDbCircle
 10
-376.9996925316143
 20
-777.6447603033082
 30
0.0
 40
4.572000000320712
100
AcDbArc
 50
197.2428031115142
 51
264.7646808941665
  0
ARC
  5
378
330
5E0
100
AcDbEntity
  8
DATA
  6
Continuous
 62
     7
100
AcDbCircle
 10
-373.7844880991102
 20
-777.6447603033082
 30
0.0
 40
4.57200000032054
100
AcDbArc
 50
275.2353191058335
 51
342.7571968884436
  0
LINE
  5
379
330
5E0
100
AcDbEntity
  8
DATA
  6
Continuous
 62
     7
100
AcDbLine
 10
-326.6168713496224
 20
-782.1976874756594
 30
0.0
 11
-322.567309281102
 21
-782.1976874756594
 31
0.0
  0
ARC
  5
37A
330
5E0
100
AcDbEntity
  8
DATA
  6
Continuous
 62
     7
100
AcDbCircle
 10
-326.1996925316143
 20
-777.6447603033082
 30
0.0
 40
4.572000000320712
100
AcDbArc
 50
197.2428031115142
 51
264.7646808941665
  0
ARC
  5
37B
330
5E0
100
AcDbEntity
  8
DATA
  6
Continuous
 62
     7
100
AcDbCircle
 10
-322.9844880991101
 20
-777.6447603033082
 30
0.0
 40
4.57200000032054
100
AcDbArc
 50
275.2353191058335
 51
342.7571968884436
  0
TEXT
  5
37C
330
5E0
100
AcDbEntity
  8
DATA
 62
     7
100
AcDbText
 10
671.1577510127315
 20
-38.57367621527778
 30
0.0
 40
27.14735243055556
  1
端子拡大図
 41
0.7
 72
     1
 11
725.0
 21
-25.0
 31
0.0
100
AcDbText
 73
     2
  0
LINE
  5
37D
330
5E0
100
AcDbEntity
  8
DATA
  6
Continuous
 62
     7
100
AcDbLine
 10
-415.9756106739025
 20
-120.9999846989818
 30
0.0
 11
-284.0025996797644
 21
-120.9999846989818
 31
0.0
  0
LINE
  5
37E
330
5E0
100
AcDbEntity
  8
DATA
  6
Continuous
 62
     7
100
AcDbLine
 10
-415.975610673952
 20
-499.9999846989823
 30
0.0
 11
-284.024406720535
 21
-500.0000153010176
 31
0.0
  0
LINE
  5
37F
330
5E0
100
AcDbEntity
  8
DATA
  6
Continuous
 62
     7
100
AcDbLine
 10
-425.5006084649205
 20
-486.9999846989824
 30
0.0
 11
-274.4994137873006
 21
-486.9999846989824
 31
0.0
  0
LINE
  5
380
330
5E0
100
AcDbEntity
  8
DATA
  6
Continuous
 62
     7
100
AcDbLine
 10
-425.5006084649205
 20
-490.4749846989825
 30
0.0
 11
-425.5006084649205
 21
-130.5249846989815
 31
0.0
  0
LINE
  5
381
330
5E0
100
AcDbEntity
  8
DATA
  6
Continuous
 62
     7
100
AcDbLine
 10
-274.4994137873006
 20
-490.4749846989825
 30
0.0
 11
-274.4994137873006
 21
-130.5249846989815
 31
0.0
  0
LINE
  5
382
330
5E0
100
AcDbEntity
  8
DATA
  6
Continuous
 62
     7
100
AcDbLine
 10
-425.5006084649205
 20
-133.9999846989822
 30
0.0
 11
-274.4994137873006
 21
-133.9999846989822
 31
0.0
  0
LINE
  5
383
330
5E0
100
AcDbEntity
  8
DATA
  6
Continuous
 62
     7
100
AcDbLine
 10
-277.4986172497004
 20
-486.9999846989824
 30
0.0
 11
-277.4986172497004
 21
-133.9999846989822
 31
0.0
  0
LINE
  5
384
330
5E0
100
AcDbEntity
  8
DATA
  6
Continuous
 62
     7
100
AcDbLine
 10
-318.0525996797637
 20
-473.9999846989825
 30
0.0
 11
-286.5006084649206
 21
-473.9999846989825
 31
0.0
  0
ARC
  5
385
330
5E0
100
AcDbEntity
  8
DATA
  6
Continuous
 62
     7
100
AcDbCircle
 10
-350.0000111261109
 20
-413.999984698982
 30
0.0
 40
67.50000000000037
100
AcDbArc
 50
246.5799938262755
 51
72.85698241347003
  0
ARC
  5
386
330
5E0
100
AcDbEntity
  8
DATA
  6
Continuous
 62
     7
100
AcDbCircle
 10
-350.0000111261096
 20
-413.9999846989832
 30
0.0
 40
24.99999999999897
100
AcDbArc
 50
276.8326733350934
 51
42.53023040374691
  0
ARC
  5
387
330
5E0
100
AcDbEntity
  8
DATA
  6
Continuous
 62
     7
100
AcDbCircle
 10
-350.0000111261106
 20
-413.9999846989822
 30
0.0
 40
59.50000000000002
100
AcDbArc
 50
249.8505740525313
 51
69.51232968631114
  0
ARC
  5
388
330
5E0
100
AcDbEntity
  8
DATA
  6
Continuous
 62
     7
100
AcDbCircle
 10
-350.0000111261106
 20
-413.9999846989824
 30
0.0
 40
49.99999999999989
100
AcDbArc
 50
254.4814195066988
 51
64.88148423214403
  0
ARC
  5
389
330
5E0
100
AcDbEntity
  8
DATA
  6
Continuous
 62
     7
100
AcDbCircle
 10
-350.0000111261106
 20
-413.9999846989824
 30
0.0
 40
54.60119343581499
100
AcDbArc
 50
252.1265314792108
 51
67.23637225962878
  0
CIRCLE
  5
38A
330
5E0
100
AcDbEntity
  8
DATA
  6
Continuous
 62
     7
100
AcDbCircle
 10
-298.5000111261108
 20
-362.4999846989824
 30
0.0
 40
3.682999999999992
  0
LINE
  5
38B
330
5E0
100
AcDbEntity
  8
DATA
  6
Continuous
 62
     7
100
AcDbLine
 10
-298.5000111261108
 20
-364.5091636357623
 30
0.0
 11
-298.5000111261108
 21
-360.4908057622025
 31
0.0
  0
LINE
  5
38C
330
5E0
100
AcDbEntity
  8
DATA
  6
Continuous
 62
     7
100
AcDbLine
 10
-300.5091900628905
 20
-362.4999846989824
 30
0.0
 11
-296.4908321893308
 21
-362.4999846989824
 31
0.0
  0
CIRCLE
  5
38D
330
5E0
100
AcDbEntity
  8
DATA
  6
Continuous
 62
     7
100
AcDbCircle
 10
-298.5000111261108
 20
-465.4999846989824
 30
0.0
 40
3.682999999999992
  0
LINE
  5
38E
330
5E0
100
AcDbEntity
  8
DATA
  6
Continuous
 62
     7
100
AcDbLine
 10
-298.5000111261108
 20
-467.5091636357623
 30
0.0
 11
-298.5000111261108
 21
-463.4908057622025
 31
0.0
  0
LINE
  5
38F
330
5E0
100
AcDbEntity
  8
DATA
  6
Continuous
 62
     7
100
AcDbLine
 10
-300.5091900628905
 20
-465.4999846989824
 30
0.0
 11
-296.4908321893308
 21
-465.4999846989824
 31
0.0
  0
ARC
  5
390
330
5E0
100
AcDbEntity
  8
DATA
  6
Continuous
 62
     7
100
AcDbCircle
 10
-350.0000111261108
 20
-470.3227292452583
 30
0.0
 40
125.3227445462759
100
AcDbArc
 50
64.00089388699559
 51
81.06934544786094
  0
ARC
  5
391
330
5E0
100
AcDbEntity
  8
DATA
  6
Continuous
 62
     7
100
AcDbCircle
 10
-406.3227556723863
 20
-413.9999846989824
 30
0.0
 40
125.3227445462758
100
AcDbArc
 50
334.0008938869956
 51
25.99910611300441
  0
ARC
  5
392
330
5E0
100
AcDbEntity
  8
DATA
  6
Continuous
 62
     7
100
AcDbCircle
 10
-350.0000111261108
 20
-357.6772401527068
 30
0.0
 40
125.3227445462758
100
AcDbArc
 50
291.8463006110755
 51
295.9991061130045
  0
ARC
  5
393
330
5E0
100
AcDbEntity
  8
DATA
  6
Continuous
 62
     7
100
AcDbCircle
 10
-296.3789645773493
 20
-360.3789381502212
 30
0.0
 40
2.999999999999534
100
AcDbArc
 50
25.99910611300012
 51
64.00089388699989
  0
ARC
  5
394
330
5E0
100
AcDbEntity
  8
DATA
  6
Continuous
 62
     7
100
AcDbCircle
 10
-296.3789645773495
 20
-467.6210312477432
 30
0.0
 40
2.999999999999941
100
AcDbArc
 50
295.9991061130012
 51
334.000893886994
  0
ARC
  5
395
330
5E0
100
AcDbEntity
  8
DATA
  6
Continuous
 62
     7
100
AcDbCircle
 10
-350.0000111261105
 20
-275.1113605451874
 30
0.0
 40
67.4999999999998
100
AcDbArc
 50
285.7145405436877
 51
110.6229908557029
  0
ARC
  5
396
330
5E0
100
AcDbEntity
  8
DATA
  6
Continuous
 62
     7
100
AcDbCircle
 10
-350.0000111261101
 20
-275.1113605451878
 30
0.0
 40
24.99999999999952
100
AcDbArc
 50
277.8816517169131
 51
137.1406370813383
  0
ARC
  5
397
330
5E0
100
AcDbEntity
  8
DATA
  6
Continuous
 62
     7
100
AcDbCircle
 10
-350.0000111261109
 20
-275.1113605451871
 30
0.0
 40
59.50000000000036
100
AcDbArc
 50
286.0457801822548
 51
113.8922546293377
  0
ARC
  5
398
330
5E0
100
AcDbEntity
  8
DATA
  6
Continuous
 62
     7
100
AcDbCircle
 10
-350.0000111261105
 20
-275.1113605451874
 30
0.0
 40
49.99999999999996
100
AcDbArc
 50
285.9094687483865
 51
118.2607036707709
  0
ARC
  5
399
330
5E0
100
AcDbEntity
  8
DATA
  6
Continuous
 62
     7
100
AcDbCircle
 10
-350.0000111261102
 20
-275.1113605451874
 30
0.0
 40
54.60119343581501
100
AcDbArc
 50
286.0642109643462
 51
116.0619626047152
  0
CIRCLE
  5
39A
330
5E0
100
AcDbEntity
  8
DATA
  6
Continuous
 62
     7
100
AcDbCircle
 10
-298.5000111261108
 20
-223.6113605451874
 30
0.0
 40
3.682999999999992
  0
LINE
  5
39B
330
5E0
100
AcDbEntity
  8
DATA
  6
Continuous
 62
     7
100
AcDbLine
 10
-298.5000111261108
 20
-225.6205394819672
 30
0.0
 11
-298.5000111261108
 21
-221.6021816084076
 31
0.0
  0
LINE
  5
39C
330
5E0
100
AcDbEntity
  8
DATA
  6
Continuous
 62
     7
100
AcDbLine
 10
-300.5091900628905
 20
-223.6113605451874
 30
0.0
 11
-296.4908321893308
 21
-223.6113605451874
 31
0.0
  0
CIRCLE
  5
39D
330
5E0
100
AcDbEntity
  8
DATA
  6
Continuous
 62
     7
100
AcDbCircle
 10
-298.5000111261108
 20
-326.6113605451874
 30
0.0
 40
3.682999999999992
  0
LINE
  5
39E
330
5E0
100
AcDbEntity
  8
DATA
  6
Continuous
 62
     7
100
AcDbLine
 10
-298.5000111261108
 20
-328.6205394819672
 30
0.0
 11
-298.5000111261108
 21
-324.6021816084075
 31
0.0
  0
LINE
  5
39F
330
5E0
100
AcDbEntity
  8
DATA
  6
Continuous
 62
     7
100
AcDbLine
 10
-300.5091900628905
 20
-326.6113605451874
 30
0.0
 11
-296.4908321893308
 21
-326.6113605451874
 31
0.0
  0
ARC
  5
3A0
330
5E0
100
AcDbEntity
  8
DATA
  6
Continuous
 62
     7
100
AcDbCircle
 10
-350.0000111261108
 20
-331.4341050914633
 30
0.0
 40
125.3227445462759
100
AcDbArc
 50
64.00089388699559
 51
100.7885856755982
  0
ARC
  5
3A1
330
5E0
100
AcDbEntity
  8
DATA
  6
Continuous
 62
     7
100
AcDbCircle
 10
-406.3227556723863
 20
-275.1113605451874
 30
0.0
 40
125.3227445462758
100
AcDbArc
 50
334.0008938869956
 51
25.99910611300441
  0
ARC
  5
3A2
330
5E0
100
AcDbEntity
  8
DATA
  6
Continuous
 62
     7
100
AcDbCircle
 10
-350.0000111261108
 20
-218.7886159989117
 30
0.0
 40
125.3227445462756
100
AcDbArc
 50
278.624862341901
 51
295.9991061130045
  0
ARC
  5
3A3
330
5E0
100
AcDbEntity
  8
DATA
  6
Continuous
 62
     7
100
AcDbCircle
 10
-296.3789645773493
 20
-221.4903139964261
 30
0.0
 40
2.999999999999559
100
AcDbArc
 50
25.99910611300109
 51
64.0008938869999
  0
ARC
  5
3A4
330
5E0
100
AcDbEntity
  8
DATA
  6
Continuous
 62
     7
100
AcDbCircle
 10
-296.3789645773495
 20
-328.7324070939482
 30
0.0
 40
2.999999999999992
100
AcDbArc
 50
295.9991061130007
 51
334.000893886994
  0
LINE
  5
3A5
330
5E0
100
AcDbEntity
  8
DATA
  6
Continuous
 62
     7
100
AcDbLine
 10
-286.5006084649206
 20
-138.9893746901977
 30
0.0
 11
-286.5006084649206
 21
-187.4306711013108
 31
0.0
  0
LINE
  5
3A6
330
5E0
100
AcDbEntity
  8
DATA
  6
Continuous
 62
     7
100
AcDbLine
 10
-340.1411909415498
 20
-135.9893746901977
 30
0.0
 11
-289.5006084649206
 21
-135.9893746901977
 31
0.0
  0
ARC
  5
3A7
330
5E0
100
AcDbEntity
  8
DATA
  6
Continuous
 62
     7
100
AcDbCircle
 10
-350.0006084649206
 20
-30.43173028769493
 30
0.0
 40
174.5200210683305
100
AcDbArc
 50
262.473389308488
 51
289.4687850950532
  0
ARC
  5
3A8
330
5E0
100
AcDbEntity
  8
DATA
  6
Continuous
 62
     7
100
AcDbCircle
 10
-350.0006084649207
 20
-166.4987912664349
 30
0.0
 40
12.49999999999987
100
AcDbArc
 50
188.7539342245506
 51
113.6742883019605
  0
ARC
  5
3A9
330
5E0
100
AcDbEntity
  8
DATA
  6
Continuous
 62
     7
100
AcDbCircle
 10
-294.5006084649206
 20
-187.4306711013108
 30
0.0
 40
7.999999999999996
100
AcDbArc
 50
289.4687850950532
 51
0.0
  0
ARC
  5
3AA
330
5E0
100
AcDbEntity
  8
DATA
  6
Continuous
 62
     7
100
AcDbCircle
 10
-289.5006084649206
 20
-138.9893746901977
 30
0.0
 40
3.0
100
AcDbArc
 50
0.0
 51
90.0
  0
CIRCLE
  5
3AB
330
5E0
100
AcDbEntity
  8
DATA
  6
Continuous
 62
     7
100
AcDbCircle
 10
-295.0006084649205
 20
-188.3046321451723
 30
0.0
 40
4.787899999999921
  0
LINE
  5
3AC
330
5E0
100
AcDbEntity
  8
DATA
  6
Continuous
 62
     7
100
AcDbLine
 10
-295.0006084649205
 20
-190.9165647629861
 30
0.0
 11
-295.0006084649205
 21
-185.6926995273585
 31
0.0
  0
LINE
  5
3AD
330
5E0
100
AcDbEntity
  8
DATA
  6
Continuous
 62
     7
100
AcDbLine
 10
-297.6125410827343
 20
-188.3046321451723
 30
0.0
 11
-292.3886758471068
 21
-188.3046321451723
 31
0.0
  0
CIRCLE
  5
3AE
330
5E0
100
AcDbEntity
  8
DATA
  6
Continuous
 62
     7
100
AcDbCircle
 10
-295.0006084649205
 20
-142.3046321451723
 30
0.0
 40
4.787899999999921
  0
LINE
  5
3AF
330
5E0
100
AcDbEntity
  8
DATA
  6
Continuous
 62
     7
100
AcDbLine
 10
-295.0006084649205
 20
-144.9165647629861
 30
0.0
 11
-295.0006084649205
 21
-139.6926995273585
 31
0.0
  0
LINE
  5
3B0
330
5E0
100
AcDbEntity
  8
DATA
  6
Continuous
 62
     7
100
AcDbLine
 10
-297.6125410827343
 20
-142.3046321451723
 30
0.0
 11
-292.3886758471068
 21
-142.3046321451723
 31
0.0
  0
ARC
  5
3B1
330
5E0
100
AcDbEntity
  8
DATA
  6
Continuous
 62
     7
100
AcDbCircle
 10
-350.0006084649206
 20
-249.889857900998
 30
0.0
 40
96.67932212806125
100
AcDbArc
 50
75.01377350324372
 51
92.3015462367473
  0
ARC
  5
3B2
330
5E0
100
AcDbEntity
  8
DATA
  6
Continuous
 62
     7
100
AcDbCircle
 10
-350.0006084649206
 20
-83.10772463187197
 30
0.0
 40
96.67932212806077
100
AcDbArc
 50
260.1575711850657
 51
284.9862264967564
  0
CIRCLE
  5
3B3
330
5E0
100
AcDbEntity
  8
DATA
  6
Continuous
 62
     7
100
AcDbCircle
 10
-294.0006084649206
 20
-480.4999846989824
 30
0.0
 40
3.682999999999992
  0
LINE
  5
3B4
330
5E0
100
AcDbEntity
  8
DATA
  6
Continuous
 62
     7
100
AcDbLine
 10
-294.0006084649206
 20
-482.5091636357623
 30
0.0
 11
-294.0006084649206
 21
-478.4908057622025
 31
0.0
  0
LINE
  5
3B5
330
5E0
100
AcDbEntity
  8
DATA
  6
Continuous
 62
     7
100
AcDbLine
 10
-296.0097874017005
 20
-480.4999846989824
 30
0.0
 11
-291.9914295281407
 21
-480.4999846989824
 31
0.0
  0
ARC
  5
3B6
330
5E0
100
AcDbEntity
  8
DATA
  6
Continuous
 62
     7
100
AcDbCircle
 10
-334.4382512710475
 20
-467.8941154263753
 30
0.0
 40
17.48631515343045
100
AcDbArc
 50
311.3603602783238
 51
339.5628394177336
  0
LINE
  5
3B7
330
5E0
100
AcDbEntity
  8
DATA
  6
Continuous
 62
     7
100
AcDbLine
 10
-323.9424511184079
 20
-341.9024579513452
 30
0.0
 11
-290.358168630048
 21
-334.7657979225687
 31
0.0
  0
LINE
  5
3B8
330
5E0
100
AcDbEntity
  8
DATA
  6
Continuous
 62
     7
100
AcDbLine
 10
-325.5267336067678
 20
-345.2525695909889
 30
0.0
 11
-325.5267336067678
 21
-343.8587756531808
 31
0.0
  0
LINE
  5
3B9
330
5E0
100
AcDbEntity
  8
DATA
  6
Continuous
 62
     7
100
AcDbLine
 10
-285.5267336067679
 20
-350.4329119179299
 30
0.0
 11
-285.5267336067679
 21
-338.67843332624
 31
0.0
  0
LINE
  5
3BA
330
5E0
100
AcDbEntity
  8
DATA
  6
Continuous
 62
     7
100
AcDbLine
 10
-323.9424511184079
 20
-347.2088872928247
 30
0.0
 11
-290.358168630048
 21
-354.3455473216012
 31
0.0
  0
ARC
  5
3BB
330
5E0
100
AcDbEntity
  8
DATA
  6
Continuous
 62
     7
100
AcDbCircle
 10
-323.5267336067678
 20
-343.8587756531808
 30
0.0
 40
1.999999999999984
100
AcDbArc
 50
101.9968993079234
 51
180.0
  0
ARC
  5
3BC
330
5E0
100
AcDbEntity
  8
DATA
  6
Continuous
 62
     7
100
AcDbCircle
 10
-323.5267336067678
 20
-345.2525695909889
 30
0.0
 40
2.0
100
AcDbArc
 50
180.0
 51
258.0031006920766
  0
ARC
  5
3BD
330
5E0
100
AcDbEntity
  8
DATA
  6
Continuous
 62
     7
100
AcDbCircle
 10
-289.5267336067679
 20
-338.6784333262401
 30
0.0
 40
4.0
100
AcDbArc
 50
0.0000000000016485
 51
101.9968993079233
  0
ARC
  5
3BE
330
5E0
100
AcDbEntity
  8
DATA
  6
Continuous
 62
     7
100
AcDbCircle
 10
-289.5267336067679
 20
-350.4329119179297
 30
0.0
 40
4.00000000000008
100
AcDbArc
 50
258.0031006920769
 51
359.9999999999984
  0
LINE
  5
3BF
330
5E0
100
AcDbEntity
  8
DATA
  6
Continuous
 62
     7
100
AcDbLine
 10
-323.6050905754262
 20
-203.3710862439484
 30
0.0
 11
-290.0208080870664
 21
-196.2344262151719
 31
0.0
  0
LINE
  5
3C0
330
5E0
100
AcDbEntity
  8
DATA
  6
Continuous
 62
     7
100
AcDbLine
 10
-325.1893730637862
 20
-206.7211978835922
 30
0.0
 11
-325.1893730637862
 21
-205.3274039457841
 31
0.0
  0
LINE
  5
3C1
330
5E0
100
AcDbEntity
  8
DATA
  6
Continuous
 62
     7
100
AcDbLine
 10
-285.1893730637862
 20
-211.901540210533
 30
0.0
 11
-285.1893730637862
 21
-200.1470616188433
 31
0.0
  0
LINE
  5
3C2
330
5E0
100
AcDbEntity
  8
DATA
  6
Continuous
 62
     7
100
AcDbLine
 10
-323.6050905754262
 20
-208.677515585428
 30
0.0
 11
-290.0208080870664
 21
-215.8141756142045
 31
0.0
  0
ARC
  5
3C3
330
5E0
100
AcDbEntity
  8
DATA
  6
Continuous
 62
     7
100
AcDbCircle
 10
-323.1893730637862
 20
-205.3274039457841
 30
0.0
 40
1.999999999999984
100
AcDbArc
 50
101.9968993079234
 51
180.0
  0
ARC
  5
3C4
330
5E0
100
AcDbEntity
  8
DATA
  6
Continuous
 62
     7
100
AcDbCircle
 10
-323.1893730637862
 20
-206.7211978835922
 30
0.0
 40
2.0
100
AcDbArc
 50
180.0
 51
258.0031006920766
  0
ARC
  5
3C5
330
5E0
100
AcDbEntity
  8
DATA
  6
Continuous
 62
     7
100
AcDbCircle
 10
-289.1893730637862
 20
-200.1470616188434
 30
0.0
 40
4.0
100
AcDbArc
 50
0.0000000000007958
 51
101.9968993079233
  0
ARC
  5
3C6
330
5E0
100
AcDbEntity
  8
DATA
  6
Continuous
 62
     7
100
AcDbCircle
 10
-289.1893730637862
 20
-211.901540210533
 30
0.0
 40
4.000000000000025
100
AcDbArc
 50
258.0031006920767
 51
359.9999999999992
  0
LINE
  5
3C7
330
5E0
100
AcDbEntity
  8
DATA
  6
Continuous
 62
     7
100
AcDbLine
 10
-225.0000086972435
 20
-486.9999999996824
 30
0.0
 11
-195.7900086972434
 21
-486.9999999996824
 31
0.0
  0
LINE
  5
3C8
330
5E0
100
AcDbEntity
  8
DATA
  6
Continuous
 62
     7
100
AcDbLine
 10
-225.0000086972435
 20
-133.9999999996822
 30
0.0
 11
-195.7900086972434
 21
-133.9999999996822
 31
0.0
  0
LINE
  5
3C9
330
5E0
100
AcDbEntity
  8
DATA
  6
Continuous
 62
     7
100
AcDbLine
 10
-46.00000869724353
 20
-490.4749999996824
 30
0.0
 11
-46.00000869724353
 21
-130.5249999996815
 31
0.0
  0
LINE
  5
3CA
330
5E0
100
AcDbEntity
  8
DATA
  6
Continuous
 62
     7
100
AcDbLine
 10
84.2293894315393
 20
-499.99999999968
 30
0.0
 11
215.7705931739737
 21
-499.9999999996822
 31
0.0
  0
LINE
  5
3CB
330
5E0
100
AcDbEntity
  8
DATA
  6
Continuous
 62
     7
100
AcDbLine
 10
74.70439628986129
 20
-490.4749999996824
 30
0.0
 11
74.70439628986129
 21
-130.3988065671348
 31
0.0
  0
LINE
  5
3CC
330
5E0
100
AcDbEntity
  8
DATA
  6
Continuous
 62
     7
100
AcDbLine
 10
225.2955909649421
 20
-490.4749999996824
 30
0.0
 11
225.2955909649421
 21
-134.9988065671348
 31
0.0
  0
ARC
  5
3CD
330
5E0
100
AcDbEntity
  8
DATA
  6
Continuous
 62
     7
100
AcDbCircle
 10
-400.8679116025824
 20
-769.0000000073667
 30
0.0
 40
9.999999999999907
100
AcDbArc
 50
185.1947720062048
 51
270.0000000000007
  0
ARC
  5
3CE
330
5E0
100
AcDbEntity
  8
DATA
  6
Continuous
 62
     7
100
AcDbCircle
 10
-299.1320945402268
 20
-769.0000000073669
 30
0.0
 40
9.999999999999886
100
AcDbArc
 50
270.0
 51
354.8052279940184
  0
ARC
  5
3CF
330
5E0
100
AcDbEntity
  8
DATA
  6
Continuous
 62
     7
100
AcDbCircle
 10
-415.5000121468176
 20
-619.0099659700505
 30
0.0
 40
10.00000000002365
100
AcDbArc
 50
105.8345390604986
 51
185.3022100888669
  0
ARC
  5
3D0
330
5E0
100
AcDbEntity
  8
DATA
  6
Continuous
 62
     7
100
AcDbCircle
 10
-284.4993976788327
 20
-619.0099659700426
 30
0.0
 40
10.00000000000086
100
AcDbArc
 50
354.6977899113603
 51
74.16546093962279
  0
ARC
  5
3D1
330
5E0
100
AcDbEntity
  8
DATA
  6
Continuous
 62
     7
100
AcDbCircle
 10
-350.0000030717208
 20
-852.591829910774
 30
0.0
 40
252.5918299110392
100
AcDbArc
 50
74.32880371681024
 51
105.6711962831827
  0
LINE
  5
3D2
330
5E0
100
AcDbEntity
  8
DATA
  6
Continuous
 62
     7
100
AcDbLine
 10
-425.4578198086049
 20
-619.9340559279797
 30
0.0
 11
-410.8268382456211
 21
-769.9054171038324
 31
0.0
  0
LINE
  5
3D3
330
5E0
100
AcDbEntity
  8
DATA
  6
Continuous
 62
     7
100
AcDbLine
 10
-274.5421863347992
 20
-619.9340559279303
 30
0.0
 11
-289.1731678971845
 21
-769.9054171037936
 31
0.0
  0
CIRCLE
  5
3D4
330
5E0
100
AcDbEntity
  8
DATA
  6
Continuous
 62
     7
100
AcDbCircle
 10
-350.0000030714046
 20
-688.5000000073664
 30
0.0
 40
8.0
  0
LWPOLYLINE
  5
3D5
330
5E0
100
AcDbEntity
  8
DATA
  6
Continuous
 62
     7
100
AcDbPolyline
 90
        6
 70
     1
 43
0.0
 10
-347.8059108788132
 20
-686.0000000073243
 10
-351.0680204846066
 20
-685.3498604303162
 10
-353.2621126771979
 20
-687.8498604303583
 10
-352.194095263996
 20
-691.0000000074088
 10
-348.9319856582025
 20
-691.6501395844168
 10
-346.7378934656112
 20
-689.1501395843745
  0
LINE
  5
3DE
330
5E0
100
AcDbEntity
  8
DATA
  6
Continuous
 62
     7
100
AcDbLine
 10
-400.8685169957823
 20
104.0000000078961
 30
0.0
 11
-299.1326999334268
 21
104.0000000078961
 31
0.0
  0
LINE
  5
3DF
330
5E0
100
AcDbEntity
  8
DATA
  6
Continuous
 62
     7
100
AcDbLine
 10
-377.4174767428223
 20
107.1976874761891
 30
0.0
 11
-373.367914674302
 21
107.1976874761891
 31
0.0
  0
ARC
  5
3E0
330
5E0
100
AcDbEntity
  8
DATA
  6
Continuous
 62
     7
100
AcDbCircle
 10
-377.0002979248143
 20
102.6447603038377
 30
0.0
 40
4.57200000032054
100
AcDbArc
 50
95.23531910583344
 51
162.7571968884858
  0
ARC
  5
3E1
330
5E0
100
AcDbEntity
  8
DATA
  6
Continuous
 62
     7
100
AcDbCircle
 10
-373.78509349231
 20
102.6447603038377
 30
0.0
 40
4.572000000320569
100
AcDbArc
 50
17.24280311155653
 51
84.76468089416655
  0
LINE
  5
3E2
330
5E0
100
AcDbEntity
  8
DATA
  6
Continuous
 62
     7
100
AcDbLine
 10
-326.6174767428223
 20
107.1976874761891
 30
0.0
 11
-322.5679146743019
 21
107.1976874761891
 31
0.0
  0
ARC
  5
3E3
330
5E0
100
AcDbEntity
  8
DATA
  6
Continuous
 62
     7
100
AcDbCircle
 10
-326.2002979248142
 20
102.6447603038377
 30
0.0
 40
4.57200000032054
100
AcDbArc
 50
95.23531910583344
 51
162.7571968884858
  0
ARC
  5
3E4
330
5E0
100
AcDbEntity
  8
DATA
  6
Continuous
 62
     7
100
AcDbCircle
 10
-322.9850934923101
 20
102.6447603038377
 30
0.0
 40
4.572000000320569
100
AcDbArc
 50
17.24280311155653
 51
84.76468089416655
  0
ARC
  5
3E5
330
5E0
100
AcDbEntity
  8
DATA
  6
Continuous
 62
     7
100
AcDbCircle
 10
-400.8685169957823
 20
94.00000000789615
 30
0.0
 40
10.0
100
AcDbArc
 50
89.99999999999934
 51
174.8052279937952
  0
ARC
  5
3E6
330
5E0
100
AcDbEntity
  8
DATA
  6
Continuous
 62
     7
100
AcDbCircle
 10
-299.1326999334268
 20
94.00000000789628
 30
0.0
 40
10.00000000000002
100
AcDbArc
 50
5.194772005981676
 51
90.0
  0
ARC
  5
3E7
330
5E0
100
AcDbEntity
  8
DATA
  6
Continuous
 62
     7
100
AcDbCircle
 10
-415.5012138577522
 20
-55.99003402941896
 30
0.0
 40
10.00000000002372
100
AcDbArc
 50
174.697789911133
 51
254.1654609395014
  0
ARC
  5
3E8
330
5E0
100
AcDbEntity
  8
DATA
  6
Continuous
 62
     7
100
AcDbCircle
 10
-284.5000030720326
 20
-55.99003402942668
 30
0.0
 40
10.00000000000087
100
AcDbArc
 50
285.8345390603772
 51
5.302210088639697
  0
ARC
  5
3E9
330
5E0
100
AcDbEntity
  8
DATA
  6
Continuous
 62
     7
100
AcDbCircle
 10
-350.0006084649208
 20
177.5918299113034
 30
0.0
 40
252.5918299110383
100
AcDbArc
 50
254.3288037168172
 51
285.6711962831899
  0
LINE
  5
3EA
330
5E0
100
AcDbEntity
  8
DATA
  6
Continuous
 62
     7
100
AcDbLine
 10
-425.4584252018049
 20
-55.0659440714897
 30
0.0
 11
-410.827443638821
 21
94.90541710436176
 31
0.0
  0
LINE
  5
3EB
330
5E0
100
AcDbEntity
  8
DATA
  6
Continuous
 62
     7
100
AcDbLine
 10
-274.5427917279992
 20
-55.06594407153905
 30
0.0
 11
-289.1737732903845
 21
94.9054171043231
 31
0.0
  0
CIRCLE
  5
3EC
330
5E0
100
AcDbEntity
  8
DATA
  6
Continuous
 62
     7
100
AcDbCircle
 10
-350.0006084646046
 20
13.50000000789615
 30
0.0
 40
8.0
  0
LWPOLYLINE
  5
3ED
330
5E0
100
AcDbEntity
  8
DATA
  6
Continuous
 62
     7
100
AcDbPolyline
 90
        6
 70
     1
 43
0.0
 10
-347.8065162720132
 20
11.00000000785388
 10
-351.0686258778065
 20
10.3498604308458
 10
-353.2627180703979
 20
12.8498604308881
 10
-352.194700657196
 20
16.00000000793841
 10
-348.9325910514025
 20
16.65013958494649
 10
-346.7384988588111
 20
14.15013958490422
  0
LINE
  5
3F6
330
5E0
100
AcDbEntity
  8
DATA
  6
Continuous
 62
     7
100
AcDbLine
 10
-286.5006084649206
 20
-473.9999846989825
 30
0.0
 11
-286.5006084649206
 21
-486.9999846989824
 31
0.0
  0
ARC
  5
3F7
330
5E0
100
AcDbEntity
  8
DATA
  6
Continuous
 62
     7
100
AcDbCircle
 10
-324.9153178901107
 20
-478.0820642911352
 30
0.0
 40
3.571130094140053
100
AcDbArc
 50
267.15449317851
 51
304.6790360090196
  0
LINE
  5
3F8
330
5E0
100
AcDbEntity
  8
DATA
  6
Continuous
 62
     7
100
AcDbLine
 10
-325.0925996797644
 20
-481.6487912664348
 30
0.0
 11
-383.9025996797644
 21
-481.6487912664348
 31
0.0
  0
LINE
  5
3F9
330
5E0
100
AcDbEntity
  8
DATA
  6
Continuous
 62
     7
100
AcDbLine
 10
-42.8023211400315
 20
-196.1569851345512
 30
0.0
 11
-42.8023211400315
 21
-192.1074230660309
 31
0.0
  0
ARC
  5
3FA
330
5E0
100
AcDbEntity
  8
DATA
  6
Continuous
 62
     7
100
AcDbCircle
 10
-47.35524831238321
 20
-195.7398063165431
 30
0.0
 40
4.572000000320784
100
AcDbArc
 50
287.2428031115146
 51
354.7646808941676
  0
ARC
  5
3FB
330
5E0
100
AcDbEntity
  8
DATA
  6
Continuous
 62
     7
100
AcDbCircle
 10
-47.35524831238321
 20
-192.5246018840389
 30
0.0
 40
4.57200000032076
100
AcDbArc
 50
5.235319105832485
 51
72.75719688843962
  0
LINE
  5
3FC
330
5E0
100
AcDbEntity
  8
DATA
  6
Continuous
 62
     7
100
AcDbLine
 10
625.0
 20
-50.0
 30
0.0
 11
825.0
 21
-50.0
 31
0.0
  0
ARC
  5
3FD
330
5E0
100
AcDbEntity
  8
DATA
  6
Continuous
 62
     7
100
AcDbCircle
 10
-251.0600488029797
 20
-220.860095946738
 30
0.0
 40
123.0386244204864
100
AcDbArc
 50
135.093001936296
 51
216.4724985501499
  0
ARC
  5
3FE
330
5E0
100
AcDbEntity
  8
DATA
  6
Continuous
 62
     7
100
AcDbCircle
 10
-471.6897177881234
 20
-368.9408054001359
 30
0.0
 40
142.9144667634818
100
AcDbArc
 50
304.2366903506748
 51
31.62676221562929
  0
ARC
  5
3FF
330
5E0
100
AcDbEntity
  8
DATA
  6
Continuous
 62
     7
100
AcDbCircle
 10
100.0378046660311
 20
-130.8321721867436
 30
0.0
 40
9.833604430257864
100
AcDbArc
 50
90.97790106377606
 51
180.9779010639661
  0
ARC
  5
400
330
5E0
100
AcDbEntity
  8
DATA
  6
Continuous
 62
     7
100
AcDbCircle
 10
200.3709879145405
 20
-130.8321721867436
 30
0.0
 40
9.833604430257853
100
AcDbArc
 50
359.0220989360338
 51
89.02209893600263
  0
ARC
  5
401
330
5E0
100
AcDbEntity
  8
DATA
  6
Continuous
 62
     7
100
AcDbCircle
 10
100.0378046660311
 20
-490.1678278126162
 30
0.0
 40
9.833604430257823
100
AcDbArc
 50
180.9779010645581
 51
269.0220989375522
  0
ARC
  5
402
330
5E0
100
AcDbEntity
  8
DATA
  6
Continuous
 62
     7
100
AcDbCircle
 10
200.3709879145405
 20
-490.1678278126162
 30
0.0
 40
9.833604430257929
100
AcDbArc
 50
270.9779010622265
 51
359.0220989354418
  0
LINE
  5
403
330
5E0
100
AcDbEntity
  8
DATA
  6
Continuous
 62
     7
100
AcDbLine
 10
90.20563247897134
 20
-130.9999999996838
 30
0.0
 11
90.20563247897134
 21
-490.335655625658
 31
0.0
  0
LINE
  5
404
330
5E0
100
AcDbEntity
  8
DATA
  6
Continuous
 62
     7
100
AcDbLine
 10
210.2031601016002
 20
-130.9999999996838
 30
0.0
 11
210.2031601016002
 21
-490.335655625658
 31
0.0
  0
LINE
  5
405
330
5E0
100
AcDbEntity
  8
DATA
  6
Continuous
 62
     7
100
AcDbLine
 10
215.7705931739241
 20
-120.9999999996818
 30
0.0
 11
84.2143962898897
 21
-120.9999999996818
 31
0.0
  0
ARC
  5
406
330
5E0
100
AcDbEntity
  8
DATA
  6
Continuous
 62
     7
100
AcDbCircle
 10
615.6729832644363
 20
602.8500000000089
 30
0.0
 40
76.82070664529921
100
AcDbArc
 50
90.1073853577
 51
180.0
  0
ARC
  5
407
330
5E0
100
AcDbEntity
  8
DATA
  6
Continuous
 62
     7
100
AcDbCircle
 10
615.6729832644363
 20
158.3500000000097
 30
0.0
 40
76.82069249750044
100
AcDbArc
 50
180.0
 51
270.0
  0
ARC
  5
408
330
5E0
100
AcDbEntity
  8
DATA
  6
Continuous
 62
     7
100
AcDbCircle
 10
837.9229832644398
 20
158.3500000000097
 30
0.0
 40
76.82069249750156
100
AcDbArc
 50
270.0
 51
0.0
  0
ARC
  5
409
330
5E0
100
AcDbEntity
  8
DATA
  6
Continuous
 62
     7
100
AcDbCircle
 10
837.9229832644398
 20
602.8500000000089
 30
0.0
 40
76.82070664530193
100
AcDbArc
 50
0.0
 51
89.89261524240072
  0
LINE
  5
40A
330
5E0
100
AcDbEntity
  8
DATA
  6
Continuous
 62
     7
100
AcDbLine
 10
538.852276619134
 20
602.8500000000089
 30
0.0
 11
551.7952956822898
 21
377.71175438698
 31
0.0
  0
LINE
  5
40B
330
5E0
100
AcDbEntity
  8
DATA
  6
Continuous
 62
     7
100
AcDbLine
 10
538.8522907669357
 20
158.3500000000097
 30
0.0
 11
551.7952956822898
 21
377.71175438698
 31
0.0
  0
LINE
  5
40C
330
5E0
100
AcDbEntity
  8
DATA
  6
Continuous
 62
     7
100
AcDbLine
 10
914.7436899097415
 20
602.8500000000089
 30
0.0
 11
901.8006708465858
 21
377.71175438698
 31
0.0
  0
LINE
  5
40D
330
5E0
100
AcDbEntity
  8
DATA
  6
Continuous
 62
     7
100
AcDbLine
 10
914.74367576194
 20
158.3500000000097
 30
0.0
 11
901.8006708465858
 21
377.71175438698
 31
0.0
  0
LINE
  5
40E
330
5E0
100
AcDbEntity
  8
DATA
  6
Continuous
 62
     7
100
AcDbLine
 10
536.2979832644351
 20
25.0
 30
0.0
 11
917.2979832644418
 21
25.0
 31
0.0
  0
LINE
  5
40F
330
5E0
100
AcDbEntity
  8
DATA
  6
Continuous
 62
     7
100
AcDbLine
 10
837.9229832644398
 20
81.52929335470755
 30
0.0
 11
615.6729832644363
 21
81.52929335470755
 31
0.0
  0
LINE
  5
410
330
5E0
100
AcDbEntity
  8
DATA
  6
Continuous
 62
     7
100
AcDbLine
 10
673.343683264435
 20
245.4497984326829
 30
0.0
 11
715.3679832644364
 21
245.4497984326829
 31
0.0
  0
LINE
  5
411
330
5E0
100
AcDbEntity
  8
DATA
  6
Continuous
 62
     7
100
AcDbLine
 10
738.2279832644347
 20
245.4497984326829
 30
0.0
 11
780.2522832644365
 21
245.4497984326829
 31
0.0
  0
LINE
  5
412
330
5E0
100
AcDbEntity
  8
DATA
  6
Continuous
 62
     7
100
AcDbLine
 10
780.2522832644365
 20
288.7059984326831
 30
0.0
 11
738.2279832644347
 21
288.7059984326831
 31
0.0
  0
LINE
  5
413
330
5E0
100
AcDbEntity
  8
DATA
  6
Continuous
 62
     7
100
AcDbLine
 10
715.3679832644364
 20
288.7059984326831
 30
0.0
 11
673.343683264435
 21
288.7059984326831
 31
0.0
  0
LINE
  5
414
330
5E0
100
AcDbEntity
  8
DATA
  6
Continuous
 62
     7
100
AcDbLine
 10
482.3229832644336
 20
682.225000000009
 30
0.0
 11
482.3229832644336
 21
78.97500000000684
 31
0.0
  0
LINE
  5
415
330
5E0
100
AcDbEntity
  8
DATA
  6
Continuous
 62
     7
100
AcDbLine
 10
637.8979832644347
 20
608.8568884942085
 30
0.0
 11
637.8979832644347
 21
602.2670949682084
 31
0.0
  0
LINE
  5
416
330
5E0
100
AcDbEntity
  8
DATA
  6
Continuous
 62
     7
100
AcDbLine
 10
643.6129832644373
 20
515.7722520578091
 30
0.0
 11
643.6129832644373
 21
509.3525102491084
 31
0.0
  0
LINE
  5
417
330
5E0
100
AcDbEntity
  8
DATA
  6
Continuous
 62
     7
100
AcDbLine
 10
917.2979832644418
 20
736.2000000000079
 30
0.0
 11
536.2979832644351
 21
736.2000000000079
 31
0.0
  0
LINE
  5
418
330
5E0
100
AcDbEntity
  8
DATA
  6
Continuous
 62
     7
100
AcDbLine
 10
652.8719680738355
 20
314.3847136232838
 30
0.0
 11
652.8719680738355
 21
219.8726832420825
 31
0.0
  0
LINE
  5
419
330
5E0
100
AcDbEntity
  8
DATA
  6
Continuous
 62
     7
100
AcDbLine
 10
657.5829832644342
 20
509.3525102491084
 30
0.0
 11
657.5829832644342
 21
515.7722520578091
 31
0.0
  0
LINE
  5
41A
330
5E0
100
AcDbEntity
  8
DATA
  6
Continuous
 62
     7
100
AcDbLine
 10
663.2979832644367
 20
602.2670949682084
 30
0.0
 11
663.2979832644367
 21
608.8568884942085
 31
0.0
  0
LINE
  5
41B
330
5E0
100
AcDbEntity
  8
DATA
  6
Continuous
 62
     7
100
AcDbLine
 10
673.343683264435
 20
288.7059984326831
 30
0.0
 11
673.343683264435
 21
245.4497984326829
 31
0.0
  0
LINE
  5
41C
330
5E0
100
AcDbEntity
  8
DATA
  6
Continuous
 62
     7
100
AcDbLine
 10
715.3679832644364
 20
245.4497984326829
 30
0.0
 11
715.3679832644364
 21
288.7059984326831
 31
0.0
  0
LINE
  5
41D
330
5E0
100
AcDbEntity
  8
DATA
  6
Continuous
 62
     7
100
AcDbLine
 10
738.2279832644347
 20
288.7059984326831
 30
0.0
 11
738.2279832644347
 21
245.4497984326829
 31
0.0
  0
LINE
  5
41E
330
5E0
100
AcDbEntity
  8
DATA
  6
Continuous
 62
     7
100
AcDbLine
 10
780.2522832644365
 20
245.4497984326829
 30
0.0
 11
780.2522832644365
 21
288.7059984326831
 31
0.0
  0
LINE
  5
41F
330
5E0
100
AcDbEntity
  8
DATA
  6
Continuous
 62
     7
100
AcDbLine
 10
790.2979832644371
 20
608.8568884942085
 30
0.0
 11
790.2979832644371
 21
602.2670949682084
 31
0.0
  0
LINE
  5
420
330
5E0
100
AcDbEntity
  8
DATA
  6
Continuous
 62
     7
100
AcDbLine
 10
796.0129832644371
 20
515.7722520578091
 30
0.0
 11
796.0129832644371
 21
509.3525102491084
 31
0.0
  0
LINE
  5
421
330
5E0
100
AcDbEntity
  8
DATA
  6
Continuous
 62
     7
100
AcDbLine
 10
800.723998455038
 20
219.8726832420825
 30
0.0
 11
800.723998455038
 21
314.3847136232838
 31
0.0
  0
LINE
  5
422
330
5E0
100
AcDbEntity
  8
DATA
  6
Continuous
 62
     7
100
AcDbLine
 10
809.9829832644342
 20
509.3525102491084
 30
0.0
 11
809.9829832644342
 21
515.7722520578091
 31
0.0
  0
LINE
  5
423
330
5E0
100
AcDbEntity
  8
DATA
  6
Continuous
 62
     7
100
AcDbLine
 10
815.6979832644365
 20
602.2670949682084
 30
0.0
 11
815.6979832644365
 21
608.8568884942085
 31
0.0
  0
LINE
  5
424
330
5E0
100
AcDbEntity
  8
DATA
  6
Continuous
 62
     7
100
AcDbLine
 10
971.2729832644376
 20
78.97500000000684
 30
0.0
 11
971.2729832644376
 21
682.225000000009
 31
0.0
  0
CIRCLE
  5
425
330
5E0
100
AcDbEntity
  8
DATA
  6
Continuous
 62
     7
100
AcDbCircle
 10
694.3558332644376
 20
267.1286984326823
 30
0.0
 40
13.96999999999934
  0
ARC
  5
426
330
5E0
100
AcDbEntity
  8
DATA
  6
Continuous
 62
     7
100
AcDbCircle
 10
802.9979832644368
 20
559.670000000008
 30
0.0
 40
44.45000000000064
100
AcDbArc
 50
106.6015495990014
 51
260.9589038514013
  0
ARC
  5
427
330
5E0
100
AcDbEntity
  8
DATA
  6
Continuous
 62
     7
100
AcDbCircle
 10
802.9979832644368
 20
559.670000000008
 30
0.0
 40
44.44999999999919
100
AcDbArc
 50
279.0410961485986
 51
73.39845040099868
  0
ARC
  5
428
330
5E0
100
AcDbEntity
  8
DATA
  6
Continuous
 62
     7
100
AcDbCircle
 10
802.9979832644368
 20
559.670000000008
 30
0.0
 40
50.80000000000018
100
AcDbArc
 50
262.0967922665004
 51
277.9032077334997
  0
ARC
  5
429
330
5E0
100
AcDbEntity
  8
DATA
  6
Continuous
 62
     7
100
AcDbCircle
 10
802.9979832644368
 20
559.670000000008
 30
0.0
 40
50.80000000000072
100
AcDbArc
 50
75.52248781409962
 51
104.4775121859004
  0
CIRCLE
  5
42A
330
5E0
100
AcDbEntity
  8
DATA
  6
Continuous
 62
     7
100
AcDbCircle
 10
802.9979832644368
 20
559.670000000008
 30
0.0
 40
30.48000000000002
  0
CIRCLE
  5
42B
330
5E0
100
AcDbEntity
  8
DATA
  6
Continuous
 62
     7
100
AcDbCircle
 10
802.9979832644368
 20
559.670000000008
 30
0.0
 40
16.51000000000067
  0
ARC
  5
42C
330
5E0
100
AcDbEntity
  8
DATA
  6
Continuous
 62
     7
100
AcDbCircle
 10
650.5979832644345
 20
559.670000000008
 30
0.0
 40
44.45000000000064
100
AcDbArc
 50
106.6015495990014
 51
260.9589038514013
  0
ARC
  5
42D
330
5E0
100
AcDbEntity
  8
DATA
  6
Continuous
 62
     7
100
AcDbCircle
 10
650.5979832644345
 20
559.670000000008
 30
0.0
 40
44.44999999999919
100
AcDbArc
 50
279.0410961485986
 51
73.39845040099868
  0
ARC
  5
42E
330
5E0
100
AcDbEntity
  8
DATA
  6
Continuous
 62
     7
100
AcDbCircle
 10
650.5979832644345
 20
559.670000000008
 30
0.0
 40
50.80000000000018
100
AcDbArc
 50
262.0967922665004
 51
277.9032077334997
  0
ARC
  5
42F
330
5E0
100
AcDbEntity
  8
DATA
  6
Continuous
 62
     7
100
AcDbCircle
 10
650.5979832644345
 20
559.670000000008
 30
0.0
 40
50.80000000000072
100
AcDbArc
 50
75.52248781409962
 51
104.4775121859004
  0
CIRCLE
  5
430
330
5E0
100
AcDbEntity
  8
DATA
  6
Continuous
 62
     7
100
AcDbCircle
 10
650.5979832644345
 20
559.670000000008
 30
0.0
 40
30.48000000000002
  0
CIRCLE
  5
431
330
5E0
100
AcDbEntity
  8
DATA
  6
Continuous
 62
     7
100
AcDbCircle
 10
650.5979832644345
 20
559.670000000008
 30
0.0
 40
16.51000000000067
  0
CIRCLE
  5
432
330
5E0
100
AcDbEntity
  8
DATA
  6
Continuous
 62
     7
100
AcDbCircle
 10
533.1229832644339
 20
685.4000000000087
 30
0.0
 40
18.41499999999996
  0
ARC
  5
433
330
5E0
100
AcDbEntity
  8
DATA
  6
Continuous
 62
     7
100
AcDbCircle
 10
802.9979832644368
 20
559.670000000008
 30
0.0
 40
60.09616497380102
100
AcDbArc
 50
311.6710695931018
 51
123.7809344450993
  0
ARC
  5
434
330
5E0
100
AcDbEntity
  8
DATA
  6
Continuous
 62
     7
100
AcDbCircle
 10
755.4999832644353
 20
619.3981000000089
 30
0.0
 40
17.14500000000139
100
AcDbArc
 50
325.2280175225006
 51
291.7580260589016
  0
ARC
  5
435
330
5E0
100
AcDbEntity
  8
DATA
  6
Continuous
 62
     7
100
AcDbCircle
 10
802.9979832644368
 20
559.670000000008
 30
0.0
 40
60.09616497380084
100
AcDbArc
 50
133.2051091362996
 51
304.7956780787004
  0
ARC
  5
436
330
5E0
100
AcDbEntity
  8
DATA
  6
Continuous
 62
     7
100
AcDbCircle
 10
850.4959832644384
 20
499.3831000000088
 30
0.0
 40
17.14500000000089
100
AcDbArc
 50
140.3663339330027
 51
116.1004137386996
  0
ARC
  5
437
330
5E0
100
AcDbEntity
  8
DATA
  6
Continuous
 62
     7
100
AcDbCircle
 10
650.5979832644345
 20
559.670000000008
 30
0.0
 40
60.09616497380005
100
AcDbArc
 50
133.2051091362988
 51
304.7956780787006
  0
ARC
  5
438
330
5E0
100
AcDbEntity
  8
DATA
  6
Continuous
 62
     7
100
AcDbCircle
 10
698.0959832644384
 20
499.3831000000088
 30
0.0
 40
17.14500000000089
100
AcDbArc
 50
140.3663339330027
 51
116.1004137386996
  0
ARC
  5
439
330
5E0
100
AcDbEntity
  8
DATA
  6
Continuous
 62
     7
100
AcDbCircle
 10
650.5979832644345
 20
559.670000000008
 30
0.0
 40
60.09616497380102
100
AcDbArc
 50
311.6710695931018
 51
123.7809344450993
  0
ARC
  5
43A
330
5E0
100
AcDbEntity
  8
DATA
  6
Continuous
 62
     7
100
AcDbCircle
 10
603.0999832644329
 20
619.3981000000089
 30
0.0
 40
17.14500000000139
100
AcDbArc
 50
325.2280175225006
 51
291.7580260589049
  0
ARC
  5
43B
330
5E0
100
AcDbEntity
  8
DATA
  6
Continuous
 62
     7
100
AcDbCircle
 10
536.2979832644351
 20
682.225000000009
 30
0.0
 40
53.974999999999
100
AcDbArc
 50
90.0
 51
180.0
  0
ARC
  5
43C
330
5E0
100
AcDbEntity
  8
DATA
  6
Continuous
 62
     7
100
AcDbCircle
 10
536.2979832644351
 20
78.97500000000684
 30
0.0
 40
53.9750000000015
100
AcDbArc
 50
180.0
 51
270.0
  0
ARC
  5
43D
330
5E0
100
AcDbEntity
  8
DATA
  6
Continuous
 62
     7
100
AcDbCircle
 10
917.2979832644418
 20
78.97500000000684
 30
0.0
 40
53.97500000000684
100
AcDbArc
 50
270.0
 51
0.0
  0
ARC
  5
43E
330
5E0
100
AcDbEntity
  8
DATA
  6
Continuous
 62
     7
100
AcDbCircle
 10
917.2979832644418
 20
682.225000000009
 30
0.0
 40
53.97500000000037
100
AcDbArc
 50
0.0
 51
90.0
  0
LWPOLYLINE
  5
43F
330
5E0
100
AcDbEntity
  8
DATA
  6
Continuous
 62
     7
100
AcDbPolyline
 90
      143
 70
   128
 43
0.0
 10
837.2919574754371
 20
510.3194946626083
 10
837.3016045253875
 20
510.3262341647925
 10
837.3112773259091
 20
510.3329948094183
 10
837.3209758770023
 20
510.3397765964856
 10
837.3307001786661
 20
510.3465795259944
 10
837.3404502309011
 20
510.3534035979449
 10
837.3502260337076
 20
510.360248812337
 10
837.3600275870851
 20
510.3671151691708
 10
837.3698548910338
 20
510.3740026684461
 10
837.3797079455536
 20
510.3809113101631
 10
837.3895867506446
 20
510.3878410943216
 10
837.399491306307
 20
510.3947920209217
 10
837.4094216125405
 20
510.4017640899633
 10
837.4193776693449
 20
510.4087573014468
 10
837.4293594767205
 20
510.4157716553717
 10
837.4393670346675
 20
510.422807151738
 10
837.4494003431857
 20
510.4298637905463
 10
837.4594594022749
 20
510.436941571796
 10
837.4695442119353
 20
510.4440404954872
 10
837.479654772167
 20
510.4511605616202
 10
837.48979108297
 20
510.4583017701946
 10
837.4999531443439
 20
510.4654641212108
 10
837.5101409562892
 20
510.4726476146685
 10
837.5203545188055
 20
510.4798522505677
 10
837.530593831893
 20
510.4870780289088
 10
837.5408588955517
 20
510.4943249496912
 10
837.5511497097816
 20
510.5015930129154
 10
837.5614662745828
 20
510.5088822185811
 10
837.5718085899549
 20
510.5161925666884
 10
837.5821766558981
 20
510.5235240572372
 10
837.592570472413
 20
510.5308766902276
 10
837.6029900394987
 20
510.5382504656597
 10
837.6134353571559
 20
510.5456453835336
 10
837.6239064253839
 20
510.5530614438489
 10
837.6344032441833
 20
510.5604986466057
 10
837.6449258135536
 20
510.5679569918041
 10
837.6554741334954
 20
510.5754364794443
 10
837.6660482040083
 20
510.5829371095261
 10
837.6766480250925
 20
510.5904588820494
 10
837.6872735967474
 20
510.5980017970142
 10
837.6979249189739
 20
510.6055658544208
 10
837.7086019917715
 20
510.6131510542688
 10
837.7193048151401
 20
510.6207573965585
 10
837.7300333890804
 20
510.6283848812897
 10
837.7407877135913
 20
510.6360335084626
 10
837.7515677886735
 20
510.6437032780771
 10
837.762373614327
 20
510.6513941901332
 10
837.7732051905516
 20
510.6591062446309
 10
837.7840625173472
 20
510.6668394415702
 10
837.7949455947142
 20
510.6745937809511
 10
837.8058544226526
 20
510.6823692627735
 10
837.8167890011619
 20
510.6901658870376
 10
837.8277493302423
 20
510.6979836537433
 10
837.838735409894
 20
510.7058225628906
 10
837.849747240117
 20
510.7136826144794
 10
837.8607848209108
 20
510.72156380851
 10
837.8718481522762
 20
510.7294661449821
 10
837.8829372342124
 20
510.7373896238956
 10
837.89405206672
 20
510.745334245251
 10
837.9051926497989
 20
510.7533000090478
 10
837.9163589834488
 20
510.7612869152863
 10
837.9275510676702
 20
510.7692949639663
 10
837.9387689024623
 20
510.777324155088
 10
837.9500124878259
 20
510.7853744886513
 10
837.9612818237603
 20
510.7934459646561
 10
837.9612818237603
 20
510.7934459646561
 10
837.9612818237603
 20
510.7934459646561
 42
0.0041262420454182
 10
838.6790257808133
 20
511.3166202585388
 10
838.8008951271933
 20
511.4070020762253
 10
838.8428616799547
 20
511.4381256805874
 42
0.0054018123285864
 10
839.7089957809406
 20
512.0950973333386
 10
839.7219422679103
 20
512.1051440970237
 10
839.7348421418312
 20
512.1151577697868
 10
839.7476954027041
 20
512.1251383516282
 10
839.7605020505285
 20
512.135085842548
 10
839.7732620853044
 20
512.1450002425461
 10
839.7859755070324
 20
512.1548815516224
 10
839.7986423157119
 20
512.164729769777
 10
839.8112625113434
 20
512.1745448970099
 10
839.8238360939259
 20
512.184326933321
 10
839.8363630634605
 20
512.1940758787105
 10
839.8488434199464
 20
512.2037917331783
 10
839.8612771633844
 20
512.2134744967244
 10
839.8736642937738
 20
512.2231241693488
 10
839.8860048111149
 20
512.2327407510514
 10
839.8982987154077
 20
512.2423242418323
 10
839.910546006652
 20
512.2518746416915
 10
839.9227466848483
 20
512.261391950629
 10
839.934900749996
 20
512.2708761686448
 10
839.9470082020954
 20
512.2803272957388
 10
839.9590690411466
 20
512.2897453319111
 10
839.9710832671495
 20
512.2991302771616
 10
839.9830508801038
 20
512.3084821314907
 10
839.9949718800097
 20
512.3178008948979
 10
840.0068462668677
 20
512.3270865673833
 10
840.0186740406772
 20
512.3363391489472
 10
840.0304552014382
 20
512.3455586395892
 10
840.042189749151
 20
512.3547450393096
 10
840.0538776838153
 20
512.3638983481082
 10
840.0655190054315
 20
512.3730185659851
 10
840.0771137139994
 20
512.3821056929402
 10
840.0886618095187
 20
512.3911597289738
 10
840.1001632919896
 20
512.4001806740855
 10
840.1116181614126
 20
512.4091685282755
 10
840.123026417787
 20
512.4181232915439
 10
840.1343880611131
 20
512.4270449638905
 10
840.1457030913906
 20
512.4359335453154
 10
840.1569715086202
 20
512.4447890358185
 10
840.1681933128012
 20
512.4536114354
 10
840.1793685039338
 20
512.4624007440599
 10
840.1904970820183
 20
512.4711569617979
 10
840.2015790470542
 20
512.4798800886143
 10
840.2126143990418
 20
512.4885701245089
 10
840.2236031379814
 20
512.4972270694817
 10
840.2345452638723
 20
512.5058509235329
 10
840.2454407767152
 20
512.5144416866625
 10
840.2562896765095
 20
512.5229993588702
 10
840.2670919632557
 20
512.5315239401563
 10
840.2778476369533
 20
512.5400154305208
 10
840.2885566976028
 20
512.5484738299632
 10
840.2992191452039
 20
512.5568991384843
 10
840.3098349797566
 20
512.5652913560833
 10
840.320404201261
 20
512.5736504827609
 10
840.3309268097169
 20
512.5819765185168
 10
840.3414028051246
 20
512.5902694633508
 10
840.3518321874837
 20
512.5985293172631
 10
840.3622149567949
 20
512.6067560802537
 10
840.3725511130575
 20
512.6149497523226
 10
840.3828406562718
 20
512.6231103334698
 10
840.3930835864377
 20
512.6312378236953
 10
840.4032799035556
 20
512.6393322229991
 10
840.4134296076248
 20
512.6473935313811
 10
840.4235326986459
 20
512.6554217488415
 10
840.4335891766185
 20
512.6634168753801
 10
840.4335891766185
 20
512.6634168753801
 10
840.4335891766185
 20
512.6634168753801
 42
0.0035313977585183
 10
841.0720737844293
 20
513.1785556068232
 10
841.2304848116729
 20
513.3082216760388
 10
841.2352429800627
 20
513.3121164364129
 42
0.0062997984339119
 10
842.1675298485546
 20
514.0950542329139
 10
842.3031533733375
 20
514.2118965962001
 42
0.0034429198288427
 10
842.9504344070483
 20
514.7773536972866
 10
842.9531150126399
 20
514.779728325308
  0
LWPOLYLINE
  5
4D0
330
5E0
100
AcDbEntity
  8
DATA
  6
Continuous
 62
     7
100
AcDbPolyline
 90
       82
 70
   128
 43
0.0
 10
769.583369562937
 20
609.6201014585087
 10
769.5613115428375
 20
609.6052418517095
 42
0.0062071734440758
 10
768.3252553563272
 20
608.750062582628
 10
768.2291146780721
 20
608.6817663926884
 42
0.005831078990598
 10
767.2046556168014
 20
607.9358862723083
 10
767.2046556168014
 20
607.9358862723083
 42
0.0042988931640316
 10
766.1954857886735
 20
607.1693815553653
 10
766.1804500296146
 20
607.1577561004724
 10
766.1804500296146
 20
607.1577561004724
 42
0.0061226179891154
 10
765.1577297728821
 20
606.3467997664795
 10
765.1203406460036
 20
606.3163993656902
 10
765.0173558947487
 20
606.232664387778
 42
0.0050685423693654
 10
764.1431140143936
 20
605.5069907959684
 10
764.1347125322567
 20
605.4998719873709
 42
0.0040110176322067
 10
763.2904627043193
 20
604.7728008102049
 10
763.2566225489251
 20
604.7431814358888
 42
0.0049074611004949
 10
762.4925806784225
 20
604.061077104383
 10
762.4811701444834
 20
604.0506826584573
 10
762.4698029949152
 20
604.0403246420473
 10
762.4584792297181
 20
604.0300030551533
 10
762.4471988488915
 20
604.0197178977745
 10
762.4359618524358
 20
604.0094691699115
 10
762.4247682403512
 20
603.999256871564
 10
762.4136180126371
 20
603.9890810027324
 10
762.4025111692942
 20
603.9789415634165
 10
762.3914477103221
 20
603.9688385536161
 10
762.3804276357208
 20
603.9587719733313
 10
762.3694509454902
 20
603.9487418225624
 10
762.3585176396306
 20
603.938748101309
 10
762.3476277181421
 20
603.9287908095712
 10
762.3367811810242
 20
603.9188699473491
 10
762.3259780282769
 20
603.9089855146428
 10
762.3152182599008
 20
603.899137511452
 10
762.3045018758955
 20
603.8893259377771
 10
762.2938288762609
 20
603.8795507936177
 10
762.2831992609974
 20
603.8698120789739
 10
762.2726130301047
 20
603.8601097938457
 10
762.2620701835828
 20
603.8504439382335
 10
762.2515707214319
 20
603.8408145121366
 10
762.2411146436515
 20
603.8312215155555
 10
762.2307019502422
 20
603.82166494849
 10
762.2203326412038
 20
603.8121448109402
 10
762.210006716536
 20
603.802661102906
 10
762.1997241762393
 20
603.7932138243876
 10
762.1894850203135
 20
603.7838029753848
 10
762.1792892487585
 20
603.7744285558975
 10
762.1691368615742
 20
603.7650905659261
 10
762.159027858761
 20
603.7557890054703
 10
762.1489622403185
 20
603.74652387453
 10
762.1389400062469
 20
603.7372951731056
 10
762.1289611565463
 20
603.7281029011967
 10
762.1190256912163
 20
603.7189470588036
 10
762.1091336102572
 20
603.709827645926
 10
762.0992849136691
 20
603.700744662564
 10
762.0894796014519
 20
603.6916981087179
 10
762.0797176736052
 20
603.6826879843874
 10
762.0699991301296
 20
603.6737142895725
 10
762.0603239710248
 20
603.6647770242733
 10
762.050692196291
 20
603.6558761884897
 10
762.0411038059278
 20
603.6470117822219
 10
762.0315587999356
 20
603.6381838054695
 10
762.0220571783145
 20
603.629392258233
 10
762.0125989410638
 20
603.620637140512
 10
762.0031840881842
 20
603.6119184523068
 10
761.9938126196753
 20
603.6032361936171
 10
761.9844845355376
 20
603.5945903644432
 10
761.9751998357704
 20
603.5859809647848
 10
761.9659585203743
 20
603.5774079946423
 10
761.9567605893487
 20
603.5688714540152
 10
761.9476060426942
 20
603.560371342904
 10
761.9384948804107
 20
603.5519076613081
 10
761.9294271024978
 20
603.5434804092282
 10
761.9204027089558
 20
603.5350895866639
 10
761.911421699785
 20
603.5267351936153
 10
761.9024840749846
 20
603.5184172300823
 10
761.8935898345553
 20
603.5101356960649
 10
761.8847389784965
 20
603.5018905915632
 10
761.8759315068091
 20
603.4936819165771
 10
761.8671674194924
 20
603.4855096711067
 10
761.8584467165464
 20
603.4773738551521
 10
761.8584467165464
 20
603.4773738551521
 10
761.8554211758353
 20
603.4745503384081
  0
LWPOLYLINE
  5
524
330
5E0
100
AcDbEntity
  8
DATA
  6
Continuous
 62
     7
100
AcDbPolyline
 90
       12
 70
   128
 43
0.0
 10
684.8919574754347
 20
510.3194946626083
 10
685.2013871382489
 20
510.5381797673626
 42
0.0043763627566312
 10
686.1326130714604
 20
511.2086089123916
 42
0.0052498493534849
 10
687.0507445036215
 20
511.8968293476246
 10
687.2157705483375
 20
512.0232587693538
 42
0.0055378377115625
 10
688.1102642181462
 20
512.7244034749562
 10
688.1612914036748
 20
512.7653213189756
 42
0.0035437003444565
 10
688.9414660578938
 20
513.4000672417496
 42
0.004496482494266
 10
689.7113216028625
 20
514.047266068286
 10
689.7564429221955
 20
514.0858963032517
 42
0.0042165604077633
 10
690.5504343965844
 20
514.7773536899003
 10
690.5531150126352
 20
514.779728325308
  0
LWPOLYLINE
  5
532
330
5E0
100
AcDbEntity
  8
DATA
  6
Continuous
 62
     7
100
AcDbPolyline
 90
       17
 70
   128
 43
0.0
 10
617.1833695629344
 20
609.6201014585087
 10
617.1541973639941
 20
609.600449503441
 42
0.0042842391131906
 10
616.3248851670424
 20
609.0313895527899
 42
0.0037789127395903
 10
615.5048505041447
 20
608.4490257608316
 10
615.4317562983806
 20
608.3962809241498
 42
0.0057092633935244
 10
614.4779843551568
 20
607.6913386659712
 10
614.2804843733754
 20
607.5418475694265
 42
0.0060279276411565
 10
613.2874324052852
 20
606.7711843379501
 10
613.1915658387458
 20
606.6949172045481
 42
0.0040073951855379
 10
612.4046391095248
 20
606.0585085599679
 42
0.0040745575035428
 10
611.6281023660336
 20
605.4094645690375
 10
611.5804154140302
 20
605.3689422970401
 42
0.0050156961940274
 10
610.7212679188307
 20
604.6239069073592
 10
610.603857678974
 20
604.5200094674428
 42
0.0066045342534891
 10
609.5302513718425
 20
603.5443785775864
 10
609.4584467826678
 20
603.4773739008315
 10
609.4554211758361
 20
603.4745503384081
  0
LINE
  5
545
330
5E0
100
AcDbEntity
  8
DATA
  6
Continuous
 62
     7
100
AcDbLine
 10
615.5290038247232
 20
679.6705717201156
 30
0.0
 11
838.0669627331496
 21
679.6705717201156
 31
0.0
  0
LINE
  5
546
330
5E0
100
AcDbEntity
  8
DATA
  6
Continuous
 62
     7
100
AcDbLine
 10
593.0999832644329
 20
619.3981000000089
 30
0.0
 11
613.0999832644329
 21
619.3981000000089
 31
0.0
  0
LINE
  5
547
330
5E0
100
AcDbEntity
  8
DATA
  6
Continuous
 62
     7
100
AcDbLine
 10
603.0999832644329
 20
609.398100000009
 30
0.0
 11
603.0999832644329
 21
629.398100000009
 31
0.0
  0
LINE
  5
548
330
5E0
100
AcDbEntity
  8
DATA
  6
Continuous
 62
     7
100
AcDbLine
 10
745.4999832644354
 20
619.3981000000089
 30
0.0
 11
765.4999832644354
 21
619.3981000000089
 31
0.0
  0
LINE
  5
549
330
5E0
100
AcDbEntity
  8
DATA
  6
Continuous
 62
     7
100
AcDbLine
 10
755.4999832644353
 20
609.398100000009
 30
0.0
 11
755.4999832644353
 21
629.398100000009
 31
0.0
  0
LINE
  5
54A
330
5E0
100
AcDbEntity
  8
DATA
  6
Continuous
 62
     7
100
AcDbLine
 10
688.0959832644385
 20
499.3831000000088
 30
0.0
 11
708.0959832644384
 21
499.3831000000088
 31
0.0
  0
LINE
  5
54B
330
5E0
100
AcDbEntity
  8
DATA
  6
Continuous
 62
     7
100
AcDbLine
 10
698.0959832644384
 20
489.3831000000088
 30
0.0
 11
698.0959832644384
 21
509.3831000000088
 31
0.0
  0
LINE
  5
54C
330
5E0
100
AcDbEntity
  8
DATA
  6
Continuous
 62
     7
100
AcDbLine
 10
840.4959832644385
 20
499.3831000000088
 30
0.0
 11
860.4959832644384
 21
499.3831000000088
 31
0.0
  0
LINE
  5
54D
330
5E0
100
AcDbEntity
  8
DATA
  6
Continuous
 62
     7
100
AcDbLine
 10
850.4959832644384
 20
489.3831000000088
 30
0.0
 11
850.4959832644384
 21
509.3831000000088
 31
0.0
  0
ARC
  5
54E
330
5E0
100
AcDbEntity
  8
DATA
  6
Continuous
 62
     7
100
AcDbCircle
 10
615.6729832644363
 20
391.2145634683692
 30
0.0
 40
76.82070664529921
100
AcDbArc
 50
90.1073853577
 51
150.455114474345
  0
ARC
  5
54F
330
5E0
100
AcDbEntity
  8
DATA
  6
Continuous
 62
     7
100
AcDbCircle
 10
837.9229832644398
 20
391.2145634683692
 30
0.0
 40
76.82070664530185
100
AcDbArc
 50
29.54488552287493
 51
89.89261524240072
  0
LINE
  5
550
330
5E0
100
AcDbEntity
  8
DATA
  6
Continuous
 62
     7
100
AcDbLine
 10
615.5290038247232
 20
468.035135188476
 30
0.0
 11
838.0669627331496
 21
468.035135188476
 31
0.0
  0
TEXT
  5
551
330
5E0
100
AcDbEntity
  8
DATA
 62
     7
100
AcDbText
 10
625.2846334693572
 20
432.7015422167066
 30
0.0
 40
19.76327256944445
  1
2+/2- LOOP THRU
 41
0.7
 11
625.2846334693572
 21
452.4648147861511
 31
0.0
100
AcDbText
 73
     3
  0
TEXT
  5
552
330
5E0
100
AcDbEntity
  8
DATA
 62
     7
100
AcDbText
 10
674.8288879346552
 20
328.8497695496389
 30
0.0
 40
27.14735243055556
  1
+1
 41
0.7
 11
674.8288879346552
 21
355.9971219801945
 31
0.0
100
AcDbText
 73
     3
  0
TEXT
  5
553
330
5E0
100
AcDbEntity
  8
DATA
 62
     7
100
AcDbText
 10
744.4377528158462
 20
329.3228242198586
 30
0.0
 40
27.14735243055556
  1
-1
 41
0.7
 11
744.4377528158462
 21
356.4701766504141
 31
0.0
100
AcDbText
 73
     3
  0
TEXT
  5
554
330
5E0
100
AcDbEntity
  8
DATA
 62
     7
100
AcDbText
 10
612.8317646489199
 20
391.0141797904702
 30
0.0
 40
20.36051432291666
  1
PARALLEL WITH NL4 
 41
0.7
 11
612.8317646489199
 21
411.3746941133869
 31
0.0
100
AcDbText
 73
     3
  0
LINE
  5
555
330
5E0
100
AcDbEntity
  8
DATA
  6
Continuous
 62
     7
100
AcDbLine
 10
652.8719680738355
 20
314.3847136232838
 30
0.0
 11
800.723998455038
 21
314.3847136232838
 31
0.0
  0
LINE
  5
556
330
5E0
100
AcDbEntity
  8
DATA
  6
Continuous
 62
     7
100
AcDbLine
 10
800.723998455038
 20
219.8726832420825
 30
0.0
 11
652.8719680738355
 21
219.8726832420825
 31
0.0
  0
LINE
  5
557
330
5E0
100
AcDbEntity
  8
DATA
  6
Continuous
 62
     7
100
AcDbLine
 10
719.1779832644376
 20
219.8726832420825
 30
0.0
 11
719.1779832644376
 21
314.3847136232838
 31
0.0
  0
LINE
  5
558
330
5E0
100
AcDbEntity
  8
DATA
  6
Continuous
 62
     7
100
AcDbLine
 10
734.4179832644388
 20
219.8726832420825
 30
0.0
 11
734.4179832644388
 21
314.3847136232838
 31
0.0
  0
LINE
  5
559
330
5E0
100
AcDbEntity
  8
DATA
  6
Continuous
 62
     7
100
AcDbLine
 10
667.8719680738355
 20
314.3847136232838
 30
0.0
 11
667.8719680738355
 21
219.8726832420825
 31
0.0
  0
LINE
  5
55A
330
5E0
100
AcDbEntity
  8
DATA
  6
Continuous
 62
     7
100
AcDbLine
 10
785.7239984550381
 20
219.8726832420825
 30
0.0
 11
785.7239984550381
 21
314.3847136232838
 31
0.0
  0
LINE
  5
55B
330
5E0
100
AcDbEntity
  8
DATA
  6
Continuous
 62
     7
100
AcDbLine
 10
618.8229832644331
 20
424.9569954890372
 30
0.0
 11
828.8229832644338
 21
424.9569954890372
 31
0.0
  0
LINE
  5
55C
330
5E0
100
AcDbEntity
  8
DATA
  6
Continuous
 62
     7
100
AcDbLine
 10
685.6412619288607
 20
267.1286984326823
 30
0.0
 11
703.0704046000141
 21
267.1286984326823
 31
0.0
  0
LINE
  5
55D
330
5E0
100
AcDbEntity
  8
DATA
  6
Continuous
 62
     7
100
AcDbLine
 10
694.3558332644376
 20
258.4141270971059
 30
0.0
 11
694.3558332644376
 21
275.8432697682587
 31
0.0
  0
CIRCLE
  5
55E
330
5E0
100
AcDbEntity
  8
DATA
  6
Continuous
 62
     7
100
AcDbCircle
 10
760.2901332632891
 20
267.1286984326823
 30
0.0
 40
13.96999999999934
  0
LINE
  5
55F
330
5E0
100
AcDbEntity
  8
DATA
  6
Continuous
 62
     7
100
AcDbLine
 10
769.0047045988658
 20
267.1286984326823
 30
0.0
 11
751.5755619277125
 21
267.1286984326823
 31
0.0
  0
LINE
  5
560
330
5E0
100
AcDbEntity
  8
DATA
  6
Continuous
 62
     7
100
AcDbLine
 10
760.2901332632891
 20
258.4141270971059
 30
0.0
 11
760.2901332632891
 21
275.8432697682587
 31
0.0
  0
LINE
  5
561
330
5E0
100
AcDbEntity
  8
DATA
  6
Continuous
 62
     7
100
AcDbLine
 10
533.1229832644339
 20
675.3541053161094
 30
0.0
 11
533.1229832644339
 21
695.4458946839078
 31
0.0
  0
LINE
  5
562
330
5E0
100
AcDbEntity
  8
DATA
  6
Continuous
 62
     7
100
AcDbLine
 10
523.0770885805346
 20
685.4000000000087
 30
0.0
 11
543.1688779483332
 21
685.4000000000087
 31
0.0
  0
CIRCLE
  5
563
330
5E0
100
AcDbEntity
  8
DATA
  6
Continuous
 62
     7
100
AcDbCircle
 10
920.4729832644384
 20
685.4000000000087
 30
0.0
 40
18.41499999999996
  0
LINE
  5
564
330
5E0
100
AcDbEntity
  8
DATA
  6
Continuous
 62
     7
100
AcDbLine
 10
920.4729832644384
 20
675.3541053161094
 30
0.0
 11
920.4729832644384
 21
695.4458946839078
 31
0.0
  0
LINE
  5
565
330
5E0
100
AcDbEntity
  8
DATA
  6
Continuous
 62
     7
100
AcDbLine
 10
910.4270885805396
 20
685.4000000000087
 30
0.0
 11
930.5188779483373
 21
685.4000000000087
 31
0.0
  0
CIRCLE
  5
566
330
5E0
100
AcDbEntity
  8
DATA
  6
Continuous
 62
     7
100
AcDbCircle
 10
533.1229832644339
 20
75.80000000000691
 30
0.0
 40
18.41499999999996
  0
LINE
  5
567
330
5E0
100
AcDbEntity
  8
DATA
  6
Continuous
 62
     7
100
AcDbLine
 10
533.1229832644339
 20
65.75410531610771
 30
0.0
 11
533.1229832644339
 21
85.84589468390614
 31
0.0
  0
LINE
  5
568
330
5E0
100
AcDbEntity
  8
DATA
  6
Continuous
 62
     7
100
AcDbLine
 10
523.0770885805346
 20
75.80000000000691
 30
0.0
 11
543.1688779483332
 21
75.80000000000691
 31
0.0
  0
CIRCLE
  5
569
330
5E0
100
AcDbEntity
  8
DATA
  6
Continuous
 62
     7
100
AcDbCircle
 10
920.4729832644384
 20
75.80000000000691
 30
0.0
 40
18.41499999999996
  0
LINE
  5
56A
330
5E0
100
AcDbEntity
  8
DATA
  6
Continuous
 62
     7
100
AcDbLine
 10
920.4729832644384
 20
65.75410531610771
 30
0.0
 11
920.4729832644384
 21
85.84589468390614
 31
0.0
  0
LINE
  5
56B
330
5E0
100
AcDbEntity
  8
DATA
  6
Continuous
 62
     7
100
AcDbLine
 10
910.4270885805396
 20
75.80000000000691
 30
0.0
 11
930.5188779483373
 21
75.80000000000691
 31
0.0
  0
TEXT
  5
56C
330
5E0
100
AcDbEntity
  8
DATA
 62
     7
100
AcDbText
 10
599.5422790114888
 20
-941.159041311374
 30
0.0
 40
24.4326171875
  1
JBL PROFESSIONAL
 41
0.7
 11
599.5422790114888
 21
-916.7264241238742
 31
0.0
100
AcDbText
 73
     3
  0
TEXT
  5
56D
330
5E0
100
AcDbEntity
  8
DATA
 62
     7
100
AcDbText
 10
-777.008537191025
 20
-1050.87164631012
 30
0.0
 40
19.00314670138889
  1
※仕様及び外観は予告なく変更されることがあります。
 41
0.7
 11
-777.008537191025
 21
-1031.868499608732
 31
0.0
100
AcDbText
 73
     3
  0
TEXT
  5
56E
330
5E0
100
AcDbEntity
  8
DATA
 62
     7
100
AcDbText
 10
-777.008537191025
 20
-1075.566090754564
 30
0.0
 40
19.00314670138889
  1
　また、同一商品でも若干の個体差があることがあります。ご了承ください。
 41
0.7
 11
-777.008537191025
 21
-1056.562944053176
 31
0.0
100
AcDbText
 73
     3
  0
TEXT
  5
56F
330
5E0
100
AcDbEntity
  8
DATA
 62
     7
100
AcDbText
 10
575.0
 20
-977.5507128896153
 30
0.0
 40
19.00314670138889
  1
2-Wayフルレンジ・スピーカー
 41
0.7
 11
575.0
 21
-958.5475661882265
 31
0.0
100
AcDbText
 73
     3
  0
ENDSEC
  0
SECTION
  2
OBJECTS
  0
DICTIONARY
  5
57D
330
0
100
AcDbDictionary
281
     1
  3
ACAD_CIP_PREVIOUS_PRODUCT_INFO
350
5FE
  3
ACAD_COLOR
350
5D3
  3
ACAD_DETAILVIEWSTYLE
350
5DA
  3
ACAD_GROUP
350
57E
  3
ACAD_LAYOUT
350
5D2
  3
ACAD_MATERIAL
350
581
  3
ACAD_MLEADERSTYLE
350
5D6
  3
ACAD_MLINESTYLE
350
5CF
  3
ACAD_PLOTSETTINGS
350
5D1
  3
ACAD_PLOTSTYLENAME
350
57F
  3
ACAD_SCALELIST
350
5B3
  3
ACAD_SECTIONVIEWSTYLE
350
5D8
  3
ACAD_TABLESTYLE
350
5D4
  3
ACAD_VISUALSTYLE
350
59A
  3
ACDB_RECOMPOSE_DATA
350
618
  3
AcDbVariableDictionary
350
60B
  3
DWGPROPS
350
619
  0
DICTIONARY
  5
5FF
330
5C5
100
AcDbDictionary
280
     1
281
     1
  3
ADSK_XREC_LAYER_RECONCILED
360
600
  0
DICTIONARY
  5
601
330
5E4
100
AcDbDictionary
280
     1
281
     1
  3
ADSK_XREC_LAYER_RECONCILED
360
602
  0
DICTIONARY
  5
603
330
5F5
100
AcDbDictionary
280
     1
281
     1
  3
ADSK_XREC_LAYER_RECONCILED
360
604
  0
DICTIONARY
  5
605
330
5F6
100
AcDbDictionary
280
     1
281
     1
  3
ADSK_XREC_LAYER_RECONCILED
360
606
  0
DICTIONARY
  5
607
330
5F7
100
AcDbDictionary
280
     1
281
     1
  3
ADSK_XREC_LAYER_RECONCILED
360
608
  0
DICTIONARY
  5
609
330
5F8
100
AcDbDictionary
280
     1
281
     1
  3
ADSK_XREC_LAYER_RECONCILED
360
60A
  0
XRECORD
  5
5FE
102
{ACAD_REACTORS
330
57D
102
}
330
57D
100
AcDbXrecord
280
     1
300
ACDLT
300
2017
300
ACDLT_F_S
  0
DICTIONARY
  5
5D3
102
{ACAD_REACTORS
330
57D
102
}
330
57D
100
AcDbDictionary
281
     1
  0
DICTIONARY
  5
5DA
102
{ACAD_REACTORS
330
57D
102
}
330
57D
100
AcDbDictionary
281
     1
  3
Imperial24
350
5DB
  0
DICTIONARY
  5
57E
102
{ACAD_REACTORS
330
57D
102
}
330
57D
100
AcDbDictionary
281
     1
  0
DICTIONARY
  5
5D2
102
{ACAD_REACTORS
330
57D
102
}
330
57D
100
AcDbDictionary
281
     1
  3
Model
350
5E3
  3
レイアウト1
350
5DF
  0
DICTIONARY
  5
581
102
{ACAD_REACTORS
330
57D
102
}
330
57D
100
AcDbDictionary
281
     1
  3
ByBlock
350
58A
  3
ByLayer
350
582
  3
Global
350
592
  0
DICTIONARY
  5
5D6
102
{ACAD_REACTORS
330
57D
102
}
330
57D
100
AcDbDictionary
281
     1
  3
Standard
350
5D7
  0
DICTIONARY
  5
5CF
102
{ACAD_REACTORS
330
57D
102
}
330
57D
100
AcDbDictionary
281
     1
  3
Standard
350
5D0
  0
DICTIONARY
  5
5D1
102
{ACAD_REACTORS
330
57D
102
}
330
57D
100
AcDbDictionary
281
     1
  0
ACDBDICTIONARYWDFLT
  5
57F
102
{ACAD_REACTORS
330
57D
102
}
330
57D
100
AcDbDictionary
281
     1
  3
Normal
350
580
100
AcDbDictionaryWithDefault
340
580
  0
DICTIONARY
  5
5B3
102
{ACAD_REACTORS
330
57D
102
}
330
57D
100
AcDbDictionary
281
     1
  3
A0
350
5B4
  3
A1
350
5B5
  3
A2
350
5B6
  3
A3
350
5B7
  3
A4
350
5B8
  3
A5
350
5B9
  3
A6
350
5BA
  3
A7
350
5BB
  3
A8
350
5BC
  3
A9
350
5BD
  3
B0
350
5BE
  3
B1
350
5BF
  3
B2
350
5C0
  3
B3
350
5C1
  3
B4
350
5C2
  3
B5
350
5C3
  3
B6
350
5C4
  0
DICTIONARY
  5
5D8
102
{ACAD_REACTORS
330
57D
102
}
330
57D
100
AcDbDictionary
281
     1
  3
Imperial24
350
5D9
  0
DICTIONARY
  5
5D4
102
{ACAD_REACTORS
330
57D
102
}
330
57D
100
AcDbDictionary
281
     1
  3
Standard
350
5D5
  0
DICTIONARY
  5
59A
102
{ACAD_REACTORS
330
57D
102
}
330
57D
100
AcDbDictionary
281
     1
  3
2dWireframe
350
5A0
  3
Basic
350
59F
  3
Brighten
350
5A6
  3
ColorChange
350
5AA
  3
Conceptual
350
5A3
  3
Dim
350
5A5
  3
EdgeColorOff
350
5B2
  3
Facepattern
350
5A9
  3
Flat
350
59B
  3
FlatWithEdges
350
59C
  3
Gouraud
350
59D
  3
GouraudWithEdges
350
59E
  3
Hidden
350
5A2
  3
JitterOff
350
5B0
  3
Linepattern
350
5A8
  3
OverhangOff
350
5B1
  3
Realistic
350
5A4
  3
Shaded
350
5AF
  3
Shaded with edges
350
5AE
  3
Shades of Gray
350
5AB
  3
Sketchy
350
5AC
  3
Thicken
350
5A7
  3
Wireframe
350
5A1
  3
X-Ray
350
5AD
  0
XRECORD
  5
618
102
{ACAD_REACTORS
330
57D
102
}
330
57D
100
AcDbXrecord
280
     1
 90
        1
330
5D5
  0
DICTIONARY
  5
60B
102
{ACAD_REACTORS
330
57D
102
}
330
57D
100
AcDbDictionary
281
     1
  3
CANNOSCALE
350
610
  3
CMLEADERSTYLE
350
60D
  3
CTABLESTYLE
350
60C
  3
CVIEWDETAILSTYLE
350
60E
  3
CVIEWSECTIONSTYLE
350
60F
  3
DIMASSOC
350
613
  3
INDEXCTL
350
612
  3
SORTENTS
350
611
  3
XCLIPFRAME
350
614
  0
XRECORD
  5
619
102
{ACAD_REACTORS
330
57D
102
}
330
57D
100
AcDbXrecord
280
     1
  1
DWGPROPS COOKIE
  2

  3

  4

  6

  7

  8
sasaki_n
  9

300
=
301
=
302
=
303
=
304
=
305
=
306
=
307
=
308
=
309
=
 40
0.0003935185185185
 41
2457812.427488426
 42
2457812.448321759
  1

 90
        0
  0
XRECORD
  5
600
102
{ACAD_REACTORS
330
5FF
102
}
330
5FF
100
AcDbXrecord
280
     1
290
     1
  0
XRECORD
  5
602
102
{ACAD_REACTORS
330
601
102
}
330
601
100
AcDbXrecord
280
     1
290
     1
  0
XRECORD
  5
604
102
{ACAD_REACTORS
330
603
102
}
330
603
100
AcDbXrecord
280
     1
290
     1
  0
XRECORD
  5
606
102
{ACAD_REACTORS
330
605
102
}
330
605
100
AcDbXrecord
280
     1
290
     1
  0
XRECORD
  5
608
102
{ACAD_REACTORS
330
607
102
}
330
607
100
AcDbXrecord
280
     1
290
     1
  0
XRECORD
  5
60A
102
{ACAD_REACTORS
330
609
102
}
330
609
100
AcDbXrecord
280
     1
290
     1
  0
ACDBDETAILVIEWSTYLE
  5
5DB
102
{ACAD_XDICTIONARY
360
651
102
}
102
{ACAD_REACTORS
330
5DA
102
}
330
5DA
100
AcDbModelDocViewStyle
 70
     0
  3
Imperial24
290
     0
100
AcDbDetailViewStyle
 70
     0
 71
     0
 90
        3
 71
     1
340
5C6
 40
0.24
340
0
 40
0.24
300

 40
0.36
280
     3
 71
     2
340
5CD
 90
       25
 71
     3
340
5C6
 40
0.24
 90
        1
 40
0.75
 90
        1
300
%<\AcVar ViewType \f "%tc1">% %<\AcVar ViewDetailId>%\PSCALE %<\AcVar ViewScale \f "%sn">%
 71
     4
340
5CD
 90
       25
340
5CD
 90
       25
280
     0
  0
LAYOUT
  5
5E3
102
{ACAD_XDICTIONARY
360
655
102
}
102
{ACAD_REACTORS
330
5D2
102
}
330
5D2
100
AcDbPlotSettings
  1

  2
DocuPrint 3000-2
  4

  6

 40
0.0
 41
0.0
 42
0.0
 43
0.0
 44
0.0
 45
0.0
 46
0.0
 47
0.0
 48
0.0
 49
0.0
140
0.0
141
0.0
142
1.0
143
1.0
 70
  1712
 72
     0
 73
     0
 74
     0
  7

 75
     0
147
1.0
148
0.0
149
0.0
100
AcDbLayout
  1
Model
 70
     1
 71
     0
 10
0.0
 20
0.0
 11
12.0
 21
9.0
 12
0.0
 22
0.0
 32
0.0
 14
0.0
 24
0.0
 34
0.0
 15
0.0
 25
0.0
 35
0.0
146
0.0
 13
0.0
 23
0.0
 33
0.0
 16
1.0
 26
0.0
 36
0.0
 17
0.0
 27
1.0
 37
0.0
 76
     0
330
5E0
331
5E5
  0
LAYOUT
  5
5DF
102
{ACAD_XDICTIONARY
360
653
102
}
102
{ACAD_REACTORS
330
5D2
102
}
330
5D2
100
AcDbPlotSettings
  1

  2
DocuPrint 3000-2
  4

  6

 40
0.0
 41
0.0
 42
0.0
 43
0.0
 44
0.0
 45
0.0
 46
0.0
 47
0.0
 48
0.0
 49
0.0
140
0.0
141
0.0
142
1.0
143
1.0
 70
   688
 72
     0
 73
     0
 74
     5
  7

 75
    16
147
1.0
148
0.0
149
0.0
100
AcDbLayout
  1
レイアウト1
 70
     0
 71
     1
 10
0.0
 20
0.0
 11
12.0
 21
9.0
 12
0.0
 22
0.0
 32
0.0
 14
1.000000000000000E+20
 24
1.000000000000000E+20
 34
1.000000000000000E+20
 15
-1.000000000000000E+20
 25
-1.000000000000000E+20
 35
-1.000000000000000E+20
146
0.0
 13
0.0
 23
0.0
 33
0.0
 16
1.0
 26
0.0
 36
0.0
 17
0.0
 27
1.0
 37
0.0
 76
     0
330
5DC
  0
MATERIAL
  5
58A
102
{ACAD_XDICTIONARY
360
58B
102
}
102
{ACAD_REACTORS
330
581
102
}
330
581
100
AcDbMaterial
  1
ByBlock
 72
     0
 43
0.0208333333333333
 43
0.0
 43
0.0
 43
0.0
 43
0.0
 43
0.0208333333333333
 43
0.0
 43
0.0
 43
0.0
 43
0.0
 43
1.0
 43
0.0
 43
0.0
 43
0.0
 43
0.0
 43
1.0
 77
     0
 47
0.0208333333333333
 47
0.0
 47
0.0
 47
0.0
 47
0.0
 47
0.0208333333333333
 47
0.0
 47
0.0
 47
0.0
 47
0.0
 47
1.0
 47
0.0
 47
0.0
 47
0.0
 47
0.0
 47
1.0
171
     0
 49
0.0208333333333333
 49
0.0
 49
0.0
 49
0.0
 49
0.0
 49
0.0208333333333333
 49
0.0
 49
0.0
 49
0.0
 49
0.0
 49
1.0
 49
0.0
 49
0.0
 49
0.0
 49
0.0
 49
1.0
175
     0
142
0.0208333333333333
142
0.0
142
0.0
142
0.0
142
0.0
142
0.0208333333333333
142
0.0
142
0.0
142
0.0
142
0.0
142
1.0
142
0.0
142
0.0
142
0.0
142
0.0
142
1.0
179
     0
144
0.0208333333333333
144
0.0
144
0.0
144
0.0
144
0.0
144
0.0208333333333333
144
0.0
144
0.0
144
0.0
144
0.0
144
1.0
144
0.0
144
0.0
144
0.0
144
0.0
144
1.0
147
0.0208333333333333
147
0.0
147
0.0
147
0.0
147
0.0
147
0.0208333333333333
147
0.0
147
0.0
147
0.0
147
0.0
147
1.0
147
0.0
147
0.0
147
0.0
147
0.0
147
1.0
  0
MATERIAL
  5
582
102
{ACAD_XDICTIONARY
360
583
102
}
102
{ACAD_REACTORS
330
581
102
}
330
581
100
AcDbMaterial
  1
ByLayer
 72
     0
 43
0.0208333333333333
 43
0.0
 43
0.0
 43
0.0
 43
0.0
 43
0.0208333333333333
 43
0.0
 43
0.0
 43
0.0
 43
0.0
 43
1.0
 43
0.0
 43
0.0
 43
0.0
 43
0.0
 43
1.0
 77
     0
 47
0.0208333333333333
 47
0.0
 47
0.0
 47
0.0
 47
0.0
 47
0.0208333333333333
 47
0.0
 47
0.0
 47
0.0
 47
0.0
 47
1.0
 47
0.0
 47
0.0
 47
0.0
 47
0.0
 47
1.0
171
     0
 49
0.0208333333333333
 49
0.0
 49
0.0
 49
0.0
 49
0.0
 49
0.0208333333333333
 49
0.0
 49
0.0
 49
0.0
 49
0.0
 49
1.0
 49
0.0
 49
0.0
 49
0.0
 49
0.0
 49
1.0
175
     0
142
0.0208333333333333
142
0.0
142
0.0
142
0.0
142
0.0
142
0.0208333333333333
142
0.0
142
0.0
142
0.0
142
0.0
142
1.0
142
0.0
142
0.0
142
0.0
142
0.0
142
1.0
179
     0
144
0.0208333333333333
144
0.0
144
0.0
144
0.0
144
0.0
144
0.0208333333333333
144
0.0
144
0.0
144
0.0
144
0.0
144
1.0
144
0.0
144
0.0
144
0.0
144
0.0
144
1.0
147
0.0208333333333333
147
0.0
147
0.0
147
0.0
147
0.0
147
0.0208333333333333
147
0.0
147
0.0
147
0.0
147
0.0
147
1.0
147
0.0
147
0.0
147
0.0
147
0.0
147
1.0
  0
MATERIAL
  5
592
102
{ACAD_XDICTIONARY
360
593
102
}
102
{ACAD_REACTORS
330
581
102
}
330
581
100
AcDbMaterial
  1
Global
 72
     0
 43
0.0208333333333333
 43
0.0
 43
0.0
 43
0.0
 43
0.0
 43
0.0208333333333333
 43
0.0
 43
0.0
 43
0.0
 43
0.0
 43
1.0
 43
0.0
 43
0.0
 43
0.0
 43
0.0
 43
1.0
 77
     0
 47
0.0208333333333333
 47
0.0
 47
0.0
 47
0.0
 47
0.0
 47
0.0208333333333333
 47
0.0
 47
0.0
 47
0.0
 47
0.0
 47
1.0
 47
0.0
 47
0.0
 47
0.0
 47
0.0
 47
1.0
171
     0
 49
0.0208333333333333
 49
0.0
 49
0.0
 49
0.0
 49
0.0
 49
0.0208333333333333
 49
0.0
 49
0.0
 49
0.0
 49
0.0
 49
1.0
 49
0.0
 49
0.0
 49
0.0
 49
0.0
 49
1.0
175
     0
142
0.0208333333333333
142
0.0
142
0.0
142
0.0
142
0.0
142
0.0208333333333333
142
0.0
142
0.0
142
0.0
142
0.0
142
1.0
142
0.0
142
0.0
142
0.0
142
0.0
142
1.0
179
     0
144
0.0208333333333333
144
0.0
144
0.0
144
0.0
144
0.0
144
0.0208333333333333
144
0.0
144
0.0
144
0.0
144
0.0
144
1.0
144
0.0
144
0.0
144
0.0
144
0.0
144
1.0
147
0.0208333333333333
147
0.0
147
0.0
147
0.0
147
0.0
147
0.0208333333333333
147
0.0
147
0.0
147
0.0
147
0.0
147
1.0
147
0.0
147
0.0
147
0.0
147
0.0
147
1.0
  0
MLEADERSTYLE
  5
5D7
102
{ACAD_REACTORS
330
5D6
102
}
330
5D6
100
AcDbMLeaderStyle
170
     2
171
     1
172
     0
 90
        2
 40
0.0
 41
0.0
173
     1
 91
-1056964608
340
5CB
 92
       -2
290
     1
 42
0.09
291
     1
 43
0.36
  3
Standard
 44
0.18
300

342
5C6
174
     1
178
     6
175
     1
176
     0
 93
-1056964608
 45
0.18
292
     0
297
     0
 46
0.18
 94
-1056964608
 47
1.0
 49
1.0
140
1.0
293
     1
141
0.0
294
     1
177
     0
142
1.0
295
     0
296
     0
143
0.125
1001
ACAD_MLEADERVER
1070
     2
  0
MLINESTYLE
  5
5D0
102
{ACAD_REACTORS
330
5CF
102
}
330
5CF
100
AcDbMlineStyle
  2
STANDARD
 70
     0
  3

 62
   256
 51
90.0
 52
90.0
 71
     2
 49
0.5
 62
   256
  6
BYLAYER
 49
-0.5
 62
   256
  6
BYLAYER
  0
ACDBPLACEHOLDER
  5
580
102
{ACAD_REACTORS
330
57F
102
}
330
57F
  0
SCALE
  5
5B4
102
{ACAD_REACTORS
330
5B3
102
}
330
5B3
100
AcDbScale
 70
     0
300
1:1
140
1.0
141
1.0
290
     1
  0
SCALE
  5
5B5
102
{ACAD_REACTORS
330
5B3
102
}
330
5B3
100
AcDbScale
 70
     0
300
1/128" = 1'-0"
140
0.0078125
141
12.0
290
     0
  0
SCALE
  5
5B6
102
{ACAD_REACTORS
330
5B3
102
}
330
5B3
100
AcDbScale
 70
     0
300
1/64" = 1'-0"
140
0.015625
141
12.0
290
     0
  0
SCALE
  5
5B7
102
{ACAD_REACTORS
330
5B3
102
}
330
5B3
100
AcDbScale
 70
     0
300
1/32" = 1'-0"
140
0.03125
141
12.0
290
     0
  0
SCALE
  5
5B8
102
{ACAD_REACTORS
330
5B3
102
}
330
5B3
100
AcDbScale
 70
     0
300
1/16" = 1'-0"
140
0.0625
141
12.0
290
     0
  0
SCALE
  5
5B9
102
{ACAD_REACTORS
330
5B3
102
}
330
5B3
100
AcDbScale
 70
     0
300
3/32" = 1'-0"
140
0.09375
141
12.0
290
     0
  0
SCALE
  5
5BA
102
{ACAD_REACTORS
330
5B3
102
}
330
5B3
100
AcDbScale
 70
     0
300
1/8" = 1'-0"
140
0.125
141
12.0
290
     0
  0
SCALE
  5
5BB
102
{ACAD_REACTORS
330
5B3
102
}
330
5B3
100
AcDbScale
 70
     0
300
3/16" = 1'-0"
140
0.1875
141
12.0
290
     0
  0
SCALE
  5
5BC
102
{ACAD_REACTORS
330
5B3
102
}
330
5B3
100
AcDbScale
 70
     0
300
1/4" = 1'-0"
140
0.25
141
12.0
290
     0
  0
SCALE
  5
5BD
102
{ACAD_REACTORS
330
5B3
102
}
330
5B3
100
AcDbScale
 70
     0
300
3/8" = 1'-0"
140
0.375
141
12.0
290
     0
  0
SCALE
  5
5BE
102
{ACAD_REACTORS
330
5B3
102
}
330
5B3
100
AcDbScale
 70
     0
300
1/2" = 1'-0"
140
0.5
141
12.0
290
     0
  0
SCALE
  5
5BF
102
{ACAD_REACTORS
330
5B3
102
}
330
5B3
100
AcDbScale
 70
     0
300
3/4" = 1'-0"
140
0.75
141
12.0
290
     0
  0
SCALE
  5
5C0
102
{ACAD_REACTORS
330
5B3
102
}
330
5B3
100
AcDbScale
 70
     0
300
1" = 1'-0"
140
1.0
141
12.0
290
     0
  0
SCALE
  5
5C1
102
{ACAD_REACTORS
330
5B3
102
}
330
5B3
100
AcDbScale
 70
     0
300
1-1/2" = 1'-0"
140
1.5
141
12.0
290
     0
  0
SCALE
  5
5C2
102
{ACAD_REACTORS
330
5B3
102
}
330
5B3
100
AcDbScale
 70
     0
300
3" = 1'-0"
140
3.0
141
12.0
290
     0
  0
SCALE
  5
5C3
102
{ACAD_REACTORS
330
5B3
102
}
330
5B3
100
AcDbScale
 70
     0
300
6" = 1'-0"
140
6.0
141
12.0
290
     0
  0
SCALE
  5
5C4
102
{ACAD_REACTORS
330
5B3
102
}
330
5B3
100
AcDbScale
 70
     0
300
1'-0" = 1'-0"
140
12.0
141
12.0
290
     0
  0
ACDBSECTIONVIEWSTYLE
  5
5D9
102
{ACAD_XDICTIONARY
360
64F
102
}
102
{ACAD_REACTORS
330
5D8
102
}
330
5D8
100
AcDbModelDocViewStyle
 70
     0
  3
Imperial24
290
     0
100
AcDbSectionViewStyle
 70
     0
 71
     0
 90
       78
 71
     1
340
5C6
 40
0.24
340
0
340
0
 40
0.24
300
I, O, Q, S, X, Z
 40
0.48
 90
        3
 40
0.18
 90
        1
 71
     2
340
5CD
 90
       25
340
5CD
 90
       50
 40
0.24
 40
0.0
 40
0.24
 71
     3
340
5C6
 40
0.24
 90
        1
 40
0.75
 90
        1
300
%<\AcVar ViewType \f "%tc1">% %<\AcVar ViewSectionStartId>%-%<\AcVar ViewSectionEndId>%\PSCALE %<\AcVar ViewScale \f "%sn">%
 71
     4
300
ANSI31
 40
1.0
 90
        0
290
     0
290
     0
 90
        6
 40
0.0
 40
1.570796326794896
 40
0.2617993877991494
 40
1.308996938995747
 40
-0.2617993877991494
 40
1.832595714594046
  0
TABLESTYLE
  5
5D5
102
{ACAD_XDICTIONARY
360
616
102
}
102
{ACAD_REACTORS
330
5D4
102
}
330
5D4
100
AcDbTableStyle
  3
Standard
 70
     0
 71
     0
 40
0.06
 41
0.06
280
     0
281
     0
  7
STANDARD
140
0.18
170
     2
 62
     0
 63
     7
283
     0
274
    -2
284
     1
 64
     0
275
    -2
285
     1
 65
     0
276
    -2
286
     1
 66
     0
277
    -2
287
     1
 67
     0
278
    -2
288
     1
 68
     0
279
    -2
289
     1
 69
     0
  7
STANDARD
140
0.25
170
     5
 62
     0
 63
     7
283
     0
274
    -2
284
     1
 64
     0
275
    -2
285
     1
 65
     0
276
    -2
286
     1
 66
     0
277
    -2
287
     1
 67
     0
278
    -2
288
     1
 68
     0
279
    -2
289
     1
 69
     0
  7
STANDARD
140
0.18
170
     5
 62
     0
 63
     7
283
     0
274
    -2
284
     1
 64
     0
275
    -2
285
     1
 65
     0
276
    -2
286
     1
 66
     0
277
    -2
287
     1
 67
     0
278
    -2
288
     1
 68
     0
279
    -2
289
     1
 69
     0
  0
VISUALSTYLE
  5
5A0
102
{ACAD_XDICTIONARY
360
627
102
}
102
{ACAD_REACTORS
330
59A
102
}
330
59A
100
AcDbVisualStyle
  2
2dWireframe
 70
     4
 71
     0
 72
     2
 73
     0
 90
        0
 40
-0.6
 41
-30.0
 62
     5
 63
     7
 74
     1
 91
        4
 64
     7
 65
   257
 75
     1
175
     1
 42
1.0
 92
        0
 66
   257
 43
1.0
 76
     1
 77
     6
 78
     2
 67
     7
 79
     5
170
     0
171
     0
290
     0
174
     0
 93
        1
 44
0.0
173
     0
291
     0
 45
0.0
1001
ACAD
1000
AcDbSavedByObjectVersion
1070
     0
  0
VISUALSTYLE
  5
59F
102
{ACAD_XDICTIONARY
360
625
102
}
102
{ACAD_REACTORS
330
59A
102
}
330
59A
100
AcDbVisualStyle
  2
Basic
 70
     7
 71
     1
 72
     0
 73
     1
 90
        0
 40
-0.6
 41
-30.0
 62
     5
 63
     7
 74
     0
 91
        4
 64
     7
 65
   257
 75
     1
175
     1
 42
1.0
 92
        8
 66
     7
 43
1.0
 76
     1
 77
     6
 78
     2
 67
     7
 79
     5
170
     0
171
     0
290
     0
174
     0
 93
        1
 44
0.0
173
     0
291
     1
 45
0.0
1001
ACAD
1000
AcDbSavedByObjectVersion
1070
     0
  0
VISUALSTYLE
  5
5A6
102
{ACAD_XDICTIONARY
360
633
102
}
102
{ACAD_REACTORS
330
59A
102
}
330
59A
100
AcDbVisualStyle
  2
Brighten
 70
    12
 71
     2
 72
     2
 73
     0
 90
        0
 40
-0.6
 41
-30.0
 62
     5
 63
     7
 74
     1
 91
        4
 64
     7
 65
   257
 75
     1
175
     1
 42
1.0
 92
        8
 66
     7
 43
1.0
 76
     1
 77
     6
 78
     2
 67
     7
 79
     5
170
     0
171
     0
290
     0
174
     0
 93
        1
 44
50.0
173
     0
291
     1
 45
0.0
1001
ACAD
1000
AcDbSavedByObjectVersion
1070
     0
  0
VISUALSTYLE
  5
5AA
102
{ACAD_XDICTIONARY
360
63B
102
}
102
{ACAD_REACTORS
330
59A
102
}
330
59A
100
AcDbVisualStyle
  2
ColorChange
 70
    16
 71
     2
 72
     2
 73
     3
 90
        0
 40
-0.6
 41
-30.0
 62
     5
 63
     8
 74
     1
 91
        4
 64
     7
 65
   257
 75
     1
175
     1
 42
1.0
 92
        8
 66
     8
 43
1.0
 76
     1
 77
     6
 78
     2
 67
     7
 79
     5
170
     0
171
     0
290
     0
174
     0
 93
        1
 44
0.0
173
     0
291
     1
 45
0.0
1001
ACAD
1000
AcDbSavedByObjectVersion
1070
     0
  0
VISUALSTYLE
  5
5A3
102
{ACAD_XDICTIONARY
360
62D
102
}
102
{ACAD_REACTORS
330
59A
102
}
330
59A
100
AcDbVisualStyle
  2
Conceptual
 70
     9
 71
     3
 72
     2
 73
     0
 90
        0
 40
-0.6
 41
-30.0
 62
     5
 63
     7
 74
     2
 91
        2
 64
     7
 65
   257
 75
     1
175
     1
 42
179.0
 92
        8
 66
     7
 43
1.0
 76
     1
 77
     6
 78
     2
 67
     7
 79
     3
170
     0
171
     0
290
     0
174
     0
 93
        1
 44
0.0
173
     0
291
     0
 45
0.0
1001
ACAD
1000
AcDbSavedByObjectVersion
1070
     0
  0
VISUALSTYLE
  5
5A5
102
{ACAD_XDICTIONARY
360
631
102
}
102
{ACAD_REACTORS
330
59A
102
}
330
59A
100
AcDbVisualStyle
  2
Dim
 70
    11
 71
     2
 72
     2
 73
     0
 90
        0
 40
-0.6
 41
-30.0
 62
     5
 63
     7
 74
     1
 91
        4
 64
     7
 65
   257
 75
     1
175
     1
 42
1.0
 92
        8
 66
     7
 43
1.0
 76
     1
 77
     6
 78
     2
 67
     7
 79
     5
170
     0
171
     0
290
     0
174
     0
 93
        1
 44
-50.0
173
     0
291
     1
 45
0.0
1001
ACAD
1000
AcDbSavedByObjectVersion
1070
     0
  0
VISUALSTYLE
  5
5B2
102
{ACAD_XDICTIONARY
360
64B
102
}
102
{ACAD_REACTORS
330
59A
102
}
330
59A
100
AcDbVisualStyle
  2
EdgeColorOff
 70
    22
 71
     2
 72
     2
 73
     0
 90
        0
 40
-0.6
 41
-30.0
 62
     5
 63
     7
 74
     1
 91
        4
 64
     7
 65
   257
 75
     1
175
     1
 42
1.0
 92
        8
 66
     7
 43
1.0
 76
     1
 77
     6
 78
     2
 67
     7
 79
     5
170
     0
171
     0
290
     0
174
     0
 93
        1
 44
0.0
173
     0
291
     1
 45
0.0
1001
ACAD
1000
AcDbSavedByObjectVersion
1070
     0
  0
VISUALSTYLE
  5
5A9
102
{ACAD_XDICTIONARY
360
639
102
}
102
{ACAD_REACTORS
330
59A
102
}
330
59A
100
AcDbVisualStyle
  2
Facepattern
 70
    15
 71
     2
 72
     2
 73
     0
 90
        0
 40
-0.6
 41
-30.0
 62
     5
 63
     7
 74
     1
 91
        4
 64
     7
 65
   257
 75
     1
175
     1
 42
1.0
 92
        8
 66
     7
 43
1.0
 76
     1
 77
     6
 78
     2
 67
     7
 79
     5
170
     0
171
     0
290
     0
174
     0
 93
        1
 44
0.0
173
     0
291
     1
 45
0.0
1001
ACAD
1000
AcDbSavedByObjectVersion
1070
     0
  0
VISUALSTYLE
  5
59B
102
{ACAD_XDICTIONARY
360
61D
102
}
102
{ACAD_REACTORS
330
59A
102
}
330
59A
100
AcDbVisualStyle
  2
Flat
 70
     0
 71
     2
 72
     1
 73
     1
 90
        2
 40
-0.6
 41
30.0
 62
     5
 63
     7
 74
     0
 91
        0
 64
     7
 65
   257
 75
     1
175
     1
 42
1.0
 92
        8
 66
     7
 43
1.0
 76
     1
 77
     6
 78
     2
 67
     7
 79
     5
170
     0
171
     0
290
     0
174
     0
 93
       13
 44
0.0
173
     0
291
     1
 45
0.0
1001
ACAD
1000
AcDbSavedByObjectVersion
1070
     0
  0
VISUALSTYLE
  5
59C
102
{ACAD_XDICTIONARY
360
61F
102
}
102
{ACAD_REACTORS
330
59A
102
}
330
59A
100
AcDbVisualStyle
  2
FlatWithEdges
 70
     1
 71
     2
 72
     1
 73
     1
 90
        2
 40
-0.6
 41
30.0
 62
     5
 63
     7
 74
     1
 91
        0
 64
     7
 65
   257
 75
     1
175
     1
 42
1.0
 92
        0
 66
   257
 43
1.0
 76
     1
 77
     6
 78
     2
 67
     7
 79
     5
170
     0
171
     0
290
     0
174
     0
 93
       13
 44
0.0
173
     0
291
     1
 45
0.0
1001
ACAD
1000
AcDbSavedByObjectVersion
1070
     0
  0
VISUALSTYLE
  5
59D
102
{ACAD_XDICTIONARY
360
621
102
}
102
{ACAD_REACTORS
330
59A
102
}
330
59A
100
AcDbVisualStyle
  2
Gouraud
 70
     2
 71
     2
 72
     2
 73
     1
 90
        2
 40
-0.6
 41
30.0
 62
     5
 63
     7
 74
     0
 91
        0
 64
     7
 65
   257
 75
     1
175
     1
 42
1.0
 92
        0
 66
     7
 43
1.0
 76
     1
 77
     6
 78
     2
 67
     7
 79
     5
170
     0
171
     0
290
     0
174
     0
 93
       13
 44
0.0
173
     0
291
     1
 45
0.0
1001
ACAD
1000
AcDbSavedByObjectVersion
1070
     0
  0
VISUALSTYLE
  5
59E
102
{ACAD_XDICTIONARY
360
623
102
}
102
{ACAD_REACTORS
330
59A
102
}
330
59A
100
AcDbVisualStyle
  2
GouraudWithEdges
 70
     3
 71
     2
 72
     2
 73
     1
 90
        2
 40
-0.6
 41
30.0
 62
     5
 63
     7
 74
     1
 91
        0
 64
     7
 65
   257
 75
     1
175
     1
 42
1.0
 92
        0
 66
   257
 43
1.0
 76
     1
 77
     6
 78
     2
 67
     7
 79
     5
170
     0
171
     0
290
     0
174
     0
 93
       13
 44
0.0
173
     0
291
     1
 45
0.0
1001
ACAD
1000
AcDbSavedByObjectVersion
1070
     0
  0
VISUALSTYLE
  5
5A2
102
{ACAD_XDICTIONARY
360
62B
102
}
102
{ACAD_REACTORS
330
59A
102
}
330
59A
100
AcDbVisualStyle
  2
Hidden
 70
     6
 71
     1
 72
     2
 73
     2
 90
        0
 40
-0.6
 41
-30.0
 62
     5
 63
     7
 74
     2
 91
        2
 64
     7
 65
   257
 75
     2
175
     1
 42
40.0
 92
        0
 66
   257
 43
1.0
 76
     1
 77
     6
 78
     2
 67
     7
 79
     3
170
     0
171
     0
290
     0
174
     0
 93
        1
 44
0.0
173
     0
291
     0
 45
0.0
1001
ACAD
1000
AcDbSavedByObjectVersion
1070
     0
  0
VISUALSTYLE
  5
5B0
102
{ACAD_XDICTIONARY
360
647
102
}
102
{ACAD_REACTORS
330
59A
102
}
330
59A
100
AcDbVisualStyle
  2
JitterOff
 70
    20
 71
     2
 72
     2
 73
     0
 90
        0
 40
-0.6
 41
-30.0
 62
     5
 63
     7
 74
     1
 91
        4
 64
     7
 65
   257
 75
     1
175
     1
 42
1.0
 92
       10
 66
     7
 43
1.0
 76
     1
 77
     6
 78
     2
 67
     7
 79
     5
170
     0
171
     0
290
     0
174
     0
 93
        1
 44
0.0
173
     0
291
     1
 45
0.0
1001
ACAD
1000
AcDbSavedByObjectVersion
1070
     0
  0
VISUALSTYLE
  5
5A8
102
{ACAD_XDICTIONARY
360
637
102
}
102
{ACAD_REACTORS
330
59A
102
}
330
59A
100
AcDbVisualStyle
  2
Linepattern
 70
    14
 71
     2
 72
     2
 73
     0
 90
        0
 40
-0.6
 41
-30.0
 62
     5
 63
     7
 74
     1
 91
        4
 64
     7
 65
   257
 75
     7
175
     7
 42
1.0
 92
        8
 66
     7
 43
1.0
 76
     1
 77
     6
 78
     2
 67
     7
 79
     5
170
     0
171
     0
290
     0
174
     0
 93
        1
 44
0.0
173
     0
291
     1
 45
0.0
1001
ACAD
1000
AcDbSavedByObjectVersion
1070
     0
  0
VISUALSTYLE
  5
5B1
102
{ACAD_XDICTIONARY
360
649
102
}
102
{ACAD_REACTORS
330
59A
102
}
330
59A
100
AcDbVisualStyle
  2
OverhangOff
 70
    21
 71
     2
 72
     2
 73
     0
 90
        0
 40
-0.6
 41
-30.0
 62
     5
 63
     7
 74
     1
 91
        4
 64
     7
 65
   257
 75
     1
175
     1
 42
1.0
 92
        9
 66
     7
 43
1.0
 76
     1
 77
     6
 78
     2
 67
     7
 79
     5
170
     0
171
     0
290
     0
174
     0
 93
        1
 44
0.0
173
     0
291
     1
 45
0.0
1001
ACAD
1000
AcDbSavedByObjectVersion
1070
     0
  0
VISUALSTYLE
  5
5A4
102
{ACAD_XDICTIONARY
360
62F
102
}
102
{ACAD_REACTORS
330
59A
102
}
330
59A
100
AcDbVisualStyle
  2
Realistic
 70
     8
 71
     2
 72
     3
 73
     0
 90
        2
 40
-0.6
 41
30.0
 62
     5
 63
     7
 74
     0
 91
        0
 64
     7
 65
   257
 75
     1
175
     1
 42
1.0
 92
        8
 66
   257
 43
1.0
 76
     1
 77
     6
 78
     2
 67
     7
 79
     3
170
     0
171
     0
290
     0
174
     0
 93
       13
 44
0.0
173
     0
291
     0
 45
0.0
1001
ACAD
1000
AcDbSavedByObjectVersion
1070
     0
  0
VISUALSTYLE
  5
5AF
102
{ACAD_XDICTIONARY
360
645
102
}
102
{ACAD_REACTORS
330
59A
102
}
330
59A
100
AcDbVisualStyle
  2
Shaded
 70
    27
 71
     2
 72
     2
 73
     1
 90
        2
 40
-0.6
 41
30.0
 62
     5
 63
     7
 74
     0
 91
        4
 64
     7
 65
   257
 75
     1
175
     1
 42
1.0
 92
        8
 66
   257
 43
1.0
 76
     1
 77
     6
 78
     2
 67
     8
 79
     3
170
     0
171
     0
290
     0
174
     0
 93
        5
 44
0.0
173
     0
291
     0
 45
0.0
1001
ACAD
1000
AcDbSavedByObjectVersion
1070
     0
  0
VISUALSTYLE
  5
5AE
102
{ACAD_XDICTIONARY
360
643
102
}
102
{ACAD_REACTORS
330
59A
102
}
330
59A
100
AcDbVisualStyle
  2
Shaded with edges
 70
    26
 71
     2
 72
     2
 73
     1
 90
        2
 40
-0.6
 41
30.0
 62
     5
 63
     7
 74
     1
 91
        2
 64
     7
 65
   257
 75
     2
175
     1
 42
1.0
 92
        8
 66
   257
 43
1.0
 76
     1
 77
     6
 78
     2
 67
     7
 79
     3
170
     0
171
     0
290
     0
174
     0
 93
        5
 44
0.0
173
     0
291
     0
 45
0.0
1001
ACAD
1000
AcDbSavedByObjectVersion
1070
     0
  0
VISUALSTYLE
  5
5AB
102
{ACAD_XDICTIONARY
360
63D
102
}
102
{ACAD_REACTORS
330
59A
102
}
330
59A
100
AcDbVisualStyle
  2
Shades of Gray
 70
    23
 71
     2
 72
     2
 73
     3
 90
        0
 40
-0.6
 41
-30.0
 62
     5
 63
     7
 74
     2
 91
        2
 64
     7
 65
     7
 75
     1
175
     1
 42
40.0
 92
        8
 66
     7
 43
1.0
 76
     1
 77
     6
 78
     2
 67
     7
 79
     3
170
     0
171
     0
290
     0
174
     0
 93
        1
 44
0.0
173
     0
291
     0
 45
0.0
1001
ACAD
1000
AcDbSavedByObjectVersion
1070
     0
  0
VISUALSTYLE
  5
5AC
102
{ACAD_XDICTIONARY
360
63F
102
}
102
{ACAD_REACTORS
330
59A
102
}
330
59A
100
AcDbVisualStyle
  2
Sketchy
 70
    24
 71
     1
 72
     2
 73
     2
 90
        0
 40
-0.6
 41
-30.0
 62
     5
 63
     7
 74
     2
 91
        2
 64
     7
 65
     7
 75
     1
175
     1
 42
40.0
 92
       11
 66
     7
 43
1.0
 76
     1
 77
     6
 78
     2
 67
     7
 79
     6
170
     0
171
     0
290
     0
174
     0
 93
        1
 44
0.0
173
     0
291
     0
 45
0.0
1001
ACAD
1000
AcDbSavedByObjectVersion
1070
     0
  0
VISUALSTYLE
  5
5A7
102
{ACAD_XDICTIONARY
360
635
102
}
102
{ACAD_REACTORS
330
59A
102
}
330
59A
100
AcDbVisualStyle
  2
Thicken
 70
    13
 71
     2
 72
     2
 73
     0
 90
        0
 40
-0.6
 41
-30.0
 62
     5
 63
     7
 74
     1
 91
        4
 64
     7
 65
   257
 75
     1
175
     1
 42
1.0
 92
       12
 66
     7
 43
1.0
 76
     1
 77
     6
 78
     2
 67
     7
 79
     5
170
     0
171
     0
290
     0
174
     0
 93
        1
 44
0.0
173
     0
291
     1
 45
0.0
1001
ACAD
1000
AcDbSavedByObjectVersion
1070
     0
  0
VISUALSTYLE
  5
5A1
102
{ACAD_XDICTIONARY
360
629
102
}
102
{ACAD_REACTORS
330
59A
102
}
330
59A
100
AcDbVisualStyle
  2
Wireframe
 70
     5
 71
     0
 72
     2
 73
     0
 90
        0
 40
-0.6
 41
-30.0
 62
     5
 63
     7
 74
     1
 91
        4
 64
     7
 65
   257
 75
     1
175
     1
 42
1.0
 92
        0
 66
   257
 43
1.0
 76
     1
 77
     6
 78
     2
 67
     7
 79
     3
170
     0
171
     0
290
     0
174
     0
 93
        1
 44
0.0
173
     0
291
     0
 45
0.0
1001
ACAD
1000
AcDbSavedByObjectVersion
1070
     0
  0
VISUALSTYLE
  5
5AD
102
{ACAD_XDICTIONARY
360
641
102
}
102
{ACAD_REACTORS
330
59A
102
}
330
59A
100
AcDbVisualStyle
  2
X-Ray
 70
    25
 71
     2
 72
     2
 73
     1
 90
        1
 40
0.5
 41
-30.0
 62
     5
 63
     7
 74
     1
 91
        0
 64
     7
 65
   257
 75
     1
175
     1
 42
1.0
 92
        8
 66
     7
 43
1.0
 76
     1
 77
     6
 78
     2
 67
     7
 79
     3
170
     0
171
     0
290
     0
174
     0
 93
       13
 44
0.0
173
     0
291
     0
 45
0.0
1001
ACAD
1000
AcDbSavedByObjectVersion
1070
     0
  0
DICTIONARYVAR
  5
610
102
{ACAD_REACTORS
330
60B
102
}
330
60B
100
DictionaryVariables
280
     0
  1
1:1
  0
DICTIONARYVAR
  5
60D
102
{ACAD_REACTORS
330
60B
102
}
330
60B
100
DictionaryVariables
280
     0
  1
STANDARD
  0
DICTIONARYVAR
  5
60C
102
{ACAD_REACTORS
330
60B
102
}
330
60B
100
DictionaryVariables
280
     0
  1
STANDARD
  0
DICTIONARYVAR
  5
60E
102
{ACAD_REACTORS
330
60B
102
}
330
60B
100
DictionaryVariables
280
     0
  1
Imperial24
  0
DICTIONARYVAR
  5
60F
102
{ACAD_REACTORS
330
60B
102
}
330
60B
100
DictionaryVariables
280
     0
  1
Imperial24
  0
DICTIONARYVAR
  5
613
102
{ACAD_REACTORS
330
60B
102
}
330
60B
100
DictionaryVariables
280
     0
  1
1
  0
DICTIONARYVAR
  5
612
102
{ACAD_REACTORS
330
60B
102
}
330
60B
100
DictionaryVariables
280
     0
  1
0
  0
DICTIONARYVAR
  5
611
102
{ACAD_REACTORS
330
60B
102
}
330
60B
100
DictionaryVariables
280
     0
  1
127
  0
DICTIONARYVAR
  5
614
102
{ACAD_REACTORS
330
60B
102
}
330
60B
100
DictionaryVariables
280
     0
  1
2
  0
DICTIONARY
  5
651
330
5DB
100
AcDbDictionary
280
     1
281
     1
  3
ACAD_XREC_ROUNDTRIP
360
652
  0
DICTIONARY
  5
655
330
5E3
100
AcDbDictionary
280
     1
281
     1
  3
ACAD_XREC_ROUNDTRIP
360
656
  0
DICTIONARY
  5
653
330
5DF
100
AcDbDictionary
280
     1
281
     1
  3
ACAD_XREC_ROUNDTRIP
360
654
  0
DICTIONARY
  5
58B
330
58A
100
AcDbDictionary
280
     1
281
     1
  3
ACAD_XREC_ROUNDTRIP
360
61B
  3
BUMPTILE
360
58D
  3
DIFFUSETILE
360
58C
  3
OPACITYTILE
360
590
  3
REFLECTIONTILE
360
58F
  3
REFRACTIONTILE
360
591
  3
SPECULARTILE
360
58E
  0
DICTIONARY
  5
583
330
582
100
AcDbDictionary
280
     1
281
     1
  3
ACAD_XREC_ROUNDTRIP
360
61A
  3
BUMPTILE
360
585
  3
DIFFUSETILE
360
584
  3
OPACITYTILE
360
588
  3
REFLECTIONTILE
360
587
  3
REFRACTIONTILE
360
589
  3
SPECULARTILE
360
586
  0
DICTIONARY
  5
593
330
592
100
AcDbDictionary
280
     1
281
     1
  3
ACAD_XREC_ROUNDTRIP
360
61C
  3
BUMPTILE
360
595
  3
DIFFUSETILE
360
594
  3
OPACITYTILE
360
598
  3
REFLECTIONTILE
360
597
  3
REFRACTIONTILE
360
599
  3
SPECULARTILE
360
596
  0
DICTIONARY
  5
64F
330
5D9
100
AcDbDictionary
280
     1
281
     1
  3
ACAD_XREC_ROUNDTRIP
360
650
  0
DICTIONARY
  5
616
330
5D5
100
AcDbDictionary
280
     1
281
     1
  3
ACAD_ROUNDTRIP_2008_TABLESTYLE_CELLSTYLEMAP
360
617
  3
ACAD_XREC_ROUNDTRIP
360
64D
  0
DICTIONARY
  5
627
330
5A0
100
AcDbDictionary
280
     1
281
     1
  3
ACAD_XREC_ROUNDTRIP
360
628
  0
DICTIONARY
  5
625
330
59F
100
AcDbDictionary
280
     1
281
     1
  3
ACAD_XREC_ROUNDTRIP
360
626
  0
DICTIONARY
  5
633
330
5A6
100
AcDbDictionary
280
     1
281
     1
  3
ACAD_XREC_ROUNDTRIP
360
634
  0
DICTIONARY
  5
63B
330
5AA
100
AcDbDictionary
280
     1
281
     1
  3
ACAD_XREC_ROUNDTRIP
360
63C
  0
DICTIONARY
  5
62D
330
5A3
100
AcDbDictionary
280
     1
281
     1
  3
ACAD_XREC_ROUNDTRIP
360
62E
  0
DICTIONARY
  5
631
330
5A5
100
AcDbDictionary
280
     1
281
     1
  3
ACAD_XREC_ROUNDTRIP
360
632
  0
DICTIONARY
  5
64B
330
5B2
100
AcDbDictionary
280
     1
281
     1
  3
ACAD_XREC_ROUNDTRIP
360
64C
  0
DICTIONARY
  5
639
330
5A9
100
AcDbDictionary
280
     1
281
     1
  3
ACAD_XREC_ROUNDTRIP
360
63A
  0
DICTIONARY
  5
61D
330
59B
100
AcDbDictionary
280
     1
281
     1
  3
ACAD_XREC_ROUNDTRIP
360
61E
  0
DICTIONARY
  5
61F
330
59C
100
AcDbDictionary
280
     1
281
     1
  3
ACAD_XREC_ROUNDTRIP
360
620
  0
DICTIONARY
  5
621
330
59D
100
AcDbDictionary
280
     1
281
     1
  3
ACAD_XREC_ROUNDTRIP
360
622
  0
DICTIONARY
  5
623
330
59E
100
AcDbDictionary
280
     1
281
     1
  3
ACAD_XREC_ROUNDTRIP
360
624
  0
DICTIONARY
  5
62B
330
5A2
100
AcDbDictionary
280
     1
281
     1
  3
ACAD_XREC_ROUNDTRIP
360
62C
  0
DICTIONARY
  5
647
330
5B0
100
AcDbDictionary
280
     1
281
     1
  3
ACAD_XREC_ROUNDTRIP
360
648
  0
DICTIONARY
  5
637
330
5A8
100
AcDbDictionary
280
     1
281
     1
  3
ACAD_XREC_ROUNDTRIP
360
638
  0
DICTIONARY
  5
649
330
5B1
100
AcDbDictionary
280
     1
281
     1
  3
ACAD_XREC_ROUNDTRIP
360
64A
  0
DICTIONARY
  5
62F
330
5A4
100
AcDbDictionary
280
     1
281
     1
  3
ACAD_XREC_ROUNDTRIP
360
630
  0
DICTIONARY
  5
645
330
5AF
100
AcDbDictionary
280
     1
281
     1
  3
ACAD_XREC_ROUNDTRIP
360
646
  0
DICTIONARY
  5
643
330
5AE
100
AcDbDictionary
280
     1
281
     1
  3
ACAD_XREC_ROUNDTRIP
360
644
  0
DICTIONARY
  5
63D
330
5AB
100
AcDbDictionary
280
     1
281
     1
  3
ACAD_XREC_ROUNDTRIP
360
63E
  0
DICTIONARY
  5
63F
330
5AC
100
AcDbDictionary
280
     1
281
     1
  3
ACAD_XREC_ROUNDTRIP
360
640
  0
DICTIONARY
  5
635
330
5A7
100
AcDbDictionary
280
     1
281
     1
  3
ACAD_XREC_ROUNDTRIP
360
636
  0
DICTIONARY
  5
629
330
5A1
100
AcDbDictionary
280
     1
281
     1
  3
ACAD_XREC_ROUNDTRIP
360
62A
  0
DICTIONARY
  5
641
330
5AD
100
AcDbDictionary
280
     1
281
     1
  3
ACAD_XREC_ROUNDTRIP
360
642
  0
XRECORD
  5
652
102
{ACAD_REACTORS
330
651
102
}
330
651
100
AcDbXrecord
280
     1
102
DISPLAYNAME
  1
Imperial24
102
FLAGS
 90
        0
  0
XRECORD
  5
656
102
{ACAD_REACTORS
330
655
102
}
330
655
100
AcDbXrecord
280
     1
102
SHADEPLOT
 70
     0
102
SHADEPLOTRESLEVEL
 70
     2
102
SHADEPLOTCUSTOMDPI
 70
   300
  0
XRECORD
  5
654
102
{ACAD_REACTORS
330
653
102
}
330
653
100
AcDbXrecord
280
     1
102
SHADEPLOT
 70
     0
102
SHADEPLOTRESLEVEL
 70
     2
102
SHADEPLOTCUSTOMDPI
 70
   300
  0
XRECORD
  5
61B
102
{ACAD_REACTORS
330
58B
102
}
330
58B
100
AcDbXrecord
280
     1
102
MATERIAL
148
0.0
149
0.0
149
0.0
 93
        0
 94
      127
282
     0
 72
     0
 77
     0
171
     0
175
     0
179
     0
273
     0
  0
XRECORD
  5
58D
102
{ACAD_REACTORS
330
58B
102
}
330
58B
100
AcDbXrecord
280
     1
270
     1
271
     1
  0
XRECORD
  5
58C
102
{ACAD_REACTORS
330
58B
102
}
330
58B
100
AcDbXrecord
280
     1
270
     1
271
     1
  0
XRECORD
  5
590
102
{ACAD_REACTORS
330
58B
102
}
330
58B
100
AcDbXrecord
280
     1
270
     1
271
     1
  0
XRECORD
  5
58F
102
{ACAD_REACTORS
330
58B
102
}
330
58B
100
AcDbXrecord
280
     1
270
     1
271
     1
  0
XRECORD
  5
591
102
{ACAD_REACTORS
330
58B
102
}
330
58B
100
AcDbXrecord
280
     1
270
     1
271
     1
  0
XRECORD
  5
58E
102
{ACAD_REACTORS
330
58B
102
}
330
58B
100
AcDbXrecord
280
     1
270
     1
271
     1
  0
XRECORD
  5
61A
102
{ACAD_REACTORS
330
583
102
}
330
583
100
AcDbXrecord
280
     1
102
MATERIAL
148
0.0
149
0.0
149
0.0
 93
        0
 94
      127
282
     0
 72
     0
 77
     0
171
     0
175
     0
179
     0
273
     0
  0
XRECORD
  5
585
102
{ACAD_REACTORS
330
583
102
}
330
583
100
AcDbXrecord
280
     1
270
     1
271
     1
  0
XRECORD
  5
584
102
{ACAD_REACTORS
330
583
102
}
330
583
100
AcDbXrecord
280
     1
270
     1
271
     1
  0
XRECORD
  5
588
102
{ACAD_REACTORS
330
583
102
}
330
583
100
AcDbXrecord
280
     1
270
     1
271
     1
  0
XRECORD
  5
587
102
{ACAD_REACTORS
330
583
102
}
330
583
100
AcDbXrecord
280
     1
270
     1
271
     1
  0
XRECORD
  5
589
102
{ACAD_REACTORS
330
583
102
}
330
583
100
AcDbXrecord
280
     1
270
     1
271
     1
  0
XRECORD
  5
586
102
{ACAD_REACTORS
330
583
102
}
330
583
100
AcDbXrecord
280
     1
270
     1
271
     1
  0
XRECORD
  5
61C
102
{ACAD_REACTORS
330
593
102
}
330
593
100
AcDbXrecord
280
     1
102
MATERIAL
148
0.0
149
0.0
149
0.0
 93
        0
 94
      127
282
     0
 72
     0
 77
     0
171
     0
175
     0
179
     0
273
     0
  0
XRECORD
  5
595
102
{ACAD_REACTORS
330
593
102
}
330
593
100
AcDbXrecord
280
     1
270
     1
271
     1
  0
XRECORD
  5
594
102
{ACAD_REACTORS
330
593
102
}
330
593
100
AcDbXrecord
280
     1
270
     1
271
     1
  0
XRECORD
  5
598
102
{ACAD_REACTORS
330
593
102
}
330
593
100
AcDbXrecord
280
     1
270
     1
271
     1
  0
XRECORD
  5
597
102
{ACAD_REACTORS
330
593
102
}
330
593
100
AcDbXrecord
280
     1
270
     1
271
     1
  0
XRECORD
  5
599
102
{ACAD_REACTORS
330
593
102
}
330
593
100
AcDbXrecord
280
     1
270
     1
271
     1
  0
XRECORD
  5
596
102
{ACAD_REACTORS
330
593
102
}
330
593
100
AcDbXrecord
280
     1
270
     1
271
     1
  0
XRECORD
  5
650
102
{ACAD_REACTORS
330
64F
102
}
330
64F
100
AcDbXrecord
280
     1
102
DISPLAYNAME
  1
Imperial24
102
FLAGS
 90
        0
  0
CELLSTYLEMAP
  5
617
102
{ACAD_REACTORS
330
616
102
}
330
616
100
AcDbCellStyleMap
 90
        3
300
CELLSTYLE
  1
TABLEFORMAT_BEGIN
 90
        5
170
     1
 91
        0
 92
    32768
 62
   257
 93
        1
300
CONTENTFORMAT
  1
CONTENTFORMAT_BEGIN
 90
        0
 91
        0
 92
      512
 93
        0
300

 40
0.0
140
1.0
 94
        5
 62
     0
340
5C6
144
0.25
309
CONTENTFORMAT_END
171
     0
 94
        0
309
TABLEFORMAT_END
  1
CELLSTYLE_BEGIN
 90
        1
 91
        1
300
_TITLE
309
CELLSTYLE_END
300
CELLSTYLE
  1
TABLEFORMAT_BEGIN
 90
        5
170
     1
 91
        0
 92
        0
 62
   257
 93
        1
300
CONTENTFORMAT
  1
CONTENTFORMAT_BEGIN
 90
        0
 91
        0
 92
      512
 93
        0
300

 40
0.0
140
1.0
 94
        5
 62
     0
340
5C6
144
0.18
309
CONTENTFORMAT_END
171
     0
 94
        0
309
TABLEFORMAT_END
  1
CELLSTYLE_BEGIN
 90
        2
 91
        1
300
_HEADER
309
CELLSTYLE_END
300
CELLSTYLE
  1
TABLEFORMAT_BEGIN
 90
        5
170
     1
 91
        0
 92
        0
 62
   257
 93
        1
300
CONTENTFORMAT
  1
CONTENTFORMAT_BEGIN
 90
        0
 91
        0
 92
      512
 93
        0
300

 40
0.0
140
1.0
 94
        2
 62
     0
340
5C6
144
0.18
309
CONTENTFORMAT_END
171
     0
 94
        0
309
TABLEFORMAT_END
  1
CELLSTYLE_BEGIN
 90
        3
 91
        2
300
_DATA
309
CELLSTYLE_END
  0
XRECORD
  5
64D
102
{ACAD_REACTORS
330
616
102
}
330
616
100
AcDbXrecord
280
     1
102
ACAD_ROUNDTRIP_PRE2007_TABLESTYLE
 90
      512
 91
        0
  1

 92
      512
 93
        0
  2

 94
      512
 95
        0
  3

  0
XRECORD
  5
628
102
{ACAD_REACTORS
330
627
102
}
330
627
100
AcDbXrecord
280
     1
102
RTVSPost2010Prop28
280
     1
102
RTVSPost2010PropOp28
 70
     1
102
RTVSPost2010Prop29
280
     1
102
RTVSPost2010PropOp29
 70
     1
102
RTVSPost2010Prop30
280
     0
102
RTVSPost2010PropOp30
 70
     1
102
RTVSPost2010Prop31
280
     0
102
RTVSPost2010PropOp31
 70
     1
102
RTVSPost2010Prop32
280
     0
102
RTVSPost2010PropOp32
 70
     1
102
RTVSPost2010Prop33
280
     0
102
RTVSPost2010PropOp33
 70
     1
102
RTVSPost2010Prop34
280
     0
102
RTVSPost2010PropOp34
 70
     1
102
RTVSPost2010Prop35
280
     0
102
RTVSPost2010PropOp35
 70
     1
102
RTVSPost2010Prop36
280
     0
102
RTVSPost2010PropOp36
 70
     1
102
RTVSPost2010Prop37
 90
       50
102
RTVSPost2010PropOp37
 70
     1
102
RTVSPost2010Prop38
140
0.0
102
RTVSPost2010PropOp38
 70
     1
102
RTVSPost2010Prop39
140
1.0
102
RTVSPost2010PropOp39
 70
     1
102
RTVSPost2010Prop40
 90
        0
102
RTVSPost2010PropOp40
 70
     1
102
RTVSPost2010Prop41ColorIndex
 90
       18
102
RTVSPost2010Prop41ColorRGB
 90
        0
102
RTVSPost2010PropOp41
 70
     1
102
RTVSPost2010Prop42
 90
       50
102
RTVSPost2010PropOp42
 70
     1
102
RTVSPost2010Prop43
 90
        3
102
RTVSPost2010PropOp43
 70
     1
102
RTVSPost2010Prop44ColorIndex
 90
        5
102
RTVSPost2010Prop44ColorRGB
 90
      255
102
RTVSPost2010PropOp44
 70
     1
102
RTVSPost2010Prop45
280
     0
102
RTVSPost2010PropOp45
 70
     1
102
RTVSPost2010Prop46
 90
       50
102
RTVSPost2010PropOp46
 70
     1
102
RTVSPost2010Prop47
 90
       50
102
RTVSPost2010PropOp47
 70
     1
102
RTVSPost2010Prop48
 90
       50
102
RTVSPost2010PropOp48
 70
     1
102
RTVSPost2010Prop49
280
     0
102
RTVSPost2010PropOp49
 70
     1
102
RTVSPost2010Prop50
 90
       50
102
RTVSPost2010PropOp50
 70
     1
102
RTVSPost2010Prop51ColorIndex
 90
      256
102
RTVSPost2010Prop51ColorRGB
 90
-16777216
102
RTVSPost2010PropOp51
 70
     0
102
RTVSPost2010Prop52
140
1.0
102
RTVSPost2010PropOp52
 70
     0
102
RTVSPost2010Prop53
 90
        2
102
RTVSPost2010PropOp53
 70
     1
102
RTVSPost2010Prop54
  1
strokes_ogs.tif
102
RTVSPost2010PropOp54
 70
     1
102
RTVSPost2010Prop55
280
     0
102
RTVSPost2010PropOp55
 70
     1
102
RTVSPost2010Prop56
140
1.0
102
RTVSPost2010PropOp56
 70
     1
102
RTVSPost2010Prop57
140
1.0
102
RTVSPost2010PropOp57
 70
     1
102
RTVSPropertyOp0
 70
     1
102
RTVSPropertyOp1
 70
     1
102
RTVSPropertyOp2
 70
     1
102
RTVSPropertyOp3
 70
     1
102
RTVSPropertyOp4
 70
     1
102
RTVSPropertyOp5
 70
     1
102
RTVSPropertyOp6
 70
     1
102
RTVSPropertyOp7
 70
     1
102
RTVSPropertyOp8
 70
     1
102
RTVSPropertyOp9
 70
     1
102
RTVSPropertyOp10
 70
     1
102
RTVSPropertyOp11
 70
     1
102
RTVSPropertyOp12
 70
     1
102
RTVSPropertyOp13
 70
     1
102
RTVSPropertyOp14
 70
     1
102
RTVSPropertyOp15
 70
     1
102
RTVSPropertyOp16
 70
     1
102
RTVSPropertyOp17
 70
     1
102
RTVSPropertyOp18
 70
     1
102
RTVSPropertyOp19
 70
     1
102
RTVSPropertyOp20
 70
     1
102
RTVSPropertyOp21
 70
     1
102
RTVSPropertyOp22
 70
     1
102
RTVSPropertyOp23
 70
     1
102
RTVSPropertyOp24
 70
     1
102
RTVSPropertyOp25
 70
     1
102
RTVSPropertyOp26
 70
     1
102
RTVSPropertyOp27
 70
     1
102
RTVSPropertyOp28
 70
     1
102
RTVSPropertyOp29
 70
     1
102
RTVSPropertyOp30
 70
     1
102
RTVSPropertyOp31
 70
     1
102
RTVSPropertyOp32
 70
     1
102
RTVSPropertyOp33
 70
     1
102
RTVSPropertyOp34
 70
     1
102
RTVSPropertyOp35
 70
     1
102
RTVSPropertyOp36
 70
     1
102
RTVSPropertyOp37
 70
     1
102
RTVSPropertyOp38
 70
     1
102
RTVSPropertyOp39
 70
     1
102
RTVSPropertyOp40
 70
     1
102
RTVSPropertyOp41
 70
     1
102
RTVSPropertyOp42
 70
     1
102
RTVSPropertyOp43
 70
     1
102
RTVSPropertyOp44
 70
     1
102
RTVSPropertyOp45
 70
     1
102
RTVSPropertyOp46
 70
     1
102
RTVSPropertyOp47
 70
     1
102
RTVSPropertyOp48
 70
     1
102
RTVSPropertyOp49
 70
     1
102
RTVSPropertyOp50
 70
     1
102
RTVSPropertyOp51
 70
     0
102
RTVSPropertyOp52
 70
     0
102
RTVSPropertyOp53
 70
     1
102
RTVSPropertyOp54
 70
     1
102
RTVSPropertyOp55
 70
     1
102
RTVSPropertyOp56
 70
     1
102
RTVSPropertyOp57
 70
     1
102
RTVSPropertyOp58
 70
     1
102
RTVSPropertyOp59
 70
     1
102
RTVSPropertyOp60
 70
     1
102
RTVSPropertyOp61
 70
     1
102
RTVSPropertyOp62
 70
     1
  0
XRECORD
  5
626
102
{ACAD_REACTORS
330
625
102
}
330
625
100
AcDbXrecord
280
     1
102
RTVSPost2010Prop28
280
     0
102
RTVSPost2010PropOp28
 70
     1
102
RTVSPost2010Prop29
280
     1
102
RTVSPost2010PropOp29
 70
     1
102
RTVSPost2010Prop30
280
     1
102
RTVSPost2010PropOp30
 70
     1
102
RTVSPost2010Prop31
280
     0
102
RTVSPost2010PropOp31
 70
     1
102
RTVSPost2010Prop32
280
     0
102
RTVSPost2010PropOp32
 70
     1
102
RTVSPost2010Prop33
280
     0
102
RTVSPost2010PropOp33
 70
     1
102
RTVSPost2010Prop34
280
     0
102
RTVSPost2010PropOp34
 70
     1
102
RTVSPost2010Prop35
280
     0
102
RTVSPost2010PropOp35
 70
     1
102
RTVSPost2010Prop36
280
     0
102
RTVSPost2010PropOp36
 70
     1
102
RTVSPost2010Prop37
 90
       50
102
RTVSPost2010PropOp37
 70
     1
102
RTVSPost2010Prop38
140
0.0
102
RTVSPost2010PropOp38
 70
     1
102
RTVSPost2010Prop39
140
1.0
102
RTVSPost2010PropOp39
 70
     1
102
RTVSPost2010Prop40
 90
        0
102
RTVSPost2010PropOp40
 70
     1
102
RTVSPost2010Prop41ColorIndex
 90
       18
102
RTVSPost2010Prop41ColorRGB
 90
        0
102
RTVSPost2010PropOp41
 70
     1
102
RTVSPost2010Prop42
 90
       50
102
RTVSPost2010PropOp42
 70
     1
102
RTVSPost2010Prop43
 90
        3
102
RTVSPost2010PropOp43
 70
     1
102
RTVSPost2010Prop44ColorIndex
 90
        5
102
RTVSPost2010Prop44ColorRGB
 90
      255
102
RTVSPost2010PropOp44
 70
     1
102
RTVSPost2010Prop45
280
     0
102
RTVSPost2010PropOp45
 70
     1
102
RTVSPost2010Prop46
 90
       50
102
RTVSPost2010PropOp46
 70
     1
102
RTVSPost2010Prop47
 90
       50
102
RTVSPost2010PropOp47
 70
     1
102
RTVSPost2010Prop48
 90
       50
102
RTVSPost2010PropOp48
 70
     1
102
RTVSPost2010Prop49
280
     0
102
RTVSPost2010PropOp49
 70
     1
102
RTVSPost2010Prop50
 90
       50
102
RTVSPost2010PropOp50
 70
     1
102
RTVSPost2010Prop51ColorIndex
 90
      256
102
RTVSPost2010Prop51ColorRGB
 90
-16777216
102
RTVSPost2010PropOp51
 70
     0
102
RTVSPost2010Prop52
140
1.0
102
RTVSPost2010PropOp52
 70
     0
102
RTVSPost2010Prop53
 90
        2
102
RTVSPost2010PropOp53
 70
     1
102
RTVSPost2010Prop54
  1
strokes_ogs.tif
102
RTVSPost2010PropOp54
 70
     1
102
RTVSPost2010Prop55
280
     0
102
RTVSPost2010PropOp55
 70
     1
102
RTVSPost2010Prop56
140
1.0
102
RTVSPost2010PropOp56
 70
     1
102
RTVSPost2010Prop57
140
1.0
102
RTVSPost2010PropOp57
 70
     1
102
RTVSPropertyOp0
 70
     1
102
RTVSPropertyOp1
 70
     1
102
RTVSPropertyOp2
 70
     1
102
RTVSPropertyOp3
 70
     1
102
RTVSPropertyOp4
 70
     1
102
RTVSPropertyOp5
 70
     1
102
RTVSPropertyOp6
 70
     1
102
RTVSPropertyOp7
 70
     1
102
RTVSPropertyOp8
 70
     1
102
RTVSPropertyOp9
 70
     1
102
RTVSPropertyOp10
 70
     1
102
RTVSPropertyOp11
 70
     1
102
RTVSPropertyOp12
 70
     1
102
RTVSPropertyOp13
 70
     1
102
RTVSPropertyOp14
 70
     1
102
RTVSPropertyOp15
 70
     1
102
RTVSPropertyOp16
 70
     1
102
RTVSPropertyOp17
 70
     1
102
RTVSPropertyOp18
 70
     1
102
RTVSPropertyOp19
 70
     1
102
RTVSPropertyOp20
 70
     1
102
RTVSPropertyOp21
 70
     1
102
RTVSPropertyOp22
 70
     1
102
RTVSPropertyOp23
 70
     1
102
RTVSPropertyOp24
 70
     1
102
RTVSPropertyOp25
 70
     1
102
RTVSPropertyOp26
 70
     1
102
RTVSPropertyOp27
 70
     1
102
RTVSPropertyOp28
 70
     1
102
RTVSPropertyOp29
 70
     1
102
RTVSPropertyOp30
 70
     1
102
RTVSPropertyOp31
 70
     1
102
RTVSPropertyOp32
 70
     1
102
RTVSPropertyOp33
 70
     1
102
RTVSPropertyOp34
 70
     1
102
RTVSPropertyOp35
 70
     1
102
RTVSPropertyOp36
 70
     1
102
RTVSPropertyOp37
 70
     1
102
RTVSPropertyOp38
 70
     1
102
RTVSPropertyOp39
 70
     1
102
RTVSPropertyOp40
 70
     1
102
RTVSPropertyOp41
 70
     1
102
RTVSPropertyOp42
 70
     1
102
RTVSPropertyOp43
 70
     1
102
RTVSPropertyOp44
 70
     1
102
RTVSPropertyOp45
 70
     1
102
RTVSPropertyOp46
 70
     1
102
RTVSPropertyOp47
 70
     1
102
RTVSPropertyOp48
 70
     1
102
RTVSPropertyOp49
 70
     1
102
RTVSPropertyOp50
 70
     1
102
RTVSPropertyOp51
 70
     0
102
RTVSPropertyOp52
 70
     0
102
RTVSPropertyOp53
 70
     1
102
RTVSPropertyOp54
 70
     1
102
RTVSPropertyOp55
 70
     1
102
RTVSPropertyOp56
 70
     1
102
RTVSPropertyOp57
 70
     1
102
RTVSPropertyOp58
 70
     1
102
RTVSPropertyOp59
 70
     1
102
RTVSPropertyOp60
 70
     1
102
RTVSPropertyOp61
 70
     1
102
RTVSPropertyOp62
 70
     1
  0
XRECORD
  5
634
102
{ACAD_REACTORS
330
633
102
}
330
633
100
AcDbXrecord
280
     1
102
RTVSPost2010Prop28
280
     0
102
RTVSPost2010PropOp28
 70
     1
102
RTVSPost2010Prop29
280
     1
102
RTVSPost2010PropOp29
 70
     1
102
RTVSPost2010Prop30
280
     1
102
RTVSPost2010PropOp30
 70
     1
102
RTVSPost2010Prop31
280
     0
102
RTVSPost2010PropOp31
 70
     1
102
RTVSPost2010Prop32
280
     0
102
RTVSPost2010PropOp32
 70
     1
102
RTVSPost2010Prop33
280
     0
102
RTVSPost2010PropOp33
 70
     1
102
RTVSPost2010Prop34
280
     0
102
RTVSPost2010PropOp34
 70
     1
102
RTVSPost2010Prop35
280
     0
102
RTVSPost2010PropOp35
 70
     1
102
RTVSPost2010Prop36
280
     0
102
RTVSPost2010PropOp36
 70
     1
102
RTVSPost2010Prop37
 90
       50
102
RTVSPost2010PropOp37
 70
     1
102
RTVSPost2010Prop38
140
0.0
102
RTVSPost2010PropOp38
 70
     1
102
RTVSPost2010Prop39
140
1.0
102
RTVSPost2010PropOp39
 70
     1
102
RTVSPost2010Prop40
 90
        0
102
RTVSPost2010PropOp40
 70
     1
102
RTVSPost2010Prop41ColorIndex
 90
       18
102
RTVSPost2010Prop41ColorRGB
 90
        0
102
RTVSPost2010PropOp41
 70
     1
102
RTVSPost2010Prop42
 90
       50
102
RTVSPost2010PropOp42
 70
     1
102
RTVSPost2010Prop43
 90
        3
102
RTVSPost2010PropOp43
 70
     1
102
RTVSPost2010Prop44ColorIndex
 90
        5
102
RTVSPost2010Prop44ColorRGB
 90
      255
102
RTVSPost2010PropOp44
 70
     1
102
RTVSPost2010Prop45
280
     0
102
RTVSPost2010PropOp45
 70
     1
102
RTVSPost2010Prop46
 90
       50
102
RTVSPost2010PropOp46
 70
     1
102
RTVSPost2010Prop47
 90
       50
102
RTVSPost2010PropOp47
 70
     1
102
RTVSPost2010Prop48
 90
       50
102
RTVSPost2010PropOp48
 70
     1
102
RTVSPost2010Prop49
280
     0
102
RTVSPost2010PropOp49
 70
     1
102
RTVSPost2010Prop50
 90
       50
102
RTVSPost2010PropOp50
 70
     1
102
RTVSPost2010Prop51ColorIndex
 90
      256
102
RTVSPost2010Prop51ColorRGB
 90
-16777216
102
RTVSPost2010PropOp51
 70
     0
102
RTVSPost2010Prop52
140
1.0
102
RTVSPost2010PropOp52
 70
     0
102
RTVSPost2010Prop53
 90
        2
102
RTVSPost2010PropOp53
 70
     1
102
RTVSPost2010Prop54
  1
strokes_ogs.tif
102
RTVSPost2010PropOp54
 70
     1
102
RTVSPost2010Prop55
280
     0
102
RTVSPost2010PropOp55
 70
     1
102
RTVSPost2010Prop56
140
1.0
102
RTVSPost2010PropOp56
 70
     1
102
RTVSPost2010Prop57
140
1.0
102
RTVSPost2010PropOp57
 70
     1
102
RTVSPropertyOp0
 70
     1
102
RTVSPropertyOp1
 70
     1
102
RTVSPropertyOp2
 70
     1
102
RTVSPropertyOp3
 70
     1
102
RTVSPropertyOp4
 70
     1
102
RTVSPropertyOp5
 70
     1
102
RTVSPropertyOp6
 70
     1
102
RTVSPropertyOp7
 70
     1
102
RTVSPropertyOp8
 70
     1
102
RTVSPropertyOp9
 70
     1
102
RTVSPropertyOp10
 70
     1
102
RTVSPropertyOp11
 70
     1
102
RTVSPropertyOp12
 70
     1
102
RTVSPropertyOp13
 70
     1
102
RTVSPropertyOp14
 70
     1
102
RTVSPropertyOp15
 70
     1
102
RTVSPropertyOp16
 70
     1
102
RTVSPropertyOp17
 70
     1
102
RTVSPropertyOp18
 70
     1
102
RTVSPropertyOp19
 70
     1
102
RTVSPropertyOp20
 70
     1
102
RTVSPropertyOp21
 70
     1
102
RTVSPropertyOp22
 70
     1
102
RTVSPropertyOp23
 70
     1
102
RTVSPropertyOp24
 70
     1
102
RTVSPropertyOp25
 70
     1
102
RTVSPropertyOp26
 70
     1
102
RTVSPropertyOp27
 70
     1
102
RTVSPropertyOp28
 70
     1
102
RTVSPropertyOp29
 70
     1
102
RTVSPropertyOp30
 70
     1
102
RTVSPropertyOp31
 70
     1
102
RTVSPropertyOp32
 70
     1
102
RTVSPropertyOp33
 70
     1
102
RTVSPropertyOp34
 70
     1
102
RTVSPropertyOp35
 70
     1
102
RTVSPropertyOp36
 70
     1
102
RTVSPropertyOp37
 70
     1
102
RTVSPropertyOp38
 70
     1
102
RTVSPropertyOp39
 70
     1
102
RTVSPropertyOp40
 70
     1
102
RTVSPropertyOp41
 70
     1
102
RTVSPropertyOp42
 70
     1
102
RTVSPropertyOp43
 70
     1
102
RTVSPropertyOp44
 70
     1
102
RTVSPropertyOp45
 70
     1
102
RTVSPropertyOp46
 70
     1
102
RTVSPropertyOp47
 70
     1
102
RTVSPropertyOp48
 70
     1
102
RTVSPropertyOp49
 70
     1
102
RTVSPropertyOp50
 70
     1
102
RTVSPropertyOp51
 70
     0
102
RTVSPropertyOp52
 70
     0
102
RTVSPropertyOp53
 70
     1
102
RTVSPropertyOp54
 70
     1
102
RTVSPropertyOp55
 70
     1
102
RTVSPropertyOp56
 70
     1
102
RTVSPropertyOp57
 70
     1
102
RTVSPropertyOp58
 70
     1
102
RTVSPropertyOp59
 70
     1
102
RTVSPropertyOp60
 70
     1
102
RTVSPropertyOp61
 70
     1
102
RTVSPropertyOp62
 70
     1
  0
XRECORD
  5
63C
102
{ACAD_REACTORS
330
63B
102
}
330
63B
100
AcDbXrecord
280
     1
102
RTVSPost2010Prop28
280
     0
102
RTVSPost2010PropOp28
 70
     1
102
RTVSPost2010Prop29
280
     1
102
RTVSPost2010PropOp29
 70
     1
102
RTVSPost2010Prop30
280
     1
102
RTVSPost2010PropOp30
 70
     1
102
RTVSPost2010Prop31
280
     0
102
RTVSPost2010PropOp31
 70
     1
102
RTVSPost2010Prop32
280
     0
102
RTVSPost2010PropOp32
 70
     1
102
RTVSPost2010Prop33
280
     0
102
RTVSPost2010PropOp33
 70
     1
102
RTVSPost2010Prop34
280
     0
102
RTVSPost2010PropOp34
 70
     1
102
RTVSPost2010Prop35
280
     0
102
RTVSPost2010PropOp35
 70
     1
102
RTVSPost2010Prop36
280
     0
102
RTVSPost2010PropOp36
 70
     1
102
RTVSPost2010Prop37
 90
       50
102
RTVSPost2010PropOp37
 70
     1
102
RTVSPost2010Prop38
140
0.0
102
RTVSPost2010PropOp38
 70
     1
102
RTVSPost2010Prop39
140
1.0
102
RTVSPost2010PropOp39
 70
     1
102
RTVSPost2010Prop40
 90
        0
102
RTVSPost2010PropOp40
 70
     1
102
RTVSPost2010Prop41ColorIndex
 90
       18
102
RTVSPost2010Prop41ColorRGB
 90
        0
102
RTVSPost2010PropOp41
 70
     1
102
RTVSPost2010Prop42
 90
       50
102
RTVSPost2010PropOp42
 70
     1
102
RTVSPost2010Prop43
 90
        3
102
RTVSPost2010PropOp43
 70
     1
102
RTVSPost2010Prop44ColorIndex
 90
        5
102
RTVSPost2010Prop44ColorRGB
 90
      255
102
RTVSPost2010PropOp44
 70
     1
102
RTVSPost2010Prop45
280
     0
102
RTVSPost2010PropOp45
 70
     1
102
RTVSPost2010Prop46
 90
       50
102
RTVSPost2010PropOp46
 70
     1
102
RTVSPost2010Prop47
 90
       50
102
RTVSPost2010PropOp47
 70
     1
102
RTVSPost2010Prop48
 90
       50
102
RTVSPost2010PropOp48
 70
     1
102
RTVSPost2010Prop49
280
     0
102
RTVSPost2010PropOp49
 70
     1
102
RTVSPost2010Prop50
 90
       50
102
RTVSPost2010PropOp50
 70
     1
102
RTVSPost2010Prop51ColorIndex
 90
      256
102
RTVSPost2010Prop51ColorRGB
 90
-16777216
102
RTVSPost2010PropOp51
 70
     0
102
RTVSPost2010Prop52
140
1.0
102
RTVSPost2010PropOp52
 70
     0
102
RTVSPost2010Prop53
 90
        2
102
RTVSPost2010PropOp53
 70
     1
102
RTVSPost2010Prop54
  1
strokes_ogs.tif
102
RTVSPost2010PropOp54
 70
     1
102
RTVSPost2010Prop55
280
     0
102
RTVSPost2010PropOp55
 70
     1
102
RTVSPost2010Prop56
140
1.0
102
RTVSPost2010PropOp56
 70
     1
102
RTVSPost2010Prop57
140
1.0
102
RTVSPost2010PropOp57
 70
     1
102
RTVSPropertyOp0
 70
     1
102
RTVSPropertyOp1
 70
     1
102
RTVSPropertyOp2
 70
     1
102
RTVSPropertyOp3
 70
     1
102
RTVSPropertyOp4
 70
     1
102
RTVSPropertyOp5
 70
     1
102
RTVSPropertyOp6
 70
     1
102
RTVSPropertyOp7
 70
     1
102
RTVSPropertyOp8
 70
     1
102
RTVSPropertyOp9
 70
     1
102
RTVSPropertyOp10
 70
     1
102
RTVSPropertyOp11
 70
     1
102
RTVSPropertyOp12
 70
     1
102
RTVSPropertyOp13
 70
     1
102
RTVSPropertyOp14
 70
     1
102
RTVSPropertyOp15
 70
     1
102
RTVSPropertyOp16
 70
     1
102
RTVSPropertyOp17
 70
     1
102
RTVSPropertyOp18
 70
     1
102
RTVSPropertyOp19
 70
     1
102
RTVSPropertyOp20
 70
     1
102
RTVSPropertyOp21
 70
     1
102
RTVSPropertyOp22
 70
     1
102
RTVSPropertyOp23
 70
     1
102
RTVSPropertyOp24
 70
     1
102
RTVSPropertyOp25
 70
     1
102
RTVSPropertyOp26
 70
     1
102
RTVSPropertyOp27
 70
     1
102
RTVSPropertyOp28
 70
     1
102
RTVSPropertyOp29
 70
     1
102
RTVSPropertyOp30
 70
     1
102
RTVSPropertyOp31
 70
     1
102
RTVSPropertyOp32
 70
     1
102
RTVSPropertyOp33
 70
     1
102
RTVSPropertyOp34
 70
     1
102
RTVSPropertyOp35
 70
     1
102
RTVSPropertyOp36
 70
     1
102
RTVSPropertyOp37
 70
     1
102
RTVSPropertyOp38
 70
     1
102
RTVSPropertyOp39
 70
     1
102
RTVSPropertyOp40
 70
     1
102
RTVSPropertyOp41
 70
     1
102
RTVSPropertyOp42
 70
     1
102
RTVSPropertyOp43
 70
     1
102
RTVSPropertyOp44
 70
     1
102
RTVSPropertyOp45
 70
     1
102
RTVSPropertyOp46
 70
     1
102
RTVSPropertyOp47
 70
     1
102
RTVSPropertyOp48
 70
     1
102
RTVSPropertyOp49
 70
     1
102
RTVSPropertyOp50
 70
     1
102
RTVSPropertyOp51
 70
     0
102
RTVSPropertyOp52
 70
     0
102
RTVSPropertyOp53
 70
     1
102
RTVSPropertyOp54
 70
     1
102
RTVSPropertyOp55
 70
     1
102
RTVSPropertyOp56
 70
     1
102
RTVSPropertyOp57
 70
     1
102
RTVSPropertyOp58
 70
     1
102
RTVSPropertyOp59
 70
     1
102
RTVSPropertyOp60
 70
     1
102
RTVSPropertyOp61
 70
     1
102
RTVSPropertyOp62
 70
     1
  0
XRECORD
  5
62E
102
{ACAD_REACTORS
330
62D
102
}
330
62D
100
AcDbXrecord
280
     1
102
RTVSPost2010Prop28
280
     0
102
RTVSPost2010PropOp28
 70
     1
102
RTVSPost2010Prop29
280
     1
102
RTVSPost2010PropOp29
 70
     1
102
RTVSPost2010Prop30
280
     1
102
RTVSPost2010PropOp30
 70
     1
102
RTVSPost2010Prop31
280
     0
102
RTVSPost2010PropOp31
 70
     1
102
RTVSPost2010Prop32
280
     0
102
RTVSPost2010PropOp32
 70
     1
102
RTVSPost2010Prop33
280
     0
102
RTVSPost2010PropOp33
 70
     1
102
RTVSPost2010Prop34
280
     0
102
RTVSPost2010PropOp34
 70
     1
102
RTVSPost2010Prop35
280
     0
102
RTVSPost2010PropOp35
 70
     1
102
RTVSPost2010Prop36
280
     0
102
RTVSPost2010PropOp36
 70
     1
102
RTVSPost2010Prop37
 90
       50
102
RTVSPost2010PropOp37
 70
     1
102
RTVSPost2010Prop38
140
0.0
102
RTVSPost2010PropOp38
 70
     1
102
RTVSPost2010Prop39
140
1.0
102
RTVSPost2010PropOp39
 70
     1
102
RTVSPost2010Prop40
 90
        0
102
RTVSPost2010PropOp40
 70
     1
102
RTVSPost2010Prop41ColorIndex
 90
       18
102
RTVSPost2010Prop41ColorRGB
 90
        0
102
RTVSPost2010PropOp41
 70
     1
102
RTVSPost2010Prop42
 90
       50
102
RTVSPost2010PropOp42
 70
     1
102
RTVSPost2010Prop43
 90
        3
102
RTVSPost2010PropOp43
 70
     1
102
RTVSPost2010Prop44ColorIndex
 90
        5
102
RTVSPost2010Prop44ColorRGB
 90
      255
102
RTVSPost2010PropOp44
 70
     1
102
RTVSPost2010Prop45
280
     0
102
RTVSPost2010PropOp45
 70
     1
102
RTVSPost2010Prop46
 90
       50
102
RTVSPost2010PropOp46
 70
     1
102
RTVSPost2010Prop47
 90
       50
102
RTVSPost2010PropOp47
 70
     1
102
RTVSPost2010Prop48
 90
       50
102
RTVSPost2010PropOp48
 70
     1
102
RTVSPost2010Prop49
280
     0
102
RTVSPost2010PropOp49
 70
     1
102
RTVSPost2010Prop50
 90
       50
102
RTVSPost2010PropOp50
 70
     1
102
RTVSPost2010Prop51ColorIndex
 90
      256
102
RTVSPost2010Prop51ColorRGB
 90
-16777216
102
RTVSPost2010PropOp51
 70
     0
102
RTVSPost2010Prop52
140
1.0
102
RTVSPost2010PropOp52
 70
     0
102
RTVSPost2010Prop53
 90
        2
102
RTVSPost2010PropOp53
 70
     1
102
RTVSPost2010Prop54
  1
strokes_ogs.tif
102
RTVSPost2010PropOp54
 70
     1
102
RTVSPost2010Prop55
280
     0
102
RTVSPost2010PropOp55
 70
     1
102
RTVSPost2010Prop56
140
1.0
102
RTVSPost2010PropOp56
 70
     1
102
RTVSPost2010Prop57
140
1.0
102
RTVSPost2010PropOp57
 70
     1
102
RTVSPropertyOp0
 70
     1
102
RTVSPropertyOp1
 70
     1
102
RTVSPropertyOp2
 70
     1
102
RTVSPropertyOp3
 70
     1
102
RTVSPropertyOp4
 70
     1
102
RTVSPropertyOp5
 70
     1
102
RTVSPropertyOp6
 70
     1
102
RTVSPropertyOp7
 70
     1
102
RTVSPropertyOp8
 70
     1
102
RTVSPropertyOp9
 70
     1
102
RTVSPropertyOp10
 70
     1
102
RTVSPropertyOp11
 70
     1
102
RTVSPropertyOp12
 70
     1
102
RTVSPropertyOp13
 70
     1
102
RTVSPropertyOp14
 70
     1
102
RTVSPropertyOp15
 70
     1
102
RTVSPropertyOp16
 70
     1
102
RTVSPropertyOp17
 70
     1
102
RTVSPropertyOp18
 70
     1
102
RTVSPropertyOp19
 70
     1
102
RTVSPropertyOp20
 70
     1
102
RTVSPropertyOp21
 70
     1
102
RTVSPropertyOp22
 70
     1
102
RTVSPropertyOp23
 70
     1
102
RTVSPropertyOp24
 70
     1
102
RTVSPropertyOp25
 70
     1
102
RTVSPropertyOp26
 70
     1
102
RTVSPropertyOp27
 70
     1
102
RTVSPropertyOp28
 70
     1
102
RTVSPropertyOp29
 70
     1
102
RTVSPropertyOp30
 70
     1
102
RTVSPropertyOp31
 70
     1
102
RTVSPropertyOp32
 70
     1
102
RTVSPropertyOp33
 70
     1
102
RTVSPropertyOp34
 70
     1
102
RTVSPropertyOp35
 70
     1
102
RTVSPropertyOp36
 70
     1
102
RTVSPropertyOp37
 70
     1
102
RTVSPropertyOp38
 70
     1
102
RTVSPropertyOp39
 70
     1
102
RTVSPropertyOp40
 70
     1
102
RTVSPropertyOp41
 70
     1
102
RTVSPropertyOp42
 70
     1
102
RTVSPropertyOp43
 70
     1
102
RTVSPropertyOp44
 70
     1
102
RTVSPropertyOp45
 70
     1
102
RTVSPropertyOp46
 70
     1
102
RTVSPropertyOp47
 70
     1
102
RTVSPropertyOp48
 70
     1
102
RTVSPropertyOp49
 70
     1
102
RTVSPropertyOp50
 70
     1
102
RTVSPropertyOp51
 70
     0
102
RTVSPropertyOp52
 70
     0
102
RTVSPropertyOp53
 70
     1
102
RTVSPropertyOp54
 70
     1
102
RTVSPropertyOp55
 70
     1
102
RTVSPropertyOp56
 70
     1
102
RTVSPropertyOp57
 70
     1
102
RTVSPropertyOp58
 70
     1
102
RTVSPropertyOp59
 70
     1
102
RTVSPropertyOp60
 70
     1
102
RTVSPropertyOp61
 70
     1
102
RTVSPropertyOp62
 70
     1
  0
XRECORD
  5
632
102
{ACAD_REACTORS
330
631
102
}
330
631
100
AcDbXrecord
280
     1
102
RTVSPost2010Prop28
280
     0
102
RTVSPost2010PropOp28
 70
     1
102
RTVSPost2010Prop29
280
     1
102
RTVSPost2010PropOp29
 70
     1
102
RTVSPost2010Prop30
280
     1
102
RTVSPost2010PropOp30
 70
     1
102
RTVSPost2010Prop31
280
     0
102
RTVSPost2010PropOp31
 70
     1
102
RTVSPost2010Prop32
280
     0
102
RTVSPost2010PropOp32
 70
     1
102
RTVSPost2010Prop33
280
     0
102
RTVSPost2010PropOp33
 70
     1
102
RTVSPost2010Prop34
280
     0
102
RTVSPost2010PropOp34
 70
     1
102
RTVSPost2010Prop35
280
     0
102
RTVSPost2010PropOp35
 70
     1
102
RTVSPost2010Prop36
280
     0
102
RTVSPost2010PropOp36
 70
     1
102
RTVSPost2010Prop37
 90
       50
102
RTVSPost2010PropOp37
 70
     1
102
RTVSPost2010Prop38
140
0.0
102
RTVSPost2010PropOp38
 70
     1
102
RTVSPost2010Prop39
140
1.0
102
RTVSPost2010PropOp39
 70
     1
102
RTVSPost2010Prop40
 90
        0
102
RTVSPost2010PropOp40
 70
     1
102
RTVSPost2010Prop41ColorIndex
 90
       18
102
RTVSPost2010Prop41ColorRGB
 90
        0
102
RTVSPost2010PropOp41
 70
     1
102
RTVSPost2010Prop42
 90
       50
102
RTVSPost2010PropOp42
 70
     1
102
RTVSPost2010Prop43
 90
        3
102
RTVSPost2010PropOp43
 70
     1
102
RTVSPost2010Prop44ColorIndex
 90
        5
102
RTVSPost2010Prop44ColorRGB
 90
      255
102
RTVSPost2010PropOp44
 70
     1
102
RTVSPost2010Prop45
280
     0
102
RTVSPost2010PropOp45
 70
     1
102
RTVSPost2010Prop46
 90
       50
102
RTVSPost2010PropOp46
 70
     1
102
RTVSPost2010Prop47
 90
       50
102
RTVSPost2010PropOp47
 70
     1
102
RTVSPost2010Prop48
 90
       50
102
RTVSPost2010PropOp48
 70
     1
102
RTVSPost2010Prop49
280
     0
102
RTVSPost2010PropOp49
 70
     1
102
RTVSPost2010Prop50
 90
       50
102
RTVSPost2010PropOp50
 70
     1
102
RTVSPost2010Prop51ColorIndex
 90
      256
102
RTVSPost2010Prop51ColorRGB
 90
-16777216
102
RTVSPost2010PropOp51
 70
     0
102
RTVSPost2010Prop52
140
1.0
102
RTVSPost2010PropOp52
 70
     0
102
RTVSPost2010Prop53
 90
        2
102
RTVSPost2010PropOp53
 70
     1
102
RTVSPost2010Prop54
  1
strokes_ogs.tif
102
RTVSPost2010PropOp54
 70
     1
102
RTVSPost2010Prop55
280
     0
102
RTVSPost2010PropOp55
 70
     1
102
RTVSPost2010Prop56
140
1.0
102
RTVSPost2010PropOp56
 70
     1
102
RTVSPost2010Prop57
140
1.0
102
RTVSPost2010PropOp57
 70
     1
102
RTVSPropertyOp0
 70
     1
102
RTVSPropertyOp1
 70
     1
102
RTVSPropertyOp2
 70
     1
102
RTVSPropertyOp3
 70
     1
102
RTVSPropertyOp4
 70
     1
102
RTVSPropertyOp5
 70
     1
102
RTVSPropertyOp6
 70
     1
102
RTVSPropertyOp7
 70
     1
102
RTVSPropertyOp8
 70
     1
102
RTVSPropertyOp9
 70
     1
102
RTVSPropertyOp10
 70
     1
102
RTVSPropertyOp11
 70
     1
102
RTVSPropertyOp12
 70
     1
102
RTVSPropertyOp13
 70
     1
102
RTVSPropertyOp14
 70
     1
102
RTVSPropertyOp15
 70
     1
102
RTVSPropertyOp16
 70
     1
102
RTVSPropertyOp17
 70
     1
102
RTVSPropertyOp18
 70
     1
102
RTVSPropertyOp19
 70
     1
102
RTVSPropertyOp20
 70
     1
102
RTVSPropertyOp21
 70
     1
102
RTVSPropertyOp22
 70
     1
102
RTVSPropertyOp23
 70
     1
102
RTVSPropertyOp24
 70
     1
102
RTVSPropertyOp25
 70
     1
102
RTVSPropertyOp26
 70
     1
102
RTVSPropertyOp27
 70
     1
102
RTVSPropertyOp28
 70
     1
102
RTVSPropertyOp29
 70
     1
102
RTVSPropertyOp30
 70
     1
102
RTVSPropertyOp31
 70
     1
102
RTVSPropertyOp32
 70
     1
102
RTVSPropertyOp33
 70
     1
102
RTVSPropertyOp34
 70
     1
102
RTVSPropertyOp35
 70
     1
102
RTVSPropertyOp36
 70
     1
102
RTVSPropertyOp37
 70
     1
102
RTVSPropertyOp38
 70
     1
102
RTVSPropertyOp39
 70
     1
102
RTVSPropertyOp40
 70
     1
102
RTVSPropertyOp41
 70
     1
102
RTVSPropertyOp42
 70
     1
102
RTVSPropertyOp43
 70
     1
102
RTVSPropertyOp44
 70
     1
102
RTVSPropertyOp45
 70
     1
102
RTVSPropertyOp46
 70
     1
102
RTVSPropertyOp47
 70
     1
102
RTVSPropertyOp48
 70
     1
102
RTVSPropertyOp49
 70
     1
102
RTVSPropertyOp50
 70
     1
102
RTVSPropertyOp51
 70
     0
102
RTVSPropertyOp52
 70
     0
102
RTVSPropertyOp53
 70
     1
102
RTVSPropertyOp54
 70
     1
102
RTVSPropertyOp55
 70
     1
102
RTVSPropertyOp56
 70
     1
102
RTVSPropertyOp57
 70
     1
102
RTVSPropertyOp58
 70
     1
102
RTVSPropertyOp59
 70
     1
102
RTVSPropertyOp60
 70
     1
102
RTVSPropertyOp61
 70
     1
102
RTVSPropertyOp62
 70
     1
  0
XRECORD
  5
64C
102
{ACAD_REACTORS
330
64B
102
}
330
64B
100
AcDbXrecord
280
     1
102
RTVSPost2010Prop28
280
     0
102
RTVSPost2010PropOp28
 70
     1
102
RTVSPost2010Prop29
280
     1
102
RTVSPost2010PropOp29
 70
     1
102
RTVSPost2010Prop30
280
     1
102
RTVSPost2010PropOp30
 70
     1
102
RTVSPost2010Prop31
280
     0
102
RTVSPost2010PropOp31
 70
     1
102
RTVSPost2010Prop32
280
     0
102
RTVSPost2010PropOp32
 70
     1
102
RTVSPost2010Prop33
280
     0
102
RTVSPost2010PropOp33
 70
     1
102
RTVSPost2010Prop34
280
     0
102
RTVSPost2010PropOp34
 70
     1
102
RTVSPost2010Prop35
280
     0
102
RTVSPost2010PropOp35
 70
     1
102
RTVSPost2010Prop36
280
     0
102
RTVSPost2010PropOp36
 70
     1
102
RTVSPost2010Prop37
 90
       50
102
RTVSPost2010PropOp37
 70
     0
102
RTVSPost2010Prop38
140
0.0
102
RTVSPost2010PropOp38
 70
     0
102
RTVSPost2010Prop39
140
1.0
102
RTVSPost2010PropOp39
 70
     0
102
RTVSPost2010Prop40
 90
        0
102
RTVSPost2010PropOp40
 70
     0
102
RTVSPost2010Prop41ColorIndex
 90
       18
102
RTVSPost2010Prop41ColorRGB
 90
        0
102
RTVSPost2010PropOp41
 70
     0
102
RTVSPost2010Prop42
 90
       50
102
RTVSPost2010PropOp42
 70
     0
102
RTVSPost2010Prop43
 90
        3
102
RTVSPost2010PropOp43
 70
     0
102
RTVSPost2010Prop44ColorIndex
 90
        5
102
RTVSPost2010Prop44ColorRGB
 90
      255
102
RTVSPost2010PropOp44
 70
     0
102
RTVSPost2010Prop45
280
     0
102
RTVSPost2010PropOp45
 70
     1
102
RTVSPost2010Prop46
 90
       50
102
RTVSPost2010PropOp46
 70
     0
102
RTVSPost2010Prop47
 90
       50
102
RTVSPost2010PropOp47
 70
     0
102
RTVSPost2010Prop48
 90
       50
102
RTVSPost2010PropOp48
 70
     0
102
RTVSPost2010Prop49
280
     0
102
RTVSPost2010PropOp49
 70
     1
102
RTVSPost2010Prop50
 90
       50
102
RTVSPost2010PropOp50
 70
     0
102
RTVSPost2010Prop51ColorIndex
 90
      256
102
RTVSPost2010Prop51ColorRGB
 90
-16777216
102
RTVSPost2010PropOp51
 70
     0
102
RTVSPost2010Prop52
140
1.0
102
RTVSPost2010PropOp52
 70
     0
102
RTVSPost2010Prop53
 90
        2
102
RTVSPost2010PropOp53
 70
     0
102
RTVSPost2010Prop54
  1
strokes_ogs.tif
102
RTVSPost2010PropOp54
 70
     0
102
RTVSPost2010Prop55
280
     0
102
RTVSPost2010PropOp55
 70
     1
102
RTVSPost2010Prop56
140
1.0
102
RTVSPost2010PropOp56
 70
     0
102
RTVSPost2010Prop57
140
1.0
102
RTVSPost2010PropOp57
 70
     0
102
RTVSPropertyOp0
 70
     0
102
RTVSPropertyOp1
 70
     0
102
RTVSPropertyOp2
 70
     0
102
RTVSPropertyOp3
 70
     0
102
RTVSPropertyOp4
 70
     0
102
RTVSPropertyOp5
 70
     0
102
RTVSPropertyOp6
 70
     0
102
RTVSPropertyOp7
 70
     0
102
RTVSPropertyOp8
 70
     0
102
RTVSPropertyOp9
 70
     0
102
RTVSPropertyOp10
 70
     0
102
RTVSPropertyOp11
 70
     0
102
RTVSPropertyOp12
 70
     0
102
RTVSPropertyOp13
 70
     0
102
RTVSPropertyOp14
 70
     2
102
RTVSPropertyOp15
 70
     0
102
RTVSPropertyOp16
 70
     0
102
RTVSPropertyOp17
 70
     0
102
RTVSPropertyOp18
 70
     0
102
RTVSPropertyOp19
 70
     0
102
RTVSPropertyOp20
 70
     0
102
RTVSPropertyOp21
 70
     0
102
RTVSPropertyOp22
 70
     0
102
RTVSPropertyOp23
 70
     0
102
RTVSPropertyOp24
 70
     0
102
RTVSPropertyOp25
 70
     0
102
RTVSPropertyOp26
 70
     0
102
RTVSPropertyOp27
 70
     0
102
RTVSPropertyOp28
 70
     1
102
RTVSPropertyOp29
 70
     1
102
RTVSPropertyOp30
 70
     1
102
RTVSPropertyOp31
 70
     1
102
RTVSPropertyOp32
 70
     1
102
RTVSPropertyOp33
 70
     1
102
RTVSPropertyOp34
 70
     1
102
RTVSPropertyOp35
 70
     1
102
RTVSPropertyOp36
 70
     1
102
RTVSPropertyOp37
 70
     0
102
RTVSPropertyOp38
 70
     0
102
RTVSPropertyOp39
 70
     0
102
RTVSPropertyOp40
 70
     0
102
RTVSPropertyOp41
 70
     0
102
RTVSPropertyOp42
 70
     0
102
RTVSPropertyOp43
 70
     0
102
RTVSPropertyOp44
 70
     0
102
RTVSPropertyOp45
 70
     1
102
RTVSPropertyOp46
 70
     0
102
RTVSPropertyOp47
 70
     0
102
RTVSPropertyOp48
 70
     0
102
RTVSPropertyOp49
 70
     1
102
RTVSPropertyOp50
 70
     0
102
RTVSPropertyOp51
 70
     0
102
RTVSPropertyOp52
 70
     0
102
RTVSPropertyOp53
 70
     0
102
RTVSPropertyOp54
 70
     0
102
RTVSPropertyOp55
 70
     1
102
RTVSPropertyOp56
 70
     0
102
RTVSPropertyOp57
 70
     0
102
RTVSPropertyOp58
 70
     0
102
RTVSPropertyOp59
 70
     0
102
RTVSPropertyOp60
 70
     0
102
RTVSPropertyOp61
 70
     0
102
RTVSPropertyOp62
 70
     0
  0
XRECORD
  5
63A
102
{ACAD_REACTORS
330
639
102
}
330
639
100
AcDbXrecord
280
     1
102
RTVSPost2010Prop28
280
     0
102
RTVSPost2010PropOp28
 70
     1
102
RTVSPost2010Prop29
280
     1
102
RTVSPost2010PropOp29
 70
     1
102
RTVSPost2010Prop30
280
     1
102
RTVSPost2010PropOp30
 70
     1
102
RTVSPost2010Prop31
280
     0
102
RTVSPost2010PropOp31
 70
     1
102
RTVSPost2010Prop32
280
     0
102
RTVSPost2010PropOp32
 70
     1
102
RTVSPost2010Prop33
280
     0
102
RTVSPost2010PropOp33
 70
     1
102
RTVSPost2010Prop34
280
     0
102
RTVSPost2010PropOp34
 70
     1
102
RTVSPost2010Prop35
280
     0
102
RTVSPost2010PropOp35
 70
     1
102
RTVSPost2010Prop36
280
     0
102
RTVSPost2010PropOp36
 70
     1
102
RTVSPost2010Prop37
 90
       50
102
RTVSPost2010PropOp37
 70
     1
102
RTVSPost2010Prop38
140
0.0
102
RTVSPost2010PropOp38
 70
     1
102
RTVSPost2010Prop39
140
1.0
102
RTVSPost2010PropOp39
 70
     1
102
RTVSPost2010Prop40
 90
        0
102
RTVSPost2010PropOp40
 70
     1
102
RTVSPost2010Prop41ColorIndex
 90
       18
102
RTVSPost2010Prop41ColorRGB
 90
        0
102
RTVSPost2010PropOp41
 70
     1
102
RTVSPost2010Prop42
 90
       50
102
RTVSPost2010PropOp42
 70
     1
102
RTVSPost2010Prop43
 90
        3
102
RTVSPost2010PropOp43
 70
     1
102
RTVSPost2010Prop44ColorIndex
 90
        5
102
RTVSPost2010Prop44ColorRGB
 90
      255
102
RTVSPost2010PropOp44
 70
     1
102
RTVSPost2010Prop45
280
     0
102
RTVSPost2010PropOp45
 70
     1
102
RTVSPost2010Prop46
 90
       50
102
RTVSPost2010PropOp46
 70
     1
102
RTVSPost2010Prop47
 90
       50
102
RTVSPost2010PropOp47
 70
     1
102
RTVSPost2010Prop48
 90
       50
102
RTVSPost2010PropOp48
 70
     1
102
RTVSPost2010Prop49
280
     0
102
RTVSPost2010PropOp49
 70
     1
102
RTVSPost2010Prop50
 90
       50
102
RTVSPost2010PropOp50
 70
     1
102
RTVSPost2010Prop51ColorIndex
 90
      256
102
RTVSPost2010Prop51ColorRGB
 90
-16777216
102
RTVSPost2010PropOp51
 70
     0
102
RTVSPost2010Prop52
140
1.0
102
RTVSPost2010PropOp52
 70
     0
102
RTVSPost2010Prop53
 90
        2
102
RTVSPost2010PropOp53
 70
     1
102
RTVSPost2010Prop54
  1
strokes_ogs.tif
102
RTVSPost2010PropOp54
 70
     1
102
RTVSPost2010Prop55
280
     0
102
RTVSPost2010PropOp55
 70
     1
102
RTVSPost2010Prop56
140
1.0
102
RTVSPost2010PropOp56
 70
     1
102
RTVSPost2010Prop57
140
1.0
102
RTVSPost2010PropOp57
 70
     1
102
RTVSPropertyOp0
 70
     1
102
RTVSPropertyOp1
 70
     1
102
RTVSPropertyOp2
 70
     1
102
RTVSPropertyOp3
 70
     1
102
RTVSPropertyOp4
 70
     1
102
RTVSPropertyOp5
 70
     1
102
RTVSPropertyOp6
 70
     1
102
RTVSPropertyOp7
 70
     1
102
RTVSPropertyOp8
 70
     1
102
RTVSPropertyOp9
 70
     1
102
RTVSPropertyOp10
 70
     1
102
RTVSPropertyOp11
 70
     1
102
RTVSPropertyOp12
 70
     1
102
RTVSPropertyOp13
 70
     1
102
RTVSPropertyOp14
 70
     1
102
RTVSPropertyOp15
 70
     1
102
RTVSPropertyOp16
 70
     1
102
RTVSPropertyOp17
 70
     1
102
RTVSPropertyOp18
 70
     1
102
RTVSPropertyOp19
 70
     1
102
RTVSPropertyOp20
 70
     1
102
RTVSPropertyOp21
 70
     1
102
RTVSPropertyOp22
 70
     1
102
RTVSPropertyOp23
 70
     1
102
RTVSPropertyOp24
 70
     1
102
RTVSPropertyOp25
 70
     1
102
RTVSPropertyOp26
 70
     1
102
RTVSPropertyOp27
 70
     1
102
RTVSPropertyOp28
 70
     1
102
RTVSPropertyOp29
 70
     1
102
RTVSPropertyOp30
 70
     1
102
RTVSPropertyOp31
 70
     1
102
RTVSPropertyOp32
 70
     1
102
RTVSPropertyOp33
 70
     1
102
RTVSPropertyOp34
 70
     1
102
RTVSPropertyOp35
 70
     1
102
RTVSPropertyOp36
 70
     1
102
RTVSPropertyOp37
 70
     1
102
RTVSPropertyOp38
 70
     1
102
RTVSPropertyOp39
 70
     1
102
RTVSPropertyOp40
 70
     1
102
RTVSPropertyOp41
 70
     1
102
RTVSPropertyOp42
 70
     1
102
RTVSPropertyOp43
 70
     1
102
RTVSPropertyOp44
 70
     1
102
RTVSPropertyOp45
 70
     1
102
RTVSPropertyOp46
 70
     1
102
RTVSPropertyOp47
 70
     1
102
RTVSPropertyOp48
 70
     1
102
RTVSPropertyOp49
 70
     1
102
RTVSPropertyOp50
 70
     1
102
RTVSPropertyOp51
 70
     0
102
RTVSPropertyOp52
 70
     0
102
RTVSPropertyOp53
 70
     1
102
RTVSPropertyOp54
 70
     1
102
RTVSPropertyOp55
 70
     1
102
RTVSPropertyOp56
 70
     1
102
RTVSPropertyOp57
 70
     1
102
RTVSPropertyOp58
 70
     1
102
RTVSPropertyOp59
 70
     1
102
RTVSPropertyOp60
 70
     1
102
RTVSPropertyOp61
 70
     1
102
RTVSPropertyOp62
 70
     1
  0
XRECORD
  5
61E
102
{ACAD_REACTORS
330
61D
102
}
330
61D
100
AcDbXrecord
280
     1
102
RTVSPost2010Prop28
280
     0
102
RTVSPost2010PropOp28
 70
     1
102
RTVSPost2010Prop29
280
     1
102
RTVSPost2010PropOp29
 70
     1
102
RTVSPost2010Prop30
280
     1
102
RTVSPost2010PropOp30
 70
     1
102
RTVSPost2010Prop31
280
     0
102
RTVSPost2010PropOp31
 70
     1
102
RTVSPost2010Prop32
280
     0
102
RTVSPost2010PropOp32
 70
     1
102
RTVSPost2010Prop33
280
     0
102
RTVSPost2010PropOp33
 70
     1
102
RTVSPost2010Prop34
280
     0
102
RTVSPost2010PropOp34
 70
     1
102
RTVSPost2010Prop35
280
     0
102
RTVSPost2010PropOp35
 70
     1
102
RTVSPost2010Prop36
280
     0
102
RTVSPost2010PropOp36
 70
     1
102
RTVSPost2010Prop37
 90
       50
102
RTVSPost2010PropOp37
 70
     1
102
RTVSPost2010Prop38
140
0.0
102
RTVSPost2010PropOp38
 70
     1
102
RTVSPost2010Prop39
140
1.0
102
RTVSPost2010PropOp39
 70
     1
102
RTVSPost2010Prop40
 90
        0
102
RTVSPost2010PropOp40
 70
     1
102
RTVSPost2010Prop41ColorIndex
 90
       18
102
RTVSPost2010Prop41ColorRGB
 90
        0
102
RTVSPost2010PropOp41
 70
     1
102
RTVSPost2010Prop42
 90
       50
102
RTVSPost2010PropOp42
 70
     1
102
RTVSPost2010Prop43
 90
        3
102
RTVSPost2010PropOp43
 70
     1
102
RTVSPost2010Prop44ColorIndex
 90
        5
102
RTVSPost2010Prop44ColorRGB
 90
      255
102
RTVSPost2010PropOp44
 70
     1
102
RTVSPost2010Prop45
280
     0
102
RTVSPost2010PropOp45
 70
     1
102
RTVSPost2010Prop46
 90
       50
102
RTVSPost2010PropOp46
 70
     1
102
RTVSPost2010Prop47
 90
       50
102
RTVSPost2010PropOp47
 70
     1
102
RTVSPost2010Prop48
 90
       50
102
RTVSPost2010PropOp48
 70
     1
102
RTVSPost2010Prop49
280
     0
102
RTVSPost2010PropOp49
 70
     1
102
RTVSPost2010Prop50
 90
       50
102
RTVSPost2010PropOp50
 70
     1
102
RTVSPost2010Prop51ColorIndex
 90
      256
102
RTVSPost2010Prop51ColorRGB
 90
-16777216
102
RTVSPost2010PropOp51
 70
     0
102
RTVSPost2010Prop52
140
1.0
102
RTVSPost2010PropOp52
 70
     0
102
RTVSPost2010Prop53
 90
        2
102
RTVSPost2010PropOp53
 70
     1
102
RTVSPost2010Prop54
  1
strokes_ogs.tif
102
RTVSPost2010PropOp54
 70
     1
102
RTVSPost2010Prop55
280
     0
102
RTVSPost2010PropOp55
 70
     1
102
RTVSPost2010Prop56
140
1.0
102
RTVSPost2010PropOp56
 70
     1
102
RTVSPost2010Prop57
140
1.0
102
RTVSPost2010PropOp57
 70
     1
102
RTVSPropertyOp0
 70
     1
102
RTVSPropertyOp1
 70
     1
102
RTVSPropertyOp2
 70
     1
102
RTVSPropertyOp3
 70
     1
102
RTVSPropertyOp4
 70
     1
102
RTVSPropertyOp5
 70
     1
102
RTVSPropertyOp6
 70
     1
102
RTVSPropertyOp7
 70
     1
102
RTVSPropertyOp8
 70
     1
102
RTVSPropertyOp9
 70
     1
102
RTVSPropertyOp10
 70
     1
102
RTVSPropertyOp11
 70
     1
102
RTVSPropertyOp12
 70
     1
102
RTVSPropertyOp13
 70
     1
102
RTVSPropertyOp14
 70
     1
102
RTVSPropertyOp15
 70
     1
102
RTVSPropertyOp16
 70
     1
102
RTVSPropertyOp17
 70
     1
102
RTVSPropertyOp18
 70
     1
102
RTVSPropertyOp19
 70
     1
102
RTVSPropertyOp20
 70
     1
102
RTVSPropertyOp21
 70
     1
102
RTVSPropertyOp22
 70
     1
102
RTVSPropertyOp23
 70
     1
102
RTVSPropertyOp24
 70
     1
102
RTVSPropertyOp25
 70
     1
102
RTVSPropertyOp26
 70
     1
102
RTVSPropertyOp27
 70
     1
102
RTVSPropertyOp28
 70
     1
102
RTVSPropertyOp29
 70
     1
102
RTVSPropertyOp30
 70
     1
102
RTVSPropertyOp31
 70
     1
102
RTVSPropertyOp32
 70
     1
102
RTVSPropertyOp33
 70
     1
102
RTVSPropertyOp34
 70
     1
102
RTVSPropertyOp35
 70
     1
102
RTVSPropertyOp36
 70
     1
102
RTVSPropertyOp37
 70
     1
102
RTVSPropertyOp38
 70
     1
102
RTVSPropertyOp39
 70
     1
102
RTVSPropertyOp40
 70
     1
102
RTVSPropertyOp41
 70
     1
102
RTVSPropertyOp42
 70
     1
102
RTVSPropertyOp43
 70
     1
102
RTVSPropertyOp44
 70
     1
102
RTVSPropertyOp45
 70
     1
102
RTVSPropertyOp46
 70
     1
102
RTVSPropertyOp47
 70
     1
102
RTVSPropertyOp48
 70
     1
102
RTVSPropertyOp49
 70
     1
102
RTVSPropertyOp50
 70
     1
102
RTVSPropertyOp51
 70
     0
102
RTVSPropertyOp52
 70
     0
102
RTVSPropertyOp53
 70
     1
102
RTVSPropertyOp54
 70
     1
102
RTVSPropertyOp55
 70
     1
102
RTVSPropertyOp56
 70
     1
102
RTVSPropertyOp57
 70
     1
102
RTVSPropertyOp58
 70
     1
102
RTVSPropertyOp59
 70
     1
102
RTVSPropertyOp60
 70
     1
102
RTVSPropertyOp61
 70
     1
102
RTVSPropertyOp62
 70
     1
  0
XRECORD
  5
620
102
{ACAD_REACTORS
330
61F
102
}
330
61F
100
AcDbXrecord
280
     1
102
RTVSPost2010Prop28
280
     0
102
RTVSPost2010PropOp28
 70
     1
102
RTVSPost2010Prop29
280
     1
102
RTVSPost2010PropOp29
 70
     1
102
RTVSPost2010Prop30
280
     1
102
RTVSPost2010PropOp30
 70
     1
102
RTVSPost2010Prop31
280
     0
102
RTVSPost2010PropOp31
 70
     1
102
RTVSPost2010Prop32
280
     0
102
RTVSPost2010PropOp32
 70
     1
102
RTVSPost2010Prop33
280
     0
102
RTVSPost2010PropOp33
 70
     1
102
RTVSPost2010Prop34
280
     0
102
RTVSPost2010PropOp34
 70
     1
102
RTVSPost2010Prop35
280
     0
102
RTVSPost2010PropOp35
 70
     1
102
RTVSPost2010Prop36
280
     0
102
RTVSPost2010PropOp36
 70
     1
102
RTVSPost2010Prop37
 90
       50
102
RTVSPost2010PropOp37
 70
     1
102
RTVSPost2010Prop38
140
0.0
102
RTVSPost2010PropOp38
 70
     1
102
RTVSPost2010Prop39
140
1.0
102
RTVSPost2010PropOp39
 70
     1
102
RTVSPost2010Prop40
 90
        0
102
RTVSPost2010PropOp40
 70
     1
102
RTVSPost2010Prop41ColorIndex
 90
       18
102
RTVSPost2010Prop41ColorRGB
 90
        0
102
RTVSPost2010PropOp41
 70
     1
102
RTVSPost2010Prop42
 90
       50
102
RTVSPost2010PropOp42
 70
     1
102
RTVSPost2010Prop43
 90
        3
102
RTVSPost2010PropOp43
 70
     1
102
RTVSPost2010Prop44ColorIndex
 90
        5
102
RTVSPost2010Prop44ColorRGB
 90
      255
102
RTVSPost2010PropOp44
 70
     1
102
RTVSPost2010Prop45
280
     0
102
RTVSPost2010PropOp45
 70
     1
102
RTVSPost2010Prop46
 90
       50
102
RTVSPost2010PropOp46
 70
     1
102
RTVSPost2010Prop47
 90
       50
102
RTVSPost2010PropOp47
 70
     1
102
RTVSPost2010Prop48
 90
       50
102
RTVSPost2010PropOp48
 70
     1
102
RTVSPost2010Prop49
280
     0
102
RTVSPost2010PropOp49
 70
     1
102
RTVSPost2010Prop50
 90
       50
102
RTVSPost2010PropOp50
 70
     1
102
RTVSPost2010Prop51ColorIndex
 90
      256
102
RTVSPost2010Prop51ColorRGB
 90
-16777216
102
RTVSPost2010PropOp51
 70
     0
102
RTVSPost2010Prop52
140
1.0
102
RTVSPost2010PropOp52
 70
     0
102
RTVSPost2010Prop53
 90
        2
102
RTVSPost2010PropOp53
 70
     1
102
RTVSPost2010Prop54
  1
strokes_ogs.tif
102
RTVSPost2010PropOp54
 70
     1
102
RTVSPost2010Prop55
280
     0
102
RTVSPost2010PropOp55
 70
     1
102
RTVSPost2010Prop56
140
1.0
102
RTVSPost2010PropOp56
 70
     1
102
RTVSPost2010Prop57
140
1.0
102
RTVSPost2010PropOp57
 70
     1
102
RTVSPropertyOp0
 70
     1
102
RTVSPropertyOp1
 70
     1
102
RTVSPropertyOp2
 70
     1
102
RTVSPropertyOp3
 70
     1
102
RTVSPropertyOp4
 70
     1
102
RTVSPropertyOp5
 70
     1
102
RTVSPropertyOp6
 70
     1
102
RTVSPropertyOp7
 70
     1
102
RTVSPropertyOp8
 70
     1
102
RTVSPropertyOp9
 70
     1
102
RTVSPropertyOp10
 70
     1
102
RTVSPropertyOp11
 70
     1
102
RTVSPropertyOp12
 70
     1
102
RTVSPropertyOp13
 70
     1
102
RTVSPropertyOp14
 70
     1
102
RTVSPropertyOp15
 70
     1
102
RTVSPropertyOp16
 70
     1
102
RTVSPropertyOp17
 70
     1
102
RTVSPropertyOp18
 70
     1
102
RTVSPropertyOp19
 70
     1
102
RTVSPropertyOp20
 70
     1
102
RTVSPropertyOp21
 70
     1
102
RTVSPropertyOp22
 70
     1
102
RTVSPropertyOp23
 70
     1
102
RTVSPropertyOp24
 70
     1
102
RTVSPropertyOp25
 70
     1
102
RTVSPropertyOp26
 70
     1
102
RTVSPropertyOp27
 70
     1
102
RTVSPropertyOp28
 70
     1
102
RTVSPropertyOp29
 70
     1
102
RTVSPropertyOp30
 70
     1
102
RTVSPropertyOp31
 70
     1
102
RTVSPropertyOp32
 70
     1
102
RTVSPropertyOp33
 70
     1
102
RTVSPropertyOp34
 70
     1
102
RTVSPropertyOp35
 70
     1
102
RTVSPropertyOp36
 70
     1
102
RTVSPropertyOp37
 70
     1
102
RTVSPropertyOp38
 70
     1
102
RTVSPropertyOp39
 70
     1
102
RTVSPropertyOp40
 70
     1
102
RTVSPropertyOp41
 70
     1
102
RTVSPropertyOp42
 70
     1
102
RTVSPropertyOp43
 70
     1
102
RTVSPropertyOp44
 70
     1
102
RTVSPropertyOp45
 70
     1
102
RTVSPropertyOp46
 70
     1
102
RTVSPropertyOp47
 70
     1
102
RTVSPropertyOp48
 70
     1
102
RTVSPropertyOp49
 70
     1
102
RTVSPropertyOp50
 70
     1
102
RTVSPropertyOp51
 70
     0
102
RTVSPropertyOp52
 70
     0
102
RTVSPropertyOp53
 70
     1
102
RTVSPropertyOp54
 70
     1
102
RTVSPropertyOp55
 70
     1
102
RTVSPropertyOp56
 70
     1
102
RTVSPropertyOp57
 70
     1
102
RTVSPropertyOp58
 70
     1
102
RTVSPropertyOp59
 70
     1
102
RTVSPropertyOp60
 70
     1
102
RTVSPropertyOp61
 70
     1
102
RTVSPropertyOp62
 70
     1
  0
XRECORD
  5
622
102
{ACAD_REACTORS
330
621
102
}
330
621
100
AcDbXrecord
280
     1
102
RTVSPost2010Prop28
280
     0
102
RTVSPost2010PropOp28
 70
     1
102
RTVSPost2010Prop29
280
     1
102
RTVSPost2010PropOp29
 70
     1
102
RTVSPost2010Prop30
280
     1
102
RTVSPost2010PropOp30
 70
     1
102
RTVSPost2010Prop31
280
     0
102
RTVSPost2010PropOp31
 70
     1
102
RTVSPost2010Prop32
280
     0
102
RTVSPost2010PropOp32
 70
     1
102
RTVSPost2010Prop33
280
     0
102
RTVSPost2010PropOp33
 70
     1
102
RTVSPost2010Prop34
280
     0
102
RTVSPost2010PropOp34
 70
     1
102
RTVSPost2010Prop35
280
     0
102
RTVSPost2010PropOp35
 70
     1
102
RTVSPost2010Prop36
280
     0
102
RTVSPost2010PropOp36
 70
     1
102
RTVSPost2010Prop37
 90
       50
102
RTVSPost2010PropOp37
 70
     1
102
RTVSPost2010Prop38
140
0.0
102
RTVSPost2010PropOp38
 70
     1
102
RTVSPost2010Prop39
140
1.0
102
RTVSPost2010PropOp39
 70
     1
102
RTVSPost2010Prop40
 90
        0
102
RTVSPost2010PropOp40
 70
     1
102
RTVSPost2010Prop41ColorIndex
 90
       18
102
RTVSPost2010Prop41ColorRGB
 90
        0
102
RTVSPost2010PropOp41
 70
     1
102
RTVSPost2010Prop42
 90
       50
102
RTVSPost2010PropOp42
 70
     1
102
RTVSPost2010Prop43
 90
        3
102
RTVSPost2010PropOp43
 70
     1
102
RTVSPost2010Prop44ColorIndex
 90
        5
102
RTVSPost2010Prop44ColorRGB
 90
      255
102
RTVSPost2010PropOp44
 70
     1
102
RTVSPost2010Prop45
280
     0
102
RTVSPost2010PropOp45
 70
     1
102
RTVSPost2010Prop46
 90
       50
102
RTVSPost2010PropOp46
 70
     1
102
RTVSPost2010Prop47
 90
       50
102
RTVSPost2010PropOp47
 70
     1
102
RTVSPost2010Prop48
 90
       50
102
RTVSPost2010PropOp48
 70
     1
102
RTVSPost2010Prop49
280
     0
102
RTVSPost2010PropOp49
 70
     1
102
RTVSPost2010Prop50
 90
       50
102
RTVSPost2010PropOp50
 70
     1
102
RTVSPost2010Prop51ColorIndex
 90
      256
102
RTVSPost2010Prop51ColorRGB
 90
-16777216
102
RTVSPost2010PropOp51
 70
     0
102
RTVSPost2010Prop52
140
1.0
102
RTVSPost2010PropOp52
 70
     0
102
RTVSPost2010Prop53
 90
        2
102
RTVSPost2010PropOp53
 70
     1
102
RTVSPost2010Prop54
  1
strokes_ogs.tif
102
RTVSPost2010PropOp54
 70
     1
102
RTVSPost2010Prop55
280
     0
102
RTVSPost2010PropOp55
 70
     1
102
RTVSPost2010Prop56
140
1.0
102
RTVSPost2010PropOp56
 70
     1
102
RTVSPost2010Prop57
140
1.0
102
RTVSPost2010PropOp57
 70
     1
102
RTVSPropertyOp0
 70
     1
102
RTVSPropertyOp1
 70
     1
102
RTVSPropertyOp2
 70
     1
102
RTVSPropertyOp3
 70
     1
102
RTVSPropertyOp4
 70
     1
102
RTVSPropertyOp5
 70
     1
102
RTVSPropertyOp6
 70
     1
102
RTVSPropertyOp7
 70
     1
102
RTVSPropertyOp8
 70
     1
102
RTVSPropertyOp9
 70
     1
102
RTVSPropertyOp10
 70
     1
102
RTVSPropertyOp11
 70
     1
102
RTVSPropertyOp12
 70
     1
102
RTVSPropertyOp13
 70
     1
102
RTVSPropertyOp14
 70
     1
102
RTVSPropertyOp15
 70
     1
102
RTVSPropertyOp16
 70
     1
102
RTVSPropertyOp17
 70
     1
102
RTVSPropertyOp18
 70
     1
102
RTVSPropertyOp19
 70
     1
102
RTVSPropertyOp20
 70
     1
102
RTVSPropertyOp21
 70
     1
102
RTVSPropertyOp22
 70
     1
102
RTVSPropertyOp23
 70
     1
102
RTVSPropertyOp24
 70
     1
102
RTVSPropertyOp25
 70
     1
102
RTVSPropertyOp26
 70
     1
102
RTVSPropertyOp27
 70
     1
102
RTVSPropertyOp28
 70
     1
102
RTVSPropertyOp29
 70
     1
102
RTVSPropertyOp30
 70
     1
102
RTVSPropertyOp31
 70
     1
102
RTVSPropertyOp32
 70
     1
102
RTVSPropertyOp33
 70
     1
102
RTVSPropertyOp34
 70
     1
102
RTVSPropertyOp35
 70
     1
102
RTVSPropertyOp36
 70
     1
102
RTVSPropertyOp37
 70
     1
102
RTVSPropertyOp38
 70
     1
102
RTVSPropertyOp39
 70
     1
102
RTVSPropertyOp40
 70
     1
102
RTVSPropertyOp41
 70
     1
102
RTVSPropertyOp42
 70
     1
102
RTVSPropertyOp43
 70
     1
102
RTVSPropertyOp44
 70
     1
102
RTVSPropertyOp45
 70
     1
102
RTVSPropertyOp46
 70
     1
102
RTVSPropertyOp47
 70
     1
102
RTVSPropertyOp48
 70
     1
102
RTVSPropertyOp49
 70
     1
102
RTVSPropertyOp50
 70
     1
102
RTVSPropertyOp51
 70
     0
102
RTVSPropertyOp52
 70
     0
102
RTVSPropertyOp53
 70
     1
102
RTVSPropertyOp54
 70
     1
102
RTVSPropertyOp55
 70
     1
102
RTVSPropertyOp56
 70
     1
102
RTVSPropertyOp57
 70
     1
102
RTVSPropertyOp58
 70
     1
102
RTVSPropertyOp59
 70
     1
102
RTVSPropertyOp60
 70
     1
102
RTVSPropertyOp61
 70
     1
102
RTVSPropertyOp62
 70
     1
  0
XRECORD
  5
624
102
{ACAD_REACTORS
330
623
102
}
330
623
100
AcDbXrecord
280
     1
102
RTVSPost2010Prop28
280
     0
102
RTVSPost2010PropOp28
 70
     1
102
RTVSPost2010Prop29
280
     1
102
RTVSPost2010PropOp29
 70
     1
102
RTVSPost2010Prop30
280
     1
102
RTVSPost2010PropOp30
 70
     1
102
RTVSPost2010Prop31
280
     0
102
RTVSPost2010PropOp31
 70
     1
102
RTVSPost2010Prop32
280
     0
102
RTVSPost2010PropOp32
 70
     1
102
RTVSPost2010Prop33
280
     0
102
RTVSPost2010PropOp33
 70
     1
102
RTVSPost2010Prop34
280
     0
102
RTVSPost2010PropOp34
 70
     1
102
RTVSPost2010Prop35
280
     0
102
RTVSPost2010PropOp35
 70
     1
102
RTVSPost2010Prop36
280
     0
102
RTVSPost2010PropOp36
 70
     1
102
RTVSPost2010Prop37
 90
       50
102
RTVSPost2010PropOp37
 70
     1
102
RTVSPost2010Prop38
140
0.0
102
RTVSPost2010PropOp38
 70
     1
102
RTVSPost2010Prop39
140
1.0
102
RTVSPost2010PropOp39
 70
     1
102
RTVSPost2010Prop40
 90
        0
102
RTVSPost2010PropOp40
 70
     1
102
RTVSPost2010Prop41ColorIndex
 90
       18
102
RTVSPost2010Prop41ColorRGB
 90
        0
102
RTVSPost2010PropOp41
 70
     1
102
RTVSPost2010Prop42
 90
       50
102
RTVSPost2010PropOp42
 70
     1
102
RTVSPost2010Prop43
 90
        3
102
RTVSPost2010PropOp43
 70
     1
102
RTVSPost2010Prop44ColorIndex
 90
        5
102
RTVSPost2010Prop44ColorRGB
 90
      255
102
RTVSPost2010PropOp44
 70
     1
102
RTVSPost2010Prop45
280
     0
102
RTVSPost2010PropOp45
 70
     1
102
RTVSPost2010Prop46
 90
       50
102
RTVSPost2010PropOp46
 70
     1
102
RTVSPost2010Prop47
 90
       50
102
RTVSPost2010PropOp47
 70
     1
102
RTVSPost2010Prop48
 90
       50
102
RTVSPost2010PropOp48
 70
     1
102
RTVSPost2010Prop49
280
     0
102
RTVSPost2010PropOp49
 70
     1
102
RTVSPost2010Prop50
 90
       50
102
RTVSPost2010PropOp50
 70
     1
102
RTVSPost2010Prop51ColorIndex
 90
      256
102
RTVSPost2010Prop51ColorRGB
 90
-16777216
102
RTVSPost2010PropOp51
 70
     0
102
RTVSPost2010Prop52
140
1.0
102
RTVSPost2010PropOp52
 70
     0
102
RTVSPost2010Prop53
 90
        2
102
RTVSPost2010PropOp53
 70
     1
102
RTVSPost2010Prop54
  1
strokes_ogs.tif
102
RTVSPost2010PropOp54
 70
     1
102
RTVSPost2010Prop55
280
     0
102
RTVSPost2010PropOp55
 70
     1
102
RTVSPost2010Prop56
140
1.0
102
RTVSPost2010PropOp56
 70
     1
102
RTVSPost2010Prop57
140
1.0
102
RTVSPost2010PropOp57
 70
     1
102
RTVSPropertyOp0
 70
     1
102
RTVSPropertyOp1
 70
     1
102
RTVSPropertyOp2
 70
     1
102
RTVSPropertyOp3
 70
     1
102
RTVSPropertyOp4
 70
     1
102
RTVSPropertyOp5
 70
     1
102
RTVSPropertyOp6
 70
     1
102
RTVSPropertyOp7
 70
     1
102
RTVSPropertyOp8
 70
     1
102
RTVSPropertyOp9
 70
     1
102
RTVSPropertyOp10
 70
     1
102
RTVSPropertyOp11
 70
     1
102
RTVSPropertyOp12
 70
     1
102
RTVSPropertyOp13
 70
     1
102
RTVSPropertyOp14
 70
     1
102
RTVSPropertyOp15
 70
     1
102
RTVSPropertyOp16
 70
     1
102
RTVSPropertyOp17
 70
     1
102
RTVSPropertyOp18
 70
     1
102
RTVSPropertyOp19
 70
     1
102
RTVSPropertyOp20
 70
     1
102
RTVSPropertyOp21
 70
     1
102
RTVSPropertyOp22
 70
     1
102
RTVSPropertyOp23
 70
     1
102
RTVSPropertyOp24
 70
     1
102
RTVSPropertyOp25
 70
     1
102
RTVSPropertyOp26
 70
     1
102
RTVSPropertyOp27
 70
     1
102
RTVSPropertyOp28
 70
     1
102
RTVSPropertyOp29
 70
     1
102
RTVSPropertyOp30
 70
     1
102
RTVSPropertyOp31
 70
     1
102
RTVSPropertyOp32
 70
     1
102
RTVSPropertyOp33
 70
     1
102
RTVSPropertyOp34
 70
     1
102
RTVSPropertyOp35
 70
     1
102
RTVSPropertyOp36
 70
     1
102
RTVSPropertyOp37
 70
     1
102
RTVSPropertyOp38
 70
     1
102
RTVSPropertyOp39
 70
     1
102
RTVSPropertyOp40
 70
     1
102
RTVSPropertyOp41
 70
     1
102
RTVSPropertyOp42
 70
     1
102
RTVSPropertyOp43
 70
     1
102
RTVSPropertyOp44
 70
     1
102
RTVSPropertyOp45
 70
     1
102
RTVSPropertyOp46
 70
     1
102
RTVSPropertyOp47
 70
     1
102
RTVSPropertyOp48
 70
     1
102
RTVSPropertyOp49
 70
     1
102
RTVSPropertyOp50
 70
     1
102
RTVSPropertyOp51
 70
     0
102
RTVSPropertyOp52
 70
     0
102
RTVSPropertyOp53
 70
     1
102
RTVSPropertyOp54
 70
     1
102
RTVSPropertyOp55
 70
     1
102
RTVSPropertyOp56
 70
     1
102
RTVSPropertyOp57
 70
     1
102
RTVSPropertyOp58
 70
     1
102
RTVSPropertyOp59
 70
     1
102
RTVSPropertyOp60
 70
     1
102
RTVSPropertyOp61
 70
     1
102
RTVSPropertyOp62
 70
     1
  0
XRECORD
  5
62C
102
{ACAD_REACTORS
330
62B
102
}
330
62B
100
AcDbXrecord
280
     1
102
RTVSPost2010Prop28
280
     0
102
RTVSPost2010PropOp28
 70
     1
102
RTVSPost2010Prop29
280
     1
102
RTVSPost2010PropOp29
 70
     1
102
RTVSPost2010Prop30
280
     1
102
RTVSPost2010PropOp30
 70
     1
102
RTVSPost2010Prop31
280
     0
102
RTVSPost2010PropOp31
 70
     1
102
RTVSPost2010Prop32
280
     0
102
RTVSPost2010PropOp32
 70
     1
102
RTVSPost2010Prop33
280
     0
102
RTVSPost2010PropOp33
 70
     1
102
RTVSPost2010Prop34
280
     0
102
RTVSPost2010PropOp34
 70
     1
102
RTVSPost2010Prop35
280
     0
102
RTVSPost2010PropOp35
 70
     1
102
RTVSPost2010Prop36
280
     0
102
RTVSPost2010PropOp36
 70
     1
102
RTVSPost2010Prop37
 90
       50
102
RTVSPost2010PropOp37
 70
     1
102
RTVSPost2010Prop38
140
0.0
102
RTVSPost2010PropOp38
 70
     1
102
RTVSPost2010Prop39
140
1.0
102
RTVSPost2010PropOp39
 70
     1
102
RTVSPost2010Prop40
 90
        0
102
RTVSPost2010PropOp40
 70
     1
102
RTVSPost2010Prop41ColorIndex
 90
       18
102
RTVSPost2010Prop41ColorRGB
 90
        0
102
RTVSPost2010PropOp41
 70
     1
102
RTVSPost2010Prop42
 90
       50
102
RTVSPost2010PropOp42
 70
     1
102
RTVSPost2010Prop43
 90
        3
102
RTVSPost2010PropOp43
 70
     1
102
RTVSPost2010Prop44ColorIndex
 90
        5
102
RTVSPost2010Prop44ColorRGB
 90
      255
102
RTVSPost2010PropOp44
 70
     1
102
RTVSPost2010Prop45
280
     0
102
RTVSPost2010PropOp45
 70
     1
102
RTVSPost2010Prop46
 90
       50
102
RTVSPost2010PropOp46
 70
     1
102
RTVSPost2010Prop47
 90
       50
102
RTVSPost2010PropOp47
 70
     1
102
RTVSPost2010Prop48
 90
       50
102
RTVSPost2010PropOp48
 70
     1
102
RTVSPost2010Prop49
280
     0
102
RTVSPost2010PropOp49
 70
     1
102
RTVSPost2010Prop50
 90
       50
102
RTVSPost2010PropOp50
 70
     1
102
RTVSPost2010Prop51ColorIndex
 90
      256
102
RTVSPost2010Prop51ColorRGB
 90
-16777216
102
RTVSPost2010PropOp51
 70
     0
102
RTVSPost2010Prop52
140
1.0
102
RTVSPost2010PropOp52
 70
     0
102
RTVSPost2010Prop53
 90
        2
102
RTVSPost2010PropOp53
 70
     1
102
RTVSPost2010Prop54
  1
strokes_ogs.tif
102
RTVSPost2010PropOp54
 70
     1
102
RTVSPost2010Prop55
280
     0
102
RTVSPost2010PropOp55
 70
     1
102
RTVSPost2010Prop56
140
1.0
102
RTVSPost2010PropOp56
 70
     1
102
RTVSPost2010Prop57
140
1.0
102
RTVSPost2010PropOp57
 70
     1
102
RTVSPropertyOp0
 70
     1
102
RTVSPropertyOp1
 70
     1
102
RTVSPropertyOp2
 70
     1
102
RTVSPropertyOp3
 70
     1
102
RTVSPropertyOp4
 70
     1
102
RTVSPropertyOp5
 70
     1
102
RTVSPropertyOp6
 70
     1
102
RTVSPropertyOp7
 70
     1
102
RTVSPropertyOp8
 70
     1
102
RTVSPropertyOp9
 70
     1
102
RTVSPropertyOp10
 70
     1
102
RTVSPropertyOp11
 70
     1
102
RTVSPropertyOp12
 70
     1
102
RTVSPropertyOp13
 70
     1
102
RTVSPropertyOp14
 70
     1
102
RTVSPropertyOp15
 70
     1
102
RTVSPropertyOp16
 70
     1
102
RTVSPropertyOp17
 70
     1
102
RTVSPropertyOp18
 70
     1
102
RTVSPropertyOp19
 70
     1
102
RTVSPropertyOp20
 70
     1
102
RTVSPropertyOp21
 70
     1
102
RTVSPropertyOp22
 70
     1
102
RTVSPropertyOp23
 70
     1
102
RTVSPropertyOp24
 70
     1
102
RTVSPropertyOp25
 70
     1
102
RTVSPropertyOp26
 70
     1
102
RTVSPropertyOp27
 70
     1
102
RTVSPropertyOp28
 70
     1
102
RTVSPropertyOp29
 70
     1
102
RTVSPropertyOp30
 70
     1
102
RTVSPropertyOp31
 70
     1
102
RTVSPropertyOp32
 70
     1
102
RTVSPropertyOp33
 70
     1
102
RTVSPropertyOp34
 70
     1
102
RTVSPropertyOp35
 70
     1
102
RTVSPropertyOp36
 70
     1
102
RTVSPropertyOp37
 70
     1
102
RTVSPropertyOp38
 70
     1
102
RTVSPropertyOp39
 70
     1
102
RTVSPropertyOp40
 70
     1
102
RTVSPropertyOp41
 70
     1
102
RTVSPropertyOp42
 70
     1
102
RTVSPropertyOp43
 70
     1
102
RTVSPropertyOp44
 70
     1
102
RTVSPropertyOp45
 70
     1
102
RTVSPropertyOp46
 70
     1
102
RTVSPropertyOp47
 70
     1
102
RTVSPropertyOp48
 70
     1
102
RTVSPropertyOp49
 70
     1
102
RTVSPropertyOp50
 70
     1
102
RTVSPropertyOp51
 70
     0
102
RTVSPropertyOp52
 70
     0
102
RTVSPropertyOp53
 70
     1
102
RTVSPropertyOp54
 70
     1
102
RTVSPropertyOp55
 70
     1
102
RTVSPropertyOp56
 70
     1
102
RTVSPropertyOp57
 70
     1
102
RTVSPropertyOp58
 70
     1
102
RTVSPropertyOp59
 70
     1
102
RTVSPropertyOp60
 70
     1
102
RTVSPropertyOp61
 70
     1
102
RTVSPropertyOp62
 70
     1
  0
XRECORD
  5
648
102
{ACAD_REACTORS
330
647
102
}
330
647
100
AcDbXrecord
280
     1
102
RTVSPost2010Prop28
280
     0
102
RTVSPost2010PropOp28
 70
     1
102
RTVSPost2010Prop29
280
     1
102
RTVSPost2010PropOp29
 70
     1
102
RTVSPost2010Prop30
280
     1
102
RTVSPost2010PropOp30
 70
     1
102
RTVSPost2010Prop31
280
     0
102
RTVSPost2010PropOp31
 70
     1
102
RTVSPost2010Prop32
280
     0
102
RTVSPost2010PropOp32
 70
     1
102
RTVSPost2010Prop33
280
     0
102
RTVSPost2010PropOp33
 70
     1
102
RTVSPost2010Prop34
280
     0
102
RTVSPost2010PropOp34
 70
     1
102
RTVSPost2010Prop35
280
     0
102
RTVSPost2010PropOp35
 70
     1
102
RTVSPost2010Prop36
280
     0
102
RTVSPost2010PropOp36
 70
     1
102
RTVSPost2010Prop37
 90
       50
102
RTVSPost2010PropOp37
 70
     0
102
RTVSPost2010Prop38
140
0.0
102
RTVSPost2010PropOp38
 70
     0
102
RTVSPost2010Prop39
140
1.0
102
RTVSPost2010PropOp39
 70
     0
102
RTVSPost2010Prop40
 90
        0
102
RTVSPost2010PropOp40
 70
     0
102
RTVSPost2010Prop41ColorIndex
 90
       18
102
RTVSPost2010Prop41ColorRGB
 90
        0
102
RTVSPost2010PropOp41
 70
     0
102
RTVSPost2010Prop42
 90
       50
102
RTVSPost2010PropOp42
 70
     0
102
RTVSPost2010Prop43
 90
        3
102
RTVSPost2010PropOp43
 70
     0
102
RTVSPost2010Prop44ColorIndex
 90
        5
102
RTVSPost2010Prop44ColorRGB
 90
      255
102
RTVSPost2010PropOp44
 70
     0
102
RTVSPost2010Prop45
280
     0
102
RTVSPost2010PropOp45
 70
     1
102
RTVSPost2010Prop46
 90
       50
102
RTVSPost2010PropOp46
 70
     0
102
RTVSPost2010Prop47
 90
       50
102
RTVSPost2010PropOp47
 70
     0
102
RTVSPost2010Prop48
 90
       50
102
RTVSPost2010PropOp48
 70
     0
102
RTVSPost2010Prop49
280
     0
102
RTVSPost2010PropOp49
 70
     1
102
RTVSPost2010Prop50
 90
       50
102
RTVSPost2010PropOp50
 70
     0
102
RTVSPost2010Prop51ColorIndex
 90
      256
102
RTVSPost2010Prop51ColorRGB
 90
-16777216
102
RTVSPost2010PropOp51
 70
     0
102
RTVSPost2010Prop52
140
1.0
102
RTVSPost2010PropOp52
 70
     0
102
RTVSPost2010Prop53
 90
        2
102
RTVSPost2010PropOp53
 70
     0
102
RTVSPost2010Prop54
  1
strokes_ogs.tif
102
RTVSPost2010PropOp54
 70
     0
102
RTVSPost2010Prop55
280
     0
102
RTVSPost2010PropOp55
 70
     1
102
RTVSPost2010Prop56
140
1.0
102
RTVSPost2010PropOp56
 70
     0
102
RTVSPost2010Prop57
140
1.0
102
RTVSPost2010PropOp57
 70
     0
102
RTVSPropertyOp0
 70
     0
102
RTVSPropertyOp1
 70
     0
102
RTVSPropertyOp2
 70
     0
102
RTVSPropertyOp3
 70
     0
102
RTVSPropertyOp4
 70
     0
102
RTVSPropertyOp5
 70
     0
102
RTVSPropertyOp6
 70
     0
102
RTVSPropertyOp7
 70
     0
102
RTVSPropertyOp8
 70
     0
102
RTVSPropertyOp9
 70
     0
102
RTVSPropertyOp10
 70
     0
102
RTVSPropertyOp11
 70
     0
102
RTVSPropertyOp12
 70
     0
102
RTVSPropertyOp13
 70
     0
102
RTVSPropertyOp14
 70
     2
102
RTVSPropertyOp15
 70
     0
102
RTVSPropertyOp16
 70
     0
102
RTVSPropertyOp17
 70
     0
102
RTVSPropertyOp18
 70
     0
102
RTVSPropertyOp19
 70
     0
102
RTVSPropertyOp20
 70
     0
102
RTVSPropertyOp21
 70
     0
102
RTVSPropertyOp22
 70
     0
102
RTVSPropertyOp23
 70
     0
102
RTVSPropertyOp24
 70
     0
102
RTVSPropertyOp25
 70
     0
102
RTVSPropertyOp26
 70
     0
102
RTVSPropertyOp27
 70
     0
102
RTVSPropertyOp28
 70
     1
102
RTVSPropertyOp29
 70
     1
102
RTVSPropertyOp30
 70
     1
102
RTVSPropertyOp31
 70
     1
102
RTVSPropertyOp32
 70
     1
102
RTVSPropertyOp33
 70
     1
102
RTVSPropertyOp34
 70
     1
102
RTVSPropertyOp35
 70
     1
102
RTVSPropertyOp36
 70
     1
102
RTVSPropertyOp37
 70
     0
102
RTVSPropertyOp38
 70
     0
102
RTVSPropertyOp39
 70
     0
102
RTVSPropertyOp40
 70
     0
102
RTVSPropertyOp41
 70
     0
102
RTVSPropertyOp42
 70
     0
102
RTVSPropertyOp43
 70
     0
102
RTVSPropertyOp44
 70
     0
102
RTVSPropertyOp45
 70
     1
102
RTVSPropertyOp46
 70
     0
102
RTVSPropertyOp47
 70
     0
102
RTVSPropertyOp48
 70
     0
102
RTVSPropertyOp49
 70
     1
102
RTVSPropertyOp50
 70
     0
102
RTVSPropertyOp51
 70
     0
102
RTVSPropertyOp52
 70
     0
102
RTVSPropertyOp53
 70
     0
102
RTVSPropertyOp54
 70
     0
102
RTVSPropertyOp55
 70
     1
102
RTVSPropertyOp56
 70
     0
102
RTVSPropertyOp57
 70
     0
102
RTVSPropertyOp58
 70
     0
102
RTVSPropertyOp59
 70
     0
102
RTVSPropertyOp60
 70
     0
102
RTVSPropertyOp61
 70
     0
102
RTVSPropertyOp62
 70
     0
  0
XRECORD
  5
638
102
{ACAD_REACTORS
330
637
102
}
330
637
100
AcDbXrecord
280
     1
102
RTVSPost2010Prop28
280
     0
102
RTVSPost2010PropOp28
 70
     1
102
RTVSPost2010Prop29
280
     1
102
RTVSPost2010PropOp29
 70
     1
102
RTVSPost2010Prop30
280
     1
102
RTVSPost2010PropOp30
 70
     1
102
RTVSPost2010Prop31
280
     0
102
RTVSPost2010PropOp31
 70
     1
102
RTVSPost2010Prop32
280
     0
102
RTVSPost2010PropOp32
 70
     1
102
RTVSPost2010Prop33
280
     0
102
RTVSPost2010PropOp33
 70
     1
102
RTVSPost2010Prop34
280
     0
102
RTVSPost2010PropOp34
 70
     1
102
RTVSPost2010Prop35
280
     0
102
RTVSPost2010PropOp35
 70
     1
102
RTVSPost2010Prop36
280
     0
102
RTVSPost2010PropOp36
 70
     1
102
RTVSPost2010Prop37
 90
       50
102
RTVSPost2010PropOp37
 70
     1
102
RTVSPost2010Prop38
140
0.0
102
RTVSPost2010PropOp38
 70
     1
102
RTVSPost2010Prop39
140
1.0
102
RTVSPost2010PropOp39
 70
     1
102
RTVSPost2010Prop40
 90
        0
102
RTVSPost2010PropOp40
 70
     1
102
RTVSPost2010Prop41ColorIndex
 90
       18
102
RTVSPost2010Prop41ColorRGB
 90
        0
102
RTVSPost2010PropOp41
 70
     1
102
RTVSPost2010Prop42
 90
       50
102
RTVSPost2010PropOp42
 70
     1
102
RTVSPost2010Prop43
 90
        3
102
RTVSPost2010PropOp43
 70
     1
102
RTVSPost2010Prop44ColorIndex
 90
        5
102
RTVSPost2010Prop44ColorRGB
 90
      255
102
RTVSPost2010PropOp44
 70
     1
102
RTVSPost2010Prop45
280
     0
102
RTVSPost2010PropOp45
 70
     1
102
RTVSPost2010Prop46
 90
       50
102
RTVSPost2010PropOp46
 70
     1
102
RTVSPost2010Prop47
 90
       50
102
RTVSPost2010PropOp47
 70
     1
102
RTVSPost2010Prop48
 90
       50
102
RTVSPost2010PropOp48
 70
     1
102
RTVSPost2010Prop49
280
     0
102
RTVSPost2010PropOp49
 70
     1
102
RTVSPost2010Prop50
 90
       50
102
RTVSPost2010PropOp50
 70
     1
102
RTVSPost2010Prop51ColorIndex
 90
      256
102
RTVSPost2010Prop51ColorRGB
 90
-16777216
102
RTVSPost2010PropOp51
 70
     0
102
RTVSPost2010Prop52
140
1.0
102
RTVSPost2010PropOp52
 70
     0
102
RTVSPost2010Prop53
 90
        2
102
RTVSPost2010PropOp53
 70
     1
102
RTVSPost2010Prop54
  1
strokes_ogs.tif
102
RTVSPost2010PropOp54
 70
     1
102
RTVSPost2010Prop55
280
     0
102
RTVSPost2010PropOp55
 70
     1
102
RTVSPost2010Prop56
140
1.0
102
RTVSPost2010PropOp56
 70
     1
102
RTVSPost2010Prop57
140
1.0
102
RTVSPost2010PropOp57
 70
     1
102
RTVSPropertyOp0
 70
     1
102
RTVSPropertyOp1
 70
     1
102
RTVSPropertyOp2
 70
     1
102
RTVSPropertyOp3
 70
     1
102
RTVSPropertyOp4
 70
     1
102
RTVSPropertyOp5
 70
     1
102
RTVSPropertyOp6
 70
     1
102
RTVSPropertyOp7
 70
     1
102
RTVSPropertyOp8
 70
     1
102
RTVSPropertyOp9
 70
     1
102
RTVSPropertyOp10
 70
     1
102
RTVSPropertyOp11
 70
     1
102
RTVSPropertyOp12
 70
     1
102
RTVSPropertyOp13
 70
     1
102
RTVSPropertyOp14
 70
     1
102
RTVSPropertyOp15
 70
     1
102
RTVSPropertyOp16
 70
     1
102
RTVSPropertyOp17
 70
     1
102
RTVSPropertyOp18
 70
     1
102
RTVSPropertyOp19
 70
     1
102
RTVSPropertyOp20
 70
     1
102
RTVSPropertyOp21
 70
     1
102
RTVSPropertyOp22
 70
     1
102
RTVSPropertyOp23
 70
     1
102
RTVSPropertyOp24
 70
     1
102
RTVSPropertyOp25
 70
     1
102
RTVSPropertyOp26
 70
     1
102
RTVSPropertyOp27
 70
     1
102
RTVSPropertyOp28
 70
     1
102
RTVSPropertyOp29
 70
     1
102
RTVSPropertyOp30
 70
     1
102
RTVSPropertyOp31
 70
     1
102
RTVSPropertyOp32
 70
     1
102
RTVSPropertyOp33
 70
     1
102
RTVSPropertyOp34
 70
     1
102
RTVSPropertyOp35
 70
     1
102
RTVSPropertyOp36
 70
     1
102
RTVSPropertyOp37
 70
     1
102
RTVSPropertyOp38
 70
     1
102
RTVSPropertyOp39
 70
     1
102
RTVSPropertyOp40
 70
     1
102
RTVSPropertyOp41
 70
     1
102
RTVSPropertyOp42
 70
     1
102
RTVSPropertyOp43
 70
     1
102
RTVSPropertyOp44
 70
     1
102
RTVSPropertyOp45
 70
     1
102
RTVSPropertyOp46
 70
     1
102
RTVSPropertyOp47
 70
     1
102
RTVSPropertyOp48
 70
     1
102
RTVSPropertyOp49
 70
     1
102
RTVSPropertyOp50
 70
     1
102
RTVSPropertyOp51
 70
     0
102
RTVSPropertyOp52
 70
     0
102
RTVSPropertyOp53
 70
     1
102
RTVSPropertyOp54
 70
     1
102
RTVSPropertyOp55
 70
     1
102
RTVSPropertyOp56
 70
     1
102
RTVSPropertyOp57
 70
     1
102
RTVSPropertyOp58
 70
     1
102
RTVSPropertyOp59
 70
     1
102
RTVSPropertyOp60
 70
     1
102
RTVSPropertyOp61
 70
     1
102
RTVSPropertyOp62
 70
     1
  0
XRECORD
  5
64A
102
{ACAD_REACTORS
330
649
102
}
330
649
100
AcDbXrecord
280
     1
102
RTVSPost2010Prop28
280
     0
102
RTVSPost2010PropOp28
 70
     1
102
RTVSPost2010Prop29
280
     1
102
RTVSPost2010PropOp29
 70
     1
102
RTVSPost2010Prop30
280
     1
102
RTVSPost2010PropOp30
 70
     1
102
RTVSPost2010Prop31
280
     0
102
RTVSPost2010PropOp31
 70
     1
102
RTVSPost2010Prop32
280
     0
102
RTVSPost2010PropOp32
 70
     1
102
RTVSPost2010Prop33
280
     0
102
RTVSPost2010PropOp33
 70
     1
102
RTVSPost2010Prop34
280
     0
102
RTVSPost2010PropOp34
 70
     1
102
RTVSPost2010Prop35
280
     0
102
RTVSPost2010PropOp35
 70
     1
102
RTVSPost2010Prop36
280
     0
102
RTVSPost2010PropOp36
 70
     1
102
RTVSPost2010Prop37
 90
       50
102
RTVSPost2010PropOp37
 70
     0
102
RTVSPost2010Prop38
140
0.0
102
RTVSPost2010PropOp38
 70
     0
102
RTVSPost2010Prop39
140
1.0
102
RTVSPost2010PropOp39
 70
     0
102
RTVSPost2010Prop40
 90
        0
102
RTVSPost2010PropOp40
 70
     0
102
RTVSPost2010Prop41ColorIndex
 90
       18
102
RTVSPost2010Prop41ColorRGB
 90
        0
102
RTVSPost2010PropOp41
 70
     0
102
RTVSPost2010Prop42
 90
       50
102
RTVSPost2010PropOp42
 70
     0
102
RTVSPost2010Prop43
 90
        3
102
RTVSPost2010PropOp43
 70
     0
102
RTVSPost2010Prop44ColorIndex
 90
        5
102
RTVSPost2010Prop44ColorRGB
 90
      255
102
RTVSPost2010PropOp44
 70
     0
102
RTVSPost2010Prop45
280
     0
102
RTVSPost2010PropOp45
 70
     1
102
RTVSPost2010Prop46
 90
       50
102
RTVSPost2010PropOp46
 70
     0
102
RTVSPost2010Prop47
 90
       50
102
RTVSPost2010PropOp47
 70
     0
102
RTVSPost2010Prop48
 90
       50
102
RTVSPost2010PropOp48
 70
     0
102
RTVSPost2010Prop49
280
     0
102
RTVSPost2010PropOp49
 70
     1
102
RTVSPost2010Prop50
 90
       50
102
RTVSPost2010PropOp50
 70
     0
102
RTVSPost2010Prop51ColorIndex
 90
      256
102
RTVSPost2010Prop51ColorRGB
 90
-16777216
102
RTVSPost2010PropOp51
 70
     0
102
RTVSPost2010Prop52
140
1.0
102
RTVSPost2010PropOp52
 70
     0
102
RTVSPost2010Prop53
 90
        2
102
RTVSPost2010PropOp53
 70
     0
102
RTVSPost2010Prop54
  1
strokes_ogs.tif
102
RTVSPost2010PropOp54
 70
     0
102
RTVSPost2010Prop55
280
     0
102
RTVSPost2010PropOp55
 70
     1
102
RTVSPost2010Prop56
140
1.0
102
RTVSPost2010PropOp56
 70
     0
102
RTVSPost2010Prop57
140
1.0
102
RTVSPost2010PropOp57
 70
     0
102
RTVSPropertyOp0
 70
     0
102
RTVSPropertyOp1
 70
     0
102
RTVSPropertyOp2
 70
     0
102
RTVSPropertyOp3
 70
     0
102
RTVSPropertyOp4
 70
     0
102
RTVSPropertyOp5
 70
     0
102
RTVSPropertyOp6
 70
     0
102
RTVSPropertyOp7
 70
     0
102
RTVSPropertyOp8
 70
     0
102
RTVSPropertyOp9
 70
     0
102
RTVSPropertyOp10
 70
     0
102
RTVSPropertyOp11
 70
     0
102
RTVSPropertyOp12
 70
     0
102
RTVSPropertyOp13
 70
     0
102
RTVSPropertyOp14
 70
     2
102
RTVSPropertyOp15
 70
     0
102
RTVSPropertyOp16
 70
     0
102
RTVSPropertyOp17
 70
     0
102
RTVSPropertyOp18
 70
     0
102
RTVSPropertyOp19
 70
     0
102
RTVSPropertyOp20
 70
     0
102
RTVSPropertyOp21
 70
     0
102
RTVSPropertyOp22
 70
     0
102
RTVSPropertyOp23
 70
     0
102
RTVSPropertyOp24
 70
     0
102
RTVSPropertyOp25
 70
     0
102
RTVSPropertyOp26
 70
     0
102
RTVSPropertyOp27
 70
     0
102
RTVSPropertyOp28
 70
     1
102
RTVSPropertyOp29
 70
     1
102
RTVSPropertyOp30
 70
     1
102
RTVSPropertyOp31
 70
     1
102
RTVSPropertyOp32
 70
     1
102
RTVSPropertyOp33
 70
     1
102
RTVSPropertyOp34
 70
     1
102
RTVSPropertyOp35
 70
     1
102
RTVSPropertyOp36
 70
     1
102
RTVSPropertyOp37
 70
     0
102
RTVSPropertyOp38
 70
     0
102
RTVSPropertyOp39
 70
     0
102
RTVSPropertyOp40
 70
     0
102
RTVSPropertyOp41
 70
     0
102
RTVSPropertyOp42
 70
     0
102
RTVSPropertyOp43
 70
     0
102
RTVSPropertyOp44
 70
     0
102
RTVSPropertyOp45
 70
     1
102
RTVSPropertyOp46
 70
     0
102
RTVSPropertyOp47
 70
     0
102
RTVSPropertyOp48
 70
     0
102
RTVSPropertyOp49
 70
     1
102
RTVSPropertyOp50
 70
     0
102
RTVSPropertyOp51
 70
     0
102
RTVSPropertyOp52
 70
     0
102
RTVSPropertyOp53
 70
     0
102
RTVSPropertyOp54
 70
     0
102
RTVSPropertyOp55
 70
     1
102
RTVSPropertyOp56
 70
     0
102
RTVSPropertyOp57
 70
     0
102
RTVSPropertyOp58
 70
     0
102
RTVSPropertyOp59
 70
     0
102
RTVSPropertyOp60
 70
     0
102
RTVSPropertyOp61
 70
     0
102
RTVSPropertyOp62
 70
     0
  0
XRECORD
  5
630
102
{ACAD_REACTORS
330
62F
102
}
330
62F
100
AcDbXrecord
280
     1
102
RTVSPost2010Prop28
280
     0
102
RTVSPost2010PropOp28
 70
     1
102
RTVSPost2010Prop29
280
     1
102
RTVSPost2010PropOp29
 70
     1
102
RTVSPost2010Prop30
280
     1
102
RTVSPost2010PropOp30
 70
     1
102
RTVSPost2010Prop31
280
     0
102
RTVSPost2010PropOp31
 70
     1
102
RTVSPost2010Prop32
280
     0
102
RTVSPost2010PropOp32
 70
     1
102
RTVSPost2010Prop33
280
     0
102
RTVSPost2010PropOp33
 70
     1
102
RTVSPost2010Prop34
280
     0
102
RTVSPost2010PropOp34
 70
     1
102
RTVSPost2010Prop35
280
     0
102
RTVSPost2010PropOp35
 70
     1
102
RTVSPost2010Prop36
280
     0
102
RTVSPost2010PropOp36
 70
     1
102
RTVSPost2010Prop37
 90
       50
102
RTVSPost2010PropOp37
 70
     1
102
RTVSPost2010Prop38
140
0.0
102
RTVSPost2010PropOp38
 70
     1
102
RTVSPost2010Prop39
140
1.0
102
RTVSPost2010PropOp39
 70
     1
102
RTVSPost2010Prop40
 90
        0
102
RTVSPost2010PropOp40
 70
     1
102
RTVSPost2010Prop41ColorIndex
 90
       18
102
RTVSPost2010Prop41ColorRGB
 90
        0
102
RTVSPost2010PropOp41
 70
     1
102
RTVSPost2010Prop42
 90
       50
102
RTVSPost2010PropOp42
 70
     1
102
RTVSPost2010Prop43
 90
        3
102
RTVSPost2010PropOp43
 70
     1
102
RTVSPost2010Prop44ColorIndex
 90
        5
102
RTVSPost2010Prop44ColorRGB
 90
      255
102
RTVSPost2010PropOp44
 70
     1
102
RTVSPost2010Prop45
280
     0
102
RTVSPost2010PropOp45
 70
     1
102
RTVSPost2010Prop46
 90
       50
102
RTVSPost2010PropOp46
 70
     1
102
RTVSPost2010Prop47
 90
       50
102
RTVSPost2010PropOp47
 70
     1
102
RTVSPost2010Prop48
 90
       50
102
RTVSPost2010PropOp48
 70
     1
102
RTVSPost2010Prop49
280
     0
102
RTVSPost2010PropOp49
 70
     1
102
RTVSPost2010Prop50
 90
       50
102
RTVSPost2010PropOp50
 70
     1
102
RTVSPost2010Prop51ColorIndex
 90
      256
102
RTVSPost2010Prop51ColorRGB
 90
-16777216
102
RTVSPost2010PropOp51
 70
     0
102
RTVSPost2010Prop52
140
1.0
102
RTVSPost2010PropOp52
 70
     0
102
RTVSPost2010Prop53
 90
        2
102
RTVSPost2010PropOp53
 70
     1
102
RTVSPost2010Prop54
  1
strokes_ogs.tif
102
RTVSPost2010PropOp54
 70
     1
102
RTVSPost2010Prop55
280
     0
102
RTVSPost2010PropOp55
 70
     1
102
RTVSPost2010Prop56
140
1.0
102
RTVSPost2010PropOp56
 70
     1
102
RTVSPost2010Prop57
140
1.0
102
RTVSPost2010PropOp57
 70
     1
102
RTVSPropertyOp0
 70
     1
102
RTVSPropertyOp1
 70
     1
102
RTVSPropertyOp2
 70
     1
102
RTVSPropertyOp3
 70
     1
102
RTVSPropertyOp4
 70
     1
102
RTVSPropertyOp5
 70
     1
102
RTVSPropertyOp6
 70
     1
102
RTVSPropertyOp7
 70
     1
102
RTVSPropertyOp8
 70
     1
102
RTVSPropertyOp9
 70
     1
102
RTVSPropertyOp10
 70
     1
102
RTVSPropertyOp11
 70
     1
102
RTVSPropertyOp12
 70
     1
102
RTVSPropertyOp13
 70
     1
102
RTVSPropertyOp14
 70
     1
102
RTVSPropertyOp15
 70
     1
102
RTVSPropertyOp16
 70
     1
102
RTVSPropertyOp17
 70
     1
102
RTVSPropertyOp18
 70
     1
102
RTVSPropertyOp19
 70
     1
102
RTVSPropertyOp20
 70
     1
102
RTVSPropertyOp21
 70
     1
102
RTVSPropertyOp22
 70
     1
102
RTVSPropertyOp23
 70
     1
102
RTVSPropertyOp24
 70
     1
102
RTVSPropertyOp25
 70
     1
102
RTVSPropertyOp26
 70
     1
102
RTVSPropertyOp27
 70
     1
102
RTVSPropertyOp28
 70
     1
102
RTVSPropertyOp29
 70
     1
102
RTVSPropertyOp30
 70
     1
102
RTVSPropertyOp31
 70
     1
102
RTVSPropertyOp32
 70
     1
102
RTVSPropertyOp33
 70
     1
102
RTVSPropertyOp34
 70
     1
102
RTVSPropertyOp35
 70
     1
102
RTVSPropertyOp36
 70
     1
102
RTVSPropertyOp37
 70
     1
102
RTVSPropertyOp38
 70
     1
102
RTVSPropertyOp39
 70
     1
102
RTVSPropertyOp40
 70
     1
102
RTVSPropertyOp41
 70
     1
102
RTVSPropertyOp42
 70
     1
102
RTVSPropertyOp43
 70
     1
102
RTVSPropertyOp44
 70
     1
102
RTVSPropertyOp45
 70
     1
102
RTVSPropertyOp46
 70
     1
102
RTVSPropertyOp47
 70
     1
102
RTVSPropertyOp48
 70
     1
102
RTVSPropertyOp49
 70
     1
102
RTVSPropertyOp50
 70
     1
102
RTVSPropertyOp51
 70
     0
102
RTVSPropertyOp52
 70
     0
102
RTVSPropertyOp53
 70
     1
102
RTVSPropertyOp54
 70
     1
102
RTVSPropertyOp55
 70
     1
102
RTVSPropertyOp56
 70
     1
102
RTVSPropertyOp57
 70
     1
102
RTVSPropertyOp58
 70
     1
102
RTVSPropertyOp59
 70
     1
102
RTVSPropertyOp60
 70
     1
102
RTVSPropertyOp61
 70
     1
102
RTVSPropertyOp62
 70
     1
  0
XRECORD
  5
646
102
{ACAD_REACTORS
330
645
102
}
330
645
100
AcDbXrecord
280
     1
102
RTVSPost2010Prop28
280
     0
102
RTVSPost2010PropOp28
 70
     1
102
RTVSPost2010Prop29
280
     1
102
RTVSPost2010PropOp29
 70
     1
102
RTVSPost2010Prop30
280
     1
102
RTVSPost2010PropOp30
 70
     1
102
RTVSPost2010Prop31
280
     0
102
RTVSPost2010PropOp31
 70
     1
102
RTVSPost2010Prop32
280
     0
102
RTVSPost2010PropOp32
 70
     1
102
RTVSPost2010Prop33
280
     0
102
RTVSPost2010PropOp33
 70
     1
102
RTVSPost2010Prop34
280
     0
102
RTVSPost2010PropOp34
 70
     1
102
RTVSPost2010Prop35
280
     0
102
RTVSPost2010PropOp35
 70
     1
102
RTVSPost2010Prop36
280
     0
102
RTVSPost2010PropOp36
 70
     1
102
RTVSPost2010Prop37
 90
       50
102
RTVSPost2010PropOp37
 70
     1
102
RTVSPost2010Prop38
140
0.0
102
RTVSPost2010PropOp38
 70
     1
102
RTVSPost2010Prop39
140
1.0
102
RTVSPost2010PropOp39
 70
     1
102
RTVSPost2010Prop40
 90
        0
102
RTVSPost2010PropOp40
 70
     1
102
RTVSPost2010Prop41ColorIndex
 90
       18
102
RTVSPost2010Prop41ColorRGB
 90
        0
102
RTVSPost2010PropOp41
 70
     1
102
RTVSPost2010Prop42
 90
       50
102
RTVSPost2010PropOp42
 70
     1
102
RTVSPost2010Prop43
 90
        3
102
RTVSPost2010PropOp43
 70
     1
102
RTVSPost2010Prop44ColorIndex
 90
        5
102
RTVSPost2010Prop44ColorRGB
 90
      255
102
RTVSPost2010PropOp44
 70
     1
102
RTVSPost2010Prop45
280
     0
102
RTVSPost2010PropOp45
 70
     1
102
RTVSPost2010Prop46
 90
       50
102
RTVSPost2010PropOp46
 70
     1
102
RTVSPost2010Prop47
 90
       50
102
RTVSPost2010PropOp47
 70
     1
102
RTVSPost2010Prop48
 90
       50
102
RTVSPost2010PropOp48
 70
     1
102
RTVSPost2010Prop49
280
     0
102
RTVSPost2010PropOp49
 70
     1
102
RTVSPost2010Prop50
 90
       50
102
RTVSPost2010PropOp50
 70
     1
102
RTVSPost2010Prop51ColorIndex
 90
      256
102
RTVSPost2010Prop51ColorRGB
 90
-16777216
102
RTVSPost2010PropOp51
 70
     0
102
RTVSPost2010Prop52
140
1.0
102
RTVSPost2010PropOp52
 70
     0
102
RTVSPost2010Prop53
 90
        2
102
RTVSPost2010PropOp53
 70
     1
102
RTVSPost2010Prop54
  1
strokes_ogs.tif
102
RTVSPost2010PropOp54
 70
     1
102
RTVSPost2010Prop55
280
     0
102
RTVSPost2010PropOp55
 70
     1
102
RTVSPost2010Prop56
140
1.0
102
RTVSPost2010PropOp56
 70
     1
102
RTVSPost2010Prop57
140
1.0
102
RTVSPost2010PropOp57
 70
     1
102
RTVSPropertyOp0
 70
     1
102
RTVSPropertyOp1
 70
     1
102
RTVSPropertyOp2
 70
     1
102
RTVSPropertyOp3
 70
     1
102
RTVSPropertyOp4
 70
     1
102
RTVSPropertyOp5
 70
     1
102
RTVSPropertyOp6
 70
     1
102
RTVSPropertyOp7
 70
     1
102
RTVSPropertyOp8
 70
     1
102
RTVSPropertyOp9
 70
     1
102
RTVSPropertyOp10
 70
     1
102
RTVSPropertyOp11
 70
     1
102
RTVSPropertyOp12
 70
     1
102
RTVSPropertyOp13
 70
     1
102
RTVSPropertyOp14
 70
     1
102
RTVSPropertyOp15
 70
     1
102
RTVSPropertyOp16
 70
     1
102
RTVSPropertyOp17
 70
     1
102
RTVSPropertyOp18
 70
     1
102
RTVSPropertyOp19
 70
     1
102
RTVSPropertyOp20
 70
     1
102
RTVSPropertyOp21
 70
     1
102
RTVSPropertyOp22
 70
     1
102
RTVSPropertyOp23
 70
     1
102
RTVSPropertyOp24
 70
     1
102
RTVSPropertyOp25
 70
     1
102
RTVSPropertyOp26
 70
     1
102
RTVSPropertyOp27
 70
     1
102
RTVSPropertyOp28
 70
     1
102
RTVSPropertyOp29
 70
     1
102
RTVSPropertyOp30
 70
     1
102
RTVSPropertyOp31
 70
     1
102
RTVSPropertyOp32
 70
     1
102
RTVSPropertyOp33
 70
     1
102
RTVSPropertyOp34
 70
     1
102
RTVSPropertyOp35
 70
     1
102
RTVSPropertyOp36
 70
     1
102
RTVSPropertyOp37
 70
     1
102
RTVSPropertyOp38
 70
     1
102
RTVSPropertyOp39
 70
     1
102
RTVSPropertyOp40
 70
     1
102
RTVSPropertyOp41
 70
     1
102
RTVSPropertyOp42
 70
     1
102
RTVSPropertyOp43
 70
     1
102
RTVSPropertyOp44
 70
     1
102
RTVSPropertyOp45
 70
     1
102
RTVSPropertyOp46
 70
     1
102
RTVSPropertyOp47
 70
     1
102
RTVSPropertyOp48
 70
     1
102
RTVSPropertyOp49
 70
     1
102
RTVSPropertyOp50
 70
     1
102
RTVSPropertyOp51
 70
     0
102
RTVSPropertyOp52
 70
     0
102
RTVSPropertyOp53
 70
     1
102
RTVSPropertyOp54
 70
     1
102
RTVSPropertyOp55
 70
     1
102
RTVSPropertyOp56
 70
     1
102
RTVSPropertyOp57
 70
     1
102
RTVSPropertyOp58
 70
     1
102
RTVSPropertyOp59
 70
     1
102
RTVSPropertyOp60
 70
     1
102
RTVSPropertyOp61
 70
     1
102
RTVSPropertyOp62
 70
     1
  0
XRECORD
  5
644
102
{ACAD_REACTORS
330
643
102
}
330
643
100
AcDbXrecord
280
     1
102
RTVSPost2010Prop28
280
     0
102
RTVSPost2010PropOp28
 70
     1
102
RTVSPost2010Prop29
280
     1
102
RTVSPost2010PropOp29
 70
     1
102
RTVSPost2010Prop30
280
     1
102
RTVSPost2010PropOp30
 70
     1
102
RTVSPost2010Prop31
280
     0
102
RTVSPost2010PropOp31
 70
     1
102
RTVSPost2010Prop32
280
     0
102
RTVSPost2010PropOp32
 70
     1
102
RTVSPost2010Prop33
280
     0
102
RTVSPost2010PropOp33
 70
     1
102
RTVSPost2010Prop34
280
     0
102
RTVSPost2010PropOp34
 70
     1
102
RTVSPost2010Prop35
280
     0
102
RTVSPost2010PropOp35
 70
     1
102
RTVSPost2010Prop36
280
     0
102
RTVSPost2010PropOp36
 70
     1
102
RTVSPost2010Prop37
 90
       50
102
RTVSPost2010PropOp37
 70
     1
102
RTVSPost2010Prop38
140
0.0
102
RTVSPost2010PropOp38
 70
     1
102
RTVSPost2010Prop39
140
1.0
102
RTVSPost2010PropOp39
 70
     1
102
RTVSPost2010Prop40
 90
        0
102
RTVSPost2010PropOp40
 70
     1
102
RTVSPost2010Prop41ColorIndex
 90
       18
102
RTVSPost2010Prop41ColorRGB
 90
        0
102
RTVSPost2010PropOp41
 70
     1
102
RTVSPost2010Prop42
 90
       50
102
RTVSPost2010PropOp42
 70
     1
102
RTVSPost2010Prop43
 90
        3
102
RTVSPost2010PropOp43
 70
     1
102
RTVSPost2010Prop44ColorIndex
 90
        5
102
RTVSPost2010Prop44ColorRGB
 90
      255
102
RTVSPost2010PropOp44
 70
     1
102
RTVSPost2010Prop45
280
     0
102
RTVSPost2010PropOp45
 70
     1
102
RTVSPost2010Prop46
 90
       50
102
RTVSPost2010PropOp46
 70
     1
102
RTVSPost2010Prop47
 90
       50
102
RTVSPost2010PropOp47
 70
     1
102
RTVSPost2010Prop48
 90
       50
102
RTVSPost2010PropOp48
 70
     1
102
RTVSPost2010Prop49
280
     0
102
RTVSPost2010PropOp49
 70
     1
102
RTVSPost2010Prop50
 90
       50
102
RTVSPost2010PropOp50
 70
     1
102
RTVSPost2010Prop51ColorIndex
 90
      256
102
RTVSPost2010Prop51ColorRGB
 90
-16777216
102
RTVSPost2010PropOp51
 70
     0
102
RTVSPost2010Prop52
140
1.0
102
RTVSPost2010PropOp52
 70
     0
102
RTVSPost2010Prop53
 90
        2
102
RTVSPost2010PropOp53
 70
     1
102
RTVSPost2010Prop54
  1
strokes_ogs.tif
102
RTVSPost2010PropOp54
 70
     1
102
RTVSPost2010Prop55
280
     0
102
RTVSPost2010PropOp55
 70
     1
102
RTVSPost2010Prop56
140
1.0
102
RTVSPost2010PropOp56
 70
     1
102
RTVSPost2010Prop57
140
1.0
102
RTVSPost2010PropOp57
 70
     1
102
RTVSPropertyOp0
 70
     1
102
RTVSPropertyOp1
 70
     1
102
RTVSPropertyOp2
 70
     1
102
RTVSPropertyOp3
 70
     1
102
RTVSPropertyOp4
 70
     1
102
RTVSPropertyOp5
 70
     1
102
RTVSPropertyOp6
 70
     1
102
RTVSPropertyOp7
 70
     1
102
RTVSPropertyOp8
 70
     1
102
RTVSPropertyOp9
 70
     1
102
RTVSPropertyOp10
 70
     1
102
RTVSPropertyOp11
 70
     1
102
RTVSPropertyOp12
 70
     1
102
RTVSPropertyOp13
 70
     1
102
RTVSPropertyOp14
 70
     1
102
RTVSPropertyOp15
 70
     1
102
RTVSPropertyOp16
 70
     1
102
RTVSPropertyOp17
 70
     1
102
RTVSPropertyOp18
 70
     1
102
RTVSPropertyOp19
 70
     1
102
RTVSPropertyOp20
 70
     1
102
RTVSPropertyOp21
 70
     1
102
RTVSPropertyOp22
 70
     1
102
RTVSPropertyOp23
 70
     1
102
RTVSPropertyOp24
 70
     1
102
RTVSPropertyOp25
 70
     1
102
RTVSPropertyOp26
 70
     1
102
RTVSPropertyOp27
 70
     1
102
RTVSPropertyOp28
 70
     1
102
RTVSPropertyOp29
 70
     1
102
RTVSPropertyOp30
 70
     1
102
RTVSPropertyOp31
 70
     1
102
RTVSPropertyOp32
 70
     1
102
RTVSPropertyOp33
 70
     1
102
RTVSPropertyOp34
 70
     1
102
RTVSPropertyOp35
 70
     1
102
RTVSPropertyOp36
 70
     1
102
RTVSPropertyOp37
 70
     1
102
RTVSPropertyOp38
 70
     1
102
RTVSPropertyOp39
 70
     1
102
RTVSPropertyOp40
 70
     1
102
RTVSPropertyOp41
 70
     1
102
RTVSPropertyOp42
 70
     1
102
RTVSPropertyOp43
 70
     1
102
RTVSPropertyOp44
 70
     1
102
RTVSPropertyOp45
 70
     1
102
RTVSPropertyOp46
 70
     1
102
RTVSPropertyOp47
 70
     1
102
RTVSPropertyOp48
 70
     1
102
RTVSPropertyOp49
 70
     1
102
RTVSPropertyOp50
 70
     1
102
RTVSPropertyOp51
 70
     0
102
RTVSPropertyOp52
 70
     0
102
RTVSPropertyOp53
 70
     1
102
RTVSPropertyOp54
 70
     1
102
RTVSPropertyOp55
 70
     1
102
RTVSPropertyOp56
 70
     1
102
RTVSPropertyOp57
 70
     1
102
RTVSPropertyOp58
 70
     1
102
RTVSPropertyOp59
 70
     1
102
RTVSPropertyOp60
 70
     1
102
RTVSPropertyOp61
 70
     1
102
RTVSPropertyOp62
 70
     1
  0
XRECORD
  5
63E
102
{ACAD_REACTORS
330
63D
102
}
330
63D
100
AcDbXrecord
280
     1
102
RTVSPost2010Prop28
280
     0
102
RTVSPost2010PropOp28
 70
     1
102
RTVSPost2010Prop29
280
     1
102
RTVSPost2010PropOp29
 70
     1
102
RTVSPost2010Prop30
280
     1
102
RTVSPost2010PropOp30
 70
     1
102
RTVSPost2010Prop31
280
     0
102
RTVSPost2010PropOp31
 70
     1
102
RTVSPost2010Prop32
280
     0
102
RTVSPost2010PropOp32
 70
     1
102
RTVSPost2010Prop33
280
     0
102
RTVSPost2010PropOp33
 70
     1
102
RTVSPost2010Prop34
280
     0
102
RTVSPost2010PropOp34
 70
     1
102
RTVSPost2010Prop35
280
     0
102
RTVSPost2010PropOp35
 70
     1
102
RTVSPost2010Prop36
280
     0
102
RTVSPost2010PropOp36
 70
     1
102
RTVSPost2010Prop37
 90
       50
102
RTVSPost2010PropOp37
 70
     1
102
RTVSPost2010Prop38
140
0.0
102
RTVSPost2010PropOp38
 70
     1
102
RTVSPost2010Prop39
140
1.0
102
RTVSPost2010PropOp39
 70
     1
102
RTVSPost2010Prop40
 90
        0
102
RTVSPost2010PropOp40
 70
     1
102
RTVSPost2010Prop41ColorIndex
 90
       18
102
RTVSPost2010Prop41ColorRGB
 90
        0
102
RTVSPost2010PropOp41
 70
     1
102
RTVSPost2010Prop42
 90
       50
102
RTVSPost2010PropOp42
 70
     1
102
RTVSPost2010Prop43
 90
        3
102
RTVSPost2010PropOp43
 70
     1
102
RTVSPost2010Prop44ColorIndex
 90
        5
102
RTVSPost2010Prop44ColorRGB
 90
      255
102
RTVSPost2010PropOp44
 70
     1
102
RTVSPost2010Prop45
280
     0
102
RTVSPost2010PropOp45
 70
     1
102
RTVSPost2010Prop46
 90
       50
102
RTVSPost2010PropOp46
 70
     1
102
RTVSPost2010Prop47
 90
       50
102
RTVSPost2010PropOp47
 70
     1
102
RTVSPost2010Prop48
 90
       50
102
RTVSPost2010PropOp48
 70
     1
102
RTVSPost2010Prop49
280
     0
102
RTVSPost2010PropOp49
 70
     1
102
RTVSPost2010Prop50
 90
       50
102
RTVSPost2010PropOp50
 70
     1
102
RTVSPost2010Prop51ColorIndex
 90
      256
102
RTVSPost2010Prop51ColorRGB
 90
-16777216
102
RTVSPost2010PropOp51
 70
     0
102
RTVSPost2010Prop52
140
1.0
102
RTVSPost2010PropOp52
 70
     0
102
RTVSPost2010Prop53
 90
        2
102
RTVSPost2010PropOp53
 70
     1
102
RTVSPost2010Prop54
  1
strokes_ogs.tif
102
RTVSPost2010PropOp54
 70
     1
102
RTVSPost2010Prop55
280
     0
102
RTVSPost2010PropOp55
 70
     1
102
RTVSPost2010Prop56
140
1.0
102
RTVSPost2010PropOp56
 70
     1
102
RTVSPost2010Prop57
140
1.0
102
RTVSPost2010PropOp57
 70
     1
102
RTVSPropertyOp0
 70
     1
102
RTVSPropertyOp1
 70
     1
102
RTVSPropertyOp2
 70
     1
102
RTVSPropertyOp3
 70
     1
102
RTVSPropertyOp4
 70
     1
102
RTVSPropertyOp5
 70
     1
102
RTVSPropertyOp6
 70
     1
102
RTVSPropertyOp7
 70
     1
102
RTVSPropertyOp8
 70
     1
102
RTVSPropertyOp9
 70
     1
102
RTVSPropertyOp10
 70
     1
102
RTVSPropertyOp11
 70
     1
102
RTVSPropertyOp12
 70
     1
102
RTVSPropertyOp13
 70
     1
102
RTVSPropertyOp14
 70
     1
102
RTVSPropertyOp15
 70
     1
102
RTVSPropertyOp16
 70
     1
102
RTVSPropertyOp17
 70
     1
102
RTVSPropertyOp18
 70
     1
102
RTVSPropertyOp19
 70
     1
102
RTVSPropertyOp20
 70
     1
102
RTVSPropertyOp21
 70
     1
102
RTVSPropertyOp22
 70
     1
102
RTVSPropertyOp23
 70
     1
102
RTVSPropertyOp24
 70
     1
102
RTVSPropertyOp25
 70
     1
102
RTVSPropertyOp26
 70
     1
102
RTVSPropertyOp27
 70
     1
102
RTVSPropertyOp28
 70
     1
102
RTVSPropertyOp29
 70
     1
102
RTVSPropertyOp30
 70
     1
102
RTVSPropertyOp31
 70
     1
102
RTVSPropertyOp32
 70
     1
102
RTVSPropertyOp33
 70
     1
102
RTVSPropertyOp34
 70
     1
102
RTVSPropertyOp35
 70
     1
102
RTVSPropertyOp36
 70
     1
102
RTVSPropertyOp37
 70
     1
102
RTVSPropertyOp38
 70
     1
102
RTVSPropertyOp39
 70
     1
102
RTVSPropertyOp40
 70
     1
102
RTVSPropertyOp41
 70
     1
102
RTVSPropertyOp42
 70
     1
102
RTVSPropertyOp43
 70
     1
102
RTVSPropertyOp44
 70
     1
102
RTVSPropertyOp45
 70
     1
102
RTVSPropertyOp46
 70
     1
102
RTVSPropertyOp47
 70
     1
102
RTVSPropertyOp48
 70
     1
102
RTVSPropertyOp49
 70
     1
102
RTVSPropertyOp50
 70
     1
102
RTVSPropertyOp51
 70
     0
102
RTVSPropertyOp52
 70
     0
102
RTVSPropertyOp53
 70
     1
102
RTVSPropertyOp54
 70
     1
102
RTVSPropertyOp55
 70
     1
102
RTVSPropertyOp56
 70
     1
102
RTVSPropertyOp57
 70
     1
102
RTVSPropertyOp58
 70
     1
102
RTVSPropertyOp59
 70
     1
102
RTVSPropertyOp60
 70
     1
102
RTVSPropertyOp61
 70
     1
102
RTVSPropertyOp62
 70
     1
  0
XRECORD
  5
640
102
{ACAD_REACTORS
330
63F
102
}
330
63F
100
AcDbXrecord
280
     1
102
RTVSPost2010Prop28
280
     0
102
RTVSPost2010PropOp28
 70
     1
102
RTVSPost2010Prop29
280
     1
102
RTVSPost2010PropOp29
 70
     1
102
RTVSPost2010Prop30
280
     1
102
RTVSPost2010PropOp30
 70
     1
102
RTVSPost2010Prop31
280
     0
102
RTVSPost2010PropOp31
 70
     1
102
RTVSPost2010Prop32
280
     0
102
RTVSPost2010PropOp32
 70
     1
102
RTVSPost2010Prop33
280
     0
102
RTVSPost2010PropOp33
 70
     1
102
RTVSPost2010Prop34
280
     0
102
RTVSPost2010PropOp34
 70
     1
102
RTVSPost2010Prop35
280
     0
102
RTVSPost2010PropOp35
 70
     1
102
RTVSPost2010Prop36
280
     0
102
RTVSPost2010PropOp36
 70
     1
102
RTVSPost2010Prop37
 90
       50
102
RTVSPost2010PropOp37
 70
     1
102
RTVSPost2010Prop38
140
0.0
102
RTVSPost2010PropOp38
 70
     1
102
RTVSPost2010Prop39
140
1.0
102
RTVSPost2010PropOp39
 70
     1
102
RTVSPost2010Prop40
 90
        0
102
RTVSPost2010PropOp40
 70
     1
102
RTVSPost2010Prop41ColorIndex
 90
       18
102
RTVSPost2010Prop41ColorRGB
 90
        0
102
RTVSPost2010PropOp41
 70
     1
102
RTVSPost2010Prop42
 90
       50
102
RTVSPost2010PropOp42
 70
     1
102
RTVSPost2010Prop43
 90
        3
102
RTVSPost2010PropOp43
 70
     1
102
RTVSPost2010Prop44ColorIndex
 90
        5
102
RTVSPost2010Prop44ColorRGB
 90
      255
102
RTVSPost2010PropOp44
 70
     1
102
RTVSPost2010Prop45
280
     0
102
RTVSPost2010PropOp45
 70
     1
102
RTVSPost2010Prop46
 90
       50
102
RTVSPost2010PropOp46
 70
     1
102
RTVSPost2010Prop47
 90
       50
102
RTVSPost2010PropOp47
 70
     1
102
RTVSPost2010Prop48
 90
       50
102
RTVSPost2010PropOp48
 70
     1
102
RTVSPost2010Prop49
280
     0
102
RTVSPost2010PropOp49
 70
     1
102
RTVSPost2010Prop50
 90
       50
102
RTVSPost2010PropOp50
 70
     1
102
RTVSPost2010Prop51ColorIndex
 90
      256
102
RTVSPost2010Prop51ColorRGB
 90
-16777216
102
RTVSPost2010PropOp51
 70
     0
102
RTVSPost2010Prop52
140
1.0
102
RTVSPost2010PropOp52
 70
     0
102
RTVSPost2010Prop53
 90
        2
102
RTVSPost2010PropOp53
 70
     1
102
RTVSPost2010Prop54
  1
strokes_ogs.tif
102
RTVSPost2010PropOp54
 70
     1
102
RTVSPost2010Prop55
280
     0
102
RTVSPost2010PropOp55
 70
     1
102
RTVSPost2010Prop56
140
1.0
102
RTVSPost2010PropOp56
 70
     1
102
RTVSPost2010Prop57
140
1.0
102
RTVSPost2010PropOp57
 70
     1
102
RTVSPropertyOp0
 70
     1
102
RTVSPropertyOp1
 70
     1
102
RTVSPropertyOp2
 70
     1
102
RTVSPropertyOp3
 70
     1
102
RTVSPropertyOp4
 70
     1
102
RTVSPropertyOp5
 70
     1
102
RTVSPropertyOp6
 70
     1
102
RTVSPropertyOp7
 70
     1
102
RTVSPropertyOp8
 70
     1
102
RTVSPropertyOp9
 70
     1
102
RTVSPropertyOp10
 70
     1
102
RTVSPropertyOp11
 70
     1
102
RTVSPropertyOp12
 70
     1
102
RTVSPropertyOp13
 70
     1
102
RTVSPropertyOp14
 70
     1
102
RTVSPropertyOp15
 70
     1
102
RTVSPropertyOp16
 70
     1
102
RTVSPropertyOp17
 70
     1
102
RTVSPropertyOp18
 70
     1
102
RTVSPropertyOp19
 70
     1
102
RTVSPropertyOp20
 70
     1
102
RTVSPropertyOp21
 70
     1
102
RTVSPropertyOp22
 70
     1
102
RTVSPropertyOp23
 70
     1
102
RTVSPropertyOp24
 70
     1
102
RTVSPropertyOp25
 70
     1
102
RTVSPropertyOp26
 70
     1
102
RTVSPropertyOp27
 70
     1
102
RTVSPropertyOp28
 70
     1
102
RTVSPropertyOp29
 70
     1
102
RTVSPropertyOp30
 70
     1
102
RTVSPropertyOp31
 70
     1
102
RTVSPropertyOp32
 70
     1
102
RTVSPropertyOp33
 70
     1
102
RTVSPropertyOp34
 70
     1
102
RTVSPropertyOp35
 70
     1
102
RTVSPropertyOp36
 70
     1
102
RTVSPropertyOp37
 70
     1
102
RTVSPropertyOp38
 70
     1
102
RTVSPropertyOp39
 70
     1
102
RTVSPropertyOp40
 70
     1
102
RTVSPropertyOp41
 70
     1
102
RTVSPropertyOp42
 70
     1
102
RTVSPropertyOp43
 70
     1
102
RTVSPropertyOp44
 70
     1
102
RTVSPropertyOp45
 70
     1
102
RTVSPropertyOp46
 70
     1
102
RTVSPropertyOp47
 70
     1
102
RTVSPropertyOp48
 70
     1
102
RTVSPropertyOp49
 70
     1
102
RTVSPropertyOp50
 70
     1
102
RTVSPropertyOp51
 70
     0
102
RTVSPropertyOp52
 70
     0
102
RTVSPropertyOp53
 70
     1
102
RTVSPropertyOp54
 70
     1
102
RTVSPropertyOp55
 70
     1
102
RTVSPropertyOp56
 70
     1
102
RTVSPropertyOp57
 70
     1
102
RTVSPropertyOp58
 70
     1
102
RTVSPropertyOp59
 70
     1
102
RTVSPropertyOp60
 70
     1
102
RTVSPropertyOp61
 70
     1
102
RTVSPropertyOp62
 70
     1
  0
XRECORD
  5
636
102
{ACAD_REACTORS
330
635
102
}
330
635
100
AcDbXrecord
280
     1
102
RTVSPost2010Prop28
280
     0
102
RTVSPost2010PropOp28
 70
     1
102
RTVSPost2010Prop29
280
     1
102
RTVSPost2010PropOp29
 70
     1
102
RTVSPost2010Prop30
280
     1
102
RTVSPost2010PropOp30
 70
     1
102
RTVSPost2010Prop31
280
     0
102
RTVSPost2010PropOp31
 70
     1
102
RTVSPost2010Prop32
280
     0
102
RTVSPost2010PropOp32
 70
     1
102
RTVSPost2010Prop33
280
     0
102
RTVSPost2010PropOp33
 70
     1
102
RTVSPost2010Prop34
280
     0
102
RTVSPost2010PropOp34
 70
     1
102
RTVSPost2010Prop35
280
     0
102
RTVSPost2010PropOp35
 70
     1
102
RTVSPost2010Prop36
280
     0
102
RTVSPost2010PropOp36
 70
     1
102
RTVSPost2010Prop37
 90
       50
102
RTVSPost2010PropOp37
 70
     1
102
RTVSPost2010Prop38
140
0.0
102
RTVSPost2010PropOp38
 70
     1
102
RTVSPost2010Prop39
140
1.0
102
RTVSPost2010PropOp39
 70
     1
102
RTVSPost2010Prop40
 90
        0
102
RTVSPost2010PropOp40
 70
     1
102
RTVSPost2010Prop41ColorIndex
 90
       18
102
RTVSPost2010Prop41ColorRGB
 90
        0
102
RTVSPost2010PropOp41
 70
     1
102
RTVSPost2010Prop42
 90
       50
102
RTVSPost2010PropOp42
 70
     1
102
RTVSPost2010Prop43
 90
        3
102
RTVSPost2010PropOp43
 70
     1
102
RTVSPost2010Prop44ColorIndex
 90
        5
102
RTVSPost2010Prop44ColorRGB
 90
      255
102
RTVSPost2010PropOp44
 70
     1
102
RTVSPost2010Prop45
280
     0
102
RTVSPost2010PropOp45
 70
     1
102
RTVSPost2010Prop46
 90
       50
102
RTVSPost2010PropOp46
 70
     1
102
RTVSPost2010Prop47
 90
       50
102
RTVSPost2010PropOp47
 70
     1
102
RTVSPost2010Prop48
 90
       50
102
RTVSPost2010PropOp48
 70
     1
102
RTVSPost2010Prop49
280
     0
102
RTVSPost2010PropOp49
 70
     1
102
RTVSPost2010Prop50
 90
       50
102
RTVSPost2010PropOp50
 70
     1
102
RTVSPost2010Prop51ColorIndex
 90
      256
102
RTVSPost2010Prop51ColorRGB
 90
-16777216
102
RTVSPost2010PropOp51
 70
     0
102
RTVSPost2010Prop52
140
1.0
102
RTVSPost2010PropOp52
 70
     0
102
RTVSPost2010Prop53
 90
        2
102
RTVSPost2010PropOp53
 70
     1
102
RTVSPost2010Prop54
  1
strokes_ogs.tif
102
RTVSPost2010PropOp54
 70
     1
102
RTVSPost2010Prop55
280
     0
102
RTVSPost2010PropOp55
 70
     1
102
RTVSPost2010Prop56
140
1.0
102
RTVSPost2010PropOp56
 70
     1
102
RTVSPost2010Prop57
140
1.0
102
RTVSPost2010PropOp57
 70
     1
102
RTVSPropertyOp0
 70
     1
102
RTVSPropertyOp1
 70
     1
102
RTVSPropertyOp2
 70
     1
102
RTVSPropertyOp3
 70
     1
102
RTVSPropertyOp4
 70
     1
102
RTVSPropertyOp5
 70
     1
102
RTVSPropertyOp6
 70
     1
102
RTVSPropertyOp7
 70
     1
102
RTVSPropertyOp8
 70
     1
102
RTVSPropertyOp9
 70
     1
102
RTVSPropertyOp10
 70
     1
102
RTVSPropertyOp11
 70
     1
102
RTVSPropertyOp12
 70
     1
102
RTVSPropertyOp13
 70
     1
102
RTVSPropertyOp14
 70
     1
102
RTVSPropertyOp15
 70
     1
102
RTVSPropertyOp16
 70
     1
102
RTVSPropertyOp17
 70
     1
102
RTVSPropertyOp18
 70
     1
102
RTVSPropertyOp19
 70
     1
102
RTVSPropertyOp20
 70
     1
102
RTVSPropertyOp21
 70
     1
102
RTVSPropertyOp22
 70
     1
102
RTVSPropertyOp23
 70
     1
102
RTVSPropertyOp24
 70
     1
102
RTVSPropertyOp25
 70
     1
102
RTVSPropertyOp26
 70
     1
102
RTVSPropertyOp27
 70
     1
102
RTVSPropertyOp28
 70
     1
102
RTVSPropertyOp29
 70
     1
102
RTVSPropertyOp30
 70
     1
102
RTVSPropertyOp31
 70
     1
102
RTVSPropertyOp32
 70
     1
102
RTVSPropertyOp33
 70
     1
102
RTVSPropertyOp34
 70
     1
102
RTVSPropertyOp35
 70
     1
102
RTVSPropertyOp36
 70
     1
102
RTVSPropertyOp37
 70
     1
102
RTVSPropertyOp38
 70
     1
102
RTVSPropertyOp39
 70
     1
102
RTVSPropertyOp40
 70
     1
102
RTVSPropertyOp41
 70
     1
102
RTVSPropertyOp42
 70
     1
102
RTVSPropertyOp43
 70
     1
102
RTVSPropertyOp44
 70
     1
102
RTVSPropertyOp45
 70
     1
102
RTVSPropertyOp46
 70
     1
102
RTVSPropertyOp47
 70
     1
102
RTVSPropertyOp48
 70
     1
102
RTVSPropertyOp49
 70
     1
102
RTVSPropertyOp50
 70
     1
102
RTVSPropertyOp51
 70
     0
102
RTVSPropertyOp52
 70
     0
102
RTVSPropertyOp53
 70
     1
102
RTVSPropertyOp54
 70
     1
102
RTVSPropertyOp55
 70
     1
102
RTVSPropertyOp56
 70
     1
102
RTVSPropertyOp57
 70
     1
102
RTVSPropertyOp58
 70
     1
102
RTVSPropertyOp59
 70
     1
102
RTVSPropertyOp60
 70
     1
102
RTVSPropertyOp61
 70
     1
102
RTVSPropertyOp62
 70
     1
  0
XRECORD
  5
62A
102
{ACAD_REACTORS
330
629
102
}
330
629
100
AcDbXrecord
280
     1
102
RTVSPost2010Prop28
280
     0
102
RTVSPost2010PropOp28
 70
     1
102
RTVSPost2010Prop29
280
     1
102
RTVSPost2010PropOp29
 70
     1
102
RTVSPost2010Prop30
280
     1
102
RTVSPost2010PropOp30
 70
     1
102
RTVSPost2010Prop31
280
     0
102
RTVSPost2010PropOp31
 70
     1
102
RTVSPost2010Prop32
280
     0
102
RTVSPost2010PropOp32
 70
     1
102
RTVSPost2010Prop33
280
     0
102
RTVSPost2010PropOp33
 70
     1
102
RTVSPost2010Prop34
280
     0
102
RTVSPost2010PropOp34
 70
     1
102
RTVSPost2010Prop35
280
     0
102
RTVSPost2010PropOp35
 70
     1
102
RTVSPost2010Prop36
280
     0
102
RTVSPost2010PropOp36
 70
     1
102
RTVSPost2010Prop37
 90
       50
102
RTVSPost2010PropOp37
 70
     1
102
RTVSPost2010Prop38
140
0.0
102
RTVSPost2010PropOp38
 70
     1
102
RTVSPost2010Prop39
140
1.0
102
RTVSPost2010PropOp39
 70
     1
102
RTVSPost2010Prop40
 90
        0
102
RTVSPost2010PropOp40
 70
     1
102
RTVSPost2010Prop41ColorIndex
 90
       18
102
RTVSPost2010Prop41ColorRGB
 90
        0
102
RTVSPost2010PropOp41
 70
     1
102
RTVSPost2010Prop42
 90
       50
102
RTVSPost2010PropOp42
 70
     1
102
RTVSPost2010Prop43
 90
        3
102
RTVSPost2010PropOp43
 70
     1
102
RTVSPost2010Prop44ColorIndex
 90
        5
102
RTVSPost2010Prop44ColorRGB
 90
      255
102
RTVSPost2010PropOp44
 70
     1
102
RTVSPost2010Prop45
280
     0
102
RTVSPost2010PropOp45
 70
     1
102
RTVSPost2010Prop46
 90
       50
102
RTVSPost2010PropOp46
 70
     1
102
RTVSPost2010Prop47
 90
       50
102
RTVSPost2010PropOp47
 70
     1
102
RTVSPost2010Prop48
 90
       50
102
RTVSPost2010PropOp48
 70
     1
102
RTVSPost2010Prop49
280
     0
102
RTVSPost2010PropOp49
 70
     1
102
RTVSPost2010Prop50
 90
       50
102
RTVSPost2010PropOp50
 70
     1
102
RTVSPost2010Prop51ColorIndex
 90
      256
102
RTVSPost2010Prop51ColorRGB
 90
-16777216
102
RTVSPost2010PropOp51
 70
     0
102
RTVSPost2010Prop52
140
1.0
102
RTVSPost2010PropOp52
 70
     0
102
RTVSPost2010Prop53
 90
        2
102
RTVSPost2010PropOp53
 70
     1
102
RTVSPost2010Prop54
  1
strokes_ogs.tif
102
RTVSPost2010PropOp54
 70
     1
102
RTVSPost2010Prop55
280
     0
102
RTVSPost2010PropOp55
 70
     1
102
RTVSPost2010Prop56
140
1.0
102
RTVSPost2010PropOp56
 70
     1
102
RTVSPost2010Prop57
140
1.0
102
RTVSPost2010PropOp57
 70
     1
102
RTVSPropertyOp0
 70
     1
102
RTVSPropertyOp1
 70
     1
102
RTVSPropertyOp2
 70
     1
102
RTVSPropertyOp3
 70
     1
102
RTVSPropertyOp4
 70
     1
102
RTVSPropertyOp5
 70
     1
102
RTVSPropertyOp6
 70
     1
102
RTVSPropertyOp7
 70
     1
102
RTVSPropertyOp8
 70
     1
102
RTVSPropertyOp9
 70
     1
102
RTVSPropertyOp10
 70
     1
102
RTVSPropertyOp11
 70
     1
102
RTVSPropertyOp12
 70
     1
102
RTVSPropertyOp13
 70
     1
102
RTVSPropertyOp14
 70
     1
102
RTVSPropertyOp15
 70
     1
102
RTVSPropertyOp16
 70
     1
102
RTVSPropertyOp17
 70
     1
102
RTVSPropertyOp18
 70
     1
102
RTVSPropertyOp19
 70
     1
102
RTVSPropertyOp20
 70
     1
102
RTVSPropertyOp21
 70
     1
102
RTVSPropertyOp22
 70
     1
102
RTVSPropertyOp23
 70
     1
102
RTVSPropertyOp24
 70
     1
102
RTVSPropertyOp25
 70
     1
102
RTVSPropertyOp26
 70
     1
102
RTVSPropertyOp27
 70
     1
102
RTVSPropertyOp28
 70
     1
102
RTVSPropertyOp29
 70
     1
102
RTVSPropertyOp30
 70
     1
102
RTVSPropertyOp31
 70
     1
102
RTVSPropertyOp32
 70
     1
102
RTVSPropertyOp33
 70
     1
102
RTVSPropertyOp34
 70
     1
102
RTVSPropertyOp35
 70
     1
102
RTVSPropertyOp36
 70
     1
102
RTVSPropertyOp37
 70
     1
102
RTVSPropertyOp38
 70
     1
102
RTVSPropertyOp39
 70
     1
102
RTVSPropertyOp40
 70
     1
102
RTVSPropertyOp41
 70
     1
102
RTVSPropertyOp42
 70
     1
102
RTVSPropertyOp43
 70
     1
102
RTVSPropertyOp44
 70
     1
102
RTVSPropertyOp45
 70
     1
102
RTVSPropertyOp46
 70
     1
102
RTVSPropertyOp47
 70
     1
102
RTVSPropertyOp48
 70
     1
102
RTVSPropertyOp49
 70
     1
102
RTVSPropertyOp50
 70
     1
102
RTVSPropertyOp51
 70
     0
102
RTVSPropertyOp52
 70
     0
102
RTVSPropertyOp53
 70
     1
102
RTVSPropertyOp54
 70
     1
102
RTVSPropertyOp55
 70
     1
102
RTVSPropertyOp56
 70
     1
102
RTVSPropertyOp57
 70
     1
102
RTVSPropertyOp58
 70
     1
102
RTVSPropertyOp59
 70
     1
102
RTVSPropertyOp60
 70
     1
102
RTVSPropertyOp61
 70
     1
102
RTVSPropertyOp62
 70
     1
  0
XRECORD
  5
642
102
{ACAD_REACTORS
330
641
102
}
330
641
100
AcDbXrecord
280
     1
102
RTVSPost2010Prop28
280
     0
102
RTVSPost2010PropOp28
 70
     1
102
RTVSPost2010Prop29
280
     1
102
RTVSPost2010PropOp29
 70
     1
102
RTVSPost2010Prop30
280
     1
102
RTVSPost2010PropOp30
 70
     1
102
RTVSPost2010Prop31
280
     0
102
RTVSPost2010PropOp31
 70
     1
102
RTVSPost2010Prop32
280
     0
102
RTVSPost2010PropOp32
 70
     1
102
RTVSPost2010Prop33
280
     0
102
RTVSPost2010PropOp33
 70
     1
102
RTVSPost2010Prop34
280
     0
102
RTVSPost2010PropOp34
 70
     1
102
RTVSPost2010Prop35
280
     0
102
RTVSPost2010PropOp35
 70
     1
102
RTVSPost2010Prop36
280
     0
102
RTVSPost2010PropOp36
 70
     1
102
RTVSPost2010Prop37
 90
       50
102
RTVSPost2010PropOp37
 70
     1
102
RTVSPost2010Prop38
140
0.0
102
RTVSPost2010PropOp38
 70
     1
102
RTVSPost2010Prop39
140
1.0
102
RTVSPost2010PropOp39
 70
     1
102
RTVSPost2010Prop40
 90
        0
102
RTVSPost2010PropOp40
 70
     1
102
RTVSPost2010Prop41ColorIndex
 90
       18
102
RTVSPost2010Prop41ColorRGB
 90
        0
102
RTVSPost2010PropOp41
 70
     1
102
RTVSPost2010Prop42
 90
       50
102
RTVSPost2010PropOp42
 70
     1
102
RTVSPost2010Prop43
 90
        3
102
RTVSPost2010PropOp43
 70
     1
102
RTVSPost2010Prop44ColorIndex
 90
        5
102
RTVSPost2010Prop44ColorRGB
 90
      255
102
RTVSPost2010PropOp44
 70
     1
102
RTVSPost2010Prop45
280
     0
102
RTVSPost2010PropOp45
 70
     1
102
RTVSPost2010Prop46
 90
       50
102
RTVSPost2010PropOp46
 70
     1
102
RTVSPost2010Prop47
 90
       50
102
RTVSPost2010PropOp47
 70
     1
102
RTVSPost2010Prop48
 90
       50
102
RTVSPost2010PropOp48
 70
     1
102
RTVSPost2010Prop49
280
     0
102
RTVSPost2010PropOp49
 70
     1
102
RTVSPost2010Prop50
 90
       50
102
RTVSPost2010PropOp50
 70
     1
102
RTVSPost2010Prop51ColorIndex
 90
      256
102
RTVSPost2010Prop51ColorRGB
 90
-16777216
102
RTVSPost2010PropOp51
 70
     0
102
RTVSPost2010Prop52
140
1.0
102
RTVSPost2010PropOp52
 70
     0
102
RTVSPost2010Prop53
 90
        2
102
RTVSPost2010PropOp53
 70
     1
102
RTVSPost2010Prop54
  1
strokes_ogs.tif
102
RTVSPost2010PropOp54
 70
     1
102
RTVSPost2010Prop55
280
     0
102
RTVSPost2010PropOp55
 70
     1
102
RTVSPost2010Prop56
140
1.0
102
RTVSPost2010PropOp56
 70
     1
102
RTVSPost2010Prop57
140
1.0
102
RTVSPost2010PropOp57
 70
     1
102
RTVSPropertyOp0
 70
     1
102
RTVSPropertyOp1
 70
     1
102
RTVSPropertyOp2
 70
     1
102
RTVSPropertyOp3
 70
     1
102
RTVSPropertyOp4
 70
     1
102
RTVSPropertyOp5
 70
     1
102
RTVSPropertyOp6
 70
     1
102
RTVSPropertyOp7
 70
     1
102
RTVSPropertyOp8
 70
     1
102
RTVSPropertyOp9
 70
     1
102
RTVSPropertyOp10
 70
     1
102
RTVSPropertyOp11
 70
     1
102
RTVSPropertyOp12
 70
     1
102
RTVSPropertyOp13
 70
     1
102
RTVSPropertyOp14
 70
     1
102
RTVSPropertyOp15
 70
     1
102
RTVSPropertyOp16
 70
     1
102
RTVSPropertyOp17
 70
     1
102
RTVSPropertyOp18
 70
     1
102
RTVSPropertyOp19
 70
     1
102
RTVSPropertyOp20
 70
     1
102
RTVSPropertyOp21
 70
     1
102
RTVSPropertyOp22
 70
     1
102
RTVSPropertyOp23
 70
     1
102
RTVSPropertyOp24
 70
     1
102
RTVSPropertyOp25
 70
     1
102
RTVSPropertyOp26
 70
     1
102
RTVSPropertyOp27
 70
     1
102
RTVSPropertyOp28
 70
     1
102
RTVSPropertyOp29
 70
     1
102
RTVSPropertyOp30
 70
     1
102
RTVSPropertyOp31
 70
     1
102
RTVSPropertyOp32
 70
     1
102
RTVSPropertyOp33
 70
     1
102
RTVSPropertyOp34
 70
     1
102
RTVSPropertyOp35
 70
     1
102
RTVSPropertyOp36
 70
     1
102
RTVSPropertyOp37
 70
     1
102
RTVSPropertyOp38
 70
     1
102
RTVSPropertyOp39
 70
     1
102
RTVSPropertyOp40
 70
     1
102
RTVSPropertyOp41
 70
     1
102
RTVSPropertyOp42
 70
     1
102
RTVSPropertyOp43
 70
     1
102
RTVSPropertyOp44
 70
     1
102
RTVSPropertyOp45
 70
     1
102
RTVSPropertyOp46
 70
     1
102
RTVSPropertyOp47
 70
     1
102
RTVSPropertyOp48
 70
     1
102
RTVSPropertyOp49
 70
     1
102
RTVSPropertyOp50
 70
     1
102
RTVSPropertyOp51
 70
     0
102
RTVSPropertyOp52
 70
     0
102
RTVSPropertyOp53
 70
     1
102
RTVSPropertyOp54
 70
     1
102
RTVSPropertyOp55
 70
     1
102
RTVSPropertyOp56
 70
     1
102
RTVSPropertyOp57
 70
     1
102
RTVSPropertyOp58
 70
     1
102
RTVSPropertyOp59
 70
     1
102
RTVSPropertyOp60
 70
     1
102
RTVSPropertyOp61
 70
     1
102
RTVSPropertyOp62
 70
     1
  0
ENDSEC
  0
EOF
