  0
SECTION
  2
HEADER
  9
$ACADVER
  1
AC1018
  9
$ACADMAINTVER
 70
   104
  9
$DWGCODEPAGE
  3
ANSI_932
  9
$LASTSAVEDBY
  1
sasaki_n
  9
$INSBASE
 10
0.0
 20
0.0
 30
0.0
  9
$EXTMIN
 10
-1350.082391174606
 20
-2014.883294593333
 30
-0.0015258207003583
  9
$EXTMAX
 10
1350.082403747461
 20
1999.567671355127
 30
0.0000000349246037
  9
$LIMMIN
 10
0.0
 20
0.0
  9
$LIMMAX
 10
0.0
 20
0.0
  9
$ORTHOMODE
 70
     0
  9
$REGENMODE
 70
     1
  9
$FILLMODE
 70
     1
  9
$QTEXTMODE
 70
     0
  9
$MIRRTEXT
 70
     1
  9
$LTSCALE
 40
76.2
  9
$ATTMODE
 70
     1
  9
$TEXTSIZE
 40
0.0
  9
$TRACEWID
 40
1.0
  9
$TEXTSTYLE
  7
STANDARD
  9
$CLAYER
  8
DATA
  9
$CELTYPE
  6
ByLayer
  9
$CECOLOR
 62
   256
  9
$CELTSCALE
 40
1.0
  9
$DISPSILH
 70
     0
  9
$DIMSCALE
 40
1.0
  9
$DIMASZ
 40
0.18
  9
$DIMEXO
 40
0.0625
  9
$DIMDLI
 40
0.38
  9
$DIMRND
 40
0.0
  9
$DIMDLE
 40
0.0
  9
$DIMEXE
 40
0.18
  9
$DIMTP
 40
0.0
  9
$DIMTM
 40
0.0
  9
$DIMTXT
 40
0.18
  9
$DIMCEN
 40
0.09
  9
$DIMTSZ
 40
0.0
  9
$DIMTOL
 70
     0
  9
$DIMLIM
 70
     0
  9
$DIMTIH
 70
     1
  9
$DIMTOH
 70
     1
  9
$DIMSE1
 70
     0
  9
$DIMSE2
 70
     0
  9
$DIMTAD
 70
     0
  9
$DIMZIN
 70
     0
  9
$DIMBLK
  1

  9
$DIMASO
 70
     1
  9
$DIMSHO
 70
     1
  9
$DIMPOST
  1

  9
$DIMAPOST
  1

  9
$DIMALT
 70
     0
  9
$DIMALTD
 70
     2
  9
$DIMALTF
 40
25.4
  9
$DIMLFAC
 40
1.0
  9
$DIMTOFL
 70
     0
  9
$DIMTVP
 40
0.0
  9
$DIMTIX
 70
     0
  9
$DIMSOXD
 70
     0
  9
$DIMSAH
 70
     0
  9
$DIMBLK1
  1

  9
$DIMBLK2
  1

  9
$DIMSTYLE
  2
STANDARD
  9
$DIMCLRD
 70
     0
  9
$DIMCLRE
 70
     0
  9
$DIMCLRT
 70
     0
  9
$DIMTFAC
 40
1.0
  9
$DIMGAP
 40
0.09
  9
$DIMJUST
 70
     0
  9
$DIMSD1
 70
     0
  9
$DIMSD2
 70
     0
  9
$DIMTOLJ
 70
     1
  9
$DIMTZIN
 70
     0
  9
$DIMALTZ
 70
     0
  9
$DIMALTTZ
 70
     0
  9
$DIMUPT
 70
     0
  9
$DIMDEC
 70
     4
  9
$DIMTDEC
 70
     4
  9
$DIMALTU
 70
     2
  9
$DIMALTTD
 70
     2
  9
$DIMTXSTY
  7
STANDARD
  9
$DIMAUNIT
 70
     0
  9
$DIMADEC
 70
     0
  9
$DIMALTRND
 40
0.0
  9
$DIMAZIN
 70
     0
  9
$DIMDSEP
 70
    46
  9
$DIMATFIT
 70
     3
  9
$DIMFRAC
 70
     0
  9
$DIMLDRBLK
  1

  9
$DIMLUNIT
 70
     2
  9
$DIMLWD
 70
    -2
  9
$DIMLWE
 70
    -2
  9
$DIMTMOVE
 70
     0
  9
$LUNITS
 70
     2
  9
$LUPREC
 70
     4
  9
$SKETCHINC
 40
0.1
  9
$FILLETRAD
 40
0.0
  9
$AUNITS
 70
     0
  9
$AUPREC
 70
     0
  9
$MENU
  1
acad
  9
$ELEVATION
 40
0.0
  9
$PELEVATION
 40
0.0
  9
$THICKNESS
 40
0.0
  9
$LIMCHECK
 70
     0
  9
$CHAMFERA
 40
0.0
  9
$CHAMFERB
 40
0.0
  9
$CHAMFERC
 40
0.0
  9
$CHAMFERD
 40
0.0
  9
$SKPOLY
 70
     0
  9
$TDCREATE
 40
2457812.430162038
  9
$TDUCREATE
 40
2457812.055162037
  9
$TDUPDATE
 40
2457812.451087963
  9
$TDUUPDATE
 40
2457812.076087963
  9
$TDINDWG
 40
0.0003356481
  9
$TDUSRTIMER
 40
0.0003356481
  9
$USRTIMER
 70
     1
  9
$ANGBASE
 50
0.0
  9
$ANGDIR
 70
     0
  9
$PDMODE
 70
     1
  9
$PDSIZE
 40
-2.0
  9
$PLINEWID
 40
0.0
  9
$SPLFRAME
 70
     0
  9
$SPLINETYPE
 70
     6
  9
$SPLINESEGS
 70
     8
  9
$HANDSEED
  5
605
  9
$SURFTAB1
 70
     6
  9
$SURFTAB2
 70
     6
  9
$SURFTYPE
 70
     6
  9
$SURFU
 70
     6
  9
$SURFV
 70
     6
  9
$UCSBASE
  2

  9
$UCSNAME
  2

  9
$UCSORG
 10
0.0
 20
0.0
 30
0.0
  9
$UCSXDIR
 10
1.0
 20
0.0
 30
0.0
  9
$UCSYDIR
 10
0.0
 20
1.0
 30
0.0
  9
$UCSORTHOREF
  2

  9
$UCSORTHOVIEW
 70
     0
  9
$UCSORGTOP
 10
0.0
 20
0.0
 30
0.0
  9
$UCSORGBOTTOM
 10
0.0
 20
0.0
 30
0.0
  9
$UCSORGLEFT
 10
0.0
 20
0.0
 30
0.0
  9
$UCSORGRIGHT
 10
0.0
 20
0.0
 30
0.0
  9
$UCSORGFRONT
 10
0.0
 20
0.0
 30
0.0
  9
$UCSORGBACK
 10
0.0
 20
0.0
 30
0.0
  9
$PUCSBASE
  2

  9
$PUCSNAME
  2

  9
$PUCSORG
 10
0.0
 20
0.0
 30
0.0
  9
$PUCSXDIR
 10
1.0
 20
0.0
 30
0.0
  9
$PUCSYDIR
 10
0.0
 20
1.0
 30
0.0
  9
$PUCSORTHOREF
  2

  9
$PUCSORTHOVIEW
 70
     0
  9
$PUCSORGTOP
 10
0.0
 20
0.0
 30
0.0
  9
$PUCSORGBOTTOM
 10
0.0
 20
0.0
 30
0.0
  9
$PUCSORGLEFT
 10
0.0
 20
0.0
 30
0.0
  9
$PUCSORGRIGHT
 10
0.0
 20
0.0
 30
0.0
  9
$PUCSORGFRONT
 10
0.0
 20
0.0
 30
0.0
  9
$PUCSORGBACK
 10
0.0
 20
0.0
 30
0.0
  9
$USERI1
 70
     0
  9
$USERI2
 70
     0
  9
$USERI3
 70
     0
  9
$USERI4
 70
     0
  9
$USERI5
 70
     0
  9
$USERR1
 40
0.0
  9
$USERR2
 40
0.0
  9
$USERR3
 40
0.0
  9
$USERR4
 40
0.0
  9
$USERR5
 40
0.0
  9
$WORLDVIEW
 70
     1
  9
$SHADEDGE
 70
     3
  9
$SHADEDIF
 70
    70
  9
$TILEMODE
 70
     1
  9
$MAXACTVP
 70
    64
  9
$PINSBASE
 10
0.0
 20
0.0
 30
0.0
  9
$PLIMCHECK
 70
     0
  9
$PEXTMIN
 10
1.000000000000000E+20
 20
1.000000000000000E+20
 30
1.000000000000000E+20
  9
$PEXTMAX
 10
-1.000000000000000E+20
 20
-1.000000000000000E+20
 30
-1.000000000000000E+20
  9
$PLIMMIN
 10
0.0
 20
0.0
  9
$PLIMMAX
 10
12.0
 20
9.0
  9
$UNITMODE
 70
     0
  9
$VISRETAIN
 70
     0
  9
$PLINEGEN
 70
     1
  9
$PSLTSCALE
 70
     0
  9
$TREEDEPTH
 70
  3020
  9
$CMLSTYLE
  2
Standard
  9
$CMLJUST
 70
     0
  9
$CMLSCALE
 40
1.0
  9
$PROXYGRAPHICS
 70
     1
  9
$MEASUREMENT
 70
     0
  9
$CELWEIGHT
370
    -1
  9
$ENDCAPS
280
     0
  9
$JOINSTYLE
280
     0
  9
$LWDISPLAY
290
     0
  9
$INSUNITS
 70
     0
  9
$HYPERLINKBASE
  1

  9
$STYLESHEET
  1

  9
$XEDIT
290
     1
  9
$CEPSNTYPE
380
     0
  9
$PSTYLEMODE
290
     1
  9
$FINGERPRINTGUID
  2
{680E5CB3-A853-4842-A2F9-5E41702D1F1A}
  9
$VERSIONGUID
  2
{A9C2E19C-C418-3E48-B698-8D64C6CE27CE}
  9
$EXTNAMES
290
     1
  9
$PSVPSCALE
 40
0.0
  9
$OLESTARTUP
290
     0
  9
$SORTENTS
280
   127
  9
$INDEXCTL
280
     0
  9
$HIDETEXT
280
     0
  9
$XCLIPFRAME
290
     0
  9
$HALOGAP
280
     0
  9
$OBSCOLOR
 70
   257
  9
$OBSLTYPE
280
     0
  9
$INTERSECTIONDISPLAY
280
     0
  9
$INTERSECTIONCOLOR
 70
   257
  9
$DIMASSOC
280
     1
  9
$PROJECTNAME
  1

  0
ENDSEC
  0
SECTION
  2
CLASSES
  0
CLASS
  1
ACDBDICTIONARYWDFLT
  2
AcDbDictionaryWithDefault
  3
ObjectDBX Classes
 90
        0
 91
        1
280
     0
281
     0
  0
CLASS
  1
MATERIAL
  2
AcDbMaterial
  3
ObjectDBX Classes
 90
     1153
 91
        3
280
     0
281
     0
  0
CLASS
  1
VISUALSTYLE
  2
AcDbVisualStyle
  3
ObjectDBX Classes
 90
     4095
 91
       24
280
     0
281
     0
  0
CLASS
  1
SCALE
  2
AcDbScale
  3
ObjectDBX Classes
 90
     1153
 91
       17
280
     0
281
     0
  0
CLASS
  1
TABLESTYLE
  2
AcDbTableStyle
  3
ObjectDBX Classes
 90
     4095
 91
        1
280
     0
281
     0
  0
CLASS
  1
MLEADERSTYLE
  2
AcDbMLeaderStyle
  3
ACDB_MLEADERSTYLE_CLASS
 90
     4095
 91
        1
280
     0
281
     0
  0
CLASS
  1
ACDBSECTIONVIEWSTYLE
  2
AcDbSectionViewStyle
  3
ObjectDBX Classes
 90
     1025
 91
        1
280
     0
281
     0
  0
CLASS
  1
ACDBDETAILVIEWSTYLE
  2
AcDbDetailViewStyle
  3
ObjectDBX Classes
 90
     1025
 91
        1
280
     0
281
     0
  0
CLASS
  1
DICTIONARYVAR
  2
AcDbDictionaryVar
  3
ObjectDBX Classes
 90
        0
 91
        6
280
     0
281
     0
  0
CLASS
  1
CELLSTYLEMAP
  2
AcDbCellStyleMap
  3
ObjectDBX Classes
 90
     1152
 91
        1
280
     0
281
     0
  0
ENDSEC
  0
SECTION
  2
TABLES
  0
TABLE
  2
VPORT
  5
537
330
0
100
AcDbSymbolTable
 70
     1
  0
VPORT
  5
5A3
330
537
100
AcDbSymbolTableRecord
100
AcDbViewportTableRecord
  2
*ACTIVE
 70
     0
 10
0.0
 20
0.0
 11
1.0
 21
1.0
 12
0.0000062864282881
 22
-7.657811619102631
 13
0.0
 23
0.0
 14
1.0
 24
1.0
 15
0.0
 25
0.0
 16
0.0
 26
0.0
 36
1.0
 17
0.0
 27
0.0
 37
0.0
 40
4036.794848875817
 41
2.358402971216341
 42
50.0
 43
0.0
 44
0.0
 50
0.0
 51
0.0
 71
     0
 72
  2000
 73
     1
 74
     1
 75
     0
 76
     0
 77
     0
 78
     0
281
     0
 65
     1
110
0.0
120
0.0
130
0.0
111
1.0
121
0.0
131
0.0
112
0.0
122
1.0
132
0.0
 79
     0
146
0.0
1001
ACAD_NAV_VCDISPLAY
1070
     3
  0
ENDTAB
  0
TABLE
  2
LTYPE
  5
534
330
0
100
AcDbSymbolTable
 70
    11
  0
LTYPE
  5
589
330
534
100
AcDbSymbolTableRecord
100
AcDbLinetypeTableRecord
  2
ByBlock
 70
     0
  3

 72
    65
 73
     0
 40
0.0
  0
LTYPE
  5
58A
330
534
100
AcDbSymbolTableRecord
100
AcDbLinetypeTableRecord
  2
ByLayer
 70
     0
  3

 72
    65
 73
     0
 40
0.0
  0
LTYPE
  5
58B
330
534
100
AcDbSymbolTableRecord
100
AcDbLinetypeTableRecord
  2
CONTINUOUS
 70
     0
  3
Solid line
 72
    65
 73
     0
 40
0.0
  0
LTYPE
  5
5A9
330
534
100
AcDbSymbolTableRecord
100
AcDbLinetypeTableRecord
  2
STYLE_06
 70
     0
  3

 72
    65
 73
     4
 40
1.041641235351562
 49
0.625
 74
     0
 49
-0.208282470703125
 74
     0
 49
0.069427490234375
 74
     0
 49
-0.1389312744140625
 74
     0
  0
ENDTAB
  0
TABLE
  2
LAYER
  5
531
330
0
100
AcDbSymbolTable
 70
     5
  0
LAYER
  5
583
102
{ACAD_XDICTIONARY
360
5B7
102
}
330
531
100
AcDbSymbolTableRecord
100
AcDbLayerTableRecord
  2
0
 70
     0
 62
     7
  6
CONTINUOUS
370
    -3
390
53E
  0
LAYER
  5
5A2
102
{ACAD_XDICTIONARY
360
5B9
102
}
330
531
100
AcDbSymbolTableRecord
100
AcDbLayerTableRecord
  2
DATA
 70
     0
 62
     7
  6
CONTINUOUS
370
    -3
390
53E
  0
LAYER
  5
5AE
102
{ACAD_XDICTIONARY
360
5BB
102
}
330
531
100
AcDbSymbolTableRecord
100
AcDbLayerTableRecord
  2
HIBINO-BASE
 70
     0
 62
     7
  6
CONTINUOUS
370
    -3
390
53E
  0
LAYER
  5
5AF
102
{ACAD_XDICTIONARY
360
5BD
102
}
330
531
100
AcDbSymbolTableRecord
100
AcDbLayerTableRecord
  2
SPEC
 70
     0
 62
     7
  6
CONTINUOUS
370
    -3
390
53E
  0
LAYER
  5
5B0
102
{ACAD_XDICTIONARY
360
5BF
102
}
330
531
100
AcDbSymbolTableRecord
100
AcDbLayerTableRecord
  2
DIMNSIONS
 70
     0
 62
     7
  6
CONTINUOUS
370
    -3
390
53E
  0
ENDTAB
  0
TABLE
  2
STYLE
  5
532
330
0
100
AcDbSymbolTable
 70
     3
  0
STYLE
  5
584
330
532
100
AcDbSymbolTableRecord
100
AcDbTextStyleTableRecord
  2
STANDARD
 70
     0
 40
0.0
 41
1.0
 50
0.0
 71
     0
 42
0.0
  3
txt
  4
BIGFONT.SHX
  0
ENDTAB
  0
TABLE
  2
VIEW
  5
535
330
0
100
AcDbSymbolTable
 70
     0
  0
ENDTAB
  0
TABLE
  2
UCS
  5
536
330
0
100
AcDbSymbolTable
 70
     0
  0
ENDTAB
  0
TABLE
  2
APPID
  5
538
330
0
100
AcDbSymbolTable
 70
     4
  0
APPID
  5
585
330
538
100
AcDbSymbolTableRecord
100
AcDbRegAppTableRecord
  2
ACAD
 70
     0
  0
APPID
  5
58C
330
538
100
AcDbSymbolTableRecord
100
AcDbRegAppTableRecord
  2
AcadAnnotative
 70
     0
  0
APPID
  5
5C8
330
538
100
AcDbSymbolTableRecord
100
AcDbRegAppTableRecord
  2
ACAD_NAV_VCDISPLAY
 70
     0
  0
APPID
  5
600
330
538
100
AcDbSymbolTableRecord
100
AcDbRegAppTableRecord
  2
ACAD_MLEADERVER
 70
     0
  0
ENDTAB
  0
TABLE
  2
DIMSTYLE
  5
539
330
0
100
AcDbSymbolTable
 70
     2
100
AcDbDimStyleTable
 71
     0
  0
DIMSTYLE
105
586
330
539
100
AcDbSymbolTableRecord
100
AcDbDimStyleTableRecord
  2
STANDARD
 70
     0
279
     2
340
584
  0
ENDTAB
  0
TABLE
  2
BLOCK_RECORD
  5
530
330
0
100
AcDbSymbolTable
 70
     0
  0
BLOCK_RECORD
  5
59E
330
530
100
AcDbSymbolTableRecord
100
AcDbBlockTableRecord
  2
*Model_Space
340
5A1
  0
BLOCK_RECORD
  5
59A
330
530
100
AcDbSymbolTableRecord
100
AcDbBlockTableRecord
  2
*Paper_Space
340
59D
  0
ENDTAB
  0
ENDSEC
  0
SECTION
  2
BLOCKS
  0
BLOCK
  5
59F
330
59E
100
AcDbEntity
  8
0
100
AcDbBlockBegin
  2
*Model_Space
 70
     0
 10
0.0
 20
0.0
 30
0.0
  3
*Model_Space
  1

  0
ENDBLK
  5
5A0
330
59E
100
AcDbEntity
  8
0
100
AcDbBlockEnd
  0
BLOCK
  5
59B
330
59A
100
AcDbEntity
 67
     1
  8
0
100
AcDbBlockBegin
  2
*Paper_Space
 70
     0
 10
0.0
 20
0.0
 30
0.0
  3
*Paper_Space
  1

  0
ENDBLK
  5
59C
330
59A
100
AcDbEntity
 67
     1
  8
0
100
AcDbBlockEnd
  0
ENDSEC
  0
SECTION
  2
ENTITIES
  0
LINE
  5
2C
330
59E
100
AcDbEntity
  8
HIBINO-BASE
  6
Continuous
 62
     7
100
AcDbLine
 10
-1350.0
 20
1999.44541
 30
0.0
 11
1350.0
 21
1999.44541
 31
0.0
  0
LINE
  5
2D
330
59E
100
AcDbEntity
  8
HIBINO-BASE
  6
Continuous
 62
     7
100
AcDbLine
 10
1350.0
 20
-1900.554590000001
 30
0.0
 11
-1350.0
 21
-1900.554590000001
 31
0.0
  0
LINE
  5
2E
330
59E
100
AcDbEntity
  8
HIBINO-BASE
  6
Continuous
 62
     7
100
AcDbLine
 10
-1350.0
 20
-1900.554590000001
 30
0.0
 11
-1350.0
 21
1999.44541
 31
0.0
  0
LINE
  5
2F
330
59E
100
AcDbEntity
  8
HIBINO-BASE
  6
Continuous
 62
     7
100
AcDbLine
 10
1350.0
 20
1999.44541
 30
0.0
 11
1350.0
 21
-1900.554590000001
 31
0.0
  0
LINE
  5
30
330
59E
100
AcDbEntity
  8
HIBINO-BASE
  6
Continuous
 62
     7
100
AcDbLine
 10
0.0000000000001066
 20
-1563.054590000001
 30
0.0
 11
1350.0
 21
-1563.054590000001
 31
0.0
  0
LINE
  5
31
330
59E
100
AcDbEntity
  8
HIBINO-BASE
  6
Continuous
 62
     7
100
AcDbLine
 10
0.0000000000001066
 20
-1900.554590000001
 30
0.0
 11
0.0000000000001066
 21
-1563.054590000001
 31
0.0
  0
TEXT
  5
32
330
59E
100
AcDbEntity
  8
HIBINO-BASE
 62
     7
100
AcDbText
 10
13.50000000000019
 20
-1600.68499
 30
0.0
 40
24.4326171875
  1
NOTE
 41
0.7
 11
13.50000000000019
 21
-1576.2523728125
 31
0.0
100
AcDbText
 73
     3
  0
LINE
  5
33
330
59E
100
AcDbEntity
  8
HIBINO-BASE
  6
Continuous
 62
     7
100
AcDbLine
 10
525.0000000000003
 20
-1900.554590000001
 30
0.0
 11
525.0000000000003
 21
-1563.054590000001
 31
0.0
  0
TEXT
  5
34
330
59E
100
AcDbEntity
  8
HIBINO-BASE
 62
     7
100
AcDbText
 10
538.4999999999999
 20
-1600.68499
 30
0.0
 40
24.4326171875
  1
TITLE
 41
0.7
 11
538.4999999999999
 21
-1576.2523728125
 31
0.0
100
AcDbText
 73
     3
  0
LINE
  5
35
330
59E
100
AcDbEntity
  8
HIBINO-BASE
  6
Continuous
 62
     7
100
AcDbLine
 10
0.0000000000001066
 20
-1750.554590000001
 30
0.0
 11
1350.0
 21
-1750.554590000001
 31
0.0
  0
TEXT
  5
36
330
59E
100
AcDbEntity
  8
HIBINO-BASE
 62
     7
100
AcDbText
 10
726.0
 20
-1787.34019
 30
0.0
 40
24.4326171875
  1
DRAWN
 41
0.7
 11
726.0
 21
-1762.9075728125
 31
0.0
100
AcDbText
 73
     3
  0
TEXT
  5
37
330
59E
100
AcDbEntity
  8
HIBINO-BASE
 62
     7
100
AcDbText
 10
351.0
 20
-1787.34019
 30
0.0
 40
24.4326171875
  1
DATE
 41
0.7
 11
351.0
 21
-1762.9075728125
 31
0.0
100
AcDbText
 73
     3
  0
TEXT
  5
38
330
59E
100
AcDbEntity
  8
HIBINO-BASE
 62
     7
100
AcDbText
 10
201.0
 20
-1787.34019
 30
0.0
 40
24.4326171875
  1
SCALE
 41
0.7
 11
201.0
 21
-1762.9075728125
 31
0.0
100
AcDbText
 73
     3
  0
TEXT
  5
39
330
59E
100
AcDbEntity
  8
HIBINO-BASE
 62
     7
100
AcDbText
 10
538.4999999999999
 20
-1787.34019
 30
0.0
 40
24.4326171875
  1
DESIGN
 41
0.7
 11
538.4999999999999
 21
-1762.9075728125
 31
0.0
100
AcDbText
 73
     3
  0
TEXT
  5
3A
330
59E
100
AcDbEntity
  8
HIBINO-BASE
 62
     7
100
AcDbText
 10
1100.999999999999
 20
-1787.34019
 30
0.0
 40
24.4326171875
  1
DRAWING NO.
 41
0.7
 11
1100.999999999999
 21
-1762.9075728125
 31
0.0
100
AcDbText
 73
     3
  0
TEXT
  5
3B
330
59E
100
AcDbEntity
  8
HIBINO-BASE
 62
     7
100
AcDbText
 10
913.4999999999999
 20
-1787.34019
 30
0.0
 40
24.4326171875
  1
CHECK
 41
0.7
 11
913.4999999999999
 21
-1762.9075728125
 31
0.0
100
AcDbText
 73
     3
  0
LINE
  5
3C
330
59E
100
AcDbEntity
  8
HIBINO-BASE
  6
Continuous
 62
     7
100
AcDbLine
 10
215.6250000000001
 20
-1881.804590000001
 30
0.0
 11
271.8750000000004
 21
-1825.554590000001
 31
0.0
  0
TEXT
  5
3D
330
59E
100
AcDbEntity
  8
HIBINO-BASE
 62
     7
100
AcDbText
 10
206.2500000000001
 20
-1842.18874
 30
0.0
 40
24.4326171875
  1
1
 41
0.7
 11
206.2500000000001
 21
-1817.7561228125
 31
0.0
100
AcDbText
 73
     3
  0
LINE
  5
3E
330
59E
100
AcDbEntity
  8
HIBINO-BASE
  6
Continuous
 62
     7
100
AcDbLine
 10
187.5000000000001
 20
-1900.554590000001
 30
0.0
 11
187.5000000000001
 21
-1750.554590000001
 31
0.0
  0
LINE
  5
3F
330
59E
100
AcDbEntity
  8
HIBINO-BASE
  6
Continuous
 62
     7
100
AcDbLine
 10
337.4999999999999
 20
-1900.554590000001
 30
0.0
 11
337.4999999999999
 21
-1750.554590000001
 31
0.0
  0
LINE
  5
40
330
59E
100
AcDbEntity
  8
HIBINO-BASE
  6
Continuous
 62
     7
100
AcDbLine
 10
712.4999999999996
 20
-1750.554590000001
 30
0.0
 11
712.4999999999996
 21
-1900.554590000001
 31
0.0
  0
LINE
  5
41
330
59E
100
AcDbEntity
  8
HIBINO-BASE
  6
Continuous
 62
     7
100
AcDbLine
 10
1087.5
 20
-1750.554590000001
 30
0.0
 11
1087.5
 21
-1900.554590000001
 31
0.0
  0
LINE
  5
42
330
59E
100
AcDbEntity
  8
HIBINO-BASE
  6
Continuous
 62
     7
100
AcDbLine
 10
899.9999999999996
 20
-1900.554590000001
 30
0.0
 11
899.9999999999996
 21
-1750.554590000001
 31
0.0
  0
TEXT
  5
43
330
59E
100
AcDbEntity
  8
HIBINO-BASE
 62
     7
100
AcDbText
 10
350.3481000000002
 20
-1857.59989
 30
0.0
 40
24.4326171875
  1
'17.01.
 41
0.7
 11
350.3481000000002
 21
-1833.1672728125
 31
0.0
100
AcDbText
 73
     3
  0
TEXT
  5
44
330
59E
100
AcDbEntity
  8
HIBINO-BASE
 62
     7
100
AcDbText
 10
262.5
 20
-1870.31374
 30
0.0
 40
24.4326171875
  1
10
 41
0.7
 11
262.5
 21
-1845.8811228125
 31
0.0
100
AcDbText
 73
     3
  0
TEXT
  5
45
330
59E
100
AcDbEntity
  8
HIBINO-BASE
 62
     7
100
AcDbText
 10
735.0871501655194
 20
-1857.59989
 30
0.0
 40
24.4326171875
  1
N.Sasaki
 41
0.7
 11
735.0871501655194
 21
-1833.1672728125
 31
0.0
100
AcDbText
 73
     3
  0
TEXT
  5
46
330
59E
100
AcDbEntity
  8
HIBINO-BASE
 62
     7
100
AcDbText
 10
58.25000000000041
 20
-1870.91459
 30
0.0
 40
48.86523437499999
  1
A4
 41
0.7
 11
58.25000000000041
 21
-1822.049355625
 31
0.0
100
AcDbText
 73
     3
  0
TEXT
  5
47
330
59E
100
AcDbEntity
  8
HIBINO-BASE
 62
     7
100
AcDbText
 10
14.37500000000003
 20
-1789.846415
 30
0.0
 40
24.4326171875
  1
PAPER SIZE
 41
0.7
 11
14.37500000000003
 21
-1765.4137978125
 31
0.0
100
AcDbText
 73
     3
  0
TEXT
  5
48
330
59E
100
AcDbEntity
  8
HIBINO-BASE
 62
     7
100
AcDbText
 10
-1242.24
 20
-1996.684757
 30
0.0
 40
54.00066269531249
  1
Hibino Corporation
 41
0.7
 11
-1242.24
 21
-1942.684094304688
 31
0.0
100
AcDbText
 73
     3
  0
TEXT
  5
49
330
59E
100
AcDbEntity
  8
HIBINO-BASE
 62
     7
100
AcDbText
 10
751.02585
 20
-1996.684757
 30
0.0
 40
54.00066269531249
  1
ヒビノ株式会社
 41
0.7
 11
751.02585
 21
-1942.684094304688
 31
0.0
100
AcDbText
 73
     3
  0
TEXT
  5
4A
330
59E
100
AcDbEntity
  8
SPEC
 62
     7
100
AcDbText
 10
-1218.75
 20
1870.344459999999
 30
0.0
 40
36.64892578125
  1
仕様
 41
0.7
 11
-1218.75
 21
1906.993385781249
 31
0.0
100
AcDbText
 73
     3
  0
LINE
  5
4B
330
59E
100
AcDbEntity
  8
SPEC
  6
Continuous
 62
     7
100
AcDbLine
 10
-1237.5
 20
1849.44541
 30
0.0
 11
700.0
 21
1849.44541
 31
0.0
  0
LINE
  5
4C
330
59E
100
AcDbEntity
  8
SPEC
  6
Continuous
 62
     7
100
AcDbLine
 10
-1237.5
 20
1793.195409999999
 30
0.0
 11
700.0
 21
1793.195409999999
 31
0.0
  0
LINE
  5
4D
330
59E
100
AcDbEntity
  8
SPEC
  6
Continuous
 62
     7
100
AcDbLine
 10
-1237.5
 20
1849.44541
 30
0.0
 11
-1237.5
 21
949.4454099999993
 31
0.0
  0
LINE
  5
4E
330
59E
100
AcDbEntity
  8
SPEC
  6
Continuous
 62
     7
100
AcDbLine
 10
-699.9999999999996
 20
1849.44541
 30
0.0
 11
-699.9999999999996
 21
949.4454099999993
 31
0.0
  0
TEXT
  5
4F
330
59E
100
AcDbEntity
  8
SPEC
 62
     7
100
AcDbText
 10
-396.5577094184027
 20
1804.096816640625
 30
0.0
 40
28.50472005208333
  1
AC266
 41
0.7
 72
     1
 11
-350.0
 21
1818.349176666666
 31
0.0
100
AcDbText
 73
     2
  0
LINE
  5
50
330
59E
100
AcDbEntity
  8
SPEC
  6
Continuous
 62
     7
100
AcDbLine
 10
-1237.5
 20
1736.945409999999
 30
0.0
 11
700.0
 21
1736.945409999999
 31
0.0
  0
LINE
  5
51
330
59E
100
AcDbEntity
  8
SPEC
  6
Continuous
 62
     7
100
AcDbLine
 10
-1237.5
 20
1680.695409999999
 30
0.0
 11
700.0
 21
1680.695409999999
 31
0.0
  0
LINE
  5
52
330
59E
100
AcDbEntity
  8
SPEC
  6
Continuous
 62
     7
100
AcDbLine
 10
-1237.5
 20
1624.445409999999
 30
0.0
 11
700.0
 21
1624.445409999999
 31
0.0
  0
LINE
  5
53
330
59E
100
AcDbEntity
  8
SPEC
  6
Continuous
 62
     7
100
AcDbLine
 10
-1237.5
 20
1568.195409999999
 30
0.0
 11
700.0
 21
1568.195409999999
 31
0.0
  0
LINE
  5
54
330
59E
100
AcDbEntity
  8
SPEC
  6
Continuous
 62
     7
100
AcDbLine
 10
-1237.5
 20
1511.945409999999
 30
0.0
 11
700.0
 21
1511.945409999999
 31
0.0
  0
LINE
  5
55
330
59E
100
AcDbEntity
  8
SPEC
  6
Continuous
 62
     7
100
AcDbLine
 10
-925.0
 20
1455.695409999999
 30
0.0
 11
700.0
 21
1455.695409999999
 31
0.0
  0
LINE
  5
56
330
59E
100
AcDbEntity
  8
SPEC
  6
Continuous
 62
     7
100
AcDbLine
 10
-925.0
 20
1399.445409999999
 30
0.0
 11
700.0
 21
1399.445409999999
 31
0.0
  0
LINE
  5
57
330
59E
100
AcDbEntity
  8
SPEC
  6
Continuous
 62
     7
100
AcDbLine
 10
-1237.5
 20
1343.195409999999
 30
0.0
 11
700.0
 21
1343.195409999999
 31
0.0
  0
LINE
  5
58
330
59E
100
AcDbEntity
  8
SPEC
  6
Continuous
 62
     7
100
AcDbLine
 10
-1237.5
 20
1286.945409999999
 30
0.0
 11
700.0
 21
1286.945409999999
 31
0.0
  0
LINE
  5
59
330
59E
100
AcDbEntity
  8
SPEC
  6
Continuous
 62
     7
100
AcDbLine
 10
-925.0
 20
1230.695409999999
 30
0.0
 11
700.0
 21
1230.695409999999
 31
0.0
  0
LINE
  5
5A
330
59E
100
AcDbEntity
  8
SPEC
  6
Continuous
 62
     7
100
AcDbLine
 10
-1237.5
 20
1174.445409999999
 30
0.0
 11
700.0
 21
1174.445409999999
 31
0.0
  0
LINE
  5
5B
330
59E
100
AcDbEntity
  8
SPEC
  6
Continuous
 62
     7
100
AcDbLine
 10
-1237.5
 20
1118.195409999999
 30
0.0
 11
700.0
 21
1118.195409999999
 31
0.0
  0
LINE
  5
5C
330
59E
100
AcDbEntity
  8
SPEC
  6
Continuous
 62
     7
100
AcDbLine
 10
-1237.5
 20
1061.945409999999
 30
0.0
 11
700.0
 21
1061.945409999999
 31
0.0
  0
LINE
  5
5D
330
59E
100
AcDbEntity
  8
SPEC
  6
Continuous
 62
     7
100
AcDbLine
 10
-1237.5
 20
1005.695409999999
 30
0.0
 11
700.0
 21
1005.695409999999
 31
0.0
  0
LINE
  5
5E
330
59E
100
AcDbEntity
  8
SPEC
  6
Continuous
 62
     7
100
AcDbLine
 10
-1237.5
 20
949.4454099999993
 30
0.0
 11
700.0
 21
949.4454099999993
 31
0.0
  0
TEXT
  5
5F
330
59E
100
AcDbEntity
  8
SPEC
 62
     7
100
AcDbText
 10
-1224.0
 20
1580.014176666666
 30
0.0
 40
28.50472005208333
  1
最大音圧(1m)
 41
0.7
 11
-1224.0
 21
1608.518896718749
 31
0.0
100
AcDbText
 73
     3
  0
TEXT
  5
60
330
59E
100
AcDbEntity
  8
SPEC
 62
     7
100
AcDbText
 10
-1224.0
 20
1748.764176666666
 30
0.0
 40
28.50472005208333
  1
周波数レンジ(-10dB)
 41
0.7
 11
-1224.0
 21
1777.268896718749
 31
0.0
100
AcDbText
 73
     3
  0
TEXT
  5
61
330
59E
100
AcDbEntity
  8
SPEC
 62
     7
100
AcDbText
 10
-1224.0
 20
1692.514176666666
 30
0.0
 40
28.50472005208333
  1
カバレージ角(水平×垂直)
 41
0.7
 11
-1224.0
 21
1721.018896718749
 31
0.0
100
AcDbText
 73
     3
  0
TEXT
  5
62
330
59E
100
AcDbEntity
  8
SPEC
 62
     7
100
AcDbText
 10
-1224.0
 20
1636.264176666666
 30
0.0
 40
28.50472005208333
  1
感度(1W、1m)
 41
0.7
 11
-1224.0
 21
1664.768896718749
 31
0.0
100
AcDbText
 73
     3
  0
TEXT
  5
63
330
59E
100
AcDbEntity
  8
SPEC
 62
     7
100
AcDbText
 10
-72.49700466579864
 20
1635.346816640624
 30
0.0
 40
28.50472005208333
  1
97dB SPL
 41
0.7
 72
     1
 11
-0.0000000000000568
 21
1649.599176666666
 31
0.0
100
AcDbText
 73
     2
  0
TEXT
  5
64
330
59E
100
AcDbEntity
  8
SPEC
 62
     7
100
AcDbText
 10
-96.77352457682294
 20
1747.846816640624
 30
0.0
 40
28.50472005208333
  1
63Hz～20kHz
 41
0.7
 72
     1
 11
-0.0000000000000568
 21
1762.099176666666
 31
0.0
100
AcDbText
 73
     2
  0
TEXT
  5
65
330
59E
100
AcDbEntity
  8
SPEC
 62
     7
100
AcDbText
 10
-408.5296918402777
 20
1691.596816640624
 30
0.0
 40
28.50472005208333
  1
60°×60°
 41
0.7
 72
     1
 11
-350.0
 21
1705.849176666666
 31
0.0
100
AcDbText
 73
     2
  0
TEXT
  5
66
330
59E
100
AcDbEntity
  8
SPEC
 62
     7
100
AcDbText
 10
-1224.0
 20
1130.014176666666
 30
0.0
 40
28.50472005208333
  1
入力端子
 41
0.7
 11
-1224.0
 21
1158.518896718749
 31
0.0
100
AcDbText
 73
     3
  0
TEXT
  5
67
330
59E
100
AcDbEntity
  8
SPEC
 62
     7
100
AcDbText
 10
-1224.0
 20
1523.764176666666
 30
0.0
 40
28.50472005208333
  1
公称インピーダンス
 41
0.7
 11
-1224.0
 21
1552.268896718749
 31
0.0
100
AcDbText
 73
     3
  0
TEXT
  5
68
330
59E
100
AcDbEntity
  8
SPEC
 62
     7
100
AcDbText
 10
-75.82255533854169
 20
1579.096816640624
 30
0.0
 40
28.50472005208333
  1
121dB SPL
 41
0.7
 72
     1
 11
-0.0000000000000568
 21
1593.349176666666
 31
0.0
100
AcDbText
 73
     2
  0
TEXT
  5
69
330
59E
100
AcDbEntity
  8
SPEC
 62
     7
100
AcDbText
 10
-18.62308376736116
 20
1522.846816640624
 30
0.0
 40
28.50472005208333
  1
8Ω
 41
0.7
 72
     1
 11
-0.0000000000000568
 21
1537.099176666666
 31
0.0
100
AcDbText
 73
     2
  0
TEXT
  5
6A
330
59E
100
AcDbEntity
  8
SPEC
 62
     7
100
AcDbText
 10
-1224.0
 20
1467.514176666666
 30
0.0
 40
28.50472005208333
  1
許容入力※
 41
0.7
 11
-1224.0
 21
1496.018896718749
 31
0.0
100
AcDbText
 73
     3
  0
TEXT
  5
6B
330
59E
100
AcDbEntity
  8
SPEC
 62
     7
100
AcDbText
 10
-911.5
 20
1467.514176666666
 30
0.0
 40
28.50472005208333
  1
Peak
 41
0.7
 11
-911.5
 21
1496.018896718749
 31
0.0
100
AcDbText
 73
     3
  0
TEXT
  5
6C
330
59E
100
AcDbEntity
  8
SPEC
 62
     7
100
AcDbText
 10
-46.55770941840281
 20
1466.596816640624
 30
0.0
 40
28.50472005208333
  1
1,000W
 41
0.7
 72
     1
 11
-0.0000000000000568
 21
1480.849176666666
 31
0.0
100
AcDbText
 73
     2
  0
TEXT
  5
6D
330
59E
100
AcDbEntity
  8
SPEC
 62
     7
100
AcDbText
 10
-911.5
 20
1411.264176666666
 30
0.0
 40
28.50472005208333
  1
Program
 41
0.7
 11
-911.5
 21
1439.768896718749
 31
0.0
100
AcDbText
 73
     3
  0
TEXT
  5
6E
330
59E
100
AcDbEntity
  8
SPEC
 62
     7
100
AcDbText
 10
-911.5
 20
1355.014176666666
 30
0.0
 40
28.50472005208333
  1
Continuous
 41
0.7
 11
-911.5
 21
1383.518896718749
 31
0.0
100
AcDbText
 73
     3
  0
TEXT
  5
6F
330
59E
100
AcDbEntity
  8
SPEC
 62
     7
100
AcDbText
 10
-36.58105740017365
 20
1410.346816640624
 30
0.0
 40
28.50472005208333
  1
500W
 41
0.7
 72
     1
 11
-0.0000000000000568
 21
1424.599176666666
 31
0.0
100
AcDbText
 73
     2
  0
TEXT
  5
70
330
59E
100
AcDbEntity
  8
SPEC
 62
     7
100
AcDbText
 10
-38.24383273654518
 20
1354.096816640624
 30
0.0
 40
28.50472005208333
  1
250W
 41
0.7
 72
     1
 11
-0.0000000000000568
 21
1368.349176666666
 31
0.0
100
AcDbText
 73
     2
  0
LINE
  5
71
330
59E
100
AcDbEntity
  8
SPEC
  6
Continuous
 62
     7
100
AcDbLine
 10
-925.0
 20
1511.945409999999
 30
0.0
 11
-925.0
 21
1343.195409999999
 31
0.0
  0
TEXT
  5
72
330
59E
100
AcDbEntity
  8
SPEC
 62
     7
100
AcDbText
 10
-1224.0
 20
1298.764176666666
 30
0.0
 40
28.50472005208333
  1
クロスオーバー周波数
 41
0.7
 11
-1224.0
 21
1327.268896718749
 31
0.0
100
AcDbText
 73
     3
  0
TEXT
  5
73
330
59E
100
AcDbEntity
  8
SPEC
 62
     7
100
AcDbText
 10
-46.55770941840283
 20
1297.846816640624
 30
0.0
 40
28.50472005208333
  1
1.5kHz
 41
0.7
 72
     1
 11
-0.0000000000000568
 21
1312.099176666666
 31
0.0
100
AcDbText
 73
     2
  0
TEXT
  5
74
330
59E
100
AcDbEntity
  8
SPEC
 62
     7
100
AcDbText
 10
-1224.0
 20
1242.514176666666
 30
0.0
 40
28.50472005208333
  1
ドライバー構成
 41
0.7
 11
-1224.0
 21
1271.018896718749
 31
0.0
100
AcDbText
 73
     3
  0
TEXT
  5
75
330
59E
100
AcDbEntity
  8
SPEC
 62
     7
100
AcDbText
 10
-911.5
 20
1242.514176666666
 30
0.0
 40
28.50472005208333
  1
LF
 41
0.7
 11
-911.5
 21
1271.018896718749
 31
0.0
100
AcDbText
 73
     3
  0
TEXT
  5
76
330
59E
100
AcDbEntity
  8
SPEC
 62
     7
100
AcDbText
 10
-911.5
 20
1186.264176666666
 30
0.0
 40
28.50472005208333
  1
HF
 41
0.7
 11
-911.5
 21
1214.768896718749
 31
0.0
100
AcDbText
 73
     3
  0
TEXT
  5
77
330
59E
100
AcDbEntity
  8
SPEC
 62
     7
100
AcDbText
 10
-110.7408374023437
 20
1241.596816640624
 30
0.0
 40
28.50472005208333
  1
12インチ(305mm)
 41
0.7
 72
     1
 11
-0.0000000000000568
 21
1255.849176666666
 31
0.0
100
AcDbText
 73
     2
  0
TEXT
  5
78
330
59E
100
AcDbEntity
  8
SPEC
 62
     7
100
AcDbText
 10
-173.9263001844618
 20
1185.346816640624
 30
0.0
 40
28.50472005208333
  1
2408H-2(1インチ(25mm))
 41
0.7
 72
     1
 11
-0.0000000000000568
 21
1199.599176666666
 31
0.0
100
AcDbText
 73
     2
  0
LINE
  5
79
330
59E
100
AcDbEntity
  8
SPEC
  6
Continuous
 62
     7
100
AcDbLine
 10
-925.0
 20
1286.945409999999
 30
0.0
 11
-925.0
 21
1174.445409999999
 31
0.0
  0
TEXT
  5
7A
330
59E
100
AcDbEntity
  8
SPEC
 62
     7
100
AcDbText
 10
-1224.0
 20
1073.764176666666
 30
0.0
 40
28.50472005208333
  1
色
 41
0.7
 11
-1224.0
 21
1102.268896718749
 31
0.0
100
AcDbText
 73
     3
  0
TEXT
  5
7B
330
59E
100
AcDbEntity
  8
SPEC
 62
     7
100
AcDbText
 10
-148.3195600043403
 20
1129.096816640624
 30
0.0
 40
28.50472005208333
  1
ねじ止め端子、4Pスピコン
 41
0.7
 72
     1
 11
-0.0000000000000568
 21
1143.349176666666
 31
0.0
100
AcDbText
 73
     2
  0
TEXT
  5
7C
330
59E
100
AcDbEntity
  8
SPEC
 62
     7
100
AcDbText
 10
-1225.0
 20
881.1901630877851
 30
0.0
 40
28.50472005208333
  1
※IECピンクノイズ、クレストファクタ ー6dB、100時間
 41
0.7
 11
-1225.0
 21
909.6948831398684
 31
0.0
100
AcDbText
 73
     3
  0
TEXT
  5
7D
330
59E
100
AcDbEntity
  8
SPEC
 62
     7
100
AcDbText
 10
-103.0920708550347
 20
1072.846816640624
 30
0.0
 40
28.50472005208333
  1
黒または白(-WH)
 41
0.7
 72
     1
 11
-0.0000000000000568
 21
1087.099176666666
 31
0.0
100
AcDbText
 73
     2
  0
TEXT
  5
7E
330
59E
100
AcDbEntity
  8
SPEC
 62
     7
100
AcDbText
 10
-1224.0
 20
1017.514176666665
 30
0.0
 40
28.50472005208334
  1
寸法(W×H×D)
 41
0.7
 11
-1224.0
 21
1046.018896718749
 31
0.0
100
AcDbText
 73
     3
  0
TEXT
  5
7F
330
59E
100
AcDbEntity
  8
SPEC
 62
     7
100
AcDbText
 10
-1224.0
 20
961.2641766666657
 30
0.0
 40
28.50472005208334
  1
質量
 41
0.7
 11
-1224.0
 21
989.7688967187489
 31
0.0
100
AcDbText
 73
     3
  0
TEXT
  5
80
330
59E
100
AcDbEntity
  8
SPEC
 62
     7
100
AcDbText
 10
-186.5633927408855
 20
1016.596816640624
 30
0.0
 40
28.50472005208333
  1
370×600×392mm(除突起部)
 41
0.7
 72
     1
 11
-0.0000000000000568
 21
1030.849176666666
 31
0.0
100
AcDbText
 73
     2
  0
TEXT
  5
81
330
59E
100
AcDbEntity
  8
SPEC
 62
     7
100
AcDbText
 10
-33.25550672743061
 20
960.3468166406242
 30
0.0
 40
28.50472005208334
  1
18kg
 41
0.7
 72
     1
 11
-0.0000000000000568
 21
974.5991766666659
 31
0.0
100
AcDbText
 73
     2
  0
LINE
  5
82
330
59E
100
AcDbEntity
  8
SPEC
  6
Continuous
 62
     7
100
AcDbLine
 10
0.0
 20
1849.44541
 30
0.0
 11
0.0
 21
1793.195409999999
 31
0.0
  0
LINE
  5
83
330
59E
100
AcDbEntity
  8
SPEC
  6
Continuous
 62
     7
100
AcDbLine
 10
0.0
 20
1736.945409999999
 30
0.0
 11
0.0
 21
1680.695409999999
 31
0.0
  0
LINE
  5
84
330
59E
100
AcDbEntity
  8
SPEC
  6
Continuous
 62
     7
100
AcDbLine
 10
700.0
 20
1849.44541
 30
0.0
 11
700.0
 21
949.4454099999993
 31
0.0
  0
TEXT
  5
85
330
59E
100
AcDbEntity
  8
SPEC
 62
     7
100
AcDbText
 10
303.4422905815973
 20
1804.096816640625
 30
0.0
 40
28.50472005208333
  1
AC299
 41
0.7
 72
     1
 11
350.0
 21
1818.349176666666
 31
0.0
100
AcDbText
 73
     2
  0
TEXT
  5
86
330
59E
100
AcDbEntity
  8
SPEC
 62
     7
100
AcDbText
 10
291.4703081597222
 20
1691.596816640624
 30
0.0
 40
28.50472005208333
  1
90°×90°
 41
0.7
 72
     1
 11
350.0
 21
1705.849176666666
 31
0.0
100
AcDbText
 73
     2
  0
TEXT
  5
87
330
59E
100
AcDbEntity
  8
DIMNSIONS
 62
     7
100
AcDbText
 10
-299.9999999999999
 20
-1716.51224
 30
0.0
 40
36.64892578125
  1
(単位：mm)
 41
0.7
 11
-299.9999999999999
 21
-1679.86331421875
 31
0.0
100
AcDbText
 73
     3
  0
TEXT
  5
88
330
59E
100
AcDbEntity
  8
DIMNSIONS
 62
     7
100
AcDbText
 10
100.0
 20
-1455.091666666666
 30
0.0
 40
40.72102864583334
  1
※1 センター振り分け
 41
0.7
 11
100.0
 21
-1414.370638020833
 31
0.0
100
AcDbText
 73
     3
  0
TEXT
  5
89
330
59E
100
AcDbEntity
  8
DIMNSIONS
 62
     7
100
AcDbText
 10
100.0
 20
-1519.05
 30
0.0
 40
40.72102864583334
  1
※2 側面M10寸法
 41
0.7
 11
100.0
 21
-1478.328971354166
 31
0.0
100
AcDbText
 73
     3
  0
LINE
  5
8A
330
59E
100
AcDbEntity
  8
DIMNSIONS
  6
Continuous
 62
     7
100
AcDbLine
 10
-543.6987192096134
 20
-28.30696604879308
 30
0.0
 11
-476.8057475774609
 21
-17.71216017518954
 31
0.0
  0
LINE
  5
8B
330
59E
100
AcDbEntity
  8
DIMNSIONS
  6
Continuous
 62
     7
100
AcDbLine
 10
-498.6591100819349
 20
-312.6758663990465
 30
0.0
 11
-431.7661384497823
 21
-302.0810605254429
 31
0.0
  0
LINE
  5
8C
330
59E
100
AcDbEntity
  8
DIMNSIONS
  6
Continuous
 62
     7
100
AcDbLine
 10
-491.6210726863881
 20
-20.058677150793
 30
0.0
 11
-446.5814635587094
 21
-304.4275775010464
 31
0.0
  0
LINE
  5
8D
330
59E
100
AcDbEntity
  8
DIMNSIONS
  6
Continuous
 62
     7
100
AcDbLine
 10
-491.6210726863881
 20
-20.058677150793
 30
0.0
 11
-475.8264620020011
 21
-55.53395357742652
 31
0.0
  0
LINE
  5
8E
330
59E
100
AcDbEntity
  8
DIMNSIONS
  6
Continuous
 62
     7
100
AcDbLine
 10
-491.6210726863881
 20
-20.058677150793
 30
0.0
 11
-495.6801768041407
 21
-58.67847308472634
 31
0.0
  0
LINE
  5
8F
330
59E
100
AcDbEntity
  8
DIMNSIONS
  6
Continuous
 62
     7
100
AcDbLine
 10
-446.5814635587094
 20
-304.4275775010464
 30
0.0
 11
-461.7545397047137
 21
-268.6820501656584
 31
0.0
  0
LINE
  5
90
330
59E
100
AcDbEntity
  8
DIMNSIONS
  6
Continuous
 62
     7
100
AcDbLine
 10
-446.5814635587094
 20
-304.4275775010464
 30
0.0
 11
-441.8489692870108
 21
-265.8845046839273
 31
0.0
  0
TEXT
  5
91
330
59E
100
AcDbEntity
  8
DIMNSIONS
 62
     7
100
AcDbText
 10
-474.4253675258713
 20
-223.9289100977693
 30
0.0
 40
40.72102864583334
  1
288
 50
98.99999999999996
 41
0.7
 11
-514.6450527364016
 21
-230.2990824298681
 31
0.0
100
AcDbText
 73
     3
  0
LINE
  5
92
330
59E
100
AcDbEntity
  8
DIMNSIONS
  6
Continuous
 62
     7
100
AcDbLine
 10
-905.0
 20
-1200.0
 30
0.0
 11
-940.0
 21
-1200.0
 31
0.0
  0
LINE
  5
93
330
59E
100
AcDbEntity
  8
DIMNSIONS
  6
Continuous
 62
     7
100
AcDbLine
 10
-905.0
 20
-600.0
 30
0.0
 11
-940.0
 21
-600.0
 31
0.0
  0
LINE
  5
94
330
59E
100
AcDbEntity
  8
DIMNSIONS
  6
Continuous
 62
     7
100
AcDbLine
 10
-925.0
 20
-1200.0
 30
0.0
 11
-925.0
 21
-600.0
 31
0.0
  0
LINE
  5
95
330
59E
100
AcDbEntity
  8
DIMNSIONS
  6
Continuous
 62
     7
100
AcDbLine
 10
-925.0
 20
-1200.0
 30
0.0
 11
-935.0505969272536
 21
-1162.490661621093
 31
0.0
  0
LINE
  5
96
330
59E
100
AcDbEntity
  8
DIMNSIONS
  6
Continuous
 62
     7
100
AcDbLine
 10
-925.0
 20
-1200.0
 30
0.0
 11
-914.9494030727465
 21
-1162.490661621093
 31
0.0
  0
LINE
  5
97
330
59E
100
AcDbEntity
  8
DIMNSIONS
  6
Continuous
 62
     7
100
AcDbLine
 10
-925.0
 20
-600.0
 30
0.0
 11
-914.9494030727465
 21
-637.5093383789064
 31
0.0
  0
LINE
  5
98
330
59E
100
AcDbEntity
  8
DIMNSIONS
  6
Continuous
 62
     7
100
AcDbLine
 10
-925.0
 20
-600.0
 30
0.0
 11
-935.0505969272536
 21
-637.5093383789064
 31
0.0
  0
TEXT
  5
99
330
59E
100
AcDbEntity
  8
DIMNSIONS
 62
     7
100
AcDbText
 10
-939.9083333333335
 20
-939.6874999999999
 30
0.0
 40
40.72102864583334
  1
600
 50
90.0
 41
0.7
 11
-980.6293619791668
 21
-939.6874999999999
 31
0.0
100
AcDbText
 73
     3
  0
LINE
  5
9A
330
59E
100
AcDbEntity
  8
DIMNSIONS
  6
Continuous
 62
     7
100
AcDbLine
 10
-730.0
 20
-425.0
 30
0.0
 11
-940.0
 21
-425.0
 31
0.0
  0
LINE
  5
9B
330
59E
100
AcDbEntity
  8
DIMNSIONS
  6
Continuous
 62
     7
100
AcDbLine
 10
-848.1298237178974
 20
-33.0
 30
0.0
 11
-940.0
 21
-33.0
 31
0.0
  0
LINE
  5
9C
330
59E
100
AcDbEntity
  8
DIMNSIONS
  6
Continuous
 62
     7
100
AcDbLine
 10
-925.0
 20
-425.0
 30
0.0
 11
-925.0
 21
-33.0
 31
0.0
  0
LINE
  5
9D
330
59E
100
AcDbEntity
  8
DIMNSIONS
  6
Continuous
 62
     7
100
AcDbLine
 10
-925.0
 20
-425.0
 30
0.0
 11
-935.0505969272536
 21
-387.4906616210937
 31
0.0
  0
LINE
  5
9E
330
59E
100
AcDbEntity
  8
DIMNSIONS
  6
Continuous
 62
     7
100
AcDbLine
 10
-925.0
 20
-425.0
 30
0.0
 11
-914.9494030727465
 21
-387.4906616210937
 31
0.0
  0
LINE
  5
9F
330
59E
100
AcDbEntity
  8
DIMNSIONS
  6
Continuous
 62
     7
100
AcDbLine
 10
-925.0
 20
-33.0
 30
0.0
 11
-914.9494030727465
 21
-70.50933837890625
 31
0.0
  0
LINE
  5
A0
330
59E
100
AcDbEntity
  8
DIMNSIONS
  6
Continuous
 62
     7
100
AcDbLine
 10
-925.0
 20
-33.0
 30
0.0
 11
-935.0505969272536
 21
-70.50933837890625
 31
0.0
  0
TEXT
  5
A1
330
59E
100
AcDbEntity
  8
DIMNSIONS
 62
     7
100
AcDbText
 10
-939.9083333333335
 20
-268.6875
 30
0.0
 40
40.72102864583334
  1
392
 50
90.0
 41
0.7
 11
-980.6293619791668
 21
-268.6875
 31
0.0
100
AcDbText
 73
     3
  0
LINE
  5
A2
330
59E
100
AcDbEntity
  8
DIMNSIONS
  6
Continuous
 62
     7
100
AcDbLine
 10
-885.0
 20
-1220.0
 30
0.0
 11
-885.0
 21
-1290.0
 31
0.0
  0
LINE
  5
A3
330
59E
100
AcDbEntity
  8
DIMNSIONS
  6
Continuous
 62
     7
100
AcDbLine
 10
-515.0
 20
-1220.0
 30
0.0
 11
-515.0
 21
-1290.0
 31
0.0
  0
LINE
  5
A4
330
59E
100
AcDbEntity
  8
DIMNSIONS
  6
Continuous
 62
     7
100
AcDbLine
 10
-885.0
 20
-1275.0
 30
0.0
 11
-515.0
 21
-1275.0
 31
0.0
  0
LINE
  5
A5
330
59E
100
AcDbEntity
  8
DIMNSIONS
  6
Continuous
 62
     7
100
AcDbLine
 10
-885.0
 20
-1275.0
 30
0.0
 11
-847.4906616210937
 21
-1264.949403072746
 31
0.0
  0
LINE
  5
A6
330
59E
100
AcDbEntity
  8
DIMNSIONS
  6
Continuous
 62
     7
100
AcDbLine
 10
-885.0
 20
-1275.0
 30
0.0
 11
-847.4906616210937
 21
-1285.050596927253
 31
0.0
  0
LINE
  5
A7
330
59E
100
AcDbEntity
  8
DIMNSIONS
  6
Continuous
 62
     7
100
AcDbLine
 10
-515.0
 20
-1275.0
 30
0.0
 11
-552.5093383789063
 21
-1285.050596927254
 31
0.0
  0
LINE
  5
A8
330
59E
100
AcDbEntity
  8
DIMNSIONS
  6
Continuous
 62
     7
100
AcDbLine
 10
-515.0
 20
-1275.0
 30
0.0
 11
-552.5093383789063
 21
-1264.949403072746
 31
0.0
  0
TEXT
  5
A9
330
59E
100
AcDbEntity
  8
DIMNSIONS
 62
     7
100
AcDbText
 10
-739.6875
 20
-1260.091666666666
 30
0.0
 40
40.72102864583334
  1
370
 41
0.7
 11
-739.6875
 21
-1219.370638020833
 31
0.0
100
AcDbText
 73
     3
  0
LINE
  5
AA
330
59E
100
AcDbEntity
  8
DIMNSIONS
  6
Continuous
 62
     7
100
AcDbLine
 10
-551.8701762821023
 20
-33.0
 30
0.0
 11
-385.0
 21
-33.0
 31
0.0
  0
LINE
  5
AB
330
59E
100
AcDbEntity
  8
DIMNSIONS
  6
Continuous
 62
     7
100
AcDbLine
 10
-670.0
 20
-73.5
 30
0.0
 11
-385.0
 21
-73.5
 31
0.0
  0
LINE
  5
AC
330
59E
100
AcDbEntity
  8
DIMNSIONS
  6
Continuous
 62
     7
100
AcDbLine
 10
-400.0
 20
-73.5
 30
0.0
 11
-400.0
 21
-33.0
 31
0.0
  0
LINE
  5
AD
330
59E
100
AcDbEntity
  8
DIMNSIONS
  6
Continuous
 62
     7
100
AcDbLine
 10
-400.0
 20
-33.0
 30
0.0
 11
-400.0
 21
105.8333333333333
 31
0.0
  0
LINE
  5
AE
330
59E
100
AcDbEntity
  8
DIMNSIONS
  6
Continuous
 62
     7
100
AcDbLine
 10
-400.0
 20
-33.0
 30
0.0
 11
-410.0505969272536
 21
4.50933837890625
 31
0.0
  0
LINE
  5
AF
330
59E
100
AcDbEntity
  8
DIMNSIONS
  6
Continuous
 62
     7
100
AcDbLine
 10
-400.0
 20
-33.0
 30
0.0
 11
-389.9494030727463
 21
4.50933837890625
 31
0.0
  0
LINE
  5
B0
330
59E
100
AcDbEntity
  8
DIMNSIONS
  6
Continuous
 62
     7
100
AcDbLine
 10
-400.0
 20
-73.5
 30
0.0
 11
-400.0
 21
-148.5
 31
0.0
  0
LINE
  5
B1
330
59E
100
AcDbEntity
  8
DIMNSIONS
  6
Continuous
 62
     7
100
AcDbLine
 10
-400.0
 20
-73.5
 30
0.0
 11
-389.9494030727463
 21
-111.0093383789062
 31
0.0
  0
LINE
  5
B2
330
59E
100
AcDbEntity
  8
DIMNSIONS
  6
Continuous
 62
     7
100
AcDbLine
 10
-400.0
 20
-73.5
 30
0.0
 11
-410.0505969272536
 21
-111.0093383789062
 31
0.0
  0
TEXT
  5
B3
330
59E
100
AcDbEntity
  8
DIMNSIONS
 62
     7
100
AcDbText
 10
-414.9083333333333
 20
-0.000000000000005
 30
0.0
 40
40.72102864583334
  1
40.5
 50
90.0
 41
0.7
 11
-455.6293619791666
 21
0.0
 31
0.0
100
AcDbText
 73
     3
  0
LINE
  5
B4
330
59E
100
AcDbEntity
  8
DIMNSIONS
  6
Continuous
 62
     7
100
AcDbLine
 10
-670.0
 20
-73.5
 30
0.0
 11
-385.0
 21
-73.5
 31
0.0
  0
LINE
  5
B5
330
59E
100
AcDbEntity
  8
DIMNSIONS
  6
Continuous
 62
     7
100
AcDbLine
 10
-670.0
 20
-247.0
 30
0.0
 11
-385.0
 21
-247.0
 31
0.0
  0
LINE
  5
B6
330
59E
100
AcDbEntity
  8
DIMNSIONS
  6
Continuous
 62
     7
100
AcDbLine
 10
-400.0
 20
-73.5
 30
0.0
 11
-400.0
 21
-247.0
 31
0.0
  0
LINE
  5
B7
330
59E
100
AcDbEntity
  8
DIMNSIONS
  6
Continuous
 62
     7
100
AcDbLine
 10
-400.0
 20
-73.5
 30
0.0
 11
-389.9494030727463
 21
-111.0093383789062
 31
0.0
  0
LINE
  5
B8
330
59E
100
AcDbEntity
  8
DIMNSIONS
  6
Continuous
 62
     7
100
AcDbLine
 10
-400.0
 20
-73.5
 30
0.0
 11
-410.0505969272536
 21
-111.0093383789062
 31
0.0
  0
LINE
  5
B9
330
59E
100
AcDbEntity
  8
DIMNSIONS
  6
Continuous
 62
     7
100
AcDbLine
 10
-400.0
 20
-247.0
 30
0.0
 11
-410.0505969272536
 21
-209.4906616210937
 31
0.0
  0
LINE
  5
BA
330
59E
100
AcDbEntity
  8
DIMNSIONS
  6
Continuous
 62
     7
100
AcDbLine
 10
-400.0
 20
-247.0
 30
0.0
 11
-389.9494030727463
 21
-209.4906616210937
 31
0.0
  0
TEXT
  5
BB
330
59E
100
AcDbEntity
  8
DIMNSIONS
 62
     7
100
AcDbText
 10
-414.9083333333331
 20
-199.9375
 30
0.0
 40
40.72102864583334
  1
174
 50
90.0
 41
0.7
 11
-455.6293619791666
 21
-199.9375
 31
0.0
100
AcDbText
 73
     3
  0
LINE
  5
BC
330
59E
100
AcDbEntity
  8
DIMNSIONS
  6
Continuous
 62
     7
100
AcDbLine
 10
-670.0
 20
-247.0
 30
0.0
 11
-385.0
 21
-247.0
 31
0.0
  0
LINE
  5
BD
330
59E
100
AcDbEntity
  8
DIMNSIONS
  6
Continuous
 62
     7
100
AcDbLine
 10
-537.0
 20
-323.5
 30
0.0
 11
-385.0
 21
-323.5
 31
0.0
  0
LINE
  5
BE
330
59E
100
AcDbEntity
  8
DIMNSIONS
  6
Continuous
 62
     7
100
AcDbLine
 10
-400.0
 20
-323.5
 30
0.0
 11
-400.0
 21
-247.0
 31
0.0
  0
LINE
  5
BF
330
59E
100
AcDbEntity
  8
DIMNSIONS
  6
Continuous
 62
     7
100
AcDbLine
 10
-400.0
 20
-247.0
 30
0.0
 11
-400.0
 21
-172.0
 31
0.0
  0
LINE
  5
C0
330
59E
100
AcDbEntity
  8
DIMNSIONS
  6
Continuous
 62
     7
100
AcDbLine
 10
-400.0
 20
-247.0
 30
0.0
 11
-410.0505969272536
 21
-209.4906616210937
 31
0.0
  0
LINE
  5
C1
330
59E
100
AcDbEntity
  8
DIMNSIONS
  6
Continuous
 62
     7
100
AcDbLine
 10
-400.0
 20
-247.0
 30
0.0
 11
-389.9494030727463
 21
-209.4906616210937
 31
0.0
  0
LINE
  5
C2
330
59E
100
AcDbEntity
  8
DIMNSIONS
  6
Continuous
 62
     7
100
AcDbLine
 10
-400.0
 20
-323.5
 30
0.0
 11
-400.0
 21
-455.8333333333333
 31
0.0
  0
LINE
  5
C3
330
59E
100
AcDbEntity
  8
DIMNSIONS
  6
Continuous
 62
     7
100
AcDbLine
 10
-400.0
 20
-323.5
 30
0.0
 11
-389.9494030727463
 21
-361.0093383789063
 31
0.0
  0
LINE
  5
C4
330
59E
100
AcDbEntity
  8
DIMNSIONS
  6
Continuous
 62
     7
100
AcDbLine
 10
-400.0
 20
-323.5
 30
0.0
 11
-410.0505969272536
 21
-361.0093383789063
 31
0.0
  0
TEXT
  5
C5
330
59E
100
AcDbEntity
  8
DIMNSIONS
 62
     7
100
AcDbText
 10
-414.9083333333333
 20
-455.8333333333332
 30
0.0
 40
40.72102864583334
  1
76.5
 50
90.0
 41
0.7
 11
-455.6293619791666
 21
-455.8333333333332
 31
0.0
100
AcDbText
 73
     3
  0
LINE
  5
C6
330
59E
100
AcDbEntity
  8
DIMNSIONS
  6
Continuous
 62
     7
100
AcDbLine
 10
-780.0
 20
-27.49999999999995
 30
0.0
 11
-940.0
 21
-27.49999999999995
 31
0.0
  0
LINE
  5
C7
330
59E
100
AcDbEntity
  8
DIMNSIONS
  6
Continuous
 62
     7
100
AcDbLine
 10
-848.1298237178974
 20
-33.0
 30
0.0
 11
-940.0
 21
-33.0
 31
0.0
  0
LINE
  5
C8
330
59E
100
AcDbEntity
  8
DIMNSIONS
  6
Continuous
 62
     7
100
AcDbLine
 10
-925.0
 20
-33.0
 30
0.0
 11
-925.0
 21
-27.49999999999995
 31
0.0
  0
LINE
  5
C9
330
59E
100
AcDbEntity
  8
DIMNSIONS
  6
Continuous
 62
     7
100
AcDbLine
 10
-925.0
 20
-27.49999999999995
 30
0.0
 11
-925.0
 21
79.37500000000001
 31
0.0
  0
LINE
  5
CA
330
59E
100
AcDbEntity
  8
DIMNSIONS
  6
Continuous
 62
     7
100
AcDbLine
 10
-925.0
 20
-27.49999999999995
 30
0.0
 11
-935.0505969272536
 21
10.0093383789063
 31
0.0
  0
LINE
  5
CB
330
59E
100
AcDbEntity
  8
DIMNSIONS
  6
Continuous
 62
     7
100
AcDbLine
 10
-925.0
 20
-27.49999999999995
 30
0.0
 11
-914.9494030727465
 21
10.0093383789063
 31
0.0
  0
LINE
  5
CC
330
59E
100
AcDbEntity
  8
DIMNSIONS
  6
Continuous
 62
     7
100
AcDbLine
 10
-925.0
 20
-33.0
 30
0.0
 11
-925.0
 21
-108.0
 31
0.0
  0
LINE
  5
CD
330
59E
100
AcDbEntity
  8
DIMNSIONS
  6
Continuous
 62
     7
100
AcDbLine
 10
-925.0
 20
-33.0
 30
0.0
 11
-914.9494030727465
 21
-70.50933837890625
 31
0.0
  0
LINE
  5
CE
330
59E
100
AcDbEntity
  8
DIMNSIONS
  6
Continuous
 62
     7
100
AcDbLine
 10
-925.0
 20
-33.0
 30
0.0
 11
-935.0505969272536
 21
-70.50933837890625
 31
0.0
  0
TEXT
  5
CF
330
59E
100
AcDbEntity
  8
DIMNSIONS
 62
     7
100
AcDbText
 10
-939.9083333333335
 20
0.0000000000000092
 30
0.0
 40
40.72102864583334
  1
5.5
 50
90.0
 41
0.7
 11
-980.6293619791668
 21
0.0000000000000142
 31
0.0
100
AcDbText
 73
     3
  0
ARC
  5
D0
330
59E
100
AcDbEntity
  8
DIMNSIONS
  6
Continuous
 62
     7
100
AcDbCircle
 10
-699.9999999999996
 20
766.7668856421678
 30
0.0
 40
741.7668856421678
100
AcDbArc
 50
261.0
 51
279.0
  0
LINE
  5
D1
330
59E
100
AcDbEntity
  8
DIMNSIONS
  6
Continuous
 62
     7
100
AcDbLine
 10
-583.9620940600092
 20
34.1323812538318
 30
0.0
 11
-619.4373704866428
 21
18.33777056944484
 31
0.0
  0
LINE
  5
D2
330
59E
100
AcDbEntity
  8
DIMNSIONS
  6
Continuous
 62
     7
100
AcDbLine
 10
-583.9620940600092
 20
34.1323812538318
 30
0.0
 11
-622.5818899939424
 21
38.19148537158434
 31
0.0
  0
LINE
  5
D3
330
59E
100
AcDbEntity
  8
DIMNSIONS
  6
Continuous
 62
     7
100
AcDbLine
 10
-816.0379059399906
 20
34.1323812538318
 30
0.0
 11
-777.4181100060573
 21
38.19148537158432
 31
0.0
  0
LINE
  5
D4
330
59E
100
AcDbEntity
  8
DIMNSIONS
  6
Continuous
 62
     7
100
AcDbLine
 10
-816.0379059399906
 20
34.1323812538318
 30
0.0
 11
-780.5626295133569
 21
18.33777056944485
 31
0.0
  0
TEXT
  5
D5
330
59E
100
AcDbEntity
  8
DIMNSIONS
 62
     7
100
AcDbText
 10
-781.5060353618164
 20
39.72740874943294
 30
0.0
 40
40.72102864583334
  1
18.0°
 50
359.832086899509
 41
0.7
 11
-781.3866970013713
 21
80.44826252646599
 31
0.0
100
AcDbText
 73
     3
  0
LINE
  5
D6
330
59E
100
AcDbEntity
  8
DIMNSIONS
  6
Continuous
 62
     7
100
AcDbLine
 10
-813.5247220255958
 20
50.0
 30
0.0
 11
-825.3936793549305
 21
-24.93764731570204
 31
0.0
  0
TEXT
  5
D7
330
59E
100
AcDbEntity
  8
DIMNSIONS
 62
     7
100
AcDbText
 10
-518.6195793998538
 20
-150.5641662515912
 30
0.0
 40
28.50472005208333
  1
※2
 50
99.00000000000002
 41
0.7
 11
-546.7733590472249
 21
-155.0232868840604
 31
0.0
100
AcDbText
 73
     3
  0
LINE
  5
D8
330
59E
100
AcDbEntity
  8
DIMNSIONS
  6
Continuous
 62
     7
100
AcDbLine
 10
-336.5561782026363
 20
-629.8915789405518
 30
0.0
 11
-287.5
 21
-562.5
 31
0.0
  0
LINE
  5
D9
330
59E
100
AcDbEntity
  8
DIMNSIONS
  6
Continuous
 62
     7
100
AcDbLine
 10
-336.5561782026363
 20
-629.8915789405518
 30
0.0
 11
-322.0092584609937
 21
-593.8866891303105
 31
0.0
  0
LINE
  5
DA
330
59E
100
AcDbEntity
  8
DIMNSIONS
  6
Continuous
 62
     7
100
AcDbLine
 10
-336.5561782026363
 20
-629.8915789405518
 30
0.0
 11
-305.9557312544398
 21
-605.9838895752448
 31
0.0
  0
LINE
  5
DB
330
59E
100
AcDbEntity
  8
DIMNSIONS
  6
Continuous
 62
     7
100
AcDbLine
 10
-287.5
 20
-562.5
 30
0.0
 11
-257.5
 21
-562.5
 31
0.0
  0
TEXT
  5
DC
330
59E
100
AcDbEntity
  8
DIMNSIONS
 62
     7
100
AcDbText
 10
-257.5
 20
-581.5500000000001
 30
0.0
 40
40.72102864583334
  1
M10(4ヵ所)
 41
0.7
 11
-257.5
 21
-540.8289713541667
 31
0.0
100
AcDbText
 73
     3
  0
LINE
  5
DD
330
59E
100
AcDbEntity
  8
DIMNSIONS
  6
Continuous
 62
     7
100
AcDbLine
 10
-833.0
 20
-353.5
 30
0.0
 11
-833.0
 21
-515.0
 31
0.0
  0
LINE
  5
DE
330
59E
100
AcDbEntity
  8
DIMNSIONS
  6
Continuous
 62
     7
100
AcDbLine
 10
-700.0
 20
-455.0
 30
0.0
 11
-700.0
 21
-515.0
 31
0.0
  0
LINE
  5
DF
330
59E
100
AcDbEntity
  8
DIMNSIONS
  6
Continuous
 62
     7
100
AcDbLine
 10
-833.0
 20
-500.0
 30
0.0
 11
-700.0
 21
-500.0
 31
0.0
  0
LINE
  5
E0
330
59E
100
AcDbEntity
  8
DIMNSIONS
  6
Continuous
 62
     7
100
AcDbLine
 10
-833.0
 20
-500.0
 30
0.0
 11
-795.4906616210937
 21
-489.9494030727463
 31
0.0
  0
LINE
  5
E1
330
59E
100
AcDbEntity
  8
DIMNSIONS
  6
Continuous
 62
     7
100
AcDbLine
 10
-833.0
 20
-500.0
 30
0.0
 11
-795.4906616210937
 21
-510.0505969272536
 31
0.0
  0
LINE
  5
E2
330
59E
100
AcDbEntity
  8
DIMNSIONS
  6
Continuous
 62
     7
100
AcDbLine
 10
-700.0
 20
-500.0
 30
0.0
 11
-737.5093383789062
 21
-510.0505969272536
 31
0.0
  0
LINE
  5
E3
330
59E
100
AcDbEntity
  8
DIMNSIONS
  6
Continuous
 62
     7
100
AcDbLine
 10
-700.0
 20
-500.0
 30
0.0
 11
-737.5093383789062
 21
-489.9494030727463
 31
0.0
  0
TEXT
  5
E4
330
59E
100
AcDbEntity
  8
DIMNSIONS
 62
     7
100
AcDbText
 10
-806.1875
 20
-485.0916666666665
 30
0.0
 40
40.72102864583334
  1
133
 41
0.7
 11
-806.1875
 21
-444.3706380208332
 31
0.0
100
AcDbText
 73
     3
  0
LINE
  5
E5
330
59E
100
AcDbEntity
  8
DIMNSIONS
  6
Continuous
 62
     7
100
AcDbLine
 10
-700.0
 20
-455.0
 30
0.0
 11
-700.0
 21
-515.0
 31
0.0
  0
LINE
  5
E6
330
59E
100
AcDbEntity
  8
DIMNSIONS
  6
Continuous
 62
     7
100
AcDbLine
 10
-567.0
 20
-353.5
 30
0.0
 11
-567.0
 21
-515.0
 31
0.0
  0
LINE
  5
E7
330
59E
100
AcDbEntity
  8
DIMNSIONS
  6
Continuous
 62
     7
100
AcDbLine
 10
-700.0
 20
-500.0
 30
0.0
 11
-567.0
 21
-500.0
 31
0.0
  0
LINE
  5
E8
330
59E
100
AcDbEntity
  8
DIMNSIONS
  6
Continuous
 62
     7
100
AcDbLine
 10
-700.0
 20
-500.0
 30
0.0
 11
-662.4906616210937
 21
-489.9494030727463
 31
0.0
  0
LINE
  5
E9
330
59E
100
AcDbEntity
  8
DIMNSIONS
  6
Continuous
 62
     7
100
AcDbLine
 10
-700.0
 20
-500.0
 30
0.0
 11
-662.4906616210937
 21
-510.0505969272536
 31
0.0
  0
LINE
  5
EA
330
59E
100
AcDbEntity
  8
DIMNSIONS
  6
Continuous
 62
     7
100
AcDbLine
 10
-567.0
 20
-500.0
 30
0.0
 11
-604.5093383789064
 21
-510.0505969272536
 31
0.0
  0
LINE
  5
EB
330
59E
100
AcDbEntity
  8
DIMNSIONS
  6
Continuous
 62
     7
100
AcDbLine
 10
-567.0
 20
-500.0
 30
0.0
 11
-604.5093383789064
 21
-489.9494030727463
 31
0.0
  0
TEXT
  5
EC
330
59E
100
AcDbEntity
  8
DIMNSIONS
 62
     7
100
AcDbText
 10
-673.1875
 20
-485.0916666666665
 30
0.0
 40
40.72102864583334
  1
133
 41
0.7
 11
-673.1875
 21
-444.3706380208332
 31
0.0
100
AcDbText
 73
     3
  0
LINE
  5
ED
330
59E
100
AcDbEntity
  8
DIMNSIONS
  6
Continuous
 62
     7
100
AcDbLine
 10
-586.4752779744041
 20
50.0
 30
0.0
 11
-574.6063206450693
 21
-24.93764731570204
 31
0.0
  0
LINE
  5
EE
330
59E
100
AcDbEntity
  8
DIMNSIONS
  6
Continuous
 62
     7
100
AcDbLine
 10
-565.3514793228246
 20
-333.3631830346257
 30
0.0
 11
-537.5
 21
-500.0
 31
0.0
  0
LINE
  5
EF
330
59E
100
AcDbEntity
  8
DIMNSIONS
  6
Continuous
 62
     7
100
AcDbLine
 10
-565.3514793228246
 20
-333.3631830346257
 30
0.0
 11
-548.9401452914752
 21
-368.5574024396486
 31
0.0
  0
LINE
  5
F0
330
59E
100
AcDbEntity
  8
DIMNSIONS
  6
Continuous
 62
     7
100
AcDbLine
 10
-565.3514793228246
 20
-333.3631830346257
 30
0.0
 11
-568.7359568441953
 21
-372.0479381214135
 31
0.0
  0
LINE
  5
F1
330
59E
100
AcDbEntity
  8
DIMNSIONS
  6
Continuous
 62
     7
100
AcDbLine
 10
-537.5
 20
-500.0
 30
0.0
 11
-507.5
 21
-500.0
 31
0.0
  0
TEXT
  5
F2
330
59E
100
AcDbEntity
  8
DIMNSIONS
 62
     7
100
AcDbText
 10
-507.5
 20
-519.0500000000001
 30
0.0
 40
40.72102864583334
  1
M10(8ヵ所)
 41
0.7
 11
-507.5
 21
-478.3289713541667
 31
0.0
100
AcDbText
 73
     3
  0
LINE
  5
F3
330
59E
100
AcDbEntity
  8
DIMNSIONS
  6
Continuous
 62
     7
100
AcDbLine
 10
-309.4178973029326
 20
-638.0
 30
0.0
 11
52.5
 21
-638.0
 31
0.0
  0
LINE
  5
F4
330
59E
100
AcDbEntity
  8
DIMNSIONS
  6
Continuous
 62
     7
100
AcDbLine
 10
-38.0
 20
-600.0
 30
0.0
 11
52.5
 21
-600.0
 31
0.0
  0
LINE
  5
F5
330
59E
100
AcDbEntity
  8
DIMNSIONS
  6
Continuous
 62
     7
100
AcDbLine
 10
37.5
 20
-600.0
 30
0.0
 11
37.5
 21
-638.0
 31
0.0
  0
LINE
  5
F6
330
59E
100
AcDbEntity
  8
DIMNSIONS
  6
Continuous
 62
     7
100
AcDbLine
 10
37.5
 20
-638.0
 30
0.0
 11
37.5
 21
-780.7102168333334
 31
0.0
  0
LINE
  5
F7
330
59E
100
AcDbEntity
  8
DIMNSIONS
  6
Continuous
 62
     7
100
AcDbLine
 10
37.5
 20
-638.0
 30
0.0
 11
47.55059692725365
 21
-675.5093383789064
 31
0.0
  0
LINE
  5
F8
330
59E
100
AcDbEntity
  8
DIMNSIONS
  6
Continuous
 62
     7
100
AcDbLine
 10
37.5
 20
-638.0
 30
0.0
 11
27.44940307274636
 21
-675.5093383789064
 31
0.0
  0
LINE
  5
F9
330
59E
100
AcDbEntity
  8
DIMNSIONS
  6
Continuous
 62
     7
100
AcDbLine
 10
37.5
 20
-600.0
 30
0.0
 11
37.5
 21
-525.0
 31
0.0
  0
LINE
  5
FA
330
59E
100
AcDbEntity
  8
DIMNSIONS
  6
Continuous
 62
     7
100
AcDbLine
 10
37.5
 20
-600.0
 30
0.0
 11
27.44940307274636
 21
-562.4906616210937
 31
0.0
  0
LINE
  5
FB
330
59E
100
AcDbEntity
  8
DIMNSIONS
  6
Continuous
 62
     7
100
AcDbLine
 10
37.5
 20
-600.0
 30
0.0
 11
47.55059692725365
 21
-562.4906616210937
 31
0.0
  0
TEXT
  5
FC
330
59E
100
AcDbEntity
  8
DIMNSIONS
 62
     7
100
AcDbText
 10
22.59166666666666
 20
-780.7102168333334
 30
0.0
 40
40.72102864583334
  1
38.0
 50
90.0
 41
0.7
 11
-18.12936197916668
 21
-780.7102168333334
 31
0.0
100
AcDbText
 73
     3
  0
LINE
  5
FD
330
59E
100
AcDbEntity
  8
DIMNSIONS
  6
Continuous
 62
     7
100
AcDbLine
 10
-309.4178973029326
 20
-1162.0
 30
0.0
 11
52.5
 21
-1162.0
 31
0.0
  0
LINE
  5
FE
330
59E
100
AcDbEntity
  8
DIMNSIONS
  6
Continuous
 62
     7
100
AcDbLine
 10
-38.0
 20
-1200.0
 30
0.0
 11
52.5
 21
-1200.0
 31
0.0
  0
LINE
  5
FF
330
59E
100
AcDbEntity
  8
DIMNSIONS
  6
Continuous
 62
     7
100
AcDbLine
 10
37.5
 20
-1200.0
 30
0.0
 11
37.5
 21
-1162.0
 31
0.0
  0
LINE
  5
100
330
59E
100
AcDbEntity
  8
DIMNSIONS
  6
Continuous
 62
     7
100
AcDbLine
 10
37.5
 20
-1162.0
 30
0.0
 11
37.5
 21
-1019.043550166667
 31
0.0
  0
LINE
  5
101
330
59E
100
AcDbEntity
  8
DIMNSIONS
  6
Continuous
 62
     7
100
AcDbLine
 10
37.5
 20
-1162.0
 30
0.0
 11
27.44940307274636
 21
-1124.490661621093
 31
0.0
  0
LINE
  5
102
330
59E
100
AcDbEntity
  8
DIMNSIONS
  6
Continuous
 62
     7
100
AcDbLine
 10
37.5
 20
-1162.0
 30
0.0
 11
47.55059692725365
 21
-1124.490661621093
 31
0.0
  0
LINE
  5
103
330
59E
100
AcDbEntity
  8
DIMNSIONS
  6
Continuous
 62
     7
100
AcDbLine
 10
37.5
 20
-1200.0
 30
0.0
 11
37.5
 21
-1275.0
 31
0.0
  0
LINE
  5
104
330
59E
100
AcDbEntity
  8
DIMNSIONS
  6
Continuous
 62
     7
100
AcDbLine
 10
37.5
 20
-1200.0
 30
0.0
 11
47.55059692725365
 21
-1237.509338378906
 31
0.0
  0
LINE
  5
105
330
59E
100
AcDbEntity
  8
DIMNSIONS
  6
Continuous
 62
     7
100
AcDbLine
 10
37.5
 20
-1200.0
 30
0.0
 11
27.44940307274636
 21
-1237.509338378906
 31
0.0
  0
TEXT
  5
106
330
59E
100
AcDbEntity
  8
DIMNSIONS
 62
     7
100
AcDbText
 10
22.59166666666666
 20
-1124.876883499999
 30
0.0
 40
40.72102864583334
  1
38.0
 50
90.0
 41
0.7
 11
-18.12936197916668
 21
-1124.876883499999
 31
0.0
100
AcDbText
 73
     3
  0
LINE
  5
107
330
59E
100
AcDbEntity
  8
DIMNSIONS
  6
Continuous
 62
     7
100
AcDbLine
 10
380.0
 20
-638.0
 30
0.0
 11
627.5
 21
-638.0
 31
0.0
  0
LINE
  5
108
330
59E
100
AcDbEntity
  8
DIMNSIONS
  6
Continuous
 62
     7
100
AcDbLine
 10
555.0
 20
-600.0
 30
0.0
 11
627.5
 21
-600.0
 31
0.0
  0
LINE
  5
109
330
59E
100
AcDbEntity
  8
DIMNSIONS
  6
Continuous
 62
     7
100
AcDbLine
 10
612.5
 20
-600.0
 30
0.0
 11
612.5
 21
-638.0
 31
0.0
  0
LINE
  5
10A
330
59E
100
AcDbEntity
  8
DIMNSIONS
  6
Continuous
 62
     7
100
AcDbLine
 10
612.5
 20
-638.0
 30
0.0
 11
612.5
 21
-755.8333333333332
 31
0.0
  0
LINE
  5
10B
330
59E
100
AcDbEntity
  8
DIMNSIONS
  6
Continuous
 62
     7
100
AcDbLine
 10
612.5
 20
-638.0
 30
0.0
 11
622.5505969272536
 21
-675.5093383789064
 31
0.0
  0
LINE
  5
10C
330
59E
100
AcDbEntity
  8
DIMNSIONS
  6
Continuous
 62
     7
100
AcDbLine
 10
612.5
 20
-638.0
 30
0.0
 11
602.4494030727463
 21
-675.5093383789064
 31
0.0
  0
LINE
  5
10D
330
59E
100
AcDbEntity
  8
DIMNSIONS
  6
Continuous
 62
     7
100
AcDbLine
 10
612.5
 20
-600.0
 30
0.0
 11
612.5
 21
-525.0
 31
0.0
  0
LINE
  5
10E
330
59E
100
AcDbEntity
  8
DIMNSIONS
  6
Continuous
 62
     7
100
AcDbLine
 10
612.5
 20
-600.0
 30
0.0
 11
602.4494030727463
 21
-562.4906616210937
 31
0.0
  0
LINE
  5
10F
330
59E
100
AcDbEntity
  8
DIMNSIONS
  6
Continuous
 62
     7
100
AcDbLine
 10
612.5
 20
-600.0
 30
0.0
 11
622.5505969272536
 21
-562.4906616210937
 31
0.0
  0
TEXT
  5
110
330
59E
100
AcDbEntity
  8
DIMNSIONS
 62
     7
100
AcDbText
 10
597.5916666666667
 20
-755.8333333333332
 30
0.0
 40
40.72102864583334
  1
38.0
 50
90.0
 41
0.7
 11
556.8706380208332
 21
-755.8333333333332
 31
0.0
100
AcDbText
 73
     3
  0
LINE
  5
111
330
59E
100
AcDbEntity
  8
DIMNSIONS
  6
Continuous
 62
     7
100
AcDbLine
 10
380.0
 20
-1162.0
 30
0.0
 11
627.5
 21
-1162.0
 31
0.0
  0
LINE
  5
112
330
59E
100
AcDbEntity
  8
DIMNSIONS
  6
Continuous
 62
     7
100
AcDbLine
 10
555.0
 20
-1200.0
 30
0.0
 11
627.5
 21
-1200.0
 31
0.0
  0
LINE
  5
113
330
59E
100
AcDbEntity
  8
DIMNSIONS
  6
Continuous
 62
     7
100
AcDbLine
 10
612.5
 20
-1200.0
 30
0.0
 11
612.5
 21
-1162.0
 31
0.0
  0
LINE
  5
114
330
59E
100
AcDbEntity
  8
DIMNSIONS
  6
Continuous
 62
     7
100
AcDbLine
 10
612.5
 20
-1162.0
 30
0.0
 11
612.5
 21
-1044.166666666667
 31
0.0
  0
LINE
  5
115
330
59E
100
AcDbEntity
  8
DIMNSIONS
  6
Continuous
 62
     7
100
AcDbLine
 10
612.5
 20
-1162.0
 30
0.0
 11
602.4494030727463
 21
-1124.490661621093
 31
0.0
  0
LINE
  5
116
330
59E
100
AcDbEntity
  8
DIMNSIONS
  6
Continuous
 62
     7
100
AcDbLine
 10
612.5
 20
-1162.0
 30
0.0
 11
622.5505969272536
 21
-1124.490661621093
 31
0.0
  0
LINE
  5
117
330
59E
100
AcDbEntity
  8
DIMNSIONS
  6
Continuous
 62
     7
100
AcDbLine
 10
612.5
 20
-1200.0
 30
0.0
 11
612.5
 21
-1275.0
 31
0.0
  0
LINE
  5
118
330
59E
100
AcDbEntity
  8
DIMNSIONS
  6
Continuous
 62
     7
100
AcDbLine
 10
612.5
 20
-1200.0
 30
0.0
 11
622.5505969272536
 21
-1237.509338378906
 31
0.0
  0
LINE
  5
119
330
59E
100
AcDbEntity
  8
DIMNSIONS
  6
Continuous
 62
     7
100
AcDbLine
 10
612.5
 20
-1200.0
 30
0.0
 11
602.4494030727463
 21
-1237.509338378906
 31
0.0
  0
TEXT
  5
11A
330
59E
100
AcDbEntity
  8
DIMNSIONS
 62
     7
100
AcDbText
 10
597.5916666666667
 20
-1150.0
 30
0.0
 40
40.72102864583334
  1
38.0
 50
90.0
 41
0.7
 11
556.8706380208332
 21
-1150.0
 31
0.0
100
AcDbText
 73
     3
  0
LINE
  5
11B
330
59E
100
AcDbEntity
  8
DIMNSIONS
  6
Continuous
 62
     7
100
AcDbLine
 10
343.5134793987799
 20
-630.389149161235
 30
0.0
 11
275.0
 21
-550.0
 31
0.0
  0
LINE
  5
11C
330
59E
100
AcDbEntity
  8
DIMNSIONS
  6
Continuous
 62
     7
100
AcDbLine
 10
343.5134793987799
 20
-630.389149161235
 30
0.0
 11
311.7037375151277
 21
-608.1157281057967
 31
0.0
  0
LINE
  5
11D
330
59E
100
AcDbEntity
  8
DIMNSIONS
  6
Continuous
 62
     7
100
AcDbLine
 10
343.5134793987799
 20
-630.389149161235
 30
0.0
 11
327.1021453674305
 21
-595.1949297562123
 31
0.0
  0
LINE
  5
11E
330
59E
100
AcDbEntity
  8
DIMNSIONS
  6
Continuous
 62
     7
100
AcDbLine
 10
275.0
 20
-550.0
 30
0.0
 11
305.0
 21
-550.0
 31
0.0
  0
TEXT
  5
11F
330
59E
100
AcDbEntity
  8
DIMNSIONS
 62
     7
100
AcDbText
 10
305.0
 20
-569.0500000000001
 30
0.0
 40
40.72102864583334
  1
M10(2ヵ所)
 41
0.7
 11
305.0
 21
-528.3289713541667
 31
0.0
100
AcDbText
 73
     3
  0
LINE
  5
120
330
59E
100
AcDbEntity
  8
DIMNSIONS
  6
Continuous
 62
     7
100
AcDbLine
 10
300.0
 20
-819.0
 30
0.0
 11
300.0
 21
-785.0
 31
0.0
  0
LINE
  5
121
330
59E
100
AcDbEntity
  8
DIMNSIONS
  6
Continuous
 62
     7
100
AcDbLine
 10
400.0
 20
-819.0
 30
0.0
 11
400.0
 21
-785.0
 31
0.0
  0
LINE
  5
122
330
59E
100
AcDbEntity
  8
DIMNSIONS
  6
Continuous
 62
     7
100
AcDbLine
 10
300.0
 20
-800.0
 30
0.0
 11
400.0
 21
-800.0
 31
0.0
  0
LINE
  5
123
330
59E
100
AcDbEntity
  8
DIMNSIONS
  6
Continuous
 62
     7
100
AcDbLine
 10
300.0
 20
-800.0
 30
0.0
 11
337.5093383789062
 21
-789.9494030727462
 31
0.0
  0
LINE
  5
124
330
59E
100
AcDbEntity
  8
DIMNSIONS
  6
Continuous
 62
     7
100
AcDbLine
 10
300.0
 20
-800.0
 30
0.0
 11
337.5093383789062
 21
-810.0505969272536
 31
0.0
  0
LINE
  5
125
330
59E
100
AcDbEntity
  8
DIMNSIONS
  6
Continuous
 62
     7
100
AcDbLine
 10
400.0
 20
-800.0
 30
0.0
 11
362.4906616210937
 21
-810.0505969272536
 31
0.0
  0
LINE
  5
126
330
59E
100
AcDbEntity
  8
DIMNSIONS
  6
Continuous
 62
     7
100
AcDbLine
 10
400.0
 20
-800.0
 30
0.0
 11
362.4906616210937
 21
-789.9494030727462
 31
0.0
  0
TEXT
  5
127
330
59E
100
AcDbEntity
  8
DIMNSIONS
 62
     7
100
AcDbText
 10
310.3124999999999
 20
-785.0916666666667
 30
0.0
 40
40.72102864583334
  1
100
 41
0.7
 11
310.3124999999999
 21
-744.3706380208332
 31
0.0
100
AcDbText
 73
     3
  0
LINE
  5
128
330
59E
100
AcDbEntity
  8
DIMNSIONS
  6
Continuous
 62
     7
100
AcDbLine
 10
269.9999999999999
 20
-849.0
 30
0.0
 11
110.0
 21
-849.0
 31
0.0
  0
LINE
  5
129
330
59E
100
AcDbEntity
  8
DIMNSIONS
  6
Continuous
 62
     7
100
AcDbLine
 10
269.9999999999999
 20
-949.0
 30
0.0
 11
110.0
 21
-949.0
 31
0.0
  0
LINE
  5
12A
330
59E
100
AcDbEntity
  8
DIMNSIONS
  6
Continuous
 62
     7
100
AcDbLine
 10
125.0
 20
-849.0
 30
0.0
 11
125.0
 21
-949.0
 31
0.0
  0
LINE
  5
12B
330
59E
100
AcDbEntity
  8
DIMNSIONS
  6
Continuous
 62
     7
100
AcDbLine
 10
125.0
 20
-849.0
 30
0.0
 11
135.0505969272536
 21
-886.5093383789062
 31
0.0
  0
LINE
  5
12C
330
59E
100
AcDbEntity
  8
DIMNSIONS
  6
Continuous
 62
     7
100
AcDbLine
 10
125.0
 20
-849.0
 30
0.0
 11
114.9494030727463
 21
-886.5093383789062
 31
0.0
  0
LINE
  5
12D
330
59E
100
AcDbEntity
  8
DIMNSIONS
  6
Continuous
 62
     7
100
AcDbLine
 10
125.0
 20
-949.0
 30
0.0
 11
114.9494030727463
 21
-911.4906616210936
 31
0.0
  0
LINE
  5
12E
330
59E
100
AcDbEntity
  8
DIMNSIONS
  6
Continuous
 62
     7
100
AcDbLine
 10
125.0
 20
-949.0
 30
0.0
 11
135.0505969272536
 21
-911.4906616210936
 31
0.0
  0
TEXT
  5
12F
330
59E
100
AcDbEntity
  8
DIMNSIONS
 62
     7
100
AcDbText
 10
110.0916666666666
 20
-938.6874999999999
 30
0.0
 40
40.72102864583334
  1
100
 50
90.0
 41
0.7
 11
69.37063802083333
 21
-938.6874999999999
 31
0.0
100
AcDbText
 73
     3
  0
LINE
  5
130
330
59E
100
AcDbEntity
  8
DIMNSIONS
  6
Continuous
 62
     7
100
AcDbLine
 10
144.9999999999999
 20
-1200.0
 30
0.0
 11
110.0
 21
-1200.0
 31
0.0
  0
LINE
  5
131
330
59E
100
AcDbEntity
  8
DIMNSIONS
  6
Continuous
 62
     7
100
AcDbLine
 10
269.9999999999999
 20
-949.0
 30
0.0
 11
110.0
 21
-949.0
 31
0.0
  0
LINE
  5
132
330
59E
100
AcDbEntity
  8
DIMNSIONS
  6
Continuous
 62
     7
100
AcDbLine
 10
125.0
 20
-1200.0
 30
0.0
 11
125.0
 21
-949.0
 31
0.0
  0
LINE
  5
133
330
59E
100
AcDbEntity
  8
DIMNSIONS
  6
Continuous
 62
     7
100
AcDbLine
 10
125.0
 20
-1200.0
 30
0.0
 11
114.9494030727463
 21
-1162.490661621093
 31
0.0
  0
LINE
  5
134
330
59E
100
AcDbEntity
  8
DIMNSIONS
  6
Continuous
 62
     7
100
AcDbLine
 10
125.0
 20
-1200.0
 30
0.0
 11
135.0505969272536
 21
-1162.490661621093
 31
0.0
  0
LINE
  5
135
330
59E
100
AcDbEntity
  8
DIMNSIONS
  6
Continuous
 62
     7
100
AcDbLine
 10
125.0
 20
-949.0
 30
0.0
 11
135.0505969272536
 21
-986.5093383789062
 31
0.0
  0
LINE
  5
136
330
59E
100
AcDbEntity
  8
DIMNSIONS
  6
Continuous
 62
     7
100
AcDbLine
 10
125.0
 20
-949.0
 30
0.0
 11
114.9494030727463
 21
-986.5093383789062
 31
0.0
  0
TEXT
  5
137
330
59E
100
AcDbEntity
  8
DIMNSIONS
 62
     7
100
AcDbText
 10
110.0916666666666
 20
-1114.1875
 30
0.0
 40
40.72102864583334
  1
251
 50
90.0
 41
0.7
 11
69.37063802083333
 21
-1114.1875
 31
0.0
100
AcDbText
 73
     3
  0
TEXT
  5
138
330
59E
100
AcDbEntity
  8
DIMNSIONS
 62
     7
100
AcDbText
 10
389.6875
 20
-752.9183333333335
 30
0.0
 40
28.50472005208333
  1
※1
 41
0.7
 11
389.6875
 21
-724.4136132812501
 31
0.0
100
AcDbText
 73
     3
  0
LINE
  5
139
330
59E
100
AcDbEntity
  8
DIMNSIONS
  6
Continuous
 62
     7
100
AcDbLine
 10
650.0
 20
-1037.5
 30
0.0
 11
650.0
 21
-1007.5
 31
0.0
  0
TEXT
  5
13A
330
59E
100
AcDbEntity
  8
DIMNSIONS
 62
     7
100
AcDbText
 10
669.0499999999998
 20
-1007.5
 30
0.0
 40
40.72102864583334
  1
M10(4ヵ所)
 50
90.0
 41
0.7
 11
628.3289713541664
 21
-1007.5
 31
0.0
100
AcDbText
 73
     3
  0
LINE
  5
13B
330
59E
100
AcDbEntity
  8
DIMNSIONS
  6
Continuous
 62
     7
100
AcDbLine
 10
407.8713500874368
 20
-951.7864579309524
 30
0.0
 11
650.0
 21
-1037.5
 31
0.0
  0
LINE
  5
13C
330
59E
100
AcDbEntity
  8
DIMNSIONS
  6
Continuous
 62
     7
100
AcDbLine
 10
407.8713500874368
 20
-951.7864579309524
 30
0.0
 11
446.6092805759316
 21
-954.4952779113023
 31
0.0
  0
LINE
  5
13D
330
59E
100
AcDbEntity
  8
DIMNSIONS
  6
Continuous
 62
     7
100
AcDbLine
 10
407.8713500874368
 20
-951.7864579309524
 30
0.0
 11
440.0649719903342
 21
-973.5013300924617
 31
0.0
  0
ARC
  5
13E
330
59E
100
AcDbEntity
  8
DATA
  6
Continuous
 62
     7
100
AcDbCircle
 10
137.5463523745729
 20
-638.9100000000001
 30
0.0
 40
38.04823329440289
100
AcDbArc
 50
353.8290588516577
 51
1.370474445858803
  0
LINE
  5
13F
330
59E
100
AcDbEntity
  8
DATA
  6
Continuous
 62
     7
100
AcDbLine
 10
850.0
 20
-400.0
 30
0.0
 11
1150.0
 21
-400.0
 31
0.0
  0
TEXT
  5
140
330
59E
100
AcDbEntity
  8
DATA
 62
     7
100
AcDbText
 10
-1312.5
 20
-1782.410423333334
 30
0.0
 40
28.50472005208334
  1
※仕様及び外観は予告なく変更されることがあります。
 41
0.7
 11
-1312.5
 21
-1753.905703281251
 31
0.0
100
AcDbText
 73
     3
  0
TEXT
  5
141
330
59E
100
AcDbEntity
  8
DATA
 62
     7
100
AcDbText
 10
-1312.5
 20
-1819.45209
 30
0.0
 40
28.50472005208334
  1
　また、同一商品でも若干の個体差があることがあります。ご了承ください。
 41
0.7
 11
-1312.5
 21
-1790.947369947917
 31
0.0
100
AcDbText
 73
     3
  0
TEXT
  5
142
330
59E
100
AcDbEntity
  8
DATA
 62
     7
100
AcDbText
 10
919.2366265190971
 20
-375.3605143229167
 30
0.0
 40
40.72102864583334
  1
端子拡大図
 41
0.7
 72
     1
 11
1000.0
 21
-355.0
 31
0.0
100
AcDbText
 73
     2
  0
LINE
  5
143
330
59E
100
AcDbEntity
  8
DATA
  6
Continuous
 62
     7
100
AcDbLine
 10
-525.0
 20
-1200.0
 30
0.0
 11
-875.0
 21
-1200.0
 31
0.0
  0
LINE
  5
144
330
59E
100
AcDbEntity
  8
DATA
  6
Continuous
 62
     7
100
AcDbLine
 10
-875.0
 20
-600.0
 30
0.0
 11
-525.0
 21
-600.0
 31
0.0
  0
LINE
  5
145
330
59E
100
AcDbEntity
  8
DATA
  6
Continuous
 62
     7
100
AcDbLine
 10
-450.0
 20
-1190.0
 30
0.0
 11
-450.0
 21
-610.0
 31
0.0
  0
ARC
  5
146
330
59E
100
AcDbEntity
  8
DATA
  6
Continuous
 62
     7
100
AcDbCircle
 10
-440.0
 20
-1190.0
 30
0.0
 40
10.0
100
AcDbArc
 50
180.0
 51
270.0
  0
LINE
  5
147
330
59E
100
AcDbEntity
  8
DATA
  6
Continuous
 62
     7
100
AcDbLine
 10
-68.0
 20
-1200.0
 30
0.0
 11
-440.0
 21
-1200.0
 31
0.0
  0
ARC
  5
148
330
59E
100
AcDbEntity
  8
DATA
  6
Continuous
 62
     7
100
AcDbCircle
 10
-68.0
 20
-1190.0
 30
0.0
 40
10.0
100
AcDbArc
 50
270.0
 51
0.0
  0
LINE
  5
149
330
59E
100
AcDbEntity
  8
DATA
  6
Continuous
 62
     7
100
AcDbLine
 10
-58.0
 20
-610.0
 30
0.0
 11
-58.0
 21
-1190.0
 31
0.0
  0
ARC
  5
14A
330
59E
100
AcDbEntity
  8
DATA
  6
Continuous
 62
     7
100
AcDbCircle
 10
-68.0
 20
-610.0
 30
0.0
 40
10.0
100
AcDbArc
 50
0.0
 51
90.0
  0
LINE
  5
14B
330
59E
100
AcDbEntity
  8
DATA
  6
Continuous
 62
     7
100
AcDbLine
 10
-440.0
 20
-600.0
 30
0.0
 11
-68.0
 21
-600.0
 31
0.0
  0
ARC
  5
14C
330
59E
100
AcDbEntity
  8
DATA
  6
Continuous
 62
     7
100
AcDbCircle
 10
-440.0
 20
-610.0
 30
0.0
 40
10.0
100
AcDbArc
 50
90.0
 51
180.0
  0
TEXT
  5
14D
330
59E
100
AcDbEntity
  8
DATA
 62
     7
100
AcDbText
 10
749.9999999999996
 20
-1733.59124
 30
0.0
 40
36.64892578125
  1
AC266、AC299
 41
0.7
 11
749.9999999999996
 21
-1696.94231421875
 31
0.0
100
AcDbText
 73
     3
  0
TEXT
  5
14E
330
59E
100
AcDbEntity
  8
DATA
 62
     7
100
AcDbText
 10
749.9999999999996
 20
-1624.84124
 30
0.0
 40
36.64892578125
  1
JBL PROFESSIONAL
 41
0.7
 11
749.9999999999996
 21
-1588.19231421875
 31
0.0
100
AcDbText
 73
     3
  0
TEXT
  5
14F
330
59E
100
AcDbEntity
  8
DATA
 62
     7
100
AcDbText
 10
712.4999999999996
 20
-1678.900565
 30
0.0
 40
28.50472005208333
  1
2-Wayフルレンジ・スピーカー
 41
0.7
 11
712.4999999999996
 21
-1650.395844947917
 31
0.0
100
AcDbText
 73
     3
  0
ARC
  5
150
330
59E
100
AcDbEntity
  8
DATA
  6
Continuous
 62
     7
100
AcDbCircle
 10
-700.0
 20
775.0
 30
0.0
 40
1200.0
100
AcDbArc
 50
261.5434967927784
 51
278.4565032072215
  0
LINE
  5
151
330
59E
100
AcDbEntity
  8
DATA
  6
Continuous
 62
     7
100
AcDbLine
 10
-818.1298237178975
 20
-33.0
 30
0.0
 11
-581.8701762821023
 21
-33.0
 31
0.0
  0
LINE
  5
152
330
59E
100
AcDbEntity
  8
DATA
  6
Continuous
 62
     7
100
AcDbLine
 10
-885.0
 20
-615.0
 30
0.0
 11
-515.0
 21
-615.0
 31
0.0
  0
LINE
  5
153
330
59E
100
AcDbEntity
  8
DATA
  6
Continuous
 62
     7
100
AcDbLine
 10
-885.0
 20
-1185.0
 30
0.0
 11
-515.0
 21
-1185.0
 31
0.0
  0
LWPOLYLINE
  5
154
330
59E
100
AcDbEntity
  8
DATA
  6
Continuous
 62
     7
100
AcDbPolyline
 90
        4
 70
     1
 43
0.0
 10
-720.0
 20
-1045.0
 10
-680.0
 20
-1045.0
 10
-680.0
 20
-1085.0
 10
-720.0
 20
-1085.0
  0
LINE
  5
15B
330
59E
100
AcDbEntity
  8
DATA
  6
Continuous
 62
     7
100
AcDbLine
 10
-720.0
 20
-1078.0
 30
0.0
 11
-680.0
 21
-1078.0
 31
0.0
  0
ARC
  5
15C
330
59E
100
AcDbEntity
  8
DATA
  6
Continuous
 62
     7
100
AcDbCircle
 10
-699.3749842273548
 20
-1066.152512741232
 30
0.0
 40
0.4144180492639377
100
AcDbArc
 50
307.6419024975802
 51
354.2670192893925
  0
LINE
  5
15D
330
59E
100
AcDbEntity
  8
DATA
  6
Continuous
 62
     7
100
AcDbLine
 10
-710.0198149999999
 20
-1059.621955
 30
0.0
 11
-708.077017
 21
-1054.992811
 31
0.0
  0
LINE
  5
15E
330
59E
100
AcDbEntity
  8
DATA
  6
Continuous
 62
     7
100
AcDbLine
 10
-710.0198149999999
 20
-1059.621955
 30
0.0
 11
-711.9386410000002
 21
-1054.992811
 31
0.0
  0
LINE
  5
15F
330
59E
100
AcDbEntity
  8
DATA
  6
Continuous
 62
     7
100
AcDbLine
 10
-695.2928949999998
 20
-1067.992811
 30
0.0
 11
-695.2928949999998
 21
-1054.992811
 31
0.0
  0
LINE
  5
160
330
59E
100
AcDbEntity
  8
DATA
  6
Continuous
 62
     7
100
AcDbLine
 10
-692.798429
 20
-1054.992811
 30
0.0
 11
-692.798429
 21
-1066.002043
 31
0.0
  0
LINE
  5
161
330
59E
100
AcDbEntity
  8
DATA
  6
Continuous
 62
     7
100
AcDbLine
 10
-707.1655739999999
 20
-1054.992811
 30
0.0
 11
-707.1655739999999
 21
-1066.002043
 31
0.0
  0
LINE
  5
162
330
59E
100
AcDbEntity
  8
DATA
  6
Continuous
 62
     7
100
AcDbLine
 10
-704.7670480000001
 20
-1054.992811
 30
0.0
 11
-704.7670480000001
 21
-1066.002043
 31
0.0
  0
LINE
  5
163
330
59E
100
AcDbEntity
  8
DATA
  6
Continuous
 62
     7
100
AcDbLine
 10
-703.519815
 20
-1054.992811
 30
0.0
 11
-703.519815
 21
-1067.992811
 31
0.0
  0
LINE
  5
164
330
59E
100
AcDbEntity
  8
DATA
  6
Continuous
 62
     7
100
AcDbLine
 10
-701.3371540000001
 20
-1056.216046
 30
0.0
 11
-701.3371540000001
 21
-1060.389488
 31
0.0
  0
LINE
  5
165
330
59E
100
AcDbEntity
  8
DATA
  6
Continuous
 62
     7
100
AcDbLine
 10
-696.6589999999999
 20
-1060.148
 30
0.0
 11
-696.6589999999999
 21
-1057.103517
 31
0.0
  0
LINE
  5
166
330
59E
100
AcDbEntity
  8
DATA
  6
Continuous
 62
     7
100
AcDbLine
 10
-698.9626390000002
 20
-1056.791699
 30
0.0
 11
-698.9626390000002
 21
-1059.813848
 31
0.0
  0
ARC
  5
167
330
59E
100
AcDbEntity
  8
DATA
  6
Continuous
 62
     7
100
AcDbCircle
 10
-707.646886
 20
-1064.654671
 30
0.0
 40
3.352509452717986
100
AcDbArc
 50
264.6908562215332
 51
323.9911991542417
  0
LINE
  5
168
330
59E
100
AcDbEntity
  8
DATA
  6
Continuous
 62
     7
100
AcDbLine
 10
-708.9884469999999
 20
-1063.915308999999
 30
0.0
 11
-708.9884469999999
 21
-1066.002017
 31
0.0
  0
LINE
  5
169
330
59E
100
AcDbEntity
  8
DATA
  6
Continuous
 62
     7
100
AcDbLine
 10
-708.9884469999999
 20
-1063.915308999999
 30
0.0
 11
-711.1471229999999
 21
-1063.915308999999
 31
0.0
  0
LINE
  5
16A
330
59E
100
AcDbEntity
  8
DATA
  6
Continuous
 62
     7
100
AcDbLine
 10
-711.1471229999999
 20
-1063.915308999999
 30
0.0
 11
-711.1471229999999
 21
-1066.002017
 31
0.0
  0
ARC
  5
16B
330
59E
100
AcDbEntity
  8
DATA
  6
Continuous
 62
     7
100
AcDbCircle
 10
-708.072441
 20
-1066.030149
 30
0.0
 40
0.9073074741151195
100
AcDbArc
 50
269.7118487927532
 51
1.775987005683248
  0
ARC
  5
16C
330
59E
100
AcDbEntity
  8
DATA
  6
Continuous
 62
     7
100
AcDbCircle
 10
-708.0815799999998
 20
-1066.030149
 30
0.0
 40
0.90730283469747
100
AcDbArc
 50
178.2240129943099
 51
270.2881512072395
  0
ARC
  5
16D
330
59E
100
AcDbEntity
  8
DATA
  6
Continuous
 62
     7
100
AcDbCircle
 10
-708.267285
 20
-1064.654671
 30
0.0
 40
3.352504008030587
100
AcDbArc
 50
216.0088008457569
 51
275.3091437784656
  0
ARC
  5
16E
330
59E
100
AcDbEntity
  8
DATA
  6
Continuous
 62
     7
100
AcDbCircle
 10
-709.6320510000001
 20
-1065.928528
 30
0.0
 40
1.516840270629003
100
AcDbArc
 50
182.7769954499979
 51
207.3596066671504
  0
CIRCLE
  5
16F
330
59E
100
AcDbEntity
  8
DATA
  6
Continuous
 62
     7
100
AcDbCircle
 10
-709.8878910000002
 20
-1061.420856
 30
0.0
 40
1.235234000000104
  0
LINE
  5
170
330
59E
100
AcDbEntity
  8
DATA
  6
Continuous
 62
     7
100
AcDbLine
 10
-688.7928949999998
 20
-1067.992798
 30
0.0
 11
-695.2928949999998
 21
-1067.992798
 31
0.0
  0
LINE
  5
171
330
59E
100
AcDbEntity
  8
DATA
  6
Continuous
 62
     7
100
AcDbLine
 10
-688.7928949999998
 20
-1067.992798
 30
0.0
 11
-688.7928949999998
 21
-1063.915296
 31
0.0
  0
LINE
  5
172
330
59E
100
AcDbEntity
  8
DATA
  6
Continuous
 62
     7
100
AcDbLine
 10
-688.7928949999998
 20
-1063.915308999999
 30
0.0
 11
-690.9755429999998
 21
-1063.915308999999
 31
0.0
  0
LINE
  5
173
330
59E
100
AcDbEntity
  8
DATA
  6
Continuous
 62
     7
100
AcDbLine
 10
-690.9755429999998
 20
-1063.915308999999
 30
0.0
 11
-690.9755429999998
 21
-1066.002017
 31
0.0
  0
LINE
  5
174
330
59E
100
AcDbEntity
  8
DATA
  6
Continuous
 62
     7
100
AcDbLine
 10
-703.519815
 20
-1067.992798
 30
0.0
 11
-698.9626390000002
 21
-1067.992785
 31
0.0
  0
LINE
  5
175
330
59E
100
AcDbEntity
  8
DATA
  6
Continuous
 62
     7
100
AcDbLine
 10
-701.337167
 20
-1066.76955
 30
0.0
 11
-700.1618890000002
 21
-1066.76955
 31
0.0
  0
LINE
  5
176
330
59E
100
AcDbEntity
  8
DATA
  6
Continuous
 62
     7
100
AcDbLine
 10
-701.3371540000001
 20
-1066.76955
 30
0.0
 11
-701.3371540000001
 21
-1061.636708
 31
0.0
  0
LINE
  5
177
330
59E
100
AcDbEntity
  8
DATA
  6
Continuous
 62
     7
100
AcDbLine
 10
-701.337167
 20
-1061.636708
 30
0.0
 11
-700.1618890000002
 21
-1061.636708
 31
0.0
  0
LINE
  5
178
330
59E
100
AcDbEntity
  8
DATA
  6
Continuous
 62
     7
100
AcDbLine
 10
-698.9626390000002
 20
-1066.19391
 30
0.0
 11
-698.9626390000002
 21
-1062.212348
 31
0.0
  0
ARC
  5
179
330
59E
100
AcDbEntity
  8
DATA
  6
Continuous
 62
     7
100
AcDbCircle
 10
-706.28212
 20
-1065.928528
 30
0.0
 40
1.516838112224684
100
AcDbArc
 50
332.6403933328444
 51
357.2230045500073
  0
ARC
  5
17A
330
59E
100
AcDbEntity
  8
DATA
  6
Continuous
 62
     7
100
AcDbCircle
 10
-691.882423
 20
-1066.030149
 30
0.0
 40
0.9073074741151195
100
AcDbArc
 50
269.7118487927532
 51
1.775987005683419
  0
ARC
  5
17B
330
59E
100
AcDbEntity
  8
DATA
  6
Continuous
 62
     7
100
AcDbCircle
 10
-691.8915490000001
 20
-1066.030149
 30
0.0
 40
0.90730283469747
100
AcDbArc
 50
178.2240129943099
 51
270.2881512072539
  0
LINE
  5
17C
330
59E
100
AcDbEntity
  8
DATA
  6
Continuous
 62
     7
100
AcDbLine
 10
-696.660053
 20
-1065.906077
 30
0.0
 11
-696.660053
 21
-1062.452211
 31
0.0
  0
LINE
  5
17D
330
59E
100
AcDbEntity
  8
DATA
  6
Continuous
 62
     7
100
AcDbLine
 10
-701.337167
 20
-1060.389488
 30
0.0
 11
-700.1618890000002
 21
-1060.389488
 31
0.0
  0
ARC
  5
17E
330
59E
100
AcDbEntity
  8
DATA
  6
Continuous
 62
     7
100
AcDbCircle
 10
-699.1278950000001
 20
-1065.524917
 30
0.0
 40
2.473394835233503
100
AcDbArc
 50
273.8309816091149
 51
351.135147309802
  0
LINE
  5
17F
330
59E
100
AcDbEntity
  8
DATA
  6
Continuous
 62
     7
100
AcDbLine
 10
-707.1655739999999
 20
-1054.992811
 30
0.0
 11
-704.7670480000001
 21
-1054.992811
 31
0.0
  0
LINE
  5
180
330
59E
100
AcDbEntity
  8
DATA
  6
Continuous
 62
     7
100
AcDbLine
 10
-711.9386410000002
 20
-1054.992811
 30
0.0
 11
-708.077017
 21
-1054.992811
 31
0.0
  0
LINE
  5
181
330
59E
100
AcDbEntity
  8
DATA
  6
Continuous
 62
     7
100
AcDbLine
 10
-695.2928949999998
 20
-1054.992811
 30
0.0
 11
-692.798429
 21
-1054.992811
 31
0.0
  0
LINE
  5
182
330
59E
100
AcDbEntity
  8
DATA
  6
Continuous
 62
     7
100
AcDbLine
 10
-703.519815
 20
-1054.992811
 30
0.0
 11
-698.9375878334092
 21
-1054.992821521862
 31
0.0
  0
LINE
  5
183
330
59E
100
AcDbEntity
  8
DATA
  6
Continuous
 62
     7
100
AcDbLine
 10
-701.337167
 20
-1056.216059
 30
0.0
 11
-700.1618890000002
 21
-1056.216059
 31
0.0
  0
ARC
  5
184
330
59E
100
AcDbEntity
  8
DATA
  6
Continuous
 62
     7
100
AcDbCircle
 10
-699.1032339999998
 20
-1057.456909
 30
0.0
 40
2.469648912785022
100
AcDbArc
 50
8.226923859015297
 51
86.15412669215457
  0
ARC
  5
185
330
59E
100
AcDbEntity
  8
DATA
  6
Continuous
 62
     7
100
AcDbCircle
 10
-700.1480108986156
 20
-1064.489755651236
 30
0.0
 40
2.2798365893965
100
AcDbArc
 50
269.6512199376146
 51
282.8264828068708
  0
ARC
  5
186
330
59E
100
AcDbEntity
  8
DATA
  6
Continuous
 62
     7
100
AcDbCircle
 10
-699.8919491642933
 20
-1065.453625404595
 30
0.0
 40
1.283669274801317
100
AcDbArc
 50
281.2331036226595
 51
306.8620088940685
  0
ARC
  5
187
330
59E
100
AcDbEntity
  8
DATA
  6
Continuous
 62
     7
100
AcDbCircle
 10
-699.3749842273548
 20
-1062.253745258767
 30
0.0
 40
0.4144180492638839
100
AcDbArc
 50
5.732980710546418
 51
52.35809750241976
  0
ARC
  5
188
330
59E
100
AcDbEntity
  8
DATA
  6
Continuous
 62
     7
100
AcDbCircle
 10
-700.1480108986156
 20
-1063.916502348763
 30
0.0
 40
2.279836589396118
100
AcDbArc
 50
77.17351719312666
 51
90.34878006238555
  0
ARC
  5
189
330
59E
100
AcDbEntity
  8
DATA
  6
Continuous
 62
     7
100
AcDbCircle
 10
-699.8919491642933
 20
-1062.952632595404
 30
0.0
 40
1.283669274801168
100
AcDbArc
 50
53.1379911059356
 51
78.76689637733362
  0
ARC
  5
18A
330
59E
100
AcDbEntity
  8
DATA
  6
Continuous
 62
     7
100
AcDbCircle
 10
-697.918037
 20
-1062.537244
 30
0.0
 40
1.260854613087983
100
AcDbArc
 50
3.867006359835065
 51
88.36163456789694
  0
ARC
  5
18B
330
59E
100
AcDbEntity
  8
DATA
  6
Continuous
 62
     7
100
AcDbCircle
 10
-697.9191939999999
 20
-1060.015348
 30
0.0
 40
1.262107521931673
100
AcDbArc
 50
271.6892821046474
 51
356.0782829826652
  0
ARC
  5
18C
330
59E
100
AcDbEntity
  8
DATA
  6
Continuous
 62
     7
100
AcDbCircle
 10
-699.3749842273548
 20
-1059.772450741232
 30
0.0
 40
0.4144180492639377
100
AcDbArc
 50
307.6419024975802
 51
354.2670192893925
  0
ARC
  5
18D
330
59E
100
AcDbEntity
  8
DATA
  6
Continuous
 62
     7
100
AcDbCircle
 10
-700.1480108986156
 20
-1058.109693651237
 30
0.0
 40
2.279836589396272
100
AcDbArc
 50
269.6512199376145
 51
282.8264828068749
  0
ARC
  5
18E
330
59E
100
AcDbEntity
  8
DATA
  6
Continuous
 62
     7
100
AcDbCircle
 10
-699.8919491642933
 20
-1059.073563404595
 30
0.0
 40
1.283669274801094
100
AcDbArc
 50
281.2331036226614
 51
306.8620088940603
  0
ARC
  5
18F
330
59E
100
AcDbEntity
  8
DATA
  6
Continuous
 62
     7
100
AcDbCircle
 10
-699.3749842273548
 20
-1056.833096258767
 30
0.0
 40
0.4144180492639293
100
AcDbArc
 50
5.732980710608975
 51
52.35809750241976
  0
ARC
  5
190
330
59E
100
AcDbEntity
  8
DATA
  6
Continuous
 62
     7
100
AcDbCircle
 10
-700.1480108986156
 20
-1058.495853348763
 30
0.0
 40
2.27983658939634
100
AcDbArc
 50
77.17351719312791
 51
90.34878006238555
  0
ARC
  5
191
330
59E
100
AcDbEntity
  8
DATA
  6
Continuous
 62
     7
100
AcDbCircle
 10
-699.8919491642933
 20
-1057.531983595405
 30
0.0
 40
1.283669274801168
100
AcDbArc
 50
53.1379911059356
 51
78.76689637734057
  0
TEXT
  5
192
330
59E
100
AcDbEntity
  8
DATA
 62
     7
100
AcDbText
 10
-718.31484375
 20
-1083.80859375
 30
0.0
 40
4.6171875
  1
PROFESSIONAL
 41
0.7
 72
     1
 11
-700.0
 21
-1081.5
 31
0.0
100
AcDbText
 73
     2
  0
CIRCLE
  5
193
330
59E
100
AcDbEntity
  8
DATA
  6
Continuous
 62
     7
100
AcDbCircle
 10
-700.0
 20
-247.0
 30
0.0
 40
10.0
  0
LINE
  5
194
330
59E
100
AcDbEntity
  8
DATA
  6
Continuous
 62
     7
100
AcDbLine
 10
-700.0
 20
-243.55
 30
0.0
 11
-702.9877876430563
 21
-245.275
 31
0.0
  0
LINE
  5
195
330
59E
100
AcDbEntity
  8
DATA
  6
Continuous
 62
     7
100
AcDbLine
 10
-702.9877876430563
 20
-245.275
 30
0.0
 11
-702.9877876430563
 21
-248.725
 31
0.0
  0
LINE
  5
196
330
59E
100
AcDbEntity
  8
DATA
  6
Continuous
 62
     7
100
AcDbLine
 10
-702.9877876430563
 20
-248.725
 30
0.0
 11
-700.0
 21
-250.45
 31
0.0
  0
LINE
  5
197
330
59E
100
AcDbEntity
  8
DATA
  6
Continuous
 62
     7
100
AcDbLine
 10
-700.0
 20
-250.45
 30
0.0
 11
-697.0122123569437
 21
-248.725
 31
0.0
  0
LINE
  5
198
330
59E
100
AcDbEntity
  8
DATA
  6
Continuous
 62
     7
100
AcDbLine
 10
-697.0122123569437
 20
-248.725
 30
0.0
 11
-697.0122123569437
 21
-245.275
 31
0.0
  0
LINE
  5
199
330
59E
100
AcDbEntity
  8
DATA
  6
Continuous
 62
     7
100
AcDbLine
 10
-697.0122123569437
 20
-245.275
 30
0.0
 11
-700.0
 21
-243.55
 31
0.0
  0
CIRCLE
  5
19A
330
59E
100
AcDbEntity
  8
DATA
  6
Continuous
 62
     7
100
AcDbCircle
 10
-700.0
 20
-73.5
 30
0.0
 40
10.0
  0
LINE
  5
19B
330
59E
100
AcDbEntity
  8
DATA
  6
Continuous
 62
     7
100
AcDbLine
 10
-700.0
 20
-70.05000000000001
 30
0.0
 11
-702.9877876430563
 21
-71.77499999999998
 31
0.0
  0
LINE
  5
19C
330
59E
100
AcDbEntity
  8
DATA
  6
Continuous
 62
     7
100
AcDbLine
 10
-702.9877876430563
 20
-71.77499999999998
 30
0.0
 11
-702.9877876430563
 21
-75.22499999999997
 31
0.0
  0
LINE
  5
19D
330
59E
100
AcDbEntity
  8
DATA
  6
Continuous
 62
     7
100
AcDbLine
 10
-702.9877876430563
 20
-75.22499999999997
 30
0.0
 11
-700.0
 21
-76.95
 31
0.0
  0
LINE
  5
19E
330
59E
100
AcDbEntity
  8
DATA
  6
Continuous
 62
     7
100
AcDbLine
 10
-700.0
 20
-76.95
 30
0.0
 11
-697.0122123569437
 21
-75.22499999999997
 31
0.0
  0
LINE
  5
19F
330
59E
100
AcDbEntity
  8
DATA
  6
Continuous
 62
     7
100
AcDbLine
 10
-697.0122123569437
 20
-75.22499999999997
 30
0.0
 11
-697.0122123569437
 21
-71.77499999999998
 31
0.0
  0
LINE
  5
1A0
330
59E
100
AcDbEntity
  8
DATA
  6
Continuous
 62
     7
100
AcDbLine
 10
-697.0122123569437
 20
-71.77499999999998
 30
0.0
 11
-700.0
 21
-70.05000000000001
 31
0.0
  0
CIRCLE
  5
1A1
330
59E
100
AcDbEntity
  8
DATA
  6
Continuous
 62
     7
100
AcDbCircle
 10
-567.0
 20
-323.5
 30
0.0
 40
10.0
  0
LINE
  5
1A2
330
59E
100
AcDbEntity
  8
DATA
  6
Continuous
 62
     7
100
AcDbLine
 10
-567.0
 20
-320.05
 30
0.0
 11
-569.9877876430564
 21
-321.775
 31
0.0
  0
LINE
  5
1A3
330
59E
100
AcDbEntity
  8
DATA
  6
Continuous
 62
     7
100
AcDbLine
 10
-569.9877876430564
 20
-321.775
 30
0.0
 11
-569.9877876430564
 21
-325.225
 31
0.0
  0
LINE
  5
1A4
330
59E
100
AcDbEntity
  8
DATA
  6
Continuous
 62
     7
100
AcDbLine
 10
-569.9877876430564
 20
-325.225
 30
0.0
 11
-567.0
 21
-326.95
 31
0.0
  0
LINE
  5
1A5
330
59E
100
AcDbEntity
  8
DATA
  6
Continuous
 62
     7
100
AcDbLine
 10
-567.0
 20
-326.95
 30
0.0
 11
-564.0122123569435
 21
-325.225
 31
0.0
  0
LINE
  5
1A6
330
59E
100
AcDbEntity
  8
DATA
  6
Continuous
 62
     7
100
AcDbLine
 10
-564.0122123569435
 20
-325.225
 30
0.0
 11
-564.0122123569435
 21
-321.775
 31
0.0
  0
LINE
  5
1A7
330
59E
100
AcDbEntity
  8
DATA
  6
Continuous
 62
     7
100
AcDbLine
 10
-564.0122123569435
 20
-321.775
 30
0.0
 11
-567.0
 21
-320.05
 31
0.0
  0
CIRCLE
  5
1A8
330
59E
100
AcDbEntity
  8
DATA
  6
Continuous
 62
     7
100
AcDbCircle
 10
-833.0
 20
-323.5
 30
0.0
 40
10.0
  0
LINE
  5
1A9
330
59E
100
AcDbEntity
  8
DATA
  6
Continuous
 62
     7
100
AcDbLine
 10
-832.4999999999999
 20
-320.05
 30
0.0
 11
-835.4877876430563
 21
-321.775
 31
0.0
  0
LINE
  5
1AA
330
59E
100
AcDbEntity
  8
DATA
  6
Continuous
 62
     7
100
AcDbLine
 10
-835.4877876430563
 20
-321.775
 30
0.0
 11
-835.4877876430563
 21
-325.225
 31
0.0
  0
LINE
  5
1AB
330
59E
100
AcDbEntity
  8
DATA
  6
Continuous
 62
     7
100
AcDbLine
 10
-835.4877876430563
 20
-325.225
 30
0.0
 11
-832.4999999999999
 21
-326.95
 31
0.0
  0
LINE
  5
1AC
330
59E
100
AcDbEntity
  8
DATA
  6
Continuous
 62
     7
100
AcDbLine
 10
-832.4999999999999
 20
-326.95
 30
0.0
 11
-829.5122123569436
 21
-325.225
 31
0.0
  0
LINE
  5
1AD
330
59E
100
AcDbEntity
  8
DATA
  6
Continuous
 62
     7
100
AcDbLine
 10
-829.5122123569436
 20
-325.225
 30
0.0
 11
-829.5122123569436
 21
-321.775
 31
0.0
  0
LINE
  5
1AE
330
59E
100
AcDbEntity
  8
DATA
  6
Continuous
 62
     7
100
AcDbLine
 10
-829.5122123569436
 20
-321.775
 30
0.0
 11
-832.4999999999999
 21
-320.05
 31
0.0
  0
LINE
  5
1AF
330
59E
100
AcDbEntity
  8
DATA
  6
Continuous
 62
     7
100
AcDbLine
 10
-885.0
 20
-1190.0
 30
0.0
 11
-885.0
 21
-610.0
 31
0.0
  0
LINE
  5
1B0
330
59E
100
AcDbEntity
  8
DATA
  6
Continuous
 62
     7
100
AcDbLine
 10
-515.0
 20
-610.0
 30
0.0
 11
-515.0
 21
-1190.0
 31
0.0
  0
LINE
  5
1B1
330
59E
100
AcDbEntity
  8
DATA
  6
Continuous
 62
     7
100
AcDbLine
 10
-571.9932928761509
 20
-41.43565534959771
 30
0.0
 11
-515.1234479223664
 21
-400.4977250658898
 31
0.0
  0
ARC
  5
1B2
330
59E
100
AcDbEntity
  8
DATA
  6
Continuous
 62
     7
100
AcDbCircle
 10
-875.0
 20
-610.0
 30
0.0
 40
10.0
100
AcDbArc
 50
90.0
 51
180.0
  0
ARC
  5
1B3
330
59E
100
AcDbEntity
  8
DATA
  6
Continuous
 62
     7
100
AcDbCircle
 10
-525.0
 20
-610.0
 30
0.0
 40
10.0
100
AcDbArc
 50
0.0
 51
90.0
  0
ARC
  5
1B4
330
59E
100
AcDbEntity
  8
DATA
  6
Continuous
 62
     7
100
AcDbCircle
 10
-525.0
 20
-1190.0
 30
0.0
 40
10.0
100
AcDbArc
 50
270.0
 51
0.0
  0
ARC
  5
1B5
330
59E
100
AcDbEntity
  8
DATA
  6
Continuous
 62
     7
100
AcDbCircle
 10
-875.0
 20
-1190.0
 30
0.0
 40
10.0
100
AcDbArc
 50
180.0
 51
270.0
  0
ARC
  5
1B6
330
59E
100
AcDbEntity
  8
DATA
  6
Continuous
 62
     7
100
AcDbCircle
 10
-525.0003313283177
 20
-402.0620697162922
 30
0.0
 40
9.999999999999992
100
AcDbArc
 50
278.4565032072203
 51
9.0
  0
LINE
  5
1B7
330
59E
100
AcDbEntity
  8
DATA
  6
Continuous
 62
     7
100
AcDbLine
 10
-828.0067071238487
 20
-41.43565534959768
 30
0.0
 11
-884.8765520776344
 21
-400.4977250658962
 31
0.0
  0
ARC
  5
1B8
330
59E
100
AcDbEntity
  8
DATA
  6
Continuous
 62
     7
100
AcDbCircle
 10
-874.9996686716896
 20
-402.0620697162976
 30
0.0
 40
9.999999999993578
100
AcDbArc
 50
170.9999999999995
 51
261.543496792815
  0
ARC
  5
1B9
330
59E
100
AcDbEntity
  8
DATA
  6
Continuous
 62
     7
100
AcDbCircle
 10
-818.1298237178975
 20
-43.0
 30
0.0
 40
10.0
100
AcDbArc
 50
90.0
 51
170.9999999999999
  0
ARC
  5
1BA
330
59E
100
AcDbEntity
  8
DATA
  6
Continuous
 62
     7
100
AcDbCircle
 10
-581.8701762821023
 20
-43.0
 30
0.0
 40
9.999999999999896
100
AcDbArc
 50
8.999999999999989
 51
90.00000000000063
  0
LINE
  5
1BB
330
59E
100
AcDbEntity
  8
DATA
  6
Continuous
 62
     7
100
AcDbLine
 10
525.0
 20
-1200.0
 30
0.0
 11
174.9999999999999
 21
-1200.0
 31
0.0
  0
LINE
  5
1BC
330
59E
100
AcDbEntity
  8
DATA
  6
Continuous
 62
     7
100
AcDbLine
 10
174.9999999999999
 20
-600.0
 30
0.0
 11
525.0
 21
-600.0
 31
0.0
  0
LINE
  5
1BD
330
59E
100
AcDbEntity
  8
DATA
  6
Continuous
 62
     7
100
AcDbLine
 10
164.9999999999999
 20
-1190.0
 30
0.0
 11
164.9999999999999
 21
-610.0
 31
0.0
  0
LINE
  5
1BE
330
59E
100
AcDbEntity
  8
DATA
  6
Continuous
 62
     7
100
AcDbLine
 10
535.0
 20
-610.0
 30
0.0
 11
535.0
 21
-1190.0
 31
0.0
  0
ARC
  5
1BF
330
59E
100
AcDbEntity
  8
DATA
  6
Continuous
 62
     7
100
AcDbCircle
 10
174.9999999999999
 20
-610.0
 30
0.0
 40
10.0
100
AcDbArc
 50
90.0
 51
180.0
  0
ARC
  5
1C0
330
59E
100
AcDbEntity
  8
DATA
  6
Continuous
 62
     7
100
AcDbCircle
 10
525.0
 20
-610.0
 30
0.0
 40
10.0
100
AcDbArc
 50
0.0
 51
90.0
  0
ARC
  5
1C1
330
59E
100
AcDbEntity
  8
DATA
  6
Continuous
 62
     7
100
AcDbCircle
 10
525.0
 20
-1190.0
 30
0.0
 40
10.0
100
AcDbArc
 50
270.0
 51
0.0
  0
ARC
  5
1C2
330
59E
100
AcDbEntity
  8
DATA
  6
Continuous
 62
     7
100
AcDbCircle
 10
174.9999999999999
 20
-1190.0
 30
0.0
 40
10.0
100
AcDbArc
 50
180.0
 51
270.0
  0
LINE
  5
1C3
330
59E
100
AcDbEntity
  8
DATA
  6
Continuous
 62
     7
100
AcDbLine
 10
223.3293694274679
 20
-600.0
 30
0.0
 11
223.3293694274679
 21
-1200.0
 31
0.0
  0
LINE
  5
1C4
330
59E
100
AcDbEntity
  8
DATA
  6
Continuous
 62
     7
100
AcDbLine
 10
-352.2457838502533
 20
-637.8768835000002
 30
0.0
 11
-352.2457838502533
 21
-638.0000000000001
 31
0.0
  0
ARC
  5
1C5
330
59E
100
AcDbEntity
  8
DATA
  6
Continuous
 62
     7
100
AcDbCircle
 10
-342.3689003502533
 20
-637.8768835000002
 30
0.0
 40
9.876883500000076
100
AcDbArc
 50
90.0
 51
180.0
  0
LINE
  5
1C6
330
59E
100
AcDbEntity
  8
DATA
  6
Continuous
 62
     7
100
AcDbLine
 10
-342.3689003502533
 20
-634.5499999999999
 30
0.0
 11
-345.319903397574
 21
-636.275
 31
0.0
  0
LINE
  5
1C7
330
59E
100
AcDbEntity
  8
DATA
  6
Continuous
 62
     7
100
AcDbLine
 10
-345.319903397574
 20
-636.275
 30
0.0
 11
-345.319903397574
 21
-639.7249999999997
 31
0.0
  0
LINE
  5
1C8
330
59E
100
AcDbEntity
  8
DATA
  6
Continuous
 62
     7
100
AcDbLine
 10
-345.319903397574
 20
-639.7249999999997
 30
0.0
 11
-342.3689003502533
 21
-641.4500000000002
 31
0.0
  0
LINE
  5
1C9
330
59E
100
AcDbEntity
  8
DATA
  6
Continuous
 62
     7
100
AcDbLine
 10
-342.3689003502533
 20
-641.4500000000002
 30
0.0
 11
-339.4178973029326
 21
-639.7249999999997
 31
0.0
  0
LINE
  5
1CA
330
59E
100
AcDbEntity
  8
DATA
  6
Continuous
 62
     7
100
AcDbLine
 10
-339.4178973029326
 20
-639.7249999999997
 30
0.0
 11
-339.4178973029326
 21
-636.275
 31
0.0
  0
LINE
  5
1CB
330
59E
100
AcDbEntity
  8
DATA
  6
Continuous
 62
     7
100
AcDbLine
 10
-339.4178973029326
 20
-636.275
 30
0.0
 11
-342.3689003502533
 21
-634.5499999999999
 31
0.0
  0
ARC
  5
1CC
330
59E
100
AcDbEntity
  8
DATA
  6
Continuous
 62
     7
100
AcDbCircle
 10
-342.3689003502531
 20
-637.8768835000002
 30
0.0
 40
9.876883500000019
100
AcDbArc
 50
0.0
 51
90.0
  0
ARC
  5
1CD
330
59E
100
AcDbEntity
  8
DATA
  6
Continuous
 62
     7
100
AcDbCircle
 10
-342.3689003502533
 20
-638.1231164999998
 30
0.0
 40
9.876883500000019
100
AcDbArc
 50
180.0
 51
270.0
  0
ARC
  5
1CE
330
59E
100
AcDbEntity
  8
DATA
  6
Continuous
 62
     7
100
AcDbCircle
 10
-342.3689003502531
 20
-638.1231164999998
 30
0.0
 40
9.876883500000076
100
AcDbArc
 50
270.0
 51
0.0
  0
LINE
  5
1CF
330
59E
100
AcDbEntity
  8
DATA
  6
Continuous
 62
     7
100
AcDbLine
 10
-352.2457838502533
 20
-1162.1231165
 30
0.0
 11
-352.2457838502533
 21
-1162.0
 31
0.0
  0
ARC
  5
1D0
330
59E
100
AcDbEntity
  8
DATA
  6
Continuous
 62
     7
100
AcDbCircle
 10
-342.3689003502533
 20
-1162.1231165
 30
0.0
 40
9.876883500000019
100
AcDbArc
 50
180.0
 51
270.0
  0
LINE
  5
1D1
330
59E
100
AcDbEntity
  8
DATA
  6
Continuous
 62
     7
100
AcDbLine
 10
-342.3689003502533
 20
-1165.45
 30
0.0
 11
-345.319903397574
 21
-1163.725
 31
0.0
  0
LINE
  5
1D2
330
59E
100
AcDbEntity
  8
DATA
  6
Continuous
 62
     7
100
AcDbLine
 10
-345.319903397574
 20
-1163.725
 30
0.0
 11
-345.319903397574
 21
-1160.275
 31
0.0
  0
LINE
  5
1D3
330
59E
100
AcDbEntity
  8
DATA
  6
Continuous
 62
     7
100
AcDbLine
 10
-345.319903397574
 20
-1160.275
 30
0.0
 11
-342.3689003502533
 21
-1158.55
 31
0.0
  0
LINE
  5
1D4
330
59E
100
AcDbEntity
  8
DATA
  6
Continuous
 62
     7
100
AcDbLine
 10
-342.3689003502533
 20
-1158.55
 30
0.0
 11
-339.4178973029326
 21
-1160.275
 31
0.0
  0
LINE
  5
1D5
330
59E
100
AcDbEntity
  8
DATA
  6
Continuous
 62
     7
100
AcDbLine
 10
-339.4178973029326
 20
-1160.275
 30
0.0
 11
-339.4178973029326
 21
-1163.725
 31
0.0
  0
LINE
  5
1D6
330
59E
100
AcDbEntity
  8
DATA
  6
Continuous
 62
     7
100
AcDbLine
 10
-339.4178973029326
 20
-1163.725
 30
0.0
 11
-342.3689003502533
 21
-1165.45
 31
0.0
  0
ARC
  5
1D7
330
59E
100
AcDbEntity
  8
DATA
  6
Continuous
 62
     7
100
AcDbCircle
 10
-342.3689003502531
 20
-1162.1231165
 30
0.0
 40
9.876883500000076
100
AcDbArc
 50
270.0
 51
0.0
  0
ARC
  5
1D8
330
59E
100
AcDbEntity
  8
DATA
  6
Continuous
 62
     7
100
AcDbCircle
 10
-342.3689003502533
 20
-1161.8768835
 30
0.0
 40
9.876883500000076
100
AcDbArc
 50
90.0
 51
180.0
  0
ARC
  5
1D9
330
59E
100
AcDbEntity
  8
DATA
  6
Continuous
 62
     7
100
AcDbCircle
 10
-342.3689003502531
 20
-1161.8768835
 30
0.0
 40
9.876883500000019
100
AcDbArc
 50
0.0
 51
90.0
  0
LINE
  5
1DA
330
59E
100
AcDbEntity
  8
DATA
  6
Continuous
 62
     7
100
AcDbLine
 10
174.0193568724718
 20
-634.5500000000002
 30
0.0
 11
173.5519638064241
 21
-636.2750000000001
 31
0.0
  0
LINE
  5
1DB
330
59E
100
AcDbEntity
  8
DATA
  6
Continuous
 62
     7
100
AcDbLine
 10
173.5519638064241
 20
-636.2750000000001
 30
0.0
 11
173.5519638064241
 21
-639.725
 31
0.0
  0
LINE
  5
1DC
330
59E
100
AcDbEntity
  8
DATA
  6
Continuous
 62
     7
100
AcDbLine
 10
173.5519638064241
 20
-639.725
 30
0.0
 11
174.0193568724718
 21
-641.4500000000002
 31
0.0
  0
LINE
  5
1DD
330
59E
100
AcDbEntity
  8
DATA
  6
Continuous
 62
     7
100
AcDbLine
 10
174.0193568724718
 20
-641.4500000000002
 30
0.0
 11
174.4867499385194
 21
-639.725
 31
0.0
  0
LINE
  5
1DE
330
59E
100
AcDbEntity
  8
DATA
  6
Continuous
 62
     7
100
AcDbLine
 10
174.4867499385194
 20
-639.725
 30
0.0
 11
174.4867499385194
 21
-636.2750000000001
 31
0.0
  0
LINE
  5
1DF
330
59E
100
AcDbEntity
  8
DATA
  6
Continuous
 62
     7
100
AcDbLine
 10
174.4867499385194
 20
-636.2750000000001
 30
0.0
 11
174.0193568724718
 21
-634.5500000000002
 31
0.0
  0
ARC
  5
1E0
330
59E
100
AcDbEntity
  8
DATA
  6
Continuous
 62
     7
100
AcDbCircle
 10
210.4923613703707
 20
-637.0900000000001
 30
0.0
 40
38.04823329440289
100
AcDbArc
 50
173.8290588516577
 51
181.3704744458588
  0
ARC
  5
1E1
330
59E
100
AcDbEntity
  8
DATA
  6
Continuous
 62
     7
100
AcDbCircle
 10
193.6730085931566
 20
-634.4115273411105
 30
0.0
 40
21.05578015497508
100
AcDbArc
 50
166.0618938608274
 51
176.1561501407004
  0
ARC
  5
1E2
330
59E
100
AcDbEntity
  8
DATA
  6
Continuous
 62
     7
100
AcDbCircle
 10
174.678220424575
 20
-628.9785790289617
 30
0.0
 40
1.246817833021938
100
AcDbArc
 50
135.5854430472014
 51
157.6768366298894
  0
ARC
  5
1E3
330
59E
100
AcDbEntity
  8
DATA
  6
Continuous
 62
     7
100
AcDbCircle
 10
178.0083820696911
 20
-630.5169971374769
 30
0.0
 40
4.914290161940642
100
AcDbArc
 50
155.8317421631637
 51
166.1396215805186
  0
ARC
  5
1E4
330
59E
100
AcDbEntity
  8
DATA
  6
Continuous
 62
     7
100
AcDbCircle
 10
174.0382421967326
 20
-628.3475868800467
 30
0.0
 40
0.3480995470451666
100
AcDbArc
 50
93.10997499648292
 51
136.0510917024108
  0
ARC
  5
1E5
330
59E
100
AcDbEntity
  8
DATA
  6
Continuous
 62
     7
100
AcDbCircle
 10
137.5463523745729
 20
-637.0900000000001
 30
0.0
 40
38.04823329440291
100
AcDbArc
 50
358.6295255541411
 51
6.170941148342251
  0
ARC
  5
1E6
330
59E
100
AcDbEntity
  8
DATA
  6
Continuous
 62
     7
100
AcDbCircle
 10
154.365705151787
 20
-634.4115273411105
 30
0.0
 40
21.05578015497504
100
AcDbArc
 50
3.843849859299602
 51
13.93810613917257
  0
ARC
  5
1E7
330
59E
100
AcDbEntity
  8
DATA
  6
Continuous
 62
     7
100
AcDbCircle
 10
173.3604933203685
 20
-628.9785790289617
 30
0.0
 40
1.246817833021883
100
AcDbArc
 50
22.32316337011055
 51
44.41455695279858
  0
ARC
  5
1E8
330
59E
100
AcDbEntity
  8
DATA
  6
Continuous
 62
     7
100
AcDbCircle
 10
170.0303316752524
 20
-630.5169971374769
 30
0.0
 40
4.914290161940594
100
AcDbArc
 50
13.8603784194814
 51
24.16825783683624
  0
ARC
  5
1E9
330
59E
100
AcDbEntity
  8
DATA
  6
Continuous
 62
     7
100
AcDbCircle
 10
174.000471548211
 20
-628.3475868800467
 30
0.0
 40
0.3480995470451865
100
AcDbArc
 50
43.94890829758915
 51
86.89002500351701
  0
ARC
  5
1EA
330
59E
100
AcDbEntity
  8
DATA
  6
Continuous
 62
     7
100
AcDbCircle
 10
210.4923613703707
 20
-638.9100000000001
 30
0.0
 40
38.04823329440291
100
AcDbArc
 50
178.6295255541412
 51
186.1709411483422
  0
ARC
  5
1EB
330
59E
100
AcDbEntity
  8
DATA
  6
Continuous
 62
     7
100
AcDbCircle
 10
193.6730085931566
 20
-641.5884726588895
 30
0.0
 40
21.05578015497504
100
AcDbArc
 50
183.8438498592995
 51
193.9381061391726
  0
ARC
  5
1EC
330
59E
100
AcDbEntity
  8
DATA
  6
Continuous
 62
     7
100
AcDbCircle
 10
174.678220424575
 20
-647.0214209710383
 30
0.0
 40
1.246817833021883
100
AcDbArc
 50
202.3231633701106
 51
224.4145569527985
  0
ARC
  5
1ED
330
59E
100
AcDbEntity
  8
DATA
  6
Continuous
 62
     7
100
AcDbCircle
 10
178.0083820696911
 20
-645.4830028625233
 30
0.0
 40
4.914290161940594
100
AcDbArc
 50
193.8603784194814
 51
204.1682578368362
  0
ARC
  5
1EE
330
59E
100
AcDbEntity
  8
DATA
  6
Continuous
 62
     7
100
AcDbCircle
 10
174.0382421967326
 20
-647.6524131199534
 30
0.0
 40
0.3480995470451865
100
AcDbArc
 50
223.9489082975892
 51
266.8900250035171
  0
ARC
  5
1EF
330
59E
100
AcDbEntity
  8
DATA
  6
Continuous
 62
     7
100
AcDbCircle
 10
154.365705151787
 20
-641.5884726588895
 30
0.0
 40
21.05578015497508
100
AcDbArc
 50
346.0618938608274
 51
356.1561501407004
  0
ARC
  5
1F0
330
59E
100
AcDbEntity
  8
DATA
  6
Continuous
 62
     7
100
AcDbCircle
 10
173.3604933203685
 20
-647.0214209710383
 30
0.0
 40
1.246817833021938
100
AcDbArc
 50
315.5854430472014
 51
337.6768366298894
  0
ARC
  5
1F1
330
59E
100
AcDbEntity
  8
DATA
  6
Continuous
 62
     7
100
AcDbCircle
 10
170.0303316752524
 20
-645.4830028625233
 30
0.0
 40
4.914290161940642
100
AcDbArc
 50
335.8317421631638
 51
346.1396215805186
  0
ARC
  5
1F2
330
59E
100
AcDbEntity
  8
DATA
  6
Continuous
 62
     7
100
AcDbCircle
 10
174.000471548211
 20
-647.6524131199534
 30
0.0
 40
0.3480995470451666
100
AcDbArc
 50
273.1099749964829
 51
316.0510917024109
  0
LINE
  5
1F3
330
59E
100
AcDbEntity
  8
DATA
  6
Continuous
 62
     7
100
AcDbLine
 10
476.6706305725319
 20
-600.0
 30
0.0
 11
476.6706305725319
 21
-1200.0
 31
0.0
  0
CIRCLE
  5
1F4
330
59E
100
AcDbEntity
  8
DATA
  6
Continuous
 62
     7
100
AcDbCircle
 10
350.0
 20
-638.0
 30
0.0
 40
10.0
  0
LINE
  5
1F5
330
59E
100
AcDbEntity
  8
DATA
  6
Continuous
 62
     7
100
AcDbLine
 10
350.0
 20
-634.5499999999999
 30
0.0
 11
347.0122123569435
 21
-636.275
 31
0.0
  0
LINE
  5
1F6
330
59E
100
AcDbEntity
  8
DATA
  6
Continuous
 62
     7
100
AcDbLine
 10
347.0122123569435
 20
-636.275
 30
0.0
 11
347.0122123569435
 21
-639.7249999999997
 31
0.0
  0
LINE
  5
1F7
330
59E
100
AcDbEntity
  8
DATA
  6
Continuous
 62
     7
100
AcDbLine
 10
347.0122123569435
 20
-639.7249999999997
 30
0.0
 11
350.0
 21
-641.4500000000002
 31
0.0
  0
LINE
  5
1F8
330
59E
100
AcDbEntity
  8
DATA
  6
Continuous
 62
     7
100
AcDbLine
 10
350.0
 20
-641.4500000000002
 30
0.0
 11
352.9877876430563
 21
-639.7249999999997
 31
0.0
  0
LINE
  5
1F9
330
59E
100
AcDbEntity
  8
DATA
  6
Continuous
 62
     7
100
AcDbLine
 10
352.9877876430563
 20
-639.7249999999997
 30
0.0
 11
352.9877876430563
 21
-636.275
 31
0.0
  0
LINE
  5
1FA
330
59E
100
AcDbEntity
  8
DATA
  6
Continuous
 62
     7
100
AcDbLine
 10
352.9877876430563
 20
-636.275
 30
0.0
 11
350.0
 21
-634.5499999999999
 31
0.0
  0
ARC
  5
1FB
330
59E
100
AcDbEntity
  8
DATA
  6
Continuous
 62
     7
100
AcDbCircle
 10
137.5463523745729
 20
-1161.09
 30
0.0
 40
38.04823329440291
100
AcDbArc
 50
358.6295255541414
 51
6.170941148342365
  0
LINE
  5
1FC
330
59E
100
AcDbEntity
  8
DATA
  6
Continuous
 62
     7
100
AcDbLine
 10
174.0193568724718
 20
-1165.45
 30
0.0
 11
173.5519638064241
 21
-1163.725
 31
0.0
  0
LINE
  5
1FD
330
59E
100
AcDbEntity
  8
DATA
  6
Continuous
 62
     7
100
AcDbLine
 10
173.5519638064241
 20
-1163.725
 30
0.0
 11
173.5519638064241
 21
-1160.275
 31
0.0
  0
LINE
  5
1FE
330
59E
100
AcDbEntity
  8
DATA
  6
Continuous
 62
     7
100
AcDbLine
 10
173.5519638064241
 20
-1160.275
 30
0.0
 11
174.0193568724718
 21
-1158.55
 31
0.0
  0
LINE
  5
1FF
330
59E
100
AcDbEntity
  8
DATA
  6
Continuous
 62
     7
100
AcDbLine
 10
174.0193568724718
 20
-1158.55
 30
0.0
 11
174.4867499385194
 21
-1160.275
 31
0.0
  0
LINE
  5
200
330
59E
100
AcDbEntity
  8
DATA
  6
Continuous
 62
     7
100
AcDbLine
 10
174.4867499385194
 20
-1160.275
 30
0.0
 11
174.4867499385194
 21
-1163.725
 31
0.0
  0
LINE
  5
201
330
59E
100
AcDbEntity
  8
DATA
  6
Continuous
 62
     7
100
AcDbLine
 10
174.4867499385194
 20
-1163.725
 30
0.0
 11
174.0193568724718
 21
-1165.45
 31
0.0
  0
ARC
  5
202
330
59E
100
AcDbEntity
  8
DATA
  6
Continuous
 62
     7
100
AcDbCircle
 10
210.4923613703707
 20
-1162.91
 30
0.0
 40
38.04823329440291
100
AcDbArc
 50
178.6295255541414
 51
186.1709411483424
  0
ARC
  5
203
330
59E
100
AcDbEntity
  8
DATA
  6
Continuous
 62
     7
100
AcDbCircle
 10
193.6730085931566
 20
-1165.588472658889
 30
0.0
 40
21.05578015497504
100
AcDbArc
 50
183.8438498592995
 51
193.9381061391726
  0
ARC
  5
204
330
59E
100
AcDbEntity
  8
DATA
  6
Continuous
 62
     7
100
AcDbCircle
 10
174.678220424575
 20
-1171.021420971038
 30
0.0
 40
1.246817833021796
100
AcDbArc
 50
202.3231633701009
 51
224.4145569527948
  0
ARC
  5
205
330
59E
100
AcDbEntity
  8
DATA
  6
Continuous
 62
     7
100
AcDbCircle
 10
178.0083820696911
 20
-1169.483002862523
 30
0.0
 40
4.914290161940566
100
AcDbArc
 50
193.8603784194801
 51
204.1682578368338
  0
ARC
  5
206
330
59E
100
AcDbEntity
  8
DATA
  6
Continuous
 62
     7
100
AcDbCircle
 10
174.0382421967326
 20
-1171.652413119953
 30
0.0
 40
0.3480995470451865
100
AcDbArc
 50
223.9489082975892
 51
266.8900250035171
  0
ARC
  5
207
330
59E
100
AcDbEntity
  8
DATA
  6
Continuous
 62
     7
100
AcDbCircle
 10
137.5463523745729
 20
-1162.91
 30
0.0
 40
38.04823329440289
100
AcDbArc
 50
353.8290588516576
 51
1.370474445858633
  0
ARC
  5
208
330
59E
100
AcDbEntity
  8
DATA
  6
Continuous
 62
     7
100
AcDbCircle
 10
154.365705151787
 20
-1165.588472658889
 30
0.0
 40
21.05578015497508
100
AcDbArc
 50
346.0618938608274
 51
356.1561501407004
  0
ARC
  5
209
330
59E
100
AcDbEntity
  8
DATA
  6
Continuous
 62
     7
100
AcDbCircle
 10
173.3604933203685
 20
-1171.021420971038
 30
0.0
 40
1.246817833021858
100
AcDbArc
 50
315.5854430472052
 51
337.6768366298991
  0
ARC
  5
20A
330
59E
100
AcDbEntity
  8
DATA
  6
Continuous
 62
     7
100
AcDbCircle
 10
170.0303316752524
 20
-1169.483002862523
 30
0.0
 40
4.914290161940549
100
AcDbArc
 50
335.8317421631661
 51
346.1396215805199
  0
ARC
  5
20B
330
59E
100
AcDbEntity
  8
DATA
  6
Continuous
 62
     7
100
AcDbCircle
 10
174.000471548211
 20
-1171.652413119953
 30
0.0
 40
0.3480995470451666
100
AcDbArc
 50
273.1099749964829
 51
316.0510917024109
  0
ARC
  5
20C
330
59E
100
AcDbEntity
  8
DATA
  6
Continuous
 62
     7
100
AcDbCircle
 10
210.4923613703707
 20
-1161.09
 30
0.0
 40
38.04823329440289
100
AcDbArc
 50
173.8290588516576
 51
181.3704744458586
  0
ARC
  5
20D
330
59E
100
AcDbEntity
  8
DATA
  6
Continuous
 62
     7
100
AcDbCircle
 10
193.6730085931566
 20
-1158.41152734111
 30
0.0
 40
21.05578015497508
100
AcDbArc
 50
166.0618938608274
 51
176.1561501407004
  0
ARC
  5
20E
330
59E
100
AcDbEntity
  8
DATA
  6
Continuous
 62
     7
100
AcDbCircle
 10
174.678220424575
 20
-1152.978579028961
 30
0.0
 40
1.246817833021858
100
AcDbArc
 50
135.5854430472051
 51
157.6768366298991
  0
ARC
  5
20F
330
59E
100
AcDbEntity
  8
DATA
  6
Continuous
 62
     7
100
AcDbCircle
 10
178.0083820696911
 20
-1154.516997137477
 30
0.0
 40
4.914290161940549
100
AcDbArc
 50
155.8317421631661
 51
166.1396215805198
  0
ARC
  5
210
330
59E
100
AcDbEntity
  8
DATA
  6
Continuous
 62
     7
100
AcDbCircle
 10
174.0382421967326
 20
-1152.347586880047
 30
0.0
 40
0.3480995470451666
100
AcDbArc
 50
93.10997499648292
 51
136.0510917024108
  0
ARC
  5
211
330
59E
100
AcDbEntity
  8
DATA
  6
Continuous
 62
     7
100
AcDbCircle
 10
154.365705151787
 20
-1158.41152734111
 30
0.0
 40
21.05578015497504
100
AcDbArc
 50
3.843849859299602
 51
13.93810613917257
  0
ARC
  5
212
330
59E
100
AcDbEntity
  8
DATA
  6
Continuous
 62
     7
100
AcDbCircle
 10
173.3604933203685
 20
-1152.978579028961
 30
0.0
 40
1.246817833021796
100
AcDbArc
 50
22.32316337010088
 51
44.41455695279485
  0
ARC
  5
213
330
59E
100
AcDbEntity
  8
DATA
  6
Continuous
 62
     7
100
AcDbCircle
 10
170.0303316752524
 20
-1154.516997137477
 30
0.0
 40
4.914290161940566
100
AcDbArc
 50
13.86037841948012
 51
24.16825783683381
  0
ARC
  5
214
330
59E
100
AcDbEntity
  8
DATA
  6
Continuous
 62
     7
100
AcDbCircle
 10
174.000471548211
 20
-1152.347586880047
 30
0.0
 40
0.3480995470451865
100
AcDbArc
 50
43.94890829758915
 51
86.89002500351701
  0
ARC
  5
215
330
59E
100
AcDbEntity
  8
DATA
  6
Continuous
 62
     7
100
AcDbCircle
 10
562.453647625427
 20
-638.9100000000001
 30
0.0
 40
38.04823329440296
100
AcDbArc
 50
178.6295255541412
 51
186.1709411483422
  0
LINE
  5
216
330
59E
100
AcDbEntity
  8
DATA
  6
Continuous
 62
     7
100
AcDbLine
 10
525.980643127528
 20
-634.5500000000002
 30
0.0
 11
526.4480361935757
 21
-636.2750000000001
 31
0.0
  0
LINE
  5
217
330
59E
100
AcDbEntity
  8
DATA
  6
Continuous
 62
     7
100
AcDbLine
 10
526.4480361935757
 20
-636.2750000000001
 30
0.0
 11
526.4480361935757
 21
-639.725
 31
0.0
  0
LINE
  5
218
330
59E
100
AcDbEntity
  8
DATA
  6
Continuous
 62
     7
100
AcDbLine
 10
526.4480361935757
 20
-639.725
 30
0.0
 11
525.980643127528
 21
-641.4500000000002
 31
0.0
  0
LINE
  5
219
330
59E
100
AcDbEntity
  8
DATA
  6
Continuous
 62
     7
100
AcDbLine
 10
525.980643127528
 20
-641.4500000000002
 30
0.0
 11
525.5132500614804
 21
-639.725
 31
0.0
  0
LINE
  5
21A
330
59E
100
AcDbEntity
  8
DATA
  6
Continuous
 62
     7
100
AcDbLine
 10
525.5132500614804
 20
-639.725
 30
0.0
 11
525.5132500614804
 21
-636.2750000000001
 31
0.0
  0
LINE
  5
21B
330
59E
100
AcDbEntity
  8
DATA
  6
Continuous
 62
     7
100
AcDbLine
 10
525.5132500614804
 20
-636.2750000000001
 30
0.0
 11
525.980643127528
 21
-634.5500000000002
 31
0.0
  0
ARC
  5
21C
330
59E
100
AcDbEntity
  8
DATA
  6
Continuous
 62
     7
100
AcDbCircle
 10
489.5076386296291
 20
-637.0900000000001
 30
0.0
 40
38.04823329440296
100
AcDbArc
 50
358.6295255541411
 51
6.170941148342251
  0
ARC
  5
21D
330
59E
100
AcDbEntity
  8
DATA
  6
Continuous
 62
     7
100
AcDbCircle
 10
506.3269914068432
 20
-634.4115273411105
 30
0.0
 40
21.05578015497496
100
AcDbArc
 50
3.843849859299617
 51
13.93810613917257
  0
ARC
  5
21E
330
59E
100
AcDbEntity
  8
DATA
  6
Continuous
 62
     7
100
AcDbCircle
 10
525.3217795754249
 20
-628.9785790289617
 30
0.0
 40
1.246817833021883
100
AcDbArc
 50
22.32316337011055
 51
44.41455695280041
  0
ARC
  5
21F
330
59E
100
AcDbEntity
  8
DATA
  6
Continuous
 62
     7
100
AcDbCircle
 10
521.9916179303088
 20
-630.5169971374769
 30
0.0
 40
4.914290161940511
100
AcDbArc
 50
13.86037841948164
 51
24.16825783683638
  0
ARC
  5
220
330
59E
100
AcDbEntity
  8
DATA
  6
Continuous
 62
     7
100
AcDbCircle
 10
525.9617578032672
 20
-628.3475868800467
 30
0.0
 40
0.3480995470451865
100
AcDbArc
 50
43.94890829758915
 51
86.89002500351701
  0
ARC
  5
221
330
59E
100
AcDbEntity
  8
DATA
  6
Continuous
 62
     7
100
AcDbCircle
 10
562.453647625427
 20
-637.0900000000001
 30
0.0
 40
38.04823329440285
100
AcDbArc
 50
173.8290588516577
 51
181.3704744458588
  0
ARC
  5
222
330
59E
100
AcDbEntity
  8
DATA
  6
Continuous
 62
     7
100
AcDbCircle
 10
545.6342948482129
 20
-634.4115273411105
 30
0.0
 40
21.05578015497508
100
AcDbArc
 50
166.0618938608274
 51
176.1561501407004
  0
ARC
  5
223
330
59E
100
AcDbEntity
  8
DATA
  6
Continuous
 62
     7
100
AcDbCircle
 10
526.6395066796312
 20
-628.9785790289617
 30
0.0
 40
1.246817833021897
100
AcDbArc
 50
135.5854430471996
 51
157.6768366298894
  0
ARC
  5
224
330
59E
100
AcDbEntity
  8
DATA
  6
Continuous
 62
     7
100
AcDbCircle
 10
529.9696683247471
 20
-630.5169971374769
 30
0.0
 40
4.914290161940616
100
AcDbArc
 50
155.8317421631636
 51
166.1396215805184
  0
ARC
  5
225
330
59E
100
AcDbEntity
  8
DATA
  6
Continuous
 62
     7
100
AcDbCircle
 10
525.9995284517888
 20
-628.3475868800467
 30
0.0
 40
0.3480995470451666
100
AcDbArc
 50
93.10997499648292
 51
136.0510917024108
  0
ARC
  5
226
330
59E
100
AcDbEntity
  8
DATA
  6
Continuous
 62
     7
100
AcDbCircle
 10
489.5076386296291
 20
-638.9100000000001
 30
0.0
 40
38.04823329440285
100
AcDbArc
 50
353.8290588516577
 51
1.370474445858803
  0
ARC
  5
227
330
59E
100
AcDbEntity
  8
DATA
  6
Continuous
 62
     7
100
AcDbCircle
 10
506.3269914068432
 20
-641.5884726588895
 30
0.0
 40
21.05578015497508
100
AcDbArc
 50
346.0618938608274
 51
356.1561501407004
  0
ARC
  5
228
330
59E
100
AcDbEntity
  8
DATA
  6
Continuous
 62
     7
100
AcDbCircle
 10
525.3217795754249
 20
-647.0214209710383
 30
0.0
 40
1.246817833021897
100
AcDbArc
 50
315.5854430471996
 51
337.6768366298894
  0
ARC
  5
229
330
59E
100
AcDbEntity
  8
DATA
  6
Continuous
 62
     7
100
AcDbCircle
 10
521.9916179303088
 20
-645.4830028625233
 30
0.0
 40
4.914290161940616
100
AcDbArc
 50
335.8317421631637
 51
346.1396215805184
  0
ARC
  5
22A
330
59E
100
AcDbEntity
  8
DATA
  6
Continuous
 62
     7
100
AcDbCircle
 10
525.9617578032672
 20
-647.6524131199534
 30
0.0
 40
0.3480995470451666
100
AcDbArc
 50
273.1099749964829
 51
316.0510917024109
  0
ARC
  5
22B
330
59E
100
AcDbEntity
  8
DATA
  6
Continuous
 62
     7
100
AcDbCircle
 10
545.6342948482129
 20
-641.5884726588895
 30
0.0
 40
21.05578015497496
100
AcDbArc
 50
183.8438498592995
 51
193.9381061391726
  0
ARC
  5
22C
330
59E
100
AcDbEntity
  8
DATA
  6
Continuous
 62
     7
100
AcDbCircle
 10
526.6395066796312
 20
-647.0214209710383
 30
0.0
 40
1.246817833021883
100
AcDbArc
 50
202.3231633701106
 51
224.4145569528004
  0
ARC
  5
22D
330
59E
100
AcDbEntity
  8
DATA
  6
Continuous
 62
     7
100
AcDbCircle
 10
529.9696683247471
 20
-645.4830028625233
 30
0.0
 40
4.914290161940511
100
AcDbArc
 50
193.8603784194817
 51
204.1682578368364
  0
ARC
  5
22E
330
59E
100
AcDbEntity
  8
DATA
  6
Continuous
 62
     7
100
AcDbCircle
 10
525.9995284517888
 20
-647.6524131199534
 30
0.0
 40
0.3480995470451865
100
AcDbArc
 50
223.9489082975892
 51
266.8900250035171
  0
ARC
  5
22F
330
59E
100
AcDbEntity
  8
DATA
  6
Continuous
 62
     7
100
AcDbCircle
 10
562.453647625427
 20
-1161.09
 30
0.0
 40
38.04823329440287
100
AcDbArc
 50
173.8290588516576
 51
181.3704744458586
  0
LINE
  5
230
330
59E
100
AcDbEntity
  8
DATA
  6
Continuous
 62
     7
100
AcDbLine
 10
525.980643127528
 20
-1165.45
 30
0.0
 11
526.4480361935757
 21
-1163.725
 31
0.0
  0
LINE
  5
231
330
59E
100
AcDbEntity
  8
DATA
  6
Continuous
 62
     7
100
AcDbLine
 10
526.4480361935757
 20
-1163.725
 30
0.0
 11
526.4480361935757
 21
-1160.275
 31
0.0
  0
LINE
  5
232
330
59E
100
AcDbEntity
  8
DATA
  6
Continuous
 62
     7
100
AcDbLine
 10
526.4480361935757
 20
-1160.275
 30
0.0
 11
525.980643127528
 21
-1158.55
 31
0.0
  0
LINE
  5
233
330
59E
100
AcDbEntity
  8
DATA
  6
Continuous
 62
     7
100
AcDbLine
 10
525.980643127528
 20
-1158.55
 30
0.0
 11
525.5132500614804
 21
-1160.275
 31
0.0
  0
LINE
  5
234
330
59E
100
AcDbEntity
  8
DATA
  6
Continuous
 62
     7
100
AcDbLine
 10
525.5132500614804
 20
-1160.275
 30
0.0
 11
525.5132500614804
 21
-1163.725
 31
0.0
  0
LINE
  5
235
330
59E
100
AcDbEntity
  8
DATA
  6
Continuous
 62
     7
100
AcDbLine
 10
525.5132500614804
 20
-1163.725
 30
0.0
 11
525.980643127528
 21
-1165.45
 31
0.0
  0
ARC
  5
236
330
59E
100
AcDbEntity
  8
DATA
  6
Continuous
 62
     7
100
AcDbCircle
 10
489.5076386296291
 20
-1162.91
 30
0.0
 40
38.04823329440287
100
AcDbArc
 50
353.8290588516576
 51
1.370474445858633
  0
ARC
  5
237
330
59E
100
AcDbEntity
  8
DATA
  6
Continuous
 62
     7
100
AcDbCircle
 10
506.3269914068432
 20
-1165.588472658889
 30
0.0
 40
21.05578015497508
100
AcDbArc
 50
346.0618938608274
 51
356.1561501407004
  0
ARC
  5
238
330
59E
100
AcDbEntity
  8
DATA
  6
Continuous
 62
     7
100
AcDbCircle
 10
525.3217795754249
 20
-1171.021420971038
 30
0.0
 40
1.246817833021817
100
AcDbArc
 50
315.5854430472033
 51
337.6768366298992
  0
ARC
  5
239
330
59E
100
AcDbEntity
  8
DATA
  6
Continuous
 62
     7
100
AcDbCircle
 10
521.9916179303088
 20
-1169.483002862523
 30
0.0
 40
4.914290161940524
100
AcDbArc
 50
335.8317421631661
 51
346.1396215805196
  0
ARC
  5
23A
330
59E
100
AcDbEntity
  8
DATA
  6
Continuous
 62
     7
100
AcDbCircle
 10
525.9617578032672
 20
-1171.652413119953
 30
0.0
 40
0.3480995470451666
100
AcDbArc
 50
273.1099749964829
 51
316.0510917024109
  0
ARC
  5
23B
330
59E
100
AcDbEntity
  8
DATA
  6
Continuous
 62
     7
100
AcDbCircle
 10
562.453647625427
 20
-1162.91
 30
0.0
 40
38.04823329440296
100
AcDbArc
 50
178.6295255541414
 51
186.1709411483424
  0
ARC
  5
23C
330
59E
100
AcDbEntity
  8
DATA
  6
Continuous
 62
     7
100
AcDbCircle
 10
545.6342948482129
 20
-1165.588472658889
 30
0.0
 40
21.05578015497496
100
AcDbArc
 50
183.8438498592995
 51
193.9381061391726
  0
ARC
  5
23D
330
59E
100
AcDbEntity
  8
DATA
  6
Continuous
 62
     7
100
AcDbCircle
 10
526.6395066796312
 20
-1171.021420971038
 30
0.0
 40
1.246817833021796
100
AcDbArc
 50
202.3231633701009
 51
224.4145569527967
  0
ARC
  5
23E
330
59E
100
AcDbEntity
  8
DATA
  6
Continuous
 62
     7
100
AcDbCircle
 10
529.9696683247471
 20
-1169.483002862523
 30
0.0
 40
4.914290161940484
100
AcDbArc
 50
193.8603784194804
 51
204.168257836834
  0
ARC
  5
23F
330
59E
100
AcDbEntity
  8
DATA
  6
Continuous
 62
     7
100
AcDbCircle
 10
525.9995284517888
 20
-1171.652413119953
 30
0.0
 40
0.3480995470451865
100
AcDbArc
 50
223.9489082975892
 51
266.8900250035171
  0
ARC
  5
240
330
59E
100
AcDbEntity
  8
DATA
  6
Continuous
 62
     7
100
AcDbCircle
 10
489.5076386296291
 20
-1161.09
 30
0.0
 40
38.04823329440296
100
AcDbArc
 50
358.6295255541414
 51
6.170941148342365
  0
ARC
  5
241
330
59E
100
AcDbEntity
  8
DATA
  6
Continuous
 62
     7
100
AcDbCircle
 10
506.3269914068432
 20
-1158.41152734111
 30
0.0
 40
21.05578015497496
100
AcDbArc
 50
3.843849859299617
 51
13.93810613917257
  0
ARC
  5
242
330
59E
100
AcDbEntity
  8
DATA
  6
Continuous
 62
     7
100
AcDbCircle
 10
525.3217795754249
 20
-1152.978579028961
 30
0.0
 40
1.246817833021796
100
AcDbArc
 50
22.32316337010088
 51
44.41455695279667
  0
ARC
  5
243
330
59E
100
AcDbEntity
  8
DATA
  6
Continuous
 62
     7
100
AcDbCircle
 10
521.9916179303088
 20
-1154.516997137477
 30
0.0
 40
4.914290161940484
100
AcDbArc
 50
13.86037841948035
 51
24.16825783683396
  0
ARC
  5
244
330
59E
100
AcDbEntity
  8
DATA
  6
Continuous
 62
     7
100
AcDbCircle
 10
525.9617578032672
 20
-1152.347586880047
 30
0.0
 40
0.3480995470451865
100
AcDbArc
 50
43.94890829758915
 51
86.89002500351701
  0
ARC
  5
245
330
59E
100
AcDbEntity
  8
DATA
  6
Continuous
 62
     7
100
AcDbCircle
 10
545.6342948482129
 20
-1158.41152734111
 30
0.0
 40
21.05578015497508
100
AcDbArc
 50
166.0618938608274
 51
176.1561501407004
  0
ARC
  5
246
330
59E
100
AcDbEntity
  8
DATA
  6
Continuous
 62
     7
100
AcDbCircle
 10
526.6395066796312
 20
-1152.978579028961
 30
0.0
 40
1.246817833021817
100
AcDbArc
 50
135.5854430472033
 51
157.6768366298991
  0
ARC
  5
247
330
59E
100
AcDbEntity
  8
DATA
  6
Continuous
 62
     7
100
AcDbCircle
 10
529.9696683247471
 20
-1154.516997137477
 30
0.0
 40
4.914290161940524
100
AcDbArc
 50
155.831742163166
 51
166.1396215805196
  0
ARC
  5
248
330
59E
100
AcDbEntity
  8
DATA
  6
Continuous
 62
     7
100
AcDbCircle
 10
525.9995284517888
 20
-1152.347586880047
 30
0.0
 40
0.3480995470451666
100
AcDbArc
 50
93.10997499648292
 51
136.0510917024108
  0
CIRCLE
  5
249
330
59E
100
AcDbEntity
  8
DATA
  6
Continuous
 62
     7
100
AcDbCircle
 10
350.0
 20
-1162.0
 30
0.0
 40
10.0
  0
LINE
  5
24A
330
59E
100
AcDbEntity
  8
DATA
  6
Continuous
 62
     7
100
AcDbLine
 10
350.0
 20
-1165.45
 30
0.0
 11
347.0122123569435
 21
-1163.725
 31
0.0
  0
LINE
  5
24B
330
59E
100
AcDbEntity
  8
DATA
  6
Continuous
 62
     7
100
AcDbLine
 10
347.0122123569435
 20
-1163.725
 30
0.0
 11
347.0122123569435
 21
-1160.275
 31
0.0
  0
LINE
  5
24C
330
59E
100
AcDbEntity
  8
DATA
  6
Continuous
 62
     7
100
AcDbLine
 10
347.0122123569435
 20
-1160.275
 30
0.0
 11
350.0
 21
-1158.55
 31
0.0
  0
LINE
  5
24D
330
59E
100
AcDbEntity
  8
DATA
  6
Continuous
 62
     7
100
AcDbLine
 10
350.0
 20
-1158.55
 30
0.0
 11
352.9877876430563
 21
-1160.275
 31
0.0
  0
LINE
  5
24E
330
59E
100
AcDbEntity
  8
DATA
  6
Continuous
 62
     7
100
AcDbLine
 10
352.9877876430563
 20
-1160.275
 30
0.0
 11
352.9877876430563
 21
-1163.725
 31
0.0
  0
LINE
  5
24F
330
59E
100
AcDbEntity
  8
DATA
  6
Continuous
 62
     7
100
AcDbLine
 10
352.9877876430563
 20
-1163.725
 30
0.0
 11
350.0
 21
-1165.45
 31
0.0
  0
ARC
  5
250
330
59E
100
AcDbEntity
  8
DATA
  6
Continuous
 62
     7
100
AcDbCircle
 10
327.7749999999991
 20
-1023.429999999998
 30
0.0
 40
15.36414132905984
100
AcDbArc
 50
90.1073853577
 51
180.0
  0
ARC
  5
251
330
59E
100
AcDbEntity
  8
DATA
  6
Continuous
 62
     7
100
AcDbCircle
 10
327.7749999999991
 20
-1112.329999999998
 30
0.0
 40
15.36413849950008
100
AcDbArc
 50
180.0
 51
270.0
  0
ARC
  5
252
330
59E
100
AcDbEntity
  8
DATA
  6
Continuous
 62
     7
100
AcDbCircle
 10
372.2250000000006
 20
-1112.329999999998
 30
0.0
 40
15.36413849950031
100
AcDbArc
 50
270.0
 51
0.0
  0
ARC
  5
253
330
59E
100
AcDbEntity
  8
DATA
  6
Continuous
 62
     7
100
AcDbCircle
 10
372.2250000000006
 20
-1023.429999999998
 30
0.0
 40
15.36414132906043
100
AcDbArc
 50
0.0
 51
89.89261524240072
  0
LINE
  5
254
330
59E
100
AcDbEntity
  8
DATA
  6
Continuous
 62
     7
100
AcDbLine
 10
312.4108586709387
 20
-1023.429999999998
 30
0.0
 11
314.9994624835698
 21
-1068.457649122604
 31
0.0
  0
LINE
  5
255
330
59E
100
AcDbEntity
  8
DATA
  6
Continuous
 62
     7
100
AcDbLine
 10
312.4108615004991
 20
-1112.329999999998
 30
0.0
 11
314.9994624835698
 21
-1068.457649122604
 31
0.0
  0
LINE
  5
256
330
59E
100
AcDbEntity
  8
DATA
  6
Continuous
 62
     7
100
AcDbLine
 10
387.589141329061
 20
-1023.429999999998
 30
0.0
 11
385.0005375164298
 21
-1068.457649122604
 31
0.0
  0
LINE
  5
257
330
59E
100
AcDbEntity
  8
DATA
  6
Continuous
 62
     7
100
AcDbLine
 10
387.5891384995007
 20
-1112.329999999998
 30
0.0
 11
385.0005375164298
 21
-1068.457649122604
 31
0.0
  0
LINE
  5
258
330
59E
100
AcDbEntity
  8
DATA
  6
Continuous
 62
     7
100
AcDbLine
 10
311.8999999999989
 20
-1139.0
 30
0.0
 11
388.1000000000009
 21
-1139.0
 31
0.0
  0
LINE
  5
259
330
59E
100
AcDbEntity
  8
DATA
  6
Continuous
 62
     7
100
AcDbLine
 10
372.2250000000006
 20
-1127.694141329059
 30
0.0
 11
327.7749999999991
 21
-1127.694141329059
 31
0.0
  0
LINE
  5
25A
330
59E
100
AcDbEntity
  8
DATA
  6
Continuous
 62
     7
100
AcDbLine
 10
339.3091399999989
 20
-1094.910040313463
 30
0.0
 11
347.7139999999991
 21
-1094.910040313463
 31
0.0
  0
LINE
  5
25B
330
59E
100
AcDbEntity
  8
DATA
  6
Continuous
 62
     7
100
AcDbLine
 10
352.2859999999989
 20
-1094.910040313463
 30
0.0
 11
360.6908599999991
 21
-1094.910040313463
 31
0.0
  0
LINE
  5
25C
330
59E
100
AcDbEntity
  8
DATA
  6
Continuous
 62
     7
100
AcDbLine
 10
360.6908599999991
 20
-1086.258800313463
 30
0.0
 11
352.2859999999989
 21
-1086.258800313463
 31
0.0
  0
LINE
  5
25D
330
59E
100
AcDbEntity
  8
DATA
  6
Continuous
 62
     7
100
AcDbLine
 10
347.7139999999991
 20
-1086.258800313463
 30
0.0
 11
339.3091399999989
 21
-1086.258800313463
 31
0.0
  0
LINE
  5
25E
330
59E
100
AcDbEntity
  8
DATA
  6
Continuous
 62
     7
100
AcDbLine
 10
301.1049999999987
 20
-1007.554999999998
 30
0.0
 11
301.1049999999987
 21
-1128.204999999998
 31
0.0
  0
LINE
  5
25F
330
59E
100
AcDbEntity
  8
DATA
  6
Continuous
 62
     7
100
AcDbLine
 10
332.2199999999988
 20
-1022.228622301158
 30
0.0
 11
332.2199999999988
 21
-1023.546581006358
 31
0.0
  0
LINE
  5
260
330
59E
100
AcDbEntity
  8
DATA
  6
Continuous
 62
     7
100
AcDbLine
 10
333.3629999999993
 20
-1040.845549588438
 30
0.0
 11
333.3629999999993
 21
-1042.129497950178
 31
0.0
  0
LINE
  5
261
330
59E
100
AcDbEntity
  8
DATA
  6
Continuous
 62
     7
100
AcDbLine
 10
388.1000000000009
 20
-996.7599999999983
 30
0.0
 11
311.8999999999989
 21
-996.7599999999983
 31
0.0
  0
LINE
  5
262
330
59E
100
AcDbEntity
  8
DATA
  6
Continuous
 62
     7
100
AcDbLine
 10
335.214796961879
 20
-1081.123057275343
 30
0.0
 11
335.214796961879
 21
-1100.025463351584
 31
0.0
  0
LINE
  5
263
330
59E
100
AcDbEntity
  8
DATA
  6
Continuous
 62
     7
100
AcDbLine
 10
336.1569999999987
 20
-1042.129497950178
 30
0.0
 11
336.1569999999987
 21
-1040.845549588438
 31
0.0
  0
LINE
  5
264
330
59E
100
AcDbEntity
  8
DATA
  6
Continuous
 62
     7
100
AcDbLine
 10
337.2999999999992
 20
-1023.546581006358
 30
0.0
 11
337.2999999999992
 21
-1022.228622301158
 31
0.0
  0
LINE
  5
265
330
59E
100
AcDbEntity
  8
DATA
  6
Continuous
 62
     7
100
AcDbLine
 10
339.3091399999989
 20
-1086.258800313463
 30
0.0
 11
339.3091399999989
 21
-1094.910040313463
 31
0.0
  0
LINE
  5
266
330
59E
100
AcDbEntity
  8
DATA
  6
Continuous
 62
     7
100
AcDbLine
 10
347.7139999999991
 20
-1094.910040313463
 30
0.0
 11
347.7139999999991
 21
-1086.258800313463
 31
0.0
  0
LINE
  5
267
330
59E
100
AcDbEntity
  8
DATA
  6
Continuous
 62
     7
100
AcDbLine
 10
352.2859999999989
 20
-1086.258800313463
 30
0.0
 11
352.2859999999989
 21
-1094.910040313463
 31
0.0
  0
LINE
  5
268
330
59E
100
AcDbEntity
  8
DATA
  6
Continuous
 62
     7
100
AcDbLine
 10
360.6908599999991
 20
-1094.910040313463
 30
0.0
 11
360.6908599999991
 21
-1086.258800313463
 31
0.0
  0
LINE
  5
269
330
59E
100
AcDbEntity
  8
DATA
  6
Continuous
 62
     7
100
AcDbLine
 10
362.6999999999998
 20
-1022.228622301158
 30
0.0
 11
362.6999999999998
 21
-1023.546581006358
 31
0.0
  0
LINE
  5
26A
330
59E
100
AcDbEntity
  8
DATA
  6
Continuous
 62
     7
100
AcDbLine
 10
363.843
 20
-1040.845549588438
 30
0.0
 11
363.843
 21
-1042.129497950178
 31
0.0
  0
LINE
  5
26B
330
59E
100
AcDbEntity
  8
DATA
  6
Continuous
 62
     7
100
AcDbLine
 10
364.7852030381202
 20
-1100.025463351584
 30
0.0
 11
364.7852030381202
 21
-1081.123057275343
 31
0.0
  0
LINE
  5
26C
330
59E
100
AcDbEntity
  8
DATA
  6
Continuous
 62
     7
100
AcDbLine
 10
366.6369999999994
 20
-1042.129497950178
 30
0.0
 11
366.6369999999994
 21
-1040.845549588438
 31
0.0
  0
LINE
  5
26D
330
59E
100
AcDbEntity
  8
DATA
  6
Continuous
 62
     7
100
AcDbLine
 10
367.7799999999999
 20
-1023.546581006358
 30
0.0
 11
367.7799999999999
 21
-1022.228622301158
 31
0.0
  0
LINE
  5
26E
330
59E
100
AcDbEntity
  8
DATA
  6
Continuous
 62
     7
100
AcDbLine
 10
398.8950000000002
 20
-1128.204999999998
 30
0.0
 11
398.8950000000002
 21
-1007.554999999998
 31
0.0
  0
CIRCLE
  5
26F
330
59E
100
AcDbEntity
  8
DATA
  6
Continuous
 62
     7
100
AcDbCircle
 10
343.5115699999994
 20
-1090.574260313463
 30
0.0
 40
2.793999999999869
  0
ARC
  5
270
330
59E
100
AcDbEntity
  8
DATA
  6
Continuous
 62
     7
100
AcDbCircle
 10
365.24
 20
-1032.065999999998
 30
0.0
 40
8.889999999999973
100
AcDbArc
 50
106.6015495990032
 51
260.9589038514014
  0
ARC
  5
271
330
59E
100
AcDbEntity
  8
DATA
  6
Continuous
 62
     7
100
AcDbCircle
 10
365.24
 20
-1032.065999999998
 30
0.0
 40
8.889999999999837
100
AcDbArc
 50
279.0410961485986
 51
73.3984504009982
  0
ARC
  5
272
330
59E
100
AcDbEntity
  8
DATA
  6
Continuous
 62
     7
100
AcDbCircle
 10
365.24
 20
-1032.065999999998
 30
0.0
 40
10.16000000000026
100
AcDbArc
 50
262.0967922665005
 51
277.9032077334996
  0
ARC
  5
273
330
59E
100
AcDbEntity
  8
DATA
  6
Continuous
 62
     7
100
AcDbCircle
 10
365.24
 20
-1032.065999999998
 30
0.0
 40
10.15999999999992
100
AcDbArc
 50
75.52248781409933
 51
104.4775121859019
  0
CIRCLE
  5
274
330
59E
100
AcDbEntity
  8
DATA
  6
Continuous
 62
     7
100
AcDbCircle
 10
365.24
 20
-1032.065999999998
 30
0.0
 40
6.096000000000003
  0
CIRCLE
  5
275
330
59E
100
AcDbEntity
  8
DATA
  6
Continuous
 62
     7
100
AcDbCircle
 10
365.24
 20
-1032.065999999998
 30
0.0
 40
3.302000000000134
  0
ARC
  5
276
330
59E
100
AcDbEntity
  8
DATA
  6
Continuous
 62
     7
100
AcDbCircle
 10
334.7599999999988
 20
-1032.065999999998
 30
0.0
 40
8.889999999999909
100
AcDbArc
 50
106.6015495990018
 51
260.9589038514013
  0
ARC
  5
277
330
59E
100
AcDbEntity
  8
DATA
  6
Continuous
 62
     7
100
AcDbCircle
 10
334.7599999999988
 20
-1032.065999999998
 30
0.0
 40
8.889999999999837
100
AcDbArc
 50
279.0410961485986
 51
73.3984504009982
  0
ARC
  5
278
330
59E
100
AcDbEntity
  8
DATA
  6
Continuous
 62
     7
100
AcDbCircle
 10
334.7599999999988
 20
-1032.065999999998
 30
0.0
 40
10.16000000000026
100
AcDbArc
 50
262.0967922665005
 51
277.9032077334996
  0
ARC
  5
279
330
59E
100
AcDbEntity
  8
DATA
  6
Continuous
 62
     7
100
AcDbCircle
 10
334.7599999999988
 20
-1032.065999999998
 30
0.0
 40
10.15999999999992
100
AcDbArc
 50
75.52248781409933
 51
104.4775121859007
  0
CIRCLE
  5
27A
330
59E
100
AcDbEntity
  8
DATA
  6
Continuous
 62
     7
100
AcDbCircle
 10
334.7599999999988
 20
-1032.065999999998
 30
0.0
 40
6.096000000000003
  0
CIRCLE
  5
27B
330
59E
100
AcDbEntity
  8
DATA
  6
Continuous
 62
     7
100
AcDbCircle
 10
334.7599999999988
 20
-1032.065999999998
 30
0.0
 40
3.302000000000134
  0
CIRCLE
  5
27C
330
59E
100
AcDbEntity
  8
DATA
  6
Continuous
 62
     7
100
AcDbCircle
 10
311.2649999999987
 20
-1006.919999999998
 30
0.0
 40
3.682999999999992
  0
ARC
  5
27D
330
59E
100
AcDbEntity
  8
DATA
  6
Continuous
 62
     7
100
AcDbCircle
 10
365.24
 20
-1032.065999999998
 30
0.0
 40
12.0192329947602
100
AcDbArc
 50
311.6710695931018
 51
123.780934445102
  0
ARC
  5
27E
330
59E
100
AcDbEntity
  8
DATA
  6
Continuous
 62
     7
100
AcDbCircle
 10
355.7403999999989
 20
-1020.120379999998
 30
0.0
 40
3.429000000000149
100
AcDbArc
 50
325.2280175225036
 51
291.7580260589017
  0
ARC
  5
27F
330
59E
100
AcDbEntity
  8
DATA
  6
Continuous
 62
     7
100
AcDbCircle
 10
365.24
 20
-1032.065999999998
 30
0.0
 40
12.01923299476046
100
AcDbArc
 50
133.2051091363027
 51
304.7956780786999
  0
ARC
  5
280
330
59E
100
AcDbEntity
  8
DATA
  6
Continuous
 62
     7
100
AcDbCircle
 10
374.7396000000002
 20
-1044.123379999998
 30
0.0
 40
3.429000000000104
100
AcDbArc
 50
140.3663339330041
 51
116.1004137387021
  0
ARC
  5
281
330
59E
100
AcDbEntity
  8
DATA
  6
Continuous
 62
     7
100
AcDbCircle
 10
334.7599999999988
 20
-1032.065999999998
 30
0.0
 40
12.01923299475984
100
AcDbArc
 50
133.2051091362996
 51
304.7956780786999
  0
ARC
  5
282
330
59E
100
AcDbEntity
  8
DATA
  6
Continuous
 62
     7
100
AcDbCircle
 10
344.2595999999996
 20
-1044.123379999998
 30
0.0
 40
3.429000000000104
100
AcDbArc
 50
140.3663339330041
 51
116.1004137387021
  0
ARC
  5
283
330
59E
100
AcDbEntity
  8
DATA
  6
Continuous
 62
     7
100
AcDbCircle
 10
334.7599999999988
 20
-1032.065999999998
 30
0.0
 40
12.0192329947602
100
AcDbArc
 50
311.6710695931018
 51
123.7809344450993
  0
ARC
  5
284
330
59E
100
AcDbEntity
  8
DATA
  6
Continuous
 62
     7
100
AcDbCircle
 10
325.2603999999985
 20
-1020.120379999998
 30
0.0
 40
3.429000000000149
100
AcDbArc
 50
325.2280175225036
 51
291.7580260589052
  0
ARC
  5
285
330
59E
100
AcDbEntity
  8
DATA
  6
Continuous
 62
     7
100
AcDbCircle
 10
311.8999999999989
 20
-1007.554999999998
 30
0.0
 40
10.79500000000007
100
AcDbArc
 50
90.0
 51
180.0
  0
ARC
  5
286
330
59E
100
AcDbEntity
  8
DATA
  6
Continuous
 62
     7
100
AcDbCircle
 10
311.8999999999989
 20
-1128.204999999998
 30
0.0
 40
10.7950000000003
100
AcDbArc
 50
180.0
 51
270.0
  0
ARC
  5
287
330
59E
100
AcDbEntity
  8
DATA
  6
Continuous
 62
     7
100
AcDbCircle
 10
388.1000000000009
 20
-1128.204999999998
 30
0.0
 40
10.79500000000143
100
AcDbArc
 50
270.0
 51
0.0
  0
ARC
  5
288
330
59E
100
AcDbEntity
  8
DATA
  6
Continuous
 62
     7
100
AcDbCircle
 10
388.1000000000009
 20
-1007.554999999998
 30
0.0
 40
10.79500000000007
100
AcDbArc
 50
0.0
 51
90.0
  0
LWPOLYLINE
  5
289
330
59E
100
AcDbEntity
  8
DATA
  6
Continuous
 62
     7
100
AcDbPolyline
 90
      143
 70
   128
 43
0.0
 10
372.0987948422
 20
-1041.936101067478
 10
372.1007242521901
 20
-1041.934753167041
 10
372.1026588122944
 20
-1041.933401038116
 10
372.104598522513
 20
-1041.932044680703
 10
372.1065433828457
 20
-1041.930684094801
 10
372.1084933932929
 20
-1041.929319280411
 10
372.1104485538542
 20
-1041.927950237533
 10
372.1124088645296
 20
-1041.926576966166
 10
372.1143743253192
 20
-1041.925199466311
 10
372.1163449362233
 20
-1041.923817737967
 10
372.1183206972416
 20
-1041.922431781136
 10
372.120301608374
 20
-1041.921041595815
 10
372.1222876696206
 20
-1041.919647182007
 10
372.1242788809816
 20
-1041.91824853971
 10
372.1262752424566
 20
-1041.916845668926
 10
372.1282767540461
 20
-1041.915438569652
 10
372.1302834157496
 20
-1041.91402724189
 10
372.1322952275676
 20
-1041.912611685641
 10
372.1343121894997
 20
-1041.911191900902
 10
372.136334301546
 20
-1041.909767887676
 10
372.1383615637066
 20
-1041.908339645961
 10
372.1403939759814
 20
-1041.906907175758
 10
372.1424315383704
 20
-1041.905470477066
 10
372.1444742508737
 20
-1041.904029549886
 10
372.1465221134912
 20
-1041.902584394218
 10
372.1485751262229
 20
-1041.901135010062
 10
372.1506332890689
 20
-1041.899681397417
 10
372.1526966020291
 20
-1041.898223556284
 10
372.1547650651036
 20
-1041.896761486662
 10
372.1568386782922
 20
-1041.895295188552
 10
372.1589174415952
 20
-1041.893824661954
 10
372.1610013550123
 20
-1041.892349906868
 10
372.1630904185437
 20
-1041.890870923293
 10
372.1651846321894
 20
-1041.88938771123
 10
372.1672839959492
 20
-1041.887900270679
 10
372.1693885098233
 20
-1041.886408601639
 10
372.1714981738117
 20
-1041.884912704111
 10
372.1736129879143
 20
-1041.883412578095
 10
372.1757329521311
 20
-1041.88190822359
 10
372.1778580664621
 20
-1041.880399640597
 10
372.1799883309074
 20
-1041.878886829116
 10
372.1821237454669
 20
-1041.877369789146
 10
372.1842643101406
 20
-1041.875848520688
 10
372.1864100249286
 20
-1041.874323023742
 10
372.1885608898308
 20
-1041.872793298308
 10
372.1907169048472
 20
-1041.871259344385
 10
372.192878069978
 20
-1041.869721161974
 10
372.1950443852228
 20
-1041.868178751074
 10
372.197215850582
 20
-1041.866632111686
 10
372.1993924660554
 20
-1041.86508124381
 10
372.2015742316431
 20
-1041.863526147446
 10
372.2037611473449
 20
-1041.861966822593
 10
372.2059532131609
 20
-1041.860403269251
 10
372.2081504290914
 20
-1041.858835487422
 10
372.210352795136
 20
-1041.857263477104
 10
372.2125603112948
 20
-1041.855687238298
 10
372.2147729775678
 20
-1041.854106771004
 10
372.2169907939552
 20
-1041.852522075221
 10
372.2192137604566
 20
-1041.85093315095
 10
372.2214418770724
 20
-1041.849339998191
 10
372.2236751438023
 20
-1041.847742616943
 10
372.2259135606466
 20
-1041.846141007207
 10
372.2281571276051
 20
-1041.844535168983
 10
372.2304058446777
 20
-1041.84292510227
 10
372.2326597118646
 20
-1041.841310807069
 10
372.2326597118646
 20
-1041.841310807069
 10
372.2326597118646
 20
-1041.841310807069
 42
0.0041262420453342
 10
372.3762085032719
 20
-1041.736675948295
 10
372.4005823725512
 20
-1041.718599584755
 10
372.408975683092
 20
-1041.712374863891
 42
0.0054018123278644
 10
372.5822025033008
 20
-1041.580980533332
 10
372.5847918006946
 20
-1041.578971180595
 10
372.5873717754788
 20
-1041.576968446043
 10
372.5899424276533
 20
-1041.574972329674
 10
372.5925037572183
 20
-1041.57298283149
 10
372.5950557641736
 20
-1041.570999951491
 10
372.5975984485192
 20
-1041.569023689675
 10
372.600131810255
 20
-1041.567054046044
 10
372.6026558493812
 20
-1041.565091020598
 10
372.6051705658978
 20
-1041.563134613335
 10
372.6076759598047
 20
-1041.561184824257
 10
372.6101720311019
 20
-1041.559241653364
 10
372.6126587797895
 20
-1041.557305100655
 10
372.6151362058673
 20
-1041.55537516613
 10
372.6176043093356
 20
-1041.553451849789
 10
372.6200630901941
 20
-1041.551535151633
 10
372.6225125484429
 20
-1041.549625071662
 10
372.6249526840822
 20
-1041.547721609874
 10
372.6273834971117
 20
-1041.545824766271
 10
372.6298049875317
 20
-1041.543934540852
 10
372.6322171553418
 20
-1041.542050933617
 10
372.6346200005424
 20
-1041.540173944568
 10
372.6370135231332
 20
-1041.538303573702
 10
372.6393977231146
 20
-1041.53643982102
 10
372.6417726004861
 20
-1041.534582686523
 10
372.644138155248
 20
-1041.53273217021
 10
372.6464943874002
 20
-1041.530888272082
 10
372.6488412969426
 20
-1041.529050992138
 10
372.6511788838757
 20
-1041.527220330378
 10
372.6535071481988
 20
-1041.525396286803
 10
372.6558260899123
 20
-1041.523578861412
 10
372.6581357090163
 20
-1041.521768054205
 10
372.6604360055105
 20
-1041.519963865183
 10
372.6627269793951
 20
-1041.518166294345
 10
372.6650086306699
 20
-1041.516375341691
 10
372.6672809593351
 20
-1041.514591007222
 10
372.6695439653906
 20
-1041.512813290937
 10
372.6717976488366
 20
-1041.511042192836
 10
372.6740420096728
 20
-1041.50927771292
 10
372.6762770478994
 20
-1041.507519851188
 10
372.6785027635162
 20
-1041.50576860764
 10
372.6807191565234
 20
-1041.504023982277
 10
372.6829262269209
 20
-1041.502285975099
 10
372.6851239747089
 20
-1041.500554586104
 10
372.6873123998871
 20
-1041.498829815294
 10
372.6894915024557
 20
-1041.497111662668
 10
372.6916612824145
 20
-1041.495400128226
 10
372.6938217397637
 20
-1041.493695211969
 10
372.6959728745032
 20
-1041.491996913896
 10
372.6981146866332
 20
-1041.490305234008
 10
372.7002471761533
 20
-1041.488620172303
 10
372.702370343064
 20
-1041.486941728783
 10
372.7044841873648
 20
-1041.485269903448
 10
372.706588709056
 20
-1041.483604696297
 10
372.7086839081375
 20
-1041.48194610733
 10
372.7107697846094
 20
-1041.480294136548
 10
372.7128463384716
 20
-1041.478648783949
 10
372.7149135697241
 20
-1041.477010049536
 10
372.7169714783669
 20
-1041.475377933306
 10
372.7190200644002
 20
-1041.473752435261
 10
372.7210593278237
 20
-1041.4721335554
 10
372.7230892686376
 20
-1041.470521293724
 10
372.7251098868417
 20
-1041.468915650232
 10
372.7271211824362
 20
-1041.467316624924
 10
372.7271211824362
 20
-1041.467316624924
 10
372.7271211824362
 20
-1041.467316624924
 42
0.0035313977585537
 10
372.8548181039991
 20
-1041.364288878635
 10
372.8865003094472
 20
-1041.338355664792
 10
372.88745194312
 20
-1041.337576712722
 42
0.0062997984339647
 10
373.0739093168235
 20
-1041.180989153417
 10
373.101034021797
 20
-1041.157620680746
 42
0.003442919829274
 10
373.2304902285223
 20
-1041.044529260543
 10
373.2310263496406
 20
-1041.044054334939
  0
LWPOLYLINE
  5
31A
330
59E
100
AcDbEntity
  8
DATA
  6
Continuous
 62
     7
100
AcDbPolyline
 90
       82
 70
   128
 43
0.0
 10
358.5570772596993
 20
-1022.075979708298
 10
358.5526656556753
 20
-1022.07895162966
 42
0.0062071734437202
 10
358.3054544183773
 20
-1022.249987483474
 10
358.2862262827273
 20
-1022.263646721462
 42
0.0058310789908062
 10
358.0813344704722
 20
-1022.412822745538
 10
358.0813344704722
 20
-1022.412822745538
 42
0.0042988931640139
 10
357.8795005048389
 20
-1022.566123688933
 10
357.8764933530349
 20
-1022.568448779906
 10
357.8764933530349
 20
-1022.568448779906
 42
0.0061226179888411
 10
357.6719493016905
 20
-1022.730640046702
 10
357.6644714763127
 20
-1022.736720126862
 10
357.643874526068
 20
-1022.753467122439
 42
0.0050685423694448
 10
357.4690261499906
 20
-1022.898601840806
 10
357.4673458535612
 20
-1022.900025602528
 42
0.0040110176323226
 10
357.2984958879758
 20
-1023.045439837959
 10
357.2917278568898
 20
-1023.051363712828
 42
0.0049074611009418
 10
357.1389194827964
 20
-1023.187784579123
 10
357.1366373760085
 20
-1023.189863468308
 10
357.134363946095
 20
-1023.191935071591
 10
357.1320991930555
 20
-1023.193999388969
 10
357.1298431168902
 20
-1023.196056420445
 10
357.127595717599
 20
-1023.198106166018
 10
357.125356995182
 20
-1023.200148625687
 10
357.1231269496394
 20
-1023.202183799453
 10
357.1209055809708
 20
-1023.204211687317
 10
357.1186928891764
 20
-1023.206232289277
 10
357.116488874256
 20
-1023.208245605334
 10
357.11429353621
 20
-1023.210251635487
 10
357.1121068750381
 20
-1023.212250379738
 10
357.1099288907403
 20
-1023.214241838086
 10
357.1077595833167
 20
-1023.21622601053
 10
357.1055989527673
 20
-1023.218202897071
 10
357.103446999092
 20
-1023.22017249771
 10
357.1013037222911
 20
-1023.222134812445
 10
357.0991691223642
 20
-1023.224089841276
 10
357.0970431993114
 20
-1023.226037584205
 10
357.0949259531328
 20
-1023.227978041231
 10
357.0928173838284
 20
-1023.229911212353
 10
357.0907174913982
 20
-1023.231837097573
 10
357.0886262758423
 20
-1023.233755696889
 10
357.0865437371604
 20
-1023.235667010302
 10
357.0844698753527
 20
-1023.237571037812
 10
357.0824046904192
 20
-1023.239467779419
 10
357.0803481823598
 20
-1023.241357235122
 10
357.0783003511747
 20
-1023.243239404923
 10
357.0762611968637
 20
-1023.245114288821
 10
357.0742307194268
 20
-1023.246981886815
 10
357.0722089188641
 20
-1023.248842198906
 10
357.0701957951756
 20
-1023.250695225094
 10
357.0681913483613
 20
-1023.252540965379
 10
357.0661955784211
 20
-1023.254379419761
 10
357.0642084853552
 20
-1023.256210588239
 10
357.0622300691633
 20
-1023.258034470815
 10
357.0602603298457
 20
-1023.259851067487
 10
357.0582992674023
 20
-1023.261660378256
 10
357.0563468818329
 20
-1023.263462403122
 10
357.0544031731379
 20
-1023.265257142085
 10
357.0524681413169
 20
-1023.267044595145
 10
357.0505417863702
 20
-1023.268824762302
 10
357.0486241082976
 20
-1023.270597643556
 10
357.0467151070991
 20
-1023.272363238906
 10
357.0448147827748
 20
-1023.274121548353
 10
357.0429231353248
 20
-1023.275872571898
 10
357.0410401647488
 20
-1023.277616309538
 10
357.0391658710469
 20
-1023.279352761277
 10
357.0373002542194
 20
-1023.281081927112
 10
357.035443314266
 20
-1023.282803807043
 10
357.0335950511868
 20
-1023.284518401071
 10
357.0317554649818
 20
-1023.286225709197
 10
357.0299245556508
 20
-1023.287925731419
 10
357.028102323194
 20
-1023.289618467738
 10
357.0262887676114
 20
-1023.291303918155
 10
357.024483888903
 20
-1023.292982082667
 10
357.0226876870689
 20
-1023.294652961277
 10
357.0209001621088
 20
-1023.296316553983
 10
357.0191213140229
 20
-1023.297972860787
 10
357.0173511428113
 20
-1023.299621881687
 10
357.0155896484737
 20
-1023.301263616684
 10
357.0138368310103
 20
-1023.302898065779
 10
357.0120926904213
 20
-1023.30452522897
 10
357.0120926904213
 20
-1023.30452522897
 10
357.0114875822789
 20
-1023.305089932318
  0
LWPOLYLINE
  5
36E
330
59E
100
AcDbEntity
  8
DATA
  6
Continuous
 62
     7
100
AcDbPolyline
 90
       12
 70
   128
 43
0.0
 10
341.6187948421988
 20
-1041.936101067478
 10
341.6806807747515
 20
-1041.892364046534
 42
0.0043763627563268
 10
341.866925961404
 20
-1041.758278217522
 42
0.0052498493535932
 10
342.0505522478391
 20
-1041.620634130473
 10
342.0835574567858
 20
-1041.595348246124
 42
0.0055378377117718
 10
342.2624561907412
 20
-1041.455119305009
 10
342.2726616278456
 20
-1041.446935736206
 42
0.0035437003443057
 10
342.4286965586907
 20
-1041.31998655165
 42
0.0044964824942752
 10
342.5826676676816
 20
-1041.190546786345
 10
342.5916919315508
 20
-1041.18282073935
 42
0.0042165604074918
 10
342.7504902264288
 20
-1041.04452926202
 10
342.7510263496389
 20
-1041.044054334939
  0
LWPOLYLINE
  5
37C
330
59E
100
AcDbEntity
  8
DATA
  6
Continuous
 62
     7
100
AcDbPolyline
 90
       17
 70
   128
 43
0.0
 10
328.0770772596989
 20
-1022.075979708298
 10
328.0712428199028
 20
-1022.079910099317
 42
0.0042842391128763
 10
327.9053803805203
 20
-1022.193722089442
 42
0.0037789127397501
 10
327.7413734479413
 20
-1022.310194847833
 10
327.726754606788
 20
-1022.32074381517
 42
0.0057092633935074
 10
327.5360002181503
 20
-1022.461732266801
 10
327.4965002217796
 20
-1022.49163048612
 42
0.0060279276412532
 10
327.2978898281689
 20
-1022.64576313241
 10
327.2787165148701
 20
-1022.661016559083
 42
0.0040073951854133
 10
327.1213311690169
 20
-1022.788298288006
 42
0.0040745575039056
 10
326.9660238203045
 20
-1022.918107086204
 10
326.9564864299178
 20
-1022.926211540592
 42
0.0050156961939471
 10
326.7846569308829
 20
-1023.075218618524
 10
326.7611748829067
 20
-1023.095998106511
 42
0.0066045342534092
 10
326.5464536214777
 20
-1023.291124284485
 10
326.5320927036455
 20
-1023.304525219834
 10
326.5314875822791
 20
-1023.305089932318
  0
LINE
  5
38F
330
59E
100
AcDbEntity
  8
DATA
  6
Continuous
 62
     7
100
AcDbLine
 10
327.7462041120565
 20
-1008.065885655977
 30
0.0
 11
372.2537958937425
 21
-1008.065885655977
 31
0.0
  0
LINE
  5
390
330
59E
100
AcDbEntity
  8
DATA
  6
Continuous
 62
     7
100
AcDbLine
 10
323.2603999999985
 20
-1020.120379999998
 30
0.0
 11
327.2603999999985
 21
-1020.120379999998
 31
0.0
  0
LINE
  5
391
330
59E
100
AcDbEntity
  8
DATA
  6
Continuous
 62
     7
100
AcDbLine
 10
325.2603999999985
 20
-1022.120379999998
 30
0.0
 11
325.2603999999985
 21
-1018.120379999998
 31
0.0
  0
LINE
  5
392
330
59E
100
AcDbEntity
  8
DATA
  6
Continuous
 62
     7
100
AcDbLine
 10
353.7403999999989
 20
-1020.120379999998
 30
0.0
 11
357.7403999999989
 21
-1020.120379999998
 31
0.0
  0
LINE
  5
393
330
59E
100
AcDbEntity
  8
DATA
  6
Continuous
 62
     7
100
AcDbLine
 10
355.7403999999989
 20
-1022.120379999998
 30
0.0
 11
355.7403999999989
 21
-1018.120379999998
 31
0.0
  0
LINE
  5
394
330
59E
100
AcDbEntity
  8
DATA
  6
Continuous
 62
     7
100
AcDbLine
 10
342.2595999999996
 20
-1044.123379999998
 30
0.0
 11
346.2595999999996
 21
-1044.123379999998
 31
0.0
  0
LINE
  5
395
330
59E
100
AcDbEntity
  8
DATA
  6
Continuous
 62
     7
100
AcDbLine
 10
344.2595999999996
 20
-1046.123379999998
 30
0.0
 11
344.2595999999996
 21
-1042.123379999998
 31
0.0
  0
LINE
  5
396
330
59E
100
AcDbEntity
  8
DATA
  6
Continuous
 62
     7
100
AcDbLine
 10
372.7396000000002
 20
-1044.123379999998
 30
0.0
 11
376.7396000000002
 21
-1044.123379999998
 31
0.0
  0
LINE
  5
397
330
59E
100
AcDbEntity
  8
DATA
  6
Continuous
 62
     7
100
AcDbLine
 10
374.7396000000002
 20
-1046.123379999998
 30
0.0
 11
374.7396000000002
 21
-1042.123379999998
 31
0.0
  0
ARC
  5
398
330
59E
100
AcDbEntity
  8
DATA
  6
Continuous
 62
     7
100
AcDbCircle
 10
327.7749999999991
 20
-1065.757087306326
 30
0.0
 40
15.36414132905984
100
AcDbArc
 50
90.1073853577
 51
150.4551144743442
  0
ARC
  5
399
330
59E
100
AcDbEntity
  8
DATA
  6
Continuous
 62
     7
100
AcDbCircle
 10
372.2250000000006
 20
-1065.757087306326
 30
0.0
 40
15.36414132906054
100
AcDbArc
 50
29.54488552287505
 51
89.89261524240069
  0
LINE
  5
39A
330
59E
100
AcDbEntity
  8
DATA
  6
Continuous
 62
     7
100
AcDbLine
 10
327.7462041120565
 20
-1050.392972962305
 30
0.0
 11
372.2537958937425
 21
-1050.392972962305
 31
0.0
  0
TEXT
  5
39B
330
59E
100
AcDbEntity
  8
DATA
 62
     7
100
AcDbText
 10
329.6973300409833
 20
-1057.459691556658
 30
0.0
 40
3.952654513888889
  1
2+/2- LOOP THRU
 41
0.7
 11
329.6973300409833
 21
-1053.50703704277
 31
0.0
100
AcDbText
 73
     3
  0
TEXT
  5
39C
330
59E
100
AcDbEntity
  8
DATA
 62
     7
100
AcDbText
 10
339.6061809340431
 20
-1078.230046090072
 30
0.0
 40
5.429470486111111
  1
+1
 41
0.7
 11
339.6061809340431
 21
-1072.800575603961
 31
0.0
100
AcDbText
 73
     3
  0
TEXT
  5
39D
330
59E
100
AcDbEntity
  8
DATA
 62
     7
100
AcDbText
 10
353.5279539102812
 20
-1078.135435156028
 30
0.0
 40
5.429470486111111
  1
-1
 41
0.7
 11
353.5279539102812
 21
-1072.705964669917
 31
0.0
100
AcDbText
 73
     3
  0
TEXT
  5
39E
330
59E
100
AcDbEntity
  8
DATA
 62
     7
100
AcDbText
 10
327.2067562768959
 20
-1065.797164041906
 30
0.0
 40
4.072102864583333
  1
PARALLEL WITH NL4 
 41
0.7
 11
327.2067562768959
 21
-1061.725061177323
 31
0.0
100
AcDbText
 73
     3
  0
LINE
  5
39F
330
59E
100
AcDbEntity
  8
DATA
  6
Continuous
 62
     7
100
AcDbLine
 10
335.214796961879
 20
-1081.123057275343
 30
0.0
 11
364.7852030381202
 21
-1081.123057275343
 31
0.0
  0
LINE
  5
3A0
330
59E
100
AcDbEntity
  8
DATA
  6
Continuous
 62
     7
100
AcDbLine
 10
364.7852030381202
 20
-1100.025463351584
 30
0.0
 11
335.214796961879
 21
-1100.025463351584
 31
0.0
  0
LINE
  5
3A1
330
59E
100
AcDbEntity
  8
DATA
  6
Continuous
 62
     7
100
AcDbLine
 10
348.4759999999994
 20
-1100.025463351584
 30
0.0
 11
348.4759999999994
 21
-1081.123057275343
 31
0.0
  0
LINE
  5
3A2
330
59E
100
AcDbEntity
  8
DATA
  6
Continuous
 62
     7
100
AcDbLine
 10
351.5239999999996
 20
-1100.025463351584
 30
0.0
 11
351.5239999999996
 21
-1081.123057275343
 31
0.0
  0
LINE
  5
3A3
330
59E
100
AcDbEntity
  8
DATA
  6
Continuous
 62
     7
100
AcDbLine
 10
338.214796961879
 20
-1081.123057275343
 30
0.0
 11
338.214796961879
 21
-1100.025463351584
 31
0.0
  0
LINE
  5
3A4
330
59E
100
AcDbEntity
  8
DATA
  6
Continuous
 62
     7
100
AcDbLine
 10
361.7852030381195
 20
-1100.025463351584
 30
0.0
 11
361.7852030381195
 21
-1081.123057275343
 31
0.0
  0
LINE
  5
3A5
330
59E
100
AcDbEntity
  8
DATA
  6
Continuous
 62
     7
100
AcDbLine
 10
328.4049999999985
 20
-1059.008600902192
 30
0.0
 11
370.4049999999995
 21
-1059.008600902192
 31
0.0
  0
LINE
  5
3A6
330
59E
100
AcDbEntity
  8
DATA
  6
Continuous
 62
     7
100
AcDbLine
 10
341.7686557328841
 20
-1090.574260313463
 30
0.0
 11
345.2544842671147
 21
-1090.574260313463
 31
0.0
  0
LINE
  5
3A7
330
59E
100
AcDbEntity
  8
DATA
  6
Continuous
 62
     7
100
AcDbLine
 10
343.5115699999994
 20
-1092.317174580578
 30
0.0
 11
343.5115699999994
 21
-1088.831346046348
 31
0.0
  0
CIRCLE
  5
3A8
330
59E
100
AcDbEntity
  8
DATA
  6
Continuous
 62
     7
100
AcDbCircle
 10
356.6984299997697
 20
-1090.574260313463
 30
0.0
 40
2.793999999999869
  0
LINE
  5
3A9
330
59E
100
AcDbEntity
  8
DATA
  6
Continuous
 62
     7
100
AcDbLine
 10
358.4413442668851
 20
-1090.574260313463
 30
0.0
 11
354.9555157326544
 21
-1090.574260313463
 31
0.0
  0
LINE
  5
3AA
330
59E
100
AcDbEntity
  8
DATA
  6
Continuous
 62
     7
100
AcDbLine
 10
356.6984299997697
 20
-1092.317174580578
 30
0.0
 11
356.6984299997697
 21
-1088.831346046348
 31
0.0
  0
LINE
  5
3AB
330
59E
100
AcDbEntity
  8
DATA
  6
Continuous
 62
     7
100
AcDbLine
 10
311.2649999999987
 20
-1008.929178936778
 30
0.0
 11
311.2649999999987
 21
-1004.910821063218
 31
0.0
  0
LINE
  5
3AC
330
59E
100
AcDbEntity
  8
DATA
  6
Continuous
 62
     7
100
AcDbLine
 10
309.2558210632189
 20
-1006.919999999998
 30
0.0
 11
313.2741789367785
 21
-1006.919999999998
 31
0.0
  0
CIRCLE
  5
3AD
330
59E
100
AcDbEntity
  8
DATA
  6
Continuous
 62
     7
100
AcDbCircle
 10
388.7350000000003
 20
-1006.919999999998
 30
0.0
 40
3.682999999999992
  0
LINE
  5
3AE
330
59E
100
AcDbEntity
  8
DATA
  6
Continuous
 62
     7
100
AcDbLine
 10
388.7350000000003
 20
-1008.929178936778
 30
0.0
 11
388.7350000000003
 21
-1004.910821063218
 31
0.0
  0
LINE
  5
3AF
330
59E
100
AcDbEntity
  8
DATA
  6
Continuous
 62
     7
100
AcDbLine
 10
386.7258210632205
 20
-1006.919999999998
 30
0.0
 11
390.7441789367801
 21
-1006.919999999998
 31
0.0
  0
CIRCLE
  5
3B0
330
59E
100
AcDbEntity
  8
DATA
  6
Continuous
 62
     7
100
AcDbCircle
 10
311.2649999999987
 20
-1128.839999999999
 30
0.0
 40
3.682999999999992
  0
LINE
  5
3B1
330
59E
100
AcDbEntity
  8
DATA
  6
Continuous
 62
     7
100
AcDbLine
 10
311.2649999999987
 20
-1130.849178936778
 30
0.0
 11
311.2649999999987
 21
-1126.830821063219
 31
0.0
  0
LINE
  5
3B2
330
59E
100
AcDbEntity
  8
DATA
  6
Continuous
 62
     7
100
AcDbLine
 10
309.2558210632189
 20
-1128.839999999999
 30
0.0
 11
313.2741789367785
 21
-1128.839999999999
 31
0.0
  0
CIRCLE
  5
3B3
330
59E
100
AcDbEntity
  8
DATA
  6
Continuous
 62
     7
100
AcDbCircle
 10
388.7350000000003
 20
-1128.839999999999
 30
0.0
 40
3.682999999999992
  0
LINE
  5
3B4
330
59E
100
AcDbEntity
  8
DATA
  6
Continuous
 62
     7
100
AcDbLine
 10
388.7350000000003
 20
-1130.849178936778
 30
0.0
 11
388.7350000000003
 21
-1126.830821063219
 31
0.0
  0
LINE
  5
3B5
330
59E
100
AcDbEntity
  8
DATA
  6
Continuous
 62
     7
100
AcDbLine
 10
386.7258210632205
 20
-1128.839999999999
 30
0.0
 11
390.7441789367801
 21
-1128.839999999999
 31
0.0
  0
CIRCLE
  5
3B6
330
59E
100
AcDbEntity
  8
DATA
  6
Continuous
 62
     7
100
AcDbCircle
 10
300.0
 20
-849.0
 30
0.0
 40
8.350000000000022
  0
LINE
  5
3B7
330
59E
100
AcDbEntity
  8
DATA
  6
Continuous
 62
     7
100
AcDbLine
 10
295.9999999999999
 20
-849.0
 30
0.0
 11
304.0
 21
-849.0
 31
0.0
  0
LINE
  5
3B8
330
59E
100
AcDbEntity
  8
DATA
  6
Continuous
 62
     7
100
AcDbLine
 10
300.0
 20
-845.0
 30
0.0
 11
300.0
 21
-853.0
 31
0.0
  0
CIRCLE
  5
3B9
330
59E
100
AcDbEntity
  8
DATA
  6
Continuous
 62
     7
100
AcDbCircle
 10
400.0
 20
-849.0
 30
0.0
 40
8.350000000000022
  0
LINE
  5
3BA
330
59E
100
AcDbEntity
  8
DATA
  6
Continuous
 62
     7
100
AcDbLine
 10
396.0
 20
-849.0
 30
0.0
 11
404.0
 21
-849.0
 31
0.0
  0
LINE
  5
3BB
330
59E
100
AcDbEntity
  8
DATA
  6
Continuous
 62
     7
100
AcDbLine
 10
400.0
 20
-845.0
 30
0.0
 11
400.0
 21
-853.0
 31
0.0
  0
CIRCLE
  5
3BC
330
59E
100
AcDbEntity
  8
DATA
  6
Continuous
 62
     7
100
AcDbCircle
 10
300.0
 20
-949.0
 30
0.0
 40
8.350000000000022
  0
LINE
  5
3BD
330
59E
100
AcDbEntity
  8
DATA
  6
Continuous
 62
     7
100
AcDbLine
 10
295.9999999999999
 20
-949.0
 30
0.0
 11
304.0
 21
-949.0
 31
0.0
  0
LINE
  5
3BE
330
59E
100
AcDbEntity
  8
DATA
  6
Continuous
 62
     7
100
AcDbLine
 10
300.0
 20
-945.0
 30
0.0
 11
300.0
 21
-953.0
 31
0.0
  0
CIRCLE
  5
3BF
330
59E
100
AcDbEntity
  8
DATA
  6
Continuous
 62
     7
100
AcDbCircle
 10
400.0
 20
-949.0
 30
0.0
 40
8.350000000000022
  0
LINE
  5
3C0
330
59E
100
AcDbEntity
  8
DATA
  6
Continuous
 62
     7
100
AcDbLine
 10
396.0
 20
-949.0
 30
0.0
 11
404.0
 21
-949.0
 31
0.0
  0
LINE
  5
3C1
330
59E
100
AcDbEntity
  8
DATA
  6
Continuous
 62
     7
100
AcDbLine
 10
400.0
 20
-945.0
 30
0.0
 11
400.0
 21
-953.0
 31
0.0
  0
ARC
  5
3C2
330
59E
100
AcDbEntity
  8
DATA
  6
Continuous
 62
     7
100
AcDbCircle
 10
-61.58840909090904
 20
-849.0
 30
0.0
 40
9.088409090909095
100
AcDbArc
 50
293.2555952303722
 51
66.7444047696278
  0
ARC
  5
3C3
330
59E
100
AcDbEntity
  8
DATA
  6
Continuous
 62
     7
100
AcDbCircle
 10
-61.58840909090904
 20
-949.0
 30
0.0
 40
9.088409090908992
100
AcDbArc
 50
293.2555952303725
 51
66.74440476962748
  0
ARC
  5
3C4
330
59E
100
AcDbEntity
  8
DATA
  6
Continuous
 62
     7
100
AcDbCircle
 10
-750.0
 20
-36.58840909090906
 30
0.0
 40
9.088409090909104
100
AcDbArc
 50
23.2555952303723
 51
156.7444047696277
  0
ARC
  5
3C5
330
59E
100
AcDbEntity
  8
DATA
  6
Continuous
 62
     7
100
AcDbCircle
 10
-650.0
 20
-36.58840909090906
 30
0.0
 40
9.088409090909104
100
AcDbArc
 50
23.2555952303723
 51
156.7444047696277
  0
LINE
  5
3C6
330
59E
100
AcDbEntity
  8
DATA
  6
STYLE_06
 62
     7
100
AcDbLine
 10
-700.0
 20
-450.0
 30
0.0
 11
-700.0
 21
0.0
 31
0.0
  0
LINE
  5
3C7
330
59E
100
AcDbEntity
  8
DATA
  6
STYLE_06
 62
     7
100
AcDbLine
 10
350.0
 20
-1225.0
 30
0.0
 11
350.0
 21
-575.0
 31
0.0
  0
ARC
  5
3C8
330
59E
100
AcDbEntity
  8
DATA
  6
Continuous
 62
     7
100
AcDbCircle
 10
888.8749999999959
 20
276.1300000000028
 30
0.0
 40
76.82070664529921
100
AcDbArc
 50
90.1073853577
 51
180.0
  0
ARC
  5
3C9
330
59E
100
AcDbEntity
  8
DATA
  6
Continuous
 62
     7
100
AcDbCircle
 10
888.8749999999959
 20
-168.3699999999953
 30
0.0
 40
76.82069249750044
100
AcDbArc
 50
180.0
 51
270.0
  0
ARC
  5
3CA
330
59E
100
AcDbEntity
  8
DATA
  6
Continuous
 62
     7
100
AcDbCircle
 10
1111.125000000003
 20
-168.3699999999953
 30
0.0
 40
76.82069249750156
100
AcDbArc
 50
270.0
 51
0.0
  0
ARC
  5
3CB
330
59E
100
AcDbEntity
  8
DATA
  6
Continuous
 62
     7
100
AcDbCircle
 10
1111.125000000003
 20
276.1300000000028
 30
0.0
 40
76.82070664530214
100
AcDbArc
 50
0.0
 51
89.89261524240072
  0
LINE
  5
3CC
330
59E
100
AcDbEntity
  8
DATA
  6
Continuous
 62
     7
100
AcDbLine
 10
812.0542933546937
 20
276.1300000000028
 30
0.0
 11
824.9973124178493
 21
50.99175438697557
 31
0.0
  0
LINE
  5
3CD
330
59E
100
AcDbEntity
  8
DATA
  6
Continuous
 62
     7
100
AcDbLine
 10
812.0543075024954
 20
-168.3699999999953
 30
0.0
 11
824.9973124178493
 21
50.99175438697557
 31
0.0
  0
LINE
  5
3CE
330
59E
100
AcDbEntity
  8
DATA
  6
Continuous
 62
     7
100
AcDbLine
 10
1187.945706645305
 20
276.1300000000028
 30
0.0
 11
1175.002687582149
 21
50.99175438697557
 31
0.0
  0
LINE
  5
3CF
330
59E
100
AcDbEntity
  8
DATA
  6
Continuous
 62
     7
100
AcDbLine
 10
1187.945692497503
 20
-168.3699999999953
 30
0.0
 11
1175.002687582149
 21
50.99175438697557
 31
0.0
  0
LINE
  5
3D0
330
59E
100
AcDbEntity
  8
DATA
  6
Continuous
 62
     7
100
AcDbLine
 10
809.4999999999947
 20
-301.7200000000048
 30
0.0
 11
1190.500000000005
 21
-301.7200000000048
 31
0.0
  0
LINE
  5
3D1
330
59E
100
AcDbEntity
  8
DATA
  6
Continuous
 62
     7
100
AcDbLine
 10
1111.125000000003
 20
-245.1907066452986
 30
0.0
 11
888.8749999999959
 21
-245.1907066452986
 31
0.0
  0
LINE
  5
3D2
330
59E
100
AcDbEntity
  8
DATA
  6
Continuous
 62
     7
100
AcDbLine
 10
946.5456999999945
 20
-81.27020156732214
 30
0.0
 11
988.5699999999962
 21
-81.27020156732214
 31
0.0
  0
LINE
  5
3D3
330
59E
100
AcDbEntity
  8
DATA
  6
Continuous
 62
     7
100
AcDbLine
 10
1011.429999999994
 20
-81.27020156732214
 30
0.0
 11
1053.454299999996
 21
-81.27020156732214
 31
0.0
  0
LINE
  5
3D4
330
59E
100
AcDbEntity
  8
DATA
  6
Continuous
 62
     7
100
AcDbLine
 10
1053.454299999996
 20
-38.01400156732143
 30
0.0
 11
1011.429999999994
 21
-38.01400156732143
 31
0.0
  0
LINE
  5
3D5
330
59E
100
AcDbEntity
  8
DATA
  6
Continuous
 62
     7
100
AcDbLine
 10
988.5699999999962
 20
-38.01400156732143
 30
0.0
 11
946.5456999999945
 21
-38.01400156732143
 31
0.0
  0
LINE
  5
3D6
330
59E
100
AcDbEntity
  8
DATA
  6
Continuous
 62
     7
100
AcDbLine
 10
755.5249999999932
 20
355.5050000000028
 30
0.0
 11
755.5249999999932
 21
-247.7449999999976
 31
0.0
  0
LINE
  5
3D7
330
59E
100
AcDbEntity
  8
DATA
  6
Continuous
 62
     7
100
AcDbLine
 10
911.0999999999943
 20
282.1368884942035
 30
0.0
 11
911.0999999999943
 21
275.5470949682035
 31
0.0
  0
LINE
  5
3D8
330
59E
100
AcDbEntity
  8
DATA
  6
Continuous
 62
     7
100
AcDbLine
 10
916.8149999999966
 20
189.0522520578042
 30
0.0
 11
916.8149999999966
 21
182.6325102491023
 31
0.0
  0
LINE
  5
3D9
330
59E
100
AcDbEntity
  8
DATA
  6
Continuous
 62
     7
100
AcDbLine
 10
1190.500000000005
 20
409.4800000000032
 30
0.0
 11
809.4999999999947
 21
409.4800000000032
 31
0.0
  0
LINE
  5
3DA
330
59E
100
AcDbEntity
  8
DATA
  6
Continuous
 62
     7
100
AcDbLine
 10
926.0739848093953
 20
-12.33528637672179
 30
0.0
 11
926.0739848093953
 21
-106.8473167579236
 31
0.0
  0
LINE
  5
3DB
330
59E
100
AcDbEntity
  8
DATA
  6
Continuous
 62
     7
100
AcDbLine
 10
930.7849999999939
 20
182.6325102491023
 30
0.0
 11
930.7849999999939
 21
189.0522520578042
 31
0.0
  0
LINE
  5
3DC
330
59E
100
AcDbEntity
  8
DATA
  6
Continuous
 62
     7
100
AcDbLine
 10
936.4999999999964
 20
275.5470949682035
 30
0.0
 11
936.4999999999964
 21
282.1368884942035
 31
0.0
  0
LINE
  5
3DD
330
59E
100
AcDbEntity
  8
DATA
  6
Continuous
 62
     7
100
AcDbLine
 10
946.5456999999945
 20
-38.01400156732143
 30
0.0
 11
946.5456999999945
 21
-81.27020156732214
 31
0.0
  0
LINE
  5
3DE
330
59E
100
AcDbEntity
  8
DATA
  6
Continuous
 62
     7
100
AcDbLine
 10
988.5699999999962
 20
-81.27020156732214
 30
0.0
 11
988.5699999999962
 21
-38.01400156732143
 31
0.0
  0
LINE
  5
3DF
330
59E
100
AcDbEntity
  8
DATA
  6
Continuous
 62
     7
100
AcDbLine
 10
1011.429999999994
 20
-38.01400156732143
 30
0.0
 11
1011.429999999994
 21
-81.27020156732214
 31
0.0
  0
LINE
  5
3E0
330
59E
100
AcDbEntity
  8
DATA
  6
Continuous
 62
     7
100
AcDbLine
 10
1053.454299999996
 20
-81.27020156732214
 30
0.0
 11
1053.454299999996
 21
-38.01400156732143
 31
0.0
  0
LINE
  5
3E1
330
59E
100
AcDbEntity
  8
DATA
  6
Continuous
 62
     7
100
AcDbLine
 10
1063.499999999999
 20
282.1368884942035
 30
0.0
 11
1063.499999999999
 21
275.5470949682035
 31
0.0
  0
LINE
  5
3E2
330
59E
100
AcDbEntity
  8
DATA
  6
Continuous
 62
     7
100
AcDbLine
 10
1069.215
 20
189.0522520578042
 30
0.0
 11
1069.215
 21
182.6325102491023
 31
0.0
  0
LINE
  5
3E3
330
59E
100
AcDbEntity
  8
DATA
  6
Continuous
 62
     7
100
AcDbLine
 10
1073.926015190601
 20
-106.8473167579236
 30
0.0
 11
1073.926015190601
 21
-12.33528637672179
 31
0.0
  0
LINE
  5
3E4
330
59E
100
AcDbEntity
  8
DATA
  6
Continuous
 62
     7
100
AcDbLine
 10
1083.184999999997
 20
182.6325102491023
 30
0.0
 11
1083.184999999997
 21
189.0522520578042
 31
0.0
  0
LINE
  5
3E5
330
59E
100
AcDbEntity
  8
DATA
  6
Continuous
 62
     7
100
AcDbLine
 10
1088.9
 20
275.5470949682035
 30
0.0
 11
1088.9
 21
282.1368884942035
 31
0.0
  0
LINE
  5
3E6
330
59E
100
AcDbEntity
  8
DATA
  6
Continuous
 62
     7
100
AcDbLine
 10
1244.475000000001
 20
-247.7449999999976
 30
0.0
 11
1244.475000000001
 21
355.5050000000028
 31
0.0
  0
CIRCLE
  5
3E7
330
59E
100
AcDbEntity
  8
DATA
  6
Continuous
 62
     7
100
AcDbCircle
 10
967.5578499999973
 20
-59.59130156732272
 30
0.0
 40
13.96999999999934
  0
ARC
  5
3E8
330
59E
100
AcDbEntity
  8
DATA
  6
Continuous
 62
     7
100
AcDbCircle
 10
1076.2
 20
232.950000000003
 30
0.0
 40
44.44999999999988
100
AcDbArc
 50
106.6015495990032
 51
260.9589038514013
  0
ARC
  5
3E9
330
59E
100
AcDbEntity
  8
DATA
  6
Continuous
 62
     7
100
AcDbCircle
 10
1076.2
 20
232.950000000003
 30
0.0
 40
44.44999999999919
100
AcDbArc
 50
279.0410961485986
 51
73.39845040099834
  0
ARC
  5
3EA
330
59E
100
AcDbEntity
  8
DATA
  6
Continuous
 62
     7
100
AcDbCircle
 10
1076.2
 20
232.950000000003
 30
0.0
 40
50.80000000000129
100
AcDbArc
 50
262.0967922665005
 51
277.9032077334996
  0
ARC
  5
3EB
330
59E
100
AcDbEntity
  8
DATA
  6
Continuous
 62
     7
100
AcDbCircle
 10
1076.2
 20
232.950000000003
 30
0.0
 40
50.79999999999962
100
AcDbArc
 50
75.52248781409933
 51
104.477512185902
  0
CIRCLE
  5
3EC
330
59E
100
AcDbEntity
  8
DATA
  6
Continuous
 62
     7
100
AcDbCircle
 10
1076.2
 20
232.950000000003
 30
0.0
 40
30.48000000000002
  0
CIRCLE
  5
3ED
330
59E
100
AcDbEntity
  8
DATA
  6
Continuous
 62
     7
100
AcDbCircle
 10
1076.2
 20
232.950000000003
 30
0.0
 40
16.51000000000067
  0
ARC
  5
3EE
330
59E
100
AcDbEntity
  8
DATA
  6
Continuous
 62
     7
100
AcDbCircle
 10
923.799999999994
 20
232.950000000003
 30
0.0
 40
44.44999999999954
100
AcDbArc
 50
106.6015495990018
 51
260.9589038514014
  0
ARC
  5
3EF
330
59E
100
AcDbEntity
  8
DATA
  6
Continuous
 62
     7
100
AcDbCircle
 10
923.799999999994
 20
232.950000000003
 30
0.0
 40
44.44999999999919
100
AcDbArc
 50
279.0410961485986
 51
73.39845040099823
  0
ARC
  5
3F0
330
59E
100
AcDbEntity
  8
DATA
  6
Continuous
 62
     7
100
AcDbCircle
 10
923.799999999994
 20
232.950000000003
 30
0.0
 40
50.80000000000129
100
AcDbArc
 50
262.0967922665005
 51
277.9032077334996
  0
ARC
  5
3F1
330
59E
100
AcDbEntity
  8
DATA
  6
Continuous
 62
     7
100
AcDbCircle
 10
923.799999999994
 20
232.950000000003
 30
0.0
 40
50.79999999999962
100
AcDbArc
 50
75.52248781409933
 51
104.4775121859007
  0
CIRCLE
  5
3F2
330
59E
100
AcDbEntity
  8
DATA
  6
Continuous
 62
     7
100
AcDbCircle
 10
923.799999999994
 20
232.950000000003
 30
0.0
 40
30.48000000000002
  0
CIRCLE
  5
3F3
330
59E
100
AcDbEntity
  8
DATA
  6
Continuous
 62
     7
100
AcDbCircle
 10
923.799999999994
 20
232.950000000003
 30
0.0
 40
16.51000000000067
  0
CIRCLE
  5
3F4
330
59E
100
AcDbEntity
  8
DATA
  6
Continuous
 62
     7
100
AcDbCircle
 10
806.3249999999936
 20
358.680000000004
 30
0.0
 40
18.41499999999996
  0
ARC
  5
3F5
330
59E
100
AcDbEntity
  8
DATA
  6
Continuous
 62
     7
100
AcDbCircle
 10
1076.2
 20
232.950000000003
 30
0.0
 40
60.09616497380102
100
AcDbArc
 50
311.6710695931018
 51
123.780934445102
  0
ARC
  5
3F6
330
59E
100
AcDbEntity
  8
DATA
  6
Continuous
 62
     7
100
AcDbCircle
 10
1028.701999999995
 20
292.6781000000028
 30
0.0
 40
17.14500000000075
100
AcDbArc
 50
325.2280175225036
 51
291.7580260589017
  0
ARC
  5
3F7
330
59E
100
AcDbEntity
  8
DATA
  6
Continuous
 62
     7
100
AcDbCircle
 10
1076.2
 20
232.950000000003
 30
0.0
 40
60.09616497380235
100
AcDbArc
 50
133.2051091363027
 51
304.7956780786999
  0
ARC
  5
3F8
330
59E
100
AcDbEntity
  8
DATA
  6
Continuous
 62
     7
100
AcDbCircle
 10
1123.698000000001
 20
172.6631000000043
 30
0.0
 40
17.14500000000052
100
AcDbArc
 50
140.3663339330041
 51
116.1004137387019
  0
ARC
  5
3F9
330
59E
100
AcDbEntity
  8
DATA
  6
Continuous
 62
     7
100
AcDbCircle
 10
923.799999999994
 20
232.950000000003
 30
0.0
 40
60.09616497379922
100
AcDbArc
 50
133.2051091362996
 51
304.7956780786999
  0
ARC
  5
3FA
330
59E
100
AcDbEntity
  8
DATA
  6
Continuous
 62
     7
100
AcDbCircle
 10
971.2979999999982
 20
172.6631000000043
 30
0.0
 40
17.14500000000052
100
AcDbArc
 50
140.3663339330041
 51
116.1004137387019
  0
ARC
  5
3FB
330
59E
100
AcDbEntity
  8
DATA
  6
Continuous
 62
     7
100
AcDbCircle
 10
923.799999999994
 20
232.950000000003
 30
0.0
 40
60.09616497380102
100
AcDbArc
 50
311.6710695931018
 51
123.7809344450993
  0
ARC
  5
3FC
330
59E
100
AcDbEntity
  8
DATA
  6
Continuous
 62
     7
100
AcDbCircle
 10
876.3019999999926
 20
292.6781000000028
 30
0.0
 40
17.14500000000075
100
AcDbArc
 50
325.2280175225036
 51
291.7580260589049
  0
ARC
  5
3FD
330
59E
100
AcDbEntity
  8
DATA
  6
Continuous
 62
     7
100
AcDbCircle
 10
809.4999999999947
 20
355.5050000000028
 30
0.0
 40
53.97500000000037
100
AcDbArc
 50
90.0
 51
180.0
  0
ARC
  5
3FE
330
59E
100
AcDbEntity
  8
DATA
  6
Continuous
 62
     7
100
AcDbCircle
 10
809.4999999999947
 20
-247.7449999999976
 30
0.0
 40
53.9750000000015
100
AcDbArc
 50
180.0
 51
270.0
  0
ARC
  5
3FF
330
59E
100
AcDbEntity
  8
DATA
  6
Continuous
 62
     7
100
AcDbCircle
 10
1190.500000000005
 20
-247.7449999999976
 30
0.0
 40
53.97500000000719
100
AcDbArc
 50
270.0
 51
0.0
  0
ARC
  5
400
330
59E
100
AcDbEntity
  8
DATA
  6
Continuous
 62
     7
100
AcDbCircle
 10
1190.500000000005
 20
355.5050000000028
 30
0.0
 40
53.97500000000037
100
AcDbArc
 50
0.0
 51
90.0
  0
LWPOLYLINE
  5
401
330
59E
100
AcDbEntity
  8
DATA
  6
Continuous
 62
     7
100
AcDbPolyline
 90
      143
 70
   128
 43
0.0
 10
1110.493974211
 20
183.5994946626032
 10
1110.50362126095
 20
183.6062341647874
 10
1110.513294061473
 20
183.6129948094131
 10
1110.522992612565
 20
183.6197765964804
 10
1110.532716914229
 20
183.6265795259892
 10
1110.542466966464
 20
183.6334035979397
 10
1110.552242769271
 20
183.6402488123319
 10
1110.562044322648
 20
183.6471151691656
 10
1110.571871626596
 20
183.6540026684408
 10
1110.581724681117
 20
183.6609113101577
 10
1110.591603486208
 20
183.6678410943162
 10
1110.60150804187
 20
183.6747920209163
 10
1110.611438348103
 20
183.681764089958
 10
1110.621394404908
 20
183.6887573014412
 10
1110.631376212284
 20
183.6957716553661
 10
1110.641383770231
 20
183.7028071517326
 10
1110.651417078749
 20
183.7098637905407
 10
1110.661476137838
 20
183.7169415717904
 10
1110.671560947499
 20
183.7240404954817
 10
1110.68167150773
 20
183.7311605616145
 10
1110.691807818533
 20
183.738301770189
 10
1110.701969879907
 20
183.7454641212051
 10
1110.712157691852
 20
183.7526476146628
 10
1110.722371254369
 20
183.7598522505621
 10
1110.732610567456
 20
183.767078028903
 10
1110.742875631115
 20
183.7743249496855
 10
1110.753166445344
 20
183.7815930129096
 10
1110.763483010146
 20
183.7888822185752
 10
1110.773825325518
 20
183.7961925666825
 10
1110.784193391461
 20
183.8035240572314
 10
1110.794587207976
 20
183.8108766902219
 10
1110.805006775062
 20
183.818250465654
 10
1110.815452092718
 20
183.8256453835277
 10
1110.825923160947
 20
183.8330614438429
 10
1110.836419979746
 20
183.8404986465998
 10
1110.846942549116
 20
183.8479569917983
 10
1110.857490869058
 20
183.8554364794384
 10
1110.868064939571
 20
183.8629371095201
 10
1110.878664760655
 20
183.8704588820433
 10
1110.88929033231
 20
183.8780017970082
 10
1110.899941654536
 20
183.8855658544147
 10
1110.910618727334
 20
183.8931510542628
 10
1110.921321550703
 20
183.9007573965524
 10
1110.932050124643
 20
183.9083848812837
 10
1110.942804449154
 20
183.9160335084566
 10
1110.953584524236
 20
183.9237032780711
 10
1110.96439034989
 20
183.9313941901271
 10
1110.975221926115
 20
183.9391062446248
 10
1110.98607925291
 20
183.9468394415641
 10
1110.996962330277
 20
183.954593780945
 10
1111.007871158216
 20
183.9623692627674
 10
1111.018805736725
 20
183.9701658870316
 10
1111.029766065805
 20
183.9779836537372
 10
1111.040752145457
 20
183.9858225628845
 10
1111.05176397568
 20
183.9936826144734
 10
1111.062801556474
 20
184.0015638085038
 10
1111.073864887839
 20
184.0094661449759
 10
1111.084953969776
 20
184.0173896238896
 10
1111.096068802283
 20
184.0253342452449
 10
1111.107209385362
 20
184.0333000090417
 10
1111.118375719012
 20
184.0412869152802
 10
1111.129567803233
 20
184.0492949639602
 10
1111.140785638025
 20
184.057324155082
 10
1111.152029223389
 20
184.0653744886451
 10
1111.163298559323
 20
184.0734459646501
 10
1111.163298559323
 20
184.0734459646501
 10
1111.163298559323
 20
184.0734459646501
 42
0.00412624204561
 10
1111.881042516375
 20
184.5966202585316
 10
1112.002911862756
 20
184.6870020762196
 10
1112.044878415522
 20
184.7181256805854
 42
0.0054018123281997
 10
1112.911012516504
 20
185.3750973333331
 10
1112.923959003473
 20
185.385144097018
 10
1112.936858877394
 20
185.3951577697811
 10
1112.949712138267
 20
185.4051383516226
 10
1112.962518786092
 20
185.4150858425423
 10
1112.975278820867
 20
185.4250002425404
 10
1112.987992242596
 20
185.4348815516167
 10
1113.000659051275
 20
185.4447297697713
 10
1113.013279246906
 20
185.4545448970042
 10
1113.025852829489
 20
185.4643269333154
 10
1113.038379799023
 20
185.4740758787048
 10
1113.05086015551
 20
185.4837917331726
 10
1113.063293898947
 20
185.4934744967186
 10
1113.075681029336
 20
185.5031241693429
 10
1113.088021546678
 20
185.5127407510456
 10
1113.100315450971
 20
185.5223242418265
 10
1113.112562742215
 20
185.5318746416856
 10
1113.124763420412
 20
185.5413919506231
 10
1113.136917485559
 20
185.5508761686389
 10
1113.149024937658
 20
185.5603272957329
 10
1113.16108577671
 20
185.5697453319052
 10
1113.173100002712
 20
185.5791302771558
 10
1113.185067615667
 20
185.5884821314848
 10
1113.196988615573
 20
185.5978008948919
 10
1113.208863002431
 20
185.6070865673773
 10
1113.22069077624
 20
185.6163391489412
 10
1113.232471937001
 20
185.6255586395832
 10
1113.244206484714
 20
185.6347450393035
 10
1113.255894419378
 20
185.6438983481021
 10
1113.267535740994
 20
185.653018565979
 10
1113.279130449562
 20
185.6621056929342
 10
1113.290678545082
 20
185.6711597289677
 10
1113.302180027553
 20
185.6801806740794
 10
1113.313634896975
 20
185.6891685282696
 10
1113.32504315335
 20
185.6981232915378
 10
1113.336404796676
 20
185.7070449638845
 10
1113.347719826954
 20
185.7159335453094
 10
1113.358988244183
 20
185.7247890358125
 10
1113.370210048364
 20
185.733611435394
 10
1113.381385239496
 20
185.7424007440538
 10
1113.392513817581
 20
185.7511569617918
 10
1113.403595782617
 20
185.7598800886081
 10
1113.414631134605
 20
185.7685701245028
 10
1113.425619873544
 20
185.7772270694756
 10
1113.436561999435
 20
185.7858509235269
 10
1113.447457512278
 20
185.7944416866564
 10
1113.458306412072
 20
185.8029993588642
 10
1113.469108698819
 20
185.8115239401502
 10
1113.479864372516
 20
185.8200154305145
 10
1113.490573433166
 20
185.8284738299572
 10
1113.501235880766
 20
185.8368991384781
 10
1113.511851715319
 20
185.8452913560773
 10
1113.522420936823
 20
185.8536504827547
 10
1113.53294354528
 20
185.8619765185105
 10
1113.543419540687
 20
185.8702694633446
 10
1113.553848923046
 20
185.8785293172569
 10
1113.564231692358
 20
185.8867560802476
 10
1113.57456784862
 20
185.8949497523164
 10
1113.584857391834
 20
185.9031103334636
 10
1113.595100322001
 20
185.9112378236891
 10
1113.605296639119
 20
185.9193322229928
 10
1113.615446343188
 20
185.9273935313749
 10
1113.625549434209
 20
185.9354217488353
 10
1113.635605912181
 20
185.9434168753739
 10
1113.635605912181
 20
185.9434168753739
 10
1113.635605912181
 20
185.9434168753739
 42
0.0035313977585419
 10
1114.274090519993
 20
186.4585556068178
 10
1114.432501547236
 20
186.5882216760326
 10
1114.437259715626
 20
186.5921164364072
 42
0.0062997984340958
 10
1115.369546584118
 20
187.3750542329083
 10
1115.505170108903
 20
187.4918965961964
 42
0.0034429198289354
 10
1116.152451142611
 20
188.0573536972816
 10
1116.155131748203
 20
188.0597283253018
  0
LWPOLYLINE
  5
492
330
59E
100
AcDbEntity
  8
DATA
  6
Continuous
 62
     7
100
AcDbPolyline
 90
       82
 70
   128
 43
0.0
 10
1042.785386298496
 20
282.9001014585037
 10
1042.763328278395
 20
282.8852418517035
 42
0.0062071734436219
 10
1041.527272091887
 20
282.0300625826224
 10
1041.431131413632
 20
281.961766392683
 42
0.0058310789908669
 10
1040.406672352361
 20
281.2158862723027
 10
1040.406672352361
 20
281.2158862723027
 42
0.0042988931638508
 10
1039.397502524234
 20
280.4493815553599
 10
1039.382466765174
 20
280.4377561004662
 10
1039.382466765174
 20
280.4377561004662
 42
0.0061226179888955
 10
1038.359746508442
 20
279.6267997664747
 10
1038.322357381563
 20
279.5963993656847
 10
1038.219372630307
 20
279.5126643877717
 42
0.005068542369631
 10
1037.345130749953
 20
278.7869907959635
 10
1037.336729267811
 20
278.7798719873613
 42
0.0040110176322742
 10
1036.492479439879
 20
278.0528008101999
 10
1036.458639284482
 20
278.0231814358818
 42
0.0049074611007353
 10
1035.694597413982
 20
277.3410771043774
 10
1035.683186880043
 20
277.3306826584518
 10
1035.671819730475
 20
277.3203246420417
 10
1035.660495965277
 20
277.3100030551475
 10
1035.649215584451
 20
277.2997178977688
 10
1035.637978587996
 20
277.2894691699058
 10
1035.626784975911
 20
277.2792568715585
 10
1035.615634748197
 20
277.2690810027267
 10
1035.604527904854
 20
277.2589415634107
 10
1035.593464445882
 20
277.2488385536103
 10
1035.582444371281
 20
277.2387719733256
 10
1035.57146768105
 20
277.2287418225566
 10
1035.56053437519
 20
277.2187481013032
 10
1035.549644453702
 20
277.2087908095655
 10
1035.538797916584
 20
277.1988699473434
 10
1035.527994763837
 20
277.188985514637
 10
1035.51723499546
 20
277.1791375114462
 10
1035.506518611455
 20
277.1693259377712
 10
1035.495845611821
 20
277.1595507936118
 10
1035.485215996557
 20
277.149812078968
 10
1035.474629765665
 20
277.1401097938399
 10
1035.464086919142
 20
277.1304439382275
 10
1035.453587456991
 20
277.1208145121306
 10
1035.443131379211
 20
277.1112215155496
 10
1035.432718685802
 20
277.1016649484841
 10
1035.422349376764
 20
277.0921448109343
 10
1035.412023452096
 20
277.0826611029002
 10
1035.401740911799
 20
277.0732138243817
 10
1035.391501755873
 20
277.0638029753789
 10
1035.381305984318
 20
277.0544285558917
 10
1035.371153597134
 20
277.0450905659201
 10
1035.361044594321
 20
277.0357890054643
 10
1035.350978975878
 20
277.0265238745241
 10
1035.340956741807
 20
277.0172951730996
 10
1035.330977892106
 20
277.0081029011907
 10
1035.321042426776
 20
276.9989470587975
 10
1035.311150345816
 20
276.9898276459199
 10
1035.301301649229
 20
276.9807446625581
 10
1035.291496337011
 20
276.9716981087118
 10
1035.281734409165
 20
276.9626879843813
 10
1035.272015865689
 20
276.9537142895664
 10
1035.262340706585
 20
276.9447770242672
 10
1035.25270893185
 20
276.9358761884836
 10
1035.243120541488
 20
276.9270117822157
 10
1035.233575535495
 20
276.9181838054634
 10
1035.224073913874
 20
276.9093922582268
 10
1035.214615676623
 20
276.9006371405058
 10
1035.205200823744
 20
276.8919184523007
 10
1035.195829355235
 20
276.883236193611
 10
1035.186501271097
 20
276.874590364437
 10
1035.17721657133
 20
276.8659809647787
 10
1035.167975255934
 20
276.8574079946361
 10
1035.158777324908
 20
276.8488714540091
 10
1035.149622778254
 20
276.8403713428978
 10
1035.14051161597
 20
276.8319076613021
 10
1035.131443838057
 20
276.8234804092222
 10
1035.122419444516
 20
276.8150895866577
 10
1035.113438435344
 20
276.8067351936092
 10
1035.104500810544
 20
276.7984172300761
 10
1035.095606570115
 20
276.7901356960588
 10
1035.086755714056
 20
276.7818905915571
 10
1035.077948242369
 20
276.7736819165711
 10
1035.069184155052
 20
276.7655096711006
 10
1035.060463452106
 20
276.757373855146
 10
1035.060463452106
 20
276.757373855146
 10
1035.057437911395
 20
276.7545503384031
  0
LWPOLYLINE
  5
4E6
330
59E
100
AcDbEntity
  8
DATA
  6
Continuous
 62
     7
100
AcDbPolyline
 90
       12
 70
   128
 43
0.0
 10
958.0939742109944
 20
183.5994946626032
 10
958.4034038738085
 20
183.8181797673576
 42
0.0043763627563918
 10
959.33462980702
 20
184.4886089123861
 42
0.0052498493536964
 10
960.2527612391799
 20
185.1768293476176
 10
960.4177872838995
 20
185.3032587693493
 42
0.0055378377115525
 10
961.3122809537058
 20
186.0044034749501
 10
961.3633081392286
 20
186.0453213189647
 42
0.0035437003444193
 10
962.1434827934537
 20
186.6800672417435
 42
0.0044964824944898
 10
962.9133383384266
 20
187.3272660682842
 10
962.9584596577529
 20
187.3658963032443
 42
0.0042165604071001
 10
963.7524511321442
 20
188.0573536898941
 10
963.755131748195
 20
188.0597283253018
  0
LWPOLYLINE
  5
4F4
330
59E
100
AcDbEntity
  8
DATA
  6
Continuous
 62
     7
100
AcDbPolyline
 90
       17
 70
   128
 43
0.0
 10
890.3853862984943
 20
282.9001014585037
 10
890.3562140995523
 20
282.8804495034349
 42
0.004284239112554
 10
889.5269019026022
 20
282.3113895527843
 42
0.0037789127397703
 10
888.7068672397095
 20
281.7290257608304
 10
888.6337730339404
 20
281.6762809241447
 42
0.0057092633937128
 10
887.6800010907102
 20
280.971338665961
 10
887.4825011089372
 20
280.8218475694226
 42
0.0060279276408065
 10
886.4894491408451
 20
280.0511843379445
 10
886.3935825743016
 20
279.9749172045396
 42
0.0040073951856418
 10
885.6066558450846
 20
279.338508559963
 42
0.0040745575035497
 10
884.8301191015924
 20
278.6894645690318
 10
884.7824321495897
 20
278.6489422970351
 42
0.0050156961941796
 10
883.9232846543943
 20
277.9039069073572
 10
883.8058744145337
 20
277.8000094674371
 42
0.0066045342533336
 10
882.7322681074045
 20
276.8243785775823
 10
882.6604635182276
 20
276.7573739008252
 10
882.6574379113958
 20
276.7545503384031
  0
LINE
  5
507
330
59E
100
AcDbEntity
  8
DATA
  6
Continuous
 62
     7
100
AcDbLine
 10
888.731020560283
 20
352.9505717201096
 30
0.0
 11
1111.268979468713
 21
352.9505717201096
 31
0.0
  0
LINE
  5
508
330
59E
100
AcDbEntity
  8
DATA
  6
Continuous
 62
     7
100
AcDbLine
 10
866.3019999999926
 20
292.6781000000028
 30
0.0
 11
886.3019999999925
 21
292.6781000000028
 31
0.0
  0
LINE
  5
509
330
59E
100
AcDbEntity
  8
DATA
  6
Continuous
 62
     7
100
AcDbLine
 10
876.3019999999926
 20
282.6781000000028
 30
0.0
 11
876.3019999999926
 21
302.6781000000028
 31
0.0
  0
LINE
  5
50A
330
59E
100
AcDbEntity
  8
DATA
  6
Continuous
 62
     7
100
AcDbLine
 10
1018.701999999995
 20
292.6781000000028
 30
0.0
 11
1038.701999999995
 21
292.6781000000028
 31
0.0
  0
LINE
  5
50B
330
59E
100
AcDbEntity
  8
DATA
  6
Continuous
 62
     7
100
AcDbLine
 10
1028.701999999995
 20
282.6781000000028
 30
0.0
 11
1028.701999999995
 21
302.6781000000028
 31
0.0
  0
LINE
  5
50C
330
59E
100
AcDbEntity
  8
DATA
  6
Continuous
 62
     7
100
AcDbLine
 10
961.2979999999982
 20
172.6631000000043
 30
0.0
 11
981.2979999999981
 21
172.6631000000043
 31
0.0
  0
LINE
  5
50D
330
59E
100
AcDbEntity
  8
DATA
  6
Continuous
 62
     7
100
AcDbLine
 10
971.2979999999982
 20
162.6631000000043
 30
0.0
 11
971.2979999999982
 21
182.6631000000043
 31
0.0
  0
LINE
  5
50E
330
59E
100
AcDbEntity
  8
DATA
  6
Continuous
 62
     7
100
AcDbLine
 10
1113.698000000002
 20
172.6631000000043
 30
0.0
 11
1133.698000000001
 21
172.6631000000043
 31
0.0
  0
LINE
  5
50F
330
59E
100
AcDbEntity
  8
DATA
  6
Continuous
 62
     7
100
AcDbLine
 10
1123.698000000001
 20
162.6631000000043
 30
0.0
 11
1123.698000000001
 21
182.6631000000043
 31
0.0
  0
ARC
  5
510
330
59E
100
AcDbEntity
  8
DATA
  6
Continuous
 62
     7
100
AcDbCircle
 10
888.8749999999959
 20
64.49456346836313
 30
0.0
 40
76.82070664529921
100
AcDbArc
 50
90.1073853577
 51
150.4551144743442
  0
ARC
  5
511
330
59E
100
AcDbEntity
  8
DATA
  6
Continuous
 62
     7
100
AcDbCircle
 10
1111.125000000003
 20
64.49456346836313
 30
0.0
 40
76.82070664530273
100
AcDbArc
 50
29.54488552287505
 51
89.89261524240069
  0
LINE
  5
512
330
59E
100
AcDbEntity
  8
DATA
  6
Continuous
 62
     7
100
AcDbLine
 10
888.731020560283
 20
141.3151351884699
 30
0.0
 11
1111.268979468713
 21
141.3151351884699
 31
0.0
  0
TEXT
  5
513
330
59E
100
AcDbEntity
  8
DATA
 62
     7
100
AcDbText
 10
898.486650204917
 20
105.9815422167016
 30
0.0
 40
19.76327256944445
  1
2+/2- LOOP THRU
 41
0.7
 11
898.486650204917
 21
125.7448147861461
 31
0.0
100
AcDbText
 73
     3
  0
TEXT
  5
514
330
59E
100
AcDbEntity
  8
DATA
 62
     7
100
AcDbText
 10
948.0309046702153
 20
2.129769549633309
 30
0.0
 40
27.14735243055556
  1
+1
 41
0.7
 11
948.0309046702153
 21
29.27712198018887
 31
0.0
100
AcDbText
 73
     3
  0
TEXT
  5
515
330
59E
100
AcDbEntity
  8
DATA
 62
     7
100
AcDbText
 10
1017.639769551406
 20
2.602824219852731
 30
0.0
 40
27.14735243055556
  1
-1
 41
0.7
 11
1017.639769551406
 21
29.75017665040829
 31
0.0
100
AcDbText
 73
     3
  0
TEXT
  5
516
330
59E
100
AcDbEntity
  8
DATA
 62
     7
100
AcDbText
 10
886.0337813844797
 20
64.29417979046497
 30
0.0
 40
20.36051432291666
  1
PARALLEL WITH NL4 
 41
0.7
 11
886.0337813844797
 21
84.65469411338162
 31
0.0
100
AcDbText
 73
     3
  0
LINE
  5
517
330
59E
100
AcDbEntity
  8
DATA
  6
Continuous
 62
     7
100
AcDbLine
 10
926.0739848093953
 20
-12.33528637672179
 30
0.0
 11
1073.926015190601
 21
-12.33528637672179
 31
0.0
  0
LINE
  5
518
330
59E
100
AcDbEntity
  8
DATA
  6
Continuous
 62
     7
100
AcDbLine
 10
1073.926015190601
 20
-106.8473167579236
 30
0.0
 11
926.0739848093953
 21
-106.8473167579236
 31
0.0
  0
LINE
  5
519
330
59E
100
AcDbEntity
  8
DATA
  6
Continuous
 62
     7
100
AcDbLine
 10
992.3799999999971
 20
-106.8473167579236
 30
0.0
 11
992.3799999999971
 21
-12.33528637672179
 31
0.0
  0
LINE
  5
51A
330
59E
100
AcDbEntity
  8
DATA
  6
Continuous
 62
     7
100
AcDbLine
 10
1007.619999999998
 20
-106.8473167579236
 30
0.0
 11
1007.619999999998
 21
-12.33528637672179
 31
0.0
  0
LINE
  5
51B
330
59E
100
AcDbEntity
  8
DATA
  6
Continuous
 62
     7
100
AcDbLine
 10
941.0739848093951
 20
-12.33528637672179
 30
0.0
 11
941.0739848093951
 21
-106.8473167579236
 31
0.0
  0
LINE
  5
51C
330
59E
100
AcDbEntity
  8
DATA
  6
Continuous
 62
     7
100
AcDbLine
 10
1058.926015190597
 20
-106.8473167579236
 30
0.0
 11
1058.926015190597
 21
-12.33528637672179
 31
0.0
  0
LINE
  5
51D
330
59E
100
AcDbEntity
  8
DATA
  6
Continuous
 62
     7
100
AcDbLine
 10
892.024999999993
 20
98.23699548903277
 30
0.0
 11
1102.024999999997
 21
98.23699548903277
 31
0.0
  0
LINE
  5
51E
330
59E
100
AcDbEntity
  8
DATA
  6
Continuous
 62
     7
100
AcDbLine
 10
958.8432786644203
 20
-59.59130156732272
 30
0.0
 11
976.2724213355737
 21
-59.59130156732272
 31
0.0
  0
LINE
  5
51F
330
59E
100
AcDbEntity
  8
DATA
  6
Continuous
 62
     7
100
AcDbLine
 10
967.5578499999973
 20
-68.3058729028994
 30
0.0
 11
967.5578499999973
 21
-50.87673023174602
 31
0.0
  0
CIRCLE
  5
520
330
59E
100
AcDbEntity
  8
DATA
  6
Continuous
 62
     7
100
AcDbCircle
 10
1033.492149998849
 20
-59.59130156732272
 30
0.0
 40
13.96999999999934
  0
LINE
  5
521
330
59E
100
AcDbEntity
  8
DATA
  6
Continuous
 62
     7
100
AcDbLine
 10
1042.206721334426
 20
-59.59130156732272
 30
0.0
 11
1024.777578663272
 21
-59.59130156732272
 31
0.0
  0
LINE
  5
522
330
59E
100
AcDbEntity
  8
DATA
  6
Continuous
 62
     7
100
AcDbLine
 10
1033.492149998849
 20
-68.3058729028994
 30
0.0
 11
1033.492149998849
 21
-50.87673023174602
 31
0.0
  0
LINE
  5
523
330
59E
100
AcDbEntity
  8
DATA
  6
Continuous
 62
     7
100
AcDbLine
 10
806.3249999999936
 20
348.634105316105
 30
0.0
 11
806.3249999999936
 21
368.7258946839029
 31
0.0
  0
LINE
  5
524
330
59E
100
AcDbEntity
  8
DATA
  6
Continuous
 62
     7
100
AcDbLine
 10
796.2791053160948
 20
358.680000000004
 30
0.0
 11
816.3708946838927
 21
358.680000000004
 31
0.0
  0
CIRCLE
  5
525
330
59E
100
AcDbEntity
  8
DATA
  6
Continuous
 62
     7
100
AcDbCircle
 10
1193.675000000002
 20
358.680000000004
 30
0.0
 40
18.41499999999996
  0
LINE
  5
526
330
59E
100
AcDbEntity
  8
DATA
  6
Continuous
 62
     7
100
AcDbLine
 10
1193.675000000002
 20
348.634105316105
 30
0.0
 11
1193.675000000002
 21
368.7258946839029
 31
0.0
  0
LINE
  5
527
330
59E
100
AcDbEntity
  8
DATA
  6
Continuous
 62
     7
100
AcDbLine
 10
1183.629105316103
 20
358.680000000004
 30
0.0
 11
1203.720894683901
 21
358.680000000004
 31
0.0
  0
CIRCLE
  5
528
330
59E
100
AcDbEntity
  8
DATA
  6
Continuous
 62
     7
100
AcDbCircle
 10
806.3249999999936
 20
-250.9199999999987
 30
0.0
 40
18.41499999999996
  0
LINE
  5
529
330
59E
100
AcDbEntity
  8
DATA
  6
Continuous
 62
     7
100
AcDbLine
 10
806.3249999999936
 20
-260.9658946838977
 30
0.0
 11
806.3249999999936
 21
-240.8741053160997
 31
0.0
  0
LINE
  5
52A
330
59E
100
AcDbEntity
  8
DATA
  6
Continuous
 62
     7
100
AcDbLine
 10
796.2791053160948
 20
-250.9199999999987
 30
0.0
 11
816.3708946838927
 21
-250.9199999999987
 31
0.0
  0
CIRCLE
  5
52B
330
59E
100
AcDbEntity
  8
DATA
  6
Continuous
 62
     7
100
AcDbCircle
 10
1193.675000000002
 20
-250.9199999999987
 30
0.0
 40
18.41499999999996
  0
LINE
  5
52C
330
59E
100
AcDbEntity
  8
DATA
  6
Continuous
 62
     7
100
AcDbLine
 10
1193.675000000002
 20
-260.9658946838977
 30
0.0
 11
1193.675000000002
 21
-240.8741053160997
 31
0.0
  0
LINE
  5
52D
330
59E
100
AcDbEntity
  8
DATA
  6
Continuous
 62
     7
100
AcDbLine
 10
1183.629105316103
 20
-250.9199999999987
 30
0.0
 11
1203.720894683901
 21
-250.9199999999987
 31
0.0
  0
ENDSEC
  0
SECTION
  2
OBJECTS
  0
DICTIONARY
  5
53B
330
0
100
AcDbDictionary
281
     1
  3
ACAD_CIP_PREVIOUS_PRODUCT_INFO
350
5B6
  3
ACAD_COLOR
350
591
  3
ACAD_DETAILVIEWSTYLE
350
598
  3
ACAD_GROUP
350
53C
  3
ACAD_LAYOUT
350
590
  3
ACAD_MATERIAL
350
53F
  3
ACAD_MLEADERSTYLE
350
594
  3
ACAD_MLINESTYLE
350
58D
  3
ACAD_PLOTSETTINGS
350
58F
  3
ACAD_PLOTSTYLENAME
350
53D
  3
ACAD_SCALELIST
350
571
  3
ACAD_SECTIONVIEWSTYLE
350
596
  3
ACAD_TABLESTYLE
350
592
  3
ACAD_VISUALSTYLE
350
558
  3
ACDB_RECOMPOSE_DATA
350
5CB
  3
AcDbVariableDictionary
350
5C1
  0
DICTIONARY
  5
5B7
330
583
100
AcDbDictionary
280
     1
281
     1
  3
ADSK_XREC_LAYER_RECONCILED
360
5B8
  0
DICTIONARY
  5
5B9
330
5A2
100
AcDbDictionary
280
     1
281
     1
  3
ADSK_XREC_LAYER_RECONCILED
360
5BA
  0
DICTIONARY
  5
5BB
330
5AE
100
AcDbDictionary
280
     1
281
     1
  3
ADSK_XREC_LAYER_RECONCILED
360
5BC
  0
DICTIONARY
  5
5BD
330
5AF
100
AcDbDictionary
280
     1
281
     1
  3
ADSK_XREC_LAYER_RECONCILED
360
5BE
  0
DICTIONARY
  5
5BF
330
5B0
100
AcDbDictionary
280
     1
281
     1
  3
ADSK_XREC_LAYER_RECONCILED
360
5C0
  0
XRECORD
  5
5B6
102
{ACAD_REACTORS
330
53B
102
}
330
53B
100
AcDbXrecord
280
     1
300
ACDLT
300
2017
300
ACDLT_F_S
  0
DICTIONARY
  5
591
102
{ACAD_REACTORS
330
53B
102
}
330
53B
100
AcDbDictionary
281
     1
  0
DICTIONARY
  5
598
102
{ACAD_REACTORS
330
53B
102
}
330
53B
100
AcDbDictionary
281
     1
  3
Imperial24
350
599
  0
DICTIONARY
  5
53C
102
{ACAD_REACTORS
330
53B
102
}
330
53B
100
AcDbDictionary
281
     1
  0
DICTIONARY
  5
590
102
{ACAD_REACTORS
330
53B
102
}
330
53B
100
AcDbDictionary
281
     1
  3
Model
350
5A1
  3
レイアウト1
350
59D
  0
DICTIONARY
  5
53F
102
{ACAD_REACTORS
330
53B
102
}
330
53B
100
AcDbDictionary
281
     1
  3
ByBlock
350
548
  3
ByLayer
350
540
  3
Global
350
550
  0
DICTIONARY
  5
594
102
{ACAD_REACTORS
330
53B
102
}
330
53B
100
AcDbDictionary
281
     1
  3
Standard
350
595
  0
DICTIONARY
  5
58D
102
{ACAD_REACTORS
330
53B
102
}
330
53B
100
AcDbDictionary
281
     1
  3
Standard
350
58E
  0
DICTIONARY
  5
58F
102
{ACAD_REACTORS
330
53B
102
}
330
53B
100
AcDbDictionary
281
     1
  0
ACDBDICTIONARYWDFLT
  5
53D
102
{ACAD_REACTORS
330
53B
102
}
330
53B
100
AcDbDictionary
281
     1
  3
Normal
350
53E
100
AcDbDictionaryWithDefault
340
53E
  0
DICTIONARY
  5
571
102
{ACAD_REACTORS
330
53B
102
}
330
53B
100
AcDbDictionary
281
     1
  3
A0
350
572
  3
A1
350
573
  3
A2
350
574
  3
A3
350
575
  3
A4
350
576
  3
A5
350
577
  3
A6
350
578
  3
A7
350
579
  3
A8
350
57A
  3
A9
350
57B
  3
B0
350
57C
  3
B1
350
57D
  3
B2
350
57E
  3
B3
350
57F
  3
B4
350
580
  3
B5
350
581
  3
B6
350
582
  0
DICTIONARY
  5
596
102
{ACAD_REACTORS
330
53B
102
}
330
53B
100
AcDbDictionary
281
     1
  3
Imperial24
350
597
  0
DICTIONARY
  5
592
102
{ACAD_REACTORS
330
53B
102
}
330
53B
100
AcDbDictionary
281
     1
  3
Standard
350
593
  0
DICTIONARY
  5
558
102
{ACAD_REACTORS
330
53B
102
}
330
53B
100
AcDbDictionary
281
     1
  3
2dWireframe
350
55E
  3
Basic
350
55D
  3
Brighten
350
564
  3
ColorChange
350
568
  3
Conceptual
350
561
  3
Dim
350
563
  3
EdgeColorOff
350
570
  3
Facepattern
350
567
  3
Flat
350
559
  3
FlatWithEdges
350
55A
  3
Gouraud
350
55B
  3
GouraudWithEdges
350
55C
  3
Hidden
350
560
  3
JitterOff
350
56E
  3
Linepattern
350
566
  3
OverhangOff
350
56F
  3
Realistic
350
562
  3
Shaded
350
56D
  3
Shaded with edges
350
56C
  3
Shades of Gray
350
569
  3
Sketchy
350
56A
  3
Thicken
350
565
  3
Wireframe
350
55F
  3
X-Ray
350
56B
  0
XRECORD
  5
5CB
102
{ACAD_REACTORS
330
53B
102
}
330
53B
100
AcDbXrecord
280
     1
 90
        1
330
593
  0
DICTIONARY
  5
5C1
102
{ACAD_REACTORS
330
53B
102
}
330
53B
100
AcDbDictionary
281
     1
  3
CANNOSCALE
350
5C6
  3
CMLEADERSTYLE
350
5C3
  3
CTABLESTYLE
350
5C2
  3
CVIEWDETAILSTYLE
350
5C4
  3
CVIEWSECTIONSTYLE
350
5C5
  3
XCLIPFRAME
350
5C7
  0
XRECORD
  5
5B8
102
{ACAD_REACTORS
330
5B7
102
}
330
5B7
100
AcDbXrecord
280
     1
290
     1
  0
XRECORD
  5
5BA
102
{ACAD_REACTORS
330
5B9
102
}
330
5B9
100
AcDbXrecord
280
     1
290
     1
  0
XRECORD
  5
5BC
102
{ACAD_REACTORS
330
5BB
102
}
330
5BB
100
AcDbXrecord
280
     1
290
     1
  0
XRECORD
  5
5BE
102
{ACAD_REACTORS
330
5BD
102
}
330
5BD
100
AcDbXrecord
280
     1
290
     1
  0
XRECORD
  5
5C0
102
{ACAD_REACTORS
330
5BF
102
}
330
5BF
100
AcDbXrecord
280
     1
290
     1
  0
ACDBDETAILVIEWSTYLE
  5
599
102
{ACAD_XDICTIONARY
360
603
102
}
102
{ACAD_REACTORS
330
598
102
}
330
598
100
AcDbModelDocViewStyle
 70
     0
  3
Imperial24
290
     0
100
AcDbDetailViewStyle
 70
     0
 71
     0
 90
        3
 71
     1
340
584
 62
   256
 40
0.24
340
0
 62
   256
 40
0.24
300

 40
0.36
280
     3
 71
     2
340
58B
 90
       25
 62
   256
 71
     3
340
584
 62
   256
 40
0.24
 90
        1
 40
0.75
 90
        1
300
%<\AcVar ViewType \f "%tc1">% %<\AcVar ViewDetailId>%\PSCALE %<\AcVar ViewScale \f "%sn">%
 71
     4
340
58B
 90
       25
 62
   256
340
58B
 90
       25
 62
   256
280
     0
  0
LAYOUT
  5
5A1
102
{ACAD_REACTORS
330
590
102
}
330
590
100
AcDbPlotSettings
  1

  2
DocuPrint 3000-2
  4

  6

 40
0.0
 41
0.0
 42
0.0
 43
0.0
 44
0.0
 45
0.0
 46
0.0
 47
0.0
 48
0.0
 49
0.0
140
0.0
141
0.0
142
1.0
143
1.0
 70
  1712
 72
     0
 73
     0
 74
     0
  7

 75
     0
147
1.0
 76
     0
 77
     2
 78
   300
148
0.0
149
0.0
100
AcDbLayout
  1
Model
 70
     1
 71
     0
 10
0.0
 20
0.0
 11
12.0
 21
9.0
 12
0.0
 22
0.0
 32
0.0
 14
0.0
 24
0.0
 34
0.0
 15
0.0
 25
0.0
 35
0.0
146
0.0
 13
0.0
 23
0.0
 33
0.0
 16
1.0
 26
0.0
 36
0.0
 17
0.0
 27
1.0
 37
0.0
 76
     0
330
59E
331
5A3
  0
LAYOUT
  5
59D
102
{ACAD_REACTORS
330
590
102
}
330
590
100
AcDbPlotSettings
  1

  2
DocuPrint 3000-2
  4

  6

 40
0.0
 41
0.0
 42
0.0
 43
0.0
 44
0.0
 45
0.0
 46
0.0
 47
0.0
 48
0.0
 49
0.0
140
0.0
141
0.0
142
1.0
143
1.0
 70
   688
 72
     0
 73
     0
 74
     5
  7

 75
    16
147
1.0
 76
     0
 77
     2
 78
   300
148
0.0
149
0.0
100
AcDbLayout
  1
レイアウト1
 70
     0
 71
     1
 10
0.0
 20
0.0
 11
12.0
 21
9.0
 12
0.0
 22
0.0
 32
0.0
 14
1.000000000000000E+20
 24
1.000000000000000E+20
 34
1.000000000000000E+20
 15
-1.000000000000000E+20
 25
-1.000000000000000E+20
 35
-1.000000000000000E+20
146
0.0
 13
0.0
 23
0.0
 33
0.0
 16
1.0
 26
0.0
 36
0.0
 17
0.0
 27
1.0
 37
0.0
 76
     0
330
59A
  0
MATERIAL
  5
548
102
{ACAD_XDICTIONARY
360
549
102
}
102
{ACAD_REACTORS
330
53F
102
}
330
53F
100
AcDbMaterial
  1
ByBlock
 72
     0
 43
0.0208333333333333
 43
0.0
 43
0.0
 43
0.0
 43
0.0
 43
0.0208333333333333
 43
0.0
 43
0.0
 43
0.0
 43
0.0
 43
1.0
 43
0.0
 43
0.0
 43
0.0
 43
0.0
 43
1.0
 77
     0
 47
0.0208333333333333
 47
0.0
 47
0.0
 47
0.0
 47
0.0
 47
0.0208333333333333
 47
0.0
 47
0.0
 47
0.0
 47
0.0
 47
1.0
 47
0.0
 47
0.0
 47
0.0
 47
0.0
 47
1.0
171
     0
 49
0.0208333333333333
 49
0.0
 49
0.0
 49
0.0
 49
0.0
 49
0.0208333333333333
 49
0.0
 49
0.0
 49
0.0
 49
0.0
 49
1.0
 49
0.0
 49
0.0
 49
0.0
 49
0.0
 49
1.0
175
     0
142
0.0208333333333333
142
0.0
142
0.0
142
0.0
142
0.0
142
0.0208333333333333
142
0.0
142
0.0
142
0.0
142
0.0
142
1.0
142
0.0
142
0.0
142
0.0
142
0.0
142
1.0
179
     0
144
0.0208333333333333
144
0.0
144
0.0
144
0.0
144
0.0
144
0.0208333333333333
144
0.0
144
0.0
144
0.0
144
0.0
144
1.0
144
0.0
144
0.0
144
0.0
144
0.0
144
1.0
147
0.0208333333333333
147
0.0
147
0.0
147
0.0
147
0.0
147
0.0208333333333333
147
0.0
147
0.0
147
0.0
147
0.0
147
1.0
147
0.0
147
0.0
147
0.0
147
0.0
147
1.0
  0
MATERIAL
  5
540
102
{ACAD_XDICTIONARY
360
541
102
}
102
{ACAD_REACTORS
330
53F
102
}
330
53F
100
AcDbMaterial
  1
ByLayer
 72
     0
 43
0.0208333333333333
 43
0.0
 43
0.0
 43
0.0
 43
0.0
 43
0.0208333333333333
 43
0.0
 43
0.0
 43
0.0
 43
0.0
 43
1.0
 43
0.0
 43
0.0
 43
0.0
 43
0.0
 43
1.0
 77
     0
 47
0.0208333333333333
 47
0.0
 47
0.0
 47
0.0
 47
0.0
 47
0.0208333333333333
 47
0.0
 47
0.0
 47
0.0
 47
0.0
 47
1.0
 47
0.0
 47
0.0
 47
0.0
 47
0.0
 47
1.0
171
     0
 49
0.0208333333333333
 49
0.0
 49
0.0
 49
0.0
 49
0.0
 49
0.0208333333333333
 49
0.0
 49
0.0
 49
0.0
 49
0.0
 49
1.0
 49
0.0
 49
0.0
 49
0.0
 49
0.0
 49
1.0
175
     0
142
0.0208333333333333
142
0.0
142
0.0
142
0.0
142
0.0
142
0.0208333333333333
142
0.0
142
0.0
142
0.0
142
0.0
142
1.0
142
0.0
142
0.0
142
0.0
142
0.0
142
1.0
179
     0
144
0.0208333333333333
144
0.0
144
0.0
144
0.0
144
0.0
144
0.0208333333333333
144
0.0
144
0.0
144
0.0
144
0.0
144
1.0
144
0.0
144
0.0
144
0.0
144
0.0
144
1.0
147
0.0208333333333333
147
0.0
147
0.0
147
0.0
147
0.0
147
0.0208333333333333
147
0.0
147
0.0
147
0.0
147
0.0
147
1.0
147
0.0
147
0.0
147
0.0
147
0.0
147
1.0
  0
MATERIAL
  5
550
102
{ACAD_XDICTIONARY
360
551
102
}
102
{ACAD_REACTORS
330
53F
102
}
330
53F
100
AcDbMaterial
  1
Global
 72
     0
 43
0.0208333333333333
 43
0.0
 43
0.0
 43
0.0
 43
0.0
 43
0.0208333333333333
 43
0.0
 43
0.0
 43
0.0
 43
0.0
 43
1.0
 43
0.0
 43
0.0
 43
0.0
 43
0.0
 43
1.0
 77
     0
 47
0.0208333333333333
 47
0.0
 47
0.0
 47
0.0
 47
0.0
 47
0.0208333333333333
 47
0.0
 47
0.0
 47
0.0
 47
0.0
 47
1.0
 47
0.0
 47
0.0
 47
0.0
 47
0.0
 47
1.0
171
     0
 49
0.0208333333333333
 49
0.0
 49
0.0
 49
0.0
 49
0.0
 49
0.0208333333333333
 49
0.0
 49
0.0
 49
0.0
 49
0.0
 49
1.0
 49
0.0
 49
0.0
 49
0.0
 49
0.0
 49
1.0
175
     0
142
0.0208333333333333
142
0.0
142
0.0
142
0.0
142
0.0
142
0.0208333333333333
142
0.0
142
0.0
142
0.0
142
0.0
142
1.0
142
0.0
142
0.0
142
0.0
142
0.0
142
1.0
179
     0
144
0.0208333333333333
144
0.0
144
0.0
144
0.0
144
0.0
144
0.0208333333333333
144
0.0
144
0.0
144
0.0
144
0.0
144
1.0
144
0.0
144
0.0
144
0.0
144
0.0
144
1.0
147
0.0208333333333333
147
0.0
147
0.0
147
0.0
147
0.0
147
0.0208333333333333
147
0.0
147
0.0
147
0.0
147
0.0
147
1.0
147
0.0
147
0.0
147
0.0
147
0.0
147
1.0
  0
MLEADERSTYLE
  5
595
102
{ACAD_REACTORS
330
594
102
}
330
594
100
AcDbMLeaderStyle
170
     2
171
     1
172
     0
 90
        2
 40
0.0
 41
0.0
173
     1
 91
-1056964608
340
589
 92
       -2
290
     1
 42
0.09
291
     1
 43
0.36
  3
Standard
 44
0.18
300

342
584
174
     1
178
     6
175
     1
176
     0
 93
-1056964608
 45
0.18
292
     0
297
     0
 46
0.18
 94
-1056964608
 47
1.0
 49
1.0
140
1.0
293
     1
141
0.0
294
     1
177
     0
142
1.0
295
     0
296
     0
143
0.125
1001
ACAD_MLEADERVER
1070
     2
  0
MLINESTYLE
  5
58E
102
{ACAD_REACTORS
330
58D
102
}
330
58D
100
AcDbMlineStyle
  2
STANDARD
 70
     0
  3

 62
   256
 51
90.0
 52
90.0
 71
     2
 49
0.5
 62
   256
  6
BYLAYER
 49
-0.5
 62
   256
  6
BYLAYER
  0
ACDBPLACEHOLDER
  5
53E
102
{ACAD_REACTORS
330
53D
102
}
330
53D
  0
SCALE
  5
572
102
{ACAD_REACTORS
330
571
102
}
330
571
100
AcDbScale
 70
     0
300
1:1
140
1.0
141
1.0
290
     1
  0
SCALE
  5
573
102
{ACAD_REACTORS
330
571
102
}
330
571
100
AcDbScale
 70
     0
300
1/128" = 1'-0"
140
0.0078125
141
12.0
290
     0
  0
SCALE
  5
574
102
{ACAD_REACTORS
330
571
102
}
330
571
100
AcDbScale
 70
     0
300
1/64" = 1'-0"
140
0.015625
141
12.0
290
     0
  0
SCALE
  5
575
102
{ACAD_REACTORS
330
571
102
}
330
571
100
AcDbScale
 70
     0
300
1/32" = 1'-0"
140
0.03125
141
12.0
290
     0
  0
SCALE
  5
576
102
{ACAD_REACTORS
330
571
102
}
330
571
100
AcDbScale
 70
     0
300
1/16" = 1'-0"
140
0.0625
141
12.0
290
     0
  0
SCALE
  5
577
102
{ACAD_REACTORS
330
571
102
}
330
571
100
AcDbScale
 70
     0
300
3/32" = 1'-0"
140
0.09375
141
12.0
290
     0
  0
SCALE
  5
578
102
{ACAD_REACTORS
330
571
102
}
330
571
100
AcDbScale
 70
     0
300
1/8" = 1'-0"
140
0.125
141
12.0
290
     0
  0
SCALE
  5
579
102
{ACAD_REACTORS
330
571
102
}
330
571
100
AcDbScale
 70
     0
300
3/16" = 1'-0"
140
0.1875
141
12.0
290
     0
  0
SCALE
  5
57A
102
{ACAD_REACTORS
330
571
102
}
330
571
100
AcDbScale
 70
     0
300
1/4" = 1'-0"
140
0.25
141
12.0
290
     0
  0
SCALE
  5
57B
102
{ACAD_REACTORS
330
571
102
}
330
571
100
AcDbScale
 70
     0
300
3/8" = 1'-0"
140
0.375
141
12.0
290
     0
  0
SCALE
  5
57C
102
{ACAD_REACTORS
330
571
102
}
330
571
100
AcDbScale
 70
     0
300
1/2" = 1'-0"
140
0.5
141
12.0
290
     0
  0
SCALE
  5
57D
102
{ACAD_REACTORS
330
571
102
}
330
571
100
AcDbScale
 70
     0
300
3/4" = 1'-0"
140
0.75
141
12.0
290
     0
  0
SCALE
  5
57E
102
{ACAD_REACTORS
330
571
102
}
330
571
100
AcDbScale
 70
     0
300
1" = 1'-0"
140
1.0
141
12.0
290
     0
  0
SCALE
  5
57F
102
{ACAD_REACTORS
330
571
102
}
330
571
100
AcDbScale
 70
     0
300
1-1/2" = 1'-0"
140
1.5
141
12.0
290
     0
  0
SCALE
  5
580
102
{ACAD_REACTORS
330
571
102
}
330
571
100
AcDbScale
 70
     0
300
3" = 1'-0"
140
3.0
141
12.0
290
     0
  0
SCALE
  5
581
102
{ACAD_REACTORS
330
571
102
}
330
571
100
AcDbScale
 70
     0
300
6" = 1'-0"
140
6.0
141
12.0
290
     0
  0
SCALE
  5
582
102
{ACAD_REACTORS
330
571
102
}
330
571
100
AcDbScale
 70
     0
300
1'-0" = 1'-0"
140
12.0
141
12.0
290
     0
  0
ACDBSECTIONVIEWSTYLE
  5
597
102
{ACAD_XDICTIONARY
360
601
102
}
102
{ACAD_REACTORS
330
596
102
}
330
596
100
AcDbModelDocViewStyle
 70
     0
  3
Imperial24
290
     0
100
AcDbSectionViewStyle
 70
     0
 71
     0
 90
       78
 71
     1
340
584
 62
   256
 40
0.24
340
0
340
0
 62
   256
 40
0.24
300
I, O, Q, S, X, Z
 40
0.48
 90
        3
 40
0.18
 90
        1
 71
     2
340
58B
 90
       25
 62
   256
340
58B
 90
       50
 62
   256
 40
0.24
 40
0.0
 40
0.24
 71
     3
340
584
 62
   256
 40
0.24
 90
        1
 40
0.75
 90
        1
300
%<\AcVar ViewType \f "%tc1">% %<\AcVar ViewSectionStartId>%-%<\AcVar ViewSectionEndId>%\PSCALE %<\AcVar ViewScale \f "%sn">%
 71
     4
 62
   256
 62
   257
300
ANSI31
 40
1.0
 90
        0
290
     0
290
     0
 90
        6
 40
0.0
 40
1.570796326794896
 40
0.2617993877991494
 40
1.308996938995747
 40
-0.2617993877991494
 40
1.832595714594046
  0
TABLESTYLE
  5
593
102
{ACAD_XDICTIONARY
360
5C9
102
}
102
{ACAD_REACTORS
330
592
102
}
330
592
100
AcDbTableStyle
  3
Standard
 70
     0
 71
     0
 40
0.06
 41
0.06
280
     0
281
     0
  7
STANDARD
140
0.18
170
     2
 62
     0
 63
     7
283
     0
274
    -2
284
     1
 64
     0
275
    -2
285
     1
 65
     0
276
    -2
286
     1
 66
     0
277
    -2
287
     1
 67
     0
278
    -2
288
     1
 68
     0
279
    -2
289
     1
 69
     0
  7
STANDARD
140
0.25
170
     5
 62
     0
 63
     7
283
     0
274
    -2
284
     1
 64
     0
275
    -2
285
     1
 65
     0
276
    -2
286
     1
 66
     0
277
    -2
287
     1
 67
     0
278
    -2
288
     1
 68
     0
279
    -2
289
     1
 69
     0
  7
STANDARD
140
0.18
170
     5
 62
     0
 63
     7
283
     0
274
    -2
284
     1
 64
     0
275
    -2
285
     1
 65
     0
276
    -2
286
     1
 66
     0
277
    -2
287
     1
 67
     0
278
    -2
288
     1
 68
     0
279
    -2
289
     1
 69
     0
  0
VISUALSTYLE
  5
55E
102
{ACAD_XDICTIONARY
360
5D9
102
}
102
{ACAD_REACTORS
330
558
102
}
330
558
100
AcDbVisualStyle
  2
2dWireframe
 70
     4
 71
     0
 72
     2
 73
     0
 90
        0
 40
-0.6
 41
-30.0
 62
     5
 63
     7
421
 16777215
 74
     1
 91
        4
 64
     7
 65
   257
 75
     1
175
     1
 42
1.0
 92
        0
 66
   257
 43
1.0
 76
     1
 77
     6
 78
     2
 67
     7
 79
     5
170
     0
171
     0
290
     0
174
     0
 93
        1
 44
0.0
173
     0
291
     0
 45
0.0
1001
ACAD
1000
AcDbSavedByObjectVersion
1070
     0
  0
VISUALSTYLE
  5
55D
102
{ACAD_XDICTIONARY
360
5D7
102
}
102
{ACAD_REACTORS
330
558
102
}
330
558
100
AcDbVisualStyle
  2
Basic
 70
     7
 71
     1
 72
     0
 73
     1
 90
        0
 40
-0.6
 41
-30.0
 62
     5
 63
     7
421
 16777215
 74
     0
 91
        4
 64
     7
 65
   257
 75
     1
175
     1
 42
1.0
 92
        8
 66
     7
 43
1.0
 76
     1
 77
     6
 78
     2
 67
     7
 79
     5
170
     0
171
     0
290
     0
174
     0
 93
        1
 44
0.0
173
     0
291
     1
 45
0.0
1001
ACAD
1000
AcDbSavedByObjectVersion
1070
     0
  0
VISUALSTYLE
  5
564
102
{ACAD_XDICTIONARY
360
5E5
102
}
102
{ACAD_REACTORS
330
558
102
}
330
558
100
AcDbVisualStyle
  2
Brighten
 70
    12
 71
     2
 72
     2
 73
     0
 90
        0
 40
-0.6
 41
-30.0
 62
     5
 63
     7
421
 16777215
 74
     1
 91
        4
 64
     7
 65
   257
 75
     1
175
     1
 42
1.0
 92
        8
 66
     7
 43
1.0
 76
     1
 77
     6
 78
     2
 67
     7
 79
     5
170
     0
171
     0
290
     0
174
     0
 93
        1
 44
50.0
173
     0
291
     1
 45
0.0
1001
ACAD
1000
AcDbSavedByObjectVersion
1070
     0
  0
VISUALSTYLE
  5
568
102
{ACAD_XDICTIONARY
360
5ED
102
}
102
{ACAD_REACTORS
330
558
102
}
330
558
100
AcDbVisualStyle
  2
ColorChange
 70
    16
 71
     2
 72
     2
 73
     3
 90
        0
 40
-0.6
 41
-30.0
 62
     5
 63
     8
421
  8421504
 74
     1
 91
        4
 64
     7
 65
   257
 75
     1
175
     1
 42
1.0
 92
        8
 66
     8
424
  8421504
 43
1.0
 76
     1
 77
     6
 78
     2
 67
     7
 79
     5
170
     0
171
     0
290
     0
174
     0
 93
        1
 44
0.0
173
     0
291
     1
 45
0.0
1001
ACAD
1000
AcDbSavedByObjectVersion
1070
     0
  0
VISUALSTYLE
  5
561
102
{ACAD_XDICTIONARY
360
5DF
102
}
102
{ACAD_REACTORS
330
558
102
}
330
558
100
AcDbVisualStyle
  2
Conceptual
 70
     9
 71
     3
 72
     2
 73
     0
 90
        0
 40
-0.6
 41
-30.0
 62
     5
 63
     7
421
 16777215
 74
     2
 91
        2
 64
     7
 65
   257
 75
     1
175
     1
 42
179.0
 92
        8
 66
     7
 43
1.0
 76
     1
 77
     6
 78
     2
 67
     7
 79
     3
170
     0
171
     0
290
     0
174
     0
 93
        1
 44
0.0
173
     0
291
     0
 45
0.0
1001
ACAD
1000
AcDbSavedByObjectVersion
1070
     0
  0
VISUALSTYLE
  5
563
102
{ACAD_XDICTIONARY
360
5E3
102
}
102
{ACAD_REACTORS
330
558
102
}
330
558
100
AcDbVisualStyle
  2
Dim
 70
    11
 71
     2
 72
     2
 73
     0
 90
        0
 40
-0.6
 41
-30.0
 62
     5
 63
     7
421
 16777215
 74
     1
 91
        4
 64
     7
 65
   257
 75
     1
175
     1
 42
1.0
 92
        8
 66
     7
 43
1.0
 76
     1
 77
     6
 78
     2
 67
     7
 79
     5
170
     0
171
     0
290
     0
174
     0
 93
        1
 44
-50.0
173
     0
291
     1
 45
0.0
1001
ACAD
1000
AcDbSavedByObjectVersion
1070
     0
  0
VISUALSTYLE
  5
570
102
{ACAD_XDICTIONARY
360
5FD
102
}
102
{ACAD_REACTORS
330
558
102
}
330
558
100
AcDbVisualStyle
  2
EdgeColorOff
 70
    22
 71
     2
 72
     2
 73
     0
 90
        0
 40
-0.6
 41
-30.0
 62
     5
 63
     7
421
 16777215
 74
     1
 91
        4
 64
     7
 65
   257
 75
     1
175
     1
 42
1.0
 92
        8
 66
     7
 43
1.0
 76
     1
 77
     6
 78
     2
 67
     7
 79
     5
170
     0
171
     0
290
     0
174
     0
 93
        1
 44
0.0
173
     0
291
     1
 45
0.0
1001
ACAD
1000
AcDbSavedByObjectVersion
1070
     0
  0
VISUALSTYLE
  5
567
102
{ACAD_XDICTIONARY
360
5EB
102
}
102
{ACAD_REACTORS
330
558
102
}
330
558
100
AcDbVisualStyle
  2
Facepattern
 70
    15
 71
     2
 72
     2
 73
     0
 90
        0
 40
-0.6
 41
-30.0
 62
     5
 63
     7
421
 16777215
 74
     1
 91
        4
 64
     7
 65
   257
 75
     1
175
     1
 42
1.0
 92
        8
 66
     7
 43
1.0
 76
     1
 77
     6
 78
     2
 67
     7
 79
     5
170
     0
171
     0
290
     0
174
     0
 93
        1
 44
0.0
173
     0
291
     1
 45
0.0
1001
ACAD
1000
AcDbSavedByObjectVersion
1070
     0
  0
VISUALSTYLE
  5
559
102
{ACAD_XDICTIONARY
360
5CF
102
}
102
{ACAD_REACTORS
330
558
102
}
330
558
100
AcDbVisualStyle
  2
Flat
 70
     0
 71
     2
 72
     1
 73
     1
 90
        2
 40
-0.6
 41
30.0
 62
     5
 63
     7
421
 16777215
 74
     0
 91
        0
 64
     7
 65
   257
 75
     1
175
     1
 42
1.0
 92
        8
 66
     7
 43
1.0
 76
     1
 77
     6
 78
     2
 67
     7
 79
     5
170
     0
171
     0
290
     0
174
     0
 93
       13
 44
0.0
173
     0
291
     1
 45
0.0
1001
ACAD
1000
AcDbSavedByObjectVersion
1070
     0
  0
VISUALSTYLE
  5
55A
102
{ACAD_XDICTIONARY
360
5D1
102
}
102
{ACAD_REACTORS
330
558
102
}
330
558
100
AcDbVisualStyle
  2
FlatWithEdges
 70
     1
 71
     2
 72
     1
 73
     1
 90
        2
 40
-0.6
 41
30.0
 62
     5
 63
     7
421
 16777215
 74
     1
 91
        0
 64
     7
 65
   257
 75
     1
175
     1
 42
1.0
 92
        0
 66
   257
 43
1.0
 76
     1
 77
     6
 78
     2
 67
     7
 79
     5
170
     0
171
     0
290
     0
174
     0
 93
       13
 44
0.0
173
     0
291
     1
 45
0.0
1001
ACAD
1000
AcDbSavedByObjectVersion
1070
     0
  0
VISUALSTYLE
  5
55B
102
{ACAD_XDICTIONARY
360
5D3
102
}
102
{ACAD_REACTORS
330
558
102
}
330
558
100
AcDbVisualStyle
  2
Gouraud
 70
     2
 71
     2
 72
     2
 73
     1
 90
        2
 40
-0.6
 41
30.0
 62
     5
 63
     7
421
 16777215
 74
     0
 91
        0
 64
     7
 65
   257
 75
     1
175
     1
 42
1.0
 92
        0
 66
     7
 43
1.0
 76
     1
 77
     6
 78
     2
 67
     7
 79
     5
170
     0
171
     0
290
     0
174
     0
 93
       13
 44
0.0
173
     0
291
     1
 45
0.0
1001
ACAD
1000
AcDbSavedByObjectVersion
1070
     0
  0
VISUALSTYLE
  5
55C
102
{ACAD_XDICTIONARY
360
5D5
102
}
102
{ACAD_REACTORS
330
558
102
}
330
558
100
AcDbVisualStyle
  2
GouraudWithEdges
 70
     3
 71
     2
 72
     2
 73
     1
 90
        2
 40
-0.6
 41
30.0
 62
     5
 63
     7
421
 16777215
 74
     1
 91
        0
 64
     7
 65
   257
 75
     1
175
     1
 42
1.0
 92
        0
 66
   257
 43
1.0
 76
     1
 77
     6
 78
     2
 67
     7
 79
     5
170
     0
171
     0
290
     0
174
     0
 93
       13
 44
0.0
173
     0
291
     1
 45
0.0
1001
ACAD
1000
AcDbSavedByObjectVersion
1070
     0
  0
VISUALSTYLE
  5
560
102
{ACAD_XDICTIONARY
360
5DD
102
}
102
{ACAD_REACTORS
330
558
102
}
330
558
100
AcDbVisualStyle
  2
Hidden
 70
     6
 71
     1
 72
     2
 73
     2
 90
        0
 40
-0.6
 41
-30.0
 62
     5
 63
     7
421
 16777215
 74
     2
 91
        2
 64
     7
 65
   257
 75
     2
175
     1
 42
40.0
 92
        0
 66
   257
 43
1.0
 76
     1
 77
     6
 78
     2
 67
     7
 79
     3
170
     0
171
     0
290
     0
174
     0
 93
        1
 44
0.0
173
     0
291
     0
 45
0.0
1001
ACAD
1000
AcDbSavedByObjectVersion
1070
     0
  0
VISUALSTYLE
  5
56E
102
{ACAD_XDICTIONARY
360
5F9
102
}
102
{ACAD_REACTORS
330
558
102
}
330
558
100
AcDbVisualStyle
  2
JitterOff
 70
    20
 71
     2
 72
     2
 73
     0
 90
        0
 40
-0.6
 41
-30.0
 62
     5
 63
     7
421
 16777215
 74
     1
 91
        4
 64
     7
 65
   257
 75
     1
175
     1
 42
1.0
 92
       10
 66
     7
 43
1.0
 76
     1
 77
     6
 78
     2
 67
     7
 79
     5
170
     0
171
     0
290
     0
174
     0
 93
        1
 44
0.0
173
     0
291
     1
 45
0.0
1001
ACAD
1000
AcDbSavedByObjectVersion
1070
     0
  0
VISUALSTYLE
  5
566
102
{ACAD_XDICTIONARY
360
5E9
102
}
102
{ACAD_REACTORS
330
558
102
}
330
558
100
AcDbVisualStyle
  2
Linepattern
 70
    14
 71
     2
 72
     2
 73
     0
 90
        0
 40
-0.6
 41
-30.0
 62
     5
 63
     7
421
 16777215
 74
     1
 91
        4
 64
     7
 65
   257
 75
     7
175
     7
 42
1.0
 92
        8
 66
     7
 43
1.0
 76
     1
 77
     6
 78
     2
 67
     7
 79
     5
170
     0
171
     0
290
     0
174
     0
 93
        1
 44
0.0
173
     0
291
     1
 45
0.0
1001
ACAD
1000
AcDbSavedByObjectVersion
1070
     0
  0
VISUALSTYLE
  5
56F
102
{ACAD_XDICTIONARY
360
5FB
102
}
102
{ACAD_REACTORS
330
558
102
}
330
558
100
AcDbVisualStyle
  2
OverhangOff
 70
    21
 71
     2
 72
     2
 73
     0
 90
        0
 40
-0.6
 41
-30.0
 62
     5
 63
     7
421
 16777215
 74
     1
 91
        4
 64
     7
 65
   257
 75
     1
175
     1
 42
1.0
 92
        9
 66
     7
 43
1.0
 76
     1
 77
     6
 78
     2
 67
     7
 79
     5
170
     0
171
     0
290
     0
174
     0
 93
        1
 44
0.0
173
     0
291
     1
 45
0.0
1001
ACAD
1000
AcDbSavedByObjectVersion
1070
     0
  0
VISUALSTYLE
  5
562
102
{ACAD_XDICTIONARY
360
5E1
102
}
102
{ACAD_REACTORS
330
558
102
}
330
558
100
AcDbVisualStyle
  2
Realistic
 70
     8
 71
     2
 72
     3
 73
     0
 90
        2
 40
-0.6
 41
30.0
 62
     5
 63
     7
421
 16777215
 74
     0
 91
        0
 64
     7
 65
   257
 75
     1
175
     1
 42
1.0
 92
        8
 66
   257
 43
1.0
 76
     1
 77
     6
 78
     2
 67
     7
 79
     3
170
     0
171
     0
290
     0
174
     0
 93
       13
 44
0.0
173
     0
291
     0
 45
0.0
1001
ACAD
1000
AcDbSavedByObjectVersion
1070
     0
  0
VISUALSTYLE
  5
56D
102
{ACAD_XDICTIONARY
360
5F7
102
}
102
{ACAD_REACTORS
330
558
102
}
330
558
100
AcDbVisualStyle
  2
Shaded
 70
    27
 71
     2
 72
     2
 73
     1
 90
        2
 40
-0.6
 41
30.0
 62
     5
 63
     7
421
 16777215
 74
     0
 91
        4
 64
     7
 65
   257
 75
     1
175
     1
 42
1.0
 92
        8
 66
   257
 43
1.0
 76
     1
 77
     6
 78
     2
 67
     8
425
  7895160
 79
     3
170
     0
171
     0
290
     0
174
     0
 93
        5
 44
0.0
173
     0
291
     0
 45
0.0
1001
ACAD
1000
AcDbSavedByObjectVersion
1070
     0
  0
VISUALSTYLE
  5
56C
102
{ACAD_XDICTIONARY
360
5F5
102
}
102
{ACAD_REACTORS
330
558
102
}
330
558
100
AcDbVisualStyle
  2
Shaded with edges
 70
    26
 71
     2
 72
     2
 73
     1
 90
        2
 40
-0.6
 41
30.0
 62
     5
 63
     7
421
 16777215
 74
     1
 91
        2
 64
     7
 65
   257
 75
     2
175
     1
 42
1.0
 92
        8
 66
   257
 43
1.0
 76
     1
 77
     6
 78
     2
 67
     7
 79
     3
170
     0
171
     0
290
     0
174
     0
 93
        5
 44
0.0
173
     0
291
     0
 45
0.0
1001
ACAD
1000
AcDbSavedByObjectVersion
1070
     0
  0
VISUALSTYLE
  5
569
102
{ACAD_XDICTIONARY
360
5EF
102
}
102
{ACAD_REACTORS
330
558
102
}
330
558
100
AcDbVisualStyle
  2
Shades of Gray
 70
    23
 71
     2
 72
     2
 73
     3
 90
        0
 40
-0.6
 41
-30.0
 62
     5
 63
     7
421
 16777215
 74
     2
 91
        2
 64
     7
 65
     7
 75
     1
175
     1
 42
40.0
 92
        8
 66
     7
 43
1.0
 76
     1
 77
     6
 78
     2
 67
     7
 79
     3
170
     0
171
     0
290
     0
174
     0
 93
        1
 44
0.0
173
     0
291
     0
 45
0.0
1001
ACAD
1000
AcDbSavedByObjectVersion
1070
     0
  0
VISUALSTYLE
  5
56A
102
{ACAD_XDICTIONARY
360
5F1
102
}
102
{ACAD_REACTORS
330
558
102
}
330
558
100
AcDbVisualStyle
  2
Sketchy
 70
    24
 71
     1
 72
     2
 73
     2
 90
        0
 40
-0.6
 41
-30.0
 62
     5
 63
     7
421
 16777215
 74
     2
 91
        2
 64
     7
 65
     7
 75
     1
175
     1
 42
40.0
 92
       11
 66
     7
 43
1.0
 76
     1
 77
     6
 78
     2
 67
     7
 79
     6
170
     0
171
     0
290
     0
174
     0
 93
        1
 44
0.0
173
     0
291
     0
 45
0.0
1001
ACAD
1000
AcDbSavedByObjectVersion
1070
     0
  0
VISUALSTYLE
  5
565
102
{ACAD_XDICTIONARY
360
5E7
102
}
102
{ACAD_REACTORS
330
558
102
}
330
558
100
AcDbVisualStyle
  2
Thicken
 70
    13
 71
     2
 72
     2
 73
     0
 90
        0
 40
-0.6
 41
-30.0
 62
     5
 63
     7
421
 16777215
 74
     1
 91
        4
 64
     7
 65
   257
 75
     1
175
     1
 42
1.0
 92
       12
 66
     7
 43
1.0
 76
     1
 77
     6
 78
     2
 67
     7
 79
     5
170
     0
171
     0
290
     0
174
     0
 93
        1
 44
0.0
173
     0
291
     1
 45
0.0
1001
ACAD
1000
AcDbSavedByObjectVersion
1070
     0
  0
VISUALSTYLE
  5
55F
102
{ACAD_XDICTIONARY
360
5DB
102
}
102
{ACAD_REACTORS
330
558
102
}
330
558
100
AcDbVisualStyle
  2
Wireframe
 70
     5
 71
     0
 72
     2
 73
     0
 90
        0
 40
-0.6
 41
-30.0
 62
     5
 63
     7
421
 16777215
 74
     1
 91
        4
 64
     7
 65
   257
 75
     1
175
     1
 42
1.0
 92
        0
 66
   257
 43
1.0
 76
     1
 77
     6
 78
     2
 67
     7
 79
     3
170
     0
171
     0
290
     0
174
     0
 93
        1
 44
0.0
173
     0
291
     0
 45
0.0
1001
ACAD
1000
AcDbSavedByObjectVersion
1070
     0
  0
VISUALSTYLE
  5
56B
102
{ACAD_XDICTIONARY
360
5F3
102
}
102
{ACAD_REACTORS
330
558
102
}
330
558
100
AcDbVisualStyle
  2
X-Ray
 70
    25
 71
     2
 72
     2
 73
     1
 90
        1
 40
0.5
 41
-30.0
 62
     5
 63
     7
421
 16777215
 74
     1
 91
        0
 64
     7
 65
   257
 75
     1
175
     1
 42
1.0
 92
        8
 66
     7
 43
1.0
 76
     1
 77
     6
 78
     2
 67
     7
 79
     3
170
     0
171
     0
290
     0
174
     0
 93
       13
 44
0.0
173
     0
291
     0
 45
0.0
1001
ACAD
1000
AcDbSavedByObjectVersion
1070
     0
  0
DICTIONARYVAR
  5
5C6
102
{ACAD_REACTORS
330
5C1
102
}
330
5C1
100
DictionaryVariables
280
     0
  1
1:1
  0
DICTIONARYVAR
  5
5C3
102
{ACAD_REACTORS
330
5C1
102
}
330
5C1
100
DictionaryVariables
280
     0
  1
STANDARD
  0
DICTIONARYVAR
  5
5C2
102
{ACAD_REACTORS
330
5C1
102
}
330
5C1
100
DictionaryVariables
280
     0
  1
STANDARD
  0
DICTIONARYVAR
  5
5C4
102
{ACAD_REACTORS
330
5C1
102
}
330
5C1
100
DictionaryVariables
280
     0
  1
Imperial24
  0
DICTIONARYVAR
  5
5C5
102
{ACAD_REACTORS
330
5C1
102
}
330
5C1
100
DictionaryVariables
280
     0
  1
Imperial24
  0
DICTIONARYVAR
  5
5C7
102
{ACAD_REACTORS
330
5C1
102
}
330
5C1
100
DictionaryVariables
280
     0
  1
2
  0
DICTIONARY
  5
603
330
599
100
AcDbDictionary
280
     1
281
     1
  3
ACAD_XREC_ROUNDTRIP
360
604
  0
DICTIONARY
  5
549
330
548
100
AcDbDictionary
280
     1
281
     1
  3
ACAD_XREC_ROUNDTRIP
360
5CD
  3
BUMPTILE
360
54B
  3
DIFFUSETILE
360
54A
  3
OPACITYTILE
360
54E
  3
REFLECTIONTILE
360
54D
  3
REFRACTIONTILE
360
54F
  3
SPECULARTILE
360
54C
  0
DICTIONARY
  5
541
330
540
100
AcDbDictionary
280
     1
281
     1
  3
ACAD_XREC_ROUNDTRIP
360
5CC
  3
BUMPTILE
360
543
  3
DIFFUSETILE
360
542
  3
OPACITYTILE
360
546
  3
REFLECTIONTILE
360
545
  3
REFRACTIONTILE
360
547
  3
SPECULARTILE
360
544
  0
DICTIONARY
  5
551
330
550
100
AcDbDictionary
280
     1
281
     1
  3
ACAD_XREC_ROUNDTRIP
360
5CE
  3
BUMPTILE
360
553
  3
DIFFUSETILE
360
552
  3
OPACITYTILE
360
556
  3
REFLECTIONTILE
360
555
  3
REFRACTIONTILE
360
557
  3
SPECULARTILE
360
554
  0
DICTIONARY
  5
601
330
597
100
AcDbDictionary
280
     1
281
     1
  3
ACAD_XREC_ROUNDTRIP
360
602
  0
DICTIONARY
  5
5C9
330
593
100
AcDbDictionary
280
     1
281
     1
  3
ACAD_ROUNDTRIP_2008_TABLESTYLE_CELLSTYLEMAP
360
5CA
  3
ACAD_XREC_ROUNDTRIP
360
5FF
  0
DICTIONARY
  5
5D9
330
55E
100
AcDbDictionary
280
     1
281
     1
  3
ACAD_XREC_ROUNDTRIP
360
5DA
  0
DICTIONARY
  5
5D7
330
55D
100
AcDbDictionary
280
     1
281
     1
  3
ACAD_XREC_ROUNDTRIP
360
5D8
  0
DICTIONARY
  5
5E5
330
564
100
AcDbDictionary
280
     1
281
     1
  3
ACAD_XREC_ROUNDTRIP
360
5E6
  0
DICTIONARY
  5
5ED
330
568
100
AcDbDictionary
280
     1
281
     1
  3
ACAD_XREC_ROUNDTRIP
360
5EE
  0
DICTIONARY
  5
5DF
330
561
100
AcDbDictionary
280
     1
281
     1
  3
ACAD_XREC_ROUNDTRIP
360
5E0
  0
DICTIONARY
  5
5E3
330
563
100
AcDbDictionary
280
     1
281
     1
  3
ACAD_XREC_ROUNDTRIP
360
5E4
  0
DICTIONARY
  5
5FD
330
570
100
AcDbDictionary
280
     1
281
     1
  3
ACAD_XREC_ROUNDTRIP
360
5FE
  0
DICTIONARY
  5
5EB
330
567
100
AcDbDictionary
280
     1
281
     1
  3
ACAD_XREC_ROUNDTRIP
360
5EC
  0
DICTIONARY
  5
5CF
330
559
100
AcDbDictionary
280
     1
281
     1
  3
ACAD_XREC_ROUNDTRIP
360
5D0
  0
DICTIONARY
  5
5D1
330
55A
100
AcDbDictionary
280
     1
281
     1
  3
ACAD_XREC_ROUNDTRIP
360
5D2
  0
DICTIONARY
  5
5D3
330
55B
100
AcDbDictionary
280
     1
281
     1
  3
ACAD_XREC_ROUNDTRIP
360
5D4
  0
DICTIONARY
  5
5D5
330
55C
100
AcDbDictionary
280
     1
281
     1
  3
ACAD_XREC_ROUNDTRIP
360
5D6
  0
DICTIONARY
  5
5DD
330
560
100
AcDbDictionary
280
     1
281
     1
  3
ACAD_XREC_ROUNDTRIP
360
5DE
  0
DICTIONARY
  5
5F9
330
56E
100
AcDbDictionary
280
     1
281
     1
  3
ACAD_XREC_ROUNDTRIP
360
5FA
  0
DICTIONARY
  5
5E9
330
566
100
AcDbDictionary
280
     1
281
     1
  3
ACAD_XREC_ROUNDTRIP
360
5EA
  0
DICTIONARY
  5
5FB
330
56F
100
AcDbDictionary
280
     1
281
     1
  3
ACAD_XREC_ROUNDTRIP
360
5FC
  0
DICTIONARY
  5
5E1
330
562
100
AcDbDictionary
280
     1
281
     1
  3
ACAD_XREC_ROUNDTRIP
360
5E2
  0
DICTIONARY
  5
5F7
330
56D
100
AcDbDictionary
280
     1
281
     1
  3
ACAD_XREC_ROUNDTRIP
360
5F8
  0
DICTIONARY
  5
5F5
330
56C
100
AcDbDictionary
280
     1
281
     1
  3
ACAD_XREC_ROUNDTRIP
360
5F6
  0
DICTIONARY
  5
5EF
330
569
100
AcDbDictionary
280
     1
281
     1
  3
ACAD_XREC_ROUNDTRIP
360
5F0
  0
DICTIONARY
  5
5F1
330
56A
100
AcDbDictionary
280
     1
281
     1
  3
ACAD_XREC_ROUNDTRIP
360
5F2
  0
DICTIONARY
  5
5E7
330
565
100
AcDbDictionary
280
     1
281
     1
  3
ACAD_XREC_ROUNDTRIP
360
5E8
  0
DICTIONARY
  5
5DB
330
55F
100
AcDbDictionary
280
     1
281
     1
  3
ACAD_XREC_ROUNDTRIP
360
5DC
  0
DICTIONARY
  5
5F3
330
56B
100
AcDbDictionary
280
     1
281
     1
  3
ACAD_XREC_ROUNDTRIP
360
5F4
  0
XRECORD
  5
604
102
{ACAD_REACTORS
330
603
102
}
330
603
100
AcDbXrecord
280
     1
102
DISPLAYNAME
  1
Imperial24
102
FLAGS
 90
        0
  0
XRECORD
  5
5CD
102
{ACAD_REACTORS
330
549
102
}
330
549
100
AcDbXrecord
280
     1
102
MATERIAL
148
0.0
149
0.0
149
0.0
 93
        0
 94
      127
282
     0
 72
     0
 77
     0
171
     0
175
     0
179
     0
273
     0
  0
XRECORD
  5
54B
102
{ACAD_REACTORS
330
549
102
}
330
549
100
AcDbXrecord
280
     1
270
     1
271
     1
  0
XRECORD
  5
54A
102
{ACAD_REACTORS
330
549
102
}
330
549
100
AcDbXrecord
280
     1
270
     1
271
     1
  0
XRECORD
  5
54E
102
{ACAD_REACTORS
330
549
102
}
330
549
100
AcDbXrecord
280
     1
270
     1
271
     1
  0
XRECORD
  5
54D
102
{ACAD_REACTORS
330
549
102
}
330
549
100
AcDbXrecord
280
     1
270
     1
271
     1
  0
XRECORD
  5
54F
102
{ACAD_REACTORS
330
549
102
}
330
549
100
AcDbXrecord
280
     1
270
     1
271
     1
  0
XRECORD
  5
54C
102
{ACAD_REACTORS
330
549
102
}
330
549
100
AcDbXrecord
280
     1
270
     1
271
     1
  0
XRECORD
  5
5CC
102
{ACAD_REACTORS
330
541
102
}
330
541
100
AcDbXrecord
280
     1
102
MATERIAL
148
0.0
149
0.0
149
0.0
 93
        0
 94
      127
282
     0
 72
     0
 77
     0
171
     0
175
     0
179
     0
273
     0
  0
XRECORD
  5
543
102
{ACAD_REACTORS
330
541
102
}
330
541
100
AcDbXrecord
280
     1
270
     1
271
     1
  0
XRECORD
  5
542
102
{ACAD_REACTORS
330
541
102
}
330
541
100
AcDbXrecord
280
     1
270
     1
271
     1
  0
XRECORD
  5
546
102
{ACAD_REACTORS
330
541
102
}
330
541
100
AcDbXrecord
280
     1
270
     1
271
     1
  0
XRECORD
  5
545
102
{ACAD_REACTORS
330
541
102
}
330
541
100
AcDbXrecord
280
     1
270
     1
271
     1
  0
XRECORD
  5
547
102
{ACAD_REACTORS
330
541
102
}
330
541
100
AcDbXrecord
280
     1
270
     1
271
     1
  0
XRECORD
  5
544
102
{ACAD_REACTORS
330
541
102
}
330
541
100
AcDbXrecord
280
     1
270
     1
271
     1
  0
XRECORD
  5
5CE
102
{ACAD_REACTORS
330
551
102
}
330
551
100
AcDbXrecord
280
     1
102
MATERIAL
148
0.0
149
0.0
149
0.0
 93
        0
 94
      127
282
     0
 72
     0
 77
     0
171
     0
175
     0
179
     0
273
     0
  0
XRECORD
  5
553
102
{ACAD_REACTORS
330
551
102
}
330
551
100
AcDbXrecord
280
     1
270
     1
271
     1
  0
XRECORD
  5
552
102
{ACAD_REACTORS
330
551
102
}
330
551
100
AcDbXrecord
280
     1
270
     1
271
     1
  0
XRECORD
  5
556
102
{ACAD_REACTORS
330
551
102
}
330
551
100
AcDbXrecord
280
     1
270
     1
271
     1
  0
XRECORD
  5
555
102
{ACAD_REACTORS
330
551
102
}
330
551
100
AcDbXrecord
280
     1
270
     1
271
     1
  0
XRECORD
  5
557
102
{ACAD_REACTORS
330
551
102
}
330
551
100
AcDbXrecord
280
     1
270
     1
271
     1
  0
XRECORD
  5
554
102
{ACAD_REACTORS
330
551
102
}
330
551
100
AcDbXrecord
280
     1
270
     1
271
     1
  0
XRECORD
  5
602
102
{ACAD_REACTORS
330
601
102
}
330
601
100
AcDbXrecord
280
     1
102
DISPLAYNAME
  1
Imperial24
102
FLAGS
 90
        0
  0
CELLSTYLEMAP
  5
5CA
102
{ACAD_REACTORS
330
5C9
102
}
330
5C9
100
AcDbCellStyleMap
 90
        3
300
CELLSTYLE
  1
TABLEFORMAT_BEGIN
 90
        5
170
     1
 91
        0
 92
    32768
 62
   257
 93
        1
300
CONTENTFORMAT
  1
CONTENTFORMAT_BEGIN
 90
        0
 91
        0
 92
      512
 93
        0
300

 40
0.0
140
1.0
 94
        5
 62
     0
340
584
144
0.25
309
CONTENTFORMAT_END
171
     0
 94
        0
309
TABLEFORMAT_END
  1
CELLSTYLE_BEGIN
 90
        1
 91
        1
300
_TITLE
309
CELLSTYLE_END
300
CELLSTYLE
  1
TABLEFORMAT_BEGIN
 90
        5
170
     1
 91
        0
 92
        0
 62
   257
 93
        1
300
CONTENTFORMAT
  1
CONTENTFORMAT_BEGIN
 90
        0
 91
        0
 92
      512
 93
        0
300

 40
0.0
140
1.0
 94
        5
 62
     0
340
584
144
0.18
309
CONTENTFORMAT_END
171
     0
 94
        0
309
TABLEFORMAT_END
  1
CELLSTYLE_BEGIN
 90
        2
 91
        1
300
_HEADER
309
CELLSTYLE_END
300
CELLSTYLE
  1
TABLEFORMAT_BEGIN
 90
        5
170
     1
 91
        0
 92
        0
 62
   257
 93
        1
300
CONTENTFORMAT
  1
CONTENTFORMAT_BEGIN
 90
        0
 91
        0
 92
      512
 93
        0
300

 40
0.0
140
1.0
 94
        2
 62
     0
340
584
144
0.18
309
CONTENTFORMAT_END
171
     0
 94
        0
309
TABLEFORMAT_END
  1
CELLSTYLE_BEGIN
 90
        3
 91
        2
300
_DATA
309
CELLSTYLE_END
  0
XRECORD
  5
5FF
102
{ACAD_REACTORS
330
5C9
102
}
330
5C9
100
AcDbXrecord
280
     1
102
ACAD_ROUNDTRIP_PRE2007_TABLESTYLE
 90
      512
 91
        0
  1

 92
      512
 93
        0
  2

 94
      512
 95
        0
  3

  0
XRECORD
  5
5DA
102
{ACAD_REACTORS
330
5D9
102
}
330
5D9
100
AcDbXrecord
280
     1
102
RTVSPost2010Prop28
280
     1
102
RTVSPost2010PropOp28
 70
     1
102
RTVSPost2010Prop29
280
     1
102
RTVSPost2010PropOp29
 70
     1
102
RTVSPost2010Prop30
280
     0
102
RTVSPost2010PropOp30
 70
     1
102
RTVSPost2010Prop31
280
     0
102
RTVSPost2010PropOp31
 70
     1
102
RTVSPost2010Prop32
280
     0
102
RTVSPost2010PropOp32
 70
     1
102
RTVSPost2010Prop33
280
     0
102
RTVSPost2010PropOp33
 70
     1
102
RTVSPost2010Prop34
280
     0
102
RTVSPost2010PropOp34
 70
     1
102
RTVSPost2010Prop35
280
     0
102
RTVSPost2010PropOp35
 70
     1
102
RTVSPost2010Prop36
280
     0
102
RTVSPost2010PropOp36
 70
     1
102
RTVSPost2010Prop37
 90
       50
102
RTVSPost2010PropOp37
 70
     1
102
RTVSPost2010Prop38
140
0.0
102
RTVSPost2010PropOp38
 70
     1
102
RTVSPost2010Prop39
140
1.0
102
RTVSPost2010PropOp39
 70
     1
102
RTVSPost2010Prop40
 90
        0
102
RTVSPost2010PropOp40
 70
     1
102
RTVSPost2010Prop41ColorIndex
 90
       18
102
RTVSPost2010Prop41ColorRGB
 90
        0
102
RTVSPost2010PropOp41
 70
     1
102
RTVSPost2010Prop42
 90
       50
102
RTVSPost2010PropOp42
 70
     1
102
RTVSPost2010Prop43
 90
        3
102
RTVSPost2010PropOp43
 70
     1
102
RTVSPost2010Prop44ColorIndex
 90
        5
102
RTVSPost2010Prop44ColorRGB
 90
      255
102
RTVSPost2010PropOp44
 70
     1
102
RTVSPost2010Prop45
280
     0
102
RTVSPost2010PropOp45
 70
     1
102
RTVSPost2010Prop46
 90
       50
102
RTVSPost2010PropOp46
 70
     1
102
RTVSPost2010Prop47
 90
       50
102
RTVSPost2010PropOp47
 70
     1
102
RTVSPost2010Prop48
 90
       50
102
RTVSPost2010PropOp48
 70
     1
102
RTVSPost2010Prop49
280
     0
102
RTVSPost2010PropOp49
 70
     1
102
RTVSPost2010Prop50
 90
       50
102
RTVSPost2010PropOp50
 70
     1
102
RTVSPost2010Prop51ColorIndex
 90
      256
102
RTVSPost2010Prop51ColorRGB
 90
-16777216
102
RTVSPost2010PropOp51
 70
     0
102
RTVSPost2010Prop52
140
1.0
102
RTVSPost2010PropOp52
 70
     0
102
RTVSPost2010Prop53
 90
        2
102
RTVSPost2010PropOp53
 70
     1
102
RTVSPost2010Prop54
  1
strokes_ogs.tif
102
RTVSPost2010PropOp54
 70
     1
102
RTVSPost2010Prop55
280
     0
102
RTVSPost2010PropOp55
 70
     1
102
RTVSPost2010Prop56
140
1.0
102
RTVSPost2010PropOp56
 70
     1
102
RTVSPost2010Prop57
140
1.0
102
RTVSPost2010PropOp57
 70
     1
102
RTVSPropertyOp0
 70
     1
102
RTVSPropertyOp1
 70
     1
102
RTVSPropertyOp2
 70
     1
102
RTVSPropertyOp3
 70
     1
102
RTVSPropertyOp4
 70
     1
102
RTVSPropertyOp5
 70
     1
102
RTVSPropertyOp6
 70
     1
102
RTVSPropertyOp7
 70
     1
102
RTVSPropertyOp8
 70
     1
102
RTVSPropertyOp9
 70
     1
102
RTVSPropertyOp10
 70
     1
102
RTVSPropertyOp11
 70
     1
102
RTVSPropertyOp12
 70
     1
102
RTVSPropertyOp13
 70
     1
102
RTVSPropertyOp14
 70
     1
102
RTVSPropertyOp15
 70
     1
102
RTVSPropertyOp16
 70
     1
102
RTVSPropertyOp17
 70
     1
102
RTVSPropertyOp18
 70
     1
102
RTVSPropertyOp19
 70
     1
102
RTVSPropertyOp20
 70
     1
102
RTVSPropertyOp21
 70
     1
102
RTVSPropertyOp22
 70
     1
102
RTVSPropertyOp23
 70
     1
102
RTVSPropertyOp24
 70
     1
102
RTVSPropertyOp25
 70
     1
102
RTVSPropertyOp26
 70
     1
102
RTVSPropertyOp27
 70
     1
102
RTVSPropertyOp28
 70
     1
102
RTVSPropertyOp29
 70
     1
102
RTVSPropertyOp30
 70
     1
102
RTVSPropertyOp31
 70
     1
102
RTVSPropertyOp32
 70
     1
102
RTVSPropertyOp33
 70
     1
102
RTVSPropertyOp34
 70
     1
102
RTVSPropertyOp35
 70
     1
102
RTVSPropertyOp36
 70
     1
102
RTVSPropertyOp37
 70
     1
102
RTVSPropertyOp38
 70
     1
102
RTVSPropertyOp39
 70
     1
102
RTVSPropertyOp40
 70
     1
102
RTVSPropertyOp41
 70
     1
102
RTVSPropertyOp42
 70
     1
102
RTVSPropertyOp43
 70
     1
102
RTVSPropertyOp44
 70
     1
102
RTVSPropertyOp45
 70
     1
102
RTVSPropertyOp46
 70
     1
102
RTVSPropertyOp47
 70
     1
102
RTVSPropertyOp48
 70
     1
102
RTVSPropertyOp49
 70
     1
102
RTVSPropertyOp50
 70
     1
102
RTVSPropertyOp51
 70
     0
102
RTVSPropertyOp52
 70
     0
102
RTVSPropertyOp53
 70
     1
102
RTVSPropertyOp54
 70
     1
102
RTVSPropertyOp55
 70
     1
102
RTVSPropertyOp56
 70
     1
102
RTVSPropertyOp57
 70
     1
102
RTVSPropertyOp58
 70
     1
102
RTVSPropertyOp59
 70
     1
102
RTVSPropertyOp60
 70
     1
102
RTVSPropertyOp61
 70
     1
102
RTVSPropertyOp62
 70
     1
  0
XRECORD
  5
5D8
102
{ACAD_REACTORS
330
5D7
102
}
330
5D7
100
AcDbXrecord
280
     1
102
RTVSPost2010Prop28
280
     0
102
RTVSPost2010PropOp28
 70
     1
102
RTVSPost2010Prop29
280
     1
102
RTVSPost2010PropOp29
 70
     1
102
RTVSPost2010Prop30
280
     1
102
RTVSPost2010PropOp30
 70
     1
102
RTVSPost2010Prop31
280
     0
102
RTVSPost2010PropOp31
 70
     1
102
RTVSPost2010Prop32
280
     0
102
RTVSPost2010PropOp32
 70
     1
102
RTVSPost2010Prop33
280
     0
102
RTVSPost2010PropOp33
 70
     1
102
RTVSPost2010Prop34
280
     0
102
RTVSPost2010PropOp34
 70
     1
102
RTVSPost2010Prop35
280
     0
102
RTVSPost2010PropOp35
 70
     1
102
RTVSPost2010Prop36
280
     0
102
RTVSPost2010PropOp36
 70
     1
102
RTVSPost2010Prop37
 90
       50
102
RTVSPost2010PropOp37
 70
     1
102
RTVSPost2010Prop38
140
0.0
102
RTVSPost2010PropOp38
 70
     1
102
RTVSPost2010Prop39
140
1.0
102
RTVSPost2010PropOp39
 70
     1
102
RTVSPost2010Prop40
 90
        0
102
RTVSPost2010PropOp40
 70
     1
102
RTVSPost2010Prop41ColorIndex
 90
       18
102
RTVSPost2010Prop41ColorRGB
 90
        0
102
RTVSPost2010PropOp41
 70
     1
102
RTVSPost2010Prop42
 90
       50
102
RTVSPost2010PropOp42
 70
     1
102
RTVSPost2010Prop43
 90
        3
102
RTVSPost2010PropOp43
 70
     1
102
RTVSPost2010Prop44ColorIndex
 90
        5
102
RTVSPost2010Prop44ColorRGB
 90
      255
102
RTVSPost2010PropOp44
 70
     1
102
RTVSPost2010Prop45
280
     0
102
RTVSPost2010PropOp45
 70
     1
102
RTVSPost2010Prop46
 90
       50
102
RTVSPost2010PropOp46
 70
     1
102
RTVSPost2010Prop47
 90
       50
102
RTVSPost2010PropOp47
 70
     1
102
RTVSPost2010Prop48
 90
       50
102
RTVSPost2010PropOp48
 70
     1
102
RTVSPost2010Prop49
280
     0
102
RTVSPost2010PropOp49
 70
     1
102
RTVSPost2010Prop50
 90
       50
102
RTVSPost2010PropOp50
 70
     1
102
RTVSPost2010Prop51ColorIndex
 90
      256
102
RTVSPost2010Prop51ColorRGB
 90
-16777216
102
RTVSPost2010PropOp51
 70
     0
102
RTVSPost2010Prop52
140
1.0
102
RTVSPost2010PropOp52
 70
     0
102
RTVSPost2010Prop53
 90
        2
102
RTVSPost2010PropOp53
 70
     1
102
RTVSPost2010Prop54
  1
strokes_ogs.tif
102
RTVSPost2010PropOp54
 70
     1
102
RTVSPost2010Prop55
280
     0
102
RTVSPost2010PropOp55
 70
     1
102
RTVSPost2010Prop56
140
1.0
102
RTVSPost2010PropOp56
 70
     1
102
RTVSPost2010Prop57
140
1.0
102
RTVSPost2010PropOp57
 70
     1
102
RTVSPropertyOp0
 70
     1
102
RTVSPropertyOp1
 70
     1
102
RTVSPropertyOp2
 70
     1
102
RTVSPropertyOp3
 70
     1
102
RTVSPropertyOp4
 70
     1
102
RTVSPropertyOp5
 70
     1
102
RTVSPropertyOp6
 70
     1
102
RTVSPropertyOp7
 70
     1
102
RTVSPropertyOp8
 70
     1
102
RTVSPropertyOp9
 70
     1
102
RTVSPropertyOp10
 70
     1
102
RTVSPropertyOp11
 70
     1
102
RTVSPropertyOp12
 70
     1
102
RTVSPropertyOp13
 70
     1
102
RTVSPropertyOp14
 70
     1
102
RTVSPropertyOp15
 70
     1
102
RTVSPropertyOp16
 70
     1
102
RTVSPropertyOp17
 70
     1
102
RTVSPropertyOp18
 70
     1
102
RTVSPropertyOp19
 70
     1
102
RTVSPropertyOp20
 70
     1
102
RTVSPropertyOp21
 70
     1
102
RTVSPropertyOp22
 70
     1
102
RTVSPropertyOp23
 70
     1
102
RTVSPropertyOp24
 70
     1
102
RTVSPropertyOp25
 70
     1
102
RTVSPropertyOp26
 70
     1
102
RTVSPropertyOp27
 70
     1
102
RTVSPropertyOp28
 70
     1
102
RTVSPropertyOp29
 70
     1
102
RTVSPropertyOp30
 70
     1
102
RTVSPropertyOp31
 70
     1
102
RTVSPropertyOp32
 70
     1
102
RTVSPropertyOp33
 70
     1
102
RTVSPropertyOp34
 70
     1
102
RTVSPropertyOp35
 70
     1
102
RTVSPropertyOp36
 70
     1
102
RTVSPropertyOp37
 70
     1
102
RTVSPropertyOp38
 70
     1
102
RTVSPropertyOp39
 70
     1
102
RTVSPropertyOp40
 70
     1
102
RTVSPropertyOp41
 70
     1
102
RTVSPropertyOp42
 70
     1
102
RTVSPropertyOp43
 70
     1
102
RTVSPropertyOp44
 70
     1
102
RTVSPropertyOp45
 70
     1
102
RTVSPropertyOp46
 70
     1
102
RTVSPropertyOp47
 70
     1
102
RTVSPropertyOp48
 70
     1
102
RTVSPropertyOp49
 70
     1
102
RTVSPropertyOp50
 70
     1
102
RTVSPropertyOp51
 70
     0
102
RTVSPropertyOp52
 70
     0
102
RTVSPropertyOp53
 70
     1
102
RTVSPropertyOp54
 70
     1
102
RTVSPropertyOp55
 70
     1
102
RTVSPropertyOp56
 70
     1
102
RTVSPropertyOp57
 70
     1
102
RTVSPropertyOp58
 70
     1
102
RTVSPropertyOp59
 70
     1
102
RTVSPropertyOp60
 70
     1
102
RTVSPropertyOp61
 70
     1
102
RTVSPropertyOp62
 70
     1
  0
XRECORD
  5
5E6
102
{ACAD_REACTORS
330
5E5
102
}
330
5E5
100
AcDbXrecord
280
     1
102
RTVSPost2010Prop28
280
     0
102
RTVSPost2010PropOp28
 70
     1
102
RTVSPost2010Prop29
280
     1
102
RTVSPost2010PropOp29
 70
     1
102
RTVSPost2010Prop30
280
     1
102
RTVSPost2010PropOp30
 70
     1
102
RTVSPost2010Prop31
280
     0
102
RTVSPost2010PropOp31
 70
     1
102
RTVSPost2010Prop32
280
     0
102
RTVSPost2010PropOp32
 70
     1
102
RTVSPost2010Prop33
280
     0
102
RTVSPost2010PropOp33
 70
     1
102
RTVSPost2010Prop34
280
     0
102
RTVSPost2010PropOp34
 70
     1
102
RTVSPost2010Prop35
280
     0
102
RTVSPost2010PropOp35
 70
     1
102
RTVSPost2010Prop36
280
     0
102
RTVSPost2010PropOp36
 70
     1
102
RTVSPost2010Prop37
 90
       50
102
RTVSPost2010PropOp37
 70
     1
102
RTVSPost2010Prop38
140
0.0
102
RTVSPost2010PropOp38
 70
     1
102
RTVSPost2010Prop39
140
1.0
102
RTVSPost2010PropOp39
 70
     1
102
RTVSPost2010Prop40
 90
        0
102
RTVSPost2010PropOp40
 70
     1
102
RTVSPost2010Prop41ColorIndex
 90
       18
102
RTVSPost2010Prop41ColorRGB
 90
        0
102
RTVSPost2010PropOp41
 70
     1
102
RTVSPost2010Prop42
 90
       50
102
RTVSPost2010PropOp42
 70
     1
102
RTVSPost2010Prop43
 90
        3
102
RTVSPost2010PropOp43
 70
     1
102
RTVSPost2010Prop44ColorIndex
 90
        5
102
RTVSPost2010Prop44ColorRGB
 90
      255
102
RTVSPost2010PropOp44
 70
     1
102
RTVSPost2010Prop45
280
     0
102
RTVSPost2010PropOp45
 70
     1
102
RTVSPost2010Prop46
 90
       50
102
RTVSPost2010PropOp46
 70
     1
102
RTVSPost2010Prop47
 90
       50
102
RTVSPost2010PropOp47
 70
     1
102
RTVSPost2010Prop48
 90
       50
102
RTVSPost2010PropOp48
 70
     1
102
RTVSPost2010Prop49
280
     0
102
RTVSPost2010PropOp49
 70
     1
102
RTVSPost2010Prop50
 90
       50
102
RTVSPost2010PropOp50
 70
     1
102
RTVSPost2010Prop51ColorIndex
 90
      256
102
RTVSPost2010Prop51ColorRGB
 90
-16777216
102
RTVSPost2010PropOp51
 70
     0
102
RTVSPost2010Prop52
140
1.0
102
RTVSPost2010PropOp52
 70
     0
102
RTVSPost2010Prop53
 90
        2
102
RTVSPost2010PropOp53
 70
     1
102
RTVSPost2010Prop54
  1
strokes_ogs.tif
102
RTVSPost2010PropOp54
 70
     1
102
RTVSPost2010Prop55
280
     0
102
RTVSPost2010PropOp55
 70
     1
102
RTVSPost2010Prop56
140
1.0
102
RTVSPost2010PropOp56
 70
     1
102
RTVSPost2010Prop57
140
1.0
102
RTVSPost2010PropOp57
 70
     1
102
RTVSPropertyOp0
 70
     1
102
RTVSPropertyOp1
 70
     1
102
RTVSPropertyOp2
 70
     1
102
RTVSPropertyOp3
 70
     1
102
RTVSPropertyOp4
 70
     1
102
RTVSPropertyOp5
 70
     1
102
RTVSPropertyOp6
 70
     1
102
RTVSPropertyOp7
 70
     1
102
RTVSPropertyOp8
 70
     1
102
RTVSPropertyOp9
 70
     1
102
RTVSPropertyOp10
 70
     1
102
RTVSPropertyOp11
 70
     1
102
RTVSPropertyOp12
 70
     1
102
RTVSPropertyOp13
 70
     1
102
RTVSPropertyOp14
 70
     1
102
RTVSPropertyOp15
 70
     1
102
RTVSPropertyOp16
 70
     1
102
RTVSPropertyOp17
 70
     1
102
RTVSPropertyOp18
 70
     1
102
RTVSPropertyOp19
 70
     1
102
RTVSPropertyOp20
 70
     1
102
RTVSPropertyOp21
 70
     1
102
RTVSPropertyOp22
 70
     1
102
RTVSPropertyOp23
 70
     1
102
RTVSPropertyOp24
 70
     1
102
RTVSPropertyOp25
 70
     1
102
RTVSPropertyOp26
 70
     1
102
RTVSPropertyOp27
 70
     1
102
RTVSPropertyOp28
 70
     1
102
RTVSPropertyOp29
 70
     1
102
RTVSPropertyOp30
 70
     1
102
RTVSPropertyOp31
 70
     1
102
RTVSPropertyOp32
 70
     1
102
RTVSPropertyOp33
 70
     1
102
RTVSPropertyOp34
 70
     1
102
RTVSPropertyOp35
 70
     1
102
RTVSPropertyOp36
 70
     1
102
RTVSPropertyOp37
 70
     1
102
RTVSPropertyOp38
 70
     1
102
RTVSPropertyOp39
 70
     1
102
RTVSPropertyOp40
 70
     1
102
RTVSPropertyOp41
 70
     1
102
RTVSPropertyOp42
 70
     1
102
RTVSPropertyOp43
 70
     1
102
RTVSPropertyOp44
 70
     1
102
RTVSPropertyOp45
 70
     1
102
RTVSPropertyOp46
 70
     1
102
RTVSPropertyOp47
 70
     1
102
RTVSPropertyOp48
 70
     1
102
RTVSPropertyOp49
 70
     1
102
RTVSPropertyOp50
 70
     1
102
RTVSPropertyOp51
 70
     0
102
RTVSPropertyOp52
 70
     0
102
RTVSPropertyOp53
 70
     1
102
RTVSPropertyOp54
 70
     1
102
RTVSPropertyOp55
 70
     1
102
RTVSPropertyOp56
 70
     1
102
RTVSPropertyOp57
 70
     1
102
RTVSPropertyOp58
 70
     1
102
RTVSPropertyOp59
 70
     1
102
RTVSPropertyOp60
 70
     1
102
RTVSPropertyOp61
 70
     1
102
RTVSPropertyOp62
 70
     1
  0
XRECORD
  5
5EE
102
{ACAD_REACTORS
330
5ED
102
}
330
5ED
100
AcDbXrecord
280
     1
102
RTVSPost2010Prop28
280
     0
102
RTVSPost2010PropOp28
 70
     1
102
RTVSPost2010Prop29
280
     1
102
RTVSPost2010PropOp29
 70
     1
102
RTVSPost2010Prop30
280
     1
102
RTVSPost2010PropOp30
 70
     1
102
RTVSPost2010Prop31
280
     0
102
RTVSPost2010PropOp31
 70
     1
102
RTVSPost2010Prop32
280
     0
102
RTVSPost2010PropOp32
 70
     1
102
RTVSPost2010Prop33
280
     0
102
RTVSPost2010PropOp33
 70
     1
102
RTVSPost2010Prop34
280
     0
102
RTVSPost2010PropOp34
 70
     1
102
RTVSPost2010Prop35
280
     0
102
RTVSPost2010PropOp35
 70
     1
102
RTVSPost2010Prop36
280
     0
102
RTVSPost2010PropOp36
 70
     1
102
RTVSPost2010Prop37
 90
       50
102
RTVSPost2010PropOp37
 70
     1
102
RTVSPost2010Prop38
140
0.0
102
RTVSPost2010PropOp38
 70
     1
102
RTVSPost2010Prop39
140
1.0
102
RTVSPost2010PropOp39
 70
     1
102
RTVSPost2010Prop40
 90
        0
102
RTVSPost2010PropOp40
 70
     1
102
RTVSPost2010Prop41ColorIndex
 90
       18
102
RTVSPost2010Prop41ColorRGB
 90
        0
102
RTVSPost2010PropOp41
 70
     1
102
RTVSPost2010Prop42
 90
       50
102
RTVSPost2010PropOp42
 70
     1
102
RTVSPost2010Prop43
 90
        3
102
RTVSPost2010PropOp43
 70
     1
102
RTVSPost2010Prop44ColorIndex
 90
        5
102
RTVSPost2010Prop44ColorRGB
 90
      255
102
RTVSPost2010PropOp44
 70
     1
102
RTVSPost2010Prop45
280
     0
102
RTVSPost2010PropOp45
 70
     1
102
RTVSPost2010Prop46
 90
       50
102
RTVSPost2010PropOp46
 70
     1
102
RTVSPost2010Prop47
 90
       50
102
RTVSPost2010PropOp47
 70
     1
102
RTVSPost2010Prop48
 90
       50
102
RTVSPost2010PropOp48
 70
     1
102
RTVSPost2010Prop49
280
     0
102
RTVSPost2010PropOp49
 70
     1
102
RTVSPost2010Prop50
 90
       50
102
RTVSPost2010PropOp50
 70
     1
102
RTVSPost2010Prop51ColorIndex
 90
      256
102
RTVSPost2010Prop51ColorRGB
 90
-16777216
102
RTVSPost2010PropOp51
 70
     0
102
RTVSPost2010Prop52
140
1.0
102
RTVSPost2010PropOp52
 70
     0
102
RTVSPost2010Prop53
 90
        2
102
RTVSPost2010PropOp53
 70
     1
102
RTVSPost2010Prop54
  1
strokes_ogs.tif
102
RTVSPost2010PropOp54
 70
     1
102
RTVSPost2010Prop55
280
     0
102
RTVSPost2010PropOp55
 70
     1
102
RTVSPost2010Prop56
140
1.0
102
RTVSPost2010PropOp56
 70
     1
102
RTVSPost2010Prop57
140
1.0
102
RTVSPost2010PropOp57
 70
     1
102
RTVSPropertyOp0
 70
     1
102
RTVSPropertyOp1
 70
     1
102
RTVSPropertyOp2
 70
     1
102
RTVSPropertyOp3
 70
     1
102
RTVSPropertyOp4
 70
     1
102
RTVSPropertyOp5
 70
     1
102
RTVSPropertyOp6
 70
     1
102
RTVSPropertyOp7
 70
     1
102
RTVSPropertyOp8
 70
     1
102
RTVSPropertyOp9
 70
     1
102
RTVSPropertyOp10
 70
     1
102
RTVSPropertyOp11
 70
     1
102
RTVSPropertyOp12
 70
     1
102
RTVSPropertyOp13
 70
     1
102
RTVSPropertyOp14
 70
     1
102
RTVSPropertyOp15
 70
     1
102
RTVSPropertyOp16
 70
     1
102
RTVSPropertyOp17
 70
     1
102
RTVSPropertyOp18
 70
     1
102
RTVSPropertyOp19
 70
     1
102
RTVSPropertyOp20
 70
     1
102
RTVSPropertyOp21
 70
     1
102
RTVSPropertyOp22
 70
     1
102
RTVSPropertyOp23
 70
     1
102
RTVSPropertyOp24
 70
     1
102
RTVSPropertyOp25
 70
     1
102
RTVSPropertyOp26
 70
     1
102
RTVSPropertyOp27
 70
     1
102
RTVSPropertyOp28
 70
     1
102
RTVSPropertyOp29
 70
     1
102
RTVSPropertyOp30
 70
     1
102
RTVSPropertyOp31
 70
     1
102
RTVSPropertyOp32
 70
     1
102
RTVSPropertyOp33
 70
     1
102
RTVSPropertyOp34
 70
     1
102
RTVSPropertyOp35
 70
     1
102
RTVSPropertyOp36
 70
     1
102
RTVSPropertyOp37
 70
     1
102
RTVSPropertyOp38
 70
     1
102
RTVSPropertyOp39
 70
     1
102
RTVSPropertyOp40
 70
     1
102
RTVSPropertyOp41
 70
     1
102
RTVSPropertyOp42
 70
     1
102
RTVSPropertyOp43
 70
     1
102
RTVSPropertyOp44
 70
     1
102
RTVSPropertyOp45
 70
     1
102
RTVSPropertyOp46
 70
     1
102
RTVSPropertyOp47
 70
     1
102
RTVSPropertyOp48
 70
     1
102
RTVSPropertyOp49
 70
     1
102
RTVSPropertyOp50
 70
     1
102
RTVSPropertyOp51
 70
     0
102
RTVSPropertyOp52
 70
     0
102
RTVSPropertyOp53
 70
     1
102
RTVSPropertyOp54
 70
     1
102
RTVSPropertyOp55
 70
     1
102
RTVSPropertyOp56
 70
     1
102
RTVSPropertyOp57
 70
     1
102
RTVSPropertyOp58
 70
     1
102
RTVSPropertyOp59
 70
     1
102
RTVSPropertyOp60
 70
     1
102
RTVSPropertyOp61
 70
     1
102
RTVSPropertyOp62
 70
     1
  0
XRECORD
  5
5E0
102
{ACAD_REACTORS
330
5DF
102
}
330
5DF
100
AcDbXrecord
280
     1
102
RTVSPost2010Prop28
280
     0
102
RTVSPost2010PropOp28
 70
     1
102
RTVSPost2010Prop29
280
     1
102
RTVSPost2010PropOp29
 70
     1
102
RTVSPost2010Prop30
280
     1
102
RTVSPost2010PropOp30
 70
     1
102
RTVSPost2010Prop31
280
     0
102
RTVSPost2010PropOp31
 70
     1
102
RTVSPost2010Prop32
280
     0
102
RTVSPost2010PropOp32
 70
     1
102
RTVSPost2010Prop33
280
     0
102
RTVSPost2010PropOp33
 70
     1
102
RTVSPost2010Prop34
280
     0
102
RTVSPost2010PropOp34
 70
     1
102
RTVSPost2010Prop35
280
     0
102
RTVSPost2010PropOp35
 70
     1
102
RTVSPost2010Prop36
280
     0
102
RTVSPost2010PropOp36
 70
     1
102
RTVSPost2010Prop37
 90
       50
102
RTVSPost2010PropOp37
 70
     1
102
RTVSPost2010Prop38
140
0.0
102
RTVSPost2010PropOp38
 70
     1
102
RTVSPost2010Prop39
140
1.0
102
RTVSPost2010PropOp39
 70
     1
102
RTVSPost2010Prop40
 90
        0
102
RTVSPost2010PropOp40
 70
     1
102
RTVSPost2010Prop41ColorIndex
 90
       18
102
RTVSPost2010Prop41ColorRGB
 90
        0
102
RTVSPost2010PropOp41
 70
     1
102
RTVSPost2010Prop42
 90
       50
102
RTVSPost2010PropOp42
 70
     1
102
RTVSPost2010Prop43
 90
        3
102
RTVSPost2010PropOp43
 70
     1
102
RTVSPost2010Prop44ColorIndex
 90
        5
102
RTVSPost2010Prop44ColorRGB
 90
      255
102
RTVSPost2010PropOp44
 70
     1
102
RTVSPost2010Prop45
280
     0
102
RTVSPost2010PropOp45
 70
     1
102
RTVSPost2010Prop46
 90
       50
102
RTVSPost2010PropOp46
 70
     1
102
RTVSPost2010Prop47
 90
       50
102
RTVSPost2010PropOp47
 70
     1
102
RTVSPost2010Prop48
 90
       50
102
RTVSPost2010PropOp48
 70
     1
102
RTVSPost2010Prop49
280
     0
102
RTVSPost2010PropOp49
 70
     1
102
RTVSPost2010Prop50
 90
       50
102
RTVSPost2010PropOp50
 70
     1
102
RTVSPost2010Prop51ColorIndex
 90
      256
102
RTVSPost2010Prop51ColorRGB
 90
-16777216
102
RTVSPost2010PropOp51
 70
     0
102
RTVSPost2010Prop52
140
1.0
102
RTVSPost2010PropOp52
 70
     0
102
RTVSPost2010Prop53
 90
        2
102
RTVSPost2010PropOp53
 70
     1
102
RTVSPost2010Prop54
  1
strokes_ogs.tif
102
RTVSPost2010PropOp54
 70
     1
102
RTVSPost2010Prop55
280
     0
102
RTVSPost2010PropOp55
 70
     1
102
RTVSPost2010Prop56
140
1.0
102
RTVSPost2010PropOp56
 70
     1
102
RTVSPost2010Prop57
140
1.0
102
RTVSPost2010PropOp57
 70
     1
102
RTVSPropertyOp0
 70
     1
102
RTVSPropertyOp1
 70
     1
102
RTVSPropertyOp2
 70
     1
102
RTVSPropertyOp3
 70
     1
102
RTVSPropertyOp4
 70
     1
102
RTVSPropertyOp5
 70
     1
102
RTVSPropertyOp6
 70
     1
102
RTVSPropertyOp7
 70
     1
102
RTVSPropertyOp8
 70
     1
102
RTVSPropertyOp9
 70
     1
102
RTVSPropertyOp10
 70
     1
102
RTVSPropertyOp11
 70
     1
102
RTVSPropertyOp12
 70
     1
102
RTVSPropertyOp13
 70
     1
102
RTVSPropertyOp14
 70
     1
102
RTVSPropertyOp15
 70
     1
102
RTVSPropertyOp16
 70
     1
102
RTVSPropertyOp17
 70
     1
102
RTVSPropertyOp18
 70
     1
102
RTVSPropertyOp19
 70
     1
102
RTVSPropertyOp20
 70
     1
102
RTVSPropertyOp21
 70
     1
102
RTVSPropertyOp22
 70
     1
102
RTVSPropertyOp23
 70
     1
102
RTVSPropertyOp24
 70
     1
102
RTVSPropertyOp25
 70
     1
102
RTVSPropertyOp26
 70
     1
102
RTVSPropertyOp27
 70
     1
102
RTVSPropertyOp28
 70
     1
102
RTVSPropertyOp29
 70
     1
102
RTVSPropertyOp30
 70
     1
102
RTVSPropertyOp31
 70
     1
102
RTVSPropertyOp32
 70
     1
102
RTVSPropertyOp33
 70
     1
102
RTVSPropertyOp34
 70
     1
102
RTVSPropertyOp35
 70
     1
102
RTVSPropertyOp36
 70
     1
102
RTVSPropertyOp37
 70
     1
102
RTVSPropertyOp38
 70
     1
102
RTVSPropertyOp39
 70
     1
102
RTVSPropertyOp40
 70
     1
102
RTVSPropertyOp41
 70
     1
102
RTVSPropertyOp42
 70
     1
102
RTVSPropertyOp43
 70
     1
102
RTVSPropertyOp44
 70
     1
102
RTVSPropertyOp45
 70
     1
102
RTVSPropertyOp46
 70
     1
102
RTVSPropertyOp47
 70
     1
102
RTVSPropertyOp48
 70
     1
102
RTVSPropertyOp49
 70
     1
102
RTVSPropertyOp50
 70
     1
102
RTVSPropertyOp51
 70
     0
102
RTVSPropertyOp52
 70
     0
102
RTVSPropertyOp53
 70
     1
102
RTVSPropertyOp54
 70
     1
102
RTVSPropertyOp55
 70
     1
102
RTVSPropertyOp56
 70
     1
102
RTVSPropertyOp57
 70
     1
102
RTVSPropertyOp58
 70
     1
102
RTVSPropertyOp59
 70
     1
102
RTVSPropertyOp60
 70
     1
102
RTVSPropertyOp61
 70
     1
102
RTVSPropertyOp62
 70
     1
  0
XRECORD
  5
5E4
102
{ACAD_REACTORS
330
5E3
102
}
330
5E3
100
AcDbXrecord
280
     1
102
RTVSPost2010Prop28
280
     0
102
RTVSPost2010PropOp28
 70
     1
102
RTVSPost2010Prop29
280
     1
102
RTVSPost2010PropOp29
 70
     1
102
RTVSPost2010Prop30
280
     1
102
RTVSPost2010PropOp30
 70
     1
102
RTVSPost2010Prop31
280
     0
102
RTVSPost2010PropOp31
 70
     1
102
RTVSPost2010Prop32
280
     0
102
RTVSPost2010PropOp32
 70
     1
102
RTVSPost2010Prop33
280
     0
102
RTVSPost2010PropOp33
 70
     1
102
RTVSPost2010Prop34
280
     0
102
RTVSPost2010PropOp34
 70
     1
102
RTVSPost2010Prop35
280
     0
102
RTVSPost2010PropOp35
 70
     1
102
RTVSPost2010Prop36
280
     0
102
RTVSPost2010PropOp36
 70
     1
102
RTVSPost2010Prop37
 90
       50
102
RTVSPost2010PropOp37
 70
     1
102
RTVSPost2010Prop38
140
0.0
102
RTVSPost2010PropOp38
 70
     1
102
RTVSPost2010Prop39
140
1.0
102
RTVSPost2010PropOp39
 70
     1
102
RTVSPost2010Prop40
 90
        0
102
RTVSPost2010PropOp40
 70
     1
102
RTVSPost2010Prop41ColorIndex
 90
       18
102
RTVSPost2010Prop41ColorRGB
 90
        0
102
RTVSPost2010PropOp41
 70
     1
102
RTVSPost2010Prop42
 90
       50
102
RTVSPost2010PropOp42
 70
     1
102
RTVSPost2010Prop43
 90
        3
102
RTVSPost2010PropOp43
 70
     1
102
RTVSPost2010Prop44ColorIndex
 90
        5
102
RTVSPost2010Prop44ColorRGB
 90
      255
102
RTVSPost2010PropOp44
 70
     1
102
RTVSPost2010Prop45
280
     0
102
RTVSPost2010PropOp45
 70
     1
102
RTVSPost2010Prop46
 90
       50
102
RTVSPost2010PropOp46
 70
     1
102
RTVSPost2010Prop47
 90
       50
102
RTVSPost2010PropOp47
 70
     1
102
RTVSPost2010Prop48
 90
       50
102
RTVSPost2010PropOp48
 70
     1
102
RTVSPost2010Prop49
280
     0
102
RTVSPost2010PropOp49
 70
     1
102
RTVSPost2010Prop50
 90
       50
102
RTVSPost2010PropOp50
 70
     1
102
RTVSPost2010Prop51ColorIndex
 90
      256
102
RTVSPost2010Prop51ColorRGB
 90
-16777216
102
RTVSPost2010PropOp51
 70
     0
102
RTVSPost2010Prop52
140
1.0
102
RTVSPost2010PropOp52
 70
     0
102
RTVSPost2010Prop53
 90
        2
102
RTVSPost2010PropOp53
 70
     1
102
RTVSPost2010Prop54
  1
strokes_ogs.tif
102
RTVSPost2010PropOp54
 70
     1
102
RTVSPost2010Prop55
280
     0
102
RTVSPost2010PropOp55
 70
     1
102
RTVSPost2010Prop56
140
1.0
102
RTVSPost2010PropOp56
 70
     1
102
RTVSPost2010Prop57
140
1.0
102
RTVSPost2010PropOp57
 70
     1
102
RTVSPropertyOp0
 70
     1
102
RTVSPropertyOp1
 70
     1
102
RTVSPropertyOp2
 70
     1
102
RTVSPropertyOp3
 70
     1
102
RTVSPropertyOp4
 70
     1
102
RTVSPropertyOp5
 70
     1
102
RTVSPropertyOp6
 70
     1
102
RTVSPropertyOp7
 70
     1
102
RTVSPropertyOp8
 70
     1
102
RTVSPropertyOp9
 70
     1
102
RTVSPropertyOp10
 70
     1
102
RTVSPropertyOp11
 70
     1
102
RTVSPropertyOp12
 70
     1
102
RTVSPropertyOp13
 70
     1
102
RTVSPropertyOp14
 70
     1
102
RTVSPropertyOp15
 70
     1
102
RTVSPropertyOp16
 70
     1
102
RTVSPropertyOp17
 70
     1
102
RTVSPropertyOp18
 70
     1
102
RTVSPropertyOp19
 70
     1
102
RTVSPropertyOp20
 70
     1
102
RTVSPropertyOp21
 70
     1
102
RTVSPropertyOp22
 70
     1
102
RTVSPropertyOp23
 70
     1
102
RTVSPropertyOp24
 70
     1
102
RTVSPropertyOp25
 70
     1
102
RTVSPropertyOp26
 70
     1
102
RTVSPropertyOp27
 70
     1
102
RTVSPropertyOp28
 70
     1
102
RTVSPropertyOp29
 70
     1
102
RTVSPropertyOp30
 70
     1
102
RTVSPropertyOp31
 70
     1
102
RTVSPropertyOp32
 70
     1
102
RTVSPropertyOp33
 70
     1
102
RTVSPropertyOp34
 70
     1
102
RTVSPropertyOp35
 70
     1
102
RTVSPropertyOp36
 70
     1
102
RTVSPropertyOp37
 70
     1
102
RTVSPropertyOp38
 70
     1
102
RTVSPropertyOp39
 70
     1
102
RTVSPropertyOp40
 70
     1
102
RTVSPropertyOp41
 70
     1
102
RTVSPropertyOp42
 70
     1
102
RTVSPropertyOp43
 70
     1
102
RTVSPropertyOp44
 70
     1
102
RTVSPropertyOp45
 70
     1
102
RTVSPropertyOp46
 70
     1
102
RTVSPropertyOp47
 70
     1
102
RTVSPropertyOp48
 70
     1
102
RTVSPropertyOp49
 70
     1
102
RTVSPropertyOp50
 70
     1
102
RTVSPropertyOp51
 70
     0
102
RTVSPropertyOp52
 70
     0
102
RTVSPropertyOp53
 70
     1
102
RTVSPropertyOp54
 70
     1
102
RTVSPropertyOp55
 70
     1
102
RTVSPropertyOp56
 70
     1
102
RTVSPropertyOp57
 70
     1
102
RTVSPropertyOp58
 70
     1
102
RTVSPropertyOp59
 70
     1
102
RTVSPropertyOp60
 70
     1
102
RTVSPropertyOp61
 70
     1
102
RTVSPropertyOp62
 70
     1
  0
XRECORD
  5
5FE
102
{ACAD_REACTORS
330
5FD
102
}
330
5FD
100
AcDbXrecord
280
     1
102
RTVSPost2010Prop28
280
     0
102
RTVSPost2010PropOp28
 70
     1
102
RTVSPost2010Prop29
280
     1
102
RTVSPost2010PropOp29
 70
     1
102
RTVSPost2010Prop30
280
     1
102
RTVSPost2010PropOp30
 70
     1
102
RTVSPost2010Prop31
280
     0
102
RTVSPost2010PropOp31
 70
     1
102
RTVSPost2010Prop32
280
     0
102
RTVSPost2010PropOp32
 70
     1
102
RTVSPost2010Prop33
280
     0
102
RTVSPost2010PropOp33
 70
     1
102
RTVSPost2010Prop34
280
     0
102
RTVSPost2010PropOp34
 70
     1
102
RTVSPost2010Prop35
280
     0
102
RTVSPost2010PropOp35
 70
     1
102
RTVSPost2010Prop36
280
     0
102
RTVSPost2010PropOp36
 70
     1
102
RTVSPost2010Prop37
 90
       50
102
RTVSPost2010PropOp37
 70
     0
102
RTVSPost2010Prop38
140
0.0
102
RTVSPost2010PropOp38
 70
     0
102
RTVSPost2010Prop39
140
1.0
102
RTVSPost2010PropOp39
 70
     0
102
RTVSPost2010Prop40
 90
        0
102
RTVSPost2010PropOp40
 70
     0
102
RTVSPost2010Prop41ColorIndex
 90
       18
102
RTVSPost2010Prop41ColorRGB
 90
        0
102
RTVSPost2010PropOp41
 70
     0
102
RTVSPost2010Prop42
 90
       50
102
RTVSPost2010PropOp42
 70
     0
102
RTVSPost2010Prop43
 90
        3
102
RTVSPost2010PropOp43
 70
     0
102
RTVSPost2010Prop44ColorIndex
 90
        5
102
RTVSPost2010Prop44ColorRGB
 90
      255
102
RTVSPost2010PropOp44
 70
     0
102
RTVSPost2010Prop45
280
     0
102
RTVSPost2010PropOp45
 70
     1
102
RTVSPost2010Prop46
 90
       50
102
RTVSPost2010PropOp46
 70
     0
102
RTVSPost2010Prop47
 90
       50
102
RTVSPost2010PropOp47
 70
     0
102
RTVSPost2010Prop48
 90
       50
102
RTVSPost2010PropOp48
 70
     0
102
RTVSPost2010Prop49
280
     0
102
RTVSPost2010PropOp49
 70
     1
102
RTVSPost2010Prop50
 90
       50
102
RTVSPost2010PropOp50
 70
     0
102
RTVSPost2010Prop51ColorIndex
 90
      256
102
RTVSPost2010Prop51ColorRGB
 90
-16777216
102
RTVSPost2010PropOp51
 70
     0
102
RTVSPost2010Prop52
140
1.0
102
RTVSPost2010PropOp52
 70
     0
102
RTVSPost2010Prop53
 90
        2
102
RTVSPost2010PropOp53
 70
     0
102
RTVSPost2010Prop54
  1
strokes_ogs.tif
102
RTVSPost2010PropOp54
 70
     0
102
RTVSPost2010Prop55
280
     0
102
RTVSPost2010PropOp55
 70
     1
102
RTVSPost2010Prop56
140
1.0
102
RTVSPost2010PropOp56
 70
     0
102
RTVSPost2010Prop57
140
1.0
102
RTVSPost2010PropOp57
 70
     0
102
RTVSPropertyOp0
 70
     0
102
RTVSPropertyOp1
 70
     0
102
RTVSPropertyOp2
 70
     0
102
RTVSPropertyOp3
 70
     0
102
RTVSPropertyOp4
 70
     0
102
RTVSPropertyOp5
 70
     0
102
RTVSPropertyOp6
 70
     0
102
RTVSPropertyOp7
 70
     0
102
RTVSPropertyOp8
 70
     0
102
RTVSPropertyOp9
 70
     0
102
RTVSPropertyOp10
 70
     0
102
RTVSPropertyOp11
 70
     0
102
RTVSPropertyOp12
 70
     0
102
RTVSPropertyOp13
 70
     0
102
RTVSPropertyOp14
 70
     2
102
RTVSPropertyOp15
 70
     0
102
RTVSPropertyOp16
 70
     0
102
RTVSPropertyOp17
 70
     0
102
RTVSPropertyOp18
 70
     0
102
RTVSPropertyOp19
 70
     0
102
RTVSPropertyOp20
 70
     0
102
RTVSPropertyOp21
 70
     0
102
RTVSPropertyOp22
 70
     0
102
RTVSPropertyOp23
 70
     0
102
RTVSPropertyOp24
 70
     0
102
RTVSPropertyOp25
 70
     0
102
RTVSPropertyOp26
 70
     0
102
RTVSPropertyOp27
 70
     0
102
RTVSPropertyOp28
 70
     1
102
RTVSPropertyOp29
 70
     1
102
RTVSPropertyOp30
 70
     1
102
RTVSPropertyOp31
 70
     1
102
RTVSPropertyOp32
 70
     1
102
RTVSPropertyOp33
 70
     1
102
RTVSPropertyOp34
 70
     1
102
RTVSPropertyOp35
 70
     1
102
RTVSPropertyOp36
 70
     1
102
RTVSPropertyOp37
 70
     0
102
RTVSPropertyOp38
 70
     0
102
RTVSPropertyOp39
 70
     0
102
RTVSPropertyOp40
 70
     0
102
RTVSPropertyOp41
 70
     0
102
RTVSPropertyOp42
 70
     0
102
RTVSPropertyOp43
 70
     0
102
RTVSPropertyOp44
 70
     0
102
RTVSPropertyOp45
 70
     1
102
RTVSPropertyOp46
 70
     0
102
RTVSPropertyOp47
 70
     0
102
RTVSPropertyOp48
 70
     0
102
RTVSPropertyOp49
 70
     1
102
RTVSPropertyOp50
 70
     0
102
RTVSPropertyOp51
 70
     0
102
RTVSPropertyOp52
 70
     0
102
RTVSPropertyOp53
 70
     0
102
RTVSPropertyOp54
 70
     0
102
RTVSPropertyOp55
 70
     1
102
RTVSPropertyOp56
 70
     0
102
RTVSPropertyOp57
 70
     0
102
RTVSPropertyOp58
 70
     0
102
RTVSPropertyOp59
 70
     0
102
RTVSPropertyOp60
 70
     0
102
RTVSPropertyOp61
 70
     0
102
RTVSPropertyOp62
 70
     0
  0
XRECORD
  5
5EC
102
{ACAD_REACTORS
330
5EB
102
}
330
5EB
100
AcDbXrecord
280
     1
102
RTVSPost2010Prop28
280
     0
102
RTVSPost2010PropOp28
 70
     1
102
RTVSPost2010Prop29
280
     1
102
RTVSPost2010PropOp29
 70
     1
102
RTVSPost2010Prop30
280
     1
102
RTVSPost2010PropOp30
 70
     1
102
RTVSPost2010Prop31
280
     0
102
RTVSPost2010PropOp31
 70
     1
102
RTVSPost2010Prop32
280
     0
102
RTVSPost2010PropOp32
 70
     1
102
RTVSPost2010Prop33
280
     0
102
RTVSPost2010PropOp33
 70
     1
102
RTVSPost2010Prop34
280
     0
102
RTVSPost2010PropOp34
 70
     1
102
RTVSPost2010Prop35
280
     0
102
RTVSPost2010PropOp35
 70
     1
102
RTVSPost2010Prop36
280
     0
102
RTVSPost2010PropOp36
 70
     1
102
RTVSPost2010Prop37
 90
       50
102
RTVSPost2010PropOp37
 70
     1
102
RTVSPost2010Prop38
140
0.0
102
RTVSPost2010PropOp38
 70
     1
102
RTVSPost2010Prop39
140
1.0
102
RTVSPost2010PropOp39
 70
     1
102
RTVSPost2010Prop40
 90
        0
102
RTVSPost2010PropOp40
 70
     1
102
RTVSPost2010Prop41ColorIndex
 90
       18
102
RTVSPost2010Prop41ColorRGB
 90
        0
102
RTVSPost2010PropOp41
 70
     1
102
RTVSPost2010Prop42
 90
       50
102
RTVSPost2010PropOp42
 70
     1
102
RTVSPost2010Prop43
 90
        3
102
RTVSPost2010PropOp43
 70
     1
102
RTVSPost2010Prop44ColorIndex
 90
        5
102
RTVSPost2010Prop44ColorRGB
 90
      255
102
RTVSPost2010PropOp44
 70
     1
102
RTVSPost2010Prop45
280
     0
102
RTVSPost2010PropOp45
 70
     1
102
RTVSPost2010Prop46
 90
       50
102
RTVSPost2010PropOp46
 70
     1
102
RTVSPost2010Prop47
 90
       50
102
RTVSPost2010PropOp47
 70
     1
102
RTVSPost2010Prop48
 90
       50
102
RTVSPost2010PropOp48
 70
     1
102
RTVSPost2010Prop49
280
     0
102
RTVSPost2010PropOp49
 70
     1
102
RTVSPost2010Prop50
 90
       50
102
RTVSPost2010PropOp50
 70
     1
102
RTVSPost2010Prop51ColorIndex
 90
      256
102
RTVSPost2010Prop51ColorRGB
 90
-16777216
102
RTVSPost2010PropOp51
 70
     0
102
RTVSPost2010Prop52
140
1.0
102
RTVSPost2010PropOp52
 70
     0
102
RTVSPost2010Prop53
 90
        2
102
RTVSPost2010PropOp53
 70
     1
102
RTVSPost2010Prop54
  1
strokes_ogs.tif
102
RTVSPost2010PropOp54
 70
     1
102
RTVSPost2010Prop55
280
     0
102
RTVSPost2010PropOp55
 70
     1
102
RTVSPost2010Prop56
140
1.0
102
RTVSPost2010PropOp56
 70
     1
102
RTVSPost2010Prop57
140
1.0
102
RTVSPost2010PropOp57
 70
     1
102
RTVSPropertyOp0
 70
     1
102
RTVSPropertyOp1
 70
     1
102
RTVSPropertyOp2
 70
     1
102
RTVSPropertyOp3
 70
     1
102
RTVSPropertyOp4
 70
     1
102
RTVSPropertyOp5
 70
     1
102
RTVSPropertyOp6
 70
     1
102
RTVSPropertyOp7
 70
     1
102
RTVSPropertyOp8
 70
     1
102
RTVSPropertyOp9
 70
     1
102
RTVSPropertyOp10
 70
     1
102
RTVSPropertyOp11
 70
     1
102
RTVSPropertyOp12
 70
     1
102
RTVSPropertyOp13
 70
     1
102
RTVSPropertyOp14
 70
     1
102
RTVSPropertyOp15
 70
     1
102
RTVSPropertyOp16
 70
     1
102
RTVSPropertyOp17
 70
     1
102
RTVSPropertyOp18
 70
     1
102
RTVSPropertyOp19
 70
     1
102
RTVSPropertyOp20
 70
     1
102
RTVSPropertyOp21
 70
     1
102
RTVSPropertyOp22
 70
     1
102
RTVSPropertyOp23
 70
     1
102
RTVSPropertyOp24
 70
     1
102
RTVSPropertyOp25
 70
     1
102
RTVSPropertyOp26
 70
     1
102
RTVSPropertyOp27
 70
     1
102
RTVSPropertyOp28
 70
     1
102
RTVSPropertyOp29
 70
     1
102
RTVSPropertyOp30
 70
     1
102
RTVSPropertyOp31
 70
     1
102
RTVSPropertyOp32
 70
     1
102
RTVSPropertyOp33
 70
     1
102
RTVSPropertyOp34
 70
     1
102
RTVSPropertyOp35
 70
     1
102
RTVSPropertyOp36
 70
     1
102
RTVSPropertyOp37
 70
     1
102
RTVSPropertyOp38
 70
     1
102
RTVSPropertyOp39
 70
     1
102
RTVSPropertyOp40
 70
     1
102
RTVSPropertyOp41
 70
     1
102
RTVSPropertyOp42
 70
     1
102
RTVSPropertyOp43
 70
     1
102
RTVSPropertyOp44
 70
     1
102
RTVSPropertyOp45
 70
     1
102
RTVSPropertyOp46
 70
     1
102
RTVSPropertyOp47
 70
     1
102
RTVSPropertyOp48
 70
     1
102
RTVSPropertyOp49
 70
     1
102
RTVSPropertyOp50
 70
     1
102
RTVSPropertyOp51
 70
     0
102
RTVSPropertyOp52
 70
     0
102
RTVSPropertyOp53
 70
     1
102
RTVSPropertyOp54
 70
     1
102
RTVSPropertyOp55
 70
     1
102
RTVSPropertyOp56
 70
     1
102
RTVSPropertyOp57
 70
     1
102
RTVSPropertyOp58
 70
     1
102
RTVSPropertyOp59
 70
     1
102
RTVSPropertyOp60
 70
     1
102
RTVSPropertyOp61
 70
     1
102
RTVSPropertyOp62
 70
     1
  0
XRECORD
  5
5D0
102
{ACAD_REACTORS
330
5CF
102
}
330
5CF
100
AcDbXrecord
280
     1
102
RTVSPost2010Prop28
280
     0
102
RTVSPost2010PropOp28
 70
     1
102
RTVSPost2010Prop29
280
     1
102
RTVSPost2010PropOp29
 70
     1
102
RTVSPost2010Prop30
280
     1
102
RTVSPost2010PropOp30
 70
     1
102
RTVSPost2010Prop31
280
     0
102
RTVSPost2010PropOp31
 70
     1
102
RTVSPost2010Prop32
280
     0
102
RTVSPost2010PropOp32
 70
     1
102
RTVSPost2010Prop33
280
     0
102
RTVSPost2010PropOp33
 70
     1
102
RTVSPost2010Prop34
280
     0
102
RTVSPost2010PropOp34
 70
     1
102
RTVSPost2010Prop35
280
     0
102
RTVSPost2010PropOp35
 70
     1
102
RTVSPost2010Prop36
280
     0
102
RTVSPost2010PropOp36
 70
     1
102
RTVSPost2010Prop37
 90
       50
102
RTVSPost2010PropOp37
 70
     1
102
RTVSPost2010Prop38
140
0.0
102
RTVSPost2010PropOp38
 70
     1
102
RTVSPost2010Prop39
140
1.0
102
RTVSPost2010PropOp39
 70
     1
102
RTVSPost2010Prop40
 90
        0
102
RTVSPost2010PropOp40
 70
     1
102
RTVSPost2010Prop41ColorIndex
 90
       18
102
RTVSPost2010Prop41ColorRGB
 90
        0
102
RTVSPost2010PropOp41
 70
     1
102
RTVSPost2010Prop42
 90
       50
102
RTVSPost2010PropOp42
 70
     1
102
RTVSPost2010Prop43
 90
        3
102
RTVSPost2010PropOp43
 70
     1
102
RTVSPost2010Prop44ColorIndex
 90
        5
102
RTVSPost2010Prop44ColorRGB
 90
      255
102
RTVSPost2010PropOp44
 70
     1
102
RTVSPost2010Prop45
280
     0
102
RTVSPost2010PropOp45
 70
     1
102
RTVSPost2010Prop46
 90
       50
102
RTVSPost2010PropOp46
 70
     1
102
RTVSPost2010Prop47
 90
       50
102
RTVSPost2010PropOp47
 70
     1
102
RTVSPost2010Prop48
 90
       50
102
RTVSPost2010PropOp48
 70
     1
102
RTVSPost2010Prop49
280
     0
102
RTVSPost2010PropOp49
 70
     1
102
RTVSPost2010Prop50
 90
       50
102
RTVSPost2010PropOp50
 70
     1
102
RTVSPost2010Prop51ColorIndex
 90
      256
102
RTVSPost2010Prop51ColorRGB
 90
-16777216
102
RTVSPost2010PropOp51
 70
     0
102
RTVSPost2010Prop52
140
1.0
102
RTVSPost2010PropOp52
 70
     0
102
RTVSPost2010Prop53
 90
        2
102
RTVSPost2010PropOp53
 70
     1
102
RTVSPost2010Prop54
  1
strokes_ogs.tif
102
RTVSPost2010PropOp54
 70
     1
102
RTVSPost2010Prop55
280
     0
102
RTVSPost2010PropOp55
 70
     1
102
RTVSPost2010Prop56
140
1.0
102
RTVSPost2010PropOp56
 70
     1
102
RTVSPost2010Prop57
140
1.0
102
RTVSPost2010PropOp57
 70
     1
102
RTVSPropertyOp0
 70
     1
102
RTVSPropertyOp1
 70
     1
102
RTVSPropertyOp2
 70
     1
102
RTVSPropertyOp3
 70
     1
102
RTVSPropertyOp4
 70
     1
102
RTVSPropertyOp5
 70
     1
102
RTVSPropertyOp6
 70
     1
102
RTVSPropertyOp7
 70
     1
102
RTVSPropertyOp8
 70
     1
102
RTVSPropertyOp9
 70
     1
102
RTVSPropertyOp10
 70
     1
102
RTVSPropertyOp11
 70
     1
102
RTVSPropertyOp12
 70
     1
102
RTVSPropertyOp13
 70
     1
102
RTVSPropertyOp14
 70
     1
102
RTVSPropertyOp15
 70
     1
102
RTVSPropertyOp16
 70
     1
102
RTVSPropertyOp17
 70
     1
102
RTVSPropertyOp18
 70
     1
102
RTVSPropertyOp19
 70
     1
102
RTVSPropertyOp20
 70
     1
102
RTVSPropertyOp21
 70
     1
102
RTVSPropertyOp22
 70
     1
102
RTVSPropertyOp23
 70
     1
102
RTVSPropertyOp24
 70
     1
102
RTVSPropertyOp25
 70
     1
102
RTVSPropertyOp26
 70
     1
102
RTVSPropertyOp27
 70
     1
102
RTVSPropertyOp28
 70
     1
102
RTVSPropertyOp29
 70
     1
102
RTVSPropertyOp30
 70
     1
102
RTVSPropertyOp31
 70
     1
102
RTVSPropertyOp32
 70
     1
102
RTVSPropertyOp33
 70
     1
102
RTVSPropertyOp34
 70
     1
102
RTVSPropertyOp35
 70
     1
102
RTVSPropertyOp36
 70
     1
102
RTVSPropertyOp37
 70
     1
102
RTVSPropertyOp38
 70
     1
102
RTVSPropertyOp39
 70
     1
102
RTVSPropertyOp40
 70
     1
102
RTVSPropertyOp41
 70
     1
102
RTVSPropertyOp42
 70
     1
102
RTVSPropertyOp43
 70
     1
102
RTVSPropertyOp44
 70
     1
102
RTVSPropertyOp45
 70
     1
102
RTVSPropertyOp46
 70
     1
102
RTVSPropertyOp47
 70
     1
102
RTVSPropertyOp48
 70
     1
102
RTVSPropertyOp49
 70
     1
102
RTVSPropertyOp50
 70
     1
102
RTVSPropertyOp51
 70
     0
102
RTVSPropertyOp52
 70
     0
102
RTVSPropertyOp53
 70
     1
102
RTVSPropertyOp54
 70
     1
102
RTVSPropertyOp55
 70
     1
102
RTVSPropertyOp56
 70
     1
102
RTVSPropertyOp57
 70
     1
102
RTVSPropertyOp58
 70
     1
102
RTVSPropertyOp59
 70
     1
102
RTVSPropertyOp60
 70
     1
102
RTVSPropertyOp61
 70
     1
102
RTVSPropertyOp62
 70
     1
  0
XRECORD
  5
5D2
102
{ACAD_REACTORS
330
5D1
102
}
330
5D1
100
AcDbXrecord
280
     1
102
RTVSPost2010Prop28
280
     0
102
RTVSPost2010PropOp28
 70
     1
102
RTVSPost2010Prop29
280
     1
102
RTVSPost2010PropOp29
 70
     1
102
RTVSPost2010Prop30
280
     1
102
RTVSPost2010PropOp30
 70
     1
102
RTVSPost2010Prop31
280
     0
102
RTVSPost2010PropOp31
 70
     1
102
RTVSPost2010Prop32
280
     0
102
RTVSPost2010PropOp32
 70
     1
102
RTVSPost2010Prop33
280
     0
102
RTVSPost2010PropOp33
 70
     1
102
RTVSPost2010Prop34
280
     0
102
RTVSPost2010PropOp34
 70
     1
102
RTVSPost2010Prop35
280
     0
102
RTVSPost2010PropOp35
 70
     1
102
RTVSPost2010Prop36
280
     0
102
RTVSPost2010PropOp36
 70
     1
102
RTVSPost2010Prop37
 90
       50
102
RTVSPost2010PropOp37
 70
     1
102
RTVSPost2010Prop38
140
0.0
102
RTVSPost2010PropOp38
 70
     1
102
RTVSPost2010Prop39
140
1.0
102
RTVSPost2010PropOp39
 70
     1
102
RTVSPost2010Prop40
 90
        0
102
RTVSPost2010PropOp40
 70
     1
102
RTVSPost2010Prop41ColorIndex
 90
       18
102
RTVSPost2010Prop41ColorRGB
 90
        0
102
RTVSPost2010PropOp41
 70
     1
102
RTVSPost2010Prop42
 90
       50
102
RTVSPost2010PropOp42
 70
     1
102
RTVSPost2010Prop43
 90
        3
102
RTVSPost2010PropOp43
 70
     1
102
RTVSPost2010Prop44ColorIndex
 90
        5
102
RTVSPost2010Prop44ColorRGB
 90
      255
102
RTVSPost2010PropOp44
 70
     1
102
RTVSPost2010Prop45
280
     0
102
RTVSPost2010PropOp45
 70
     1
102
RTVSPost2010Prop46
 90
       50
102
RTVSPost2010PropOp46
 70
     1
102
RTVSPost2010Prop47
 90
       50
102
RTVSPost2010PropOp47
 70
     1
102
RTVSPost2010Prop48
 90
       50
102
RTVSPost2010PropOp48
 70
     1
102
RTVSPost2010Prop49
280
     0
102
RTVSPost2010PropOp49
 70
     1
102
RTVSPost2010Prop50
 90
       50
102
RTVSPost2010PropOp50
 70
     1
102
RTVSPost2010Prop51ColorIndex
 90
      256
102
RTVSPost2010Prop51ColorRGB
 90
-16777216
102
RTVSPost2010PropOp51
 70
     0
102
RTVSPost2010Prop52
140
1.0
102
RTVSPost2010PropOp52
 70
     0
102
RTVSPost2010Prop53
 90
        2
102
RTVSPost2010PropOp53
 70
     1
102
RTVSPost2010Prop54
  1
strokes_ogs.tif
102
RTVSPost2010PropOp54
 70
     1
102
RTVSPost2010Prop55
280
     0
102
RTVSPost2010PropOp55
 70
     1
102
RTVSPost2010Prop56
140
1.0
102
RTVSPost2010PropOp56
 70
     1
102
RTVSPost2010Prop57
140
1.0
102
RTVSPost2010PropOp57
 70
     1
102
RTVSPropertyOp0
 70
     1
102
RTVSPropertyOp1
 70
     1
102
RTVSPropertyOp2
 70
     1
102
RTVSPropertyOp3
 70
     1
102
RTVSPropertyOp4
 70
     1
102
RTVSPropertyOp5
 70
     1
102
RTVSPropertyOp6
 70
     1
102
RTVSPropertyOp7
 70
     1
102
RTVSPropertyOp8
 70
     1
102
RTVSPropertyOp9
 70
     1
102
RTVSPropertyOp10
 70
     1
102
RTVSPropertyOp11
 70
     1
102
RTVSPropertyOp12
 70
     1
102
RTVSPropertyOp13
 70
     1
102
RTVSPropertyOp14
 70
     1
102
RTVSPropertyOp15
 70
     1
102
RTVSPropertyOp16
 70
     1
102
RTVSPropertyOp17
 70
     1
102
RTVSPropertyOp18
 70
     1
102
RTVSPropertyOp19
 70
     1
102
RTVSPropertyOp20
 70
     1
102
RTVSPropertyOp21
 70
     1
102
RTVSPropertyOp22
 70
     1
102
RTVSPropertyOp23
 70
     1
102
RTVSPropertyOp24
 70
     1
102
RTVSPropertyOp25
 70
     1
102
RTVSPropertyOp26
 70
     1
102
RTVSPropertyOp27
 70
     1
102
RTVSPropertyOp28
 70
     1
102
RTVSPropertyOp29
 70
     1
102
RTVSPropertyOp30
 70
     1
102
RTVSPropertyOp31
 70
     1
102
RTVSPropertyOp32
 70
     1
102
RTVSPropertyOp33
 70
     1
102
RTVSPropertyOp34
 70
     1
102
RTVSPropertyOp35
 70
     1
102
RTVSPropertyOp36
 70
     1
102
RTVSPropertyOp37
 70
     1
102
RTVSPropertyOp38
 70
     1
102
RTVSPropertyOp39
 70
     1
102
RTVSPropertyOp40
 70
     1
102
RTVSPropertyOp41
 70
     1
102
RTVSPropertyOp42
 70
     1
102
RTVSPropertyOp43
 70
     1
102
RTVSPropertyOp44
 70
     1
102
RTVSPropertyOp45
 70
     1
102
RTVSPropertyOp46
 70
     1
102
RTVSPropertyOp47
 70
     1
102
RTVSPropertyOp48
 70
     1
102
RTVSPropertyOp49
 70
     1
102
RTVSPropertyOp50
 70
     1
102
RTVSPropertyOp51
 70
     0
102
RTVSPropertyOp52
 70
     0
102
RTVSPropertyOp53
 70
     1
102
RTVSPropertyOp54
 70
     1
102
RTVSPropertyOp55
 70
     1
102
RTVSPropertyOp56
 70
     1
102
RTVSPropertyOp57
 70
     1
102
RTVSPropertyOp58
 70
     1
102
RTVSPropertyOp59
 70
     1
102
RTVSPropertyOp60
 70
     1
102
RTVSPropertyOp61
 70
     1
102
RTVSPropertyOp62
 70
     1
  0
XRECORD
  5
5D4
102
{ACAD_REACTORS
330
5D3
102
}
330
5D3
100
AcDbXrecord
280
     1
102
RTVSPost2010Prop28
280
     0
102
RTVSPost2010PropOp28
 70
     1
102
RTVSPost2010Prop29
280
     1
102
RTVSPost2010PropOp29
 70
     1
102
RTVSPost2010Prop30
280
     1
102
RTVSPost2010PropOp30
 70
     1
102
RTVSPost2010Prop31
280
     0
102
RTVSPost2010PropOp31
 70
     1
102
RTVSPost2010Prop32
280
     0
102
RTVSPost2010PropOp32
 70
     1
102
RTVSPost2010Prop33
280
     0
102
RTVSPost2010PropOp33
 70
     1
102
RTVSPost2010Prop34
280
     0
102
RTVSPost2010PropOp34
 70
     1
102
RTVSPost2010Prop35
280
     0
102
RTVSPost2010PropOp35
 70
     1
102
RTVSPost2010Prop36
280
     0
102
RTVSPost2010PropOp36
 70
     1
102
RTVSPost2010Prop37
 90
       50
102
RTVSPost2010PropOp37
 70
     1
102
RTVSPost2010Prop38
140
0.0
102
RTVSPost2010PropOp38
 70
     1
102
RTVSPost2010Prop39
140
1.0
102
RTVSPost2010PropOp39
 70
     1
102
RTVSPost2010Prop40
 90
        0
102
RTVSPost2010PropOp40
 70
     1
102
RTVSPost2010Prop41ColorIndex
 90
       18
102
RTVSPost2010Prop41ColorRGB
 90
        0
102
RTVSPost2010PropOp41
 70
     1
102
RTVSPost2010Prop42
 90
       50
102
RTVSPost2010PropOp42
 70
     1
102
RTVSPost2010Prop43
 90
        3
102
RTVSPost2010PropOp43
 70
     1
102
RTVSPost2010Prop44ColorIndex
 90
        5
102
RTVSPost2010Prop44ColorRGB
 90
      255
102
RTVSPost2010PropOp44
 70
     1
102
RTVSPost2010Prop45
280
     0
102
RTVSPost2010PropOp45
 70
     1
102
RTVSPost2010Prop46
 90
       50
102
RTVSPost2010PropOp46
 70
     1
102
RTVSPost2010Prop47
 90
       50
102
RTVSPost2010PropOp47
 70
     1
102
RTVSPost2010Prop48
 90
       50
102
RTVSPost2010PropOp48
 70
     1
102
RTVSPost2010Prop49
280
     0
102
RTVSPost2010PropOp49
 70
     1
102
RTVSPost2010Prop50
 90
       50
102
RTVSPost2010PropOp50
 70
     1
102
RTVSPost2010Prop51ColorIndex
 90
      256
102
RTVSPost2010Prop51ColorRGB
 90
-16777216
102
RTVSPost2010PropOp51
 70
     0
102
RTVSPost2010Prop52
140
1.0
102
RTVSPost2010PropOp52
 70
     0
102
RTVSPost2010Prop53
 90
        2
102
RTVSPost2010PropOp53
 70
     1
102
RTVSPost2010Prop54
  1
strokes_ogs.tif
102
RTVSPost2010PropOp54
 70
     1
102
RTVSPost2010Prop55
280
     0
102
RTVSPost2010PropOp55
 70
     1
102
RTVSPost2010Prop56
140
1.0
102
RTVSPost2010PropOp56
 70
     1
102
RTVSPost2010Prop57
140
1.0
102
RTVSPost2010PropOp57
 70
     1
102
RTVSPropertyOp0
 70
     1
102
RTVSPropertyOp1
 70
     1
102
RTVSPropertyOp2
 70
     1
102
RTVSPropertyOp3
 70
     1
102
RTVSPropertyOp4
 70
     1
102
RTVSPropertyOp5
 70
     1
102
RTVSPropertyOp6
 70
     1
102
RTVSPropertyOp7
 70
     1
102
RTVSPropertyOp8
 70
     1
102
RTVSPropertyOp9
 70
     1
102
RTVSPropertyOp10
 70
     1
102
RTVSPropertyOp11
 70
     1
102
RTVSPropertyOp12
 70
     1
102
RTVSPropertyOp13
 70
     1
102
RTVSPropertyOp14
 70
     1
102
RTVSPropertyOp15
 70
     1
102
RTVSPropertyOp16
 70
     1
102
RTVSPropertyOp17
 70
     1
102
RTVSPropertyOp18
 70
     1
102
RTVSPropertyOp19
 70
     1
102
RTVSPropertyOp20
 70
     1
102
RTVSPropertyOp21
 70
     1
102
RTVSPropertyOp22
 70
     1
102
RTVSPropertyOp23
 70
     1
102
RTVSPropertyOp24
 70
     1
102
RTVSPropertyOp25
 70
     1
102
RTVSPropertyOp26
 70
     1
102
RTVSPropertyOp27
 70
     1
102
RTVSPropertyOp28
 70
     1
102
RTVSPropertyOp29
 70
     1
102
RTVSPropertyOp30
 70
     1
102
RTVSPropertyOp31
 70
     1
102
RTVSPropertyOp32
 70
     1
102
RTVSPropertyOp33
 70
     1
102
RTVSPropertyOp34
 70
     1
102
RTVSPropertyOp35
 70
     1
102
RTVSPropertyOp36
 70
     1
102
RTVSPropertyOp37
 70
     1
102
RTVSPropertyOp38
 70
     1
102
RTVSPropertyOp39
 70
     1
102
RTVSPropertyOp40
 70
     1
102
RTVSPropertyOp41
 70
     1
102
RTVSPropertyOp42
 70
     1
102
RTVSPropertyOp43
 70
     1
102
RTVSPropertyOp44
 70
     1
102
RTVSPropertyOp45
 70
     1
102
RTVSPropertyOp46
 70
     1
102
RTVSPropertyOp47
 70
     1
102
RTVSPropertyOp48
 70
     1
102
RTVSPropertyOp49
 70
     1
102
RTVSPropertyOp50
 70
     1
102
RTVSPropertyOp51
 70
     0
102
RTVSPropertyOp52
 70
     0
102
RTVSPropertyOp53
 70
     1
102
RTVSPropertyOp54
 70
     1
102
RTVSPropertyOp55
 70
     1
102
RTVSPropertyOp56
 70
     1
102
RTVSPropertyOp57
 70
     1
102
RTVSPropertyOp58
 70
     1
102
RTVSPropertyOp59
 70
     1
102
RTVSPropertyOp60
 70
     1
102
RTVSPropertyOp61
 70
     1
102
RTVSPropertyOp62
 70
     1
  0
XRECORD
  5
5D6
102
{ACAD_REACTORS
330
5D5
102
}
330
5D5
100
AcDbXrecord
280
     1
102
RTVSPost2010Prop28
280
     0
102
RTVSPost2010PropOp28
 70
     1
102
RTVSPost2010Prop29
280
     1
102
RTVSPost2010PropOp29
 70
     1
102
RTVSPost2010Prop30
280
     1
102
RTVSPost2010PropOp30
 70
     1
102
RTVSPost2010Prop31
280
     0
102
RTVSPost2010PropOp31
 70
     1
102
RTVSPost2010Prop32
280
     0
102
RTVSPost2010PropOp32
 70
     1
102
RTVSPost2010Prop33
280
     0
102
RTVSPost2010PropOp33
 70
     1
102
RTVSPost2010Prop34
280
     0
102
RTVSPost2010PropOp34
 70
     1
102
RTVSPost2010Prop35
280
     0
102
RTVSPost2010PropOp35
 70
     1
102
RTVSPost2010Prop36
280
     0
102
RTVSPost2010PropOp36
 70
     1
102
RTVSPost2010Prop37
 90
       50
102
RTVSPost2010PropOp37
 70
     1
102
RTVSPost2010Prop38
140
0.0
102
RTVSPost2010PropOp38
 70
     1
102
RTVSPost2010Prop39
140
1.0
102
RTVSPost2010PropOp39
 70
     1
102
RTVSPost2010Prop40
 90
        0
102
RTVSPost2010PropOp40
 70
     1
102
RTVSPost2010Prop41ColorIndex
 90
       18
102
RTVSPost2010Prop41ColorRGB
 90
        0
102
RTVSPost2010PropOp41
 70
     1
102
RTVSPost2010Prop42
 90
       50
102
RTVSPost2010PropOp42
 70
     1
102
RTVSPost2010Prop43
 90
        3
102
RTVSPost2010PropOp43
 70
     1
102
RTVSPost2010Prop44ColorIndex
 90
        5
102
RTVSPost2010Prop44ColorRGB
 90
      255
102
RTVSPost2010PropOp44
 70
     1
102
RTVSPost2010Prop45
280
     0
102
RTVSPost2010PropOp45
 70
     1
102
RTVSPost2010Prop46
 90
       50
102
RTVSPost2010PropOp46
 70
     1
102
RTVSPost2010Prop47
 90
       50
102
RTVSPost2010PropOp47
 70
     1
102
RTVSPost2010Prop48
 90
       50
102
RTVSPost2010PropOp48
 70
     1
102
RTVSPost2010Prop49
280
     0
102
RTVSPost2010PropOp49
 70
     1
102
RTVSPost2010Prop50
 90
       50
102
RTVSPost2010PropOp50
 70
     1
102
RTVSPost2010Prop51ColorIndex
 90
      256
102
RTVSPost2010Prop51ColorRGB
 90
-16777216
102
RTVSPost2010PropOp51
 70
     0
102
RTVSPost2010Prop52
140
1.0
102
RTVSPost2010PropOp52
 70
     0
102
RTVSPost2010Prop53
 90
        2
102
RTVSPost2010PropOp53
 70
     1
102
RTVSPost2010Prop54
  1
strokes_ogs.tif
102
RTVSPost2010PropOp54
 70
     1
102
RTVSPost2010Prop55
280
     0
102
RTVSPost2010PropOp55
 70
     1
102
RTVSPost2010Prop56
140
1.0
102
RTVSPost2010PropOp56
 70
     1
102
RTVSPost2010Prop57
140
1.0
102
RTVSPost2010PropOp57
 70
     1
102
RTVSPropertyOp0
 70
     1
102
RTVSPropertyOp1
 70
     1
102
RTVSPropertyOp2
 70
     1
102
RTVSPropertyOp3
 70
     1
102
RTVSPropertyOp4
 70
     1
102
RTVSPropertyOp5
 70
     1
102
RTVSPropertyOp6
 70
     1
102
RTVSPropertyOp7
 70
     1
102
RTVSPropertyOp8
 70
     1
102
RTVSPropertyOp9
 70
     1
102
RTVSPropertyOp10
 70
     1
102
RTVSPropertyOp11
 70
     1
102
RTVSPropertyOp12
 70
     1
102
RTVSPropertyOp13
 70
     1
102
RTVSPropertyOp14
 70
     1
102
RTVSPropertyOp15
 70
     1
102
RTVSPropertyOp16
 70
     1
102
RTVSPropertyOp17
 70
     1
102
RTVSPropertyOp18
 70
     1
102
RTVSPropertyOp19
 70
     1
102
RTVSPropertyOp20
 70
     1
102
RTVSPropertyOp21
 70
     1
102
RTVSPropertyOp22
 70
     1
102
RTVSPropertyOp23
 70
     1
102
RTVSPropertyOp24
 70
     1
102
RTVSPropertyOp25
 70
     1
102
RTVSPropertyOp26
 70
     1
102
RTVSPropertyOp27
 70
     1
102
RTVSPropertyOp28
 70
     1
102
RTVSPropertyOp29
 70
     1
102
RTVSPropertyOp30
 70
     1
102
RTVSPropertyOp31
 70
     1
102
RTVSPropertyOp32
 70
     1
102
RTVSPropertyOp33
 70
     1
102
RTVSPropertyOp34
 70
     1
102
RTVSPropertyOp35
 70
     1
102
RTVSPropertyOp36
 70
     1
102
RTVSPropertyOp37
 70
     1
102
RTVSPropertyOp38
 70
     1
102
RTVSPropertyOp39
 70
     1
102
RTVSPropertyOp40
 70
     1
102
RTVSPropertyOp41
 70
     1
102
RTVSPropertyOp42
 70
     1
102
RTVSPropertyOp43
 70
     1
102
RTVSPropertyOp44
 70
     1
102
RTVSPropertyOp45
 70
     1
102
RTVSPropertyOp46
 70
     1
102
RTVSPropertyOp47
 70
     1
102
RTVSPropertyOp48
 70
     1
102
RTVSPropertyOp49
 70
     1
102
RTVSPropertyOp50
 70
     1
102
RTVSPropertyOp51
 70
     0
102
RTVSPropertyOp52
 70
     0
102
RTVSPropertyOp53
 70
     1
102
RTVSPropertyOp54
 70
     1
102
RTVSPropertyOp55
 70
     1
102
RTVSPropertyOp56
 70
     1
102
RTVSPropertyOp57
 70
     1
102
RTVSPropertyOp58
 70
     1
102
RTVSPropertyOp59
 70
     1
102
RTVSPropertyOp60
 70
     1
102
RTVSPropertyOp61
 70
     1
102
RTVSPropertyOp62
 70
     1
  0
XRECORD
  5
5DE
102
{ACAD_REACTORS
330
5DD
102
}
330
5DD
100
AcDbXrecord
280
     1
102
RTVSPost2010Prop28
280
     0
102
RTVSPost2010PropOp28
 70
     1
102
RTVSPost2010Prop29
280
     1
102
RTVSPost2010PropOp29
 70
     1
102
RTVSPost2010Prop30
280
     1
102
RTVSPost2010PropOp30
 70
     1
102
RTVSPost2010Prop31
280
     0
102
RTVSPost2010PropOp31
 70
     1
102
RTVSPost2010Prop32
280
     0
102
RTVSPost2010PropOp32
 70
     1
102
RTVSPost2010Prop33
280
     0
102
RTVSPost2010PropOp33
 70
     1
102
RTVSPost2010Prop34
280
     0
102
RTVSPost2010PropOp34
 70
     1
102
RTVSPost2010Prop35
280
     0
102
RTVSPost2010PropOp35
 70
     1
102
RTVSPost2010Prop36
280
     0
102
RTVSPost2010PropOp36
 70
     1
102
RTVSPost2010Prop37
 90
       50
102
RTVSPost2010PropOp37
 70
     1
102
RTVSPost2010Prop38
140
0.0
102
RTVSPost2010PropOp38
 70
     1
102
RTVSPost2010Prop39
140
1.0
102
RTVSPost2010PropOp39
 70
     1
102
RTVSPost2010Prop40
 90
        0
102
RTVSPost2010PropOp40
 70
     1
102
RTVSPost2010Prop41ColorIndex
 90
       18
102
RTVSPost2010Prop41ColorRGB
 90
        0
102
RTVSPost2010PropOp41
 70
     1
102
RTVSPost2010Prop42
 90
       50
102
RTVSPost2010PropOp42
 70
     1
102
RTVSPost2010Prop43
 90
        3
102
RTVSPost2010PropOp43
 70
     1
102
RTVSPost2010Prop44ColorIndex
 90
        5
102
RTVSPost2010Prop44ColorRGB
 90
      255
102
RTVSPost2010PropOp44
 70
     1
102
RTVSPost2010Prop45
280
     0
102
RTVSPost2010PropOp45
 70
     1
102
RTVSPost2010Prop46
 90
       50
102
RTVSPost2010PropOp46
 70
     1
102
RTVSPost2010Prop47
 90
       50
102
RTVSPost2010PropOp47
 70
     1
102
RTVSPost2010Prop48
 90
       50
102
RTVSPost2010PropOp48
 70
     1
102
RTVSPost2010Prop49
280
     0
102
RTVSPost2010PropOp49
 70
     1
102
RTVSPost2010Prop50
 90
       50
102
RTVSPost2010PropOp50
 70
     1
102
RTVSPost2010Prop51ColorIndex
 90
      256
102
RTVSPost2010Prop51ColorRGB
 90
-16777216
102
RTVSPost2010PropOp51
 70
     0
102
RTVSPost2010Prop52
140
1.0
102
RTVSPost2010PropOp52
 70
     0
102
RTVSPost2010Prop53
 90
        2
102
RTVSPost2010PropOp53
 70
     1
102
RTVSPost2010Prop54
  1
strokes_ogs.tif
102
RTVSPost2010PropOp54
 70
     1
102
RTVSPost2010Prop55
280
     0
102
RTVSPost2010PropOp55
 70
     1
102
RTVSPost2010Prop56
140
1.0
102
RTVSPost2010PropOp56
 70
     1
102
RTVSPost2010Prop57
140
1.0
102
RTVSPost2010PropOp57
 70
     1
102
RTVSPropertyOp0
 70
     1
102
RTVSPropertyOp1
 70
     1
102
RTVSPropertyOp2
 70
     1
102
RTVSPropertyOp3
 70
     1
102
RTVSPropertyOp4
 70
     1
102
RTVSPropertyOp5
 70
     1
102
RTVSPropertyOp6
 70
     1
102
RTVSPropertyOp7
 70
     1
102
RTVSPropertyOp8
 70
     1
102
RTVSPropertyOp9
 70
     1
102
RTVSPropertyOp10
 70
     1
102
RTVSPropertyOp11
 70
     1
102
RTVSPropertyOp12
 70
     1
102
RTVSPropertyOp13
 70
     1
102
RTVSPropertyOp14
 70
     1
102
RTVSPropertyOp15
 70
     1
102
RTVSPropertyOp16
 70
     1
102
RTVSPropertyOp17
 70
     1
102
RTVSPropertyOp18
 70
     1
102
RTVSPropertyOp19
 70
     1
102
RTVSPropertyOp20
 70
     1
102
RTVSPropertyOp21
 70
     1
102
RTVSPropertyOp22
 70
     1
102
RTVSPropertyOp23
 70
     1
102
RTVSPropertyOp24
 70
     1
102
RTVSPropertyOp25
 70
     1
102
RTVSPropertyOp26
 70
     1
102
RTVSPropertyOp27
 70
     1
102
RTVSPropertyOp28
 70
     1
102
RTVSPropertyOp29
 70
     1
102
RTVSPropertyOp30
 70
     1
102
RTVSPropertyOp31
 70
     1
102
RTVSPropertyOp32
 70
     1
102
RTVSPropertyOp33
 70
     1
102
RTVSPropertyOp34
 70
     1
102
RTVSPropertyOp35
 70
     1
102
RTVSPropertyOp36
 70
     1
102
RTVSPropertyOp37
 70
     1
102
RTVSPropertyOp38
 70
     1
102
RTVSPropertyOp39
 70
     1
102
RTVSPropertyOp40
 70
     1
102
RTVSPropertyOp41
 70
     1
102
RTVSPropertyOp42
 70
     1
102
RTVSPropertyOp43
 70
     1
102
RTVSPropertyOp44
 70
     1
102
RTVSPropertyOp45
 70
     1
102
RTVSPropertyOp46
 70
     1
102
RTVSPropertyOp47
 70
     1
102
RTVSPropertyOp48
 70
     1
102
RTVSPropertyOp49
 70
     1
102
RTVSPropertyOp50
 70
     1
102
RTVSPropertyOp51
 70
     0
102
RTVSPropertyOp52
 70
     0
102
RTVSPropertyOp53
 70
     1
102
RTVSPropertyOp54
 70
     1
102
RTVSPropertyOp55
 70
     1
102
RTVSPropertyOp56
 70
     1
102
RTVSPropertyOp57
 70
     1
102
RTVSPropertyOp58
 70
     1
102
RTVSPropertyOp59
 70
     1
102
RTVSPropertyOp60
 70
     1
102
RTVSPropertyOp61
 70
     1
102
RTVSPropertyOp62
 70
     1
  0
XRECORD
  5
5FA
102
{ACAD_REACTORS
330
5F9
102
}
330
5F9
100
AcDbXrecord
280
     1
102
RTVSPost2010Prop28
280
     0
102
RTVSPost2010PropOp28
 70
     1
102
RTVSPost2010Prop29
280
     1
102
RTVSPost2010PropOp29
 70
     1
102
RTVSPost2010Prop30
280
     1
102
RTVSPost2010PropOp30
 70
     1
102
RTVSPost2010Prop31
280
     0
102
RTVSPost2010PropOp31
 70
     1
102
RTVSPost2010Prop32
280
     0
102
RTVSPost2010PropOp32
 70
     1
102
RTVSPost2010Prop33
280
     0
102
RTVSPost2010PropOp33
 70
     1
102
RTVSPost2010Prop34
280
     0
102
RTVSPost2010PropOp34
 70
     1
102
RTVSPost2010Prop35
280
     0
102
RTVSPost2010PropOp35
 70
     1
102
RTVSPost2010Prop36
280
     0
102
RTVSPost2010PropOp36
 70
     1
102
RTVSPost2010Prop37
 90
       50
102
RTVSPost2010PropOp37
 70
     0
102
RTVSPost2010Prop38
140
0.0
102
RTVSPost2010PropOp38
 70
     0
102
RTVSPost2010Prop39
140
1.0
102
RTVSPost2010PropOp39
 70
     0
102
RTVSPost2010Prop40
 90
        0
102
RTVSPost2010PropOp40
 70
     0
102
RTVSPost2010Prop41ColorIndex
 90
       18
102
RTVSPost2010Prop41ColorRGB
 90
        0
102
RTVSPost2010PropOp41
 70
     0
102
RTVSPost2010Prop42
 90
       50
102
RTVSPost2010PropOp42
 70
     0
102
RTVSPost2010Prop43
 90
        3
102
RTVSPost2010PropOp43
 70
     0
102
RTVSPost2010Prop44ColorIndex
 90
        5
102
RTVSPost2010Prop44ColorRGB
 90
      255
102
RTVSPost2010PropOp44
 70
     0
102
RTVSPost2010Prop45
280
     0
102
RTVSPost2010PropOp45
 70
     1
102
RTVSPost2010Prop46
 90
       50
102
RTVSPost2010PropOp46
 70
     0
102
RTVSPost2010Prop47
 90
       50
102
RTVSPost2010PropOp47
 70
     0
102
RTVSPost2010Prop48
 90
       50
102
RTVSPost2010PropOp48
 70
     0
102
RTVSPost2010Prop49
280
     0
102
RTVSPost2010PropOp49
 70
     1
102
RTVSPost2010Prop50
 90
       50
102
RTVSPost2010PropOp50
 70
     0
102
RTVSPost2010Prop51ColorIndex
 90
      256
102
RTVSPost2010Prop51ColorRGB
 90
-16777216
102
RTVSPost2010PropOp51
 70
     0
102
RTVSPost2010Prop52
140
1.0
102
RTVSPost2010PropOp52
 70
     0
102
RTVSPost2010Prop53
 90
        2
102
RTVSPost2010PropOp53
 70
     0
102
RTVSPost2010Prop54
  1
strokes_ogs.tif
102
RTVSPost2010PropOp54
 70
     0
102
RTVSPost2010Prop55
280
     0
102
RTVSPost2010PropOp55
 70
     1
102
RTVSPost2010Prop56
140
1.0
102
RTVSPost2010PropOp56
 70
     0
102
RTVSPost2010Prop57
140
1.0
102
RTVSPost2010PropOp57
 70
     0
102
RTVSPropertyOp0
 70
     0
102
RTVSPropertyOp1
 70
     0
102
RTVSPropertyOp2
 70
     0
102
RTVSPropertyOp3
 70
     0
102
RTVSPropertyOp4
 70
     0
102
RTVSPropertyOp5
 70
     0
102
RTVSPropertyOp6
 70
     0
102
RTVSPropertyOp7
 70
     0
102
RTVSPropertyOp8
 70
     0
102
RTVSPropertyOp9
 70
     0
102
RTVSPropertyOp10
 70
     0
102
RTVSPropertyOp11
 70
     0
102
RTVSPropertyOp12
 70
     0
102
RTVSPropertyOp13
 70
     0
102
RTVSPropertyOp14
 70
     2
102
RTVSPropertyOp15
 70
     0
102
RTVSPropertyOp16
 70
     0
102
RTVSPropertyOp17
 70
     0
102
RTVSPropertyOp18
 70
     0
102
RTVSPropertyOp19
 70
     0
102
RTVSPropertyOp20
 70
     0
102
RTVSPropertyOp21
 70
     0
102
RTVSPropertyOp22
 70
     0
102
RTVSPropertyOp23
 70
     0
102
RTVSPropertyOp24
 70
     0
102
RTVSPropertyOp25
 70
     0
102
RTVSPropertyOp26
 70
     0
102
RTVSPropertyOp27
 70
     0
102
RTVSPropertyOp28
 70
     1
102
RTVSPropertyOp29
 70
     1
102
RTVSPropertyOp30
 70
     1
102
RTVSPropertyOp31
 70
     1
102
RTVSPropertyOp32
 70
     1
102
RTVSPropertyOp33
 70
     1
102
RTVSPropertyOp34
 70
     1
102
RTVSPropertyOp35
 70
     1
102
RTVSPropertyOp36
 70
     1
102
RTVSPropertyOp37
 70
     0
102
RTVSPropertyOp38
 70
     0
102
RTVSPropertyOp39
 70
     0
102
RTVSPropertyOp40
 70
     0
102
RTVSPropertyOp41
 70
     0
102
RTVSPropertyOp42
 70
     0
102
RTVSPropertyOp43
 70
     0
102
RTVSPropertyOp44
 70
     0
102
RTVSPropertyOp45
 70
     1
102
RTVSPropertyOp46
 70
     0
102
RTVSPropertyOp47
 70
     0
102
RTVSPropertyOp48
 70
     0
102
RTVSPropertyOp49
 70
     1
102
RTVSPropertyOp50
 70
     0
102
RTVSPropertyOp51
 70
     0
102
RTVSPropertyOp52
 70
     0
102
RTVSPropertyOp53
 70
     0
102
RTVSPropertyOp54
 70
     0
102
RTVSPropertyOp55
 70
     1
102
RTVSPropertyOp56
 70
     0
102
RTVSPropertyOp57
 70
     0
102
RTVSPropertyOp58
 70
     0
102
RTVSPropertyOp59
 70
     0
102
RTVSPropertyOp60
 70
     0
102
RTVSPropertyOp61
 70
     0
102
RTVSPropertyOp62
 70
     0
  0
XRECORD
  5
5EA
102
{ACAD_REACTORS
330
5E9
102
}
330
5E9
100
AcDbXrecord
280
     1
102
RTVSPost2010Prop28
280
     0
102
RTVSPost2010PropOp28
 70
     1
102
RTVSPost2010Prop29
280
     1
102
RTVSPost2010PropOp29
 70
     1
102
RTVSPost2010Prop30
280
     1
102
RTVSPost2010PropOp30
 70
     1
102
RTVSPost2010Prop31
280
     0
102
RTVSPost2010PropOp31
 70
     1
102
RTVSPost2010Prop32
280
     0
102
RTVSPost2010PropOp32
 70
     1
102
RTVSPost2010Prop33
280
     0
102
RTVSPost2010PropOp33
 70
     1
102
RTVSPost2010Prop34
280
     0
102
RTVSPost2010PropOp34
 70
     1
102
RTVSPost2010Prop35
280
     0
102
RTVSPost2010PropOp35
 70
     1
102
RTVSPost2010Prop36
280
     0
102
RTVSPost2010PropOp36
 70
     1
102
RTVSPost2010Prop37
 90
       50
102
RTVSPost2010PropOp37
 70
     1
102
RTVSPost2010Prop38
140
0.0
102
RTVSPost2010PropOp38
 70
     1
102
RTVSPost2010Prop39
140
1.0
102
RTVSPost2010PropOp39
 70
     1
102
RTVSPost2010Prop40
 90
        0
102
RTVSPost2010PropOp40
 70
     1
102
RTVSPost2010Prop41ColorIndex
 90
       18
102
RTVSPost2010Prop41ColorRGB
 90
        0
102
RTVSPost2010PropOp41
 70
     1
102
RTVSPost2010Prop42
 90
       50
102
RTVSPost2010PropOp42
 70
     1
102
RTVSPost2010Prop43
 90
        3
102
RTVSPost2010PropOp43
 70
     1
102
RTVSPost2010Prop44ColorIndex
 90
        5
102
RTVSPost2010Prop44ColorRGB
 90
      255
102
RTVSPost2010PropOp44
 70
     1
102
RTVSPost2010Prop45
280
     0
102
RTVSPost2010PropOp45
 70
     1
102
RTVSPost2010Prop46
 90
       50
102
RTVSPost2010PropOp46
 70
     1
102
RTVSPost2010Prop47
 90
       50
102
RTVSPost2010PropOp47
 70
     1
102
RTVSPost2010Prop48
 90
       50
102
RTVSPost2010PropOp48
 70
     1
102
RTVSPost2010Prop49
280
     0
102
RTVSPost2010PropOp49
 70
     1
102
RTVSPost2010Prop50
 90
       50
102
RTVSPost2010PropOp50
 70
     1
102
RTVSPost2010Prop51ColorIndex
 90
      256
102
RTVSPost2010Prop51ColorRGB
 90
-16777216
102
RTVSPost2010PropOp51
 70
     0
102
RTVSPost2010Prop52
140
1.0
102
RTVSPost2010PropOp52
 70
     0
102
RTVSPost2010Prop53
 90
        2
102
RTVSPost2010PropOp53
 70
     1
102
RTVSPost2010Prop54
  1
strokes_ogs.tif
102
RTVSPost2010PropOp54
 70
     1
102
RTVSPost2010Prop55
280
     0
102
RTVSPost2010PropOp55
 70
     1
102
RTVSPost2010Prop56
140
1.0
102
RTVSPost2010PropOp56
 70
     1
102
RTVSPost2010Prop57
140
1.0
102
RTVSPost2010PropOp57
 70
     1
102
RTVSPropertyOp0
 70
     1
102
RTVSPropertyOp1
 70
     1
102
RTVSPropertyOp2
 70
     1
102
RTVSPropertyOp3
 70
     1
102
RTVSPropertyOp4
 70
     1
102
RTVSPropertyOp5
 70
     1
102
RTVSPropertyOp6
 70
     1
102
RTVSPropertyOp7
 70
     1
102
RTVSPropertyOp8
 70
     1
102
RTVSPropertyOp9
 70
     1
102
RTVSPropertyOp10
 70
     1
102
RTVSPropertyOp11
 70
     1
102
RTVSPropertyOp12
 70
     1
102
RTVSPropertyOp13
 70
     1
102
RTVSPropertyOp14
 70
     1
102
RTVSPropertyOp15
 70
     1
102
RTVSPropertyOp16
 70
     1
102
RTVSPropertyOp17
 70
     1
102
RTVSPropertyOp18
 70
     1
102
RTVSPropertyOp19
 70
     1
102
RTVSPropertyOp20
 70
     1
102
RTVSPropertyOp21
 70
     1
102
RTVSPropertyOp22
 70
     1
102
RTVSPropertyOp23
 70
     1
102
RTVSPropertyOp24
 70
     1
102
RTVSPropertyOp25
 70
     1
102
RTVSPropertyOp26
 70
     1
102
RTVSPropertyOp27
 70
     1
102
RTVSPropertyOp28
 70
     1
102
RTVSPropertyOp29
 70
     1
102
RTVSPropertyOp30
 70
     1
102
RTVSPropertyOp31
 70
     1
102
RTVSPropertyOp32
 70
     1
102
RTVSPropertyOp33
 70
     1
102
RTVSPropertyOp34
 70
     1
102
RTVSPropertyOp35
 70
     1
102
RTVSPropertyOp36
 70
     1
102
RTVSPropertyOp37
 70
     1
102
RTVSPropertyOp38
 70
     1
102
RTVSPropertyOp39
 70
     1
102
RTVSPropertyOp40
 70
     1
102
RTVSPropertyOp41
 70
     1
102
RTVSPropertyOp42
 70
     1
102
RTVSPropertyOp43
 70
     1
102
RTVSPropertyOp44
 70
     1
102
RTVSPropertyOp45
 70
     1
102
RTVSPropertyOp46
 70
     1
102
RTVSPropertyOp47
 70
     1
102
RTVSPropertyOp48
 70
     1
102
RTVSPropertyOp49
 70
     1
102
RTVSPropertyOp50
 70
     1
102
RTVSPropertyOp51
 70
     0
102
RTVSPropertyOp52
 70
     0
102
RTVSPropertyOp53
 70
     1
102
RTVSPropertyOp54
 70
     1
102
RTVSPropertyOp55
 70
     1
102
RTVSPropertyOp56
 70
     1
102
RTVSPropertyOp57
 70
     1
102
RTVSPropertyOp58
 70
     1
102
RTVSPropertyOp59
 70
     1
102
RTVSPropertyOp60
 70
     1
102
RTVSPropertyOp61
 70
     1
102
RTVSPropertyOp62
 70
     1
  0
XRECORD
  5
5FC
102
{ACAD_REACTORS
330
5FB
102
}
330
5FB
100
AcDbXrecord
280
     1
102
RTVSPost2010Prop28
280
     0
102
RTVSPost2010PropOp28
 70
     1
102
RTVSPost2010Prop29
280
     1
102
RTVSPost2010PropOp29
 70
     1
102
RTVSPost2010Prop30
280
     1
102
RTVSPost2010PropOp30
 70
     1
102
RTVSPost2010Prop31
280
     0
102
RTVSPost2010PropOp31
 70
     1
102
RTVSPost2010Prop32
280
     0
102
RTVSPost2010PropOp32
 70
     1
102
RTVSPost2010Prop33
280
     0
102
RTVSPost2010PropOp33
 70
     1
102
RTVSPost2010Prop34
280
     0
102
RTVSPost2010PropOp34
 70
     1
102
RTVSPost2010Prop35
280
     0
102
RTVSPost2010PropOp35
 70
     1
102
RTVSPost2010Prop36
280
     0
102
RTVSPost2010PropOp36
 70
     1
102
RTVSPost2010Prop37
 90
       50
102
RTVSPost2010PropOp37
 70
     0
102
RTVSPost2010Prop38
140
0.0
102
RTVSPost2010PropOp38
 70
     0
102
RTVSPost2010Prop39
140
1.0
102
RTVSPost2010PropOp39
 70
     0
102
RTVSPost2010Prop40
 90
        0
102
RTVSPost2010PropOp40
 70
     0
102
RTVSPost2010Prop41ColorIndex
 90
       18
102
RTVSPost2010Prop41ColorRGB
 90
        0
102
RTVSPost2010PropOp41
 70
     0
102
RTVSPost2010Prop42
 90
       50
102
RTVSPost2010PropOp42
 70
     0
102
RTVSPost2010Prop43
 90
        3
102
RTVSPost2010PropOp43
 70
     0
102
RTVSPost2010Prop44ColorIndex
 90
        5
102
RTVSPost2010Prop44ColorRGB
 90
      255
102
RTVSPost2010PropOp44
 70
     0
102
RTVSPost2010Prop45
280
     0
102
RTVSPost2010PropOp45
 70
     1
102
RTVSPost2010Prop46
 90
       50
102
RTVSPost2010PropOp46
 70
     0
102
RTVSPost2010Prop47
 90
       50
102
RTVSPost2010PropOp47
 70
     0
102
RTVSPost2010Prop48
 90
       50
102
RTVSPost2010PropOp48
 70
     0
102
RTVSPost2010Prop49
280
     0
102
RTVSPost2010PropOp49
 70
     1
102
RTVSPost2010Prop50
 90
       50
102
RTVSPost2010PropOp50
 70
     0
102
RTVSPost2010Prop51ColorIndex
 90
      256
102
RTVSPost2010Prop51ColorRGB
 90
-16777216
102
RTVSPost2010PropOp51
 70
     0
102
RTVSPost2010Prop52
140
1.0
102
RTVSPost2010PropOp52
 70
     0
102
RTVSPost2010Prop53
 90
        2
102
RTVSPost2010PropOp53
 70
     0
102
RTVSPost2010Prop54
  1
strokes_ogs.tif
102
RTVSPost2010PropOp54
 70
     0
102
RTVSPost2010Prop55
280
     0
102
RTVSPost2010PropOp55
 70
     1
102
RTVSPost2010Prop56
140
1.0
102
RTVSPost2010PropOp56
 70
     0
102
RTVSPost2010Prop57
140
1.0
102
RTVSPost2010PropOp57
 70
     0
102
RTVSPropertyOp0
 70
     0
102
RTVSPropertyOp1
 70
     0
102
RTVSPropertyOp2
 70
     0
102
RTVSPropertyOp3
 70
     0
102
RTVSPropertyOp4
 70
     0
102
RTVSPropertyOp5
 70
     0
102
RTVSPropertyOp6
 70
     0
102
RTVSPropertyOp7
 70
     0
102
RTVSPropertyOp8
 70
     0
102
RTVSPropertyOp9
 70
     0
102
RTVSPropertyOp10
 70
     0
102
RTVSPropertyOp11
 70
     0
102
RTVSPropertyOp12
 70
     0
102
RTVSPropertyOp13
 70
     0
102
RTVSPropertyOp14
 70
     2
102
RTVSPropertyOp15
 70
     0
102
RTVSPropertyOp16
 70
     0
102
RTVSPropertyOp17
 70
     0
102
RTVSPropertyOp18
 70
     0
102
RTVSPropertyOp19
 70
     0
102
RTVSPropertyOp20
 70
     0
102
RTVSPropertyOp21
 70
     0
102
RTVSPropertyOp22
 70
     0
102
RTVSPropertyOp23
 70
     0
102
RTVSPropertyOp24
 70
     0
102
RTVSPropertyOp25
 70
     0
102
RTVSPropertyOp26
 70
     0
102
RTVSPropertyOp27
 70
     0
102
RTVSPropertyOp28
 70
     1
102
RTVSPropertyOp29
 70
     1
102
RTVSPropertyOp30
 70
     1
102
RTVSPropertyOp31
 70
     1
102
RTVSPropertyOp32
 70
     1
102
RTVSPropertyOp33
 70
     1
102
RTVSPropertyOp34
 70
     1
102
RTVSPropertyOp35
 70
     1
102
RTVSPropertyOp36
 70
     1
102
RTVSPropertyOp37
 70
     0
102
RTVSPropertyOp38
 70
     0
102
RTVSPropertyOp39
 70
     0
102
RTVSPropertyOp40
 70
     0
102
RTVSPropertyOp41
 70
     0
102
RTVSPropertyOp42
 70
     0
102
RTVSPropertyOp43
 70
     0
102
RTVSPropertyOp44
 70
     0
102
RTVSPropertyOp45
 70
     1
102
RTVSPropertyOp46
 70
     0
102
RTVSPropertyOp47
 70
     0
102
RTVSPropertyOp48
 70
     0
102
RTVSPropertyOp49
 70
     1
102
RTVSPropertyOp50
 70
     0
102
RTVSPropertyOp51
 70
     0
102
RTVSPropertyOp52
 70
     0
102
RTVSPropertyOp53
 70
     0
102
RTVSPropertyOp54
 70
     0
102
RTVSPropertyOp55
 70
     1
102
RTVSPropertyOp56
 70
     0
102
RTVSPropertyOp57
 70
     0
102
RTVSPropertyOp58
 70
     0
102
RTVSPropertyOp59
 70
     0
102
RTVSPropertyOp60
 70
     0
102
RTVSPropertyOp61
 70
     0
102
RTVSPropertyOp62
 70
     0
  0
XRECORD
  5
5E2
102
{ACAD_REACTORS
330
5E1
102
}
330
5E1
100
AcDbXrecord
280
     1
102
RTVSPost2010Prop28
280
     0
102
RTVSPost2010PropOp28
 70
     1
102
RTVSPost2010Prop29
280
     1
102
RTVSPost2010PropOp29
 70
     1
102
RTVSPost2010Prop30
280
     1
102
RTVSPost2010PropOp30
 70
     1
102
RTVSPost2010Prop31
280
     0
102
RTVSPost2010PropOp31
 70
     1
102
RTVSPost2010Prop32
280
     0
102
RTVSPost2010PropOp32
 70
     1
102
RTVSPost2010Prop33
280
     0
102
RTVSPost2010PropOp33
 70
     1
102
RTVSPost2010Prop34
280
     0
102
RTVSPost2010PropOp34
 70
     1
102
RTVSPost2010Prop35
280
     0
102
RTVSPost2010PropOp35
 70
     1
102
RTVSPost2010Prop36
280
     0
102
RTVSPost2010PropOp36
 70
     1
102
RTVSPost2010Prop37
 90
       50
102
RTVSPost2010PropOp37
 70
     1
102
RTVSPost2010Prop38
140
0.0
102
RTVSPost2010PropOp38
 70
     1
102
RTVSPost2010Prop39
140
1.0
102
RTVSPost2010PropOp39
 70
     1
102
RTVSPost2010Prop40
 90
        0
102
RTVSPost2010PropOp40
 70
     1
102
RTVSPost2010Prop41ColorIndex
 90
       18
102
RTVSPost2010Prop41ColorRGB
 90
        0
102
RTVSPost2010PropOp41
 70
     1
102
RTVSPost2010Prop42
 90
       50
102
RTVSPost2010PropOp42
 70
     1
102
RTVSPost2010Prop43
 90
        3
102
RTVSPost2010PropOp43
 70
     1
102
RTVSPost2010Prop44ColorIndex
 90
        5
102
RTVSPost2010Prop44ColorRGB
 90
      255
102
RTVSPost2010PropOp44
 70
     1
102
RTVSPost2010Prop45
280
     0
102
RTVSPost2010PropOp45
 70
     1
102
RTVSPost2010Prop46
 90
       50
102
RTVSPost2010PropOp46
 70
     1
102
RTVSPost2010Prop47
 90
       50
102
RTVSPost2010PropOp47
 70
     1
102
RTVSPost2010Prop48
 90
       50
102
RTVSPost2010PropOp48
 70
     1
102
RTVSPost2010Prop49
280
     0
102
RTVSPost2010PropOp49
 70
     1
102
RTVSPost2010Prop50
 90
       50
102
RTVSPost2010PropOp50
 70
     1
102
RTVSPost2010Prop51ColorIndex
 90
      256
102
RTVSPost2010Prop51ColorRGB
 90
-16777216
102
RTVSPost2010PropOp51
 70
     0
102
RTVSPost2010Prop52
140
1.0
102
RTVSPost2010PropOp52
 70
     0
102
RTVSPost2010Prop53
 90
        2
102
RTVSPost2010PropOp53
 70
     1
102
RTVSPost2010Prop54
  1
strokes_ogs.tif
102
RTVSPost2010PropOp54
 70
     1
102
RTVSPost2010Prop55
280
     0
102
RTVSPost2010PropOp55
 70
     1
102
RTVSPost2010Prop56
140
1.0
102
RTVSPost2010PropOp56
 70
     1
102
RTVSPost2010Prop57
140
1.0
102
RTVSPost2010PropOp57
 70
     1
102
RTVSPropertyOp0
 70
     1
102
RTVSPropertyOp1
 70
     1
102
RTVSPropertyOp2
 70
     1
102
RTVSPropertyOp3
 70
     1
102
RTVSPropertyOp4
 70
     1
102
RTVSPropertyOp5
 70
     1
102
RTVSPropertyOp6
 70
     1
102
RTVSPropertyOp7
 70
     1
102
RTVSPropertyOp8
 70
     1
102
RTVSPropertyOp9
 70
     1
102
RTVSPropertyOp10
 70
     1
102
RTVSPropertyOp11
 70
     1
102
RTVSPropertyOp12
 70
     1
102
RTVSPropertyOp13
 70
     1
102
RTVSPropertyOp14
 70
     1
102
RTVSPropertyOp15
 70
     1
102
RTVSPropertyOp16
 70
     1
102
RTVSPropertyOp17
 70
     1
102
RTVSPropertyOp18
 70
     1
102
RTVSPropertyOp19
 70
     1
102
RTVSPropertyOp20
 70
     1
102
RTVSPropertyOp21
 70
     1
102
RTVSPropertyOp22
 70
     1
102
RTVSPropertyOp23
 70
     1
102
RTVSPropertyOp24
 70
     1
102
RTVSPropertyOp25
 70
     1
102
RTVSPropertyOp26
 70
     1
102
RTVSPropertyOp27
 70
     1
102
RTVSPropertyOp28
 70
     1
102
RTVSPropertyOp29
 70
     1
102
RTVSPropertyOp30
 70
     1
102
RTVSPropertyOp31
 70
     1
102
RTVSPropertyOp32
 70
     1
102
RTVSPropertyOp33
 70
     1
102
RTVSPropertyOp34
 70
     1
102
RTVSPropertyOp35
 70
     1
102
RTVSPropertyOp36
 70
     1
102
RTVSPropertyOp37
 70
     1
102
RTVSPropertyOp38
 70
     1
102
RTVSPropertyOp39
 70
     1
102
RTVSPropertyOp40
 70
     1
102
RTVSPropertyOp41
 70
     1
102
RTVSPropertyOp42
 70
     1
102
RTVSPropertyOp43
 70
     1
102
RTVSPropertyOp44
 70
     1
102
RTVSPropertyOp45
 70
     1
102
RTVSPropertyOp46
 70
     1
102
RTVSPropertyOp47
 70
     1
102
RTVSPropertyOp48
 70
     1
102
RTVSPropertyOp49
 70
     1
102
RTVSPropertyOp50
 70
     1
102
RTVSPropertyOp51
 70
     0
102
RTVSPropertyOp52
 70
     0
102
RTVSPropertyOp53
 70
     1
102
RTVSPropertyOp54
 70
     1
102
RTVSPropertyOp55
 70
     1
102
RTVSPropertyOp56
 70
     1
102
RTVSPropertyOp57
 70
     1
102
RTVSPropertyOp58
 70
     1
102
RTVSPropertyOp59
 70
     1
102
RTVSPropertyOp60
 70
     1
102
RTVSPropertyOp61
 70
     1
102
RTVSPropertyOp62
 70
     1
  0
XRECORD
  5
5F8
102
{ACAD_REACTORS
330
5F7
102
}
330
5F7
100
AcDbXrecord
280
     1
102
RTVSPost2010Prop28
280
     0
102
RTVSPost2010PropOp28
 70
     1
102
RTVSPost2010Prop29
280
     1
102
RTVSPost2010PropOp29
 70
     1
102
RTVSPost2010Prop30
280
     1
102
RTVSPost2010PropOp30
 70
     1
102
RTVSPost2010Prop31
280
     0
102
RTVSPost2010PropOp31
 70
     1
102
RTVSPost2010Prop32
280
     0
102
RTVSPost2010PropOp32
 70
     1
102
RTVSPost2010Prop33
280
     0
102
RTVSPost2010PropOp33
 70
     1
102
RTVSPost2010Prop34
280
     0
102
RTVSPost2010PropOp34
 70
     1
102
RTVSPost2010Prop35
280
     0
102
RTVSPost2010PropOp35
 70
     1
102
RTVSPost2010Prop36
280
     0
102
RTVSPost2010PropOp36
 70
     1
102
RTVSPost2010Prop37
 90
       50
102
RTVSPost2010PropOp37
 70
     1
102
RTVSPost2010Prop38
140
0.0
102
RTVSPost2010PropOp38
 70
     1
102
RTVSPost2010Prop39
140
1.0
102
RTVSPost2010PropOp39
 70
     1
102
RTVSPost2010Prop40
 90
        0
102
RTVSPost2010PropOp40
 70
     1
102
RTVSPost2010Prop41ColorIndex
 90
       18
102
RTVSPost2010Prop41ColorRGB
 90
        0
102
RTVSPost2010PropOp41
 70
     1
102
RTVSPost2010Prop42
 90
       50
102
RTVSPost2010PropOp42
 70
     1
102
RTVSPost2010Prop43
 90
        3
102
RTVSPost2010PropOp43
 70
     1
102
RTVSPost2010Prop44ColorIndex
 90
        5
102
RTVSPost2010Prop44ColorRGB
 90
      255
102
RTVSPost2010PropOp44
 70
     1
102
RTVSPost2010Prop45
280
     0
102
RTVSPost2010PropOp45
 70
     1
102
RTVSPost2010Prop46
 90
       50
102
RTVSPost2010PropOp46
 70
     1
102
RTVSPost2010Prop47
 90
       50
102
RTVSPost2010PropOp47
 70
     1
102
RTVSPost2010Prop48
 90
       50
102
RTVSPost2010PropOp48
 70
     1
102
RTVSPost2010Prop49
280
     0
102
RTVSPost2010PropOp49
 70
     1
102
RTVSPost2010Prop50
 90
       50
102
RTVSPost2010PropOp50
 70
     1
102
RTVSPost2010Prop51ColorIndex
 90
      256
102
RTVSPost2010Prop51ColorRGB
 90
-16777216
102
RTVSPost2010PropOp51
 70
     0
102
RTVSPost2010Prop52
140
1.0
102
RTVSPost2010PropOp52
 70
     0
102
RTVSPost2010Prop53
 90
        2
102
RTVSPost2010PropOp53
 70
     1
102
RTVSPost2010Prop54
  1
strokes_ogs.tif
102
RTVSPost2010PropOp54
 70
     1
102
RTVSPost2010Prop55
280
     0
102
RTVSPost2010PropOp55
 70
     1
102
RTVSPost2010Prop56
140
1.0
102
RTVSPost2010PropOp56
 70
     1
102
RTVSPost2010Prop57
140
1.0
102
RTVSPost2010PropOp57
 70
     1
102
RTVSPropertyOp0
 70
     1
102
RTVSPropertyOp1
 70
     1
102
RTVSPropertyOp2
 70
     1
102
RTVSPropertyOp3
 70
     1
102
RTVSPropertyOp4
 70
     1
102
RTVSPropertyOp5
 70
     1
102
RTVSPropertyOp6
 70
     1
102
RTVSPropertyOp7
 70
     1
102
RTVSPropertyOp8
 70
     1
102
RTVSPropertyOp9
 70
     1
102
RTVSPropertyOp10
 70
     1
102
RTVSPropertyOp11
 70
     1
102
RTVSPropertyOp12
 70
     1
102
RTVSPropertyOp13
 70
     1
102
RTVSPropertyOp14
 70
     1
102
RTVSPropertyOp15
 70
     1
102
RTVSPropertyOp16
 70
     1
102
RTVSPropertyOp17
 70
     1
102
RTVSPropertyOp18
 70
     1
102
RTVSPropertyOp19
 70
     1
102
RTVSPropertyOp20
 70
     1
102
RTVSPropertyOp21
 70
     1
102
RTVSPropertyOp22
 70
     1
102
RTVSPropertyOp23
 70
     1
102
RTVSPropertyOp24
 70
     1
102
RTVSPropertyOp25
 70
     1
102
RTVSPropertyOp26
 70
     1
102
RTVSPropertyOp27
 70
     1
102
RTVSPropertyOp28
 70
     1
102
RTVSPropertyOp29
 70
     1
102
RTVSPropertyOp30
 70
     1
102
RTVSPropertyOp31
 70
     1
102
RTVSPropertyOp32
 70
     1
102
RTVSPropertyOp33
 70
     1
102
RTVSPropertyOp34
 70
     1
102
RTVSPropertyOp35
 70
     1
102
RTVSPropertyOp36
 70
     1
102
RTVSPropertyOp37
 70
     1
102
RTVSPropertyOp38
 70
     1
102
RTVSPropertyOp39
 70
     1
102
RTVSPropertyOp40
 70
     1
102
RTVSPropertyOp41
 70
     1
102
RTVSPropertyOp42
 70
     1
102
RTVSPropertyOp43
 70
     1
102
RTVSPropertyOp44
 70
     1
102
RTVSPropertyOp45
 70
     1
102
RTVSPropertyOp46
 70
     1
102
RTVSPropertyOp47
 70
     1
102
RTVSPropertyOp48
 70
     1
102
RTVSPropertyOp49
 70
     1
102
RTVSPropertyOp50
 70
     1
102
RTVSPropertyOp51
 70
     0
102
RTVSPropertyOp52
 70
     0
102
RTVSPropertyOp53
 70
     1
102
RTVSPropertyOp54
 70
     1
102
RTVSPropertyOp55
 70
     1
102
RTVSPropertyOp56
 70
     1
102
RTVSPropertyOp57
 70
     1
102
RTVSPropertyOp58
 70
     1
102
RTVSPropertyOp59
 70
     1
102
RTVSPropertyOp60
 70
     1
102
RTVSPropertyOp61
 70
     1
102
RTVSPropertyOp62
 70
     1
  0
XRECORD
  5
5F6
102
{ACAD_REACTORS
330
5F5
102
}
330
5F5
100
AcDbXrecord
280
     1
102
RTVSPost2010Prop28
280
     0
102
RTVSPost2010PropOp28
 70
     1
102
RTVSPost2010Prop29
280
     1
102
RTVSPost2010PropOp29
 70
     1
102
RTVSPost2010Prop30
280
     1
102
RTVSPost2010PropOp30
 70
     1
102
RTVSPost2010Prop31
280
     0
102
RTVSPost2010PropOp31
 70
     1
102
RTVSPost2010Prop32
280
     0
102
RTVSPost2010PropOp32
 70
     1
102
RTVSPost2010Prop33
280
     0
102
RTVSPost2010PropOp33
 70
     1
102
RTVSPost2010Prop34
280
     0
102
RTVSPost2010PropOp34
 70
     1
102
RTVSPost2010Prop35
280
     0
102
RTVSPost2010PropOp35
 70
     1
102
RTVSPost2010Prop36
280
     0
102
RTVSPost2010PropOp36
 70
     1
102
RTVSPost2010Prop37
 90
       50
102
RTVSPost2010PropOp37
 70
     1
102
RTVSPost2010Prop38
140
0.0
102
RTVSPost2010PropOp38
 70
     1
102
RTVSPost2010Prop39
140
1.0
102
RTVSPost2010PropOp39
 70
     1
102
RTVSPost2010Prop40
 90
        0
102
RTVSPost2010PropOp40
 70
     1
102
RTVSPost2010Prop41ColorIndex
 90
       18
102
RTVSPost2010Prop41ColorRGB
 90
        0
102
RTVSPost2010PropOp41
 70
     1
102
RTVSPost2010Prop42
 90
       50
102
RTVSPost2010PropOp42
 70
     1
102
RTVSPost2010Prop43
 90
        3
102
RTVSPost2010PropOp43
 70
     1
102
RTVSPost2010Prop44ColorIndex
 90
        5
102
RTVSPost2010Prop44ColorRGB
 90
      255
102
RTVSPost2010PropOp44
 70
     1
102
RTVSPost2010Prop45
280
     0
102
RTVSPost2010PropOp45
 70
     1
102
RTVSPost2010Prop46
 90
       50
102
RTVSPost2010PropOp46
 70
     1
102
RTVSPost2010Prop47
 90
       50
102
RTVSPost2010PropOp47
 70
     1
102
RTVSPost2010Prop48
 90
       50
102
RTVSPost2010PropOp48
 70
     1
102
RTVSPost2010Prop49
280
     0
102
RTVSPost2010PropOp49
 70
     1
102
RTVSPost2010Prop50
 90
       50
102
RTVSPost2010PropOp50
 70
     1
102
RTVSPost2010Prop51ColorIndex
 90
      256
102
RTVSPost2010Prop51ColorRGB
 90
-16777216
102
RTVSPost2010PropOp51
 70
     0
102
RTVSPost2010Prop52
140
1.0
102
RTVSPost2010PropOp52
 70
     0
102
RTVSPost2010Prop53
 90
        2
102
RTVSPost2010PropOp53
 70
     1
102
RTVSPost2010Prop54
  1
strokes_ogs.tif
102
RTVSPost2010PropOp54
 70
     1
102
RTVSPost2010Prop55
280
     0
102
RTVSPost2010PropOp55
 70
     1
102
RTVSPost2010Prop56
140
1.0
102
RTVSPost2010PropOp56
 70
     1
102
RTVSPost2010Prop57
140
1.0
102
RTVSPost2010PropOp57
 70
     1
102
RTVSPropertyOp0
 70
     1
102
RTVSPropertyOp1
 70
     1
102
RTVSPropertyOp2
 70
     1
102
RTVSPropertyOp3
 70
     1
102
RTVSPropertyOp4
 70
     1
102
RTVSPropertyOp5
 70
     1
102
RTVSPropertyOp6
 70
     1
102
RTVSPropertyOp7
 70
     1
102
RTVSPropertyOp8
 70
     1
102
RTVSPropertyOp9
 70
     1
102
RTVSPropertyOp10
 70
     1
102
RTVSPropertyOp11
 70
     1
102
RTVSPropertyOp12
 70
     1
102
RTVSPropertyOp13
 70
     1
102
RTVSPropertyOp14
 70
     1
102
RTVSPropertyOp15
 70
     1
102
RTVSPropertyOp16
 70
     1
102
RTVSPropertyOp17
 70
     1
102
RTVSPropertyOp18
 70
     1
102
RTVSPropertyOp19
 70
     1
102
RTVSPropertyOp20
 70
     1
102
RTVSPropertyOp21
 70
     1
102
RTVSPropertyOp22
 70
     1
102
RTVSPropertyOp23
 70
     1
102
RTVSPropertyOp24
 70
     1
102
RTVSPropertyOp25
 70
     1
102
RTVSPropertyOp26
 70
     1
102
RTVSPropertyOp27
 70
     1
102
RTVSPropertyOp28
 70
     1
102
RTVSPropertyOp29
 70
     1
102
RTVSPropertyOp30
 70
     1
102
RTVSPropertyOp31
 70
     1
102
RTVSPropertyOp32
 70
     1
102
RTVSPropertyOp33
 70
     1
102
RTVSPropertyOp34
 70
     1
102
RTVSPropertyOp35
 70
     1
102
RTVSPropertyOp36
 70
     1
102
RTVSPropertyOp37
 70
     1
102
RTVSPropertyOp38
 70
     1
102
RTVSPropertyOp39
 70
     1
102
RTVSPropertyOp40
 70
     1
102
RTVSPropertyOp41
 70
     1
102
RTVSPropertyOp42
 70
     1
102
RTVSPropertyOp43
 70
     1
102
RTVSPropertyOp44
 70
     1
102
RTVSPropertyOp45
 70
     1
102
RTVSPropertyOp46
 70
     1
102
RTVSPropertyOp47
 70
     1
102
RTVSPropertyOp48
 70
     1
102
RTVSPropertyOp49
 70
     1
102
RTVSPropertyOp50
 70
     1
102
RTVSPropertyOp51
 70
     0
102
RTVSPropertyOp52
 70
     0
102
RTVSPropertyOp53
 70
     1
102
RTVSPropertyOp54
 70
     1
102
RTVSPropertyOp55
 70
     1
102
RTVSPropertyOp56
 70
     1
102
RTVSPropertyOp57
 70
     1
102
RTVSPropertyOp58
 70
     1
102
RTVSPropertyOp59
 70
     1
102
RTVSPropertyOp60
 70
     1
102
RTVSPropertyOp61
 70
     1
102
RTVSPropertyOp62
 70
     1
  0
XRECORD
  5
5F0
102
{ACAD_REACTORS
330
5EF
102
}
330
5EF
100
AcDbXrecord
280
     1
102
RTVSPost2010Prop28
280
     0
102
RTVSPost2010PropOp28
 70
     1
102
RTVSPost2010Prop29
280
     1
102
RTVSPost2010PropOp29
 70
     1
102
RTVSPost2010Prop30
280
     1
102
RTVSPost2010PropOp30
 70
     1
102
RTVSPost2010Prop31
280
     0
102
RTVSPost2010PropOp31
 70
     1
102
RTVSPost2010Prop32
280
     0
102
RTVSPost2010PropOp32
 70
     1
102
RTVSPost2010Prop33
280
     0
102
RTVSPost2010PropOp33
 70
     1
102
RTVSPost2010Prop34
280
     0
102
RTVSPost2010PropOp34
 70
     1
102
RTVSPost2010Prop35
280
     0
102
RTVSPost2010PropOp35
 70
     1
102
RTVSPost2010Prop36
280
     0
102
RTVSPost2010PropOp36
 70
     1
102
RTVSPost2010Prop37
 90
       50
102
RTVSPost2010PropOp37
 70
     1
102
RTVSPost2010Prop38
140
0.0
102
RTVSPost2010PropOp38
 70
     1
102
RTVSPost2010Prop39
140
1.0
102
RTVSPost2010PropOp39
 70
     1
102
RTVSPost2010Prop40
 90
        0
102
RTVSPost2010PropOp40
 70
     1
102
RTVSPost2010Prop41ColorIndex
 90
       18
102
RTVSPost2010Prop41ColorRGB
 90
        0
102
RTVSPost2010PropOp41
 70
     1
102
RTVSPost2010Prop42
 90
       50
102
RTVSPost2010PropOp42
 70
     1
102
RTVSPost2010Prop43
 90
        3
102
RTVSPost2010PropOp43
 70
     1
102
RTVSPost2010Prop44ColorIndex
 90
        5
102
RTVSPost2010Prop44ColorRGB
 90
      255
102
RTVSPost2010PropOp44
 70
     1
102
RTVSPost2010Prop45
280
     0
102
RTVSPost2010PropOp45
 70
     1
102
RTVSPost2010Prop46
 90
       50
102
RTVSPost2010PropOp46
 70
     1
102
RTVSPost2010Prop47
 90
       50
102
RTVSPost2010PropOp47
 70
     1
102
RTVSPost2010Prop48
 90
       50
102
RTVSPost2010PropOp48
 70
     1
102
RTVSPost2010Prop49
280
     0
102
RTVSPost2010PropOp49
 70
     1
102
RTVSPost2010Prop50
 90
       50
102
RTVSPost2010PropOp50
 70
     1
102
RTVSPost2010Prop51ColorIndex
 90
      256
102
RTVSPost2010Prop51ColorRGB
 90
-16777216
102
RTVSPost2010PropOp51
 70
     0
102
RTVSPost2010Prop52
140
1.0
102
RTVSPost2010PropOp52
 70
     0
102
RTVSPost2010Prop53
 90
        2
102
RTVSPost2010PropOp53
 70
     1
102
RTVSPost2010Prop54
  1
strokes_ogs.tif
102
RTVSPost2010PropOp54
 70
     1
102
RTVSPost2010Prop55
280
     0
102
RTVSPost2010PropOp55
 70
     1
102
RTVSPost2010Prop56
140
1.0
102
RTVSPost2010PropOp56
 70
     1
102
RTVSPost2010Prop57
140
1.0
102
RTVSPost2010PropOp57
 70
     1
102
RTVSPropertyOp0
 70
     1
102
RTVSPropertyOp1
 70
     1
102
RTVSPropertyOp2
 70
     1
102
RTVSPropertyOp3
 70
     1
102
RTVSPropertyOp4
 70
     1
102
RTVSPropertyOp5
 70
     1
102
RTVSPropertyOp6
 70
     1
102
RTVSPropertyOp7
 70
     1
102
RTVSPropertyOp8
 70
     1
102
RTVSPropertyOp9
 70
     1
102
RTVSPropertyOp10
 70
     1
102
RTVSPropertyOp11
 70
     1
102
RTVSPropertyOp12
 70
     1
102
RTVSPropertyOp13
 70
     1
102
RTVSPropertyOp14
 70
     1
102
RTVSPropertyOp15
 70
     1
102
RTVSPropertyOp16
 70
     1
102
RTVSPropertyOp17
 70
     1
102
RTVSPropertyOp18
 70
     1
102
RTVSPropertyOp19
 70
     1
102
RTVSPropertyOp20
 70
     1
102
RTVSPropertyOp21
 70
     1
102
RTVSPropertyOp22
 70
     1
102
RTVSPropertyOp23
 70
     1
102
RTVSPropertyOp24
 70
     1
102
RTVSPropertyOp25
 70
     1
102
RTVSPropertyOp26
 70
     1
102
RTVSPropertyOp27
 70
     1
102
RTVSPropertyOp28
 70
     1
102
RTVSPropertyOp29
 70
     1
102
RTVSPropertyOp30
 70
     1
102
RTVSPropertyOp31
 70
     1
102
RTVSPropertyOp32
 70
     1
102
RTVSPropertyOp33
 70
     1
102
RTVSPropertyOp34
 70
     1
102
RTVSPropertyOp35
 70
     1
102
RTVSPropertyOp36
 70
     1
102
RTVSPropertyOp37
 70
     1
102
RTVSPropertyOp38
 70
     1
102
RTVSPropertyOp39
 70
     1
102
RTVSPropertyOp40
 70
     1
102
RTVSPropertyOp41
 70
     1
102
RTVSPropertyOp42
 70
     1
102
RTVSPropertyOp43
 70
     1
102
RTVSPropertyOp44
 70
     1
102
RTVSPropertyOp45
 70
     1
102
RTVSPropertyOp46
 70
     1
102
RTVSPropertyOp47
 70
     1
102
RTVSPropertyOp48
 70
     1
102
RTVSPropertyOp49
 70
     1
102
RTVSPropertyOp50
 70
     1
102
RTVSPropertyOp51
 70
     0
102
RTVSPropertyOp52
 70
     0
102
RTVSPropertyOp53
 70
     1
102
RTVSPropertyOp54
 70
     1
102
RTVSPropertyOp55
 70
     1
102
RTVSPropertyOp56
 70
     1
102
RTVSPropertyOp57
 70
     1
102
RTVSPropertyOp58
 70
     1
102
RTVSPropertyOp59
 70
     1
102
RTVSPropertyOp60
 70
     1
102
RTVSPropertyOp61
 70
     1
102
RTVSPropertyOp62
 70
     1
  0
XRECORD
  5
5F2
102
{ACAD_REACTORS
330
5F1
102
}
330
5F1
100
AcDbXrecord
280
     1
102
RTVSPost2010Prop28
280
     0
102
RTVSPost2010PropOp28
 70
     1
102
RTVSPost2010Prop29
280
     1
102
RTVSPost2010PropOp29
 70
     1
102
RTVSPost2010Prop30
280
     1
102
RTVSPost2010PropOp30
 70
     1
102
RTVSPost2010Prop31
280
     0
102
RTVSPost2010PropOp31
 70
     1
102
RTVSPost2010Prop32
280
     0
102
RTVSPost2010PropOp32
 70
     1
102
RTVSPost2010Prop33
280
     0
102
RTVSPost2010PropOp33
 70
     1
102
RTVSPost2010Prop34
280
     0
102
RTVSPost2010PropOp34
 70
     1
102
RTVSPost2010Prop35
280
     0
102
RTVSPost2010PropOp35
 70
     1
102
RTVSPost2010Prop36
280
     0
102
RTVSPost2010PropOp36
 70
     1
102
RTVSPost2010Prop37
 90
       50
102
RTVSPost2010PropOp37
 70
     1
102
RTVSPost2010Prop38
140
0.0
102
RTVSPost2010PropOp38
 70
     1
102
RTVSPost2010Prop39
140
1.0
102
RTVSPost2010PropOp39
 70
     1
102
RTVSPost2010Prop40
 90
        0
102
RTVSPost2010PropOp40
 70
     1
102
RTVSPost2010Prop41ColorIndex
 90
       18
102
RTVSPost2010Prop41ColorRGB
 90
        0
102
RTVSPost2010PropOp41
 70
     1
102
RTVSPost2010Prop42
 90
       50
102
RTVSPost2010PropOp42
 70
     1
102
RTVSPost2010Prop43
 90
        3
102
RTVSPost2010PropOp43
 70
     1
102
RTVSPost2010Prop44ColorIndex
 90
        5
102
RTVSPost2010Prop44ColorRGB
 90
      255
102
RTVSPost2010PropOp44
 70
     1
102
RTVSPost2010Prop45
280
     0
102
RTVSPost2010PropOp45
 70
     1
102
RTVSPost2010Prop46
 90
       50
102
RTVSPost2010PropOp46
 70
     1
102
RTVSPost2010Prop47
 90
       50
102
RTVSPost2010PropOp47
 70
     1
102
RTVSPost2010Prop48
 90
       50
102
RTVSPost2010PropOp48
 70
     1
102
RTVSPost2010Prop49
280
     0
102
RTVSPost2010PropOp49
 70
     1
102
RTVSPost2010Prop50
 90
       50
102
RTVSPost2010PropOp50
 70
     1
102
RTVSPost2010Prop51ColorIndex
 90
      256
102
RTVSPost2010Prop51ColorRGB
 90
-16777216
102
RTVSPost2010PropOp51
 70
     0
102
RTVSPost2010Prop52
140
1.0
102
RTVSPost2010PropOp52
 70
     0
102
RTVSPost2010Prop53
 90
        2
102
RTVSPost2010PropOp53
 70
     1
102
RTVSPost2010Prop54
  1
strokes_ogs.tif
102
RTVSPost2010PropOp54
 70
     1
102
RTVSPost2010Prop55
280
     0
102
RTVSPost2010PropOp55
 70
     1
102
RTVSPost2010Prop56
140
1.0
102
RTVSPost2010PropOp56
 70
     1
102
RTVSPost2010Prop57
140
1.0
102
RTVSPost2010PropOp57
 70
     1
102
RTVSPropertyOp0
 70
     1
102
RTVSPropertyOp1
 70
     1
102
RTVSPropertyOp2
 70
     1
102
RTVSPropertyOp3
 70
     1
102
RTVSPropertyOp4
 70
     1
102
RTVSPropertyOp5
 70
     1
102
RTVSPropertyOp6
 70
     1
102
RTVSPropertyOp7
 70
     1
102
RTVSPropertyOp8
 70
     1
102
RTVSPropertyOp9
 70
     1
102
RTVSPropertyOp10
 70
     1
102
RTVSPropertyOp11
 70
     1
102
RTVSPropertyOp12
 70
     1
102
RTVSPropertyOp13
 70
     1
102
RTVSPropertyOp14
 70
     1
102
RTVSPropertyOp15
 70
     1
102
RTVSPropertyOp16
 70
     1
102
RTVSPropertyOp17
 70
     1
102
RTVSPropertyOp18
 70
     1
102
RTVSPropertyOp19
 70
     1
102
RTVSPropertyOp20
 70
     1
102
RTVSPropertyOp21
 70
     1
102
RTVSPropertyOp22
 70
     1
102
RTVSPropertyOp23
 70
     1
102
RTVSPropertyOp24
 70
     1
102
RTVSPropertyOp25
 70
     1
102
RTVSPropertyOp26
 70
     1
102
RTVSPropertyOp27
 70
     1
102
RTVSPropertyOp28
 70
     1
102
RTVSPropertyOp29
 70
     1
102
RTVSPropertyOp30
 70
     1
102
RTVSPropertyOp31
 70
     1
102
RTVSPropertyOp32
 70
     1
102
RTVSPropertyOp33
 70
     1
102
RTVSPropertyOp34
 70
     1
102
RTVSPropertyOp35
 70
     1
102
RTVSPropertyOp36
 70
     1
102
RTVSPropertyOp37
 70
     1
102
RTVSPropertyOp38
 70
     1
102
RTVSPropertyOp39
 70
     1
102
RTVSPropertyOp40
 70
     1
102
RTVSPropertyOp41
 70
     1
102
RTVSPropertyOp42
 70
     1
102
RTVSPropertyOp43
 70
     1
102
RTVSPropertyOp44
 70
     1
102
RTVSPropertyOp45
 70
     1
102
RTVSPropertyOp46
 70
     1
102
RTVSPropertyOp47
 70
     1
102
RTVSPropertyOp48
 70
     1
102
RTVSPropertyOp49
 70
     1
102
RTVSPropertyOp50
 70
     1
102
RTVSPropertyOp51
 70
     0
102
RTVSPropertyOp52
 70
     0
102
RTVSPropertyOp53
 70
     1
102
RTVSPropertyOp54
 70
     1
102
RTVSPropertyOp55
 70
     1
102
RTVSPropertyOp56
 70
     1
102
RTVSPropertyOp57
 70
     1
102
RTVSPropertyOp58
 70
     1
102
RTVSPropertyOp59
 70
     1
102
RTVSPropertyOp60
 70
     1
102
RTVSPropertyOp61
 70
     1
102
RTVSPropertyOp62
 70
     1
  0
XRECORD
  5
5E8
102
{ACAD_REACTORS
330
5E7
102
}
330
5E7
100
AcDbXrecord
280
     1
102
RTVSPost2010Prop28
280
     0
102
RTVSPost2010PropOp28
 70
     1
102
RTVSPost2010Prop29
280
     1
102
RTVSPost2010PropOp29
 70
     1
102
RTVSPost2010Prop30
280
     1
102
RTVSPost2010PropOp30
 70
     1
102
RTVSPost2010Prop31
280
     0
102
RTVSPost2010PropOp31
 70
     1
102
RTVSPost2010Prop32
280
     0
102
RTVSPost2010PropOp32
 70
     1
102
RTVSPost2010Prop33
280
     0
102
RTVSPost2010PropOp33
 70
     1
102
RTVSPost2010Prop34
280
     0
102
RTVSPost2010PropOp34
 70
     1
102
RTVSPost2010Prop35
280
     0
102
RTVSPost2010PropOp35
 70
     1
102
RTVSPost2010Prop36
280
     0
102
RTVSPost2010PropOp36
 70
     1
102
RTVSPost2010Prop37
 90
       50
102
RTVSPost2010PropOp37
 70
     1
102
RTVSPost2010Prop38
140
0.0
102
RTVSPost2010PropOp38
 70
     1
102
RTVSPost2010Prop39
140
1.0
102
RTVSPost2010PropOp39
 70
     1
102
RTVSPost2010Prop40
 90
        0
102
RTVSPost2010PropOp40
 70
     1
102
RTVSPost2010Prop41ColorIndex
 90
       18
102
RTVSPost2010Prop41ColorRGB
 90
        0
102
RTVSPost2010PropOp41
 70
     1
102
RTVSPost2010Prop42
 90
       50
102
RTVSPost2010PropOp42
 70
     1
102
RTVSPost2010Prop43
 90
        3
102
RTVSPost2010PropOp43
 70
     1
102
RTVSPost2010Prop44ColorIndex
 90
        5
102
RTVSPost2010Prop44ColorRGB
 90
      255
102
RTVSPost2010PropOp44
 70
     1
102
RTVSPost2010Prop45
280
     0
102
RTVSPost2010PropOp45
 70
     1
102
RTVSPost2010Prop46
 90
       50
102
RTVSPost2010PropOp46
 70
     1
102
RTVSPost2010Prop47
 90
       50
102
RTVSPost2010PropOp47
 70
     1
102
RTVSPost2010Prop48
 90
       50
102
RTVSPost2010PropOp48
 70
     1
102
RTVSPost2010Prop49
280
     0
102
RTVSPost2010PropOp49
 70
     1
102
RTVSPost2010Prop50
 90
       50
102
RTVSPost2010PropOp50
 70
     1
102
RTVSPost2010Prop51ColorIndex
 90
      256
102
RTVSPost2010Prop51ColorRGB
 90
-16777216
102
RTVSPost2010PropOp51
 70
     0
102
RTVSPost2010Prop52
140
1.0
102
RTVSPost2010PropOp52
 70
     0
102
RTVSPost2010Prop53
 90
        2
102
RTVSPost2010PropOp53
 70
     1
102
RTVSPost2010Prop54
  1
strokes_ogs.tif
102
RTVSPost2010PropOp54
 70
     1
102
RTVSPost2010Prop55
280
     0
102
RTVSPost2010PropOp55
 70
     1
102
RTVSPost2010Prop56
140
1.0
102
RTVSPost2010PropOp56
 70
     1
102
RTVSPost2010Prop57
140
1.0
102
RTVSPost2010PropOp57
 70
     1
102
RTVSPropertyOp0
 70
     1
102
RTVSPropertyOp1
 70
     1
102
RTVSPropertyOp2
 70
     1
102
RTVSPropertyOp3
 70
     1
102
RTVSPropertyOp4
 70
     1
102
RTVSPropertyOp5
 70
     1
102
RTVSPropertyOp6
 70
     1
102
RTVSPropertyOp7
 70
     1
102
RTVSPropertyOp8
 70
     1
102
RTVSPropertyOp9
 70
     1
102
RTVSPropertyOp10
 70
     1
102
RTVSPropertyOp11
 70
     1
102
RTVSPropertyOp12
 70
     1
102
RTVSPropertyOp13
 70
     1
102
RTVSPropertyOp14
 70
     1
102
RTVSPropertyOp15
 70
     1
102
RTVSPropertyOp16
 70
     1
102
RTVSPropertyOp17
 70
     1
102
RTVSPropertyOp18
 70
     1
102
RTVSPropertyOp19
 70
     1
102
RTVSPropertyOp20
 70
     1
102
RTVSPropertyOp21
 70
     1
102
RTVSPropertyOp22
 70
     1
102
RTVSPropertyOp23
 70
     1
102
RTVSPropertyOp24
 70
     1
102
RTVSPropertyOp25
 70
     1
102
RTVSPropertyOp26
 70
     1
102
RTVSPropertyOp27
 70
     1
102
RTVSPropertyOp28
 70
     1
102
RTVSPropertyOp29
 70
     1
102
RTVSPropertyOp30
 70
     1
102
RTVSPropertyOp31
 70
     1
102
RTVSPropertyOp32
 70
     1
102
RTVSPropertyOp33
 70
     1
102
RTVSPropertyOp34
 70
     1
102
RTVSPropertyOp35
 70
     1
102
RTVSPropertyOp36
 70
     1
102
RTVSPropertyOp37
 70
     1
102
RTVSPropertyOp38
 70
     1
102
RTVSPropertyOp39
 70
     1
102
RTVSPropertyOp40
 70
     1
102
RTVSPropertyOp41
 70
     1
102
RTVSPropertyOp42
 70
     1
102
RTVSPropertyOp43
 70
     1
102
RTVSPropertyOp44
 70
     1
102
RTVSPropertyOp45
 70
     1
102
RTVSPropertyOp46
 70
     1
102
RTVSPropertyOp47
 70
     1
102
RTVSPropertyOp48
 70
     1
102
RTVSPropertyOp49
 70
     1
102
RTVSPropertyOp50
 70
     1
102
RTVSPropertyOp51
 70
     0
102
RTVSPropertyOp52
 70
     0
102
RTVSPropertyOp53
 70
     1
102
RTVSPropertyOp54
 70
     1
102
RTVSPropertyOp55
 70
     1
102
RTVSPropertyOp56
 70
     1
102
RTVSPropertyOp57
 70
     1
102
RTVSPropertyOp58
 70
     1
102
RTVSPropertyOp59
 70
     1
102
RTVSPropertyOp60
 70
     1
102
RTVSPropertyOp61
 70
     1
102
RTVSPropertyOp62
 70
     1
  0
XRECORD
  5
5DC
102
{ACAD_REACTORS
330
5DB
102
}
330
5DB
100
AcDbXrecord
280
     1
102
RTVSPost2010Prop28
280
     0
102
RTVSPost2010PropOp28
 70
     1
102
RTVSPost2010Prop29
280
     1
102
RTVSPost2010PropOp29
 70
     1
102
RTVSPost2010Prop30
280
     1
102
RTVSPost2010PropOp30
 70
     1
102
RTVSPost2010Prop31
280
     0
102
RTVSPost2010PropOp31
 70
     1
102
RTVSPost2010Prop32
280
     0
102
RTVSPost2010PropOp32
 70
     1
102
RTVSPost2010Prop33
280
     0
102
RTVSPost2010PropOp33
 70
     1
102
RTVSPost2010Prop34
280
     0
102
RTVSPost2010PropOp34
 70
     1
102
RTVSPost2010Prop35
280
     0
102
RTVSPost2010PropOp35
 70
     1
102
RTVSPost2010Prop36
280
     0
102
RTVSPost2010PropOp36
 70
     1
102
RTVSPost2010Prop37
 90
       50
102
RTVSPost2010PropOp37
 70
     1
102
RTVSPost2010Prop38
140
0.0
102
RTVSPost2010PropOp38
 70
     1
102
RTVSPost2010Prop39
140
1.0
102
RTVSPost2010PropOp39
 70
     1
102
RTVSPost2010Prop40
 90
        0
102
RTVSPost2010PropOp40
 70
     1
102
RTVSPost2010Prop41ColorIndex
 90
       18
102
RTVSPost2010Prop41ColorRGB
 90
        0
102
RTVSPost2010PropOp41
 70
     1
102
RTVSPost2010Prop42
 90
       50
102
RTVSPost2010PropOp42
 70
     1
102
RTVSPost2010Prop43
 90
        3
102
RTVSPost2010PropOp43
 70
     1
102
RTVSPost2010Prop44ColorIndex
 90
        5
102
RTVSPost2010Prop44ColorRGB
 90
      255
102
RTVSPost2010PropOp44
 70
     1
102
RTVSPost2010Prop45
280
     0
102
RTVSPost2010PropOp45
 70
     1
102
RTVSPost2010Prop46
 90
       50
102
RTVSPost2010PropOp46
 70
     1
102
RTVSPost2010Prop47
 90
       50
102
RTVSPost2010PropOp47
 70
     1
102
RTVSPost2010Prop48
 90
       50
102
RTVSPost2010PropOp48
 70
     1
102
RTVSPost2010Prop49
280
     0
102
RTVSPost2010PropOp49
 70
     1
102
RTVSPost2010Prop50
 90
       50
102
RTVSPost2010PropOp50
 70
     1
102
RTVSPost2010Prop51ColorIndex
 90
      256
102
RTVSPost2010Prop51ColorRGB
 90
-16777216
102
RTVSPost2010PropOp51
 70
     0
102
RTVSPost2010Prop52
140
1.0
102
RTVSPost2010PropOp52
 70
     0
102
RTVSPost2010Prop53
 90
        2
102
RTVSPost2010PropOp53
 70
     1
102
RTVSPost2010Prop54
  1
strokes_ogs.tif
102
RTVSPost2010PropOp54
 70
     1
102
RTVSPost2010Prop55
280
     0
102
RTVSPost2010PropOp55
 70
     1
102
RTVSPost2010Prop56
140
1.0
102
RTVSPost2010PropOp56
 70
     1
102
RTVSPost2010Prop57
140
1.0
102
RTVSPost2010PropOp57
 70
     1
102
RTVSPropertyOp0
 70
     1
102
RTVSPropertyOp1
 70
     1
102
RTVSPropertyOp2
 70
     1
102
RTVSPropertyOp3
 70
     1
102
RTVSPropertyOp4
 70
     1
102
RTVSPropertyOp5
 70
     1
102
RTVSPropertyOp6
 70
     1
102
RTVSPropertyOp7
 70
     1
102
RTVSPropertyOp8
 70
     1
102
RTVSPropertyOp9
 70
     1
102
RTVSPropertyOp10
 70
     1
102
RTVSPropertyOp11
 70
     1
102
RTVSPropertyOp12
 70
     1
102
RTVSPropertyOp13
 70
     1
102
RTVSPropertyOp14
 70
     1
102
RTVSPropertyOp15
 70
     1
102
RTVSPropertyOp16
 70
     1
102
RTVSPropertyOp17
 70
     1
102
RTVSPropertyOp18
 70
     1
102
RTVSPropertyOp19
 70
     1
102
RTVSPropertyOp20
 70
     1
102
RTVSPropertyOp21
 70
     1
102
RTVSPropertyOp22
 70
     1
102
RTVSPropertyOp23
 70
     1
102
RTVSPropertyOp24
 70
     1
102
RTVSPropertyOp25
 70
     1
102
RTVSPropertyOp26
 70
     1
102
RTVSPropertyOp27
 70
     1
102
RTVSPropertyOp28
 70
     1
102
RTVSPropertyOp29
 70
     1
102
RTVSPropertyOp30
 70
     1
102
RTVSPropertyOp31
 70
     1
102
RTVSPropertyOp32
 70
     1
102
RTVSPropertyOp33
 70
     1
102
RTVSPropertyOp34
 70
     1
102
RTVSPropertyOp35
 70
     1
102
RTVSPropertyOp36
 70
     1
102
RTVSPropertyOp37
 70
     1
102
RTVSPropertyOp38
 70
     1
102
RTVSPropertyOp39
 70
     1
102
RTVSPropertyOp40
 70
     1
102
RTVSPropertyOp41
 70
     1
102
RTVSPropertyOp42
 70
     1
102
RTVSPropertyOp43
 70
     1
102
RTVSPropertyOp44
 70
     1
102
RTVSPropertyOp45
 70
     1
102
RTVSPropertyOp46
 70
     1
102
RTVSPropertyOp47
 70
     1
102
RTVSPropertyOp48
 70
     1
102
RTVSPropertyOp49
 70
     1
102
RTVSPropertyOp50
 70
     1
102
RTVSPropertyOp51
 70
     0
102
RTVSPropertyOp52
 70
     0
102
RTVSPropertyOp53
 70
     1
102
RTVSPropertyOp54
 70
     1
102
RTVSPropertyOp55
 70
     1
102
RTVSPropertyOp56
 70
     1
102
RTVSPropertyOp57
 70
     1
102
RTVSPropertyOp58
 70
     1
102
RTVSPropertyOp59
 70
     1
102
RTVSPropertyOp60
 70
     1
102
RTVSPropertyOp61
 70
     1
102
RTVSPropertyOp62
 70
     1
  0
XRECORD
  5
5F4
102
{ACAD_REACTORS
330
5F3
102
}
330
5F3
100
AcDbXrecord
280
     1
102
RTVSPost2010Prop28
280
     0
102
RTVSPost2010PropOp28
 70
     1
102
RTVSPost2010Prop29
280
     1
102
RTVSPost2010PropOp29
 70
     1
102
RTVSPost2010Prop30
280
     1
102
RTVSPost2010PropOp30
 70
     1
102
RTVSPost2010Prop31
280
     0
102
RTVSPost2010PropOp31
 70
     1
102
RTVSPost2010Prop32
280
     0
102
RTVSPost2010PropOp32
 70
     1
102
RTVSPost2010Prop33
280
     0
102
RTVSPost2010PropOp33
 70
     1
102
RTVSPost2010Prop34
280
     0
102
RTVSPost2010PropOp34
 70
     1
102
RTVSPost2010Prop35
280
     0
102
RTVSPost2010PropOp35
 70
     1
102
RTVSPost2010Prop36
280
     0
102
RTVSPost2010PropOp36
 70
     1
102
RTVSPost2010Prop37
 90
       50
102
RTVSPost2010PropOp37
 70
     1
102
RTVSPost2010Prop38
140
0.0
102
RTVSPost2010PropOp38
 70
     1
102
RTVSPost2010Prop39
140
1.0
102
RTVSPost2010PropOp39
 70
     1
102
RTVSPost2010Prop40
 90
        0
102
RTVSPost2010PropOp40
 70
     1
102
RTVSPost2010Prop41ColorIndex
 90
       18
102
RTVSPost2010Prop41ColorRGB
 90
        0
102
RTVSPost2010PropOp41
 70
     1
102
RTVSPost2010Prop42
 90
       50
102
RTVSPost2010PropOp42
 70
     1
102
RTVSPost2010Prop43
 90
        3
102
RTVSPost2010PropOp43
 70
     1
102
RTVSPost2010Prop44ColorIndex
 90
        5
102
RTVSPost2010Prop44ColorRGB
 90
      255
102
RTVSPost2010PropOp44
 70
     1
102
RTVSPost2010Prop45
280
     0
102
RTVSPost2010PropOp45
 70
     1
102
RTVSPost2010Prop46
 90
       50
102
RTVSPost2010PropOp46
 70
     1
102
RTVSPost2010Prop47
 90
       50
102
RTVSPost2010PropOp47
 70
     1
102
RTVSPost2010Prop48
 90
       50
102
RTVSPost2010PropOp48
 70
     1
102
RTVSPost2010Prop49
280
     0
102
RTVSPost2010PropOp49
 70
     1
102
RTVSPost2010Prop50
 90
       50
102
RTVSPost2010PropOp50
 70
     1
102
RTVSPost2010Prop51ColorIndex
 90
      256
102
RTVSPost2010Prop51ColorRGB
 90
-16777216
102
RTVSPost2010PropOp51
 70
     0
102
RTVSPost2010Prop52
140
1.0
102
RTVSPost2010PropOp52
 70
     0
102
RTVSPost2010Prop53
 90
        2
102
RTVSPost2010PropOp53
 70
     1
102
RTVSPost2010Prop54
  1
strokes_ogs.tif
102
RTVSPost2010PropOp54
 70
     1
102
RTVSPost2010Prop55
280
     0
102
RTVSPost2010PropOp55
 70
     1
102
RTVSPost2010Prop56
140
1.0
102
RTVSPost2010PropOp56
 70
     1
102
RTVSPost2010Prop57
140
1.0
102
RTVSPost2010PropOp57
 70
     1
102
RTVSPropertyOp0
 70
     1
102
RTVSPropertyOp1
 70
     1
102
RTVSPropertyOp2
 70
     1
102
RTVSPropertyOp3
 70
     1
102
RTVSPropertyOp4
 70
     1
102
RTVSPropertyOp5
 70
     1
102
RTVSPropertyOp6
 70
     1
102
RTVSPropertyOp7
 70
     1
102
RTVSPropertyOp8
 70
     1
102
RTVSPropertyOp9
 70
     1
102
RTVSPropertyOp10
 70
     1
102
RTVSPropertyOp11
 70
     1
102
RTVSPropertyOp12
 70
     1
102
RTVSPropertyOp13
 70
     1
102
RTVSPropertyOp14
 70
     1
102
RTVSPropertyOp15
 70
     1
102
RTVSPropertyOp16
 70
     1
102
RTVSPropertyOp17
 70
     1
102
RTVSPropertyOp18
 70
     1
102
RTVSPropertyOp19
 70
     1
102
RTVSPropertyOp20
 70
     1
102
RTVSPropertyOp21
 70
     1
102
RTVSPropertyOp22
 70
     1
102
RTVSPropertyOp23
 70
     1
102
RTVSPropertyOp24
 70
     1
102
RTVSPropertyOp25
 70
     1
102
RTVSPropertyOp26
 70
     1
102
RTVSPropertyOp27
 70
     1
102
RTVSPropertyOp28
 70
     1
102
RTVSPropertyOp29
 70
     1
102
RTVSPropertyOp30
 70
     1
102
RTVSPropertyOp31
 70
     1
102
RTVSPropertyOp32
 70
     1
102
RTVSPropertyOp33
 70
     1
102
RTVSPropertyOp34
 70
     1
102
RTVSPropertyOp35
 70
     1
102
RTVSPropertyOp36
 70
     1
102
RTVSPropertyOp37
 70
     1
102
RTVSPropertyOp38
 70
     1
102
RTVSPropertyOp39
 70
     1
102
RTVSPropertyOp40
 70
     1
102
RTVSPropertyOp41
 70
     1
102
RTVSPropertyOp42
 70
     1
102
RTVSPropertyOp43
 70
     1
102
RTVSPropertyOp44
 70
     1
102
RTVSPropertyOp45
 70
     1
102
RTVSPropertyOp46
 70
     1
102
RTVSPropertyOp47
 70
     1
102
RTVSPropertyOp48
 70
     1
102
RTVSPropertyOp49
 70
     1
102
RTVSPropertyOp50
 70
     1
102
RTVSPropertyOp51
 70
     0
102
RTVSPropertyOp52
 70
     0
102
RTVSPropertyOp53
 70
     1
102
RTVSPropertyOp54
 70
     1
102
RTVSPropertyOp55
 70
     1
102
RTVSPropertyOp56
 70
     1
102
RTVSPropertyOp57
 70
     1
102
RTVSPropertyOp58
 70
     1
102
RTVSPropertyOp59
 70
     1
102
RTVSPropertyOp60
 70
     1
102
RTVSPropertyOp61
 70
     1
102
RTVSPropertyOp62
 70
     1
  0
ENDSEC
  0
EOF
