  0
SECTION
  2
HEADER
  9
$ACADVER
  1
AC1015
  9
$ACADMAINTVER
 70
     6
  9
$DWGCODEPAGE
  3
ANSI_932
  9
$INSBASE
 10
0.0
 20
0.0
 30
0.0
  9
$EXTMIN
 10
0.0
 20
0.0
 30
0.0
  9
$EXTMAX
 10
1188.0
 20
840.0
 30
0.0
  9
$LIMMIN
 10
0.0
 20
0.0
  9
$LIMMAX
 10
1188.0
 20
840.0
  9
$ORTHOMODE
 70
     0
  9
$REGENMODE
 70
     1
  9
$FILLMODE
 70
     1
  9
$QTEXTMODE
 70
     0
  9
$MIRRTEXT
 70
     1
  9
$LTSCALE
 40
4.0
  9
$ATTMODE
 70
     1
  9
$TEXTSIZE
 40
2.5
  9
$TRACEWID
 40
1.0
  9
$TEXTSTYLE
  7
Standard
  9
$CLAYER
  8
0
  9
$CELTYPE
  6
ByLayer
  9
$CECOLOR
 62
   256
  9
$CELTSCALE
 40
1.0
  9
$DISPSILH
 70
     0
  9
$DIMSCALE
 40
1.0
  9
$DIMASZ
 40
2.5
  9
$DIMEXO
 40
0.625
  9
$DIMDLI
 40
3.75
  9
$DIMRND
 40
0.0
  9
$DIMDLE
 40
0.0
  9
$DIMEXE
 40
1.25
  9
$DIMTP
 40
0.0
  9
$DIMTM
 40
0.0
  9
$DIMTXT
 40
2.5
  9
$DIMCEN
 40
2.5
  9
$DIMTSZ
 40
0.0
  9
$DIMTOL
 70
     0
  9
$DIMLIM
 70
     0
  9
$DIMTIH
 70
     0
  9
$DIMTOH
 70
     0
  9
$DIMSE1
 70
     0
  9
$DIMSE2
 70
     0
  9
$DIMTAD
 70
     1
  9
$DIMZIN
 70
     8
  9
$DIMBLK
  1

  9
$DIMASO
 70
     1
  9
$DIMSHO
 70
     1
  9
$DIMPOST
  1

  9
$DIMAPOST
  1

  9
$DIMALT
 70
     0
  9
$DIMALTD
 70
     3
  9
$DIMALTF
 40
0.03937007874016
  9
$DIMLFAC
 40
1.0
  9
$DIMTOFL
 70
     1
  9
$DIMTVP
 40
0.0
  9
$DIMTIX
 70
     0
  9
$DIMSOXD
 70
     0
  9
$DIMSAH
 70
     0
  9
$DIMBLK1
  1

  9
$DIMBLK2
  1

  9
$DIMSTYLE
  2
ISO-25
  9
$DIMCLRD
 70
     0
  9
$DIMCLRE
 70
     0
  9
$DIMCLRT
 70
     0
  9
$DIMTFAC
 40
1.0
  9
$DIMGAP
 40
0.625
  9
$DIMJUST
 70
     0
  9
$DIMSD1
 70
     0
  9
$DIMSD2
 70
     0
  9
$DIMTOLJ
 70
     0
  9
$DIMTZIN
 70
     8
  9
$DIMALTZ
 70
     0
  9
$DIMALTTZ
 70
     0
  9
$DIMUPT
 70
     0
  9
$DIMDEC
 70
     2
  9
$DIMTDEC
 70
     2
  9
$DIMALTU
 70
     2
  9
$DIMALTTD
 70
     3
  9
$DIMTXSTY
  7
Standard
  9
$DIMAUNIT
 70
     0
  9
$DIMADEC
 70
     0
  9
$DIMALTRND
 40
0.0
  9
$DIMAZIN
 70
     0
  9
$DIMDSEP
 70
    46
  9
$DIMATFIT
 70
     3
  9
$DIMFRAC
 70
     0
  9
$DIMLDRBLK
  1

  9
$DIMLUNIT
 70
     2
  9
$DIMLWD
 70
    -2
  9
$DIMLWE
 70
    -2
  9
$DIMTMOVE
 70
     0
  9
$LUNITS
 70
     2
  9
$LUPREC
 70
     4
  9
$SKETCHINC
 40
1.0
  9
$FILLETRAD
 40
10.0
  9
$AUNITS
 70
     0
  9
$AUPREC
 70
     0
  9
$MENU
  1
.
  9
$ELEVATION
 40
0.0
  9
$PELEVATION
 40
0.0
  9
$THICKNESS
 40
0.0
  9
$LIMCHECK
 70
     0
  9
$CHAMFERA
 40
10.0
  9
$CHAMFERB
 40
10.0
  9
$CHAMFERC
 40
20.0
  9
$CHAMFERD
 40
0.0
  9
$SKPOLY
 70
     0
  9
$TDCREATE
 40
2457071.000000
  9
$TDUCREATE
 40
0.000000000
  9
$TDUPDATE
 40
2457071.000000
  9
$TDUUPDATE
 40
2457071.000000
  9
$TDINDWG
 40
0.0
  9
$TDUSRTIMER
 40
0.0
  9
$USRTIMER
 70
     1
  9
$ANGBASE
 50
0.0
  9
$ANGDIR
 70
     0
  9
$PDMODE
 70
     0
  9
$PDSIZE
 40
0.0
  9
$PLINEWID
 40
0.0
  9
$SPLFRAME
 70
     0
  9
$SPLINETYPE
 70
     6
  9
$SPLINESEGS
 70
     8
  9
$HANDSEED
  5
02FA
  9
$SURFTAB1
 70
     6
  9
$SURFTAB2
 70
     6
  9
$SURFTYPE
 70
     6
  9
$SURFU
 70
     6
  9
$SURFV
 70
     6
  9
$UCSBASE
  2

  9
$UCSNAME
  2

  9
$UCSORG
 10
0.0
 20
0.0
 30
0.0
  9
$UCSXDIR
 10
1.0
 20
0.0
 30
0.0
  9
$UCSYDIR
 10
0.0
 20
1.0
 30
0.0
  9
$UCSORTHOREF
  2

  9
$UCSORTHOVIEW
 70
     0
  9
$UCSORGTOP
 10
0.0
 20
0.0
 30
0.0
  9
$UCSORGBOTTOM
 10
0.0
 20
0.0
 30
0.0
  9
$UCSORGLEFT
 10
0.0
 20
0.0
 30
0.0
  9
$UCSORGRIGHT
 10
0.0
 20
0.0
 30
0.0
  9
$UCSORGFRONT
 10
0.0
 20
0.0
 30
0.0
  9
$UCSORGBACK
 10
0.0
 20
0.0
 30
0.0
  9
$PUCSBASE
  2

  9
$PUCSNAME
  2

  9
$PUCSORG
 10
0.0
 20
0.0
 30
0.0
  9
$PUCSXDIR
 10
1.0
 20
0.0
 30
0.0
  9
$PUCSYDIR
 10
0.0
 20
1.0
 30
0.0
  9
$PUCSORTHOREF
  2

  9
$PUCSORTHOVIEW
 70
     0
  9
$PUCSORGTOP
 10
0.0
 20
0.0
 30
0.0
  9
$PUCSORGBOTTOM
 10
0.0
 20
0.0
 30
0.0
  9
$PUCSORGLEFT
 10
0.0
 20
0.0
 30
0.0
  9
$PUCSORGRIGHT
 10
0.0
 20
0.0
 30
0.0
  9
$PUCSORGFRONT
 10
0.0
 20
0.0
 30
0.0
  9
$PUCSORGBACK
 10
0.0
 20
0.0
 30
0.0
  9
$USERI1
 70
     0
  9
$USERI2
 70
     0
  9
$USERI3
 70
     0
  9
$USERI4
 70
     0
  9
$USERI5
 70
     0
  9
$USERR1
 40
0.0
  9
$USERR2
 40
0.0
  9
$USERR3
 40
0.0
  9
$USERR4
 40
0.0
  9
$USERR5
 40
0.0
  9
$WORLDVIEW
 70
     1
  9
$SHADEDGE
 70
     3
  9
$SHADEDIF
 70
    70
  9
$TILEMODE
 70
     1
  9
$MAXACTVP
 70
    64
  9
$PINSBASE
 10
0.0
 20
0.0
 30
0.0
  9
$PLIMCHECK
 70
     0
  9
$PEXTMIN
 10
1.000000E+20
 20
1.000000E+20
 30
1.000000E+20
  9
$PEXTMAX
 10
-1.000000E+20
 20
-1.000000E+20
 30
-1.000000E+20
  9
$PLIMMIN
 10
0.0
 20
0.0
  9
$PLIMMAX
 10
0.0
 20
0.0
  9
$UNITMODE
 70
     0
  9
$VISRETAIN
 70
     0
  9
$PLINEGEN
 70
     0
  9
$PSLTSCALE
 70
     1
  9
$TREEDEPTH
 70
  3020
  9
$CMLSTYLE
  2
STANDARD
  9
$CMLJUST
 70
     0
  9
$CMLSCALE
 40
20.0
  9
$PROXYGRAPHICS
 70
     1
  9
$MEASUREMENT
 70
     1
  9
$CELWEIGHT
370
    -1
  9
$ENDCAPS
280
     0
  9
$JOINSTYLE
280
     0
  9
$LWDISPLAY
290
     0
  9
$INSUNITS
 70
     4
  9
$HYPERLINKBASE
  1

  9
$STYLESHEET
  1

  9
$XEDIT
290
     1
  9
$CEPSNTYPE
380
     0
  9
$PSTYLEMODE
290
     1
  9
$FINGERPRINTGUID
  2
{9A74102D-B868-93CF-92D7-903C62642DD0}
  9
$VERSIONGUID
  2
{FAC15975-68E7-D674-4ED2-7E853DE00421}
  9
$EXTNAMES
290
     1
  9
$PSVPSCALE
 40
0.0
  0
ENDSEC
  0
SECTION
  2
CLASSES
  0
ENDSEC
  0
SECTION
  2
TABLES
  0
TABLE
  2
VPORT
  5
8
330
0
100
AcDbSymbolTable
 70
     3
  0
VPORT
  5
29
330
8
100
AcDbSymbolTableRecord
100
AcDbViewportTableRecord
  2
*Active
 70
     0
 10
0.0
 20
0.0
 11
1.0
 21
1.0
 12
594.0
 22
420.0
 13
0.0
 23
0.0
 14
10.0
 24
10.0
 15
0.0
 25
0.0
 16
0.0
 26
0.0
 36
1.0
 17
0.0
 27
0.0
 37
0.0
 40
840.0
 41
1.414285714
 42
50.0
 43
0.0
 44
0.0
 50
0.0
 51
0.0
 71
     0
 72
  1000
 73
     1
 74
     3
 75
     0
 76
     0
 77
     0
 78
     0
281
     0
 65
     0
110
0.0
120
0.0
130
0.0
111
1.0
121
0.0
131
0.0
112
0.0
122
1.0
132
0.0
 79
     0
146
0.0
  0
ENDTAB
  0
TABLE
  2
LTYPE
  5
5
330
0
100
AcDbSymbolTable
 70
     6
  0
LTYPE
  5
14
330
5
100
AcDbSymbolTableRecord
100
AcDbLinetypeTableRecord
  2
ByBlock
 70
     0
  3

 72
    65
 73
     0
 40
0.0
  0
LTYPE
  5
15
330
5
100
AcDbSymbolTableRecord
100
AcDbLinetypeTableRecord
  2
ByLayer
 70
     0
  3

 72
    65
 73
     0
 40
0.0
  0
LTYPE
  5
16
330
5
100
AcDbSymbolTableRecord
100
AcDbLinetypeTableRecord
  2
Continuous
 70
     0
  3
Solid line
 72
    65
 73
     0
 40
0.0
  0
LTYPE
  5
FA
330
5
100
AcDbSymbolTableRecord
100
AcDbLinetypeTableRecord
  2
LTYPE1
 70
     0
  3
PHANTOM
 72
    65
 73
     6
 40
12.0
 49
9.0
 74
     0
 49
-0.6
 74
     0
 49
0.6
 74
     0
 49
-0.6
 74
     0
 49
0.6
 74
     0
 49
-0.6
 74
     0
  0
LTYPE
  5
109
330
5
100
AcDbSymbolTableRecord
100
AcDbLinetypeTableRecord
  2
LTYPE2
 70
     0
  3
HIDDEN
 72
    65
 73
     2
 40
2.0
 49
1.2
 74
     0
 49
-0.8
 74
     0
  0
LTYPE
  5
141
330
5
100
AcDbSymbolTableRecord
100
AcDbLinetypeTableRecord
  2
LTYPE3
 70
     0
  3
CENTER
 72
    65
 73
     4
 40
12.0
 49
8.4
 74
     0
 49
-1.2
 74
     0
 49
1.2
 74
     0
 49
-1.2
 74
     0
  0
ENDTAB
  0
TABLE
  2
LAYER
  5
2
330
0
100
AcDbSymbolTable
 70
   128
  0
LAYER
  5
10
330
2
100
AcDbSymbolTableRecord
100
AcDbLayerTableRecord
  2
0
 70
     0
 62
     7
  6
Continuous
290
     1
370
    -3
390
F
  0
LAYER
  5
2A
330
2
100
AcDbSymbolTableRecord
100
AcDbLayerTableRecord
  2
2
 70
     0
 62
     7
  6
Continuous
290
     1
370
    -3
390
F
  0
LAYER
  5
2B
330
2
100
AcDbSymbolTableRecord
100
AcDbLayerTableRecord
  2
3
 70
     0
 62
     7
  6
Continuous
290
     1
370
    -3
390
F
  0
LAYER
  5
2C
330
2
100
AcDbSymbolTableRecord
100
AcDbLayerTableRecord
  2
4
 70
     0
 62
     7
  6
Continuous
290
     1
370
    -3
390
F
  0
LAYER
  5
2D
330
2
100
AcDbSymbolTableRecord
100
AcDbLayerTableRecord
  2
5
 70
     0
 62
     7
  6
Continuous
290
     1
370
    -3
390
F
  0
LAYER
  5
2E
330
2
100
AcDbSymbolTableRecord
100
AcDbLayerTableRecord
  2
6
 70
     0
 62
     7
  6
Continuous
290
     1
370
    -3
390
F
  0
LAYER
  5
2F
330
2
100
AcDbSymbolTableRecord
100
AcDbLayerTableRecord
  2
7
 70
     0
 62
     7
  6
Continuous
290
     1
370
    -3
390
F
  0
LAYER
  5
30
330
2
100
AcDbSymbolTableRecord
100
AcDbLayerTableRecord
  2
8
 70
     0
 62
     7
  6
Continuous
290
     1
370
    -3
390
F
  0
LAYER
  5
31
330
2
100
AcDbSymbolTableRecord
100
AcDbLayerTableRecord
  2
9
 70
     0
 62
     7
  6
Continuous
290
     1
370
    -3
390
F
  0
LAYER
  5
32
330
2
100
AcDbSymbolTableRecord
100
AcDbLayerTableRecord
  2
10
 70
     0
 62
     7
  6
Continuous
290
     1
370
    -3
390
F
  0
LAYER
  5
33
330
2
100
AcDbSymbolTableRecord
100
AcDbLayerTableRecord
  2
11
 70
     0
 62
     7
  6
Continuous
290
     1
370
    -3
390
F
  0
LAYER
  5
34
330
2
100
AcDbSymbolTableRecord
100
AcDbLayerTableRecord
  2
12
 70
     0
 62
     7
  6
Continuous
290
     1
370
    -3
390
F
  0
LAYER
  5
35
330
2
100
AcDbSymbolTableRecord
100
AcDbLayerTableRecord
  2
13
 70
     0
 62
     7
  6
Continuous
290
     1
370
    -3
390
F
  0
LAYER
  5
36
330
2
100
AcDbSymbolTableRecord
100
AcDbLayerTableRecord
  2
14
 70
     0
 62
     7
  6
Continuous
290
     1
370
    -3
390
F
  0
LAYER
  5
37
330
2
100
AcDbSymbolTableRecord
100
AcDbLayerTableRecord
  2
15
 70
     0
 62
     7
  6
Continuous
290
     1
370
    -3
390
F
  0
LAYER
  5
38
330
2
100
AcDbSymbolTableRecord
100
AcDbLayerTableRecord
  2
16
 70
     0
 62
     7
  6
Continuous
290
     1
370
    -3
390
F
  0
LAYER
  5
39
330
2
100
AcDbSymbolTableRecord
100
AcDbLayerTableRecord
  2
17
 70
     0
 62
     7
  6
Continuous
290
     1
370
    -3
390
F
  0
LAYER
  5
3A
330
2
100
AcDbSymbolTableRecord
100
AcDbLayerTableRecord
  2
18
 70
     0
 62
     7
  6
Continuous
290
     1
370
    -3
390
F
  0
LAYER
  5
3B
330
2
100
AcDbSymbolTableRecord
100
AcDbLayerTableRecord
  2
19
 70
     0
 62
     7
  6
Continuous
290
     1
370
    -3
390
F
  0
LAYER
  5
3C
330
2
100
AcDbSymbolTableRecord
100
AcDbLayerTableRecord
  2
20
 70
     0
 62
     7
  6
Continuous
290
     1
370
    -3
390
F
  0
LAYER
  5
3D
330
2
100
AcDbSymbolTableRecord
100
AcDbLayerTableRecord
  2
21
 70
     0
 62
     7
  6
Continuous
290
     1
370
    -3
390
F
  0
LAYER
  5
3E
330
2
100
AcDbSymbolTableRecord
100
AcDbLayerTableRecord
  2
22
 70
     0
 62
     7
  6
Continuous
290
     1
370
    -3
390
F
  0
LAYER
  5
3F
330
2
100
AcDbSymbolTableRecord
100
AcDbLayerTableRecord
  2
23
 70
     0
 62
     7
  6
Continuous
290
     1
370
    -3
390
F
  0
LAYER
  5
40
330
2
100
AcDbSymbolTableRecord
100
AcDbLayerTableRecord
  2
24
 70
     0
 62
     7
  6
Continuous
290
     1
370
    -3
390
F
  0
LAYER
  5
41
330
2
100
AcDbSymbolTableRecord
100
AcDbLayerTableRecord
  2
25
 70
     0
 62
     7
  6
Continuous
290
     1
370
    -3
390
F
  0
LAYER
  5
42
330
2
100
AcDbSymbolTableRecord
100
AcDbLayerTableRecord
  2
26
 70
     0
 62
     7
  6
Continuous
290
     1
370
    -3
390
F
  0
LAYER
  5
43
330
2
100
AcDbSymbolTableRecord
100
AcDbLayerTableRecord
  2
27
 70
     0
 62
     7
  6
Continuous
290
     1
370
    -3
390
F
  0
LAYER
  5
44
330
2
100
AcDbSymbolTableRecord
100
AcDbLayerTableRecord
  2
28
 70
     0
 62
     7
  6
Continuous
290
     1
370
    -3
390
F
  0
LAYER
  5
45
330
2
100
AcDbSymbolTableRecord
100
AcDbLayerTableRecord
  2
29
 70
     0
 62
     7
  6
Continuous
290
     1
370
    -3
390
F
  0
LAYER
  5
46
330
2
100
AcDbSymbolTableRecord
100
AcDbLayerTableRecord
  2
30
 70
     0
 62
     7
  6
Continuous
290
     1
370
    -3
390
F
  0
LAYER
  5
47
330
2
100
AcDbSymbolTableRecord
100
AcDbLayerTableRecord
  2
31
 70
     0
 62
     7
  6
Continuous
290
     1
370
    -3
390
F
  0
LAYER
  5
48
330
2
100
AcDbSymbolTableRecord
100
AcDbLayerTableRecord
  2
32
 70
     0
 62
     7
  6
Continuous
290
     1
370
    -3
390
F
  0
LAYER
  5
49
330
2
100
AcDbSymbolTableRecord
100
AcDbLayerTableRecord
  2
33
 70
     0
 62
     7
  6
Continuous
290
     1
370
    -3
390
F
  0
LAYER
  5
4A
330
2
100
AcDbSymbolTableRecord
100
AcDbLayerTableRecord
  2
34
 70
     0
 62
     7
  6
Continuous
290
     1
370
    -3
390
F
  0
LAYER
  5
4B
330
2
100
AcDbSymbolTableRecord
100
AcDbLayerTableRecord
  2
35
 70
     0
 62
     7
  6
Continuous
290
     1
370
    -3
390
F
  0
LAYER
  5
4C
330
2
100
AcDbSymbolTableRecord
100
AcDbLayerTableRecord
  2
36
 70
     0
 62
     7
  6
Continuous
290
     1
370
    -3
390
F
  0
LAYER
  5
4D
330
2
100
AcDbSymbolTableRecord
100
AcDbLayerTableRecord
  2
37
 70
     0
 62
     7
  6
Continuous
290
     1
370
    -3
390
F
  0
LAYER
  5
4E
330
2
100
AcDbSymbolTableRecord
100
AcDbLayerTableRecord
  2
38
 70
     0
 62
     7
  6
Continuous
290
     1
370
    -3
390
F
  0
LAYER
  5
4F
330
2
100
AcDbSymbolTableRecord
100
AcDbLayerTableRecord
  2
39
 70
     0
 62
     7
  6
Continuous
290
     1
370
    -3
390
F
  0
LAYER
  5
50
330
2
100
AcDbSymbolTableRecord
100
AcDbLayerTableRecord
  2
40
 70
     0
 62
     7
  6
Continuous
290
     1
370
    -3
390
F
  0
LAYER
  5
51
330
2
100
AcDbSymbolTableRecord
100
AcDbLayerTableRecord
  2
41
 70
     0
 62
     7
  6
Continuous
290
     1
370
    -3
390
F
  0
LAYER
  5
52
330
2
100
AcDbSymbolTableRecord
100
AcDbLayerTableRecord
  2
42
 70
     0
 62
     7
  6
Continuous
290
     1
370
    -3
390
F
  0
LAYER
  5
53
330
2
100
AcDbSymbolTableRecord
100
AcDbLayerTableRecord
  2
43
 70
     0
 62
     7
  6
Continuous
290
     1
370
    -3
390
F
  0
LAYER
  5
54
330
2
100
AcDbSymbolTableRecord
100
AcDbLayerTableRecord
  2
44
 70
     0
 62
     7
  6
Continuous
290
     1
370
    -3
390
F
  0
LAYER
  5
55
330
2
100
AcDbSymbolTableRecord
100
AcDbLayerTableRecord
  2
45
 70
     0
 62
     7
  6
Continuous
290
     1
370
    -3
390
F
  0
LAYER
  5
56
330
2
100
AcDbSymbolTableRecord
100
AcDbLayerTableRecord
  2
46
 70
     0
 62
     7
  6
Continuous
290
     1
370
    -3
390
F
  0
LAYER
  5
57
330
2
100
AcDbSymbolTableRecord
100
AcDbLayerTableRecord
  2
47
 70
     0
 62
     7
  6
Continuous
290
     1
370
    -3
390
F
  0
LAYER
  5
58
330
2
100
AcDbSymbolTableRecord
100
AcDbLayerTableRecord
  2
48
 70
     0
 62
     7
  6
Continuous
290
     1
370
    -3
390
F
  0
LAYER
  5
59
330
2
100
AcDbSymbolTableRecord
100
AcDbLayerTableRecord
  2
49
 70
     0
 62
     7
  6
Continuous
290
     1
370
    -3
390
F
  0
LAYER
  5
5A
330
2
100
AcDbSymbolTableRecord
100
AcDbLayerTableRecord
  2
50
 70
     0
 62
     7
  6
Continuous
290
     1
370
    -3
390
F
  0
LAYER
  5
5B
330
2
100
AcDbSymbolTableRecord
100
AcDbLayerTableRecord
  2
51
 70
     0
 62
     7
  6
Continuous
290
     1
370
    -3
390
F
  0
LAYER
  5
5C
330
2
100
AcDbSymbolTableRecord
100
AcDbLayerTableRecord
  2
52
 70
     0
 62
     7
  6
Continuous
290
     1
370
    -3
390
F
  0
LAYER
  5
5D
330
2
100
AcDbSymbolTableRecord
100
AcDbLayerTableRecord
  2
53
 70
     0
 62
     7
  6
Continuous
290
     1
370
    -3
390
F
  0
LAYER
  5
5E
330
2
100
AcDbSymbolTableRecord
100
AcDbLayerTableRecord
  2
54
 70
     0
 62
     7
  6
Continuous
290
     1
370
    -3
390
F
  0
LAYER
  5
5F
330
2
100
AcDbSymbolTableRecord
100
AcDbLayerTableRecord
  2
55
 70
     0
 62
     7
  6
Continuous
290
     1
370
    -3
390
F
  0
LAYER
  5
60
330
2
100
AcDbSymbolTableRecord
100
AcDbLayerTableRecord
  2
56
 70
     0
 62
     7
  6
Continuous
290
     1
370
    -3
390
F
  0
LAYER
  5
61
330
2
100
AcDbSymbolTableRecord
100
AcDbLayerTableRecord
  2
57
 70
     0
 62
     7
  6
Continuous
290
     1
370
    -3
390
F
  0
LAYER
  5
62
330
2
100
AcDbSymbolTableRecord
100
AcDbLayerTableRecord
  2
58
 70
     0
 62
     7
  6
Continuous
290
     1
370
    -3
390
F
  0
LAYER
  5
63
330
2
100
AcDbSymbolTableRecord
100
AcDbLayerTableRecord
  2
59
 70
     0
 62
     7
  6
Continuous
290
     1
370
    -3
390
F
  0
LAYER
  5
64
330
2
100
AcDbSymbolTableRecord
100
AcDbLayerTableRecord
  2
60
 70
     0
 62
     7
  6
Continuous
290
     1
370
    -3
390
F
  0
LAYER
  5
65
330
2
100
AcDbSymbolTableRecord
100
AcDbLayerTableRecord
  2
61
 70
     0
 62
     7
  6
Continuous
290
     1
370
    -3
390
F
  0
LAYER
  5
66
330
2
100
AcDbSymbolTableRecord
100
AcDbLayerTableRecord
  2
62
 70
     0
 62
     7
  6
Continuous
290
     1
370
    -3
390
F
  0
LAYER
  5
67
330
2
100
AcDbSymbolTableRecord
100
AcDbLayerTableRecord
  2
63
 70
     0
 62
     7
  6
Continuous
290
     1
370
    -3
390
F
  0
LAYER
  5
68
330
2
100
AcDbSymbolTableRecord
100
AcDbLayerTableRecord
  2
64
 70
     0
 62
     7
  6
Continuous
290
     1
370
    -3
390
F
  0
LAYER
  5
69
330
2
100
AcDbSymbolTableRecord
100
AcDbLayerTableRecord
  2
65
 70
     0
 62
     7
  6
Continuous
290
     1
370
    -3
390
F
  0
LAYER
  5
6A
330
2
100
AcDbSymbolTableRecord
100
AcDbLayerTableRecord
  2
66
 70
     0
 62
     7
  6
Continuous
290
     1
370
    -3
390
F
  0
LAYER
  5
6B
330
2
100
AcDbSymbolTableRecord
100
AcDbLayerTableRecord
  2
67
 70
     0
 62
     7
  6
Continuous
290
     1
370
    -3
390
F
  0
LAYER
  5
6C
330
2
100
AcDbSymbolTableRecord
100
AcDbLayerTableRecord
  2
68
 70
     0
 62
     7
  6
Continuous
290
     1
370
    -3
390
F
  0
LAYER
  5
6D
330
2
100
AcDbSymbolTableRecord
100
AcDbLayerTableRecord
  2
69
 70
     0
 62
     7
  6
Continuous
290
     1
370
    -3
390
F
  0
LAYER
  5
6E
330
2
100
AcDbSymbolTableRecord
100
AcDbLayerTableRecord
  2
70
 70
     0
 62
     7
  6
Continuous
290
     1
370
    -3
390
F
  0
LAYER
  5
6F
330
2
100
AcDbSymbolTableRecord
100
AcDbLayerTableRecord
  2
71
 70
     0
 62
     7
  6
Continuous
290
     1
370
    -3
390
F
  0
LAYER
  5
70
330
2
100
AcDbSymbolTableRecord
100
AcDbLayerTableRecord
  2
72
 70
     0
 62
     7
  6
Continuous
290
     1
370
    -3
390
F
  0
LAYER
  5
71
330
2
100
AcDbSymbolTableRecord
100
AcDbLayerTableRecord
  2
73
 70
     0
 62
     7
  6
Continuous
290
     1
370
    -3
390
F
  0
LAYER
  5
72
330
2
100
AcDbSymbolTableRecord
100
AcDbLayerTableRecord
  2
74
 70
     0
 62
     7
  6
Continuous
290
     1
370
    -3
390
F
  0
LAYER
  5
73
330
2
100
AcDbSymbolTableRecord
100
AcDbLayerTableRecord
  2
75
 70
     0
 62
     7
  6
Continuous
290
     1
370
    -3
390
F
  0
LAYER
  5
74
330
2
100
AcDbSymbolTableRecord
100
AcDbLayerTableRecord
  2
76
 70
     0
 62
     7
  6
Continuous
290
     1
370
    -3
390
F
  0
LAYER
  5
75
330
2
100
AcDbSymbolTableRecord
100
AcDbLayerTableRecord
  2
77
 70
     0
 62
     7
  6
Continuous
290
     1
370
    -3
390
F
  0
LAYER
  5
76
330
2
100
AcDbSymbolTableRecord
100
AcDbLayerTableRecord
  2
78
 70
     0
 62
     7
  6
Continuous
290
     1
370
    -3
390
F
  0
LAYER
  5
77
330
2
100
AcDbSymbolTableRecord
100
AcDbLayerTableRecord
  2
79
 70
     0
 62
     7
  6
Continuous
290
     1
370
    -3
390
F
  0
LAYER
  5
78
330
2
100
AcDbSymbolTableRecord
100
AcDbLayerTableRecord
  2
80
 70
     0
 62
     7
  6
Continuous
290
     1
370
    -3
390
F
  0
LAYER
  5
79
330
2
100
AcDbSymbolTableRecord
100
AcDbLayerTableRecord
  2
81
 70
     0
 62
     7
  6
Continuous
290
     1
370
    -3
390
F
  0
LAYER
  5
7A
330
2
100
AcDbSymbolTableRecord
100
AcDbLayerTableRecord
  2
82
 70
     0
 62
     7
  6
Continuous
290
     1
370
    -3
390
F
  0
LAYER
  5
7B
330
2
100
AcDbSymbolTableRecord
100
AcDbLayerTableRecord
  2
83
 70
     0
 62
     7
  6
Continuous
290
     1
370
    -3
390
F
  0
LAYER
  5
7C
330
2
100
AcDbSymbolTableRecord
100
AcDbLayerTableRecord
  2
84
 70
     0
 62
     7
  6
Continuous
290
     1
370
    -3
390
F
  0
LAYER
  5
7D
330
2
100
AcDbSymbolTableRecord
100
AcDbLayerTableRecord
  2
85
 70
     0
 62
     7
  6
Continuous
290
     1
370
    -3
390
F
  0
LAYER
  5
7E
330
2
100
AcDbSymbolTableRecord
100
AcDbLayerTableRecord
  2
86
 70
     0
 62
     7
  6
Continuous
290
     1
370
    -3
390
F
  0
LAYER
  5
7F
330
2
100
AcDbSymbolTableRecord
100
AcDbLayerTableRecord
  2
87
 70
     0
 62
     7
  6
Continuous
290
     1
370
    -3
390
F
  0
LAYER
  5
80
330
2
100
AcDbSymbolTableRecord
100
AcDbLayerTableRecord
  2
88
 70
     0
 62
     7
  6
Continuous
290
     1
370
    -3
390
F
  0
LAYER
  5
81
330
2
100
AcDbSymbolTableRecord
100
AcDbLayerTableRecord
  2
89
 70
     0
 62
     7
  6
Continuous
290
     1
370
    -3
390
F
  0
LAYER
  5
82
330
2
100
AcDbSymbolTableRecord
100
AcDbLayerTableRecord
  2
90
 70
     0
 62
     7
  6
Continuous
290
     1
370
    -3
390
F
  0
LAYER
  5
83
330
2
100
AcDbSymbolTableRecord
100
AcDbLayerTableRecord
  2
91
 70
     0
 62
     7
  6
Continuous
290
     1
370
    -3
390
F
  0
LAYER
  5
84
330
2
100
AcDbSymbolTableRecord
100
AcDbLayerTableRecord
  2
92
 70
     0
 62
     7
  6
Continuous
290
     1
370
    -3
390
F
  0
LAYER
  5
85
330
2
100
AcDbSymbolTableRecord
100
AcDbLayerTableRecord
  2
93
 70
     0
 62
     7
  6
Continuous
290
     1
370
    -3
390
F
  0
LAYER
  5
86
330
2
100
AcDbSymbolTableRecord
100
AcDbLayerTableRecord
  2
94
 70
     0
 62
     7
  6
Continuous
290
     1
370
    -3
390
F
  0
LAYER
  5
87
330
2
100
AcDbSymbolTableRecord
100
AcDbLayerTableRecord
  2
95
 70
     0
 62
     7
  6
Continuous
290
     1
370
    -3
390
F
  0
LAYER
  5
88
330
2
100
AcDbSymbolTableRecord
100
AcDbLayerTableRecord
  2
96
 70
     0
 62
     7
  6
Continuous
290
     1
370
    -3
390
F
  0
LAYER
  5
89
330
2
100
AcDbSymbolTableRecord
100
AcDbLayerTableRecord
  2
97
 70
     0
 62
     7
  6
Continuous
290
     1
370
    -3
390
F
  0
LAYER
  5
8A
330
2
100
AcDbSymbolTableRecord
100
AcDbLayerTableRecord
  2
98
 70
     0
 62
     7
  6
Continuous
290
     1
370
    -3
390
F
  0
LAYER
  5
8B
330
2
100
AcDbSymbolTableRecord
100
AcDbLayerTableRecord
  2
99
 70
     0
 62
     7
  6
Continuous
290
     1
370
    -3
390
F
  0
LAYER
  5
8C
330
2
100
AcDbSymbolTableRecord
100
AcDbLayerTableRecord
  2
100
 70
     0
 62
     7
  6
Continuous
290
     1
370
    -3
390
F
  0
LAYER
  5
8D
330
2
100
AcDbSymbolTableRecord
100
AcDbLayerTableRecord
  2
101
 70
     0
 62
     7
  6
Continuous
290
     1
370
    -3
390
F
  0
LAYER
  5
8E
330
2
100
AcDbSymbolTableRecord
100
AcDbLayerTableRecord
  2
102
 70
     0
 62
     7
  6
Continuous
290
     1
370
    -3
390
F
  0
LAYER
  5
8F
330
2
100
AcDbSymbolTableRecord
100
AcDbLayerTableRecord
  2
103
 70
     0
 62
     7
  6
Continuous
290
     1
370
    -3
390
F
  0
LAYER
  5
90
330
2
100
AcDbSymbolTableRecord
100
AcDbLayerTableRecord
  2
104
 70
     0
 62
     7
  6
Continuous
290
     1
370
    -3
390
F
  0
LAYER
  5
91
330
2
100
AcDbSymbolTableRecord
100
AcDbLayerTableRecord
  2
105
 70
     0
 62
     7
  6
Continuous
290
     1
370
    -3
390
F
  0
LAYER
  5
92
330
2
100
AcDbSymbolTableRecord
100
AcDbLayerTableRecord
  2
106
 70
     0
 62
     7
  6
Continuous
290
     1
370
    -3
390
F
  0
LAYER
  5
93
330
2
100
AcDbSymbolTableRecord
100
AcDbLayerTableRecord
  2
107
 70
     0
 62
     7
  6
Continuous
290
     1
370
    -3
390
F
  0
LAYER
  5
94
330
2
100
AcDbSymbolTableRecord
100
AcDbLayerTableRecord
  2
108
 70
     0
 62
     7
  6
Continuous
290
     1
370
    -3
390
F
  0
LAYER
  5
95
330
2
100
AcDbSymbolTableRecord
100
AcDbLayerTableRecord
  2
109
 70
     0
 62
     7
  6
Continuous
290
     1
370
    -3
390
F
  0
LAYER
  5
96
330
2
100
AcDbSymbolTableRecord
100
AcDbLayerTableRecord
  2
110
 70
     0
 62
     7
  6
Continuous
290
     1
370
    -3
390
F
  0
LAYER
  5
97
330
2
100
AcDbSymbolTableRecord
100
AcDbLayerTableRecord
  2
111
 70
     0
 62
     7
  6
Continuous
290
     1
370
    -3
390
F
  0
LAYER
  5
98
330
2
100
AcDbSymbolTableRecord
100
AcDbLayerTableRecord
  2
112
 70
     0
 62
     7
  6
Continuous
290
     1
370
    -3
390
F
  0
LAYER
  5
99
330
2
100
AcDbSymbolTableRecord
100
AcDbLayerTableRecord
  2
113
 70
     0
 62
     7
  6
Continuous
290
     1
370
    -3
390
F
  0
LAYER
  5
9A
330
2
100
AcDbSymbolTableRecord
100
AcDbLayerTableRecord
  2
114
 70
     0
 62
     7
  6
Continuous
290
     1
370
    -3
390
F
  0
LAYER
  5
9B
330
2
100
AcDbSymbolTableRecord
100
AcDbLayerTableRecord
  2
115
 70
     0
 62
     7
  6
Continuous
290
     1
370
    -3
390
F
  0
LAYER
  5
9C
330
2
100
AcDbSymbolTableRecord
100
AcDbLayerTableRecord
  2
116
 70
     0
 62
     7
  6
Continuous
290
     1
370
    -3
390
F
  0
LAYER
  5
9D
330
2
100
AcDbSymbolTableRecord
100
AcDbLayerTableRecord
  2
117
 70
     0
 62
     7
  6
Continuous
290
     1
370
    -3
390
F
  0
LAYER
  5
9E
330
2
100
AcDbSymbolTableRecord
100
AcDbLayerTableRecord
  2
118
 70
     0
 62
     7
  6
Continuous
290
     1
370
    -3
390
F
  0
LAYER
  5
9F
330
2
100
AcDbSymbolTableRecord
100
AcDbLayerTableRecord
  2
119
 70
     0
 62
     7
  6
Continuous
290
     1
370
    -3
390
F
  0
LAYER
  5
A0
330
2
100
AcDbSymbolTableRecord
100
AcDbLayerTableRecord
  2
120
 70
     0
 62
     7
  6
Continuous
290
     1
370
    -3
390
F
  0
LAYER
  5
A1
330
2
100
AcDbSymbolTableRecord
100
AcDbLayerTableRecord
  2
121
 70
     0
 62
     7
  6
Continuous
290
     1
370
    -3
390
F
  0
LAYER
  5
A2
330
2
100
AcDbSymbolTableRecord
100
AcDbLayerTableRecord
  2
122
 70
     0
 62
     7
  6
Continuous
290
     1
370
    -3
390
F
  0
LAYER
  5
A3
330
2
100
AcDbSymbolTableRecord
100
AcDbLayerTableRecord
  2
123
 70
     0
 62
     7
  6
Continuous
290
     1
370
    -3
390
F
  0
LAYER
  5
A4
330
2
100
AcDbSymbolTableRecord
100
AcDbLayerTableRecord
  2
124
 70
     0
 62
     7
  6
Continuous
290
     1
370
    -3
390
F
  0
LAYER
  5
A5
330
2
100
AcDbSymbolTableRecord
100
AcDbLayerTableRecord
  2
125
 70
     0
 62
     7
  6
Continuous
290
     1
370
    -3
390
F
  0
LAYER
  5
A6
330
2
100
AcDbSymbolTableRecord
100
AcDbLayerTableRecord
  2
126
 70
     0
 62
     7
  6
Continuous
290
     1
370
    -3
390
F
  0
LAYER
  5
A7
330
2
100
AcDbSymbolTableRecord
100
AcDbLayerTableRecord
  2
127
 70
     0
 62
     7
  6
Continuous
290
     1
370
    -3
390
F
  0
LAYER
  5
A8
330
2
100
AcDbSymbolTableRecord
100
AcDbLayerTableRecord
  2
128
 70
     0
 62
     7
  6
Continuous
290
     1
370
    -3
390
F
  0
ENDTAB
  0
TABLE
  2
STYLE
  5
3
330
0
100
AcDbSymbolTable
 70
    13
  0
STYLE
  5
11
330
3
100
AcDbSymbolTableRecord
100
AcDbTextStyleTableRecord
  2
Standard
 70
     0
 40
0.0
 41
1.0
 50
0.0
 71
     0
 42
2.5
  3
txt.shx
  4
extfont.shx
  0
STYLE
  5
AB
330
3
100
AcDbSymbolTableRecord
100
AcDbTextStyleTableRecord
  2
KANJI0
 70
     4
 40
10.0
 41
1.0
 50
0.0
 71
     0
 42
10.0
  3
txt.shx
  4
extfont.shx
  0
STYLE
  5
B1
330
3
100
AcDbSymbolTableRecord
100
AcDbTextStyleTableRecord
  2
KANJI1
 70
     4
 40
10.0
 41
1.0
 50
0.0
 71
     0
 42
10.0
  3
txt.shx
  4
extfont.shx
  0
STYLE
  5
BD
330
3
100
AcDbSymbolTableRecord
100
AcDbTextStyleTableRecord
  2
KANJI2
 70
     4
 40
6.666666667
 41
1.5
 50
0.0
 71
     0
 42
6.666666667
  3
txt.shx
  4
extfont.shx
  0
STYLE
  5
BF
330
3
100
AcDbSymbolTableRecord
100
AcDbTextStyleTableRecord
  2
KANJI3
 70
     0
 40
12.0
 41
0.9
 50
0.0
 71
     0
 42
12.0
  3
txt.shx
  4
extfont.shx
  0
STYLE
  5
CA
330
3
100
AcDbSymbolTableRecord
100
AcDbTextStyleTableRecord
  2
KANJI4
 70
     0
 40
12.0
 41
1.0
 50
0.0
 71
     0
 42
12.0
  3
txt.shx
  4
extfont.shx
  0
STYLE
  5
CF
330
3
100
AcDbSymbolTableRecord
100
AcDbTextStyleTableRecord
  2
KANJI5
 70
     0
 40
12.0
 41
0.45
 50
0.0
 71
     0
 42
12.0
  3
txt.shx
  4
extfont.shx
  0
STYLE
  5
DF
330
3
100
AcDbSymbolTableRecord
100
AcDbTextStyleTableRecord
  2
KANJI6
 70
     0
 40
16.0
 41
0.925
 50
0.0
 71
     0
 42
16.0
  3
txt.shx
  4
extfont.shx
  0
STYLE
  5
E4
330
3
100
AcDbSymbolTableRecord
100
AcDbTextStyleTableRecord
  2
KANJI7
 70
     0
 40
16.0
 41
0.4625
 50
0.0
 71
     0
 42
16.0
  3
txt.shx
  4
extfont.shx
  0
STYLE
  5
1C4
330
3
100
AcDbSymbolTableRecord
100
AcDbTextStyleTableRecord
  2
KANJI8
 70
     0
 40
12.0
 41
0.6
 50
0.0
 71
     0
 42
12.0
  3
txt.shx
  4
extfont.shx
  0
STYLE
  5
1F6
330
3
100
AcDbSymbolTableRecord
100
AcDbTextStyleTableRecord
  2
KANJI9
 70
     0
 40
12.0
 41
0.6
 50
0.0
 71
     0
 42
12.0
  3
txt.shx
  4
extfont.shx
  0
STYLE
  5
20B
330
3
100
AcDbSymbolTableRecord
100
AcDbTextStyleTableRecord
  2
KANJI10
 70
     0
 40
16.0
 41
1.0
 50
0.0
 71
     0
 42
16.0
  3
txt.shx
  4
extfont.shx
  0
STYLE
  5
2B6
330
3
100
AcDbSymbolTableRecord
100
AcDbTextStyleTableRecord
  2
KANJI11
 70
     0
 40
12.0
 41
1.0
 50
0.0
 71
     0
 42
12.0
  3
txt.shx
  4
extfont.shx
  0
ENDTAB
  0
TABLE
  2
VIEW
  5
6
330
0
100
AcDbSymbolTable
 70
     0
  0
ENDTAB
  0
TABLE
  2
UCS
  5
7
330
0
100
AcDbSymbolTable
 70
     0
  0
ENDTAB
  0
TABLE
  2
APPID
  5
9
330
0
100
AcDbSymbolTable
 70
     1
  0
APPID
  5
12
330
9
100
AcDbSymbolTableRecord
100
AcDbRegAppTableRecord
  2
ACAD
 70
     0
  0
ENDTAB
  0
TABLE
  2
DIMSTYLE
  5
A
330
0
100
AcDbSymbolTable
 70
     1
100
AcDbDimStyleTable
 71
     0
  0
DIMSTYLE
105
27
330
A
100
AcDbSymbolTableRecord
100
AcDbDimStyleTableRecord
  2
ISO-25
 70
    64
  3

  4

 40
1.0
 41
2.5
 42
0.625
 43
3.75
 44
1.25
 45
0.0
 46
0.0
 47
0.0
 48
0.0
 71
     0
 72
     0
 73
     0
 74
     0
 75
     0
 76
     0
 77
     1
 78
     8
 79
     0
140
2.5
141
2.5
142
0.0
143
0.039370079
144
1.0
145
0.0
146
1.0
147
0.625
148
0.0
170
     0
171
     3
172
     1
173
     0
174
     0
175
     0
176
     0
177
     0
178
     0
179
     0
270
     2
271
     2
272
     2
273
     2
274
     3
275
     0
276
     0
277
     2
278
    46
279
     0
280
     0
281
     0
282
     0
283
     1
284
     8
285
     0
286
     0
288
     0
289
     3
340
11
341
0
342
0
343
0
344
0
371
    -2
372
    -2
  0
ENDTAB
  0
TABLE
  2
BLOCK_RECORD
  5
1
330
0
100
AcDbSymbolTable
 70
     3
  0
BLOCK_RECORD
  5
1F
330
1
100
AcDbSymbolTableRecord
100
AcDbBlockTableRecord
  2
*Model_Space
340
22
  0
BLOCK_RECORD
  5
1B
330
1
100
AcDbSymbolTableRecord
100
AcDbBlockTableRecord
  2
*Paper_Space
340
1E
  0
BLOCK_RECORD
  5
23
330
1
100
AcDbSymbolTableRecord
100
AcDbBlockTableRecord
  2
*Paper_Space0
340
26
  0
ENDTAB
  0
ENDSEC
  0
SECTION
  2
BLOCKS
  0
BLOCK
  5
1C
330
1B
100
AcDbEntity
 67
     1
  8
0
100
AcDbBlockBegin
  2
*Paper_Space
 70
     0
 10
0.0
 20
0.0
 30
0.0
  3
*Paper_Space
  1

  0
ENDBLK
  5
1D
330
1B
100
AcDbEntity
  8
0
100
AcDbBlockEnd
  0
BLOCK
  5
20
330
1F
100
AcDbEntity
  8
0
100
AcDbBlockBegin
  2
*Model_Space
 70
     0
 10
0.0
 20
0.0
 30
0.0
  3
*Model_Space
  1

  0
ENDBLK
  5
21
330
1F
100
AcDbEntity
  8
0
100
AcDbBlockEnd
  0
BLOCK
  5
24
330
23
100
AcDbEntity
 67
     1
  8
0
100
AcDbBlockBegin
  2
*Paper_Space0
 70
     0
 10
0.0
 20
0.0
 30
0.0
  3
*Paper_Space0
  1

  0
ENDBLK
  5
25
330
23
100
AcDbEntity
  8
0
100
AcDbBlockEnd
  0
ENDSEC
  0
SECTION
  2
ENTITIES
  0
LINE
  5
A9
330
1F
100
AcDbEntity
  8
0
  6
Continuous
 62
     2
100
AcDbLine
 10
1148.0
 20
64.0
 30
0.0
 11
408.0
 21
64.0
 31
0.0
  0
MTEXT
  5
AA
330
1F
100
AcDbEntity
  8
0
  6
Continuous
 62
     2
100
AcDbMText
 10
930.0
 20
110.0
 30
0.0
 40
10.0
 41
40.0
 71
     1
 72
     3
  1
\W1.000;仕上
  7
KANJI0
 73
     1
 44
1.0
  0
LINE
  5
AC
330
1F
100
AcDbEntity
  8
0
  6
Continuous
 62
     2
100
AcDbLine
 10
928.0
 20
136.0
 30
0.0
 11
1148.0
 21
136.0
 31
0.0
  0
LINE
  5
AD
330
1F
100
AcDbEntity
  8
0
  6
Continuous
 62
     2
100
AcDbLine
 10
928.0
 20
112.0
 30
0.0
 11
1148.0
 21
112.0
 31
0.0
  0
MTEXT
  5
AE
330
1F
100
AcDbEntity
  8
0
  6
Continuous
 62
     2
100
AcDbMText
 10
930.0
 20
134.0
 30
0.0
 40
10.0
 41
40.0
 71
     1
 72
     3
  1
\W1.000;規格
  7
KANJI0
 73
     1
 44
1.0
  0
MTEXT
  5
AF
330
1F
100
AcDbEntity
  8
0
  6
Continuous
 62
     2
100
AcDbMText
 10
930.0
 20
158.0
 30
0.0
 40
10.0
 41
40.0
 71
     1
 72
     3
  1
\W1.000;材質
  7
KANJI0
 73
     1
 44
1.0
  0
MTEXT
  5
B0
330
1F
100
AcDbEntity
  8
0
  6
Continuous
 62
     2
100
AcDbMText
 10
930.0
 20
182.0
 30
0.0
 40
10.0
 41
40.0
 71
     1
 72
     3
  1
\W1.000;品番
  7
KANJI1
 73
     1
 44
1.0
  0
MTEXT
  5
B2
330
1F
100
AcDbEntity
  8
0
  6
Continuous
 62
     2
100
AcDbMText
 10
930.0
 20
206.0
 30
0.0
 40
10.0
 41
40.0
 71
     1
 72
     3
  1
\W1.000;図名
  7
KANJI0
 73
     1
 44
1.0
  0
LINE
  5
B3
330
1F
100
AcDbEntity
  8
0
  6
Continuous
 62
     2
100
AcDbLine
 10
928.0
 20
160.0
 30
0.0
 11
1148.0
 21
160.0
 31
0.0
  0
LINE
  5
B4
330
1F
100
AcDbEntity
  8
0
  6
Continuous
 62
     2
100
AcDbLine
 10
928.0
 20
184.0
 30
0.0
 11
1148.0
 21
184.0
 31
0.0
  0
LINE
  5
B5
330
1F
100
AcDbEntity
  8
0
  6
Continuous
 62
     2
100
AcDbLine
 10
928.0
 20
208.0
 30
0.0
 11
1148.0
 21
208.0
 31
0.0
  0
LINE
  5
B6
330
1F
100
AcDbEntity
  8
0
  6
Continuous
 62
     2
100
AcDbLine
 10
840.0
 20
64.0
 30
0.0
 11
840.0
 21
40.0
 31
0.0
  0
MTEXT
  5
B7
330
1F
100
AcDbEntity
  8
0
  6
Continuous
 62
     2
100
AcDbMText
 10
842.0
 20
62.0
 30
0.0
 40
10.0
 41
40.0
 71
     1
 72
     3
  1
\W1.000;日付
  7
KANJI0
 73
     1
 44
1.0
  0
LINE
  5
B8
330
1F
100
AcDbEntity
  8
0
  6
Continuous
 62
     2
100
AcDbLine
 10
928.0
 20
40.0
 30
0.0
 11
928.0
 21
208.0
 31
0.0
  0
MTEXT
  5
B9
330
1F
100
AcDbEntity
  8
0
  6
Continuous
 62
     2
100
AcDbMText
 10
842.0
 20
86.0
 30
0.0
 40
10.0
 41
40.0
 71
     1
 72
     3
  1
\W1.000;尺度
  7
KANJI0
 73
     1
 44
1.0
  0
LINE
  5
BA
330
1F
100
AcDbEntity
  8
0
  6
Continuous
 62
     2
100
AcDbLine
 10
840.0
 20
88.0
 30
0.0
 11
1148.0
 21
88.0
 31
0.0
  0
MTEXT
  5
BB
330
1F
100
AcDbEntity
  8
0
  6
Continuous
 62
     2
100
AcDbMText
 10
930.0
 20
62.0
 30
0.0
 40
10.0
 41
40.0
 71
     1
 72
     3
  1
\W1.000;品名
  7
KANJI0
 73
     1
 44
1.0
  0
MTEXT
  5
BC
330
1F
100
AcDbEntity
  8
0
  6
Continuous
 62
     2
100
AcDbMText
 10
930.0
 20
86.0
 30
0.0
 40
6.666666667
 41
40.0
 71
     1
 72
     3
  1
\W1.500;その他
  7
KANJI2
 73
     1
 44
1.0
  0
MTEXT
  5
BE
330
1F
100
AcDbEntity
  8
0
  6
Continuous
 62
     2
100
AcDbMText
 10
952.0
 20
140.8
 30
0.0
 40
12.0
 41
69.6
 71
     7
 72
     1
  1
\T1.111;\W0.900;－－－
  7
KANJI3
 73
     1
 44
1.0
  0
MTEXT
  5
C0
330
1F
100
AcDbEntity
  8
0
  6
Continuous
 62
     2
100
AcDbMText
 10
952.0
 20
116.8
 30
0.0
 40
12.0
 41
69.6
 71
     7
 72
     1
  1
\T1.111;\W0.900;－－－
  7
KANJI3
 73
     1
 44
1.0
  0
MTEXT
  5
C1
330
1F
100
AcDbEntity
  8
0
  6
Continuous
 62
     2
100
AcDbMText
 10
952.0
 20
92.8
 30
0.0
 40
12.0
 41
69.6
 71
     7
 72
     1
  1
\T1.111;\W0.900;－－－
  7
KANJI3
 73
     1
 44
1.0
  0
MTEXT
  5
C2
330
1F
100
AcDbEntity
  8
0
  6
Continuous
 62
     2
100
AcDbMText
 10
952.0
 20
68.8
 30
0.0
 40
12.0
 41
69.6
 71
     7
 72
     1
  1
\T1.111;\W0.900;－－－
  7
KANJI3
 73
     1
 44
1.0
  0
POINT
  5
C3
330
1F
100
AcDbEntity
  8
0
  6
Continuous
 62
     2
100
AcDbPoint
 10
1148.0
 20
208.0
 30
0.0
  0
LWPOLYLINE
  5
C5
330
1F
100
AcDbEntity
  8
0
  6
Continuous
 62
     2
100
AcDbPolyline
 90
     3
 70
   128
 43
0.0
 10
40.0
 20
40.0
 10
1148.0
 20
40.0
 10
1148.0
 20
800.0
  0
LINE
  5
C6
330
1F
100
AcDbEntity
  8
0
  6
Continuous
 62
     2
100
AcDbLine
 10
840.0
 20
112.0
 30
0.0
 11
928.0
 21
112.0
 31
0.0
  0
LINE
  5
C7
330
1F
100
AcDbEntity
  8
0
  6
Continuous
 62
     2
100
AcDbLine
 10
840.0
 20
112.0
 30
0.0
 11
840.0
 21
64.0
 31
0.0
  0
MTEXT
  5
C8
330
1F
100
AcDbEntity
  8
0
  6
Continuous
 62
     2
100
AcDbMText
 10
842.0
 20
110.0
 30
0.0
 40
10.0
 41
40.0
 71
     1
 72
     3
  1
\W1.000;用紙
  7
KANJI0
 73
     1
 44
1.0
  0
MTEXT
  5
C9
330
1F
100
AcDbEntity
  8
0
  6
Continuous
 62
     2
100
AcDbMText
 10
412.0
 20
46.0
 30
0.0
 40
12.0
 41
320.0
 71
     7
 72
     1
  1
\T1.370;\W1.000;オオハシ産業株式会社
  7
KANJI4
 73
     1
 44
1.0
  0
LINE
  5
CB
330
1F
100
AcDbEntity
  8
0
  6
Continuous
 62
     2
100
AcDbLine
 10
580.0
 20
64.0
 30
0.0
 11
580.0
 21
40.0
 31
0.0
  0
MTEXT
  5
CC
330
1F
100
AcDbEntity
  8
0
  6
Continuous
 62
     2
100
AcDbMText
 10
582.0
 20
62.0
 30
0.0
 40
10.0
 41
40.0
 71
     1
 72
     3
  1
\W1.000;作図
  7
KANJI0
 73
     1
 44
1.0
  0
LINE
  5
CD
330
1F
100
AcDbEntity
  8
0
  6
Continuous
 62
     2
100
AcDbLine
 10
660.0
 20
40.0
 30
0.0
 11
660.0
 21
64.0
 31
0.0
  0
MTEXT
  5
CE
330
1F
100
AcDbEntity
  8
0
  6
Continuous
 62
     2
100
AcDbMText
 10
664.0
 20
46.0
 30
0.0
 40
12.0
 41
37.2
 71
     7
 72
     1
  1
\T1.111;\W0.900;ＦＤ＝
  7
KANJI5
 73
     1
 44
1.0
  0
LINE
  5
D0
330
1F
100
AcDbEntity
  8
0
  6
Continuous
 62
     2
100
AcDbLine
 10
740.0
 20
40.0
 30
0.0
 11
740.0
 21
64.0
 31
0.0
  0
MTEXT
  5
D1
330
1F
100
AcDbEntity
  8
0
  6
Continuous
 62
     2
100
AcDbMText
 10
744.0
 20
46.0
 30
0.0
 40
12.0
 41
37.2
 71
     7
 72
     1
  1
\T1.111;\W0.900;ＮＯ＝
  7
KANJI5
 73
     1
 44
1.0
  0
LINE
  5
D2
330
1F
100
AcDbEntity
  8
0
  6
Continuous
 62
     2
100
AcDbLine
 10
408.0
 20
40.0
 30
0.0
 11
408.0
 21
64.0
 31
0.0
  0
MTEXT
  5
D3
330
1F
100
AcDbEntity
  8
0
  6
Continuous
 62
     2
100
AcDbMText
 10
468.0
 20
74.0
 30
0.0
 40
12.0
 41
549.6
 71
     7
 72
     1
  1
\T1.111;\W0.900;特記　　寸法指示無い公差は±０．５以内とする．
  7
KANJI3
 73
     1
 44
1.0
  0
MTEXT
  5
D4
330
1F
100
AcDbEntity
  8
0
  6
Continuous
 62
     2
100
AcDbMText
 10
596.0
 20
44.8
 30
0.0
 40
12.0
 41
117.6
 71
     7
 72
     1
  1
\T1.111;\W0.900;大橋　一之
  7
KANJI3
 73
     1
 44
1.0
  0
LWPOLYLINE
  5
D6
330
1F
100
AcDbEntity
  8
0
  6
Continuous
 62
     2
100
AcDbPolyline
 90
     3
 70
   128
 43
0.0
 10
40.0
 20
40.0
 10
40.0
 20
800.0
 10
1148.0
 20
800.0
  0
MTEXT
  5
D7
330
1F
100
AcDbEntity
  8
0
  6
Continuous
 62
     2
100
AcDbMText
 10
952.0
 20
188.8
 30
0.0
 40
12.0
 41
159.6
 71
     7
 72
     1
  1
\T1.111;\W0.672;ＡＣＵ１６　全体図
  7
KANJI3
 73
     1
 44
1.0
  0
MTEXT
  5
D8
330
1F
100
AcDbEntity
  8
0
  6
Continuous
 62
     2
100
AcDbMText
 10
856.0
 20
44.8
 30
0.0
 40
12.0
 41
129.6
 71
     7
 72
     1
  1
\T1.111;\W0.900;２０１５／０２／１７
  7
KANJI5
 73
     1
 44
1.0
  0
MTEXT
  5
D9
330
1F
100
AcDbEntity
  8
0
  6
Continuous
 62
     2
100
AcDbMText
 10
772.0
 20
44.8
 30
0.0
 40
12.0
 41
116.4
 71
     7
 72
     1
  1
\T1.111;\W0.900;ＡＣＵ１６－１１１
  7
KANJI5
 73
     1
 44
1.0
  0
MTEXT
  5
DA
330
1F
100
AcDbEntity
  8
0
  6
Continuous
 62
     2
100
AcDbMText
 10
690.4
 20
44.8
 30
0.0
 40
12.0
 41
69.6
 71
     7
 72
     1
  1
\T1.111;\W0.900;ヒビノ
  7
KANJI3
 73
     1
 44
1.0
  0
MTEXT
  5
DB
330
1F
100
AcDbEntity
  8
0
  6
Continuous
 62
     2
100
AcDbMText
 10
952.0
 20
44.8
 30
0.0
 40
12.0
 41
284.4
 71
     7
 72
     1
  1
\T1.111;\W0.671;ＡＣＵ１６　ＡＣ１６用ブラケット
  7
KANJI3
 73
     1
 44
1.0
  0
MTEXT
  5
DC
330
1F
100
AcDbEntity
  8
0
  6
Continuous
 62
     2
100
AcDbMText
 10
872.0
 20
92.8
 30
0.0
 40
12.0
 41
45.6
 71
     7
 72
     1
  1
\T1.111;\W0.900;Ａ４
  7
KANJI3
 73
     1
 44
1.0
  0
MTEXT
  5
DD
330
1F
100
AcDbEntity
  8
0
  6
Continuous
 62
     2
100
AcDbMText
 10
872.0
 20
68.8
 30
0.0
 40
12.0
 41
69.6
 71
     7
 72
     1
  1
\T1.111;\W0.900;１／４
  7
KANJI3
 73
     1
 44
1.0
  0
MTEXT
  5
DE
330
1F
100
AcDbEntity
  8
6
  6
Continuous
 62
     2
100
AcDbMText
 10
952.21
 20
215.48
 30
0.0
 40
16.0
 41
356.8
 71
     7
 72
     1
  1
\T1.081;\W0.741;ブラケット重量　１．２１ｋｇ
  7
KANJI6
 73
     1
 44
1.0
  0
MTEXT
  5
E0
330
1F
100
AcDbEntity
  8
6
  6
Continuous
 62
     2
100
AcDbMText
 10
57.95
 20
95.03
 30
0.0
 40
16.0
 41
253.6
 71
     7
 72
     1
  1
\T1.081;\W0.925;六角穴付きボルト
  7
KANJI6
 73
     1
 44
1.0
  0
MTEXT
  5
E1
330
1F
100
AcDbEntity
  8
6
  6
Continuous
 62
     2
100
AcDbMText
 10
57.95
 20
75.03
 30
0.0
 40
16.0
 41
317.6
 71
     7
 72
     1
  1
\T1.081;\W0.925;スプリングワッシャー
  7
KANJI6
 73
     1
 44
1.0
  0
MTEXT
  5
E2
330
1F
100
AcDbEntity
  8
6
  6
Continuous
 62
     2
100
AcDbMText
 10
57.95
 20
55.03
 30
0.0
 40
16.0
 41
157.6
 71
     7
 72
     1
  1
\T1.081;\W0.925;ワッシャー
  7
KANJI6
 73
     1
 44
1.0
  0
MTEXT
  5
E3
330
1F
100
AcDbEntity
  8
6
  6
Continuous
 62
     2
100
AcDbMText
 10
227.95
 20
95.03
 30
0.0
 40
16.0
 41
83.6
 71
     7
 72
     1
  1
\T1.081;\W0.925;Ｍ８－３０
  7
KANJI7
 73
     1
 44
1.0
  0
MTEXT
  5
E5
330
1F
100
AcDbEntity
  8
6
  6
Continuous
 62
     2
100
AcDbMText
 10
227.95
 20
75.03
 30
0.0
 40
16.0
 41
32.0
 71
     7
 72
     1
  1
\T1.081;\W0.925;Ｍ８
  7
KANJI7
 73
     1
 44
1.0
  0
MTEXT
  5
E6
330
1F
100
AcDbEntity
  8
6
  6
Continuous
 62
     2
100
AcDbMText
 10
227.95
 20
55.03
 30
0.0
 40
16.0
 41
32.0
 71
     7
 72
     1
  1
\T1.081;\W0.925;Ｍ８
  7
KANJI7
 73
     1
 44
1.0
  0
MTEXT
  5
E7
330
1F
100
AcDbEntity
  8
6
  6
Continuous
 62
     2
100
AcDbMText
 10
277.95
 20
55.03
 30
0.0
 40
16.0
 41
46.8
 71
     7
 72
     1
  1
\T1.081;\W0.703;２個
  7
KANJI6
 73
     1
 44
1.0
  0
MTEXT
  5
E8
330
1F
100
AcDbEntity
  8
6
  6
Continuous
 62
     2
100
AcDbMText
 10
277.95
 20
75.03
 30
0.0
 40
16.0
 41
46.8
 71
     7
 72
     1
  1
\T1.081;\W0.703;２個
  7
KANJI6
 73
     1
 44
1.0
  0
MTEXT
  5
E9
330
1F
100
AcDbEntity
  8
6
  6
Continuous
 62
     2
100
AcDbMText
 10
277.95
 20
95.03
 30
0.0
 40
16.0
 41
46.8
 71
     7
 72
     1
  1
\T1.081;\W0.703;２個
  7
KANJI6
 73
     1
 44
1.0
  0
MTEXT
  5
EA
330
1F
100
AcDbEntity
  8
6
  6
Continuous
 62
     2
100
AcDbMText
 10
57.95
 20
115.03
 30
0.0
 40
16.0
 41
125.6
 71
     7
 72
     1
  1
\T1.081;\W0.925;添付ネジ
  7
KANJI6
 73
     1
 44
1.0
  0
LINE
  5
EB
330
1F
100
AcDbEntity
  8
5
  6
Continuous
 62
     1
100
AcDbLine
 10
765.690212102
 20
603.249787898
 30
0.0
 11
767.690212102
 21
603.249787898
 31
0.0
  0
LINE
  5
EC
330
1F
100
AcDbEntity
  8
5
  6
Continuous
 62
     1
100
AcDbLine
 10
767.690212102
 20
666.249787898
 30
0.0
 11
767.690212102
 21
668.249787898
 31
0.0
  0
LINE
  5
ED
330
1F
100
AcDbEntity
  8
5
  6
Continuous
 62
     1
100
AcDbLine
 10
767.690212102
 20
668.249787898
 30
0.0
 11
781.690212102
 21
668.249787898
 31
0.0
  0
ARC
  5
EE
330
1F
100
AcDbEntity
  8
5
  6
Continuous
 62
     1
100
AcDbCircle
 10
769.690212102
 20
636.249787898
 30
0.0
 40
2.0
100
AcDbArc
 50
90.0
 51
180.0
  0
LINE
  5
EF
330
1F
100
AcDbEntity
  8
5
  6
Continuous
 62
     1
100
AcDbLine
 10
767.690212102
 20
603.249787898
 30
0.0
 11
767.690212102
 21
636.249787898
 31
0.0
  0
LINE
  5
F0
330
1F
100
AcDbEntity
  8
5
  6
Continuous
 62
     1
100
AcDbLine
 10
765.690212102
 20
603.249787898
 30
0.0
 11
765.690212102
 21
636.249777108
 31
0.0
  0
ARC
  5
F1
330
1F
100
AcDbEntity
  8
5
  6
Continuous
 62
     1
100
AcDbCircle
 10
769.690212102
 20
636.249787898
 30
0.0
 40
4.0
100
AcDbArc
 50
90.0
 51
180.00015455
  0
ARC
  5
F2
330
1F
100
AcDbEntity
  8
4
  6
Continuous
 62
     1
100
AcDbCircle
 10
783.690212102
 20
469.749787898
 30
0.0
 40
2.0
100
AcDbArc
 50
270.0
 51
0.0
  0
LINE
  5
F3
330
1F
100
AcDbEntity
  8
4
  6
Continuous
 62
     1
100
AcDbLine
 10
783.690212102
 20
467.749787898
 30
0.0
 11
783.690212102
 21
465.749787898
 31
0.0
  0
ARC
  5
F4
330
1F
100
AcDbEntity
  8
4
  6
Continuous
 62
     1
100
AcDbCircle
 10
785.690212102
 20
467.749787898
 30
0.0
 40
2.0
100
AcDbArc
 50
90.0
 51
120.522487814
  0
ARC
  5
F5
330
1F
100
AcDbEntity
  8
4
  6
Continuous
 62
     1
100
AcDbCircle
 10
785.690212102
 20
467.749787898
 30
0.0
 40
2.0
100
AcDbArc
 50
149.477512186
 51
180.0
  0
ARC
  5
F6
330
1F
100
AcDbEntity
  8
4
  6
Continuous
 62
     1
100
AcDbCircle
 10
783.690212102
 20
469.749787898
 30
0.0
 40
4.0
100
AcDbArc
 50
269.99984545
 51
0.0
  0
LINE
  5
F7
330
1F
100
AcDbEntity
  8
4
  6
Continuous
 62
     1
100
AcDbLine
 10
785.690212102
 20
469.749787898
 30
0.0
 11
787.690212102
 21
469.749787898
 31
0.0
  0
LINE
  5
F8
330
1F
100
AcDbEntity
  8
4
  6
Continuous
 62
     1
100
AcDbLine
 10
772.690212102
 20
481.456894679
 30
0.0
 11
784.674459099
 21
469.472647682
 31
0.0
  0
LINE
  5
F9
330
1F
100
AcDbEntity
  8
4
  6
Continuous
 62
     1
100
AcDbLine
 10
771.983105321
 20
480.749787898
 30
0.0
 11
783.967352318
 21
468.765540901
 31
0.0
  0
LINE
  5
FB
330
1F
100
AcDbEntity
  8
4
  6
LTYPE1
 62
     2
100
AcDbLine
 10
771.690212102
 20
481.749787898
 30
0.0
 11
787.690212102
 21
465.749787898
 31
0.0
  0
LINE
  5
FC
330
1F
100
AcDbEntity
  8
4
  6
Continuous
 62
     1
100
AcDbLine
 10
787.690212102
 20
469.749787898
 30
0.0
 11
787.690212102
 21
666.249787898
 31
0.0
  0
LINE
  5
FD
330
1F
100
AcDbEntity
  8
4
  6
Continuous
 62
     1
100
AcDbLine
 10
777.690212102
 20
666.249787898
 30
0.0
 11
787.690212102
 21
666.249787898
 31
0.0
  0
LINE
  5
FE
330
1F
100
AcDbEntity
  8
4
  6
Continuous
 62
     1
100
AcDbLine
 10
772.690212102
 20
481.456894679
 30
0.0
 11
772.690212102
 21
661.249787898
 31
0.0
  0
ARC
  5
FF
330
1F
100
AcDbEntity
  8
4
  6
Continuous
 62
     1
100
AcDbCircle
 10
777.690212102
 20
661.249787898
 30
0.0
 40
5.0
100
AcDbArc
 50
90.0
 51
180.0
  0
ARC
  5
100
330
1F
100
AcDbEntity
  8
4
  6
Continuous
 62
     1
100
AcDbCircle
 10
365.690212102
 20
399.749787898
 30
0.0
 40
2.0
100
AcDbArc
 50
180.0
 51
270.0
  0
LINE
  5
101
330
1F
100
AcDbEntity
  8
4
  6
Continuous
 62
     1
100
AcDbLine
 10
365.690212102
 20
397.749787898
 30
0.0
 11
365.690212102
 21
395.749787898
 31
0.0
  0
ARC
  5
102
330
1F
100
AcDbEntity
  8
4
  6
Continuous
 62
     1
100
AcDbCircle
 10
363.690212102
 20
397.749787898
 30
0.0
 40
2.0
100
AcDbArc
 50
59.477512186
 51
90.0
  0
ARC
  5
103
330
1F
100
AcDbEntity
  8
4
  6
Continuous
 62
     1
100
AcDbCircle
 10
363.690212102
 20
397.749787898
 30
0.0
 40
2.0
100
AcDbArc
 50
0.0
 51
30.522487814
  0
ARC
  5
104
330
1F
100
AcDbEntity
  8
4
  6
Continuous
 62
     1
100
AcDbCircle
 10
365.690212102
 20
399.749787898
 30
0.0
 40
4.0
100
AcDbArc
 50
180.0
 51
270.00015455
  0
LINE
  5
105
330
1F
100
AcDbEntity
  8
4
  6
Continuous
 62
     1
100
AcDbLine
 10
363.690212102
 20
399.749787898
 30
0.0
 11
361.690212102
 21
399.749787898
 31
0.0
  0
LINE
  5
106
330
1F
100
AcDbEntity
  8
4
  6
Continuous
 62
     1
100
AcDbLine
 10
376.690212102
 20
411.456894679
 30
0.0
 11
364.705965105
 21
399.472647682
 31
0.0
  0
LINE
  5
107
330
1F
100
AcDbEntity
  8
4
  6
Continuous
 62
     1
100
AcDbLine
 10
377.397318883
 20
410.749787898
 30
0.0
 11
365.413071886
 21
398.765540901
 31
0.0
  0
LINE
  5
108
330
1F
100
AcDbEntity
  8
4
  6
LTYPE1
 62
     2
100
AcDbLine
 10
377.690212102
 20
411.749787898
 30
0.0
 11
361.690212102
 21
395.749787898
 31
0.0
  0
LINE
  5
10A
330
1F
100
AcDbEntity
  8
4
  6
LTYPE2
 62
     2
100
AcDbLine
 10
363.690212102
 20
399.749787898
 30
0.0
 11
363.690212102
 21
596.249787898
 31
0.0
  0
LINE
  5
10B
330
1F
100
AcDbEntity
  8
4
  6
Continuous
 62
     1
100
AcDbLine
 10
361.690212102
 20
399.749787898
 30
0.0
 11
361.690212102
 21
596.249787898
 31
0.0
  0
LINE
  5
10C
330
1F
100
AcDbEntity
  8
4
  6
Continuous
 62
     1
100
AcDbLine
 10
371.690212102
 20
596.249787898
 30
0.0
 11
361.690212102
 21
596.249787898
 31
0.0
  0
LINE
  5
10D
330
1F
100
AcDbEntity
  8
4
  6
Continuous
 62
     1
100
AcDbLine
 10
376.690212102
 20
411.456894679
 30
0.0
 11
376.690212102
 21
591.249787898
 31
0.0
  0
ARC
  5
10E
330
1F
100
AcDbEntity
  8
4
  6
Continuous
 62
     1
100
AcDbCircle
 10
371.690212102
 20
591.249787898
 30
0.0
 40
5.0
100
AcDbArc
 50
0.0
 51
90.0
  0
LINE
  5
10F
330
1F
100
AcDbEntity
  8
5
  6
Continuous
 62
     1
100
AcDbLine
 10
383.690212102
 20
633.249787898
 30
0.0
 11
381.690212102
 21
633.249787898
 31
0.0
  0
LINE
  5
110
330
1F
100
AcDbEntity
  8
5
  6
Continuous
 62
     1
100
AcDbLine
 10
381.690212102
 20
570.249787898
 30
0.0
 11
381.690212102
 21
568.249787898
 31
0.0
  0
LINE
  5
111
330
1F
100
AcDbEntity
  8
5
  6
Continuous
 62
     1
100
AcDbLine
 10
379.690212102
 20
598.249787898
 30
0.0
 11
367.690212102
 21
598.249787898
 31
0.0
  0
LINE
  5
112
330
1F
100
AcDbEntity
  8
5
  6
Continuous
 62
     1
100
AcDbLine
 10
379.690212102
 20
596.249787898
 30
0.0
 11
367.690212102
 21
596.249787898
 31
0.0
  0
ARC
  5
113
330
1F
100
AcDbEntity
  8
5
  6
Continuous
 62
     1
100
AcDbCircle
 10
379.690212102
 20
600.249787898
 30
0.0
 40
2.0
100
AcDbArc
 50
270.0
 51
0.0
  0
LINE
  5
114
330
1F
100
AcDbEntity
  8
5
  6
Continuous
 62
     1
100
AcDbLine
 10
381.690212102
 20
633.249787898
 30
0.0
 11
381.690212102
 21
600.249787898
 31
0.0
  0
LINE
  5
115
330
1F
100
AcDbEntity
  8
5
  6
Continuous
 62
     1
100
AcDbLine
 10
383.690212102
 20
633.249787898
 30
0.0
 11
383.690212102
 21
600.249798688
 31
0.0
  0
ARC
  5
116
330
1F
100
AcDbEntity
  8
5
  6
Continuous
 62
     1
100
AcDbCircle
 10
379.690212102
 20
600.249787898
 30
0.0
 40
4.0
100
AcDbArc
 50
270.0
 51
0.00015455
  0
LINE
  5
117
330
1F
100
AcDbEntity
  8
4
  6
LTYPE2
 62
     2
100
AcDbLine
 10
574.690212102
 20
467.749787898
 30
0.0
 11
783.690212102
 21
467.749787898
 31
0.0
  0
LINE
  5
118
330
1F
100
AcDbEntity
  8
4
  6
Continuous
 62
     1
100
AcDbLine
 10
574.690212102
 20
465.749787898
 30
0.0
 11
783.690201312
 21
465.749787898
 31
0.0
  0
LINE
  5
119
330
1F
100
AcDbEntity
  8
4
  6
Continuous
 62
     1
100
AcDbLine
 10
574.690212102
 20
480.749787898
 30
0.0
 11
771.983105321
 21
480.749787898
 31
0.0
  0
LINE
  5
11A
330
1F
100
AcDbEntity
  8
4
  6
LTYPE2
 62
     2
100
AcDbLine
 10
574.690212102
 20
397.749787898
 30
0.0
 11
365.690212102
 21
397.749787898
 31
0.0
  0
LINE
  5
11B
330
1F
100
AcDbEntity
  8
4
  6
Continuous
 62
     1
100
AcDbLine
 10
574.690212102
 20
395.749787898
 30
0.0
 11
365.690222891
 21
395.749787898
 31
0.0
  0
LINE
  5
11C
330
1F
100
AcDbEntity
  8
4
  6
Continuous
 62
     1
100
AcDbLine
 10
574.690212102
 20
410.749787898
 30
0.0
 11
377.397318883
 21
410.749787898
 31
0.0
  0
LINE
  5
11D
330
1F
100
AcDbEntity
  8
2
  6
LTYPE1
 62
     2
100
AcDbLine
 10
765.690212102
 20
731.749787898
 30
0.0
 11
383.690212102
 21
731.749787898
 31
0.0
  0
LINE
  5
11E
330
1F
100
AcDbEntity
  8
2
  6
LTYPE1
 62
     2
100
AcDbLine
 10
765.690212102
 20
707.998112949
 30
0.0
 11
383.690212102
 21
707.998112949
 31
0.0
  0
LINE
  5
11F
330
1F
100
AcDbEntity
  8
2
  6
LTYPE1
 62
     2
100
AcDbLine
 10
765.690212102
 20
505.249787898
 30
0.0
 11
383.690212102
 21
505.249787898
 31
0.0
  0
LINE
  5
120
330
1F
100
AcDbEntity
  8
2
  6
LTYPE1
 62
     2
100
AcDbLine
 10
765.690212102
 20
731.749787898
 30
0.0
 11
765.690212102
 21
505.249787898
 31
0.0
  0
LINE
  5
121
330
1F
100
AcDbEntity
  8
2
  6
LTYPE1
 62
     2
100
AcDbLine
 10
383.690212102
 20
731.749787898
 30
0.0
 11
383.690212102
 21
505.249787898
 31
0.0
  0
LINE
  5
122
330
1F
100
AcDbEntity
  8
2
  6
LTYPE1
 62
     2
100
AcDbLine
 10
506.791725516
 20
471.534587607
 30
0.0
 11
506.791725516
 21
504.0442985
 31
0.0
  0
LINE
  5
123
330
1F
100
AcDbEntity
  8
2
  6
LTYPE1
 62
     2
100
AcDbLine
 10
527.54161431
 20
442.836659393
 30
0.0
 11
513.690737141
 21
442.836659393
 31
0.0
  0
LINE
  5
124
330
1F
100
AcDbEntity
  8
2
  6
LTYPE1
 62
     2
100
AcDbLine
 10
530.393975839
 20
470.342399195
 30
0.0
 11
496.987148417
 21
470.342399195
 31
0.0
  0
LINE
  5
125
330
1F
100
AcDbEntity
  8
2
  6
LTYPE1
 62
     2
100
AcDbLine
 10
525.749481407
 20
453.338138174
 30
0.0
 11
513.690737141
 21
453.338138174
 31
0.0
  0
LWPOLYLINE
  5
127
330
1F
100
AcDbEntity
  8
2
  6
LTYPE1
 62
     2
100
AcDbPolyline
 90
     3
 70
   128
 43
0.0
 10
507.793149781
 20
443.313394747
 10
501.630242745
 20
453.338138174
 10
513.690737141
 20
453.338138174
  0
LINE
  5
128
330
1F
100
AcDbEntity
  8
2
  6
LTYPE1
 62
     2
100
AcDbLine
 10
531.793379618
 20
455.840123719
 30
0.0
 11
528.509436083
 21
443.578014371
 31
0.0
  0
LWPOLYLINE
  5
12A
330
1F
100
AcDbEntity
  8
2
  6
LTYPE1
 62
     2
100
AcDbPolyline
 90
    36
 70
   128
 43
0.0
 10
498.87273825
 20
443.578014371
 10
498.883356246
 20
443.540899635
 10
498.895327305
 20
443.504457047
 10
498.908619246
 20
443.468710706
 10
498.923199887
 20
443.433684713
 10
498.939037045
 20
443.399403166
 10
498.956098538
 20
443.365890167
 10
498.974352186
 20
443.333169814
 10
498.993765805
 20
443.301266207
 10
499.014307214
 20
443.270203446
 10
499.035944231
 20
443.240005631
 10
499.058644674
 20
443.210696862
 10
499.08237636
 20
443.182301237
 10
499.107107109
 20
443.154842858
 10
499.132804737
 20
443.128345824
 10
499.159437063
 20
443.102834234
 10
499.186971905
 20
443.078332188
 10
499.215377081
 20
443.054863787
 10
499.244620409
 20
443.032453129
 10
499.274669706
 20
443.011124315
 10
499.305492792
 20
442.990901443
 10
499.337057484
 20
442.971808615
 10
499.3693316
 20
442.95386993
 10
499.402282958
 20
442.937109487
 10
499.435879376
 20
442.921551386
 10
499.470088672
 20
442.907219727
 10
499.504878664
 20
442.89413861
 10
499.540217171
 20
442.882332135
 10
499.576072009
 20
442.871824401
 10
499.612410998
 20
442.862639507
 10
499.649201955
 20
442.854801554
 10
499.686412698
 20
442.848334642
 10
499.724011045
 20
442.84326287
 10
499.761964815
 20
442.839610338
 10
499.800241825
 20
442.837401146
 10
499.838809894
 20
442.836659393
  0
LINE
  5
12B
330
1F
100
AcDbEntity
  8
2
  6
LTYPE1
 62
     2
100
AcDbLine
 10
499.827609063
 20
442.836659393
 30
0.0
 11
513.690737141
 21
442.836659393
 31
0.0
  0
LINE
  5
12C
330
1F
100
AcDbEntity
  8
2
  6
LTYPE1
 62
     2
100
AcDbLine
 10
495.58669456
 20
455.840123719
 30
0.0
 11
498.87273825
 21
443.575214163
 31
0.0
  0
LINE
  5
12D
330
1F
100
AcDbEntity
  8
2
  6
LTYPE1
 62
     2
100
AcDbLine
 10
520.589048714
 20
471.534587607
 30
0.0
 11
520.589048714
 21
504.0442985
 31
0.0
  0
LWPOLYLINE
  5
12F
330
1F
100
AcDbEntity
  8
2
  6
LTYPE1
 62
     2
100
AcDbPolyline
 90
   172
 70
   128
 43
0.0
 10
530.393975839
 20
470.342399195
 10
530.393975839
 20
470.336391958
 10
530.393975839
 20
470.318836828
 10
530.393975839
 20
470.290433676
 10
530.393975839
 20
470.251882377
 10
530.393975839
 20
470.203882801
 10
530.393975839
 20
470.147134821
 10
530.393975839
 20
470.082338309
 10
530.393975839
 20
470.010193139
 10
530.393975839
 20
469.931399181
 10
530.393975839
 20
469.846656309
 10
530.393975839
 20
469.756664394
 10
530.393975839
 20
469.66212331
 10
530.393975839
 20
469.563732928
 10
530.393975839
 20
469.46219312
 10
530.393975839
 20
469.358203759
 10
530.393975839
 20
469.252464718
 10
530.393975839
 20
469.145675868
 10
530.393975839
 20
469.038537082
 10
530.393975839
 20
468.931748232
 10
530.393975839
 20
468.82600919
 10
530.393975839
 20
468.722019829
 10
530.393975839
 20
468.620480022
 10
530.393975839
 20
468.522089639
 10
530.393975839
 20
468.427548555
 10
530.393975839
 20
468.33755664
 10
530.393975839
 20
468.252813768
 10
530.393975839
 20
468.174019811
 10
530.393975839
 20
468.10187464
 10
530.393975839
 20
468.037078129
 10
530.393975839
 20
467.980330149
 10
530.393975839
 20
467.932330573
 10
530.393975839
 20
467.893779273
 10
530.393975839
 20
467.865376122
 10
530.393975839
 20
467.847820991
 10
530.393975839
 20
467.841813754
 10
530.313721536
 20
467.841813754
 10
530.079191972
 20
467.841813754
 10
529.699737163
 20
467.841813754
 10
529.184707124
 20
467.841813754
 10
528.543451871
 20
467.841813754
 10
527.78532142
 20
467.841813754
 10
526.919665787
 20
467.841813754
 10
525.955834988
 20
467.841813754
 10
524.903179038
 20
467.841813754
 10
523.771047954
 20
467.841813754
 10
522.56879175
 20
467.841813754
 10
521.305760444
 20
467.841813754
 10
519.991304051
 20
467.841813754
 10
518.634772586
 20
467.841813754
 10
517.245516066
 20
467.841813754
 10
515.832884507
 20
467.841813754
 10
514.406227923
 20
467.841813754
 10
512.974896332
 20
467.841813754
 10
511.548239749
 20
467.841813754
 10
510.135608189
 20
467.841813754
 10
508.746351669
 20
467.841813754
 10
507.389820205
 20
467.841813754
 10
506.075363812
 20
467.841813754
 10
504.812332505
 20
467.841813754
 10
503.610076302
 20
467.841813754
 10
502.477945218
 20
467.841813754
 10
501.425289268
 20
467.841813754
 10
500.461458469
 20
467.841813754
 10
499.595802836
 20
467.841813754
 10
498.837672385
 20
467.841813754
 10
498.196417132
 20
467.841813754
 10
497.681387093
 20
467.841813754
 10
497.301932283
 20
467.841813754
 10
497.067402719
 20
467.841813754
 10
496.987148417
 20
467.841813754
 10
496.987148417
 20
467.847820991
 10
496.987148417
 20
467.865376122
 10
496.987148417
 20
467.893779273
 10
496.987148417
 20
467.932330573
 10
496.987148417
 20
467.980330149
 10
496.987148417
 20
468.037078129
 10
496.987148417
 20
468.10187464
 10
496.987148417
 20
468.174019811
 10
496.987148417
 20
468.252813768
 10
496.987148417
 20
468.33755664
 10
496.987148417
 20
468.427548555
 10
496.987148417
 20
468.522089639
 10
496.987148417
 20
468.620480022
 10
496.987148417
 20
468.722019829
 10
496.987148417
 20
468.82600919
 10
496.987148417
 20
468.931748232
 10
496.987148417
 20
469.038537082
 10
496.987148417
 20
469.145675868
 10
496.987148417
 20
469.252464718
 10
496.987148417
 20
469.358203759
 10
496.987148417
 20
469.46219312
 10
496.987148417
 20
469.563732928
 10
496.987148417
 20
469.66212331
 10
496.987148417
 20
469.756664394
 10
496.987148417
 20
469.846656309
 10
496.987148417
 20
469.931399181
 10
496.987148417
 20
470.010193139
 10
496.987148417
 20
470.082338309
 10
496.987148417
 20
470.147134821
 10
496.987148417
 20
470.203882801
 10
496.987148417
 20
470.251882377
 10
496.987148417
 20
470.290433676
 10
496.987148417
 20
470.318836828
 10
496.987148417
 20
470.336391958
 10
496.987148417
 20
470.342399195
 10
496.940039217
 20
470.343488403
 10
496.893490679
 20
470.346723957
 10
496.847550856
 20
470.352057757
 10
496.8022678
 20
470.3594417
 10
496.757689563
 20
470.368827686
 10
496.713864199
 20
470.380167613
 10
496.670839759
 20
470.393413379
 10
496.628664297
 20
470.408516882
 10
496.587385864
 20
470.425430022
 10
496.547052514
 20
470.444104697
 10
496.507712299
 20
470.464492805
 10
496.469413271
 20
470.486546244
 10
496.432203483
 20
470.510216914
 10
496.396130987
 20
470.535456712
 10
496.361243837
 20
470.562217538
 10
496.327590084
 20
470.590451289
 10
496.295217781
 20
470.620109864
 10
496.264174981
 20
470.651145161
 10
496.234509736
 20
470.68350908
 10
496.206270099
 20
470.717153517
 10
496.179504122
 20
470.752030373
 10
496.154259859
 20
470.788091545
 10
496.13058536
 20
470.825288933
 10
496.108528679
 20
470.863574433
 10
496.088137869
 20
470.902899945
 10
496.069460982
 20
470.943217368
 10
496.052546071
 20
470.984478599
 10
496.037441187
 20
471.026635538
 10
496.024194384
 20
471.069640082
 10
496.012853715
 20
471.113444131
 10
496.003467231
 20
471.157999582
 10
495.996082985
 20
471.203258334
 10
495.990749031
 20
471.249172286
 10
495.987513419
 20
471.295693336
 10
495.986424204
 20
471.342773382
 10
495.986424204
 20
471.423028526
 10
495.986424204
 20
471.657560547
 10
495.986424204
 20
472.037019332
 10
495.986424204
 20
472.552054768
 10
495.986424204
 20
473.193316739
 10
495.986424204
 20
473.951455134
 10
495.986424204
 20
474.817119837
 10
495.986424204
 20
475.780960735
 10
495.986424204
 20
476.833627714
 10
495.986424204
 20
477.965770661
 10
495.986424204
 20
479.168039461
 10
495.986424204
 20
480.431084001
 10
495.986424204
 20
481.745554166
 10
495.986424204
 20
483.102099844
 10
495.986424204
 20
484.49137092
 10
495.986424204
 20
485.904017281
 10
495.986424204
 20
487.330688812
 10
495.986424204
 20
488.762035401
 10
495.986424204
 20
490.188706932
 10
495.986424204
 20
491.601353293
 10
495.986424204
 20
492.990624369
 10
495.986424204
 20
494.347170047
 10
495.986424204
 20
495.661640212
 10
495.986424204
 20
496.924684752
 10
495.986424204
 20
498.126953552
 10
495.986424204
 20
499.259096499
 10
495.986424204
 20
500.311763478
 10
495.986424204
 20
501.275604376
 10
495.986424204
 20
502.141269079
 10
495.986424204
 20
502.899407473
 10
495.986424204
 20
503.540669445
  0
LWPOLYLINE
  5
131
330
1F
100
AcDbEntity
  8
2
  6
LTYPE1
 62
     2
100
AcDbPolyline
 90
    85
 70
   128
 43
0.0
 10
531.297572049
 20
505.045047915
 10
531.3101822
 20
505.027028652
 10
531.322007592
 20
505.008442359
 10
531.333024319
 20
504.989313137
 10
531.343208478
 20
504.969665084
 10
531.352536166
 20
504.9495223
 10
531.360983478
 20
504.928908886
 10
531.368526511
 20
504.90784894
 10
531.375141361
 20
504.886366563
 10
531.380804123
 20
504.864485855
 10
531.385490896
 20
504.842230915
 10
531.389177773
 20
504.819625843
 10
531.391840852
 20
504.796694738
 10
531.393456229
 20
504.773461701
 10
531.394
 20
504.749950831
 10
531.394
 20
504.669695687
 10
531.394
 20
504.435163666
 10
531.394
 20
504.055704881
 10
531.394
 20
503.540669445
 10
531.394
 20
502.899407473
 10
531.394
 20
502.141269079
 10
531.394
 20
501.275604376
 10
531.394
 20
500.311763478
 10
531.394
 20
499.259096499
 10
531.394
 20
498.126953552
 10
531.394
 20
496.924684752
 10
531.394
 20
495.661640212
 10
531.394
 20
494.347170047
 10
531.394
 20
492.990624369
 10
531.394
 20
491.601353293
 10
531.394
 20
490.188706932
 10
531.394
 20
488.762035401
 10
531.394
 20
487.330688812
 10
531.394
 20
485.904017281
 10
531.394
 20
484.49137092
 10
531.394
 20
483.102099844
 10
531.394
 20
481.745554166
 10
531.394
 20
480.431084001
 10
531.394
 20
479.168039461
 10
531.394
 20
477.965770661
 10
531.394
 20
476.833627714
 10
531.394
 20
475.780960735
 10
531.394
 20
474.817119837
 10
531.394
 20
473.951455134
 10
531.394
 20
473.193316739
 10
531.394
 20
472.552054768
 10
531.394
 20
472.037019332
 10
531.394
 20
471.657560547
 10
531.394
 20
471.423028526
 10
531.394
 20
471.342773382
 10
531.392910801
 20
471.295693336
 10
531.389675304
 20
471.249172286
 10
531.384341659
 20
471.203258334
 10
531.376958018
 20
471.157999582
 10
531.36757253
 20
471.113444131
 10
531.356233346
 20
471.069640082
 10
531.342988617
 20
471.026635538
 10
531.327886493
 20
470.984478599
 10
531.310975125
 20
470.943217368
 10
531.292302662
 20
470.902899945
 10
531.271917257
 20
470.863574433
 10
531.249867058
 20
470.825288933
 10
531.226200217
 20
470.788091545
 10
531.200964885
 20
470.752030373
 10
531.174209211
 20
470.717153517
 10
531.145981346
 20
470.68350908
 10
531.116329441
 20
470.651145161
 10
531.085301646
 20
470.620109864
 10
531.052946112
 20
470.590451289
 10
531.019310989
 20
470.562217538
 10
530.984444428
 20
470.535456712
 10
530.948394579
 20
470.510216914
 10
530.911209593
 20
470.486546244
 10
530.87293762
 20
470.464492805
 10
530.833626811
 20
470.444104697
 10
530.793325316
 20
470.425430022
 10
530.752081286
 20
470.408516882
 10
530.709942871
 20
470.393413379
 10
530.666958222
 20
470.380167613
 10
530.623175489
 20
470.368827686
 10
530.578642824
 20
470.3594417
 10
530.533408375
 20
470.352057757
 10
530.487520295
 20
470.346723957
 10
530.441026732
 20
470.343488403
 10
530.393975839
 20
470.342399195
  0
LINE
  5
132
330
1F
100
AcDbEntity
  8
2
  6
LTYPE1
 62
     2
100
AcDbLine
 10
531.793379618
 20
466.842139619
 30
0.0
 11
531.793379618
 21
455.840123719
 31
0.0
  0
LWPOLYLINE
  5
134
330
1F
100
AcDbEntity
  8
2
  6
LTYPE1
 62
     2
100
AcDbPolyline
 90
   145
 70
   128
 43
0.0
 10
531.791033525
 20
466.232698505
 10
531.791846508
 20
466.443885889
 10
531.792499463
 20
466.613502974
 10
531.792980535
 20
466.738470478
 10
531.793277871
 20
466.81570912
 10
531.793379618
 20
466.842139619
 10
531.792292084
 20
466.889217984
 10
531.789061387
 20
466.935734119
 10
531.783735384
 20
466.981640119
 10
531.776361931
 20
467.026888079
 10
531.766988885
 20
467.071430092
 10
531.755664102
 20
467.115218254
 10
531.74243544
 20
467.158204658
 10
531.727350754
 20
467.200341399
 10
531.710457901
 20
467.241580572
 10
531.691804738
 20
467.28187427
 10
531.671439122
 20
467.321174589
 10
531.649408908
 20
467.359433622
 10
531.625761955
 20
467.396603464
 10
531.600546117
 20
467.43263621
 10
531.573809253
 20
467.467483953
 10
531.545599218
 20
467.501098789
 10
531.515963869
 20
467.533432811
 10
531.484951063
 20
467.564438115
 10
531.452608657
 20
467.594066794
 10
531.418984506
 20
467.622270942
 10
531.384126468
 20
467.649002655
 10
531.348082399
 20
467.674214027
 10
531.310900156
 20
467.697857152
 10
531.272627595
 20
467.719884124
 10
531.233312573
 20
467.740247038
 10
531.193002947
 20
467.758897989
 10
531.151746573
 20
467.77578907
 10
531.109591308
 20
467.790872376
 10
531.066585009
 20
467.804100002
 10
531.022775532
 20
467.815424042
 10
530.978210733
 20
467.82479659
 10
530.932938469
 20
467.832169741
 10
530.887006598
 20
467.837495589
 10
530.840462975
 20
467.840726228
 10
530.793355457
 20
467.841813754
 10
530.711181428
 20
467.841813754
 10
530.471041791
 20
467.841813754
 10
530.082510219
 20
467.841813754
 10
529.555160384
 20
467.841813754
 10
528.898565961
 20
467.841813754
 10
528.122300622
 20
467.841813754
 10
527.235938042
 20
467.841813754
 10
526.249051892
 20
467.841813754
 10
525.171215846
 20
467.841813754
 10
524.012003578
 20
467.841813754
 10
522.78098876
 20
467.841813754
 10
521.487745067
 20
467.841813754
 10
520.14184617
 20
467.841813754
 10
518.752865744
 20
467.841813754
 10
517.330377462
 20
467.841813754
 10
515.883954996
 20
467.841813754
 10
514.423172021
 20
467.841813754
 10
512.957602209
 20
467.841813754
 10
511.496819234
 20
467.841813754
 10
510.050396768
 20
467.841813754
 10
508.627908486
 20
467.841813754
 10
507.23892806
 20
467.841813754
 10
505.893029163
 20
467.841813754
 10
504.59978547
 20
467.841813754
 10
503.368770652
 20
467.841813754
 10
502.209558384
 20
467.841813754
 10
501.131722338
 20
467.841813754
 10
500.144836188
 20
467.841813754
 10
499.258473607
 20
467.841813754
 10
498.482208269
 20
467.841813754
 10
497.825613846
 20
467.841813754
 10
497.298264011
 20
467.841813754
 10
496.909732439
 20
467.841813754
 10
496.669592802
 20
467.841813754
 10
496.587418773
 20
467.841813754
 10
496.540366198
 20
467.840726228
 10
496.493867721
 20
467.837495589
 10
496.447971689
 20
467.832169741
 10
496.402726448
 20
467.82479659
 10
496.358180344
 20
467.815424042
 10
496.314381725
 20
467.804100002
 10
496.271378936
 20
467.790872376
 10
496.229220324
 20
467.77578907
 10
496.187954235
 20
467.758897989
 10
496.147629016
 20
467.740247038
 10
496.108293013
 20
467.719884124
 10
496.069994573
 20
467.697857152
 10
496.032782042
 20
467.674214027
 10
495.996703766
 20
467.649002655
 10
495.961808093
 20
467.622270942
 10
495.928143367
 20
467.594066794
 10
495.895757937
 20
467.564438115
 10
495.864700148
 20
467.533432811
 10
495.835018347
 20
467.501098789
 10
495.80676088
 20
467.467483953
 10
495.779976094
 20
467.43263621
 10
495.754712335
 20
467.396603464
 10
495.731017949
 20
467.359433622
 10
495.708941283
 20
467.321174589
 10
495.688530684
 20
467.28187427
 10
495.669834497
 20
467.241580572
 10
495.65290107
 20
467.200341399
 10
495.637778749
 20
467.158204658
 10
495.624515879
 20
467.115218254
 10
495.613160809
 20
467.071430092
 10
495.603761883
 20
467.026888079
 10
495.596367449
 20
466.981640119
 10
495.591025853
 20
466.935734119
 10
495.587785441
 20
466.889217984
 10
495.58669456
 20
466.842139619
 10
495.58669456
 20
466.81570912
 10
495.58669456
 20
466.738470478
 10
495.58669456
 20
466.613502974
 10
495.58669456
 20
466.443885889
 10
495.58669456
 20
466.232698505
 10
495.58669456
 20
465.983020103
 10
495.58669456
 20
465.697929965
 10
495.58669456
 20
465.380507373
 10
495.58669456
 20
465.033831606
 10
495.58669456
 20
464.660981948
 10
495.58669456
 20
464.265037679
 10
495.58669456
 20
463.849078081
 10
495.58669456
 20
463.416182435
 10
495.58669456
 20
462.969430022
 10
495.58669456
 20
462.511900125
 10
495.58669456
 20
462.046672024
 10
495.58669456
 20
461.576825001
 10
495.58669456
 20
461.105438337
 10
495.58669456
 20
460.635591314
 10
495.58669456
 20
460.170363213
 10
495.58669456
 20
459.712833316
 10
495.58669456
 20
459.266080903
 10
495.58669456
 20
458.833185257
 10
495.58669456
 20
458.417225659
 10
495.58669456
 20
458.02128139
 10
495.58669456
 20
457.648431732
 10
495.58669456
 20
457.301755965
 10
495.58669456
 20
456.984333372
 10
495.58669456
 20
456.699243234
 10
495.58669456
 20
456.449564833
 10
495.58669456
 20
456.238377449
 10
495.58669456
 20
456.068760364
 10
495.58669456
 20
455.94379286
 10
495.58669456
 20
455.866554218
  0
LINE
  5
135
330
1F
100
AcDbEntity
  8
2
  6
LTYPE1
 62
     2
100
AcDbLine
 10
519.587624449
 20
443.313394747
 30
0.0
 11
525.749481407
 21
453.338138174
 31
0.0
  0
LWPOLYLINE
  5
137
330
1F
100
AcDbEntity
  8
2
  6
LTYPE1
 62
     2
100
AcDbPolyline
 90
    36
 70
   128
 43
0.0
 10
527.54161431
 20
442.836659393
 10
527.580323981
 20
442.837401146
 10
527.618726429
 20
442.839610338
 10
527.656790452
 20
442.84326287
 10
527.694484847
 20
442.848334642
 10
527.731778413
 20
442.854801554
 10
527.768639946
 20
442.862639507
 10
527.805038246
 20
442.871824401
 10
527.840942108
 20
442.882332135
 10
527.876320332
 20
442.89413861
 10
527.911141714
 20
442.907219727
 10
527.945375053
 20
442.921551386
 10
527.978989146
 20
442.937109487
 10
528.01195279
 20
442.95386993
 10
528.044234784
 20
442.971808615
 10
528.075803925
 20
442.990901443
 10
528.106629011
 20
443.011124315
 10
528.13667884
 20
443.032453129
 10
528.165922208
 20
443.054863787
 10
528.194327915
 20
443.078332188
 10
528.221864757
 20
443.102834234
 10
528.248501532
 20
443.128345824
 10
528.274207039
 20
443.154842858
 10
528.298950074
 20
443.182301237
 10
528.322699435
 20
443.210696862
 10
528.34542392
 20
443.240005631
 10
528.367092327
 20
443.270203446
 10
528.387673453
 20
443.301266207
 10
528.407136097
 20
443.333169814
 10
528.425449055
 20
443.365890167
 10
528.442581125
 20
443.399403166
 10
528.458501106
 20
443.433684713
 10
528.473177794
 20
443.468710706
 10
528.486579988
 20
443.504457047
 10
528.498676485
 20
443.540899635
 10
528.509436083
 20
443.578014371
  0
LWPOLYLINE
  5
139
330
1F
100
AcDbEntity
  8
2
  6
LTYPE1
 62
     2
100
AcDbPolyline
 90
    19
 70
   128
 43
0.0
 10
496.082852155
 20
505.045047915
 10
496.070242003
 20
505.027028652
 10
496.058416612
 20
505.008442359
 10
496.047399885
 20
504.989313137
 10
496.037215726
 20
504.969665084
 10
496.027888038
 20
504.9495223
 10
496.019440726
 20
504.928908886
 10
496.011897693
 20
504.90784894
 10
496.005282843
 20
504.886366563
 10
495.99962008
 20
504.864485855
 10
495.994933308
 20
504.842230915
 10
495.991246431
 20
504.819625843
 10
495.988583352
 20
504.796694738
 10
495.986967975
 20
504.773461701
 10
495.986424204
 20
504.749950831
 10
495.986424204
 20
504.669695687
 10
495.986424204
 20
504.435163666
 10
495.986424204
 20
504.055704881
 10
495.986424204
 20
503.540669445
  0
LWPOLYLINE
  5
13B
330
1F
100
AcDbEntity
  8
2
  6
LTYPE1
 62
     2
100
AcDbPolyline
 90
    36
 70
   128
 43
0.0
 10
507.793149781
 20
443.313394747
 10
507.809092832
 20
443.288410511
 10
507.825708865
 20
443.263988014
 10
507.842981664
 20
443.240136955
 10
507.860895017
 20
443.216867033
 10
507.87943271
 20
443.194187948
 10
507.89857853
 20
443.172109396
 10
507.918316263
 20
443.150641077
 10
507.938629696
 20
443.12979269
 10
507.959502615
 20
443.109573934
 10
507.980918808
 20
443.089994506
 10
508.002862059
 20
443.071064107
 10
508.025316157
 20
443.052792433
 10
508.048264888
 20
443.035189185
 10
508.071692037
 20
443.01826406
 10
508.095581392
 20
443.002026758
 10
508.11991674
 20
442.986486977
 10
508.144681866
 20
442.971654416
 10
508.169860558
 20
442.957538773
 10
508.195436602
 20
442.944149748
 10
508.221393784
 20
442.931497038
 10
508.247715891
 20
442.919590343
 10
508.27438671
 20
442.908439361
 10
508.301390026
 20
442.898053791
 10
508.328709628
 20
442.888443331
 10
508.356329301
 20
442.879617681
 10
508.384232831
 20
442.871586538
 10
508.412404006
 20
442.864359602
 10
508.440826612
 20
442.857946571
 10
508.469484435
 20
442.852357145
 10
508.498361262
 20
442.84760102
 10
508.52744088
 20
442.843687898
 10
508.556707075
 20
442.840627475
 10
508.586143633
 20
442.838429451
 10
508.615734342
 20
442.837103524
 10
508.645462988
 20
442.836659393
  0
LWPOLYLINE
  5
13D
330
1F
100
AcDbEntity
  8
2
  6
LTYPE1
 62
     2
100
AcDbPolyline
 90
    36
 70
   128
 43
0.0
 10
518.735311242
 20
442.836659393
 10
518.765041553
 20
442.837103524
 10
518.794637062
 20
442.838429451
 10
518.824081262
 20
442.840627475
 10
518.853357645
 20
442.843687898
 10
518.882449705
 20
442.84760102
 10
518.911340933
 20
442.852357145
 10
518.940014823
 20
442.857946571
 10
518.968454867
 20
442.864359602
 10
518.996644557
 20
442.871586538
 10
519.024567387
 20
442.879617681
 10
519.052206849
 20
442.888443331
 10
519.079546436
 20
442.898053791
 10
519.10656964
 20
442.908439361
 10
519.133259954
 20
442.919590343
 10
519.15960087
 20
442.931497038
 10
519.185575882
 20
442.944149748
 10
519.211168482
 20
442.957538773
 10
519.236362163
 20
442.971654416
 10
519.261140417
 20
442.986486977
 10
519.285486737
 20
443.002026758
 10
519.309384615
 20
443.01826406
 10
519.332817545
 20
443.035189185
 10
519.355769018
 20
443.052792433
 10
519.378222528
 20
443.071064107
 10
519.400161567
 20
443.089994506
 10
519.421569628
 20
443.109573934
 10
519.442430204
 20
443.12979269
 10
519.462726787
 20
443.150641077
 10
519.482442869
 20
443.172109396
 10
519.501561944
 20
443.194187948
 10
519.520067504
 20
443.216867033
 10
519.537943042
 20
443.240136955
 10
519.555172051
 20
443.263988014
 10
519.571738022
 20
443.288410511
 10
519.587624449
 20
443.313394747
  0
ARC
  5
13E
330
1F
100
AcDbEntity
  8
2
  6
LTYPE1
 62
     2
100
AcDbCircle
 10
513.690215917
 20
420.249787898
 30
0.0
 40
5.0
100
AcDbArc
 50
180.0
 51
0.0
  0
LINE
  5
13F
330
1F
100
AcDbEntity
  8
2
  6
LTYPE1
 62
     2
100
AcDbLine
 10
518.690215917
 20
420.249787898
 30
0.0
 11
518.690215917
 21
442.836659393
 31
0.0
  0
LINE
  5
140
330
1F
100
AcDbEntity
  8
2
  6
LTYPE1
 62
     2
100
AcDbLine
 10
508.690215917
 20
420.249787898
 30
0.0
 11
508.690215917
 21
442.836659393
 31
0.0
  0
LINE
  5
142
330
1F
100
AcDbEntity
  8
3
  6
LTYPE3
 62
     2
100
AcDbLine
 10
574.690212102
 20
519.759787898
 30
0.0
 11
574.690212102
 21
377.929787898
 31
0.0
  0
ARC
  5
143
330
1F
100
AcDbEntity
  8
5
  6
Continuous
 62
     1
100
AcDbCircle
 10
367.690212102
 20
594.249787898
 30
0.0
 40
4.0
100
AcDbArc
 50
90.0
 51
150.0
  0
LINE
  5
144
330
1F
100
AcDbEntity
  8
5
  6
Continuous
 62
     1
100
AcDbLine
 10
381.690212102
 20
570.249787898
 30
0.0
 11
376.690212102
 21
570.249787898
 31
0.0
  0
LINE
  5
145
330
1F
100
AcDbEntity
  8
5
  6
Continuous
 62
     1
100
AcDbLine
 10
381.690212102
 20
568.249787898
 30
0.0
 11
376.690212102
 21
568.249787898
 31
0.0
  0
ARC
  5
146
330
1F
100
AcDbEntity
  8
5
  6
LTYPE2
 62
     2
100
AcDbCircle
 10
367.690212102
 20
572.249787898
 30
0.0
 40
4.0
100
AcDbArc
 50
180.0
 51
270.0
  0
LINE
  5
147
330
1F
100
AcDbEntity
  8
5
  6
LTYPE2
 62
     2
100
AcDbLine
 10
376.690212102
 20
570.249787898
 30
0.0
 11
367.690212102
 21
570.249787898
 31
0.0
  0
LINE
  5
148
330
1F
100
AcDbEntity
  8
5
  6
LTYPE2
 62
     2
100
AcDbLine
 10
376.690212102
 20
568.249787898
 30
0.0
 11
367.690212102
 21
568.249787898
 31
0.0
  0
LINE
  5
149
330
1F
100
AcDbEntity
  8
5
  6
LTYPE2
 62
     2
100
AcDbLine
 10
371.690212102
 20
577.28974474
 30
0.0
 11
365.690212102
 21
577.28974474
 31
0.0
  0
ARC
  5
14A
330
1F
100
AcDbEntity
  8
5
  6
LTYPE2
 62
     2
100
AcDbCircle
 10
367.690212102
 20
572.249787898
 30
0.0
 40
2.0
100
AcDbArc
 50
179.999690901
 51
270.0
  0
LINE
  5
14B
330
1F
100
AcDbEntity
  8
5
  6
LTYPE2
 62
     2
100
AcDbLine
 10
371.690212102
 20
589.28974474
 30
0.0
 11
365.690212102
 21
589.28974474
 31
0.0
  0
LINE
  5
14C
330
1F
100
AcDbEntity
  8
5
  6
LTYPE2
 62
     2
100
AcDbLine
 10
371.690212102
 20
577.28974474
 30
0.0
 11
371.690212102
 21
589.28974474
 31
0.0
  0
ARC
  5
14D
330
1F
100
AcDbEntity
  8
5
  6
LTYPE2
 62
     2
100
AcDbCircle
 10
367.690212102
 20
594.249787898
 30
0.0
 40
2.0
100
AcDbArc
 50
90.0
 51
179.999690901
  0
LINE
  5
14E
330
1F
100
AcDbEntity
  8
5
  6
LTYPE2
 62
     2
100
AcDbLine
 10
365.690212102
 20
594.249798688
 30
0.0
 11
365.690212102
 21
572.249798688
 31
0.0
  0
ARC
  5
14F
330
1F
100
AcDbEntity
  8
5
  6
LTYPE2
 62
     2
100
AcDbCircle
 10
367.690212102
 20
594.249787898
 30
0.0
 40
4.0
100
AcDbArc
 50
150.0
 51
179.999781434
  0
LINE
  5
150
330
1F
100
AcDbEntity
  8
5
  6
Continuous
 62
     1
100
AcDbLine
 10
769.690212102
 20
640.249787898
 30
0.0
 11
772.690212102
 21
640.249787898
 31
0.0
  0
LINE
  5
151
330
1F
100
AcDbEntity
  8
5
  6
Continuous
 62
     1
100
AcDbLine
 10
769.690212102
 20
638.249787898
 30
0.0
 11
772.690212102
 21
638.249787898
 31
0.0
  0
LINE
  5
152
330
1F
100
AcDbEntity
  8
5
  6
Continuous
 62
     1
100
AcDbLine
 10
767.690212102
 20
666.249787898
 30
0.0
 11
777.690212102
 21
666.249787898
 31
0.0
  0
ARC
  5
153
330
1F
100
AcDbEntity
  8
5
  6
Continuous
 62
     1
100
AcDbCircle
 10
781.690212102
 20
664.249787898
 30
0.0
 40
4.0
100
AcDbArc
 50
30.0
 51
90.0
  0
LINE
  5
154
330
1F
100
AcDbEntity
  8
5
  6
LTYPE2
 62
     2
100
AcDbLine
 10
777.690212102
 20
659.209831057
 30
0.0
 11
783.690212102
 21
659.209831057
 31
0.0
  0
ARC
  5
155
330
1F
100
AcDbEntity
  8
5
  6
LTYPE2
 62
     2
100
AcDbCircle
 10
781.690212102
 20
664.249787898
 30
0.0
 40
2.0
100
AcDbArc
 50
359.999690901
 51
90.0
  0
LINE
  5
156
330
1F
100
AcDbEntity
  8
5
  6
LTYPE2
 62
     2
100
AcDbLine
 10
783.690212102
 20
642.249777108
 30
0.0
 11
783.690212102
 21
664.249777109
 31
0.0
  0
LINE
  5
157
330
1F
100
AcDbEntity
  8
5
  6
LTYPE2
 62
     2
100
AcDbLine
 10
777.690212102
 20
647.209831057
 30
0.0
 11
783.690212102
 21
647.209831057
 31
0.0
  0
ARC
  5
158
330
1F
100
AcDbEntity
  8
5
  6
LTYPE2
 62
     2
100
AcDbCircle
 10
781.690212102
 20
642.249787898
 30
0.0
 40
4.0
100
AcDbArc
 50
270.0
 51
359.999781434
  0
ARC
  5
159
330
1F
100
AcDbEntity
  8
5
  6
LTYPE2
 62
     2
100
AcDbCircle
 10
781.690212102
 20
642.249787898
 30
0.0
 40
2.0
100
AcDbArc
 50
270.0
 51
359.999690901
  0
LINE
  5
15A
330
1F
100
AcDbEntity
  8
5
  6
LTYPE2
 62
     2
100
AcDbLine
 10
772.690212102
 20
640.249787898
 30
0.0
 11
781.690212102
 21
640.249787898
 31
0.0
  0
LINE
  5
15B
330
1F
100
AcDbEntity
  8
5
  6
LTYPE2
 62
     2
100
AcDbLine
 10
772.690212102
 20
638.249787898
 30
0.0
 11
781.690212102
 21
638.249787898
 31
0.0
  0
LINE
  5
15C
330
1F
100
AcDbEntity
  8
5
  6
LTYPE2
 62
     2
100
AcDbLine
 10
777.690212102
 20
659.209831057
 30
0.0
 11
777.690212102
 21
647.209831057
 31
0.0
  0
LINE
  5
15D
330
1F
100
AcDbEntity
  8
4
  6
LTYPE2
 62
     2
100
AcDbLine
 10
785.690212102
 20
469.749787898
 30
0.0
 11
785.690212102
 21
666.249787898
 31
0.0
  0
ARC
  5
15E
330
1F
100
AcDbEntity
  8
5
  6
LTYPE2
 62
     2
100
AcDbCircle
 10
781.690212102
 20
664.249787898
 30
0.0
 40
4.0
100
AcDbArc
 50
360.0
 51
29.986481266
  0
LWPOLYLINE
  5
160
330
1F
100
AcDbEntity
  8
3
  6
Continuous
 62
     2
100
AcDbPolyline
 90
     4
 70
   128
 43
0.0
 10
361.690212102
 20
589.549787898
 10
360.090212102
 20
589.549787898
 10
360.090212102
 20
576.949787898
 10
361.690212102
 20
576.949787898
  0
LWPOLYLINE
  5
162
330
1F
100
AcDbEntity
  8
3
  6
Continuous
 62
     2
100
AcDbPolyline
 90
     4
 70
   128
 43
0.0
 10
360.090212102
 20
589.349787898
 10
358.590212102
 20
589.349787898
 10
358.590212102
 20
577.149787898
 10
360.090212102
 20
577.149787898
  0
LINE
  5
163
330
1F
100
AcDbEntity
  8
3
  6
Continuous
 62
     2
100
AcDbLine
 10
358.590212102
 20
583.249787898
 30
0.0
 11
360.090212102
 21
584.115813302
 31
0.0
  0
LINE
  5
164
330
1F
100
AcDbEntity
  8
3
  6
Continuous
 62
     2
100
AcDbLine
 10
360.090212102
 20
583.249787898
 30
0.0
 11
358.590212102
 21
582.383762494
 31
0.0
  0
LWPOLYLINE
  5
166
330
1F
100
AcDbEntity
  8
3
  6
Continuous
 62
     2
100
AcDbPolyline
 90
     4
 70
   129
 43
0.0
 10
381.690212102
 20
609.749787898
 10
381.690212102
 20
626.749787898
 10
380.090212102
 20
626.749787898
 10
380.090212102
 20
609.749787898
  0
LWPOLYLINE
  5
168
330
1F
100
AcDbEntity
  8
3
  6
Continuous
 62
     2
100
AcDbPolyline
 90
     4
 70
   129
 43
0.0
 10
380.090212102
 20
625.949787898
 10
378.090212102
 20
625.949787898
 10
378.090212102
 20
610.549787898
 10
380.090212102
 20
610.549787898
  0
LINE
  5
169
330
1F
100
AcDbEntity
  8
3
  6
Continuous
 62
     2
100
AcDbLine
 10
378.090212102
 20
618.249787898
 30
0.0
 11
380.090212102
 21
619.404488436
 31
0.0
  0
LINE
  5
16A
330
1F
100
AcDbEntity
  8
3
  6
Continuous
 62
     2
100
AcDbLine
 10
380.090212102
 20
618.249787898
 30
0.0
 11
378.090212102
 21
617.09508736
 31
0.0
  0
LWPOLYLINE
  5
16C
330
1F
100
AcDbEntity
  8
3
  6
Continuous
 62
     2
100
AcDbPolyline
 90
     4
 70
   129
 43
0.0
 10
787.690212102
 20
659.549787898
 10
787.690212102
 20
646.949787898
 10
789.290212102
 20
646.949787898
 10
789.290212102
 20
659.549787898
  0
LWPOLYLINE
  5
16E
330
1F
100
AcDbEntity
  8
3
  6
Continuous
 62
     2
100
AcDbPolyline
 90
     4
 70
   128
 43
0.0
 10
789.290212102
 20
647.149787898
 10
790.790212102
 20
647.149787898
 10
790.790212102
 20
659.349787898
 10
789.290212102
 20
659.349787898
  0
LINE
  5
16F
330
1F
100
AcDbEntity
  8
3
  6
Continuous
 62
     2
100
AcDbLine
 10
790.790212102
 20
653.249787898
 30
0.0
 11
789.290212102
 21
652.383762494
 31
0.0
  0
LINE
  5
170
330
1F
100
AcDbEntity
  8
3
  6
Continuous
 62
     2
100
AcDbLine
 10
789.290212102
 20
653.249787898
 30
0.0
 11
790.790212102
 21
654.115813302
 31
0.0
  0
LWPOLYLINE
  5
172
330
1F
100
AcDbEntity
  8
3
  6
Continuous
 62
     2
100
AcDbPolyline
 90
     4
 70
   129
 43
0.0
 10
767.690212102
 20
626.749787898
 10
767.690212102
 20
609.749787898
 10
769.290212102
 20
609.749787898
 10
769.290212102
 20
626.749787898
  0
LWPOLYLINE
  5
174
330
1F
100
AcDbEntity
  8
3
  6
Continuous
 62
     2
100
AcDbPolyline
 90
     4
 70
   129
 43
0.0
 10
769.290212102
 20
610.549787898
 10
771.290212102
 20
610.549787898
 10
771.290212102
 20
625.949787898
 10
769.290212102
 20
625.949787898
  0
LINE
  5
175
330
1F
100
AcDbEntity
  8
3
  6
Continuous
 62
     2
100
AcDbLine
 10
771.290212102
 20
618.249787898
 30
0.0
 11
769.290212102
 21
617.09508736
 31
0.0
  0
LINE
  5
176
330
1F
100
AcDbEntity
  8
3
  6
Continuous
 62
     2
100
AcDbLine
 10
769.290212102
 20
618.249787898
 30
0.0
 11
771.290212102
 21
619.404488436
 31
0.0
  0
ARC
  5
177
330
1F
100
AcDbEntity
  8
4
  6
Continuous
 62
     1
100
AcDbCircle
 10
157.030212102
 20
399.749787898
 30
0.0
 40
4.0
100
AcDbArc
 50
180.0
 51
270.0
  0
LINE
  5
178
330
1F
100
AcDbEntity
  8
4
  6
Continuous
 62
     1
100
AcDbLine
 10
153.030212102
 20
399.749787898
 30
0.0
 11
155.030212102
 21
399.749787898
 31
0.0
  0
LINE
  5
179
330
1F
100
AcDbEntity
  8
4
  6
Continuous
 62
     1
100
AcDbLine
 10
157.030212102
 20
397.749787898
 30
0.0
 11
157.030212102
 21
395.749787898
 31
0.0
  0
ARC
  5
17A
330
1F
100
AcDbEntity
  8
4
  6
Continuous
 62
     1
100
AcDbCircle
 10
155.030212102
 20
397.749787898
 30
0.0
 40
2.0
100
AcDbArc
 50
360.0
 51
90.0
  0
ARC
  5
17B
330
1F
100
AcDbEntity
  8
4
  6
Continuous
 62
     1
100
AcDbCircle
 10
157.030212102
 20
399.749787898
 30
0.0
 40
2.0
100
AcDbArc
 50
180.0
 51
270.0
  0
ARC
  5
17C
330
1F
100
AcDbEntity
  8
4
  6
Continuous
 62
     1
100
AcDbCircle
 10
209.030212102
 20
399.749787898
 30
0.0
 40
4.0
100
AcDbArc
 50
270.0
 51
0.0
  0
LINE
  5
17D
330
1F
100
AcDbEntity
  8
4
  6
Continuous
 62
     1
100
AcDbLine
 10
213.030212102
 20
399.749787898
 30
0.0
 11
211.030212102
 21
399.749787898
 31
0.0
  0
LINE
  5
17E
330
1F
100
AcDbEntity
  8
4
  6
Continuous
 62
     1
100
AcDbLine
 10
209.030212102
 20
397.749787898
 30
0.0
 11
209.030212102
 21
395.749787898
 31
0.0
  0
ARC
  5
17F
330
1F
100
AcDbEntity
  8
4
  6
Continuous
 62
     1
100
AcDbCircle
 10
211.030212102
 20
397.749787898
 30
0.0
 40
2.0
100
AcDbArc
 50
90.0
 51
180.0
  0
ARC
  5
180
330
1F
100
AcDbEntity
  8
4
  6
Continuous
 62
     1
100
AcDbCircle
 10
209.030212102
 20
399.749787898
 30
0.0
 40
2.0
100
AcDbArc
 50
270.0
 51
0.0
  0
LINE
  5
181
330
1F
100
AcDbEntity
  8
4
  6
Continuous
 62
     1
100
AcDbLine
 10
209.030212102
 20
395.749787898
 30
0.0
 11
157.030212102
 21
395.749787898
 31
0.0
  0
LINE
  5
182
330
1F
100
AcDbEntity
  8
4
  6
LTYPE2
 62
     2
100
AcDbLine
 10
209.030212102
 20
397.749787898
 30
0.0
 11
157.030212102
 21
397.749787898
 31
0.0
  0
LINE
  5
183
330
1F
100
AcDbEntity
  8
4
  6
Continuous
 62
     1
100
AcDbLine
 10
213.030212102
 20
596.249787898
 30
0.0
 11
153.030212102
 21
596.249787898
 31
0.0
  0
LINE
  5
184
330
1F
100
AcDbEntity
  8
4
  6
LTYPE2
 62
     2
100
AcDbLine
 10
155.030212102
 20
399.749787898
 30
0.0
 11
155.030212102
 21
596.249787898
 31
0.0
  0
LINE
  5
185
330
1F
100
AcDbEntity
  8
4
  6
Continuous
 62
     1
100
AcDbLine
 10
153.030212102
 20
399.749787898
 30
0.0
 11
153.030212102
 21
596.249787898
 31
0.0
  0
LINE
  5
186
330
1F
100
AcDbEntity
  8
4
  6
LTYPE2
 62
     2
100
AcDbLine
 10
211.030212102
 20
399.749787898
 30
0.0
 11
211.030212102
 21
596.249787898
 31
0.0
  0
LINE
  5
187
330
1F
100
AcDbEntity
  8
4
  6
Continuous
 62
     1
100
AcDbLine
 10
213.030212102
 20
399.749787898
 30
0.0
 11
213.030212102
 21
596.249787898
 31
0.0
  0
LINE
  5
188
330
1F
100
AcDbEntity
  8
4
  6
LTYPE2
 62
     2
100
AcDbLine
 10
155.030212102
 20
411.749787898
 30
0.0
 11
153.030212102
 21
411.749787898
 31
0.0
  0
LINE
  5
189
330
1F
100
AcDbEntity
  8
4
  6
LTYPE2
 62
     2
100
AcDbLine
 10
213.030212102
 20
411.749787898
 30
0.0
 11
211.030212102
 21
411.749787898
 31
0.0
  0
CIRCLE
  5
18A
330
1F
100
AcDbEntity
  8
4
  6
Continuous
 62
     1
100
AcDbCircle
 10
183.030212102
 20
548.249787898
 30
0.0
 40
12.0
  0
ARC
  5
18B
330
1F
100
AcDbEntity
  8
5
  6
Continuous
 62
     1
100
AcDbCircle
 10
172.030212102
 20
618.249787898
 30
0.0
 40
15.0
100
AcDbArc
 50
90.0
 51
180.0
  0
LINE
  5
18C
330
1F
100
AcDbEntity
  8
5
  6
Continuous
 62
     1
100
AcDbLine
 10
194.030212102
 20
633.249787898
 30
0.0
 11
172.030212102
 21
633.249787898
 31
0.0
  0
ARC
  5
18D
330
1F
100
AcDbEntity
  8
5
  6
Continuous
 62
     1
100
AcDbCircle
 10
194.030212102
 20
618.249787898
 30
0.0
 40
15.0
100
AcDbArc
 50
0.0
 51
90.0
  0
LINE
  5
18E
330
1F
100
AcDbEntity
  8
5
  6
Continuous
 62
     1
100
AcDbLine
 10
209.030212102
 20
598.249787898
 30
0.0
 11
157.030212102
 21
598.249787898
 31
0.0
  0
LINE
  5
18F
330
1F
100
AcDbEntity
  8
2
  6
LTYPE1
 62
     2
100
AcDbLine
 10
83.030212102
 20
707.998112949
 30
0.0
 11
118.780212102
 21
505.249787898
 31
0.0
  0
ARC
  5
190
330
1F
100
AcDbEntity
  8
2
  6
LTYPE1
 62
     2
100
AcDbCircle
 10
183.030212102
 20
509.362480778
 30
0.0
 40
222.38730712
100
AcDbArc
 50
63.27774625
 51
116.72225375
  0
CIRCLE
  5
191
330
1F
100
AcDbEntity
  8
3
  6
Continuous
 62
     2
100
AcDbCircle
 10
165.030212102
 20
583.249787898
 30
0.0
 40
6.1
  0
CIRCLE
  5
192
330
1F
100
AcDbEntity
  8
3
  6
Continuous
 62
     2
100
AcDbCircle
 10
165.030212102
 20
583.249787898
 30
0.0
 40
6.3
  0
CIRCLE
  5
193
330
1F
100
AcDbEntity
  8
3
  6
Continuous
 62
     2
100
AcDbCircle
 10
183.030212102
 20
618.249787898
 30
0.0
 40
7.7
  0
CIRCLE
  5
194
330
1F
100
AcDbEntity
  8
3
  6
Continuous
 62
     2
100
AcDbCircle
 10
183.030212102
 20
618.249787898
 30
0.0
 40
8.5
  0
LINE
  5
195
330
1F
100
AcDbEntity
  8
5
  6
Continuous
 62
     1
100
AcDbLine
 10
945.350212102
 20
668.249787898
 30
0.0
 11
997.350212102
 21
668.249787898
 31
0.0
  0
LINE
  5
196
330
1F
100
AcDbEntity
  8
5
  6
LTYPE2
 62
     2
100
AcDbLine
 10
945.350212102
 20
666.249787898
 30
0.0
 11
997.350212102
 21
666.249787898
 31
0.0
  0
CIRCLE
  5
197
330
1F
100
AcDbEntity
  8
4
  6
LTYPE1
 62
     2
100
AcDbCircle
 10
971.350212102
 20
618.249787898
 30
0.0
 40
135.0
  0
ARC
  5
198
330
1F
100
AcDbEntity
  8
4
  6
Continuous
 62
     1
100
AcDbCircle
 10
997.350212102
 20
469.749787898
 30
0.0
 40
4.0
100
AcDbArc
 50
270.0
 51
0.0
  0
LINE
  5
199
330
1F
100
AcDbEntity
  8
4
  6
Continuous
 62
     1
100
AcDbLine
 10
1001.350212102
 20
469.749787898
 30
0.0
 11
999.350212102
 21
469.749787898
 31
0.0
  0
LINE
  5
19A
330
1F
100
AcDbEntity
  8
4
  6
Continuous
 62
     1
100
AcDbLine
 10
997.350212102
 20
467.749787898
 30
0.0
 11
997.350212102
 21
465.749787898
 31
0.0
  0
ARC
  5
19B
330
1F
100
AcDbEntity
  8
4
  6
Continuous
 62
     1
100
AcDbCircle
 10
999.350212102
 20
467.749787898
 30
0.0
 40
2.0
100
AcDbArc
 50
90.0
 51
180.0
  0
ARC
  5
19C
330
1F
100
AcDbEntity
  8
4
  6
Continuous
 62
     1
100
AcDbCircle
 10
997.350212102
 20
469.749787898
 30
0.0
 40
2.0
100
AcDbArc
 50
270.0
 51
0.0
  0
ARC
  5
19D
330
1F
100
AcDbEntity
  8
4
  6
Continuous
 62
     1
100
AcDbCircle
 10
945.350212102
 20
469.749787898
 30
0.0
 40
4.0
100
AcDbArc
 50
180.0
 51
270.0
  0
LINE
  5
19E
330
1F
100
AcDbEntity
  8
4
  6
Continuous
 62
     1
100
AcDbLine
 10
941.350212102
 20
469.749787898
 30
0.0
 11
943.350212102
 21
469.749787898
 31
0.0
  0
LINE
  5
19F
330
1F
100
AcDbEntity
  8
4
  6
Continuous
 62
     1
100
AcDbLine
 10
945.350212102
 20
467.749787898
 30
0.0
 11
945.350212102
 21
465.749787898
 31
0.0
  0
ARC
  5
1A0
330
1F
100
AcDbEntity
  8
4
  6
Continuous
 62
     1
100
AcDbCircle
 10
943.350212102
 20
467.749787898
 30
0.0
 40
2.0
100
AcDbArc
 50
360.0
 51
90.0
  0
ARC
  5
1A1
330
1F
100
AcDbEntity
  8
4
  6
Continuous
 62
     1
100
AcDbCircle
 10
945.350212102
 20
469.749787898
 30
0.0
 40
2.0
100
AcDbArc
 50
180.0
 51
270.0
  0
LINE
  5
1A2
330
1F
100
AcDbEntity
  8
4
  6
Continuous
 62
     1
100
AcDbLine
 10
945.350212102
 20
465.749787898
 30
0.0
 11
997.350212102
 21
465.749787898
 31
0.0
  0
LINE
  5
1A3
330
1F
100
AcDbEntity
  8
4
  6
LTYPE2
 62
     2
100
AcDbLine
 10
945.350212102
 20
467.749787898
 30
0.0
 11
997.350212102
 21
467.749787898
 31
0.0
  0
LINE
  5
1A4
330
1F
100
AcDbEntity
  8
4
  6
Continuous
 62
     1
100
AcDbLine
 10
941.350212102
 20
666.249787898
 30
0.0
 11
1001.350212102
 21
666.249787898
 31
0.0
  0
LINE
  5
1A5
330
1F
100
AcDbEntity
  8
4
  6
LTYPE2
 62
     2
100
AcDbLine
 10
999.350212102
 20
469.749787898
 30
0.0
 11
999.350212102
 21
666.249787898
 31
0.0
  0
LINE
  5
1A6
330
1F
100
AcDbEntity
  8
4
  6
Continuous
 62
     1
100
AcDbLine
 10
1001.350212102
 20
469.749787898
 30
0.0
 11
1001.350212102
 21
666.249787898
 31
0.0
  0
LINE
  5
1A7
330
1F
100
AcDbEntity
  8
4
  6
LTYPE2
 62
     2
100
AcDbLine
 10
943.350212102
 20
469.749787898
 30
0.0
 11
943.350212102
 21
666.249787898
 31
0.0
  0
LINE
  5
1A8
330
1F
100
AcDbEntity
  8
4
  6
Continuous
 62
     1
100
AcDbLine
 10
941.350212102
 20
469.749787898
 30
0.0
 11
941.350212102
 21
666.249787898
 31
0.0
  0
LINE
  5
1A9
330
1F
100
AcDbEntity
  8
4
  6
LTYPE2
 62
     2
100
AcDbLine
 10
999.350212102
 20
481.749787898
 30
0.0
 11
1001.350212102
 21
481.749787898
 31
0.0
  0
LINE
  5
1AA
330
1F
100
AcDbEntity
  8
4
  6
LTYPE2
 62
     2
100
AcDbLine
 10
941.350212102
 20
481.749787898
 30
0.0
 11
943.350212102
 21
481.749787898
 31
0.0
  0
CIRCLE
  5
1AB
330
1F
100
AcDbEntity
  8
4
  6
Continuous
 62
     1
100
AcDbCircle
 10
971.350212102
 20
618.249787898
 30
0.0
 40
12.0
  0
LINE
  5
1AC
330
1F
100
AcDbEntity
  8
2
  6
LTYPE1
 62
     2
100
AcDbLine
 10
1035.600212102
 20
505.249787898
 30
0.0
 11
907.100212102
 21
505.249787898
 31
0.0
  0
ARC
  5
1AD
330
1F
100
AcDbEntity
  8
2
  6
LTYPE1
 62
     2
100
AcDbCircle
 10
971.350212102
 20
509.362480778
 30
0.0
 40
222.38730712
100
AcDbArc
 50
63.27774625
 51
116.72225375
  0
LINE
  5
1AE
330
1F
100
AcDbEntity
  8
5
  6
Continuous
 62
     1
100
AcDbLine
 10
945.350212102
 20
668.249787898
 30
0.0
 11
945.350212102
 21
666.249787898
 31
0.0
  0
LINE
  5
1AF
330
1F
100
AcDbEntity
  8
5
  6
Continuous
 62
     1
100
AcDbLine
 10
997.350212102
 20
668.249787898
 30
0.0
 11
997.350212102
 21
666.249787898
 31
0.0
  0
LINE
  5
1B0
330
1F
100
AcDbEntity
  8
5
  6
LTYPE2
 62
     2
100
AcDbLine
 10
945.350212102
 20
638.249787898
 30
0.0
 11
997.350212102
 21
638.249787898
 31
0.0
  0
LINE
  5
1B1
330
1F
100
AcDbEntity
  8
5
  6
LTYPE2
 62
     2
100
AcDbLine
 10
945.350212102
 20
666.249787898
 30
0.0
 11
945.350212102
 21
618.249787898
 31
0.0
  0
LINE
  5
1B2
330
1F
100
AcDbEntity
  8
5
  6
LTYPE2
 62
     2
100
AcDbLine
 10
960.350212102
 20
603.249787898
 30
0.0
 11
982.350212102
 21
603.249787898
 31
0.0
  0
ARC
  5
1B3
330
1F
100
AcDbEntity
  8
5
  6
LTYPE2
 62
     2
100
AcDbCircle
 10
960.350212102
 20
618.249787898
 30
0.0
 40
15.0
100
AcDbArc
 50
180.0
 51
270.0
  0
LINE
  5
1B4
330
1F
100
AcDbEntity
  8
5
  6
LTYPE2
 62
     2
100
AcDbLine
 10
997.350212102
 20
666.249787898
 30
0.0
 11
997.350212102
 21
618.249787898
 31
0.0
  0
ARC
  5
1B5
330
1F
100
AcDbEntity
  8
5
  6
LTYPE2
 62
     2
100
AcDbCircle
 10
982.350212102
 20
618.249787898
 30
0.0
 40
15.0
100
AcDbArc
 50
270.0
 51
0.0
  0
CIRCLE
  5
1B6
330
1F
100
AcDbEntity
  8
3
  6
Continuous
 62
     2
100
AcDbCircle
 10
971.350212102
 20
618.249787898
 30
0.0
 40
7.7
  0
CIRCLE
  5
1B7
330
1F
100
AcDbEntity
  8
3
  6
Continuous
 62
     2
100
AcDbCircle
 10
971.350212102
 20
618.249787898
 30
0.0
 40
8.5
  0
LINE
  5
1B8
330
1F
100
AcDbEntity
  8
5
  6
Continuous
 62
     1
100
AcDbLine
 10
157.030212102
 20
596.249787898
 30
0.0
 11
157.030212102
 21
618.249787898
 31
0.0
  0
LINE
  5
1B9
330
1F
100
AcDbEntity
  8
5
  6
Continuous
 62
     1
100
AcDbLine
 10
209.030212102
 20
596.249787898
 30
0.0
 11
209.030212102
 21
618.249787898
 31
0.0
  0
LINE
  5
1BA
330
1F
100
AcDbEntity
  8
5
  6
LTYPE2
 62
     2
100
AcDbLine
 10
157.030212102
 20
568.249787898
 30
0.0
 11
157.030212102
 21
596.249787898
 31
0.0
  0
LINE
  5
1BB
330
1F
100
AcDbEntity
  8
5
  6
LTYPE2
 62
     2
100
AcDbLine
 10
209.030212102
 20
568.249787898
 30
0.0
 11
209.030212102
 21
596.249787898
 31
0.0
  0
LINE
  5
1BC
330
1F
100
AcDbEntity
  8
5
  6
LTYPE2
 62
     2
100
AcDbLine
 10
209.030212102
 20
568.249787898
 30
0.0
 11
157.030212102
 21
568.249787898
 31
0.0
  0
LINE
  5
1BD
330
1F
100
AcDbEntity
  8
7
  6
Continuous
 62
     2
100
AcDbLine
 10
578.690212102
 20
395.749787898
 30
0.0
 11
612.690212102
 21
395.749787898
 31
0.0
  0
LINE
  5
1BE
330
1F
100
AcDbEntity
  8
7
  6
Continuous
 62
     2
100
AcDbLine
 10
604.690212102
 20
395.749787898
 30
0.0
 11
607.278402553
 21
405.409046161
 31
0.0
  0
LINE
  5
1BF
330
1F
100
AcDbEntity
  8
7
  6
Continuous
 62
     2
100
AcDbLine
 10
604.690212102
 20
395.749787898
 30
0.0
 11
602.102021651
 21
405.409046161
 31
0.0
  0
LWPOLYLINE
  5
1C1
330
1F
100
AcDbEntity
  8
7
  6
Continuous
 62
     2
100
AcDbPolyline
 90
     3
 70
   128
 43
0.0
 10
604.690212102
 20
395.749787898
 10
604.690212102
 20
465.749787898
 10
602.102021651
 20
456.090529635
  0
LINE
  5
1C2
330
1F
100
AcDbEntity
  8
7
  6
Continuous
 62
     2
100
AcDbLine
 10
604.690212102
 20
465.749787898
 30
0.0
 11
607.278402553
 21
456.090529635
 31
0.0
  0
MTEXT
  5
1C3
330
1F
100
AcDbEntity
  8
7
  6
Continuous
 62
     2
100
AcDbMText
 10
600.690212102
 20
422.949787898
 30
0.0
 40
12.0
 41
31.2
 71
     7
 72
     1
  1
\T1.167;\W0.600;７０
  7
KANJI8
 11
0.0
 21
1.0
 31
0.0
 73
     1
 44
1.0
  0
LINE
  5
1C5
330
1F
100
AcDbEntity
  8
7
  6
Continuous
 62
     2
100
AcDbLine
 10
975.350212102
 20
618.249787898
 30
0.0
 11
908.350212102
 21
618.249787898
 31
0.0
  0
LINE
  5
1C6
330
1F
100
AcDbEntity
  8
7
  6
Continuous
 62
     2
100
AcDbLine
 10
916.350212102
 20
618.249787898
 30
0.0
 11
913.762021651
 21
608.590529635
 31
0.0
  0
LINE
  5
1C7
330
1F
100
AcDbEntity
  8
7
  6
Continuous
 62
     2
100
AcDbLine
 10
916.350212102
 20
618.249787898
 30
0.0
 11
918.938402553
 21
608.590529635
 31
0.0
  0
LWPOLYLINE
  5
1C9
330
1F
100
AcDbEntity
  8
7
  6
Continuous
 62
     2
100
AcDbPolyline
 90
     3
 70
   128
 43
0.0
 10
916.350212102
 20
618.249787898
 10
916.350212102
 20
465.749787898
 10
918.938402553
 20
475.409046161
  0
LINE
  5
1CA
330
1F
100
AcDbEntity
  8
7
  6
Continuous
 62
     2
100
AcDbLine
 10
916.350212102
 20
465.749787898
 30
0.0
 11
913.762021651
 21
475.409046161
 31
0.0
  0
LINE
  5
1CB
330
1F
100
AcDbEntity
  8
7
  6
Continuous
 62
     2
100
AcDbLine
 10
941.350212102
 20
465.749787898
 30
0.0
 11
908.350212102
 21
465.749787898
 31
0.0
  0
MTEXT
  5
1CC
330
1F
100
AcDbEntity
  8
7
  6
Continuous
 62
     2
100
AcDbMText
 10
912.350212102
 20
521.599787898
 30
0.0
 40
12.0
 41
81.6
 71
     7
 72
     1
  1
\T1.167;\W0.600;１５２．５
  7
KANJI8
 11
0.0
 21
1.0
 31
0.0
 73
     1
 44
1.0
  0
LINE
  5
1CD
330
1F
100
AcDbEntity
  8
7
  6
Continuous
 62
     2
100
AcDbLine
 10
912.350212102
 20
465.749787898
 30
0.0
 11
883.350212102
 21
465.749787898
 31
0.0
  0
LINE
  5
1CE
330
1F
100
AcDbEntity
  8
7
  6
Continuous
 62
     2
100
AcDbLine
 10
891.350212102
 20
465.749787898
 30
0.0
 11
893.938402553
 21
475.409046161
 31
0.0
  0
LINE
  5
1CF
330
1F
100
AcDbEntity
  8
7
  6
Continuous
 62
     2
100
AcDbLine
 10
891.350212102
 20
465.749787898
 30
0.0
 11
888.762021651
 21
475.409046161
 31
0.0
  0
LWPOLYLINE
  5
1D1
330
1F
100
AcDbEntity
  8
7
  6
Continuous
 62
     2
100
AcDbPolyline
 90
     3
 70
   128
 43
0.0
 10
891.350212102
 20
465.749787898
 10
891.350212102
 20
668.249787898
 10
888.762021651
 20
658.590529635
  0
LINE
  5
1D2
330
1F
100
AcDbEntity
  8
7
  6
Continuous
 62
     2
100
AcDbLine
 10
891.350212102
 20
668.249787898
 30
0.0
 11
893.938402553
 21
658.590529635
 31
0.0
  0
LINE
  5
1D3
330
1F
100
AcDbEntity
  8
7
  6
Continuous
 62
     2
100
AcDbLine
 10
941.350212102
 20
668.249787898
 30
0.0
 11
883.350212102
 21
668.249787898
 31
0.0
  0
MTEXT
  5
1D4
330
1F
100
AcDbEntity
  8
7
  6
Continuous
 62
     2
100
AcDbMText
 10
887.350212102
 20
546.599787898
 30
0.0
 40
12.0
 41
81.6
 71
     7
 72
     1
  1
\T1.167;\W0.600;２０２．５
  7
KANJI8
 11
0.0
 21
1.0
 31
0.0
 73
     1
 44
1.0
  0
LINE
  5
1D5
330
1F
100
AcDbEntity
  8
2
  6
LTYPE1
 62
     2
100
AcDbLine
 10
905.20117052
 20
516.019787898
 30
0.0
 11
907.100212102
 21
505.249787898
 31
0.0
  0
LINE
  5
1D6
330
1F
100
AcDbEntity
  8
2
  6
LTYPE1
 62
     2
100
AcDbLine
 10
871.350212102
 20
707.998112949
 30
0.0
 11
894.656817073
 21
575.819787898
 31
0.0
  0
LINE
  5
1D7
330
1F
100
AcDbEntity
  8
7
  6
Continuous
 62
     2
100
AcDbLine
 10
213.030212102
 20
395.749787898
 30
0.0
 11
246.030212102
 21
395.749787898
 31
0.0
  0
LINE
  5
1D8
330
1F
100
AcDbEntity
  8
7
  6
Continuous
 62
     2
100
AcDbLine
 10
238.030212102
 20
395.749787898
 30
0.0
 11
240.618402553
 21
405.409046161
 31
0.0
  0
LINE
  5
1D9
330
1F
100
AcDbEntity
  8
7
  6
Continuous
 62
     2
100
AcDbLine
 10
238.030212102
 20
395.749787898
 30
0.0
 11
235.442021651
 21
405.409046161
 31
0.0
  0
LWPOLYLINE
  5
1DB
330
1F
100
AcDbEntity
  8
7
  6
Continuous
 62
     2
100
AcDbPolyline
 90
     3
 70
   128
 43
0.0
 10
238.030212102
 20
395.749787898
 10
238.030212102
 20
618.249787898
 10
235.442021651
 20
608.590529635
  0
LINE
  5
1DC
330
1F
100
AcDbEntity
  8
7
  6
Continuous
 62
     2
100
AcDbLine
 10
238.030212102
 20
618.249787898
 30
0.0
 11
240.618402553
 21
608.590529635
 31
0.0
  0
LINE
  5
1DD
330
1F
100
AcDbEntity
  8
7
  6
Continuous
 62
     2
100
AcDbLine
 10
179.030212102
 20
618.249787898
 30
0.0
 11
246.030212102
 21
618.249787898
 31
0.0
  0
MTEXT
  5
1DE
330
1F
100
AcDbEntity
  8
7
  6
Continuous
 62
     2
100
AcDbMText
 10
234.030212102
 20
486.599787898
 30
0.0
 40
12.0
 41
81.6
 71
     7
 72
     1
  1
\T1.167;\W0.600;２２２．５
  7
KANJI8
 11
0.0
 21
1.0
 31
0.0
 73
     1
 44
1.0
  0
LINE
  5
1DF
330
1F
100
AcDbEntity
  8
7
  6
Continuous
 62
     2
100
AcDbLine
 10
198.030212102
 20
633.249787898
 30
0.0
 11
271.030212102
 21
633.249787898
 31
0.0
  0
LINE
  5
1E0
330
1F
100
AcDbEntity
  8
7
  6
Continuous
 62
     2
100
AcDbLine
 10
263.030212102
 20
633.249787898
 30
0.0
 11
260.442021651
 21
623.590529635
 31
0.0
  0
LINE
  5
1E1
330
1F
100
AcDbEntity
  8
7
  6
Continuous
 62
     2
100
AcDbLine
 10
263.030212102
 20
633.249787898
 30
0.0
 11
265.618402553
 21
623.590529635
 31
0.0
  0
LWPOLYLINE
  5
1E3
330
1F
100
AcDbEntity
  8
7
  6
Continuous
 62
     2
100
AcDbPolyline
 90
     3
 70
   128
 43
0.0
 10
263.030212102
 20
633.249787898
 10
263.030212102
 20
395.749787898
 10
265.618402553
 20
405.409046161
  0
LINE
  5
1E4
330
1F
100
AcDbEntity
  8
7
  6
Continuous
 62
     2
100
AcDbLine
 10
263.030212102
 20
395.749787898
 30
0.0
 11
260.442021651
 21
405.409046161
 31
0.0
  0
LINE
  5
1E5
330
1F
100
AcDbEntity
  8
7
  6
Continuous
 62
     2
100
AcDbLine
 10
242.030212102
 20
395.749787898
 30
0.0
 11
271.030212102
 21
395.749787898
 31
0.0
  0
MTEXT
  5
1E6
330
1F
100
AcDbEntity
  8
7
  6
Continuous
 62
     2
100
AcDbMText
 10
259.030212102
 20
494.099787898
 30
0.0
 40
12.0
 41
81.6
 71
     7
 72
     1
  1
\T1.167;\W0.600;２３７．５
  7
KANJI8
 11
0.0
 21
1.0
 31
0.0
 73
     1
 44
1.0
  0
LINE
  5
1E7
330
1F
100
AcDbEntity
  8
2
  6
LTYPE1
 62
     2
100
AcDbLine
 10
118.780212102
 20
505.249787898
 30
0.0
 11
219.200212102
 21
505.249787898
 31
0.0
  0
LINE
  5
1E8
330
1F
100
AcDbEntity
  8
2
  6
LTYPE1
 62
     2
100
AcDbLine
 10
283.030212102
 20
707.998112949
 30
0.0
 11
254.160490889
 21
544.269787898
 31
0.0
  0
CIRCLE
  5
1E9
330
1F
100
AcDbEntity
  8
4
  6
Continuous
 62
     1
100
AcDbCircle
 10
183.030212102
 20
408.749787898
 30
0.0
 40
4.2
  0
CIRCLE
  5
1EA
330
1F
100
AcDbEntity
  8
4
  6
Continuous
 62
     1
100
AcDbCircle
 10
183.030212102
 20
528.749787898
 30
0.0
 40
4.2
  0
CIRCLE
  5
1EB
330
1F
100
AcDbEntity
  8
4
  6
Continuous
 62
     1
100
AcDbCircle
 10
971.350212102
 20
478.749787898
 30
0.0
 40
4.2
  0
CIRCLE
  5
1EC
330
1F
100
AcDbEntity
  8
4
  6
Continuous
 62
     1
100
AcDbCircle
 10
971.350212102
 20
598.749787898
 30
0.0
 40
4.2
  0
LINE
  5
1ED
330
1F
100
AcDbEntity
  8
7
  6
Continuous
 62
     2
100
AcDbLine
 10
1001.350212102
 20
465.749787898
 30
0.0
 11
1034.350212102
 21
465.749787898
 31
0.0
  0
LINE
  5
1EE
330
1F
100
AcDbEntity
  8
7
  6
Continuous
 62
     2
100
AcDbLine
 10
1026.350212102
 20
465.749787898
 30
0.0
 11
1023.762021651
 21
456.090529635
 31
0.0
  0
LINE
  5
1EF
330
1F
100
AcDbEntity
  8
7
  6
Continuous
 62
     2
100
AcDbLine
 10
1026.350212102
 20
465.749787898
 30
0.0
 11
1028.938402553
 21
456.090529635
 31
0.0
  0
LWPOLYLINE
  5
1F1
330
1F
100
AcDbEntity
  8
7
  6
Continuous
 62
     2
100
AcDbPolyline
 90
     4
 70
   128
 43
0.0
 10
1026.350212102
 20
435.149787898
 10
1026.350212102
 20
465.749787898
 10
1026.350212102
 20
478.749787898
 10
1026.350212102
 20
493.749787898
  0
LINE
  5
1F2
330
1F
100
AcDbEntity
  8
7
  6
Continuous
 62
     2
100
AcDbLine
 10
1026.350212102
 20
478.749787898
 30
0.0
 11
1028.938402553
 21
488.409046161
 31
0.0
  0
LINE
  5
1F3
330
1F
100
AcDbEntity
  8
7
  6
Continuous
 62
     2
100
AcDbLine
 10
1026.350212102
 20
478.749787898
 30
0.0
 11
1023.762021651
 21
488.409046161
 31
0.0
  0
LINE
  5
1F4
330
1F
100
AcDbEntity
  8
7
  6
Continuous
 62
     2
100
AcDbLine
 10
975.350212102
 20
478.749787898
 30
0.0
 11
1034.350212102
 21
478.749787898
 31
0.0
  0
MTEXT
  5
1F5
330
1F
100
AcDbEntity
  8
7
  6
Continuous
 62
     2
100
AcDbMText
 10
1022.350212102
 20
435.149787898
 30
0.0
 40
12.0
 41
31.2
 71
     7
 72
     1
  1
\T1.167;\W0.600;１３
  7
KANJI9
 11
0.0
 21
1.0
 31
0.0
 73
     1
 44
1.0
  0
LINE
  5
1F7
330
1F
100
AcDbEntity
  8
7
  6
Continuous
 62
     2
100
AcDbLine
 10
1026.350212102
 20
478.749787898
 30
0.0
 11
1028.938402553
 21
488.409046161
 31
0.0
  0
LINE
  5
1F8
330
1F
100
AcDbEntity
  8
7
  6
Continuous
 62
     2
100
AcDbLine
 10
1026.350212102
 20
478.749787898
 30
0.0
 11
1023.762021651
 21
488.409046161
 31
0.0
  0
LWPOLYLINE
  5
1FA
330
1F
100
AcDbEntity
  8
7
  6
Continuous
 62
     2
100
AcDbPolyline
 90
     3
 70
   128
 43
0.0
 10
1026.350212102
 20
478.749787898
 10
1026.350212102
 20
598.749787898
 10
1023.762021651
 20
589.090529635
  0
LINE
  5
1FB
330
1F
100
AcDbEntity
  8
7
  6
Continuous
 62
     2
100
AcDbLine
 10
1026.350212102
 20
598.749787898
 30
0.0
 11
1028.938402553
 21
589.090529635
 31
0.0
  0
LINE
  5
1FC
330
1F
100
AcDbEntity
  8
7
  6
Continuous
 62
     2
100
AcDbLine
 10
975.350212102
 20
598.749787898
 30
0.0
 11
1034.350212102
 21
598.749787898
 31
0.0
  0
CIRCLE
  5
1FD
330
1F
100
AcDbEntity
  8
4
  6
Continuous
 62
     1
100
AcDbCircle
 10
971.350212102
 20
653.249787898
 30
0.0
 40
4.2
  0
LWPOLYLINE
  5
1FF
330
1F
100
AcDbEntity
  8
5
  6
LTYPE2
 62
     2
100
AcDbPolyline
 90
     6
 70
   129
 43
0.0
 10
980.01046614
 20
653.249787898
 10
975.680339121
 20
660.749787898
 10
967.020085083
 20
660.749787898
 10
962.689958064
 20
653.249787898
 10
967.020085083
 20
645.749787898
 10
975.680339121
 20
645.749787898
  0
CIRCLE
  5
200
330
1F
100
AcDbEntity
  8
5
  6
Continuous
 62
     2
100
AcDbCircle
 10
971.350212102
 20
653.249787898
 30
0.0
 40
5.5
  0
CIRCLE
  5
201
330
1F
100
AcDbEntity
  8
4
  6
Continuous
 62
     1
100
AcDbCircle
 10
183.030212102
 20
583.249787898
 30
0.0
 40
4.2
  0
LWPOLYLINE
  5
203
330
1F
100
AcDbEntity
  8
5
  6
LTYPE2
 62
     2
100
AcDbPolyline
 90
     6
 70
   129
 43
0.0
 10
191.69046614
 20
583.249787898
 10
187.360339121
 20
590.749787898
 10
178.700085083
 20
590.749787898
 10
174.369958064
 20
583.249787898
 10
178.700085083
 20
575.749787898
 10
187.360339121
 20
575.749787898
  0
CIRCLE
  5
204
330
1F
100
AcDbEntity
  8
5
  6
Continuous
 62
     2
100
AcDbCircle
 10
183.030212102
 20
583.249787898
 30
0.0
 40
5.5
  0
LINE
  5
205
330
1F
100
AcDbEntity
  8
2
  6
LTYPE1
 62
     2
100
AcDbLine
 10
1071.350212102
 20
707.998112949
 30
0.0
 11
1054.100438918
 21
610.169787898
 31
0.0
  0
LINE
  5
206
330
1F
100
AcDbEntity
  8
7
  6
Continuous
 62
     2
100
AcDbLine
 10
962.770212102
 20
659.119787898
 30
0.0
 11
959.301537186
 21
668.498929348
 31
0.0
  0
LINE
  5
207
330
1F
100
AcDbEntity
  8
7
  6
Continuous
 62
     2
100
AcDbLine
 10
962.770212102
 20
659.119787898
 30
0.0
 11
955.076680783
 21
665.508025201
 31
0.0
  0
LWPOLYLINE
  5
209
330
1F
100
AcDbEntity
  8
7
  6
Continuous
 62
     2
100
AcDbPolyline
 90
     3
 70
   128
 43
0.0
 10
962.770212102
 20
659.119787898
 10
940.810212102
 20
690.139787898
 10
1020.010212102
 20
690.139787898
  0
MTEXT
  5
20A
330
1F
100
AcDbEntity
  8
7
  6
Continuous
 62
     2
100
AcDbMText
 10
940.810212102
 20
694.139787898
 30
0.0
 40
16.0
 41
158.4
 71
     7
 72
     1
  1
\T1.075;\W0.664;Ｍ８溶接ナット
  7
KANJI10
 73
     1
 44
1.0
  0
LINE
  5
20C
330
1F
100
AcDbEntity
  8
7
  6
Continuous
 62
     2
100
AcDbLine
 10
736.250212102
 20
569.439787898
 30
0.0
 11
539.050212102
 21
569.439787898
 31
0.0
  0
MTEXT
  5
20D
330
1F
100
AcDbEntity
  8
7
  6
Continuous
 62
     2
100
AcDbMText
 10
539.050212102
 20
549.439787898
 30
0.0
 40
16.0
 41
307.2
 71
     7
 72
     1
  1
\T1.075;\W1.000;利用時は使用しない
  7
KANJI10
 73
     1
 44
1.0
  0
MTEXT
  5
20E
330
1F
100
AcDbEntity
  8
7
  6
Continuous
 62
     2
100
AcDbMText
 10
539.050212102
 20
573.439787898
 30
0.0
 40
16.0
 41
360.0
 71
     7
 72
     1
  1
\T1.075;\W0.957;先端の天／底面取付け穴
  7
KANJI10
 73
     1
 44
1.0
  0
CIRCLE
  5
20F
330
1F
100
AcDbEntity
  8
4
  6
Continuous
 62
     1
100
AcDbCircle
 10
971.350212102
 20
503.249787898
 30
0.0
 40
4.2
  0
LINE
  5
210
330
1F
100
AcDbEntity
  8
7
  6
Continuous
 62
     2
100
AcDbLine
 10
975.350212102
 20
503.249787898
 30
0.0
 11
1060.942021651
 21
503.249787898
 31
0.0
  0
LINE
  5
211
330
1F
100
AcDbEntity
  8
7
  6
Continuous
 62
     2
100
AcDbLine
 10
1052.942021651
 20
503.249787898
 30
0.0
 11
1055.530212102
 21
512.909046161
 31
0.0
  0
LINE
  5
212
330
1F
100
AcDbEntity
  8
7
  6
Continuous
 62
     2
100
AcDbLine
 10
1052.942021651
 20
503.249787898
 30
0.0
 11
1050.3538312
 21
512.909046161
 31
0.0
  0
LWPOLYLINE
  5
214
330
1F
100
AcDbEntity
  8
7
  6
Continuous
 62
     2
100
AcDbPolyline
 90
     3
 70
   128
 43
0.0
 10
1052.942021651
 20
503.249787898
 10
1052.942021651
 20
653.249787898
 10
1050.3538312
 20
643.590529635
  0
LINE
  5
215
330
1F
100
AcDbEntity
  8
7
  6
Continuous
 62
     2
100
AcDbLine
 10
1052.942021651
 20
653.249787898
 30
0.0
 11
1055.530212102
 21
643.590529635
 31
0.0
  0
LINE
  5
216
330
1F
100
AcDbEntity
  8
7
  6
Continuous
 62
     2
100
AcDbLine
 10
975.350212102
 20
653.249787898
 30
0.0
 11
1060.942021651
 21
653.249787898
 31
0.0
  0
MTEXT
  5
217
330
1F
100
AcDbEntity
  8
7
  6
Continuous
 62
     2
100
AcDbMText
 10
1048.942021651
 20
566.249787898
 30
0.0
 40
12.0
 41
48.0
 71
     7
 72
     1
  1
\T1.167;\W0.600;１５０
  7
KANJI9
 11
0.0
 21
1.0
 31
0.0
 73
     1
 44
1.0
  0
LINE
  5
218
330
1F
100
AcDbEntity
  8
2
  6
LTYPE1
 62
     2
100
AcDbLine
 10
1045.739013493
 20
562.749787898
 30
0.0
 11
1035.600212102
 21
505.249787898
 31
0.0
  0
MTEXT
  5
219
330
1F
100
AcDbEntity
  8
7
  6
Continuous
 62
     2
100
AcDbMText
 10
1022.350212102
 20
526.749787898
 30
0.0
 40
12.0
 41
48.0
 71
     7
 72
     1
  1
\T1.167;\W0.600;１２０
  7
KANJI9
 11
0.0
 21
1.0
 31
0.0
 73
     1
 44
1.0
  0
CIRCLE
  5
21A
330
1F
100
AcDbEntity
  8
4
  6
Continuous
 62
     1
100
AcDbCircle
 10
183.030212102
 20
433.249787898
 30
0.0
 40
4.2
  0
LINE
  5
21B
330
1F
100
AcDbEntity
  8
3
  6
Continuous
 62
     2
100
AcDbLine
 10
358.590212102
 20
588.249787898
 30
0.0
 11
352.990212102
 21
588.249787898
 31
0.0
  0
LINE
  5
21C
330
1F
100
AcDbEntity
  8
3
  6
Continuous
 62
     2
100
AcDbLine
 10
352.590212102
 20
578.949787898
 30
0.0
 11
352.590212102
 21
587.549787898
 31
0.0
  0
LINE
  5
21D
330
1F
100
AcDbEntity
  8
3
  6
Continuous
 62
     2
100
AcDbLine
 10
358.590212102
 20
578.249787898
 30
0.0
 11
352.990212102
 21
578.249787898
 31
0.0
  0
LWPOLYLINE
  5
21F
330
1F
100
AcDbEntity
  8
3
  6
Continuous
 62
     2
100
AcDbPolyline
 90
     3
 70
   128
 43
0.0
 10
352.990212102
 20
588.249787898
 10
352.990212102
 20
578.249787898
 10
352.590212102
 20
578.949787898
  0
LINE
  5
220
330
1F
100
AcDbEntity
  8
3
  6
Continuous
 62
     2
100
AcDbLine
 10
352.590212102
 20
587.549787898
 30
0.0
 11
352.990212102
 21
588.249787898
 31
0.0
  0
LINE
  5
221
330
1F
100
AcDbEntity
  8
3
  6
Continuous
 62
     2
100
AcDbLine
 10
352.990212102
 20
583.249787898
 30
0.0
 11
358.590212102
 21
583.249787898
 31
0.0
  0
LINE
  5
222
330
1F
100
AcDbEntity
  8
3
  6
Continuous
 62
     2
100
AcDbLine
 10
358.590212102
 20
578.649787898
 30
0.0
 11
352.990212102
 21
578.649787898
 31
0.0
  0
LINE
  5
223
330
1F
100
AcDbEntity
  8
3
  6
Continuous
 62
     2
100
AcDbLine
 10
358.590212102
 20
579.149787898
 30
0.0
 11
352.990212102
 21
579.149787898
 31
0.0
  0
LINE
  5
224
330
1F
100
AcDbEntity
  8
3
  6
Continuous
 62
     2
100
AcDbLine
 10
358.590212102
 20
579.749787898
 30
0.0
 11
352.990212102
 21
579.749787898
 31
0.0
  0
LINE
  5
225
330
1F
100
AcDbEntity
  8
3
  6
Continuous
 62
     2
100
AcDbLine
 10
358.590212102
 20
580.449787898
 30
0.0
 11
352.990212102
 21
580.449787898
 31
0.0
  0
LINE
  5
226
330
1F
100
AcDbEntity
  8
3
  6
Continuous
 62
     2
100
AcDbLine
 10
358.590212102
 20
581.349787898
 30
0.0
 11
352.990212102
 21
581.349787898
 31
0.0
  0
LINE
  5
227
330
1F
100
AcDbEntity
  8
3
  6
Continuous
 62
     2
100
AcDbLine
 10
358.590212102
 20
582.249787898
 30
0.0
 11
352.990212102
 21
582.249787898
 31
0.0
  0
LINE
  5
228
330
1F
100
AcDbEntity
  8
3
  6
Continuous
 62
     2
100
AcDbLine
 10
358.590212102
 20
587.849787898
 30
0.0
 11
352.990212102
 21
587.849787898
 31
0.0
  0
LINE
  5
229
330
1F
100
AcDbEntity
  8
3
  6
Continuous
 62
     2
100
AcDbLine
 10
358.590212102
 20
587.349787898
 30
0.0
 11
352.990212102
 21
587.349787898
 31
0.0
  0
LINE
  5
22A
330
1F
100
AcDbEntity
  8
3
  6
Continuous
 62
     2
100
AcDbLine
 10
358.590212102
 20
586.749787898
 30
0.0
 11
352.990212102
 21
586.749787898
 31
0.0
  0
LINE
  5
22B
330
1F
100
AcDbEntity
  8
3
  6
Continuous
 62
     2
100
AcDbLine
 10
358.590212102
 20
586.049787898
 30
0.0
 11
352.990212102
 21
586.049787898
 31
0.0
  0
LINE
  5
22C
330
1F
100
AcDbEntity
  8
3
  6
Continuous
 62
     2
100
AcDbLine
 10
358.590212102
 20
585.149787898
 30
0.0
 11
352.990212102
 21
585.149787898
 31
0.0
  0
LINE
  5
22D
330
1F
100
AcDbEntity
  8
3
  6
Continuous
 62
     2
100
AcDbLine
 10
358.590212102
 20
584.249787898
 30
0.0
 11
352.990212102
 21
584.249787898
 31
0.0
  0
LINE
  5
22E
330
1F
100
AcDbEntity
  8
3
  6
Continuous
 62
     2
100
AcDbLine
 10
790.790212102
 20
648.249787898
 30
0.0
 11
796.390212102
 21
648.249787898
 31
0.0
  0
LINE
  5
22F
330
1F
100
AcDbEntity
  8
3
  6
Continuous
 62
     2
100
AcDbLine
 10
796.790212102
 20
657.549787898
 30
0.0
 11
796.790212102
 21
648.949787898
 31
0.0
  0
LINE
  5
230
330
1F
100
AcDbEntity
  8
3
  6
Continuous
 62
     2
100
AcDbLine
 10
790.790212102
 20
658.249787898
 30
0.0
 11
796.390212102
 21
658.249787898
 31
0.0
  0
LWPOLYLINE
  5
232
330
1F
100
AcDbEntity
  8
3
  6
Continuous
 62
     2
100
AcDbPolyline
 90
     3
 70
   128
 43
0.0
 10
796.390212102
 20
648.249787898
 10
796.390212102
 20
658.249787898
 10
796.790212102
 20
657.549787898
  0
LINE
  5
233
330
1F
100
AcDbEntity
  8
3
  6
Continuous
 62
     2
100
AcDbLine
 10
796.790212102
 20
648.949787898
 30
0.0
 11
796.390212102
 21
648.249787898
 31
0.0
  0
LINE
  5
234
330
1F
100
AcDbEntity
  8
3
  6
Continuous
 62
     2
100
AcDbLine
 10
796.390212102
 20
653.249787898
 30
0.0
 11
790.790212102
 21
653.249787898
 31
0.0
  0
LINE
  5
235
330
1F
100
AcDbEntity
  8
3
  6
Continuous
 62
     2
100
AcDbLine
 10
790.790212102
 20
657.849787898
 30
0.0
 11
796.390212102
 21
657.849787898
 31
0.0
  0
LINE
  5
236
330
1F
100
AcDbEntity
  8
3
  6
Continuous
 62
     2
100
AcDbLine
 10
790.790212102
 20
657.349787898
 30
0.0
 11
796.390212102
 21
657.349787898
 31
0.0
  0
LINE
  5
237
330
1F
100
AcDbEntity
  8
3
  6
Continuous
 62
     2
100
AcDbLine
 10
790.790212102
 20
656.749787898
 30
0.0
 11
796.390212102
 21
656.749787898
 31
0.0
  0
LINE
  5
238
330
1F
100
AcDbEntity
  8
3
  6
Continuous
 62
     2
100
AcDbLine
 10
790.790212102
 20
656.049787898
 30
0.0
 11
796.390212102
 21
656.049787898
 31
0.0
  0
LINE
  5
239
330
1F
100
AcDbEntity
  8
3
  6
Continuous
 62
     2
100
AcDbLine
 10
790.790212102
 20
655.149787898
 30
0.0
 11
796.390212102
 21
655.149787898
 31
0.0
  0
LINE
  5
23A
330
1F
100
AcDbEntity
  8
3
  6
Continuous
 62
     2
100
AcDbLine
 10
790.790212102
 20
654.249787898
 30
0.0
 11
796.390212102
 21
654.249787898
 31
0.0
  0
LINE
  5
23B
330
1F
100
AcDbEntity
  8
3
  6
Continuous
 62
     2
100
AcDbLine
 10
790.790212102
 20
648.649787898
 30
0.0
 11
796.390212102
 21
648.649787898
 31
0.0
  0
LINE
  5
23C
330
1F
100
AcDbEntity
  8
3
  6
Continuous
 62
     2
100
AcDbLine
 10
790.790212102
 20
649.149787898
 30
0.0
 11
796.390212102
 21
649.149787898
 31
0.0
  0
LINE
  5
23D
330
1F
100
AcDbEntity
  8
3
  6
Continuous
 62
     2
100
AcDbLine
 10
790.790212102
 20
649.749787898
 30
0.0
 11
796.390212102
 21
649.749787898
 31
0.0
  0
LINE
  5
23E
330
1F
100
AcDbEntity
  8
3
  6
Continuous
 62
     2
100
AcDbLine
 10
790.790212102
 20
650.449787898
 30
0.0
 11
796.390212102
 21
650.449787898
 31
0.0
  0
LINE
  5
23F
330
1F
100
AcDbEntity
  8
3
  6
Continuous
 62
     2
100
AcDbLine
 10
790.790212102
 20
651.349787898
 30
0.0
 11
796.390212102
 21
651.349787898
 31
0.0
  0
LINE
  5
240
330
1F
100
AcDbEntity
  8
3
  6
Continuous
 62
     2
100
AcDbLine
 10
790.790212102
 20
652.249787898
 30
0.0
 11
796.390212102
 21
652.249787898
 31
0.0
  0
LINE
  5
241
330
1F
100
AcDbEntity
  8
3
  6
Continuous
 62
     2
100
AcDbLine
 10
361.690212102
 20
589.549787898
 30
0.0
 11
361.690212102
 21
576.949787898
 31
0.0
  0
CIRCLE
  5
242
330
1F
100
AcDbEntity
  8
3
  6
Continuous
 62
     2
100
AcDbCircle
 10
165.030212102
 20
583.249787898
 30
0.0
 40
4.3
  0
CIRCLE
  5
243
330
1F
100
AcDbEntity
  8
3
  6
Continuous
 62
     2
100
AcDbCircle
 10
165.030212102
 20
583.249787898
 30
0.0
 40
5.0
  0
LWPOLYLINE
  5
245
330
1F
100
AcDbEntity
  8
3
  6
Continuous
 62
     2
100
AcDbPolyline
 90
     6
 70
   129
 43
0.0
 10
167.530212102
 20
584.649787898
 10
165.030212102
 20
586.149787898
 10
162.530212102
 20
584.649787898
 10
162.530212102
 20
581.849787898
 10
165.030212102
 20
580.349787898
 10
167.530212102
 20
581.849787898
  0
CIRCLE
  5
246
330
1F
100
AcDbEntity
  8
3
  6
Continuous
 62
     2
100
AcDbCircle
 10
201.030212102
 20
583.249787898
 30
0.0
 40
6.1
  0
CIRCLE
  5
247
330
1F
100
AcDbEntity
  8
3
  6
Continuous
 62
     2
100
AcDbCircle
 10
201.030212102
 20
583.249787898
 30
0.0
 40
6.3
  0
CIRCLE
  5
248
330
1F
100
AcDbEntity
  8
3
  6
Continuous
 62
     2
100
AcDbCircle
 10
201.030212102
 20
583.249787898
 30
0.0
 40
4.3
  0
CIRCLE
  5
249
330
1F
100
AcDbEntity
  8
3
  6
Continuous
 62
     2
100
AcDbCircle
 10
201.030212102
 20
583.249787898
 30
0.0
 40
5.0
  0
LWPOLYLINE
  5
24B
330
1F
100
AcDbEntity
  8
3
  6
Continuous
 62
     2
100
AcDbPolyline
 90
     6
 70
   129
 43
0.0
 10
203.530212102
 20
584.649787898
 10
201.030212102
 20
586.149787898
 10
198.530212102
 20
584.649787898
 10
198.530212102
 20
581.849787898
 10
201.030212102
 20
580.349787898
 10
203.530212102
 20
581.849787898
  0
CIRCLE
  5
24C
330
1F
100
AcDbEntity
  8
3
  6
Continuous
 62
     2
100
AcDbCircle
 10
953.350212102
 20
653.249787898
 30
0.0
 40
6.1
  0
CIRCLE
  5
24D
330
1F
100
AcDbEntity
  8
3
  6
Continuous
 62
     2
100
AcDbCircle
 10
953.350212102
 20
653.249787898
 30
0.0
 40
6.3
  0
CIRCLE
  5
24E
330
1F
100
AcDbEntity
  8
3
  6
Continuous
 62
     2
100
AcDbCircle
 10
953.350212102
 20
653.249787898
 30
0.0
 40
4.3
  0
CIRCLE
  5
24F
330
1F
100
AcDbEntity
  8
3
  6
Continuous
 62
     2
100
AcDbCircle
 10
953.350212102
 20
653.249787898
 30
0.0
 40
5.0
  0
LWPOLYLINE
  5
251
330
1F
100
AcDbEntity
  8
3
  6
Continuous
 62
     2
100
AcDbPolyline
 90
     6
 70
   129
 43
0.0
 10
955.850212102
 20
654.649787898
 10
953.350212102
 20
656.149787898
 10
950.850212102
 20
654.649787898
 10
950.850212102
 20
651.849787898
 10
953.350212102
 20
650.349787898
 10
955.850212102
 20
651.849787898
  0
CIRCLE
  5
252
330
1F
100
AcDbEntity
  8
3
  6
Continuous
 62
     2
100
AcDbCircle
 10
989.350212102
 20
653.249787898
 30
0.0
 40
6.1
  0
CIRCLE
  5
253
330
1F
100
AcDbEntity
  8
3
  6
Continuous
 62
     2
100
AcDbCircle
 10
989.350212102
 20
653.249787898
 30
0.0
 40
6.3
  0
CIRCLE
  5
254
330
1F
100
AcDbEntity
  8
3
  6
Continuous
 62
     2
100
AcDbCircle
 10
989.350212102
 20
653.249787898
 30
0.0
 40
4.3
  0
CIRCLE
  5
255
330
1F
100
AcDbEntity
  8
3
  6
Continuous
 62
     2
100
AcDbCircle
 10
989.350212102
 20
653.249787898
 30
0.0
 40
5.0
  0
LWPOLYLINE
  5
257
330
1F
100
AcDbEntity
  8
3
  6
Continuous
 62
     2
100
AcDbPolyline
 90
     6
 70
   129
 43
0.0
 10
991.850212102
 20
654.649787898
 10
989.350212102
 20
656.149787898
 10
986.850212102
 20
654.649787898
 10
986.850212102
 20
651.849787898
 10
989.350212102
 20
650.349787898
 10
991.850212102
 20
651.849787898
  0
CIRCLE
  5
258
330
1F
100
AcDbEntity
  8
4
  6
Continuous
 62
     1
100
AcDbCircle
 10
634.690212102
 20
247.829787898
 30
0.0
 40
4.2
  0
CIRCLE
  5
259
330
1F
100
AcDbEntity
  8
4
  6
Continuous
 62
     1
100
AcDbCircle
 10
764.690212102
 20
247.829787898
 30
0.0
 40
4.2
  0
CIRCLE
  5
25A
330
1F
100
AcDbEntity
  8
4
  6
Continuous
 62
     1
100
AcDbCircle
 10
704.690212102
 20
247.829787898
 30
0.0
 40
4.2
  0
CIRCLE
  5
25B
330
1F
100
AcDbEntity
  8
4
  6
Continuous
 62
     1
100
AcDbCircle
 10
574.690212102
 20
247.829787898
 30
0.0
 40
4.2
  0
CIRCLE
  5
25C
330
1F
100
AcDbEntity
  8
4
  6
Continuous
 62
     1
100
AcDbCircle
 10
514.690212102
 20
247.829787898
 30
0.0
 40
4.2
  0
CIRCLE
  5
25D
330
1F
100
AcDbEntity
  8
4
  6
Continuous
 62
     1
100
AcDbCircle
 10
384.690212102
 20
247.829787898
 30
0.0
 40
4.2
  0
CIRCLE
  5
25E
330
1F
100
AcDbEntity
  8
4
  6
Continuous
 62
     1
100
AcDbCircle
 10
444.690212102
 20
247.829787898
 30
0.0
 40
4.2
  0
ARC
  5
25F
330
1F
100
AcDbEntity
  8
4
  6
Continuous
 62
     1
100
AcDbCircle
 10
783.690212102
 20
273.829787898
 30
0.0
 40
4.0
100
AcDbArc
 50
0.0
 51
90.0
  0
LINE
  5
260
330
1F
100
AcDbEntity
  8
4
  6
Continuous
 62
     1
100
AcDbLine
 10
783.690212102
 20
277.829787898
 30
0.0
 11
783.690212102
 21
275.829787898
 31
0.0
  0
LINE
  5
261
330
1F
100
AcDbEntity
  8
4
  6
Continuous
 62
     1
100
AcDbLine
 10
785.690212102
 20
273.829787898
 30
0.0
 11
787.690212102
 21
273.829787898
 31
0.0
  0
ARC
  5
262
330
1F
100
AcDbEntity
  8
4
  6
Continuous
 62
     1
100
AcDbCircle
 10
785.690212102
 20
275.829787898
 30
0.0
 40
2.0
100
AcDbArc
 50
180.0
 51
270.0
  0
ARC
  5
263
330
1F
100
AcDbEntity
  8
4
  6
Continuous
 62
     1
100
AcDbCircle
 10
783.690212102
 20
273.829787898
 30
0.0
 40
2.0
100
AcDbArc
 50
0.0
 51
90.0
  0
ARC
  5
264
330
1F
100
AcDbEntity
  8
4
  6
Continuous
 62
     1
100
AcDbCircle
 10
783.690212102
 20
221.829787898
 30
0.0
 40
4.0
100
AcDbArc
 50
270.0
 51
0.0
  0
LINE
  5
265
330
1F
100
AcDbEntity
  8
4
  6
Continuous
 62
     1
100
AcDbLine
 10
783.690212102
 20
217.829787898
 30
0.0
 11
783.690212102
 21
219.829787898
 31
0.0
  0
LINE
  5
266
330
1F
100
AcDbEntity
  8
4
  6
Continuous
 62
     1
100
AcDbLine
 10
785.690212102
 20
221.829787898
 30
0.0
 11
787.690212102
 21
221.829787898
 31
0.0
  0
ARC
  5
267
330
1F
100
AcDbEntity
  8
4
  6
Continuous
 62
     1
100
AcDbCircle
 10
785.690212102
 20
219.829787898
 30
0.0
 40
2.0
100
AcDbArc
 50
90.0
 51
180.0
  0
ARC
  5
268
330
1F
100
AcDbEntity
  8
4
  6
Continuous
 62
     1
100
AcDbCircle
 10
783.690212102
 20
221.829787898
 30
0.0
 40
2.0
100
AcDbArc
 50
270.0
 51
0.0
  0
LINE
  5
269
330
1F
100
AcDbEntity
  8
4
  6
Continuous
 62
     1
100
AcDbLine
 10
787.690212102
 20
221.829787898
 30
0.0
 11
787.690212102
 21
273.829787898
 31
0.0
  0
LINE
  5
26A
330
1F
100
AcDbEntity
  8
4
  6
LTYPE2
 62
     2
100
AcDbLine
 10
785.690212102
 20
221.829787898
 30
0.0
 11
785.690212102
 21
273.829787898
 31
0.0
  0
ARC
  5
26B
330
1F
100
AcDbEntity
  8
4
  6
Continuous
 62
     1
100
AcDbCircle
 10
365.690212102
 20
273.829787898
 30
0.0
 40
4.0
100
AcDbArc
 50
90.0
 51
180.0
  0
LINE
  5
26C
330
1F
100
AcDbEntity
  8
4
  6
Continuous
 62
     1
100
AcDbLine
 10
365.690212102
 20
277.829787898
 30
0.0
 11
365.690212102
 21
275.829787898
 31
0.0
  0
LINE
  5
26D
330
1F
100
AcDbEntity
  8
4
  6
Continuous
 62
     1
100
AcDbLine
 10
363.690212102
 20
273.829787898
 30
0.0
 11
361.690212102
 21
273.829787898
 31
0.0
  0
ARC
  5
26E
330
1F
100
AcDbEntity
  8
4
  6
Continuous
 62
     1
100
AcDbCircle
 10
363.690212102
 20
275.829787898
 30
0.0
 40
2.0
100
AcDbArc
 50
270.0
 51
0.0
  0
ARC
  5
26F
330
1F
100
AcDbEntity
  8
4
  6
Continuous
 62
     1
100
AcDbCircle
 10
365.690212102
 20
273.829787898
 30
0.0
 40
2.0
100
AcDbArc
 50
90.0
 51
180.0
  0
ARC
  5
270
330
1F
100
AcDbEntity
  8
4
  6
Continuous
 62
     1
100
AcDbCircle
 10
365.690212102
 20
221.829787898
 30
0.0
 40
4.0
100
AcDbArc
 50
180.0
 51
270.0
  0
LINE
  5
271
330
1F
100
AcDbEntity
  8
4
  6
Continuous
 62
     1
100
AcDbLine
 10
365.690212102
 20
217.829787898
 30
0.0
 11
365.690212102
 21
219.829787898
 31
0.0
  0
LINE
  5
272
330
1F
100
AcDbEntity
  8
4
  6
Continuous
 62
     1
100
AcDbLine
 10
363.690212102
 20
221.829787898
 30
0.0
 11
361.690212102
 21
221.829787898
 31
0.0
  0
ARC
  5
273
330
1F
100
AcDbEntity
  8
4
  6
Continuous
 62
     1
100
AcDbCircle
 10
363.690212102
 20
219.829787898
 30
0.0
 40
2.0
100
AcDbArc
 50
360.0
 51
90.0
  0
ARC
  5
274
330
1F
100
AcDbEntity
  8
4
  6
Continuous
 62
     1
100
AcDbCircle
 10
365.690212102
 20
221.829787898
 30
0.0
 40
2.0
100
AcDbArc
 50
180.0
 51
270.0
  0
LINE
  5
275
330
1F
100
AcDbEntity
  8
4
  6
Continuous
 62
     1
100
AcDbLine
 10
361.690212102
 20
221.829787898
 30
0.0
 11
361.690212102
 21
273.829787898
 31
0.0
  0
LINE
  5
276
330
1F
100
AcDbEntity
  8
4
  6
LTYPE2
 62
     2
100
AcDbLine
 10
363.690212102
 20
221.829787898
 30
0.0
 11
363.690212102
 21
273.829787898
 31
0.0
  0
LINE
  5
277
330
1F
100
AcDbEntity
  8
4
  6
LTYPE2
 62
     2
100
AcDbLine
 10
783.690212102
 20
275.829787898
 30
0.0
 11
365.690212102
 21
275.829787898
 31
0.0
  0
LINE
  5
278
330
1F
100
AcDbEntity
  8
4
  6
Continuous
 62
     1
100
AcDbLine
 10
783.690212102
 20
277.829787898
 30
0.0
 11
365.690212102
 21
277.829787898
 31
0.0
  0
LINE
  5
279
330
1F
100
AcDbEntity
  8
4
  6
LTYPE2
 62
     2
100
AcDbLine
 10
783.690212102
 20
219.829787898
 30
0.0
 11
365.690212102
 21
219.829787898
 31
0.0
  0
LINE
  5
27A
330
1F
100
AcDbEntity
  8
4
  6
Continuous
 62
     1
100
AcDbLine
 10
783.690212102
 20
217.829787898
 30
0.0
 11
365.690212102
 21
217.829787898
 31
0.0
  0
LINE
  5
27B
330
1F
100
AcDbEntity
  8
3
  6
LTYPE3
 62
     2
100
AcDbLine
 10
574.690212102
 20
289.909787898
 30
0.0
 11
574.690212102
 21
205.749787898
 31
0.0
  0
LINE
  5
27C
330
1F
100
AcDbEntity
  8
7
  6
Continuous
 62
     2
100
AcDbLine
 10
634.690212102
 20
243.829787898
 30
0.0
 11
634.690212102
 21
305.829787898
 31
0.0
  0
LINE
  5
27D
330
1F
100
AcDbEntity
  8
7
  6
Continuous
 62
     2
100
AcDbLine
 10
634.690212102
 20
297.829787898
 30
0.0
 11
625.030953839
 21
300.417978349
 31
0.0
  0
LINE
  5
27E
330
1F
100
AcDbEntity
  8
7
  6
Continuous
 62
     2
100
AcDbLine
 10
634.690212102
 20
297.829787898
 30
0.0
 11
625.030953839
 21
295.241597447
 31
0.0
  0
LWPOLYLINE
  5
280
330
1F
100
AcDbEntity
  8
7
  6
Continuous
 62
     2
100
AcDbPolyline
 90
     3
 70
   128
 43
0.0
 10
634.690212102
 20
297.829787898
 10
514.690212102
 20
297.829787898
 10
524.349470365
 20
295.241597447
  0
LINE
  5
281
330
1F
100
AcDbEntity
  8
7
  6
Continuous
 62
     2
100
AcDbLine
 10
514.690212102
 20
297.829787898
 30
0.0
 11
524.349470365
 21
300.417978349
 31
0.0
  0
LINE
  5
282
330
1F
100
AcDbEntity
  8
7
  6
Continuous
 62
     2
100
AcDbLine
 10
514.690212102
 20
243.829787898
 30
0.0
 11
514.690212102
 21
305.829787898
 31
0.0
  0
MTEXT
  5
283
330
1F
100
AcDbEntity
  8
7
  6
Continuous
 62
     2
100
AcDbMText
 10
562.690212102
 20
301.829787898
 30
0.0
 40
12.0
 41
48.0
 71
     7
 72
     1
  1
\T1.167;\W0.600;１２０
  7
KANJI8
 73
     1
 44
1.0
  0
LINE
  5
284
330
1F
100
AcDbEntity
  8
7
  6
Continuous
 62
     2
100
AcDbLine
 10
634.690212102
 20
297.829787898
 30
0.0
 11
644.349470365
 21
295.241597447
 31
0.0
  0
LINE
  5
285
330
1F
100
AcDbEntity
  8
7
  6
Continuous
 62
     2
100
AcDbLine
 10
634.690212102
 20
297.829787898
 30
0.0
 11
644.349470365
 21
300.417978349
 31
0.0
  0
LWPOLYLINE
  5
287
330
1F
100
AcDbEntity
  8
7
  6
Continuous
 62
     2
100
AcDbPolyline
 90
     3
 70
   128
 43
0.0
 10
634.690212102
 20
297.829787898
 10
764.690212102
 20
297.829787898
 10
755.030953839
 20
300.417978349
  0
LINE
  5
288
330
1F
100
AcDbEntity
  8
7
  6
Continuous
 62
     2
100
AcDbLine
 10
764.690212102
 20
297.829787898
 30
0.0
 11
755.030953839
 21
295.241597447
 31
0.0
  0
LINE
  5
289
330
1F
100
AcDbEntity
  8
7
  6
Continuous
 62
     2
100
AcDbLine
 10
764.690212102
 20
243.829787898
 30
0.0
 11
764.690212102
 21
305.829787898
 31
0.0
  0
MTEXT
  5
28A
330
1F
100
AcDbEntity
  8
7
  6
Continuous
 62
     2
100
AcDbMText
 10
687.690212102
 20
301.829787898
 30
0.0
 40
12.0
 41
48.0
 71
     7
 72
     1
  1
\T1.167;\W0.600;１３０
  7
KANJI8
 73
     1
 44
1.0
  0
LINE
  5
28B
330
1F
100
AcDbEntity
  8
7
  6
Continuous
 62
     2
100
AcDbLine
 10
514.690212102
 20
297.829787898
 30
0.0
 11
505.030953839
 21
300.417978349
 31
0.0
  0
LINE
  5
28C
330
1F
100
AcDbEntity
  8
7
  6
Continuous
 62
     2
100
AcDbLine
 10
514.690212102
 20
297.829787898
 30
0.0
 11
505.030953839
 21
295.241597447
 31
0.0
  0
LWPOLYLINE
  5
28E
330
1F
100
AcDbEntity
  8
7
  6
Continuous
 62
     2
100
AcDbPolyline
 90
     3
 70
   128
 43
0.0
 10
514.690212102
 20
297.829787898
 10
384.690212102
 20
297.829787898
 10
394.349470365
 20
295.241597447
  0
LINE
  5
28F
330
1F
100
AcDbEntity
  8
7
  6
Continuous
 62
     2
100
AcDbLine
 10
384.690212102
 20
297.829787898
 30
0.0
 11
394.349470365
 21
300.417978349
 31
0.0
  0
LINE
  5
290
330
1F
100
AcDbEntity
  8
7
  6
Continuous
 62
     2
100
AcDbLine
 10
384.690212102
 20
243.829787898
 30
0.0
 11
384.690212102
 21
305.829787898
 31
0.0
  0
MTEXT
  5
291
330
1F
100
AcDbEntity
  8
7
  6
Continuous
 62
     2
100
AcDbMText
 10
437.690212102
 20
301.829787898
 30
0.0
 40
12.0
 41
48.0
 71
     7
 72
     1
  1
\T1.167;\W0.600;１３０
  7
KANJI8
 73
     1
 44
1.0
  0
LINE
  5
292
330
1F
100
AcDbEntity
  8
7
  6
Continuous
 62
     2
100
AcDbLine
 10
574.690212102
 20
201.749787898
 30
0.0
 11
574.690212102
 21
186.829787898
 31
0.0
  0
LINE
  5
293
330
1F
100
AcDbEntity
  8
7
  6
Continuous
 62
     2
100
AcDbLine
 10
574.690212102
 20
194.829787898
 30
0.0
 11
584.349470365
 21
192.241597447
 31
0.0
  0
LINE
  5
294
330
1F
100
AcDbEntity
  8
7
  6
Continuous
 62
     2
100
AcDbLine
 10
574.690212102
 20
194.829787898
 30
0.0
 11
584.349470365
 21
197.417978349
 31
0.0
  0
LWPOLYLINE
  5
296
330
1F
100
AcDbEntity
  8
7
  6
Continuous
 62
     2
100
AcDbPolyline
 90
     3
 70
   128
 43
0.0
 10
574.690212102
 20
194.829787898
 10
704.690212102
 20
194.829787898
 10
695.030953839
 20
197.417978349
  0
LINE
  5
297
330
1F
100
AcDbEntity
  8
7
  6
Continuous
 62
     2
100
AcDbLine
 10
704.690212102
 20
194.829787898
 30
0.0
 11
695.030953839
 21
192.241597447
 31
0.0
  0
LINE
  5
298
330
1F
100
AcDbEntity
  8
7
  6
Continuous
 62
     2
100
AcDbLine
 10
704.690212102
 20
251.829787898
 30
0.0
 11
704.690212102
 21
186.829787898
 31
0.0
  0
MTEXT
  5
299
330
1F
100
AcDbEntity
  8
7
  6
Continuous
 62
     2
100
AcDbMText
 10
627.690212102
 20
198.829787898
 30
0.0
 40
12.0
 41
48.0
 71
     7
 72
     1
  1
\T1.167;\W0.600;１３０
  7
KANJI8
 73
     1
 44
1.0
  0
LINE
  5
29A
330
1F
100
AcDbEntity
  8
7
  6
Continuous
 62
     2
100
AcDbLine
 10
574.690212102
 20
194.829787898
 30
0.0
 11
565.030953839
 21
197.417978349
 31
0.0
  0
LINE
  5
29B
330
1F
100
AcDbEntity
  8
7
  6
Continuous
 62
     2
100
AcDbLine
 10
574.690212102
 20
194.829787898
 30
0.0
 11
565.030953839
 21
192.241597447
 31
0.0
  0
LWPOLYLINE
  5
29D
330
1F
100
AcDbEntity
  8
7
  6
Continuous
 62
     2
100
AcDbPolyline
 90
     3
 70
   128
 43
0.0
 10
574.690212102
 20
194.829787898
 10
444.690212102
 20
194.829787898
 10
454.349470365
 20
192.241597447
  0
LINE
  5
29E
330
1F
100
AcDbEntity
  8
7
  6
Continuous
 62
     2
100
AcDbLine
 10
444.690212102
 20
194.829787898
 30
0.0
 11
454.349470365
 21
197.417978349
 31
0.0
  0
LINE
  5
29F
330
1F
100
AcDbEntity
  8
7
  6
Continuous
 62
     2
100
AcDbLine
 10
444.690212102
 20
251.829787898
 30
0.0
 11
444.690212102
 21
186.829787898
 31
0.0
  0
MTEXT
  5
2A0
330
1F
100
AcDbEntity
  8
7
  6
Continuous
 62
     2
100
AcDbMText
 10
497.690212102
 20
198.829787898
 30
0.0
 40
12.0
 41
48.0
 71
     7
 72
     1
  1
\T1.167;\W0.600;１３０
  7
KANJI8
 73
     1
 44
1.0
  0
LINE
  5
2A1
330
1F
100
AcDbEntity
  8
7
  6
Continuous
 62
     2
100
AcDbLine
 10
361.690212102
 20
277.829787898
 30
0.0
 11
361.690212102
 21
330.829787898
 31
0.0
  0
LINE
  5
2A2
330
1F
100
AcDbEntity
  8
7
  6
Continuous
 62
     2
100
AcDbLine
 10
361.690212102
 20
322.829787898
 30
0.0
 11
371.349470365
 21
320.241597447
 31
0.0
  0
LINE
  5
2A3
330
1F
100
AcDbEntity
  8
7
  6
Continuous
 62
     2
100
AcDbLine
 10
361.690212102
 20
322.829787898
 30
0.0
 11
371.349470365
 21
325.417978349
 31
0.0
  0
LWPOLYLINE
  5
2A5
330
1F
100
AcDbEntity
  8
7
  6
Continuous
 62
     2
100
AcDbPolyline
 90
     3
 70
   128
 43
0.0
 10
361.690212102
 20
322.829787898
 10
787.690212102
 20
322.829787898
 10
778.030953839
 20
325.417978349
  0
LINE
  5
2A6
330
1F
100
AcDbEntity
  8
7
  6
Continuous
 62
     2
100
AcDbLine
 10
787.690212102
 20
322.829787898
 30
0.0
 11
778.030953839
 21
320.241597447
 31
0.0
  0
LINE
  5
2A7
330
1F
100
AcDbEntity
  8
7
  6
Continuous
 62
     2
100
AcDbLine
 10
787.690212102
 20
277.829787898
 30
0.0
 11
787.690212102
 21
330.829787898
 31
0.0
  0
MTEXT
  5
2A8
330
1F
100
AcDbEntity
  8
7
  6
Continuous
 62
     2
100
AcDbMText
 10
562.690212102
 20
326.829787898
 30
0.0
 40
12.0
 41
48.0
 71
     7
 72
     1
  1
\T1.167;\W0.600;４２６
  7
KANJI8
 73
     1
 44
1.0
  0
LINE
  5
2A9
330
1F
100
AcDbEntity
  8
7
  6
Continuous
 62
     2
100
AcDbLine
 10
787.690212102
 20
277.829787898
 30
0.0
 11
820.690212102
 21
277.829787898
 31
0.0
  0
LINE
  5
2AA
330
1F
100
AcDbEntity
  8
7
  6
Continuous
 62
     2
100
AcDbLine
 10
812.690212102
 20
277.829787898
 30
0.0
 11
810.102021651
 21
268.170529635
 31
0.0
  0
LINE
  5
2AB
330
1F
100
AcDbEntity
  8
7
  6
Continuous
 62
     2
100
AcDbLine
 10
812.690212102
 20
277.829787898
 30
0.0
 11
815.278402553
 21
268.170529635
 31
0.0
  0
LWPOLYLINE
  5
2AD
330
1F
100
AcDbEntity
  8
7
  6
Continuous
 62
     2
100
AcDbPolyline
 90
     3
 70
   128
 43
0.0
 10
812.690212102
 20
277.829787898
 10
812.690212102
 20
217.829787898
 10
815.278402553
 20
227.489046161
  0
LINE
  5
2AE
330
1F
100
AcDbEntity
  8
7
  6
Continuous
 62
     2
100
AcDbLine
 10
812.690212102
 20
217.829787898
 30
0.0
 11
810.102021651
 21
227.489046161
 31
0.0
  0
LINE
  5
2AF
330
1F
100
AcDbEntity
  8
7
  6
Continuous
 62
     2
100
AcDbLine
 10
787.690212102
 20
217.829787898
 30
0.0
 11
820.690212102
 21
217.829787898
 31
0.0
  0
MTEXT
  5
2B0
330
1F
100
AcDbEntity
  8
7
  6
Continuous
 62
     2
100
AcDbMText
 10
808.690212102
 20
240.029787898
 30
0.0
 40
12.0
 41
31.2
 71
     7
 72
     1
  1
\T1.167;\W0.600;６０
  7
KANJI8
 11
0.0
 21
1.0
 31
0.0
 73
     1
 44
1.0
  0
LINE
  5
2B1
330
1F
100
AcDbEntity
  8
7
  6
Continuous
 62
     2
100
AcDbLine
 10
440.460212102
 20
243.159787898
 30
0.0
 11
433.52166533
 21
235.958637386
 31
0.0
  0
LINE
  5
2B2
330
1F
100
AcDbEntity
  8
7
  6
Continuous
 62
     2
100
AcDbLine
 10
440.460212102
 20
243.159787898
 30
0.0
 11
438.051829589
 21
233.454135232
 31
0.0
  0
LWPOLYLINE
  5
2B4
330
1F
100
AcDbEntity
  8
7
  6
Continuous
 62
     2
100
AcDbPolyline
 90
     3
 70
   128
 43
0.0
 10
440.460212102
 20
243.159787898
 10
401.860212102
 20
173.339787898
 10
352.660212102
 20
173.339787898
  0
MTEXT
  5
2B5
330
1F
100
AcDbEntity
  8
7
  6
Continuous
 62
     2
100
AcDbMText
 10
352.660212102
 20
177.339787898
 30
0.0
 40
12.0
 41
96.0
 71
     7
 72
     1
  1
\T1.100;\W0.615;７－φ８．４
  7
KANJI11
 73
     1
 44
1.0
  0
LINE
  5
2B7
330
1F
100
AcDbEntity
  8
7
  6
Continuous
 62
     2
100
AcDbLine
 10
798.37
 20
644.7
 30
0.0
 11
800.819658725
 21
635.004682979
 31
0.0
  0
LINE
  5
2B8
330
1F
100
AcDbEntity
  8
7
  6
Continuous
 62
     2
100
AcDbLine
 10
798.37
 20
644.7
 30
0.0
 11
805.339125197
 21
637.528438525
 31
0.0
  0
LINE
  5
2B9
330
1F
100
AcDbEntity
  8
7
  6
Continuous
 62
     2
100
AcDbLine
 10
821.836846256
 20
602.676268728
 30
0.0
 11
736.250212102
 21
569.439787898
 31
0.0
  0
LINE
  5
2BA
330
1F
100
AcDbEntity
  8
7
  6
Continuous
 62
     2
100
AcDbLine
 10
798.37
 20
644.7
 30
0.0
 11
821.836846256
 21
602.676268728
 31
0.0
  0
LINE
  5
2BB
330
1F
100
AcDbEntity
  8
7
  6
Continuous
 62
     2
100
AcDbLine
 10
964.870212102
 20
494.169787898
 30
0.0
 11
958.770212857
 21
486.245773182
 31
0.0
  0
LINE
  5
2BC
330
1F
100
AcDbEntity
  8
7
  6
Continuous
 62
     2
100
AcDbLine
 10
964.870212102
 20
494.169787898
 30
0.0
 11
963.549465151
 21
484.257390232
 31
0.0
  0
LWPOLYLINE
  5
2BE
330
1F
100
AcDbEntity
  8
7
  6
Continuous
 62
     2
100
AcDbPolyline
 90
     3
 70
   128
 43
0.0
 10
964.870212102
 20
494.169787898
 10
938.110212102
 20
429.849787898
 10
894.310212102
 20
429.849787898
  0
MTEXT
  5
2BF
330
1F
100
AcDbEntity
  8
7
  6
Continuous
 62
     2
100
AcDbMText
 10
894.310212102
 20
433.849787898
 30
0.0
 40
12.0
 41
87.6
 71
     7
 72
     1
  1
\T1.111;\W0.557;３－φ８．４
  7
KANJI3
 73
     1
 44
1.0
  0
LINE
  5
2C0
330
1F
100
AcDbEntity
  8
3
  6
Continuous
 62
     2
100
AcDbLine
 10
378.090212102
 20
624.749787898
 30
0.0
 11
370.590212102
 21
624.749787898
 31
0.0
  0
LINE
  5
2C1
330
1F
100
AcDbEntity
  8
3
  6
Continuous
 62
     2
100
AcDbLine
 10
378.090212102
 20
611.749787898
 30
0.0
 11
370.590212102
 21
611.749787898
 31
0.0
  0
LINE
  5
2C2
330
1F
100
AcDbEntity
  8
3
  6
Continuous
 62
     2
100
AcDbLine
 10
370.590212102
 20
618.249787898
 30
0.0
 11
378.090212102
 21
618.249787898
 31
0.0
  0
LINE
  5
2C3
330
1F
100
AcDbEntity
  8
3
  6
Continuous
 62
     2
100
AcDbLine
 10
370.090212102
 20
612.549787898
 30
0.0
 11
370.090212102
 21
623.949787898
 31
0.0
  0
LWPOLYLINE
  5
2C5
330
1F
100
AcDbEntity
  8
3
  6
Continuous
 62
     2
100
AcDbPolyline
 90
     3
 70
   128
 43
0.0
 10
370.590212102
 20
624.749787898
 10
370.590212102
 20
611.749787898
 10
370.090212102
 20
612.549787898
  0
LINE
  5
2C6
330
1F
100
AcDbEntity
  8
3
  6
Continuous
 62
     2
100
AcDbLine
 10
370.090212102
 20
623.949787898
 30
0.0
 11
370.590212102
 21
624.749787898
 31
0.0
  0
LINE
  5
2C7
330
1F
100
AcDbEntity
  8
3
  6
Continuous
 62
     2
100
AcDbLine
 10
370.590212102
 20
612.249787898
 30
0.0
 11
378.090212102
 21
612.249787898
 31
0.0
  0
LINE
  5
2C8
330
1F
100
AcDbEntity
  8
3
  6
Continuous
 62
     2
100
AcDbLine
 10
370.590212102
 20
612.949787898
 30
0.0
 11
378.090212102
 21
612.949787898
 31
0.0
  0
LINE
  5
2C9
330
1F
100
AcDbEntity
  8
3
  6
Continuous
 62
     2
100
AcDbLine
 10
370.590212102
 20
613.649787898
 30
0.0
 11
378.090212102
 21
613.649787898
 31
0.0
  0
LINE
  5
2CA
330
1F
100
AcDbEntity
  8
3
  6
Continuous
 62
     2
100
AcDbLine
 10
370.590212102
 20
614.449787898
 30
0.0
 11
378.090212102
 21
614.449787898
 31
0.0
  0
LINE
  5
2CB
330
1F
100
AcDbEntity
  8
3
  6
Continuous
 62
     2
100
AcDbLine
 10
370.590212102
 20
615.249787898
 30
0.0
 11
378.090212102
 21
615.249787898
 31
0.0
  0
LINE
  5
2CC
330
1F
100
AcDbEntity
  8
3
  6
Continuous
 62
     2
100
AcDbLine
 10
370.590212102
 20
616.149787898
 30
0.0
 11
378.090212102
 21
616.149787898
 31
0.0
  0
LINE
  5
2CD
330
1F
100
AcDbEntity
  8
3
  6
Continuous
 62
     2
100
AcDbLine
 10
370.590212102
 20
617.149787898
 30
0.0
 11
378.090212102
 21
617.149787898
 31
0.0
  0
LINE
  5
2CE
330
1F
100
AcDbEntity
  8
3
  6
Continuous
 62
     2
100
AcDbLine
 10
370.590212102
 20
624.249787898
 30
0.0
 11
378.090212102
 21
624.249787898
 31
0.0
  0
LINE
  5
2CF
330
1F
100
AcDbEntity
  8
3
  6
Continuous
 62
     2
100
AcDbLine
 10
370.590212102
 20
623.549787898
 30
0.0
 11
378.090212102
 21
623.549787898
 31
0.0
  0
LINE
  5
2D0
330
1F
100
AcDbEntity
  8
3
  6
Continuous
 62
     2
100
AcDbLine
 10
370.590212102
 20
622.849787898
 30
0.0
 11
378.090212102
 21
622.849787898
 31
0.0
  0
LINE
  5
2D1
330
1F
100
AcDbEntity
  8
3
  6
Continuous
 62
     2
100
AcDbLine
 10
370.590212102
 20
622.049787898
 30
0.0
 11
378.090212102
 21
622.049787898
 31
0.0
  0
LINE
  5
2D2
330
1F
100
AcDbEntity
  8
3
  6
Continuous
 62
     2
100
AcDbLine
 10
370.590212102
 20
621.249787898
 30
0.0
 11
378.090212102
 21
621.249787898
 31
0.0
  0
LINE
  5
2D3
330
1F
100
AcDbEntity
  8
3
  6
Continuous
 62
     2
100
AcDbLine
 10
370.590212102
 20
620.349787898
 30
0.0
 11
378.090212102
 21
620.349787898
 31
0.0
  0
LINE
  5
2D4
330
1F
100
AcDbEntity
  8
3
  6
Continuous
 62
     2
100
AcDbLine
 10
370.590212102
 20
619.349787898
 30
0.0
 11
378.090212102
 21
619.349787898
 31
0.0
  0
CIRCLE
  5
2D5
330
1F
100
AcDbEntity
  8
3
  6
Continuous
 62
     2
100
AcDbCircle
 10
183.030212102
 20
618.249787898
 30
0.0
 40
5.7
  0
CIRCLE
  5
2D6
330
1F
100
AcDbEntity
  8
3
  6
Continuous
 62
     2
100
AcDbCircle
 10
183.030212102
 20
618.249787898
 30
0.0
 40
6.5
  0
LWPOLYLINE
  5
2D8
330
1F
100
AcDbEntity
  8
3
  6
Continuous
 62
     2
100
AcDbPolyline
 90
     3
 70
   128
 43
0.0
 10
186.030212102
 20
619.949787898
 10
183.030212102
 20
621.749787898
 10
180.030212102
 20
619.949787898
  0
LWPOLYLINE
  5
2DA
330
1F
100
AcDbEntity
  8
3
  6
Continuous
 62
     2
100
AcDbPolyline
 90
     5
 70
   128
 43
0.0
 10
180.030212102
 20
619.949787898
 10
180.030212102
 20
616.549787898
 10
183.030212102
 20
614.749787898
 10
186.030212102
 20
616.549787898
 10
186.030212102
 20
619.949787898
  0
CIRCLE
  5
2DB
330
1F
100
AcDbEntity
  8
3
  6
Continuous
 62
     2
100
AcDbCircle
 10
971.350212102
 20
618.249787898
 30
0.0
 40
5.7
  0
CIRCLE
  5
2DC
330
1F
100
AcDbEntity
  8
3
  6
Continuous
 62
     2
100
AcDbCircle
 10
971.350212102
 20
618.249787898
 30
0.0
 40
6.5
  0
LWPOLYLINE
  5
2DE
330
1F
100
AcDbEntity
  8
3
  6
Continuous
 62
     2
100
AcDbPolyline
 90
     4
 70
   128
 43
0.0
 10
974.350212102
 20
619.949787898
 10
971.350212102
 20
621.749787898
 10
968.350212102
 20
619.949787898
 10
968.350212102
 20
616.549787898
  0
LINE
  5
2DF
330
1F
100
AcDbEntity
  8
3
  6
Continuous
 62
     2
100
AcDbLine
 10
974.350212102
 20
616.549787898
 30
0.0
 11
974.350212102
 21
619.949787898
 31
0.0
  0
LWPOLYLINE
  5
2E1
330
1F
100
AcDbEntity
  8
3
  6
Continuous
 62
     2
100
AcDbPolyline
 90
     3
 70
   128
 43
0.0
 10
968.350212102
 20
616.549787898
 10
971.350212102
 20
614.749787898
 10
974.350212102
 20
616.549787898
  0
MTEXT
  5
2E2
330
1F
100
AcDbEntity
  8
0
  6
Continuous
 62
     2
100
AcDbMText
 10
952.0
 20
164.8
 30
0.0
 40
12.0
 41
63.6
 71
     7
 72
     1
  1
\T1.111;\W0.900;ＡＣＵ１６
  7
KANJI5
 73
     1
 44
1.0
  0
LINE
  5
2E3
330
1F
100
AcDbEntity
  8
3
  6
Continuous
 62
     2
100
AcDbLine
 10
771.290212102
 20
624.749787898
 30
0.0
 11
772.690212102
 21
624.749787898
 31
0.0
  0
LINE
  5
2E4
330
1F
100
AcDbEntity
  8
3
  6
Continuous
 62
     2
100
AcDbLine
 10
771.290212102
 20
611.749787898
 30
0.0
 11
772.690212102
 21
611.749787898
 31
0.0
  0
LINE
  5
2E5
330
1F
100
AcDbEntity
  8
3
  6
Continuous
 62
     2
100
AcDbLine
 10
772.690212102
 20
618.249787898
 30
0.0
 11
771.290212102
 21
618.249787898
 31
0.0
  0
LINE
  5
2E6
330
1F
100
AcDbEntity
  8
3
  6
Continuous
 62
     2
100
AcDbLine
 10
772.690212102
 20
624.249787898
 30
0.0
 11
771.290212102
 21
624.249787898
 31
0.0
  0
LINE
  5
2E7
330
1F
100
AcDbEntity
  8
3
  6
Continuous
 62
     2
100
AcDbLine
 10
772.690212102
 20
623.549787898
 30
0.0
 11
771.290212102
 21
623.549787898
 31
0.0
  0
LINE
  5
2E8
330
1F
100
AcDbEntity
  8
3
  6
Continuous
 62
     2
100
AcDbLine
 10
772.690212102
 20
622.849787898
 30
0.0
 11
771.290212102
 21
622.849787898
 31
0.0
  0
LINE
  5
2E9
330
1F
100
AcDbEntity
  8
3
  6
Continuous
 62
     2
100
AcDbLine
 10
772.690212102
 20
622.049787898
 30
0.0
 11
771.290212102
 21
622.049787898
 31
0.0
  0
LINE
  5
2EA
330
1F
100
AcDbEntity
  8
3
  6
Continuous
 62
     2
100
AcDbLine
 10
772.690212102
 20
621.249787898
 30
0.0
 11
771.290212102
 21
621.249787898
 31
0.0
  0
LINE
  5
2EB
330
1F
100
AcDbEntity
  8
3
  6
Continuous
 62
     2
100
AcDbLine
 10
772.690212102
 20
620.349787898
 30
0.0
 11
771.290212102
 21
620.349787898
 31
0.0
  0
LINE
  5
2EC
330
1F
100
AcDbEntity
  8
3
  6
Continuous
 62
     2
100
AcDbLine
 10
772.690212102
 20
619.349787898
 30
0.0
 11
771.290212102
 21
619.349787898
 31
0.0
  0
LINE
  5
2ED
330
1F
100
AcDbEntity
  8
3
  6
Continuous
 62
     2
100
AcDbLine
 10
772.690212102
 20
612.249787898
 30
0.0
 11
771.290212102
 21
612.249787898
 31
0.0
  0
LINE
  5
2EE
330
1F
100
AcDbEntity
  8
3
  6
Continuous
 62
     2
100
AcDbLine
 10
772.690212102
 20
612.949787898
 30
0.0
 11
771.290212102
 21
612.949787898
 31
0.0
  0
LINE
  5
2EF
330
1F
100
AcDbEntity
  8
3
  6
Continuous
 62
     2
100
AcDbLine
 10
772.690212102
 20
613.649787898
 30
0.0
 11
771.290212102
 21
613.649787898
 31
0.0
  0
LINE
  5
2F0
330
1F
100
AcDbEntity
  8
3
  6
Continuous
 62
     2
100
AcDbLine
 10
772.690212102
 20
614.449787898
 30
0.0
 11
771.290212102
 21
614.449787898
 31
0.0
  0
LINE
  5
2F1
330
1F
100
AcDbEntity
  8
3
  6
Continuous
 62
     2
100
AcDbLine
 10
772.690212102
 20
615.249787898
 30
0.0
 11
771.290212102
 21
615.249787898
 31
0.0
  0
LINE
  5
2F2
330
1F
100
AcDbEntity
  8
3
  6
Continuous
 62
     2
100
AcDbLine
 10
772.690212102
 20
616.149787898
 30
0.0
 11
771.290212102
 21
616.149787898
 31
0.0
  0
LINE
  5
2F3
330
1F
100
AcDbEntity
  8
3
  6
Continuous
 62
     2
100
AcDbLine
 10
772.690212102
 20
617.149787898
 30
0.0
 11
771.290212102
 21
617.149787898
 31
0.0
  0
LINE
  5
2F4
330
1F
100
AcDbEntity
  8
3
  6
LTYPE2
 62
     2
100
AcDbLine
 10
779.290212102
 20
623.949787898
 30
0.0
 11
779.290212102
 21
612.549787898
 31
0.0
  0
LINE
  5
2F5
330
1F
100
AcDbEntity
  8
3
  6
LTYPE2
 62
     2
100
AcDbLine
 10
778.790212102
 20
624.749787898
 30
0.0
 11
779.290212102
 21
623.949787898
 31
0.0
  0
LINE
  5
2F6
330
1F
100
AcDbEntity
  8
3
  6
LTYPE2
 62
     2
100
AcDbLine
 10
779.290212102
 20
612.549787898
 30
0.0
 11
778.790212102
 21
611.749787898
 31
0.0
  0
LINE
  5
2F7
330
1F
100
AcDbEntity
  8
3
  6
LTYPE2
 62
     2
100
AcDbLine
 10
772.690212102
 20
624.749787898
 30
0.0
 11
778.790212102
 21
624.749787898
 31
0.0
  0
LINE
  5
2F8
330
1F
100
AcDbEntity
  8
3
  6
LTYPE2
 62
     2
100
AcDbLine
 10
772.690212102
 20
611.749787898
 30
0.0
 11
778.790212102
 21
611.749787898
 31
0.0
  0
LINE
  5
2F9
330
1F
100
AcDbEntity
  8
3
  6
LTYPE3
 62
     2
100
AcDbLine
 10
361.690212102
 20
247.829787898
 30
0.0
 11
787.690212102
 21
247.829787898
 31
0.0
  0
ENDSEC
  0
SECTION
  2
OBJECTS
  0
DICTIONARY
  5
C
330
0
100
AcDbDictionary
280
     0
281
     1
  3
ACAD_GROUP
350
D
  3
ACAD_LAYOUT
350
1A
  3
ACAD_MLINESTYLE
350
17
  3
ACAD_PLOTSETTINGS
350
19
  3
ACAD_PLOTSTYLENAME
350
E
  0
DICTIONARY
  5
D
102
{ACAD_REACTORS
330
C
102
}
330
C
100
AcDbDictionary
280
     0
281
     1
  0
DICTIONARY
  5
1A
102
{ACAD_REACTORS
330
C
102
}
330
C
100
AcDbDictionary
280
     0
281
     1
  3
Model
350
22
  3
ﾚｲｱｳﾄ1
350
1E
  3
ﾚｲｱｳﾄ2
350
26
  0
LAYOUT
  5
22
102
{ACAD_REACTORS
330
1A
102
}
330
1A
100
AcDbPlotSettings
  1

  2

  4

  6

 40
0.0
 41
0.0
 42
0.0
 43
0.0
 44
0.0
 45
0.0
 46
0.0
 47
0.0
 48
0.0
 49
0.0
140
0.0
141
0.0
142
1.0
143
1.0
 70
  1712
 72
     0
 73
     0
 74
     0
  7

 75
     0
147
1.0
148
0.0
149
0.0
100
AcDbLayout
  1
Model
 70
     1
 71
     0
 10
0.0
 20
0.0
 11
0.0
 21
0.0
 12
0.0
 22
0.0
 32
0.0
 14
0.0
 24
0.0
 34
0.0
 15
0.0
 25
0.0
 35
0.0
146
0.0
 13
0.0
 23
0.0
 33
0.0
 16
1.0
 26
0.0
 36
0.0
 17
0.0
 27
1.0
 37
0.0
 76
     0
330
1F
331
0
345
0
346
0
  0
LAYOUT
  5
1E
102
{ACAD_REACTORS
330
1A
102
}
330
1A
100
AcDbPlotSettings
  1

  2

  4

  6

 40
0.0
 41
0.0
 42
0.0
 43
0.0
 44
0.0
 45
0.0
 46
0.0
 47
0.0
 48
0.0
 49
0.0
140
0.0
141
0.0
142
1.0
143
1.0
 70
   688
 72
     0
 73
     0
 74
     5
  7

 75
    16
147
1.0
148
0.0
149
0.0
100
AcDbLayout
  1
ﾚｲｱｳﾄ1
 70
     1
 71
     1
 10
0.0
 20
0.0
 11
0.0
 21
0.0
 12
0.0
 22
0.0
 32
0.0
 14
0.0
 24
0.0
 34
0.0
 15
0.0
 25
0.0
 35
0.0
146
0.0
 13
0.0
 23
0.0
 33
0.0
 16
1.0
 26
0.0
 36
0.0
 17
0.0
 27
1.0
 37
0.0
 76
     0
330
1B
331
0
345
0
346
0
  0
LAYOUT
  5
26
102
{ACAD_REACTORS
330
1A
102
}
330
1A
100
AcDbPlotSettings
  1

  2

  4

  6

 40
0.0
 41
0.0
 42
0.0
 43
0.0
 44
0.0
 45
0.0
 46
0.0
 47
0.0
 48
0.0
 49
0.0
140
0.0
141
0.0
142
1.0
143
1.0
 70
   688
 72
     0
 73
     0
 74
     5
  7

 75
    16
147
1.0
148
0.0
149
0.0
100
AcDbLayout
  1
ﾚｲｱｳﾄ2
 70
     1
 71
     2
 10
0.0
 20
0.0
 11
0.0
 21
0.0
 12
0.0
 22
0.0
 32
0.0
 14
0.0
 24
0.0
 34
0.0
 15
0.0
 25
0.0
 35
0.0
146
0.0
 13
0.0
 23
0.0
 33
0.0
 16
1.0
 26
0.0
 36
0.0
 17
0.0
 27
1.0
 37
0.0
 76
     0
330
23
331
0
345
0
346
0
  0
DICTIONARY
  5
17
102
{ACAD_REACTORS
330
C
102
}
330
C
100
AcDbDictionary
280
     0
281
     1
  3
Standard
350
18
  0
MLINESTYLE
  5
18
102
{ACAD_REACTORS
330
17
102
}
330
17
100
AcDbMlineStyle
  2
STANDARD
 70
     0
  3

 62
   256
 51
90.0
 52
90.0
 71
     2
 49
0.5
 62
   256
  6
ByLayer
 49
-0.5
 62
   256
  6
ByLayer
  0
DICTIONARY
  5
19
102
{ACAD_REACTORS
330
C
102
}
330
C
100
AcDbDictionary
280
     0
281
     1
  0
ACDBDICTIONARYWDFLT
  5
E
330
C
100
AcDbDictionary
281
     0
  3
Normal
350
F
100
AcDbDictionaryWithDefault
340
F
  0
ACDBPLACEHOLDER
  5
F
102
{ACAD_REACTORS
330
E
102
}
330
E
  0
ENDSEC
  0
EOF
