  0
SECTION
  2
HEADER
  9
$ACADVER
  1
AC1015
  9
$ACADMAINTVER
 70
     6
  9
$DWGCODEPAGE
  3
ANSI_932
  9
$INSBASE
 10
0.0
 20
0.0
 30
0.0
  9
$EXTMIN
 10
0.0
 20
0.0
 30
0.0
  9
$EXTMAX
 10
891.0
 20
630.0
 30
0.0
  9
$LIMMIN
 10
0.0
 20
0.0
  9
$LIMMAX
 10
891.0
 20
630.0
  9
$ORTHOMODE
 70
     0
  9
$REGENMODE
 70
     1
  9
$FILLMODE
 70
     1
  9
$QTEXTMODE
 70
     0
  9
$MIRRTEXT
 70
     1
  9
$LTSCALE
 40
3.0
  9
$ATTMODE
 70
     1
  9
$TEXTSIZE
 40
2.5
  9
$TRACEWID
 40
1.0
  9
$TEXTSTYLE
  7
Standard
  9
$CLAYER
  8
0
  9
$CELTYPE
  6
ByLayer
  9
$CECOLOR
 62
   256
  9
$CELTSCALE
 40
1.0
  9
$DISPSILH
 70
     0
  9
$DIMSCALE
 40
1.0
  9
$DIMASZ
 40
2.5
  9
$DIMEXO
 40
0.625
  9
$DIMDLI
 40
3.75
  9
$DIMRND
 40
0.0
  9
$DIMDLE
 40
0.0
  9
$DIMEXE
 40
1.25
  9
$DIMTP
 40
0.0
  9
$DIMTM
 40
0.0
  9
$DIMTXT
 40
2.5
  9
$DIMCEN
 40
2.5
  9
$DIMTSZ
 40
0.0
  9
$DIMTOL
 70
     0
  9
$DIMLIM
 70
     0
  9
$DIMTIH
 70
     0
  9
$DIMTOH
 70
     0
  9
$DIMSE1
 70
     0
  9
$DIMSE2
 70
     0
  9
$DIMTAD
 70
     1
  9
$DIMZIN
 70
     8
  9
$DIMBLK
  1

  9
$DIMASO
 70
     1
  9
$DIMSHO
 70
     1
  9
$DIMPOST
  1

  9
$DIMAPOST
  1

  9
$DIMALT
 70
     0
  9
$DIMALTD
 70
     3
  9
$DIMALTF
 40
0.03937007874016
  9
$DIMLFAC
 40
1.0
  9
$DIMTOFL
 70
     1
  9
$DIMTVP
 40
0.0
  9
$DIMTIX
 70
     0
  9
$DIMSOXD
 70
     0
  9
$DIMSAH
 70
     0
  9
$DIMBLK1
  1

  9
$DIMBLK2
  1

  9
$DIMSTYLE
  2
ISO-25
  9
$DIMCLRD
 70
     0
  9
$DIMCLRE
 70
     0
  9
$DIMCLRT
 70
     0
  9
$DIMTFAC
 40
1.0
  9
$DIMGAP
 40
0.625
  9
$DIMJUST
 70
     0
  9
$DIMSD1
 70
     0
  9
$DIMSD2
 70
     0
  9
$DIMTOLJ
 70
     0
  9
$DIMTZIN
 70
     8
  9
$DIMALTZ
 70
     0
  9
$DIMALTTZ
 70
     0
  9
$DIMUPT
 70
     0
  9
$DIMDEC
 70
     2
  9
$DIMTDEC
 70
     2
  9
$DIMALTU
 70
     2
  9
$DIMALTTD
 70
     3
  9
$DIMTXSTY
  7
Standard
  9
$DIMAUNIT
 70
     0
  9
$DIMADEC
 70
     0
  9
$DIMALTRND
 40
0.0
  9
$DIMAZIN
 70
     0
  9
$DIMDSEP
 70
    46
  9
$DIMATFIT
 70
     3
  9
$DIMFRAC
 70
     0
  9
$DIMLDRBLK
  1

  9
$DIMLUNIT
 70
     2
  9
$DIMLWD
 70
    -2
  9
$DIMLWE
 70
    -2
  9
$DIMTMOVE
 70
     0
  9
$LUNITS
 70
     2
  9
$LUPREC
 70
     4
  9
$SKETCHINC
 40
1.0
  9
$FILLETRAD
 40
10.0
  9
$AUNITS
 70
     0
  9
$AUPREC
 70
     0
  9
$MENU
  1
.
  9
$ELEVATION
 40
0.0
  9
$PELEVATION
 40
0.0
  9
$THICKNESS
 40
0.0
  9
$LIMCHECK
 70
     0
  9
$CHAMFERA
 40
10.0
  9
$CHAMFERB
 40
10.0
  9
$CHAMFERC
 40
20.0
  9
$CHAMFERD
 40
0.0
  9
$SKPOLY
 70
     0
  9
$TDCREATE
 40
2457071.000000
  9
$TDUCREATE
 40
0.000000000
  9
$TDUPDATE
 40
2457071.000000
  9
$TDUUPDATE
 40
2457071.000000
  9
$TDINDWG
 40
0.0
  9
$TDUSRTIMER
 40
0.0
  9
$USRTIMER
 70
     1
  9
$ANGBASE
 50
0.0
  9
$ANGDIR
 70
     0
  9
$PDMODE
 70
     0
  9
$PDSIZE
 40
0.0
  9
$PLINEWID
 40
0.0
  9
$SPLFRAME
 70
     0
  9
$SPLINETYPE
 70
     6
  9
$SPLINESEGS
 70
     8
  9
$HANDSEED
  5
02E8
  9
$SURFTAB1
 70
     6
  9
$SURFTAB2
 70
     6
  9
$SURFTYPE
 70
     6
  9
$SURFU
 70
     6
  9
$SURFV
 70
     6
  9
$UCSBASE
  2

  9
$UCSNAME
  2

  9
$UCSORG
 10
0.0
 20
0.0
 30
0.0
  9
$UCSXDIR
 10
1.0
 20
0.0
 30
0.0
  9
$UCSYDIR
 10
0.0
 20
1.0
 30
0.0
  9
$UCSORTHOREF
  2

  9
$UCSORTHOVIEW
 70
     0
  9
$UCSORGTOP
 10
0.0
 20
0.0
 30
0.0
  9
$UCSORGBOTTOM
 10
0.0
 20
0.0
 30
0.0
  9
$UCSORGLEFT
 10
0.0
 20
0.0
 30
0.0
  9
$UCSORGRIGHT
 10
0.0
 20
0.0
 30
0.0
  9
$UCSORGFRONT
 10
0.0
 20
0.0
 30
0.0
  9
$UCSORGBACK
 10
0.0
 20
0.0
 30
0.0
  9
$PUCSBASE
  2

  9
$PUCSNAME
  2

  9
$PUCSORG
 10
0.0
 20
0.0
 30
0.0
  9
$PUCSXDIR
 10
1.0
 20
0.0
 30
0.0
  9
$PUCSYDIR
 10
0.0
 20
1.0
 30
0.0
  9
$PUCSORTHOREF
  2

  9
$PUCSORTHOVIEW
 70
     0
  9
$PUCSORGTOP
 10
0.0
 20
0.0
 30
0.0
  9
$PUCSORGBOTTOM
 10
0.0
 20
0.0
 30
0.0
  9
$PUCSORGLEFT
 10
0.0
 20
0.0
 30
0.0
  9
$PUCSORGRIGHT
 10
0.0
 20
0.0
 30
0.0
  9
$PUCSORGFRONT
 10
0.0
 20
0.0
 30
0.0
  9
$PUCSORGBACK
 10
0.0
 20
0.0
 30
0.0
  9
$USERI1
 70
     0
  9
$USERI2
 70
     0
  9
$USERI3
 70
     0
  9
$USERI4
 70
     0
  9
$USERI5
 70
     0
  9
$USERR1
 40
0.0
  9
$USERR2
 40
0.0
  9
$USERR3
 40
0.0
  9
$USERR4
 40
0.0
  9
$USERR5
 40
0.0
  9
$WORLDVIEW
 70
     1
  9
$SHADEDGE
 70
     3
  9
$SHADEDIF
 70
    70
  9
$TILEMODE
 70
     1
  9
$MAXACTVP
 70
    64
  9
$PINSBASE
 10
0.0
 20
0.0
 30
0.0
  9
$PLIMCHECK
 70
     0
  9
$PEXTMIN
 10
1.000000E+20
 20
1.000000E+20
 30
1.000000E+20
  9
$PEXTMAX
 10
-1.000000E+20
 20
-1.000000E+20
 30
-1.000000E+20
  9
$PLIMMIN
 10
0.0
 20
0.0
  9
$PLIMMAX
 10
0.0
 20
0.0
  9
$UNITMODE
 70
     0
  9
$VISRETAIN
 70
     0
  9
$PLINEGEN
 70
     0
  9
$PSLTSCALE
 70
     1
  9
$TREEDEPTH
 70
  3020
  9
$CMLSTYLE
  2
STANDARD
  9
$CMLJUST
 70
     0
  9
$CMLSCALE
 40
20.0
  9
$PROXYGRAPHICS
 70
     1
  9
$MEASUREMENT
 70
     1
  9
$CELWEIGHT
370
    -1
  9
$ENDCAPS
280
     0
  9
$JOINSTYLE
280
     0
  9
$LWDISPLAY
290
     0
  9
$INSUNITS
 70
     4
  9
$HYPERLINKBASE
  1

  9
$STYLESHEET
  1

  9
$XEDIT
290
     1
  9
$CEPSNTYPE
380
     0
  9
$PSTYLEMODE
290
     1
  9
$FINGERPRINTGUID
  2
{4CF12A79-4E77-30D9-11BB-FCF2921888A4}
  9
$VERSIONGUID
  2
{14524229-43B3-9702-696C-2B47DF82C235}
  9
$EXTNAMES
290
     1
  9
$PSVPSCALE
 40
0.0
  0
ENDSEC
  0
SECTION
  2
CLASSES
  0
ENDSEC
  0
SECTION
  2
TABLES
  0
TABLE
  2
VPORT
  5
8
330
0
100
AcDbSymbolTable
 70
     3
  0
VPORT
  5
29
330
8
100
AcDbSymbolTableRecord
100
AcDbViewportTableRecord
  2
*Active
 70
     0
 10
0.0
 20
0.0
 11
1.0
 21
1.0
 12
445.5
 22
315.0
 13
0.0
 23
0.0
 14
10.0
 24
10.0
 15
0.0
 25
0.0
 16
0.0
 26
0.0
 36
1.0
 17
0.0
 27
0.0
 37
0.0
 40
630.0
 41
1.414285714
 42
50.0
 43
0.0
 44
0.0
 50
0.0
 51
0.0
 71
     0
 72
  1000
 73
     1
 74
     3
 75
     0
 76
     0
 77
     0
 78
     0
281
     0
 65
     0
110
0.0
120
0.0
130
0.0
111
1.0
121
0.0
131
0.0
112
0.0
122
1.0
132
0.0
 79
     0
146
0.0
  0
ENDTAB
  0
TABLE
  2
LTYPE
  5
5
330
0
100
AcDbSymbolTable
 70
     6
  0
LTYPE
  5
14
330
5
100
AcDbSymbolTableRecord
100
AcDbLinetypeTableRecord
  2
ByBlock
 70
     0
  3

 72
    65
 73
     0
 40
0.0
  0
LTYPE
  5
15
330
5
100
AcDbSymbolTableRecord
100
AcDbLinetypeTableRecord
  2
ByLayer
 70
     0
  3

 72
    65
 73
     0
 40
0.0
  0
LTYPE
  5
16
330
5
100
AcDbSymbolTableRecord
100
AcDbLinetypeTableRecord
  2
Continuous
 70
     0
  3
Solid line
 72
    65
 73
     0
 40
0.0
  0
LTYPE
  5
FC
330
5
100
AcDbSymbolTableRecord
100
AcDbLinetypeTableRecord
  2
LTYPE1
 70
     0
  3
HIDDEN
 72
    65
 73
     2
 40
2.0
 49
1.2
 74
     0
 49
-0.8
 74
     0
  0
LTYPE
  5
108
330
5
100
AcDbSymbolTableRecord
100
AcDbLinetypeTableRecord
  2
LTYPE2
 70
     0
  3
PHANTOM
 72
    65
 73
     6
 40
12.0
 49
9.0
 74
     0
 49
-0.6
 74
     0
 49
0.6
 74
     0
 49
-0.6
 74
     0
 49
0.6
 74
     0
 49
-0.6
 74
     0
  0
LTYPE
  5
17C
330
5
100
AcDbSymbolTableRecord
100
AcDbLinetypeTableRecord
  2
LTYPE3
 70
     0
  3
CENTER
 72
    65
 73
     4
 40
12.0
 49
8.4
 74
     0
 49
-1.2
 74
     0
 49
1.2
 74
     0
 49
-1.2
 74
     0
  0
ENDTAB
  0
TABLE
  2
LAYER
  5
2
330
0
100
AcDbSymbolTable
 70
   128
  0
LAYER
  5
10
330
2
100
AcDbSymbolTableRecord
100
AcDbLayerTableRecord
  2
0
 70
     0
 62
     7
  6
Continuous
290
     1
370
    -3
390
F
  0
LAYER
  5
2A
330
2
100
AcDbSymbolTableRecord
100
AcDbLayerTableRecord
  2
2
 70
     0
 62
     7
  6
Continuous
290
     1
370
    -3
390
F
  0
LAYER
  5
2B
330
2
100
AcDbSymbolTableRecord
100
AcDbLayerTableRecord
  2
3
 70
     0
 62
     7
  6
Continuous
290
     1
370
    -3
390
F
  0
LAYER
  5
2C
330
2
100
AcDbSymbolTableRecord
100
AcDbLayerTableRecord
  2
4
 70
     0
 62
     7
  6
Continuous
290
     1
370
    -3
390
F
  0
LAYER
  5
2D
330
2
100
AcDbSymbolTableRecord
100
AcDbLayerTableRecord
  2
5
 70
     0
 62
     7
  6
Continuous
290
     1
370
    -3
390
F
  0
LAYER
  5
2E
330
2
100
AcDbSymbolTableRecord
100
AcDbLayerTableRecord
  2
6
 70
     0
 62
     7
  6
Continuous
290
     1
370
    -3
390
F
  0
LAYER
  5
2F
330
2
100
AcDbSymbolTableRecord
100
AcDbLayerTableRecord
  2
7
 70
     0
 62
     7
  6
Continuous
290
     1
370
    -3
390
F
  0
LAYER
  5
30
330
2
100
AcDbSymbolTableRecord
100
AcDbLayerTableRecord
  2
8
 70
     0
 62
     7
  6
Continuous
290
     1
370
    -3
390
F
  0
LAYER
  5
31
330
2
100
AcDbSymbolTableRecord
100
AcDbLayerTableRecord
  2
9
 70
     0
 62
     7
  6
Continuous
290
     1
370
    -3
390
F
  0
LAYER
  5
32
330
2
100
AcDbSymbolTableRecord
100
AcDbLayerTableRecord
  2
10
 70
     0
 62
     7
  6
Continuous
290
     1
370
    -3
390
F
  0
LAYER
  5
33
330
2
100
AcDbSymbolTableRecord
100
AcDbLayerTableRecord
  2
11
 70
     0
 62
     7
  6
Continuous
290
     1
370
    -3
390
F
  0
LAYER
  5
34
330
2
100
AcDbSymbolTableRecord
100
AcDbLayerTableRecord
  2
12
 70
     0
 62
     7
  6
Continuous
290
     1
370
    -3
390
F
  0
LAYER
  5
35
330
2
100
AcDbSymbolTableRecord
100
AcDbLayerTableRecord
  2
13
 70
     0
 62
     7
  6
Continuous
290
     1
370
    -3
390
F
  0
LAYER
  5
36
330
2
100
AcDbSymbolTableRecord
100
AcDbLayerTableRecord
  2
14
 70
     0
 62
     7
  6
Continuous
290
     1
370
    -3
390
F
  0
LAYER
  5
37
330
2
100
AcDbSymbolTableRecord
100
AcDbLayerTableRecord
  2
15
 70
     0
 62
     7
  6
Continuous
290
     1
370
    -3
390
F
  0
LAYER
  5
38
330
2
100
AcDbSymbolTableRecord
100
AcDbLayerTableRecord
  2
16
 70
     0
 62
     7
  6
Continuous
290
     1
370
    -3
390
F
  0
LAYER
  5
39
330
2
100
AcDbSymbolTableRecord
100
AcDbLayerTableRecord
  2
17
 70
     0
 62
     7
  6
Continuous
290
     1
370
    -3
390
F
  0
LAYER
  5
3A
330
2
100
AcDbSymbolTableRecord
100
AcDbLayerTableRecord
  2
18
 70
     0
 62
     7
  6
Continuous
290
     1
370
    -3
390
F
  0
LAYER
  5
3B
330
2
100
AcDbSymbolTableRecord
100
AcDbLayerTableRecord
  2
19
 70
     0
 62
     7
  6
Continuous
290
     1
370
    -3
390
F
  0
LAYER
  5
3C
330
2
100
AcDbSymbolTableRecord
100
AcDbLayerTableRecord
  2
20
 70
     0
 62
     7
  6
Continuous
290
     1
370
    -3
390
F
  0
LAYER
  5
3D
330
2
100
AcDbSymbolTableRecord
100
AcDbLayerTableRecord
  2
21
 70
     0
 62
     7
  6
Continuous
290
     1
370
    -3
390
F
  0
LAYER
  5
3E
330
2
100
AcDbSymbolTableRecord
100
AcDbLayerTableRecord
  2
22
 70
     0
 62
     7
  6
Continuous
290
     1
370
    -3
390
F
  0
LAYER
  5
3F
330
2
100
AcDbSymbolTableRecord
100
AcDbLayerTableRecord
  2
23
 70
     0
 62
     7
  6
Continuous
290
     1
370
    -3
390
F
  0
LAYER
  5
40
330
2
100
AcDbSymbolTableRecord
100
AcDbLayerTableRecord
  2
24
 70
     0
 62
     7
  6
Continuous
290
     1
370
    -3
390
F
  0
LAYER
  5
41
330
2
100
AcDbSymbolTableRecord
100
AcDbLayerTableRecord
  2
25
 70
     0
 62
     7
  6
Continuous
290
     1
370
    -3
390
F
  0
LAYER
  5
42
330
2
100
AcDbSymbolTableRecord
100
AcDbLayerTableRecord
  2
26
 70
     0
 62
     7
  6
Continuous
290
     1
370
    -3
390
F
  0
LAYER
  5
43
330
2
100
AcDbSymbolTableRecord
100
AcDbLayerTableRecord
  2
27
 70
     0
 62
     7
  6
Continuous
290
     1
370
    -3
390
F
  0
LAYER
  5
44
330
2
100
AcDbSymbolTableRecord
100
AcDbLayerTableRecord
  2
28
 70
     0
 62
     7
  6
Continuous
290
     1
370
    -3
390
F
  0
LAYER
  5
45
330
2
100
AcDbSymbolTableRecord
100
AcDbLayerTableRecord
  2
29
 70
     0
 62
     7
  6
Continuous
290
     1
370
    -3
390
F
  0
LAYER
  5
46
330
2
100
AcDbSymbolTableRecord
100
AcDbLayerTableRecord
  2
30
 70
     0
 62
     7
  6
Continuous
290
     1
370
    -3
390
F
  0
LAYER
  5
47
330
2
100
AcDbSymbolTableRecord
100
AcDbLayerTableRecord
  2
31
 70
     0
 62
     7
  6
Continuous
290
     1
370
    -3
390
F
  0
LAYER
  5
48
330
2
100
AcDbSymbolTableRecord
100
AcDbLayerTableRecord
  2
32
 70
     0
 62
     7
  6
Continuous
290
     1
370
    -3
390
F
  0
LAYER
  5
49
330
2
100
AcDbSymbolTableRecord
100
AcDbLayerTableRecord
  2
33
 70
     0
 62
     7
  6
Continuous
290
     1
370
    -3
390
F
  0
LAYER
  5
4A
330
2
100
AcDbSymbolTableRecord
100
AcDbLayerTableRecord
  2
34
 70
     0
 62
     7
  6
Continuous
290
     1
370
    -3
390
F
  0
LAYER
  5
4B
330
2
100
AcDbSymbolTableRecord
100
AcDbLayerTableRecord
  2
35
 70
     0
 62
     7
  6
Continuous
290
     1
370
    -3
390
F
  0
LAYER
  5
4C
330
2
100
AcDbSymbolTableRecord
100
AcDbLayerTableRecord
  2
36
 70
     0
 62
     7
  6
Continuous
290
     1
370
    -3
390
F
  0
LAYER
  5
4D
330
2
100
AcDbSymbolTableRecord
100
AcDbLayerTableRecord
  2
37
 70
     0
 62
     7
  6
Continuous
290
     1
370
    -3
390
F
  0
LAYER
  5
4E
330
2
100
AcDbSymbolTableRecord
100
AcDbLayerTableRecord
  2
38
 70
     0
 62
     7
  6
Continuous
290
     1
370
    -3
390
F
  0
LAYER
  5
4F
330
2
100
AcDbSymbolTableRecord
100
AcDbLayerTableRecord
  2
39
 70
     0
 62
     7
  6
Continuous
290
     1
370
    -3
390
F
  0
LAYER
  5
50
330
2
100
AcDbSymbolTableRecord
100
AcDbLayerTableRecord
  2
40
 70
     0
 62
     7
  6
Continuous
290
     1
370
    -3
390
F
  0
LAYER
  5
51
330
2
100
AcDbSymbolTableRecord
100
AcDbLayerTableRecord
  2
41
 70
     0
 62
     7
  6
Continuous
290
     1
370
    -3
390
F
  0
LAYER
  5
52
330
2
100
AcDbSymbolTableRecord
100
AcDbLayerTableRecord
  2
42
 70
     0
 62
     7
  6
Continuous
290
     1
370
    -3
390
F
  0
LAYER
  5
53
330
2
100
AcDbSymbolTableRecord
100
AcDbLayerTableRecord
  2
43
 70
     0
 62
     7
  6
Continuous
290
     1
370
    -3
390
F
  0
LAYER
  5
54
330
2
100
AcDbSymbolTableRecord
100
AcDbLayerTableRecord
  2
44
 70
     0
 62
     7
  6
Continuous
290
     1
370
    -3
390
F
  0
LAYER
  5
55
330
2
100
AcDbSymbolTableRecord
100
AcDbLayerTableRecord
  2
45
 70
     0
 62
     7
  6
Continuous
290
     1
370
    -3
390
F
  0
LAYER
  5
56
330
2
100
AcDbSymbolTableRecord
100
AcDbLayerTableRecord
  2
46
 70
     0
 62
     7
  6
Continuous
290
     1
370
    -3
390
F
  0
LAYER
  5
57
330
2
100
AcDbSymbolTableRecord
100
AcDbLayerTableRecord
  2
47
 70
     0
 62
     7
  6
Continuous
290
     1
370
    -3
390
F
  0
LAYER
  5
58
330
2
100
AcDbSymbolTableRecord
100
AcDbLayerTableRecord
  2
48
 70
     0
 62
     7
  6
Continuous
290
     1
370
    -3
390
F
  0
LAYER
  5
59
330
2
100
AcDbSymbolTableRecord
100
AcDbLayerTableRecord
  2
49
 70
     0
 62
     7
  6
Continuous
290
     1
370
    -3
390
F
  0
LAYER
  5
5A
330
2
100
AcDbSymbolTableRecord
100
AcDbLayerTableRecord
  2
50
 70
     0
 62
     7
  6
Continuous
290
     1
370
    -3
390
F
  0
LAYER
  5
5B
330
2
100
AcDbSymbolTableRecord
100
AcDbLayerTableRecord
  2
51
 70
     0
 62
     7
  6
Continuous
290
     1
370
    -3
390
F
  0
LAYER
  5
5C
330
2
100
AcDbSymbolTableRecord
100
AcDbLayerTableRecord
  2
52
 70
     0
 62
     7
  6
Continuous
290
     1
370
    -3
390
F
  0
LAYER
  5
5D
330
2
100
AcDbSymbolTableRecord
100
AcDbLayerTableRecord
  2
53
 70
     0
 62
     7
  6
Continuous
290
     1
370
    -3
390
F
  0
LAYER
  5
5E
330
2
100
AcDbSymbolTableRecord
100
AcDbLayerTableRecord
  2
54
 70
     0
 62
     7
  6
Continuous
290
     1
370
    -3
390
F
  0
LAYER
  5
5F
330
2
100
AcDbSymbolTableRecord
100
AcDbLayerTableRecord
  2
55
 70
     0
 62
     7
  6
Continuous
290
     1
370
    -3
390
F
  0
LAYER
  5
60
330
2
100
AcDbSymbolTableRecord
100
AcDbLayerTableRecord
  2
56
 70
     0
 62
     7
  6
Continuous
290
     1
370
    -3
390
F
  0
LAYER
  5
61
330
2
100
AcDbSymbolTableRecord
100
AcDbLayerTableRecord
  2
57
 70
     0
 62
     7
  6
Continuous
290
     1
370
    -3
390
F
  0
LAYER
  5
62
330
2
100
AcDbSymbolTableRecord
100
AcDbLayerTableRecord
  2
58
 70
     0
 62
     7
  6
Continuous
290
     1
370
    -3
390
F
  0
LAYER
  5
63
330
2
100
AcDbSymbolTableRecord
100
AcDbLayerTableRecord
  2
59
 70
     0
 62
     7
  6
Continuous
290
     1
370
    -3
390
F
  0
LAYER
  5
64
330
2
100
AcDbSymbolTableRecord
100
AcDbLayerTableRecord
  2
60
 70
     0
 62
     7
  6
Continuous
290
     1
370
    -3
390
F
  0
LAYER
  5
65
330
2
100
AcDbSymbolTableRecord
100
AcDbLayerTableRecord
  2
61
 70
     0
 62
     7
  6
Continuous
290
     1
370
    -3
390
F
  0
LAYER
  5
66
330
2
100
AcDbSymbolTableRecord
100
AcDbLayerTableRecord
  2
62
 70
     0
 62
     7
  6
Continuous
290
     1
370
    -3
390
F
  0
LAYER
  5
67
330
2
100
AcDbSymbolTableRecord
100
AcDbLayerTableRecord
  2
63
 70
     0
 62
     7
  6
Continuous
290
     1
370
    -3
390
F
  0
LAYER
  5
68
330
2
100
AcDbSymbolTableRecord
100
AcDbLayerTableRecord
  2
64
 70
     0
 62
     7
  6
Continuous
290
     1
370
    -3
390
F
  0
LAYER
  5
69
330
2
100
AcDbSymbolTableRecord
100
AcDbLayerTableRecord
  2
65
 70
     0
 62
     7
  6
Continuous
290
     1
370
    -3
390
F
  0
LAYER
  5
6A
330
2
100
AcDbSymbolTableRecord
100
AcDbLayerTableRecord
  2
66
 70
     0
 62
     7
  6
Continuous
290
     1
370
    -3
390
F
  0
LAYER
  5
6B
330
2
100
AcDbSymbolTableRecord
100
AcDbLayerTableRecord
  2
67
 70
     0
 62
     7
  6
Continuous
290
     1
370
    -3
390
F
  0
LAYER
  5
6C
330
2
100
AcDbSymbolTableRecord
100
AcDbLayerTableRecord
  2
68
 70
     0
 62
     7
  6
Continuous
290
     1
370
    -3
390
F
  0
LAYER
  5
6D
330
2
100
AcDbSymbolTableRecord
100
AcDbLayerTableRecord
  2
69
 70
     0
 62
     7
  6
Continuous
290
     1
370
    -3
390
F
  0
LAYER
  5
6E
330
2
100
AcDbSymbolTableRecord
100
AcDbLayerTableRecord
  2
70
 70
     0
 62
     7
  6
Continuous
290
     1
370
    -3
390
F
  0
LAYER
  5
6F
330
2
100
AcDbSymbolTableRecord
100
AcDbLayerTableRecord
  2
71
 70
     0
 62
     7
  6
Continuous
290
     1
370
    -3
390
F
  0
LAYER
  5
70
330
2
100
AcDbSymbolTableRecord
100
AcDbLayerTableRecord
  2
72
 70
     0
 62
     7
  6
Continuous
290
     1
370
    -3
390
F
  0
LAYER
  5
71
330
2
100
AcDbSymbolTableRecord
100
AcDbLayerTableRecord
  2
73
 70
     0
 62
     7
  6
Continuous
290
     1
370
    -3
390
F
  0
LAYER
  5
72
330
2
100
AcDbSymbolTableRecord
100
AcDbLayerTableRecord
  2
74
 70
     0
 62
     7
  6
Continuous
290
     1
370
    -3
390
F
  0
LAYER
  5
73
330
2
100
AcDbSymbolTableRecord
100
AcDbLayerTableRecord
  2
75
 70
     0
 62
     7
  6
Continuous
290
     1
370
    -3
390
F
  0
LAYER
  5
74
330
2
100
AcDbSymbolTableRecord
100
AcDbLayerTableRecord
  2
76
 70
     0
 62
     7
  6
Continuous
290
     1
370
    -3
390
F
  0
LAYER
  5
75
330
2
100
AcDbSymbolTableRecord
100
AcDbLayerTableRecord
  2
77
 70
     0
 62
     7
  6
Continuous
290
     1
370
    -3
390
F
  0
LAYER
  5
76
330
2
100
AcDbSymbolTableRecord
100
AcDbLayerTableRecord
  2
78
 70
     0
 62
     7
  6
Continuous
290
     1
370
    -3
390
F
  0
LAYER
  5
77
330
2
100
AcDbSymbolTableRecord
100
AcDbLayerTableRecord
  2
79
 70
     0
 62
     7
  6
Continuous
290
     1
370
    -3
390
F
  0
LAYER
  5
78
330
2
100
AcDbSymbolTableRecord
100
AcDbLayerTableRecord
  2
80
 70
     0
 62
     7
  6
Continuous
290
     1
370
    -3
390
F
  0
LAYER
  5
79
330
2
100
AcDbSymbolTableRecord
100
AcDbLayerTableRecord
  2
81
 70
     0
 62
     7
  6
Continuous
290
     1
370
    -3
390
F
  0
LAYER
  5
7A
330
2
100
AcDbSymbolTableRecord
100
AcDbLayerTableRecord
  2
82
 70
     0
 62
     7
  6
Continuous
290
     1
370
    -3
390
F
  0
LAYER
  5
7B
330
2
100
AcDbSymbolTableRecord
100
AcDbLayerTableRecord
  2
83
 70
     0
 62
     7
  6
Continuous
290
     1
370
    -3
390
F
  0
LAYER
  5
7C
330
2
100
AcDbSymbolTableRecord
100
AcDbLayerTableRecord
  2
84
 70
     0
 62
     7
  6
Continuous
290
     1
370
    -3
390
F
  0
LAYER
  5
7D
330
2
100
AcDbSymbolTableRecord
100
AcDbLayerTableRecord
  2
85
 70
     0
 62
     7
  6
Continuous
290
     1
370
    -3
390
F
  0
LAYER
  5
7E
330
2
100
AcDbSymbolTableRecord
100
AcDbLayerTableRecord
  2
86
 70
     0
 62
     7
  6
Continuous
290
     1
370
    -3
390
F
  0
LAYER
  5
7F
330
2
100
AcDbSymbolTableRecord
100
AcDbLayerTableRecord
  2
87
 70
     0
 62
     7
  6
Continuous
290
     1
370
    -3
390
F
  0
LAYER
  5
80
330
2
100
AcDbSymbolTableRecord
100
AcDbLayerTableRecord
  2
88
 70
     0
 62
     7
  6
Continuous
290
     1
370
    -3
390
F
  0
LAYER
  5
81
330
2
100
AcDbSymbolTableRecord
100
AcDbLayerTableRecord
  2
89
 70
     0
 62
     7
  6
Continuous
290
     1
370
    -3
390
F
  0
LAYER
  5
82
330
2
100
AcDbSymbolTableRecord
100
AcDbLayerTableRecord
  2
90
 70
     0
 62
     7
  6
Continuous
290
     1
370
    -3
390
F
  0
LAYER
  5
83
330
2
100
AcDbSymbolTableRecord
100
AcDbLayerTableRecord
  2
91
 70
     0
 62
     7
  6
Continuous
290
     1
370
    -3
390
F
  0
LAYER
  5
84
330
2
100
AcDbSymbolTableRecord
100
AcDbLayerTableRecord
  2
92
 70
     0
 62
     7
  6
Continuous
290
     1
370
    -3
390
F
  0
LAYER
  5
85
330
2
100
AcDbSymbolTableRecord
100
AcDbLayerTableRecord
  2
93
 70
     0
 62
     7
  6
Continuous
290
     1
370
    -3
390
F
  0
LAYER
  5
86
330
2
100
AcDbSymbolTableRecord
100
AcDbLayerTableRecord
  2
94
 70
     0
 62
     7
  6
Continuous
290
     1
370
    -3
390
F
  0
LAYER
  5
87
330
2
100
AcDbSymbolTableRecord
100
AcDbLayerTableRecord
  2
95
 70
     0
 62
     7
  6
Continuous
290
     1
370
    -3
390
F
  0
LAYER
  5
88
330
2
100
AcDbSymbolTableRecord
100
AcDbLayerTableRecord
  2
96
 70
     0
 62
     7
  6
Continuous
290
     1
370
    -3
390
F
  0
LAYER
  5
89
330
2
100
AcDbSymbolTableRecord
100
AcDbLayerTableRecord
  2
97
 70
     0
 62
     7
  6
Continuous
290
     1
370
    -3
390
F
  0
LAYER
  5
8A
330
2
100
AcDbSymbolTableRecord
100
AcDbLayerTableRecord
  2
98
 70
     0
 62
     7
  6
Continuous
290
     1
370
    -3
390
F
  0
LAYER
  5
8B
330
2
100
AcDbSymbolTableRecord
100
AcDbLayerTableRecord
  2
99
 70
     0
 62
     7
  6
Continuous
290
     1
370
    -3
390
F
  0
LAYER
  5
8C
330
2
100
AcDbSymbolTableRecord
100
AcDbLayerTableRecord
  2
100
 70
     0
 62
     7
  6
Continuous
290
     1
370
    -3
390
F
  0
LAYER
  5
8D
330
2
100
AcDbSymbolTableRecord
100
AcDbLayerTableRecord
  2
101
 70
     0
 62
     7
  6
Continuous
290
     1
370
    -3
390
F
  0
LAYER
  5
8E
330
2
100
AcDbSymbolTableRecord
100
AcDbLayerTableRecord
  2
102
 70
     0
 62
     7
  6
Continuous
290
     1
370
    -3
390
F
  0
LAYER
  5
8F
330
2
100
AcDbSymbolTableRecord
100
AcDbLayerTableRecord
  2
103
 70
     0
 62
     7
  6
Continuous
290
     1
370
    -3
390
F
  0
LAYER
  5
90
330
2
100
AcDbSymbolTableRecord
100
AcDbLayerTableRecord
  2
104
 70
     0
 62
     7
  6
Continuous
290
     1
370
    -3
390
F
  0
LAYER
  5
91
330
2
100
AcDbSymbolTableRecord
100
AcDbLayerTableRecord
  2
105
 70
     0
 62
     7
  6
Continuous
290
     1
370
    -3
390
F
  0
LAYER
  5
92
330
2
100
AcDbSymbolTableRecord
100
AcDbLayerTableRecord
  2
106
 70
     0
 62
     7
  6
Continuous
290
     1
370
    -3
390
F
  0
LAYER
  5
93
330
2
100
AcDbSymbolTableRecord
100
AcDbLayerTableRecord
  2
107
 70
     0
 62
     7
  6
Continuous
290
     1
370
    -3
390
F
  0
LAYER
  5
94
330
2
100
AcDbSymbolTableRecord
100
AcDbLayerTableRecord
  2
108
 70
     0
 62
     7
  6
Continuous
290
     1
370
    -3
390
F
  0
LAYER
  5
95
330
2
100
AcDbSymbolTableRecord
100
AcDbLayerTableRecord
  2
109
 70
     0
 62
     7
  6
Continuous
290
     1
370
    -3
390
F
  0
LAYER
  5
96
330
2
100
AcDbSymbolTableRecord
100
AcDbLayerTableRecord
  2
110
 70
     0
 62
     7
  6
Continuous
290
     1
370
    -3
390
F
  0
LAYER
  5
97
330
2
100
AcDbSymbolTableRecord
100
AcDbLayerTableRecord
  2
111
 70
     0
 62
     7
  6
Continuous
290
     1
370
    -3
390
F
  0
LAYER
  5
98
330
2
100
AcDbSymbolTableRecord
100
AcDbLayerTableRecord
  2
112
 70
     0
 62
     7
  6
Continuous
290
     1
370
    -3
390
F
  0
LAYER
  5
99
330
2
100
AcDbSymbolTableRecord
100
AcDbLayerTableRecord
  2
113
 70
     0
 62
     7
  6
Continuous
290
     1
370
    -3
390
F
  0
LAYER
  5
9A
330
2
100
AcDbSymbolTableRecord
100
AcDbLayerTableRecord
  2
114
 70
     0
 62
     7
  6
Continuous
290
     1
370
    -3
390
F
  0
LAYER
  5
9B
330
2
100
AcDbSymbolTableRecord
100
AcDbLayerTableRecord
  2
115
 70
     0
 62
     7
  6
Continuous
290
     1
370
    -3
390
F
  0
LAYER
  5
9C
330
2
100
AcDbSymbolTableRecord
100
AcDbLayerTableRecord
  2
116
 70
     0
 62
     7
  6
Continuous
290
     1
370
    -3
390
F
  0
LAYER
  5
9D
330
2
100
AcDbSymbolTableRecord
100
AcDbLayerTableRecord
  2
117
 70
     0
 62
     7
  6
Continuous
290
     1
370
    -3
390
F
  0
LAYER
  5
9E
330
2
100
AcDbSymbolTableRecord
100
AcDbLayerTableRecord
  2
118
 70
     0
 62
     7
  6
Continuous
290
     1
370
    -3
390
F
  0
LAYER
  5
9F
330
2
100
AcDbSymbolTableRecord
100
AcDbLayerTableRecord
  2
119
 70
     0
 62
     7
  6
Continuous
290
     1
370
    -3
390
F
  0
LAYER
  5
A0
330
2
100
AcDbSymbolTableRecord
100
AcDbLayerTableRecord
  2
120
 70
     0
 62
     7
  6
Continuous
290
     1
370
    -3
390
F
  0
LAYER
  5
A1
330
2
100
AcDbSymbolTableRecord
100
AcDbLayerTableRecord
  2
121
 70
     0
 62
     7
  6
Continuous
290
     1
370
    -3
390
F
  0
LAYER
  5
A2
330
2
100
AcDbSymbolTableRecord
100
AcDbLayerTableRecord
  2
122
 70
     0
 62
     7
  6
Continuous
290
     1
370
    -3
390
F
  0
LAYER
  5
A3
330
2
100
AcDbSymbolTableRecord
100
AcDbLayerTableRecord
  2
123
 70
     0
 62
     7
  6
Continuous
290
     1
370
    -3
390
F
  0
LAYER
  5
A4
330
2
100
AcDbSymbolTableRecord
100
AcDbLayerTableRecord
  2
124
 70
     0
 62
     7
  6
Continuous
290
     1
370
    -3
390
F
  0
LAYER
  5
A5
330
2
100
AcDbSymbolTableRecord
100
AcDbLayerTableRecord
  2
125
 70
     0
 62
     7
  6
Continuous
290
     1
370
    -3
390
F
  0
LAYER
  5
A6
330
2
100
AcDbSymbolTableRecord
100
AcDbLayerTableRecord
  2
126
 70
     0
 62
     7
  6
Continuous
290
     1
370
    -3
390
F
  0
LAYER
  5
A7
330
2
100
AcDbSymbolTableRecord
100
AcDbLayerTableRecord
  2
127
 70
     0
 62
     7
  6
Continuous
290
     1
370
    -3
390
F
  0
LAYER
  5
A8
330
2
100
AcDbSymbolTableRecord
100
AcDbLayerTableRecord
  2
128
 70
     0
 62
     7
  6
Continuous
290
     1
370
    -3
390
F
  0
ENDTAB
  0
TABLE
  2
STYLE
  5
3
330
0
100
AcDbSymbolTable
 70
    13
  0
STYLE
  5
11
330
3
100
AcDbSymbolTableRecord
100
AcDbTextStyleTableRecord
  2
Standard
 70
     0
 40
0.0
 41
1.0
 50
0.0
 71
     0
 42
2.5
  3
txt.shx
  4
extfont.shx
  0
STYLE
  5
AB
330
3
100
AcDbSymbolTableRecord
100
AcDbTextStyleTableRecord
  2
KANJI0
 70
     4
 40
7.5
 41
1.0
 50
0.0
 71
     0
 42
7.5
  3
txt.shx
  4
extfont.shx
  0
STYLE
  5
B1
330
3
100
AcDbSymbolTableRecord
100
AcDbTextStyleTableRecord
  2
KANJI1
 70
     4
 40
7.5
 41
1.0
 50
0.0
 71
     0
 42
7.5
  3
txt.shx
  4
extfont.shx
  0
STYLE
  5
BD
330
3
100
AcDbSymbolTableRecord
100
AcDbTextStyleTableRecord
  2
KANJI2
 70
     4
 40
5.0
 41
1.5
 50
0.0
 71
     0
 42
5.0
  3
txt.shx
  4
extfont.shx
  0
STYLE
  5
BF
330
3
100
AcDbSymbolTableRecord
100
AcDbTextStyleTableRecord
  2
KANJI3
 70
     0
 40
9.0
 41
0.9
 50
0.0
 71
     0
 42
9.0
  3
txt.shx
  4
extfont.shx
  0
STYLE
  5
C8
330
3
100
AcDbSymbolTableRecord
100
AcDbTextStyleTableRecord
  2
KANJI4
 70
     0
 40
9.0
 41
1.0
 50
0.0
 71
     0
 42
9.0
  3
txt.shx
  4
extfont.shx
  0
STYLE
  5
CD
330
3
100
AcDbSymbolTableRecord
100
AcDbTextStyleTableRecord
  2
KANJI5
 70
     0
 40
9.0
 41
0.45
 50
0.0
 71
     0
 42
9.0
  3
txt.shx
  4
extfont.shx
  0
STYLE
  5
D7
330
3
100
AcDbSymbolTableRecord
100
AcDbTextStyleTableRecord
  2
KANJI6
 70
     0
 40
12.0
 41
0.925
 50
0.0
 71
     0
 42
12.0
  3
txt.shx
  4
extfont.shx
  0
STYLE
  5
E5
330
3
100
AcDbSymbolTableRecord
100
AcDbTextStyleTableRecord
  2
KANJI7
 70
     0
 40
12.0
 41
0.4625
 50
0.0
 71
     0
 42
12.0
  3
txt.shx
  4
extfont.shx
  0
STYLE
  5
176
330
3
100
AcDbSymbolTableRecord
100
AcDbTextStyleTableRecord
  2
KANJI8
 70
     0
 40
9.0
 41
0.6
 50
0.0
 71
     0
 42
9.0
  3
txt.shx
  4
extfont.shx
  0
STYLE
  5
1BE
330
3
100
AcDbSymbolTableRecord
100
AcDbTextStyleTableRecord
  2
KANJI9
 70
     0
 40
9.0
 41
0.6
 50
0.0
 71
     0
 42
9.0
  3
txt.shx
  4
extfont.shx
  0
STYLE
  5
1CC
330
3
100
AcDbSymbolTableRecord
100
AcDbTextStyleTableRecord
  2
KANJI10
 70
     0
 40
12.0
 41
1.0
 50
0.0
 71
     0
 42
12.0
  3
txt.shx
  4
extfont.shx
  0
STYLE
  5
271
330
3
100
AcDbSymbolTableRecord
100
AcDbTextStyleTableRecord
  2
KANJI11
 70
     0
 40
9.0
 41
1.0
 50
0.0
 71
     0
 42
9.0
  3
txt.shx
  4
extfont.shx
  0
ENDTAB
  0
TABLE
  2
VIEW
  5
6
330
0
100
AcDbSymbolTable
 70
     0
  0
ENDTAB
  0
TABLE
  2
UCS
  5
7
330
0
100
AcDbSymbolTable
 70
     0
  0
ENDTAB
  0
TABLE
  2
APPID
  5
9
330
0
100
AcDbSymbolTable
 70
     1
  0
APPID
  5
12
330
9
100
AcDbSymbolTableRecord
100
AcDbRegAppTableRecord
  2
ACAD
 70
     0
  0
ENDTAB
  0
TABLE
  2
DIMSTYLE
  5
A
330
0
100
AcDbSymbolTable
 70
     1
100
AcDbDimStyleTable
 71
     0
  0
DIMSTYLE
105
27
330
A
100
AcDbSymbolTableRecord
100
AcDbDimStyleTableRecord
  2
ISO-25
 70
    64
  3

  4

 40
1.0
 41
2.5
 42
0.625
 43
3.75
 44
1.25
 45
0.0
 46
0.0
 47
0.0
 48
0.0
 71
     0
 72
     0
 73
     0
 74
     0
 75
     0
 76
     0
 77
     1
 78
     8
 79
     0
140
2.5
141
2.5
142
0.0
143
0.039370079
144
1.0
145
0.0
146
1.0
147
0.625
148
0.0
170
     0
171
     3
172
     1
173
     0
174
     0
175
     0
176
     0
177
     0
178
     0
179
     0
270
     2
271
     2
272
     2
273
     2
274
     3
275
     0
276
     0
277
     2
278
    46
279
     0
280
     0
281
     0
282
     0
283
     1
284
     8
285
     0
286
     0
288
     0
289
     3
340
11
341
0
342
0
343
0
344
0
371
    -2
372
    -2
  0
ENDTAB
  0
TABLE
  2
BLOCK_RECORD
  5
1
330
0
100
AcDbSymbolTable
 70
     3
  0
BLOCK_RECORD
  5
1F
330
1
100
AcDbSymbolTableRecord
100
AcDbBlockTableRecord
  2
*Model_Space
340
22
  0
BLOCK_RECORD
  5
1B
330
1
100
AcDbSymbolTableRecord
100
AcDbBlockTableRecord
  2
*Paper_Space
340
1E
  0
BLOCK_RECORD
  5
23
330
1
100
AcDbSymbolTableRecord
100
AcDbBlockTableRecord
  2
*Paper_Space0
340
26
  0
ENDTAB
  0
ENDSEC
  0
SECTION
  2
BLOCKS
  0
BLOCK
  5
1C
330
1B
100
AcDbEntity
 67
     1
  8
0
100
AcDbBlockBegin
  2
*Paper_Space
 70
     0
 10
0.0
 20
0.0
 30
0.0
  3
*Paper_Space
  1

  0
ENDBLK
  5
1D
330
1B
100
AcDbEntity
  8
0
100
AcDbBlockEnd
  0
BLOCK
  5
20
330
1F
100
AcDbEntity
  8
0
100
AcDbBlockBegin
  2
*Model_Space
 70
     0
 10
0.0
 20
0.0
 30
0.0
  3
*Model_Space
  1

  0
ENDBLK
  5
21
330
1F
100
AcDbEntity
  8
0
100
AcDbBlockEnd
  0
BLOCK
  5
24
330
23
100
AcDbEntity
 67
     1
  8
0
100
AcDbBlockBegin
  2
*Paper_Space0
 70
     0
 10
0.0
 20
0.0
 30
0.0
  3
*Paper_Space0
  1

  0
ENDBLK
  5
25
330
23
100
AcDbEntity
  8
0
100
AcDbBlockEnd
  0
ENDSEC
  0
SECTION
  2
ENTITIES
  0
LINE
  5
A9
330
1F
100
AcDbEntity
  8
0
  6
Continuous
 62
     2
100
AcDbLine
 10
871.0
 20
38.0
 30
0.0
 11
316.0
 21
38.0
 31
0.0
  0
MTEXT
  5
AA
330
1F
100
AcDbEntity
  8
0
  6
Continuous
 62
     2
100
AcDbMText
 10
707.5
 20
72.5
 30
0.0
 40
7.5
 41
30.0
 71
     1
 72
     3
  1
\W1.000;仕上
  7
KANJI0
 73
     1
 44
1.0
  0
LINE
  5
AC
330
1F
100
AcDbEntity
  8
0
  6
Continuous
 62
     2
100
AcDbLine
 10
706.0
 20
92.0
 30
0.0
 11
871.0
 21
92.0
 31
0.0
  0
LINE
  5
AD
330
1F
100
AcDbEntity
  8
0
  6
Continuous
 62
     2
100
AcDbLine
 10
706.0
 20
74.0
 30
0.0
 11
871.0
 21
74.0
 31
0.0
  0
MTEXT
  5
AE
330
1F
100
AcDbEntity
  8
0
  6
Continuous
 62
     2
100
AcDbMText
 10
707.5
 20
90.5
 30
0.0
 40
7.5
 41
30.0
 71
     1
 72
     3
  1
\W1.000;規格
  7
KANJI0
 73
     1
 44
1.0
  0
MTEXT
  5
AF
330
1F
100
AcDbEntity
  8
0
  6
Continuous
 62
     2
100
AcDbMText
 10
707.5
 20
108.5
 30
0.0
 40
7.5
 41
30.0
 71
     1
 72
     3
  1
\W1.000;材質
  7
KANJI0
 73
     1
 44
1.0
  0
MTEXT
  5
B0
330
1F
100
AcDbEntity
  8
0
  6
Continuous
 62
     2
100
AcDbMText
 10
707.5
 20
126.5
 30
0.0
 40
7.5
 41
30.0
 71
     1
 72
     3
  1
\W1.000;品番
  7
KANJI1
 73
     1
 44
1.0
  0
MTEXT
  5
B2
330
1F
100
AcDbEntity
  8
0
  6
Continuous
 62
     2
100
AcDbMText
 10
707.5
 20
144.5
 30
0.0
 40
7.5
 41
30.0
 71
     1
 72
     3
  1
\W1.000;図名
  7
KANJI0
 73
     1
 44
1.0
  0
LINE
  5
B3
330
1F
100
AcDbEntity
  8
0
  6
Continuous
 62
     2
100
AcDbLine
 10
706.0
 20
110.0
 30
0.0
 11
871.0
 21
110.0
 31
0.0
  0
LINE
  5
B4
330
1F
100
AcDbEntity
  8
0
  6
Continuous
 62
     2
100
AcDbLine
 10
706.0
 20
128.0
 30
0.0
 11
871.0
 21
128.0
 31
0.0
  0
LINE
  5
B5
330
1F
100
AcDbEntity
  8
0
  6
Continuous
 62
     2
100
AcDbLine
 10
706.0
 20
146.0
 30
0.0
 11
871.0
 21
146.0
 31
0.0
  0
LINE
  5
B6
330
1F
100
AcDbEntity
  8
0
  6
Continuous
 62
     2
100
AcDbLine
 10
640.0
 20
38.0
 30
0.0
 11
640.0
 21
20.0
 31
0.0
  0
MTEXT
  5
B7
330
1F
100
AcDbEntity
  8
0
  6
Continuous
 62
     2
100
AcDbMText
 10
641.5
 20
36.5
 30
0.0
 40
7.5
 41
30.0
 71
     1
 72
     3
  1
\W1.000;日付
  7
KANJI0
 73
     1
 44
1.0
  0
LINE
  5
B8
330
1F
100
AcDbEntity
  8
0
  6
Continuous
 62
     2
100
AcDbLine
 10
706.0
 20
20.0
 30
0.0
 11
706.0
 21
146.0
 31
0.0
  0
MTEXT
  5
B9
330
1F
100
AcDbEntity
  8
0
  6
Continuous
 62
     2
100
AcDbMText
 10
641.5
 20
54.5
 30
0.0
 40
7.5
 41
30.0
 71
     1
 72
     3
  1
\W1.000;尺度
  7
KANJI0
 73
     1
 44
1.0
  0
LINE
  5
BA
330
1F
100
AcDbEntity
  8
0
  6
Continuous
 62
     2
100
AcDbLine
 10
640.0
 20
56.0
 30
0.0
 11
871.0
 21
56.0
 31
0.0
  0
MTEXT
  5
BB
330
1F
100
AcDbEntity
  8
0
  6
Continuous
 62
     2
100
AcDbMText
 10
707.5
 20
36.5
 30
0.0
 40
7.5
 41
30.0
 71
     1
 72
     3
  1
\W1.000;品名
  7
KANJI0
 73
     1
 44
1.0
  0
MTEXT
  5
BC
330
1F
100
AcDbEntity
  8
0
  6
Continuous
 62
     2
100
AcDbMText
 10
707.5
 20
54.5
 30
0.0
 40
5.0
 41
30.0
 71
     1
 72
     3
  1
\W1.500;その他
  7
KANJI2
 73
     1
 44
1.0
  0
MTEXT
  5
BE
330
1F
100
AcDbEntity
  8
0
  6
Continuous
 62
     2
100
AcDbMText
 10
724.0
 20
95.6
 30
0.0
 40
9.0
 41
52.2
 71
     7
 72
     1
  1
\T1.111;\W0.900;－－－
  7
KANJI3
 73
     1
 44
1.0
  0
MTEXT
  5
C0
330
1F
100
AcDbEntity
  8
0
  6
Continuous
 62
     2
100
AcDbMText
 10
724.0
 20
77.6
 30
0.0
 40
9.0
 41
52.2
 71
     7
 72
     1
  1
\T1.111;\W0.900;－－－
  7
KANJI3
 73
     1
 44
1.0
  0
MTEXT
  5
C1
330
1F
100
AcDbEntity
  8
0
  6
Continuous
 62
     2
100
AcDbMText
 10
724.0
 20
59.6
 30
0.0
 40
9.0
 41
52.2
 71
     7
 72
     1
  1
\T1.111;\W0.900;－－－
  7
KANJI3
 73
     1
 44
1.0
  0
MTEXT
  5
C2
330
1F
100
AcDbEntity
  8
0
  6
Continuous
 62
     2
100
AcDbMText
 10
724.0
 20
41.6
 30
0.0
 40
9.0
 41
52.2
 71
     7
 72
     1
  1
\T1.111;\W0.900;－－－
  7
KANJI3
 73
     1
 44
1.0
  0
POINT
  5
C3
330
1F
100
AcDbEntity
  8
0
  6
Continuous
 62
     2
100
AcDbPoint
 10
871.0
 20
146.0
 30
0.0
  0
LINE
  5
C4
330
1F
100
AcDbEntity
  8
0
  6
Continuous
 62
     2
100
AcDbLine
 10
640.0
 20
74.0
 30
0.0
 11
706.0
 21
74.0
 31
0.0
  0
LINE
  5
C5
330
1F
100
AcDbEntity
  8
0
  6
Continuous
 62
     2
100
AcDbLine
 10
640.0
 20
74.0
 30
0.0
 11
640.0
 21
38.0
 31
0.0
  0
MTEXT
  5
C6
330
1F
100
AcDbEntity
  8
0
  6
Continuous
 62
     2
100
AcDbMText
 10
641.5
 20
72.5
 30
0.0
 40
7.5
 41
30.0
 71
     1
 72
     3
  1
\W1.000;用紙
  7
KANJI0
 73
     1
 44
1.0
  0
MTEXT
  5
C7
330
1F
100
AcDbEntity
  8
0
  6
Continuous
 62
     2
100
AcDbMText
 10
319.0
 20
24.5
 30
0.0
 40
9.0
 41
240.0
 71
     7
 72
     1
  1
\T1.370;\W1.000;オオハシ産業株式会社
  7
KANJI4
 73
     1
 44
1.0
  0
LINE
  5
C9
330
1F
100
AcDbEntity
  8
0
  6
Continuous
 62
     2
100
AcDbLine
 10
445.0
 20
38.0
 30
0.0
 11
445.0
 21
20.0
 31
0.0
  0
MTEXT
  5
CA
330
1F
100
AcDbEntity
  8
0
  6
Continuous
 62
     2
100
AcDbMText
 10
446.5
 20
36.5
 30
0.0
 40
7.5
 41
30.0
 71
     1
 72
     3
  1
\W1.000;作図
  7
KANJI0
 73
     1
 44
1.0
  0
LINE
  5
CB
330
1F
100
AcDbEntity
  8
0
  6
Continuous
 62
     2
100
AcDbLine
 10
505.0
 20
20.0
 30
0.0
 11
505.0
 21
38.0
 31
0.0
  0
MTEXT
  5
CC
330
1F
100
AcDbEntity
  8
0
  6
Continuous
 62
     2
100
AcDbMText
 10
508.0
 20
24.5
 30
0.0
 40
9.0
 41
27.9
 71
     7
 72
     1
  1
\T1.111;\W0.900;ＦＤ＝
  7
KANJI5
 73
     1
 44
1.0
  0
LINE
  5
CE
330
1F
100
AcDbEntity
  8
0
  6
Continuous
 62
     2
100
AcDbLine
 10
565.0
 20
20.0
 30
0.0
 11
565.0
 21
38.0
 31
0.0
  0
MTEXT
  5
CF
330
1F
100
AcDbEntity
  8
0
  6
Continuous
 62
     2
100
AcDbMText
 10
568.0
 20
24.5
 30
0.0
 40
9.0
 41
27.9
 71
     7
 72
     1
  1
\T1.111;\W0.900;ＮＯ＝
  7
KANJI5
 73
     1
 44
1.0
  0
LINE
  5
D0
330
1F
100
AcDbEntity
  8
0
  6
Continuous
 62
     2
100
AcDbLine
 10
316.0
 20
20.0
 30
0.0
 11
316.0
 21
38.0
 31
0.0
  0
MTEXT
  5
D1
330
1F
100
AcDbEntity
  8
0
  6
Continuous
 62
     2
100
AcDbMText
 10
361.0
 20
45.5
 30
0.0
 40
9.0
 41
412.2
 71
     7
 72
     1
  1
\T1.111;\W0.900;特記　　寸法指示無い公差は±０．５以内とする．
  7
KANJI3
 73
     1
 44
1.0
  0
MTEXT
  5
D2
330
1F
100
AcDbEntity
  8
0
  6
Continuous
 62
     2
100
AcDbMText
 10
457.0
 20
23.6
 30
0.0
 40
9.0
 41
88.2
 71
     7
 72
     1
  1
\T1.111;\W0.900;大橋　一之
  7
KANJI3
 73
     1
 44
1.0
  0
MTEXT
  5
D3
330
1F
100
AcDbEntity
  8
0
  6
Continuous
 62
     2
100
AcDbMText
 10
652.0
 20
23.6
 30
0.0
 40
9.0
 41
97.2
 71
     7
 72
     1
  1
\T1.111;\W0.900;２０１５／０２／１７
  7
KANJI5
 73
     1
 44
1.0
  0
MTEXT
  5
D4
330
1F
100
AcDbEntity
  8
0
  6
Continuous
 62
     2
100
AcDbMText
 10
527.8
 20
23.6
 30
0.0
 40
9.0
 41
52.2
 71
     7
 72
     1
  1
\T1.111;\W0.900;ヒビノ
  7
KANJI3
 73
     1
 44
1.0
  0
MTEXT
  5
D5
330
1F
100
AcDbEntity
  8
0
  6
Continuous
 62
     2
100
AcDbMText
 10
664.0
 20
59.6
 30
0.0
 40
9.0
 41
34.2
 71
     7
 72
     1
  1
\T1.111;\W0.900;Ａ４
  7
KANJI3
 73
     1
 44
1.0
  0
MTEXT
  5
D6
330
1F
100
AcDbEntity
  8
0
  6
Continuous
 62
     2
100
AcDbMText
 10
724.1575
 20
151.61
 30
0.0
 40
12.0
 41
267.6
 71
     7
 72
     1
  1
\T1.081;\W0.741;ブラケット重量　１．１４ｋｇ
  7
KANJI6
 73
     1
 44
1.0
  0
MTEXT
  5
D8
330
1F
100
AcDbEntity
  8
0
  6
Continuous
 62
     2
100
AcDbMText
 10
724.0
 20
131.6
 30
0.0
 40
9.0
 41
119.7
 71
     7
 72
     1
  1
\T1.111;\W0.672;ＡＣＵ２５　全体図
  7
KANJI3
 73
     1
 44
1.0
  0
MTEXT
  5
D9
330
1F
100
AcDbEntity
  8
0
  6
Continuous
 62
     2
100
AcDbMText
 10
724.0
 20
113.6
 30
0.0
 40
9.0
 41
47.7
 71
     7
 72
     1
  1
\T1.111;\W0.900;ＡＣＵ２５
  7
KANJI5
 73
     1
 44
1.0
  0
MTEXT
  5
DA
330
1F
100
AcDbEntity
  8
0
  6
Continuous
 62
     2
100
AcDbMText
 10
664.0
 20
41.6
 30
0.0
 40
9.0
 41
52.2
 71
     7
 72
     1
  1
\T1.111;\W0.900;１／３
  7
KANJI3
 73
     1
 44
1.0
  0
MTEXT
  5
DB
330
1F
100
AcDbEntity
  8
0
  6
Continuous
 62
     2
100
AcDbMText
 10
724.0
 20
23.6
 30
0.0
 40
9.0
 41
213.3
 71
     7
 72
     1
  1
\T1.111;\W0.671;ＡＣＵ２５　ＡＣ２５用ブラケット
  7
KANJI3
 73
     1
 44
1.0
  0
MTEXT
  5
DC
330
1F
100
AcDbEntity
  8
0
  6
Continuous
 62
     2
100
AcDbMText
 10
589.0
 20
23.6
 30
0.0
 40
9.0
 41
87.3
 71
     7
 72
     1
  1
\T1.111;\W0.900;ＡＣＵ２５－１１１
  7
KANJI5
 73
     1
 44
1.0
  0
LINE
  5
DD
330
1F
100
AcDbEntity
  8
0
  6
Continuous
 62
     2
100
AcDbLine
 10
20.0
 20
20.0
 30
0.0
 11
20.0
 21
610.0
 31
0.0
  0
LINE
  5
DE
330
1F
100
AcDbEntity
  8
0
  6
Continuous
 62
     2
100
AcDbLine
 10
20.0
 20
20.0
 30
0.0
 11
871.0
 21
20.0
 31
0.0
  0
LINE
  5
DF
330
1F
100
AcDbEntity
  8
0
  6
Continuous
 62
     2
100
AcDbLine
 10
871.0
 20
20.0
 30
0.0
 11
871.0
 21
610.0
 31
0.0
  0
LINE
  5
E0
330
1F
100
AcDbEntity
  8
0
  6
Continuous
 62
     2
100
AcDbLine
 10
20.0
 20
610.0
 30
0.0
 11
871.0
 21
610.0
 31
0.0
  0
MTEXT
  5
E1
330
1F
100
AcDbEntity
  8
0
  6
Continuous
 62
     2
100
AcDbMText
 10
34.0525
 20
57.5225
 30
0.0
 40
12.0
 41
190.2
 71
     7
 72
     1
  1
\T1.081;\W0.925;六角穴付きボルト
  7
KANJI6
 73
     1
 44
1.0
  0
MTEXT
  5
E2
330
1F
100
AcDbEntity
  8
0
  6
Continuous
 62
     2
100
AcDbMText
 10
34.0525
 20
42.5225
 30
0.0
 40
12.0
 41
238.2
 71
     7
 72
     1
  1
\T1.081;\W0.925;スプリングワッシャー
  7
KANJI6
 73
     1
 44
1.0
  0
MTEXT
  5
E3
330
1F
100
AcDbEntity
  8
0
  6
Continuous
 62
     2
100
AcDbMText
 10
34.0525
 20
27.5225
 30
0.0
 40
12.0
 41
118.2
 71
     7
 72
     1
  1
\T1.081;\W0.925;ワッシャー
  7
KANJI6
 73
     1
 44
1.0
  0
MTEXT
  5
E4
330
1F
100
AcDbEntity
  8
0
  6
Continuous
 62
     2
100
AcDbMText
 10
161.5525
 20
57.5225
 30
0.0
 40
12.0
 41
62.7
 71
     7
 72
     1
  1
\T1.081;\W0.925;Ｍ８－３０
  7
KANJI7
 73
     1
 44
1.0
  0
MTEXT
  5
E6
330
1F
100
AcDbEntity
  8
0
  6
Continuous
 62
     2
100
AcDbMText
 10
161.5525
 20
42.5225
 30
0.0
 40
12.0
 41
24.0
 71
     7
 72
     1
  1
\T1.081;\W0.925;Ｍ８
  7
KANJI7
 73
     1
 44
1.0
  0
MTEXT
  5
E7
330
1F
100
AcDbEntity
  8
0
  6
Continuous
 62
     2
100
AcDbMText
 10
161.5525
 20
27.5225
 30
0.0
 40
12.0
 41
24.0
 71
     7
 72
     1
  1
\T1.081;\W0.925;Ｍ８
  7
KANJI7
 73
     1
 44
1.0
  0
MTEXT
  5
E8
330
1F
100
AcDbEntity
  8
0
  6
Continuous
 62
     2
100
AcDbMText
 10
199.0525
 20
27.5225
 30
0.0
 40
12.0
 41
35.1
 71
     7
 72
     1
  1
\T1.081;\W0.703;２個
  7
KANJI6
 73
     1
 44
1.0
  0
MTEXT
  5
E9
330
1F
100
AcDbEntity
  8
0
  6
Continuous
 62
     2
100
AcDbMText
 10
199.0525
 20
42.5225
 30
0.0
 40
12.0
 41
35.1
 71
     7
 72
     1
  1
\T1.081;\W0.703;２個
  7
KANJI6
 73
     1
 44
1.0
  0
MTEXT
  5
EA
330
1F
100
AcDbEntity
  8
0
  6
Continuous
 62
     2
100
AcDbMText
 10
199.0525
 20
57.5225
 30
0.0
 40
12.0
 41
35.1
 71
     7
 72
     1
  1
\T1.081;\W0.703;２個
  7
KANJI6
 73
     1
 44
1.0
  0
MTEXT
  5
EB
330
1F
100
AcDbEntity
  8
0
  6
Continuous
 62
     2
100
AcDbMText
 10
34.0525
 20
72.5225
 30
0.0
 40
12.0
 41
94.2
 71
     7
 72
     1
  1
\T1.081;\W0.925;添付ネジ
  7
KANJI6
 73
     1
 44
1.0
  0
LINE
  5
EC
330
1F
100
AcDbEntity
  8
5
  6
Continuous
 62
     1
100
AcDbLine
 10
604.305223513
 20
463.334776351
 30
0.0
 11
606.305223513
 21
463.334776351
 31
0.0
  0
LINE
  5
ED
330
1F
100
AcDbEntity
  8
5
  6
Continuous
 62
     1
100
AcDbLine
 10
606.305223513
 20
526.334776351
 30
0.0
 11
606.305223513
 21
528.334776351
 31
0.0
  0
LINE
  5
EE
330
1F
100
AcDbEntity
  8
5
  6
Continuous
 62
     1
100
AcDbLine
 10
606.305223513
 20
528.334776351
 30
0.0
 11
620.305223513
 21
528.334776351
 31
0.0
  0
LINE
  5
EF
330
1F
100
AcDbEntity
  8
5
  6
Continuous
 62
     1
100
AcDbLine
 10
606.305223513
 20
526.334776351
 30
0.0
 11
620.305223513
 21
526.334776351
 31
0.0
  0
ARC
  5
F0
330
1F
100
AcDbEntity
  8
5
  6
Continuous
 62
     1
100
AcDbCircle
 10
608.305223513
 20
496.334776351
 30
0.0
 40
2.0
100
AcDbArc
 50
90.0
 51
180.0
  0
LINE
  5
F1
330
1F
100
AcDbEntity
  8
5
  6
Continuous
 62
     1
100
AcDbLine
 10
606.305223513
 20
463.334776351
 30
0.0
 11
606.305223513
 21
496.334776351
 31
0.0
  0
LINE
  5
F2
330
1F
100
AcDbEntity
  8
5
  6
Continuous
 62
     1
100
AcDbLine
 10
604.305223513
 20
463.334776351
 30
0.0
 11
604.305223513
 21
496.334765561
 31
0.0
  0
ARC
  5
F3
330
1F
100
AcDbEntity
  8
5
  6
Continuous
 62
     1
100
AcDbCircle
 10
608.305223513
 20
496.334776351
 30
0.0
 40
4.0
100
AcDbArc
 50
90.0
 51
180.00015455
  0
LINE
  5
F4
330
1F
100
AcDbEntity
  8
5
  6
Continuous
 62
     1
100
AcDbLine
 10
226.305223513
 20
493.334776351
 30
0.0
 11
224.305223513
 21
493.334776351
 31
0.0
  0
LINE
  5
F5
330
1F
100
AcDbEntity
  8
5
  6
Continuous
 62
     1
100
AcDbLine
 10
224.305223513
 20
430.334776351
 30
0.0
 11
224.305223513
 21
428.334776351
 31
0.0
  0
LINE
  5
F6
330
1F
100
AcDbEntity
  8
5
  6
Continuous
 62
     1
100
AcDbLine
 10
222.305223513
 20
458.334776351
 30
0.0
 11
210.305223513
 21
458.334776351
 31
0.0
  0
LINE
  5
F7
330
1F
100
AcDbEntity
  8
5
  6
Continuous
 62
     1
100
AcDbLine
 10
222.305223513
 20
456.334776351
 30
0.0
 11
210.305223513
 21
456.334776351
 31
0.0
  0
ARC
  5
F8
330
1F
100
AcDbEntity
  8
5
  6
Continuous
 62
     1
100
AcDbCircle
 10
222.305223513
 20
460.334776351
 30
0.0
 40
2.0
100
AcDbArc
 50
270.0
 51
0.0
  0
LINE
  5
F9
330
1F
100
AcDbEntity
  8
5
  6
Continuous
 62
     1
100
AcDbLine
 10
224.305223513
 20
493.334776351
 30
0.0
 11
224.305223513
 21
460.334776351
 31
0.0
  0
LINE
  5
FA
330
1F
100
AcDbEntity
  8
5
  6
Continuous
 62
     1
100
AcDbLine
 10
226.305223513
 20
493.334776351
 30
0.0
 11
226.305223513
 21
460.33478714
 31
0.0
  0
ARC
  5
FB
330
1F
100
AcDbEntity
  8
5
  6
Continuous
 62
     1
100
AcDbCircle
 10
222.305223513
 20
460.334776351
 30
0.0
 40
4.0
100
AcDbArc
 50
270.0
 51
0.00015455
  0
LINE
  5
FD
330
1F
100
AcDbEntity
  8
4
  6
LTYPE1
 62
     2
100
AcDbLine
 10
415.305223513
 20
352.834776351
 30
0.0
 11
622.305223513
 21
352.834776351
 31
0.0
  0
LINE
  5
FE
330
1F
100
AcDbEntity
  8
4
  6
Continuous
 62
     1
100
AcDbLine
 10
415.305223513
 20
350.834776351
 30
0.0
 11
622.305212723
 21
350.834776351
 31
0.0
  0
LINE
  5
FF
330
1F
100
AcDbEntity
  8
4
  6
Continuous
 62
     1
100
AcDbLine
 10
415.305223513
 20
365.834776351
 30
0.0
 11
610.598116731
 21
365.834776351
 31
0.0
  0
ARC
  5
100
330
1F
100
AcDbEntity
  8
4
  6
Continuous
 62
     1
100
AcDbCircle
 10
622.305223513
 20
354.834776351
 30
0.0
 40
2.0
100
AcDbArc
 50
270.0
 51
0.0
  0
LINE
  5
101
330
1F
100
AcDbEntity
  8
4
  6
Continuous
 62
     1
100
AcDbLine
 10
622.305223513
 20
352.834776351
 30
0.0
 11
622.305223513
 21
350.834776351
 31
0.0
  0
ARC
  5
102
330
1F
100
AcDbEntity
  8
4
  6
Continuous
 62
     1
100
AcDbCircle
 10
624.305223513
 20
352.834776351
 30
0.0
 40
2.0
100
AcDbArc
 50
90.0
 51
120.522487814
  0
ARC
  5
103
330
1F
100
AcDbEntity
  8
4
  6
Continuous
 62
     1
100
AcDbCircle
 10
624.305223513
 20
352.834776351
 30
0.0
 40
2.0
100
AcDbArc
 50
149.477512186
 51
180.0
  0
ARC
  5
104
330
1F
100
AcDbEntity
  8
4
  6
Continuous
 62
     1
100
AcDbCircle
 10
622.305223513
 20
354.834776351
 30
0.0
 40
4.0
100
AcDbArc
 50
269.99984545
 51
0.0
  0
LINE
  5
105
330
1F
100
AcDbEntity
  8
4
  6
Continuous
 62
     1
100
AcDbLine
 10
624.305223513
 20
354.834776351
 30
0.0
 11
626.305223513
 21
354.834776351
 31
0.0
  0
LINE
  5
106
330
1F
100
AcDbEntity
  8
4
  6
Continuous
 62
     1
100
AcDbLine
 10
611.305223513
 20
366.541883132
 30
0.0
 11
623.289470509
 21
354.557636135
 31
0.0
  0
LINE
  5
107
330
1F
100
AcDbEntity
  8
4
  6
Continuous
 62
     1
100
AcDbLine
 10
610.598116731
 20
365.834776351
 30
0.0
 11
622.582363728
 21
353.850529354
 31
0.0
  0
LINE
  5
109
330
1F
100
AcDbEntity
  8
4
  6
LTYPE2
 62
     2
100
AcDbLine
 10
610.305223513
 20
366.834776351
 30
0.0
 11
626.305223513
 21
350.834776351
 31
0.0
  0
LINE
  5
10A
330
1F
100
AcDbEntity
  8
4
  6
Continuous
 62
     1
100
AcDbLine
 10
611.305223513
 20
526.334776351
 30
0.0
 11
626.305223513
 21
526.334776351
 31
0.0
  0
LINE
  5
10B
330
1F
100
AcDbEntity
  8
4
  6
LTYPE1
 62
     2
100
AcDbLine
 10
624.305223513
 20
354.834776351
 30
0.0
 11
624.305223513
 21
526.334776351
 31
0.0
  0
LINE
  5
10C
330
1F
100
AcDbEntity
  8
4
  6
Continuous
 62
     1
100
AcDbLine
 10
626.305223513
 20
354.834776351
 30
0.0
 11
626.305223513
 21
526.334776351
 31
0.0
  0
LINE
  5
10D
330
1F
100
AcDbEntity
  8
4
  6
LTYPE1
 62
     2
100
AcDbLine
 10
415.305223513
 20
282.834776351
 30
0.0
 11
208.305223513
 21
282.834776351
 31
0.0
  0
LINE
  5
10E
330
1F
100
AcDbEntity
  8
4
  6
Continuous
 62
     1
100
AcDbLine
 10
415.305223513
 20
280.834776351
 30
0.0
 11
208.305234302
 21
280.834776351
 31
0.0
  0
LINE
  5
10F
330
1F
100
AcDbEntity
  8
4
  6
Continuous
 62
     1
100
AcDbLine
 10
415.305223513
 20
295.834776351
 30
0.0
 11
220.012330294
 21
295.834776351
 31
0.0
  0
ARC
  5
110
330
1F
100
AcDbEntity
  8
4
  6
Continuous
 62
     1
100
AcDbCircle
 10
208.305223513
 20
284.834776351
 30
0.0
 40
2.0
100
AcDbArc
 50
180.0
 51
270.0
  0
LINE
  5
111
330
1F
100
AcDbEntity
  8
4
  6
Continuous
 62
     1
100
AcDbLine
 10
208.305223513
 20
282.834776351
 30
0.0
 11
208.305223513
 21
280.834776351
 31
0.0
  0
ARC
  5
112
330
1F
100
AcDbEntity
  8
4
  6
Continuous
 62
     1
100
AcDbCircle
 10
206.305223513
 20
282.834776351
 30
0.0
 40
2.0
100
AcDbArc
 50
59.477512186
 51
90.0
  0
ARC
  5
113
330
1F
100
AcDbEntity
  8
4
  6
Continuous
 62
     1
100
AcDbCircle
 10
206.305223513
 20
282.834776351
 30
0.0
 40
2.0
100
AcDbArc
 50
0.0
 51
30.522487814
  0
ARC
  5
114
330
1F
100
AcDbEntity
  8
4
  6
Continuous
 62
     1
100
AcDbCircle
 10
208.305223513
 20
284.834776351
 30
0.0
 40
4.0
100
AcDbArc
 50
180.0
 51
270.00015455
  0
LINE
  5
115
330
1F
100
AcDbEntity
  8
4
  6
Continuous
 62
     1
100
AcDbLine
 10
206.305223513
 20
284.834776351
 30
0.0
 11
204.305223513
 21
284.834776351
 31
0.0
  0
LINE
  5
116
330
1F
100
AcDbEntity
  8
4
  6
Continuous
 62
     1
100
AcDbLine
 10
219.305223513
 20
296.541883132
 30
0.0
 11
207.320976516
 21
284.557636135
 31
0.0
  0
LINE
  5
117
330
1F
100
AcDbEntity
  8
4
  6
Continuous
 62
     1
100
AcDbLine
 10
220.012330294
 20
295.834776351
 30
0.0
 11
208.028083297
 21
283.850529354
 31
0.0
  0
LINE
  5
118
330
1F
100
AcDbEntity
  8
4
  6
LTYPE2
 62
     2
100
AcDbLine
 10
220.305223513
 20
296.834776351
 30
0.0
 11
204.305223513
 21
280.834776351
 31
0.0
  0
LINE
  5
119
330
1F
100
AcDbEntity
  8
4
  6
Continuous
 62
     1
100
AcDbLine
 10
219.305223513
 20
456.334776351
 30
0.0
 11
204.305223513
 21
456.334776351
 31
0.0
  0
LINE
  5
11A
330
1F
100
AcDbEntity
  8
4
  6
LTYPE1
 62
     2
100
AcDbLine
 10
206.305223513
 20
284.834776351
 30
0.0
 11
206.305223513
 21
456.334776351
 31
0.0
  0
LINE
  5
11B
330
1F
100
AcDbEntity
  8
4
  6
Continuous
 62
     1
100
AcDbLine
 10
204.305223513
 20
284.834776351
 30
0.0
 11
204.305223513
 21
456.334776351
 31
0.0
  0
LINE
  5
11C
330
1F
100
AcDbEntity
  8
4
  6
Continuous
 62
     1
100
AcDbLine
 10
219.305223513
 20
296.541883132
 30
0.0
 11
219.305223513
 21
456.334776351
 31
0.0
  0
LINE
  5
11D
330
1F
100
AcDbEntity
  8
2
  6
LTYPE2
 62
     2
100
AcDbLine
 10
370.906736927
 20
354.61957606
 30
0.0
 11
370.906736927
 21
387.129286953
 31
0.0
  0
LINE
  5
11E
330
1F
100
AcDbEntity
  8
2
  6
LTYPE2
 62
     2
100
AcDbLine
 10
391.656625721
 20
325.921647845
 30
0.0
 11
377.805748552
 21
325.921647845
 31
0.0
  0
LINE
  5
11F
330
1F
100
AcDbEntity
  8
2
  6
LTYPE2
 62
     2
100
AcDbLine
 10
394.50898725
 20
353.427387648
 30
0.0
 11
361.102159827
 21
353.427387648
 31
0.0
  0
LINE
  5
120
330
1F
100
AcDbEntity
  8
2
  6
LTYPE2
 62
     2
100
AcDbLine
 10
389.864492818
 20
336.423126626
 30
0.0
 11
377.805748552
 21
336.423126626
 31
0.0
  0
LWPOLYLINE
  5
122
330
1F
100
AcDbEntity
  8
2
  6
LTYPE2
 62
     2
100
AcDbPolyline
 90
     3
 70
   128
 43
0.0
 10
371.908161191
 20
326.3983832
 10
365.745254155
 20
336.423126626
 10
377.805748552
 20
336.423126626
  0
LINE
  5
123
330
1F
100
AcDbEntity
  8
2
  6
LTYPE2
 62
     2
100
AcDbLine
 10
395.908391028
 20
338.925112171
 30
0.0
 11
392.624447494
 21
326.663002824
 31
0.0
  0
LWPOLYLINE
  5
125
330
1F
100
AcDbEntity
  8
2
  6
LTYPE2
 62
     2
100
AcDbPolyline
 90
    36
 70
   128
 43
0.0
 10
362.987749661
 20
326.663002824
 10
362.998367657
 20
326.625888088
 10
363.010338716
 20
326.589445499
 10
363.023630657
 20
326.553699159
 10
363.038211297
 20
326.518673165
 10
363.054048455
 20
326.484391619
 10
363.071109949
 20
326.450878619
 10
363.089363597
 20
326.418158266
 10
363.108777216
 20
326.386254659
 10
363.129318625
 20
326.355191899
 10
363.150955642
 20
326.324994084
 10
363.173656085
 20
326.295685314
 10
363.197387771
 20
326.26728969
 10
363.222118519
 20
326.239831311
 10
363.247816147
 20
326.213334277
 10
363.274448474
 20
326.187822687
 10
363.301983315
 20
326.163320641
 10
363.330388491
 20
326.139852239
 10
363.359631819
 20
326.117441582
 10
363.389681117
 20
326.096112767
 10
363.420504203
 20
326.075889896
 10
363.452068895
 20
326.056797068
 10
363.484343011
 20
326.038858383
 10
363.517294368
 20
326.02209794
 10
363.550890787
 20
326.006539839
 10
363.585100083
 20
325.99220818
 10
363.619890075
 20
325.979127063
 10
363.655228581
 20
325.967320588
 10
363.69108342
 20
325.956812853
 10
363.727422409
 20
325.94762796
 10
363.764213366
 20
325.939790007
 10
363.801424109
 20
325.933323095
 10
363.839022456
 20
325.928251323
 10
363.876976226
 20
325.924598791
 10
363.915253236
 20
325.922389598
 10
363.953821304
 20
325.921647845
  0
LINE
  5
126
330
1F
100
AcDbEntity
  8
2
  6
LTYPE2
 62
     2
100
AcDbLine
 10
363.942620474
 20
325.921647845
 30
0.0
 11
377.805748552
 21
325.921647845
 31
0.0
  0
LINE
  5
127
330
1F
100
AcDbEntity
  8
2
  6
LTYPE2
 62
     2
100
AcDbLine
 10
359.701705971
 20
338.925112171
 30
0.0
 11
362.987749661
 21
326.660202616
 31
0.0
  0
LINE
  5
128
330
1F
100
AcDbEntity
  8
2
  6
LTYPE2
 62
     2
100
AcDbLine
 10
384.704060125
 20
354.61957606
 30
0.0
 11
384.704060125
 21
387.129286953
 31
0.0
  0
LWPOLYLINE
  5
12A
330
1F
100
AcDbEntity
  8
2
  6
LTYPE2
 62
     2
100
AcDbPolyline
 90
   172
 70
   128
 43
0.0
 10
394.50898725
 20
353.427387648
 10
394.50898725
 20
353.421380411
 10
394.50898725
 20
353.40382528
 10
394.50898725
 20
353.375422129
 10
394.50898725
 20
353.336870829
 10
394.50898725
 20
353.288871253
 10
394.50898725
 20
353.232123273
 10
394.50898725
 20
353.167326762
 10
394.50898725
 20
353.095181591
 10
394.50898725
 20
353.016387634
 10
394.50898725
 20
352.931644762
 10
394.50898725
 20
352.841652847
 10
394.50898725
 20
352.747111763
 10
394.50898725
 20
352.64872138
 10
394.50898725
 20
352.547181573
 10
394.50898725
 20
352.443192212
 10
394.50898725
 20
352.33745317
 10
394.50898725
 20
352.23066432
 10
394.50898725
 20
352.123525534
 10
394.50898725
 20
352.016736684
 10
394.50898725
 20
351.910997643
 10
394.50898725
 20
351.807008282
 10
394.50898725
 20
351.705468474
 10
394.50898725
 20
351.607078092
 10
394.50898725
 20
351.512537008
 10
394.50898725
 20
351.422545093
 10
394.50898725
 20
351.337802221
 10
394.50898725
 20
351.259008263
 10
394.50898725
 20
351.186863093
 10
394.50898725
 20
351.122066581
 10
394.50898725
 20
351.065318601
 10
394.50898725
 20
351.017319025
 10
394.50898725
 20
350.978767726
 10
394.50898725
 20
350.950364574
 10
394.50898725
 20
350.932809444
 10
394.50898725
 20
350.926802207
 10
394.428732947
 20
350.926802207
 10
394.194203383
 20
350.926802207
 10
393.814748574
 20
350.926802207
 10
393.299718535
 20
350.926802207
 10
392.658463282
 20
350.926802207
 10
391.900332831
 20
350.926802207
 10
391.034677198
 20
350.926802207
 10
390.070846399
 20
350.926802207
 10
389.018190449
 20
350.926802207
 10
387.886059364
 20
350.926802207
 10
386.683803161
 20
350.926802207
 10
385.420771855
 20
350.926802207
 10
384.106315462
 20
350.926802207
 10
382.749783997
 20
350.926802207
 10
381.360527477
 20
350.926802207
 10
379.947895918
 20
350.926802207
 10
378.521239334
 20
350.926802207
 10
377.089907743
 20
350.926802207
 10
375.66325116
 20
350.926802207
 10
374.2506196
 20
350.926802207
 10
372.86136308
 20
350.926802207
 10
371.504831616
 20
350.926802207
 10
370.190375222
 20
350.926802207
 10
368.927343916
 20
350.926802207
 10
367.725087713
 20
350.926802207
 10
366.592956628
 20
350.926802207
 10
365.540300679
 20
350.926802207
 10
364.576469879
 20
350.926802207
 10
363.710814246
 20
350.926802207
 10
362.952683795
 20
350.926802207
 10
362.311428542
 20
350.926802207
 10
361.796398503
 20
350.926802207
 10
361.416943694
 20
350.926802207
 10
361.18241413
 20
350.926802207
 10
361.102159827
 20
350.926802207
 10
361.102159827
 20
350.932809444
 10
361.102159827
 20
350.950364574
 10
361.102159827
 20
350.978767726
 10
361.102159827
 20
351.017319025
 10
361.102159827
 20
351.065318601
 10
361.102159827
 20
351.122066581
 10
361.102159827
 20
351.186863093
 10
361.102159827
 20
351.259008263
 10
361.102159827
 20
351.337802221
 10
361.102159827
 20
351.422545093
 10
361.102159827
 20
351.512537008
 10
361.102159827
 20
351.607078092
 10
361.102159827
 20
351.705468474
 10
361.102159827
 20
351.807008282
 10
361.102159827
 20
351.910997643
 10
361.102159827
 20
352.016736684
 10
361.102159827
 20
352.123525534
 10
361.102159827
 20
352.23066432
 10
361.102159827
 20
352.33745317
 10
361.102159827
 20
352.443192212
 10
361.102159827
 20
352.547181573
 10
361.102159827
 20
352.64872138
 10
361.102159827
 20
352.747111763
 10
361.102159827
 20
352.841652847
 10
361.102159827
 20
352.931644762
 10
361.102159827
 20
353.016387634
 10
361.102159827
 20
353.095181591
 10
361.102159827
 20
353.167326762
 10
361.102159827
 20
353.232123273
 10
361.102159827
 20
353.288871253
 10
361.102159827
 20
353.336870829
 10
361.102159827
 20
353.375422129
 10
361.102159827
 20
353.40382528
 10
361.102159827
 20
353.421380411
 10
361.102159827
 20
353.427387648
 10
361.055050628
 20
353.428476855
 10
361.00850209
 20
353.43171241
 10
360.962562267
 20
353.437046209
 10
360.917279211
 20
353.444430153
 10
360.872700974
 20
353.453816139
 10
360.82887561
 20
353.465156065
 10
360.78585117
 20
353.478401831
 10
360.743675708
 20
353.493505335
 10
360.702397275
 20
353.510418475
 10
360.662063925
 20
353.52909315
 10
360.62272371
 20
353.549481257
 10
360.584424682
 20
353.571534697
 10
360.547214894
 20
353.595205367
 10
360.511142398
 20
353.620445165
 10
360.476255248
 20
353.64720599
 10
360.442601495
 20
353.675439741
 10
360.410229192
 20
353.705098316
 10
360.379186392
 20
353.736133614
 10
360.349521147
 20
353.768497532
 10
360.32128151
 20
353.80214197
 10
360.294515533
 20
353.837018826
 10
360.269271269
 20
353.873079998
 10
360.245596771
 20
353.910277385
 10
360.22354009
 20
353.948562886
 10
360.20314928
 20
353.987888398
 10
360.184472393
 20
354.028205821
 10
360.167557481
 20
354.069467052
 10
360.152452598
 20
354.11162399
 10
360.139205795
 20
354.154628535
 10
360.127865126
 20
354.198432583
 10
360.118478642
 20
354.242988034
 10
360.111094396
 20
354.288246787
 10
360.105760441
 20
354.334160738
 10
360.10252483
 20
354.380681788
 10
360.101435615
 20
354.427761835
 10
360.101435615
 20
354.508016978
 10
360.101435615
 20
354.742549
 10
360.101435615
 20
355.122007785
 10
360.101435615
 20
355.63704322
 10
360.101435615
 20
356.278305192
 10
360.101435615
 20
357.036443586
 10
360.101435615
 20
357.90210829
 10
360.101435615
 20
358.865949188
 10
360.101435615
 20
359.918616167
 10
360.101435615
 20
361.050759113
 10
360.101435615
 20
362.253027913
 10
360.101435615
 20
363.516072453
 10
360.101435615
 20
364.830542619
 10
360.101435615
 20
366.187088297
 10
360.101435615
 20
367.576359373
 10
360.101435615
 20
368.989005734
 10
360.101435615
 20
370.415677265
 10
360.101435615
 20
371.847023853
 10
360.101435615
 20
373.273695385
 10
360.101435615
 20
374.686341745
 10
360.101435615
 20
376.075612821
 10
360.101435615
 20
377.432158499
 10
360.101435615
 20
378.746628665
 10
360.101435615
 20
380.009673205
 10
360.101435615
 20
381.211942005
 10
360.101435615
 20
382.344084951
 10
360.101435615
 20
383.396751931
 10
360.101435615
 20
384.360592829
 10
360.101435615
 20
385.226257532
 10
360.101435615
 20
385.984395926
 10
360.101435615
 20
386.625657898
  0
LWPOLYLINE
  5
12C
330
1F
100
AcDbEntity
  8
2
  6
LTYPE2
 62
     2
100
AcDbPolyline
 90
    85
 70
   128
 43
0.0
 10
395.41258346
 20
388.130036367
 10
395.425193611
 20
388.112017105
 10
395.437019002
 20
388.093430812
 10
395.44803573
 20
388.074301589
 10
395.458219889
 20
388.054653536
 10
395.467547577
 20
388.034510753
 10
395.475994889
 20
388.013897338
 10
395.483537922
 20
387.992837393
 10
395.490152771
 20
387.971355016
 10
395.495815534
 20
387.949474308
 10
395.500502306
 20
387.927219367
 10
395.504189184
 20
387.904614295
 10
395.506852263
 20
387.881683191
 10
395.50846764
 20
387.858450153
 10
395.509011411
 20
387.834939283
 10
395.509011411
 20
387.75468414
 10
395.509011411
 20
387.520152118
 10
395.509011411
 20
387.140693333
 10
395.509011411
 20
386.625657898
 10
395.509011411
 20
385.984395926
 10
395.509011411
 20
385.226257532
 10
395.509011411
 20
384.360592829
 10
395.509011411
 20
383.396751931
 10
395.509011411
 20
382.344084951
 10
395.509011411
 20
381.211942005
 10
395.509011411
 20
380.009673205
 10
395.509011411
 20
378.746628665
 10
395.509011411
 20
377.432158499
 10
395.509011411
 20
376.075612821
 10
395.509011411
 20
374.686341745
 10
395.509011411
 20
373.273695385
 10
395.509011411
 20
371.847023853
 10
395.509011411
 20
370.415677265
 10
395.509011411
 20
368.989005734
 10
395.509011411
 20
367.576359373
 10
395.509011411
 20
366.187088297
 10
395.509011411
 20
364.830542619
 10
395.509011411
 20
363.516072453
 10
395.509011411
 20
362.253027913
 10
395.509011411
 20
361.050759113
 10
395.509011411
 20
359.918616167
 10
395.509011411
 20
358.865949188
 10
395.509011411
 20
357.90210829
 10
395.509011411
 20
357.036443586
 10
395.509011411
 20
356.278305192
 10
395.509011411
 20
355.63704322
 10
395.509011411
 20
355.122007785
 10
395.509011411
 20
354.742549
 10
395.509011411
 20
354.508016978
 10
395.509011411
 20
354.427761835
 10
395.507922212
 20
354.380681788
 10
395.504686715
 20
354.334160738
 10
395.49935307
 20
354.288246787
 10
395.491969429
 20
354.242988034
 10
395.482583941
 20
354.198432583
 10
395.471244757
 20
354.154628535
 10
395.458000028
 20
354.11162399
 10
395.442897904
 20
354.069467052
 10
395.425986535
 20
354.028205821
 10
395.407314073
 20
353.987888398
 10
395.386928667
 20
353.948562886
 10
395.364878469
 20
353.910277385
 10
395.341211628
 20
353.873079998
 10
395.315976295
 20
353.837018826
 10
395.289220621
 20
353.80214197
 10
395.260992757
 20
353.768497532
 10
395.231340852
 20
353.736133614
 10
395.200313057
 20
353.705098316
 10
395.167957523
 20
353.675439741
 10
395.1343224
 20
353.64720599
 10
395.099455838
 20
353.620445165
 10
395.063405989
 20
353.595205367
 10
395.026221003
 20
353.571534697
 10
394.98794903
 20
353.549481257
 10
394.948638221
 20
353.52909315
 10
394.908336726
 20
353.510418475
 10
394.867092696
 20
353.493505335
 10
394.824954282
 20
353.478401831
 10
394.781969633
 20
353.465156065
 10
394.7381869
 20
353.453816139
 10
394.693654234
 20
353.444430153
 10
394.648419786
 20
353.437046209
 10
394.602531705
 20
353.43171241
 10
394.556038143
 20
353.428476855
 10
394.50898725
 20
353.427387648
  0
LINE
  5
12D
330
1F
100
AcDbEntity
  8
2
  6
LTYPE2
 62
     2
100
AcDbLine
 10
395.908391028
 20
349.927128072
 30
0.0
 11
395.908391028
 21
338.925112171
 31
0.0
  0
LWPOLYLINE
  5
12F
330
1F
100
AcDbEntity
  8
2
  6
LTYPE2
 62
     2
100
AcDbPolyline
 90
   147
 70
   128
 43
0.0
 10
395.905083779
 20
349.068008556
 10
395.906044936
 20
349.317686958
 10
395.906857919
 20
349.528874342
 10
395.907510873
 20
349.698491426
 10
395.907991946
 20
349.823458931
 10
395.908289282
 20
349.900697573
 10
395.908391028
 20
349.927128072
 10
395.907303495
 20
349.974206436
 10
395.904072798
 20
350.020722572
 10
395.898746795
 20
350.066628572
 10
395.891373342
 20
350.111876532
 10
395.882000296
 20
350.156418545
 10
395.870675513
 20
350.200206707
 10
395.85744685
 20
350.243193111
 10
395.842362164
 20
350.285329852
 10
395.825469312
 20
350.326569025
 10
395.806816149
 20
350.366862723
 10
395.786450532
 20
350.406163041
 10
395.764420319
 20
350.444422075
 10
395.740773365
 20
350.481591917
 10
395.715557528
 20
350.517624662
 10
395.688820664
 20
350.552472406
 10
395.660610629
 20
350.586087242
 10
395.63097528
 20
350.618421264
 10
395.599962474
 20
350.649426567
 10
395.567620067
 20
350.679055246
 10
395.533995917
 20
350.707259395
 10
395.499137879
 20
350.733991108
 10
395.46309381
 20
350.75920248
 10
395.425911566
 20
350.782845604
 10
395.387639006
 20
350.804872577
 10
395.348323984
 20
350.825235491
 10
395.308014358
 20
350.843886441
 10
395.266757984
 20
350.860777523
 10
395.224602719
 20
350.875860829
 10
395.18159642
 20
350.889088455
 10
395.137786942
 20
350.900412495
 10
395.093222143
 20
350.909785043
 10
395.04794988
 20
350.917158194
 10
395.002018008
 20
350.922484042
 10
394.955474385
 20
350.925714681
 10
394.908366867
 20
350.926802207
 10
394.826192839
 20
350.926802207
 10
394.586053202
 20
350.926802207
 10
394.197521629
 20
350.926802207
 10
393.670171795
 20
350.926802207
 10
393.013577372
 20
350.926802207
 10
392.237312033
 20
350.926802207
 10
391.350949452
 20
350.926802207
 10
390.364063302
 20
350.926802207
 10
389.286227257
 20
350.926802207
 10
388.127014988
 20
350.926802207
 10
386.896000171
 20
350.926802207
 10
385.602756477
 20
350.926802207
 10
384.256857581
 20
350.926802207
 10
382.867877155
 20
350.926802207
 10
381.445388872
 20
350.926802207
 10
379.998966407
 20
350.926802207
 10
378.538183432
 20
350.926802207
 10
377.07261362
 20
350.926802207
 10
375.611830644
 20
350.926802207
 10
374.165408179
 20
350.926802207
 10
372.742919896
 20
350.926802207
 10
371.35393947
 20
350.926802207
 10
370.008040574
 20
350.926802207
 10
368.71479688
 20
350.926802207
 10
367.483782063
 20
350.926802207
 10
366.324569795
 20
350.926802207
 10
365.246733749
 20
350.926802207
 10
364.259847599
 20
350.926802207
 10
363.373485018
 20
350.926802207
 10
362.597219679
 20
350.926802207
 10
361.940625256
 20
350.926802207
 10
361.413275422
 20
350.926802207
 10
361.02474385
 20
350.926802207
 10
360.784604212
 20
350.926802207
 10
360.702430184
 20
350.926802207
 10
360.655377609
 20
350.925714681
 10
360.608879132
 20
350.922484042
 10
360.5629831
 20
350.917158194
 10
360.517737859
 20
350.909785043
 10
360.473191755
 20
350.900412495
 10
360.429393136
 20
350.889088455
 10
360.386390347
 20
350.875860829
 10
360.344231734
 20
350.860777523
 10
360.302965646
 20
350.843886441
 10
360.262640426
 20
350.825235491
 10
360.223304424
 20
350.804872577
 10
360.185005983
 20
350.782845604
 10
360.147793452
 20
350.75920248
 10
360.111715177
 20
350.733991108
 10
360.076819503
 20
350.707259395
 10
360.043154778
 20
350.679055246
 10
360.010769348
 20
350.649426567
 10
359.979711559
 20
350.618421264
 10
359.950029758
 20
350.586087242
 10
359.921772291
 20
350.552472406
 10
359.894987505
 20
350.517624662
 10
359.869723745
 20
350.481591917
 10
359.84602936
 20
350.444422075
 10
359.823952694
 20
350.406163041
 10
359.803542094
 20
350.366862723
 10
359.784845908
 20
350.326569025
 10
359.767912481
 20
350.285329852
 10
359.752790159
 20
350.243193111
 10
359.73952729
 20
350.200206707
 10
359.728172219
 20
350.156418545
 10
359.718773294
 20
350.111876532
 10
359.71137886
 20
350.066628572
 10
359.706037264
 20
350.020722572
 10
359.702796852
 20
349.974206436
 10
359.701705971
 20
349.927128072
 10
359.701705971
 20
349.900697573
 10
359.701705971
 20
349.823458931
 10
359.701705971
 20
349.698491426
 10
359.701705971
 20
349.528874342
 10
359.701705971
 20
349.317686958
 10
359.701705971
 20
349.068008556
 10
359.701705971
 20
348.782918418
 10
359.701705971
 20
348.465495825
 10
359.701705971
 20
348.118820059
 10
359.701705971
 20
347.745970401
 10
359.701705971
 20
347.350026131
 10
359.701705971
 20
346.934066533
 10
359.701705971
 20
346.501170887
 10
359.701705971
 20
346.054418475
 10
359.701705971
 20
345.596888577
 10
359.701705971
 20
345.131660476
 10
359.701705971
 20
344.661813453
 10
359.701705971
 20
344.19042679
 10
359.701705971
 20
343.720579767
 10
359.701705971
 20
343.255351666
 10
359.701705971
 20
342.797821768
 10
359.701705971
 20
342.351069356
 10
359.701705971
 20
341.91817371
 10
359.701705971
 20
341.502214112
 10
359.701705971
 20
341.106269843
 10
359.701705971
 20
340.733420184
 10
359.701705971
 20
340.386744418
 10
359.701705971
 20
340.069321825
 10
359.701705971
 20
339.784231687
 10
359.701705971
 20
339.534553285
 10
359.701705971
 20
339.323365901
 10
359.701705971
 20
339.153748817
 10
359.701705971
 20
339.028781312
 10
359.701705971
 20
338.95154267
 10
359.701705971
 20
338.925112171
  0
LINE
  5
130
330
1F
100
AcDbEntity
  8
2
  6
LTYPE2
 62
     2
100
AcDbLine
 10
383.70263586
 20
326.3983832
 30
0.0
 11
389.864492818
 21
336.423126626
 31
0.0
  0
LWPOLYLINE
  5
132
330
1F
100
AcDbEntity
  8
2
  6
LTYPE2
 62
     2
100
AcDbPolyline
 90
    36
 70
   128
 43
0.0
 10
391.656625721
 20
325.921647845
 10
391.695335392
 20
325.922389598
 10
391.73373784
 20
325.924598791
 10
391.771801862
 20
325.928251323
 10
391.809496258
 20
325.933323095
 10
391.846789823
 20
325.939790007
 10
391.883651357
 20
325.94762796
 10
391.920049656
 20
325.956812853
 10
391.955953519
 20
325.967320588
 10
391.991331743
 20
325.979127063
 10
392.026153125
 20
325.99220818
 10
392.060386464
 20
326.006539839
 10
392.094000556
 20
326.02209794
 10
392.126964201
 20
326.038858383
 10
392.159246195
 20
326.056797068
 10
392.190815336
 20
326.075889896
 10
392.221640422
 20
326.096112767
 10
392.251690251
 20
326.117441582
 10
392.280933619
 20
326.139852239
 10
392.309339326
 20
326.163320641
 10
392.336876168
 20
326.187822687
 10
392.363512943
 20
326.213334277
 10
392.389218449
 20
326.239831311
 10
392.413961484
 20
326.26728969
 10
392.437710846
 20
326.295685314
 10
392.460435331
 20
326.324994084
 10
392.482103738
 20
326.355191899
 10
392.502684864
 20
326.386254659
 10
392.522147507
 20
326.418158266
 10
392.540460465
 20
326.450878619
 10
392.557592536
 20
326.484391619
 10
392.573512517
 20
326.518673165
 10
392.588189205
 20
326.553699159
 10
392.601591399
 20
326.589445499
 10
392.613687896
 20
326.625888088
 10
392.624447494
 20
326.663002824
  0
LWPOLYLINE
  5
134
330
1F
100
AcDbEntity
  8
2
  6
LTYPE2
 62
     2
100
AcDbPolyline
 90
    19
 70
   128
 43
0.0
 10
360.197863566
 20
388.130036367
 10
360.185253414
 20
388.112017105
 10
360.173428023
 20
388.093430812
 10
360.162411296
 20
388.074301589
 10
360.152227136
 20
388.054653536
 10
360.142899449
 20
388.034510753
 10
360.134452136
 20
388.013897338
 10
360.126909104
 20
387.992837393
 10
360.120294254
 20
387.971355016
 10
360.114631491
 20
387.949474308
 10
360.109944719
 20
387.927219367
 10
360.106257842
 20
387.904614295
 10
360.103594762
 20
387.881683191
 10
360.101979385
 20
387.858450153
 10
360.101435615
 20
387.834939283
 10
360.101435615
 20
387.75468414
 10
360.101435615
 20
387.520152118
 10
360.101435615
 20
387.140693333
 10
360.101435615
 20
386.625657898
  0
LWPOLYLINE
  5
136
330
1F
100
AcDbEntity
  8
2
  6
LTYPE2
 62
     2
100
AcDbPolyline
 90
    36
 70
   128
 43
0.0
 10
371.908161191
 20
326.3983832
 10
371.924104243
 20
326.373398963
 10
371.940720275
 20
326.348976466
 10
371.957993075
 20
326.325125408
 10
371.975906428
 20
326.301855486
 10
371.994444121
 20
326.2791764
 10
372.013589941
 20
326.257097849
 10
372.033327674
 20
326.23562953
 10
372.053641107
 20
326.214781143
 10
372.074514026
 20
326.194562387
 10
372.095930218
 20
326.174982959
 10
372.11787347
 20
326.156052559
 10
372.140327568
 20
326.137780886
 10
372.163276298
 20
326.120177638
 10
372.186703448
 20
326.103252513
 10
372.210592803
 20
326.087015211
 10
372.234928151
 20
326.07147543
 10
372.259693277
 20
326.056642869
 10
372.284871969
 20
326.042527226
 10
372.310448012
 20
326.0291382
 10
372.336405195
 20
326.016485491
 10
372.362727302
 20
326.004578795
 10
372.38939812
 20
325.993427813
 10
372.416401437
 20
325.983042243
 10
372.443721039
 20
325.973431784
 10
372.471340711
 20
325.964606133
 10
372.499244242
 20
325.956574991
 10
372.527415417
 20
325.949348055
 10
372.555838023
 20
325.942935024
 10
372.584495846
 20
325.937345597
 10
372.613372673
 20
325.932589473
 10
372.642452291
 20
325.92867635
 10
372.671718486
 20
325.925615927
 10
372.701155044
 20
325.923417903
 10
372.730745753
 20
325.922091976
 10
372.760474398
 20
325.921647845
  0
LWPOLYLINE
  5
138
330
1F
100
AcDbEntity
  8
2
  6
LTYPE2
 62
     2
100
AcDbPolyline
 90
    36
 70
   128
 43
0.0
 10
382.850322653
 20
325.921647845
 10
382.880052964
 20
325.922091976
 10
382.909648473
 20
325.923417903
 10
382.939092673
 20
325.925615927
 10
382.968369056
 20
325.92867635
 10
382.997461116
 20
325.932589473
 10
383.026352344
 20
325.937345597
 10
383.055026234
 20
325.942935024
 10
383.083466277
 20
325.949348055
 10
383.111655968
 20
325.956574991
 10
383.139578798
 20
325.964606133
 10
383.16721826
 20
325.973431784
 10
383.194557846
 20
325.983042243
 10
383.22158105
 20
325.993427813
 10
383.248271365
 20
326.004578795
 10
383.274612281
 20
326.016485491
 10
383.300587293
 20
326.0291382
 10
383.326179893
 20
326.042527226
 10
383.351373574
 20
326.056642869
 10
383.376151828
 20
326.07147543
 10
383.400498147
 20
326.087015211
 10
383.424396026
 20
326.103252513
 10
383.447828955
 20
326.120177638
 10
383.470780429
 20
326.137780886
 10
383.493233939
 20
326.156052559
 10
383.515172978
 20
326.174982959
 10
383.536581039
 20
326.194562387
 10
383.557441615
 20
326.214781143
 10
383.577738197
 20
326.23562953
 10
383.59745428
 20
326.257097849
 10
383.616573355
 20
326.2791764
 10
383.635078915
 20
326.301855486
 10
383.652954453
 20
326.325125408
 10
383.670183461
 20
326.348976466
 10
383.686749433
 20
326.373398963
 10
383.70263586
 20
326.3983832
  0
ARC
  5
139
330
1F
100
AcDbEntity
  8
2
  6
LTYPE2
 62
     2
100
AcDbCircle
 10
377.805227327
 20
303.334776351
 30
0.0
 40
5.0
100
AcDbArc
 50
180.0
 51
0.0
  0
LINE
  5
13A
330
1F
100
AcDbEntity
  8
2
  6
LTYPE2
 62
     2
100
AcDbLine
 10
382.805227327
 20
303.334776351
 30
0.0
 11
382.805227327
 21
325.921647845
 31
0.0
  0
LINE
  5
13B
330
1F
100
AcDbEntity
  8
2
  6
LTYPE2
 62
     2
100
AcDbLine
 10
372.805227327
 20
303.334776351
 30
0.0
 11
372.805227327
 21
325.921647845
 31
0.0
  0
ARC
  5
13C
330
1F
100
AcDbEntity
  8
5
  6
Continuous
 62
     1
100
AcDbCircle
 10
620.305223513
 20
524.334776351
 30
0.0
 40
4.0
100
AcDbArc
 50
30.0
 51
90.0
  0
LINE
  5
13D
330
1F
100
AcDbEntity
  8
5
  6
Continuous
 62
     1
100
AcDbLine
 10
608.305223513
 20
500.334776351
 30
0.0
 11
611.305223513
 21
500.334776351
 31
0.0
  0
LINE
  5
13E
330
1F
100
AcDbEntity
  8
5
  6
Continuous
 62
     1
100
AcDbLine
 10
608.305223513
 20
498.334776351
 30
0.0
 11
611.305223513
 21
498.334776351
 31
0.0
  0
ARC
  5
13F
330
1F
100
AcDbEntity
  8
5
  6
LTYPE1
 62
     2
100
AcDbCircle
 10
620.305223513
 20
502.334776351
 30
0.0
 40
4.0
100
AcDbArc
 50
270.0
 51
359.999781434
  0
LINE
  5
140
330
1F
100
AcDbEntity
  8
5
  6
LTYPE1
 62
     2
100
AcDbLine
 10
611.305223513
 20
500.334776351
 30
0.0
 11
620.305223513
 21
500.334776351
 31
0.0
  0
LINE
  5
141
330
1F
100
AcDbEntity
  8
5
  6
LTYPE1
 62
     2
100
AcDbLine
 10
611.305223513
 20
498.334776351
 30
0.0
 11
620.305223513
 21
498.334776351
 31
0.0
  0
ARC
  5
142
330
1F
100
AcDbEntity
  8
5
  6
LTYPE1
 62
     2
100
AcDbCircle
 10
620.305223513
 20
502.334776351
 30
0.0
 40
2.0
100
AcDbArc
 50
270.0
 51
359.999690901
  0
LINE
  5
143
330
1F
100
AcDbEntity
  8
5
  6
LTYPE1
 62
     2
100
AcDbLine
 10
616.305223513
 20
519.294819509
 30
0.0
 11
616.305223513
 21
507.294819509
 31
0.0
  0
LINE
  5
144
330
1F
100
AcDbEntity
  8
5
  6
LTYPE1
 62
     2
100
AcDbLine
 10
616.305223513
 20
507.294819509
 30
0.0
 11
622.305223513
 21
507.294819509
 31
0.0
  0
LINE
  5
145
330
1F
100
AcDbEntity
  8
5
  6
LTYPE1
 62
     2
100
AcDbLine
 10
616.305223513
 20
519.294819509
 30
0.0
 11
622.305223513
 21
519.294819509
 31
0.0
  0
ARC
  5
146
330
1F
100
AcDbEntity
  8
5
  6
LTYPE1
 62
     2
100
AcDbCircle
 10
620.305223513
 20
524.334776351
 30
0.0
 40
2.0
100
AcDbArc
 50
359.999690901
 51
90.0
  0
LINE
  5
147
330
1F
100
AcDbEntity
  8
5
  6
LTYPE1
 62
     2
100
AcDbLine
 10
622.305223513
 20
502.334765561
 30
0.0
 11
622.305223513
 21
524.334765561
 31
0.0
  0
ARC
  5
148
330
1F
100
AcDbEntity
  8
5
  6
LTYPE1
 62
     2
100
AcDbCircle
 10
620.305223513
 20
524.334776351
 30
0.0
 40
4.0
100
AcDbArc
 50
360.0
 51
30.0
  0
LINE
  5
149
330
1F
100
AcDbEntity
  8
4
  6
Continuous
 62
     1
100
AcDbLine
 10
611.305223513
 20
366.541883132
 30
0.0
 11
611.305223513
 21
526.334776351
 31
0.0
  0
LINE
  5
14A
330
1F
100
AcDbEntity
  8
5
  6
Continuous
 62
     1
100
AcDbLine
 10
224.305223513
 20
430.334776351
 30
0.0
 11
219.305223513
 21
430.334776351
 31
0.0
  0
LINE
  5
14B
330
1F
100
AcDbEntity
  8
5
  6
Continuous
 62
     1
100
AcDbLine
 10
224.305223513
 20
428.334776351
 30
0.0
 11
219.305223513
 21
428.334776351
 31
0.0
  0
LINE
  5
14C
330
1F
100
AcDbEntity
  8
5
  6
LTYPE1
 62
     2
100
AcDbLine
 10
214.305223513
 20
437.374733192
 30
0.0
 11
214.305223513
 21
449.374733192
 31
0.0
  0
LINE
  5
14D
330
1F
100
AcDbEntity
  8
5
  6
LTYPE1
 62
     2
100
AcDbLine
 10
214.305223513
 20
449.374733192
 30
0.0
 11
208.305223513
 21
449.374733192
 31
0.0
  0
LINE
  5
14E
330
1F
100
AcDbEntity
  8
5
  6
LTYPE1
 62
     2
100
AcDbLine
 10
214.305223513
 20
437.374733192
 30
0.0
 11
208.305223513
 21
437.374733192
 31
0.0
  0
ARC
  5
14F
330
1F
100
AcDbEntity
  8
5
  6
LTYPE1
 62
     2
100
AcDbCircle
 10
210.305223513
 20
432.334776351
 30
0.0
 40
2.0
100
AcDbArc
 50
179.999690901
 51
270.0
  0
ARC
  5
150
330
1F
100
AcDbEntity
  8
5
  6
LTYPE1
 62
     2
100
AcDbCircle
 10
210.305223513
 20
432.334776351
 30
0.0
 40
4.0
100
AcDbArc
 50
180.0
 51
270.0
  0
LINE
  5
151
330
1F
100
AcDbEntity
  8
5
  6
LTYPE1
 62
     2
100
AcDbLine
 10
208.305223513
 20
454.33478714
 30
0.0
 11
208.305223513
 21
432.33478714
 31
0.0
  0
ARC
  5
152
330
1F
100
AcDbEntity
  8
5
  6
LTYPE1
 62
     2
100
AcDbCircle
 10
210.305223513
 20
454.334776351
 30
0.0
 40
2.0
100
AcDbArc
 50
90.0
 51
179.999690901
  0
LINE
  5
153
330
1F
100
AcDbEntity
  8
5
  6
LTYPE1
 62
     2
100
AcDbLine
 10
219.305223513
 20
430.334776351
 30
0.0
 11
210.305223513
 21
430.334776351
 31
0.0
  0
LINE
  5
154
330
1F
100
AcDbEntity
  8
5
  6
LTYPE1
 62
     2
100
AcDbLine
 10
219.305223513
 20
428.334776351
 30
0.0
 11
210.305223513
 21
428.334776351
 31
0.0
  0
ARC
  5
155
330
1F
100
AcDbEntity
  8
5
  6
Continuous
 62
     1
100
AcDbCircle
 10
210.305223513
 20
454.334776351
 30
0.0
 40
4.0
100
AcDbArc
 50
90.0
 51
150.0
  0
ARC
  5
156
330
1F
100
AcDbEntity
  8
5
  6
LTYPE1
 62
     2
100
AcDbCircle
 10
210.305223513
 20
454.334776351
 30
0.0
 40
4.0
100
AcDbArc
 50
150.0
 51
179.999781434
  0
LWPOLYLINE
  5
158
330
1F
100
AcDbEntity
  8
3
  6
Continuous
 62
     2
100
AcDbPolyline
 90
     4
 70
   129
 43
0.0
 10
606.305223513
 20
486.834776351
 10
606.305223513
 20
469.834776351
 10
607.905223513
 20
469.834776351
 10
607.905223513
 20
486.834776351
  0
LWPOLYLINE
  5
15A
330
1F
100
AcDbEntity
  8
3
  6
Continuous
 62
     2
100
AcDbPolyline
 90
     4
 70
   129
 43
0.0
 10
607.905223513
 20
470.634776351
 10
609.905223513
 20
470.634776351
 10
609.905223513
 20
486.034776351
 10
607.905223513
 20
486.034776351
  0
LINE
  5
15B
330
1F
100
AcDbEntity
  8
3
  6
Continuous
 62
     2
100
AcDbLine
 10
609.905223513
 20
478.334776351
 30
0.0
 11
607.905223513
 21
477.180075812
 31
0.0
  0
LINE
  5
15C
330
1F
100
AcDbEntity
  8
3
  6
Continuous
 62
     2
100
AcDbLine
 10
607.905223513
 20
478.334776351
 30
0.0
 11
609.905223513
 21
479.489476889
 31
0.0
  0
LWPOLYLINE
  5
15E
330
1F
100
AcDbEntity
  8
3
  6
Continuous
 62
     2
100
AcDbPolyline
 90
     4
 70
   129
 43
0.0
 10
224.305223513
 20
469.834776351
 10
224.305223513
 20
486.834776351
 10
222.705223513
 20
486.834776351
 10
222.705223513
 20
469.834776351
  0
LWPOLYLINE
  5
160
330
1F
100
AcDbEntity
  8
3
  6
Continuous
 62
     2
100
AcDbPolyline
 90
     4
 70
   129
 43
0.0
 10
222.705223513
 20
486.034776351
 10
220.705223513
 20
486.034776351
 10
220.705223513
 20
470.634776351
 10
222.705223513
 20
470.634776351
  0
LINE
  5
161
330
1F
100
AcDbEntity
  8
3
  6
Continuous
 62
     2
100
AcDbLine
 10
220.705223513
 20
478.334776351
 30
0.0
 11
222.705223513
 21
479.489476889
 31
0.0
  0
LINE
  5
162
330
1F
100
AcDbEntity
  8
3
  6
Continuous
 62
     2
100
AcDbLine
 10
222.705223513
 20
478.334776351
 30
0.0
 11
220.705223513
 21
477.180075812
 31
0.0
  0
LWPOLYLINE
  5
164
330
1F
100
AcDbEntity
  8
3
  6
Continuous
 62
     2
100
AcDbPolyline
 90
     4
 70
   129
 43
0.0
 10
204.305223513
 20
437.034776351
 10
204.305223513
 20
449.634776351
 10
202.705223513
 20
449.634776351
 10
202.705223513
 20
437.034776351
  0
LWPOLYLINE
  5
166
330
1F
100
AcDbEntity
  8
3
  6
Continuous
 62
     2
100
AcDbPolyline
 90
     4
 70
   128
 43
0.0
 10
202.705223513
 20
449.434776351
 10
201.205223513
 20
449.434776351
 10
201.205223513
 20
437.234776351
 10
202.705223513
 20
437.234776351
  0
LINE
  5
167
330
1F
100
AcDbEntity
  8
3
  6
Continuous
 62
     2
100
AcDbLine
 10
201.205223513
 20
443.334776351
 30
0.0
 11
202.705223513
 21
444.200801755
 31
0.0
  0
LINE
  5
168
330
1F
100
AcDbEntity
  8
3
  6
Continuous
 62
     2
100
AcDbLine
 10
202.705223513
 20
443.334776351
 30
0.0
 11
201.205223513
 21
442.468750947
 31
0.0
  0
LWPOLYLINE
  5
16A
330
1F
100
AcDbEntity
  8
3
  6
Continuous
 62
     2
100
AcDbPolyline
 90
     4
 70
   129
 43
0.0
 10
626.305223513
 20
519.634776351
 10
626.305223513
 20
507.034776351
 10
627.905223513
 20
507.034776351
 10
627.905223513
 20
519.634776351
  0
LWPOLYLINE
  5
16C
330
1F
100
AcDbEntity
  8
3
  6
Continuous
 62
     2
100
AcDbPolyline
 90
     4
 70
   128
 43
0.0
 10
627.905223513
 20
507.234776351
 10
629.405223513
 20
507.234776351
 10
629.405223513
 20
519.434776351
 10
627.905223513
 20
519.434776351
  0
LINE
  5
16D
330
1F
100
AcDbEntity
  8
3
  6
Continuous
 62
     2
100
AcDbLine
 10
629.405223513
 20
513.334776351
 30
0.0
 11
627.905223513
 21
512.468750947
 31
0.0
  0
LINE
  5
16E
330
1F
100
AcDbEntity
  8
3
  6
Continuous
 62
     2
100
AcDbLine
 10
627.905223513
 20
513.334776351
 30
0.0
 11
629.405223513
 21
514.200801755
 31
0.0
  0
LINE
  5
16F
330
1F
100
AcDbEntity
  8
7
  6
Continuous
 62
     2
100
AcDbLine
 10
445.305223513
 20
350.834776351
 30
0.0
 11
443.364080674
 21
343.590332654
 31
0.0
  0
LINE
  5
170
330
1F
100
AcDbEntity
  8
7
  6
Continuous
 62
     2
100
AcDbLine
 10
445.305223513
 20
350.834776351
 30
0.0
 11
447.246366351
 21
343.590332654
 31
0.0
  0
LWPOLYLINE
  5
172
330
1F
100
AcDbEntity
  8
7
  6
Continuous
 62
     2
100
AcDbPolyline
 90
     3
 70
   128
 43
0.0
 10
445.305223513
 20
350.834776351
 10
445.305223513
 20
280.834776351
 10
447.246366351
 20
288.079220048
  0
LINE
  5
173
330
1F
100
AcDbEntity
  8
7
  6
Continuous
 62
     2
100
AcDbLine
 10
445.305223513
 20
280.834776351
 30
0.0
 11
443.364080674
 21
288.079220048
 31
0.0
  0
LINE
  5
174
330
1F
100
AcDbEntity
  8
7
  6
Continuous
 62
     2
100
AcDbLine
 10
418.305223513
 20
280.834776351
 30
0.0
 11
451.305223513
 21
280.834776351
 31
0.0
  0
MTEXT
  5
175
330
1F
100
AcDbEntity
  8
7
  6
Continuous
 62
     2
100
AcDbMText
 10
442.305223513
 20
309.984776351
 30
0.0
 40
9.0
 41
23.4
 71
     7
 72
     1
  1
\T1.167;\W0.600;７０
  7
KANJI8
 11
0.0
 21
1.0
 31
0.0
 73
     1
 44
1.0
  0
LINE
  5
177
330
1F
100
AcDbEntity
  8
2
  6
LTYPE2
 62
     2
100
AcDbLine
 10
226.305223513
 20
566.334776351
 30
0.0
 11
604.305223513
 21
566.334776351
 31
0.0
  0
LINE
  5
178
330
1F
100
AcDbEntity
  8
2
  6
LTYPE2
 62
     2
100
AcDbLine
 10
226.305223513
 20
566.334776351
 30
0.0
 11
226.305223513
 21
388.334776351
 31
0.0
  0
LINE
  5
179
330
1F
100
AcDbEntity
  8
2
  6
LTYPE2
 62
     2
100
AcDbLine
 10
604.305223513
 20
388.334776351
 30
0.0
 11
226.305223513
 21
388.334776351
 31
0.0
  0
LINE
  5
17A
330
1F
100
AcDbEntity
  8
2
  6
LTYPE2
 62
     2
100
AcDbLine
 10
604.305223513
 20
566.334776351
 30
0.0
 11
604.305223513
 21
388.334776351
 31
0.0
  0
LINE
  5
17B
330
1F
100
AcDbEntity
  8
2
  6
LTYPE2
 62
     2
100
AcDbLine
 10
604.305223513
 20
554.547996875
 30
0.0
 11
226.305223513
 21
554.547996875
 31
0.0
  0
LINE
  5
17D
330
1F
100
AcDbEntity
  8
2
  6
LTYPE3
 62
     2
100
AcDbLine
 10
415.305223513
 20
437.344776351
 30
0.0
 11
415.305223513
 21
270.884776351
 31
0.0
  0
LINE
  5
17E
330
1F
100
AcDbEntity
  8
5
  6
Continuous
 62
     1
100
AcDbLine
 10
723.965223513
 20
528.334776351
 30
0.0
 11
775.965223513
 21
528.334776351
 31
0.0
  0
ARC
  5
17F
330
1F
100
AcDbEntity
  8
4
  6
Continuous
 62
     1
100
AcDbCircle
 10
775.965223513
 20
354.834776351
 30
0.0
 40
4.0
100
AcDbArc
 50
270.0
 51
0.0
  0
LINE
  5
180
330
1F
100
AcDbEntity
  8
4
  6
Continuous
 62
     1
100
AcDbLine
 10
779.965223513
 20
354.834776351
 30
0.0
 11
777.965223513
 21
354.834776351
 31
0.0
  0
LINE
  5
181
330
1F
100
AcDbEntity
  8
4
  6
Continuous
 62
     1
100
AcDbLine
 10
775.965223513
 20
352.834776351
 30
0.0
 11
775.965223513
 21
350.834776351
 31
0.0
  0
ARC
  5
182
330
1F
100
AcDbEntity
  8
4
  6
Continuous
 62
     1
100
AcDbCircle
 10
777.965223513
 20
352.834776351
 30
0.0
 40
2.0
100
AcDbArc
 50
90.0
 51
180.0
  0
ARC
  5
183
330
1F
100
AcDbEntity
  8
4
  6
Continuous
 62
     1
100
AcDbCircle
 10
775.965223513
 20
354.834776351
 30
0.0
 40
2.0
100
AcDbArc
 50
270.0
 51
0.0
  0
ARC
  5
184
330
1F
100
AcDbEntity
  8
4
  6
Continuous
 62
     1
100
AcDbCircle
 10
723.965223513
 20
354.834776351
 30
0.0
 40
4.0
100
AcDbArc
 50
180.0
 51
270.0
  0
LINE
  5
185
330
1F
100
AcDbEntity
  8
4
  6
Continuous
 62
     1
100
AcDbLine
 10
719.965223513
 20
354.834776351
 30
0.0
 11
721.965223513
 21
354.834776351
 31
0.0
  0
LINE
  5
186
330
1F
100
AcDbEntity
  8
4
  6
Continuous
 62
     1
100
AcDbLine
 10
723.965223513
 20
352.834776351
 30
0.0
 11
723.965223513
 21
350.834776351
 31
0.0
  0
ARC
  5
187
330
1F
100
AcDbEntity
  8
4
  6
Continuous
 62
     1
100
AcDbCircle
 10
721.965223513
 20
352.834776351
 30
0.0
 40
2.0
100
AcDbArc
 50
360.0
 51
90.0
  0
ARC
  5
188
330
1F
100
AcDbEntity
  8
4
  6
Continuous
 62
     1
100
AcDbCircle
 10
723.965223513
 20
354.834776351
 30
0.0
 40
2.0
100
AcDbArc
 50
180.0
 51
270.0
  0
LINE
  5
189
330
1F
100
AcDbEntity
  8
4
  6
Continuous
 62
     1
100
AcDbLine
 10
723.965223513
 20
350.834776351
 30
0.0
 11
775.965223513
 21
350.834776351
 31
0.0
  0
LINE
  5
18A
330
1F
100
AcDbEntity
  8
4
  6
LTYPE1
 62
     2
100
AcDbLine
 10
723.965223513
 20
352.834776351
 30
0.0
 11
775.965223513
 21
352.834776351
 31
0.0
  0
LINE
  5
18B
330
1F
100
AcDbEntity
  8
4
  6
Continuous
 62
     1
100
AcDbLine
 10
719.965223513
 20
526.334776351
 30
0.0
 11
779.965223513
 21
526.334776351
 31
0.0
  0
LINE
  5
18C
330
1F
100
AcDbEntity
  8
4
  6
LTYPE1
 62
     2
100
AcDbLine
 10
777.965223513
 20
354.834776351
 30
0.0
 11
777.965223513
 21
526.334776351
 31
0.0
  0
LINE
  5
18D
330
1F
100
AcDbEntity
  8
4
  6
Continuous
 62
     1
100
AcDbLine
 10
779.965223513
 20
354.834776351
 30
0.0
 11
779.965223513
 21
526.334776351
 31
0.0
  0
LINE
  5
18E
330
1F
100
AcDbEntity
  8
4
  6
LTYPE1
 62
     2
100
AcDbLine
 10
721.965223513
 20
354.834776351
 30
0.0
 11
721.965223513
 21
526.334776351
 31
0.0
  0
LINE
  5
18F
330
1F
100
AcDbEntity
  8
4
  6
Continuous
 62
     1
100
AcDbLine
 10
719.965223513
 20
354.834776351
 30
0.0
 11
719.965223513
 21
526.334776351
 31
0.0
  0
LINE
  5
190
330
1F
100
AcDbEntity
  8
4
  6
LTYPE1
 62
     2
100
AcDbLine
 10
777.965223513
 20
366.834776351
 30
0.0
 11
779.965223513
 21
366.834776351
 31
0.0
  0
LINE
  5
191
330
1F
100
AcDbEntity
  8
4
  6
LTYPE1
 62
     2
100
AcDbLine
 10
719.965223513
 20
366.834776351
 30
0.0
 11
721.965223513
 21
366.834776351
 31
0.0
  0
CIRCLE
  5
192
330
1F
100
AcDbEntity
  8
4
  6
Continuous
 62
     1
100
AcDbCircle
 10
749.965223513
 20
478.334776351
 30
0.0
 40
12.0
  0
LINE
  5
193
330
1F
100
AcDbEntity
  8
5
  6
Continuous
 62
     1
100
AcDbLine
 10
723.965223513
 20
528.334776351
 30
0.0
 11
723.965223513
 21
526.334776351
 31
0.0
  0
LINE
  5
194
330
1F
100
AcDbEntity
  8
5
  6
Continuous
 62
     1
100
AcDbLine
 10
775.965223513
 20
528.334776351
 30
0.0
 11
775.965223513
 21
526.334776351
 31
0.0
  0
LINE
  5
195
330
1F
100
AcDbEntity
  8
5
  6
LTYPE1
 62
     2
100
AcDbLine
 10
723.965223513
 20
498.334776351
 30
0.0
 11
775.965223513
 21
498.334776351
 31
0.0
  0
LINE
  5
196
330
1F
100
AcDbEntity
  8
5
  6
LTYPE1
 62
     2
100
AcDbLine
 10
775.965223513
 20
526.334776351
 30
0.0
 11
775.965223513
 21
478.334776351
 31
0.0
  0
LINE
  5
197
330
1F
100
AcDbEntity
  8
5
  6
LTYPE1
 62
     2
100
AcDbLine
 10
738.965223513
 20
463.334776351
 30
0.0
 11
760.965223513
 21
463.334776351
 31
0.0
  0
ARC
  5
198
330
1F
100
AcDbEntity
  8
5
  6
LTYPE1
 62
     2
100
AcDbCircle
 10
760.965223513
 20
478.334776351
 30
0.0
 40
15.0
100
AcDbArc
 50
270.0
 51
0.0
  0
ARC
  5
199
330
1F
100
AcDbEntity
  8
5
  6
LTYPE1
 62
     2
100
AcDbCircle
 10
738.965223513
 20
478.334776351
 30
0.0
 40
15.0
100
AcDbArc
 50
180.0
 51
270.0
  0
LINE
  5
19A
330
1F
100
AcDbEntity
  8
5
  6
LTYPE1
 62
     2
100
AcDbLine
 10
723.965223513
 20
526.334776351
 30
0.0
 11
723.965223513
 21
478.334776351
 31
0.0
  0
CIRCLE
  5
19B
330
1F
100
AcDbEntity
  8
3
  6
Continuous
 62
     2
100
AcDbCircle
 10
731.965223513
 20
513.334776351
 30
0.0
 40
6.1
  0
CIRCLE
  5
19C
330
1F
100
AcDbEntity
  8
3
  6
Continuous
 62
     2
100
AcDbCircle
 10
731.965223513
 20
513.334776351
 30
0.0
 40
6.3
  0
CIRCLE
  5
19D
330
1F
100
AcDbEntity
  8
3
  6
Continuous
 62
     2
100
AcDbCircle
 10
767.965223513
 20
513.334776351
 30
0.0
 40
6.1
  0
CIRCLE
  5
19E
330
1F
100
AcDbEntity
  8
3
  6
Continuous
 62
     2
100
AcDbCircle
 10
767.965223513
 20
513.334776351
 30
0.0
 40
6.3
  0
CIRCLE
  5
19F
330
1F
100
AcDbEntity
  8
3
  6
Continuous
 62
     2
100
AcDbCircle
 10
749.965223513
 20
478.334776351
 30
0.0
 40
7.7
  0
CIRCLE
  5
1A0
330
1F
100
AcDbEntity
  8
3
  6
Continuous
 62
     2
100
AcDbCircle
 10
749.965223513
 20
478.334776351
 30
0.0
 40
8.5
  0
LINE
  5
1A1
330
1F
100
AcDbEntity
  8
7
  6
Continuous
 62
     2
100
AcDbLine
 10
720.965223513
 20
350.834776351
 30
0.0
 11
693.965223513
 21
350.834776351
 31
0.0
  0
LINE
  5
1A2
330
1F
100
AcDbEntity
  8
7
  6
Continuous
 62
     2
100
AcDbLine
 10
699.965223513
 20
350.834776351
 30
0.0
 11
701.906366351
 21
358.079220048
 31
0.0
  0
LINE
  5
1A3
330
1F
100
AcDbEntity
  8
7
  6
Continuous
 62
     2
100
AcDbLine
 10
699.965223513
 20
350.834776351
 30
0.0
 11
698.024080674
 21
358.079220048
 31
0.0
  0
LWPOLYLINE
  5
1A5
330
1F
100
AcDbEntity
  8
7
  6
Continuous
 62
     2
100
AcDbPolyline
 90
     3
 70
   128
 43
0.0
 10
699.965223513
 20
350.834776351
 10
699.965223513
 20
478.334776351
 10
698.024080674
 20
471.090332654
  0
LINE
  5
1A6
330
1F
100
AcDbEntity
  8
7
  6
Continuous
 62
     2
100
AcDbLine
 10
699.965223513
 20
478.334776351
 30
0.0
 11
701.906366351
 21
471.090332654
 31
0.0
  0
LINE
  5
1A7
330
1F
100
AcDbEntity
  8
7
  6
Continuous
 62
     2
100
AcDbLine
 10
754.965223513
 20
478.334776351
 30
0.0
 11
693.965223513
 21
478.334776351
 31
0.0
  0
MTEXT
  5
1A8
330
1F
100
AcDbEntity
  8
7
  6
Continuous
 62
     2
100
AcDbMText
 10
696.965223513
 20
399.284776351
 30
0.0
 40
9.0
 41
61.2
 71
     7
 72
     1
  1
\T1.167;\W0.600;１２７．５
  7
KANJI8
 11
0.0
 21
1.0
 31
0.0
 73
     1
 44
1.0
  0
LINE
  5
1A9
330
1F
100
AcDbEntity
  8
7
  6
Continuous
 62
     2
100
AcDbLine
 10
720.965223513
 20
528.334776351
 30
0.0
 11
673.965223513
 21
528.334776351
 31
0.0
  0
LINE
  5
1AA
330
1F
100
AcDbEntity
  8
7
  6
Continuous
 62
     2
100
AcDbLine
 10
679.965223513
 20
528.334776351
 30
0.0
 11
678.024080674
 21
521.090332654
 31
0.0
  0
LINE
  5
1AB
330
1F
100
AcDbEntity
  8
7
  6
Continuous
 62
     2
100
AcDbLine
 10
679.965223513
 20
528.334776351
 30
0.0
 11
681.906366351
 21
521.090332654
 31
0.0
  0
LWPOLYLINE
  5
1AD
330
1F
100
AcDbEntity
  8
7
  6
Continuous
 62
     2
100
AcDbPolyline
 90
     3
 70
   128
 43
0.0
 10
679.965223513
 20
528.334776351
 10
679.965223513
 20
350.834776351
 10
681.906366351
 20
358.079220048
  0
LINE
  5
1AE
330
1F
100
AcDbEntity
  8
7
  6
Continuous
 62
     2
100
AcDbLine
 10
679.965223513
 20
350.834776351
 30
0.0
 11
678.024080674
 21
358.079220048
 31
0.0
  0
LINE
  5
1AF
330
1F
100
AcDbEntity
  8
7
  6
Continuous
 62
     2
100
AcDbLine
 10
696.965223513
 20
350.834776351
 30
0.0
 11
673.965223513
 21
350.834776351
 31
0.0
  0
MTEXT
  5
1B0
330
1F
100
AcDbEntity
  8
7
  6
Continuous
 62
     2
100
AcDbMText
 10
676.965223513
 20
424.284776351
 30
0.0
 40
9.0
 41
61.2
 71
     7
 72
     1
  1
\T1.167;\W0.600;１７７．５
  7
KANJI8
 11
0.0
 21
1.0
 31
0.0
 73
     1
 44
1.0
  0
CIRCLE
  5
1B1
330
1F
100
AcDbEntity
  8
4
  6
Continuous
 62
     1
100
AcDbCircle
 10
749.965223513
 20
393.334776351
 30
0.0
 40
4.2
  0
CIRCLE
  5
1B2
330
1F
100
AcDbEntity
  8
4
  6
Continuous
 62
     1
100
AcDbCircle
 10
749.965223513
 20
513.334776351
 30
0.0
 40
4.2
  0
LWPOLYLINE
  5
1B4
330
1F
100
AcDbEntity
  8
5
  6
LTYPE1
 62
     2
100
AcDbPolyline
 90
     6
 70
   129
 43
0.0
 10
758.62547755
 20
513.334776351
 10
754.295350532
 20
520.834776351
 10
745.635096494
 20
520.834776351
 10
741.304969475
 20
513.334776351
 10
745.635096494
 20
505.834776351
 10
754.295350532
 20
505.834776351
  0
CIRCLE
  5
1B5
330
1F
100
AcDbEntity
  8
5
  6
Continuous
 62
     2
100
AcDbCircle
 10
749.965223513
 20
513.334776351
 30
0.0
 40
5.5
  0
LINE
  5
1B6
330
1F
100
AcDbEntity
  8
7
  6
Continuous
 62
     2
100
AcDbLine
 10
778.965223513
 20
350.834776351
 30
0.0
 11
810.965223513
 21
350.834776351
 31
0.0
  0
LINE
  5
1B7
330
1F
100
AcDbEntity
  8
7
  6
Continuous
 62
     2
100
AcDbLine
 10
804.965223513
 20
350.834776351
 30
0.0
 11
806.906366351
 21
358.079220048
 31
0.0
  0
LINE
  5
1B8
330
1F
100
AcDbEntity
  8
7
  6
Continuous
 62
     2
100
AcDbLine
 10
804.965223513
 20
350.834776351
 30
0.0
 11
803.024080674
 21
358.079220048
 31
0.0
  0
LWPOLYLINE
  5
1BA
330
1F
100
AcDbEntity
  8
7
  6
Continuous
 62
     2
100
AcDbPolyline
 90
     3
 70
   128
 43
0.0
 10
804.965223513
 20
350.834776351
 10
804.965223513
 20
393.334776351
 10
803.024080674
 20
386.090332654
  0
LINE
  5
1BB
330
1F
100
AcDbEntity
  8
7
  6
Continuous
 62
     2
100
AcDbLine
 10
804.965223513
 20
393.334776351
 30
0.0
 11
806.906366351
 21
386.090332654
 31
0.0
  0
LINE
  5
1BC
330
1F
100
AcDbEntity
  8
7
  6
Continuous
 62
     2
100
AcDbLine
 10
752.965223513
 20
393.334776351
 30
0.0
 11
810.965223513
 21
393.334776351
 31
0.0
  0
MTEXT
  5
1BD
330
1F
100
AcDbEntity
  8
7
  6
Continuous
 62
     2
100
AcDbMText
 10
801.965223513
 20
353.634776351
 30
0.0
 40
9.0
 41
73.8
 71
     7
 72
     1
  1
\T1.167;\W0.600;（４２．５）
  7
KANJI9
 11
0.0
 21
1.0
 31
0.0
 73
     1
 44
1.0
  0
LINE
  5
1BF
330
1F
100
AcDbEntity
  8
7
  6
Continuous
 62
     2
100
AcDbLine
 10
804.965223513
 20
393.334776351
 30
0.0
 11
806.906366351
 21
400.579220048
 31
0.0
  0
LINE
  5
1C0
330
1F
100
AcDbEntity
  8
7
  6
Continuous
 62
     2
100
AcDbLine
 10
804.965223513
 20
393.334776351
 30
0.0
 11
803.024080674
 21
400.579220048
 31
0.0
  0
LWPOLYLINE
  5
1C2
330
1F
100
AcDbEntity
  8
7
  6
Continuous
 62
     2
100
AcDbPolyline
 90
     3
 70
   128
 43
0.0
 10
804.965223513
 20
393.334776351
 10
804.965223513
 20
513.334776351
 10
803.024080674
 20
506.090332654
  0
LINE
  5
1C3
330
1F
100
AcDbEntity
  8
7
  6
Continuous
 62
     2
100
AcDbLine
 10
804.965223513
 20
513.334776351
 30
0.0
 11
806.906366351
 21
506.090332654
 31
0.0
  0
LINE
  5
1C4
330
1F
100
AcDbEntity
  8
7
  6
Continuous
 62
     2
100
AcDbLine
 10
752.965223513
 20
513.334776351
 30
0.0
 11
810.965223513
 21
513.334776351
 31
0.0
  0
MTEXT
  5
1C5
330
1F
100
AcDbEntity
  8
7
  6
Continuous
 62
     2
100
AcDbMText
 10
801.965223513
 20
444.334776351
 30
0.0
 40
9.0
 41
36.0
 71
     7
 72
     1
  1
\T1.167;\W0.600;１２０
  7
KANJI9
 11
0.0
 21
1.0
 31
0.0
 73
     1
 44
1.0
  0
ARC
  5
1C6
330
1F
100
AcDbEntity
  8
4
  6
LTYPE2
 62
     2
100
AcDbCircle
 10
749.965223513
 20
478.334776351
 30
0.0
 40
110.0
100
AcDbArc
 50
301.765328426
 51
292.085140725
  0
LINE
  5
1C7
330
1F
100
AcDbEntity
  8
7
  6
Continuous
 62
     2
100
AcDbLine
 10
742.855096494
 20
520.014776351
 30
0.0
 11
740.624091969
 21
527.175266474
 31
0.0
  0
LINE
  5
1C8
330
1F
100
AcDbEntity
  8
7
  6
Continuous
 62
     2
100
AcDbLine
 10
742.855096494
 20
520.014776351
 30
0.0
 11
737.342744837
 21
525.100440439
 31
0.0
  0
LWPOLYLINE
  5
1CA
330
1F
100
AcDbEntity
  8
7
  6
Continuous
 62
     2
100
AcDbPolyline
 90
     3
 70
   128
 43
0.0
 10
742.855096494
 20
520.014776351
 10
730.095096494
 20
540.194776351
 10
789.495096494
 20
540.194776351
  0
MTEXT
  5
1CB
330
1F
100
AcDbEntity
  8
7
  6
Continuous
 62
     2
100
AcDbMText
 10
730.095096494
 20
543.194776351
 30
0.0
 40
12.0
 41
118.8
 71
     7
 72
     1
  1
\T1.075;\W0.664;Ｍ８溶接ナット
  7
KANJI10
 73
     1
 44
1.0
  0
LINE
  5
1CD
330
1F
100
AcDbEntity
  8
2
  6
LTYPE2
 62
     2
100
AcDbLine
 10
825.960732001
 20
554.454483504
 30
0.0
 11
809.965223513
 21
388.334776351
 31
0.0
  0
LINE
  5
1CE
330
1F
100
AcDbEntity
  8
2
  6
LTYPE2
 62
     2
100
AcDbLine
 10
809.965223513
 20
388.334776351
 30
0.0
 11
689.965223513
 21
388.334776351
 31
0.0
  0
ARC
  5
1CF
330
1F
100
AcDbEntity
  8
2
  6
LTYPE2
 62
     2
100
AcDbCircle
 10
674.940944546
 20
554.547996875
 30
0.0
 40
0.975721033
100
AcDbArc
 50
106.399842422
 51
185.499453829
  0
ARC
  5
1D0
330
1F
100
AcDbEntity
  8
2
  6
LTYPE2
 62
     2
100
AcDbCircle
 10
824.98950248
 20
554.547996875
 30
0.0
 40
0.975721033
100
AcDbArc
 50
354.500315332
 51
73.60058736
  0
ARC
  5
1D1
330
1F
100
AcDbEntity
  8
2
  6
LTYPE2
 62
     2
100
AcDbCircle
 10
749.965223513
 20
299.634776351
 30
0.0
 40
266.7
100
AcDbArc
 50
73.60015915
 51
106.399842422
  0
LINE
  5
1D2
330
1F
100
AcDbEntity
  8
2
  6
LTYPE2
 62
     2
100
AcDbLine
 10
689.095733407
 20
397.364776351
 30
0.0
 11
689.965223513
 21
388.334776351
 31
0.0
  0
LINE
  5
1D3
330
1F
100
AcDbEntity
  8
2
  6
LTYPE2
 62
     2
100
AcDbLine
 10
673.969714647
 20
554.454487417
 30
0.0
 11
685.415565985
 21
435.584776351
 31
0.0
  0
ARC
  5
1D4
330
1F
100
AcDbEntity
  8
5
  6
Continuous
 62
     1
100
AcDbCircle
 10
99.645223513
 20
478.334776351
 30
0.0
 40
15.0
100
AcDbArc
 50
90.0
 51
180.0
  0
LINE
  5
1D5
330
1F
100
AcDbEntity
  8
5
  6
Continuous
 62
     1
100
AcDbLine
 10
121.645223513
 20
493.334776351
 30
0.0
 11
99.645223513
 21
493.334776351
 31
0.0
  0
ARC
  5
1D6
330
1F
100
AcDbEntity
  8
5
  6
Continuous
 62
     1
100
AcDbCircle
 10
121.645223513
 20
478.334776351
 30
0.0
 40
15.0
100
AcDbArc
 50
0.0
 51
90.0
  0
LINE
  5
1D7
330
1F
100
AcDbEntity
  8
5
  6
Continuous
 62
     1
100
AcDbLine
 10
136.645223513
 20
458.334776351
 30
0.0
 11
84.645223513
 21
458.334776351
 31
0.0
  0
LINE
  5
1D8
330
1F
100
AcDbEntity
  8
5
  6
LTYPE1
 62
     2
100
AcDbLine
 10
136.645223513
 20
456.334776351
 30
0.0
 11
84.645223513
 21
456.334776351
 31
0.0
  0
ARC
  5
1D9
330
1F
100
AcDbEntity
  8
4
  6
Continuous
 62
     1
100
AcDbCircle
 10
84.645223513
 20
284.834776351
 30
0.0
 40
4.0
100
AcDbArc
 50
180.0
 51
270.0
  0
LINE
  5
1DA
330
1F
100
AcDbEntity
  8
4
  6
Continuous
 62
     1
100
AcDbLine
 10
80.645223513
 20
284.834776351
 30
0.0
 11
82.645223513
 21
284.834776351
 31
0.0
  0
LINE
  5
1DB
330
1F
100
AcDbEntity
  8
4
  6
Continuous
 62
     1
100
AcDbLine
 10
84.645223513
 20
282.834776351
 30
0.0
 11
84.645223513
 21
280.834776351
 31
0.0
  0
ARC
  5
1DC
330
1F
100
AcDbEntity
  8
4
  6
Continuous
 62
     1
100
AcDbCircle
 10
82.645223513
 20
282.834776351
 30
0.0
 40
2.0
100
AcDbArc
 50
360.0
 51
90.0
  0
ARC
  5
1DD
330
1F
100
AcDbEntity
  8
4
  6
Continuous
 62
     1
100
AcDbCircle
 10
84.645223513
 20
284.834776351
 30
0.0
 40
2.0
100
AcDbArc
 50
180.0
 51
270.0
  0
ARC
  5
1DE
330
1F
100
AcDbEntity
  8
4
  6
Continuous
 62
     1
100
AcDbCircle
 10
136.645223513
 20
284.834776351
 30
0.0
 40
4.0
100
AcDbArc
 50
270.0
 51
0.0
  0
LINE
  5
1DF
330
1F
100
AcDbEntity
  8
4
  6
Continuous
 62
     1
100
AcDbLine
 10
140.645223513
 20
284.834776351
 30
0.0
 11
138.645223513
 21
284.834776351
 31
0.0
  0
LINE
  5
1E0
330
1F
100
AcDbEntity
  8
4
  6
Continuous
 62
     1
100
AcDbLine
 10
136.645223513
 20
282.834776351
 30
0.0
 11
136.645223513
 21
280.834776351
 31
0.0
  0
ARC
  5
1E1
330
1F
100
AcDbEntity
  8
4
  6
Continuous
 62
     1
100
AcDbCircle
 10
138.645223513
 20
282.834776351
 30
0.0
 40
2.0
100
AcDbArc
 50
90.0
 51
180.0
  0
ARC
  5
1E2
330
1F
100
AcDbEntity
  8
4
  6
Continuous
 62
     1
100
AcDbCircle
 10
136.645223513
 20
284.834776351
 30
0.0
 40
2.0
100
AcDbArc
 50
270.0
 51
0.0
  0
LINE
  5
1E3
330
1F
100
AcDbEntity
  8
4
  6
Continuous
 62
     1
100
AcDbLine
 10
136.645223513
 20
280.834776351
 30
0.0
 11
84.645223513
 21
280.834776351
 31
0.0
  0
LINE
  5
1E4
330
1F
100
AcDbEntity
  8
4
  6
LTYPE1
 62
     2
100
AcDbLine
 10
136.645223513
 20
282.834776351
 30
0.0
 11
84.645223513
 21
282.834776351
 31
0.0
  0
LINE
  5
1E5
330
1F
100
AcDbEntity
  8
4
  6
Continuous
 62
     1
100
AcDbLine
 10
140.645223513
 20
456.334776351
 30
0.0
 11
80.645223513
 21
456.334776351
 31
0.0
  0
LINE
  5
1E6
330
1F
100
AcDbEntity
  8
4
  6
LTYPE1
 62
     2
100
AcDbLine
 10
82.645223513
 20
284.834776351
 30
0.0
 11
82.645223513
 21
456.334776351
 31
0.0
  0
LINE
  5
1E7
330
1F
100
AcDbEntity
  8
4
  6
Continuous
 62
     1
100
AcDbLine
 10
80.645223513
 20
284.834776351
 30
0.0
 11
80.645223513
 21
456.334776351
 31
0.0
  0
LINE
  5
1E8
330
1F
100
AcDbEntity
  8
4
  6
LTYPE1
 62
     2
100
AcDbLine
 10
138.645223513
 20
284.834776351
 30
0.0
 11
138.645223513
 21
456.334776351
 31
0.0
  0
LINE
  5
1E9
330
1F
100
AcDbEntity
  8
4
  6
Continuous
 62
     1
100
AcDbLine
 10
140.645223513
 20
284.834776351
 30
0.0
 11
140.645223513
 21
456.334776351
 31
0.0
  0
LINE
  5
1EA
330
1F
100
AcDbEntity
  8
4
  6
LTYPE1
 62
     2
100
AcDbLine
 10
82.645223513
 20
296.834776351
 30
0.0
 11
80.645223513
 21
296.834776351
 31
0.0
  0
LINE
  5
1EB
330
1F
100
AcDbEntity
  8
4
  6
LTYPE1
 62
     2
100
AcDbLine
 10
140.645223513
 20
296.834776351
 30
0.0
 11
138.645223513
 21
296.834776351
 31
0.0
  0
CIRCLE
  5
1EC
330
1F
100
AcDbEntity
  8
4
  6
Continuous
 62
     1
100
AcDbCircle
 10
110.645223513
 20
408.334776351
 30
0.0
 40
12.0
  0
LINE
  5
1ED
330
1F
100
AcDbEntity
  8
5
  6
Continuous
 62
     1
100
AcDbLine
 10
84.645223513
 20
456.334776351
 30
0.0
 11
84.645223513
 21
478.334776351
 31
0.0
  0
LINE
  5
1EE
330
1F
100
AcDbEntity
  8
5
  6
Continuous
 62
     1
100
AcDbLine
 10
136.645223513
 20
456.334776351
 30
0.0
 11
136.645223513
 21
478.334776351
 31
0.0
  0
LINE
  5
1EF
330
1F
100
AcDbEntity
  8
5
  6
LTYPE1
 62
     2
100
AcDbLine
 10
136.645223513
 20
428.334776351
 30
0.0
 11
84.645223513
 21
428.334776351
 31
0.0
  0
LINE
  5
1F0
330
1F
100
AcDbEntity
  8
5
  6
LTYPE1
 62
     2
100
AcDbLine
 10
84.645223513
 20
428.334776351
 30
0.0
 11
84.645223513
 21
456.334776351
 31
0.0
  0
LINE
  5
1F1
330
1F
100
AcDbEntity
  8
5
  6
LTYPE1
 62
     2
100
AcDbLine
 10
136.645223513
 20
428.334776351
 30
0.0
 11
136.645223513
 21
456.334776351
 31
0.0
  0
CIRCLE
  5
1F2
330
1F
100
AcDbEntity
  8
3
  6
Continuous
 62
     2
100
AcDbCircle
 10
92.645223513
 20
443.334776351
 30
0.0
 40
6.1
  0
CIRCLE
  5
1F3
330
1F
100
AcDbEntity
  8
3
  6
Continuous
 62
     2
100
AcDbCircle
 10
92.645223513
 20
443.334776351
 30
0.0
 40
6.3
  0
CIRCLE
  5
1F4
330
1F
100
AcDbEntity
  8
3
  6
Continuous
 62
     2
100
AcDbCircle
 10
128.645223513
 20
443.334776351
 30
0.0
 40
6.1
  0
CIRCLE
  5
1F5
330
1F
100
AcDbEntity
  8
3
  6
Continuous
 62
     2
100
AcDbCircle
 10
128.645223513
 20
443.334776351
 30
0.0
 40
6.3
  0
CIRCLE
  5
1F6
330
1F
100
AcDbEntity
  8
3
  6
Continuous
 62
     2
100
AcDbCircle
 10
110.645223513
 20
478.334776351
 30
0.0
 40
7.7
  0
CIRCLE
  5
1F7
330
1F
100
AcDbEntity
  8
3
  6
Continuous
 62
     2
100
AcDbCircle
 10
110.645223513
 20
478.334776351
 30
0.0
 40
8.5
  0
LINE
  5
1F8
330
1F
100
AcDbEntity
  8
7
  6
Continuous
 62
     2
100
AcDbLine
 10
139.645223513
 20
280.834776351
 30
0.0
 11
166.645223513
 21
280.834776351
 31
0.0
  0
LINE
  5
1F9
330
1F
100
AcDbEntity
  8
7
  6
Continuous
 62
     2
100
AcDbLine
 10
160.645223513
 20
280.834776351
 30
0.0
 11
162.586366351
 21
288.079220048
 31
0.0
  0
LINE
  5
1FA
330
1F
100
AcDbEntity
  8
7
  6
Continuous
 62
     2
100
AcDbLine
 10
160.645223513
 20
280.834776351
 30
0.0
 11
158.704080674
 21
288.079220048
 31
0.0
  0
LWPOLYLINE
  5
1FC
330
1F
100
AcDbEntity
  8
7
  6
Continuous
 62
     2
100
AcDbPolyline
 90
     3
 70
   128
 43
0.0
 10
160.645223513
 20
280.834776351
 10
160.645223513
 20
478.334776351
 10
158.704080674
 20
471.090332654
  0
LINE
  5
1FD
330
1F
100
AcDbEntity
  8
7
  6
Continuous
 62
     2
100
AcDbLine
 10
160.645223513
 20
478.334776351
 30
0.0
 11
162.586366351
 21
471.090332654
 31
0.0
  0
LINE
  5
1FE
330
1F
100
AcDbEntity
  8
7
  6
Continuous
 62
     2
100
AcDbLine
 10
105.645223513
 20
478.334776351
 30
0.0
 11
166.645223513
 21
478.334776351
 31
0.0
  0
MTEXT
  5
1FF
330
1F
100
AcDbEntity
  8
7
  6
Continuous
 62
     2
100
AcDbMText
 10
157.645223513
 20
364.284776351
 30
0.0
 40
9.0
 41
61.2
 71
     7
 72
     1
  1
\T1.167;\W0.600;１９７．５
  7
KANJI8
 11
0.0
 21
1.0
 31
0.0
 73
     1
 44
1.0
  0
LINE
  5
200
330
1F
100
AcDbEntity
  8
7
  6
Continuous
 62
     2
100
AcDbLine
 10
124.645223513
 20
493.334776351
 30
0.0
 11
186.645223513
 21
493.334776351
 31
0.0
  0
LINE
  5
201
330
1F
100
AcDbEntity
  8
7
  6
Continuous
 62
     2
100
AcDbLine
 10
180.645223513
 20
493.334776351
 30
0.0
 11
178.704080674
 21
486.090332654
 31
0.0
  0
LINE
  5
202
330
1F
100
AcDbEntity
  8
7
  6
Continuous
 62
     2
100
AcDbLine
 10
180.645223513
 20
493.334776351
 30
0.0
 11
182.586366351
 21
486.090332654
 31
0.0
  0
LWPOLYLINE
  5
204
330
1F
100
AcDbEntity
  8
7
  6
Continuous
 62
     2
100
AcDbPolyline
 90
     3
 70
   128
 43
0.0
 10
180.645223513
 20
493.334776351
 10
180.645223513
 20
280.834776351
 10
182.586366351
 20
288.079220048
  0
LINE
  5
205
330
1F
100
AcDbEntity
  8
7
  6
Continuous
 62
     2
100
AcDbLine
 10
180.645223513
 20
280.834776351
 30
0.0
 11
178.704080674
 21
288.079220048
 31
0.0
  0
LINE
  5
206
330
1F
100
AcDbEntity
  8
7
  6
Continuous
 62
     2
100
AcDbLine
 10
163.645223513
 20
280.834776351
 30
0.0
 11
186.645223513
 21
280.834776351
 31
0.0
  0
MTEXT
  5
207
330
1F
100
AcDbEntity
  8
7
  6
Continuous
 62
     2
100
AcDbMText
 10
177.645223513
 20
371.784776351
 30
0.0
 40
9.0
 41
61.2
 71
     7
 72
     1
  1
\T1.167;\W0.600;２１２．５
  7
KANJI8
 11
0.0
 21
1.0
 31
0.0
 73
     1
 44
1.0
  0
CIRCLE
  5
208
330
1F
100
AcDbEntity
  8
4
  6
Continuous
 62
     1
100
AcDbCircle
 10
110.645223513
 20
443.334776351
 30
0.0
 40
4.2
  0
LWPOLYLINE
  5
20A
330
1F
100
AcDbEntity
  8
5
  6
LTYPE1
 62
     2
100
AcDbPolyline
 90
     6
 70
   129
 43
0.0
 10
119.30547755
 20
443.334776351
 10
114.975350532
 20
450.834776351
 10
106.315096494
 20
450.834776351
 10
101.984969475
 20
443.334776351
 10
106.315096494
 20
435.834776351
 10
114.975350532
 20
435.834776351
  0
CIRCLE
  5
20B
330
1F
100
AcDbEntity
  8
5
  6
Continuous
 62
     2
100
AcDbCircle
 10
110.645223513
 20
443.334776351
 30
0.0
 40
5.5
  0
CIRCLE
  5
20C
330
1F
100
AcDbEntity
  8
4
  6
Continuous
 62
     1
100
AcDbCircle
 10
110.645223513
 20
323.334776351
 30
0.0
 40
4.2
  0
LINE
  5
20D
330
1F
100
AcDbEntity
  8
2
  6
LTYPE2
 62
     2
100
AcDbLine
 10
34.649715024
 20
554.454483504
 30
0.0
 11
50.645223513
 21
388.334776351
 31
0.0
  0
ARC
  5
20E
330
1F
100
AcDbEntity
  8
2
  6
LTYPE2
 62
     2
100
AcDbCircle
 10
185.66950248
 20
554.547996875
 30
0.0
 40
0.975721033
100
AcDbArc
 50
354.500546171
 51
73.600157578
  0
ARC
  5
20F
330
1F
100
AcDbEntity
  8
2
  6
LTYPE2
 62
     2
100
AcDbCircle
 10
35.620944546
 20
554.547996875
 30
0.0
 40
0.975721033
100
AcDbArc
 50
106.39941264
 51
185.499684668
  0
ARC
  5
210
330
1F
100
AcDbEntity
  8
2
  6
LTYPE2
 62
     2
100
AcDbCircle
 10
110.645223513
 20
299.634776351
 30
0.0
 40
266.7
100
AcDbArc
 50
73.600157578
 51
106.39984085
  0
LINE
  5
211
330
1F
100
AcDbEntity
  8
2
  6
LTYPE2
 62
     2
100
AcDbLine
 10
50.645223513
 20
388.334776351
 30
0.0
 11
148.385223513
 21
388.334776351
 31
0.0
  0
LINE
  5
212
330
1F
100
AcDbEntity
  8
2
  6
LTYPE2
 62
     2
100
AcDbLine
 10
186.640732378
 20
554.454487417
 30
0.0
 11
172.370723256
 21
406.254776351
 31
0.0
  0
ARC
  5
213
330
1F
100
AcDbEntity
  8
4
  6
Continuous
 62
     1
100
AcDbCircle
 10
622.305223513
 20
201.914776351
 30
0.0
 40
4.0
100
AcDbArc
 50
0.0
 51
90.0
  0
LINE
  5
214
330
1F
100
AcDbEntity
  8
4
  6
Continuous
 62
     1
100
AcDbLine
 10
622.305223513
 20
205.914776351
 30
0.0
 11
622.305223513
 21
203.914776351
 31
0.0
  0
LINE
  5
215
330
1F
100
AcDbEntity
  8
4
  6
Continuous
 62
     1
100
AcDbLine
 10
624.305223513
 20
201.914776351
 30
0.0
 11
626.305223513
 21
201.914776351
 31
0.0
  0
ARC
  5
216
330
1F
100
AcDbEntity
  8
4
  6
Continuous
 62
     1
100
AcDbCircle
 10
624.305223513
 20
203.914776351
 30
0.0
 40
2.0
100
AcDbArc
 50
180.0
 51
270.0
  0
ARC
  5
217
330
1F
100
AcDbEntity
  8
4
  6
Continuous
 62
     1
100
AcDbCircle
 10
622.305223513
 20
201.914776351
 30
0.0
 40
2.0
100
AcDbArc
 50
0.0
 51
90.0
  0
ARC
  5
218
330
1F
100
AcDbEntity
  8
4
  6
Continuous
 62
     1
100
AcDbCircle
 10
622.305223513
 20
149.914776351
 30
0.0
 40
4.0
100
AcDbArc
 50
270.0
 51
0.0
  0
LINE
  5
219
330
1F
100
AcDbEntity
  8
4
  6
Continuous
 62
     1
100
AcDbLine
 10
622.305223513
 20
145.914776351
 30
0.0
 11
622.305223513
 21
147.914776351
 31
0.0
  0
LINE
  5
21A
330
1F
100
AcDbEntity
  8
4
  6
Continuous
 62
     1
100
AcDbLine
 10
624.305223513
 20
149.914776351
 30
0.0
 11
626.305223513
 21
149.914776351
 31
0.0
  0
ARC
  5
21B
330
1F
100
AcDbEntity
  8
4
  6
Continuous
 62
     1
100
AcDbCircle
 10
624.305223513
 20
147.914776351
 30
0.0
 40
2.0
100
AcDbArc
 50
90.0
 51
180.0
  0
ARC
  5
21C
330
1F
100
AcDbEntity
  8
4
  6
Continuous
 62
     1
100
AcDbCircle
 10
622.305223513
 20
149.914776351
 30
0.0
 40
2.0
100
AcDbArc
 50
270.0
 51
0.0
  0
LINE
  5
21D
330
1F
100
AcDbEntity
  8
4
  6
Continuous
 62
     1
100
AcDbLine
 10
626.305223513
 20
149.914776351
 30
0.0
 11
626.305223513
 21
201.914776351
 31
0.0
  0
LINE
  5
21E
330
1F
100
AcDbEntity
  8
4
  6
LTYPE1
 62
     2
100
AcDbLine
 10
624.305223513
 20
149.914776351
 30
0.0
 11
624.305223513
 21
201.914776351
 31
0.0
  0
ARC
  5
21F
330
1F
100
AcDbEntity
  8
4
  6
Continuous
 62
     1
100
AcDbCircle
 10
208.305223513
 20
201.914776351
 30
0.0
 40
4.0
100
AcDbArc
 50
90.0
 51
180.0
  0
LINE
  5
220
330
1F
100
AcDbEntity
  8
4
  6
Continuous
 62
     1
100
AcDbLine
 10
208.305223513
 20
205.914776351
 30
0.0
 11
208.305223513
 21
203.914776351
 31
0.0
  0
LINE
  5
221
330
1F
100
AcDbEntity
  8
4
  6
Continuous
 62
     1
100
AcDbLine
 10
206.305223513
 20
201.914776351
 30
0.0
 11
204.305223513
 21
201.914776351
 31
0.0
  0
ARC
  5
222
330
1F
100
AcDbEntity
  8
4
  6
Continuous
 62
     1
100
AcDbCircle
 10
206.305223513
 20
203.914776351
 30
0.0
 40
2.0
100
AcDbArc
 50
270.0
 51
0.0
  0
ARC
  5
223
330
1F
100
AcDbEntity
  8
4
  6
Continuous
 62
     1
100
AcDbCircle
 10
208.305223513
 20
201.914776351
 30
0.0
 40
2.0
100
AcDbArc
 50
90.0
 51
180.0
  0
ARC
  5
224
330
1F
100
AcDbEntity
  8
4
  6
Continuous
 62
     1
100
AcDbCircle
 10
208.305223513
 20
149.914776351
 30
0.0
 40
4.0
100
AcDbArc
 50
180.0
 51
270.0
  0
LINE
  5
225
330
1F
100
AcDbEntity
  8
4
  6
Continuous
 62
     1
100
AcDbLine
 10
208.305223513
 20
145.914776351
 30
0.0
 11
208.305223513
 21
147.914776351
 31
0.0
  0
LINE
  5
226
330
1F
100
AcDbEntity
  8
4
  6
Continuous
 62
     1
100
AcDbLine
 10
206.305223513
 20
149.914776351
 30
0.0
 11
204.305223513
 21
149.914776351
 31
0.0
  0
ARC
  5
227
330
1F
100
AcDbEntity
  8
4
  6
Continuous
 62
     1
100
AcDbCircle
 10
206.305223513
 20
147.914776351
 30
0.0
 40
2.0
100
AcDbArc
 50
360.0
 51
90.0
  0
ARC
  5
228
330
1F
100
AcDbEntity
  8
4
  6
Continuous
 62
     1
100
AcDbCircle
 10
208.305223513
 20
149.914776351
 30
0.0
 40
2.0
100
AcDbArc
 50
180.0
 51
270.0
  0
LINE
  5
229
330
1F
100
AcDbEntity
  8
4
  6
Continuous
 62
     1
100
AcDbLine
 10
204.305223513
 20
149.914776351
 30
0.0
 11
204.305223513
 21
201.914776351
 31
0.0
  0
LINE
  5
22A
330
1F
100
AcDbEntity
  8
4
  6
LTYPE1
 62
     2
100
AcDbLine
 10
206.305223513
 20
149.914776351
 30
0.0
 11
206.305223513
 21
201.914776351
 31
0.0
  0
LINE
  5
22B
330
1F
100
AcDbEntity
  8
4
  6
LTYPE1
 62
     2
100
AcDbLine
 10
622.305223513
 20
203.914776351
 30
0.0
 11
208.305223513
 21
203.914776351
 31
0.0
  0
LINE
  5
22C
330
1F
100
AcDbEntity
  8
4
  6
Continuous
 62
     1
100
AcDbLine
 10
622.305223513
 20
205.914776351
 30
0.0
 11
208.305223513
 21
205.914776351
 31
0.0
  0
LINE
  5
22D
330
1F
100
AcDbEntity
  8
4
  6
LTYPE1
 62
     2
100
AcDbLine
 10
622.305223513
 20
147.914776351
 30
0.0
 11
208.305223513
 21
147.914776351
 31
0.0
  0
LINE
  5
22E
330
1F
100
AcDbEntity
  8
4
  6
Continuous
 62
     1
100
AcDbLine
 10
622.305223513
 20
145.914776351
 30
0.0
 11
208.305223513
 21
145.914776351
 31
0.0
  0
CIRCLE
  5
22F
330
1F
100
AcDbEntity
  8
4
  6
Continuous
 62
     1
100
AcDbCircle
 10
475.305223513
 20
175.914776351
 30
0.0
 40
4.2
  0
CIRCLE
  5
230
330
1F
100
AcDbEntity
  8
4
  6
Continuous
 62
     1
100
AcDbCircle
 10
605.305223513
 20
175.914776351
 30
0.0
 40
4.2
  0
CIRCLE
  5
231
330
1F
100
AcDbEntity
  8
4
  6
Continuous
 62
     1
100
AcDbCircle
 10
545.305223513
 20
175.914776351
 30
0.0
 40
4.2
  0
CIRCLE
  5
232
330
1F
100
AcDbEntity
  8
4
  6
Continuous
 62
     1
100
AcDbCircle
 10
415.305223513
 20
175.914776351
 30
0.0
 40
4.2
  0
CIRCLE
  5
233
330
1F
100
AcDbEntity
  8
4
  6
Continuous
 62
     1
100
AcDbCircle
 10
355.305223513
 20
175.914776351
 30
0.0
 40
4.2
  0
CIRCLE
  5
234
330
1F
100
AcDbEntity
  8
4
  6
Continuous
 62
     1
100
AcDbCircle
 10
225.305223513
 20
175.914776351
 30
0.0
 40
4.2
  0
CIRCLE
  5
235
330
1F
100
AcDbEntity
  8
4
  6
Continuous
 62
     1
100
AcDbCircle
 10
285.305223513
 20
175.914776351
 30
0.0
 40
4.2
  0
LINE
  5
236
330
1F
100
AcDbEntity
  8
3
  6
LTYPE3
 62
     2
100
AcDbLine
 10
415.305223513
 20
209.014776351
 30
0.0
 11
415.305223513
 21
142.504776351
 31
0.0
  0
LINE
  5
237
330
1F
100
AcDbEntity
  8
7
  6
Continuous
 62
     2
100
AcDbLine
 10
355.305223513
 20
170.914776351
 30
0.0
 11
355.305223513
 21
223.914776351
 31
0.0
  0
LINE
  5
238
330
1F
100
AcDbEntity
  8
7
  6
Continuous
 62
     2
100
AcDbLine
 10
355.305223513
 20
217.914776351
 30
0.0
 11
362.54966721
 21
215.973633512
 31
0.0
  0
LINE
  5
239
330
1F
100
AcDbEntity
  8
7
  6
Continuous
 62
     2
100
AcDbLine
 10
355.305223513
 20
217.914776351
 30
0.0
 11
362.54966721
 21
219.855919189
 31
0.0
  0
LWPOLYLINE
  5
23B
330
1F
100
AcDbEntity
  8
7
  6
Continuous
 62
     2
100
AcDbPolyline
 90
     3
 70
   128
 43
0.0
 10
355.305223513
 20
217.914776351
 10
475.305223513
 20
217.914776351
 10
468.060779815
 20
219.855919189
  0
LINE
  5
23C
330
1F
100
AcDbEntity
  8
7
  6
Continuous
 62
     2
100
AcDbLine
 10
475.305223513
 20
217.914776351
 30
0.0
 11
468.060779815
 21
215.973633512
 31
0.0
  0
LINE
  5
23D
330
1F
100
AcDbEntity
  8
7
  6
Continuous
 62
     2
100
AcDbLine
 10
475.305223513
 20
170.914776351
 30
0.0
 11
475.305223513
 21
223.914776351
 31
0.0
  0
MTEXT
  5
23E
330
1F
100
AcDbEntity
  8
7
  6
Continuous
 62
     2
100
AcDbMText
 10
406.305223513
 20
220.914776351
 30
0.0
 40
9.0
 41
36.0
 71
     7
 72
     1
  1
\T1.167;\W0.600;１２０
  7
KANJI8
 73
     1
 44
1.0
  0
LINE
  5
23F
330
1F
100
AcDbEntity
  8
7
  6
Continuous
 62
     2
100
AcDbLine
 10
475.305223513
 20
217.914776351
 30
0.0
 11
482.54966721
 21
215.973633512
 31
0.0
  0
LINE
  5
240
330
1F
100
AcDbEntity
  8
7
  6
Continuous
 62
     2
100
AcDbLine
 10
475.305223513
 20
217.914776351
 30
0.0
 11
482.54966721
 21
219.855919189
 31
0.0
  0
LWPOLYLINE
  5
242
330
1F
100
AcDbEntity
  8
7
  6
Continuous
 62
     2
100
AcDbPolyline
 90
     3
 70
   128
 43
0.0
 10
475.305223513
 20
217.914776351
 10
605.305223513
 20
217.914776351
 10
598.060779815
 20
219.855919189
  0
LINE
  5
243
330
1F
100
AcDbEntity
  8
7
  6
Continuous
 62
     2
100
AcDbLine
 10
605.305223513
 20
217.914776351
 30
0.0
 11
598.060779815
 21
215.973633512
 31
0.0
  0
LINE
  5
244
330
1F
100
AcDbEntity
  8
7
  6
Continuous
 62
     2
100
AcDbLine
 10
605.305223513
 20
170.914776351
 30
0.0
 11
605.305223513
 21
223.914776351
 31
0.0
  0
MTEXT
  5
245
330
1F
100
AcDbEntity
  8
7
  6
Continuous
 62
     2
100
AcDbMText
 10
531.305223513
 20
220.914776351
 30
0.0
 40
9.0
 41
36.0
 71
     7
 72
     1
  1
\T1.167;\W0.600;１３０
  7
KANJI8
 73
     1
 44
1.0
  0
LINE
  5
246
330
1F
100
AcDbEntity
  8
7
  6
Continuous
 62
     2
100
AcDbLine
 10
355.305223513
 20
217.914776351
 30
0.0
 11
348.060779815
 21
219.855919189
 31
0.0
  0
LINE
  5
247
330
1F
100
AcDbEntity
  8
7
  6
Continuous
 62
     2
100
AcDbLine
 10
355.305223513
 20
217.914776351
 30
0.0
 11
348.060779815
 21
215.973633512
 31
0.0
  0
LWPOLYLINE
  5
249
330
1F
100
AcDbEntity
  8
7
  6
Continuous
 62
     2
100
AcDbPolyline
 90
     3
 70
   128
 43
0.0
 10
355.305223513
 20
217.914776351
 10
225.305223513
 20
217.914776351
 10
232.54966721
 20
215.973633512
  0
LINE
  5
24A
330
1F
100
AcDbEntity
  8
7
  6
Continuous
 62
     2
100
AcDbLine
 10
225.305223513
 20
217.914776351
 30
0.0
 11
232.54966721
 21
219.855919189
 31
0.0
  0
LINE
  5
24B
330
1F
100
AcDbEntity
  8
7
  6
Continuous
 62
     2
100
AcDbLine
 10
225.305223513
 20
170.914776351
 30
0.0
 11
225.305223513
 21
223.914776351
 31
0.0
  0
MTEXT
  5
24C
330
1F
100
AcDbEntity
  8
7
  6
Continuous
 62
     2
100
AcDbMText
 10
281.305223513
 20
220.914776351
 30
0.0
 40
9.0
 41
36.0
 71
     7
 72
     1
  1
\T1.167;\W0.600;１３０
  7
KANJI8
 73
     1
 44
1.0
  0
LINE
  5
24D
330
1F
100
AcDbEntity
  8
7
  6
Continuous
 62
     2
100
AcDbLine
 10
415.305223513
 20
139.504776351
 30
0.0
 11
415.305223513
 21
124.914776351
 31
0.0
  0
LINE
  5
24E
330
1F
100
AcDbEntity
  8
7
  6
Continuous
 62
     2
100
AcDbLine
 10
415.305223513
 20
130.914776351
 30
0.0
 11
408.060779815
 21
132.855919189
 31
0.0
  0
LINE
  5
24F
330
1F
100
AcDbEntity
  8
7
  6
Continuous
 62
     2
100
AcDbLine
 10
415.305223513
 20
130.914776351
 30
0.0
 11
408.060779815
 21
128.973633512
 31
0.0
  0
LWPOLYLINE
  5
251
330
1F
100
AcDbEntity
  8
7
  6
Continuous
 62
     2
100
AcDbPolyline
 90
     3
 70
   128
 43
0.0
 10
415.305223513
 20
130.914776351
 10
285.305223513
 20
130.914776351
 10
292.54966721
 20
128.973633512
  0
LINE
  5
252
330
1F
100
AcDbEntity
  8
7
  6
Continuous
 62
     2
100
AcDbLine
 10
285.305223513
 20
130.914776351
 30
0.0
 11
292.54966721
 21
132.855919189
 31
0.0
  0
LINE
  5
253
330
1F
100
AcDbEntity
  8
7
  6
Continuous
 62
     2
100
AcDbLine
 10
285.305223513
 20
180.914776351
 30
0.0
 11
285.305223513
 21
124.914776351
 31
0.0
  0
MTEXT
  5
254
330
1F
100
AcDbEntity
  8
7
  6
Continuous
 62
     2
100
AcDbMText
 10
341.305223513
 20
133.914776351
 30
0.0
 40
9.0
 41
36.0
 71
     7
 72
     1
  1
\T1.167;\W0.600;１３０
  7
KANJI8
 73
     1
 44
1.0
  0
LINE
  5
255
330
1F
100
AcDbEntity
  8
7
  6
Continuous
 62
     2
100
AcDbLine
 10
415.305223513
 20
130.914776351
 30
0.0
 11
422.54966721
 21
128.973633512
 31
0.0
  0
LINE
  5
256
330
1F
100
AcDbEntity
  8
7
  6
Continuous
 62
     2
100
AcDbLine
 10
415.305223513
 20
130.914776351
 30
0.0
 11
422.54966721
 21
132.855919189
 31
0.0
  0
LWPOLYLINE
  5
258
330
1F
100
AcDbEntity
  8
7
  6
Continuous
 62
     2
100
AcDbPolyline
 90
     3
 70
   128
 43
0.0
 10
415.305223513
 20
130.914776351
 10
545.305223513
 20
130.914776351
 10
538.060779815
 20
132.855919189
  0
LINE
  5
259
330
1F
100
AcDbEntity
  8
7
  6
Continuous
 62
     2
100
AcDbLine
 10
545.305223513
 20
130.914776351
 30
0.0
 11
538.060779815
 21
128.973633512
 31
0.0
  0
LINE
  5
25A
330
1F
100
AcDbEntity
  8
7
  6
Continuous
 62
     2
100
AcDbLine
 10
545.305223513
 20
180.914776351
 30
0.0
 11
545.305223513
 21
124.914776351
 31
0.0
  0
MTEXT
  5
25B
330
1F
100
AcDbEntity
  8
7
  6
Continuous
 62
     2
100
AcDbMText
 10
471.305223513
 20
133.914776351
 30
0.0
 40
9.0
 41
36.0
 71
     7
 72
     1
  1
\T1.167;\W0.600;１３０
  7
KANJI8
 73
     1
 44
1.0
  0
LINE
  5
25C
330
1F
100
AcDbEntity
  8
7
  6
Continuous
 62
     2
100
AcDbLine
 10
626.305223513
 20
146.914776351
 30
0.0
 11
626.305223513
 21
104.914776351
 31
0.0
  0
LINE
  5
25D
330
1F
100
AcDbEntity
  8
7
  6
Continuous
 62
     2
100
AcDbLine
 10
626.305223513
 20
110.914776351
 30
0.0
 11
619.060779815
 21
112.855919189
 31
0.0
  0
LINE
  5
25E
330
1F
100
AcDbEntity
  8
7
  6
Continuous
 62
     2
100
AcDbLine
 10
626.305223513
 20
110.914776351
 30
0.0
 11
619.060779815
 21
108.973633512
 31
0.0
  0
LWPOLYLINE
  5
260
330
1F
100
AcDbEntity
  8
7
  6
Continuous
 62
     2
100
AcDbPolyline
 90
     3
 70
   128
 43
0.0
 10
626.305223513
 20
110.914776351
 10
204.305223513
 20
110.914776351
 10
211.54966721
 20
108.973633512
  0
LINE
  5
261
330
1F
100
AcDbEntity
  8
7
  6
Continuous
 62
     2
100
AcDbLine
 10
204.305223513
 20
110.914776351
 30
0.0
 11
211.54966721
 21
112.855919189
 31
0.0
  0
LINE
  5
262
330
1F
100
AcDbEntity
  8
7
  6
Continuous
 62
     2
100
AcDbLine
 10
204.305223513
 20
146.914776351
 30
0.0
 11
204.305223513
 21
104.914776351
 31
0.0
  0
MTEXT
  5
263
330
1F
100
AcDbEntity
  8
7
  6
Continuous
 62
     2
100
AcDbMText
 10
406.305223513
 20
113.914776351
 30
0.0
 40
9.0
 41
36.0
 71
     7
 72
     1
  1
\T1.167;\W0.600;４２２
  7
KANJI8
 73
     1
 44
1.0
  0
LINE
  5
264
330
1F
100
AcDbEntity
  8
7
  6
Continuous
 62
     2
100
AcDbLine
 10
625.305223513
 20
205.914776351
 30
0.0
 11
652.305223513
 21
205.914776351
 31
0.0
  0
LINE
  5
265
330
1F
100
AcDbEntity
  8
7
  6
Continuous
 62
     2
100
AcDbLine
 10
646.305223513
 20
205.914776351
 30
0.0
 11
644.364080674
 21
198.670332654
 31
0.0
  0
LINE
  5
266
330
1F
100
AcDbEntity
  8
7
  6
Continuous
 62
     2
100
AcDbLine
 10
646.305223513
 20
205.914776351
 30
0.0
 11
648.246366351
 21
198.670332654
 31
0.0
  0
LWPOLYLINE
  5
268
330
1F
100
AcDbEntity
  8
7
  6
Continuous
 62
     2
100
AcDbPolyline
 90
     3
 70
   128
 43
0.0
 10
646.305223513
 20
205.914776351
 10
646.305223513
 20
145.914776351
 10
648.246366351
 20
153.159220048
  0
LINE
  5
269
330
1F
100
AcDbEntity
  8
7
  6
Continuous
 62
     2
100
AcDbLine
 10
646.305223513
 20
145.914776351
 30
0.0
 11
644.364080674
 21
153.159220048
 31
0.0
  0
LINE
  5
26A
330
1F
100
AcDbEntity
  8
7
  6
Continuous
 62
     2
100
AcDbLine
 10
625.305223513
 20
145.914776351
 30
0.0
 11
652.305223513
 21
145.914776351
 31
0.0
  0
MTEXT
  5
26B
330
1F
100
AcDbEntity
  8
7
  6
Continuous
 62
     2
100
AcDbMText
 10
643.305223513
 20
170.064776351
 30
0.0
 40
9.0
 41
23.4
 71
     7
 72
     1
  1
\T1.167;\W0.600;６０
  7
KANJI8
 11
0.0
 21
1.0
 31
0.0
 73
     1
 44
1.0
  0
LINE
  5
26C
330
1F
100
AcDbEntity
  8
7
  6
Continuous
 62
     2
100
AcDbLine
 10
418.445223513
 20
180.964776351
 30
0.0
 11
424.029430803
 21
185.971434811
 31
0.0
  0
LINE
  5
26D
330
1F
100
AcDbEntity
  8
7
  6
Continuous
 62
     2
100
AcDbLine
 10
418.445223513
 20
180.964776351
 30
0.0
 11
420.777959656
 21
188.09277341
 31
0.0
  0
LWPOLYLINE
  5
26F
330
1F
100
AcDbEntity
  8
7
  6
Continuous
 62
     2
100
AcDbPolyline
 90
     3
 70
   128
 43
0.0
 10
418.445223513
 20
180.964776351
 10
461.505223513
 20
246.964776351
 10
498.405223513
 20
246.964776351
  0
MTEXT
  5
270
330
1F
100
AcDbEntity
  8
7
  6
Continuous
 62
     2
100
AcDbMText
 10
461.505223513
 20
249.964776351
 30
0.0
 40
9.0
 41
72.0
 71
     7
 72
     1
  1
\T1.100;\W0.615;７－φ８．４
  7
KANJI11
 73
     1
 44
1.0
  0
LINE
  5
272
330
1F
100
AcDbEntity
  8
3
  6
Continuous
 62
     2
100
AcDbLine
 10
220.705223513
 20
484.834776351
 30
0.0
 11
213.205223513
 21
484.834776351
 31
0.0
  0
LINE
  5
273
330
1F
100
AcDbEntity
  8
3
  6
Continuous
 62
     2
100
AcDbLine
 10
220.705223513
 20
471.834776351
 30
0.0
 11
213.205223513
 21
471.834776351
 31
0.0
  0
LINE
  5
274
330
1F
100
AcDbEntity
  8
3
  6
Continuous
 62
     2
100
AcDbLine
 10
213.205223513
 20
478.334776351
 30
0.0
 11
220.705223513
 21
478.334776351
 31
0.0
  0
LINE
  5
275
330
1F
100
AcDbEntity
  8
3
  6
Continuous
 62
     2
100
AcDbLine
 10
212.705223513
 20
472.634776351
 30
0.0
 11
212.705223513
 21
484.034776351
 31
0.0
  0
LWPOLYLINE
  5
277
330
1F
100
AcDbEntity
  8
3
  6
Continuous
 62
     2
100
AcDbPolyline
 90
     3
 70
   128
 43
0.0
 10
213.205223513
 20
484.834776351
 10
213.205223513
 20
471.834776351
 10
212.705223513
 20
472.634776351
  0
LINE
  5
278
330
1F
100
AcDbEntity
  8
3
  6
Continuous
 62
     2
100
AcDbLine
 10
212.705223513
 20
484.034776351
 30
0.0
 11
213.205223513
 21
484.834776351
 31
0.0
  0
LINE
  5
279
330
1F
100
AcDbEntity
  8
3
  6
Continuous
 62
     2
100
AcDbLine
 10
213.205223513
 20
472.334776351
 30
0.0
 11
220.705223513
 21
472.334776351
 31
0.0
  0
LINE
  5
27A
330
1F
100
AcDbEntity
  8
3
  6
Continuous
 62
     2
100
AcDbLine
 10
213.205223513
 20
473.034776351
 30
0.0
 11
220.705223513
 21
473.034776351
 31
0.0
  0
LINE
  5
27B
330
1F
100
AcDbEntity
  8
3
  6
Continuous
 62
     2
100
AcDbLine
 10
213.205223513
 20
473.734776351
 30
0.0
 11
220.705223513
 21
473.734776351
 31
0.0
  0
LINE
  5
27C
330
1F
100
AcDbEntity
  8
3
  6
Continuous
 62
     2
100
AcDbLine
 10
213.205223513
 20
474.534776351
 30
0.0
 11
220.705223513
 21
474.534776351
 31
0.0
  0
LINE
  5
27D
330
1F
100
AcDbEntity
  8
3
  6
Continuous
 62
     2
100
AcDbLine
 10
213.205223513
 20
475.334776351
 30
0.0
 11
220.705223513
 21
475.334776351
 31
0.0
  0
LINE
  5
27E
330
1F
100
AcDbEntity
  8
3
  6
Continuous
 62
     2
100
AcDbLine
 10
213.205223513
 20
476.234776351
 30
0.0
 11
220.705223513
 21
476.234776351
 31
0.0
  0
LINE
  5
27F
330
1F
100
AcDbEntity
  8
3
  6
Continuous
 62
     2
100
AcDbLine
 10
213.205223513
 20
477.234776351
 30
0.0
 11
220.705223513
 21
477.234776351
 31
0.0
  0
LINE
  5
280
330
1F
100
AcDbEntity
  8
3
  6
Continuous
 62
     2
100
AcDbLine
 10
213.205223513
 20
484.334776351
 30
0.0
 11
220.705223513
 21
484.334776351
 31
0.0
  0
LINE
  5
281
330
1F
100
AcDbEntity
  8
3
  6
Continuous
 62
     2
100
AcDbLine
 10
213.205223513
 20
483.634776351
 30
0.0
 11
220.705223513
 21
483.634776351
 31
0.0
  0
LINE
  5
282
330
1F
100
AcDbEntity
  8
3
  6
Continuous
 62
     2
100
AcDbLine
 10
213.205223513
 20
482.934776351
 30
0.0
 11
220.705223513
 21
482.934776351
 31
0.0
  0
LINE
  5
283
330
1F
100
AcDbEntity
  8
3
  6
Continuous
 62
     2
100
AcDbLine
 10
213.205223513
 20
482.134776351
 30
0.0
 11
220.705223513
 21
482.134776351
 31
0.0
  0
LINE
  5
284
330
1F
100
AcDbEntity
  8
3
  6
Continuous
 62
     2
100
AcDbLine
 10
213.205223513
 20
481.334776351
 30
0.0
 11
220.705223513
 21
481.334776351
 31
0.0
  0
LINE
  5
285
330
1F
100
AcDbEntity
  8
3
  6
Continuous
 62
     2
100
AcDbLine
 10
213.205223513
 20
480.434776351
 30
0.0
 11
220.705223513
 21
480.434776351
 31
0.0
  0
LINE
  5
286
330
1F
100
AcDbEntity
  8
3
  6
Continuous
 62
     2
100
AcDbLine
 10
213.205223513
 20
479.434776351
 30
0.0
 11
220.705223513
 21
479.434776351
 31
0.0
  0
CIRCLE
  5
287
330
1F
100
AcDbEntity
  8
3
  6
Continuous
 62
     2
100
AcDbCircle
 10
110.645223513
 20
478.334776351
 30
0.0
 40
5.7
  0
CIRCLE
  5
288
330
1F
100
AcDbEntity
  8
3
  6
Continuous
 62
     2
100
AcDbCircle
 10
110.645223513
 20
478.334776351
 30
0.0
 40
6.5
  0
LWPOLYLINE
  5
28A
330
1F
100
AcDbEntity
  8
3
  6
Continuous
 62
     2
100
AcDbPolyline
 90
     6
 70
   129
 43
0.0
 10
113.645223513
 20
480.034776351
 10
110.645223513
 20
481.834776351
 10
107.645223513
 20
480.034776351
 10
107.645223513
 20
476.634776351
 10
110.645223513
 20
474.834776351
 10
113.645223513
 20
476.634776351
  0
LINE
  5
28B
330
1F
100
AcDbEntity
  8
3
  6
Continuous
 62
     2
100
AcDbLine
 10
201.205223513
 20
448.334776351
 30
0.0
 11
195.605223513
 21
448.334776351
 31
0.0
  0
LINE
  5
28C
330
1F
100
AcDbEntity
  8
3
  6
Continuous
 62
     2
100
AcDbLine
 10
195.205223513
 20
439.034776351
 30
0.0
 11
195.205223513
 21
447.634776351
 31
0.0
  0
LINE
  5
28D
330
1F
100
AcDbEntity
  8
3
  6
Continuous
 62
     2
100
AcDbLine
 10
201.205223513
 20
438.334776351
 30
0.0
 11
195.605223513
 21
438.334776351
 31
0.0
  0
LWPOLYLINE
  5
28F
330
1F
100
AcDbEntity
  8
3
  6
Continuous
 62
     2
100
AcDbPolyline
 90
     3
 70
   128
 43
0.0
 10
195.605223513
 20
448.334776351
 10
195.605223513
 20
438.334776351
 10
195.205223513
 20
439.034776351
  0
LINE
  5
290
330
1F
100
AcDbEntity
  8
3
  6
Continuous
 62
     2
100
AcDbLine
 10
195.205223513
 20
447.634776351
 30
0.0
 11
195.605223513
 21
448.334776351
 31
0.0
  0
LINE
  5
291
330
1F
100
AcDbEntity
  8
3
  6
Continuous
 62
     2
100
AcDbLine
 10
195.605223513
 20
443.334776351
 30
0.0
 11
201.205223513
 21
443.334776351
 31
0.0
  0
LINE
  5
292
330
1F
100
AcDbEntity
  8
3
  6
Continuous
 62
     2
100
AcDbLine
 10
201.205223513
 20
438.734776351
 30
0.0
 11
195.605223513
 21
438.734776351
 31
0.0
  0
LINE
  5
293
330
1F
100
AcDbEntity
  8
3
  6
Continuous
 62
     2
100
AcDbLine
 10
201.205223513
 20
439.234776351
 30
0.0
 11
195.605223513
 21
439.234776351
 31
0.0
  0
LINE
  5
294
330
1F
100
AcDbEntity
  8
3
  6
Continuous
 62
     2
100
AcDbLine
 10
201.205223513
 20
439.834776351
 30
0.0
 11
195.605223513
 21
439.834776351
 31
0.0
  0
LINE
  5
295
330
1F
100
AcDbEntity
  8
3
  6
Continuous
 62
     2
100
AcDbLine
 10
201.205223513
 20
440.534776351
 30
0.0
 11
195.605223513
 21
440.534776351
 31
0.0
  0
LINE
  5
296
330
1F
100
AcDbEntity
  8
3
  6
Continuous
 62
     2
100
AcDbLine
 10
201.205223513
 20
441.434776351
 30
0.0
 11
195.605223513
 21
441.434776351
 31
0.0
  0
LINE
  5
297
330
1F
100
AcDbEntity
  8
3
  6
Continuous
 62
     2
100
AcDbLine
 10
201.205223513
 20
442.334776351
 30
0.0
 11
195.605223513
 21
442.334776351
 31
0.0
  0
LINE
  5
298
330
1F
100
AcDbEntity
  8
3
  6
Continuous
 62
     2
100
AcDbLine
 10
201.205223513
 20
447.934776351
 30
0.0
 11
195.605223513
 21
447.934776351
 31
0.0
  0
LINE
  5
299
330
1F
100
AcDbEntity
  8
3
  6
Continuous
 62
     2
100
AcDbLine
 10
201.205223513
 20
447.434776351
 30
0.0
 11
195.605223513
 21
447.434776351
 31
0.0
  0
LINE
  5
29A
330
1F
100
AcDbEntity
  8
3
  6
Continuous
 62
     2
100
AcDbLine
 10
201.205223513
 20
446.834776351
 30
0.0
 11
195.605223513
 21
446.834776351
 31
0.0
  0
LINE
  5
29B
330
1F
100
AcDbEntity
  8
3
  6
Continuous
 62
     2
100
AcDbLine
 10
201.205223513
 20
446.134776351
 30
0.0
 11
195.605223513
 21
446.134776351
 31
0.0
  0
LINE
  5
29C
330
1F
100
AcDbEntity
  8
3
  6
Continuous
 62
     2
100
AcDbLine
 10
201.205223513
 20
445.234776351
 30
0.0
 11
195.605223513
 21
445.234776351
 31
0.0
  0
LINE
  5
29D
330
1F
100
AcDbEntity
  8
3
  6
Continuous
 62
     2
100
AcDbLine
 10
201.205223513
 20
444.334776351
 30
0.0
 11
195.605223513
 21
444.334776351
 31
0.0
  0
CIRCLE
  5
29E
330
1F
100
AcDbEntity
  8
3
  6
Continuous
 62
     2
100
AcDbCircle
 10
92.645223513
 20
443.334776351
 30
0.0
 40
4.3
  0
CIRCLE
  5
29F
330
1F
100
AcDbEntity
  8
3
  6
Continuous
 62
     2
100
AcDbCircle
 10
92.645223513
 20
443.334776351
 30
0.0
 40
5.0
  0
LWPOLYLINE
  5
2A1
330
1F
100
AcDbEntity
  8
3
  6
Continuous
 62
     2
100
AcDbPolyline
 90
     6
 70
   129
 43
0.0
 10
94.045223513
 20
440.834776351
 10
95.545223513
 20
443.334776351
 10
94.045223513
 20
445.834776351
 10
91.245223513
 20
445.834776351
 10
89.745223513
 20
443.334776351
 10
91.245223513
 20
440.834776351
  0
CIRCLE
  5
2A2
330
1F
100
AcDbEntity
  8
3
  6
Continuous
 62
     2
100
AcDbCircle
 10
128.645223513
 20
443.334776351
 30
0.0
 40
4.3
  0
CIRCLE
  5
2A3
330
1F
100
AcDbEntity
  8
3
  6
Continuous
 62
     2
100
AcDbCircle
 10
128.645223513
 20
443.334776351
 30
0.0
 40
5.0
  0
LWPOLYLINE
  5
2A5
330
1F
100
AcDbEntity
  8
3
  6
Continuous
 62
     2
100
AcDbPolyline
 90
     6
 70
   129
 43
0.0
 10
130.045223513
 20
440.834776351
 10
131.545223513
 20
443.334776351
 10
130.045223513
 20
445.834776351
 10
127.245223513
 20
445.834776351
 10
125.745223513
 20
443.334776351
 10
127.245223513
 20
440.834776351
  0
CIRCLE
  5
2A6
330
1F
100
AcDbEntity
  8
3
  6
Continuous
 62
     2
100
AcDbCircle
 10
749.965223513
 20
478.334776351
 30
0.0
 40
5.7
  0
CIRCLE
  5
2A7
330
1F
100
AcDbEntity
  8
3
  6
Continuous
 62
     2
100
AcDbCircle
 10
749.965223513
 20
478.334776351
 30
0.0
 40
6.5
  0
LWPOLYLINE
  5
2A9
330
1F
100
AcDbEntity
  8
3
  6
Continuous
 62
     2
100
AcDbPolyline
 90
     6
 70
   129
 43
0.0
 10
752.965223513
 20
480.034776351
 10
749.965223513
 20
481.834776351
 10
746.965223513
 20
480.034776351
 10
746.965223513
 20
476.634776351
 10
749.965223513
 20
474.834776351
 10
752.965223513
 20
476.634776351
  0
LINE
  5
2AA
330
1F
100
AcDbEntity
  8
3
  6
Continuous
 62
     2
100
AcDbLine
 10
629.405223513
 20
508.334776351
 30
0.0
 11
635.005223513
 21
508.334776351
 31
0.0
  0
LINE
  5
2AB
330
1F
100
AcDbEntity
  8
3
  6
Continuous
 62
     2
100
AcDbLine
 10
635.405223513
 20
517.634776351
 30
0.0
 11
635.405223513
 21
509.034776351
 31
0.0
  0
LINE
  5
2AC
330
1F
100
AcDbEntity
  8
3
  6
Continuous
 62
     2
100
AcDbLine
 10
629.405223513
 20
518.334776351
 30
0.0
 11
635.005223513
 21
518.334776351
 31
0.0
  0
LWPOLYLINE
  5
2AE
330
1F
100
AcDbEntity
  8
3
  6
Continuous
 62
     2
100
AcDbPolyline
 90
     3
 70
   128
 43
0.0
 10
635.005223513
 20
508.334776351
 10
635.005223513
 20
518.334776351
 10
635.405223513
 20
517.634776351
  0
LINE
  5
2AF
330
1F
100
AcDbEntity
  8
3
  6
Continuous
 62
     2
100
AcDbLine
 10
635.405223513
 20
509.034776351
 30
0.0
 11
635.005223513
 21
508.334776351
 31
0.0
  0
LINE
  5
2B0
330
1F
100
AcDbEntity
  8
3
  6
Continuous
 62
     2
100
AcDbLine
 10
635.005223513
 20
513.334776351
 30
0.0
 11
629.405223513
 21
513.334776351
 31
0.0
  0
LINE
  5
2B1
330
1F
100
AcDbEntity
  8
3
  6
Continuous
 62
     2
100
AcDbLine
 10
629.405223513
 20
517.934776351
 30
0.0
 11
635.005223513
 21
517.934776351
 31
0.0
  0
LINE
  5
2B2
330
1F
100
AcDbEntity
  8
3
  6
Continuous
 62
     2
100
AcDbLine
 10
629.405223513
 20
517.434776351
 30
0.0
 11
635.005223513
 21
517.434776351
 31
0.0
  0
LINE
  5
2B3
330
1F
100
AcDbEntity
  8
3
  6
Continuous
 62
     2
100
AcDbLine
 10
629.405223513
 20
516.834776351
 30
0.0
 11
635.005223513
 21
516.834776351
 31
0.0
  0
LINE
  5
2B4
330
1F
100
AcDbEntity
  8
3
  6
Continuous
 62
     2
100
AcDbLine
 10
629.405223513
 20
516.134776351
 30
0.0
 11
635.005223513
 21
516.134776351
 31
0.0
  0
LINE
  5
2B5
330
1F
100
AcDbEntity
  8
3
  6
Continuous
 62
     2
100
AcDbLine
 10
629.405223513
 20
515.234776351
 30
0.0
 11
635.005223513
 21
515.234776351
 31
0.0
  0
LINE
  5
2B6
330
1F
100
AcDbEntity
  8
3
  6
Continuous
 62
     2
100
AcDbLine
 10
629.405223513
 20
514.334776351
 30
0.0
 11
635.005223513
 21
514.334776351
 31
0.0
  0
LINE
  5
2B7
330
1F
100
AcDbEntity
  8
3
  6
Continuous
 62
     2
100
AcDbLine
 10
629.405223513
 20
508.734776351
 30
0.0
 11
635.005223513
 21
508.734776351
 31
0.0
  0
LINE
  5
2B8
330
1F
100
AcDbEntity
  8
3
  6
Continuous
 62
     2
100
AcDbLine
 10
629.405223513
 20
509.234776351
 30
0.0
 11
635.005223513
 21
509.234776351
 31
0.0
  0
LINE
  5
2B9
330
1F
100
AcDbEntity
  8
3
  6
Continuous
 62
     2
100
AcDbLine
 10
629.405223513
 20
509.834776351
 30
0.0
 11
635.005223513
 21
509.834776351
 31
0.0
  0
LINE
  5
2BA
330
1F
100
AcDbEntity
  8
3
  6
Continuous
 62
     2
100
AcDbLine
 10
629.405223513
 20
510.534776351
 30
0.0
 11
635.005223513
 21
510.534776351
 31
0.0
  0
LINE
  5
2BB
330
1F
100
AcDbEntity
  8
3
  6
Continuous
 62
     2
100
AcDbLine
 10
629.405223513
 20
511.434776351
 30
0.0
 11
635.005223513
 21
511.434776351
 31
0.0
  0
LINE
  5
2BC
330
1F
100
AcDbEntity
  8
3
  6
Continuous
 62
     2
100
AcDbLine
 10
629.405223513
 20
512.334776351
 30
0.0
 11
635.005223513
 21
512.334776351
 31
0.0
  0
CIRCLE
  5
2BD
330
1F
100
AcDbEntity
  8
3
  6
Continuous
 62
     2
100
AcDbCircle
 10
731.965223513
 20
513.334776351
 30
0.0
 40
4.3
  0
CIRCLE
  5
2BE
330
1F
100
AcDbEntity
  8
3
  6
Continuous
 62
     2
100
AcDbCircle
 10
731.965223513
 20
513.334776351
 30
0.0
 40
5.0
  0
LWPOLYLINE
  5
2C0
330
1F
100
AcDbEntity
  8
3
  6
Continuous
 62
     2
100
AcDbPolyline
 90
     6
 70
   129
 43
0.0
 10
733.365223513
 20
510.834776351
 10
734.865223513
 20
513.334776351
 10
733.365223513
 20
515.834776351
 10
730.565223513
 20
515.834776351
 10
729.065223513
 20
513.334776351
 10
730.565223513
 20
510.834776351
  0
CIRCLE
  5
2C1
330
1F
100
AcDbEntity
  8
3
  6
Continuous
 62
     2
100
AcDbCircle
 10
767.965223513
 20
513.334776351
 30
0.0
 40
4.3
  0
CIRCLE
  5
2C2
330
1F
100
AcDbEntity
  8
3
  6
Continuous
 62
     2
100
AcDbCircle
 10
767.965223513
 20
513.334776351
 30
0.0
 40
5.0
  0
LWPOLYLINE
  5
2C4
330
1F
100
AcDbEntity
  8
3
  6
Continuous
 62
     2
100
AcDbPolyline
 90
     6
 70
   129
 43
0.0
 10
769.365223513
 20
510.834776351
 10
770.865223513
 20
513.334776351
 10
769.365223513
 20
515.834776351
 10
766.565223513
 20
515.834776351
 10
765.065223513
 20
513.334776351
 10
766.565223513
 20
510.834776351
  0
LINE
  5
2C5
330
1F
100
AcDbEntity
  8
7
  6
Continuous
 62
     2
100
AcDbLine
 10
745.855223513
 20
384.724776351
 30
0.0
 11
741.723078731
 21
378.465752505
 31
0.0
  0
LINE
  5
2C6
330
1F
100
AcDbEntity
  8
7
  6
Continuous
 62
     2
100
AcDbLine
 10
745.855223513
 20
384.724776351
 30
0.0
 11
745.406193083
 21
377.238230306
 31
0.0
  0
LWPOLYLINE
  5
2C8
330
1F
100
AcDbEntity
  8
7
  6
Continuous
 62
     2
100
AcDbPolyline
 90
     3
 70
   128
 43
0.0
 10
745.855223513
 20
384.724776351
 10
723.445223513
 20
317.484776351
 10
700.495223513
 20
317.484776351
  0
MTEXT
  5
2C9
330
1F
100
AcDbEntity
  8
7
  6
Continuous
 62
     2
100
AcDbMText
 10
700.495223513
 20
320.484776351
 30
0.0
 40
9.0
 41
45.9
 71
     7
 72
     1
  1
\T1.111;\W0.588;φ８．４
  7
KANJI3
 73
     1
 44
1.0
  0
LINE
  5
2CA
330
1F
100
AcDbEntity
  8
7
  6
Continuous
 62
     2
100
AcDbLine
 10
633.44
 20
522.56
 30
0.0
 11
636.342447321
 21
529.475619968
 31
0.0
  0
LINE
  5
2CB
330
1F
100
AcDbEntity
  8
7
  6
Continuous
 62
     2
100
AcDbLine
 10
633.44
 20
522.56
 30
0.0
 11
632.495783129
 21
530.000326236
 31
0.0
  0
LWPOLYLINE
  5
2CD
330
1F
100
AcDbEntity
  8
7
  6
Continuous
 62
     2
100
AcDbPolyline
 90
     3
 70
   128
 43
0.0
 10
633.44
 20
522.56
 10
642.32
 20
587.66
 10
545.2
 20
499.45
  0
LINE
  5
2CE
330
1F
100
AcDbEntity
  8
7
  6
Continuous
 62
     2
100
AcDbLine
 10
478.15
 20
499.45
 30
0.0
 11
545.2
 21
499.45
 31
0.0
  0
MTEXT
  5
2CF
330
1F
100
AcDbEntity
  8
7
  6
Continuous
 62
     2
100
AcDbMText
 10
478.15
 20
502.45
 30
0.0
 40
9.0
 41
134.1
 71
     7
 72
     1
  1
\T1.111;\W0.849;天／底面取付け穴
  7
KANJI3
 73
     1
 44
1.0
  0
MTEXT
  5
2D0
330
1F
100
AcDbEntity
  8
7
  6
Continuous
 62
     2
100
AcDbMText
 10
478.15
 20
487.45
 30
0.0
 40
9.0
 41
160.2
 71
     7
 72
     1
  1
\T1.111;\W0.900;利用時は使用しない
  7
KANJI3
 73
     1
 44
1.0
  0
LINE
  5
2D1
330
1F
100
AcDbEntity
  8
3
  6
Continuous
 62
     2
100
AcDbLine
 10
609.905223513
 20
484.834776351
 30
0.0
 11
611.305223513
 21
484.834776351
 31
0.0
  0
LINE
  5
2D2
330
1F
100
AcDbEntity
  8
3
  6
Continuous
 62
     2
100
AcDbLine
 10
609.905223513
 20
471.834776351
 30
0.0
 11
611.305223513
 21
471.834776351
 31
0.0
  0
LINE
  5
2D3
330
1F
100
AcDbEntity
  8
3
  6
Continuous
 62
     2
100
AcDbLine
 10
611.305223513
 20
478.334776351
 30
0.0
 11
609.905223513
 21
478.334776351
 31
0.0
  0
LINE
  5
2D4
330
1F
100
AcDbEntity
  8
3
  6
Continuous
 62
     2
100
AcDbLine
 10
611.305223513
 20
484.334776351
 30
0.0
 11
609.905223513
 21
484.334776351
 31
0.0
  0
LINE
  5
2D5
330
1F
100
AcDbEntity
  8
3
  6
Continuous
 62
     2
100
AcDbLine
 10
611.305223513
 20
483.634776351
 30
0.0
 11
609.905223513
 21
483.634776351
 31
0.0
  0
LINE
  5
2D6
330
1F
100
AcDbEntity
  8
3
  6
Continuous
 62
     2
100
AcDbLine
 10
611.305223513
 20
482.934776351
 30
0.0
 11
609.905223513
 21
482.934776351
 31
0.0
  0
LINE
  5
2D7
330
1F
100
AcDbEntity
  8
3
  6
Continuous
 62
     2
100
AcDbLine
 10
611.305223513
 20
482.134776351
 30
0.0
 11
609.905223513
 21
482.134776351
 31
0.0
  0
LINE
  5
2D8
330
1F
100
AcDbEntity
  8
3
  6
Continuous
 62
     2
100
AcDbLine
 10
611.305223513
 20
481.334776351
 30
0.0
 11
609.905223513
 21
481.334776351
 31
0.0
  0
LINE
  5
2D9
330
1F
100
AcDbEntity
  8
3
  6
Continuous
 62
     2
100
AcDbLine
 10
611.305223513
 20
480.434776351
 30
0.0
 11
609.905223513
 21
480.434776351
 31
0.0
  0
LINE
  5
2DA
330
1F
100
AcDbEntity
  8
3
  6
Continuous
 62
     2
100
AcDbLine
 10
611.305223513
 20
479.434776351
 30
0.0
 11
609.905223513
 21
479.434776351
 31
0.0
  0
LINE
  5
2DB
330
1F
100
AcDbEntity
  8
3
  6
Continuous
 62
     2
100
AcDbLine
 10
611.305223513
 20
472.334776351
 30
0.0
 11
609.905223513
 21
472.334776351
 31
0.0
  0
LINE
  5
2DC
330
1F
100
AcDbEntity
  8
3
  6
Continuous
 62
     2
100
AcDbLine
 10
611.305223513
 20
473.034776351
 30
0.0
 11
609.905223513
 21
473.034776351
 31
0.0
  0
LINE
  5
2DD
330
1F
100
AcDbEntity
  8
3
  6
Continuous
 62
     2
100
AcDbLine
 10
611.305223513
 20
473.734776351
 30
0.0
 11
609.905223513
 21
473.734776351
 31
0.0
  0
LINE
  5
2DE
330
1F
100
AcDbEntity
  8
3
  6
Continuous
 62
     2
100
AcDbLine
 10
611.305223513
 20
474.534776351
 30
0.0
 11
609.905223513
 21
474.534776351
 31
0.0
  0
LINE
  5
2DF
330
1F
100
AcDbEntity
  8
3
  6
Continuous
 62
     2
100
AcDbLine
 10
611.305223513
 20
475.334776351
 30
0.0
 11
609.905223513
 21
475.334776351
 31
0.0
  0
LINE
  5
2E0
330
1F
100
AcDbEntity
  8
3
  6
Continuous
 62
     2
100
AcDbLine
 10
611.305223513
 20
476.234776351
 30
0.0
 11
609.905223513
 21
476.234776351
 31
0.0
  0
LINE
  5
2E1
330
1F
100
AcDbEntity
  8
3
  6
Continuous
 62
     2
100
AcDbLine
 10
611.305223513
 20
477.234776351
 30
0.0
 11
609.905223513
 21
477.234776351
 31
0.0
  0
LINE
  5
2E2
330
1F
100
AcDbEntity
  8
3
  6
LTYPE1
 62
     2
100
AcDbLine
 10
617.905223513
 20
484.034776351
 30
0.0
 11
617.905223513
 21
472.634776351
 31
0.0
  0
LINE
  5
2E3
330
1F
100
AcDbEntity
  8
3
  6
LTYPE1
 62
     2
100
AcDbLine
 10
617.405223513
 20
484.834776351
 30
0.0
 11
617.905223513
 21
484.034776351
 31
0.0
  0
LINE
  5
2E4
330
1F
100
AcDbEntity
  8
3
  6
LTYPE1
 62
     2
100
AcDbLine
 10
617.905223513
 20
472.634776351
 30
0.0
 11
617.405223513
 21
471.834776351
 31
0.0
  0
LINE
  5
2E5
330
1F
100
AcDbEntity
  8
3
  6
LTYPE1
 62
     2
100
AcDbLine
 10
611.305223513
 20
484.834776351
 30
0.0
 11
617.405223513
 21
484.834776351
 31
0.0
  0
LINE
  5
2E6
330
1F
100
AcDbEntity
  8
3
  6
LTYPE1
 62
     2
100
AcDbLine
 10
611.305223513
 20
471.834776351
 30
0.0
 11
617.405223513
 21
471.834776351
 31
0.0
  0
LINE
  5
2E7
330
1F
100
AcDbEntity
  8
3
  6
LTYPE3
 62
     2
100
AcDbLine
 10
204.305223513
 20
175.914776351
 30
0.0
 11
626.305223513
 21
175.914776351
 31
0.0
  0
ENDSEC
  0
SECTION
  2
OBJECTS
  0
DICTIONARY
  5
C
330
0
100
AcDbDictionary
280
     0
281
     1
  3
ACAD_GROUP
350
D
  3
ACAD_LAYOUT
350
1A
  3
ACAD_MLINESTYLE
350
17
  3
ACAD_PLOTSETTINGS
350
19
  3
ACAD_PLOTSTYLENAME
350
E
  0
DICTIONARY
  5
D
102
{ACAD_REACTORS
330
C
102
}
330
C
100
AcDbDictionary
280
     0
281
     1
  0
DICTIONARY
  5
1A
102
{ACAD_REACTORS
330
C
102
}
330
C
100
AcDbDictionary
280
     0
281
     1
  3
Model
350
22
  3
ﾚｲｱｳﾄ1
350
1E
  3
ﾚｲｱｳﾄ2
350
26
  0
LAYOUT
  5
22
102
{ACAD_REACTORS
330
1A
102
}
330
1A
100
AcDbPlotSettings
  1

  2

  4

  6

 40
0.0
 41
0.0
 42
0.0
 43
0.0
 44
0.0
 45
0.0
 46
0.0
 47
0.0
 48
0.0
 49
0.0
140
0.0
141
0.0
142
1.0
143
1.0
 70
  1712
 72
     0
 73
     0
 74
     0
  7

 75
     0
147
1.0
148
0.0
149
0.0
100
AcDbLayout
  1
Model
 70
     1
 71
     0
 10
0.0
 20
0.0
 11
0.0
 21
0.0
 12
0.0
 22
0.0
 32
0.0
 14
0.0
 24
0.0
 34
0.0
 15
0.0
 25
0.0
 35
0.0
146
0.0
 13
0.0
 23
0.0
 33
0.0
 16
1.0
 26
0.0
 36
0.0
 17
0.0
 27
1.0
 37
0.0
 76
     0
330
1F
331
0
345
0
346
0
  0
LAYOUT
  5
1E
102
{ACAD_REACTORS
330
1A
102
}
330
1A
100
AcDbPlotSettings
  1

  2

  4

  6

 40
0.0
 41
0.0
 42
0.0
 43
0.0
 44
0.0
 45
0.0
 46
0.0
 47
0.0
 48
0.0
 49
0.0
140
0.0
141
0.0
142
1.0
143
1.0
 70
   688
 72
     0
 73
     0
 74
     5
  7

 75
    16
147
1.0
148
0.0
149
0.0
100
AcDbLayout
  1
ﾚｲｱｳﾄ1
 70
     1
 71
     1
 10
0.0
 20
0.0
 11
0.0
 21
0.0
 12
0.0
 22
0.0
 32
0.0
 14
0.0
 24
0.0
 34
0.0
 15
0.0
 25
0.0
 35
0.0
146
0.0
 13
0.0
 23
0.0
 33
0.0
 16
1.0
 26
0.0
 36
0.0
 17
0.0
 27
1.0
 37
0.0
 76
     0
330
1B
331
0
345
0
346
0
  0
LAYOUT
  5
26
102
{ACAD_REACTORS
330
1A
102
}
330
1A
100
AcDbPlotSettings
  1

  2

  4

  6

 40
0.0
 41
0.0
 42
0.0
 43
0.0
 44
0.0
 45
0.0
 46
0.0
 47
0.0
 48
0.0
 49
0.0
140
0.0
141
0.0
142
1.0
143
1.0
 70
   688
 72
     0
 73
     0
 74
     5
  7

 75
    16
147
1.0
148
0.0
149
0.0
100
AcDbLayout
  1
ﾚｲｱｳﾄ2
 70
     1
 71
     2
 10
0.0
 20
0.0
 11
0.0
 21
0.0
 12
0.0
 22
0.0
 32
0.0
 14
0.0
 24
0.0
 34
0.0
 15
0.0
 25
0.0
 35
0.0
146
0.0
 13
0.0
 23
0.0
 33
0.0
 16
1.0
 26
0.0
 36
0.0
 17
0.0
 27
1.0
 37
0.0
 76
     0
330
23
331
0
345
0
346
0
  0
DICTIONARY
  5
17
102
{ACAD_REACTORS
330
C
102
}
330
C
100
AcDbDictionary
280
     0
281
     1
  3
Standard
350
18
  0
MLINESTYLE
  5
18
102
{ACAD_REACTORS
330
17
102
}
330
17
100
AcDbMlineStyle
  2
STANDARD
 70
     0
  3

 62
   256
 51
90.0
 52
90.0
 71
     2
 49
0.5
 62
   256
  6
ByLayer
 49
-0.5
 62
   256
  6
ByLayer
  0
DICTIONARY
  5
19
102
{ACAD_REACTORS
330
C
102
}
330
C
100
AcDbDictionary
280
     0
281
     1
  0
ACDBDICTIONARYWDFLT
  5
E
330
C
100
AcDbDictionary
281
     0
  3
Normal
350
F
100
AcDbDictionaryWithDefault
340
F
  0
ACDBPLACEHOLDER
  5
F
102
{ACAD_REACTORS
330
E
102
}
330
E
  0
ENDSEC
  0
EOF
