  0
SECTION
  2
HEADER
  9
$ACADVER
  1
AC1015
  9
$ACADMAINTVER
 70
     6
  9
$DWGCODEPAGE
  3
ANSI_932
  9
$INSBASE
 10
0.0
 20
0.0
 30
0.0
  9
$EXTMIN
 10
0.0
 20
0.0
 30
0.0
  9
$EXTMAX
 10
1188.0
 20
840.0
 30
0.0
  9
$LIMMIN
 10
0.0
 20
0.0
  9
$LIMMAX
 10
1188.0
 20
840.0
  9
$ORTHOMODE
 70
     0
  9
$REGENMODE
 70
     1
  9
$FILLMODE
 70
     1
  9
$QTEXTMODE
 70
     0
  9
$MIRRTEXT
 70
     1
  9
$LTSCALE
 40
4.0
  9
$ATTMODE
 70
     1
  9
$TEXTSIZE
 40
2.5
  9
$TRACEWID
 40
1.0
  9
$TEXTSTYLE
  7
Standard
  9
$CLAYER
  8
0
  9
$CELTYPE
  6
ByLayer
  9
$CECOLOR
 62
   256
  9
$CELTSCALE
 40
1.0
  9
$DISPSILH
 70
     0
  9
$DIMSCALE
 40
1.0
  9
$DIMASZ
 40
2.5
  9
$DIMEXO
 40
0.625
  9
$DIMDLI
 40
3.75
  9
$DIMRND
 40
0.0
  9
$DIMDLE
 40
0.0
  9
$DIMEXE
 40
1.25
  9
$DIMTP
 40
0.0
  9
$DIMTM
 40
0.0
  9
$DIMTXT
 40
2.5
  9
$DIMCEN
 40
2.5
  9
$DIMTSZ
 40
0.0
  9
$DIMTOL
 70
     0
  9
$DIMLIM
 70
     0
  9
$DIMTIH
 70
     0
  9
$DIMTOH
 70
     0
  9
$DIMSE1
 70
     0
  9
$DIMSE2
 70
     0
  9
$DIMTAD
 70
     1
  9
$DIMZIN
 70
     8
  9
$DIMBLK
  1

  9
$DIMASO
 70
     1
  9
$DIMSHO
 70
     1
  9
$DIMPOST
  1

  9
$DIMAPOST
  1

  9
$DIMALT
 70
     0
  9
$DIMALTD
 70
     3
  9
$DIMALTF
 40
0.03937007874016
  9
$DIMLFAC
 40
1.0
  9
$DIMTOFL
 70
     1
  9
$DIMTVP
 40
0.0
  9
$DIMTIX
 70
     0
  9
$DIMSOXD
 70
     0
  9
$DIMSAH
 70
     0
  9
$DIMBLK1
  1

  9
$DIMBLK2
  1

  9
$DIMSTYLE
  2
ISO-25
  9
$DIMCLRD
 70
     0
  9
$DIMCLRE
 70
     0
  9
$DIMCLRT
 70
     0
  9
$DIMTFAC
 40
1.0
  9
$DIMGAP
 40
0.625
  9
$DIMJUST
 70
     0
  9
$DIMSD1
 70
     0
  9
$DIMSD2
 70
     0
  9
$DIMTOLJ
 70
     0
  9
$DIMTZIN
 70
     8
  9
$DIMALTZ
 70
     0
  9
$DIMALTTZ
 70
     0
  9
$DIMUPT
 70
     0
  9
$DIMDEC
 70
     2
  9
$DIMTDEC
 70
     2
  9
$DIMALTU
 70
     2
  9
$DIMALTTD
 70
     3
  9
$DIMTXSTY
  7
Standard
  9
$DIMAUNIT
 70
     0
  9
$DIMADEC
 70
     0
  9
$DIMALTRND
 40
0.0
  9
$DIMAZIN
 70
     0
  9
$DIMDSEP
 70
    46
  9
$DIMATFIT
 70
     3
  9
$DIMFRAC
 70
     0
  9
$DIMLDRBLK
  1

  9
$DIMLUNIT
 70
     2
  9
$DIMLWD
 70
    -2
  9
$DIMLWE
 70
    -2
  9
$DIMTMOVE
 70
     0
  9
$LUNITS
 70
     2
  9
$LUPREC
 70
     4
  9
$SKETCHINC
 40
1.0
  9
$FILLETRAD
 40
10.0
  9
$AUNITS
 70
     0
  9
$AUPREC
 70
     0
  9
$MENU
  1
.
  9
$ELEVATION
 40
0.0
  9
$PELEVATION
 40
0.0
  9
$THICKNESS
 40
0.0
  9
$LIMCHECK
 70
     0
  9
$CHAMFERA
 40
10.0
  9
$CHAMFERB
 40
10.0
  9
$CHAMFERC
 40
20.0
  9
$CHAMFERD
 40
0.0
  9
$SKPOLY
 70
     0
  9
$TDCREATE
 40
2457071.000000
  9
$TDUCREATE
 40
0.000000000
  9
$TDUPDATE
 40
2457071.000000
  9
$TDUUPDATE
 40
2457071.000000
  9
$TDINDWG
 40
0.0
  9
$TDUSRTIMER
 40
0.0
  9
$USRTIMER
 70
     1
  9
$ANGBASE
 50
0.0
  9
$ANGDIR
 70
     0
  9
$PDMODE
 70
     0
  9
$PDSIZE
 40
0.0
  9
$PLINEWID
 40
0.0
  9
$SPLFRAME
 70
     0
  9
$SPLINETYPE
 70
     6
  9
$SPLINESEGS
 70
     8
  9
$HANDSEED
  5
034E
  9
$SURFTAB1
 70
     6
  9
$SURFTAB2
 70
     6
  9
$SURFTYPE
 70
     6
  9
$SURFU
 70
     6
  9
$SURFV
 70
     6
  9
$UCSBASE
  2

  9
$UCSNAME
  2

  9
$UCSORG
 10
0.0
 20
0.0
 30
0.0
  9
$UCSXDIR
 10
1.0
 20
0.0
 30
0.0
  9
$UCSYDIR
 10
0.0
 20
1.0
 30
0.0
  9
$UCSORTHOREF
  2

  9
$UCSORTHOVIEW
 70
     0
  9
$UCSORGTOP
 10
0.0
 20
0.0
 30
0.0
  9
$UCSORGBOTTOM
 10
0.0
 20
0.0
 30
0.0
  9
$UCSORGLEFT
 10
0.0
 20
0.0
 30
0.0
  9
$UCSORGRIGHT
 10
0.0
 20
0.0
 30
0.0
  9
$UCSORGFRONT
 10
0.0
 20
0.0
 30
0.0
  9
$UCSORGBACK
 10
0.0
 20
0.0
 30
0.0
  9
$PUCSBASE
  2

  9
$PUCSNAME
  2

  9
$PUCSORG
 10
0.0
 20
0.0
 30
0.0
  9
$PUCSXDIR
 10
1.0
 20
0.0
 30
0.0
  9
$PUCSYDIR
 10
0.0
 20
1.0
 30
0.0
  9
$PUCSORTHOREF
  2

  9
$PUCSORTHOVIEW
 70
     0
  9
$PUCSORGTOP
 10
0.0
 20
0.0
 30
0.0
  9
$PUCSORGBOTTOM
 10
0.0
 20
0.0
 30
0.0
  9
$PUCSORGLEFT
 10
0.0
 20
0.0
 30
0.0
  9
$PUCSORGRIGHT
 10
0.0
 20
0.0
 30
0.0
  9
$PUCSORGFRONT
 10
0.0
 20
0.0
 30
0.0
  9
$PUCSORGBACK
 10
0.0
 20
0.0
 30
0.0
  9
$USERI1
 70
     0
  9
$USERI2
 70
     0
  9
$USERI3
 70
     0
  9
$USERI4
 70
     0
  9
$USERI5
 70
     0
  9
$USERR1
 40
0.0
  9
$USERR2
 40
0.0
  9
$USERR3
 40
0.0
  9
$USERR4
 40
0.0
  9
$USERR5
 40
0.0
  9
$WORLDVIEW
 70
     1
  9
$SHADEDGE
 70
     3
  9
$SHADEDIF
 70
    70
  9
$TILEMODE
 70
     1
  9
$MAXACTVP
 70
    64
  9
$PINSBASE
 10
0.0
 20
0.0
 30
0.0
  9
$PLIMCHECK
 70
     0
  9
$PEXTMIN
 10
1.000000E+20
 20
1.000000E+20
 30
1.000000E+20
  9
$PEXTMAX
 10
-1.000000E+20
 20
-1.000000E+20
 30
-1.000000E+20
  9
$PLIMMIN
 10
0.0
 20
0.0
  9
$PLIMMAX
 10
0.0
 20
0.0
  9
$UNITMODE
 70
     0
  9
$VISRETAIN
 70
     0
  9
$PLINEGEN
 70
     0
  9
$PSLTSCALE
 70
     1
  9
$TREEDEPTH
 70
  3020
  9
$CMLSTYLE
  2
STANDARD
  9
$CMLJUST
 70
     0
  9
$CMLSCALE
 40
20.0
  9
$PROXYGRAPHICS
 70
     1
  9
$MEASUREMENT
 70
     1
  9
$CELWEIGHT
370
    -1
  9
$ENDCAPS
280
     0
  9
$JOINSTYLE
280
     0
  9
$LWDISPLAY
290
     0
  9
$INSUNITS
 70
     4
  9
$HYPERLINKBASE
  1

  9
$STYLESHEET
  1

  9
$XEDIT
290
     1
  9
$CEPSNTYPE
380
     0
  9
$PSTYLEMODE
290
     1
  9
$FINGERPRINTGUID
  2
{4D260323-CB26-CF93-3ADF-D91EE53AEFA3}
  9
$VERSIONGUID
  2
{B628302D-68D5-23A8-40B5-8F848D68E18A}
  9
$EXTNAMES
290
     1
  9
$PSVPSCALE
 40
0.0
  0
ENDSEC
  0
SECTION
  2
CLASSES
  0
ENDSEC
  0
SECTION
  2
TABLES
  0
TABLE
  2
VPORT
  5
8
330
0
100
AcDbSymbolTable
 70
     3
  0
VPORT
  5
29
330
8
100
AcDbSymbolTableRecord
100
AcDbViewportTableRecord
  2
*Active
 70
     0
 10
0.0
 20
0.0
 11
1.0
 21
1.0
 12
594.0
 22
420.0
 13
0.0
 23
0.0
 14
10.0
 24
10.0
 15
0.0
 25
0.0
 16
0.0
 26
0.0
 36
1.0
 17
0.0
 27
0.0
 37
0.0
 40
840.0
 41
1.414285714
 42
50.0
 43
0.0
 44
0.0
 50
0.0
 51
0.0
 71
     0
 72
  1000
 73
     1
 74
     3
 75
     0
 76
     0
 77
     0
 78
     0
281
     0
 65
     0
110
0.0
120
0.0
130
0.0
111
1.0
121
0.0
131
0.0
112
0.0
122
1.0
132
0.0
 79
     0
146
0.0
  0
ENDTAB
  0
TABLE
  2
LTYPE
  5
5
330
0
100
AcDbSymbolTable
 70
     6
  0
LTYPE
  5
14
330
5
100
AcDbSymbolTableRecord
100
AcDbLinetypeTableRecord
  2
ByBlock
 70
     0
  3

 72
    65
 73
     0
 40
0.0
  0
LTYPE
  5
15
330
5
100
AcDbSymbolTableRecord
100
AcDbLinetypeTableRecord
  2
ByLayer
 70
     0
  3

 72
    65
 73
     0
 40
0.0
  0
LTYPE
  5
16
330
5
100
AcDbSymbolTableRecord
100
AcDbLinetypeTableRecord
  2
Continuous
 70
     0
  3
Solid line
 72
    65
 73
     0
 40
0.0
  0
LTYPE
  5
A9
330
5
100
AcDbSymbolTableRecord
100
AcDbLinetypeTableRecord
  2
LTYPE1
 70
     0
  3
PHANTOM
 72
    65
 73
     6
 40
12.0
 49
9.0
 74
     0
 49
-0.6
 74
     0
 49
0.6
 74
     0
 49
-0.6
 74
     0
 49
0.6
 74
     0
 49
-0.6
 74
     0
  0
LTYPE
  5
EB
330
5
100
AcDbSymbolTableRecord
100
AcDbLinetypeTableRecord
  2
LTYPE2
 70
     0
  3
HIDDEN
 72
    65
 73
     2
 40
2.0
 49
1.2
 74
     0
 49
-0.8
 74
     0
  0
LTYPE
  5
1AC
330
5
100
AcDbSymbolTableRecord
100
AcDbLinetypeTableRecord
  2
LTYPE3
 70
     0
  3
CENTER
 72
    65
 73
     4
 40
12.0
 49
8.4
 74
     0
 49
-1.2
 74
     0
 49
1.2
 74
     0
 49
-1.2
 74
     0
  0
ENDTAB
  0
TABLE
  2
LAYER
  5
2
330
0
100
AcDbSymbolTable
 70
   128
  0
LAYER
  5
10
330
2
100
AcDbSymbolTableRecord
100
AcDbLayerTableRecord
  2
0
 70
     0
 62
     7
  6
Continuous
290
     1
370
    -3
390
F
  0
LAYER
  5
2A
330
2
100
AcDbSymbolTableRecord
100
AcDbLayerTableRecord
  2
2
 70
     0
 62
     7
  6
Continuous
290
     1
370
    -3
390
F
  0
LAYER
  5
2B
330
2
100
AcDbSymbolTableRecord
100
AcDbLayerTableRecord
  2
3
 70
     0
 62
     7
  6
Continuous
290
     1
370
    -3
390
F
  0
LAYER
  5
2C
330
2
100
AcDbSymbolTableRecord
100
AcDbLayerTableRecord
  2
4
 70
     0
 62
     7
  6
Continuous
290
     1
370
    -3
390
F
  0
LAYER
  5
2D
330
2
100
AcDbSymbolTableRecord
100
AcDbLayerTableRecord
  2
5
 70
     0
 62
     7
  6
Continuous
290
     1
370
    -3
390
F
  0
LAYER
  5
2E
330
2
100
AcDbSymbolTableRecord
100
AcDbLayerTableRecord
  2
6
 70
     0
 62
     7
  6
Continuous
290
     1
370
    -3
390
F
  0
LAYER
  5
2F
330
2
100
AcDbSymbolTableRecord
100
AcDbLayerTableRecord
  2
7
 70
     0
 62
     7
  6
Continuous
290
     1
370
    -3
390
F
  0
LAYER
  5
30
330
2
100
AcDbSymbolTableRecord
100
AcDbLayerTableRecord
  2
8
 70
     0
 62
     7
  6
Continuous
290
     1
370
    -3
390
F
  0
LAYER
  5
31
330
2
100
AcDbSymbolTableRecord
100
AcDbLayerTableRecord
  2
9
 70
     0
 62
     7
  6
Continuous
290
     1
370
    -3
390
F
  0
LAYER
  5
32
330
2
100
AcDbSymbolTableRecord
100
AcDbLayerTableRecord
  2
10
 70
     0
 62
     7
  6
Continuous
290
     1
370
    -3
390
F
  0
LAYER
  5
33
330
2
100
AcDbSymbolTableRecord
100
AcDbLayerTableRecord
  2
11
 70
     0
 62
     7
  6
Continuous
290
     1
370
    -3
390
F
  0
LAYER
  5
34
330
2
100
AcDbSymbolTableRecord
100
AcDbLayerTableRecord
  2
12
 70
     0
 62
     7
  6
Continuous
290
     1
370
    -3
390
F
  0
LAYER
  5
35
330
2
100
AcDbSymbolTableRecord
100
AcDbLayerTableRecord
  2
13
 70
     0
 62
     7
  6
Continuous
290
     1
370
    -3
390
F
  0
LAYER
  5
36
330
2
100
AcDbSymbolTableRecord
100
AcDbLayerTableRecord
  2
14
 70
     0
 62
     7
  6
Continuous
290
     1
370
    -3
390
F
  0
LAYER
  5
37
330
2
100
AcDbSymbolTableRecord
100
AcDbLayerTableRecord
  2
15
 70
     0
 62
     7
  6
Continuous
290
     1
370
    -3
390
F
  0
LAYER
  5
38
330
2
100
AcDbSymbolTableRecord
100
AcDbLayerTableRecord
  2
16
 70
     0
 62
     7
  6
Continuous
290
     1
370
    -3
390
F
  0
LAYER
  5
39
330
2
100
AcDbSymbolTableRecord
100
AcDbLayerTableRecord
  2
17
 70
     0
 62
     7
  6
Continuous
290
     1
370
    -3
390
F
  0
LAYER
  5
3A
330
2
100
AcDbSymbolTableRecord
100
AcDbLayerTableRecord
  2
18
 70
     0
 62
     7
  6
Continuous
290
     1
370
    -3
390
F
  0
LAYER
  5
3B
330
2
100
AcDbSymbolTableRecord
100
AcDbLayerTableRecord
  2
19
 70
     0
 62
     7
  6
Continuous
290
     1
370
    -3
390
F
  0
LAYER
  5
3C
330
2
100
AcDbSymbolTableRecord
100
AcDbLayerTableRecord
  2
20
 70
     0
 62
     7
  6
Continuous
290
     1
370
    -3
390
F
  0
LAYER
  5
3D
330
2
100
AcDbSymbolTableRecord
100
AcDbLayerTableRecord
  2
21
 70
     0
 62
     7
  6
Continuous
290
     1
370
    -3
390
F
  0
LAYER
  5
3E
330
2
100
AcDbSymbolTableRecord
100
AcDbLayerTableRecord
  2
22
 70
     0
 62
     7
  6
Continuous
290
     1
370
    -3
390
F
  0
LAYER
  5
3F
330
2
100
AcDbSymbolTableRecord
100
AcDbLayerTableRecord
  2
23
 70
     0
 62
     7
  6
Continuous
290
     1
370
    -3
390
F
  0
LAYER
  5
40
330
2
100
AcDbSymbolTableRecord
100
AcDbLayerTableRecord
  2
24
 70
     0
 62
     7
  6
Continuous
290
     1
370
    -3
390
F
  0
LAYER
  5
41
330
2
100
AcDbSymbolTableRecord
100
AcDbLayerTableRecord
  2
25
 70
     0
 62
     7
  6
Continuous
290
     1
370
    -3
390
F
  0
LAYER
  5
42
330
2
100
AcDbSymbolTableRecord
100
AcDbLayerTableRecord
  2
26
 70
     0
 62
     7
  6
Continuous
290
     1
370
    -3
390
F
  0
LAYER
  5
43
330
2
100
AcDbSymbolTableRecord
100
AcDbLayerTableRecord
  2
27
 70
     0
 62
     7
  6
Continuous
290
     1
370
    -3
390
F
  0
LAYER
  5
44
330
2
100
AcDbSymbolTableRecord
100
AcDbLayerTableRecord
  2
28
 70
     0
 62
     7
  6
Continuous
290
     1
370
    -3
390
F
  0
LAYER
  5
45
330
2
100
AcDbSymbolTableRecord
100
AcDbLayerTableRecord
  2
29
 70
     0
 62
     7
  6
Continuous
290
     1
370
    -3
390
F
  0
LAYER
  5
46
330
2
100
AcDbSymbolTableRecord
100
AcDbLayerTableRecord
  2
30
 70
     0
 62
     7
  6
Continuous
290
     1
370
    -3
390
F
  0
LAYER
  5
47
330
2
100
AcDbSymbolTableRecord
100
AcDbLayerTableRecord
  2
31
 70
     0
 62
     7
  6
Continuous
290
     1
370
    -3
390
F
  0
LAYER
  5
48
330
2
100
AcDbSymbolTableRecord
100
AcDbLayerTableRecord
  2
32
 70
     0
 62
     7
  6
Continuous
290
     1
370
    -3
390
F
  0
LAYER
  5
49
330
2
100
AcDbSymbolTableRecord
100
AcDbLayerTableRecord
  2
33
 70
     0
 62
     7
  6
Continuous
290
     1
370
    -3
390
F
  0
LAYER
  5
4A
330
2
100
AcDbSymbolTableRecord
100
AcDbLayerTableRecord
  2
34
 70
     0
 62
     7
  6
Continuous
290
     1
370
    -3
390
F
  0
LAYER
  5
4B
330
2
100
AcDbSymbolTableRecord
100
AcDbLayerTableRecord
  2
35
 70
     0
 62
     7
  6
Continuous
290
     1
370
    -3
390
F
  0
LAYER
  5
4C
330
2
100
AcDbSymbolTableRecord
100
AcDbLayerTableRecord
  2
36
 70
     0
 62
     7
  6
Continuous
290
     1
370
    -3
390
F
  0
LAYER
  5
4D
330
2
100
AcDbSymbolTableRecord
100
AcDbLayerTableRecord
  2
37
 70
     0
 62
     7
  6
Continuous
290
     1
370
    -3
390
F
  0
LAYER
  5
4E
330
2
100
AcDbSymbolTableRecord
100
AcDbLayerTableRecord
  2
38
 70
     0
 62
     7
  6
Continuous
290
     1
370
    -3
390
F
  0
LAYER
  5
4F
330
2
100
AcDbSymbolTableRecord
100
AcDbLayerTableRecord
  2
39
 70
     0
 62
     7
  6
Continuous
290
     1
370
    -3
390
F
  0
LAYER
  5
50
330
2
100
AcDbSymbolTableRecord
100
AcDbLayerTableRecord
  2
40
 70
     0
 62
     7
  6
Continuous
290
     1
370
    -3
390
F
  0
LAYER
  5
51
330
2
100
AcDbSymbolTableRecord
100
AcDbLayerTableRecord
  2
41
 70
     0
 62
     7
  6
Continuous
290
     1
370
    -3
390
F
  0
LAYER
  5
52
330
2
100
AcDbSymbolTableRecord
100
AcDbLayerTableRecord
  2
42
 70
     0
 62
     7
  6
Continuous
290
     1
370
    -3
390
F
  0
LAYER
  5
53
330
2
100
AcDbSymbolTableRecord
100
AcDbLayerTableRecord
  2
43
 70
     0
 62
     7
  6
Continuous
290
     1
370
    -3
390
F
  0
LAYER
  5
54
330
2
100
AcDbSymbolTableRecord
100
AcDbLayerTableRecord
  2
44
 70
     0
 62
     7
  6
Continuous
290
     1
370
    -3
390
F
  0
LAYER
  5
55
330
2
100
AcDbSymbolTableRecord
100
AcDbLayerTableRecord
  2
45
 70
     0
 62
     7
  6
Continuous
290
     1
370
    -3
390
F
  0
LAYER
  5
56
330
2
100
AcDbSymbolTableRecord
100
AcDbLayerTableRecord
  2
46
 70
     0
 62
     7
  6
Continuous
290
     1
370
    -3
390
F
  0
LAYER
  5
57
330
2
100
AcDbSymbolTableRecord
100
AcDbLayerTableRecord
  2
47
 70
     0
 62
     7
  6
Continuous
290
     1
370
    -3
390
F
  0
LAYER
  5
58
330
2
100
AcDbSymbolTableRecord
100
AcDbLayerTableRecord
  2
48
 70
     0
 62
     7
  6
Continuous
290
     1
370
    -3
390
F
  0
LAYER
  5
59
330
2
100
AcDbSymbolTableRecord
100
AcDbLayerTableRecord
  2
49
 70
     0
 62
     7
  6
Continuous
290
     1
370
    -3
390
F
  0
LAYER
  5
5A
330
2
100
AcDbSymbolTableRecord
100
AcDbLayerTableRecord
  2
50
 70
     0
 62
     7
  6
Continuous
290
     1
370
    -3
390
F
  0
LAYER
  5
5B
330
2
100
AcDbSymbolTableRecord
100
AcDbLayerTableRecord
  2
51
 70
     0
 62
     7
  6
Continuous
290
     1
370
    -3
390
F
  0
LAYER
  5
5C
330
2
100
AcDbSymbolTableRecord
100
AcDbLayerTableRecord
  2
52
 70
     0
 62
     7
  6
Continuous
290
     1
370
    -3
390
F
  0
LAYER
  5
5D
330
2
100
AcDbSymbolTableRecord
100
AcDbLayerTableRecord
  2
53
 70
     0
 62
     7
  6
Continuous
290
     1
370
    -3
390
F
  0
LAYER
  5
5E
330
2
100
AcDbSymbolTableRecord
100
AcDbLayerTableRecord
  2
54
 70
     0
 62
     7
  6
Continuous
290
     1
370
    -3
390
F
  0
LAYER
  5
5F
330
2
100
AcDbSymbolTableRecord
100
AcDbLayerTableRecord
  2
55
 70
     0
 62
     7
  6
Continuous
290
     1
370
    -3
390
F
  0
LAYER
  5
60
330
2
100
AcDbSymbolTableRecord
100
AcDbLayerTableRecord
  2
56
 70
     0
 62
     7
  6
Continuous
290
     1
370
    -3
390
F
  0
LAYER
  5
61
330
2
100
AcDbSymbolTableRecord
100
AcDbLayerTableRecord
  2
57
 70
     0
 62
     7
  6
Continuous
290
     1
370
    -3
390
F
  0
LAYER
  5
62
330
2
100
AcDbSymbolTableRecord
100
AcDbLayerTableRecord
  2
58
 70
     0
 62
     7
  6
Continuous
290
     1
370
    -3
390
F
  0
LAYER
  5
63
330
2
100
AcDbSymbolTableRecord
100
AcDbLayerTableRecord
  2
59
 70
     0
 62
     7
  6
Continuous
290
     1
370
    -3
390
F
  0
LAYER
  5
64
330
2
100
AcDbSymbolTableRecord
100
AcDbLayerTableRecord
  2
60
 70
     0
 62
     7
  6
Continuous
290
     1
370
    -3
390
F
  0
LAYER
  5
65
330
2
100
AcDbSymbolTableRecord
100
AcDbLayerTableRecord
  2
61
 70
     0
 62
     7
  6
Continuous
290
     1
370
    -3
390
F
  0
LAYER
  5
66
330
2
100
AcDbSymbolTableRecord
100
AcDbLayerTableRecord
  2
62
 70
     0
 62
     7
  6
Continuous
290
     1
370
    -3
390
F
  0
LAYER
  5
67
330
2
100
AcDbSymbolTableRecord
100
AcDbLayerTableRecord
  2
63
 70
     0
 62
     7
  6
Continuous
290
     1
370
    -3
390
F
  0
LAYER
  5
68
330
2
100
AcDbSymbolTableRecord
100
AcDbLayerTableRecord
  2
64
 70
     0
 62
     7
  6
Continuous
290
     1
370
    -3
390
F
  0
LAYER
  5
69
330
2
100
AcDbSymbolTableRecord
100
AcDbLayerTableRecord
  2
65
 70
     0
 62
     7
  6
Continuous
290
     1
370
    -3
390
F
  0
LAYER
  5
6A
330
2
100
AcDbSymbolTableRecord
100
AcDbLayerTableRecord
  2
66
 70
     0
 62
     7
  6
Continuous
290
     1
370
    -3
390
F
  0
LAYER
  5
6B
330
2
100
AcDbSymbolTableRecord
100
AcDbLayerTableRecord
  2
67
 70
     0
 62
     7
  6
Continuous
290
     1
370
    -3
390
F
  0
LAYER
  5
6C
330
2
100
AcDbSymbolTableRecord
100
AcDbLayerTableRecord
  2
68
 70
     0
 62
     7
  6
Continuous
290
     1
370
    -3
390
F
  0
LAYER
  5
6D
330
2
100
AcDbSymbolTableRecord
100
AcDbLayerTableRecord
  2
69
 70
     0
 62
     7
  6
Continuous
290
     1
370
    -3
390
F
  0
LAYER
  5
6E
330
2
100
AcDbSymbolTableRecord
100
AcDbLayerTableRecord
  2
70
 70
     0
 62
     7
  6
Continuous
290
     1
370
    -3
390
F
  0
LAYER
  5
6F
330
2
100
AcDbSymbolTableRecord
100
AcDbLayerTableRecord
  2
71
 70
     0
 62
     7
  6
Continuous
290
     1
370
    -3
390
F
  0
LAYER
  5
70
330
2
100
AcDbSymbolTableRecord
100
AcDbLayerTableRecord
  2
72
 70
     0
 62
     7
  6
Continuous
290
     1
370
    -3
390
F
  0
LAYER
  5
71
330
2
100
AcDbSymbolTableRecord
100
AcDbLayerTableRecord
  2
73
 70
     0
 62
     7
  6
Continuous
290
     1
370
    -3
390
F
  0
LAYER
  5
72
330
2
100
AcDbSymbolTableRecord
100
AcDbLayerTableRecord
  2
74
 70
     0
 62
     7
  6
Continuous
290
     1
370
    -3
390
F
  0
LAYER
  5
73
330
2
100
AcDbSymbolTableRecord
100
AcDbLayerTableRecord
  2
75
 70
     0
 62
     7
  6
Continuous
290
     1
370
    -3
390
F
  0
LAYER
  5
74
330
2
100
AcDbSymbolTableRecord
100
AcDbLayerTableRecord
  2
76
 70
     0
 62
     7
  6
Continuous
290
     1
370
    -3
390
F
  0
LAYER
  5
75
330
2
100
AcDbSymbolTableRecord
100
AcDbLayerTableRecord
  2
77
 70
     0
 62
     7
  6
Continuous
290
     1
370
    -3
390
F
  0
LAYER
  5
76
330
2
100
AcDbSymbolTableRecord
100
AcDbLayerTableRecord
  2
78
 70
     0
 62
     7
  6
Continuous
290
     1
370
    -3
390
F
  0
LAYER
  5
77
330
2
100
AcDbSymbolTableRecord
100
AcDbLayerTableRecord
  2
79
 70
     0
 62
     7
  6
Continuous
290
     1
370
    -3
390
F
  0
LAYER
  5
78
330
2
100
AcDbSymbolTableRecord
100
AcDbLayerTableRecord
  2
80
 70
     0
 62
     7
  6
Continuous
290
     1
370
    -3
390
F
  0
LAYER
  5
79
330
2
100
AcDbSymbolTableRecord
100
AcDbLayerTableRecord
  2
81
 70
     0
 62
     7
  6
Continuous
290
     1
370
    -3
390
F
  0
LAYER
  5
7A
330
2
100
AcDbSymbolTableRecord
100
AcDbLayerTableRecord
  2
82
 70
     0
 62
     7
  6
Continuous
290
     1
370
    -3
390
F
  0
LAYER
  5
7B
330
2
100
AcDbSymbolTableRecord
100
AcDbLayerTableRecord
  2
83
 70
     0
 62
     7
  6
Continuous
290
     1
370
    -3
390
F
  0
LAYER
  5
7C
330
2
100
AcDbSymbolTableRecord
100
AcDbLayerTableRecord
  2
84
 70
     0
 62
     7
  6
Continuous
290
     1
370
    -3
390
F
  0
LAYER
  5
7D
330
2
100
AcDbSymbolTableRecord
100
AcDbLayerTableRecord
  2
85
 70
     0
 62
     7
  6
Continuous
290
     1
370
    -3
390
F
  0
LAYER
  5
7E
330
2
100
AcDbSymbolTableRecord
100
AcDbLayerTableRecord
  2
86
 70
     0
 62
     7
  6
Continuous
290
     1
370
    -3
390
F
  0
LAYER
  5
7F
330
2
100
AcDbSymbolTableRecord
100
AcDbLayerTableRecord
  2
87
 70
     0
 62
     7
  6
Continuous
290
     1
370
    -3
390
F
  0
LAYER
  5
80
330
2
100
AcDbSymbolTableRecord
100
AcDbLayerTableRecord
  2
88
 70
     0
 62
     7
  6
Continuous
290
     1
370
    -3
390
F
  0
LAYER
  5
81
330
2
100
AcDbSymbolTableRecord
100
AcDbLayerTableRecord
  2
89
 70
     0
 62
     7
  6
Continuous
290
     1
370
    -3
390
F
  0
LAYER
  5
82
330
2
100
AcDbSymbolTableRecord
100
AcDbLayerTableRecord
  2
90
 70
     0
 62
     7
  6
Continuous
290
     1
370
    -3
390
F
  0
LAYER
  5
83
330
2
100
AcDbSymbolTableRecord
100
AcDbLayerTableRecord
  2
91
 70
     0
 62
     7
  6
Continuous
290
     1
370
    -3
390
F
  0
LAYER
  5
84
330
2
100
AcDbSymbolTableRecord
100
AcDbLayerTableRecord
  2
92
 70
     0
 62
     7
  6
Continuous
290
     1
370
    -3
390
F
  0
LAYER
  5
85
330
2
100
AcDbSymbolTableRecord
100
AcDbLayerTableRecord
  2
93
 70
     0
 62
     7
  6
Continuous
290
     1
370
    -3
390
F
  0
LAYER
  5
86
330
2
100
AcDbSymbolTableRecord
100
AcDbLayerTableRecord
  2
94
 70
     0
 62
     7
  6
Continuous
290
     1
370
    -3
390
F
  0
LAYER
  5
87
330
2
100
AcDbSymbolTableRecord
100
AcDbLayerTableRecord
  2
95
 70
     0
 62
     7
  6
Continuous
290
     1
370
    -3
390
F
  0
LAYER
  5
88
330
2
100
AcDbSymbolTableRecord
100
AcDbLayerTableRecord
  2
96
 70
     0
 62
     7
  6
Continuous
290
     1
370
    -3
390
F
  0
LAYER
  5
89
330
2
100
AcDbSymbolTableRecord
100
AcDbLayerTableRecord
  2
97
 70
     0
 62
     7
  6
Continuous
290
     1
370
    -3
390
F
  0
LAYER
  5
8A
330
2
100
AcDbSymbolTableRecord
100
AcDbLayerTableRecord
  2
98
 70
     0
 62
     7
  6
Continuous
290
     1
370
    -3
390
F
  0
LAYER
  5
8B
330
2
100
AcDbSymbolTableRecord
100
AcDbLayerTableRecord
  2
99
 70
     0
 62
     7
  6
Continuous
290
     1
370
    -3
390
F
  0
LAYER
  5
8C
330
2
100
AcDbSymbolTableRecord
100
AcDbLayerTableRecord
  2
100
 70
     0
 62
     7
  6
Continuous
290
     1
370
    -3
390
F
  0
LAYER
  5
8D
330
2
100
AcDbSymbolTableRecord
100
AcDbLayerTableRecord
  2
101
 70
     0
 62
     7
  6
Continuous
290
     1
370
    -3
390
F
  0
LAYER
  5
8E
330
2
100
AcDbSymbolTableRecord
100
AcDbLayerTableRecord
  2
102
 70
     0
 62
     7
  6
Continuous
290
     1
370
    -3
390
F
  0
LAYER
  5
8F
330
2
100
AcDbSymbolTableRecord
100
AcDbLayerTableRecord
  2
103
 70
     0
 62
     7
  6
Continuous
290
     1
370
    -3
390
F
  0
LAYER
  5
90
330
2
100
AcDbSymbolTableRecord
100
AcDbLayerTableRecord
  2
104
 70
     0
 62
     7
  6
Continuous
290
     1
370
    -3
390
F
  0
LAYER
  5
91
330
2
100
AcDbSymbolTableRecord
100
AcDbLayerTableRecord
  2
105
 70
     0
 62
     7
  6
Continuous
290
     1
370
    -3
390
F
  0
LAYER
  5
92
330
2
100
AcDbSymbolTableRecord
100
AcDbLayerTableRecord
  2
106
 70
     0
 62
     7
  6
Continuous
290
     1
370
    -3
390
F
  0
LAYER
  5
93
330
2
100
AcDbSymbolTableRecord
100
AcDbLayerTableRecord
  2
107
 70
     0
 62
     7
  6
Continuous
290
     1
370
    -3
390
F
  0
LAYER
  5
94
330
2
100
AcDbSymbolTableRecord
100
AcDbLayerTableRecord
  2
108
 70
     0
 62
     7
  6
Continuous
290
     1
370
    -3
390
F
  0
LAYER
  5
95
330
2
100
AcDbSymbolTableRecord
100
AcDbLayerTableRecord
  2
109
 70
     0
 62
     7
  6
Continuous
290
     1
370
    -3
390
F
  0
LAYER
  5
96
330
2
100
AcDbSymbolTableRecord
100
AcDbLayerTableRecord
  2
110
 70
     0
 62
     7
  6
Continuous
290
     1
370
    -3
390
F
  0
LAYER
  5
97
330
2
100
AcDbSymbolTableRecord
100
AcDbLayerTableRecord
  2
111
 70
     0
 62
     7
  6
Continuous
290
     1
370
    -3
390
F
  0
LAYER
  5
98
330
2
100
AcDbSymbolTableRecord
100
AcDbLayerTableRecord
  2
112
 70
     0
 62
     7
  6
Continuous
290
     1
370
    -3
390
F
  0
LAYER
  5
99
330
2
100
AcDbSymbolTableRecord
100
AcDbLayerTableRecord
  2
113
 70
     0
 62
     7
  6
Continuous
290
     1
370
    -3
390
F
  0
LAYER
  5
9A
330
2
100
AcDbSymbolTableRecord
100
AcDbLayerTableRecord
  2
114
 70
     0
 62
     7
  6
Continuous
290
     1
370
    -3
390
F
  0
LAYER
  5
9B
330
2
100
AcDbSymbolTableRecord
100
AcDbLayerTableRecord
  2
115
 70
     0
 62
     7
  6
Continuous
290
     1
370
    -3
390
F
  0
LAYER
  5
9C
330
2
100
AcDbSymbolTableRecord
100
AcDbLayerTableRecord
  2
116
 70
     0
 62
     7
  6
Continuous
290
     1
370
    -3
390
F
  0
LAYER
  5
9D
330
2
100
AcDbSymbolTableRecord
100
AcDbLayerTableRecord
  2
117
 70
     0
 62
     7
  6
Continuous
290
     1
370
    -3
390
F
  0
LAYER
  5
9E
330
2
100
AcDbSymbolTableRecord
100
AcDbLayerTableRecord
  2
118
 70
     0
 62
     7
  6
Continuous
290
     1
370
    -3
390
F
  0
LAYER
  5
9F
330
2
100
AcDbSymbolTableRecord
100
AcDbLayerTableRecord
  2
119
 70
     0
 62
     7
  6
Continuous
290
     1
370
    -3
390
F
  0
LAYER
  5
A0
330
2
100
AcDbSymbolTableRecord
100
AcDbLayerTableRecord
  2
120
 70
     0
 62
     7
  6
Continuous
290
     1
370
    -3
390
F
  0
LAYER
  5
A1
330
2
100
AcDbSymbolTableRecord
100
AcDbLayerTableRecord
  2
121
 70
     0
 62
     7
  6
Continuous
290
     1
370
    -3
390
F
  0
LAYER
  5
A2
330
2
100
AcDbSymbolTableRecord
100
AcDbLayerTableRecord
  2
122
 70
     0
 62
     7
  6
Continuous
290
     1
370
    -3
390
F
  0
LAYER
  5
A3
330
2
100
AcDbSymbolTableRecord
100
AcDbLayerTableRecord
  2
123
 70
     0
 62
     7
  6
Continuous
290
     1
370
    -3
390
F
  0
LAYER
  5
A4
330
2
100
AcDbSymbolTableRecord
100
AcDbLayerTableRecord
  2
124
 70
     0
 62
     7
  6
Continuous
290
     1
370
    -3
390
F
  0
LAYER
  5
A5
330
2
100
AcDbSymbolTableRecord
100
AcDbLayerTableRecord
  2
125
 70
     0
 62
     7
  6
Continuous
290
     1
370
    -3
390
F
  0
LAYER
  5
A6
330
2
100
AcDbSymbolTableRecord
100
AcDbLayerTableRecord
  2
126
 70
     0
 62
     7
  6
Continuous
290
     1
370
    -3
390
F
  0
LAYER
  5
A7
330
2
100
AcDbSymbolTableRecord
100
AcDbLayerTableRecord
  2
127
 70
     0
 62
     7
  6
Continuous
290
     1
370
    -3
390
F
  0
LAYER
  5
A8
330
2
100
AcDbSymbolTableRecord
100
AcDbLayerTableRecord
  2
128
 70
     0
 62
     7
  6
Continuous
290
     1
370
    -3
390
F
  0
ENDTAB
  0
TABLE
  2
STYLE
  5
3
330
0
100
AcDbSymbolTable
 70
    11
  0
STYLE
  5
11
330
3
100
AcDbSymbolTableRecord
100
AcDbTextStyleTableRecord
  2
Standard
 70
     0
 40
0.0
 41
1.0
 50
0.0
 71
     0
 42
2.5
  3
txt.shx
  4
extfont.shx
  0
STYLE
  5
B0
330
3
100
AcDbSymbolTableRecord
100
AcDbTextStyleTableRecord
  2
KANJI0
 70
     4
 40
10.0
 41
1.0
 50
0.0
 71
     0
 42
10.0
  3
txt.shx
  4
extfont.shx
  0
STYLE
  5
B6
330
3
100
AcDbSymbolTableRecord
100
AcDbTextStyleTableRecord
  2
KANJI1
 70
     4
 40
10.0
 41
1.0
 50
0.0
 71
     0
 42
10.0
  3
txt.shx
  4
extfont.shx
  0
STYLE
  5
C2
330
3
100
AcDbSymbolTableRecord
100
AcDbTextStyleTableRecord
  2
KANJI2
 70
     4
 40
6.666666667
 41
1.5
 50
0.0
 71
     0
 42
6.666666667
  3
txt.shx
  4
extfont.shx
  0
STYLE
  5
C4
330
3
100
AcDbSymbolTableRecord
100
AcDbTextStyleTableRecord
  2
KANJI3
 70
     0
 40
12.0
 41
0.9
 50
0.0
 71
     0
 42
12.0
  3
txt.shx
  4
extfont.shx
  0
STYLE
  5
CD
330
3
100
AcDbSymbolTableRecord
100
AcDbTextStyleTableRecord
  2
KANJI4
 70
     0
 40
12.0
 41
1.0
 50
0.0
 71
     0
 42
12.0
  3
txt.shx
  4
extfont.shx
  0
STYLE
  5
D2
330
3
100
AcDbSymbolTableRecord
100
AcDbTextStyleTableRecord
  2
KANJI5
 70
     0
 40
12.0
 41
0.45
 50
0.0
 71
     0
 42
12.0
  3
txt.shx
  4
extfont.shx
  0
STYLE
  5
E0
330
3
100
AcDbSymbolTableRecord
100
AcDbTextStyleTableRecord
  2
KANJI6
 70
     0
 40
16.0
 41
0.925
 50
0.0
 71
     0
 42
16.0
  3
txt.shx
  4
extfont.shx
  0
STYLE
  5
E3
330
3
100
AcDbSymbolTableRecord
100
AcDbTextStyleTableRecord
  2
KANJI7
 70
     0
 40
16.0
 41
0.4625
 50
0.0
 71
     0
 42
16.0
  3
txt.shx
  4
extfont.shx
  0
STYLE
  5
238
330
3
100
AcDbSymbolTableRecord
100
AcDbTextStyleTableRecord
  2
KANJI8
 70
     0
 40
12.0
 41
0.6
 50
0.0
 71
     0
 42
12.0
  3
txt.shx
  4
extfont.shx
  0
STYLE
  5
343
330
3
100
AcDbSymbolTableRecord
100
AcDbTextStyleTableRecord
  2
KANJI9
 70
     0
 40
12.0
 41
0.9
 50
0.0
 71
     0
 42
12.0
  3
txt.shx
  4
extfont.shx
  0
ENDTAB
  0
TABLE
  2
VIEW
  5
6
330
0
100
AcDbSymbolTable
 70
     0
  0
ENDTAB
  0
TABLE
  2
UCS
  5
7
330
0
100
AcDbSymbolTable
 70
     0
  0
ENDTAB
  0
TABLE
  2
APPID
  5
9
330
0
100
AcDbSymbolTable
 70
     1
  0
APPID
  5
12
330
9
100
AcDbSymbolTableRecord
100
AcDbRegAppTableRecord
  2
ACAD
 70
     0
  0
ENDTAB
  0
TABLE
  2
DIMSTYLE
  5
A
330
0
100
AcDbSymbolTable
 70
     1
100
AcDbDimStyleTable
 71
     0
  0
DIMSTYLE
105
27
330
A
100
AcDbSymbolTableRecord
100
AcDbDimStyleTableRecord
  2
ISO-25
 70
    64
  3

  4

 40
1.0
 41
2.5
 42
0.625
 43
3.75
 44
1.25
 45
0.0
 46
0.0
 47
0.0
 48
0.0
 71
     0
 72
     0
 73
     0
 74
     0
 75
     0
 76
     0
 77
     1
 78
     8
 79
     0
140
2.5
141
2.5
142
0.0
143
0.039370079
144
1.0
145
0.0
146
1.0
147
0.625
148
0.0
170
     0
171
     3
172
     1
173
     0
174
     0
175
     0
176
     0
177
     0
178
     0
179
     0
270
     2
271
     2
272
     2
273
     2
274
     3
275
     0
276
     0
277
     2
278
    46
279
     0
280
     0
281
     0
282
     0
283
     1
284
     8
285
     0
286
     0
288
     0
289
     3
340
11
341
0
342
0
343
0
344
0
371
    -2
372
    -2
  0
ENDTAB
  0
TABLE
  2
BLOCK_RECORD
  5
1
330
0
100
AcDbSymbolTable
 70
     3
  0
BLOCK_RECORD
  5
1F
330
1
100
AcDbSymbolTableRecord
100
AcDbBlockTableRecord
  2
*Model_Space
340
22
  0
BLOCK_RECORD
  5
1B
330
1
100
AcDbSymbolTableRecord
100
AcDbBlockTableRecord
  2
*Paper_Space
340
1E
  0
BLOCK_RECORD
  5
23
330
1
100
AcDbSymbolTableRecord
100
AcDbBlockTableRecord
  2
*Paper_Space0
340
26
  0
ENDTAB
  0
ENDSEC
  0
SECTION
  2
BLOCKS
  0
BLOCK
  5
1C
330
1B
100
AcDbEntity
 67
     1
  8
0
100
AcDbBlockBegin
  2
*Paper_Space
 70
     0
 10
0.0
 20
0.0
 30
0.0
  3
*Paper_Space
  1

  0
ENDBLK
  5
1D
330
1B
100
AcDbEntity
  8
0
100
AcDbBlockEnd
  0
BLOCK
  5
20
330
1F
100
AcDbEntity
  8
0
100
AcDbBlockBegin
  2
*Model_Space
 70
     0
 10
0.0
 20
0.0
 30
0.0
  3
*Model_Space
  1

  0
ENDBLK
  5
21
330
1F
100
AcDbEntity
  8
0
100
AcDbBlockEnd
  0
BLOCK
  5
24
330
23
100
AcDbEntity
 67
     1
  8
0
100
AcDbBlockBegin
  2
*Paper_Space0
 70
     0
 10
0.0
 20
0.0
 30
0.0
  3
*Paper_Space0
  1

  0
ENDBLK
  5
25
330
23
100
AcDbEntity
  8
0
100
AcDbBlockEnd
  0
ENDSEC
  0
SECTION
  2
ENTITIES
  0
LINE
  5
AA
330
1F
100
AcDbEntity
  8
5
  6
LTYPE1
 62
     2
100
AcDbLine
 10
1125.514
 20
1108.720446501
 30
0.0
 11
1125.514
 21
1108.720446501
 31
0.0
  0
LINE
  5
AB
330
1F
100
AcDbEntity
  8
5
  6
LTYPE1
 62
     2
100
AcDbLine
 10
1125.514
 20
1108.72
 30
0.0
 11
1125.514
 21
1108.72
 31
0.0
  0
LINE
  5
AC
330
1F
100
AcDbEntity
  8
5
  6
LTYPE1
 62
     2
100
AcDbLine
 10
1125.514
 20
1108.72
 30
0.0
 11
1125.514
 21
1108.72
 31
0.0
  0
LINE
  5
AD
330
1F
100
AcDbEntity
  8
5
  6
LTYPE1
 62
     2
100
AcDbLine
 10
1125.514
 20
1108.72
 30
0.0
 11
1125.514
 21
1108.72
 31
0.0
  0
LINE
  5
AE
330
1F
100
AcDbEntity
  8
0
  6
Continuous
 62
     2
100
AcDbLine
 10
1161.333333333
 20
50.666666667
 30
0.0
 11
421.333333333
 21
50.666666667
 31
0.0
  0
MTEXT
  5
AF
330
1F
100
AcDbEntity
  8
0
  6
Continuous
 62
     2
100
AcDbMText
 10
943.333333333
 20
96.666666667
 30
0.0
 40
10.0
 41
40.0
 71
     1
 72
     3
  1
\W1.000;仕上
  7
KANJI0
 73
     1
 44
1.0
  0
LINE
  5
B1
330
1F
100
AcDbEntity
  8
0
  6
Continuous
 62
     2
100
AcDbLine
 10
941.333333333
 20
122.666666667
 30
0.0
 11
1161.333333333
 21
122.666666667
 31
0.0
  0
LINE
  5
B2
330
1F
100
AcDbEntity
  8
0
  6
Continuous
 62
     2
100
AcDbLine
 10
941.333333333
 20
98.666666667
 30
0.0
 11
1161.333333333
 21
98.666666667
 31
0.0
  0
MTEXT
  5
B3
330
1F
100
AcDbEntity
  8
0
  6
Continuous
 62
     2
100
AcDbMText
 10
943.333333333
 20
120.666666667
 30
0.0
 40
10.0
 41
40.0
 71
     1
 72
     3
  1
\W1.000;規格
  7
KANJI0
 73
     1
 44
1.0
  0
MTEXT
  5
B4
330
1F
100
AcDbEntity
  8
0
  6
Continuous
 62
     2
100
AcDbMText
 10
943.333333333
 20
144.666666667
 30
0.0
 40
10.0
 41
40.0
 71
     1
 72
     3
  1
\W1.000;材質
  7
KANJI0
 73
     1
 44
1.0
  0
MTEXT
  5
B5
330
1F
100
AcDbEntity
  8
0
  6
Continuous
 62
     2
100
AcDbMText
 10
943.333333333
 20
168.666666667
 30
0.0
 40
10.0
 41
40.0
 71
     1
 72
     3
  1
\W1.000;品番
  7
KANJI1
 73
     1
 44
1.0
  0
MTEXT
  5
B7
330
1F
100
AcDbEntity
  8
0
  6
Continuous
 62
     2
100
AcDbMText
 10
943.333333333
 20
192.666666667
 30
0.0
 40
10.0
 41
40.0
 71
     1
 72
     3
  1
\W1.000;図名
  7
KANJI0
 73
     1
 44
1.0
  0
LINE
  5
B8
330
1F
100
AcDbEntity
  8
0
  6
Continuous
 62
     2
100
AcDbLine
 10
941.333333333
 20
146.666666667
 30
0.0
 11
1161.333333333
 21
146.666666667
 31
0.0
  0
LINE
  5
B9
330
1F
100
AcDbEntity
  8
0
  6
Continuous
 62
     2
100
AcDbLine
 10
941.333333333
 20
170.666666667
 30
0.0
 11
1161.333333333
 21
170.666666667
 31
0.0
  0
LINE
  5
BA
330
1F
100
AcDbEntity
  8
0
  6
Continuous
 62
     2
100
AcDbLine
 10
941.333333333
 20
194.666666667
 30
0.0
 11
1161.333333333
 21
194.666666667
 31
0.0
  0
LINE
  5
BB
330
1F
100
AcDbEntity
  8
0
  6
Continuous
 62
     2
100
AcDbLine
 10
853.333333333
 20
50.666666667
 30
0.0
 11
853.333333333
 21
26.666666667
 31
0.0
  0
MTEXT
  5
BC
330
1F
100
AcDbEntity
  8
0
  6
Continuous
 62
     2
100
AcDbMText
 10
855.333333333
 20
48.666666667
 30
0.0
 40
10.0
 41
40.0
 71
     1
 72
     3
  1
\W1.000;日付
  7
KANJI0
 73
     1
 44
1.0
  0
LINE
  5
BD
330
1F
100
AcDbEntity
  8
0
  6
Continuous
 62
     2
100
AcDbLine
 10
941.333333333
 20
26.666666667
 30
0.0
 11
941.333333333
 21
194.666666667
 31
0.0
  0
MTEXT
  5
BE
330
1F
100
AcDbEntity
  8
0
  6
Continuous
 62
     2
100
AcDbMText
 10
855.333333333
 20
72.666666667
 30
0.0
 40
10.0
 41
40.0
 71
     1
 72
     3
  1
\W1.000;尺度
  7
KANJI0
 73
     1
 44
1.0
  0
LINE
  5
BF
330
1F
100
AcDbEntity
  8
0
  6
Continuous
 62
     2
100
AcDbLine
 10
853.333333333
 20
74.666666667
 30
0.0
 11
1161.333333333
 21
74.666666667
 31
0.0
  0
MTEXT
  5
C0
330
1F
100
AcDbEntity
  8
0
  6
Continuous
 62
     2
100
AcDbMText
 10
943.333333333
 20
48.666666667
 30
0.0
 40
10.0
 41
40.0
 71
     1
 72
     3
  1
\W1.000;品名
  7
KANJI0
 73
     1
 44
1.0
  0
MTEXT
  5
C1
330
1F
100
AcDbEntity
  8
0
  6
Continuous
 62
     2
100
AcDbMText
 10
943.333333333
 20
72.666666667
 30
0.0
 40
6.666666667
 41
40.0
 71
     1
 72
     3
  1
\W1.500;その他
  7
KANJI2
 73
     1
 44
1.0
  0
MTEXT
  5
C3
330
1F
100
AcDbEntity
  8
0
  6
Continuous
 62
     2
100
AcDbMText
 10
965.333333333
 20
127.466666667
 30
0.0
 40
12.0
 41
69.6
 71
     7
 72
     1
  1
\T1.111;\W0.900;－－－
  7
KANJI3
 73
     1
 44
1.0
  0
MTEXT
  5
C5
330
1F
100
AcDbEntity
  8
0
  6
Continuous
 62
     2
100
AcDbMText
 10
965.333333333
 20
103.466666667
 30
0.0
 40
12.0
 41
69.6
 71
     7
 72
     1
  1
\T1.111;\W0.900;－－－
  7
KANJI3
 73
     1
 44
1.0
  0
MTEXT
  5
C6
330
1F
100
AcDbEntity
  8
0
  6
Continuous
 62
     2
100
AcDbMText
 10
965.333333333
 20
79.466666667
 30
0.0
 40
12.0
 41
69.6
 71
     7
 72
     1
  1
\T1.111;\W0.900;－－－
  7
KANJI3
 73
     1
 44
1.0
  0
MTEXT
  5
C7
330
1F
100
AcDbEntity
  8
0
  6
Continuous
 62
     2
100
AcDbMText
 10
965.333333333
 20
55.466666667
 30
0.0
 40
12.0
 41
69.6
 71
     7
 72
     1
  1
\T1.111;\W0.900;－－－
  7
KANJI3
 73
     1
 44
1.0
  0
POINT
  5
C8
330
1F
100
AcDbEntity
  8
0
  6
Continuous
 62
     2
100
AcDbPoint
 10
1161.333333333
 20
194.666666667
 30
0.0
  0
LINE
  5
C9
330
1F
100
AcDbEntity
  8
0
  6
Continuous
 62
     2
100
AcDbLine
 10
853.333333333
 20
98.666666667
 30
0.0
 11
941.333333333
 21
98.666666667
 31
0.0
  0
LINE
  5
CA
330
1F
100
AcDbEntity
  8
0
  6
Continuous
 62
     2
100
AcDbLine
 10
853.333333333
 20
98.666666667
 30
0.0
 11
853.333333333
 21
50.666666667
 31
0.0
  0
MTEXT
  5
CB
330
1F
100
AcDbEntity
  8
0
  6
Continuous
 62
     2
100
AcDbMText
 10
855.333333333
 20
96.666666667
 30
0.0
 40
10.0
 41
40.0
 71
     1
 72
     3
  1
\W1.000;用紙
  7
KANJI0
 73
     1
 44
1.0
  0
MTEXT
  5
CC
330
1F
100
AcDbEntity
  8
0
  6
Continuous
 62
     2
100
AcDbMText
 10
425.333333333
 20
32.666666667
 30
0.0
 40
12.0
 41
320.0
 71
     7
 72
     1
  1
\T1.370;\W1.000;オオハシ産業株式会社
  7
KANJI4
 73
     1
 44
1.0
  0
LINE
  5
CE
330
1F
100
AcDbEntity
  8
0
  6
Continuous
 62
     2
100
AcDbLine
 10
593.333333333
 20
50.666666667
 30
0.0
 11
593.333333333
 21
26.666666667
 31
0.0
  0
MTEXT
  5
CF
330
1F
100
AcDbEntity
  8
0
  6
Continuous
 62
     2
100
AcDbMText
 10
595.333333333
 20
48.666666667
 30
0.0
 40
10.0
 41
40.0
 71
     1
 72
     3
  1
\W1.000;作図
  7
KANJI0
 73
     1
 44
1.0
  0
LINE
  5
D0
330
1F
100
AcDbEntity
  8
0
  6
Continuous
 62
     2
100
AcDbLine
 10
673.333333333
 20
26.666666667
 30
0.0
 11
673.333333333
 21
50.666666667
 31
0.0
  0
MTEXT
  5
D1
330
1F
100
AcDbEntity
  8
0
  6
Continuous
 62
     2
100
AcDbMText
 10
677.333333333
 20
32.666666667
 30
0.0
 40
12.0
 41
37.2
 71
     7
 72
     1
  1
\T1.111;\W0.900;ＦＤ＝
  7
KANJI5
 73
     1
 44
1.0
  0
LINE
  5
D3
330
1F
100
AcDbEntity
  8
0
  6
Continuous
 62
     2
100
AcDbLine
 10
753.333333333
 20
26.666666667
 30
0.0
 11
753.333333333
 21
50.666666667
 31
0.0
  0
MTEXT
  5
D4
330
1F
100
AcDbEntity
  8
0
  6
Continuous
 62
     2
100
AcDbMText
 10
757.333333333
 20
32.666666667
 30
0.0
 40
12.0
 41
37.2
 71
     7
 72
     1
  1
\T1.111;\W0.900;ＮＯ＝
  7
KANJI5
 73
     1
 44
1.0
  0
LINE
  5
D5
330
1F
100
AcDbEntity
  8
0
  6
Continuous
 62
     2
100
AcDbLine
 10
421.333333333
 20
26.666666667
 30
0.0
 11
421.333333333
 21
50.666666667
 31
0.0
  0
MTEXT
  5
D6
330
1F
100
AcDbEntity
  8
0
  6
Continuous
 62
     2
100
AcDbMText
 10
481.333333333
 20
60.666666667
 30
0.0
 40
12.0
 41
549.6
 71
     7
 72
     1
  1
\T1.111;\W0.900;特記　　寸法指示無い公差は±０．５以内とする．
  7
KANJI3
 73
     1
 44
1.0
  0
MTEXT
  5
D7
330
1F
100
AcDbEntity
  8
0
  6
Continuous
 62
     2
100
AcDbMText
 10
609.333333333
 20
31.466666667
 30
0.0
 40
12.0
 41
117.6
 71
     7
 72
     1
  1
\T1.111;\W0.900;大橋　一之
  7
KANJI3
 73
     1
 44
1.0
  0
MTEXT
  5
D8
330
1F
100
AcDbEntity
  8
0
  6
Continuous
 62
     2
100
AcDbMText
 10
869.333333333
 20
31.466666667
 30
0.0
 40
12.0
 41
129.6
 71
     7
 72
     1
  1
\T1.111;\W0.900;２０１５／０２／１７
  7
KANJI5
 73
     1
 44
1.0
  0
MTEXT
  5
D9
330
1F
100
AcDbEntity
  8
0
  6
Continuous
 62
     2
100
AcDbMText
 10
703.733333333
 20
31.466666667
 30
0.0
 40
12.0
 41
69.6
 71
     7
 72
     1
  1
\T1.111;\W0.900;ヒビノ
  7
KANJI3
 73
     1
 44
1.0
  0
MTEXT
  5
DA
330
1F
100
AcDbEntity
  8
0
  6
Continuous
 62
     2
100
AcDbMText
 10
885.333333333
 20
79.466666667
 30
0.0
 40
12.0
 41
45.6
 71
     7
 72
     1
  1
\T1.111;\W0.900;Ａ４
  7
KANJI3
 73
     1
 44
1.0
  0
LINE
  5
DB
330
1F
100
AcDbEntity
  8
0
  6
Continuous
 62
     2
100
AcDbLine
 10
26.666666667
 20
26.666666667
 30
0.0
 11
26.666666667
 21
813.333333333
 31
0.0
  0
LINE
  5
DC
330
1F
100
AcDbEntity
  8
0
  6
Continuous
 62
     2
100
AcDbLine
 10
26.666666667
 20
26.666666667
 30
0.0
 11
1161.333333333
 21
26.666666667
 31
0.0
  0
LINE
  5
DD
330
1F
100
AcDbEntity
  8
0
  6
Continuous
 62
     2
100
AcDbLine
 10
1161.333333333
 20
26.666666667
 30
0.0
 11
1161.333333333
 21
813.333333333
 31
0.0
  0
LINE
  5
DE
330
1F
100
AcDbEntity
  8
0
  6
Continuous
 62
     2
100
AcDbLine
 10
26.666666667
 20
813.333333333
 30
0.0
 11
1161.333333333
 21
813.333333333
 31
0.0
  0
MTEXT
  5
DF
330
1F
100
AcDbEntity
  8
0
  6
Continuous
 62
     2
100
AcDbMText
 10
965.543333333
 20
202.146666667
 30
0.0
 40
16.0
 41
356.8
 71
     7
 72
     1
  1
\T1.081;\W0.741;ブラケット重量　２．２９ｋｇ
  7
KANJI6
 73
     1
 44
1.0
  0
MTEXT
  5
E1
330
1F
100
AcDbEntity
  8
0
  6
Continuous
 62
     2
100
AcDbMText
 10
885.333333333
 20
55.466666667
 30
0.0
 40
12.0
 41
69.6
 71
     7
 72
     1
  1
\T1.111;\W0.900;１／４
  7
KANJI3
 73
     1
 44
1.0
  0
MTEXT
  5
E2
330
1F
100
AcDbEntity
  8
0
  6
Continuous
 62
     2
100
AcDbMText
 10
207.003333333
 20
40.326666667
 30
0.0
 40
16.0
 41
83.6
 71
     7
 72
     1
  1
\T1.081;\W0.925;Ｍ８－３０
  7
KANJI7
 73
     1
 44
1.0
  0
MTEXT
  5
E4
330
1F
100
AcDbEntity
  8
0
  6
Continuous
 62
     2
100
AcDbMText
 10
257.003333333
 20
40.326666667
 30
0.0
 40
16.0
 41
46.8
 71
     7
 72
     1
  1
\T1.081;\W0.703;２個
  7
KANJI6
 73
     1
 44
1.0
  0
MTEXT
  5
E5
330
1F
100
AcDbEntity
  8
0
  6
Continuous
 62
     2
100
AcDbMText
 10
37.003333333
 20
60.326666667
 30
0.0
 40
16.0
 41
125.6
 71
     7
 72
     1
  1
\T1.081;\W0.925;添付ネジ
  7
KANJI6
 73
     1
 44
1.0
  0
MTEXT
  5
E6
330
1F
100
AcDbEntity
  8
0
  6
Continuous
 62
     2
100
AcDbMText
 10
37.003333333
 20
40.326666667
 30
0.0
 40
16.0
 41
317.6
 71
     7
 72
     1
  1
\T1.081;\W0.925;六角ボルト３点セムス
  7
KANJI6
 73
     1
 44
1.0
  0
LINE
  5
E7
330
1F
100
AcDbEntity
  8
5
  6
Continuous
 62
     1
100
AcDbLine
 10
865.924
 20
640.376
 30
0.0
 11
863.924
 21
640.376
 31
0.0
  0
LINE
  5
E8
330
1F
100
AcDbEntity
  8
5
  6
Continuous
 62
     1
100
AcDbLine
 10
885.924
 20
604.876
 30
0.0
 11
863.924
 21
604.876
 31
0.0
  0
ARC
  5
E9
330
1F
100
AcDbEntity
  8
5
  6
Continuous
 62
     1
100
AcDbCircle
 10
885.924
 20
601.876
 30
0.0
 40
3.0
100
AcDbArc
 50
0.0
 51
90.0
  0
LINE
  5
EA
330
1F
100
AcDbEntity
  8
5
  6
Continuous
 62
     1
100
AcDbLine
 10
865.924
 20
604.876
 30
0.0
 11
865.924
 21
640.376
 31
0.0
  0
LWPOLYLINE
  5
ED
330
1F
100
AcDbEntity
  8
5
  6
LTYPE2
 62
     2
100
AcDbPolyline
 90
     6
 70
   129
 43
0.0
 10
878.924
 20
522.370446501
 10
885.424
 20
526.12322325
 10
885.424
 20
533.62877675
 10
878.924
 20
537.381553499
 10
872.424
 20
533.62877675
 10
872.424
 20
526.12322325
  0
LINE
  5
EE
330
1F
100
AcDbEntity
  8
5
  6
Continuous
 62
     1
100
AcDbLine
 10
321.924
 20
640.376
 30
0.0
 11
323.924
 21
640.376
 31
0.0
  0
LINE
  5
EF
330
1F
100
AcDbEntity
  8
5
  6
Continuous
 62
     1
100
AcDbLine
 10
323.924
 20
459.876
 30
0.0
 11
323.924
 21
640.376
 31
0.0
  0
LINE
  5
F0
330
1F
100
AcDbEntity
  8
5
  6
Continuous
 62
     1
100
AcDbLine
 10
301.924
 20
604.876
 30
0.0
 11
323.924
 21
604.876
 31
0.0
  0
ARC
  5
F1
330
1F
100
AcDbEntity
  8
5
  6
Continuous
 62
     1
100
AcDbCircle
 10
301.924
 20
601.876
 30
0.0
 40
3.0
100
AcDbArc
 50
90.0
 51
180.0
  0
LWPOLYLINE
  5
F3
330
1F
100
AcDbEntity
  8
5
  6
LTYPE2
 62
     2
100
AcDbPolyline
 90
     6
 70
   129
 43
0.0
 10
308.924
 20
582.370446501
 10
302.424
 20
586.12322325
 10
302.424
 20
593.62877675
 10
308.924
 20
597.381553499
 10
315.424
 20
593.62877675
 10
315.424
 20
586.12322325
  0
LINE
  5
F4
330
1F
100
AcDbEntity
  8
5
  6
LTYPE2
 62
     2
100
AcDbLine
 10
321.924
 20
459.876
 30
0.0
 11
321.924
 21
604.876
 31
0.0
  0
LINE
  5
F5
330
1F
100
AcDbEntity
  8
5
  6
Continuous
 62
     1
100
AcDbLine
 10
321.924
 20
604.876
 30
0.0
 11
321.924
 21
640.376
 31
0.0
  0
CIRCLE
  5
F6
330
1F
100
AcDbEntity
  8
4
  6
Continuous
 62
     1
100
AcDbCircle
 10
878.924
 20
534.876
 30
0.0
 40
3.6
  0
ARC
  5
F7
330
1F
100
AcDbEntity
  8
4
  6
Continuous
 62
     1
100
AcDbCircle
 10
889.924
 20
443.876
 30
0.0
 40
2.0
100
AcDbArc
 50
270.0
 51
0.0
  0
LINE
  5
F8
330
1F
100
AcDbEntity
  8
4
  6
Continuous
 62
     1
100
AcDbLine
 10
889.924
 20
441.876
 30
0.0
 11
889.924
 21
439.876
 31
0.0
  0
LINE
  5
F9
330
1F
100
AcDbEntity
  8
4
  6
LTYPE2
 62
     2
100
AcDbLine
 10
593.924
 20
441.876
 30
0.0
 11
889.924
 21
441.876
 31
0.0
  0
LINE
  5
FA
330
1F
100
AcDbEntity
  8
4
  6
LTYPE1
 62
     2
100
AcDbLine
 10
868.924
 20
464.876
 30
0.0
 11
893.924
 21
439.876
 31
0.0
  0
ARC
  5
FB
330
1F
100
AcDbEntity
  8
4
  6
Continuous
 62
     1
100
AcDbCircle
 10
891.924
 20
441.876
 30
0.0
 40
2.0
100
AcDbArc
 50
90.0
 51
120.522487814
  0
ARC
  5
FC
330
1F
100
AcDbEntity
  8
4
  6
Continuous
 62
     1
100
AcDbCircle
 10
891.924
 20
441.876
 30
0.0
 40
2.0
100
AcDbArc
 50
149.477512186
 51
180.0
  0
ARC
  5
FD
330
1F
100
AcDbEntity
  8
4
  6
Continuous
 62
     1
100
AcDbCircle
 10
889.924
 20
443.876
 30
0.0
 40
4.0
100
AcDbArc
 50
269.99984545
 51
0.0
  0
LINE
  5
FE
330
1F
100
AcDbEntity
  8
4
  6
Continuous
 62
     1
100
AcDbLine
 10
593.924
 20
439.876
 30
0.0
 11
889.92398921
 21
439.876
 31
0.0
  0
LWPOLYLINE
  5
100
330
1F
100
AcDbEntity
  8
4
  6
Continuous
 62
     1
100
AcDbPolyline
 90
     3
 70
   128
 43
0.0
 10
593.924
 20
464.876
 10
868.216893219
 20
464.876
 10
890.201140216
 20
442.891753003
  0
LINE
  5
101
330
1F
100
AcDbEntity
  8
4
  6
Continuous
 62
     1
100
AcDbLine
 10
868.924
 20
465.583106781
 30
0.0
 11
890.908246997
 21
443.598859784
 31
0.0
  0
LINE
  5
102
330
1F
100
AcDbEntity
  8
4
  6
Continuous
 62
     1
100
AcDbLine
 10
891.924
 20
443.876
 30
0.0
 11
893.924
 21
443.876
 31
0.0
  0
LINE
  5
103
330
1F
100
AcDbEntity
  8
4
  6
Continuous
 62
     1
100
AcDbLine
 10
893.924
 20
599.876
 30
0.0
 11
868.924
 21
599.876
 31
0.0
  0
LINE
  5
104
330
1F
100
AcDbEntity
  8
4
  6
Continuous
 62
     1
100
AcDbLine
 10
868.924
 20
465.583106781
 30
0.0
 11
868.924
 21
599.876
 31
0.0
  0
LINE
  5
105
330
1F
100
AcDbEntity
  8
4
  6
LTYPE2
 62
     2
100
AcDbLine
 10
891.924
 20
443.876
 30
0.0
 11
891.924
 21
599.876
 31
0.0
  0
LINE
  5
106
330
1F
100
AcDbEntity
  8
4
  6
Continuous
 62
     1
100
AcDbLine
 10
893.924
 20
443.876
 30
0.0
 11
893.924
 21
599.876
 31
0.0
  0
CIRCLE
  5
107
330
1F
100
AcDbEntity
  8
4
  6
Continuous
 62
     1
100
AcDbCircle
 10
308.924
 20
414.876
 30
0.0
 40
3.6
  0
ARC
  5
108
330
1F
100
AcDbEntity
  8
4
  6
Continuous
 62
     1
100
AcDbCircle
 10
297.924
 20
383.876
 30
0.0
 40
2.0
100
AcDbArc
 50
180.0
 51
270.0
  0
LINE
  5
109
330
1F
100
AcDbEntity
  8
4
  6
Continuous
 62
     1
100
AcDbLine
 10
297.924
 20
381.876
 30
0.0
 11
297.924
 21
379.876
 31
0.0
  0
LINE
  5
10A
330
1F
100
AcDbEntity
  8
4
  6
LTYPE2
 62
     2
100
AcDbLine
 10
593.924
 20
381.876
 30
0.0
 11
297.924
 21
381.876
 31
0.0
  0
LINE
  5
10B
330
1F
100
AcDbEntity
  8
4
  6
LTYPE1
 62
     2
100
AcDbLine
 10
318.924
 20
404.876
 30
0.0
 11
293.924
 21
379.876
 31
0.0
  0
ARC
  5
10C
330
1F
100
AcDbEntity
  8
4
  6
Continuous
 62
     1
100
AcDbCircle
 10
295.924
 20
381.876
 30
0.0
 40
2.0
100
AcDbArc
 50
59.477512186
 51
90.0
  0
ARC
  5
10D
330
1F
100
AcDbEntity
  8
4
  6
Continuous
 62
     1
100
AcDbCircle
 10
295.924
 20
381.876
 30
0.0
 40
2.0
100
AcDbArc
 50
0.0
 51
30.522487814
  0
ARC
  5
10E
330
1F
100
AcDbEntity
  8
4
  6
Continuous
 62
     1
100
AcDbCircle
 10
297.924
 20
383.876
 30
0.0
 40
4.0
100
AcDbArc
 50
180.0
 51
270.00015455
  0
LINE
  5
10F
330
1F
100
AcDbEntity
  8
4
  6
Continuous
 62
     1
100
AcDbLine
 10
593.924
 20
379.876
 30
0.0
 11
297.92401079
 21
379.876
 31
0.0
  0
LWPOLYLINE
  5
111
330
1F
100
AcDbEntity
  8
4
  6
Continuous
 62
     1
100
AcDbPolyline
 90
     3
 70
   128
 43
0.0
 10
593.924
 20
404.876
 10
319.631106781
 20
404.876
 10
297.646859784
 20
382.891753003
  0
LINE
  5
112
330
1F
100
AcDbEntity
  8
4
  6
Continuous
 62
     1
100
AcDbLine
 10
318.924
 20
405.583106781
 30
0.0
 11
296.939753003
 21
383.598859784
 31
0.0
  0
LINE
  5
113
330
1F
100
AcDbEntity
  8
4
  6
Continuous
 62
     1
100
AcDbLine
 10
295.924
 20
383.876
 30
0.0
 11
293.924
 21
383.876
 31
0.0
  0
LINE
  5
114
330
1F
100
AcDbEntity
  8
4
  6
Continuous
 62
     1
100
AcDbLine
 10
293.924
 20
539.876
 30
0.0
 11
318.924
 21
539.876
 31
0.0
  0
LINE
  5
115
330
1F
100
AcDbEntity
  8
4
  6
Continuous
 62
     1
100
AcDbLine
 10
318.924
 20
405.583106781
 30
0.0
 11
318.924
 21
539.876
 31
0.0
  0
LINE
  5
116
330
1F
100
AcDbEntity
  8
4
  6
LTYPE2
 62
     2
100
AcDbLine
 10
295.924
 20
383.876
 30
0.0
 11
295.924
 21
539.876
 31
0.0
  0
LINE
  5
117
330
1F
100
AcDbEntity
  8
4
  6
Continuous
 62
     1
100
AcDbLine
 10
293.924
 20
383.876
 30
0.0
 11
293.924
 21
539.876
 31
0.0
  0
CIRCLE
  5
118
330
1F
100
AcDbEntity
  8
4
  6
Continuous
 62
     1
100
AcDbCircle
 10
593.924
 20
217.726
 30
0.0
 40
4.2
  0
CIRCLE
  5
119
330
1F
100
AcDbEntity
  8
4
  6
Continuous
 62
     1
100
AcDbCircle
 10
713.924
 20
217.726
 30
0.0
 40
4.2
  0
ARC
  5
11A
330
1F
100
AcDbEntity
  8
4
  6
Continuous
 62
     1
100
AcDbCircle
 10
889.924
 20
179.726
 30
0.0
 40
4.0
100
AcDbArc
 50
270.0
 51
0.0
  0
LINE
  5
11B
330
1F
100
AcDbEntity
  8
4
  6
Continuous
 62
     1
100
AcDbLine
 10
889.924
 20
177.726
 30
0.0
 11
889.924
 21
175.726
 31
0.0
  0
LINE
  5
11C
330
1F
100
AcDbEntity
  8
4
  6
Continuous
 62
     1
100
AcDbLine
 10
893.924
 20
179.726
 30
0.0
 11
891.924
 21
179.726
 31
0.0
  0
ARC
  5
11D
330
1F
100
AcDbEntity
  8
4
  6
Continuous
 62
     1
100
AcDbCircle
 10
891.924
 20
177.726
 30
0.0
 40
2.0
100
AcDbArc
 50
90.0
 51
180.0
  0
ARC
  5
11E
330
1F
100
AcDbEntity
  8
4
  6
Continuous
 62
     1
100
AcDbCircle
 10
889.924
 20
179.726
 30
0.0
 40
2.0
100
AcDbArc
 50
270.0
 51
0.0
  0
ARC
  5
11F
330
1F
100
AcDbEntity
  8
4
  6
Continuous
 62
     1
100
AcDbCircle
 10
889.924
 20
255.726
 30
0.0
 40
4.0
100
AcDbArc
 50
0.0
 51
90.0
  0
LINE
  5
120
330
1F
100
AcDbEntity
  8
4
  6
Continuous
 62
     1
100
AcDbLine
 10
889.924
 20
257.726
 30
0.0
 11
889.924
 21
259.726
 31
0.0
  0
LINE
  5
121
330
1F
100
AcDbEntity
  8
4
  6
Continuous
 62
     1
100
AcDbLine
 10
893.924
 20
255.726
 30
0.0
 11
891.924
 21
255.726
 31
0.0
  0
ARC
  5
122
330
1F
100
AcDbEntity
  8
4
  6
Continuous
 62
     1
100
AcDbCircle
 10
891.924
 20
257.726
 30
0.0
 40
2.0
100
AcDbArc
 50
180.0
 51
270.0
  0
ARC
  5
123
330
1F
100
AcDbEntity
  8
4
  6
Continuous
 62
     1
100
AcDbCircle
 10
889.924
 20
255.726
 30
0.0
 40
2.0
100
AcDbArc
 50
0.0
 51
90.0
  0
LINE
  5
124
330
1F
100
AcDbEntity
  8
4
  6
LTYPE2
 62
     2
100
AcDbLine
 10
891.924
 20
255.726
 30
0.0
 11
891.924
 21
179.726
 31
0.0
  0
LINE
  5
125
330
1F
100
AcDbEntity
  8
4
  6
Continuous
 62
     1
100
AcDbLine
 10
893.924
 20
255.726
 30
0.0
 11
893.924
 21
179.726
 31
0.0
  0
LINE
  5
126
330
1F
100
AcDbEntity
  8
4
  6
LTYPE2
 62
     2
100
AcDbLine
 10
891.924
 20
179.726
 30
0.0
 11
891.924
 21
255.726
 31
0.0
  0
LINE
  5
127
330
1F
100
AcDbEntity
  8
4
  6
Continuous
 62
     1
100
AcDbLine
 10
893.924
 20
179.726
 30
0.0
 11
893.924
 21
255.726
 31
0.0
  0
ARC
  5
128
330
1F
100
AcDbEntity
  8
4
  6
Continuous
 62
     1
100
AcDbCircle
 10
297.924
 20
179.726
 30
0.0
 40
4.0
100
AcDbArc
 50
180.0
 51
270.0
  0
LINE
  5
129
330
1F
100
AcDbEntity
  8
4
  6
Continuous
 62
     1
100
AcDbLine
 10
297.924
 20
177.726
 30
0.0
 11
297.924
 21
175.726
 31
0.0
  0
LINE
  5
12A
330
1F
100
AcDbEntity
  8
4
  6
Continuous
 62
     1
100
AcDbLine
 10
293.924
 20
179.726
 30
0.0
 11
295.924
 21
179.726
 31
0.0
  0
ARC
  5
12B
330
1F
100
AcDbEntity
  8
4
  6
Continuous
 62
     1
100
AcDbCircle
 10
295.924
 20
177.726
 30
0.0
 40
2.0
100
AcDbArc
 50
360.0
 51
90.0
  0
ARC
  5
12C
330
1F
100
AcDbEntity
  8
4
  6
Continuous
 62
     1
100
AcDbCircle
 10
297.924
 20
179.726
 30
0.0
 40
2.0
100
AcDbArc
 50
180.0
 51
270.0
  0
ARC
  5
12D
330
1F
100
AcDbEntity
  8
4
  6
Continuous
 62
     1
100
AcDbCircle
 10
297.924
 20
255.726
 30
0.0
 40
4.0
100
AcDbArc
 50
90.0
 51
180.0
  0
LINE
  5
12E
330
1F
100
AcDbEntity
  8
4
  6
Continuous
 62
     1
100
AcDbLine
 10
297.924
 20
257.726
 30
0.0
 11
297.924
 21
259.726
 31
0.0
  0
LINE
  5
12F
330
1F
100
AcDbEntity
  8
4
  6
Continuous
 62
     1
100
AcDbLine
 10
293.924
 20
255.726
 30
0.0
 11
295.924
 21
255.726
 31
0.0
  0
ARC
  5
130
330
1F
100
AcDbEntity
  8
4
  6
Continuous
 62
     1
100
AcDbCircle
 10
295.924
 20
257.726
 30
0.0
 40
2.0
100
AcDbArc
 50
270.0
 51
0.0
  0
ARC
  5
131
330
1F
100
AcDbEntity
  8
4
  6
Continuous
 62
     1
100
AcDbCircle
 10
297.924
 20
255.726
 30
0.0
 40
2.0
100
AcDbArc
 50
90.0
 51
180.0
  0
LINE
  5
132
330
1F
100
AcDbEntity
  8
4
  6
LTYPE2
 62
     2
100
AcDbLine
 10
295.924
 20
255.726
 30
0.0
 11
295.924
 21
179.726
 31
0.0
  0
LINE
  5
133
330
1F
100
AcDbEntity
  8
4
  6
Continuous
 62
     1
100
AcDbLine
 10
293.924
 20
255.726
 30
0.0
 11
293.924
 21
179.726
 31
0.0
  0
LINE
  5
134
330
1F
100
AcDbEntity
  8
4
  6
LTYPE2
 62
     2
100
AcDbLine
 10
295.924
 20
179.726
 30
0.0
 11
295.924
 21
255.726
 31
0.0
  0
LINE
  5
135
330
1F
100
AcDbEntity
  8
4
  6
Continuous
 62
     1
100
AcDbLine
 10
293.924
 20
179.726
 30
0.0
 11
293.924
 21
255.726
 31
0.0
  0
LINE
  5
136
330
1F
100
AcDbEntity
  8
4
  6
LTYPE2
 62
     2
100
AcDbLine
 10
889.924
 20
177.726
 30
0.0
 11
297.924
 21
177.726
 31
0.0
  0
LINE
  5
137
330
1F
100
AcDbEntity
  8
4
  6
Continuous
 62
     1
100
AcDbLine
 10
889.924
 20
175.726
 30
0.0
 11
297.924
 21
175.726
 31
0.0
  0
LINE
  5
138
330
1F
100
AcDbEntity
  8
4
  6
LTYPE2
 62
     2
100
AcDbLine
 10
889.924
 20
257.726
 30
0.0
 11
297.924
 21
257.726
 31
0.0
  0
LINE
  5
139
330
1F
100
AcDbEntity
  8
4
  6
Continuous
 62
     1
100
AcDbLine
 10
889.924
 20
259.726
 30
0.0
 11
297.924
 21
259.726
 31
0.0
  0
LINE
  5
13A
330
1F
100
AcDbEntity
  8
4
  6
LTYPE2
 62
     2
100
AcDbLine
 10
889.924
 20
257.726
 30
0.0
 11
297.924
 21
257.726
 31
0.0
  0
LINE
  5
13B
330
1F
100
AcDbEntity
  8
4
  6
Continuous
 62
     1
100
AcDbLine
 10
889.924
 20
259.726
 30
0.0
 11
297.924
 21
259.726
 31
0.0
  0
CIRCLE
  5
13C
330
1F
100
AcDbEntity
  8
4
  6
Continuous
 62
     1
100
AcDbCircle
 10
653.924
 20
217.726
 30
0.0
 40
4.2
  0
CIRCLE
  5
13D
330
1F
100
AcDbEntity
  8
4
  6
Continuous
 62
     1
100
AcDbCircle
 10
803.924
 20
217.726
 30
0.0
 40
4.2
  0
CIRCLE
  5
13E
330
1F
100
AcDbEntity
  8
4
  6
Continuous
 62
     1
100
AcDbCircle
 10
863.924
 20
217.726
 30
0.0
 40
4.2
  0
CIRCLE
  5
13F
330
1F
100
AcDbEntity
  8
4
  6
Continuous
 62
     1
100
AcDbCircle
 10
473.924
 20
217.726
 30
0.0
 40
4.2
  0
CIRCLE
  5
140
330
1F
100
AcDbEntity
  8
4
  6
Continuous
 62
     1
100
AcDbCircle
 10
533.924
 20
217.726
 30
0.0
 40
4.2
  0
CIRCLE
  5
141
330
1F
100
AcDbEntity
  8
4
  6
Continuous
 62
     1
100
AcDbCircle
 10
383.924
 20
217.726
 30
0.0
 40
4.2
  0
CIRCLE
  5
142
330
1F
100
AcDbEntity
  8
4
  6
Continuous
 62
     1
100
AcDbCircle
 10
323.924
 20
217.726
 30
0.0
 40
4.2
  0
LINE
  5
143
330
1F
100
AcDbEntity
  8
2
  6
LTYPE1
 62
     2
100
AcDbLine
 10
502.025513414
 20
463.660799709
 30
0.0
 11
502.025513414
 21
496.170510602
 31
0.0
  0
LINE
  5
144
330
1F
100
AcDbEntity
  8
2
  6
LTYPE1
 62
     2
100
AcDbLine
 10
522.775402208
 20
434.962871495
 30
0.0
 11
508.924525039
 21
434.962871495
 31
0.0
  0
LINE
  5
145
330
1F
100
AcDbEntity
  8
2
  6
LTYPE1
 62
     2
100
AcDbLine
 10
525.627763737
 20
462.468611297
 30
0.0
 11
492.220936315
 21
462.468611297
 31
0.0
  0
LINE
  5
146
330
1F
100
AcDbEntity
  8
2
  6
LTYPE1
 62
     2
100
AcDbLine
 10
520.983269305
 20
445.464350275
 30
0.0
 11
508.924525039
 21
445.464350275
 31
0.0
  0
LWPOLYLINE
  5
148
330
1F
100
AcDbEntity
  8
2
  6
LTYPE1
 62
     2
100
AcDbPolyline
 90
     3
 70
   128
 43
0.0
 10
503.026937679
 20
435.439606849
 10
496.864030643
 20
445.464350275
 10
508.924525039
 20
445.464350275
  0
LINE
  5
149
330
1F
100
AcDbEntity
  8
2
  6
LTYPE1
 62
     2
100
AcDbLine
 10
527.027167516
 20
447.966335821
 30
0.0
 11
523.743223981
 21
435.704226473
 31
0.0
  0
LWPOLYLINE
  5
14B
330
1F
100
AcDbEntity
  8
2
  6
LTYPE1
 62
     2
100
AcDbPolyline
 90
    36
 70
   128
 43
0.0
 10
494.106526149
 20
435.704226473
 10
494.117144144
 20
435.667111737
 10
494.129115203
 20
435.630669149
 10
494.142407144
 20
435.594922808
 10
494.156987785
 20
435.559896814
 10
494.172824943
 20
435.525615268
 10
494.189886437
 20
435.492102268
 10
494.208140084
 20
435.459381915
 10
494.227553703
 20
435.427478309
 10
494.248095112
 20
435.396415548
 10
494.269732129
 20
435.366217733
 10
494.292432572
 20
435.336908964
 10
494.316164258
 20
435.308513339
 10
494.340895007
 20
435.28105496
 10
494.366592635
 20
435.254557926
 10
494.393224961
 20
435.229046336
 10
494.420759803
 20
435.20454429
 10
494.449164979
 20
435.181075889
 10
494.478408307
 20
435.158665231
 10
494.508457604
 20
435.137336416
 10
494.53928069
 20
435.117113545
 10
494.570845382
 20
435.098020717
 10
494.603119498
 20
435.080082032
 10
494.636070856
 20
435.063321589
 10
494.669667274
 20
435.047763488
 10
494.70387657
 20
435.033431829
 10
494.738666562
 20
435.020350712
 10
494.774005069
 20
435.008544237
 10
494.809859907
 20
434.998036502
 10
494.846198896
 20
434.988851609
 10
494.882989853
 20
434.981013656
 10
494.920200596
 20
434.974546744
 10
494.957798944
 20
434.969474972
 10
494.995752713
 20
434.96582244
 10
495.034029723
 20
434.963613248
 10
495.072597792
 20
434.962871495
  0
LINE
  5
14C
330
1F
100
AcDbEntity
  8
2
  6
LTYPE1
 62
     2
100
AcDbLine
 10
495.061396961
 20
434.962871495
 30
0.0
 11
508.924525039
 21
434.962871495
 31
0.0
  0
LINE
  5
14D
330
1F
100
AcDbEntity
  8
2
  6
LTYPE1
 62
     2
100
AcDbLine
 10
490.820482458
 20
447.966335821
 30
0.0
 11
494.106526149
 21
435.701426265
 31
0.0
  0
LINE
  5
14E
330
1F
100
AcDbEntity
  8
2
  6
LTYPE1
 62
     2
100
AcDbLine
 10
515.822836612
 20
463.660799709
 30
0.0
 11
515.822836612
 21
496.170510602
 31
0.0
  0
LWPOLYLINE
  5
150
330
1F
100
AcDbEntity
  8
2
  6
LTYPE1
 62
     2
100
AcDbPolyline
 90
   172
 70
   128
 43
0.0
 10
525.627763737
 20
462.468611297
 10
525.627763737
 20
462.46260406
 10
525.627763737
 20
462.445048929
 10
525.627763737
 20
462.416645778
 10
525.627763737
 20
462.378094478
 10
525.627763737
 20
462.330094903
 10
525.627763737
 20
462.273346923
 10
525.627763737
 20
462.208550411
 10
525.627763737
 20
462.136405241
 10
525.627763737
 20
462.057611283
 10
525.627763737
 20
461.972868411
 10
525.627763737
 20
461.882876496
 10
525.627763737
 20
461.788335412
 10
525.627763737
 20
461.68994503
 10
525.627763737
 20
461.588405222
 10
525.627763737
 20
461.484415861
 10
525.627763737
 20
461.37867682
 10
525.627763737
 20
461.27188797
 10
525.627763737
 20
461.164749184
 10
525.627763737
 20
461.057960334
 10
525.627763737
 20
460.952221292
 10
525.627763737
 20
460.848231931
 10
525.627763737
 20
460.746692124
 10
525.627763737
 20
460.648301741
 10
525.627763737
 20
460.553760657
 10
525.627763737
 20
460.463768742
 10
525.627763737
 20
460.37902587
 10
525.627763737
 20
460.300231912
 10
525.627763737
 20
460.228086742
 10
525.627763737
 20
460.16329023
 10
525.627763737
 20
460.106542251
 10
525.627763737
 20
460.058542675
 10
525.627763737
 20
460.019991375
 10
525.627763737
 20
459.991588224
 10
525.627763737
 20
459.974033093
 10
525.627763737
 20
459.968025856
 10
525.547509435
 20
459.968025856
 10
525.312979871
 20
459.968025856
 10
524.933525061
 20
459.968025856
 10
524.418495022
 20
459.968025856
 10
523.777239769
 20
459.968025856
 10
523.019109318
 20
459.968025856
 10
522.153453685
 20
459.968025856
 10
521.189622886
 20
459.968025856
 10
520.136966936
 20
459.968025856
 10
519.004835852
 20
459.968025856
 10
517.802579648
 20
459.968025856
 10
516.539548342
 20
459.968025856
 10
515.225091949
 20
459.968025856
 10
513.868560484
 20
459.968025856
 10
512.479303964
 20
459.968025856
 10
511.066672405
 20
459.968025856
 10
509.640015822
 20
459.968025856
 10
508.20868423
 20
459.968025856
 10
506.782027647
 20
459.968025856
 10
505.369396087
 20
459.968025856
 10
503.980139567
 20
459.968025856
 10
502.623608103
 20
459.968025856
 10
501.30915171
 20
459.968025856
 10
500.046120403
 20
459.968025856
 10
498.8438642
 20
459.968025856
 10
497.711733116
 20
459.968025856
 10
496.659077166
 20
459.968025856
 10
495.695246367
 20
459.968025856
 10
494.829590734
 20
459.968025856
 10
494.071460283
 20
459.968025856
 10
493.43020503
 20
459.968025856
 10
492.915174991
 20
459.968025856
 10
492.535720181
 20
459.968025856
 10
492.301190617
 20
459.968025856
 10
492.220936315
 20
459.968025856
 10
492.220936315
 20
459.974033093
 10
492.220936315
 20
459.991588224
 10
492.220936315
 20
460.019991375
 10
492.220936315
 20
460.058542675
 10
492.220936315
 20
460.106542251
 10
492.220936315
 20
460.16329023
 10
492.220936315
 20
460.228086742
 10
492.220936315
 20
460.300231912
 10
492.220936315
 20
460.37902587
 10
492.220936315
 20
460.463768742
 10
492.220936315
 20
460.553760657
 10
492.220936315
 20
460.648301741
 10
492.220936315
 20
460.746692124
 10
492.220936315
 20
460.848231931
 10
492.220936315
 20
460.952221292
 10
492.220936315
 20
461.057960334
 10
492.220936315
 20
461.164749184
 10
492.220936315
 20
461.27188797
 10
492.220936315
 20
461.37867682
 10
492.220936315
 20
461.484415861
 10
492.220936315
 20
461.588405222
 10
492.220936315
 20
461.68994503
 10
492.220936315
 20
461.788335412
 10
492.220936315
 20
461.882876496
 10
492.220936315
 20
461.972868411
 10
492.220936315
 20
462.057611283
 10
492.220936315
 20
462.136405241
 10
492.220936315
 20
462.208550411
 10
492.220936315
 20
462.273346923
 10
492.220936315
 20
462.330094903
 10
492.220936315
 20
462.378094478
 10
492.220936315
 20
462.416645778
 10
492.220936315
 20
462.445048929
 10
492.220936315
 20
462.46260406
 10
492.220936315
 20
462.468611297
 10
492.173827115
 20
462.469700505
 10
492.127278577
 20
462.472936059
 10
492.081338754
 20
462.478269858
 10
492.036055698
 20
462.485653802
 10
491.991477462
 20
462.495039788
 10
491.947652097
 20
462.506379714
 10
491.904627658
 20
462.51962548
 10
491.862452195
 20
462.534728984
 10
491.821173763
 20
462.551642124
 10
491.780840412
 20
462.570316799
 10
491.741500197
 20
462.590704907
 10
491.703201169
 20
462.612758346
 10
491.665991381
 20
462.636429016
 10
491.629918885
 20
462.661668814
 10
491.595031735
 20
462.68842964
 10
491.561377982
 20
462.716663391
 10
491.529005679
 20
462.746321966
 10
491.497962879
 20
462.777357263
 10
491.468297634
 20
462.809721181
 10
491.440057997
 20
462.843365619
 10
491.413292021
 20
462.878242475
 10
491.388047757
 20
462.914303647
 10
491.364373258
 20
462.951501034
 10
491.342316577
 20
462.989786535
 10
491.321925767
 20
463.029112047
 10
491.30324888
 20
463.06942947
 10
491.286333969
 20
463.110690701
 10
491.271229085
 20
463.15284764
 10
491.257982283
 20
463.195852184
 10
491.246641613
 20
463.239656232
 10
491.237255129
 20
463.284211684
 10
491.229870883
 20
463.329470436
 10
491.224536929
 20
463.375384388
 10
491.221301317
 20
463.421905438
 10
491.220212102
 20
463.468985484
 10
491.220212102
 20
463.549240628
 10
491.220212102
 20
463.783772649
 10
491.220212102
 20
464.163231434
 10
491.220212102
 20
464.67826687
 10
491.220212102
 20
465.319528841
 10
491.220212102
 20
466.077667236
 10
491.220212102
 20
466.943331939
 10
491.220212102
 20
467.907172837
 10
491.220212102
 20
468.959839816
 10
491.220212102
 20
470.091982763
 10
491.220212102
 20
471.294251563
 10
491.220212102
 20
472.557296102
 10
491.220212102
 20
473.871766268
 10
491.220212102
 20
475.228311946
 10
491.220212102
 20
476.617583022
 10
491.220212102
 20
478.030229383
 10
491.220212102
 20
479.456900914
 10
491.220212102
 20
480.888247502
 10
491.220212102
 20
482.314919034
 10
491.220212102
 20
483.727565395
 10
491.220212102
 20
485.116836471
 10
491.220212102
 20
486.473382149
 10
491.220212102
 20
487.787852314
 10
491.220212102
 20
489.050896854
 10
491.220212102
 20
490.253165654
 10
491.220212102
 20
491.385308601
 10
491.220212102
 20
492.43797558
 10
491.220212102
 20
493.401816478
 10
491.220212102
 20
494.267481181
 10
491.220212102
 20
495.025619575
 10
491.220212102
 20
495.666881547
  0
LWPOLYLINE
  5
152
330
1F
100
AcDbEntity
  8
2
  6
LTYPE1
 62
     2
100
AcDbPolyline
 90
    85
 70
   128
 43
0.0
 10
526.531359947
 20
497.171260017
 10
526.543970099
 20
497.153240754
 10
526.55579549
 20
497.134654461
 10
526.566812217
 20
497.115525239
 10
526.576996376
 20
497.095877186
 10
526.586324064
 20
497.075734402
 10
526.594771376
 20
497.055120988
 10
526.602314409
 20
497.034061042
 10
526.608929259
 20
497.012578665
 10
526.614592022
 20
496.990697957
 10
526.619278794
 20
496.968443017
 10
526.622965671
 20
496.945837944
 10
526.62562875
 20
496.92290684
 10
526.627244127
 20
496.899673803
 10
526.627787898
 20
496.876162933
 10
526.627787898
 20
496.795907789
 10
526.627787898
 20
496.561375768
 10
526.627787898
 20
496.181916982
 10
526.627787898
 20
495.666881547
 10
526.627787898
 20
495.025619575
 10
526.627787898
 20
494.267481181
 10
526.627787898
 20
493.401816478
 10
526.627787898
 20
492.43797558
 10
526.627787898
 20
491.385308601
 10
526.627787898
 20
490.253165654
 10
526.627787898
 20
489.050896854
 10
526.627787898
 20
487.787852314
 10
526.627787898
 20
486.473382149
 10
526.627787898
 20
485.116836471
 10
526.627787898
 20
483.727565395
 10
526.627787898
 20
482.314919034
 10
526.627787898
 20
480.888247502
 10
526.627787898
 20
479.456900914
 10
526.627787898
 20
478.030229383
 10
526.627787898
 20
476.617583022
 10
526.627787898
 20
475.228311946
 10
526.627787898
 20
473.871766268
 10
526.627787898
 20
472.557296102
 10
526.627787898
 20
471.294251563
 10
526.627787898
 20
470.091982763
 10
526.627787898
 20
468.959839816
 10
526.627787898
 20
467.907172837
 10
526.627787898
 20
466.943331939
 10
526.627787898
 20
466.077667236
 10
526.627787898
 20
465.319528841
 10
526.627787898
 20
464.67826687
 10
526.627787898
 20
464.163231434
 10
526.627787898
 20
463.783772649
 10
526.627787898
 20
463.549240628
 10
526.627787898
 20
463.468985484
 10
526.626698699
 20
463.421905438
 10
526.623463202
 20
463.375384388
 10
526.618129557
 20
463.329470436
 10
526.610745916
 20
463.284211684
 10
526.601360428
 20
463.239656232
 10
526.590021244
 20
463.195852184
 10
526.576776515
 20
463.15284764
 10
526.561674391
 20
463.110690701
 10
526.544763023
 20
463.06942947
 10
526.52609056
 20
463.029112047
 10
526.505705155
 20
462.989786535
 10
526.483654956
 20
462.951501034
 10
526.459988115
 20
462.914303647
 10
526.434752783
 20
462.878242475
 10
526.407997109
 20
462.843365619
 10
526.379769244
 20
462.809721181
 10
526.350117339
 20
462.777357263
 10
526.319089544
 20
462.746321966
 10
526.28673401
 20
462.716663391
 10
526.253098887
 20
462.68842964
 10
526.218232326
 20
462.661668814
 10
526.182182477
 20
462.636429016
 10
526.144997491
 20
462.612758346
 10
526.106725518
 20
462.590704907
 10
526.067414709
 20
462.570316799
 10
526.027113214
 20
462.551642124
 10
525.985869184
 20
462.534728984
 10
525.943730769
 20
462.51962548
 10
525.90074612
 20
462.506379714
 10
525.856963387
 20
462.495039788
 10
525.812430722
 20
462.485653802
 10
525.767196273
 20
462.478269858
 10
525.721308193
 20
462.472936059
 10
525.67481463
 20
462.469700505
 10
525.627763737
 20
462.468611297
  0
LINE
  5
153
330
1F
100
AcDbEntity
  8
2
  6
LTYPE1
 62
     2
100
AcDbLine
 10
527.027167516
 20
458.968351721
 30
0.0
 11
527.027167516
 21
447.966335821
 31
0.0
  0
LWPOLYLINE
  5
155
330
1F
100
AcDbEntity
  8
2
  6
LTYPE1
 62
     2
100
AcDbPolyline
 90
   145
 70
   128
 43
0.0
 10
527.025634406
 20
458.570097991
 10
527.026287361
 20
458.739715076
 10
527.026768433
 20
458.86468258
 10
527.027065769
 20
458.941921222
 10
527.027167516
 20
458.968351721
 10
527.026079982
 20
459.015430086
 10
527.022849285
 20
459.061946221
 10
527.017523282
 20
459.107852221
 10
527.010149829
 20
459.153100181
 10
527.000776783
 20
459.197642194
 10
526.989452
 20
459.241430356
 10
526.976223338
 20
459.28441676
 10
526.961138652
 20
459.326553501
 10
526.944245799
 20
459.367792674
 10
526.925592636
 20
459.408086372
 10
526.90522702
 20
459.447386691
 10
526.883196806
 20
459.485645724
 10
526.859549853
 20
459.522815566
 10
526.834334015
 20
459.558848312
 10
526.807597151
 20
459.593696055
 10
526.779387116
 20
459.627310891
 10
526.749751767
 20
459.659644913
 10
526.718738961
 20
459.690650217
 10
526.686396555
 20
459.720278895
 10
526.652772404
 20
459.748483044
 10
526.617914366
 20
459.775214757
 10
526.581870297
 20
459.800426129
 10
526.544688054
 20
459.824069254
 10
526.506415493
 20
459.846096226
 10
526.467100471
 20
459.86645914
 10
526.426790845
 20
459.885110091
 10
526.385534472
 20
459.902001172
 10
526.343379207
 20
459.917084478
 10
526.300372907
 20
459.930312104
 10
526.25656343
 20
459.941636144
 10
526.211998631
 20
459.951008692
 10
526.166726367
 20
459.958381843
 10
526.120794496
 20
459.963707691
 10
526.074250873
 20
459.96693833
 10
526.027143355
 20
459.968025856
 10
525.944969326
 20
459.968025856
 10
525.704829689
 20
459.968025856
 10
525.316298117
 20
459.968025856
 10
524.788948282
 20
459.968025856
 10
524.132353859
 20
459.968025856
 10
523.356088521
 20
459.968025856
 10
522.46972594
 20
459.968025856
 10
521.48283979
 20
459.968025856
 10
520.405003744
 20
459.968025856
 10
519.245791476
 20
459.968025856
 10
518.014776658
 20
459.968025856
 10
516.721532965
 20
459.968025856
 10
515.375634068
 20
459.968025856
 10
513.986653642
 20
459.968025856
 10
512.56416536
 20
459.968025856
 10
511.117742894
 20
459.968025856
 10
509.656959919
 20
459.968025856
 10
508.191390107
 20
459.968025856
 10
506.730607132
 20
459.968025856
 10
505.284184666
 20
459.968025856
 10
503.861696384
 20
459.968025856
 10
502.472715958
 20
459.968025856
 10
501.126817061
 20
459.968025856
 10
499.833573368
 20
459.968025856
 10
498.60255855
 20
459.968025856
 10
497.443346282
 20
459.968025856
 10
496.365510236
 20
459.968025856
 10
495.378624086
 20
459.968025856
 10
494.492261505
 20
459.968025856
 10
493.715996167
 20
459.968025856
 10
493.059401744
 20
459.968025856
 10
492.532051909
 20
459.968025856
 10
492.143520337
 20
459.968025856
 10
491.9033807
 20
459.968025856
 10
491.821206671
 20
459.968025856
 10
491.774154096
 20
459.96693833
 10
491.727655619
 20
459.963707691
 10
491.681759587
 20
459.958381843
 10
491.636514346
 20
459.951008692
 10
491.591968242
 20
459.941636144
 10
491.548169623
 20
459.930312104
 10
491.505166834
 20
459.917084478
 10
491.463008222
 20
459.902001172
 10
491.421742133
 20
459.885110091
 10
491.381416914
 20
459.86645914
 10
491.342080911
 20
459.846096226
 10
491.303782471
 20
459.824069254
 10
491.26656994
 20
459.800426129
 10
491.230491664
 20
459.775214757
 10
491.195595991
 20
459.748483044
 10
491.161931266
 20
459.720278895
 10
491.129545835
 20
459.690650217
 10
491.098488046
 20
459.659644913
 10
491.068806245
 20
459.627310891
 10
491.040548778
 20
459.593696055
 10
491.013763992
 20
459.558848312
 10
490.988500233
 20
459.522815566
 10
490.964805847
 20
459.485645724
 10
490.942729181
 20
459.447386691
 10
490.922318582
 20
459.408086372
 10
490.903622395
 20
459.367792674
 10
490.886688968
 20
459.326553501
 10
490.871566647
 20
459.28441676
 10
490.858303777
 20
459.241430356
 10
490.846948707
 20
459.197642194
 10
490.837549781
 20
459.153100181
 10
490.830155347
 20
459.107852221
 10
490.824813751
 20
459.061946221
 10
490.821573339
 20
459.015430086
 10
490.820482458
 20
458.968351721
 10
490.820482458
 20
458.941921222
 10
490.820482458
 20
458.86468258
 10
490.820482458
 20
458.739715076
 10
490.820482458
 20
458.570097991
 10
490.820482458
 20
458.358910607
 10
490.820482458
 20
458.109232205
 10
490.820482458
 20
457.824142067
 10
490.820482458
 20
457.506719474
 10
490.820482458
 20
457.160043708
 10
490.820482458
 20
456.78719405
 10
490.820482458
 20
456.391249781
 10
490.820482458
 20
455.975290182
 10
490.820482458
 20
455.542394536
 10
490.820482458
 20
455.095642124
 10
490.820482458
 20
454.638112227
 10
490.820482458
 20
454.172884126
 10
490.820482458
 20
453.703037103
 10
490.820482458
 20
453.231650439
 10
490.820482458
 20
452.761803416
 10
490.820482458
 20
452.296575315
 10
490.820482458
 20
451.839045418
 10
490.820482458
 20
451.392293005
 10
490.820482458
 20
450.959397359
 10
490.820482458
 20
450.543437761
 10
490.820482458
 20
450.147493492
 10
490.820482458
 20
449.774643833
 10
490.820482458
 20
449.427968067
 10
490.820482458
 20
449.110545474
 10
490.820482458
 20
448.825455336
 10
490.820482458
 20
448.575776935
 10
490.820482458
 20
448.364589551
 10
490.820482458
 20
448.194972466
 10
490.820482458
 20
448.070004962
 10
490.820482458
 20
447.992766319
 10
490.820482458
 20
447.966335821
  0
LINE
  5
156
330
1F
100
AcDbEntity
  8
2
  6
LTYPE1
 62
     2
100
AcDbLine
 10
514.821412347
 20
435.439606849
 30
0.0
 11
520.983269305
 21
445.464350275
 31
0.0
  0
LWPOLYLINE
  5
158
330
1F
100
AcDbEntity
  8
2
  6
LTYPE1
 62
     2
100
AcDbPolyline
 90
    36
 70
   128
 43
0.0
 10
522.775402208
 20
434.962871495
 10
522.814111879
 20
434.963613248
 10
522.852514327
 20
434.96582244
 10
522.89057835
 20
434.969474972
 10
522.928272745
 20
434.974546744
 10
522.965566311
 20
434.981013656
 10
523.002427844
 20
434.988851609
 10
523.038826144
 20
434.998036502
 10
523.074730006
 20
435.008544237
 10
523.11010823
 20
435.020350712
 10
523.144929612
 20
435.033431829
 10
523.179162951
 20
435.047763488
 10
523.212777044
 20
435.063321589
 10
523.245740688
 20
435.080082032
 10
523.278022682
 20
435.098020717
 10
523.309591823
 20
435.117113545
 10
523.340416909
 20
435.137336416
 10
523.370466738
 20
435.158665231
 10
523.399710107
 20
435.181075889
 10
523.428115813
 20
435.20454429
 10
523.455652655
 20
435.229046336
 10
523.482289431
 20
435.254557926
 10
523.507994937
 20
435.28105496
 10
523.532737972
 20
435.308513339
 10
523.556487333
 20
435.336908964
 10
523.579211818
 20
435.366217733
 10
523.600880225
 20
435.396415548
 10
523.621461351
 20
435.427478309
 10
523.640923995
 20
435.459381915
 10
523.659236953
 20
435.492102268
 10
523.676369023
 20
435.525615268
 10
523.692289004
 20
435.559896814
 10
523.706965692
 20
435.594922808
 10
523.720367886
 20
435.630669149
 10
523.732464383
 20
435.667111737
 10
523.743223981
 20
435.704226473
  0
LWPOLYLINE
  5
15A
330
1F
100
AcDbEntity
  8
2
  6
LTYPE1
 62
     2
100
AcDbPolyline
 90
    19
 70
   128
 43
0.0
 10
491.316640053
 20
497.171260017
 10
491.304029901
 20
497.153240754
 10
491.29220451
 20
497.134654461
 10
491.281187783
 20
497.115525239
 10
491.271003624
 20
497.095877186
 10
491.261675936
 20
497.075734402
 10
491.253228624
 20
497.055120988
 10
491.245685591
 20
497.034061042
 10
491.239070741
 20
497.012578665
 10
491.233407978
 20
496.990697957
 10
491.228721206
 20
496.968443017
 10
491.225034329
 20
496.945837944
 10
491.22237125
 20
496.92290684
 10
491.220755873
 20
496.899673803
 10
491.220212102
 20
496.876162933
 10
491.220212102
 20
496.795907789
 10
491.220212102
 20
496.561375768
 10
491.220212102
 20
496.181916982
 10
491.220212102
 20
495.666881547
  0
LWPOLYLINE
  5
15C
330
1F
100
AcDbEntity
  8
2
  6
LTYPE1
 62
     2
100
AcDbPolyline
 90
    36
 70
   128
 43
0.0
 10
503.026937679
 20
435.439606849
 10
503.042880731
 20
435.414622612
 10
503.059496763
 20
435.390200116
 10
503.076769562
 20
435.366349057
 10
503.094682915
 20
435.343079135
 10
503.113220608
 20
435.320400049
 10
503.132366428
 20
435.298321498
 10
503.152104161
 20
435.276853179
 10
503.172417594
 20
435.256004792
 10
503.193290513
 20
435.235786036
 10
503.214706706
 20
435.216206608
 10
503.236649957
 20
435.197276208
 10
503.259104055
 20
435.179004535
 10
503.282052786
 20
435.161401287
 10
503.305479935
 20
435.144476162
 10
503.329369291
 20
435.12823886
 10
503.353704638
 20
435.112699079
 10
503.378469764
 20
435.097866518
 10
503.403648456
 20
435.083750875
 10
503.4292245
 20
435.07036185
 10
503.455181682
 20
435.05770914
 10
503.481503789
 20
435.045802445
 10
503.508174608
 20
435.034651463
 10
503.535177925
 20
435.024265892
 10
503.562497526
 20
435.014655433
 10
503.590117199
 20
435.005829782
 10
503.618020729
 20
434.99779864
 10
503.646191904
 20
434.990571704
 10
503.67461451
 20
434.984158673
 10
503.703272333
 20
434.978569247
 10
503.73214916
 20
434.973813122
 10
503.761228778
 20
434.9699
 10
503.790494973
 20
434.966839577
 10
503.819931531
 20
434.964641552
 10
503.84952224
 20
434.963315626
 10
503.879250886
 20
434.962871495
  0
LWPOLYLINE
  5
15E
330
1F
100
AcDbEntity
  8
2
  6
LTYPE1
 62
     2
100
AcDbPolyline
 90
    36
 70
   128
 43
0.0
 10
513.96909914
 20
434.962871495
 10
513.998829451
 20
434.963315626
 10
514.02842496
 20
434.964641552
 10
514.05786916
 20
434.966839577
 10
514.087145544
 20
434.9699
 10
514.116237603
 20
434.973813122
 10
514.145128831
 20
434.978569247
 10
514.173802721
 20
434.984158673
 10
514.202242765
 20
434.990571704
 10
514.230432455
 20
434.99779864
 10
514.258355285
 20
435.005829782
 10
514.285994747
 20
435.014655433
 10
514.313334334
 20
435.024265892
 10
514.340357538
 20
435.034651463
 10
514.367047852
 20
435.045802445
 10
514.393388769
 20
435.05770914
 10
514.419363781
 20
435.07036185
 10
514.444956381
 20
435.083750875
 10
514.470150061
 20
435.097866518
 10
514.494928315
 20
435.112699079
 10
514.519274635
 20
435.12823886
 10
514.543172513
 20
435.144476162
 10
514.566605443
 20
435.161401287
 10
514.589556916
 20
435.179004535
 10
514.612010426
 20
435.197276208
 10
514.633949465
 20
435.216206608
 10
514.655357527
 20
435.235786036
 10
514.676218102
 20
435.256004792
 10
514.696514685
 20
435.276853179
 10
514.716230767
 20
435.298321498
 10
514.735349842
 20
435.320400049
 10
514.753855403
 20
435.343079135
 10
514.77173094
 20
435.366349057
 10
514.788959949
 20
435.390200116
 10
514.80552592
 20
435.414622612
 10
514.821412347
 20
435.439606849
  0
ARC
  5
15F
330
1F
100
AcDbEntity
  8
2
  6
LTYPE1
 62
     2
100
AcDbCircle
 10
508.924003815
 20
412.376
 30
0.0
 40
5.0
100
AcDbArc
 50
180.0
 51
0.0
  0
LINE
  5
160
330
1F
100
AcDbEntity
  8
2
  6
LTYPE1
 62
     2
100
AcDbLine
 10
513.924003815
 20
412.376
 30
0.0
 11
513.924003815
 21
434.962871495
 31
0.0
  0
LINE
  5
161
330
1F
100
AcDbEntity
  8
2
  6
LTYPE1
 62
     2
100
AcDbLine
 10
503.924003815
 20
412.376
 30
0.0
 11
503.924003815
 21
434.962871495
 31
0.0
  0
LINE
  5
162
330
1F
100
AcDbEntity
  8
5
  6
Continuous
 62
     1
100
AcDbLine
 10
298.924
 20
601.876
 30
0.0
 11
298.924
 21
539.876
 31
0.0
  0
LINE
  5
163
330
1F
100
AcDbEntity
  8
5
  6
Continuous
 62
     1
100
AcDbLine
 10
318.924
 20
459.876
 30
0.0
 11
323.924
 21
459.876
 31
0.0
  0
ARC
  5
164
330
1F
100
AcDbEntity
  8
5
  6
LTYPE2
 62
     2
100
AcDbCircle
 10
301.924
 20
462.876
 30
0.0
 40
3.0
100
AcDbArc
 50
180.0
 51
270.0
  0
LINE
  5
165
330
1F
100
AcDbEntity
  8
5
  6
LTYPE2
 62
     2
100
AcDbLine
 10
298.924
 20
539.876
 30
0.0
 11
298.924
 21
462.876
 31
0.0
  0
LINE
  5
166
330
1F
100
AcDbEntity
  8
5
  6
LTYPE2
 62
     2
100
AcDbLine
 10
301.924
 20
459.876
 30
0.0
 11
318.924
 21
459.876
 31
0.0
  0
LINE
  5
167
330
1F
100
AcDbEntity
  8
5
  6
LTYPE1
 62
     2
100
AcDbLine
 10
593.924
 20
613.706
 30
0.0
 11
593.924
 21
356.176
 31
0.0
  0
LINE
  5
168
330
1F
100
AcDbEntity
  8
5
  6
Continuous
 62
     1
100
AcDbLine
 10
888.924
 20
601.876
 30
0.0
 11
888.924
 21
599.876
 31
0.0
  0
LINE
  5
169
330
1F
100
AcDbEntity
  8
5
  6
LTYPE2
 62
     2
100
AcDbLine
 10
888.924
 20
599.876
 30
0.0
 11
888.924
 21
462.876
 31
0.0
  0
LINE
  5
16A
330
1F
100
AcDbEntity
  8
5
  6
Continuous
 62
     1
100
AcDbLine
 10
863.924
 20
464.876
 30
0.0
 11
863.924
 21
640.376
 31
0.0
  0
LINE
  5
16B
330
1F
100
AcDbEntity
  8
5
  6
LTYPE2
 62
     2
100
AcDbLine
 10
865.924
 20
464.876
 30
0.0
 11
865.924
 21
604.876
 31
0.0
  0
LINE
  5
16C
330
1F
100
AcDbEntity
  8
5
  6
LTYPE2
 62
     2
100
AcDbLine
 10
863.924
 20
459.876
 30
0.0
 11
863.924
 21
464.876
 31
0.0
  0
ARC
  5
16D
330
1F
100
AcDbEntity
  8
5
  6
LTYPE2
 62
     2
100
AcDbCircle
 10
885.924
 20
462.876
 30
0.0
 40
3.0
100
AcDbArc
 50
270.0
 51
0.0
  0
LINE
  5
16E
330
1F
100
AcDbEntity
  8
5
  6
LTYPE2
 62
     2
100
AcDbLine
 10
885.924
 20
459.876
 30
0.0
 11
863.924
 21
459.876
 31
0.0
  0
ARC
  5
16F
330
1F
100
AcDbEntity
  8
5
  6
Continuous
 62
     1
100
AcDbCircle
 10
878.924
 20
529.876
 30
0.0
 40
4.5
100
AcDbArc
 50
45.853029607
 51
134.146970393
  0
ARC
  5
170
330
1F
100
AcDbEntity
  8
5
  6
LTYPE2
 62
     2
100
AcDbCircle
 10
878.924
 20
529.876
 30
0.0
 40
4.5
100
AcDbArc
 50
134.146970393
 51
45.853029607
  0
LINE
  5
171
330
1F
100
AcDbEntity
  8
5
  6
Continuous
 62
     1
100
AcDbLine
 10
130.514
 20
605.376
 30
0.0
 11
132.514
 21
605.376
 31
0.0
  0
ARC
  5
172
330
1F
100
AcDbEntity
  8
5
  6
Continuous
 62
     1
100
AcDbCircle
 10
132.514
 20
605.376
 30
0.0
 40
2.0
100
AcDbArc
 50
270.0
 51
90.0
  0
LINE
  5
173
330
1F
100
AcDbEntity
  8
5
  6
Continuous
 62
     1
100
AcDbLine
 10
132.514
 20
607.376
 30
0.0
 11
132.264
 21
607.376
 31
0.0
  0
ARC
  5
174
330
1F
100
AcDbEntity
  8
5
  6
Continuous
 62
     1
100
AcDbCircle
 10
132.264
 20
609.376
 30
0.0
 40
2.0
100
AcDbArc
 50
180.0
 51
270.0
  0
LINE
  5
175
330
1F
100
AcDbEntity
  8
5
  6
Continuous
 62
     1
100
AcDbLine
 10
130.264
 20
615.376
 30
0.0
 11
130.264
 21
609.376
 31
0.0
  0
LINE
  5
176
330
1F
100
AcDbEntity
  8
5
  6
Continuous
 62
     1
100
AcDbLine
 10
210.014
 20
605.376
 30
0.0
 11
208.014
 21
605.376
 31
0.0
  0
ARC
  5
177
330
1F
100
AcDbEntity
  8
5
  6
Continuous
 62
     1
100
AcDbCircle
 10
208.014
 20
605.376
 30
0.0
 40
2.0
100
AcDbArc
 50
90.0
 51
270.0
  0
LINE
  5
178
330
1F
100
AcDbEntity
  8
5
  6
Continuous
 62
     1
100
AcDbLine
 10
208.014
 20
607.376
 30
0.0
 11
208.264
 21
607.376
 31
0.0
  0
ARC
  5
179
330
1F
100
AcDbEntity
  8
5
  6
Continuous
 62
     1
100
AcDbCircle
 10
208.264
 20
609.376
 30
0.0
 40
2.0
100
AcDbArc
 50
270.0
 51
0.0
  0
LINE
  5
17A
330
1F
100
AcDbEntity
  8
5
  6
Continuous
 62
     1
100
AcDbLine
 10
210.264
 20
615.376
 30
0.0
 11
210.264
 21
609.376
 31
0.0
  0
ARC
  5
17B
330
1F
100
AcDbEntity
  8
5
  6
Continuous
 62
     1
100
AcDbCircle
 10
155.264
 20
615.376
 30
0.0
 40
25.0
100
AcDbArc
 50
90.000034973
 51
180.0
  0
LINE
  5
17C
330
1F
100
AcDbEntity
  8
5
  6
Continuous
 62
     1
100
AcDbLine
 10
185.263984741
 20
640.376
 30
0.0
 11
155.263984741
 21
640.376
 31
0.0
  0
ARC
  5
17D
330
1F
100
AcDbEntity
  8
5
  6
Continuous
 62
     1
100
AcDbCircle
 10
185.264
 20
615.376
 30
0.0
 40
25.0
100
AcDbArc
 50
0.0
 51
90.000034973
  0
ARC
  5
17E
330
1F
100
AcDbEntity
  8
5
  6
Continuous
 62
     1
100
AcDbCircle
 10
170.264
 20
574.876
 30
0.0
 40
20.0
100
AcDbArc
 50
359.999902254
 51
180.00006182
  0
ARC
  5
17F
330
1F
100
AcDbEntity
  8
4
  6
Continuous
 62
     1
100
AcDbCircle
 10
208.264
 20
383.876
 30
0.0
 40
4.0
100
AcDbArc
 50
270.0
 51
0.0
  0
LINE
  5
180
330
1F
100
AcDbEntity
  8
4
  6
Continuous
 62
     1
100
AcDbLine
 10
208.264
 20
381.876
 30
0.0
 11
208.264
 21
379.876
 31
0.0
  0
LWPOLYLINE
  5
182
330
1F
100
AcDbEntity
  8
4
  6
Continuous
 62
     1
100
AcDbPolyline
 90
     3
 70
   128
 43
0.0
 10
208.264
 20
381.876
 42
-0.414213562
 10
210.264
 20
383.876
 42
0.0
 10
212.264
 20
383.876
 42
0.0
  0
ARC
  5
183
330
1F
100
AcDbEntity
  8
4
  6
Continuous
 62
     1
100
AcDbCircle
 10
208.264
 20
383.876
 30
0.0
 40
2.0
100
AcDbArc
 50
270.0
 51
0.0
  0
ARC
  5
184
330
1F
100
AcDbEntity
  8
4
  6
Continuous
 62
     1
100
AcDbCircle
 10
132.264
 20
383.876
 30
0.0
 40
4.0
100
AcDbArc
 50
180.0
 51
270.0
  0
LINE
  5
185
330
1F
100
AcDbEntity
  8
4
  6
Continuous
 62
     1
100
AcDbLine
 10
132.264
 20
381.876
 30
0.0
 11
132.264
 21
379.876
 31
0.0
  0
LWPOLYLINE
  5
187
330
1F
100
AcDbEntity
  8
4
  6
Continuous
 62
     1
100
AcDbPolyline
 90
     3
 70
   128
 43
0.0
 10
132.264
 20
381.876
 42
0.414213562
 10
130.264
 20
383.876
 42
0.0
 10
128.264
 20
383.876
 42
0.0
  0
ARC
  5
188
330
1F
100
AcDbEntity
  8
4
  6
Continuous
 62
     1
100
AcDbCircle
 10
132.264
 20
383.876
 30
0.0
 40
2.0
100
AcDbArc
 50
180.0
 51
270.0
  0
LINE
  5
189
330
1F
100
AcDbEntity
  8
4
  6
Continuous
 62
     1
100
AcDbLine
 10
208.264
 20
379.876
 30
0.0
 11
132.264
 21
379.876
 31
0.0
  0
LINE
  5
18A
330
1F
100
AcDbEntity
  8
4
  6
LTYPE2
 62
     2
100
AcDbLine
 10
208.264
 20
381.876
 30
0.0
 11
132.264
 21
381.876
 31
0.0
  0
LINE
  5
18B
330
1F
100
AcDbEntity
  8
4
  6
LTYPE2
 62
     2
100
AcDbLine
 10
130.264
 20
404.876
 30
0.0
 11
128.264
 21
404.876
 31
0.0
  0
LINE
  5
18C
330
1F
100
AcDbEntity
  8
4
  6
LTYPE2
 62
     2
100
AcDbLine
 10
212.264
 20
404.876
 30
0.0
 11
210.264
 21
404.876
 31
0.0
  0
CIRCLE
  5
18D
330
1F
100
AcDbEntity
  8
4
  6
Continuous
 62
     1
100
AcDbCircle
 10
170.264
 20
519.876
 30
0.0
 40
4.2
  0
CIRCLE
  5
18E
330
1F
100
AcDbEntity
  8
4
  6
Continuous
 62
     1
100
AcDbCircle
 10
170.264
 20
399.876
 30
0.0
 40
4.2
  0
LWPOLYLINE
  5
190
330
1F
100
AcDbEntity
  8
5
  6
Continuous
 62
     2
100
AcDbPolyline
 90
     3
 70
   128
 43
0.0
 10
139.014
 20
596.376
 10
139.014
 20
583.376
 10
132.514
 20
583.376
  0
LINE
  5
191
330
1F
100
AcDbEntity
  8
5
  6
Continuous
 62
     2
100
AcDbLine
 10
139.014
 20
596.376
 30
0.0
 11
132.514
 21
596.376
 31
0.0
  0
LINE
  5
192
330
1F
100
AcDbEntity
  8
5
  6
Continuous
 62
     2
100
AcDbLine
 10
201.514
 20
596.376
 30
0.0
 11
201.514
 21
583.376
 31
0.0
  0
LINE
  5
193
330
1F
100
AcDbEntity
  8
5
  6
Continuous
 62
     2
100
AcDbLine
 10
208.014
 20
583.376
 30
0.0
 11
201.514
 21
583.376
 31
0.0
  0
LINE
  5
194
330
1F
100
AcDbEntity
  8
5
  6
Continuous
 62
     2
100
AcDbLine
 10
208.014
 20
596.376
 30
0.0
 11
201.514
 21
596.376
 31
0.0
  0
LINE
  5
195
330
1F
100
AcDbEntity
  8
5
  6
Continuous
 62
     1
100
AcDbLine
 10
130.514
 20
605.376
 30
0.0
 11
130.514
 21
539.876
 31
0.0
  0
LINE
  5
196
330
1F
100
AcDbEntity
  8
5
  6
Continuous
 62
     1
100
AcDbLine
 10
132.514
 20
605.376
 30
0.0
 11
132.514
 21
539.876
 31
0.0
  0
LINE
  5
197
330
1F
100
AcDbEntity
  8
4
  6
LTYPE2
 62
     2
100
AcDbLine
 10
130.264
 20
539.876
 30
0.0
 11
130.264
 21
383.876
 31
0.0
  0
LINE
  5
198
330
1F
100
AcDbEntity
  8
5
  6
Continuous
 62
     1
100
AcDbLine
 10
150.264
 20
539.876
 30
0.0
 11
150.264
 21
574.875978421
 31
0.0
  0
LINE
  5
199
330
1F
100
AcDbEntity
  8
5
  6
Continuous
 62
     1
100
AcDbLine
 10
210.014
 20
605.376
 30
0.0
 11
210.014
 21
539.876
 31
0.0
  0
LINE
  5
19A
330
1F
100
AcDbEntity
  8
5
  6
Continuous
 62
     1
100
AcDbLine
 10
208.014
 20
605.376
 30
0.0
 11
208.014
 21
539.876
 31
0.0
  0
LINE
  5
19B
330
1F
100
AcDbEntity
  8
5
  6
Continuous
 62
     1
100
AcDbLine
 10
190.264
 20
574.87596588
 30
0.0
 11
190.264
 21
539.876
 31
0.0
  0
LINE
  5
19C
330
1F
100
AcDbEntity
  8
4
  6
LTYPE2
 62
     2
100
AcDbLine
 10
210.264
 20
539.876
 30
0.0
 11
210.264
 21
383.876
 31
0.0
  0
LINE
  5
19D
330
1F
100
AcDbEntity
  8
5
  6
LTYPE2
 62
     2
100
AcDbLine
 10
130.514
 20
539.876
 30
0.0
 11
130.514
 21
459.876
 31
0.0
  0
LINE
  5
19E
330
1F
100
AcDbEntity
  8
5
  6
LTYPE2
 62
     2
100
AcDbLine
 10
132.514
 20
539.876
 30
0.0
 11
132.514
 21
459.876
 31
0.0
  0
LINE
  5
19F
330
1F
100
AcDbEntity
  8
5
  6
LTYPE2
 62
     2
100
AcDbLine
 10
150.264
 20
519.876
 30
0.0
 11
150.264
 21
539.876
 31
0.0
  0
LINE
  5
1A0
330
1F
100
AcDbEntity
  8
5
  6
LTYPE2
 62
     2
100
AcDbLine
 10
190.264
 20
539.876
 30
0.0
 11
190.264
 21
519.875962624
 31
0.0
  0
ARC
  5
1A1
330
1F
100
AcDbEntity
  8
5
  6
LTYPE2
 62
     2
100
AcDbCircle
 10
170.264
 20
519.876
 30
0.0
 40
20.0
100
AcDbArc
 50
180.0
 51
359.999892925
  0
LINE
  5
1A2
330
1F
100
AcDbEntity
  8
5
  6
LTYPE2
 62
     2
100
AcDbLine
 10
210.014
 20
539.876
 30
0.0
 11
210.014
 21
459.876
 31
0.0
  0
LINE
  5
1A3
330
1F
100
AcDbEntity
  8
5
  6
LTYPE2
 62
     2
100
AcDbLine
 10
208.014
 20
539.876
 30
0.0
 11
208.014
 21
459.876
 31
0.0
  0
LINE
  5
1A4
330
1F
100
AcDbEntity
  8
4
  6
Continuous
 62
     1
100
AcDbLine
 10
212.264
 20
539.876
 30
0.0
 11
212.264
 21
383.876
 31
0.0
  0
LINE
  5
1A5
330
1F
100
AcDbEntity
  8
4
  6
Continuous
 62
     1
100
AcDbLine
 10
212.264
 20
539.876
 30
0.0
 11
187.286044531
 21
539.876
 31
0.0
  0
ARC
  5
1A6
330
1F
100
AcDbEntity
  8
4
  6
Continuous
 62
     1
100
AcDbCircle
 10
170.264
 20
550.376
 30
0.0
 40
20.0
100
AcDbArc
 50
211.668243254
 51
328.331756746
  0
LWPOLYLINE
  5
1A8
330
1F
100
AcDbEntity
  8
4
  6
Continuous
 62
     1
100
AcDbPolyline
 90
     3
 70
   128
 43
0.0
 10
153.241955469
 20
539.876
 10
128.264
 20
539.876
 10
128.264
 20
383.876
  0
LINE
  5
1A9
330
1F
100
AcDbEntity
  8
5
  6
LTYPE2
 62
     2
100
AcDbLine
 10
150.264
 20
459.876
 30
0.0
 11
130.514
 21
459.876
 31
0.0
  0
ARC
  5
1AA
330
1F
100
AcDbEntity
  8
5
  6
LTYPE2
 62
     2
100
AcDbCircle
 10
170.264
 20
459.876
 30
0.0
 40
20.0
100
AcDbArc
 50
0.0
 51
180.0
  0
LINE
  5
1AB
330
1F
100
AcDbEntity
  8
5
  6
LTYPE2
 62
     2
100
AcDbLine
 10
210.014
 20
459.876
 30
0.0
 11
190.264
 21
459.876
 31
0.0
  0
LINE
  5
1AD
330
1F
100
AcDbEntity
  8
3
  6
LTYPE3
 62
     2
100
AcDbLine
 10
593.924
 20
267.606
 30
0.0
 11
593.924
 21
167.846
 31
0.0
  0
CIRCLE
  5
1AE
330
1F
100
AcDbEntity
  8
5
  6
Continuous
 62
     1
100
AcDbCircle
 10
308.924
 20
589.876
 30
0.0
 40
3.0
  0
CIRCLE
  5
1AF
330
1F
100
AcDbEntity
  8
5
  6
Continuous
 62
     2
100
AcDbCircle
 10
308.924
 20
589.876
 30
0.0
 40
4.5
  0
LWPOLYLINE
  5
1B1
330
1F
100
AcDbEntity
  8
3
  6
LTYPE2
 62
     2
100
AcDbPolyline
 90
     4
 70
   128
 43
0.0
 10
320.324
 20
604.876
 10
320.324
 20
602.676
 10
320.324
 20
601.876
 10
321.924
 20
601.876
  0
LWPOLYLINE
  5
1B3
330
1F
100
AcDbEntity
  8
3
  6
LTYPE2
 62
     2
100
AcDbPolyline
 90
     5
 70
   128
 43
0.0
 10
318.324
 20
604.876
 10
318.324
 20
602.876
 10
318.324
 20
602.676
 10
320.324
 20
602.676
 10
320.324
 20
604.876
  0
LINE
  5
1B4
330
1F
100
AcDbEntity
  8
3
  6
LTYPE2
 62
     2
100
AcDbLine
 10
318.324
 20
602.876
 30
0.0
 11
313.724
 21
602.876
 31
0.0
  0
LINE
  5
1B5
330
1F
100
AcDbEntity
  8
3
  6
LTYPE2
 62
     2
100
AcDbLine
 10
313.024
 20
604.676
 30
0.0
 11
313.024
 21
604.876
 31
0.0
  0
LWPOLYLINE
  5
1B8
330
1F
100
AcDbEntity
  8
3
  6
LTYPE2
 62
     2
100
AcDbPolyline
 90
     3
 70
   128
 43
0.0
 10
313.031151991
 20
604.876
 42
0.017874266
 10
313.024
 20
604.676
 42
0.183083351
 10
313.726923982
 20
602.820663865
 42
0.0
  0
LWPOLYLINE
  5
1BA
330
1F
100
AcDbEntity
  8
3
  6
LTYPE2
 62
     2
100
AcDbPolyline
 90
     3
 70
   128
 43
0.0
 10
321.924
 20
604.876
 10
320.324
 20
604.876
 10
318.324
 20
604.876
  0
LINE
  5
1BB
330
1F
100
AcDbEntity
  8
3
  6
LTYPE2
 62
     2
100
AcDbLine
 10
313.031151991
 20
604.876
 30
0.0
 11
313.024
 21
604.876
 31
0.0
  0
LINE
  5
1BC
330
1F
100
AcDbEntity
  8
3
  6
LTYPE2
 62
     2
100
AcDbLine
 10
865.924
 20
601.876
 30
0.0
 11
867.524
 21
601.876
 31
0.0
  0
LINE
  5
1BD
330
1F
100
AcDbEntity
  8
3
  6
LTYPE2
 62
     2
100
AcDbLine
 10
867.524
 20
602.676
 30
0.0
 11
869.524
 21
602.676
 31
0.0
  0
LINE
  5
1BE
330
1F
100
AcDbEntity
  8
3
  6
LTYPE2
 62
     2
100
AcDbLine
 10
869.524
 20
602.876
 30
0.0
 11
874.124
 21
602.876
 31
0.0
  0
LINE
  5
1BF
330
1F
100
AcDbEntity
  8
3
  6
LTYPE2
 62
     2
100
AcDbLine
 10
867.524
 20
601.876
 30
0.0
 11
867.524
 21
604.876
 31
0.0
  0
LINE
  5
1C0
330
1F
100
AcDbEntity
  8
3
  6
LTYPE2
 62
     2
100
AcDbLine
 10
869.524
 20
602.676
 30
0.0
 11
869.524
 21
604.876
 31
0.0
  0
LINE
  5
1C1
330
1F
100
AcDbEntity
  8
3
  6
LTYPE2
 62
     2
100
AcDbLine
 10
867.524
 20
604.876
 30
0.0
 11
867.524
 21
602.676
 31
0.0
  0
ARC
  5
1C2
330
1F
100
AcDbEntity
  8
3
  6
LTYPE2
 62
     2
100
AcDbCircle
 10
872.024
 20
604.676
 30
0.0
 40
2.8
100
AcDbArc
 50
318.5
 51
0.0
  0
CIRCLE
  5
1C3
330
1F
100
AcDbEntity
  8
3
  6
Continuous
 62
     2
100
AcDbCircle
 10
308.924
 20
529.876
 30
0.0
 40
5.0
  0
LWPOLYLINE
  5
1C5
330
1F
100
AcDbEntity
  8
3
  6
Continuous
 62
     2
100
AcDbPolyline
 90
     6
 70
   129
 43
0.0
 10
311.824
 20
534.876
 10
306.024
 20
534.876
 10
303.124
 20
529.876
 10
306.024
 20
524.876
 10
311.824
 20
524.876
 10
314.724
 20
529.876
  0
CIRCLE
  5
1C6
330
1F
100
AcDbEntity
  8
3
  6
Continuous
 62
     2
100
AcDbCircle
 10
308.924
 20
529.876
 30
0.0
 40
6.1
  0
CIRCLE
  5
1C7
330
1F
100
AcDbEntity
  8
3
  6
Continuous
 62
     2
100
AcDbCircle
 10
308.924
 20
529.876
 30
0.0
 40
6.3
  0
CIRCLE
  5
1C8
330
1F
100
AcDbEntity
  8
3
  6
Continuous
 62
     2
100
AcDbCircle
 10
308.924
 20
474.876
 30
0.0
 40
5.0
  0
LWPOLYLINE
  5
1CA
330
1F
100
AcDbEntity
  8
3
  6
Continuous
 62
     2
100
AcDbPolyline
 90
     6
 70
   129
 43
0.0
 10
311.824
 20
479.876
 10
306.024
 20
479.876
 10
303.124
 20
474.876
 10
306.024
 20
469.876
 10
311.824
 20
469.876
 10
314.724
 20
474.876
  0
CIRCLE
  5
1CB
330
1F
100
AcDbEntity
  8
3
  6
Continuous
 62
     2
100
AcDbCircle
 10
308.924
 20
474.876
 30
0.0
 40
6.1
  0
CIRCLE
  5
1CC
330
1F
100
AcDbEntity
  8
3
  6
Continuous
 62
     2
100
AcDbCircle
 10
308.924
 20
474.876
 30
0.0
 40
6.3
  0
CIRCLE
  5
1CD
330
1F
100
AcDbEntity
  8
3
  6
Continuous
 62
     2
100
AcDbCircle
 10
878.924
 20
589.876
 30
0.0
 40
5.0
  0
LWPOLYLINE
  5
1CF
330
1F
100
AcDbEntity
  8
3
  6
Continuous
 62
     2
100
AcDbPolyline
 90
     6
 70
   129
 43
0.0
 10
881.824
 20
594.876
 10
876.024
 20
594.876
 10
873.124
 20
589.876
 10
876.024
 20
584.876
 10
881.824
 20
584.876
 10
884.724
 20
589.876
  0
CIRCLE
  5
1D0
330
1F
100
AcDbEntity
  8
3
  6
Continuous
 62
     2
100
AcDbCircle
 10
878.924
 20
589.876
 30
0.0
 40
6.1
  0
CIRCLE
  5
1D1
330
1F
100
AcDbEntity
  8
3
  6
Continuous
 62
     2
100
AcDbCircle
 10
878.924
 20
589.876
 30
0.0
 40
6.3
  0
CIRCLE
  5
1D2
330
1F
100
AcDbEntity
  8
3
  6
Continuous
 62
     2
100
AcDbCircle
 10
878.924
 20
474.876
 30
0.0
 40
5.0
  0
LWPOLYLINE
  5
1D4
330
1F
100
AcDbEntity
  8
3
  6
Continuous
 62
     2
100
AcDbPolyline
 90
     6
 70
   129
 43
0.0
 10
881.824
 20
479.876
 10
876.024
 20
479.876
 10
873.124
 20
474.876
 10
876.024
 20
469.876
 10
881.824
 20
469.876
 10
884.724
 20
474.876
  0
CIRCLE
  5
1D5
330
1F
100
AcDbEntity
  8
3
  6
Continuous
 62
     2
100
AcDbCircle
 10
878.924
 20
474.876
 30
0.0
 40
6.1
  0
CIRCLE
  5
1D6
330
1F
100
AcDbEntity
  8
3
  6
Continuous
 62
     2
100
AcDbCircle
 10
878.924
 20
474.876
 30
0.0
 40
6.3
  0
LWPOLYLINE
  5
1D8
330
1F
100
AcDbEntity
  8
3
  6
Continuous
 62
     2
100
AcDbPolyline
 90
     4
 70
   129
 43
0.0
 10
128.264
 20
523.576
 10
128.264
 20
536.176
 10
126.664
 20
536.176
 10
126.664
 20
523.576
  0
LWPOLYLINE
  5
1DA
330
1F
100
AcDbEntity
  8
3
  6
Continuous
 62
     2
100
AcDbPolyline
 90
     4
 70
   128
 43
0.0
 10
126.664
 20
535.976
 10
125.164
 20
535.976
 10
125.164
 20
523.776
 10
126.664
 20
523.776
  0
LINE
  5
1DB
330
1F
100
AcDbEntity
  8
3
  6
Continuous
 62
     2
100
AcDbLine
 10
121.664
 20
524.076
 30
0.0
 11
125.164
 21
524.076
 31
0.0
  0
LINE
  5
1DC
330
1F
100
AcDbEntity
  8
3
  6
Continuous
 62
     2
100
AcDbLine
 10
125.164
 20
535.676
 30
0.0
 11
121.664
 21
535.676
 31
0.0
  0
LINE
  5
1DD
330
1F
100
AcDbEntity
  8
3
  6
Continuous
 62
     2
100
AcDbLine
 10
125.164
 20
532.776
 30
0.0
 11
121.664
 21
532.776
 31
0.0
  0
LINE
  5
1DE
330
1F
100
AcDbEntity
  8
3
  6
Continuous
 62
     2
100
AcDbLine
 10
125.164
 20
526.976
 30
0.0
 11
121.664
 21
526.976
 31
0.0
  0
LINE
  5
1DF
330
1F
100
AcDbEntity
  8
3
  6
Continuous
 62
     2
100
AcDbLine
 10
121.164
 20
525.576
 30
0.0
 11
121.164
 21
534.176
 31
0.0
  0
ARC
  5
1E0
330
1F
100
AcDbEntity
  8
3
  6
Continuous
 62
     2
100
AcDbCircle
 10
129.864
 20
529.876
 30
0.0
 40
8.7
100
AcDbArc
 50
160.4
 51
199.6
  0
ARC
  5
1E1
330
1F
100
AcDbEntity
  8
3
  6
Continuous
 62
     2
100
AcDbCircle
 10
123.564
 20
534.276
 30
0.0
 40
2.4
100
AcDbArc
 50
143.6
 51
218.1
  0
ARC
  5
1E2
330
1F
100
AcDbEntity
  8
3
  6
Continuous
 62
     2
100
AcDbCircle
 10
123.564
 20
525.476
 30
0.0
 40
2.4
100
AcDbArc
 50
141.9
 51
216.4
  0
LINE
  5
1E3
330
1F
100
AcDbEntity
  8
3
  6
Continuous
 62
     2
100
AcDbLine
 10
125.164
 20
529.876
 30
0.0
 11
126.664
 21
530.742025404
 31
0.0
  0
LINE
  5
1E4
330
1F
100
AcDbEntity
  8
3
  6
Continuous
 62
     2
100
AcDbLine
 10
126.664
 20
529.876
 30
0.0
 11
125.164
 21
529.009974596
 31
0.0
  0
LWPOLYLINE
  5
1E6
330
1F
100
AcDbEntity
  8
3
  6
Continuous
 62
     2
100
AcDbPolyline
 90
     4
 70
   129
 43
0.0
 10
128.264
 20
468.576
 10
128.264
 20
481.176
 10
126.664
 20
481.176
 10
126.664
 20
468.576
  0
LWPOLYLINE
  5
1E8
330
1F
100
AcDbEntity
  8
3
  6
Continuous
 62
     2
100
AcDbPolyline
 90
     4
 70
   128
 43
0.0
 10
126.664
 20
480.976
 10
125.164
 20
480.976
 10
125.164
 20
468.776
 10
126.664
 20
468.776
  0
LINE
  5
1E9
330
1F
100
AcDbEntity
  8
3
  6
Continuous
 62
     2
100
AcDbLine
 10
121.664
 20
469.076
 30
0.0
 11
125.164
 21
469.076
 31
0.0
  0
LINE
  5
1EA
330
1F
100
AcDbEntity
  8
3
  6
Continuous
 62
     2
100
AcDbLine
 10
125.164
 20
480.676
 30
0.0
 11
121.664
 21
480.676
 31
0.0
  0
LINE
  5
1EB
330
1F
100
AcDbEntity
  8
3
  6
Continuous
 62
     2
100
AcDbLine
 10
125.164
 20
477.776
 30
0.0
 11
121.664
 21
477.776
 31
0.0
  0
LINE
  5
1EC
330
1F
100
AcDbEntity
  8
3
  6
Continuous
 62
     2
100
AcDbLine
 10
125.164
 20
471.976
 30
0.0
 11
121.664
 21
471.976
 31
0.0
  0
LINE
  5
1ED
330
1F
100
AcDbEntity
  8
3
  6
Continuous
 62
     2
100
AcDbLine
 10
121.164
 20
470.576
 30
0.0
 11
121.164
 21
479.176
 31
0.0
  0
ARC
  5
1EE
330
1F
100
AcDbEntity
  8
3
  6
Continuous
 62
     2
100
AcDbCircle
 10
129.864
 20
474.876
 30
0.0
 40
8.7
100
AcDbArc
 50
160.4
 51
199.6
  0
ARC
  5
1EF
330
1F
100
AcDbEntity
  8
3
  6
Continuous
 62
     2
100
AcDbCircle
 10
123.564
 20
479.276
 30
0.0
 40
2.4
100
AcDbArc
 50
143.6
 51
218.1
  0
ARC
  5
1F0
330
1F
100
AcDbEntity
  8
3
  6
Continuous
 62
     2
100
AcDbCircle
 10
123.564
 20
470.476
 30
0.0
 40
2.4
100
AcDbArc
 50
141.9
 51
216.4
  0
LINE
  5
1F1
330
1F
100
AcDbEntity
  8
3
  6
Continuous
 62
     2
100
AcDbLine
 10
125.164
 20
474.876
 30
0.0
 11
126.664
 21
475.742025404
 31
0.0
  0
LINE
  5
1F2
330
1F
100
AcDbEntity
  8
3
  6
Continuous
 62
     2
100
AcDbLine
 10
126.664
 20
474.876
 30
0.0
 11
125.164
 21
474.009974596
 31
0.0
  0
LWPOLYLINE
  5
1F4
330
1F
100
AcDbEntity
  8
3
  6
Continuous
 62
     2
100
AcDbPolyline
 90
     4
 70
   129
 43
0.0
 10
212.264
 20
481.176
 10
212.264
 20
468.576
 10
213.864
 20
468.576
 10
213.864
 20
481.176
  0
LWPOLYLINE
  5
1F6
330
1F
100
AcDbEntity
  8
3
  6
Continuous
 62
     2
100
AcDbPolyline
 90
     4
 70
   128
 43
0.0
 10
213.864
 20
468.776
 10
215.364
 20
468.776
 10
215.364
 20
480.976
 10
213.864
 20
480.976
  0
LINE
  5
1F7
330
1F
100
AcDbEntity
  8
3
  6
Continuous
 62
     2
100
AcDbLine
 10
218.864
 20
480.676
 30
0.0
 11
215.364
 21
480.676
 31
0.0
  0
LINE
  5
1F8
330
1F
100
AcDbEntity
  8
3
  6
Continuous
 62
     2
100
AcDbLine
 10
215.364
 20
469.076
 30
0.0
 11
218.864
 21
469.076
 31
0.0
  0
LINE
  5
1F9
330
1F
100
AcDbEntity
  8
3
  6
Continuous
 62
     2
100
AcDbLine
 10
215.364
 20
471.976
 30
0.0
 11
218.864
 21
471.976
 31
0.0
  0
LINE
  5
1FA
330
1F
100
AcDbEntity
  8
3
  6
Continuous
 62
     2
100
AcDbLine
 10
215.364
 20
477.776
 30
0.0
 11
218.864
 21
477.776
 31
0.0
  0
LINE
  5
1FB
330
1F
100
AcDbEntity
  8
3
  6
Continuous
 62
     2
100
AcDbLine
 10
219.364
 20
479.176
 30
0.0
 11
219.364
 21
470.576
 31
0.0
  0
ARC
  5
1FC
330
1F
100
AcDbEntity
  8
3
  6
Continuous
 62
     2
100
AcDbCircle
 10
210.664
 20
474.876
 30
0.0
 40
8.7
100
AcDbArc
 50
340.4
 51
19.6
  0
ARC
  5
1FD
330
1F
100
AcDbEntity
  8
3
  6
Continuous
 62
     2
100
AcDbCircle
 10
216.964
 20
470.476
 30
0.0
 40
2.4
100
AcDbArc
 50
323.6
 51
38.1
  0
ARC
  5
1FE
330
1F
100
AcDbEntity
  8
3
  6
Continuous
 62
     2
100
AcDbCircle
 10
216.964
 20
479.276
 30
0.0
 40
2.4
100
AcDbArc
 50
321.9
 51
36.4
  0
LINE
  5
1FF
330
1F
100
AcDbEntity
  8
3
  6
Continuous
 62
     2
100
AcDbLine
 10
215.364
 20
474.876
 30
0.0
 11
213.864
 21
474.009974596
 31
0.0
  0
LINE
  5
200
330
1F
100
AcDbEntity
  8
3
  6
Continuous
 62
     2
100
AcDbLine
 10
213.864
 20
474.876
 30
0.0
 11
215.364
 21
475.742025404
 31
0.0
  0
LWPOLYLINE
  5
202
330
1F
100
AcDbEntity
  8
3
  6
Continuous
 62
     2
100
AcDbPolyline
 90
     4
 70
   129
 43
0.0
 10
212.264
 20
536.176
 10
212.264
 20
523.576
 10
213.864
 20
523.576
 10
213.864
 20
536.176
  0
LWPOLYLINE
  5
204
330
1F
100
AcDbEntity
  8
3
  6
Continuous
 62
     2
100
AcDbPolyline
 90
     4
 70
   128
 43
0.0
 10
213.864
 20
523.776
 10
215.364
 20
523.776
 10
215.364
 20
535.976
 10
213.864
 20
535.976
  0
LINE
  5
205
330
1F
100
AcDbEntity
  8
3
  6
Continuous
 62
     2
100
AcDbLine
 10
218.864
 20
535.676
 30
0.0
 11
215.364
 21
535.676
 31
0.0
  0
LINE
  5
206
330
1F
100
AcDbEntity
  8
3
  6
Continuous
 62
     2
100
AcDbLine
 10
215.364
 20
524.076
 30
0.0
 11
218.864
 21
524.076
 31
0.0
  0
LINE
  5
207
330
1F
100
AcDbEntity
  8
3
  6
Continuous
 62
     2
100
AcDbLine
 10
215.364
 20
526.976
 30
0.0
 11
218.864
 21
526.976
 31
0.0
  0
LINE
  5
208
330
1F
100
AcDbEntity
  8
3
  6
Continuous
 62
     2
100
AcDbLine
 10
215.364
 20
532.776
 30
0.0
 11
218.864
 21
532.776
 31
0.0
  0
LINE
  5
209
330
1F
100
AcDbEntity
  8
3
  6
Continuous
 62
     2
100
AcDbLine
 10
219.364
 20
534.176
 30
0.0
 11
219.364
 21
525.576
 31
0.0
  0
ARC
  5
20A
330
1F
100
AcDbEntity
  8
3
  6
Continuous
 62
     2
100
AcDbCircle
 10
210.664
 20
529.876
 30
0.0
 40
8.7
100
AcDbArc
 50
340.4
 51
19.6
  0
ARC
  5
20B
330
1F
100
AcDbEntity
  8
3
  6
Continuous
 62
     2
100
AcDbCircle
 10
216.964
 20
525.476
 30
0.0
 40
2.4
100
AcDbArc
 50
323.6
 51
38.1
  0
ARC
  5
20C
330
1F
100
AcDbEntity
  8
3
  6
Continuous
 62
     2
100
AcDbCircle
 10
216.964
 20
534.276
 30
0.0
 40
2.4
100
AcDbArc
 50
321.9
 51
36.4
  0
LINE
  5
20D
330
1F
100
AcDbEntity
  8
3
  6
Continuous
 62
     2
100
AcDbLine
 10
215.364
 20
529.876
 30
0.0
 11
213.864
 21
529.009974596
 31
0.0
  0
LINE
  5
20E
330
1F
100
AcDbEntity
  8
3
  6
Continuous
 62
     2
100
AcDbLine
 10
213.864
 20
529.876
 30
0.0
 11
215.364
 21
530.742025404
 31
0.0
  0
CIRCLE
  5
20F
330
1F
100
AcDbEntity
  8
3
  6
Continuous
 62
     2
100
AcDbCircle
 10
170.264
 20
610.376
 30
0.0
 40
6.5
  0
LWPOLYLINE
  5
211
330
1F
100
AcDbEntity
  8
3
  6
Continuous
 62
     2
100
AcDbPolyline
 90
     6
 70
   129
 43
0.0
 10
176.764
 20
606.576
 10
176.764
 20
614.176
 10
170.264
 20
617.876
 10
163.764
 20
614.176
 10
163.764
 20
606.576
 10
170.264
 20
602.876
  0
CIRCLE
  5
212
330
1F
100
AcDbEntity
  8
3
  6
Continuous
 62
     2
100
AcDbCircle
 10
170.264
 20
610.376
 30
0.0
 40
7.7
  0
CIRCLE
  5
213
330
1F
100
AcDbEntity
  8
3
  6
Continuous
 62
     2
100
AcDbCircle
 10
170.264
 20
610.376
 30
0.0
 40
8.5
  0
LINE
  5
214
330
1F
100
AcDbEntity
  8
3
  6
Continuous
 62
     2
100
AcDbLine
 10
867.524
 20
618.876
 30
0.0
 11
865.924
 21
618.876
 31
0.0
  0
LINE
  5
215
330
1F
100
AcDbEntity
  8
3
  6
Continuous
 62
     2
100
AcDbLine
 10
869.524
 20
618.076
 30
0.0
 11
867.524
 21
618.076
 31
0.0
  0
LINE
  5
216
330
1F
100
AcDbEntity
  8
3
  6
Continuous
 62
     2
100
AcDbLine
 10
869.524
 20
617.876
 30
0.0
 11
874.124
 21
617.876
 31
0.0
  0
LINE
  5
217
330
1F
100
AcDbEntity
  8
3
  6
Continuous
 62
     2
100
AcDbLine
 10
869.524
 20
606.576
 30
0.0
 11
874.124
 21
606.576
 31
0.0
  0
LINE
  5
218
330
1F
100
AcDbEntity
  8
3
  6
Continuous
 62
     2
100
AcDbLine
 10
869.524
 20
614.176
 30
0.0
 11
874.124
 21
614.176
 31
0.0
  0
ARC
  5
219
330
1F
100
AcDbEntity
  8
3
  6
Continuous
 62
     2
100
AcDbCircle
 10
864.124
 20
610.376
 30
0.0
 40
10.7
100
AcDbArc
 50
339.1
 51
20.9
  0
ARC
  5
21A
330
1F
100
AcDbEntity
  8
3
  6
Continuous
 62
     2
100
AcDbCircle
 10
872.024
 20
616.076
 30
0.0
 40
2.8
100
AcDbArc
 50
318.5
 51
41.5
  0
LINE
  5
21B
330
1F
100
AcDbEntity
  8
3
  6
Continuous
 62
     2
100
AcDbLine
 10
869.524
 20
610.376
 30
0.0
 11
867.524
 21
609.221299462
 31
0.0
  0
LINE
  5
21C
330
1F
100
AcDbEntity
  8
3
  6
Continuous
 62
     2
100
AcDbLine
 10
867.524
 20
610.376
 30
0.0
 11
869.524
 21
611.530700538
 31
0.0
  0
LINE
  5
21D
330
1F
100
AcDbEntity
  8
3
  6
Continuous
 62
     2
100
AcDbLine
 10
321.924
 20
618.876
 30
0.0
 11
320.324
 21
618.876
 31
0.0
  0
LINE
  5
21E
330
1F
100
AcDbEntity
  8
3
  6
Continuous
 62
     2
100
AcDbLine
 10
320.324
 20
618.076
 30
0.0
 11
318.324
 21
618.076
 31
0.0
  0
LINE
  5
21F
330
1F
100
AcDbEntity
  8
3
  6
Continuous
 62
     2
100
AcDbLine
 10
318.324
 20
617.876
 30
0.0
 11
313.724
 21
617.876
 31
0.0
  0
LINE
  5
220
330
1F
100
AcDbEntity
  8
3
  6
Continuous
 62
     2
100
AcDbLine
 10
318.324
 20
614.176
 30
0.0
 11
313.724
 21
614.176
 31
0.0
  0
LINE
  5
221
330
1F
100
AcDbEntity
  8
3
  6
Continuous
 62
     2
100
AcDbLine
 10
318.324
 20
606.576
 30
0.0
 11
313.724
 21
606.576
 31
0.0
  0
ARC
  5
222
330
1F
100
AcDbEntity
  8
3
  6
Continuous
 62
     2
100
AcDbCircle
 10
315.824
 20
616.076
 30
0.0
 40
2.8
100
AcDbArc
 50
138.5
 51
221.5
  0
ARC
  5
223
330
1F
100
AcDbEntity
  8
3
  6
Continuous
 62
     2
100
AcDbCircle
 10
323.724
 20
610.376
 30
0.0
 40
10.7
100
AcDbArc
 50
159.1
 51
200.9
  0
LINE
  5
224
330
1F
100
AcDbEntity
  8
3
  6
Continuous
 62
     2
100
AcDbLine
 10
318.324
 20
610.376
 30
0.0
 11
320.324
 21
611.530700538
 31
0.0
  0
LINE
  5
225
330
1F
100
AcDbEntity
  8
3
  6
Continuous
 62
     2
100
AcDbLine
 10
320.324
 20
610.376
 30
0.0
 11
318.324
 21
609.221299462
 31
0.0
  0
LINE
  5
226
330
1F
100
AcDbEntity
  8
3
  6
Continuous
 62
     2
100
AcDbLine
 10
320.324
 20
618.876
 30
0.0
 11
320.324
 21
604.876
 31
0.0
  0
LINE
  5
227
330
1F
100
AcDbEntity
  8
3
  6
Continuous
 62
     2
100
AcDbLine
 10
318.324
 20
618.076
 30
0.0
 11
318.324
 21
604.876
 31
0.0
  0
LINE
  5
228
330
1F
100
AcDbEntity
  8
3
  6
Continuous
 62
     2
100
AcDbLine
 10
320.324
 20
604.876
 30
0.0
 11
320.324
 21
618.076
 31
0.0
  0
LINE
  5
229
330
1F
100
AcDbEntity
  8
3
  6
Continuous
 62
     2
100
AcDbLine
 10
313.024
 20
604.876
 30
0.0
 11
313.024
 21
616.076
 31
0.0
  0
ARC
  5
22A
330
1F
100
AcDbEntity
  8
3
  6
Continuous
 62
     2
100
AcDbCircle
 10
315.824
 20
604.676
 30
0.0
 40
2.8
100
AcDbArc
 50
138.5
 51
175.903956242
  0
LINE
  5
22B
330
1F
100
AcDbEntity
  8
3
  6
Continuous
 62
     2
100
AcDbLine
 10
867.524
 20
604.876
 30
0.0
 11
867.524
 21
618.876
 31
0.0
  0
LINE
  5
22C
330
1F
100
AcDbEntity
  8
3
  6
Continuous
 62
     2
100
AcDbLine
 10
869.524
 20
604.876
 30
0.0
 11
869.524
 21
618.076
 31
0.0
  0
LINE
  5
22D
330
1F
100
AcDbEntity
  8
3
  6
Continuous
 62
     2
100
AcDbLine
 10
867.524
 20
618.076
 30
0.0
 11
867.524
 21
604.876
 31
0.0
  0
LINE
  5
22E
330
1F
100
AcDbEntity
  8
3
  6
Continuous
 62
     2
100
AcDbLine
 10
874.824
 20
616.076
 30
0.0
 11
874.824
 21
604.876
 31
0.0
  0
ARC
  5
22F
330
1F
100
AcDbEntity
  8
3
  6
Continuous
 62
     2
100
AcDbCircle
 10
872.024
 20
604.676
 30
0.0
 40
2.8
100
AcDbArc
 50
4.096043758
 51
41.5
  0
LINE
  5
230
330
1F
100
AcDbEntity
  8
7
  6
Continuous
 62
     2
100
AcDbLine
 10
533.924
 20
213.726
 30
0.0
 11
533.924
 21
287.726
 31
0.0
  0
LINE
  5
231
330
1F
100
AcDbEntity
  8
7
  6
Continuous
 62
     2
100
AcDbLine
 10
533.924
 20
279.726
 30
0.0
 11
543.583258263
 21
277.137809549
 31
0.0
  0
LINE
  5
232
330
1F
100
AcDbEntity
  8
7
  6
Continuous
 62
     2
100
AcDbLine
 10
533.924
 20
279.726
 30
0.0
 11
543.583258263
 21
282.314190451
 31
0.0
  0
LWPOLYLINE
  5
234
330
1F
100
AcDbEntity
  8
7
  6
Continuous
 62
     2
100
AcDbPolyline
 90
     3
 70
   128
 43
0.0
 10
533.924
 20
279.726
 10
653.924
 20
279.726
 10
644.264741737
 20
282.314190451
  0
LINE
  5
235
330
1F
100
AcDbEntity
  8
7
  6
Continuous
 62
     2
100
AcDbLine
 10
653.924
 20
279.726
 30
0.0
 11
644.264741737
 21
277.137809549
 31
0.0
  0
LINE
  5
236
330
1F
100
AcDbEntity
  8
7
  6
Continuous
 62
     2
100
AcDbLine
 10
653.924
 20
213.726
 30
0.0
 11
653.924
 21
287.726
 31
0.0
  0
MTEXT
  5
237
330
1F
100
AcDbEntity
  8
7
  6
Continuous
 62
     2
100
AcDbMText
 10
581.924
 20
283.726
 30
0.0
 40
12.0
 41
48.0
 71
     7
 72
     1
  1
\T1.167;\W0.600;１２０
  7
KANJI8
 73
     1
 44
1.0
  0
LINE
  5
239
330
1F
100
AcDbEntity
  8
7
  6
Continuous
 62
     2
100
AcDbLine
 10
533.924
 20
279.726
 30
0.0
 11
524.264741737
 21
282.314190451
 31
0.0
  0
LINE
  5
23A
330
1F
100
AcDbEntity
  8
7
  6
Continuous
 62
     2
100
AcDbLine
 10
533.924
 20
279.726
 30
0.0
 11
524.264741737
 21
277.137809549
 31
0.0
  0
LWPOLYLINE
  5
23C
330
1F
100
AcDbEntity
  8
7
  6
Continuous
 62
     2
100
AcDbPolyline
 90
     3
 70
   128
 43
0.0
 10
533.924
 20
279.726
 10
383.924
 20
279.726
 10
393.583258263
 20
277.137809549
  0
LINE
  5
23D
330
1F
100
AcDbEntity
  8
7
  6
Continuous
 62
     2
100
AcDbLine
 10
383.924
 20
279.726
 30
0.0
 11
393.583258263
 21
282.314190451
 31
0.0
  0
LINE
  5
23E
330
1F
100
AcDbEntity
  8
7
  6
Continuous
 62
     2
100
AcDbLine
 10
383.924
 20
213.726
 30
0.0
 11
383.924
 21
287.726
 31
0.0
  0
MTEXT
  5
23F
330
1F
100
AcDbEntity
  8
7
  6
Continuous
 62
     2
100
AcDbMText
 10
446.924
 20
283.726
 30
0.0
 40
12.0
 41
48.0
 71
     7
 72
     1
  1
\T1.167;\W0.600;１５０
  7
KANJI8
 73
     1
 44
1.0
  0
LINE
  5
240
330
1F
100
AcDbEntity
  8
7
  6
Continuous
 62
     2
100
AcDbLine
 10
653.924
 20
279.726
 30
0.0
 11
663.583258263
 21
277.137809549
 31
0.0
  0
LINE
  5
241
330
1F
100
AcDbEntity
  8
7
  6
Continuous
 62
     2
100
AcDbLine
 10
653.924
 20
279.726
 30
0.0
 11
663.583258263
 21
282.314190451
 31
0.0
  0
LWPOLYLINE
  5
243
330
1F
100
AcDbEntity
  8
7
  6
Continuous
 62
     2
100
AcDbPolyline
 90
     3
 70
   128
 43
0.0
 10
653.924
 20
279.726
 10
803.924
 20
279.726
 10
794.264741737
 20
282.314190451
  0
LINE
  5
244
330
1F
100
AcDbEntity
  8
7
  6
Continuous
 62
     2
100
AcDbLine
 10
803.924
 20
279.726
 30
0.0
 11
794.264741737
 21
277.137809549
 31
0.0
  0
LINE
  5
245
330
1F
100
AcDbEntity
  8
7
  6
Continuous
 62
     2
100
AcDbLine
 10
803.924
 20
213.726
 30
0.0
 11
803.924
 21
287.726
 31
0.0
  0
MTEXT
  5
246
330
1F
100
AcDbEntity
  8
7
  6
Continuous
 62
     2
100
AcDbMText
 10
716.924
 20
283.726
 30
0.0
 40
12.0
 41
48.0
 71
     7
 72
     1
  1
\T1.167;\W0.600;１５０
  7
KANJI8
 73
     1
 44
1.0
  0
LINE
  5
247
330
1F
100
AcDbEntity
  8
7
  6
Continuous
 62
     2
100
AcDbLine
 10
593.924
 20
163.846
 30
0.0
 11
593.924
 21
147.726
 31
0.0
  0
LINE
  5
248
330
1F
100
AcDbEntity
  8
7
  6
Continuous
 62
     2
100
AcDbLine
 10
593.924
 20
155.726
 30
0.0
 11
603.583258263
 21
153.137809549
 31
0.0
  0
LINE
  5
249
330
1F
100
AcDbEntity
  8
7
  6
Continuous
 62
     2
100
AcDbLine
 10
593.924
 20
155.726
 30
0.0
 11
603.583258263
 21
158.314190451
 31
0.0
  0
LWPOLYLINE
  5
24B
330
1F
100
AcDbEntity
  8
7
  6
Continuous
 62
     2
100
AcDbPolyline
 90
     3
 70
   128
 43
0.0
 10
593.924
 20
155.726
 10
713.924
 20
155.726
 10
704.264741737
 20
158.314190451
  0
LINE
  5
24C
330
1F
100
AcDbEntity
  8
7
  6
Continuous
 62
     2
100
AcDbLine
 10
713.924
 20
155.726
 30
0.0
 11
704.264741737
 21
153.137809549
 31
0.0
  0
LINE
  5
24D
330
1F
100
AcDbEntity
  8
7
  6
Continuous
 62
     2
100
AcDbLine
 10
713.924
 20
221.726
 30
0.0
 11
713.924
 21
147.726
 31
0.0
  0
MTEXT
  5
24E
330
1F
100
AcDbEntity
  8
7
  6
Continuous
 62
     2
100
AcDbMText
 10
641.924
 20
159.726
 30
0.0
 40
12.0
 41
48.0
 71
     7
 72
     1
  1
\T1.167;\W0.600;１２０
  7
KANJI8
 73
     1
 44
1.0
  0
LINE
  5
24F
330
1F
100
AcDbEntity
  8
7
  6
Continuous
 62
     2
100
AcDbLine
 10
593.924
 20
155.726
 30
0.0
 11
584.264741737
 21
158.314190451
 31
0.0
  0
LINE
  5
250
330
1F
100
AcDbEntity
  8
7
  6
Continuous
 62
     2
100
AcDbLine
 10
593.924
 20
155.726
 30
0.0
 11
584.264741737
 21
153.137809549
 31
0.0
  0
LWPOLYLINE
  5
252
330
1F
100
AcDbEntity
  8
7
  6
Continuous
 62
     2
100
AcDbPolyline
 90
     3
 70
   128
 43
0.0
 10
593.924
 20
155.726
 10
473.924
 20
155.726
 10
483.583258263
 20
153.137809549
  0
LINE
  5
253
330
1F
100
AcDbEntity
  8
7
  6
Continuous
 62
     2
100
AcDbLine
 10
473.924
 20
155.726
 30
0.0
 11
483.583258263
 21
158.314190451
 31
0.0
  0
LINE
  5
254
330
1F
100
AcDbEntity
  8
7
  6
Continuous
 62
     2
100
AcDbLine
 10
473.924
 20
221.726
 30
0.0
 11
473.924
 21
147.726
 31
0.0
  0
MTEXT
  5
255
330
1F
100
AcDbEntity
  8
7
  6
Continuous
 62
     2
100
AcDbMText
 10
521.924
 20
159.726
 30
0.0
 40
12.0
 41
48.0
 71
     7
 72
     1
  1
\T1.167;\W0.600;１２０
  7
KANJI8
 73
     1
 44
1.0
  0
LINE
  5
256
330
1F
100
AcDbEntity
  8
7
  6
Continuous
 62
     2
100
AcDbLine
 10
473.924
 20
155.726
 30
0.0
 11
464.264741737
 21
158.314190451
 31
0.0
  0
LINE
  5
257
330
1F
100
AcDbEntity
  8
7
  6
Continuous
 62
     2
100
AcDbLine
 10
473.924
 20
155.726
 30
0.0
 11
464.264741737
 21
153.137809549
 31
0.0
  0
LWPOLYLINE
  5
259
330
1F
100
AcDbEntity
  8
7
  6
Continuous
 62
     2
100
AcDbPolyline
 90
     3
 70
   128
 43
0.0
 10
473.924
 20
155.726
 10
323.924
 20
155.726
 10
333.583258263
 20
153.137809549
  0
LINE
  5
25A
330
1F
100
AcDbEntity
  8
7
  6
Continuous
 62
     2
100
AcDbLine
 10
323.924
 20
155.726
 30
0.0
 11
333.583258263
 21
158.314190451
 31
0.0
  0
LINE
  5
25B
330
1F
100
AcDbEntity
  8
7
  6
Continuous
 62
     2
100
AcDbLine
 10
323.924
 20
221.726
 30
0.0
 11
323.924
 21
147.726
 31
0.0
  0
MTEXT
  5
25C
330
1F
100
AcDbEntity
  8
7
  6
Continuous
 62
     2
100
AcDbMText
 10
386.924
 20
159.726
 30
0.0
 40
12.0
 41
48.0
 71
     7
 72
     1
  1
\T1.167;\W0.600;１５０
  7
KANJI8
 73
     1
 44
1.0
  0
LINE
  5
25D
330
1F
100
AcDbEntity
  8
7
  6
Continuous
 62
     2
100
AcDbLine
 10
713.924
 20
155.726
 30
0.0
 11
723.583258263
 21
153.137809549
 31
0.0
  0
LINE
  5
25E
330
1F
100
AcDbEntity
  8
7
  6
Continuous
 62
     2
100
AcDbLine
 10
713.924
 20
155.726
 30
0.0
 11
723.583258263
 21
158.314190451
 31
0.0
  0
LWPOLYLINE
  5
260
330
1F
100
AcDbEntity
  8
7
  6
Continuous
 62
     2
100
AcDbPolyline
 90
     3
 70
   128
 43
0.0
 10
713.924
 20
155.726
 10
863.924
 20
155.726
 10
854.264741737
 20
158.314190451
  0
LINE
  5
261
330
1F
100
AcDbEntity
  8
7
  6
Continuous
 62
     2
100
AcDbLine
 10
863.924
 20
155.726
 30
0.0
 11
854.264741737
 21
153.137809549
 31
0.0
  0
LINE
  5
262
330
1F
100
AcDbEntity
  8
7
  6
Continuous
 62
     2
100
AcDbLine
 10
863.924
 20
221.726
 30
0.0
 11
863.924
 21
147.726
 31
0.0
  0
MTEXT
  5
263
330
1F
100
AcDbEntity
  8
7
  6
Continuous
 62
     2
100
AcDbMText
 10
776.924
 20
159.726
 30
0.0
 40
12.0
 41
48.0
 71
     7
 72
     1
  1
\T1.167;\W0.600;１５０
  7
KANJI8
 73
     1
 44
1.0
  0
LINE
  5
264
330
1F
100
AcDbEntity
  8
7
  6
Continuous
 62
     2
100
AcDbLine
 10
293.924
 20
259.726
 30
0.0
 11
293.924
 21
307.726
 31
0.0
  0
LINE
  5
265
330
1F
100
AcDbEntity
  8
7
  6
Continuous
 62
     2
100
AcDbLine
 10
293.924
 20
299.726
 30
0.0
 11
303.583258263
 21
297.137809549
 31
0.0
  0
LINE
  5
266
330
1F
100
AcDbEntity
  8
7
  6
Continuous
 62
     2
100
AcDbLine
 10
293.924
 20
299.726
 30
0.0
 11
303.583258263
 21
302.314190451
 31
0.0
  0
LWPOLYLINE
  5
268
330
1F
100
AcDbEntity
  8
7
  6
Continuous
 62
     2
100
AcDbPolyline
 90
     3
 70
   128
 43
0.0
 10
293.924
 20
299.726
 10
893.924
 20
299.726
 10
884.264741737
 20
302.314190451
  0
LINE
  5
269
330
1F
100
AcDbEntity
  8
7
  6
Continuous
 62
     2
100
AcDbLine
 10
893.924
 20
299.726
 30
0.0
 11
884.264741737
 21
297.137809549
 31
0.0
  0
LINE
  5
26A
330
1F
100
AcDbEntity
  8
7
  6
Continuous
 62
     2
100
AcDbLine
 10
893.924
 20
259.726
 30
0.0
 11
893.924
 21
307.726
 31
0.0
  0
MTEXT
  5
26B
330
1F
100
AcDbEntity
  8
7
  6
Continuous
 62
     2
100
AcDbMText
 10
581.924
 20
303.726
 30
0.0
 40
12.0
 41
48.0
 71
     7
 72
     1
  1
\T1.167;\W0.600;６００
  7
KANJI8
 73
     1
 44
1.0
  0
LINE
  5
26C
330
1F
100
AcDbEntity
  8
7
  6
Continuous
 62
     2
100
AcDbLine
 10
623.924
 20
439.876
 30
0.0
 11
621.335809549
 21
430.216741737
 31
0.0
  0
LINE
  5
26D
330
1F
100
AcDbEntity
  8
7
  6
Continuous
 62
     2
100
AcDbLine
 10
623.924
 20
439.876
 30
0.0
 11
626.512190451
 21
430.216741737
 31
0.0
  0
LWPOLYLINE
  5
26F
330
1F
100
AcDbEntity
  8
7
  6
Continuous
 62
     2
100
AcDbPolyline
 90
     3
 70
   128
 43
0.0
 10
623.924
 20
439.876
 10
623.924
 20
379.876
 10
626.512190451
 20
389.535258263
  0
LINE
  5
270
330
1F
100
AcDbEntity
  8
7
  6
Continuous
 62
     2
100
AcDbLine
 10
623.924
 20
379.876
 30
0.0
 11
621.335809549
 21
389.535258263
 31
0.0
  0
LINE
  5
271
330
1F
100
AcDbEntity
  8
7
  6
Continuous
 62
     2
100
AcDbLine
 10
597.924
 20
379.876
 30
0.0
 11
631.924
 21
379.876
 31
0.0
  0
MTEXT
  5
272
330
1F
100
AcDbEntity
  8
7
  6
Continuous
 62
     2
100
AcDbMText
 10
619.924
 20
402.076
 30
0.0
 40
12.0
 41
31.2
 71
     7
 72
     1
  1
\T1.167;\W0.600;６０
  7
KANJI8
 11
0.0
 21
1.0
 31
0.0
 73
     1
 44
1.0
  0
LINE
  5
273
330
1F
100
AcDbEntity
  8
7
  6
Continuous
 62
     2
100
AcDbLine
 10
893.924
 20
259.726
 30
0.0
 11
921.924
 21
259.726
 31
0.0
  0
LINE
  5
274
330
1F
100
AcDbEntity
  8
7
  6
Continuous
 62
     2
100
AcDbLine
 10
913.924
 20
259.726
 30
0.0
 11
911.335809549
 21
250.066741737
 31
0.0
  0
LINE
  5
275
330
1F
100
AcDbEntity
  8
7
  6
Continuous
 62
     2
100
AcDbLine
 10
913.924
 20
259.726
 30
0.0
 11
916.512190451
 21
250.066741737
 31
0.0
  0
LWPOLYLINE
  5
277
330
1F
100
AcDbEntity
  8
7
  6
Continuous
 62
     2
100
AcDbPolyline
 90
     3
 70
   128
 43
0.0
 10
913.924
 20
259.726
 10
913.924
 20
175.726
 10
916.512190451
 20
185.385258263
  0
LINE
  5
278
330
1F
100
AcDbEntity
  8
7
  6
Continuous
 62
     2
100
AcDbLine
 10
913.924
 20
175.726
 30
0.0
 11
911.335809549
 21
185.385258263
 31
0.0
  0
LINE
  5
279
330
1F
100
AcDbEntity
  8
7
  6
Continuous
 62
     2
100
AcDbLine
 10
893.924
 20
175.726
 30
0.0
 11
921.924
 21
175.726
 31
0.0
  0
MTEXT
  5
27A
330
1F
100
AcDbEntity
  8
7
  6
Continuous
 62
     2
100
AcDbMText
 10
909.924
 20
209.926
 30
0.0
 40
12.0
 41
31.2
 71
     7
 72
     1
  1
\T1.167;\W0.600;８４
  7
KANJI8
 11
0.0
 21
1.0
 31
0.0
 73
     1
 44
1.0
  0
LINE
  5
27B
330
1F
100
AcDbEntity
  8
7
  6
Continuous
 62
     2
100
AcDbLine
 10
128.264
 20
379.876
 30
0.0
 11
100.264
 21
379.876
 31
0.0
  0
LINE
  5
27C
330
1F
100
AcDbEntity
  8
7
  6
Continuous
 62
     2
100
AcDbLine
 10
108.264
 20
379.876
 30
0.0
 11
105.675809549
 21
370.216741737
 31
0.0
  0
LINE
  5
27D
330
1F
100
AcDbEntity
  8
7
  6
Continuous
 62
     2
100
AcDbLine
 10
108.264
 20
379.876
 30
0.0
 11
110.852190451
 21
370.216741737
 31
0.0
  0
LWPOLYLINE
  5
27F
330
1F
100
AcDbEntity
  8
7
  6
Continuous
 62
     2
100
AcDbPolyline
 90
     3
 70
   128
 43
0.0
 10
108.264
 20
364.876
 10
108.264
 20
379.876
 10
108.264
 20
399.876
  0
LINE
  5
280
330
1F
100
AcDbEntity
  8
7
  6
Continuous
 62
     2
100
AcDbLine
 10
174.264
 20
399.876
 30
0.0
 11
100.264
 21
399.876
 31
0.0
  0
MTEXT
  5
281
330
1F
100
AcDbEntity
  8
7
  6
Continuous
 62
     2
100
AcDbMText
 10
104.264
 20
382.076
 30
0.0
 40
12.0
 41
31.2
 71
     7
 72
     1
  1
\T1.167;\W0.600;２０
  7
KANJI8
 11
0.0
 21
1.0
 31
0.0
 73
     1
 44
1.0
  0
LINE
  5
282
330
1F
100
AcDbEntity
  8
7
  6
Continuous
 62
     2
100
AcDbLine
 10
108.264
 20
399.876
 30
0.0
 11
110.852190451
 21
409.535258263
 31
0.0
  0
LINE
  5
283
330
1F
100
AcDbEntity
  8
7
  6
Continuous
 62
     2
100
AcDbLine
 10
108.264
 20
399.876
 30
0.0
 11
105.675809549
 21
409.535258263
 31
0.0
  0
LWPOLYLINE
  5
285
330
1F
100
AcDbEntity
  8
7
  6
Continuous
 62
     2
100
AcDbPolyline
 90
     3
 70
   128
 43
0.0
 10
108.264
 20
399.876
 10
108.264
 20
519.876
 10
105.675809549
 20
510.216741737
  0
LINE
  5
286
330
1F
100
AcDbEntity
  8
7
  6
Continuous
 62
     2
100
AcDbLine
 10
108.264
 20
519.876
 30
0.0
 11
110.852190451
 21
510.216741737
 31
0.0
  0
LINE
  5
287
330
1F
100
AcDbEntity
  8
7
  6
Continuous
 62
     2
100
AcDbLine
 10
174.264
 20
519.876
 30
0.0
 11
100.264
 21
519.876
 31
0.0
  0
MTEXT
  5
288
330
1F
100
AcDbEntity
  8
7
  6
Continuous
 62
     2
100
AcDbMText
 10
104.264
 20
447.876
 30
0.0
 40
12.0
 41
48.0
 71
     7
 72
     1
  1
\T1.167;\W0.600;１２０
  7
KANJI8
 11
0.0
 21
1.0
 31
0.0
 73
     1
 44
1.0
  0
LINE
  5
289
330
1F
100
AcDbEntity
  8
7
  6
Continuous
 62
     2
100
AcDbLine
 10
212.264
 20
379.876
 30
0.0
 11
245.264
 21
379.876
 31
0.0
  0
LINE
  5
28A
330
1F
100
AcDbEntity
  8
7
  6
Continuous
 62
     2
100
AcDbLine
 10
237.264
 20
379.876
 30
0.0
 11
239.852190451
 21
389.535258263
 31
0.0
  0
LINE
  5
28B
330
1F
100
AcDbEntity
  8
7
  6
Continuous
 62
     2
100
AcDbLine
 10
237.264
 20
379.876
 30
0.0
 11
234.675809549
 21
389.535258263
 31
0.0
  0
LWPOLYLINE
  5
28D
330
1F
100
AcDbEntity
  8
7
  6
Continuous
 62
     2
100
AcDbPolyline
 90
     3
 70
   128
 43
0.0
 10
237.264
 20
379.876
 10
237.264
 20
610.376
 10
234.675809549
 20
600.716741737
  0
LINE
  5
28E
330
1F
100
AcDbEntity
  8
7
  6
Continuous
 62
     2
100
AcDbLine
 10
237.264
 20
610.376
 30
0.0
 11
239.852190451
 21
600.716741737
 31
0.0
  0
LINE
  5
28F
330
1F
100
AcDbEntity
  8
7
  6
Continuous
 62
     2
100
AcDbLine
 10
166.264
 20
610.376
 30
0.0
 11
245.264
 21
610.376
 31
0.0
  0
MTEXT
  5
290
330
1F
100
AcDbEntity
  8
7
  6
Continuous
 62
     2
100
AcDbMText
 10
233.264
 20
474.726
 30
0.0
 40
12.0
 41
81.6
 71
     7
 72
     1
  1
\T1.167;\W0.600;２３０．５
  7
KANJI8
 11
0.0
 21
1.0
 31
0.0
 73
     1
 44
1.0
  0
LINE
  5
291
330
1F
100
AcDbEntity
  8
7
  6
Continuous
 62
     2
100
AcDbLine
 10
241.264
 20
379.876
 30
0.0
 11
265.264
 21
379.876
 31
0.0
  0
LINE
  5
292
330
1F
100
AcDbEntity
  8
7
  6
Continuous
 62
     2
100
AcDbLine
 10
257.264
 20
379.876
 30
0.0
 11
259.852190451
 21
389.535258263
 31
0.0
  0
LINE
  5
293
330
1F
100
AcDbEntity
  8
7
  6
Continuous
 62
     2
100
AcDbLine
 10
257.264
 20
379.876
 30
0.0
 11
254.675809549
 21
389.535258263
 31
0.0
  0
LWPOLYLINE
  5
295
330
1F
100
AcDbEntity
  8
7
  6
Continuous
 62
     2
100
AcDbPolyline
 90
     3
 70
   128
 43
0.0
 10
257.264
 20
379.876
 10
257.264
 20
640.376
 10
254.675809549
 20
630.716741737
  0
LINE
  5
296
330
1F
100
AcDbEntity
  8
7
  6
Continuous
 62
     2
100
AcDbLine
 10
257.264
 20
640.376
 30
0.0
 11
259.852190451
 21
630.716741737
 31
0.0
  0
LINE
  5
297
330
1F
100
AcDbEntity
  8
7
  6
Continuous
 62
     2
100
AcDbLine
 10
189.263984741
 20
640.376
 30
0.0
 11
265.264
 21
640.376
 31
0.0
  0
MTEXT
  5
298
330
1F
100
AcDbEntity
  8
7
  6
Continuous
 62
     2
100
AcDbMText
 10
253.264
 20
489.726
 30
0.0
 40
12.0
 41
81.6
 71
     7
 72
     1
  1
\T1.167;\W0.600;２６０．５
  7
KANJI8
 11
0.0
 21
1.0
 31
0.0
 73
     1
 44
1.0
  0
LINE
  5
299
330
1F
100
AcDbEntity
  8
2
  6
LTYPE1
 62
     2
100
AcDbLine
 10
863.924
 20
497.376
 30
0.0
 11
323.924
 21
497.376
 31
0.0
  0
LINE
  5
29A
330
1F
100
AcDbEntity
  8
2
  6
LTYPE1
 62
     2
100
AcDbLine
 10
863.924
 20
723.376
 30
0.0
 11
323.924
 21
723.376
 31
0.0
  0
LINE
  5
29B
330
1F
100
AcDbEntity
  8
2
  6
LTYPE1
 62
     2
100
AcDbLine
 10
863.924
 20
700.295407704
 30
0.0
 11
323.924
 21
700.295407704
 31
0.0
  0
LINE
  5
29C
330
1F
100
AcDbEntity
  8
2
  6
LTYPE1
 62
     2
100
AcDbLine
 10
863.924
 20
723.376
 30
0.0
 11
863.924
 21
497.376
 31
0.0
  0
LINE
  5
29D
330
1F
100
AcDbEntity
  8
2
  6
LTYPE1
 62
     2
100
AcDbLine
 10
323.924
 20
723.376
 30
0.0
 11
323.924
 21
497.376
 31
0.0
  0
ARC
  5
29E
330
1F
100
AcDbEntity
  8
2
  6
LTYPE1
 62
     2
100
AcDbCircle
 10
82.442940844
 20
700.295407704
 30
0.0
 40
11.678940844
100
AcDbArc
 50
104.794466002
 51
189.99996314
  0
LWPOLYLINE
  5
2A1
330
1F
100
AcDbEntity
  8
2
  6
LTYPE1
 62
     2
100
AcDbPolyline
 90
     3
 70
   128
 43
0.0
 10
269.586572906
 20
698.267393726
 42
0.389910947
 10
261.067314521
 20
711.587166299
 42
0.129828224
 10
79.460695565
 20
711.587168963
 42
0.0
  0
LINE
  5
2A2
330
1F
100
AcDbEntity
  8
2
  6
LTYPE1
 62
     2
100
AcDbLine
 10
70.941428049
 20
698.267388309
 30
0.0
 11
106.364
 21
497.376
 31
0.0
  0
LINE
  5
2A3
330
1F
100
AcDbEntity
  8
2
  6
LTYPE1
 62
     2
100
AcDbLine
 10
106.364
 20
497.376
 30
0.0
 11
220.603984741
 21
497.376
 31
0.0
  0
LINE
  5
2A4
330
1F
100
AcDbEntity
  8
2
  6
LTYPE1
 62
     2
100
AcDbLine
 10
269.586572906
 20
698.267393726
 30
0.0
 11
240.409501657
 21
532.796
 31
0.0
  0
LINE
  5
2A5
330
1F
100
AcDbEntity
  8
5
  6
Continuous
 62
     1
100
AcDbLine
 10
1052.334
 20
605.376
 30
0.0
 11
1050.334
 21
605.376
 31
0.0
  0
ARC
  5
2A6
330
1F
100
AcDbEntity
  8
5
  6
Continuous
 62
     1
100
AcDbCircle
 10
1050.334
 20
605.376
 30
0.0
 40
2.0
100
AcDbArc
 50
90.0
 51
270.0
  0
LINE
  5
2A7
330
1F
100
AcDbEntity
  8
5
  6
Continuous
 62
     1
100
AcDbLine
 10
1050.334
 20
607.376
 30
0.0
 11
1050.584
 21
607.376
 31
0.0
  0
ARC
  5
2A8
330
1F
100
AcDbEntity
  8
5
  6
Continuous
 62
     1
100
AcDbCircle
 10
1050.584
 20
609.376
 30
0.0
 40
2.0
100
AcDbArc
 50
270.0
 51
0.0
  0
LINE
  5
2A9
330
1F
100
AcDbEntity
  8
5
  6
Continuous
 62
     1
100
AcDbLine
 10
1052.584
 20
615.376
 30
0.0
 11
1052.584
 21
609.376
 31
0.0
  0
LINE
  5
2AA
330
1F
100
AcDbEntity
  8
5
  6
Continuous
 62
     1
100
AcDbLine
 10
972.834
 20
605.376
 30
0.0
 11
974.834
 21
605.376
 31
0.0
  0
ARC
  5
2AB
330
1F
100
AcDbEntity
  8
5
  6
Continuous
 62
     1
100
AcDbCircle
 10
974.834
 20
605.376
 30
0.0
 40
2.0
100
AcDbArc
 50
270.0
 51
90.0
  0
LINE
  5
2AC
330
1F
100
AcDbEntity
  8
5
  6
Continuous
 62
     1
100
AcDbLine
 10
974.834
 20
607.376
 30
0.0
 11
974.584
 21
607.376
 31
0.0
  0
ARC
  5
2AD
330
1F
100
AcDbEntity
  8
5
  6
Continuous
 62
     1
100
AcDbCircle
 10
974.584
 20
609.376
 30
0.0
 40
2.0
100
AcDbArc
 50
180.0
 51
270.0
  0
LINE
  5
2AE
330
1F
100
AcDbEntity
  8
5
  6
Continuous
 62
     1
100
AcDbLine
 10
972.584
 20
615.376
 30
0.0
 11
972.584
 21
609.376
 31
0.0
  0
ARC
  5
2AF
330
1F
100
AcDbEntity
  8
5
  6
Continuous
 62
     1
100
AcDbCircle
 10
1027.584
 20
615.376
 30
0.0
 40
25.0
100
AcDbArc
 50
0.0
 51
89.999965027
  0
LINE
  5
2B0
330
1F
100
AcDbEntity
  8
5
  6
Continuous
 62
     1
100
AcDbLine
 10
997.584015259
 20
640.376
 30
0.0
 11
1027.584015259
 21
640.376
 31
0.0
  0
ARC
  5
2B1
330
1F
100
AcDbEntity
  8
5
  6
Continuous
 62
     1
100
AcDbCircle
 10
997.584
 20
615.376
 30
0.0
 40
25.0
100
AcDbArc
 50
89.999965027
 51
180.0
  0
ARC
  5
2B2
330
1F
100
AcDbEntity
  8
4
  6
Continuous
 62
     1
100
AcDbCircle
 10
974.584
 20
443.876
 30
0.0
 40
4.0
100
AcDbArc
 50
180.0
 51
270.0
  0
LINE
  5
2B3
330
1F
100
AcDbEntity
  8
4
  6
Continuous
 62
     1
100
AcDbLine
 10
974.584
 20
441.876
 30
0.0
 11
974.584
 21
439.876
 31
0.0
  0
LWPOLYLINE
  5
2B5
330
1F
100
AcDbEntity
  8
4
  6
Continuous
 62
     1
100
AcDbPolyline
 90
     3
 70
   128
 43
0.0
 10
974.584
 20
441.876
 42
0.414213562
 10
972.584
 20
443.876
 42
0.0
 10
970.584
 20
443.876
 42
0.0
  0
ARC
  5
2B6
330
1F
100
AcDbEntity
  8
4
  6
Continuous
 62
     1
100
AcDbCircle
 10
974.584
 20
443.876
 30
0.0
 40
2.0
100
AcDbArc
 50
180.0
 51
270.0
  0
ARC
  5
2B7
330
1F
100
AcDbEntity
  8
4
  6
Continuous
 62
     1
100
AcDbCircle
 10
1050.584
 20
443.876
 30
0.0
 40
4.0
100
AcDbArc
 50
270.0
 51
0.0
  0
LINE
  5
2B8
330
1F
100
AcDbEntity
  8
4
  6
Continuous
 62
     1
100
AcDbLine
 10
1050.584
 20
441.876
 30
0.0
 11
1050.584
 21
439.876
 31
0.0
  0
LWPOLYLINE
  5
2BA
330
1F
100
AcDbEntity
  8
4
  6
Continuous
 62
     1
100
AcDbPolyline
 90
     3
 70
   128
 43
0.0
 10
1050.584
 20
441.876
 42
-0.414213562
 10
1052.584
 20
443.876
 42
0.0
 10
1054.584
 20
443.876
 42
0.0
  0
ARC
  5
2BB
330
1F
100
AcDbEntity
  8
4
  6
Continuous
 62
     1
100
AcDbCircle
 10
1050.584
 20
443.876
 30
0.0
 40
2.0
100
AcDbArc
 50
270.0
 51
0.0
  0
LINE
  5
2BC
330
1F
100
AcDbEntity
  8
4
  6
Continuous
 62
     1
100
AcDbLine
 10
974.584
 20
439.876
 30
0.0
 11
1050.584
 21
439.876
 31
0.0
  0
LINE
  5
2BD
330
1F
100
AcDbEntity
  8
4
  6
LTYPE2
 62
     2
100
AcDbLine
 10
974.584
 20
441.876
 30
0.0
 11
1050.584
 21
441.876
 31
0.0
  0
LINE
  5
2BE
330
1F
100
AcDbEntity
  8
4
  6
LTYPE2
 62
     2
100
AcDbLine
 10
1052.584
 20
464.876
 30
0.0
 11
1054.584
 21
464.876
 31
0.0
  0
LINE
  5
2BF
330
1F
100
AcDbEntity
  8
4
  6
LTYPE2
 62
     2
100
AcDbLine
 10
970.584
 20
464.876
 30
0.0
 11
972.584
 21
464.876
 31
0.0
  0
CIRCLE
  5
2C0
330
1F
100
AcDbEntity
  8
4
  6
Continuous
 62
     1
100
AcDbCircle
 10
1012.584
 20
579.876
 30
0.0
 40
4.2
  0
CIRCLE
  5
2C1
330
1F
100
AcDbEntity
  8
4
  6
Continuous
 62
     1
100
AcDbCircle
 10
1012.584
 20
459.876
 30
0.0
 40
4.2
  0
LINE
  5
2C2
330
1F
100
AcDbEntity
  8
5
  6
Continuous
 62
     1
100
AcDbLine
 10
1052.334
 20
605.376
 30
0.0
 11
1052.334
 21
599.876
 31
0.0
  0
LINE
  5
2C3
330
1F
100
AcDbEntity
  8
5
  6
Continuous
 62
     1
100
AcDbLine
 10
1050.334
 20
605.376
 30
0.0
 11
1050.334
 21
599.876
 31
0.0
  0
LINE
  5
2C4
330
1F
100
AcDbEntity
  8
4
  6
LTYPE2
 62
     2
100
AcDbLine
 10
1052.584
 20
599.876
 30
0.0
 11
1052.584
 21
443.876
 31
0.0
  0
LINE
  5
2C5
330
1F
100
AcDbEntity
  8
5
  6
Continuous
 62
     1
100
AcDbLine
 10
972.834
 20
605.376
 30
0.0
 11
972.834
 21
599.876
 31
0.0
  0
LINE
  5
2C6
330
1F
100
AcDbEntity
  8
5
  6
Continuous
 62
     1
100
AcDbLine
 10
974.834
 20
605.376
 30
0.0
 11
974.834
 21
599.876
 31
0.0
  0
LINE
  5
2C7
330
1F
100
AcDbEntity
  8
4
  6
LTYPE2
 62
     2
100
AcDbLine
 10
972.584
 20
599.876
 30
0.0
 11
972.584
 21
443.876
 31
0.0
  0
ARC
  5
2C8
330
1F
100
AcDbEntity
  8
5
  6
Continuous
 62
     1
100
AcDbCircle
 10
1012.584
 20
574.876
 30
0.0
 40
20.0
100
AcDbArc
 50
62.560759849
 51
117.439240151
  0
LINE
  5
2C9
330
1F
100
AcDbEntity
  8
5
  6
LTYPE2
 62
     2
100
AcDbLine
 10
1052.334
 20
599.876
 30
0.0
 11
1052.334
 21
459.876
 31
0.0
  0
LINE
  5
2CA
330
1F
100
AcDbEntity
  8
5
  6
LTYPE2
 62
     2
100
AcDbLine
 10
1050.334
 20
599.876
 30
0.0
 11
1050.334
 21
459.876
 31
0.0
  0
LINE
  5
2CB
330
1F
100
AcDbEntity
  8
5
  6
LTYPE2
 62
     2
100
AcDbLine
 10
972.834
 20
599.876
 30
0.0
 11
972.834
 21
459.876
 31
0.0
  0
LINE
  5
2CC
330
1F
100
AcDbEntity
  8
5
  6
LTYPE2
 62
     2
100
AcDbLine
 10
974.834
 20
599.876
 30
0.0
 11
974.834
 21
459.876
 31
0.0
  0
LINE
  5
2CD
330
1F
100
AcDbEntity
  8
4
  6
Continuous
 62
     1
100
AcDbLine
 10
970.584
 20
599.876
 30
0.0
 11
995.561955469
 21
599.876
 31
0.0
  0
LINE
  5
2CE
330
1F
100
AcDbEntity
  8
4
  6
Continuous
 62
     1
100
AcDbLine
 10
970.584
 20
599.876
 30
0.0
 11
970.584
 21
443.876
 31
0.0
  0
LWPOLYLINE
  5
2D0
330
1F
100
AcDbEntity
  8
4
  6
Continuous
 62
     1
100
AcDbPolyline
 90
     3
 70
   128
 43
0.0
 10
1029.606044531
 20
599.876
 10
1054.584
 20
599.876
 10
1054.584
 20
443.876
  0
ARC
  5
2D1
330
1F
100
AcDbEntity
  8
5
  6
LTYPE2
 62
     2
100
AcDbCircle
 10
1012.584
 20
459.876
 30
0.0
 40
20.0
100
AcDbArc
 50
0.0
 51
180.0
  0
LINE
  5
2D2
330
1F
100
AcDbEntity
  8
5
  6
LTYPE2
 62
     2
100
AcDbLine
 10
972.834
 20
459.876
 30
0.0
 11
992.584
 21
459.876
 31
0.0
  0
LINE
  5
2D3
330
1F
100
AcDbEntity
  8
5
  6
LTYPE2
 62
     2
100
AcDbLine
 10
1032.584
 20
459.876
 30
0.0
 11
1052.334
 21
459.876
 31
0.0
  0
LINE
  5
2D4
330
1F
100
AcDbEntity
  8
5
  6
LTYPE2
 62
     2
100
AcDbLine
 10
992.584
 20
574.87596588
 30
0.0
 11
992.584
 21
519.875962624
 31
0.0
  0
ARC
  5
2D5
330
1F
100
AcDbEntity
  8
5
  6
LTYPE2
 62
     2
100
AcDbCircle
 10
1012.584
 20
574.876
 30
0.0
 40
20.0
100
AcDbArc
 50
117.439240151
 51
180.000097746
  0
ARC
  5
2D6
330
1F
100
AcDbEntity
  8
5
  6
LTYPE2
 62
     2
100
AcDbCircle
 10
1012.584
 20
519.876
 30
0.0
 40
20.0
100
AcDbArc
 50
180.000107075
 51
0.0
  0
LINE
  5
2D7
330
1F
100
AcDbEntity
  8
5
  6
LTYPE2
 62
     2
100
AcDbLine
 10
1032.584
 20
519.876
 30
0.0
 11
1032.584
 21
574.875978421
 31
0.0
  0
ARC
  5
2D8
330
1F
100
AcDbEntity
  8
5
  6
LTYPE2
 62
     2
100
AcDbCircle
 10
1012.584
 20
574.876
 30
0.0
 40
20.0
100
AcDbArc
 50
359.99993818
 51
62.560759849
  0
ARC
  5
2D9
330
1F
100
AcDbEntity
  8
4
  6
Continuous
 62
     1
100
AcDbCircle
 10
1012.584
 20
610.376
 30
0.0
 40
20.0
100
AcDbArc
 50
211.668243254
 51
328.331756746
  0
LWPOLYLINE
  5
2DB
330
1F
100
AcDbEntity
  8
3
  6
Continuous
 62
     2
100
AcDbPolyline
 90
     4
 70
   129
 43
0.0
 10
970.584
 20
583.576
 10
970.584
 20
596.176
 10
968.984
 20
596.176
 10
968.984
 20
583.576
  0
LWPOLYLINE
  5
2DD
330
1F
100
AcDbEntity
  8
3
  6
Continuous
 62
     2
100
AcDbPolyline
 90
     4
 70
   128
 43
0.0
 10
968.984
 20
595.976
 10
967.484
 20
595.976
 10
967.484
 20
583.776
 10
968.984
 20
583.776
  0
LINE
  5
2DE
330
1F
100
AcDbEntity
  8
3
  6
Continuous
 62
     2
100
AcDbLine
 10
963.984
 20
584.076
 30
0.0
 11
967.484
 21
584.076
 31
0.0
  0
LINE
  5
2DF
330
1F
100
AcDbEntity
  8
3
  6
Continuous
 62
     2
100
AcDbLine
 10
967.484
 20
595.676
 30
0.0
 11
963.984
 21
595.676
 31
0.0
  0
LINE
  5
2E0
330
1F
100
AcDbEntity
  8
3
  6
Continuous
 62
     2
100
AcDbLine
 10
967.484
 20
592.776
 30
0.0
 11
963.984
 21
592.776
 31
0.0
  0
LINE
  5
2E1
330
1F
100
AcDbEntity
  8
3
  6
Continuous
 62
     2
100
AcDbLine
 10
967.484
 20
586.976
 30
0.0
 11
963.984
 21
586.976
 31
0.0
  0
LINE
  5
2E2
330
1F
100
AcDbEntity
  8
3
  6
Continuous
 62
     2
100
AcDbLine
 10
963.484
 20
585.576
 30
0.0
 11
963.484
 21
594.176
 31
0.0
  0
ARC
  5
2E3
330
1F
100
AcDbEntity
  8
3
  6
Continuous
 62
     2
100
AcDbCircle
 10
972.184
 20
589.876
 30
0.0
 40
8.7
100
AcDbArc
 50
160.4
 51
199.6
  0
ARC
  5
2E4
330
1F
100
AcDbEntity
  8
3
  6
Continuous
 62
     2
100
AcDbCircle
 10
965.884
 20
594.276
 30
0.0
 40
2.4
100
AcDbArc
 50
143.6
 51
218.1
  0
ARC
  5
2E5
330
1F
100
AcDbEntity
  8
3
  6
Continuous
 62
     2
100
AcDbCircle
 10
965.884
 20
585.476
 30
0.0
 40
2.4
100
AcDbArc
 50
141.9
 51
216.4
  0
LINE
  5
2E6
330
1F
100
AcDbEntity
  8
3
  6
Continuous
 62
     2
100
AcDbLine
 10
967.484
 20
589.876
 30
0.0
 11
968.984
 21
590.742025404
 31
0.0
  0
LINE
  5
2E7
330
1F
100
AcDbEntity
  8
3
  6
Continuous
 62
     2
100
AcDbLine
 10
968.984
 20
589.876
 30
0.0
 11
967.484
 21
589.009974596
 31
0.0
  0
LWPOLYLINE
  5
2E9
330
1F
100
AcDbEntity
  8
3
  6
Continuous
 62
     2
100
AcDbPolyline
 90
     4
 70
   129
 43
0.0
 10
970.584
 20
468.576
 10
970.584
 20
481.176
 10
968.984
 20
481.176
 10
968.984
 20
468.576
  0
LWPOLYLINE
  5
2EB
330
1F
100
AcDbEntity
  8
3
  6
Continuous
 62
     2
100
AcDbPolyline
 90
     4
 70
   128
 43
0.0
 10
968.984
 20
480.976
 10
967.484
 20
480.976
 10
967.484
 20
468.776
 10
968.984
 20
468.776
  0
LINE
  5
2EC
330
1F
100
AcDbEntity
  8
3
  6
Continuous
 62
     2
100
AcDbLine
 10
963.984
 20
469.076
 30
0.0
 11
967.484
 21
469.076
 31
0.0
  0
LINE
  5
2ED
330
1F
100
AcDbEntity
  8
3
  6
Continuous
 62
     2
100
AcDbLine
 10
967.484
 20
480.676
 30
0.0
 11
963.984
 21
480.676
 31
0.0
  0
LINE
  5
2EE
330
1F
100
AcDbEntity
  8
3
  6
Continuous
 62
     2
100
AcDbLine
 10
967.484
 20
477.776
 30
0.0
 11
963.984
 21
477.776
 31
0.0
  0
LINE
  5
2EF
330
1F
100
AcDbEntity
  8
3
  6
Continuous
 62
     2
100
AcDbLine
 10
967.484
 20
471.976
 30
0.0
 11
963.984
 21
471.976
 31
0.0
  0
LINE
  5
2F0
330
1F
100
AcDbEntity
  8
3
  6
Continuous
 62
     2
100
AcDbLine
 10
963.484
 20
470.576
 30
0.0
 11
963.484
 21
479.176
 31
0.0
  0
ARC
  5
2F1
330
1F
100
AcDbEntity
  8
3
  6
Continuous
 62
     2
100
AcDbCircle
 10
972.184
 20
474.876
 30
0.0
 40
8.7
100
AcDbArc
 50
160.4
 51
199.6
  0
ARC
  5
2F2
330
1F
100
AcDbEntity
  8
3
  6
Continuous
 62
     2
100
AcDbCircle
 10
965.884
 20
479.276
 30
0.0
 40
2.4
100
AcDbArc
 50
143.6
 51
218.1
  0
ARC
  5
2F3
330
1F
100
AcDbEntity
  8
3
  6
Continuous
 62
     2
100
AcDbCircle
 10
965.884
 20
470.476
 30
0.0
 40
2.4
100
AcDbArc
 50
141.9
 51
216.4
  0
LINE
  5
2F4
330
1F
100
AcDbEntity
  8
3
  6
Continuous
 62
     2
100
AcDbLine
 10
967.484
 20
474.876
 30
0.0
 11
968.984
 21
475.742025404
 31
0.0
  0
LINE
  5
2F5
330
1F
100
AcDbEntity
  8
3
  6
Continuous
 62
     2
100
AcDbLine
 10
968.984
 20
474.876
 30
0.0
 11
967.484
 21
474.009974596
 31
0.0
  0
LWPOLYLINE
  5
2F7
330
1F
100
AcDbEntity
  8
3
  6
Continuous
 62
     2
100
AcDbPolyline
 90
     4
 70
   129
 43
0.0
 10
1054.584
 20
596.176
 10
1054.584
 20
583.576
 10
1056.184
 20
583.576
 10
1056.184
 20
596.176
  0
LWPOLYLINE
  5
2F9
330
1F
100
AcDbEntity
  8
3
  6
Continuous
 62
     2
100
AcDbPolyline
 90
     4
 70
   128
 43
0.0
 10
1056.184
 20
583.776
 10
1057.684
 20
583.776
 10
1057.684
 20
595.976
 10
1056.184
 20
595.976
  0
LINE
  5
2FA
330
1F
100
AcDbEntity
  8
3
  6
Continuous
 62
     2
100
AcDbLine
 10
1061.184
 20
595.676
 30
0.0
 11
1057.684
 21
595.676
 31
0.0
  0
LINE
  5
2FB
330
1F
100
AcDbEntity
  8
3
  6
Continuous
 62
     2
100
AcDbLine
 10
1057.684
 20
584.076
 30
0.0
 11
1061.184
 21
584.076
 31
0.0
  0
LINE
  5
2FC
330
1F
100
AcDbEntity
  8
3
  6
Continuous
 62
     2
100
AcDbLine
 10
1057.684
 20
586.976
 30
0.0
 11
1061.184
 21
586.976
 31
0.0
  0
LINE
  5
2FD
330
1F
100
AcDbEntity
  8
3
  6
Continuous
 62
     2
100
AcDbLine
 10
1057.684
 20
592.776
 30
0.0
 11
1061.184
 21
592.776
 31
0.0
  0
LINE
  5
2FE
330
1F
100
AcDbEntity
  8
3
  6
Continuous
 62
     2
100
AcDbLine
 10
1061.684
 20
594.176
 30
0.0
 11
1061.684
 21
585.576
 31
0.0
  0
ARC
  5
2FF
330
1F
100
AcDbEntity
  8
3
  6
Continuous
 62
     2
100
AcDbCircle
 10
1052.984
 20
589.876
 30
0.0
 40
8.7
100
AcDbArc
 50
340.4
 51
19.6
  0
ARC
  5
300
330
1F
100
AcDbEntity
  8
3
  6
Continuous
 62
     2
100
AcDbCircle
 10
1059.284
 20
585.476
 30
0.0
 40
2.4
100
AcDbArc
 50
323.6
 51
38.1
  0
ARC
  5
301
330
1F
100
AcDbEntity
  8
3
  6
Continuous
 62
     2
100
AcDbCircle
 10
1059.284
 20
594.276
 30
0.0
 40
2.4
100
AcDbArc
 50
321.9
 51
36.4
  0
LINE
  5
302
330
1F
100
AcDbEntity
  8
3
  6
Continuous
 62
     2
100
AcDbLine
 10
1057.684
 20
589.876
 30
0.0
 11
1056.184
 21
589.009974596
 31
0.0
  0
LINE
  5
303
330
1F
100
AcDbEntity
  8
3
  6
Continuous
 62
     2
100
AcDbLine
 10
1056.184
 20
589.876
 30
0.0
 11
1057.684
 21
590.742025404
 31
0.0
  0
LWPOLYLINE
  5
305
330
1F
100
AcDbEntity
  8
3
  6
Continuous
 62
     2
100
AcDbPolyline
 90
     4
 70
   129
 43
0.0
 10
1054.584
 20
481.176
 10
1054.584
 20
468.576
 10
1056.184
 20
468.576
 10
1056.184
 20
481.176
  0
LWPOLYLINE
  5
307
330
1F
100
AcDbEntity
  8
3
  6
Continuous
 62
     2
100
AcDbPolyline
 90
     4
 70
   128
 43
0.0
 10
1056.184
 20
468.776
 10
1057.684
 20
468.776
 10
1057.684
 20
480.976
 10
1056.184
 20
480.976
  0
LINE
  5
308
330
1F
100
AcDbEntity
  8
3
  6
Continuous
 62
     2
100
AcDbLine
 10
1061.184
 20
480.676
 30
0.0
 11
1057.684
 21
480.676
 31
0.0
  0
LINE
  5
309
330
1F
100
AcDbEntity
  8
3
  6
Continuous
 62
     2
100
AcDbLine
 10
1057.684
 20
469.076
 30
0.0
 11
1061.184
 21
469.076
 31
0.0
  0
LINE
  5
30A
330
1F
100
AcDbEntity
  8
3
  6
Continuous
 62
     2
100
AcDbLine
 10
1057.684
 20
471.976
 30
0.0
 11
1061.184
 21
471.976
 31
0.0
  0
LINE
  5
30B
330
1F
100
AcDbEntity
  8
3
  6
Continuous
 62
     2
100
AcDbLine
 10
1057.684
 20
477.776
 30
0.0
 11
1061.184
 21
477.776
 31
0.0
  0
LINE
  5
30C
330
1F
100
AcDbEntity
  8
3
  6
Continuous
 62
     2
100
AcDbLine
 10
1061.684
 20
479.176
 30
0.0
 11
1061.684
 21
470.576
 31
0.0
  0
ARC
  5
30D
330
1F
100
AcDbEntity
  8
3
  6
Continuous
 62
     2
100
AcDbCircle
 10
1052.984
 20
474.876
 30
0.0
 40
8.7
100
AcDbArc
 50
340.4
 51
19.6
  0
ARC
  5
30E
330
1F
100
AcDbEntity
  8
3
  6
Continuous
 62
     2
100
AcDbCircle
 10
1059.284
 20
470.476
 30
0.0
 40
2.4
100
AcDbArc
 50
323.6
 51
38.1
  0
ARC
  5
30F
330
1F
100
AcDbEntity
  8
3
  6
Continuous
 62
     2
100
AcDbCircle
 10
1059.284
 20
479.276
 30
0.0
 40
2.4
100
AcDbArc
 50
321.9
 51
36.4
  0
LINE
  5
310
330
1F
100
AcDbEntity
  8
3
  6
Continuous
 62
     2
100
AcDbLine
 10
1057.684
 20
474.876
 30
0.0
 11
1056.184
 21
474.009974596
 31
0.0
  0
LINE
  5
311
330
1F
100
AcDbEntity
  8
3
  6
Continuous
 62
     2
100
AcDbLine
 10
1056.184
 20
474.876
 30
0.0
 11
1057.684
 21
475.742025404
 31
0.0
  0
CIRCLE
  5
312
330
1F
100
AcDbEntity
  8
3
  6
Continuous
 62
     2
100
AcDbCircle
 10
1012.584
 20
610.376
 30
0.0
 40
6.5
  0
LWPOLYLINE
  5
314
330
1F
100
AcDbEntity
  8
3
  6
Continuous
 62
     2
100
AcDbPolyline
 90
     6
 70
   129
 43
0.0
 10
1019.084
 20
606.576
 10
1019.084
 20
614.176
 10
1012.584
 20
617.876
 10
1006.084
 20
614.176
 10
1006.084
 20
606.576
 10
1012.584
 20
602.876
  0
CIRCLE
  5
315
330
1F
100
AcDbEntity
  8
3
  6
Continuous
 62
     2
100
AcDbCircle
 10
1012.584
 20
610.376
 30
0.0
 40
7.7
  0
CIRCLE
  5
316
330
1F
100
AcDbEntity
  8
3
  6
Continuous
 62
     2
100
AcDbCircle
 10
1012.584
 20
610.376
 30
0.0
 40
8.5
  0
LINE
  5
317
330
1F
100
AcDbEntity
  8
7
  6
Continuous
 62
     2
100
AcDbLine
 10
970.584
 20
439.876
 30
0.0
 11
942.584
 21
439.876
 31
0.0
  0
LINE
  5
318
330
1F
100
AcDbEntity
  8
7
  6
Continuous
 62
     2
100
AcDbLine
 10
950.584
 20
439.876
 30
0.0
 11
947.995809549
 21
430.216741737
 31
0.0
  0
LINE
  5
319
330
1F
100
AcDbEntity
  8
7
  6
Continuous
 62
     2
100
AcDbLine
 10
950.584
 20
439.876
 30
0.0
 11
953.172190451
 21
430.216741737
 31
0.0
  0
LWPOLYLINE
  5
31B
330
1F
100
AcDbEntity
  8
7
  6
Continuous
 62
     2
100
AcDbPolyline
 90
     3
 70
   128
 43
0.0
 10
950.584
 20
424.876
 10
950.584
 20
439.876
 10
950.584
 20
459.876
  0
LINE
  5
31C
330
1F
100
AcDbEntity
  8
7
  6
Continuous
 62
     2
100
AcDbLine
 10
1016.584
 20
459.876
 30
0.0
 11
942.584
 21
459.876
 31
0.0
  0
MTEXT
  5
31D
330
1F
100
AcDbEntity
  8
7
  6
Continuous
 62
     2
100
AcDbMText
 10
946.584
 20
442.076
 30
0.0
 40
12.0
 41
31.2
 71
     7
 72
     1
  1
\T1.167;\W0.600;２０
  7
KANJI8
 11
0.0
 21
1.0
 31
0.0
 73
     1
 44
1.0
  0
LINE
  5
31E
330
1F
100
AcDbEntity
  8
7
  6
Continuous
 62
     2
100
AcDbLine
 10
950.584
 20
459.876
 30
0.0
 11
953.172190451
 21
469.535258263
 31
0.0
  0
LINE
  5
31F
330
1F
100
AcDbEntity
  8
7
  6
Continuous
 62
     2
100
AcDbLine
 10
950.584
 20
459.876
 30
0.0
 11
947.995809549
 21
469.535258263
 31
0.0
  0
LWPOLYLINE
  5
321
330
1F
100
AcDbEntity
  8
7
  6
Continuous
 62
     2
100
AcDbPolyline
 90
     3
 70
   128
 43
0.0
 10
950.584
 20
459.876
 10
950.584
 20
579.876
 10
947.995809549
 20
570.216741737
  0
LINE
  5
322
330
1F
100
AcDbEntity
  8
7
  6
Continuous
 62
     2
100
AcDbLine
 10
950.584
 20
579.876
 30
0.0
 11
953.172190451
 21
570.216741737
 31
0.0
  0
LINE
  5
323
330
1F
100
AcDbEntity
  8
7
  6
Continuous
 62
     2
100
AcDbLine
 10
1016.584
 20
579.876
 30
0.0
 11
942.584
 21
579.876
 31
0.0
  0
MTEXT
  5
324
330
1F
100
AcDbEntity
  8
7
  6
Continuous
 62
     2
100
AcDbMText
 10
946.584
 20
507.876
 30
0.0
 40
12.0
 41
48.0
 71
     7
 72
     1
  1
\T1.167;\W0.600;１２０
  7
KANJI8
 11
0.0
 21
1.0
 31
0.0
 73
     1
 44
1.0
  0
LINE
  5
325
330
1F
100
AcDbEntity
  8
7
  6
Continuous
 62
     2
100
AcDbLine
 10
1054.584
 20
439.876
 30
0.0
 11
1087.584
 21
439.876
 31
0.0
  0
LINE
  5
326
330
1F
100
AcDbEntity
  8
7
  6
Continuous
 62
     2
100
AcDbLine
 10
1079.584
 20
439.876
 30
0.0
 11
1082.172190451
 21
449.535258263
 31
0.0
  0
LINE
  5
327
330
1F
100
AcDbEntity
  8
7
  6
Continuous
 62
     2
100
AcDbLine
 10
1079.584
 20
439.876
 30
0.0
 11
1076.995809549
 21
449.535258263
 31
0.0
  0
LWPOLYLINE
  5
329
330
1F
100
AcDbEntity
  8
7
  6
Continuous
 62
     2
100
AcDbPolyline
 90
     3
 70
   128
 43
0.0
 10
1079.584
 20
439.876
 10
1079.584
 20
610.376
 10
1076.995809549
 20
600.716741737
  0
LINE
  5
32A
330
1F
100
AcDbEntity
  8
7
  6
Continuous
 62
     2
100
AcDbLine
 10
1079.584
 20
610.376
 30
0.0
 11
1082.172190451
 21
600.716741737
 31
0.0
  0
LINE
  5
32B
330
1F
100
AcDbEntity
  8
7
  6
Continuous
 62
     2
100
AcDbLine
 10
1008.584
 20
610.376
 30
0.0
 11
1087.584
 21
610.376
 31
0.0
  0
MTEXT
  5
32C
330
1F
100
AcDbEntity
  8
7
  6
Continuous
 62
     2
100
AcDbMText
 10
1075.584
 20
504.726
 30
0.0
 40
12.0
 41
81.6
 71
     7
 72
     1
  1
\T1.167;\W0.600;１７０．５
  7
KANJI8
 11
0.0
 21
1.0
 31
0.0
 73
     1
 44
1.0
  0
LINE
  5
32D
330
1F
100
AcDbEntity
  8
7
  6
Continuous
 62
     2
100
AcDbLine
 10
1083.584
 20
439.876
 30
0.0
 11
1107.584
 21
439.876
 31
0.0
  0
LINE
  5
32E
330
1F
100
AcDbEntity
  8
7
  6
Continuous
 62
     2
100
AcDbLine
 10
1099.584
 20
439.876
 30
0.0
 11
1102.172190451
 21
449.535258263
 31
0.0
  0
LINE
  5
32F
330
1F
100
AcDbEntity
  8
7
  6
Continuous
 62
     2
100
AcDbLine
 10
1099.584
 20
439.876
 30
0.0
 11
1096.995809549
 21
449.535258263
 31
0.0
  0
LWPOLYLINE
  5
331
330
1F
100
AcDbEntity
  8
7
  6
Continuous
 62
     2
100
AcDbPolyline
 90
     3
 70
   128
 43
0.0
 10
1099.584
 20
439.876
 10
1099.584
 20
640.376
 10
1096.995809549
 20
630.716741737
  0
LINE
  5
332
330
1F
100
AcDbEntity
  8
7
  6
Continuous
 62
     2
100
AcDbLine
 10
1099.584
 20
640.376
 30
0.0
 11
1102.172190451
 21
630.716741737
 31
0.0
  0
LINE
  5
333
330
1F
100
AcDbEntity
  8
7
  6
Continuous
 62
     2
100
AcDbLine
 10
1031.58401526
 20
640.376
 30
0.0
 11
1107.584
 21
640.376
 31
0.0
  0
MTEXT
  5
334
330
1F
100
AcDbEntity
  8
7
  6
Continuous
 62
     2
100
AcDbMText
 10
1095.584
 20
519.726
 30
0.0
 40
12.0
 41
81.6
 71
     7
 72
     1
  1
\T1.167;\W0.600;２００．５
  7
KANJI8
 11
0.0
 21
1.0
 31
0.0
 73
     1
 44
1.0
  0
LINE
  5
335
330
1F
100
AcDbEntity
  8
2
  6
LTYPE1
 62
     2
100
AcDbLine
 10
1076.484
 20
497.376
 30
0.0
 11
948.684
 21
497.376
 31
0.0
  0
ARC
  5
336
330
1F
100
AcDbEntity
  8
2
  6
LTYPE1
 62
     2
100
AcDbCircle
 10
1100.405059156
 20
700.295407704
 30
0.0
 40
11.678940844
100
AcDbArc
 50
350.00003686
 51
75.205533998
  0
LWPOLYLINE
  5
339
330
1F
100
AcDbEntity
  8
2
  6
LTYPE1
 62
     2
100
AcDbPolyline
 90
     3
 70
   128
 43
0.0
 10
913.261427094
 20
698.267393726
 42
-0.389910947
 10
921.780685479
 20
711.587166299
 42
-0.129828224
 10
1103.387304435
 20
711.587168963
 42
0.0
  0
LINE
  5
33A
330
1F
100
AcDbEntity
  8
2
  6
LTYPE1
 62
     2
100
AcDbLine
 10
913.261427094
 20
698.267393726
 30
0.0
 11
948.684
 21
497.376
 31
0.0
  0
LINE
  5
33B
330
1F
100
AcDbEntity
  8
2
  6
LTYPE1
 62
     2
100
AcDbLine
 10
1077.623072295
 20
503.836
 30
0.0
 11
1076.484
 21
497.376
 31
0.0
  0
LINE
  5
33C
330
1F
100
AcDbEntity
  8
2
  6
LTYPE1
 62
     2
100
AcDbLine
 10
1111.906571951
 20
698.267388309
 30
0.0
 11
1088.105711298
 21
563.286
 31
0.0
  0
ARC
  5
33D
330
1F
100
AcDbEntity
  8
4
  6
LTYPE1
 62
     2
100
AcDbCircle
 10
1012.584
 20
610.376
 30
0.0
 40
150.0
100
AcDbArc
 50
229.947593689
 51
312.523383179
  0
LINE
  5
33E
330
1F
100
AcDbEntity
  8
7
  6
Continuous
 62
     2
100
AcDbLine
 10
467.904
 20
209.026
 30
0.0
 11
461.424810158
 21
201.408907445
 31
0.0
  0
LINE
  5
33F
330
1F
100
AcDbEntity
  8
7
  6
Continuous
 62
     2
100
AcDbLine
 10
467.904
 20
209.026
 30
0.0
 11
466.101403278
 21
199.189809423
 31
0.0
  0
LWPOLYLINE
  5
341
330
1F
100
AcDbEntity
  8
7
  6
Continuous
 62
     2
100
AcDbPolyline
 90
     3
 70
   128
 43
0.0
 10
467.904
 20
209.026
 10
428.064
 20
125.066
 10
384.264
 20
125.066
  0
MTEXT
  5
342
330
1F
100
AcDbEntity
  8
7
  6
Continuous
 62
     2
100
AcDbMText
 10
384.264
 20
129.066
 30
0.0
 40
12.0
 41
87.6
 71
     7
 72
     1
  1
\T1.111;\W0.557;８－φ８．４
  7
KANJI9
 73
     1
 44
1.0
  0
LINE
  5
344
330
1F
100
AcDbEntity
  8
7
  6
Continuous
 62
     2
100
AcDbLine
 10
1010.524
 20
453.906
 30
0.0
 11
1005.21799465
 21
445.429779897
 31
0.0
  0
LINE
  5
345
330
1F
100
AcDbEntity
  8
7
  6
Continuous
 62
     2
100
AcDbLine
 10
1010.524
 20
453.906
 30
0.0
 11
1010.166974626
 21
443.912375388
 31
0.0
  0
LWPOLYLINE
  5
347
330
1F
100
AcDbEntity
  8
7
  6
Continuous
 62
     2
100
AcDbPolyline
 90
     3
 70
   128
 43
0.0
 10
1010.524
 20
453.906
 10
995.494
 20
404.886
 10
951.694
 20
404.886
  0
MTEXT
  5
348
330
1F
100
AcDbEntity
  8
7
  6
Continuous
 62
     2
100
AcDbMText
 10
951.694
 20
408.886
 30
0.0
 40
12.0
 41
87.6
 71
     7
 72
     1
  1
\T1.111;\W0.557;２－φ８．４
  7
KANJI9
 73
     1
 44
1.0
  0
MTEXT
  5
349
330
1F
100
AcDbEntity
  8
0
  6
Continuous
 62
     2
100
AcDbMText
 10
965.333333333
 20
175.466666667
 30
0.0
 40
12.0
 41
159.6
 71
     7
 72
     1
  1
\T1.111;\W0.672;ＡＣＵ２６　全体図
  7
KANJI3
 73
     1
 44
1.0
  0
MTEXT
  5
34A
330
1F
100
AcDbEntity
  8
0
  6
Continuous
 62
     2
100
AcDbMText
 10
965.333333333
 20
151.466666667
 30
0.0
 40
12.0
 41
63.6
 71
     7
 72
     1
  1
\T1.111;\W0.900;ＡＣＵ２６
  7
KANJI5
 73
     1
 44
1.0
  0
MTEXT
  5
34B
330
1F
100
AcDbEntity
  8
0
  6
Continuous
 62
     2
100
AcDbMText
 10
965.333333333
 20
31.466666667
 30
0.0
 40
12.0
 41
284.4
 71
     7
 72
     1
  1
\T1.111;\W0.671;ＡＣＵ２６　ＡＣ２６用ブラケット
  7
KANJI3
 73
     1
 44
1.0
  0
MTEXT
  5
34C
330
1F
100
AcDbEntity
  8
0
  6
Continuous
 62
     2
100
AcDbMText
 10
785.333333333
 20
31.466666667
 30
0.0
 40
12.0
 41
116.4
 71
     7
 72
     1
  1
\T1.111;\W0.900;ＡＣＵ２６－０００
  7
KANJI5
 73
     1
 44
1.0
  0
LINE
  5
34D
330
1F
100
AcDbEntity
  8
3
  6
LTYPE3
 62
     2
100
AcDbLine
 10
293.924
 20
217.726
 30
0.0
 11
893.924
 21
217.726
 31
0.0
  0
ENDSEC
  0
SECTION
  2
OBJECTS
  0
DICTIONARY
  5
C
330
0
100
AcDbDictionary
280
     0
281
     1
  3
ACAD_GROUP
350
D
  3
ACAD_LAYOUT
350
1A
  3
ACAD_MLINESTYLE
350
17
  3
ACAD_PLOTSETTINGS
350
19
  3
ACAD_PLOTSTYLENAME
350
E
  0
DICTIONARY
  5
D
102
{ACAD_REACTORS
330
C
102
}
330
C
100
AcDbDictionary
280
     0
281
     1
  0
DICTIONARY
  5
1A
102
{ACAD_REACTORS
330
C
102
}
330
C
100
AcDbDictionary
280
     0
281
     1
  3
Model
350
22
  3
ﾚｲｱｳﾄ1
350
1E
  3
ﾚｲｱｳﾄ2
350
26
  0
LAYOUT
  5
22
102
{ACAD_REACTORS
330
1A
102
}
330
1A
100
AcDbPlotSettings
  1

  2

  4

  6

 40
0.0
 41
0.0
 42
0.0
 43
0.0
 44
0.0
 45
0.0
 46
0.0
 47
0.0
 48
0.0
 49
0.0
140
0.0
141
0.0
142
1.0
143
1.0
 70
  1712
 72
     0
 73
     0
 74
     0
  7

 75
     0
147
1.0
148
0.0
149
0.0
100
AcDbLayout
  1
Model
 70
     1
 71
     0
 10
0.0
 20
0.0
 11
0.0
 21
0.0
 12
0.0
 22
0.0
 32
0.0
 14
0.0
 24
0.0
 34
0.0
 15
0.0
 25
0.0
 35
0.0
146
0.0
 13
0.0
 23
0.0
 33
0.0
 16
1.0
 26
0.0
 36
0.0
 17
0.0
 27
1.0
 37
0.0
 76
     0
330
1F
331
0
345
0
346
0
  0
LAYOUT
  5
1E
102
{ACAD_REACTORS
330
1A
102
}
330
1A
100
AcDbPlotSettings
  1

  2

  4

  6

 40
0.0
 41
0.0
 42
0.0
 43
0.0
 44
0.0
 45
0.0
 46
0.0
 47
0.0
 48
0.0
 49
0.0
140
0.0
141
0.0
142
1.0
143
1.0
 70
   688
 72
     0
 73
     0
 74
     5
  7

 75
    16
147
1.0
148
0.0
149
0.0
100
AcDbLayout
  1
ﾚｲｱｳﾄ1
 70
     1
 71
     1
 10
0.0
 20
0.0
 11
0.0
 21
0.0
 12
0.0
 22
0.0
 32
0.0
 14
0.0
 24
0.0
 34
0.0
 15
0.0
 25
0.0
 35
0.0
146
0.0
 13
0.0
 23
0.0
 33
0.0
 16
1.0
 26
0.0
 36
0.0
 17
0.0
 27
1.0
 37
0.0
 76
     0
330
1B
331
0
345
0
346
0
  0
LAYOUT
  5
26
102
{ACAD_REACTORS
330
1A
102
}
330
1A
100
AcDbPlotSettings
  1

  2

  4

  6

 40
0.0
 41
0.0
 42
0.0
 43
0.0
 44
0.0
 45
0.0
 46
0.0
 47
0.0
 48
0.0
 49
0.0
140
0.0
141
0.0
142
1.0
143
1.0
 70
   688
 72
     0
 73
     0
 74
     5
  7

 75
    16
147
1.0
148
0.0
149
0.0
100
AcDbLayout
  1
ﾚｲｱｳﾄ2
 70
     1
 71
     2
 10
0.0
 20
0.0
 11
0.0
 21
0.0
 12
0.0
 22
0.0
 32
0.0
 14
0.0
 24
0.0
 34
0.0
 15
0.0
 25
0.0
 35
0.0
146
0.0
 13
0.0
 23
0.0
 33
0.0
 16
1.0
 26
0.0
 36
0.0
 17
0.0
 27
1.0
 37
0.0
 76
     0
330
23
331
0
345
0
346
0
  0
DICTIONARY
  5
17
102
{ACAD_REACTORS
330
C
102
}
330
C
100
AcDbDictionary
280
     0
281
     1
  3
Standard
350
18
  0
MLINESTYLE
  5
18
102
{ACAD_REACTORS
330
17
102
}
330
17
100
AcDbMlineStyle
  2
STANDARD
 70
     0
  3

 62
   256
 51
90.0
 52
90.0
 71
     2
 49
0.5
 62
   256
  6
ByLayer
 49
-0.5
 62
   256
  6
ByLayer
  0
DICTIONARY
  5
19
102
{ACAD_REACTORS
330
C
102
}
330
C
100
AcDbDictionary
280
     0
281
     1
  0
ACDBDICTIONARYWDFLT
  5
E
330
C
100
AcDbDictionary
281
     0
  3
Normal
350
F
100
AcDbDictionaryWithDefault
340
F
  0
ACDBPLACEHOLDER
  5
F
102
{ACAD_REACTORS
330
E
102
}
330
E
  0
ENDSEC
  0
EOF
