  0
SECTION
  2
HEADER
  9
$ACADVER
  1
AC1015
  9
$ACADMAINTVER
 70
    20
  9
$DWGCODEPAGE
  3
ANSI_932
  9
$INSBASE
 10
0.0
 20
0.0
 30
0.0
  9
$EXTMIN
 10
-1800.109854854471
 20
-2702.173850527444
 30
-0.0015258207003583
  9
$EXTMAX
 10
2176.131740423469
 20
2650.163015010163
 30
0.0000000349246037
  9
$LIMMIN
 10
0.0
 20
0.0
  9
$LIMMAX
 10
0.0
 20
0.0
  9
$ORTHOMODE
 70
     0
  9
$REGENMODE
 70
     1
  9
$FILLMODE
 70
     1
  9
$QTEXTMODE
 70
     0
  9
$MIRRTEXT
 70
     1
  9
$LTSCALE
 40
101.6
  9
$ATTMODE
 70
     1
  9
$TEXTSIZE
 40
0.0
  9
$TRACEWID
 40
1.0
  9
$TEXTSTYLE
  7
STANDARD
  9
$CLAYER
  8
DATA
  9
$CELTYPE
  6
ByLayer
  9
$CECOLOR
 62
   256
  9
$CELTSCALE
 40
1.0
  9
$DISPSILH
 70
     0
  9
$DIMSCALE
 40
1.0
  9
$DIMASZ
 40
0.18
  9
$DIMEXO
 40
0.0625
  9
$DIMDLI
 40
0.38
  9
$DIMRND
 40
0.0
  9
$DIMDLE
 40
0.0
  9
$DIMEXE
 40
0.18
  9
$DIMTP
 40
0.0
  9
$DIMTM
 40
0.0
  9
$DIMTXT
 40
0.18
  9
$DIMCEN
 40
0.09
  9
$DIMTSZ
 40
0.0
  9
$DIMTOL
 70
     0
  9
$DIMLIM
 70
     0
  9
$DIMTIH
 70
     1
  9
$DIMTOH
 70
     1
  9
$DIMSE1
 70
     0
  9
$DIMSE2
 70
     0
  9
$DIMTAD
 70
     0
  9
$DIMZIN
 70
     0
  9
$DIMBLK
  1

  9
$DIMASO
 70
     1
  9
$DIMSHO
 70
     1
  9
$DIMPOST
  1

  9
$DIMAPOST
  1

  9
$DIMALT
 70
     0
  9
$DIMALTD
 70
     2
  9
$DIMALTF
 40
25.4
  9
$DIMLFAC
 40
1.0
  9
$DIMTOFL
 70
     0
  9
$DIMTVP
 40
0.0
  9
$DIMTIX
 70
     0
  9
$DIMSOXD
 70
     0
  9
$DIMSAH
 70
     0
  9
$DIMBLK1
  1

  9
$DIMBLK2
  1

  9
$DIMSTYLE
  2
STANDARD
  9
$DIMCLRD
 70
     0
  9
$DIMCLRE
 70
     0
  9
$DIMCLRT
 70
     0
  9
$DIMTFAC
 40
1.0
  9
$DIMGAP
 40
0.09
  9
$DIMJUST
 70
     0
  9
$DIMSD1
 70
     0
  9
$DIMSD2
 70
     0
  9
$DIMTOLJ
 70
     1
  9
$DIMTZIN
 70
     0
  9
$DIMALTZ
 70
     0
  9
$DIMALTTZ
 70
     0
  9
$DIMUPT
 70
     0
  9
$DIMDEC
 70
     4
  9
$DIMTDEC
 70
     4
  9
$DIMALTU
 70
     2
  9
$DIMALTTD
 70
     2
  9
$DIMTXSTY
  7
STANDARD
  9
$DIMAUNIT
 70
     0
  9
$DIMADEC
 70
     0
  9
$DIMALTRND
 40
0.0
  9
$DIMAZIN
 70
     0
  9
$DIMDSEP
 70
    46
  9
$DIMATFIT
 70
     3
  9
$DIMFRAC
 70
     0
  9
$DIMLDRBLK
  1

  9
$DIMLUNIT
 70
     2
  9
$DIMLWD
 70
    -2
  9
$DIMLWE
 70
    -2
  9
$DIMTMOVE
 70
     0
  9
$LUNITS
 70
     2
  9
$LUPREC
 70
     4
  9
$SKETCHINC
 40
0.1
  9
$FILLETRAD
 40
0.0
  9
$AUNITS
 70
     0
  9
$AUPREC
 70
     0
  9
$MENU
  1
acad
  9
$ELEVATION
 40
0.0
  9
$PELEVATION
 40
0.0
  9
$THICKNESS
 40
0.0
  9
$LIMCHECK
 70
     0
  9
$CHAMFERA
 40
0.0
  9
$CHAMFERB
 40
0.0
  9
$CHAMFERC
 40
0.0
  9
$CHAMFERD
 40
0.0
  9
$SKPOLY
 70
     0
  9
$TDCREATE
 40
2457812.433298611
  9
$TDUCREATE
 40
2457812.058298611
  9
$TDUPDATE
 40
2457812.454212963
  9
$TDUUPDATE
 40
2457812.079212963
  9
$TDINDWG
 40
0.0004050926
  9
$TDUSRTIMER
 40
0.0004050926
  9
$USRTIMER
 70
     1
  9
$ANGBASE
 50
0.0
  9
$ANGDIR
 70
     0
  9
$PDMODE
 70
     1
  9
$PDSIZE
 40
-2.0
  9
$PLINEWID
 40
0.0
  9
$SPLFRAME
 70
     0
  9
$SPLINETYPE
 70
     6
  9
$SPLINESEGS
 70
     8
  9
$HANDSEED
  5
4E2
  9
$SURFTAB1
 70
     6
  9
$SURFTAB2
 70
     6
  9
$SURFTYPE
 70
     6
  9
$SURFU
 70
     6
  9
$SURFV
 70
     6
  9
$UCSBASE
  2

  9
$UCSNAME
  2

  9
$UCSORG
 10
0.0
 20
0.0
 30
0.0
  9
$UCSXDIR
 10
1.0
 20
0.0
 30
0.0
  9
$UCSYDIR
 10
0.0
 20
1.0
 30
0.0
  9
$UCSORTHOREF
  2

  9
$UCSORTHOVIEW
 70
     0
  9
$UCSORGTOP
 10
0.0
 20
0.0
 30
0.0
  9
$UCSORGBOTTOM
 10
0.0
 20
0.0
 30
0.0
  9
$UCSORGLEFT
 10
0.0
 20
0.0
 30
0.0
  9
$UCSORGRIGHT
 10
0.0
 20
0.0
 30
0.0
  9
$UCSORGFRONT
 10
0.0
 20
0.0
 30
0.0
  9
$UCSORGBACK
 10
0.0
 20
0.0
 30
0.0
  9
$PUCSBASE
  2

  9
$PUCSNAME
  2

  9
$PUCSORG
 10
0.0
 20
0.0
 30
0.0
  9
$PUCSXDIR
 10
1.0
 20
0.0
 30
0.0
  9
$PUCSYDIR
 10
0.0
 20
1.0
 30
0.0
  9
$PUCSORTHOREF
  2

  9
$PUCSORTHOVIEW
 70
     0
  9
$PUCSORGTOP
 10
0.0
 20
0.0
 30
0.0
  9
$PUCSORGBOTTOM
 10
0.0
 20
0.0
 30
0.0
  9
$PUCSORGLEFT
 10
0.0
 20
0.0
 30
0.0
  9
$PUCSORGRIGHT
 10
0.0
 20
0.0
 30
0.0
  9
$PUCSORGFRONT
 10
0.0
 20
0.0
 30
0.0
  9
$PUCSORGBACK
 10
0.0
 20
0.0
 30
0.0
  9
$USERI1
 70
     0
  9
$USERI2
 70
     0
  9
$USERI3
 70
     0
  9
$USERI4
 70
     0
  9
$USERI5
 70
     0
  9
$USERR1
 40
0.0
  9
$USERR2
 40
0.0
  9
$USERR3
 40
0.0
  9
$USERR4
 40
0.0
  9
$USERR5
 40
0.0
  9
$WORLDVIEW
 70
     1
  9
$SHADEDGE
 70
     3
  9
$SHADEDIF
 70
    70
  9
$TILEMODE
 70
     1
  9
$MAXACTVP
 70
    64
  9
$PINSBASE
 10
0.0
 20
0.0
 30
0.0
  9
$PLIMCHECK
 70
     0
  9
$PEXTMIN
 10
1.000000000000000E+20
 20
1.000000000000000E+20
 30
1.000000000000000E+20
  9
$PEXTMAX
 10
-1.000000000000000E+20
 20
-1.000000000000000E+20
 30
-1.000000000000000E+20
  9
$PLIMMIN
 10
0.0
 20
0.0
  9
$PLIMMAX
 10
12.0
 20
9.0
  9
$UNITMODE
 70
     0
  9
$VISRETAIN
 70
     0
  9
$PLINEGEN
 70
     1
  9
$PSLTSCALE
 70
     0
  9
$TREEDEPTH
 70
  3020
  9
$CMLSTYLE
  2
Standard
  9
$CMLJUST
 70
     0
  9
$CMLSCALE
 40
1.0
  9
$PROXYGRAPHICS
 70
     1
  9
$MEASUREMENT
 70
     0
  9
$CELWEIGHT
370
    -1
  9
$ENDCAPS
280
     0
  9
$JOINSTYLE
280
     0
  9
$LWDISPLAY
290
     0
  9
$INSUNITS
 70
     0
  9
$HYPERLINKBASE
  1

  9
$STYLESHEET
  1

  9
$XEDIT
290
     1
  9
$CEPSNTYPE
380
     0
  9
$PSTYLEMODE
290
     1
  9
$FINGERPRINTGUID
  2
{DDD1343A-946F-D54A-8817-506F10541AE1}
  9
$VERSIONGUID
  2
{8F4FB85E-BE48-8648-8447-39001039EA24}
  9
$EXTNAMES
290
     1
  9
$PSVPSCALE
 40
0.0
  9
$OLESTARTUP
290
     0
  0
ENDSEC
  0
SECTION
  2
CLASSES
  0
CLASS
  1
ACDBDICTIONARYWDFLT
  2
AcDbDictionaryWithDefault
  3
ObjectDBX Classes
 90
        0
280
     0
281
     0
  0
CLASS
  1
MATERIAL
  2
AcDbMaterial
  3
ObjectDBX Classes
 90
     1153
280
     0
281
     0
  0
CLASS
  1
VISUALSTYLE
  2
AcDbVisualStyle
  3
ObjectDBX Classes
 90
     4095
280
     0
281
     0
  0
CLASS
  1
SCALE
  2
AcDbScale
  3
ObjectDBX Classes
 90
     1153
280
     0
281
     0
  0
CLASS
  1
TABLESTYLE
  2
AcDbTableStyle
  3
ObjectDBX Classes
 90
     4095
280
     0
281
     0
  0
CLASS
  1
MLEADERSTYLE
  2
AcDbMLeaderStyle
  3
ACDB_MLEADERSTYLE_CLASS
 90
     4095
280
     0
281
     0
  0
CLASS
  1
ACDBSECTIONVIEWSTYLE
  2
AcDbSectionViewStyle
  3
ObjectDBX Classes
 90
     1025
280
     0
281
     0
  0
CLASS
  1
ACDBDETAILVIEWSTYLE
  2
AcDbDetailViewStyle
  3
ObjectDBX Classes
 90
     1025
280
     0
281
     0
  0
CLASS
  1
DICTIONARYVAR
  2
AcDbDictionaryVar
  3
ObjectDBX Classes
 90
        0
280
     0
281
     0
  0
CLASS
  1
CELLSTYLEMAP
  2
AcDbCellStyleMap
  3
ObjectDBX Classes
 90
     1152
280
     0
281
     0
  0
CLASS
  1
ACDBPLACEHOLDER
  2
AcDbPlaceHolder
  3
ObjectDBX Classes
 90
        0
280
     0
281
     0
  0
CLASS
  1
LAYOUT
  2
AcDbLayout
  3
ObjectDBX Classes
 90
        0
280
     0
281
     0
  0
ENDSEC
  0
SECTION
  2
TABLES
  0
TABLE
  2
VPORT
  5
40A
330
0
100
AcDbSymbolTable
 70
     1
  0
VPORT
  5
476
330
40A
100
AcDbSymbolTableRecord
100
AcDbViewportTableRecord
  2
*ACTIVE
 70
     0
 10
0.0
 20
0.0
 11
1.0
 21
1.0
 12
0.0000083819031715
 22
-20.63628762711414
 13
0.0
 23
0.0
 14
1.0
 24
1.0
 15
0.0
 25
0.0
 16
0.0
 26
0.0
 36
1.0
 17
0.0
 27
0.0
 37
0.0
 40
5371.329209756602
 41
2.358402971216341
 42
50.0
 43
0.0
 44
0.0
 50
0.0
 51
0.0
 71
     0
 72
  2000
 73
     1
 74
     1
 75
     0
 76
     0
 77
     0
 78
     0
281
     0
 65
     1
110
0.0
120
0.0
130
0.0
111
1.0
121
0.0
131
0.0
112
0.0
122
1.0
132
0.0
 79
     0
146
0.0
1001
ACAD_NAV_VCDISPLAY
1070
     3
  0
ENDTAB
  0
TABLE
  2
LTYPE
  5
407
330
0
100
AcDbSymbolTable
 70
    13
  0
LTYPE
  5
45C
330
407
100
AcDbSymbolTableRecord
100
AcDbLinetypeTableRecord
  2
ByBlock
 70
     0
  3

 72
    65
 73
     0
 40
0.0
  0
LTYPE
  5
45D
330
407
100
AcDbSymbolTableRecord
100
AcDbLinetypeTableRecord
  2
ByLayer
 70
     0
  3

 72
    65
 73
     0
 40
0.0
  0
LTYPE
  5
45E
330
407
100
AcDbSymbolTableRecord
100
AcDbLinetypeTableRecord
  2
CONTINUOUS
 70
     0
  3
Solid line
 72
    65
 73
     0
 40
0.0
  0
LTYPE
  5
477
330
407
100
AcDbSymbolTableRecord
100
AcDbLinetypeTableRecord
  2
STYLE_01
 70
     0
  3

 72
    65
 73
     2
 40
0.4166412353515625
 49
0.208282470703125
 74
     0
 49
-0.2083587646484375
 74
     0
  0
LTYPE
  5
47C
330
407
100
AcDbSymbolTableRecord
100
AcDbLinetypeTableRecord
  2
STYLE_06
 70
     0
  3

 72
    65
 73
     4
 40
1.041641235351562
 49
0.625
 74
     0
 49
-0.208282470703125
 74
     0
 49
0.069427490234375
 74
     0
 49
-0.1389312744140625
 74
     0
  0
ENDTAB
  0
TABLE
  2
LAYER
  5
404
330
0
100
AcDbSymbolTable
 70
     5
  0
LAYER
  5
456
102
{ACAD_XDICTIONARY
360
48C
102
}
330
404
100
AcDbSymbolTableRecord
100
AcDbLayerTableRecord
  2
0
 70
     0
 62
     7
  6
CONTINUOUS
370
    -3
390
411
  0
LAYER
  5
475
102
{ACAD_XDICTIONARY
360
48E
102
}
330
404
100
AcDbSymbolTableRecord
100
AcDbLayerTableRecord
  2
DATA
 70
     0
 62
     7
  6
CONTINUOUS
370
    -3
390
411
  0
LAYER
  5
483
102
{ACAD_XDICTIONARY
360
490
102
}
330
404
100
AcDbSymbolTableRecord
100
AcDbLayerTableRecord
  2
HIBINO-BASE
 70
     0
 62
     7
  6
CONTINUOUS
370
    -3
390
411
  0
LAYER
  5
484
102
{ACAD_XDICTIONARY
360
492
102
}
330
404
100
AcDbSymbolTableRecord
100
AcDbLayerTableRecord
  2
SPEC
 70
     0
 62
     7
  6
CONTINUOUS
370
    -3
390
411
  0
LAYER
  5
485
102
{ACAD_XDICTIONARY
360
494
102
}
330
404
100
AcDbSymbolTableRecord
100
AcDbLayerTableRecord
  2
DIMNSIONS
 70
     0
 62
     7
  6
CONTINUOUS
370
    -3
390
411
  0
ENDTAB
  0
TABLE
  2
STYLE
  5
405
330
0
100
AcDbSymbolTable
 70
     3
  0
STYLE
  5
457
330
405
100
AcDbSymbolTableRecord
100
AcDbTextStyleTableRecord
  2
STANDARD
 70
     0
 40
0.0
 41
1.0
 50
0.0
 71
     0
 42
0.0
  3
txt
  4
BIGFONT.SHX
  0
ENDTAB
  0
TABLE
  2
VIEW
  5
408
330
0
100
AcDbSymbolTable
 70
     0
  0
ENDTAB
  0
TABLE
  2
UCS
  5
409
330
0
100
AcDbSymbolTable
 70
     0
  0
ENDTAB
  0
TABLE
  2
APPID
  5
40B
330
0
100
AcDbSymbolTable
 70
     4
  0
APPID
  5
458
330
40B
100
AcDbSymbolTableRecord
100
AcDbRegAppTableRecord
  2
ACAD
 70
     0
  0
APPID
  5
45F
330
40B
100
AcDbSymbolTableRecord
100
AcDbRegAppTableRecord
  2
AcadAnnotative
 70
     0
  0
APPID
  5
4A0
330
40B
100
AcDbSymbolTableRecord
100
AcDbRegAppTableRecord
  2
ACAD_NAV_VCDISPLAY
 70
     0
  0
APPID
  5
4D9
330
40B
100
AcDbSymbolTableRecord
100
AcDbRegAppTableRecord
  2
ACAD_MLEADERVER
 70
     0
  0
ENDTAB
  0
TABLE
  2
DIMSTYLE
  5
40C
330
0
100
AcDbSymbolTable
 70
     2
100
AcDbDimStyleTable
 71
     0
  0
DIMSTYLE
105
459
330
40C
100
AcDbSymbolTableRecord
100
AcDbDimStyleTableRecord
  2
STANDARD
 70
     0
279
     2
340
457
  0
ENDTAB
  0
TABLE
  2
BLOCK_RECORD
  5
403
330
0
100
AcDbSymbolTable
 70
     0
  0
BLOCK_RECORD
  5
471
330
403
100
AcDbSymbolTableRecord
100
AcDbBlockTableRecord
  2
*Model_Space
340
474
  0
BLOCK_RECORD
  5
46D
330
403
100
AcDbSymbolTableRecord
100
AcDbBlockTableRecord
  2
*Paper_Space
340
470
  0
ENDTAB
  0
ENDSEC
  0
SECTION
  2
BLOCKS
  0
BLOCK
  5
472
330
471
100
AcDbEntity
  8
0
100
AcDbBlockBegin
  2
*Model_Space
 70
     0
 10
0.0
 20
0.0
 30
0.0
  3
*Model_Space
  1

  0
ENDBLK
  5
473
330
471
100
AcDbEntity
  8
0
100
AcDbBlockEnd
  0
BLOCK
  5
46E
330
46D
100
AcDbEntity
 67
     1
  8
0
100
AcDbBlockBegin
  2
*Paper_Space
 70
     0
 10
0.0
 20
0.0
 30
0.0
  3
*Paper_Space
  1

  0
ENDBLK
  5
46F
330
46D
100
AcDbEntity
 67
     1
  8
0
100
AcDbBlockEnd
  0
ENDSEC
  0
SECTION
  2
ENTITIES
  0
LINE
  5
2E
330
471
100
AcDbEntity
  8
HIBINO-BASE
  6
Continuous
 62
     7
100
AcDbLine
 10
-1799.999999954999
 20
2649.999999870001
 30
0.0
 11
1799.999999954999
 21
2649.999999870001
 31
0.0
  0
LINE
  5
2F
330
471
100
AcDbEntity
  8
HIBINO-BASE
  6
Continuous
 62
     7
100
AcDbLine
 10
1799.999999954999
 20
-2550.0
 30
0.0
 11
-1799.999999954999
 21
-2550.0
 31
0.0
  0
LINE
  5
30
330
471
100
AcDbEntity
  8
HIBINO-BASE
  6
Continuous
 62
     7
100
AcDbLine
 10
-1799.999999954999
 20
-2550.0
 30
0.0
 11
-1799.999999954999
 21
2649.999999870001
 31
0.0
  0
LINE
  5
31
330
471
100
AcDbEntity
  8
HIBINO-BASE
  6
Continuous
 62
     7
100
AcDbLine
 10
1799.999999954999
 20
2649.999999870001
 30
0.0
 11
1799.999999954999
 21
-2550.0
 31
0.0
  0
LINE
  5
32
330
471
100
AcDbEntity
  8
HIBINO-BASE
  6
Continuous
 62
     7
100
AcDbLine
 10
0.0000000000001421
 20
-2100.00000001125
 30
0.0
 11
1799.999999954999
 21
-2100.00000001125
 31
0.0
  0
LINE
  5
33
330
471
100
AcDbEntity
  8
HIBINO-BASE
  6
Continuous
 62
     7
100
AcDbLine
 10
0.0000000000001421
 20
-2550.0
 30
0.0
 11
0.0000000000001421
 21
-2100.00000001125
 31
0.0
  0
TEXT
  5
34
330
471
100
AcDbEntity
  8
HIBINO-BASE
 62
     7
100
AcDbText
 10
17.99999999955025
 20
-2150.173866676662
 30
0.0
 40
32.57682291585224
  1
NOTE
 41
0.7
 11
17.99999999955025
 21
-2117.59704376081
 31
0.0
100
AcDbText
 73
     3
  0
LINE
  5
35
330
471
100
AcDbEntity
  8
HIBINO-BASE
  6
Continuous
 62
     7
100
AcDbLine
 10
699.9999999825003
 20
-2550.0
 30
0.0
 11
699.9999999825003
 21
-2100.00000001125
 31
0.0
  0
TEXT
  5
36
330
471
100
AcDbEntity
  8
HIBINO-BASE
 62
     7
100
AcDbText
 10
717.9999999820499
 20
-2150.173866676662
 30
0.0
 40
32.57682291585224
  1
TITLE
 41
0.7
 11
717.9999999820499
 21
-2117.59704376081
 31
0.0
100
AcDbText
 73
     3
  0
LINE
  5
37
330
471
100
AcDbEntity
  8
HIBINO-BASE
  6
Continuous
 62
     7
100
AcDbLine
 10
0.0000000000001421
 20
-2350.000000005
 30
0.0
 11
1799.999999954999
 21
-2350.000000005
 31
0.0
  0
TEXT
  5
38
330
471
100
AcDbEntity
  8
HIBINO-BASE
 62
     7
100
AcDbText
 10
967.9999999757997
 20
-2399.04746667044
 30
0.0
 40
32.57682291585224
  1
DRAWN
 41
0.7
 11
967.9999999757997
 21
-2366.470643754588
 31
0.0
100
AcDbText
 73
     3
  0
TEXT
  5
39
330
471
100
AcDbEntity
  8
HIBINO-BASE
 62
     7
100
AcDbText
 10
467.9999999883
 20
-2399.04746667044
 30
0.0
 40
32.57682291585224
  1
DATE
 41
0.7
 11
467.9999999883
 21
-2366.470643754588
 31
0.0
100
AcDbText
 73
     3
  0
TEXT
  5
3A
330
471
100
AcDbEntity
  8
HIBINO-BASE
 62
     7
100
AcDbText
 10
267.9999999932999
 20
-2399.04746667044
 30
0.0
 40
32.57682291585224
  1
SCALE
 41
0.7
 11
267.9999999932999
 21
-2366.470643754588
 31
0.0
100
AcDbText
 73
     3
  0
TEXT
  5
3B
330
471
100
AcDbEntity
  8
HIBINO-BASE
 62
     7
100
AcDbText
 10
717.9999999820499
 20
-2399.04746667044
 30
0.0
 40
32.57682291585224
  1
DESIGN
 41
0.7
 11
717.9999999820499
 21
-2366.470643754588
 31
0.0
100
AcDbText
 73
     3
  0
TEXT
  5
3C
330
471
100
AcDbEntity
  8
HIBINO-BASE
 62
     7
100
AcDbText
 10
1467.999999963299
 20
-2399.04746667044
 30
0.0
 40
32.57682291585224
  1
DRAWING NO.
 41
0.7
 11
1467.999999963299
 21
-2366.470643754588
 31
0.0
100
AcDbText
 73
     3
  0
TEXT
  5
3D
330
471
100
AcDbEntity
  8
HIBINO-BASE
 62
     7
100
AcDbText
 10
1217.99999996955
 20
-2399.04746667044
 30
0.0
 40
32.57682291585224
  1
CHECK
 41
0.7
 11
1217.99999996955
 21
-2366.470643754588
 31
0.0
100
AcDbText
 73
     3
  0
LINE
  5
3E
330
471
100
AcDbEntity
  8
HIBINO-BASE
  6
Continuous
 62
     7
100
AcDbLine
 10
287.4999999928126
 20
-2525.000000000625
 30
0.0
 11
362.499999990938
 21
-2450.0000000025
 31
0.0
  0
TEXT
  5
3F
330
471
100
AcDbEntity
  8
HIBINO-BASE
 62
     7
100
AcDbText
 10
274.9999999931251
 20
-2472.178866668612
 30
0.0
 40
32.57682291585224
  1
1
 41
0.7
 11
274.9999999931251
 21
-2439.60204375276
 31
0.0
100
AcDbText
 73
     3
  0
LINE
  5
40
330
471
100
AcDbEntity
  8
HIBINO-BASE
  6
Continuous
 62
     7
100
AcDbLine
 10
249.9999999937501
 20
-2550.0
 30
0.0
 11
249.9999999937501
 21
-2350.000000005
 31
0.0
  0
LINE
  5
41
330
471
100
AcDbEntity
  8
HIBINO-BASE
  6
Continuous
 62
     7
100
AcDbLine
 10
449.9999999887497
 20
-2550.0
 30
0.0
 11
449.9999999887497
 21
-2350.000000005
 31
0.0
  0
LINE
  5
42
330
471
100
AcDbEntity
  8
HIBINO-BASE
  6
Continuous
 62
     7
100
AcDbLine
 10
949.9999999762497
 20
-2350.000000005
 30
0.0
 11
949.9999999762497
 21
-2550.0
 31
0.0
  0
LINE
  5
43
330
471
100
AcDbEntity
  8
HIBINO-BASE
  6
Continuous
 62
     7
100
AcDbLine
 10
1449.99999996375
 20
-2350.000000005
 30
0.0
 11
1449.99999996375
 21
-2550.0
 31
0.0
  0
LINE
  5
44
330
471
100
AcDbEntity
  8
HIBINO-BASE
  6
Continuous
 62
     7
100
AcDbLine
 10
1199.999999969999
 20
-2550.0
 30
0.0
 11
1199.999999969999
 21
-2350.000000005
 31
0.0
  0
TEXT
  5
45
330
471
100
AcDbEntity
  8
HIBINO-BASE
 62
     7
100
AcDbText
 10
467.130799988322
 20
-2492.727066668097
 30
0.0
 40
32.57682291585224
  1
'17.01.
 41
0.7
 11
467.130799988322
 21
-2460.150243752245
 31
0.0
100
AcDbText
 73
     3
  0
TEXT
  5
46
330
471
100
AcDbEntity
  8
HIBINO-BASE
 62
     7
100
AcDbText
 10
349.9999999912501
 20
-2509.678866667675
 30
0.0
 40
32.57682291585224
  1
20
 41
0.7
 11
349.9999999912501
 21
-2477.102043751822
 31
0.0
100
AcDbText
 73
     3
  0
TEXT
  5
47
330
471
100
AcDbEntity
  8
HIBINO-BASE
 62
     7
100
AcDbText
 10
980.1162001961895
 20
-2492.727066668097
 30
0.0
 40
32.57682291585224
  1
N.Sasaki
 41
0.7
 11
980.1162001961895
 21
-2460.150243752245
 31
0.0
100
AcDbText
 73
     3
  0
TEXT
  5
48
330
471
100
AcDbEntity
  8
HIBINO-BASE
 62
     7
100
AcDbText
 10
77.66666666472556
 20
-2510.480000000988
 30
0.0
 40
65.15364583170448
  1
A4
 41
0.7
 11
77.66666666472556
 21
-2445.326354169283
 31
0.0
100
AcDbText
 73
     3
  0
TEXT
  5
49
330
471
100
AcDbEntity
  8
HIBINO-BASE
 62
     7
100
AcDbText
 10
19.16666666618754
 20
-2402.389100003689
 30
0.0
 40
32.57682291585224
  1
PAPER SIZE
 41
0.7
 11
19.16666666618754
 21
-2369.812277087837
 31
0.0
100
AcDbText
 73
     3
  0
TEXT
  5
4A
330
471
100
AcDbEntity
  8
HIBINO-BASE
 62
     7
100
AcDbText
 10
-1656.319999958591
 20
-2678.173555996795
 30
0.0
 40
72.00088359194997
  1
Hibino Corporation
 41
0.7
 11
-1656.319999958591
 21
-2606.172672404845
 31
0.0
100
AcDbText
 73
     3
  0
TEXT
  5
4B
330
471
100
AcDbEntity
  8
HIBINO-BASE
 62
     7
100
AcDbText
 10
1001.367799974966
 20
-2678.173555996795
 30
0.0
 40
72.00088359194997
  1
ヒビノ株式会社
 41
0.7
 11
1001.367799974966
 21
-2606.172672404845
 31
0.0
100
AcDbText
 73
     3
  0
LINE
  5
4C
330
471
100
AcDbEntity
  8
SPEC
  6
Continuous
 62
     7
100
AcDbLine
 10
-1649.999999958749
 20
2449.999999875
 30
0.0
 11
1350.0
 21
2449.999999875001
 31
0.0
  0
LINE
  5
4D
330
471
100
AcDbEntity
  8
SPEC
  6
Continuous
 62
     7
100
AcDbLine
 10
-1649.999999958749
 20
2374.999999876875
 30
0.0
 11
1350.0
 21
2374.999999876876
 31
0.0
  0
LINE
  5
4E
330
471
100
AcDbEntity
  8
SPEC
  6
Continuous
 62
     7
100
AcDbLine
 10
-1649.999999958749
 20
2449.999999875
 30
0.0
 11
-1649.999999958749
 21
799.9999999162503
 31
0.0
  0
TEXT
  5
4F
330
471
100
AcDbEntity
  8
SPEC
 62
     7
100
AcDbText
 10
-1624.999999959374
 20
2477.865399874302
 30
0.0
 40
48.86523437377837
  1
仕様
 41
0.7
 11
-1624.999999959374
 21
2526.730634248081
 31
0.0
100
AcDbText
 73
     3
  0
LINE
  5
50
330
471
100
AcDbEntity
  8
SPEC
  6
Continuous
 62
     7
100
AcDbLine
 10
-850.0
 20
2449.999999875
 30
0.0
 11
-850.0
 21
799.9999999162503
 31
0.0
  0
LINE
  5
51
330
471
100
AcDbEntity
  8
SPEC
  6
Continuous
 62
     7
100
AcDbLine
 10
1350.000000045
 20
2449.999999870001
 30
0.0
 11
1350.000000045
 21
799.9999999112504
 31
0.0
  0
LINE
  5
52
330
471
100
AcDbEntity
  8
SPEC
  6
Continuous
 62
     7
100
AcDbLine
 10
-1649.999999958749
 20
2149.9999998825
 30
0.0
 11
1350.0
 21
2149.999999882501
 31
0.0
  0
LINE
  5
53
330
471
100
AcDbEntity
  8
SPEC
  6
Continuous
 62
     7
100
AcDbLine
 10
-1250.0
 20
2074.999999884375
 30
0.0
 11
1350.0
 21
2074.999999884376
 31
0.0
  0
LINE
  5
54
330
471
100
AcDbEntity
  8
SPEC
  6
Continuous
 62
     7
100
AcDbLine
 10
-1649.999999958749
 20
1924.999999888125
 30
0.0
 11
1350.0
 21
1924.999999888125
 31
0.0
  0
LINE
  5
55
330
471
100
AcDbEntity
  8
SPEC
  6
Continuous
 62
     7
100
AcDbLine
 10
-1250.0
 20
1849.99999989
 30
0.0
 11
1350.0
 21
1849.999999890001
 31
0.0
  0
LINE
  5
56
330
471
100
AcDbEntity
  8
SPEC
  6
Continuous
 62
     7
100
AcDbLine
 10
-1649.999999958749
 20
1699.99999989375
 30
0.0
 11
1350.0
 21
1699.99999989375
 31
0.0
  0
LINE
  5
57
330
471
100
AcDbEntity
  8
SPEC
  6
Continuous
 62
     7
100
AcDbLine
 10
-1250.0
 20
1624.999999895625
 30
0.0
 11
1350.0
 21
1624.999999895626
 31
0.0
  0
TEXT
  5
58
330
471
100
AcDbEntity
  8
SPEC
 62
     7
100
AcDbText
 10
-1631.9999999592
 20
2315.758355432849
 30
0.0
 40
38.00629340277778
  1
周波数レンジ(-10dB)
 41
0.7
 11
-1631.9999999592
 21
2353.764648835626
 31
0.0
100
AcDbText
 73
     3
  0
TEXT
  5
59
330
471
100
AcDbEntity
  8
SPEC
 62
     7
100
AcDbText
 10
-1631.9999999592
 20
2240.758355434725
 30
0.0
 40
38.00629340277778
  1
カバレージ角(水平×垂直)
 41
0.7
 11
-1631.9999999592
 21
2278.764648837503
 31
0.0
100
AcDbText
 73
     3
  0
TEXT
  5
5A
330
471
100
AcDbEntity
  8
SPEC
 62
     7
100
AcDbText
 10
-1631.9999999592
 20
2090.758355438475
 30
0.0
 40
38.00629340277778
  1
許容入力
 41
0.7
 11
-1631.9999999592
 21
2128.764648841253
 31
0.0
100
AcDbText
 73
     3
  0
TEXT
  5
5B
330
471
100
AcDbEntity
  8
SPEC
 62
     7
100
AcDbText
 10
-1232.00000000045
 20
2090.758355438474
 30
0.0
 40
38.00629340277778
  1
パッシブ
 41
0.7
 11
-1232.00000000045
 21
2128.764648841252
 31
0.0
100
AcDbText
 73
     3
  0
LINE
  5
5C
330
471
100
AcDbEntity
  8
SPEC
  6
Continuous
 62
     7
100
AcDbLine
 10
-1250.0
 20
2149.9999998825
 30
0.0
 11
-1250.0
 21
1324.999999903125
 31
0.0
  0
TEXT
  5
5D
330
471
100
AcDbEntity
  8
SPEC
 62
     7
100
AcDbText
 10
-30.67647677951362
 20
2089.535208737703
 30
0.0
 40
38.00629340277778
  1
750W(2h)※2、600W(100h)※1
 41
0.7
 72
     1
 11
250.0
 21
2108.538355439092
 31
0.0
100
AcDbText
 73
     2
  0
LINE
  5
5E
330
471
100
AcDbEntity
  8
SPEC
  6
Continuous
 62
     7
100
AcDbLine
 10
-1649.999999958749
 20
2299.999999878748
 30
0.0
 11
1350.0
 21
2299.999999878749
 31
0.0
  0
TEXT
  5
5F
330
471
100
AcDbEntity
  8
SPEC
 62
     7
100
AcDbText
 10
120.9686338975694
 20
2314.535208732078
 30
0.0
 40
38.00629340277778
  1
34Hz～20kHz
 41
0.7
 72
     1
 11
250.0
 21
2333.538355433467
 31
0.0
100
AcDbText
 73
     2
  0
TEXT
  5
60
330
471
100
AcDbEntity
  8
SPEC
 62
     7
100
AcDbText
 10
-733.2962120225694
 20
2164.535208735828
 30
0.0
 40
38.00629340277778
  1
(90°単位で回転可能)
 41
0.7
 72
     1
 11
-575.0
 21
2183.538355437216
 31
0.0
100
AcDbText
 73
     2
  0
TEXT
  5
61
330
471
100
AcDbEntity
  8
SPEC
 62
     7
100
AcDbText
 10
-653.0395891203703
 20
2239.535208733951
 30
0.0
 40
38.00629340277778
  1
60°×40°
 41
0.7
 72
     1
 11
-575.0
 21
2258.53835543534
 31
0.0
100
AcDbText
 73
     2
  0
TEXT
  5
62
330
471
100
AcDbEntity
  8
SPEC
 62
     7
100
AcDbText
 10
-1232.00000000045
 20
2015.758355440349
 30
0.0
 40
38.00629340277778
  1
バイアンプ※2
 41
0.7
 11
-1232.00000000045
 21
2053.764648843126
 31
0.0
100
AcDbText
 73
     3
  0
TEXT
  5
63
330
471
100
AcDbEntity
  8
SPEC
 62
     7
100
AcDbText
 10
-14.27042679398136
 20
2014.535208739578
 30
0.0
 40
38.00629340277778
  1
LF:1000W(2h)、750W(100h)
 41
0.7
 72
     1
 11
250.0
 21
2033.538355440967
 31
0.0
100
AcDbText
 73
     2
  0
TEXT
  5
64
330
471
100
AcDbEntity
  8
SPEC
 62
     7
100
AcDbText
 10
130.28017578125
 20
1939.535208741453
 30
0.0
 40
38.00629340277778
  1
HF:100W(2h)
 41
0.7
 72
     1
 11
250.0
 21
1958.538355442842
 31
0.0
100
AcDbText
 73
     2
  0
TEXT
  5
65
330
471
100
AcDbEntity
  8
SPEC
 62
     7
100
AcDbText
 10
-1631.9999999592
 20
1865.758355444099
 30
0.0
 40
38.00629340277778
  1
感度(1W、1m)
 41
0.7
 11
-1631.9999999592
 21
1903.764648846876
 31
0.0
100
AcDbText
 73
     3
  0
TEXT
  5
66
330
471
100
AcDbEntity
  8
SPEC
 62
     7
100
AcDbText
 10
-1232.00000000045
 20
1865.7583554441
 30
0.0
 40
38.00629340277778
  1
パッシブ
 41
0.7
 11
-1232.00000000045
 21
1903.764648846877
 31
0.0
100
AcDbText
 73
     3
  0
TEXT
  5
67
330
471
100
AcDbEntity
  8
SPEC
 62
     7
100
AcDbText
 10
-1232.00000000045
 20
1790.758355445975
 30
0.0
 40
38.00629340277778
  1
バイアンプ
 41
0.7
 11
-1232.00000000045
 21
1828.764648848753
 31
0.0
100
AcDbText
 73
     3
  0
TEXT
  5
68
330
471
100
AcDbEntity
  8
SPEC
 62
     7
100
AcDbText
 10
153.3373271122685
 20
1864.535208743328
 30
0.0
 40
38.00629340277778
  1
96dB SPL
 41
0.7
 72
     1
 11
250.0
 21
1883.538355444717
 31
0.0
100
AcDbText
 73
     2
  0
TEXT
  5
69
330
471
100
AcDbEntity
  8
SPEC
 62
     7
100
AcDbText
 10
-707.1352133969907
 20
1714.535208747077
 30
0.0
 40
38.00629340277778
  1
HF:115dB SPL
 41
0.7
 72
     1
 11
-575.0
 21
1733.538355448466
 31
0.0
100
AcDbText
 73
     2
  0
TEXT
  5
6A
330
471
100
AcDbEntity
  8
SPEC
 62
     7
100
AcDbText
 10
-702.7011458333333
 20
1789.535208745203
 30
0.0
 40
38.00629340277778
  1
LF:98dB SPL
 41
0.7
 72
     1
 11
-575.0
 21
1808.538355446592
 31
0.0
100
AcDbText
 73
     2
  0
TEXT
  5
6B
330
471
100
AcDbEntity
  8
SPEC
 62
     7
100
AcDbText
 10
-1631.9999999592
 20
1565.758355451598
 30
0.0
 40
38.00629340277778
  1
ダンス
 41
0.7
 11
-1631.9999999592
 21
1603.764648854376
 31
0.0
100
AcDbText
 73
     3
  0
TEXT
  5
6C
330
471
100
AcDbEntity
  8
SPEC
 62
     7
100
AcDbText
 10
-1631.9999999592
 20
1640.758355449723
 30
0.0
 40
38.00629340277778
  1
公称インピー
 41
0.7
 11
-1631.9999999592
 21
1678.764648852501
 31
0.0
100
AcDbText
 73
     3
  0
TEXT
  5
6D
330
471
100
AcDbEntity
  8
SPEC
 62
     7
100
AcDbText
 10
-1232.00000000045
 20
1640.758355449724
 30
0.0
 40
38.00629340277778
  1
パッシブ
 41
0.7
 11
-1232.00000000045
 21
1678.764648852502
 31
0.0
100
AcDbText
 73
     3
  0
TEXT
  5
6E
330
471
100
AcDbEntity
  8
SPEC
 62
     7
100
AcDbText
 10
-1232.00000000045
 20
1565.7583554516
 30
0.0
 40
38.00629340277778
  1
バイアンプ
 41
0.7
 11
-1232.00000000045
 21
1603.764648854378
 31
0.0
100
AcDbText
 73
     3
  0
TEXT
  5
6F
330
471
100
AcDbEntity
  8
SPEC
 62
     7
100
AcDbText
 10
225.1692216435185
 20
1639.535208748953
 30
0.0
 40
38.00629340277778
  1
8Ω
 41
0.7
 72
     1
 11
250.0
 21
1658.538355450342
 31
0.0
100
AcDbText
 73
     2
  0
TEXT
  5
70
330
471
100
AcDbEntity
  8
SPEC
 62
     7
100
AcDbText
 10
117.8647866030092
 20
1564.535208750828
 30
0.0
 40
38.00629340277778
  1
LF:8Ω、HF:8Ω
 41
0.7
 72
     1
 11
250.0
 21
1583.538355452217
 31
0.0
100
AcDbText
 73
     2
  0
LINE
  5
71
330
471
100
AcDbEntity
  8
SPEC
  6
Continuous
 62
     7
100
AcDbLine
 10
-300.0
 20
2449.999999875
 30
0.0
 11
-300.0
 21
2374.999999876875
 31
0.0
  0
LINE
  5
72
330
471
100
AcDbEntity
  8
SPEC
  6
Continuous
 62
     7
100
AcDbLine
 10
-300.0
 20
2299.999999878748
 30
0.0
 11
-300.0
 21
2149.9999998825
 31
0.0
  0
LINE
  5
73
330
471
100
AcDbEntity
  8
SPEC
  6
Continuous
 62
     7
100
AcDbLine
 10
-300.0
 20
1849.99999989
 30
0.0
 11
-300.0
 21
1699.99999989375
 31
0.0
  0
LINE
  5
74
330
471
100
AcDbEntity
  8
SPEC
  6
Continuous
 62
     7
100
AcDbLine
 10
-300.0
 20
1474.999999899375
 30
0.0
 11
-300.0
 21
1249.999999905
 31
0.0
  0
LINE
  5
75
330
471
100
AcDbEntity
  8
SPEC
  6
Continuous
 62
     7
100
AcDbLine
 10
-1649.999999958749
 20
799.9999999162503
 30
0.0
 11
1350.0
 21
799.9999999162503
 31
0.0
  0
LINE
  5
76
330
471
100
AcDbEntity
  8
SPEC
  6
Continuous
 62
     7
100
AcDbLine
 10
-1649.999999958749
 20
874.9999999143751
 30
0.0
 11
1350.0
 21
874.9999999143755
 31
0.0
  0
LINE
  5
77
330
471
100
AcDbEntity
  8
SPEC
  6
Continuous
 62
     7
100
AcDbLine
 10
-1649.999999958749
 20
949.9999999125
 30
0.0
 11
1350.0
 21
949.9999999125005
 31
0.0
  0
TEXT
  5
78
330
471
100
AcDbEntity
  8
SPEC
 62
     7
100
AcDbText
 10
-1631.9999999592
 20
815.7583554703498
 30
0.0
 40
38.00629340277778
  1
質量
 41
0.7
 11
-1631.9999999592
 21
853.7646488731276
 31
0.0
100
AcDbText
 73
     3
  0
TEXT
  5
79
330
471
100
AcDbEntity
  8
SPEC
 62
     7
100
AcDbText
 10
201.2252567997685
 20
814.5352087695785
 30
0.0
 40
38.00629340277778
  1
28kg
 41
0.7
 72
     1
 11
250.0
 21
833.5383554709673
 31
0.0
100
AcDbText
 73
     2
  0
LINE
  5
7A
330
471
100
AcDbEntity
  8
SPEC
  6
Continuous
 62
     7
100
AcDbLine
 10
-1649.999999958749
 20
1549.9999998975
 30
0.0
 11
1350.0
 21
1549.9999998975
 31
0.0
  0
LINE
  5
7B
330
471
100
AcDbEntity
  8
SPEC
  6
Continuous
 62
     7
100
AcDbLine
 10
-1250.0
 20
1474.999999899375
 30
0.0
 11
1350.0
 21
1474.999999899375
 31
0.0
  0
LINE
  5
7C
330
471
100
AcDbEntity
  8
SPEC
  6
Continuous
 62
     7
100
AcDbLine
 10
-1649.999999958749
 20
1324.999999903125
 30
0.0
 11
1350.0
 21
1324.999999903125
 31
0.0
  0
LINE
  5
7D
330
471
100
AcDbEntity
  8
SPEC
  6
Continuous
 62
     7
100
AcDbLine
 10
-1649.999999958749
 20
1249.999999905
 30
0.0
 11
1350.0
 21
1249.999999905
 31
0.0
  0
LINE
  5
7E
330
471
100
AcDbEntity
  8
SPEC
  6
Continuous
 62
     7
100
AcDbLine
 10
-1649.999999958749
 20
1099.99999990875
 30
0.0
 11
1350.0
 21
1099.99999990875
 31
0.0
  0
LINE
  5
7F
330
471
100
AcDbEntity
  8
SPEC
  6
Continuous
 62
     7
100
AcDbLine
 10
-1649.999999958749
 20
1024.999999910625
 30
0.0
 11
1350.0
 21
1024.999999910625
 31
0.0
  0
TEXT
  5
80
330
471
100
AcDbEntity
  8
SPEC
 62
     7
100
AcDbText
 10
-1631.9999999592
 20
1490.758355453474
 30
0.0
 40
38.00629340277778
  1
最大音圧(1m)
 41
0.7
 11
-1631.9999999592
 21
1528.764648856252
 31
0.0
100
AcDbText
 73
     3
  0
TEXT
  5
81
330
471
100
AcDbEntity
  8
SPEC
 62
     7
100
AcDbText
 10
-1232.00000000045
 20
1490.758355453475
 30
0.0
 40
38.00629340277778
  1
パッシブ
 41
0.7
 11
-1232.00000000045
 21
1528.764648856253
 31
0.0
100
AcDbText
 73
     3
  0
TEXT
  5
82
330
471
100
AcDbEntity
  8
SPEC
 62
     7
100
AcDbText
 10
-1232.00000000045
 20
1415.75835545535
 30
0.0
 40
38.00629340277778
  1
バイアンプ
 41
0.7
 11
-1232.00000000045
 21
1453.764648858127
 31
0.0
100
AcDbText
 73
     3
  0
TEXT
  5
83
330
471
100
AcDbEntity
  8
SPEC
 62
     7
100
AcDbText
 10
144.4691919849537
 20
1489.535208752703
 30
0.0
 40
38.00629340277778
  1
124dB SPL
 41
0.7
 72
     1
 11
250.0
 21
1508.538355454092
 31
0.0
100
AcDbText
 73
     2
  0
TEXT
  5
84
330
471
100
AcDbEntity
  8
SPEC
 62
     7
100
AcDbText
 10
-711.5692809606481
 20
1339.535208756452
 30
0.0
 40
38.00629340277778
  1
HF:135dB SPL
 41
0.7
 72
     1
 11
-575.0
 21
1358.538355457841
 31
0.0
100
AcDbText
 73
     2
  0
TEXT
  5
85
330
471
100
AcDbEntity
  8
SPEC
 62
     7
100
AcDbText
 10
-711.5692809606481
 20
1414.535208754578
 30
0.0
 40
38.00629340277778
  1
LF:128dB SPL
 41
0.7
 72
     1
 11
-575.0
 21
1433.538355455967
 31
0.0
100
AcDbText
 73
     2
  0
TEXT
  5
86
330
471
100
AcDbEntity
  8
SPEC
 62
     7
100
AcDbText
 10
-1631.9999999592
 20
1265.7583554591
 30
0.0
 40
38.00629340277778
  1
クロスオーバー周波数
 41
0.7
 11
-1631.9999999592
 21
1303.764648861878
 31
0.0
100
AcDbText
 73
     3
  0
TEXT
  5
87
330
471
100
AcDbEntity
  8
SPEC
 62
     7
100
AcDbText
 10
-637.0769458912036
 20
1264.535208758328
 30
0.0
 40
38.00629340277778
  1
1.8kHz
 41
0.7
 72
     1
 11
-575.0
 21
1283.538355459717
 31
0.0
100
AcDbText
 73
     2
  0
TEXT
  5
88
330
471
100
AcDbEntity
  8
SPEC
 62
     7
100
AcDbText
 10
-1631.9999999592
 20
1190.758355460975
 30
0.0
 40
38.00629340277778
  1
ドライバー構成
 41
0.7
 11
-1631.9999999592
 21
1228.764648863753
 31
0.0
100
AcDbText
 73
     3
  0
TEXT
  5
89
330
471
100
AcDbEntity
  8
SPEC
 62
     7
100
AcDbText
 10
-1631.9999999592
 20
1045.458146823573
 30
0.0
 40
38.00629340277778
  1
入力端子
 41
0.7
 11
-1631.9999999592
 21
1083.464440226351
 31
0.0
100
AcDbText
 73
     3
  0
TEXT
  5
8A
330
471
100
AcDbEntity
  8
SPEC
 62
     7
100
AcDbText
 10
-1631.9999999592
 20
890.758355468475
 30
0.0
 40
38.00629340277778
  1
寸法(W×H×D)
 41
0.7
 11
-1631.9999999592
 21
928.7646488712528
 31
0.0
100
AcDbText
 73
     3
  0
TEXT
  5
8B
330
471
100
AcDbEntity
  8
SPEC
 62
     7
100
AcDbText
 10
85.0526866319446
 20
889.5352087677037
 30
0.0
 40
38.00629340277778
  1
420×781×504mm
 41
0.7
 72
     1
 11
250.0
 21
908.5383554690926
 31
0.0
100
AcDbText
 73
     2
  0
TEXT
  5
8C
330
471
100
AcDbEntity
  8
SPEC
 62
     7
100
AcDbText
 10
52.24058666087959
 20
1039.535208763953
 30
0.0
 40
38.00629340277778
  1
ねじ止め端子、4Pスピコン
 41
0.7
 72
     1
 11
250.0
 21
1058.538355465342
 31
0.0
100
AcDbText
 73
     2
  0
TEXT
  5
8D
330
471
100
AcDbEntity
  8
SPEC
 62
     7
100
AcDbText
 10
-1631.9999999592
 20
965.7583554665997
 30
0.0
 40
38.00629340277778
  1
仕上げ/色
 41
0.7
 11
-1631.9999999592
 21
1003.764648869377
 31
0.0
100
AcDbText
 73
     3
  0
TEXT
  5
8E
330
471
100
AcDbEntity
  8
SPEC
 62
     7
100
AcDbText
 10
94.36422851562502
 20
964.5352087658286
 30
0.0
 40
38.00629340277778
  1
DuraFlex/黒、白
 41
0.7
 72
     1
 11
250.0
 21
983.5383554672175
 31
0.0
100
AcDbText
 73
     2
  0
LINE
  5
8F
330
471
100
AcDbEntity
  8
SPEC
  6
Continuous
 62
     7
100
AcDbLine
 10
250.0
 20
2449.999999875001
 30
0.0
 11
250.0
 21
2374.999999876876
 31
0.0
  0
LINE
  5
90
330
471
100
AcDbEntity
  8
SPEC
  6
Continuous
 62
     7
100
AcDbLine
 10
250.0
 20
2299.999999878749
 30
0.0
 11
250.0
 21
2149.999999882501
 31
0.0
  0
LINE
  5
91
330
471
100
AcDbEntity
  8
SPEC
  6
Continuous
 62
     7
100
AcDbLine
 10
250.0
 20
1849.999999890001
 30
0.0
 11
250.0
 21
1699.99999989375
 31
0.0
  0
LINE
  5
92
330
471
100
AcDbEntity
  8
SPEC
  6
Continuous
 62
     7
100
AcDbLine
 10
250.0
 20
1474.999999899375
 30
0.0
 11
250.0
 21
1249.999999905
 31
0.0
  0
TEXT
  5
93
330
471
100
AcDbEntity
  8
SPEC
 62
     7
100
AcDbText
 10
446.9604108796296
 20
2239.535208733952
 30
0.0
 40
38.00629340277778
  1
90°×50°
 41
0.7
 72
     1
 11
525.0
 21
2258.538355435341
 31
0.0
100
AcDbText
 73
     2
  0
TEXT
  5
94
330
471
100
AcDbEntity
  8
SPEC
 62
     7
100
AcDbText
 10
667.8647866030092
 20
1714.535208747079
 30
0.0
 40
38.00629340277778
  1
HF:113dB SPL
 41
0.7
 72
     1
 11
800.0
 21
1733.538355448467
 31
0.0
100
AcDbText
 73
     2
  0
TEXT
  5
95
330
471
100
AcDbEntity
  8
SPEC
 62
     7
100
AcDbText
 10
672.2988541666666
 20
1789.535208745203
 30
0.0
 40
38.00629340277778
  1
LF:98dB SPL
 41
0.7
 72
     1
 11
800.0
 21
1808.538355446592
 31
0.0
100
AcDbText
 73
     2
  0
TEXT
  5
96
330
471
100
AcDbEntity
  8
SPEC
 62
     7
100
AcDbText
 10
663.4307190393518
 20
1339.535208756453
 30
0.0
 40
38.00629340277778
  1
HF:133dB SPL
 41
0.7
 72
     1
 11
800.0
 21
1358.538355457842
 31
0.0
100
AcDbText
 73
     2
  0
TEXT
  5
97
330
471
100
AcDbEntity
  8
SPEC
 62
     7
100
AcDbText
 10
663.4307190393518
 20
1414.535208754578
 30
0.0
 40
38.00629340277778
  1
LF:128dB SPL
 41
0.7
 72
     1
 11
800.0
 21
1433.538355455967
 31
0.0
100
AcDbText
 73
     2
  0
TEXT
  5
98
330
471
100
AcDbEntity
  8
SPEC
 62
     7
100
AcDbText
 10
462.9230541087962
 20
1264.535208758329
 30
0.0
 40
38.00629340277778
  1
1.2kHz
 41
0.7
 72
     1
 11
525.0
 21
1283.538355459717
 31
0.0
100
AcDbText
 73
     2
  0
TEXT
  5
99
330
471
100
AcDbEntity
  8
SPEC
 62
     7
100
AcDbText
 10
366.7037879774306
 20
2164.535208735828
 30
0.0
 40
38.00629340277778
  1
(90°単位で回転可能)
 41
0.7
 72
     1
 11
525.0
 21
2183.538355437217
 31
0.0
100
AcDbText
 73
     2
  0
LINE
  5
9A
330
471
100
AcDbEntity
  8
SPEC
  6
Continuous
 62
     7
100
AcDbLine
 10
800.0
 20
2449.999999875001
 30
0.0
 11
800.0
 21
2374.999999876876
 31
0.0
  0
LINE
  5
9B
330
471
100
AcDbEntity
  8
SPEC
  6
Continuous
 62
     7
100
AcDbLine
 10
800.0
 20
2299.999999878749
 30
0.0
 11
800.0
 21
2149.999999882501
 31
0.0
  0
TEXT
  5
9C
330
471
100
AcDbEntity
  8
SPEC
 62
     7
100
AcDbText
 10
-1625.0
 20
732.2199999993824
 30
0.0
 40
38.00629340277778
  1
※1 IECピンクノイズ、クレストファクタ ー6dB　※2 AESピンクノイズ、クレストファクタ ー6dB
 41
0.7
 11
-1625.0
 21
770.2262934021603
 31
0.0
100
AcDbText
 73
     3
  0
TEXT
  5
9D
330
471
100
AcDbEntity
  8
SPEC
 62
     7
100
AcDbText
 10
-685.8516890914351
 20
2389.535208730203
 30
0.0
 40
38.00629340277778
  1
AM7215/64
 41
0.7
 72
     1
 11
-575.0
 21
2408.538355431592
 31
0.0
100
AcDbText
 73
     2
  0
TEXT
  5
9E
330
471
100
AcDbEntity
  8
SPEC
 62
     7
100
AcDbText
 10
414.1483109085648
 20
2389.535208730202
 30
0.0
 40
38.00629340277778
  1
AM7215/95
 41
0.7
 72
     1
 11
525.0
 21
2408.538355431591
 31
0.0
100
AcDbText
 73
     2
  0
TEXT
  5
9F
330
471
100
AcDbEntity
  8
SPEC
 62
     7
100
AcDbText
 10
964.1483109085648
 20
2389.535208730204
 30
0.0
 40
38.00629340277778
  1
AM7215/26
 41
0.7
 72
     1
 11
1075.0
 21
2408.538355431592
 31
0.0
100
AcDbText
 73
     2
  0
TEXT
  5
A0
330
471
100
AcDbEntity
  8
SPEC
 62
     7
100
AcDbText
 10
-111.3729224466203
 20
2239.535208733952
 30
0.0
 40
38.00629340277778
  1
60°×60°
 41
0.7
 72
     1
 11
-33.33333332624999
 21
2258.538355435341
 31
0.0
100
AcDbText
 73
     2
  0
TEXT
  5
A1
330
471
100
AcDbEntity
  8
SPEC
 62
     7
100
AcDbText
 10
-165.4685467232407
 20
1714.535208747079
 30
0.0
 40
38.00629340277778
  1
HF:114dB SPL
 41
0.7
 72
     1
 11
-33.33333332624999
 21
1733.538355448467
 31
0.0
100
AcDbText
 73
     2
  0
TEXT
  5
A2
330
471
100
AcDbEntity
  8
SPEC
 62
     7
100
AcDbText
 10
-161.0344791595833
 20
1789.535208745203
 30
0.0
 40
38.00629340277778
  1
LF:98dB SPL
 41
0.7
 72
     1
 11
-33.33333332624999
 21
1808.538355446592
 31
0.0
100
AcDbText
 73
     2
  0
TEXT
  5
A3
330
471
100
AcDbEntity
  8
SPEC
 62
     7
100
AcDbText
 10
-169.9026142868981
 20
1339.535208756453
 30
0.0
 40
38.00629340277778
  1
HF:134dB SPL
 41
0.7
 72
     1
 11
-33.33333332624999
 21
1358.538355457842
 31
0.0
100
AcDbText
 73
     2
  0
TEXT
  5
A4
330
471
100
AcDbEntity
  8
SPEC
 62
     7
100
AcDbText
 10
-169.9026142868981
 20
1414.535208754578
 30
0.0
 40
38.00629340277778
  1
LF:128dB SPL
 41
0.7
 72
     1
 11
-33.33333332624999
 21
1433.538355455967
 31
0.0
100
AcDbText
 73
     2
  0
TEXT
  5
A5
330
471
100
AcDbEntity
  8
SPEC
 62
     7
100
AcDbText
 10
-95.41027921745367
 20
1264.535208758329
 30
0.0
 40
38.00629340277778
  1
1.4kHz
 41
0.7
 72
     1
 11
-33.33333332624999
 21
1283.538355459717
 31
0.0
100
AcDbText
 73
     2
  0
TEXT
  5
A6
330
471
100
AcDbEntity
  8
SPEC
 62
     7
100
AcDbText
 10
-144.1850224176851
 20
2389.535208730204
 30
0.0
 40
38.00629340277778
  1
AM7215/66
 41
0.7
 72
     1
 11
-33.33333332624999
 21
2408.538355431592
 31
0.0
100
AcDbText
 73
     2
  0
TEXT
  5
A7
330
471
100
AcDbEntity
  8
SPEC
 62
     7
100
AcDbText
 10
916.7037879774305
 20
2164.535208735828
 30
0.0
 40
38.00629340277778
  1
(90°単位で回転可能)
 41
0.7
 72
     1
 11
1075.0
 21
2183.538355437217
 31
0.0
100
AcDbText
 73
     2
  0
TEXT
  5
A8
330
471
100
AcDbEntity
  8
SPEC
 62
     7
100
AcDbText
 10
988.0922757523148
 20
2239.535208733952
 30
0.0
 40
38.00629340277778
  1
120°×60°
 41
0.7
 72
     1
 11
1075.0
 21
2258.538355435341
 31
0.0
100
AcDbText
 73
     2
  0
LINE
  5
A9
330
471
100
AcDbEntity
  8
SPEC
  6
Continuous
 62
     7
100
AcDbLine
 10
800.0
 20
1324.999999903125
 30
0.0
 11
800.0
 21
1249.999999905
 31
0.0
  0
TEXT
  5
AA
330
471
100
AcDbEntity
  8
SPEC
 62
     7
100
AcDbText
 10
1012.923054108796
 20
1264.535208758329
 30
0.0
 40
38.00629340277778
  1
1.4kHz
 41
0.7
 72
     1
 11
1075.0
 21
1283.538355459717
 31
0.0
100
AcDbText
 73
     2
  0
TEXT
  5
AB
330
471
100
AcDbEntity
  8
SPEC
 62
     7
100
AcDbText
 10
74.85433123553244
 20
1189.535208760204
 30
0.0
 40
38.00629340277778
  1
LF:380mm(2265H)
 41
0.7
 72
     1
 11
250.0
 21
1208.538355461592
 31
0.0
100
AcDbText
 73
     2
  0
TEXT
  5
AC
330
471
100
AcDbEntity
  8
SPEC
 62
     7
100
AcDbText
 10
85.93950014467594
 20
1114.535208762078
 30
0.0
 40
38.00629340277778
  1
HF:38mm(2432H)
 41
0.7
 72
     1
 11
250.0
 21
1133.538355463467
 31
0.0
100
AcDbText
 73
     2
  0
TEXT
  5
AD
330
471
100
AcDbEntity
  8
DIMNSIONS
 62
     7
100
AcDbText
 10
-399.9999999899998
 20
-2304.610200006135
 30
0.0
 40
48.86523437377837
  1
(単位：mm)
 41
0.7
 11
-399.9999999899998
 21
-2255.744965632356
 31
0.0
100
AcDbText
 73
     3
  0
LINE
  5
AE
330
471
100
AcDbEntity
  8
DIMNSIONS
  6
Continuous
 62
     7
100
AcDbLine
 10
-980.2130120462056
 20
-96.0
 30
0.0
 11
-660.0
 21
-96.0
 31
0.0
  0
LINE
  5
AF
330
471
100
AcDbEntity
  8
DIMNSIONS
  6
Continuous
 62
     7
100
AcDbLine
 10
-1060.00000000003
 20
-138.0
 30
0.0
 11
-660.0
 21
-138.0
 31
0.0
  0
LINE
  5
B0
330
471
100
AcDbEntity
  8
DIMNSIONS
  6
Continuous
 62
     7
100
AcDbLine
 10
-700.0
 20
-138.0
 30
0.0
 11
-700.0
 21
-96.0
 31
0.0
  0
LINE
  5
B1
330
471
100
AcDbEntity
  8
DIMNSIONS
  6
Continuous
 62
     7
100
AcDbLine
 10
-700.0
 20
-96.0
 30
0.0
 11
-700.0
 21
63.08694444444425
 31
0.0
  0
LINE
  5
B2
330
471
100
AcDbEntity
  8
DIMNSIONS
  6
Continuous
 62
     7
100
AcDbLine
 10
-700.0
 20
-96.0
 30
0.0
 11
-713.4007959030049
 21
-45.987548828125
 31
0.0
  0
LINE
  5
B3
330
471
100
AcDbEntity
  8
DIMNSIONS
  6
Continuous
 62
     7
100
AcDbLine
 10
-700.0
 20
-96.0
 30
0.0
 11
-686.5992040969952
 21
-45.987548828125
 31
0.0
  0
LINE
  5
B4
330
471
100
AcDbEntity
  8
DIMNSIONS
  6
Continuous
 62
     7
100
AcDbLine
 10
-700.0
 20
-138.0
 30
0.0
 11
-700.0
 21
-238.0
 31
0.0
  0
LINE
  5
B5
330
471
100
AcDbEntity
  8
DIMNSIONS
  6
Continuous
 62
     7
100
AcDbLine
 10
-700.0
 20
-138.0
 30
0.0
 11
-686.5992040969952
 21
-188.012451171875
 31
0.0
  0
LINE
  5
B6
330
471
100
AcDbEntity
  8
DIMNSIONS
  6
Continuous
 62
     7
100
AcDbLine
 10
-700.0
 20
-138.0
 30
0.0
 11
-713.4007959030049
 21
-188.012451171875
 31
0.0
  0
TEXT
  5
B7
330
471
100
AcDbEntity
  8
DIMNSIONS
 62
     7
100
AcDbText
 10
-717.3777777777776
 20
-78.02416666666686
 30
0.0
 40
54.29470486111111
  1
42.0
 50
90.0
 41
0.7
 11
-771.6724826388887
 21
-78.02416666666686
 31
0.0
100
AcDbText
 73
     3
  0
LINE
  5
B8
330
471
100
AcDbEntity
  8
DIMNSIONS
  6
Continuous
 62
     7
100
AcDbLine
 10
-1249.478829401809
 20
-522.0
 30
0.0
 11
-1249.478829401809
 21
-790.0
 31
0.0
  0
LINE
  5
B9
330
471
100
AcDbEntity
  8
DIMNSIONS
  6
Continuous
 62
     7
100
AcDbLine
 10
-950.5211705981896
 20
-522.0
 30
0.0
 11
-950.5211705981896
 21
-790.0
 31
0.0
  0
LINE
  5
BA
330
471
100
AcDbEntity
  8
DIMNSIONS
  6
Continuous
 62
     7
100
AcDbLine
 10
-1249.478829401809
 20
-750.0
 30
0.0
 11
-950.5211705981896
 21
-750.0
 31
0.0
  0
LINE
  5
BB
330
471
100
AcDbEntity
  8
DIMNSIONS
  6
Continuous
 62
     7
100
AcDbLine
 10
-1249.478829401809
 20
-750.0
 30
0.0
 11
-1199.466378229934
 21
-736.5992040969952
 31
0.0
  0
LINE
  5
BC
330
471
100
AcDbEntity
  8
DIMNSIONS
  6
Continuous
 62
     7
100
AcDbLine
 10
-1249.478829401809
 20
-750.0
 30
0.0
 11
-1199.466378229934
 21
-763.400795903005
 31
0.0
  0
LINE
  5
BD
330
471
100
AcDbEntity
  8
DIMNSIONS
  6
Continuous
 62
     7
100
AcDbLine
 10
-950.5211705981896
 20
-750.0
 30
0.0
 11
-1000.533621770064
 21
-763.400795903005
 31
0.0
  0
LINE
  5
BE
330
471
100
AcDbEntity
  8
DIMNSIONS
  6
Continuous
 62
     7
100
AcDbLine
 10
-950.5211705981896
 20
-750.0
 30
0.0
 11
-1000.533621770064
 21
-736.5992040969952
 31
0.0
  0
TEXT
  5
BF
330
471
100
AcDbEntity
  8
DIMNSIONS
 62
     7
100
AcDbText
 10
-1170.555555555555
 20
-732.6222222222222
 30
0.0
 40
54.29470486111111
  1
299 
 41
0.7
 11
-1170.555555555555
 21
-678.3275173611111
 31
0.0
100
AcDbText
 73
     3
  0
LINE
  5
C0
330
471
100
AcDbEntity
  8
DIMNSIONS
  6
Continuous
 62
     7
100
AcDbLine
 10
-1060.00000000003
 20
-138.0
 30
0.0
 11
-660.0
 21
-138.0
 31
0.0
  0
LINE
  5
C1
330
471
100
AcDbEntity
  8
DIMNSIONS
  6
Continuous
 62
     7
100
AcDbLine
 10
-1060.00000000003
 20
-367.0
 30
0.0
 11
-660.0
 21
-367.0
 31
0.0
  0
LINE
  5
C2
330
471
100
AcDbEntity
  8
DIMNSIONS
  6
Continuous
 62
     7
100
AcDbLine
 10
-700.0
 20
-138.0
 30
0.0
 11
-700.0
 21
-367.0
 31
0.0
  0
LINE
  5
C3
330
471
100
AcDbEntity
  8
DIMNSIONS
  6
Continuous
 62
     7
100
AcDbLine
 10
-700.0
 20
-138.0
 30
0.0
 11
-686.5992040969952
 21
-188.012451171875
 31
0.0
  0
LINE
  5
C4
330
471
100
AcDbEntity
  8
DIMNSIONS
  6
Continuous
 62
     7
100
AcDbLine
 10
-700.0
 20
-138.0
 30
0.0
 11
-713.4007959030049
 21
-188.012451171875
 31
0.0
  0
LINE
  5
C5
330
471
100
AcDbEntity
  8
DIMNSIONS
  6
Continuous
 62
     7
100
AcDbLine
 10
-700.0
 20
-367.0
 30
0.0
 11
-713.4007959030049
 21
-316.987548828125
 31
0.0
  0
LINE
  5
C6
330
471
100
AcDbEntity
  8
DIMNSIONS
  6
Continuous
 62
     7
100
AcDbLine
 10
-700.0
 20
-367.0
 30
0.0
 11
-686.5992040969952
 21
-316.987548828125
 31
0.0
  0
TEXT
  5
C7
330
471
100
AcDbEntity
  8
DIMNSIONS
 62
     7
100
AcDbText
 10
-717.3777777777776
 20
-305.4166666666667
 30
0.0
 40
54.29470486111111
  1
229
 50
90.0
 41
0.7
 11
-771.6724826388887
 21
-305.4166666666667
 31
0.0
100
AcDbText
 73
     3
  0
LINE
  5
C8
330
471
100
AcDbEntity
  8
DIMNSIONS
  6
Continuous
 62
     7
100
AcDbLine
 10
337.3580000000002
 20
-818.9500000000016
 30
0.0
 11
439.9999999999992
 21
-818.9500000000016
 31
0.0
  0
LINE
  5
C9
330
471
100
AcDbEntity
  8
DIMNSIONS
  6
Continuous
 62
     7
100
AcDbLine
 10
140.0
 20
-860.9500000000016
 30
0.0
 11
439.9999999999992
 21
-860.9500000000016
 31
0.0
  0
LINE
  5
CA
330
471
100
AcDbEntity
  8
DIMNSIONS
  6
Continuous
 62
     7
100
AcDbLine
 10
399.9999999999993
 20
-860.9500000000016
 30
0.0
 11
399.9999999999993
 21
-818.9500000000016
 31
0.0
  0
LINE
  5
CB
330
471
100
AcDbEntity
  8
DIMNSIONS
  6
Continuous
 62
     7
100
AcDbLine
 10
399.9999999999993
 20
-818.9500000000016
 30
0.0
 11
399.9999999999993
 21
-633.8888888888888
 31
0.0
  0
LINE
  5
CC
330
471
100
AcDbEntity
  8
DIMNSIONS
  6
Continuous
 62
     7
100
AcDbLine
 10
399.9999999999993
 20
-818.9500000000016
 30
0.0
 11
386.5992040969945
 21
-768.9375488281265
 31
0.0
  0
LINE
  5
CD
330
471
100
AcDbEntity
  8
DIMNSIONS
  6
Continuous
 62
     7
100
AcDbLine
 10
399.9999999999993
 20
-818.9500000000016
 30
0.0
 11
413.4007959030041
 21
-768.9375488281265
 31
0.0
  0
LINE
  5
CE
330
471
100
AcDbEntity
  8
DIMNSIONS
  6
Continuous
 62
     7
100
AcDbLine
 10
399.9999999999993
 20
-860.9500000000016
 30
0.0
 11
399.9999999999993
 21
-960.9500000000016
 31
0.0
  0
LINE
  5
CF
330
471
100
AcDbEntity
  8
DIMNSIONS
  6
Continuous
 62
     7
100
AcDbLine
 10
399.9999999999993
 20
-860.9500000000016
 30
0.0
 11
413.4007959030041
 21
-910.9624511718767
 31
0.0
  0
LINE
  5
D0
330
471
100
AcDbEntity
  8
DIMNSIONS
  6
Continuous
 62
     7
100
AcDbLine
 10
399.9999999999993
 20
-860.9500000000016
 30
0.0
 11
386.5992040969945
 21
-910.9624511718767
 31
0.0
  0
TEXT
  5
D1
330
471
100
AcDbEntity
  8
DIMNSIONS
 62
     7
100
AcDbText
 10
382.6222222222216
 20
-775.0
 30
0.0
 40
54.29470486111111
  1
42.0
 50
90.0
 41
0.7
 11
328.3275173611104
 21
-775.0
 31
0.0
100
AcDbText
 73
     3
  0
LINE
  5
D2
330
471
100
AcDbEntity
  8
DIMNSIONS
  6
Continuous
 62
     7
100
AcDbLine
 10
140.0
 20
-860.9500000000016
 30
0.0
 11
439.9999999999992
 21
-860.9500000000016
 31
0.0
  0
LINE
  5
D3
330
471
100
AcDbEntity
  8
DIMNSIONS
  6
Continuous
 62
     7
100
AcDbLine
 10
140.0
 20
-1214.5
 30
0.0
 11
439.9999999999992
 21
-1214.5
 31
0.0
  0
LINE
  5
D4
330
471
100
AcDbEntity
  8
DIMNSIONS
  6
Continuous
 62
     7
100
AcDbLine
 10
399.9999999999993
 20
-860.9500000000016
 30
0.0
 11
399.9999999999993
 21
-1214.5
 31
0.0
  0
LINE
  5
D5
330
471
100
AcDbEntity
  8
DIMNSIONS
  6
Continuous
 62
     7
100
AcDbLine
 10
399.9999999999993
 20
-860.9500000000016
 30
0.0
 11
413.4007959030041
 21
-910.9624511718767
 31
0.0
  0
LINE
  5
D6
330
471
100
AcDbEntity
  8
DIMNSIONS
  6
Continuous
 62
     7
100
AcDbLine
 10
399.9999999999993
 20
-860.9500000000016
 30
0.0
 11
386.5992040969945
 21
-910.9624511718767
 31
0.0
  0
LINE
  5
D7
330
471
100
AcDbEntity
  8
DIMNSIONS
  6
Continuous
 62
     7
100
AcDbLine
 10
399.9999999999993
 20
-1214.5
 30
0.0
 11
386.5992040969945
 21
-1164.487548828125
 31
0.0
  0
LINE
  5
D8
330
471
100
AcDbEntity
  8
DIMNSIONS
  6
Continuous
 62
     7
100
AcDbLine
 10
399.9999999999993
 20
-1214.5
 30
0.0
 11
413.4007959030041
 21
-1164.487548828125
 31
0.0
  0
TEXT
  5
D9
330
471
100
AcDbEntity
  8
DIMNSIONS
 62
     7
100
AcDbText
 10
382.6222222222216
 20
-1090.641666666667
 30
0.0
 40
54.29470486111111
  1
354
 50
90.0
 41
0.7
 11
328.3275173611104
 21
-1090.641666666667
 31
0.0
100
AcDbText
 73
     3
  0
LINE
  5
DA
330
471
100
AcDbEntity
  8
DIMNSIONS
  6
Continuous
 62
     7
100
AcDbLine
 10
140.0
 20
-1214.5
 30
0.0
 11
439.9999999999992
 21
-1214.5
 31
0.0
  0
LINE
  5
DB
330
471
100
AcDbEntity
  8
DIMNSIONS
  6
Continuous
 62
     7
100
AcDbLine
 10
140.0
 20
-1558.0
 30
0.0
 11
439.9999999999992
 21
-1558.0
 31
0.0
  0
LINE
  5
DC
330
471
100
AcDbEntity
  8
DIMNSIONS
  6
Continuous
 62
     7
100
AcDbLine
 10
399.9999999999993
 20
-1214.5
 30
0.0
 11
399.9999999999993
 21
-1558.0
 31
0.0
  0
LINE
  5
DD
330
471
100
AcDbEntity
  8
DIMNSIONS
  6
Continuous
 62
     7
100
AcDbLine
 10
399.9999999999993
 20
-1214.5
 30
0.0
 11
413.4007959030041
 21
-1264.512451171875
 31
0.0
  0
LINE
  5
DE
330
471
100
AcDbEntity
  8
DIMNSIONS
  6
Continuous
 62
     7
100
AcDbLine
 10
399.9999999999993
 20
-1214.5
 30
0.0
 11
386.5992040969945
 21
-1264.512451171875
 31
0.0
  0
LINE
  5
DF
330
471
100
AcDbEntity
  8
DIMNSIONS
  6
Continuous
 62
     7
100
AcDbLine
 10
399.9999999999993
 20
-1558.0
 30
0.0
 11
386.5992040969945
 21
-1507.987548828125
 31
0.0
  0
LINE
  5
E0
330
471
100
AcDbEntity
  8
DIMNSIONS
  6
Continuous
 62
     7
100
AcDbLine
 10
399.9999999999993
 20
-1558.0
 30
0.0
 11
413.4007959030041
 21
-1507.987548828125
 31
0.0
  0
TEXT
  5
E1
330
471
100
AcDbEntity
  8
DIMNSIONS
 62
     7
100
AcDbText
 10
382.6222222222216
 20
-1439.166666666667
 30
0.0
 40
54.29470486111111
  1
344
 50
90.0
 41
0.7
 11
328.3275173611104
 21
-1439.166666666667
 31
0.0
100
AcDbText
 73
     3
  0
LINE
  5
E2
330
471
100
AcDbEntity
  8
DIMNSIONS
  6
Continuous
 62
     7
100
AcDbLine
 10
-628.4300733353912
 20
-860.9500000000016
 30
0.0
 11
-159.9995147330007
 21
-860.9500000000016
 31
0.0
  0
LINE
  5
E3
330
471
100
AcDbEntity
  8
DIMNSIONS
  6
Continuous
 62
     7
100
AcDbLine
 10
-268.7
 20
-818.9500000000016
 30
0.0
 11
-159.9995147330007
 21
-818.9500000000016
 31
0.0
  0
LINE
  5
E4
330
471
100
AcDbEntity
  8
DIMNSIONS
  6
Continuous
 62
     7
100
AcDbLine
 10
-199.9995147330007
 20
-818.9500000000016
 30
0.0
 11
-199.9995147330007
 21
-860.9500000000016
 31
0.0
  0
LINE
  5
E5
330
471
100
AcDbEntity
  8
DIMNSIONS
  6
Continuous
 62
     7
100
AcDbLine
 10
-199.9995147330007
 20
-860.9500000000016
 30
0.0
 11
-199.9995147330007
 21
-1041.111111111111
 31
0.0
  0
LINE
  5
E6
330
471
100
AcDbEntity
  8
DIMNSIONS
  6
Continuous
 62
     7
100
AcDbLine
 10
-199.9995147330007
 20
-860.9500000000016
 30
0.0
 11
-186.5987188299959
 21
-910.9624511718767
 31
0.0
  0
LINE
  5
E7
330
471
100
AcDbEntity
  8
DIMNSIONS
  6
Continuous
 62
     7
100
AcDbLine
 10
-199.9995147330007
 20
-860.9500000000016
 30
0.0
 11
-213.4003106360056
 21
-910.9624511718767
 31
0.0
  0
LINE
  5
E8
330
471
100
AcDbEntity
  8
DIMNSIONS
  6
Continuous
 62
     7
100
AcDbLine
 10
-199.9995147330007
 20
-818.9500000000016
 30
0.0
 11
-199.9995147330007
 21
-718.9500000000016
 31
0.0
  0
LINE
  5
E9
330
471
100
AcDbEntity
  8
DIMNSIONS
  6
Continuous
 62
     7
100
AcDbLine
 10
-199.9995147330007
 20
-818.9500000000016
 30
0.0
 11
-213.4003106360056
 21
-768.9375488281265
 31
0.0
  0
LINE
  5
EA
330
471
100
AcDbEntity
  8
DIMNSIONS
  6
Continuous
 62
     7
100
AcDbLine
 10
-199.9995147330007
 20
-818.9500000000016
 30
0.0
 11
-186.5987188299959
 21
-768.9375488281265
 31
0.0
  0
TEXT
  5
EB
330
471
100
AcDbEntity
  8
DIMNSIONS
 62
     7
100
AcDbText
 10
-217.3772925107785
 20
-1041.111111111111
 30
0.0
 40
54.29470486111111
  1
42.0
 50
90.0
 41
0.7
 11
-271.6719973718896
 21
-1041.111111111111
 31
0.0
100
AcDbText
 73
     3
  0
LINE
  5
EC
330
471
100
AcDbEntity
  8
DIMNSIONS
  6
Continuous
 62
     7
100
AcDbLine
 10
-1219.786987953854
 20
-96.0
 30
0.0
 11
-1440.0
 21
-96.0
 31
0.0
  0
LINE
  5
ED
330
471
100
AcDbEntity
  8
DIMNSIONS
  6
Continuous
 62
     7
100
AcDbLine
 10
-1140.000000000029
 20
-600.0
 30
0.0
 11
-1440.0
 21
-600.0
 31
0.0
  0
LINE
  5
EE
330
471
100
AcDbEntity
  8
DIMNSIONS
  6
Continuous
 62
     7
100
AcDbLine
 10
-1400.0
 20
-96.0
 30
0.0
 11
-1400.0
 21
-600.0
 31
0.0
  0
LINE
  5
EF
330
471
100
AcDbEntity
  8
DIMNSIONS
  6
Continuous
 62
     7
100
AcDbLine
 10
-1400.0
 20
-96.0
 30
0.0
 11
-1386.599204096995
 21
-146.012451171875
 31
0.0
  0
LINE
  5
F0
330
471
100
AcDbEntity
  8
DIMNSIONS
  6
Continuous
 62
     7
100
AcDbLine
 10
-1400.0
 20
-96.0
 30
0.0
 11
-1413.400795903005
 21
-146.012451171875
 31
0.0
  0
LINE
  5
F1
330
471
100
AcDbEntity
  8
DIMNSIONS
  6
Continuous
 62
     7
100
AcDbLine
 10
-1400.0
 20
-600.0
 30
0.0
 11
-1413.400795903005
 21
-549.987548828125
 31
0.0
  0
LINE
  5
F2
330
471
100
AcDbEntity
  8
DIMNSIONS
  6
Continuous
 62
     7
100
AcDbLine
 10
-1400.0
 20
-600.0
 30
0.0
 11
-1386.599204096995
 21
-549.987548828125
 31
0.0
  0
TEXT
  5
F3
330
471
100
AcDbEntity
  8
DIMNSIONS
 62
     7
100
AcDbText
 10
-1417.377777777778
 20
-400.9166666666666
 30
0.0
 40
54.29470486111111
  1
504
 50
90.0
 41
0.7
 11
-1471.672482638889
 21
-400.9166666666666
 31
0.0
100
AcDbText
 73
     3
  0
LINE
  5
F4
330
471
100
AcDbEntity
  8
DIMNSIONS
  6
Continuous
 62
     7
100
AcDbLine
 10
-1310.058
 20
-1627.3
 30
0.0
 11
-1310.058
 21
-1790.0
 31
0.0
  0
LINE
  5
F5
330
471
100
AcDbEntity
  8
DIMNSIONS
  6
Continuous
 62
     7
100
AcDbLine
 10
-889.9419999999997
 20
-1627.3
 30
0.0
 11
-889.9419999999997
 21
-1790.0
 31
0.0
  0
LINE
  5
F6
330
471
100
AcDbEntity
  8
DIMNSIONS
  6
Continuous
 62
     7
100
AcDbLine
 10
-1310.058
 20
-1750.0
 30
0.0
 11
-889.9419999999997
 21
-1750.0
 31
0.0
  0
LINE
  5
F7
330
471
100
AcDbEntity
  8
DIMNSIONS
  6
Continuous
 62
     7
100
AcDbLine
 10
-1310.058
 20
-1750.0
 30
0.0
 11
-1260.045548828125
 21
-1736.599204096995
 31
0.0
  0
LINE
  5
F8
330
471
100
AcDbEntity
  8
DIMNSIONS
  6
Continuous
 62
     7
100
AcDbLine
 10
-1310.058
 20
-1750.0
 30
0.0
 11
-1260.045548828125
 21
-1763.400795903004
 31
0.0
  0
LINE
  5
F9
330
471
100
AcDbEntity
  8
DIMNSIONS
  6
Continuous
 62
     7
100
AcDbLine
 10
-889.9419999999997
 20
-1750.0
 30
0.0
 11
-939.9544511718749
 21
-1763.400795903004
 31
0.0
  0
LINE
  5
FA
330
471
100
AcDbEntity
  8
DIMNSIONS
  6
Continuous
 62
     7
100
AcDbLine
 10
-889.9419999999997
 20
-1750.0
 30
0.0
 11
-939.9544511718749
 21
-1736.599204096995
 31
0.0
  0
TEXT
  5
FB
330
471
100
AcDbEntity
  8
DIMNSIONS
 62
     7
100
AcDbText
 10
-1152.916666666667
 20
-1732.622222222222
 30
0.0
 40
54.29470486111111
  1
420
 41
0.7
 11
-1152.916666666667
 21
-1678.327517361111
 31
0.0
100
AcDbText
 73
     3
  0
LINE
  5
FC
330
471
100
AcDbEntity
  8
DIMNSIONS
  6
Continuous
 62
     7
100
AcDbLine
 10
-1337.358
 20
-1600.0
 30
0.0
 11
-1440.0
 21
-1600.0
 31
0.0
  0
LINE
  5
FD
330
471
100
AcDbEntity
  8
DIMNSIONS
  6
Continuous
 62
     7
100
AcDbLine
 10
-1337.358
 20
-818.9500000000016
 30
0.0
 11
-1440.0
 21
-818.9500000000016
 31
0.0
  0
LINE
  5
FE
330
471
100
AcDbEntity
  8
DIMNSIONS
  6
Continuous
 62
     7
100
AcDbLine
 10
-1400.0
 20
-1600.0
 30
0.0
 11
-1400.0
 21
-818.9500000000016
 31
0.0
  0
LINE
  5
FF
330
471
100
AcDbEntity
  8
DIMNSIONS
  6
Continuous
 62
     7
100
AcDbLine
 10
-1400.0
 20
-1600.0
 30
0.0
 11
-1413.400795903005
 21
-1549.987548828125
 31
0.0
  0
LINE
  5
100
330
471
100
AcDbEntity
  8
DIMNSIONS
  6
Continuous
 62
     7
100
AcDbLine
 10
-1400.0
 20
-1600.0
 30
0.0
 11
-1386.599204096995
 21
-1549.987548828125
 31
0.0
  0
LINE
  5
101
330
471
100
AcDbEntity
  8
DIMNSIONS
  6
Continuous
 62
     7
100
AcDbLine
 10
-1400.0
 20
-818.9500000000016
 30
0.0
 11
-1386.599204096995
 21
-868.9624511718767
 31
0.0
  0
LINE
  5
102
330
471
100
AcDbEntity
  8
DIMNSIONS
  6
Continuous
 62
     7
100
AcDbLine
 10
-1400.0
 20
-818.9500000000016
 30
0.0
 11
-1413.400795903005
 21
-868.9624511718767
 31
0.0
  0
TEXT
  5
103
330
471
100
AcDbEntity
  8
DIMNSIONS
 62
     7
100
AcDbText
 10
-1417.377777777778
 20
-1262.391666666667
 30
0.0
 40
54.29470486111111
  1
781
 50
90.0
 41
0.7
 11
-1471.672482638889
 21
-1262.391666666667
 31
0.0
100
AcDbText
 73
     3
  0
LINE
  5
104
330
471
100
AcDbEntity
  8
DIMNSIONS
  6
Continuous
 62
     7
100
AcDbLine
 10
-948.8426622541943
 20
-493.0492346229284
 30
0.0
 11
-925.0
 21
-650.0
 31
0.0
  0
LINE
  5
105
330
471
100
AcDbEntity
  8
DIMNSIONS
  6
Continuous
 62
     7
100
AcDbLine
 10
-948.8426622541943
 20
-493.0492346229284
 30
0.0
 11
-927.7831813416783
 21
-540.3496031917731
 31
0.0
  0
LINE
  5
106
330
471
100
AcDbEntity
  8
DIMNSIONS
  6
Continuous
 62
     7
100
AcDbLine
 10
-948.8426622541943
 20
-493.0492346229284
 30
0.0
 11
-954.2548010778645
 21
-544.5422958681729
 31
0.0
  0
LINE
  5
107
330
471
100
AcDbEntity
  8
DIMNSIONS
  6
Continuous
 62
     7
100
AcDbLine
 10
-925.0
 20
-650.0
 30
0.0
 11
-885.0
 21
-650.0
 31
0.0
  0
TEXT
  5
108
330
471
100
AcDbEntity
  8
DIMNSIONS
 62
     7
100
AcDbText
 10
-885.0
 20
-675.4000000000001
 30
0.0
 40
54.29470486111111
  1
M10(8ヵ所)
 41
0.7
 11
-885.0
 21
-621.1052951388889
 31
0.0
100
AcDbText
 73
     3
  0
LINE
  5
109
330
471
100
AcDbEntity
  8
DIMNSIONS
  6
Continuous
 62
     7
100
AcDbLine
 10
-668.7576329751256
 20
-850.039784778662
 30
0.0
 11
-645.8321820859968
 21
-750.0
 31
0.0
  0
LINE
  5
10A
330
471
100
AcDbEntity
  8
DIMNSIONS
  6
Continuous
 62
     7
100
AcDbLine
 10
-668.7576329751256
 20
-850.039784778662
 30
0.0
 11
-670.5646137258757
 21
-798.2946263228259
 31
0.0
  0
LINE
  5
10B
330
471
100
AcDbEntity
  8
DIMNSIONS
  6
Continuous
 62
     7
100
AcDbLine
 10
-668.7576329751256
 20
-850.039784778662
 30
0.0
 11
-644.4499449815065
 21
-804.3236726576818
 31
0.0
  0
LINE
  5
10C
330
471
100
AcDbEntity
  8
DIMNSIONS
  6
Continuous
 62
     7
100
AcDbLine
 10
-645.8321820859968
 20
-750.0
 30
0.0
 11
-605.8321820859967
 21
-750.0
 31
0.0
  0
TEXT
  5
10D
330
471
100
AcDbEntity
  8
DIMNSIONS
 62
     7
100
AcDbText
 10
-605.8321820859967
 20
-775.4000000000001
 30
0.0
 40
54.29470486111111
  1
M10(4ヵ所)
 41
0.7
 11
-605.8321820859967
 21
-721.1052951388889
 31
0.0
100
AcDbText
 73
     3
  0
LINE
  5
10E
330
471
100
AcDbEntity
  8
DIMNSIONS
  6
Continuous
 62
     7
100
AcDbLine
 10
-628.4301108387468
 20
-1558.0
 30
0.0
 11
-159.9995147330007
 21
-1558.0
 31
0.0
  0
LINE
  5
10F
330
471
100
AcDbEntity
  8
DIMNSIONS
  6
Continuous
 62
     7
100
AcDbLine
 10
-268.7
 20
-1600.0
 30
0.0
 11
-159.9995147330007
 21
-1600.0
 31
0.0
  0
LINE
  5
110
330
471
100
AcDbEntity
  8
DIMNSIONS
  6
Continuous
 62
     7
100
AcDbLine
 10
-199.9995147330007
 20
-1600.0
 30
0.0
 11
-199.9995147330007
 21
-1558.0
 31
0.0
  0
LINE
  5
111
330
471
100
AcDbEntity
  8
DIMNSIONS
  6
Continuous
 62
     7
100
AcDbLine
 10
-199.9995147330007
 20
-1558.0
 30
0.0
 11
-199.9995147330007
 21
-1383.888888888889
 31
0.0
  0
LINE
  5
112
330
471
100
AcDbEntity
  8
DIMNSIONS
  6
Continuous
 62
     7
100
AcDbLine
 10
-199.9995147330007
 20
-1558.0
 30
0.0
 11
-213.4003106360056
 21
-1507.987548828125
 31
0.0
  0
LINE
  5
113
330
471
100
AcDbEntity
  8
DIMNSIONS
  6
Continuous
 62
     7
100
AcDbLine
 10
-199.9995147330007
 20
-1558.0
 30
0.0
 11
-186.5987188299959
 21
-1507.987548828125
 31
0.0
  0
LINE
  5
114
330
471
100
AcDbEntity
  8
DIMNSIONS
  6
Continuous
 62
     7
100
AcDbLine
 10
-199.9995147330007
 20
-1600.0
 30
0.0
 11
-199.9995147330007
 21
-1700.0
 31
0.0
  0
LINE
  5
115
330
471
100
AcDbEntity
  8
DIMNSIONS
  6
Continuous
 62
     7
100
AcDbLine
 10
-199.9995147330007
 20
-1600.0
 30
0.0
 11
-186.5987188299959
 21
-1650.012451171875
 31
0.0
  0
LINE
  5
116
330
471
100
AcDbEntity
  8
DIMNSIONS
  6
Continuous
 62
     7
100
AcDbLine
 10
-199.9995147330007
 20
-1600.0
 30
0.0
 11
-213.4003106360056
 21
-1650.012451171875
 31
0.0
  0
TEXT
  5
117
330
471
100
AcDbEntity
  8
DIMNSIONS
 62
     7
100
AcDbText
 10
-219.8772925107785
 20
-1525.0
 30
0.0
 40
54.29470486111111
  1
42.0
 50
90.0
 41
0.7
 11
-274.1719973718896
 21
-1525.0
 31
0.0
100
AcDbText
 73
     3
  0
LINE
  5
118
330
471
100
AcDbEntity
  8
DIMNSIONS
  6
Continuous
 62
     7
100
AcDbLine
 10
140.0
 20
-1558.0
 30
0.0
 11
439.9999999999992
 21
-1558.0
 31
0.0
  0
LINE
  5
119
330
471
100
AcDbEntity
  8
DIMNSIONS
  6
Continuous
 62
     7
100
AcDbLine
 10
337.3580000000002
 20
-1600.0
 30
0.0
 11
439.9999999999992
 21
-1600.0
 31
0.0
  0
LINE
  5
11A
330
471
100
AcDbEntity
  8
DIMNSIONS
  6
Continuous
 62
     7
100
AcDbLine
 10
399.9999999999993
 20
-1600.0
 30
0.0
 11
399.9999999999993
 21
-1558.0
 31
0.0
  0
LINE
  5
11B
330
471
100
AcDbEntity
  8
DIMNSIONS
  6
Continuous
 62
     7
100
AcDbLine
 10
399.9999999999993
 20
-1558.0
 30
0.0
 11
399.9999999999993
 21
-1458.0
 31
0.0
  0
LINE
  5
11C
330
471
100
AcDbEntity
  8
DIMNSIONS
  6
Continuous
 62
     7
100
AcDbLine
 10
399.9999999999993
 20
-1558.0
 30
0.0
 11
386.5992040969945
 21
-1507.987548828125
 31
0.0
  0
LINE
  5
11D
330
471
100
AcDbEntity
  8
DIMNSIONS
  6
Continuous
 62
     7
100
AcDbLine
 10
399.9999999999993
 20
-1558.0
 30
0.0
 11
413.4007959030041
 21
-1507.987548828125
 31
0.0
  0
LINE
  5
11E
330
471
100
AcDbEntity
  8
DIMNSIONS
  6
Continuous
 62
     7
100
AcDbLine
 10
399.9999999999993
 20
-1600.0
 30
0.0
 11
399.9999999999993
 21
-1766.111111111111
 31
0.0
  0
LINE
  5
11F
330
471
100
AcDbEntity
  8
DIMNSIONS
  6
Continuous
 62
     7
100
AcDbLine
 10
399.9999999999993
 20
-1600.0
 30
0.0
 11
413.4007959030041
 21
-1650.012451171875
 31
0.0
  0
LINE
  5
120
330
471
100
AcDbEntity
  8
DIMNSIONS
  6
Continuous
 62
     7
100
AcDbLine
 10
399.9999999999993
 20
-1600.0
 30
0.0
 11
386.5992040969945
 21
-1650.012451171875
 31
0.0
  0
TEXT
  5
121
330
471
100
AcDbEntity
  8
DIMNSIONS
 62
     7
100
AcDbText
 10
380.1222222222216
 20
-1766.111111111111
 30
0.0
 40
54.29470486111111
  1
42.0
 50
90.0
 41
0.7
 11
325.8275173611104
 21
-1766.111111111111
 31
0.0
100
AcDbText
 73
     3
  0
LINE
  5
122
330
471
100
AcDbEntity
  8
DIMNSIONS
  6
Continuous
 62
     7
100
AcDbLine
 10
91.91472961339
 20
-1565.715658026079
 30
0.0
 11
-75.00000000000071
 21
-1725.0
 31
0.0
  0
LINE
  5
123
330
471
100
AcDbEntity
  8
DIMNSIONS
  6
Continuous
 62
     7
100
AcDbLine
 10
91.91472961339
 20
-1565.715658026079
 30
0.0
 11
65.2477580178019
 21
-1610.09695170904
 31
0.0
  0
LINE
  5
124
330
471
100
AcDbEntity
  8
DIMNSIONS
  6
Continuous
 62
     7
100
AcDbLine
 10
91.91472961339
 20
-1565.715658026079
 30
0.0
 11
46.62980792813196
 21
-1590.817500010547
 31
0.0
  0
LINE
  5
125
330
471
100
AcDbEntity
  8
DIMNSIONS
  6
Continuous
 62
     7
100
AcDbLine
 10
-75.00000000000071
 20
-1725.0
 30
0.0
 11
-35.00000000000071
 21
-1725.0
 31
0.0
  0
TEXT
  5
126
330
471
100
AcDbEntity
  8
DIMNSIONS
 62
     7
100
AcDbText
 10
-35.00000000000071
 20
-1750.4
 30
0.0
 40
54.29470486111111
  1
M10(3ヵ所)
 41
0.7
 11
-35.00000000000071
 21
-1696.105295138888
 31
0.0
100
AcDbText
 73
     3
  0
TEXT
  5
127
330
471
100
AcDbEntity
  8
DIMNSIONS
 62
     7
100
AcDbText
 10
100.0
 20
-1925.399999999999
 30
0.0
 40
54.29470486111111
  1
※1 センター振り分け
 41
0.7
 11
100.0
 21
-1871.105295138889
 31
0.0
100
AcDbText
 73
     3
  0
TEXT
  5
128
330
471
100
AcDbEntity
  8
DIMNSIONS
 62
     7
100
AcDbText
 10
-1047.083333333333
 20
-708.3511111111111
 30
0.0
 40
32.57682291666667
  1
※1
 41
0.7
 11
-1047.083333333333
 21
-675.7742881944444
 31
0.0
100
AcDbText
 73
     3
  0
TEXT
  5
129
330
471
100
AcDbEntity
  8
DIMNSIONS
 62
     7
100
AcDbText
 10
100.0
 20
-2025.4
 30
0.0
 40
54.29470486111111
  1
※2 側面M10寸法
 41
0.7
 11
100.0
 21
-1971.105295138889
 31
0.0
100
AcDbText
 73
     3
  0
LINE
  5
12A
330
471
100
AcDbEntity
  8
DIMNSIONS
  6
Continuous
 62
     7
100
AcDbLine
 10
-1060.00000000003
 20
-367.0
 30
0.0
 11
-660.0
 21
-367.0
 31
0.0
  0
LINE
  5
12B
330
471
100
AcDbEntity
  8
DIMNSIONS
  6
Continuous
 62
     7
100
AcDbLine
 10
-910.5211705981895
 20
-482.0
 30
0.0
 11
-660.0
 21
-482.0
 31
0.0
  0
LINE
  5
12C
330
471
100
AcDbEntity
  8
DIMNSIONS
  6
Continuous
 62
     7
100
AcDbLine
 10
-700.0
 20
-367.0
 30
0.0
 11
-700.0
 21
-482.0
 31
0.0
  0
LINE
  5
12D
330
471
100
AcDbEntity
  8
DIMNSIONS
  6
Continuous
 62
     7
100
AcDbLine
 10
-700.0
 20
-367.0
 30
0.0
 11
-686.5992040969952
 21
-417.012451171875
 31
0.0
  0
LINE
  5
12E
330
471
100
AcDbEntity
  8
DIMNSIONS
  6
Continuous
 62
     7
100
AcDbLine
 10
-700.0
 20
-367.0
 30
0.0
 11
-713.4007959030049
 21
-417.012451171875
 31
0.0
  0
LINE
  5
12F
330
471
100
AcDbEntity
  8
DIMNSIONS
  6
Continuous
 62
     7
100
AcDbLine
 10
-700.0
 20
-482.0
 30
0.0
 11
-713.4007959030049
 21
-431.9875488281249
 31
0.0
  0
LINE
  5
130
330
471
100
AcDbEntity
  8
DIMNSIONS
  6
Continuous
 62
     7
100
AcDbLine
 10
-700.0
 20
-482.0
 30
0.0
 11
-686.5992040969952
 21
-431.9875488281249
 31
0.0
  0
TEXT
  5
131
330
471
100
AcDbEntity
  8
DIMNSIONS
 62
     7
100
AcDbText
 10
-719.8777777777776
 20
-477.4166666666666
 30
0.0
 40
54.29470486111111
  1
115
 50
90.0
 41
0.7
 11
-774.1724826388887
 21
-477.4166666666666
 31
0.0
100
AcDbText
 73
     3
  0
LINE
  5
132
330
471
100
AcDbEntity
  8
DIMNSIONS
  6
Continuous
 62
     7
100
AcDbLine
 10
-971.8309262472835
 20
-85.64723819594915
 30
0.0
 11
-875.2383436183434
 21
-59.76533368582188
 31
0.0
  0
LINE
  5
133
330
471
100
AcDbEntity
  8
DIMNSIONS
  6
Continuous
 62
     7
100
AcDbLine
 10
-870.7163953310484
 20
-463.0118049607833
 30
0.0
 11
-774.1238127021081
 21
-437.129900450656
 31
0.0
  0
LINE
  5
134
330
471
100
AcDbEntity
  8
DIMNSIONS
  6
Continuous
 62
     7
100
AcDbLine
 10
-913.8753766699194
 20
-70.11809548987279
 30
0.0
 11
-812.7608457536844
 21
-447.482662254707
 31
0.0
  0
LINE
  5
135
330
471
100
AcDbEntity
  8
DIMNSIONS
  6
Continuous
 62
     7
100
AcDbLine
 10
-913.8753766699194
 20
-70.11809548987279
 30
0.0
 11
-887.9870269588373
 21
-114.9580325135783
 31
0.0
  0
LINE
  5
136
330
471
100
AcDbEntity
  8
DIMNSIONS
  6
Continuous
 62
     7
100
AcDbLine
 10
-913.8753766699194
 20
-70.11809548987279
 30
0.0
 11
-913.8753766699194
 21
-121.8947949120373
 31
0.0
  0
LINE
  5
137
330
471
100
AcDbEntity
  8
DIMNSIONS
  6
Continuous
 62
     7
100
AcDbLine
 10
-812.7608457536844
 20
-447.482662254707
 30
0.0
 11
-837.8626877381526
 21
-402.1977405694488
 31
0.0
  0
LINE
  5
138
330
471
100
AcDbEntity
  8
DIMNSIONS
  6
Continuous
 62
     7
100
AcDbLine
 10
-812.7608457536844
 20
-447.482662254707
 30
0.0
 11
-811.8572177513874
 21
-395.7138486746506
 31
0.0
  0
TEXT
  5
139
330
471
100
AcDbEntity
  8
DIMNSIONS
 62
     7
100
AcDbText
 10
-864.2574486211199
 20
-332.0965596347775
 30
0.0
 40
54.29470486111111
  1
391 
 50
104.9999999999259
 41
0.7
 11
-916.7021062772279
 21
-346.1490633009857
 31
0.0
100
AcDbText
 73
     3
  0
LINE
  5
13A
330
471
100
AcDbEntity
  8
DIMNSIONS
  6
Continuous
 62
     7
100
AcDbLine
 10
-1310.058000000029
 20
-495.8090037365394
 30
0.0
 11
-1310.058000000029
 21
7.660327524054537
 31
0.0
  0
LINE
  5
13B
330
471
100
AcDbEntity
  8
DIMNSIONS
  6
Continuous
 62
     7
100
AcDbLine
 10
-1181.701484143678
 20
-66.77596507563771
 30
0.0
 11
-1166.809596190323
 21
-11.1986826128068
 31
0.0
  0
ARC
  5
13C
330
471
100
AcDbEntity
  8
DIMNSIONS
  6
Continuous
 62
     7
100
AcDbCircle
 10
-1310.058000000029
 20
-545.8090037365391
 30
0.0
 40
513.4693312605937
100
AcDbArc
 50
75.00000000007414
 51
90.0
  0
LINE
  5
13D
330
471
100
AcDbEntity
  8
DIMNSIONS
  6
Continuous
 62
     7
100
AcDbLine
 10
-1310.058000000029
 20
-32.33967247594546
 30
0.0
 11
-1260.045548828154
 21
-18.9388765729406
 31
0.0
  0
LINE
  5
13E
330
471
100
AcDbEntity
  8
DIMNSIONS
  6
Continuous
 62
     7
100
AcDbLine
 10
-1310.058000000029
 20
-32.33967247594546
 30
0.0
 11
-1260.045548828154
 21
-45.74046837895033
 31
0.0
  0
LINE
  5
13F
330
471
100
AcDbEntity
  8
DIMNSIONS
  6
Continuous
 62
     7
100
AcDbLine
 10
-1177.162357994374
 20
-49.83571566438293
 30
0.0
 11
-1228.939057416539
 21
-49.8357156643829
 31
0.0
  0
LINE
  5
140
330
471
100
AcDbEntity
  8
DIMNSIONS
  6
Continuous
 62
     7
100
AcDbLine
 10
-1177.162357994374
 20
-49.83571566438293
 30
0.0
 11
-1222.00229501808
 21
-23.94736595330065
 31
0.0
  0
TEXT
  5
141
330
471
100
AcDbEntity
  8
DIMNSIONS
 62
     7
100
AcDbText
 10
-1282.558757134207
 20
-8.518563861467335
 30
0.0
 40
54.29470486111111
  1
15°
 50
349.5342795993339
 41
0.7
 11
-1272.696274963185
 21
44.87288134636953
 31
0.0
100
AcDbText
 73
     3
  0
TEXT
  5
142
330
471
100
AcDbEntity
  8
DIMNSIONS
 62
     7
100
AcDbText
 10
-919.6585043281697
 20
-219.1133771623134
 30
0.0
 40
32.57682291666667
  1
※2
 50
104.9999999999259
 41
0.7
 11
-951.1252989218345
 21
-227.5448793620383
 31
0.0
100
AcDbText
 73
     3
  0
CIRCLE
  5
143
330
471
100
AcDbEntity
  8
DATA
  6
Continuous
 62
     7
100
AcDbCircle
 10
1300.0
 20
-138.75
 30
0.0
 40
88.125
  0
CIRCLE
  5
144
330
471
100
AcDbEntity
  8
DATA
  6
Continuous
 62
     7
100
AcDbCircle
 10
100.0
 20
-1334.5
 30
0.0
 40
11.75
  0
LINE
  5
145
330
471
100
AcDbEntity
  8
DATA
  6
Continuous
 62
     7
100
AcDbLine
 10
1100.0
 20
-1100.0
 30
0.0
 11
1500.0
 21
-1100.0
 31
0.0
  0
TEXT
  5
146
330
471
100
AcDbEntity
  8
DATA
 62
     7
100
AcDbText
 10
-1749.999999956249
 20
-2392.474444448382
 30
0.0
 40
38.00629340182763
  1
※仕様及び外観は予告なく変更されることがあります。
 41
0.7
 11
-1749.999999956249
 21
-2354.468151046555
 31
0.0
100
AcDbText
 73
     3
  0
TEXT
  5
147
330
471
100
AcDbEntity
  8
DATA
 62
     7
100
AcDbText
 10
-1749.999999956249
 20
-2441.863333336036
 30
0.0
 40
38.00629340182763
  1
　また、同一商品でも若干の個体差があることがあります。ご了承ください。
 41
0.7
 11
-1749.999999956249
 21
-2403.857039934209
 31
0.0
100
AcDbText
 73
     3
  0
TEXT
  5
148
330
471
100
AcDbEntity
  8
DATA
 62
     7
100
AcDbText
 10
734.4263440114318
 20
-2322.302200010376
 30
0.0
 40
38.00629340277778
  1
AM7215/64、AM7215/66、AM7215/95、AM7215/26
 41
0.7
 11
734.4263440114318
 21
-2284.295906607599
 31
0.0
100
AcDbText
 73
     3
  0
TEXT
  5
149
330
471
100
AcDbEntity
  8
DATA
 62
     7
100
AcDbText
 10
999.9999999820502
 20
-2182.382200009806
 30
0.0
 40
48.86523437377837
  1
JBL PROFESSIONAL
 41
0.7
 11
999.9999999820502
 21
-2133.516965636027
 31
0.0
100
AcDbText
 73
     3
  0
TEXT
  5
14A
330
471
100
AcDbEntity
  8
DATA
 62
     7
100
AcDbText
 10
949.9999999820495
 20
-2254.461300010377
 30
0.0
 40
38.00629340277778
  1
2-Wayフルレンジ・スピーカー
 41
0.7
 11
949.9999999820495
 21
-2216.455006607599
 31
0.0
100
AcDbText
 73
     3
  0
LINE
  5
14B
330
471
100
AcDbEntity
  8
DATA
  6
Continuous
 62
     7
100
AcDbLine
 10
-902.6419999999998
 20
-1600.0
 30
0.0
 11
-1297.358
 21
-1600.0
 31
0.0
  0
LINE
  5
14C
330
471
100
AcDbEntity
  8
DATA
  6
Continuous
 62
     7
100
AcDbLine
 10
-1287.959999999999
 20
-1568.25
 30
0.0
 11
-1177.379670564795
 21
-1568.25
 31
0.0
  0
LINE
  5
14D
330
471
100
AcDbEntity
  8
DATA
  6
Continuous
 62
     7
100
AcDbLine
 10
-1281.61
 20
-1567.742
 30
0.0
 11
-1192.709999999999
 21
-1567.742
 31
0.0
  0
LINE
  5
14E
330
471
100
AcDbEntity
  8
DATA
  6
Continuous
 62
     7
100
AcDbLine
 10
-1277.11987193938
 20
-1468.001871939381
 30
0.0
 11
-1247.70620732512
 21
-1497.41553655618
 31
0.0
  0
LINE
  5
14F
330
471
100
AcDbEntity
  8
DATA
  6
Continuous
 62
     7
100
AcDbLine
 10
-1224.94365511092
 20
-1520.17808877038
 30
0.0
 11
-1188.21987193938
 21
-1556.901871939381
 31
0.0
  0
LINE
  5
150
330
471
100
AcDbEntity
  8
DATA
  6
Continuous
 62
     7
100
AcDbLine
 10
-1310.058
 20
-831.6500000000017
 30
0.0
 11
-1310.058
 21
-1587.3
 31
0.0
  0
LINE
  5
151
330
471
100
AcDbEntity
  8
DATA
  6
Continuous
 62
     7
100
AcDbLine
 10
-1287.959999999999
 20
-1472.492
 30
0.0
 11
-1287.959999999999
 21
-1561.392
 31
0.0
  0
LINE
  5
152
330
471
100
AcDbEntity
  8
DATA
  6
Continuous
 62
     7
100
AcDbLine
 10
-1287.959999999999
 20
-1583.0
 30
0.0
 11
-1287.959999999999
 21
-1568.25
 31
0.0
  0
LINE
  5
153
330
471
100
AcDbEntity
  8
DATA
  6
Continuous
 62
     7
100
AcDbLine
 10
-1287.959999999999
 20
-850.7000000000015
 30
0.0
 11
-1287.959999999999
 21
-835.9500000000016
 31
0.0
  0
LINE
  5
154
330
471
100
AcDbEntity
  8
DATA
  6
Continuous
 62
     7
100
AcDbLine
 10
-912.0399999999987
 20
-850.7000000000015
 30
0.0
 11
-912.0399999999987
 21
-835.9500000000016
 31
0.0
  0
LINE
  5
155
330
471
100
AcDbEntity
  8
DATA
  6
Continuous
 62
     7
100
AcDbLine
 10
-889.9419999999997
 20
-1587.3
 30
0.0
 11
-889.9419999999997
 21
-831.6500000000017
 31
0.0
  0
LINE
  5
156
330
471
100
AcDbEntity
  8
DATA
  6
Continuous
 62
     7
100
AcDbLine
 10
-1287.959999999999
 20
-850.7000000000015
 30
0.0
 11
-912.0399999999987
 21
-850.7000000000015
 31
0.0
  0
LINE
  5
157
330
471
100
AcDbEntity
  8
DATA
  6
Continuous
 62
     7
100
AcDbLine
 10
-1297.358
 20
-818.9500000000016
 30
0.0
 11
-902.6419999999998
 21
-818.9500000000016
 31
0.0
  0
LINE
  5
158
330
471
100
AcDbEntity
  8
DATA
  6
Continuous
 62
     7
100
AcDbLine
 10
-308.7
 20
-1600.0
 30
0.0
 11
-787.2999999999998
 21
-1600.0
 31
0.0
  0
LINE
  5
159
330
471
100
AcDbEntity
  8
DATA
  6
Continuous
 62
     7
100
AcDbLine
 10
-800.0
 20
-831.6500000000017
 30
0.0
 11
-800.0
 21
-1587.3
 31
0.0
  0
LINE
  5
15A
330
471
100
AcDbEntity
  8
DATA
  6
STYLE_01
 62
     7
100
AcDbLine
 10
-758.575883204
 20
-1565.519492667021
 30
0.0
 11
-758.575883204
 21
-1179.566507371081
 31
0.0
  0
LINE
  5
15B
330
471
100
AcDbEntity
  8
DATA
  6
STYLE_01
 62
     7
100
AcDbLine
 10
-753.4958832040023
 20
-1168.539356722861
 30
0.0
 11
-753.4958832040023
 21
-868.3946432796807
 31
0.0
  0
LINE
  5
15C
330
471
100
AcDbEntity
  8
DATA
  6
STYLE_01
 62
     7
100
AcDbLine
 10
-745.8758832039999
 20
-1170.867
 30
0.0
 11
-751.5702298670999
 21
-1170.568571937981
 31
0.0
  0
LINE
  5
15D
330
471
100
AcDbEntity
  8
DATA
  6
STYLE_01
 62
     7
100
AcDbLine
 10
-745.8758832039999
 20
-1179.788663614601
 30
0.0
 11
-753.4958832040023
 21
-1179.122000000001
 31
0.0
  0
LINE
  5
15E
330
471
100
AcDbEntity
  8
DATA
  6
STYLE_01
 62
     7
100
AcDbLine
 10
-758.575883204
 20
-1179.566442418201
 30
0.0
 11
-753.4958832040023
 21
-1179.122000000001
 31
0.0
  0
LINE
  5
15F
330
471
100
AcDbEntity
  8
DATA
  6
STYLE_01
 62
     7
100
AcDbLine
 10
-751.5702298670999
 20
-866.3654280645605
 30
0.0
 11
-747.0
 21
-866.1259124652257
 31
0.0
  0
LINE
  5
160
330
471
100
AcDbEntity
  8
DATA
  6
Continuous
 62
     7
100
AcDbLine
 10
-787.2999999999998
 20
-818.9500000000016
 30
0.0
 11
-308.7
 21
-818.9500000000016
 31
0.0
  0
LINE
  5
161
330
471
100
AcDbEntity
  8
DATA
  6
Continuous
 62
     7
100
AcDbLine
 10
-1310.058000000029
 20
-545.8090037365394
 30
0.0
 11
-1310.058000000029
 21
-550.7018832039997
 31
0.0
  0
LINE
  5
162
330
471
100
AcDbEntity
  8
DATA
  6
Continuous
 62
     7
100
AcDbLine
 10
-1192.054245947729
 20
-105.4129981272138
 30
0.0
 11
-1310.058000000029
 21
-545.8090037365394
 31
0.0
  0
LINE
  5
163
330
471
100
AcDbEntity
  8
DATA
  6
Continuous
 62
     7
100
AcDbLine
 10
-889.942000000029
 20
-545.8090037365394
 30
0.0
 11
-1007.94575405233
 21
-105.4129981272138
 31
0.0
  0
LINE
  5
164
330
471
100
AcDbEntity
  8
DATA
  6
Continuous
 62
     7
100
AcDbLine
 10
-889.942000000029
 20
-550.7018832039997
 30
0.0
 11
-889.942000000029
 21
-545.8090037365394
 31
0.0
  0
LINE
  5
165
330
471
100
AcDbEntity
  8
DATA
  6
Continuous
 62
     7
100
AcDbLine
 10
-1020.213012046205
 20
-96.0
 30
0.0
 11
-1179.786987953854
 21
-96.0
 31
0.0
  0
ARC
  5
166
330
471
100
AcDbEntity
  8
DATA
  6
Continuous
 62
     7
100
AcDbCircle
 10
-1099.999999999999
 20
-1372.543
 30
0.0
 40
180.0859999999998
100
AcDbArc
 50
22.85311770353887
 51
247.5721407012919
  0
ARC
  5
167
330
471
100
AcDbEntity
  8
DATA
  6
Continuous
 62
     7
100
AcDbCircle
 10
-1099.999999999999
 20
-1372.543
 30
0.0
 40
160.022455799
100
AcDbArc
 50
20.39318523424741
 51
247.388830727964
  0
ARC
  5
168
330
471
100
AcDbEntity
  8
DATA
  6
Continuous
 62
     7
100
AcDbCircle
 10
-1099.999999999999
 20
-1372.543000000002
 30
0.0
 40
193.4209999999985
100
AcDbArc
 50
24.4326636397784
 51
247.876110799641
  0
ARC
  5
169
330
471
100
AcDbEntity
  8
DATA
  6
Continuous
 62
     7
100
AcDbCircle
 10
-1192.709999999999
 20
-1561.392
 30
0.0
 40
6.349999999999909
100
AcDbArc
 50
270.0
 51
45.0
  0
ARC
  5
16A
330
471
100
AcDbEntity
  8
DATA
  6
Continuous
 62
     7
100
AcDbCircle
 10
-1281.61
 20
-1561.392
 30
0.0
 40
6.349999999999909
100
AcDbArc
 50
180.0
 51
270.0
  0
ARC
  5
16B
330
471
100
AcDbEntity
  8
DATA
  6
Continuous
 62
     7
100
AcDbCircle
 10
-1281.61
 20
-1472.492
 30
0.0
 40
6.349999999999913
100
AcDbArc
 50
45.0
 51
180.0
  0
ARC
  5
16C
330
471
100
AcDbEntity
  8
DATA
  6
STYLE_01
 62
     7
100
AcDbCircle
 10
-751.4638832040024
 20
-1168.539356722861
 30
0.0
 40
2.032000000000152
100
AcDbArc
 50
180.0
 51
266.9999999960033
  0
ARC
  5
16D
330
471
100
AcDbEntity
  8
DATA
  6
STYLE_01
 62
     7
100
AcDbCircle
 10
-751.4638832040024
 20
-868.3946432796807
 30
0.0
 40
2.032000000000065
100
AcDbArc
 50
93.00000000399668
 51
180.0
  0
ARC
  5
16E
330
471
100
AcDbEntity
  8
DATA
  6
Continuous
 62
     7
100
AcDbCircle
 10
-915.8500000000286
 20
-550.7018832039997
 30
0.0
 40
25.90799999999993
100
AcDbArc
 50
284.4775121858996
 51
0.0000000000010232
  0
ARC
  5
16F
330
471
100
AcDbEntity
  8
DATA
  6
Continuous
 62
     7
100
AcDbCircle
 10
-1100.000000000028
 20
162.5079999999999
 30
0.0
 40
762.5079999999997
100
AcDbArc
 50
255.5224878141002
 51
284.4775121858996
  0
ARC
  5
170
330
471
100
AcDbEntity
  8
DATA
  6
Continuous
 62
     7
100
AcDbCircle
 10
-1284.150000000028
 20
-550.7018832039997
 30
0.0
 40
25.90799999999991
100
AcDbArc
 50
180.0
 51
255.5224878141005
  0
ARC
  5
171
330
471
100
AcDbEntity
  8
DATA
  6
Continuous
 62
     7
100
AcDbCircle
 10
-1099.999999999999
 20
-1372.543000000001
 30
0.0
 40
52.89650611600364
100
AcDbArc
 50
353.0325227543691
 51
269.2576589702794
  0
ARC
  5
172
330
471
100
AcDbEntity
  8
DATA
  6
Continuous
 62
     7
100
AcDbCircle
 10
-1297.358
 20
-1587.3
 30
0.0
 40
12.69999999999982
100
AcDbArc
 50
180.0
 51
270.000000000001
  0
ARC
  5
173
330
471
100
AcDbEntity
  8
DATA
  6
Continuous
 62
     7
100
AcDbCircle
 10
-902.6419999999998
 20
-1587.3
 30
0.0
 40
12.69999999999982
100
AcDbArc
 50
270.0
 51
0.0000000000010232
  0
ARC
  5
174
330
471
100
AcDbEntity
  8
DATA
  6
Continuous
 62
     7
100
AcDbCircle
 10
-1297.358
 20
-831.6500000000017
 30
0.0
 40
12.70000000000004
100
AcDbArc
 50
90.0
 51
180.0
  0
ARC
  5
175
330
471
100
AcDbEntity
  8
DATA
  6
Continuous
 62
     7
100
AcDbCircle
 10
-902.6419999999998
 20
-831.6500000000017
 30
0.0
 40
12.70000000000004
100
AcDbArc
 50
0.0
 51
90.0
  0
LINE
  5
176
330
471
100
AcDbEntity
  8
DATA
  6
Continuous
 62
     7
100
AcDbLine
 10
-296.0
 20
-831.6500000000017
 30
0.0
 11
-296.0
 21
-1587.3
 31
0.0
  0
ARC
  5
177
330
471
100
AcDbEntity
  8
DATA
  6
Continuous
 62
     7
100
AcDbCircle
 10
-787.2999999999998
 20
-831.6500000000017
 30
0.0
 40
12.70000000000004
100
AcDbArc
 50
90.0
 51
180.0
  0
ARC
  5
178
330
471
100
AcDbEntity
  8
DATA
  6
Continuous
 62
     7
100
AcDbCircle
 10
-308.7
 20
-831.6500000000017
 30
0.0
 40
12.69999999999999
100
AcDbArc
 50
0.0
 51
90.0
  0
ARC
  5
179
330
471
100
AcDbEntity
  8
DATA
  6
Continuous
 62
     7
100
AcDbCircle
 10
-308.7
 20
-1587.3
 30
0.0
 40
12.69999999999982
100
AcDbArc
 50
270.0
 51
0.0000000000010232
  0
ARC
  5
17A
330
471
100
AcDbEntity
  8
DATA
  6
Continuous
 62
     7
100
AcDbCircle
 10
-787.2999999999998
 20
-1587.3
 30
0.0
 40
12.70000000000004
100
AcDbArc
 50
180.0
 51
270.0
  0
LINE
  5
17B
330
471
100
AcDbEntity
  8
DATA
  6
Continuous
 62
     7
100
AcDbLine
 10
-889.9419999999997
 20
-1583.0
 30
0.0
 11
-1310.058
 21
-1583.0
 31
0.0
  0
LINE
  5
17C
330
471
100
AcDbEntity
  8
DATA
  6
Continuous
 62
     7
100
AcDbLine
 10
-889.9419999999997
 20
-835.9500000000016
 30
0.0
 11
-1310.058
 21
-835.9500000000016
 31
0.0
  0
LINE
  5
17D
330
471
100
AcDbEntity
  8
DATA
  6
Continuous
 62
     7
100
AcDbLine
 10
-747.0
 20
-835.9500000000016
 30
0.0
 11
-800.0
 21
-835.9500000000016
 31
0.0
  0
LINE
  5
17E
330
471
100
AcDbEntity
  8
DATA
  6
Continuous
 62
     7
100
AcDbLine
 10
-800.0
 20
-1583.0
 30
0.0
 11
-747.0
 21
-1583.0
 31
0.0
  0
ARC
  5
17F
330
471
100
AcDbEntity
  8
DATA
  6
Continuous
 62
     7
100
AcDbCircle
 10
-1179.786987953854
 20
-108.7
 30
0.0
 40
12.70000000000002
100
AcDbArc
 50
90.0
 51
165.0000000000742
  0
ARC
  5
180
330
471
100
AcDbEntity
  8
DATA
  6
Continuous
 62
     7
100
AcDbCircle
 10
-1020.213012046205
 20
-108.7
 30
0.0
 40
12.6999999999999
100
AcDbArc
 50
14.99999999992608
 51
90.00000000000049
  0
LINE
  5
181
330
471
100
AcDbEntity
  8
DATA
  6
Continuous
 62
     7
100
AcDbLine
 10
297.3580000000002
 20
-1600.0
 30
0.0
 11
-97.35800000000015
 21
-1600.0
 31
0.0
  0
LINE
  5
182
330
471
100
AcDbEntity
  8
DATA
  6
Continuous
 62
     7
100
AcDbLine
 10
-110.0580000000002
 20
-831.6500000000017
 30
0.0
 11
-110.0580000000002
 21
-1587.3
 31
0.0
  0
LINE
  5
183
330
471
100
AcDbEntity
  8
DATA
  6
Continuous
 62
     7
100
AcDbLine
 10
310.0580000000003
 20
-1587.3
 30
0.0
 11
310.0580000000003
 21
-831.6500000000017
 31
0.0
  0
LINE
  5
184
330
471
100
AcDbEntity
  8
DATA
  6
Continuous
 62
     7
100
AcDbLine
 10
-97.35800000000015
 20
-818.9500000000016
 30
0.0
 11
297.3580000000002
 21
-818.9500000000016
 31
0.0
  0
ARC
  5
185
330
471
100
AcDbEntity
  8
DATA
  6
Continuous
 62
     7
100
AcDbCircle
 10
-97.3580000000004
 20
-1587.3
 30
0.0
 40
12.69999999999982
100
AcDbArc
 50
180.0
 51
270.000000000001
  0
ARC
  5
186
330
471
100
AcDbEntity
  8
DATA
  6
Continuous
 62
     7
100
AcDbCircle
 10
297.3580000000002
 20
-1587.3
 30
0.0
 40
12.69999999999982
100
AcDbArc
 50
270.0
 51
0.0000000000010232
  0
ARC
  5
187
330
471
100
AcDbEntity
  8
DATA
  6
Continuous
 62
     7
100
AcDbCircle
 10
-97.35800000000015
 20
-831.6500000000017
 30
0.0
 40
12.70000000000004
100
AcDbArc
 50
90.0
 51
180.0
  0
ARC
  5
188
330
471
100
AcDbEntity
  8
DATA
  6
Continuous
 62
     7
100
AcDbCircle
 10
297.3580000000002
 20
-831.6500000000017
 30
0.0
 40
12.70000000000004
100
AcDbArc
 50
0.0
 51
90.0
  0
CIRCLE
  5
189
330
471
100
AcDbEntity
  8
DATA
  6
Continuous
 62
     7
100
AcDbCircle
 10
-1100.00000000003
 20
-138.0
 30
0.0
 40
11.17600000000038
  0
LINE
  5
18A
330
471
100
AcDbEntity
  8
DATA
  6
Continuous
 62
     7
100
AcDbLine
 10
-1102.79400000003
 20
-136.3490000000001
 30
0.0
 11
-1100.00000000003
 21
-134.5709999999999
 31
0.0
  0
LINE
  5
18B
330
471
100
AcDbEntity
  8
DATA
  6
Continuous
 62
     7
100
AcDbLine
 10
-1097.20600000003
 20
-139.6509999999998
 30
0.0
 11
-1100.00000000003
 21
-141.4289999999996
 31
0.0
  0
LINE
  5
18C
330
471
100
AcDbEntity
  8
DATA
  6
Continuous
 62
     7
100
AcDbLine
 10
-1102.79400000003
 20
-139.6509999999998
 30
0.0
 11
-1102.79400000003
 21
-136.3490000000001
 31
0.0
  0
LINE
  5
18D
330
471
100
AcDbEntity
  8
DATA
  6
Continuous
 62
     7
100
AcDbLine
 10
-1097.20600000003
 20
-136.3490000000001
 30
0.0
 11
-1097.20600000003
 21
-139.6509999999998
 31
0.0
  0
LINE
  5
18E
330
471
100
AcDbEntity
  8
DATA
  6
Continuous
 62
     7
100
AcDbLine
 10
-1100.00000000003
 20
-141.4289999999996
 30
0.0
 11
-1102.79400000003
 21
-139.6509999999998
 31
0.0
  0
LINE
  5
18F
330
471
100
AcDbEntity
  8
DATA
  6
Continuous
 62
     7
100
AcDbLine
 10
-1100.00000000003
 20
-134.5709999999999
 30
0.0
 11
-1097.20600000003
 21
-136.3490000000001
 31
0.0
  0
CIRCLE
  5
190
330
471
100
AcDbEntity
  8
DATA
  6
Continuous
 62
     7
100
AcDbCircle
 10
-1100.00000000003
 20
-367.0
 30
0.0
 40
11.17600000000038
  0
LINE
  5
191
330
471
100
AcDbEntity
  8
DATA
  6
Continuous
 62
     7
100
AcDbLine
 10
-1102.79400000003
 20
-365.3490000000001
 30
0.0
 11
-1100.00000000003
 21
-363.5709999999999
 31
0.0
  0
LINE
  5
192
330
471
100
AcDbEntity
  8
DATA
  6
Continuous
 62
     7
100
AcDbLine
 10
-1097.20600000003
 20
-368.6509999999998
 30
0.0
 11
-1100.00000000003
 21
-370.4289999999996
 31
0.0
  0
LINE
  5
193
330
471
100
AcDbEntity
  8
DATA
  6
Continuous
 62
     7
100
AcDbLine
 10
-1102.79400000003
 20
-368.6509999999998
 30
0.0
 11
-1102.79400000003
 21
-365.3490000000001
 31
0.0
  0
LINE
  5
194
330
471
100
AcDbEntity
  8
DATA
  6
Continuous
 62
     7
100
AcDbLine
 10
-1097.20600000003
 20
-365.3490000000001
 30
0.0
 11
-1097.20600000003
 21
-368.6509999999998
 31
0.0
  0
LINE
  5
195
330
471
100
AcDbEntity
  8
DATA
  6
Continuous
 62
     7
100
AcDbLine
 10
-1100.00000000003
 20
-370.4289999999996
 30
0.0
 11
-1102.79400000003
 21
-368.6509999999998
 31
0.0
  0
LINE
  5
196
330
471
100
AcDbEntity
  8
DATA
  6
Continuous
 62
     7
100
AcDbLine
 10
-1100.00000000003
 20
-363.5709999999999
 30
0.0
 11
-1097.20600000003
 21
-365.3490000000001
 31
0.0
  0
CIRCLE
  5
197
330
471
100
AcDbEntity
  8
DATA
  6
Continuous
 62
     7
100
AcDbCircle
 10
-950.5211705981896
 20
-482.0
 30
0.0
 40
11.17600000000038
  0
LINE
  5
198
330
471
100
AcDbEntity
  8
DATA
  6
Continuous
 62
     7
100
AcDbLine
 10
-953.3151705981891
 20
-480.3490000000001
 30
0.0
 11
-950.5211705981896
 21
-478.5709999999999
 31
0.0
  0
LINE
  5
199
330
471
100
AcDbEntity
  8
DATA
  6
Continuous
 62
     7
100
AcDbLine
 10
-947.7271705981896
 20
-483.6509999999998
 30
0.0
 11
-950.5211705981896
 21
-485.4289999999996
 31
0.0
  0
LINE
  5
19A
330
471
100
AcDbEntity
  8
DATA
  6
Continuous
 62
     7
100
AcDbLine
 10
-953.3151705981891
 20
-483.6509999999998
 30
0.0
 11
-953.3151705981891
 21
-480.3490000000001
 31
0.0
  0
LINE
  5
19B
330
471
100
AcDbEntity
  8
DATA
  6
Continuous
 62
     7
100
AcDbLine
 10
-947.7271705981896
 20
-480.3490000000001
 30
0.0
 11
-947.7271705981896
 21
-483.6509999999998
 31
0.0
  0
LINE
  5
19C
330
471
100
AcDbEntity
  8
DATA
  6
Continuous
 62
     7
100
AcDbLine
 10
-950.5211705981896
 20
-485.4289999999996
 30
0.0
 11
-953.3151705981891
 21
-483.6509999999998
 31
0.0
  0
LINE
  5
19D
330
471
100
AcDbEntity
  8
DATA
  6
Continuous
 62
     7
100
AcDbLine
 10
-950.5211705981896
 20
-478.5709999999999
 30
0.0
 11
-947.7271705981896
 21
-480.3490000000001
 31
0.0
  0
CIRCLE
  5
19E
330
471
100
AcDbEntity
  8
DATA
  6
Continuous
 62
     7
100
AcDbCircle
 10
-1249.478829401809
 20
-482.0
 30
0.0
 40
11.17600000000038
  0
LINE
  5
19F
330
471
100
AcDbEntity
  8
DATA
  6
Continuous
 62
     7
100
AcDbLine
 10
-1246.684829401809
 20
-480.3490000000001
 30
0.0
 11
-1249.478829401809
 21
-478.5709999999999
 31
0.0
  0
LINE
  5
1A0
330
471
100
AcDbEntity
  8
DATA
  6
Continuous
 62
     7
100
AcDbLine
 10
-1252.272829401809
 20
-483.6509999999998
 30
0.0
 11
-1249.478829401809
 21
-485.4289999999996
 31
0.0
  0
LINE
  5
1A1
330
471
100
AcDbEntity
  8
DATA
  6
Continuous
 62
     7
100
AcDbLine
 10
-1246.684829401809
 20
-483.6509999999998
 30
0.0
 11
-1246.684829401809
 21
-480.3490000000001
 31
0.0
  0
LINE
  5
1A2
330
471
100
AcDbEntity
  8
DATA
  6
Continuous
 62
     7
100
AcDbLine
 10
-1252.272829401809
 20
-480.3490000000001
 30
0.0
 11
-1252.272829401809
 21
-483.6509999999998
 31
0.0
  0
LINE
  5
1A3
330
471
100
AcDbEntity
  8
DATA
  6
Continuous
 62
     7
100
AcDbLine
 10
-1249.478829401809
 20
-485.4289999999996
 30
0.0
 11
-1246.684829401809
 21
-483.6509999999998
 31
0.0
  0
LINE
  5
1A4
330
471
100
AcDbEntity
  8
DATA
  6
Continuous
 62
     7
100
AcDbLine
 10
-1249.478829401809
 20
-478.5709999999999
 30
0.0
 11
-1252.272829401809
 21
-480.3490000000001
 31
0.0
  0
LINE
  5
1A5
330
471
100
AcDbEntity
  8
DATA
  6
Continuous
 62
     7
100
AcDbLine
 10
-747.0
 20
-835.9500000000016
 30
0.0
 11
-747.0
 21
-1583.0
 31
0.0
  0
LINE
  5
1A6
330
471
100
AcDbEntity
  8
DATA
  6
STYLE_01
 62
     7
100
AcDbLine
 10
-758.575883204
 20
-1565.519492667021
 30
0.0
 11
-747.0
 21
-1565.519492667021
 31
0.0
  0
LINE
  5
1A7
330
471
100
AcDbEntity
  8
DATA
  6
Continuous
 62
     7
100
AcDbLine
 10
10.46795929882989
 20
-818.9500000000016
 30
0.0
 11
10.46795929882989
 21
-1600.0
 31
0.0
  0
LINE
  5
1A8
330
471
100
AcDbEntity
  8
DATA
  6
Continuous
 62
     7
100
AcDbLine
 10
189.53204070117
 20
-818.9500000000016
 30
0.0
 11
189.53204070117
 21
-1600.0
 31
0.0
  0
CIRCLE
  5
1A9
330
471
100
AcDbEntity
  8
DATA
  6
Continuous
 62
     7
100
AcDbCircle
 10
100.0
 20
-860.9500000000016
 30
0.0
 40
11.17600000000038
  0
LINE
  5
1AA
330
471
100
AcDbEntity
  8
DATA
  6
Continuous
 62
     7
100
AcDbLine
 10
97.20600000000013
 20
-859.2990000000016
 30
0.0
 11
100.0
 21
-857.5210000000016
 31
0.0
  0
LINE
  5
1AB
330
471
100
AcDbEntity
  8
DATA
  6
Continuous
 62
     7
100
AcDbLine
 10
102.7939999999998
 20
-862.6010000000016
 30
0.0
 11
100.0
 21
-864.3790000000013
 31
0.0
  0
LINE
  5
1AC
330
471
100
AcDbEntity
  8
DATA
  6
Continuous
 62
     7
100
AcDbLine
 10
97.20600000000013
 20
-862.6010000000016
 30
0.0
 11
97.20600000000013
 21
-859.2990000000016
 31
0.0
  0
LINE
  5
1AD
330
471
100
AcDbEntity
  8
DATA
  6
Continuous
 62
     7
100
AcDbLine
 10
102.7939999999998
 20
-859.2990000000016
 30
0.0
 11
102.7939999999998
 21
-862.6010000000016
 31
0.0
  0
LINE
  5
1AE
330
471
100
AcDbEntity
  8
DATA
  6
Continuous
 62
     7
100
AcDbLine
 10
100.0
 20
-864.3790000000013
 30
0.0
 11
97.20600000000013
 21
-862.6010000000016
 31
0.0
  0
LINE
  5
1AF
330
471
100
AcDbEntity
  8
DATA
  6
Continuous
 62
     7
100
AcDbLine
 10
100.0
 20
-857.5210000000016
 30
0.0
 11
102.7939999999998
 21
-859.2990000000016
 31
0.0
  0
LINE
  5
1B0
330
471
100
AcDbEntity
  8
DATA
  6
Continuous
 62
     1
100
AcDbLine
 10
-92.93968448679356
 20
-860.7632292863044
 30
0.0
 11
-92.93921146279137
 21
-860.670137777368
 31
0.0
  0
LINE
  5
1B1
330
471
100
AcDbEntity
  8
DATA
  6
Continuous
 62
     1
100
AcDbLine
 10
-92.93996830119487
 20
-860.856516693849
 30
0.0
 11
-92.93968448679356
 21
-860.7632292863044
 31
0.0
  0
LINE
  5
1B2
330
471
100
AcDbEntity
  8
DATA
  6
Continuous
 62
     7
100
AcDbLine
 10
-90.77080130599524
 20
-859.2990000000016
 30
0.0
 11
-90.04771410599527
 21
-857.5210000000016
 31
0.0
  0
LINE
  5
1B3
330
471
100
AcDbEntity
  8
DATA
  6
Continuous
 62
     7
100
AcDbLine
 10
-89.32462690599534
 20
-862.6010000000016
 30
0.0
 11
-90.04771410599527
 21
-864.3790000000013
 31
0.0
  0
LINE
  5
1B4
330
471
100
AcDbEntity
  8
DATA
  6
Continuous
 62
     7
100
AcDbLine
 10
-90.77080130599524
 20
-862.6010000000016
 30
0.0
 11
-90.77080130599524
 21
-859.2990000000016
 31
0.0
  0
LINE
  5
1B5
330
471
100
AcDbEntity
  8
DATA
  6
Continuous
 62
     7
100
AcDbLine
 10
-89.32462690599534
 20
-859.2990000000016
 30
0.0
 11
-89.32462690599534
 21
-862.6010000000016
 31
0.0
  0
LINE
  5
1B6
330
471
100
AcDbEntity
  8
DATA
  6
Continuous
 62
     7
100
AcDbLine
 10
-90.04771410599527
 20
-864.3790000000013
 30
0.0
 11
-90.77080130599524
 21
-862.6010000000016
 31
0.0
  0
LINE
  5
1B7
330
471
100
AcDbEntity
  8
DATA
  6
Continuous
 62
     7
100
AcDbLine
 10
-90.04771410599527
 20
-857.5210000000016
 30
0.0
 11
-89.32462690599534
 21
-859.2990000000016
 31
0.0
  0
ARC
  5
1B8
330
471
100
AcDbEntity
  8
DATA
  6
Continuous
 62
     7
100
AcDbCircle
 10
-90.04646529788905
 20
-850.6149402297095
 30
0.0
 40
0.8409411569565982
100
AcDbArc
 50
90.08508497843934
 51
122.5337833906921
  0
ARC
  5
1B9
330
471
100
AcDbEntity
  8
DATA
  6
Continuous
 62
     7
100
AcDbCircle
 10
-89.56867514228822
 20
-851.3636828320851
 30
0.0
 40
1.729140969886839
100
AcDbArc
 50
122.5384658429393
 51
144.472208000297
  0
ARC
  5
1BA
330
471
100
AcDbEntity
  8
DATA
  6
Continuous
 62
     7
100
AcDbCircle
 10
-87.20302888368497
 20
-853.1350401062116
 30
0.0
 40
4.684193536293193
100
AcDbArc
 50
143.6536509562785
 51
159.7263019424399
  0
ARC
  5
1BB
330
471
100
AcDbEntity
  8
DATA
  6
Continuous
 62
     7
100
AcDbCircle
 10
-68.79286868548326
 20
-859.2091815618031
 30
0.0
 40
24.06817704924735
100
AcDbArc
 50
161.348578755399
 51
170.9977163746151
  0
ARC
  5
1BC
330
471
100
AcDbEntity
  8
DATA
  6
Continuous
 62
     7
100
AcDbCircle
 10
-56.07473671649643
 20
-860.6974406284795
 30
0.0
 40
36.86619130442276
100
AcDbArc
 50
171.8061027585769
 51
180.3925195075583
  0
ARC
  5
1BD
330
471
100
AcDbEntity
  8
DATA
  6
Continuous
 62
     7
100
AcDbCircle
 10
-90.04896291410153
 20
-850.6149402297095
 30
0.0
 40
0.840941156956585
100
AcDbArc
 50
57.46621660930784
 51
89.91491502156067
  0
ARC
  5
1BE
330
471
100
AcDbEntity
  8
DATA
  6
Continuous
 62
     7
100
AcDbCircle
 10
-90.52675306970234
 20
-851.3636828320851
 30
0.0
 40
1.729140969886823
100
AcDbArc
 50
35.52779199970297
 51
57.4615341570607
  0
ARC
  5
1BF
330
471
100
AcDbEntity
  8
DATA
  6
Continuous
 62
     7
100
AcDbCircle
 10
-92.89239932830559
 20
-853.1350401062116
 30
0.0
 40
4.684193536293205
100
AcDbArc
 50
20.27369805756009
 51
36.34634904372153
  0
ARC
  5
1C0
330
471
100
AcDbEntity
  8
DATA
  6
Continuous
 62
     7
100
AcDbCircle
 10
-111.3025595265073
 20
-859.2091815618031
 30
0.0
 40
24.06817704924746
100
AcDbArc
 50
9.00228362538492
 51
18.651421244601
  0
ARC
  5
1C1
330
471
100
AcDbEntity
  8
DATA
  6
Continuous
 62
     7
100
AcDbCircle
 10
-124.0206914954941
 20
-860.6974406284795
 30
0.0
 40
36.86619130442281
100
AcDbArc
 50
359.6074804924417
 51
8.193897241423085
  0
ARC
  5
1C2
330
471
100
AcDbEntity
  8
DATA
  6
Continuous
 62
     7
100
AcDbCircle
 10
-90.04646529788905
 20
-871.218542270309
 30
0.0
 40
0.840941156956585
100
AcDbArc
 50
237.4662166093078
 51
269.9149150215607
  0
ARC
  5
1C3
330
471
100
AcDbEntity
  8
DATA
  6
Continuous
 62
     7
100
AcDbCircle
 10
-89.56867514228822
 20
-870.4697996679335
 30
0.0
 40
1.729140969886823
100
AcDbArc
 50
215.527791999703
 51
237.4615341570607
  0
ARC
  5
1C4
330
471
100
AcDbEntity
  8
DATA
  6
Continuous
 62
     7
100
AcDbCircle
 10
-87.20302888368497
 20
-868.6984423938071
 30
0.0
 40
4.684193536293205
100
AcDbArc
 50
200.2736980575601
 51
216.3463490437215
  0
ARC
  5
1C5
330
471
100
AcDbEntity
  8
DATA
  6
Continuous
 62
     7
100
AcDbCircle
 10
-68.79286868548326
 20
-862.6243009382154
 30
0.0
 40
24.06817704924746
100
AcDbArc
 50
189.0022836253848
 51
198.6514212446009
  0
ARC
  5
1C6
330
471
100
AcDbEntity
  8
DATA
  6
Continuous
 62
     7
100
AcDbCircle
 10
-56.07473671649643
 20
-861.1360418715392
 30
0.0
 40
36.86619130442281
100
AcDbArc
 50
179.6074804924416
 51
188.1938972414231
  0
ARC
  5
1C7
330
471
100
AcDbEntity
  8
DATA
  6
Continuous
 62
     7
100
AcDbCircle
 10
-90.04896291410153
 20
-871.218542270309
 30
0.0
 40
0.8409411569565982
100
AcDbArc
 50
270.0850849784393
 51
302.5337833906923
  0
ARC
  5
1C8
330
471
100
AcDbEntity
  8
DATA
  6
Continuous
 62
     7
100
AcDbCircle
 10
-90.52675306970234
 20
-870.4697996679335
 30
0.0
 40
1.729140969886839
100
AcDbArc
 50
302.5384658429393
 51
324.472208000297
  0
ARC
  5
1C9
330
471
100
AcDbEntity
  8
DATA
  6
Continuous
 62
     7
100
AcDbCircle
 10
-92.89239932830559
 20
-868.6984423938071
 30
0.0
 40
4.684193536293193
100
AcDbArc
 50
323.6536509562785
 51
339.72630194244
  0
ARC
  5
1CA
330
471
100
AcDbEntity
  8
DATA
  6
Continuous
 62
     7
100
AcDbCircle
 10
-111.3025595265073
 20
-862.6243009382154
 30
0.0
 40
24.06817704924735
100
AcDbArc
 50
341.3485787553989
 51
350.9977163746151
  0
ARC
  5
1CB
330
471
100
AcDbEntity
  8
DATA
  6
Continuous
 62
     7
100
AcDbCircle
 10
-124.0206914954941
 20
-861.1360418715392
 30
0.0
 40
36.86619130442276
100
AcDbArc
 50
351.8061027585769
 51
0.3925195075584043
  0
LINE
  5
1CC
330
471
100
AcDbEntity
  8
DATA
  6
Continuous
 62
     1
100
AcDbLine
 10
292.9396844867936
 20
-860.7632292863044
 30
0.0
 11
292.9392114627914
 21
-860.670137777368
 31
0.0
  0
LINE
  5
1CD
330
471
100
AcDbEntity
  8
DATA
  6
Continuous
 62
     1
100
AcDbLine
 10
292.9399683011949
 20
-860.856516693849
 30
0.0
 11
292.9396844867936
 21
-860.7632292863044
 31
0.0
  0
LINE
  5
1CE
330
471
100
AcDbEntity
  8
DATA
  6
Continuous
 62
     7
100
AcDbLine
 10
290.7708013059952
 20
-859.2990000000016
 30
0.0
 11
290.0477141059953
 21
-857.5210000000016
 31
0.0
  0
LINE
  5
1CF
330
471
100
AcDbEntity
  8
DATA
  6
Continuous
 62
     7
100
AcDbLine
 10
289.3246269059953
 20
-862.6010000000016
 30
0.0
 11
290.0477141059953
 21
-864.3790000000013
 31
0.0
  0
LINE
  5
1D0
330
471
100
AcDbEntity
  8
DATA
  6
Continuous
 62
     7
100
AcDbLine
 10
290.7708013059952
 20
-862.6010000000016
 30
0.0
 11
290.7708013059952
 21
-859.2990000000016
 31
0.0
  0
LINE
  5
1D1
330
471
100
AcDbEntity
  8
DATA
  6
Continuous
 62
     7
100
AcDbLine
 10
289.3246269059953
 20
-859.2990000000016
 30
0.0
 11
289.3246269059953
 21
-862.6010000000016
 31
0.0
  0
LINE
  5
1D2
330
471
100
AcDbEntity
  8
DATA
  6
Continuous
 62
     7
100
AcDbLine
 10
290.0477141059953
 20
-864.3790000000013
 30
0.0
 11
290.7708013059952
 21
-862.6010000000016
 31
0.0
  0
LINE
  5
1D3
330
471
100
AcDbEntity
  8
DATA
  6
Continuous
 62
     7
100
AcDbLine
 10
290.0477141059953
 20
-857.5210000000016
 30
0.0
 11
289.3246269059953
 21
-859.2990000000016
 31
0.0
  0
ARC
  5
1D4
330
471
100
AcDbEntity
  8
DATA
  6
Continuous
 62
     7
100
AcDbCircle
 10
290.046465297889
 20
-850.6149402297095
 30
0.0
 40
0.8409411569566156
100
AcDbArc
 50
57.46621660930459
 51
89.91491502155678
  0
ARC
  5
1D5
330
471
100
AcDbEntity
  8
DATA
  6
Continuous
 62
     7
100
AcDbCircle
 10
289.5686751422882
 20
-851.3636828320851
 30
0.0
 40
1.729140969886869
100
AcDbArc
 50
35.52779199970188
 51
57.46153415705911
  0
ARC
  5
1D6
330
471
100
AcDbEntity
  8
DATA
  6
Continuous
 62
     7
100
AcDbCircle
 10
287.2030288836849
 20
-853.1350401062116
 30
0.0
 40
4.684193536293205
100
AcDbArc
 50
20.27369805756009
 51
36.34634904372153
  0
ARC
  5
1D7
330
471
100
AcDbEntity
  8
DATA
  6
Continuous
 62
     7
100
AcDbCircle
 10
268.7928686854831
 20
-859.2091815618031
 30
0.0
 40
24.06817704924752
100
AcDbArc
 50
9.002283625384903
 51
18.65142124460095
  0
ARC
  5
1D8
330
471
100
AcDbEntity
  8
DATA
  6
Continuous
 62
     7
100
AcDbCircle
 10
256.0747367164964
 20
-860.6974406284795
 30
0.0
 40
36.86619130442276
100
AcDbArc
 50
359.6074804924417
 51
8.193897241423085
  0
ARC
  5
1D9
330
471
100
AcDbEntity
  8
DATA
  6
Continuous
 62
     7
100
AcDbCircle
 10
290.0489629141016
 20
-850.6149402297095
 30
0.0
 40
0.8409411569565982
100
AcDbArc
 50
90.08508497844321
 51
122.5337833906954
  0
ARC
  5
1DA
330
471
100
AcDbEntity
  8
DATA
  6
Continuous
 62
     7
100
AcDbCircle
 10
290.5267530697024
 20
-851.3636828320851
 30
0.0
 40
1.729140969886869
100
AcDbArc
 50
122.5384658429409
 51
144.4722080002981
  0
ARC
  5
1DB
330
471
100
AcDbEntity
  8
DATA
  6
Continuous
 62
     7
100
AcDbCircle
 10
292.8923993283056
 20
-853.1350401062116
 30
0.0
 40
4.684193536293193
100
AcDbArc
 50
143.6536509562785
 51
159.7263019424399
  0
ARC
  5
1DC
330
471
100
AcDbEntity
  8
DATA
  6
Continuous
 62
     7
100
AcDbCircle
 10
311.3025595265074
 20
-859.2091815618031
 30
0.0
 40
24.06817704924741
100
AcDbArc
 50
161.348578755399
 51
170.9977163746151
  0
ARC
  5
1DD
330
471
100
AcDbEntity
  8
DATA
  6
Continuous
 62
     7
100
AcDbCircle
 10
324.0206914954941
 20
-860.6974406284795
 30
0.0
 40
36.86619130442276
100
AcDbArc
 50
171.8061027585769
 51
180.3925195075583
  0
ARC
  5
1DE
330
471
100
AcDbEntity
  8
DATA
  6
Continuous
 62
     7
100
AcDbCircle
 10
290.046465297889
 20
-871.218542270309
 30
0.0
 40
0.8409411569565982
100
AcDbArc
 50
270.0850849784432
 51
302.5337833906955
  0
ARC
  5
1DF
330
471
100
AcDbEntity
  8
DATA
  6
Continuous
 62
     7
100
AcDbCircle
 10
289.5686751422882
 20
-870.4697996679335
 30
0.0
 40
1.729140969886869
100
AcDbArc
 50
302.5384658429409
 51
324.4722080002981
  0
ARC
  5
1E0
330
471
100
AcDbEntity
  8
DATA
  6
Continuous
 62
     7
100
AcDbCircle
 10
287.2030288836849
 20
-868.6984423938071
 30
0.0
 40
4.684193536293193
100
AcDbArc
 50
323.6536509562785
 51
339.72630194244
  0
ARC
  5
1E1
330
471
100
AcDbEntity
  8
DATA
  6
Continuous
 62
     7
100
AcDbCircle
 10
268.7928686854831
 20
-862.6243009382154
 30
0.0
 40
24.06817704924741
100
AcDbArc
 50
341.3485787553991
 51
350.9977163746151
  0
ARC
  5
1E2
330
471
100
AcDbEntity
  8
DATA
  6
Continuous
 62
     7
100
AcDbCircle
 10
256.0747367164964
 20
-861.1360418715392
 30
0.0
 40
36.86619130442276
100
AcDbArc
 50
351.8061027585769
 51
0.3925195075584043
  0
ARC
  5
1E3
330
471
100
AcDbEntity
  8
DATA
  6
Continuous
 62
     7
100
AcDbCircle
 10
290.0489629141016
 20
-871.218542270309
 30
0.0
 40
0.8409411569566156
100
AcDbArc
 50
237.4662166093045
 51
269.9149150215568
  0
ARC
  5
1E4
330
471
100
AcDbEntity
  8
DATA
  6
Continuous
 62
     7
100
AcDbCircle
 10
290.5267530697024
 20
-870.4697996679335
 30
0.0
 40
1.729140969886869
100
AcDbArc
 50
215.5277919997019
 51
237.4615341570591
  0
ARC
  5
1E5
330
471
100
AcDbEntity
  8
DATA
  6
Continuous
 62
     7
100
AcDbCircle
 10
292.8923993283056
 20
-868.6984423938071
 30
0.0
 40
4.684193536293205
100
AcDbArc
 50
200.2736980575601
 51
216.3463490437215
  0
ARC
  5
1E6
330
471
100
AcDbEntity
  8
DATA
  6
Continuous
 62
     7
100
AcDbCircle
 10
311.3025595265074
 20
-862.6243009382154
 30
0.0
 40
24.06817704924752
100
AcDbArc
 50
189.0022836253848
 51
198.6514212446009
  0
ARC
  5
1E7
330
471
100
AcDbEntity
  8
DATA
  6
Continuous
 62
     7
100
AcDbCircle
 10
324.0206914954941
 20
-861.1360418715392
 30
0.0
 40
36.86619130442276
100
AcDbArc
 50
179.6074804924416
 51
188.1938972414231
  0
LINE
  5
1E8
330
471
100
AcDbEntity
  8
DATA
  6
Continuous
 62
     1
100
AcDbLine
 10
-92.93968448679356
 20
-1558.186770713697
 30
0.0
 11
-92.93921146279137
 21
-1558.279862222633
 31
0.0
  0
LINE
  5
1E9
330
471
100
AcDbEntity
  8
DATA
  6
Continuous
 62
     1
100
AcDbLine
 10
-92.93996830119487
 20
-1558.093483306153
 30
0.0
 11
-92.93968448679356
 21
-1558.186770713697
 31
0.0
  0
LINE
  5
1EA
330
471
100
AcDbEntity
  8
DATA
  6
Continuous
 62
     7
100
AcDbLine
 10
-90.77080130599524
 20
-1559.650999999999
 30
0.0
 11
-90.04771410599527
 21
-1561.429
 31
0.0
  0
LINE
  5
1EB
330
471
100
AcDbEntity
  8
DATA
  6
Continuous
 62
     7
100
AcDbLine
 10
-89.32462690599534
 20
-1556.349
 30
0.0
 11
-90.04771410599527
 21
-1554.571000000001
 31
0.0
  0
LINE
  5
1EC
330
471
100
AcDbEntity
  8
DATA
  6
Continuous
 62
     7
100
AcDbLine
 10
-90.77080130599524
 20
-1556.349
 30
0.0
 11
-90.77080130599524
 21
-1559.650999999999
 31
0.0
  0
LINE
  5
1ED
330
471
100
AcDbEntity
  8
DATA
  6
Continuous
 62
     7
100
AcDbLine
 10
-89.32462690599534
 20
-1559.650999999999
 30
0.0
 11
-89.32462690599534
 21
-1556.349
 31
0.0
  0
LINE
  5
1EE
330
471
100
AcDbEntity
  8
DATA
  6
Continuous
 62
     7
100
AcDbLine
 10
-90.04771410599527
 20
-1554.571000000001
 30
0.0
 11
-90.77080130599524
 21
-1556.349
 31
0.0
  0
LINE
  5
1EF
330
471
100
AcDbEntity
  8
DATA
  6
Continuous
 62
     7
100
AcDbLine
 10
-90.04771410599527
 20
-1561.429
 30
0.0
 11
-89.32462690599534
 21
-1559.650999999999
 31
0.0
  0
ARC
  5
1F0
330
471
100
AcDbEntity
  8
DATA
  6
Continuous
 62
     7
100
AcDbCircle
 10
-90.04646529788905
 20
-1568.335059770292
 30
0.0
 40
0.840941156956585
100
AcDbArc
 50
237.4662166093078
 51
269.9149150215607
  0
ARC
  5
1F1
330
471
100
AcDbEntity
  8
DATA
  6
Continuous
 62
     7
100
AcDbCircle
 10
-89.56867514228822
 20
-1567.586317167917
 30
0.0
 40
1.729140969886756
100
AcDbArc
 50
215.5277919997
 51
237.4615341570586
  0
ARC
  5
1F2
330
471
100
AcDbEntity
  8
DATA
  6
Continuous
 62
     7
100
AcDbCircle
 10
-87.20302888368497
 20
-1565.81495989379
 30
0.0
 40
4.684193536293127
100
AcDbArc
 50
200.2736980575575
 51
216.3463490437193
  0
ARC
  5
1F3
330
471
100
AcDbEntity
  8
DATA
  6
Continuous
 62
     7
100
AcDbCircle
 10
-68.79286868548326
 20
-1559.740818438198
 30
0.0
 40
24.06817704924749
100
AcDbArc
 50
189.0022836253855
 51
198.6514212446009
  0
ARC
  5
1F4
330
471
100
AcDbEntity
  8
DATA
  6
Continuous
 62
     7
100
AcDbCircle
 10
-56.07473671649643
 20
-1558.252559371522
 30
0.0
 40
36.86619130442281
100
AcDbArc
 50
179.6074804924414
 51
188.1938972414232
  0
ARC
  5
1F5
330
471
100
AcDbEntity
  8
DATA
  6
Continuous
 62
     7
100
AcDbCircle
 10
-90.04896291410153
 20
-1568.335059770292
 30
0.0
 40
0.8409411569567119
100
AcDbArc
 50
270.0850849784393
 51
302.5337833906923
  0
ARC
  5
1F6
330
471
100
AcDbEntity
  8
DATA
  6
Continuous
 62
     7
100
AcDbCircle
 10
-90.52675306970234
 20
-1567.586317167917
 30
0.0
 40
1.729140969886743
100
AcDbArc
 50
302.5384658429413
 51
324.4722080003001
  0
ARC
  5
1F7
330
471
100
AcDbEntity
  8
DATA
  6
Continuous
 62
     7
100
AcDbCircle
 10
-92.89239932830559
 20
-1565.81495989379
 30
0.0
 40
4.684193536293058
100
AcDbArc
 50
323.6536509562807
 51
339.7263019424425
  0
ARC
  5
1F8
330
471
100
AcDbEntity
  8
DATA
  6
Continuous
 62
     7
100
AcDbCircle
 10
-111.3025595265073
 20
-1559.740818438198
 30
0.0
 40
24.06817704924735
100
AcDbArc
 50
341.3485787553989
 51
350.9977163746145
  0
ARC
  5
1F9
330
471
100
AcDbEntity
  8
DATA
  6
Continuous
 62
     7
100
AcDbCircle
 10
-124.0206914954941
 20
-1558.252559371522
 30
0.0
 40
36.86619130442278
100
AcDbArc
 50
351.8061027585767
 51
0.3925195075585748
  0
ARC
  5
1FA
330
471
100
AcDbEntity
  8
DATA
  6
Continuous
 62
     7
100
AcDbCircle
 10
-90.04646529788905
 20
-1547.731457729693
 30
0.0
 40
0.8409411569567119
100
AcDbArc
 50
90.0850849784393
 51
122.5337833906921
  0
ARC
  5
1FB
330
471
100
AcDbEntity
  8
DATA
  6
Continuous
 62
     7
100
AcDbCircle
 10
-89.56867514228822
 20
-1548.480200332068
 30
0.0
 40
1.729140969886743
100
AcDbArc
 50
122.5384658429413
 51
144.4722080003001
  0
ARC
  5
1FC
330
471
100
AcDbEntity
  8
DATA
  6
Continuous
 62
     7
100
AcDbCircle
 10
-87.20302888368497
 20
-1550.251557606194
 30
0.0
 40
4.684193536293058
100
AcDbArc
 50
143.6536509562807
 51
159.7263019424425
  0
ARC
  5
1FD
330
471
100
AcDbEntity
  8
DATA
  6
Continuous
 62
     7
100
AcDbCircle
 10
-68.79286868548326
 20
-1556.325699061786
 30
0.0
 40
24.06817704924735
100
AcDbArc
 50
161.348578755399
 51
170.9977163746145
  0
ARC
  5
1FE
330
471
100
AcDbEntity
  8
DATA
  6
Continuous
 62
     7
100
AcDbCircle
 10
-56.07473671649643
 20
-1557.813958128463
 30
0.0
 40
36.86619130442278
100
AcDbArc
 50
171.8061027585767
 51
180.3925195075585
  0
ARC
  5
1FF
330
471
100
AcDbEntity
  8
DATA
  6
Continuous
 62
     7
100
AcDbCircle
 10
-90.04896291410153
 20
-1547.731457729693
 30
0.0
 40
0.840941156956585
100
AcDbArc
 50
57.46621660930784
 51
89.91491502156067
  0
ARC
  5
200
330
471
100
AcDbEntity
  8
DATA
  6
Continuous
 62
     7
100
AcDbCircle
 10
-90.52675306970234
 20
-1548.480200332068
 30
0.0
 40
1.729140969886756
100
AcDbArc
 50
35.5277919996999
 51
57.46153415705868
  0
ARC
  5
201
330
471
100
AcDbEntity
  8
DATA
  6
Continuous
 62
     7
100
AcDbCircle
 10
-92.89239932830559
 20
-1550.251557606194
 30
0.0
 40
4.684193536293127
100
AcDbArc
 50
20.27369805755748
 51
36.34634904371929
  0
ARC
  5
202
330
471
100
AcDbEntity
  8
DATA
  6
Continuous
 62
     7
100
AcDbCircle
 10
-111.3025595265073
 20
-1556.325699061786
 30
0.0
 40
24.06817704924749
100
AcDbArc
 50
9.002283625385457
 51
18.651421244601
  0
ARC
  5
203
330
471
100
AcDbEntity
  8
DATA
  6
Continuous
 62
     7
100
AcDbCircle
 10
-124.0206914954941
 20
-1557.813958128463
 30
0.0
 40
36.86619130442281
100
AcDbArc
 50
359.6074804924414
 51
8.193897241423258
  0
LINE
  5
204
330
471
100
AcDbEntity
  8
DATA
  6
Continuous
 62
     1
100
AcDbLine
 10
292.9396844867936
 20
-1558.186770713697
 30
0.0
 11
292.9392114627914
 21
-1558.279862222633
 31
0.0
  0
LINE
  5
205
330
471
100
AcDbEntity
  8
DATA
  6
Continuous
 62
     1
100
AcDbLine
 10
292.9399683011949
 20
-1558.093483306153
 30
0.0
 11
292.9396844867936
 21
-1558.186770713697
 31
0.0
  0
LINE
  5
206
330
471
100
AcDbEntity
  8
DATA
  6
Continuous
 62
     7
100
AcDbLine
 10
290.7708013059952
 20
-1559.650999999999
 30
0.0
 11
290.0477141059953
 21
-1561.429
 31
0.0
  0
LINE
  5
207
330
471
100
AcDbEntity
  8
DATA
  6
Continuous
 62
     7
100
AcDbLine
 10
289.3246269059953
 20
-1556.349
 30
0.0
 11
290.0477141059953
 21
-1554.571000000001
 31
0.0
  0
LINE
  5
208
330
471
100
AcDbEntity
  8
DATA
  6
Continuous
 62
     7
100
AcDbLine
 10
290.7708013059952
 20
-1556.349
 30
0.0
 11
290.7708013059952
 21
-1559.650999999999
 31
0.0
  0
LINE
  5
209
330
471
100
AcDbEntity
  8
DATA
  6
Continuous
 62
     7
100
AcDbLine
 10
289.3246269059953
 20
-1559.650999999999
 30
0.0
 11
289.3246269059953
 21
-1556.349
 31
0.0
  0
LINE
  5
20A
330
471
100
AcDbEntity
  8
DATA
  6
Continuous
 62
     7
100
AcDbLine
 10
290.0477141059953
 20
-1554.571000000001
 30
0.0
 11
290.7708013059952
 21
-1556.349
 31
0.0
  0
LINE
  5
20B
330
471
100
AcDbEntity
  8
DATA
  6
Continuous
 62
     7
100
AcDbLine
 10
290.0477141059953
 20
-1561.429
 30
0.0
 11
289.3246269059953
 21
-1559.650999999999
 31
0.0
  0
ARC
  5
20C
330
471
100
AcDbEntity
  8
DATA
  6
Continuous
 62
     7
100
AcDbCircle
 10
290.046465297889
 20
-1568.335059770292
 30
0.0
 40
0.8409411569567119
100
AcDbArc
 50
270.0850849784432
 51
302.5337833906955
  0
ARC
  5
20D
330
471
100
AcDbEntity
  8
DATA
  6
Continuous
 62
     7
100
AcDbCircle
 10
289.5686751422882
 20
-1567.586317167917
 30
0.0
 40
1.729140969886773
100
AcDbArc
 50
302.5384658429429
 51
324.4722080003012
  0
ARC
  5
20E
330
471
100
AcDbEntity
  8
DATA
  6
Continuous
 62
     7
100
AcDbCircle
 10
287.2030288836849
 20
-1565.81495989379
 30
0.0
 40
4.684193536293058
100
AcDbArc
 50
323.6536509562807
 51
339.7263019424425
  0
ARC
  5
20F
330
471
100
AcDbEntity
  8
DATA
  6
Continuous
 62
     7
100
AcDbCircle
 10
268.7928686854831
 20
-1559.740818438198
 30
0.0
 40
24.06817704924741
100
AcDbArc
 50
341.3485787553991
 51
350.9977163746145
  0
ARC
  5
210
330
471
100
AcDbEntity
  8
DATA
  6
Continuous
 62
     7
100
AcDbCircle
 10
256.0747367164964
 20
-1558.252559371522
 30
0.0
 40
36.86619130442278
100
AcDbArc
 50
351.8061027585767
 51
0.3925195075585748
  0
ARC
  5
211
330
471
100
AcDbEntity
  8
DATA
  6
Continuous
 62
     7
100
AcDbCircle
 10
290.0489629141016
 20
-1568.335059770292
 30
0.0
 40
0.8409411569566156
100
AcDbArc
 50
237.4662166093045
 51
269.9149150215568
  0
ARC
  5
212
330
471
100
AcDbEntity
  8
DATA
  6
Continuous
 62
     7
100
AcDbCircle
 10
290.5267530697024
 20
-1567.586317167917
 30
0.0
 40
1.729140969886803
100
AcDbArc
 50
215.5277919996989
 51
237.4615341570571
  0
ARC
  5
213
330
471
100
AcDbEntity
  8
DATA
  6
Continuous
 62
     7
100
AcDbCircle
 10
292.8923993283056
 20
-1565.81495989379
 30
0.0
 40
4.684193536293127
100
AcDbArc
 50
200.2736980575575
 51
216.3463490437193
  0
ARC
  5
214
330
471
100
AcDbEntity
  8
DATA
  6
Continuous
 62
     7
100
AcDbCircle
 10
311.3025595265074
 20
-1559.740818438198
 30
0.0
 40
24.06817704924755
100
AcDbArc
 50
189.0022836253854
 51
198.6514212446009
  0
ARC
  5
215
330
471
100
AcDbEntity
  8
DATA
  6
Continuous
 62
     7
100
AcDbCircle
 10
324.0206914954941
 20
-1558.252559371522
 30
0.0
 40
36.86619130442276
100
AcDbArc
 50
179.6074804924414
 51
188.1938972414232
  0
ARC
  5
216
330
471
100
AcDbEntity
  8
DATA
  6
Continuous
 62
     7
100
AcDbCircle
 10
290.046465297889
 20
-1547.731457729693
 30
0.0
 40
0.8409411569566156
100
AcDbArc
 50
57.46621660930459
 51
89.9149150215568
  0
ARC
  5
217
330
471
100
AcDbEntity
  8
DATA
  6
Continuous
 62
     7
100
AcDbCircle
 10
289.5686751422882
 20
-1548.480200332068
 30
0.0
 40
1.729140969886803
100
AcDbArc
 50
35.52779199969882
 51
57.4615341570571
  0
ARC
  5
218
330
471
100
AcDbEntity
  8
DATA
  6
Continuous
 62
     7
100
AcDbCircle
 10
287.2030288836849
 20
-1550.251557606194
 30
0.0
 40
4.684193536293127
100
AcDbArc
 50
20.27369805755748
 51
36.34634904371929
  0
ARC
  5
219
330
471
100
AcDbEntity
  8
DATA
  6
Continuous
 62
     7
100
AcDbCircle
 10
268.7928686854831
 20
-1556.325699061786
 30
0.0
 40
24.06817704924755
100
AcDbArc
 50
9.002283625385437
 51
18.65142124460095
  0
ARC
  5
21A
330
471
100
AcDbEntity
  8
DATA
  6
Continuous
 62
     7
100
AcDbCircle
 10
256.0747367164964
 20
-1557.813958128463
 30
0.0
 40
36.86619130442276
100
AcDbArc
 50
359.6074804924414
 51
8.193897241423258
  0
ARC
  5
21B
330
471
100
AcDbEntity
  8
DATA
  6
Continuous
 62
     7
100
AcDbCircle
 10
290.0489629141016
 20
-1547.731457729693
 30
0.0
 40
0.8409411569567119
100
AcDbArc
 50
90.08508497844321
 51
122.5337833906954
  0
ARC
  5
21C
330
471
100
AcDbEntity
  8
DATA
  6
Continuous
 62
     7
100
AcDbCircle
 10
290.5267530697024
 20
-1548.480200332068
 30
0.0
 40
1.729140969886773
100
AcDbArc
 50
122.5384658429429
 51
144.4722080003012
  0
ARC
  5
21D
330
471
100
AcDbEntity
  8
DATA
  6
Continuous
 62
     7
100
AcDbCircle
 10
292.8923993283056
 20
-1550.251557606194
 30
0.0
 40
4.684193536293058
100
AcDbArc
 50
143.6536509562807
 51
159.7263019424425
  0
ARC
  5
21E
330
471
100
AcDbEntity
  8
DATA
  6
Continuous
 62
     7
100
AcDbCircle
 10
311.3025595265074
 20
-1556.325699061786
 30
0.0
 40
24.06817704924741
100
AcDbArc
 50
161.348578755399
 51
170.9977163746145
  0
ARC
  5
21F
330
471
100
AcDbEntity
  8
DATA
  6
Continuous
 62
     7
100
AcDbCircle
 10
324.0206914954941
 20
-1557.813958128463
 30
0.0
 40
36.86619130442278
100
AcDbArc
 50
171.8061027585767
 51
180.3925195075585
  0
LWPOLYLINE
  5
220
330
471
100
AcDbEntity
  8
DATA
  6
Continuous
 62
     7
100
AcDbPolyline
 90
        4
 70
     1
 43
0.0
 10
-1120.0
 20
-1464.0
 10
-1080.0
 20
-1464.0
 10
-1080.0
 20
-1504.0
 10
-1120.0
 20
-1504.0
  0
LINE
  5
227
330
471
100
AcDbEntity
  8
DATA
  6
Continuous
 62
     7
100
AcDbLine
 10
-1080.0
 20
-1498.0
 30
0.0
 11
-1120.0
 21
-1498.0
 31
0.0
  0
TEXT
  5
228
330
471
100
AcDbEntity
  8
DATA
 62
     7
100
AcDbText
 10
-1116.02548828125
 20
-1503.02001953125
 30
0.0
 40
4.0400390625
  1
PROFESSIONAL
 41
0.7
 72
     1
 11
-1100.0
 21
-1501.0
 31
0.0
100
AcDbText
 73
     2
  0
ARC
  5
229
330
471
100
AcDbEntity
  8
DATA
  6
Continuous
 62
     7
100
AcDbCircle
 10
-1099.326906090998
 20
-1486.010398336711
 30
0.0
 40
0.4462963607459113
100
AcDbArc
 50
307.6419024975729
 51
354.2670192893826
  0
LINE
  5
22A
330
471
100
AcDbEntity
  8
DATA
  6
Continuous
 62
     7
100
AcDbLine
 10
-1110.79057
 20
-1478.97749
 30
0.0
 11
-1108.698326
 21
-1473.992258
 31
0.0
  0
LINE
  5
22B
330
471
100
AcDbEntity
  8
DATA
  6
Continuous
 62
     7
100
AcDbLine
 10
-1110.79057
 20
-1478.97749
 30
0.0
 11
-1112.856998
 21
-1473.992258
 31
0.0
  0
LINE
  5
22C
330
471
100
AcDbEntity
  8
DATA
  6
Continuous
 62
     7
100
AcDbLine
 10
-1094.930809999999
 20
-1487.992258
 30
0.0
 11
-1094.930809999999
 21
-1473.992258
 31
0.0
  0
LINE
  5
22D
330
471
100
AcDbEntity
  8
DATA
  6
Continuous
 62
     7
100
AcDbLine
 10
-1092.244462
 20
-1473.992258
 30
0.0
 11
-1092.244462
 21
-1485.848354
 31
0.0
  0
LINE
  5
22E
330
471
100
AcDbEntity
  8
DATA
  6
Continuous
 62
     7
100
AcDbLine
 10
-1107.716772
 20
-1473.992258
 30
0.0
 11
-1107.716772
 21
-1485.848354
 31
0.0
  0
LINE
  5
22F
330
471
100
AcDbEntity
  8
DATA
  6
Continuous
 62
     7
100
AcDbLine
 10
-1105.133744
 20
-1473.992258
 30
0.0
 11
-1105.133744
 21
-1485.848354
 31
0.0
  0
LINE
  5
230
330
471
100
AcDbEntity
  8
DATA
  6
Continuous
 62
     7
100
AcDbLine
 10
-1103.79057
 20
-1473.992258
 30
0.0
 11
-1103.79057
 21
-1487.992258
 31
0.0
  0
LINE
  5
231
330
471
100
AcDbEntity
  8
DATA
  6
Continuous
 62
     7
100
AcDbLine
 10
-1101.440012
 20
-1475.309588
 30
0.0
 11
-1101.440012
 21
-1479.804064
 31
0.0
  0
LINE
  5
232
330
471
100
AcDbEntity
  8
DATA
  6
Continuous
 62
     7
100
AcDbLine
 10
-1096.402
 20
-1479.544
 30
0.0
 11
-1096.402
 21
-1476.265326
 31
0.0
  0
LINE
  5
233
330
471
100
AcDbEntity
  8
DATA
  6
Continuous
 62
     7
100
AcDbLine
 10
-1098.882842
 20
-1475.929522
 30
0.0
 11
-1098.882842
 21
-1479.184144
 31
0.0
  0
ARC
  5
234
330
471
100
AcDbEntity
  8
DATA
  6
Continuous
 62
     7
100
AcDbCircle
 10
-1108.235108
 20
-1484.397338
 30
0.0
 40
3.610394795234824
100
AcDbArc
 50
264.6908562215333
 51
323.9911991542417
  0
LINE
  5
235
330
471
100
AcDbEntity
  8
DATA
  6
Continuous
 62
     7
100
AcDbLine
 10
-1109.679866
 20
-1483.601102
 30
0.0
 11
-1109.679866
 21
-1485.848326
 31
0.0
  0
LINE
  5
236
330
471
100
AcDbEntity
  8
DATA
  6
Continuous
 62
     7
100
AcDbLine
 10
-1109.679866
 20
-1483.601102
 30
0.0
 11
-1112.004594
 21
-1483.601102
 31
0.0
  0
LINE
  5
237
330
471
100
AcDbEntity
  8
DATA
  6
Continuous
 62
     7
100
AcDbLine
 10
-1112.004594
 20
-1483.601102
 30
0.0
 11
-1112.004594
 21
-1485.848326
 31
0.0
  0
ARC
  5
238
330
471
100
AcDbEntity
  8
DATA
  6
Continuous
 62
     7
100
AcDbCircle
 10
-1108.693398
 20
-1485.878622
 30
0.0
 40
0.9771003567393602
100
AcDbArc
 50
269.711848792745
 51
1.775987005692627
  0
ARC
  5
239
330
471
100
AcDbEntity
  8
DATA
  6
Continuous
 62
     7
100
AcDbCircle
 10
-1108.703239999999
 20
-1485.878622
 30
0.0
 40
0.9770953604435129
100
AcDbArc
 50
178.2240129943172
 51
270.2881512072365
  0
ARC
  5
23A
330
471
100
AcDbEntity
  8
DATA
  6
Continuous
 62
     7
100
AcDbCircle
 10
-1108.90323
 20
-1484.397338
 30
0.0
 40
3.610388931725263
100
AcDbArc
 50
216.0088008457567
 51
275.3091437784647
  0
ARC
  5
23B
330
471
100
AcDbEntity
  8
DATA
  6
Continuous
 62
     7
100
AcDbCircle
 10
-1110.372978
 20
-1485.769184
 30
0.0
 40
1.633520291446836
100
AcDbArc
 50
182.776995450003
 51
207.35960666715
  0
CIRCLE
  5
23C
330
471
100
AcDbEntity
  8
DATA
  6
Continuous
 62
     7
100
AcDbCircle
 10
-1110.648498
 20
-1480.914768
 30
0.0
 40
1.330251999999973
  0
LINE
  5
23D
330
471
100
AcDbEntity
  8
DATA
  6
Continuous
 62
     7
100
AcDbLine
 10
-1087.930809999999
 20
-1487.992244
 30
0.0
 11
-1094.930809999999
 21
-1487.992244
 31
0.0
  0
LINE
  5
23E
330
471
100
AcDbEntity
  8
DATA
  6
Continuous
 62
     7
100
AcDbLine
 10
-1087.930809999999
 20
-1487.992244
 30
0.0
 11
-1087.930809999999
 21
-1483.601088
 31
0.0
  0
LINE
  5
23F
330
471
100
AcDbEntity
  8
DATA
  6
Continuous
 62
     7
100
AcDbLine
 10
-1087.930809999999
 20
-1483.601102
 30
0.0
 11
-1090.281354
 21
-1483.601102
 31
0.0
  0
LINE
  5
240
330
471
100
AcDbEntity
  8
DATA
  6
Continuous
 62
     7
100
AcDbLine
 10
-1090.281354
 20
-1483.601102
 30
0.0
 11
-1090.281354
 21
-1485.848326
 31
0.0
  0
LINE
  5
241
330
471
100
AcDbEntity
  8
DATA
  6
Continuous
 62
     7
100
AcDbLine
 10
-1103.79057
 20
-1487.992244
 30
0.0
 11
-1098.882842
 21
-1487.992229999999
 31
0.0
  0
LINE
  5
242
330
471
100
AcDbEntity
  8
DATA
  6
Continuous
 62
     7
100
AcDbLine
 10
-1101.440026
 20
-1486.6749
 30
0.0
 11
-1100.174342
 21
-1486.6749
 31
0.0
  0
LINE
  5
243
330
471
100
AcDbEntity
  8
DATA
  6
Continuous
 62
     7
100
AcDbLine
 10
-1101.440012
 20
-1486.6749
 30
0.0
 11
-1101.440012
 21
-1481.147224
 31
0.0
  0
LINE
  5
244
330
471
100
AcDbEntity
  8
DATA
  6
Continuous
 62
     7
100
AcDbLine
 10
-1101.440026
 20
-1481.147224
 30
0.0
 11
-1100.174342
 21
-1481.147224
 31
0.0
  0
LINE
  5
245
330
471
100
AcDbEntity
  8
DATA
  6
Continuous
 62
     7
100
AcDbLine
 10
-1098.882842
 20
-1486.05498
 30
0.0
 11
-1098.882842
 21
-1481.767144
 31
0.0
  0
ARC
  5
246
330
471
100
AcDbEntity
  8
DATA
  6
Continuous
 62
     7
100
AcDbCircle
 10
-1106.76536
 20
-1485.769184
 30
0.0
 40
1.633517967011059
100
AcDbArc
 50
332.6403933328419
 51
357.2230045500024
  0
ARC
  5
247
330
471
100
AcDbEntity
  8
DATA
  6
Continuous
 62
     7
100
AcDbCircle
 10
-1091.257994
 20
-1485.878622
 30
0.0
 40
0.9771003567393602
100
AcDbArc
 50
269.711848792745
 51
1.775987005692627
  0
ARC
  5
248
330
471
100
AcDbEntity
  8
DATA
  6
Continuous
 62
     7
100
AcDbCircle
 10
-1091.267822
 20
-1485.878622
 30
0.0
 40
0.9770953604432856
100
AcDbArc
 50
178.2240129943168
 51
270.2881512072498
  0
LINE
  5
249
330
471
100
AcDbEntity
  8
DATA
  6
Continuous
 62
     7
100
AcDbLine
 10
-1096.403134
 20
-1485.745006
 30
0.0
 11
-1096.403134
 21
-1482.025458
 31
0.0
  0
LINE
  5
24A
330
471
100
AcDbEntity
  8
DATA
  6
Continuous
 62
     7
100
AcDbLine
 10
-1101.440026
 20
-1479.804064
 30
0.0
 11
-1100.174342
 21
-1479.804064
 31
0.0
  0
ARC
  5
24B
330
471
100
AcDbEntity
  8
DATA
  6
Continuous
 62
     7
100
AcDbCircle
 10
-1099.06081
 20
-1485.334526
 30
0.0
 40
2.663655976405099
100
AcDbArc
 50
273.8309816091145
 51
351.1351473098017
  0
LINE
  5
24C
330
471
100
AcDbEntity
  8
DATA
  6
Continuous
 62
     7
100
AcDbLine
 10
-1107.716772
 20
-1473.992258
 30
0.0
 11
-1105.133744
 21
-1473.992258
 31
0.0
  0
LINE
  5
24D
330
471
100
AcDbEntity
  8
DATA
  6
Continuous
 62
     7
100
AcDbLine
 10
-1112.856998
 20
-1473.992258
 30
0.0
 11
-1108.698326
 21
-1473.992258
 31
0.0
  0
LINE
  5
24E
330
471
100
AcDbEntity
  8
DATA
  6
Continuous
 62
     7
100
AcDbLine
 10
-1094.930809999999
 20
-1473.992258
 30
0.0
 11
-1092.244462
 21
-1473.992258
 31
0.0
  0
LINE
  5
24F
330
471
100
AcDbEntity
  8
DATA
  6
Continuous
 62
     7
100
AcDbLine
 10
-1103.79057
 20
-1473.992258
 30
0.0
 11
-1098.855863820594
 21
-1473.992269331237
 31
0.0
  0
LINE
  5
250
330
471
100
AcDbEntity
  8
DATA
  6
Continuous
 62
     7
100
AcDbLine
 10
-1101.440026
 20
-1475.309602
 30
0.0
 11
-1100.174342
 21
-1475.309602
 31
0.0
  0
ARC
  5
251
330
471
100
AcDbEntity
  8
DATA
  6
Continuous
 62
     7
100
AcDbCircle
 10
-1099.034252
 20
-1476.645902
 30
0.0
 40
2.659621906076009
100
AcDbArc
 50
8.226923859016581
 51
86.15412669215684
  0
ARC
  5
252
330
471
100
AcDbEntity
  8
DATA
  6
Continuous
 62
     7
100
AcDbCircle
 10
-1100.159396352355
 20
-1484.219736855178
 30
0.0
 40
2.455208634734568
100
AcDbArc
 50
269.6512199376181
 51
282.8264828068773
  0
ARC
  5
253
330
471
100
AcDbEntity
  8
DATA
  6
Continuous
 62
     7
100
AcDbCircle
 10
-1099.883637561546
 20
-1485.257750435718
 30
0.0
 40
1.382413065170683
100
AcDbArc
 50
281.2331036226666
 51
306.8620088940656
  0
ARC
  5
254
330
471
100
AcDbEntity
  8
DATA
  6
Continuous
 62
     7
100
AcDbCircle
 10
-1099.326906090998
 20
-1481.811725663288
 30
0.0
 40
0.4462963607457663
100
AcDbArc
 50
5.732980710559374
 51
52.35809750240933
  0
ARC
  5
255
330
471
100
AcDbEntity
  8
DATA
  6
Continuous
 62
     7
100
AcDbCircle
 10
-1100.159396352355
 20
-1483.602387144821
 30
0.0
 40
2.455208634734332
100
AcDbArc
 50
77.17351719312145
 51
90.34878006238187
  0
ARC
  5
256
330
471
100
AcDbEntity
  8
DATA
  6
Continuous
 62
     7
100
AcDbCircle
 10
-1099.883637561546
 20
-1482.564373564281
 30
0.0
 40
1.382413065170503
100
AcDbArc
 50
53.13799110592878
 51
78.76689637733166
  0
ARC
  5
257
330
471
100
AcDbEntity
  8
DATA
  6
Continuous
 62
     7
100
AcDbCircle
 10
-1097.757886
 20
-1482.117032
 30
0.0
 40
1.357843429479467
100
AcDbArc
 50
3.867006359832556
 51
88.36163456788865
  0
ARC
  5
258
330
471
100
AcDbEntity
  8
DATA
  6
Continuous
 62
     7
100
AcDbCircle
 10
-1097.759132
 20
-1479.401144
 30
0.0
 40
1.359192715926418
100
AcDbArc
 50
271.6892821046494
 51
356.0782829826713
  0
ARC
  5
259
330
471
100
AcDbEntity
  8
DATA
  6
Continuous
 62
     7
100
AcDbCircle
 10
-1099.326906090998
 20
-1479.139562336712
 30
0.0
 40
0.4462963607459113
100
AcDbArc
 50
307.6419024975729
 51
354.2670192893826
  0
ARC
  5
25A
330
471
100
AcDbEntity
  8
DATA
  6
Continuous
 62
     7
100
AcDbCircle
 10
-1100.159396352355
 20
-1477.348900855178
 30
0.0
 40
2.455208634734568
100
AcDbArc
 50
269.6512199376181
 51
282.8264828068773
  0
ARC
  5
25B
330
471
100
AcDbEntity
  8
DATA
  6
Continuous
 62
     7
100
AcDbCircle
 10
-1099.883637561546
 20
-1478.386914435718
 30
0.0
 40
1.38241306517046
100
AcDbArc
 50
281.2331036226684
 51
306.8620088940636
  0
ARC
  5
25C
330
471
100
AcDbEntity
  8
DATA
  6
Continuous
 62
     7
100
AcDbCircle
 10
-1099.326906090998
 20
-1475.974103663288
 30
0.0
 40
0.4462963607457891
100
AcDbArc
 50
5.732980710588419
 51
52.35809750240933
  0
ARC
  5
25D
330
471
100
AcDbEntity
  8
DATA
  6
Continuous
 62
     7
100
AcDbCircle
 10
-1100.159396352355
 20
-1477.764765144822
 30
0.0
 40
2.455208634734776
100
AcDbArc
 50
77.17351719312381
 51
90.34878006238187
  0
ARC
  5
25E
330
471
100
AcDbEntity
  8
DATA
  6
Continuous
 62
     7
100
AcDbCircle
 10
-1099.883637561546
 20
-1476.726751564282
 30
0.0
 40
1.382413065170503
100
AcDbArc
 50
53.13799110592878
 51
78.76689637733166
  0
ARC
  5
25F
330
471
100
AcDbEntity
  8
DATA
  6
Continuous
 62
     7
100
AcDbCircle
 10
-860.8809732449177
 20
-1646.215214004842
 30
0.0
 40
325.9601202601325
100
AcDbArc
 50
117.1554189351379
 51
168.817459282951
  0
ARC
  5
260
330
471
100
AcDbEntity
  8
DATA
  6
Continuous
 62
     7
100
AcDbCircle
 10
-1158.421116956716
 20
-1066.154990510796
 30
0.0
 40
325.9601202601325
100
AcDbArc
 50
297.1554189351378
 51
325.4524994801436
  0
CIRCLE
  5
261
330
471
100
AcDbEntity
  8
DATA
  6
Continuous
 62
     7
100
AcDbCircle
 10
100.0
 20
-1558.0
 30
0.0
 40
11.17600000000038
  0
LINE
  5
262
330
471
100
AcDbEntity
  8
DATA
  6
Continuous
 62
     7
100
AcDbLine
 10
97.20600000000013
 20
-1559.650999999999
 30
0.0
 11
100.0
 21
-1561.429
 31
0.0
  0
LINE
  5
263
330
471
100
AcDbEntity
  8
DATA
  6
Continuous
 62
     7
100
AcDbLine
 10
102.7939999999998
 20
-1556.349
 30
0.0
 11
100.0
 21
-1554.571000000001
 31
0.0
  0
LINE
  5
264
330
471
100
AcDbEntity
  8
DATA
  6
Continuous
 62
     7
100
AcDbLine
 10
97.20600000000013
 20
-1556.349
 30
0.0
 11
97.20600000000013
 21
-1559.650999999999
 31
0.0
  0
LINE
  5
265
330
471
100
AcDbEntity
  8
DATA
  6
Continuous
 62
     7
100
AcDbLine
 10
102.7939999999998
 20
-1559.650999999999
 30
0.0
 11
102.7939999999998
 21
-1556.349
 31
0.0
  0
LINE
  5
266
330
471
100
AcDbEntity
  8
DATA
  6
Continuous
 62
     7
100
AcDbLine
 10
100.0
 20
-1554.571000000001
 30
0.0
 11
97.20600000000013
 21
-1556.349
 31
0.0
  0
LINE
  5
267
330
471
100
AcDbEntity
  8
DATA
  6
Continuous
 62
     7
100
AcDbLine
 10
100.0
 20
-1561.429
 30
0.0
 11
102.7939999999998
 21
-1559.650999999999
 31
0.0
  0
CIRCLE
  5
268
330
471
100
AcDbEntity
  8
DATA
  6
Continuous
 62
     7
100
AcDbCircle
 10
100.0
 20
-1214.5
 30
0.0
 40
11.17600000000038
  0
LINE
  5
269
330
471
100
AcDbEntity
  8
DATA
  6
Continuous
 62
     7
100
AcDbLine
 10
97.20600000000013
 20
-1216.150999999999
 30
0.0
 11
100.0
 21
-1217.929
 31
0.0
  0
LINE
  5
26A
330
471
100
AcDbEntity
  8
DATA
  6
Continuous
 62
     7
100
AcDbLine
 10
102.7939999999998
 20
-1212.849
 30
0.0
 11
100.0
 21
-1211.071
 31
0.0
  0
LINE
  5
26B
330
471
100
AcDbEntity
  8
DATA
  6
Continuous
 62
     7
100
AcDbLine
 10
97.20600000000013
 20
-1212.849
 30
0.0
 11
97.20600000000013
 21
-1216.150999999999
 31
0.0
  0
LINE
  5
26C
330
471
100
AcDbEntity
  8
DATA
  6
Continuous
 62
     7
100
AcDbLine
 10
102.7939999999998
 20
-1216.150999999999
 30
0.0
 11
102.7939999999998
 21
-1212.849
 31
0.0
  0
LINE
  5
26D
330
471
100
AcDbEntity
  8
DATA
  6
Continuous
 62
     7
100
AcDbLine
 10
100.0
 20
-1211.071
 30
0.0
 11
97.20600000000013
 21
-1212.849
 31
0.0
  0
LINE
  5
26E
330
471
100
AcDbEntity
  8
DATA
  6
Continuous
 62
     7
100
AcDbLine
 10
100.0
 20
-1217.929
 30
0.0
 11
102.7939999999998
 21
-1216.150999999999
 31
0.0
  0
LINE
  5
26F
330
471
100
AcDbEntity
  8
DATA
  6
Continuous
 62
     7
100
AcDbLine
 10
-673.8281188387466
 20
-859.2990000000016
 30
0.0
 11
-671.1291148387467
 21
-857.5210000000016
 31
0.0
  0
LINE
  5
270
330
471
100
AcDbEntity
  8
DATA
  6
Continuous
 62
     7
100
AcDbLine
 10
-668.4301108387468
 20
-862.6010000000016
 30
0.0
 11
-671.1291148387467
 21
-864.3790000000013
 31
0.0
  0
LINE
  5
271
330
471
100
AcDbEntity
  8
DATA
  6
Continuous
 62
     7
100
AcDbLine
 10
-673.8281188387466
 20
-862.6010000000016
 30
0.0
 11
-673.8281188387466
 21
-859.2990000000016
 31
0.0
  0
LINE
  5
272
330
471
100
AcDbEntity
  8
DATA
  6
Continuous
 62
     7
100
AcDbLine
 10
-668.4301108387468
 20
-859.2990000000016
 30
0.0
 11
-668.4301108387468
 21
-862.6010000000016
 31
0.0
  0
LINE
  5
273
330
471
100
AcDbEntity
  8
DATA
  6
Continuous
 62
     7
100
AcDbLine
 10
-671.1291148387467
 20
-864.3790000000013
 30
0.0
 11
-673.8281188387466
 21
-862.6010000000016
 31
0.0
  0
LINE
  5
274
330
471
100
AcDbEntity
  8
DATA
  6
Continuous
 62
     7
100
AcDbLine
 10
-671.1291148387467
 20
-857.5210000000016
 30
0.0
 11
-668.4301108387468
 21
-859.2990000000016
 31
0.0
  0
ARC
  5
275
330
471
100
AcDbEntity
  8
DATA
  6
Continuous
 62
     7
100
AcDbCircle
 10
-671.1507261042261
 20
-860.2939145679815
 30
0.0
 40
10.51993676617867
100
AcDbArc
 50
89.88229632930673
 51
138.8315380619977
  0
ARC
  5
276
330
471
100
AcDbEntity
  8
DATA
  6
Continuous
 62
     7
100
AcDbCircle
 10
-670.5297406299835
 20
-860.9130535200105
 30
0.0
 40
11.39510843127002
100
AcDbArc
 50
138.5434544344148
 51
179.5471969075925
  0
ARC
  5
277
330
471
100
AcDbEntity
  8
DATA
  6
Continuous
 62
     7
100
AcDbCircle
 10
-671.1507261042261
 20
-861.3520854320219
 30
0.0
 40
10.51993676617874
100
AcDbArc
 50
221.1684619380024
 51
270.1177036706933
  0
ARC
  5
278
330
471
100
AcDbEntity
  8
DATA
  6
Continuous
 62
     7
100
AcDbCircle
 10
-670.5297406299835
 20
-860.732946479993
 30
0.0
 40
11.39510843127002
100
AcDbArc
 50
180.4528030924075
 51
221.4565455655852
  0
ARC
  5
279
330
471
100
AcDbEntity
  8
DATA
  6
Continuous
 62
     7
100
AcDbCircle
 10
-671.1075035732672
 20
-860.2939145679815
 30
0.0
 40
10.51993676617857
100
AcDbArc
 50
41.16846193800313
 51
90.11770367069452
  0
ARC
  5
27A
330
471
100
AcDbEntity
  8
DATA
  6
Continuous
 62
     7
100
AcDbCircle
 10
-671.7284890475101
 20
-860.9130535200105
 30
0.0
 40
11.39510843127002
100
AcDbArc
 50
0.4528030924074812
 51
41.45654556558524
  0
ARC
  5
27B
330
471
100
AcDbEntity
  8
DATA
  6
Continuous
 62
     7
100
AcDbCircle
 10
-671.1075035732672
 20
-861.3520854320219
 30
0.0
 40
10.51993676617867
100
AcDbArc
 50
269.8822963293054
 51
318.831538061997
  0
ARC
  5
27C
330
471
100
AcDbEntity
  8
DATA
  6
Continuous
 62
     7
100
AcDbCircle
 10
-671.7284890475101
 20
-860.732946479993
 30
0.0
 40
11.39510843127002
100
AcDbArc
 50
318.5434544344147
 51
359.5471969075925
  0
LINE
  5
27D
330
471
100
AcDbEntity
  8
DATA
  6
Continuous
 62
     7
100
AcDbLine
 10
-673.8281188387466
 20
-1559.650999999999
 30
0.0
 11
-671.1291148387467
 21
-1561.429
 31
0.0
  0
LINE
  5
27E
330
471
100
AcDbEntity
  8
DATA
  6
Continuous
 62
     7
100
AcDbLine
 10
-668.4301108387468
 20
-1556.349
 30
0.0
 11
-671.1291148387467
 21
-1554.571000000001
 31
0.0
  0
LINE
  5
27F
330
471
100
AcDbEntity
  8
DATA
  6
Continuous
 62
     7
100
AcDbLine
 10
-673.8281188387466
 20
-1556.349
 30
0.0
 11
-673.8281188387466
 21
-1559.650999999999
 31
0.0
  0
LINE
  5
280
330
471
100
AcDbEntity
  8
DATA
  6
Continuous
 62
     7
100
AcDbLine
 10
-668.4301108387468
 20
-1559.650999999999
 30
0.0
 11
-668.4301108387468
 21
-1556.349
 31
0.0
  0
LINE
  5
281
330
471
100
AcDbEntity
  8
DATA
  6
Continuous
 62
     7
100
AcDbLine
 10
-671.1291148387467
 20
-1554.571000000001
 30
0.0
 11
-673.8281188387466
 21
-1556.349
 31
0.0
  0
LINE
  5
282
330
471
100
AcDbEntity
  8
DATA
  6
Continuous
 62
     7
100
AcDbLine
 10
-671.1291148387467
 20
-1561.429
 30
0.0
 11
-668.4301108387468
 21
-1559.650999999999
 31
0.0
  0
ARC
  5
283
330
471
100
AcDbEntity
  8
DATA
  6
Continuous
 62
     7
100
AcDbCircle
 10
-671.1507261042261
 20
-1558.65608543202
 30
0.0
 40
10.51993676617874
100
AcDbArc
 50
221.1684619380024
 51
270.1177036706933
  0
ARC
  5
284
330
471
100
AcDbEntity
  8
DATA
  6
Continuous
 62
     7
100
AcDbCircle
 10
-670.5297406299835
 20
-1558.036946479991
 30
0.0
 40
11.39510843127001
100
AcDbArc
 50
180.4528030924069
 51
221.4565455655848
  0
ARC
  5
285
330
471
100
AcDbEntity
  8
DATA
  6
Continuous
 62
     7
100
AcDbCircle
 10
-671.1507261042261
 20
-1557.59791456798
 30
0.0
 40
10.51993676617879
100
AcDbArc
 50
89.88229632930673
 51
138.8315380619977
  0
ARC
  5
286
330
471
100
AcDbEntity
  8
DATA
  6
Continuous
 62
     7
100
AcDbCircle
 10
-670.5297406299835
 20
-1558.217053520008
 30
0.0
 40
11.39510843126995
100
AcDbArc
 50
138.5434544344151
 51
179.5471969075931
  0
ARC
  5
287
330
471
100
AcDbEntity
  8
DATA
  6
Continuous
 62
     7
100
AcDbCircle
 10
-671.1075035732672
 20
-1558.65608543202
 30
0.0
 40
10.51993676617879
100
AcDbArc
 50
269.8822963293054
 51
318.831538061997
  0
ARC
  5
288
330
471
100
AcDbEntity
  8
DATA
  6
Continuous
 62
     7
100
AcDbCircle
 10
-671.7284890475101
 20
-1558.036946479991
 30
0.0
 40
11.39510843126995
100
AcDbArc
 50
318.5434544344153
 51
359.5471969075932
  0
ARC
  5
289
330
471
100
AcDbEntity
  8
DATA
  6
Continuous
 62
     7
100
AcDbCircle
 10
-671.1075035732672
 20
-1557.59791456798
 30
0.0
 40
10.51993676617857
100
AcDbArc
 50
41.16846193800313
 51
90.11770367069452
  0
ARC
  5
28A
330
471
100
AcDbEntity
  8
DATA
  6
Continuous
 62
     7
100
AcDbCircle
 10
-671.7284890475101
 20
-1558.217053520008
 30
0.0
 40
11.39510843127001
100
AcDbArc
 50
0.4528030924069096
 51
41.45654556558481
  0
LINE
  5
28B
330
471
100
AcDbEntity
  8
DATA
  6
Continuous
 62
     7
100
AcDbLine
 10
156.25
 20
-1436.0
 30
0.0
 11
43.75
 21
-1436.0
 31
0.0
  0
LINE
  5
28C
330
471
100
AcDbEntity
  8
DATA
  6
Continuous
 62
     7
100
AcDbLine
 10
161.25
 20
-1241.5
 30
0.0
 11
161.25
 21
-1431.0
 31
0.0
  0
LWPOLYLINE
  5
28D
330
471
100
AcDbEntity
  8
DATA
  6
Continuous
 62
     7
100
AcDbPolyline
 90
        4
 70
     1
 43
0.0
 10
59.5
 20
-1374.0
 10
140.5
 20
-1374.0
 10
140.5
 20
-1392.0
 10
59.5
 20
-1392.0
  0
LINE
  5
294
330
471
100
AcDbEntity
  8
DATA
  6
Continuous
 62
     7
100
AcDbLine
 10
97.0
 20
-1324.5
 30
0.0
 11
103.0
 21
-1324.5
 31
0.0
  0
LINE
  5
295
330
471
100
AcDbEntity
  8
DATA
  6
Continuous
 62
     7
100
AcDbLine
 10
98.0
 20
-1344.5
 30
0.0
 11
102.0
 21
-1344.5
 31
0.0
  0
LINE
  5
296
330
471
100
AcDbEntity
  8
DATA
  6
Continuous
 62
     7
100
AcDbLine
 10
98.0
 20
-1344.5
 30
0.0
 11
98.0
 21
-1343.3
 31
0.0
  0
LINE
  5
297
330
471
100
AcDbEntity
  8
DATA
  6
Continuous
 62
     7
100
AcDbLine
 10
102.0
 20
-1344.5
 30
0.0
 11
102.0
 21
-1343.3
 31
0.0
  0
LINE
  5
298
330
471
100
AcDbEntity
  8
DATA
  6
Continuous
 62
     7
100
AcDbLine
 10
97.0
 20
-1324.5
 30
0.0
 11
97.0
 21
-1326.22715
 31
0.0
  0
LINE
  5
299
330
471
100
AcDbEntity
  8
DATA
  6
Continuous
 62
     7
100
AcDbLine
 10
103.0
 20
-1324.5
 30
0.0
 11
103.0
 21
-1326.22715
 31
0.0
  0
ARC
  5
29A
330
471
100
AcDbEntity
  8
DATA
  6
Continuous
 62
     7
100
AcDbCircle
 10
100.0
 20
-1334.5
 30
0.0
 40
8.800002677414209
100
AcDbArc
 50
109.9322641506793
 51
257.1961668197015
  0
ARC
  5
29B
330
471
100
AcDbEntity
  8
DATA
  6
Continuous
 62
     7
100
AcDbCircle
 10
100.0
 20
-1334.5
 30
0.0
 40
8.800003504346031
100
AcDbArc
 50
282.9999995554241
 51
69.99999423796154
  0
ARC
  5
29C
330
471
100
AcDbEntity
  8
DATA
  6
Continuous
 62
     7
100
AcDbCircle
 10
100.0
 20
-1334.5
 30
0.0
 40
6.200002162064247
100
AcDbArc
 50
60.0000115355575
 51
150.0000115355601
  0
LINE
  5
29D
330
471
100
AcDbEntity
  8
DATA
  6
Continuous
 62
     7
100
AcDbLine
 10
94.63065999999979
 20
-1331.39997
 30
0.0
 11
95.12862000000039
 21
-1331.68747
 31
0.0
  0
LINE
  5
29E
330
471
100
AcDbEntity
  8
DATA
  6
Continuous
 62
     7
100
AcDbLine
 10
103.0999700000002
 20
-1329.13062
 30
0.0
 11
102.8124699999998
 21
-1329.62859
 31
0.0
  0
ARC
  5
29F
330
471
100
AcDbEntity
  8
DATA
  6
Continuous
 62
     7
100
AcDbCircle
 10
100.0
 20
-1334.5
 30
0.0
 40
6.20000216206399
100
AcDbArc
 50
240.0000115355659
 51
330.0000115355644
  0
LINE
  5
2A0
330
471
100
AcDbEntity
  8
DATA
  6
Continuous
 62
     7
100
AcDbLine
 10
96.90000000000056
 20
-1339.86936
 30
0.0
 11
97.1875
 21
-1339.37139
 31
0.0
  0
LINE
  5
2A1
330
471
100
AcDbEntity
  8
DATA
  6
Continuous
 62
     7
100
AcDbLine
 10
105.3693700000003
 20
-1337.59998
 30
0.0
 11
104.8714
 21
-1337.31248
 31
0.0
  0
ARC
  5
2A2
330
471
100
AcDbEntity
  8
DATA
  6
Continuous
 62
     7
100
AcDbCircle
 10
100.0
 20
-1334.5
 30
0.0
 40
5.625003831580524
100
AcDbArc
 50
149.999669682101
 51
240.000212604301
  0
ARC
  5
2A3
330
471
100
AcDbEntity
  8
DATA
  6
Continuous
 62
     7
100
AcDbCircle
 10
100.0
 20
-1334.5
 30
0.0
 40
5.624996152034259
100
AcDbArc
 50
330.0002126043024
 51
60.00071824312562
  0
ARC
  5
2A4
330
471
100
AcDbEntity
  8
DATA
  6
Continuous
 62
     7
100
AcDbCircle
 10
100.0
 20
-1334.5
 30
0.0
 40
3.59999008087537
100
AcDbArc
 50
59.99990885470324
 51
149.9999088547082
  0
ARC
  5
2A5
330
471
100
AcDbEntity
  8
DATA
  6
Continuous
 62
     7
100
AcDbCircle
 10
100.0
 20
-1334.5
 30
0.0
 40
3.59999008087537
100
AcDbArc
 50
239.9999088547033
 51
329.9999088547082
  0
LINE
  5
2A6
330
471
100
AcDbEntity
  8
DATA
  6
Continuous
 62
     7
100
AcDbLine
 10
101.7999799999998
 20
-1331.38231
 30
0.0
 11
101.4499900000001
 21
-1331.98852
 31
0.0
  0
LINE
  5
2A7
330
471
100
AcDbEntity
  8
DATA
  6
Continuous
 62
     7
100
AcDbLine
 10
96.88233000000037
 20
-1332.69999
 30
0.0
 11
97.48853000000051
 21
-1333.04999
 31
0.0
  0
LINE
  5
2A8
330
471
100
AcDbEntity
  8
DATA
  6
Continuous
 62
     7
100
AcDbLine
 10
98.19999999999978
 20
-1337.61768
 30
0.0
 11
98.55000000000019
 21
-1337.01147
 31
0.0
  0
LINE
  5
2A9
330
471
100
AcDbEntity
  8
DATA
  6
Continuous
 62
     7
100
AcDbLine
 10
103.11769
 20
-1336.29998
 30
0.0
 11
102.5114800000001
 21
-1335.94999
 31
0.0
  0
ARC
  5
2AA
330
471
100
AcDbEntity
  8
DATA
  6
Continuous
 62
     7
100
AcDbCircle
 10
100.0
 20
-1334.5
 30
0.0
 40
2.900001820861042
100
AcDbArc
 50
149.9997926340248
 51
240.0002336238304
  0
ARC
  5
2AB
330
471
100
AcDbEntity
  8
DATA
  6
Continuous
 62
     7
100
AcDbCircle
 10
100.0
 20
-1334.5
 30
0.0
 40
2.900000481120788
100
AcDbArc
 50
330.0002336238303
 51
59.99979263402263
  0
LINE
  5
2AC
330
471
100
AcDbEntity
  8
DATA
  6
Continuous
 62
     7
100
AcDbLine
 10
72.50000000000091
 20
-1392.0
 30
0.0
 11
72.50000000000091
 21
-1374.0
 31
0.0
  0
LINE
  5
2AD
330
471
100
AcDbEntity
  8
DATA
  6
Continuous
 62
     7
100
AcDbLine
 10
75.50000000000091
 20
-1392.0
 30
0.0
 11
75.50000000000091
 21
-1374.0
 31
0.0
  0
LINE
  5
2AE
330
471
100
AcDbEntity
  8
DATA
  6
Continuous
 62
     7
100
AcDbLine
 10
85.50000000000091
 20
-1392.0
 30
0.0
 11
85.50000000000091
 21
-1374.0
 31
0.0
  0
LINE
  5
2AF
330
471
100
AcDbEntity
  8
DATA
  6
Continuous
 62
     7
100
AcDbLine
 10
88.50000000000092
 20
-1392.0
 30
0.0
 11
88.50000000000092
 21
-1374.0
 31
0.0
  0
LINE
  5
2B0
330
471
100
AcDbEntity
  8
DATA
  6
Continuous
 62
     7
100
AcDbLine
 10
98.50000000000092
 20
-1392.0
 30
0.0
 11
98.50000000000092
 21
-1374.0
 31
0.0
  0
LINE
  5
2B1
330
471
100
AcDbEntity
  8
DATA
  6
Continuous
 62
     7
100
AcDbLine
 10
101.5000000000009
 20
-1392.0
 30
0.0
 11
101.5000000000009
 21
-1374.0
 31
0.0
  0
LINE
  5
2B2
330
471
100
AcDbEntity
  8
DATA
  6
Continuous
 62
     7
100
AcDbLine
 10
111.5000000000009
 20
-1392.0
 30
0.0
 11
111.5000000000009
 21
-1374.0
 31
0.0
  0
LINE
  5
2B3
330
471
100
AcDbEntity
  8
DATA
  6
Continuous
 62
     7
100
AcDbLine
 10
114.5000000000009
 20
-1392.0
 30
0.0
 11
114.5000000000009
 21
-1374.0
 31
0.0
  0
LINE
  5
2B4
330
471
100
AcDbEntity
  8
DATA
  6
Continuous
 62
     7
100
AcDbLine
 10
124.5000000000009
 20
-1392.0
 30
0.0
 11
124.5000000000009
 21
-1374.0
 31
0.0
  0
LINE
  5
2B5
330
471
100
AcDbEntity
  8
DATA
  6
Continuous
 62
     7
100
AcDbLine
 10
127.5000000000009
 20
-1392.0
 30
0.0
 11
127.5000000000009
 21
-1374.0
 31
0.0
  0
LINE
  5
2B6
330
471
100
AcDbEntity
  8
DATA
  6
Continuous
 62
     7
100
AcDbLine
 10
62.5
 20
-1392.0
 30
0.0
 11
62.5
 21
-1374.0
 31
0.0
  0
LINE
  5
2B7
330
471
100
AcDbEntity
  8
DATA
  6
Continuous
 62
     7
100
AcDbLine
 10
137.5
 20
-1374.0
 30
0.0
 11
137.5
 21
-1392.0
 31
0.0
  0
CIRCLE
  5
2B8
330
471
100
AcDbEntity
  8
DATA
  6
Continuous
 62
     7
100
AcDbCircle
 10
80.50000000000091
 20
-1383.0
 30
0.0
 40
3.999999999999455
  0
LINE
  5
2B9
330
471
100
AcDbEntity
  8
DATA
  6
Continuous
 62
     7
100
AcDbLine
 10
75.5
 20
-1387.0
 30
0.0
 11
77.69512195122023
 21
-1377.243902439024
 31
0.0
  0
LINE
  5
2BA
330
471
100
AcDbEntity
  8
DATA
  6
Continuous
 62
     7
100
AcDbLine
 10
83.30487804878066
 20
-1388.756097560976
 30
0.0
 11
75.5
 21
-1387.0
 31
0.0
  0
LINE
  5
2BB
330
471
100
AcDbEntity
  8
DATA
  6
Continuous
 62
     7
100
AcDbLine
 10
85.5
 20
-1379.0
 30
0.0
 11
83.30487804878066
 21
-1388.756097560976
 31
0.0
  0
LINE
  5
2BC
330
471
100
AcDbEntity
  8
DATA
  6
Continuous
 62
     7
100
AcDbLine
 10
77.69512195122023
 20
-1377.243902439024
 30
0.0
 11
85.5
 21
-1379.0
 31
0.0
  0
LINE
  5
2BD
330
471
100
AcDbEntity
  8
DATA
  6
Continuous
 62
     7
100
AcDbLine
 10
76.74122951685693
 20
-1381.631919426697
 30
0.0
 11
84.25877048314395
 21
-1384.368080573303
 31
0.0
  0
CIRCLE
  5
2BE
330
471
100
AcDbEntity
  8
DATA
  6
Continuous
 62
     7
100
AcDbCircle
 10
93.50000000000092
 20
-1383.0
 30
0.0
 40
3.999999999999455
  0
LINE
  5
2BF
330
471
100
AcDbEntity
  8
DATA
  6
Continuous
 62
     7
100
AcDbLine
 10
88.49999999999999
 20
-1387.0
 30
0.0
 11
90.69512195122023
 21
-1377.243902439024
 31
0.0
  0
LINE
  5
2C0
330
471
100
AcDbEntity
  8
DATA
  6
Continuous
 62
     7
100
AcDbLine
 10
96.30487804878065
 20
-1388.756097560976
 30
0.0
 11
88.49999999999999
 21
-1387.0
 31
0.0
  0
LINE
  5
2C1
330
471
100
AcDbEntity
  8
DATA
  6
Continuous
 62
     7
100
AcDbLine
 10
98.50000000000001
 20
-1379.0
 30
0.0
 11
96.30487804878065
 21
-1388.756097560976
 31
0.0
  0
LINE
  5
2C2
330
471
100
AcDbEntity
  8
DATA
  6
Continuous
 62
     7
100
AcDbLine
 10
90.69512195122023
 20
-1377.243902439024
 30
0.0
 11
98.50000000000001
 21
-1379.0
 31
0.0
  0
CIRCLE
  5
2C3
330
471
100
AcDbEntity
  8
DATA
  6
Continuous
 62
     7
100
AcDbCircle
 10
106.5000000000009
 20
-1383.0
 30
0.0
 40
3.999999999999455
  0
LINE
  5
2C4
330
471
100
AcDbEntity
  8
DATA
  6
Continuous
 62
     7
100
AcDbLine
 10
101.5
 20
-1387.0
 30
0.0
 11
103.6951219512202
 21
-1377.243902439024
 31
0.0
  0
LINE
  5
2C5
330
471
100
AcDbEntity
  8
DATA
  6
Continuous
 62
     7
100
AcDbLine
 10
109.3048780487807
 20
-1388.756097560976
 30
0.0
 11
101.5
 21
-1387.0
 31
0.0
  0
LINE
  5
2C6
330
471
100
AcDbEntity
  8
DATA
  6
Continuous
 62
     7
100
AcDbLine
 10
111.5
 20
-1379.0
 30
0.0
 11
109.3048780487807
 21
-1388.756097560976
 31
0.0
  0
LINE
  5
2C7
330
471
100
AcDbEntity
  8
DATA
  6
Continuous
 62
     7
100
AcDbLine
 10
103.6951219512202
 20
-1377.243902439024
 30
0.0
 11
111.5
 21
-1379.0
 31
0.0
  0
CIRCLE
  5
2C8
330
471
100
AcDbEntity
  8
DATA
  6
Continuous
 62
     7
100
AcDbCircle
 10
119.5000000000009
 20
-1383.0
 30
0.0
 40
3.999999999999455
  0
LINE
  5
2C9
330
471
100
AcDbEntity
  8
DATA
  6
Continuous
 62
     7
100
AcDbLine
 10
114.5
 20
-1387.0
 30
0.0
 11
116.6951219512202
 21
-1377.243902439024
 31
0.0
  0
LINE
  5
2CA
330
471
100
AcDbEntity
  8
DATA
  6
Continuous
 62
     7
100
AcDbLine
 10
122.3048780487807
 20
-1388.756097560976
 30
0.0
 11
114.5
 21
-1387.0
 31
0.0
  0
LINE
  5
2CB
330
471
100
AcDbEntity
  8
DATA
  6
Continuous
 62
     7
100
AcDbLine
 10
124.5
 20
-1379.0
 30
0.0
 11
122.3048780487807
 21
-1388.756097560976
 31
0.0
  0
LINE
  5
2CC
330
471
100
AcDbEntity
  8
DATA
  6
Continuous
 62
     7
100
AcDbLine
 10
116.6951219512202
 20
-1377.243902439024
 30
0.0
 11
124.5
 21
-1379.0
 31
0.0
  0
CIRCLE
  5
2CD
330
471
100
AcDbEntity
  8
DATA
  6
Continuous
 62
     7
100
AcDbCircle
 10
132.5
 20
-1383.0
 30
0.0
 40
4.000000000000231
  0
CIRCLE
  5
2CE
330
471
100
AcDbEntity
  8
DATA
  6
Continuous
 62
     7
100
AcDbCircle
 10
67.5
 20
-1383.0
 30
0.0
 40
4.000000000000309
  0
TEXT
  5
2CF
330
471
100
AcDbEntity
  8
DATA
 62
     7
100
AcDbText
 10
77.64952806433129
 20
-1369.054077148437
 30
0.0
 40
6.108154296875
  1
1+
 41
0.7
 72
     1
 11
80.50000006953963
 21
-1366.0
 31
0.0
100
AcDbText
 73
     2
  0
TEXT
  5
2D0
330
471
100
AcDbEntity
  8
DATA
 62
     7
100
AcDbText
 10
90.64952806433129
 20
-1369.054077148437
 30
0.0
 40
6.108154296875
  1
1-
 41
0.7
 72
     1
 11
93.50000006953962
 21
-1366.0
 31
0.0
100
AcDbText
 73
     2
  0
TEXT
  5
2D1
330
471
100
AcDbEntity
  8
DATA
 62
     7
100
AcDbText
 10
102.9369100630292
 20
-1369.054077148437
 30
0.0
 40
6.108154296875
  1
2+
 41
0.7
 72
     1
 11
106.5000000695396
 21
-1366.0
 31
0.0
100
AcDbText
 73
     2
  0
TEXT
  5
2D2
330
471
100
AcDbEntity
  8
DATA
 62
     7
100
AcDbText
 10
115.9369100630292
 20
-1369.054077148437
 30
0.0
 40
6.108154296875
  1
2-
 41
0.7
 72
     1
 11
119.5000000695396
 21
-1366.0
 31
0.0
100
AcDbText
 73
     2
  0
CIRCLE
  5
2D3
330
471
100
AcDbEntity
  8
DATA
  6
Continuous
 62
     7
100
AcDbCircle
 10
70.0
 20
-1317.0
 30
0.0
 40
3.0
  0
CIRCLE
  5
2D4
330
471
100
AcDbEntity
  8
DATA
  6
Continuous
 62
     7
100
AcDbCircle
 10
130.0
 20
-1317.0
 30
0.0
 40
3.0
  0
LWPOLYLINE
  5
2D5
330
471
100
AcDbEntity
  8
DATA
  6
Continuous
 62
     7
100
AcDbPolyline
 90
        4
 70
     1
 43
0.0
 10
60.0
 20
-1270.0
 10
140.0
 20
-1270.0
 10
140.0
 20
-1307.5
 10
60.0
 20
-1307.5
  0
CIRCLE
  5
2DC
330
471
100
AcDbEntity
  8
DATA
  6
Continuous
 62
     7
100
AcDbCircle
 10
45.25
 20
-1243.25
 30
0.0
 40
3.25
  0
LINE
  5
2DD
330
471
100
AcDbEntity
  8
DATA
  6
Continuous
 62
     7
100
AcDbLine
 10
81.09853525082053
 20
-1381.355537913625
 30
0.0
 11
79.90146474918038
 21
-1384.644462086375
 31
0.0
  0
LINE
  5
2DE
330
471
100
AcDbEntity
  8
DATA
  6
Continuous
 62
     7
100
AcDbLine
 10
68.09853525082053
 20
-1384.644462086375
 30
0.0
 11
66.90146474918037
 21
-1381.355537913625
 31
0.0
  0
LINE
  5
2DF
330
471
100
AcDbEntity
  8
DATA
  6
Continuous
 62
     7
100
AcDbLine
 10
65.8555379136251
 20
-1383.59853525082
 30
0.0
 11
69.14446208637582
 21
-1382.40146474918
 31
0.0
  0
LINE
  5
2E0
330
471
100
AcDbEntity
  8
DATA
  6
Continuous
 62
     7
100
AcDbLine
 10
89.74122951685693
 20
-1381.631919426697
 30
0.0
 11
97.25877048314396
 21
-1384.368080573303
 31
0.0
  0
LINE
  5
2E1
330
471
100
AcDbEntity
  8
DATA
  6
Continuous
 62
     7
100
AcDbLine
 10
94.09853525082052
 20
-1381.355537913625
 30
0.0
 11
92.90146474918035
 21
-1384.644462086375
 31
0.0
  0
LINE
  5
2E2
330
471
100
AcDbEntity
  8
DATA
  6
Continuous
 62
     7
100
AcDbLine
 10
102.7412295168569
 20
-1381.631919426697
 30
0.0
 11
110.2587704831439
 21
-1384.368080573303
 31
0.0
  0
LINE
  5
2E3
330
471
100
AcDbEntity
  8
DATA
  6
Continuous
 62
     7
100
AcDbLine
 10
107.0985352508205
 20
-1381.355537913625
 30
0.0
 11
105.9014647491804
 21
-1384.644462086375
 31
0.0
  0
LINE
  5
2E4
330
471
100
AcDbEntity
  8
DATA
  6
Continuous
 62
     7
100
AcDbLine
 10
115.7412295168569
 20
-1381.631919426697
 30
0.0
 11
123.2587704831439
 21
-1384.368080573303
 31
0.0
  0
LINE
  5
2E5
330
471
100
AcDbEntity
  8
DATA
  6
Continuous
 62
     7
100
AcDbLine
 10
120.0985352508205
 20
-1381.355537913625
 30
0.0
 11
118.9014647491803
 21
-1384.644462086375
 31
0.0
  0
LINE
  5
2E6
330
471
100
AcDbEntity
  8
DATA
  6
Continuous
 62
     7
100
AcDbLine
 10
130.855537913625
 20
-1383.59853525082
 30
0.0
 11
134.1444620863758
 21
-1382.40146474918
 31
0.0
  0
LINE
  5
2E7
330
471
100
AcDbEntity
  8
DATA
  6
Continuous
 62
     7
100
AcDbLine
 10
133.0985352508205
 20
-1384.644462086375
 30
0.0
 11
131.9014647491804
 21
-1381.355537913625
 31
0.0
  0
LINE
  5
2E8
330
471
100
AcDbEntity
  8
DATA
  6
Continuous
 62
     7
100
AcDbLine
 10
45.25
 20
-1244.75
 30
0.0
 11
45.25
 21
-1241.75
 31
0.0
  0
LINE
  5
2E9
330
471
100
AcDbEntity
  8
DATA
  6
Continuous
 62
     7
100
AcDbLine
 10
46.74999999999999
 20
-1243.25
 30
0.0
 11
43.75
 21
-1243.25
 31
0.0
  0
CIRCLE
  5
2EA
330
471
100
AcDbEntity
  8
DATA
  6
Continuous
 62
     7
100
AcDbCircle
 10
154.75
 20
-1243.25
 30
0.0
 40
3.25
  0
LINE
  5
2EB
330
471
100
AcDbEntity
  8
DATA
  6
Continuous
 62
     7
100
AcDbLine
 10
154.75
 20
-1244.75
 30
0.0
 11
154.75
 21
-1241.75
 31
0.0
  0
LINE
  5
2EC
330
471
100
AcDbEntity
  8
DATA
  6
Continuous
 62
     7
100
AcDbLine
 10
156.25
 20
-1243.25
 30
0.0
 11
153.25
 21
-1243.25
 31
0.0
  0
CIRCLE
  5
2ED
330
471
100
AcDbEntity
  8
DATA
  6
Continuous
 62
     7
100
AcDbCircle
 10
45.25
 20
-1336.25
 30
0.0
 40
3.25
  0
LINE
  5
2EE
330
471
100
AcDbEntity
  8
DATA
  6
Continuous
 62
     7
100
AcDbLine
 10
45.25
 20
-1337.75
 30
0.0
 11
45.25
 21
-1334.75
 31
0.0
  0
LINE
  5
2EF
330
471
100
AcDbEntity
  8
DATA
  6
Continuous
 62
     7
100
AcDbLine
 10
46.74999999999999
 20
-1336.25
 30
0.0
 11
43.75
 21
-1336.25
 31
0.0
  0
CIRCLE
  5
2F0
330
471
100
AcDbEntity
  8
DATA
  6
Continuous
 62
     7
100
AcDbCircle
 10
154.75
 20
-1336.25
 30
0.0
 40
3.25
  0
LINE
  5
2F1
330
471
100
AcDbEntity
  8
DATA
  6
Continuous
 62
     7
100
AcDbLine
 10
154.75
 20
-1337.75
 30
0.0
 11
154.75
 21
-1334.75
 31
0.0
  0
LINE
  5
2F2
330
471
100
AcDbEntity
  8
DATA
  6
Continuous
 62
     7
100
AcDbLine
 10
156.25
 20
-1336.25
 30
0.0
 11
153.25
 21
-1336.25
 31
0.0
  0
CIRCLE
  5
2F3
330
471
100
AcDbEntity
  8
DATA
  6
Continuous
 62
     7
100
AcDbCircle
 10
45.25
 20
-1429.25
 30
0.0
 40
3.25
  0
LINE
  5
2F4
330
471
100
AcDbEntity
  8
DATA
  6
Continuous
 62
     7
100
AcDbLine
 10
45.25
 20
-1430.75
 30
0.0
 11
45.25
 21
-1427.75
 31
0.0
  0
LINE
  5
2F5
330
471
100
AcDbEntity
  8
DATA
  6
Continuous
 62
     7
100
AcDbLine
 10
46.74999999999999
 20
-1429.25
 30
0.0
 11
43.75
 21
-1429.25
 31
0.0
  0
CIRCLE
  5
2F6
330
471
100
AcDbEntity
  8
DATA
  6
Continuous
 62
     7
100
AcDbCircle
 10
154.75
 20
-1429.25
 30
0.0
 40
3.25
  0
LINE
  5
2F7
330
471
100
AcDbEntity
  8
DATA
  6
Continuous
 62
     7
100
AcDbLine
 10
154.75
 20
-1430.75
 30
0.0
 11
154.75
 21
-1427.75
 31
0.0
  0
LINE
  5
2F8
330
471
100
AcDbEntity
  8
DATA
  6
Continuous
 62
     7
100
AcDbLine
 10
156.25
 20
-1429.25
 30
0.0
 11
153.25
 21
-1429.25
 31
0.0
  0
LINE
  5
2F9
330
471
100
AcDbEntity
  8
DATA
  6
Continuous
 62
     7
100
AcDbLine
 10
43.75
 20
-1236.5
 30
0.0
 11
156.25
 21
-1236.5
 31
0.0
  0
LINE
  5
2FA
330
471
100
AcDbEntity
  8
DATA
  6
Continuous
 62
     7
100
AcDbLine
 10
38.75
 20
-1431.0
 30
0.0
 11
38.75
 21
-1241.5
 31
0.0
  0
ARC
  5
2FB
330
471
100
AcDbEntity
  8
DATA
  6
Continuous
 62
     7
100
AcDbCircle
 10
43.75
 20
-1431.0
 30
0.0
 40
5.0
100
AcDbArc
 50
180.0
 51
270.0
  0
ARC
  5
2FC
330
471
100
AcDbEntity
  8
DATA
  6
Continuous
 62
     7
100
AcDbCircle
 10
156.25
 20
-1431.0
 30
0.0
 40
5.0
100
AcDbArc
 50
270.0
 51
0.0
  0
ARC
  5
2FD
330
471
100
AcDbEntity
  8
DATA
  6
Continuous
 62
     7
100
AcDbCircle
 10
156.25
 20
-1241.5
 30
0.0
 40
5.0
100
AcDbArc
 50
0.0
 51
90.0
  0
ARC
  5
2FE
330
471
100
AcDbEntity
  8
DATA
  6
Continuous
 62
     7
100
AcDbCircle
 10
43.75
 20
-1241.5
 30
0.0
 40
5.0
100
AcDbArc
 50
90.0
 51
180.0
  0
LWPOLYLINE
  5
2FF
330
471
100
AcDbEntity
  8
DATA
  6
Continuous
 62
     7
100
AcDbPolyline
 90
        4
 70
     1
 43
0.0
 10
53.0
 20
-1250.75
 10
147.0
 20
-1250.75
 10
147.0
 20
-1421.75
 10
53.0
 20
-1421.75
  0
TEXT
  5
306
330
471
100
AcDbEntity
  8
DATA
 62
     7
100
AcDbText
 10
61.34198922676842
 20
-1306.157061988954
 30
0.0
 40
3.84765625
  1
(PASSIVE)
 41
0.7
 11
61.34198922676842
 21
-1302.309405738954
 31
0.0
100
AcDbText
 73
     3
  0
TEXT
  5
307
330
471
100
AcDbEntity
  8
DATA
 62
     7
100
AcDbText
 10
63.0
 20
-1277.290901875917
 30
0.0
 40
3.84765625
  1
Model: AM7215/
 41
0.7
 11
63.0
 21
-1273.443245625917
 31
0.0
100
AcDbText
 73
     3
  0
LINE
  5
308
330
471
100
AcDbEntity
  8
DATA
  6
Continuous
 62
     7
100
AcDbLine
 10
74.0
 20
-1286.333333333333
 30
0.0
 11
126.0
 21
-1286.333333333333
 31
0.0
  0
TEXT
  5
309
330
471
100
AcDbEntity
  8
DATA
 62
     7
100
AcDbText
 10
77.24921332465277
 20
-1284.524034288194
 30
0.0
 40
2.714735243055555
  1
Wiring:
 41
0.7
 72
     1
 11
82.0
 21
-1283.166666666667
 31
0.0
100
AcDbText
 73
     2
  0
TEXT
  5
30A
330
471
100
AcDbEntity
  8
DATA
 62
     7
100
AcDbText
 10
112.7379148395619
 20
-1284.54360383842
 30
0.0
 40
2.714735243055555
  1
Bi-Amp
 41
0.7
 72
     1
 11
117.4887015149091
 21
-1283.186236216893
 31
0.0
100
AcDbText
 73
     2
  0
TEXT
  5
30B
330
471
100
AcDbEntity
  8
DATA
 62
     7
100
AcDbText
 10
93.89958167767277
 20
-1284.624559976284
 30
0.0
 40
2.714735243055555
  1
Passive
 41
0.7
 72
     1
 11
99.60052568808944
 21
-1283.267192354756
 31
0.0
100
AcDbText
 73
     2
  0
TEXT
  5
30C
330
471
100
AcDbEntity
  8
DATA
 62
     7
100
AcDbText
 10
78.19937065972222
 20
-1290.857367621528
 30
0.0
 40
2.714735243055555
  1
1+/1-
 41
0.7
 72
     1
 11
82.0
 21
-1289.5
 31
0.0
100
AcDbText
 73
     2
  0
TEXT
  5
30D
330
471
100
AcDbEntity
  8
DATA
 62
     7
100
AcDbText
 10
115.3708018041314
 20
-1290.623797857937
 30
0.0
 40
2.714735243055555
  1
Low
 41
0.7
 72
     1
 11
117.9045546976499
 21
-1289.266430236409
 31
0.0
100
AcDbText
 73
     2
  0
TEXT
  5
30E
330
471
100
AcDbEntity
  8
DATA
 62
     7
100
AcDbText
 10
77.56593243634259
 20
-1297.190700954861
 30
0.0
 40
2.714735243055555
  1
2+/2-
 41
0.7
 72
     1
 11
82.0
 21
-1295.833333333333
 31
0.0
100
AcDbText
 73
     2
  0
TEXT
  5
30F
330
471
100
AcDbEntity
  8
DATA
 62
     7
100
AcDbText
 10
117.7929193325212
 20
-1306.157061988954
 30
0.0
 40
3.84765625
  1
(BI-AMP)
 41
0.7
 11
117.7929193325212
 21
-1302.309405738954
 31
0.0
100
AcDbText
 73
     3
  0
TEXT
  5
310
330
471
100
AcDbEntity
  8
DATA
 62
     7
100
AcDbText
 10
92.14536603009259
 20
-1290.857367621528
 30
0.0
 40
2.714735243055555
  1
Full Range
 41
0.7
 72
     1
 11
100.0
 21
-1289.5
 31
0.0
100
AcDbText
 73
     2
  0
LINE
  5
311
330
471
100
AcDbEntity
  8
DATA
  6
Continuous
 62
     7
100
AcDbLine
 10
74.0
 20
-1292.666666666666
 30
0.0
 11
126.0
 21
-1292.666666666666
 31
0.0
  0
TEXT
  5
312
330
471
100
AcDbEntity
  8
DATA
 62
     7
100
AcDbText
 10
96.96624710648148
 20
-1296.440700954861
 30
0.0
 40
2.714735243055555
  1
n/c
 41
0.7
 72
     1
 11
99.50000000000001
 21
-1295.083333333333
 31
0.0
100
AcDbText
 73
     2
  0
TEXT
  5
313
330
471
100
AcDbEntity
  8
DATA
 62
     7
100
AcDbText
 10
114.7326835365924
 20
-1297.142691080417
 30
0.0
 40
2.714735243055555
  1
High
 41
0.7
 72
     1
 11
117.5831555418008
 21
-1295.785323458889
 31
0.0
100
AcDbText
 73
     2
  0
LINE
  5
314
330
471
100
AcDbEntity
  8
DATA
  6
Continuous
 62
     7
100
AcDbLine
 10
90.0
 20
-1280.0
 30
0.0
 11
90.0
 21
-1299.0
 31
0.0
  0
LINE
  5
315
330
471
100
AcDbEntity
  8
DATA
  6
Continuous
 62
     7
100
AcDbLine
 10
109.0
 20
-1280.0
 30
0.0
 11
109.0
 21
-1299.0
 31
0.0
  0
LWPOLYLINE
  5
316
330
471
100
AcDbEntity
  8
DATA
  6
Continuous
 62
     7
100
AcDbPolyline
 90
        4
 70
     1
 43
0.0
 10
74.0
 20
-1280.0
 10
126.0
 20
-1280.0
 10
126.0
 20
-1299.0
 10
74.0
 20
-1299.0
  0
LINE
  5
31D
330
471
100
AcDbEntity
  8
DATA
  6
Continuous
 62
     7
100
AcDbLine
 10
1721.875
 20
-900.0
 30
0.0
 11
878.125
 21
-900.0
 31
0.0
  0
LINE
  5
31E
330
471
100
AcDbEntity
  8
DATA
  6
Continuous
 62
     7
100
AcDbLine
 10
1759.375
 20
558.75
 30
0.0
 11
1759.375
 21
-862.5
 31
0.0
  0
LWPOLYLINE
  5
31F
330
471
100
AcDbEntity
  8
DATA
  6
Continuous
 62
     7
100
AcDbPolyline
 90
        4
 70
     1
 43
0.0
 10
996.25
 20
-435.0
 10
1603.75
 20
-435.0
 10
1603.75
 20
-570.0
 10
996.25
 20
-570.0
  0
LINE
  5
326
330
471
100
AcDbEntity
  8
DATA
  6
Continuous
 62
     7
100
AcDbLine
 10
1277.5
 20
-63.75
 30
0.0
 11
1322.5
 21
-63.75
 31
0.0
  0
LINE
  5
327
330
471
100
AcDbEntity
  8
DATA
  6
Continuous
 62
     7
100
AcDbLine
 10
1285.0
 20
-213.75
 30
0.0
 11
1315.0
 21
-213.75
 31
0.0
  0
LINE
  5
328
330
471
100
AcDbEntity
  8
DATA
  6
Continuous
 62
     7
100
AcDbLine
 10
1285.0
 20
-213.75
 30
0.0
 11
1285.0
 21
-204.7499999999996
 31
0.0
  0
LINE
  5
329
330
471
100
AcDbEntity
  8
DATA
  6
Continuous
 62
     7
100
AcDbLine
 10
1315.0
 20
-213.75
 30
0.0
 11
1315.0
 21
-204.7499999999996
 31
0.0
  0
LINE
  5
32A
330
471
100
AcDbEntity
  8
DATA
  6
Continuous
 62
     7
100
AcDbLine
 10
1277.5
 20
-63.75
 30
0.0
 11
1277.5
 21
-76.70362500000125
 31
0.0
  0
LINE
  5
32B
330
471
100
AcDbEntity
  8
DATA
  6
Continuous
 62
     7
100
AcDbLine
 10
1322.5
 20
-63.75
 30
0.0
 11
1322.5
 21
-76.70362500000125
 31
0.0
  0
ARC
  5
32C
330
471
100
AcDbEntity
  8
DATA
  6
Continuous
 62
     7
100
AcDbCircle
 10
1300.0
 20
-138.75
 30
0.0
 40
66.00002008060657
100
AcDbArc
 50
109.9322641506793
 51
257.1961668197014
  0
ARC
  5
32D
330
471
100
AcDbEntity
  8
DATA
  6
Continuous
 62
     7
100
AcDbCircle
 10
1300.0
 20
-138.75
 30
0.0
 40
66.00002628259534
100
AcDbArc
 50
282.9999995554241
 51
69.99999423796149
  0
ARC
  5
32E
330
471
100
AcDbEntity
  8
DATA
  6
Continuous
 62
     7
100
AcDbCircle
 10
1300.0
 20
-138.75
 30
0.0
 40
46.50001621548194
100
AcDbArc
 50
60.00001153555757
 51
150.0000115355601
  0
LINE
  5
32F
330
471
100
AcDbEntity
  8
DATA
  6
Continuous
 62
     7
100
AcDbLine
 10
1259.729949999998
 20
-115.4997749999995
 30
0.0
 11
1263.464650000003
 21
-117.6560250000006
 31
0.0
  0
LINE
  5
330
330
471
100
AcDbEntity
  8
DATA
  6
Continuous
 62
     7
100
AcDbLine
 10
1323.249775000001
 20
-98.47964999999931
 30
0.0
 11
1321.093524999999
 21
-102.2144250000001
 31
0.0
  0
ARC
  5
331
330
471
100
AcDbEntity
  8
DATA
  6
Continuous
 62
     7
100
AcDbCircle
 10
1300.0
 20
-138.75
 30
0.0
 40
46.50001621547992
100
AcDbArc
 50
240.0000115355659
 51
330.0000115355642
  0
LINE
  5
332
330
471
100
AcDbEntity
  8
DATA
  6
Continuous
 62
     7
100
AcDbLine
 10
1276.750000000004
 20
-179.0202000000011
 30
0.0
 11
1278.90625
 21
-175.285425
 31
0.0
  0
LINE
  5
333
330
471
100
AcDbEntity
  8
DATA
  6
Continuous
 62
     7
100
AcDbLine
 10
1340.270275000002
 20
-161.9998499999997
 30
0.0
 11
1336.5355
 21
-159.8436000000003
 31
0.0
  0
ARC
  5
334
330
471
100
AcDbEntity
  8
DATA
  6
Continuous
 62
     7
100
AcDbCircle
 10
1300.0
 20
-138.75
 30
0.0
 40
42.18752873685388
100
AcDbArc
 50
149.9996696821012
 51
240.0002126043013
  0
ARC
  5
335
330
471
100
AcDbEntity
  8
DATA
  6
Continuous
 62
     7
100
AcDbCircle
 10
1300.0
 20
-138.75
 30
0.0
 40
42.18747114025695
100
AcDbArc
 50
330.0002126043024
 51
60.0007182431255
  0
ARC
  5
336
330
471
100
AcDbEntity
  8
DATA
  6
Continuous
 62
     7
100
AcDbCircle
 10
1300.0
 20
-138.75
 30
0.0
 40
26.99992560656518
100
AcDbArc
 50
59.99990885470312
 51
149.9999088547083
  0
ARC
  5
337
330
471
100
AcDbEntity
  8
DATA
  6
Continuous
 62
     7
100
AcDbCircle
 10
1300.0
 20
-138.75
 30
0.0
 40
26.99992560656518
100
AcDbArc
 50
239.9999088547032
 51
329.9999088547084
  0
LINE
  5
338
330
471
100
AcDbEntity
  8
DATA
  6
Continuous
 62
     7
100
AcDbLine
 10
1313.499849999998
 20
-115.3673249999997
 30
0.0
 11
1310.874925
 21
-119.9139000000009
 31
0.0
  0
LINE
  5
339
330
471
100
AcDbEntity
  8
DATA
  6
Continuous
 62
     7
100
AcDbLine
 10
1276.617475000002
 20
-125.2499250000005
 30
0.0
 11
1281.163975000004
 21
-127.8749249999998
 31
0.0
  0
LINE
  5
33A
330
471
100
AcDbEntity
  8
DATA
  6
Continuous
 62
     7
100
AcDbLine
 10
1286.499999999998
 20
-162.1326000000004
 30
0.0
 11
1289.125000000001
 21
-157.5860249999994
 31
0.0
  0
LINE
  5
33B
330
471
100
AcDbEntity
  8
DATA
  6
Continuous
 62
     7
100
AcDbLine
 10
1323.382675
 20
-152.2498500000001
 30
0.0
 11
1318.836100000001
 21
-149.6249250000005
 31
0.0
  0
ARC
  5
33C
330
471
100
AcDbEntity
  8
DATA
  6
Continuous
 62
     7
100
AcDbCircle
 10
1300.0
 20
-138.75
 30
0.0
 40
21.75001365645782
100
AcDbArc
 50
149.9997926340248
 51
240.00023362383
  0
ARC
  5
33D
330
471
100
AcDbEntity
  8
DATA
  6
Continuous
 62
     7
100
AcDbCircle
 10
1300.0
 20
-138.75
 30
0.0
 40
21.75000360840591
100
AcDbArc
 50
330.0002336238303
 51
59.99979263402253
  0
LINE
  5
33E
330
471
100
AcDbEntity
  8
DATA
  6
Continuous
 62
     7
100
AcDbLine
 10
1093.750000000007
 20
-570.0
 30
0.0
 11
1093.750000000007
 21
-435.0
 31
0.0
  0
LINE
  5
33F
330
471
100
AcDbEntity
  8
DATA
  6
Continuous
 62
     7
100
AcDbLine
 10
1116.250000000007
 20
-570.0
 30
0.0
 11
1116.250000000007
 21
-435.0
 31
0.0
  0
LINE
  5
340
330
471
100
AcDbEntity
  8
DATA
  6
Continuous
 62
     7
100
AcDbLine
 10
1191.250000000007
 20
-570.0
 30
0.0
 11
1191.250000000007
 21
-435.0
 31
0.0
  0
LINE
  5
341
330
471
100
AcDbEntity
  8
DATA
  6
Continuous
 62
     7
100
AcDbLine
 10
1213.750000000007
 20
-570.0
 30
0.0
 11
1213.750000000007
 21
-435.0
 31
0.0
  0
LINE
  5
342
330
471
100
AcDbEntity
  8
DATA
  6
Continuous
 62
     7
100
AcDbLine
 10
1288.750000000007
 20
-570.0
 30
0.0
 11
1288.750000000007
 21
-435.0
 31
0.0
  0
LINE
  5
343
330
471
100
AcDbEntity
  8
DATA
  6
Continuous
 62
     7
100
AcDbLine
 10
1311.250000000007
 20
-570.0
 30
0.0
 11
1311.250000000007
 21
-435.0
 31
0.0
  0
LINE
  5
344
330
471
100
AcDbEntity
  8
DATA
  6
Continuous
 62
     7
100
AcDbLine
 10
1386.250000000007
 20
-570.0
 30
0.0
 11
1386.250000000007
 21
-435.0
 31
0.0
  0
LINE
  5
345
330
471
100
AcDbEntity
  8
DATA
  6
Continuous
 62
     7
100
AcDbLine
 10
1408.750000000007
 20
-570.0
 30
0.0
 11
1408.750000000007
 21
-435.0
 31
0.0
  0
LINE
  5
346
330
471
100
AcDbEntity
  8
DATA
  6
Continuous
 62
     7
100
AcDbLine
 10
1483.750000000006
 20
-570.0
 30
0.0
 11
1483.750000000006
 21
-435.0
 31
0.0
  0
LINE
  5
347
330
471
100
AcDbEntity
  8
DATA
  6
Continuous
 62
     7
100
AcDbLine
 10
1506.250000000007
 20
-570.0
 30
0.0
 11
1506.250000000007
 21
-435.0
 31
0.0
  0
LINE
  5
348
330
471
100
AcDbEntity
  8
DATA
  6
Continuous
 62
     7
100
AcDbLine
 10
1018.75
 20
-570.0
 30
0.0
 11
1018.75
 21
-435.0
 31
0.0
  0
LINE
  5
349
330
471
100
AcDbEntity
  8
DATA
  6
Continuous
 62
     7
100
AcDbLine
 10
1581.25
 20
-435.0
 30
0.0
 11
1581.25
 21
-570.0
 31
0.0
  0
CIRCLE
  5
34A
330
471
100
AcDbEntity
  8
DATA
  6
Continuous
 62
     7
100
AcDbCircle
 10
1153.750000000007
 20
-502.5
 30
0.0
 40
29.99999999999587
  0
LINE
  5
34B
330
471
100
AcDbEntity
  8
DATA
  6
Continuous
 62
     7
100
AcDbLine
 10
1116.25
 20
-532.4999999999981
 30
0.0
 11
1132.713414634152
 21
-459.3292682926812
 31
0.0
  0
LINE
  5
34C
330
471
100
AcDbEntity
  8
DATA
  6
Continuous
 62
     7
100
AcDbLine
 10
1174.786585365855
 20
-545.6707317073152
 30
0.0
 11
1116.25
 21
-532.4999999999981
 31
0.0
  0
LINE
  5
34D
330
471
100
AcDbEntity
  8
DATA
  6
Continuous
 62
     7
100
AcDbLine
 10
1191.25
 20
-472.4999999999981
 30
0.0
 11
1174.786585365855
 21
-545.6707317073152
 31
0.0
  0
LINE
  5
34E
330
471
100
AcDbEntity
  8
DATA
  6
Continuous
 62
     7
100
AcDbLine
 10
1132.713414634152
 20
-459.3292682926812
 30
0.0
 11
1191.25
 21
-472.4999999999981
 31
0.0
  0
LINE
  5
34F
330
471
100
AcDbEntity
  8
DATA
  6
Continuous
 62
     7
100
AcDbLine
 10
1125.559221376427
 20
-492.2393957002282
 30
0.0
 11
1181.940778623579
 21
-512.7606042997699
 31
0.0
  0
CIRCLE
  5
350
330
471
100
AcDbEntity
  8
DATA
  6
Continuous
 62
     7
100
AcDbCircle
 10
1251.250000000007
 20
-502.5
 30
0.0
 40
29.99999999999587
  0
LINE
  5
351
330
471
100
AcDbEntity
  8
DATA
  6
Continuous
 62
     7
100
AcDbLine
 10
1213.75
 20
-532.4999999999981
 30
0.0
 11
1230.213414634152
 21
-459.3292682926812
 31
0.0
  0
LINE
  5
352
330
471
100
AcDbEntity
  8
DATA
  6
Continuous
 62
     7
100
AcDbLine
 10
1272.286585365855
 20
-545.6707317073152
 30
0.0
 11
1213.75
 21
-532.4999999999981
 31
0.0
  0
LINE
  5
353
330
471
100
AcDbEntity
  8
DATA
  6
Continuous
 62
     7
100
AcDbLine
 10
1288.75
 20
-472.4999999999981
 30
0.0
 11
1272.286585365855
 21
-545.6707317073152
 31
0.0
  0
LINE
  5
354
330
471
100
AcDbEntity
  8
DATA
  6
Continuous
 62
     7
100
AcDbLine
 10
1230.213414634152
 20
-459.3292682926812
 30
0.0
 11
1288.75
 21
-472.4999999999981
 31
0.0
  0
CIRCLE
  5
355
330
471
100
AcDbEntity
  8
DATA
  6
Continuous
 62
     7
100
AcDbCircle
 10
1348.750000000007
 20
-502.5
 30
0.0
 40
29.99999999999587
  0
LINE
  5
356
330
471
100
AcDbEntity
  8
DATA
  6
Continuous
 62
     7
100
AcDbLine
 10
1311.25
 20
-532.4999999999981
 30
0.0
 11
1327.713414634152
 21
-459.3292682926812
 31
0.0
  0
LINE
  5
357
330
471
100
AcDbEntity
  8
DATA
  6
Continuous
 62
     7
100
AcDbLine
 10
1369.786585365855
 20
-545.6707317073152
 30
0.0
 11
1311.25
 21
-532.4999999999981
 31
0.0
  0
LINE
  5
358
330
471
100
AcDbEntity
  8
DATA
  6
Continuous
 62
     7
100
AcDbLine
 10
1386.25
 20
-472.4999999999981
 30
0.0
 11
1369.786585365855
 21
-545.6707317073152
 31
0.0
  0
LINE
  5
359
330
471
100
AcDbEntity
  8
DATA
  6
Continuous
 62
     7
100
AcDbLine
 10
1327.713414634152
 20
-459.3292682926812
 30
0.0
 11
1386.25
 21
-472.4999999999981
 31
0.0
  0
CIRCLE
  5
35A
330
471
100
AcDbEntity
  8
DATA
  6
Continuous
 62
     7
100
AcDbCircle
 10
1446.250000000007
 20
-502.5
 30
0.0
 40
29.99999999999587
  0
LINE
  5
35B
330
471
100
AcDbEntity
  8
DATA
  6
Continuous
 62
     7
100
AcDbLine
 10
1408.75
 20
-532.4999999999981
 30
0.0
 11
1425.213414634152
 21
-459.3292682926812
 31
0.0
  0
LINE
  5
35C
330
471
100
AcDbEntity
  8
DATA
  6
Continuous
 62
     7
100
AcDbLine
 10
1467.286585365855
 20
-545.6707317073152
 30
0.0
 11
1408.75
 21
-532.4999999999981
 31
0.0
  0
LINE
  5
35D
330
471
100
AcDbEntity
  8
DATA
  6
Continuous
 62
     7
100
AcDbLine
 10
1483.75
 20
-472.4999999999981
 30
0.0
 11
1467.286585365855
 21
-545.6707317073152
 31
0.0
  0
LINE
  5
35E
330
471
100
AcDbEntity
  8
DATA
  6
Continuous
 62
     7
100
AcDbLine
 10
1425.213414634152
 20
-459.3292682926812
 30
0.0
 11
1483.75
 21
-472.4999999999981
 31
0.0
  0
CIRCLE
  5
35F
330
471
100
AcDbEntity
  8
DATA
  6
Continuous
 62
     7
100
AcDbCircle
 10
1543.75
 20
-502.5
 30
0.0
 40
30.00000000000174
  0
CIRCLE
  5
360
330
471
100
AcDbEntity
  8
DATA
  6
Continuous
 62
     7
100
AcDbCircle
 10
1056.25
 20
-502.5
 30
0.0
 40
30.00000000000229
  0
TEXT
  5
361
330
471
100
AcDbEntity
  8
DATA
 62
     7
100
AcDbText
 10
1132.371460482483
 20
-397.9055786132812
 30
0.0
 40
45.8111572265625
  1
1+
 41
0.7
 72
     1
 11
1153.750000521546
 21
-375.0
 31
0.0
100
AcDbText
 73
     2
  0
TEXT
  5
362
330
471
100
AcDbEntity
  8
DATA
 62
     7
100
AcDbText
 10
1229.871460482483
 20
-397.9055786132812
 30
0.0
 40
45.8111572265625
  1
1-
 41
0.7
 72
     1
 11
1251.250000521546
 21
-375.0
 31
0.0
100
AcDbText
 73
     2
  0
TEXT
  5
363
330
471
100
AcDbEntity
  8
DATA
 62
     7
100
AcDbText
 10
1322.026825472718
 20
-397.9055786132812
 30
0.0
 40
45.8111572265625
  1
2+
 41
0.7
 72
     1
 11
1348.750000521546
 21
-375.0
 31
0.0
100
AcDbText
 73
     2
  0
TEXT
  5
364
330
471
100
AcDbEntity
  8
DATA
 62
     7
100
AcDbText
 10
1419.526825472718
 20
-397.9055786132812
 30
0.0
 40
45.8111572265625
  1
2-
 41
0.7
 72
     1
 11
1446.250000521546
 21
-375.0
 31
0.0
100
AcDbText
 73
     2
  0
CIRCLE
  5
365
330
471
100
AcDbEntity
  8
DATA
  6
Continuous
 62
     7
100
AcDbCircle
 10
1075.0
 20
-7.5
 30
0.0
 40
22.5
  0
CIRCLE
  5
366
330
471
100
AcDbEntity
  8
DATA
  6
Continuous
 62
     7
100
AcDbCircle
 10
1525.0
 20
-7.5
 30
0.0
 40
22.5
  0
LWPOLYLINE
  5
367
330
471
100
AcDbEntity
  8
DATA
  6
Continuous
 62
     7
100
AcDbPolyline
 90
        4
 70
     1
 43
0.0
 10
1000.0
 20
345.0
 10
1600.0
 20
345.0
 10
1600.0
 20
63.75
 10
1000.0
 20
63.75
  0
CIRCLE
  5
36E
330
471
100
AcDbEntity
  8
DATA
  6
Continuous
 62
     7
100
AcDbCircle
 10
889.375
 20
545.6249999999999
 30
0.0
 40
24.375
  0
LINE
  5
36F
330
471
100
AcDbEntity
  8
DATA
  6
Continuous
 62
     7
100
AcDbLine
 10
1158.239014381154
 20
-490.1665343521847
 30
0.0
 11
1149.260985618852
 21
-514.8334656478152
 31
0.0
  0
LINE
  5
370
330
471
100
AcDbEntity
  8
DATA
  6
Continuous
 62
     7
100
AcDbLine
 10
1060.739014381154
 20
-514.8334656478152
 30
0.0
 11
1051.760985618853
 21
-490.1665343521847
 31
0.0
  0
LINE
  5
371
330
471
100
AcDbEntity
  8
DATA
  6
Continuous
 62
     7
100
AcDbLine
 10
1043.916534352188
 20
-506.9890143811505
 30
0.0
 11
1068.583465647819
 21
-498.010985618851
 31
0.0
  0
LINE
  5
372
330
471
100
AcDbEntity
  8
DATA
  6
Continuous
 62
     7
100
AcDbLine
 10
1223.059221376427
 20
-492.2393957002282
 30
0.0
 11
1279.440778623579
 21
-512.7606042997699
 31
0.0
  0
LINE
  5
373
330
471
100
AcDbEntity
  8
DATA
  6
Continuous
 62
     7
100
AcDbLine
 10
1255.739014381154
 20
-490.1665343521847
 30
0.0
 11
1246.760985618852
 21
-514.8334656478152
 31
0.0
  0
LINE
  5
374
330
471
100
AcDbEntity
  8
DATA
  6
Continuous
 62
     7
100
AcDbLine
 10
1320.559221376427
 20
-492.2393957002282
 30
0.0
 11
1376.940778623579
 21
-512.7606042997699
 31
0.0
  0
LINE
  5
375
330
471
100
AcDbEntity
  8
DATA
  6
Continuous
 62
     7
100
AcDbLine
 10
1353.239014381154
 20
-490.1665343521847
 30
0.0
 11
1344.260985618852
 21
-514.8334656478152
 31
0.0
  0
LINE
  5
376
330
471
100
AcDbEntity
  8
DATA
  6
Continuous
 62
     7
100
AcDbLine
 10
1418.059221376427
 20
-492.2393957002282
 30
0.0
 11
1474.440778623579
 21
-512.7606042997699
 31
0.0
  0
LINE
  5
377
330
471
100
AcDbEntity
  8
DATA
  6
Continuous
 62
     7
100
AcDbLine
 10
1450.739014381154
 20
-490.1665343521847
 30
0.0
 11
1441.760985618853
 21
-514.8334656478152
 31
0.0
  0
LINE
  5
378
330
471
100
AcDbEntity
  8
DATA
  6
Continuous
 62
     7
100
AcDbLine
 10
1531.416534352188
 20
-506.9890143811505
 30
0.0
 11
1556.083465647819
 21
-498.010985618851
 31
0.0
  0
LINE
  5
379
330
471
100
AcDbEntity
  8
DATA
  6
Continuous
 62
     7
100
AcDbLine
 10
1548.239014381153
 20
-514.8334656478152
 30
0.0
 11
1539.260985618853
 21
-490.1665343521847
 31
0.0
  0
LINE
  5
37A
330
471
100
AcDbEntity
  8
DATA
  6
Continuous
 62
     7
100
AcDbLine
 10
889.375
 20
534.375
 30
0.0
 11
889.375
 21
556.875
 31
0.0
  0
LINE
  5
37B
330
471
100
AcDbEntity
  8
DATA
  6
Continuous
 62
     7
100
AcDbLine
 10
900.6249999999999
 20
545.6249999999999
 30
0.0
 11
878.125
 21
545.6249999999999
 31
0.0
  0
CIRCLE
  5
37C
330
471
100
AcDbEntity
  8
DATA
  6
Continuous
 62
     7
100
AcDbCircle
 10
1710.625
 20
545.6249999999999
 30
0.0
 40
24.375
  0
LINE
  5
37D
330
471
100
AcDbEntity
  8
DATA
  6
Continuous
 62
     7
100
AcDbLine
 10
1710.625
 20
534.375
 30
0.0
 11
1710.625
 21
556.875
 31
0.0
  0
LINE
  5
37E
330
471
100
AcDbEntity
  8
DATA
  6
Continuous
 62
     7
100
AcDbLine
 10
1721.875
 20
545.6249999999999
 30
0.0
 11
1699.375
 21
545.6249999999999
 31
0.0
  0
CIRCLE
  5
37F
330
471
100
AcDbEntity
  8
DATA
  6
Continuous
 62
     7
100
AcDbCircle
 10
889.375
 20
-151.875
 30
0.0
 40
24.375
  0
LINE
  5
380
330
471
100
AcDbEntity
  8
DATA
  6
Continuous
 62
     7
100
AcDbLine
 10
889.375
 20
-163.125
 30
0.0
 11
889.375
 21
-140.625
 31
0.0
  0
LINE
  5
381
330
471
100
AcDbEntity
  8
DATA
  6
Continuous
 62
     7
100
AcDbLine
 10
900.6249999999999
 20
-151.875
 30
0.0
 11
878.125
 21
-151.875
 31
0.0
  0
CIRCLE
  5
382
330
471
100
AcDbEntity
  8
DATA
  6
Continuous
 62
     7
100
AcDbCircle
 10
1710.625
 20
-151.875
 30
0.0
 40
24.375
  0
LINE
  5
383
330
471
100
AcDbEntity
  8
DATA
  6
Continuous
 62
     7
100
AcDbLine
 10
1710.625
 20
-163.125
 30
0.0
 11
1710.625
 21
-140.625
 31
0.0
  0
LINE
  5
384
330
471
100
AcDbEntity
  8
DATA
  6
Continuous
 62
     7
100
AcDbLine
 10
1721.875
 20
-151.875
 30
0.0
 11
1699.375
 21
-151.875
 31
0.0
  0
CIRCLE
  5
385
330
471
100
AcDbEntity
  8
DATA
  6
Continuous
 62
     7
100
AcDbCircle
 10
889.375
 20
-849.375
 30
0.0
 40
24.375
  0
LINE
  5
386
330
471
100
AcDbEntity
  8
DATA
  6
Continuous
 62
     7
100
AcDbLine
 10
889.375
 20
-860.6250000000001
 30
0.0
 11
889.375
 21
-838.1249999999999
 31
0.0
  0
LINE
  5
387
330
471
100
AcDbEntity
  8
DATA
  6
Continuous
 62
     7
100
AcDbLine
 10
900.6249999999999
 20
-849.375
 30
0.0
 11
878.125
 21
-849.375
 31
0.0
  0
CIRCLE
  5
388
330
471
100
AcDbEntity
  8
DATA
  6
Continuous
 62
     7
100
AcDbCircle
 10
1710.625
 20
-849.375
 30
0.0
 40
24.375
  0
LINE
  5
389
330
471
100
AcDbEntity
  8
DATA
  6
Continuous
 62
     7
100
AcDbLine
 10
1710.625
 20
-860.6250000000001
 30
0.0
 11
1710.625
 21
-838.1249999999999
 31
0.0
  0
LINE
  5
38A
330
471
100
AcDbEntity
  8
DATA
  6
Continuous
 62
     7
100
AcDbLine
 10
1721.875
 20
-849.375
 30
0.0
 11
1699.375
 21
-849.375
 31
0.0
  0
LINE
  5
38B
330
471
100
AcDbEntity
  8
DATA
  6
Continuous
 62
     7
100
AcDbLine
 10
878.125
 20
596.25
 30
0.0
 11
1721.875
 21
596.25
 31
0.0
  0
LINE
  5
38C
330
471
100
AcDbEntity
  8
DATA
  6
Continuous
 62
     7
100
AcDbLine
 10
840.625
 20
-862.5
 30
0.0
 11
840.625
 21
558.75
 31
0.0
  0
ARC
  5
38D
330
471
100
AcDbEntity
  8
DATA
  6
Continuous
 62
     7
100
AcDbCircle
 10
878.125
 20
-862.5
 30
0.0
 40
37.5
100
AcDbArc
 50
180.0
 51
270.0
  0
ARC
  5
38E
330
471
100
AcDbEntity
  8
DATA
  6
Continuous
 62
     7
100
AcDbCircle
 10
1721.875
 20
-862.5
 30
0.0
 40
37.5
100
AcDbArc
 50
270.0
 51
0.0
  0
ARC
  5
38F
330
471
100
AcDbEntity
  8
DATA
  6
Continuous
 62
     7
100
AcDbCircle
 10
1721.875
 20
558.75
 30
0.0
 40
37.5
100
AcDbArc
 50
0.0
 51
90.0
  0
ARC
  5
390
330
471
100
AcDbEntity
  8
DATA
  6
Continuous
 62
     7
100
AcDbCircle
 10
878.125
 20
558.75
 30
0.0
 40
37.5
100
AcDbArc
 50
90.0
 51
180.0
  0
LWPOLYLINE
  5
391
330
471
100
AcDbEntity
  8
DATA
  6
Continuous
 62
     7
100
AcDbPolyline
 90
        4
 70
     1
 43
0.0
 10
947.4999999999999
 20
489.3749999999999
 10
1652.5
 20
489.3749999999999
 10
1652.5
 20
-793.125
 10
947.4999999999999
 20
-793.125
  0
TEXT
  5
398
330
471
100
AcDbEntity
  8
DATA
 62
     7
100
AcDbText
 10
1010.064919200763
 20
73.82203508283987
 30
0.0
 40
28.857421875
  1
(PASSIVE)
 41
0.7
 11
1010.064919200763
 21
102.6794569578399
 31
0.0
100
AcDbText
 73
     3
  0
TEXT
  5
399
330
471
100
AcDbEntity
  8
DATA
 62
     7
100
AcDbText
 10
1022.5
 20
290.3182359306245
 30
0.0
 40
28.857421875
  1
Model: AM7215/
 41
0.7
 11
1022.5
 21
319.1756578056245
 31
0.0
100
AcDbText
 73
     3
  0
LINE
  5
39A
330
471
100
AcDbEntity
  8
DATA
  6
Continuous
 62
     7
100
AcDbLine
 10
1105.0
 20
222.4999999999989
 30
0.0
 11
1495.0
 21
222.4999999999989
 31
0.0
  0
TEXT
  5
39B
330
471
100
AcDbEntity
  8
DATA
 62
     7
100
AcDbText
 10
1129.369099934895
 20
236.0697428385411
 30
0.0
 40
20.36051432291667
  1
Wiring:
 41
0.7
 72
     1
 11
1165.0
 21
246.2499999999995
 31
0.0
100
AcDbText
 73
     2
  0
TEXT
  5
39C
330
471
100
AcDbEntity
  8
DATA
 62
     7
100
AcDbText
 10
1395.534361296715
 20
235.9229712118467
 30
0.0
 40
20.36051432291667
  1
Bi-Amp
 41
0.7
 72
     1
 11
1431.16526136182
 21
246.103228373305
 31
0.0
100
AcDbText
 73
     2
  0
TEXT
  5
39D
330
471
100
AcDbEntity
  8
DATA
 62
     7
100
AcDbText
 10
1254.246862582546
 20
235.3158001778722
 30
0.0
 40
20.36051432291667
  1
Passive
 41
0.7
 72
     1
 11
1297.003942660671
 21
245.4960573393305
 31
0.0
100
AcDbText
 73
     2
  0
TEXT
  5
39E
330
471
100
AcDbEntity
  8
DATA
 62
     7
100
AcDbText
 10
1136.495279947917
 20
188.5697428385416
 30
0.0
 40
20.36051432291667
  1
1+/1-
 41
0.7
 72
     1
 11
1165.0
 21
198.75
 31
0.0
100
AcDbText
 73
     2
  0
TEXT
  5
39F
330
471
100
AcDbEntity
  8
DATA
 62
     7
100
AcDbText
 10
1415.281013530985
 20
190.3215160654694
 30
0.0
 40
20.36051432291667
  1
Low
 41
0.7
 72
     1
 11
1434.284160232374
 21
200.5017732269277
 31
0.0
100
AcDbText
 73
     2
  0
TEXT
  5
3A0
330
471
100
AcDbEntity
  8
DATA
 62
     7
100
AcDbText
 10
1131.744493272569
 20
141.0697428385405
 30
0.0
 40
20.36051432291667
  1
2+/2-
 41
0.7
 72
     1
 11
1165.0
 21
151.2499999999988
 31
0.0
100
AcDbText
 73
     2
  0
TEXT
  5
3A1
330
471
100
AcDbEntity
  8
DATA
 62
     7
100
AcDbText
 10
1433.446894993909
 20
73.82203508283987
 30
0.0
 40
28.857421875
  1
(BI-AMP)
 41
0.7
 11
1433.446894993909
 21
102.6794569578399
 31
0.0
100
AcDbText
 73
     3
  0
TEXT
  5
3A2
330
471
100
AcDbEntity
  8
DATA
 62
     7
100
AcDbText
 10
1241.090245225694
 20
188.5697428385416
 30
0.0
 40
20.36051432291667
  1
Full Range
 41
0.7
 72
     1
 11
1300.0
 21
198.75
 31
0.0
100
AcDbText
 73
     2
  0
LINE
  5
3A3
330
471
100
AcDbEntity
  8
DATA
  6
Continuous
 62
     7
100
AcDbLine
 10
1105.0
 20
175.0000000000011
 30
0.0
 11
1495.0
 21
175.0000000000011
 31
0.0
  0
TEXT
  5
3A4
330
471
100
AcDbEntity
  8
DATA
 62
     7
100
AcDbText
 10
1277.246853298611
 20
146.6947428385422
 30
0.0
 40
20.36051432291667
  1
n/c
 41
0.7
 72
     1
 11
1296.25
 21
156.8750000000005
 31
0.0
100
AcDbText
 73
     2
  0
TEXT
  5
3A5
330
471
100
AcDbEntity
  8
DATA
 62
     7
100
AcDbText
 10
1410.495126524443
 20
141.4298168968688
 30
0.0
 40
20.36051432291667
  1
High
 41
0.7
 72
     1
 11
1431.873666563506
 21
151.6100740583271
 31
0.0
100
AcDbText
 73
     2
  0
LINE
  5
3A6
330
471
100
AcDbEntity
  8
DATA
  6
Continuous
 62
     7
100
AcDbLine
 10
1225.0
 20
270.0
 30
0.0
 11
1225.0
 21
127.5
 31
0.0
  0
LINE
  5
3A7
330
471
100
AcDbEntity
  8
DATA
  6
Continuous
 62
     7
100
AcDbLine
 10
1367.5
 20
270.0
 30
0.0
 11
1367.5
 21
127.5
 31
0.0
  0
LWPOLYLINE
  5
3A8
330
471
100
AcDbEntity
  8
DATA
  6
Continuous
 62
     7
100
AcDbPolyline
 90
        4
 70
     1
 43
0.0
 10
1105.0
 20
270.0
 10
1495.0
 20
270.0
 10
1495.0
 20
127.5
 10
1105.0
 20
127.5
  0
LINE
  5
3AF
330
471
100
AcDbEntity
  8
DATA
  6
STYLE_06
 62
     7
100
AcDbLine
 10
-1100.0
 20
-50.0
 30
0.0
 11
-1100.0
 21
-650.0
 31
0.0
  0
LINE
  5
3B0
330
471
100
AcDbEntity
  8
DATA
  6
STYLE_06
 62
     7
100
AcDbLine
 10
99.99999999999932
 20
-800.0
 30
0.0
 11
99.99999999999932
 21
-1625.0
 31
0.0
  0
ARC
  5
3B1
330
471
100
AcDbEntity
  8
DATA
  6
Continuous
 62
     7
100
AcDbCircle
 10
-973.0000000000002
 20
-1145.467
 30
0.0
 40
25.40000000000009
100
AcDbArc
 50
270.0
 51
0.0
  0
ARC
  5
3B2
330
471
100
AcDbEntity
  8
DATA
  6
Continuous
 62
     7
100
AcDbCircle
 10
-973.0000000000002
 20
-891.467
 30
0.0
 40
25.40000000000009
100
AcDbArc
 50
0.0
 51
90.0
  0
CIRCLE
  5
3B3
330
471
100
AcDbEntity
  8
DATA
  6
Continuous
 62
     7
100
AcDbCircle
 10
-1023.8
 20
-876.2269999999999
 30
0.0
 40
5.251335865099918
  0
CIRCLE
  5
3B4
330
471
100
AcDbEntity
  8
DATA
  6
Continuous
 62
     7
100
AcDbCircle
 10
-957.7600000000035
 20
-942.2669999999998
 30
0.0
 40
5.251335865099918
  0
CIRCLE
  5
3B5
330
471
100
AcDbEntity
  8
DATA
  6
Continuous
 62
     7
100
AcDbCircle
 10
-957.7600000000035
 20
-1094.667
 30
0.0
 40
5.251335865099918
  0
CIRCLE
  5
3B6
330
471
100
AcDbEntity
  8
DATA
  6
Continuous
 62
     7
100
AcDbCircle
 10
-1023.8
 20
-1160.707
 30
0.0
 40
5.251335865099918
  0
ARC
  5
3B7
330
471
100
AcDbEntity
  8
DATA
  6
Continuous
 62
     7
100
AcDbCircle
 10
-1227.0
 20
-891.467
 30
0.0
 40
25.40000000000009
100
AcDbArc
 50
90.0
 51
180.0
  0
ARC
  5
3B8
330
471
100
AcDbEntity
  8
DATA
  6
Continuous
 62
     7
100
AcDbCircle
 10
-1227.0
 20
-1145.467
 30
0.0
 40
25.40000000000009
100
AcDbArc
 50
180.0
 51
270.0
  0
CIRCLE
  5
3B9
330
471
100
AcDbEntity
  8
DATA
  6
Continuous
 62
     7
100
AcDbCircle
 10
-1242.24
 20
-1094.667
 30
0.0
 40
5.251335865099918
  0
CIRCLE
  5
3BA
330
471
100
AcDbEntity
  8
DATA
  6
Continuous
 62
     7
100
AcDbCircle
 10
-1242.24
 20
-942.2669999999998
 30
0.0
 40
5.251335865099918
  0
CIRCLE
  5
3BB
330
471
100
AcDbEntity
  8
DATA
  6
Continuous
 62
     7
100
AcDbCircle
 10
-1176.2
 20
-876.2269999999999
 30
0.0
 40
5.251335865099918
  0
CIRCLE
  5
3BC
330
471
100
AcDbEntity
  8
DATA
  6
Continuous
 62
     7
100
AcDbCircle
 10
-1176.2
 20
-1160.707
 30
0.0
 40
5.251335865099918
  0
LINE
  5
3BD
330
471
100
AcDbEntity
  8
DATA
  6
Continuous
 62
     7
100
AcDbLine
 10
-1252.400000000001
 20
-1145.467
 30
0.0
 11
-1252.400000000001
 21
-891.467
 31
0.0
  0
LINE
  5
3BE
330
471
100
AcDbEntity
  8
DATA
  6
Continuous
 62
     7
100
AcDbLine
 10
-1121.653146553921
 20
-1059.83161444612
 30
0.0
 11
-1121.501558228702
 21
-1059.46855954358
 31
0.0
  0
LINE
  5
3BF
330
471
100
AcDbEntity
  8
DATA
  6
Continuous
 62
     7
100
AcDbLine
 10
-1078.346853446082
 20
-977.1023855564205
 30
0.0
 11
-1078.493447768082
 21
-977.45303170552
 31
0.0
  0
LINE
  5
3C0
330
471
100
AcDbEntity
  8
DATA
  6
Continuous
 62
     7
100
AcDbLine
 10
-973.0000000000002
 20
-1170.866999999999
 30
0.0
 11
-1227.0
 21
-1170.866999999999
 31
0.0
  0
LINE
  5
3C1
330
471
100
AcDbEntity
  8
DATA
  6
Continuous
 62
     7
100
AcDbLine
 10
-1078.346853446082
 20
-1059.83161444612
 30
0.0
 11
-1078.493447768082
 21
-1059.48096829702
 31
0.0
  0
LINE
  5
3C2
330
471
100
AcDbEntity
  8
DATA
  6
Continuous
 62
     7
100
AcDbLine
 10
-1121.653146553921
 20
-977.1023855564205
 30
0.0
 11
-1121.501558228702
 21
-977.4654404564198
 31
0.0
  0
LINE
  5
3C3
330
471
100
AcDbEntity
  8
DATA
  6
Continuous
 62
     7
100
AcDbLine
 10
-947.6
 20
-1145.467
 30
0.0
 11
-947.6
 21
-891.467
 31
0.0
  0
LINE
  5
3C4
330
471
100
AcDbEntity
  8
DATA
  6
Continuous
 62
     7
100
AcDbLine
 10
-1227.0
 20
-866.0670000000003
 30
0.0
 11
-973.0000000000002
 21
-866.0670000000003
 31
0.0
  0
LINE
  5
3C5
330
471
100
AcDbEntity
  8
DATA
  6
Continuous
 62
     7
100
AcDbLine
 10
-1078.4936353039
 20
-1059.4810440703
 30
0.0
 11
-1078.514560857681
 21
-1059.428996879499
 31
0.0
  0
LINE
  5
3C6
330
471
100
AcDbEntity
  8
DATA
  6
Continuous
 62
     7
100
AcDbLine
 10
-1078.4936353039
 20
-977.4529559296992
 30
0.0
 11
-1078.5145585158
 21
-977.5049972708798
 31
0.0
  0
LINE
  5
3C7
330
471
100
AcDbEntity
  8
DATA
  6
Continuous
 62
     7
100
AcDbLine
 10
-1121.50135872186
 20
-1059.46863996506
 30
0.0
 11
-1121.485226409702
 21
-1059.42846511018
 31
0.0
  0
LINE
  5
3C8
330
471
100
AcDbEntity
  8
DATA
  6
Continuous
 62
     7
100
AcDbLine
 10
-1121.43246821956
 20
-1059.32067275274
 30
0.0
 11
-1121.247216009421
 21
-1058.94859419032
 31
0.0
  0
LINE
  5
3C9
330
471
100
AcDbEntity
  8
DATA
  6
Continuous
 62
     7
100
AcDbLine
 10
-1121.50135872186
 20
-977.4653600374803
 30
0.0
 11
-1121.485209389162
 21
-977.5055774424403
 31
0.0
  0
LINE
  5
3CA
330
471
100
AcDbEntity
  8
DATA
  6
Continuous
 62
     7
100
AcDbLine
 10
-1208.126022033686
 20
-1146.514744029317
 30
0.0
 11
-991.8739779663146
 21
-1146.514744029317
 31
0.0
  0
LINE
  5
3CB
330
471
100
AcDbEntity
  8
DATA
  6
Continuous
 62
     7
100
AcDbLine
 10
-1208.126022033686
 20
-890.4192559706826
 30
0.0
 11
-991.8739779663146
 21
-890.4192559706826
 31
0.0
  0
ARC
  5
3CC
330
471
100
AcDbEntity
  8
DATA
  6
Continuous
 62
     7
100
AcDbCircle
 10
-1099.999999758868
 20
-1018.49285267553
 30
0.0
 40
19.07630153829606
100
AcDbArc
 50
57.29981993316688
 51
122.700038585784
  0
ARC
  5
3CD
330
471
100
AcDbEntity
  8
DATA
  6
Continuous
 62
     7
100
AcDbCircle
 10
-1124.377258551175
 20
-964.4136291798801
 30
0.0
 40
9.083124811654439
100
AcDbArc
 50
174.9955368407792
 51
202.1688003537961
  0
LINE
  5
3CE
330
471
100
AcDbEntity
  8
DATA
  6
Continuous
 62
     7
100
AcDbLine
 10
-1100.0
 20
-959.6679647814399
 30
0.0
 11
-1125.440870116382
 21
-960.0865314068396
 31
0.0
  0
ARC
  5
3CF
330
471
100
AcDbEntity
  8
DATA
  6
Continuous
 62
     7
100
AcDbCircle
 10
-1130.61603611784
 20
-962.9102101477595
 30
0.0
 40
2.870096624490333
100
AcDbArc
 50
90.69629222659768
 51
99.73385956180875
  0
LINE
  5
3D0
330
471
100
AcDbEntity
  8
DATA
  6
Continuous
 62
     7
100
AcDbLine
 10
-1130.650914372343
 20
-960.0403254564742
 30
0.0
 11
-1125.440870116382
 21
-960.0865314068396
 31
0.0
  0
ARC
  5
3D1
330
471
100
AcDbEntity
  8
DATA
  6
Continuous
 62
     7
100
AcDbCircle
 10
-1130.739208979003
 20
-962.0776310073958
 30
0.0
 40
2.028770889901004
100
AcDbArc
 50
100.2807972217539
 51
146.0516278862093
  0
ARC
  5
3D2
330
471
100
AcDbEntity
  8
DATA
  6
Continuous
 62
     7
100
AcDbCircle
 10
-1129.316923987787
 20
-963.6354416337029
 30
0.0
 40
4.10885806100468
100
AcDbArc
 50
139.0901876556911
 51
179.8024932304671
  0
ARC
  5
3D3
330
471
100
AcDbEntity
  8
DATA
  6
Continuous
 62
     7
100
AcDbCircle
 10
-1130.671387322335
 20
-980.8515489210936
 30
0.0
 40
9.766524329058157
100
AcDbArc
 50
22.5741769828533
 51
50.25496326952762
  0
LINE
  5
3D4
330
471
100
AcDbEntity
  8
DATA
  6
Continuous
 62
     7
100
AcDbLine
 10
-1131.989572403762
 20
-968.3089934353395
 30
0.0
 11
-1132.788924221361
 21
-967.8410242544398
 31
0.0
  0
ARC
  5
3D5
330
471
100
AcDbEntity
  8
DATA
  6
Continuous
 62
     7
100
AcDbCircle
 10
-1153.096671261202
 20
-1008.22234191602
 30
0.0
 40
45.15069223298779
100
AcDbArc
 50
50.58159174064978
 51
62.12908172555391
  0
ARC
  5
3D6
330
471
100
AcDbEntity
  8
DATA
  6
Continuous
 62
     7
100
AcDbCircle
 10
-1198.097413453036
 20
-1026.54741465997
 30
0.0
 40
91.04140711951556
100
AcDbArc
 50
5.09078210902471
 51
32.89525173153478
  0
ARC
  5
3D7
330
471
100
AcDbEntity
  8
DATA
  6
Continuous
 62
     7
100
AcDbCircle
 10
-1075.622741448826
 20
-964.4136291798801
 30
0.0
 40
9.083124811654327
100
AcDbArc
 50
337.8311996462039
 51
5.004463159220733
  0
LINE
  5
3D8
330
471
100
AcDbEntity
  8
DATA
  6
Continuous
 62
     7
100
AcDbLine
 10
-1100.0
 20
-959.6679647814399
 30
0.0
 11
-1074.559129883619
 21
-960.0865314068396
 31
0.0
  0
ARC
  5
3D9
330
471
100
AcDbEntity
  8
DATA
  6
Continuous
 62
     7
100
AcDbCircle
 10
-1069.383963882161
 20
-962.9102101477595
 30
0.0
 40
2.870096624490079
100
AcDbArc
 50
80.2661404381913
 51
89.30370777340229
  0
LINE
  5
3DA
330
471
100
AcDbEntity
  8
DATA
  6
Continuous
 62
     7
100
AcDbLine
 10
-1069.349085627658
 20
-960.0403254564742
 30
0.0
 11
-1074.559129883619
 21
-960.0865314068396
 31
0.0
  0
ARC
  5
3DB
330
471
100
AcDbEntity
  8
DATA
  6
Continuous
 62
     7
100
AcDbCircle
 10
-1069.260791020998
 20
-962.0776310073958
 30
0.0
 40
2.028770889901104
100
AcDbArc
 50
33.94837211379063
 51
79.71920277824612
  0
ARC
  5
3DC
330
471
100
AcDbEntity
  8
DATA
  6
Continuous
 62
     7
100
AcDbCircle
 10
-1070.683076012214
 20
-963.6354416337029
 30
0.0
 40
4.108858061004681
100
AcDbArc
 50
0.1975067695329084
 51
40.90981234430891
  0
ARC
  5
3DD
330
471
100
AcDbEntity
  8
DATA
  6
Continuous
 62
     7
100
AcDbCircle
 10
-1069.328612677666
 20
-980.8515489210936
 30
0.0
 40
9.766524329058041
100
AcDbArc
 50
129.7450367304723
 51
157.4258230171467
  0
LINE
  5
3DE
330
471
100
AcDbEntity
  8
DATA
  6
Continuous
 62
     7
100
AcDbLine
 10
-1068.010427596239
 20
-968.3089934353395
 30
0.0
 11
-1067.21107577864
 21
-967.8410242544398
 31
0.0
  0
ARC
  5
3DF
330
471
100
AcDbEntity
  8
DATA
  6
Continuous
 62
     7
100
AcDbCircle
 10
-1046.903328738798
 20
-1008.22234191602
 30
0.0
 40
45.1506922329879
100
AcDbArc
 50
117.8709182744461
 51
129.4184082593502
  0
ARC
  5
3E0
330
471
100
AcDbEntity
  8
DATA
  6
Continuous
 62
     7
100
AcDbCircle
 10
-1001.902586546965
 20
-1026.54741465997
 30
0.0
 40
91.04140711951544
100
AcDbArc
 50
147.1047482684652
 51
174.9092178909753
  0
ARC
  5
3E1
330
471
100
AcDbEntity
  8
DATA
  6
Continuous
 62
     7
100
AcDbCircle
 10
-1099.999999758868
 20
-1018.445031084726
 30
0.0
 40
19.07630153829563
100
AcDbArc
 50
237.299961414216
 51
302.7001800668338
  0
ARC
  5
3E2
330
471
100
AcDbEntity
  8
DATA
  6
Continuous
 62
     7
100
AcDbCircle
 10
-1124.377258551175
 20
-1072.524254580376
 30
0.0
 40
9.083124811654499
100
AcDbArc
 50
157.8311996462013
 51
185.0044631592207
  0
LINE
  5
3E3
330
471
100
AcDbEntity
  8
DATA
  6
Continuous
 62
     7
100
AcDbLine
 10
-1100.0
 20
-1077.269918978816
 30
0.0
 11
-1125.440870116382
 21
-1076.851352353416
 31
0.0
  0
ARC
  5
3E4
330
471
100
AcDbEntity
  8
DATA
  6
Continuous
 62
     7
100
AcDbCircle
 10
-1130.61603611784
 20
-1074.027673612496
 30
0.0
 40
2.870096624490079
100
AcDbArc
 50
260.2661404381913
 51
269.3037077734023
  0
LINE
  5
3E5
330
471
100
AcDbEntity
  8
DATA
  6
Continuous
 62
     7
100
AcDbLine
 10
-1130.650914372343
 20
-1076.897558303782
 30
0.0
 11
-1125.440870116382
 21
-1076.851352353416
 31
0.0
  0
ARC
  5
3E6
330
471
100
AcDbEntity
  8
DATA
  6
Continuous
 62
     7
100
AcDbCircle
 10
-1130.739208979003
 20
-1074.86025275286
 30
0.0
 40
2.028770889901104
100
AcDbArc
 50
213.9483721137906
 51
259.7192027782461
  0
ARC
  5
3E7
330
471
100
AcDbEntity
  8
DATA
  6
Continuous
 62
     7
100
AcDbCircle
 10
-1129.316923987787
 20
-1073.302442126553
 30
0.0
 40
4.108858061004681
100
AcDbArc
 50
180.1975067695328
 51
220.9098123443089
  0
ARC
  5
3E8
330
471
100
AcDbEntity
  8
DATA
  6
Continuous
 62
     7
100
AcDbCircle
 10
-1130.671387322335
 20
-1056.086334839162
 30
0.0
 40
9.766524329058388
100
AcDbArc
 50
309.7450367304706
 51
337.4258230171443
  0
LINE
  5
3E9
330
471
100
AcDbEntity
  8
DATA
  6
Continuous
 62
     7
100
AcDbLine
 10
-1131.989572403762
 20
-1068.628890324916
 30
0.0
 11
-1132.788924221361
 21
-1069.096859505816
 31
0.0
  0
ARC
  5
3EA
330
471
100
AcDbEntity
  8
DATA
  6
Continuous
 62
     7
100
AcDbCircle
 10
-1153.096671261202
 20
-1028.715541844236
 30
0.0
 40
45.1506922329879
100
AcDbArc
 50
297.8709182744461
 51
309.4184082593498
  0
ARC
  5
3EB
330
471
100
AcDbEntity
  8
DATA
  6
Continuous
 62
     7
100
AcDbCircle
 10
-1198.097413453036
 20
-1010.390469100286
 30
0.0
 40
91.04140711951568
100
AcDbArc
 50
327.1047482684649
 51
354.909217890975
  0
ARC
  5
3EC
330
471
100
AcDbEntity
  8
DATA
  6
Continuous
 62
     7
100
AcDbCircle
 10
-1075.622741448826
 20
-1072.524254580376
 30
0.0
 40
9.083124811654439
100
AcDbArc
 50
354.9955368407793
 51
22.16880035379871
  0
LINE
  5
3ED
330
471
100
AcDbEntity
  8
DATA
  6
Continuous
 62
     7
100
AcDbLine
 10
-1100.0
 20
-1077.269918978816
 30
0.0
 11
-1074.559129883619
 21
-1076.851352353416
 31
0.0
  0
ARC
  5
3EE
330
471
100
AcDbEntity
  8
DATA
  6
Continuous
 62
     7
100
AcDbCircle
 10
-1069.383963882161
 20
-1074.027673612496
 30
0.0
 40
2.870096624490333
100
AcDbArc
 50
270.6962922265977
 51
279.7338595618088
  0
LINE
  5
3EF
330
471
100
AcDbEntity
  8
DATA
  6
Continuous
 62
     7
100
AcDbLine
 10
-1069.349085627658
 20
-1076.897558303782
 30
0.0
 11
-1074.559129883619
 21
-1076.851352353416
 31
0.0
  0
ARC
  5
3F0
330
471
100
AcDbEntity
  8
DATA
  6
Continuous
 62
     7
100
AcDbCircle
 10
-1069.260791020998
 20
-1074.86025275286
 30
0.0
 40
2.028770889901004
100
AcDbArc
 50
280.2807972217538
 51
326.0516278862095
  0
ARC
  5
3F1
330
471
100
AcDbEntity
  8
DATA
  6
Continuous
 62
     7
100
AcDbCircle
 10
-1070.683076012214
 20
-1073.302442126553
 30
0.0
 40
4.10885806100468
100
AcDbArc
 50
319.0901876556911
 51
359.8024932304671
  0
ARC
  5
3F2
330
471
100
AcDbEntity
  8
DATA
  6
Continuous
 62
     7
100
AcDbCircle
 10
-1069.328612677666
 20
-1056.086334839162
 30
0.0
 40
9.766524329058327
100
AcDbArc
 50
202.5741769828558
 51
230.2549632695293
  0
LINE
  5
3F3
330
471
100
AcDbEntity
  8
DATA
  6
Continuous
 62
     7
100
AcDbLine
 10
-1068.010427596239
 20
-1068.628890324916
 30
0.0
 11
-1067.21107577864
 21
-1069.096859505816
 31
0.0
  0
ARC
  5
3F4
330
471
100
AcDbEntity
  8
DATA
  6
Continuous
 62
     7
100
AcDbCircle
 10
-1046.903328738798
 20
-1028.715541844236
 30
0.0
 40
45.15069223298812
100
AcDbArc
 50
230.5815917406501
 51
242.1290817255539
  0
ARC
  5
3F5
330
471
100
AcDbEntity
  8
DATA
  6
Continuous
 62
     7
100
AcDbCircle
 10
-1001.902586546965
 20
-1010.390469100286
 30
0.0
 40
91.04140711951556
100
AcDbArc
 50
185.0907821090249
 51
212.895251731535
  0
ARC
  5
3F6
330
471
100
AcDbEntity
  8
DATA
  6
Continuous
 62
     7
100
AcDbCircle
 10
-1212.241936063128
 20
-906.049819158556
 30
0.0
 40
16.16339239973645
100
AcDbArc
 50
75.24749699802779
 51
190.9211056239613
  0
ARC
  5
3F7
330
471
100
AcDbEntity
  8
DATA
  6
Continuous
 62
     7
100
AcDbCircle
 10
-1212.241936063128
 20
-1130.884180841444
 30
0.0
 40
16.16339239973638
100
AcDbArc
 50
169.0788943760386
 51
284.7525030019722
  0
ARC
  5
3F8
330
471
100
AcDbEntity
  8
DATA
  6
Continuous
 62
     7
100
AcDbCircle
 10
-987.758063936873
 20
-906.049819158556
 30
0.0
 40
16.16339239973638
100
AcDbArc
 50
349.0788943760386
 51
104.7525030019722
  0
ARC
  5
3F9
330
471
100
AcDbEntity
  8
DATA
  6
Continuous
 62
     7
100
AcDbCircle
 10
-987.758063936873
 20
-1130.884180841444
 30
0.0
 40
16.16339239973645
100
AcDbArc
 50
255.2474969980278
 51
10.92110562396135
  0
ARC
  5
3FA
330
471
100
AcDbEntity
  8
DATA
  6
Continuous
 62
     7
100
AcDbCircle
 10
-547.594450573264
 20
-892.1582366857657
 30
0.0
 40
680.7292967393626
100
AcDbArc
 50
181.4271233215226
 51
186.1866292454432
  0
ARC
  5
3FB
330
471
100
AcDbEntity
  8
DATA
  6
Continuous
 62
     7
100
AcDbCircle
 10
-547.594450573264
 20
-1144.775763314234
 30
0.0
 40
680.7292967393626
100
AcDbArc
 50
173.8133707545567
 51
178.5728766784773
  0
ARC
  5
3FC
330
471
100
AcDbEntity
  8
DATA
  6
Continuous
 62
     7
100
AcDbCircle
 10
-1722.471528747433
 20
-1018.467
 30
0.0
 40
500.9185031693869
100
AcDbArc
 50
353.9323544467516
 51
6.067645553248325
  0
ARC
  5
3FD
330
471
100
AcDbEntity
  8
DATA
  6
Continuous
 62
     7
100
AcDbCircle
 10
-477.5284712525674
 20
-1018.467
 30
0.0
 40
500.9185031693869
100
AcDbArc
 50
173.9323544467517
 51
186.0676455532483
  0
ARC
  5
3FE
330
471
100
AcDbEntity
  8
DATA
  6
Continuous
 62
     7
100
AcDbCircle
 10
-1652.405549426737
 20
-892.1582366857657
 30
0.0
 40
680.7292967393626
100
AcDbArc
 50
353.8133707545567
 51
358.5728766784773
  0
ARC
  5
3FF
330
471
100
AcDbEntity
  8
DATA
  6
Continuous
 62
     7
100
AcDbCircle
 10
-1652.405549426737
 20
-1144.775763314234
 30
0.0
 40
680.7292967393626
100
AcDbArc
 50
1.427123321522644
 51
6.186629245443287
  0
TEXT
  5
400
330
471
100
AcDbEntity
  8
DATA
 62
     7
100
AcDbText
 10
1192.315448195846
 20
-1077.147352430555
 30
0.0
 40
54.29470486111111
  1
端子拡大図
 41
0.7
 72
     1
 11
1299.999946170383
 21
-1050.0
 31
0.0
100
AcDbText
 73
     2
  0
ENDSEC
  0
SECTION
  2
OBJECTS
  0
DICTIONARY
  5
40E
330
0
100
AcDbDictionary
281
     1
  3
ACAD_CIP_PREVIOUS_PRODUCT_INFO
350
48B
  3
ACAD_COLOR
350
464
  3
ACAD_DETAILVIEWSTYLE
350
46B
  3
ACAD_GROUP
350
40F
  3
ACAD_LAYOUT
350
463
  3
ACAD_MATERIAL
350
412
  3
ACAD_MLEADERSTYLE
350
467
  3
ACAD_MLINESTYLE
350
460
  3
ACAD_PLOTSETTINGS
350
462
  3
ACAD_PLOTSTYLENAME
350
410
  3
ACAD_SCALELIST
350
444
  3
ACAD_SECTIONVIEWSTYLE
350
469
  3
ACAD_TABLESTYLE
350
465
  3
ACAD_VISUALSTYLE
350
42B
  3
ACDB_RECOMPOSE_DATA
350
4A3
  3
AcDbVariableDictionary
350
496
  3
DWGPROPS
350
4A4
  0
DICTIONARY
  5
48C
330
456
100
AcDbDictionary
280
     1
281
     1
  3
ADSK_XREC_LAYER_RECONCILED
360
48D
  0
DICTIONARY
  5
48E
330
475
100
AcDbDictionary
280
     1
281
     1
  3
ADSK_XREC_LAYER_RECONCILED
360
48F
  0
DICTIONARY
  5
490
330
483
100
AcDbDictionary
280
     1
281
     1
  3
ADSK_XREC_LAYER_RECONCILED
360
491
  0
DICTIONARY
  5
492
330
484
100
AcDbDictionary
280
     1
281
     1
  3
ADSK_XREC_LAYER_RECONCILED
360
493
  0
DICTIONARY
  5
494
330
485
100
AcDbDictionary
280
     1
281
     1
  3
ADSK_XREC_LAYER_RECONCILED
360
495
  0
XRECORD
  5
48B
102
{ACAD_REACTORS
330
40E
102
}
330
40E
100
AcDbXrecord
280
     1
300
ACDLT
300
2017
300
ACDLT_F_S
  0
DICTIONARY
  5
464
102
{ACAD_REACTORS
330
40E
102
}
330
40E
100
AcDbDictionary
281
     1
  0
DICTIONARY
  5
46B
102
{ACAD_REACTORS
330
40E
102
}
330
40E
100
AcDbDictionary
281
     1
  3
Imperial24
350
46C
  0
DICTIONARY
  5
40F
102
{ACAD_REACTORS
330
40E
102
}
330
40E
100
AcDbDictionary
281
     1
  0
DICTIONARY
  5
463
102
{ACAD_REACTORS
330
40E
102
}
330
40E
100
AcDbDictionary
281
     1
  3
Model
350
474
  3
レイアウト1
350
470
  0
DICTIONARY
  5
412
102
{ACAD_REACTORS
330
40E
102
}
330
40E
100
AcDbDictionary
281
     1
  3
ByBlock
350
41B
  3
ByLayer
350
413
  3
Global
350
423
  0
DICTIONARY
  5
467
102
{ACAD_REACTORS
330
40E
102
}
330
40E
100
AcDbDictionary
281
     1
  3
Standard
350
468
  0
DICTIONARY
  5
460
102
{ACAD_REACTORS
330
40E
102
}
330
40E
100
AcDbDictionary
281
     1
  3
Standard
350
461
  0
DICTIONARY
  5
462
102
{ACAD_REACTORS
330
40E
102
}
330
40E
100
AcDbDictionary
281
     1
  0
ACDBDICTIONARYWDFLT
  5
410
102
{ACAD_REACTORS
330
40E
102
}
330
40E
100
AcDbDictionary
281
     1
  3
Normal
350
411
100
AcDbDictionaryWithDefault
340
411
  0
DICTIONARY
  5
444
102
{ACAD_REACTORS
330
40E
102
}
330
40E
100
AcDbDictionary
281
     1
  3
A0
350
445
  3
A1
350
446
  3
A2
350
447
  3
A3
350
448
  3
A4
350
449
  3
A5
350
44A
  3
A6
350
44B
  3
A7
350
44C
  3
A8
350
44D
  3
A9
350
44E
  3
B0
350
44F
  3
B1
350
450
  3
B2
350
451
  3
B3
350
452
  3
B4
350
453
  3
B5
350
454
  3
B6
350
455
  0
DICTIONARY
  5
469
102
{ACAD_REACTORS
330
40E
102
}
330
40E
100
AcDbDictionary
281
     1
  3
Imperial24
350
46A
  0
DICTIONARY
  5
465
102
{ACAD_REACTORS
330
40E
102
}
330
40E
100
AcDbDictionary
281
     1
  3
Standard
350
466
  0
DICTIONARY
  5
42B
102
{ACAD_REACTORS
330
40E
102
}
330
40E
100
AcDbDictionary
281
     1
  3
2dWireframe
350
431
  3
Basic
350
430
  3
Brighten
350
437
  3
ColorChange
350
43B
  3
Conceptual
350
434
  3
Dim
350
436
  3
EdgeColorOff
350
443
  3
Facepattern
350
43A
  3
Flat
350
42C
  3
FlatWithEdges
350
42D
  3
Gouraud
350
42E
  3
GouraudWithEdges
350
42F
  3
Hidden
350
433
  3
JitterOff
350
441
  3
Linepattern
350
439
  3
OverhangOff
350
442
  3
Realistic
350
435
  3
Shaded
350
440
  3
Shaded with edges
350
43F
  3
Shades of Gray
350
43C
  3
Sketchy
350
43D
  3
Thicken
350
438
  3
Wireframe
350
432
  3
X-Ray
350
43E
  0
XRECORD
  5
4A3
102
{ACAD_REACTORS
330
40E
102
}
330
40E
100
AcDbXrecord
280
     1
 90
        1
330
466
  0
DICTIONARY
  5
496
102
{ACAD_REACTORS
330
40E
102
}
330
40E
100
AcDbDictionary
281
     1
  3
CANNOSCALE
350
49B
  3
CMLEADERSTYLE
350
498
  3
CTABLESTYLE
350
497
  3
CVIEWDETAILSTYLE
350
499
  3
CVIEWSECTIONSTYLE
350
49A
  3
DIMASSOC
350
49E
  3
INDEXCTL
350
49D
  3
SORTENTS
350
49C
  3
XCLIPFRAME
350
49F
  0
XRECORD
  5
4A4
102
{ACAD_REACTORS
330
40E
102
}
330
40E
100
AcDbXrecord
280
     1
  1
DWGPROPS COOKIE
  2

  3

  4

  6

  7

  8
sasaki_n
  9

300
=
301
=
302
=
303
=
304
=
305
=
306
=
307
=
308
=
309
=
 40
0.0004050925925926
 41
2457812.433298611
 42
2457812.454212963
  1

 90
        0
  0
XRECORD
  5
48D
102
{ACAD_REACTORS
330
48C
102
}
330
48C
100
AcDbXrecord
280
     1
290
     1
  0
XRECORD
  5
48F
102
{ACAD_REACTORS
330
48E
102
}
330
48E
100
AcDbXrecord
280
     1
290
     1
  0
XRECORD
  5
491
102
{ACAD_REACTORS
330
490
102
}
330
490
100
AcDbXrecord
280
     1
290
     1
  0
XRECORD
  5
493
102
{ACAD_REACTORS
330
492
102
}
330
492
100
AcDbXrecord
280
     1
290
     1
  0
XRECORD
  5
495
102
{ACAD_REACTORS
330
494
102
}
330
494
100
AcDbXrecord
280
     1
290
     1
  0
ACDBDETAILVIEWSTYLE
  5
46C
102
{ACAD_XDICTIONARY
360
4DC
102
}
102
{ACAD_REACTORS
330
46B
102
}
330
46B
100
AcDbModelDocViewStyle
 70
     0
  3
Imperial24
290
     0
100
AcDbDetailViewStyle
 70
     0
 71
     0
 90
        3
 71
     1
340
457
 40
0.24
340
0
 40
0.24
300

 40
0.36
280
     3
 71
     2
340
45E
 90
       25
 71
     3
340
457
 40
0.24
 90
        1
 40
0.75
 90
        1
300
%<\AcVar ViewType \f "%tc1">% %<\AcVar ViewDetailId>%\PSCALE %<\AcVar ViewScale \f "%sn">%
 71
     4
340
45E
 90
       25
340
45E
 90
       25
280
     0
  0
LAYOUT
  5
474
102
{ACAD_XDICTIONARY
360
4E0
102
}
102
{ACAD_REACTORS
330
463
102
}
330
463
100
AcDbPlotSettings
  1

  2
DocuPrint 3000-2
  4

  6

 40
0.0
 41
0.0
 42
0.0
 43
0.0
 44
0.0
 45
0.0
 46
0.0
 47
0.0
 48
0.0
 49
0.0
140
0.0
141
0.0
142
1.0
143
1.0
 70
  1712
 72
     0
 73
     0
 74
     0
  7

 75
     0
147
1.0
148
0.0
149
0.0
100
AcDbLayout
  1
Model
 70
     1
 71
     0
 10
0.0
 20
0.0
 11
12.0
 21
9.0
 12
0.0
 22
0.0
 32
0.0
 14
0.0
 24
0.0
 34
0.0
 15
0.0
 25
0.0
 35
0.0
146
0.0
 13
0.0
 23
0.0
 33
0.0
 16
1.0
 26
0.0
 36
0.0
 17
0.0
 27
1.0
 37
0.0
 76
     0
330
471
331
476
  0
LAYOUT
  5
470
102
{ACAD_XDICTIONARY
360
4DE
102
}
102
{ACAD_REACTORS
330
463
102
}
330
463
100
AcDbPlotSettings
  1

  2
DocuPrint 3000-2
  4

  6

 40
0.0
 41
0.0
 42
0.0
 43
0.0
 44
0.0
 45
0.0
 46
0.0
 47
0.0
 48
0.0
 49
0.0
140
0.0
141
0.0
142
1.0
143
1.0
 70
   688
 72
     0
 73
     0
 74
     5
  7

 75
    16
147
1.0
148
0.0
149
0.0
100
AcDbLayout
  1
レイアウト1
 70
     0
 71
     1
 10
0.0
 20
0.0
 11
12.0
 21
9.0
 12
0.0
 22
0.0
 32
0.0
 14
1.000000000000000E+20
 24
1.000000000000000E+20
 34
1.000000000000000E+20
 15
-1.000000000000000E+20
 25
-1.000000000000000E+20
 35
-1.000000000000000E+20
146
0.0
 13
0.0
 23
0.0
 33
0.0
 16
1.0
 26
0.0
 36
0.0
 17
0.0
 27
1.0
 37
0.0
 76
     0
330
46D
  0
MATERIAL
  5
41B
102
{ACAD_XDICTIONARY
360
41C
102
}
102
{ACAD_REACTORS
330
412
102
}
330
412
100
AcDbMaterial
  1
ByBlock
 72
     0
 43
0.0208333333333333
 43
0.0
 43
0.0
 43
0.0
 43
0.0
 43
0.0208333333333333
 43
0.0
 43
0.0
 43
0.0
 43
0.0
 43
1.0
 43
0.0
 43
0.0
 43
0.0
 43
0.0
 43
1.0
 77
     0
 47
0.0208333333333333
 47
0.0
 47
0.0
 47
0.0
 47
0.0
 47
0.0208333333333333
 47
0.0
 47
0.0
 47
0.0
 47
0.0
 47
1.0
 47
0.0
 47
0.0
 47
0.0
 47
0.0
 47
1.0
171
     0
 49
0.0208333333333333
 49
0.0
 49
0.0
 49
0.0
 49
0.0
 49
0.0208333333333333
 49
0.0
 49
0.0
 49
0.0
 49
0.0
 49
1.0
 49
0.0
 49
0.0
 49
0.0
 49
0.0
 49
1.0
175
     0
142
0.0208333333333333
142
0.0
142
0.0
142
0.0
142
0.0
142
0.0208333333333333
142
0.0
142
0.0
142
0.0
142
0.0
142
1.0
142
0.0
142
0.0
142
0.0
142
0.0
142
1.0
179
     0
144
0.0208333333333333
144
0.0
144
0.0
144
0.0
144
0.0
144
0.0208333333333333
144
0.0
144
0.0
144
0.0
144
0.0
144
1.0
144
0.0
144
0.0
144
0.0
144
0.0
144
1.0
147
0.0208333333333333
147
0.0
147
0.0
147
0.0
147
0.0
147
0.0208333333333333
147
0.0
147
0.0
147
0.0
147
0.0
147
1.0
147
0.0
147
0.0
147
0.0
147
0.0
147
1.0
  0
MATERIAL
  5
413
102
{ACAD_XDICTIONARY
360
414
102
}
102
{ACAD_REACTORS
330
412
102
}
330
412
100
AcDbMaterial
  1
ByLayer
 72
     0
 43
0.0208333333333333
 43
0.0
 43
0.0
 43
0.0
 43
0.0
 43
0.0208333333333333
 43
0.0
 43
0.0
 43
0.0
 43
0.0
 43
1.0
 43
0.0
 43
0.0
 43
0.0
 43
0.0
 43
1.0
 77
     0
 47
0.0208333333333333
 47
0.0
 47
0.0
 47
0.0
 47
0.0
 47
0.0208333333333333
 47
0.0
 47
0.0
 47
0.0
 47
0.0
 47
1.0
 47
0.0
 47
0.0
 47
0.0
 47
0.0
 47
1.0
171
     0
 49
0.0208333333333333
 49
0.0
 49
0.0
 49
0.0
 49
0.0
 49
0.0208333333333333
 49
0.0
 49
0.0
 49
0.0
 49
0.0
 49
1.0
 49
0.0
 49
0.0
 49
0.0
 49
0.0
 49
1.0
175
     0
142
0.0208333333333333
142
0.0
142
0.0
142
0.0
142
0.0
142
0.0208333333333333
142
0.0
142
0.0
142
0.0
142
0.0
142
1.0
142
0.0
142
0.0
142
0.0
142
0.0
142
1.0
179
     0
144
0.0208333333333333
144
0.0
144
0.0
144
0.0
144
0.0
144
0.0208333333333333
144
0.0
144
0.0
144
0.0
144
0.0
144
1.0
144
0.0
144
0.0
144
0.0
144
0.0
144
1.0
147
0.0208333333333333
147
0.0
147
0.0
147
0.0
147
0.0
147
0.0208333333333333
147
0.0
147
0.0
147
0.0
147
0.0
147
1.0
147
0.0
147
0.0
147
0.0
147
0.0
147
1.0
  0
MATERIAL
  5
423
102
{ACAD_XDICTIONARY
360
424
102
}
102
{ACAD_REACTORS
330
412
102
}
330
412
100
AcDbMaterial
  1
Global
 72
     0
 43
0.0208333333333333
 43
0.0
 43
0.0
 43
0.0
 43
0.0
 43
0.0208333333333333
 43
0.0
 43
0.0
 43
0.0
 43
0.0
 43
1.0
 43
0.0
 43
0.0
 43
0.0
 43
0.0
 43
1.0
 77
     0
 47
0.0208333333333333
 47
0.0
 47
0.0
 47
0.0
 47
0.0
 47
0.0208333333333333
 47
0.0
 47
0.0
 47
0.0
 47
0.0
 47
1.0
 47
0.0
 47
0.0
 47
0.0
 47
0.0
 47
1.0
171
     0
 49
0.0208333333333333
 49
0.0
 49
0.0
 49
0.0
 49
0.0
 49
0.0208333333333333
 49
0.0
 49
0.0
 49
0.0
 49
0.0
 49
1.0
 49
0.0
 49
0.0
 49
0.0
 49
0.0
 49
1.0
175
     0
142
0.0208333333333333
142
0.0
142
0.0
142
0.0
142
0.0
142
0.0208333333333333
142
0.0
142
0.0
142
0.0
142
0.0
142
1.0
142
0.0
142
0.0
142
0.0
142
0.0
142
1.0
179
     0
144
0.0208333333333333
144
0.0
144
0.0
144
0.0
144
0.0
144
0.0208333333333333
144
0.0
144
0.0
144
0.0
144
0.0
144
1.0
144
0.0
144
0.0
144
0.0
144
0.0
144
1.0
147
0.0208333333333333
147
0.0
147
0.0
147
0.0
147
0.0
147
0.0208333333333333
147
0.0
147
0.0
147
0.0
147
0.0
147
1.0
147
0.0
147
0.0
147
0.0
147
0.0
147
1.0
  0
MLEADERSTYLE
  5
468
102
{ACAD_REACTORS
330
467
102
}
330
467
100
AcDbMLeaderStyle
170
     2
171
     1
172
     0
 90
        2
 40
0.0
 41
0.0
173
     1
 91
-1056964608
340
45C
 92
       -2
290
     1
 42
0.09
291
     1
 43
0.36
  3
Standard
 44
0.18
300

342
457
174
     1
178
     6
175
     1
176
     0
 93
-1056964608
 45
0.18
292
     0
297
     0
 46
0.18
 94
-1056964608
 47
1.0
 49
1.0
140
1.0
293
     1
141
0.0
294
     1
177
     0
142
1.0
295
     0
296
     0
143
0.125
1001
ACAD_MLEADERVER
1070
     2
  0
MLINESTYLE
  5
461
102
{ACAD_REACTORS
330
460
102
}
330
460
100
AcDbMlineStyle
  2
STANDARD
 70
     0
  3

 62
   256
 51
90.0
 52
90.0
 71
     2
 49
0.5
 62
   256
  6
BYLAYER
 49
-0.5
 62
   256
  6
BYLAYER
  0
ACDBPLACEHOLDER
  5
411
102
{ACAD_REACTORS
330
410
102
}
330
410
  0
SCALE
  5
445
102
{ACAD_REACTORS
330
444
102
}
330
444
100
AcDbScale
 70
     0
300
1:1
140
1.0
141
1.0
290
     1
  0
SCALE
  5
446
102
{ACAD_REACTORS
330
444
102
}
330
444
100
AcDbScale
 70
     0
300
1/128" = 1'-0"
140
0.0078125
141
12.0
290
     0
  0
SCALE
  5
447
102
{ACAD_REACTORS
330
444
102
}
330
444
100
AcDbScale
 70
     0
300
1/64" = 1'-0"
140
0.015625
141
12.0
290
     0
  0
SCALE
  5
448
102
{ACAD_REACTORS
330
444
102
}
330
444
100
AcDbScale
 70
     0
300
1/32" = 1'-0"
140
0.03125
141
12.0
290
     0
  0
SCALE
  5
449
102
{ACAD_REACTORS
330
444
102
}
330
444
100
AcDbScale
 70
     0
300
1/16" = 1'-0"
140
0.0625
141
12.0
290
     0
  0
SCALE
  5
44A
102
{ACAD_REACTORS
330
444
102
}
330
444
100
AcDbScale
 70
     0
300
3/32" = 1'-0"
140
0.09375
141
12.0
290
     0
  0
SCALE
  5
44B
102
{ACAD_REACTORS
330
444
102
}
330
444
100
AcDbScale
 70
     0
300
1/8" = 1'-0"
140
0.125
141
12.0
290
     0
  0
SCALE
  5
44C
102
{ACAD_REACTORS
330
444
102
}
330
444
100
AcDbScale
 70
     0
300
3/16" = 1'-0"
140
0.1875
141
12.0
290
     0
  0
SCALE
  5
44D
102
{ACAD_REACTORS
330
444
102
}
330
444
100
AcDbScale
 70
     0
300
1/4" = 1'-0"
140
0.25
141
12.0
290
     0
  0
SCALE
  5
44E
102
{ACAD_REACTORS
330
444
102
}
330
444
100
AcDbScale
 70
     0
300
3/8" = 1'-0"
140
0.375
141
12.0
290
     0
  0
SCALE
  5
44F
102
{ACAD_REACTORS
330
444
102
}
330
444
100
AcDbScale
 70
     0
300
1/2" = 1'-0"
140
0.5
141
12.0
290
     0
  0
SCALE
  5
450
102
{ACAD_REACTORS
330
444
102
}
330
444
100
AcDbScale
 70
     0
300
3/4" = 1'-0"
140
0.75
141
12.0
290
     0
  0
SCALE
  5
451
102
{ACAD_REACTORS
330
444
102
}
330
444
100
AcDbScale
 70
     0
300
1" = 1'-0"
140
1.0
141
12.0
290
     0
  0
SCALE
  5
452
102
{ACAD_REACTORS
330
444
102
}
330
444
100
AcDbScale
 70
     0
300
1-1/2" = 1'-0"
140
1.5
141
12.0
290
     0
  0
SCALE
  5
453
102
{ACAD_REACTORS
330
444
102
}
330
444
100
AcDbScale
 70
     0
300
3" = 1'-0"
140
3.0
141
12.0
290
     0
  0
SCALE
  5
454
102
{ACAD_REACTORS
330
444
102
}
330
444
100
AcDbScale
 70
     0
300
6" = 1'-0"
140
6.0
141
12.0
290
     0
  0
SCALE
  5
455
102
{ACAD_REACTORS
330
444
102
}
330
444
100
AcDbScale
 70
     0
300
1'-0" = 1'-0"
140
12.0
141
12.0
290
     0
  0
ACDBSECTIONVIEWSTYLE
  5
46A
102
{ACAD_XDICTIONARY
360
4DA
102
}
102
{ACAD_REACTORS
330
469
102
}
330
469
100
AcDbModelDocViewStyle
 70
     0
  3
Imperial24
290
     0
100
AcDbSectionViewStyle
 70
     0
 71
     0
 90
       78
 71
     1
340
457
 40
0.24
340
0
340
0
 40
0.24
300
I, O, Q, S, X, Z
 40
0.48
 90
        3
 40
0.18
 90
        1
 71
     2
340
45E
 90
       25
340
45E
 90
       50
 40
0.24
 40
0.0
 40
0.24
 71
     3
340
457
 40
0.24
 90
        1
 40
0.75
 90
        1
300
%<\AcVar ViewType \f "%tc1">% %<\AcVar ViewSectionStartId>%-%<\AcVar ViewSectionEndId>%\PSCALE %<\AcVar ViewScale \f "%sn">%
 71
     4
300
ANSI31
 40
1.0
 90
        0
290
     0
290
     0
 90
        6
 40
0.0
 40
1.570796326794896
 40
0.2617993877991494
 40
1.308996938995747
 40
-0.2617993877991494
 40
1.832595714594046
  0
TABLESTYLE
  5
466
102
{ACAD_XDICTIONARY
360
4A1
102
}
102
{ACAD_REACTORS
330
465
102
}
330
465
100
AcDbTableStyle
  3
Standard
 70
     0
 71
     0
 40
0.06
 41
0.06
280
     0
281
     0
  7
STANDARD
140
0.18
170
     2
 62
     0
 63
     7
283
     0
274
    -2
284
     1
 64
     0
275
    -2
285
     1
 65
     0
276
    -2
286
     1
 66
     0
277
    -2
287
     1
 67
     0
278
    -2
288
     1
 68
     0
279
    -2
289
     1
 69
     0
  7
STANDARD
140
0.25
170
     5
 62
     0
 63
     7
283
     0
274
    -2
284
     1
 64
     0
275
    -2
285
     1
 65
     0
276
    -2
286
     1
 66
     0
277
    -2
287
     1
 67
     0
278
    -2
288
     1
 68
     0
279
    -2
289
     1
 69
     0
  7
STANDARD
140
0.18
170
     5
 62
     0
 63
     7
283
     0
274
    -2
284
     1
 64
     0
275
    -2
285
     1
 65
     0
276
    -2
286
     1
 66
     0
277
    -2
287
     1
 67
     0
278
    -2
288
     1
 68
     0
279
    -2
289
     1
 69
     0
  0
VISUALSTYLE
  5
431
102
{ACAD_XDICTIONARY
360
4B2
102
}
102
{ACAD_REACTORS
330
42B
102
}
330
42B
100
AcDbVisualStyle
  2
2dWireframe
 70
     4
 71
     0
 72
     2
 73
     0
 90
        0
 40
-0.6
 41
-30.0
 62
     5
 63
     7
 74
     1
 91
        4
 64
     7
 65
   257
 75
     1
175
     1
 42
1.0
 92
        0
 66
   257
 43
1.0
 76
     1
 77
     6
 78
     2
 67
     7
 79
     5
170
     0
171
     0
290
     0
174
     0
 93
        1
 44
0.0
173
     0
291
     0
 45
0.0
1001
ACAD
1000
AcDbSavedByObjectVersion
1070
     0
  0
VISUALSTYLE
  5
430
102
{ACAD_XDICTIONARY
360
4B0
102
}
102
{ACAD_REACTORS
330
42B
102
}
330
42B
100
AcDbVisualStyle
  2
Basic
 70
     7
 71
     1
 72
     0
 73
     1
 90
        0
 40
-0.6
 41
-30.0
 62
     5
 63
     7
 74
     0
 91
        4
 64
     7
 65
   257
 75
     1
175
     1
 42
1.0
 92
        8
 66
     7
 43
1.0
 76
     1
 77
     6
 78
     2
 67
     7
 79
     5
170
     0
171
     0
290
     0
174
     0
 93
        1
 44
0.0
173
     0
291
     1
 45
0.0
1001
ACAD
1000
AcDbSavedByObjectVersion
1070
     0
  0
VISUALSTYLE
  5
437
102
{ACAD_XDICTIONARY
360
4BE
102
}
102
{ACAD_REACTORS
330
42B
102
}
330
42B
100
AcDbVisualStyle
  2
Brighten
 70
    12
 71
     2
 72
     2
 73
     0
 90
        0
 40
-0.6
 41
-30.0
 62
     5
 63
     7
 74
     1
 91
        4
 64
     7
 65
   257
 75
     1
175
     1
 42
1.0
 92
        8
 66
     7
 43
1.0
 76
     1
 77
     6
 78
     2
 67
     7
 79
     5
170
     0
171
     0
290
     0
174
     0
 93
        1
 44
50.0
173
     0
291
     1
 45
0.0
1001
ACAD
1000
AcDbSavedByObjectVersion
1070
     0
  0
VISUALSTYLE
  5
43B
102
{ACAD_XDICTIONARY
360
4C6
102
}
102
{ACAD_REACTORS
330
42B
102
}
330
42B
100
AcDbVisualStyle
  2
ColorChange
 70
    16
 71
     2
 72
     2
 73
     3
 90
        0
 40
-0.6
 41
-30.0
 62
     5
 63
     8
 74
     1
 91
        4
 64
     7
 65
   257
 75
     1
175
     1
 42
1.0
 92
        8
 66
     8
 43
1.0
 76
     1
 77
     6
 78
     2
 67
     7
 79
     5
170
     0
171
     0
290
     0
174
     0
 93
        1
 44
0.0
173
     0
291
     1
 45
0.0
1001
ACAD
1000
AcDbSavedByObjectVersion
1070
     0
  0
VISUALSTYLE
  5
434
102
{ACAD_XDICTIONARY
360
4B8
102
}
102
{ACAD_REACTORS
330
42B
102
}
330
42B
100
AcDbVisualStyle
  2
Conceptual
 70
     9
 71
     3
 72
     2
 73
     0
 90
        0
 40
-0.6
 41
-30.0
 62
     5
 63
     7
 74
     2
 91
        2
 64
     7
 65
   257
 75
     1
175
     1
 42
179.0
 92
        8
 66
     7
 43
1.0
 76
     1
 77
     6
 78
     2
 67
     7
 79
     3
170
     0
171
     0
290
     0
174
     0
 93
        1
 44
0.0
173
     0
291
     0
 45
0.0
1001
ACAD
1000
AcDbSavedByObjectVersion
1070
     0
  0
VISUALSTYLE
  5
436
102
{ACAD_XDICTIONARY
360
4BC
102
}
102
{ACAD_REACTORS
330
42B
102
}
330
42B
100
AcDbVisualStyle
  2
Dim
 70
    11
 71
     2
 72
     2
 73
     0
 90
        0
 40
-0.6
 41
-30.0
 62
     5
 63
     7
 74
     1
 91
        4
 64
     7
 65
   257
 75
     1
175
     1
 42
1.0
 92
        8
 66
     7
 43
1.0
 76
     1
 77
     6
 78
     2
 67
     7
 79
     5
170
     0
171
     0
290
     0
174
     0
 93
        1
 44
-50.0
173
     0
291
     1
 45
0.0
1001
ACAD
1000
AcDbSavedByObjectVersion
1070
     0
  0
VISUALSTYLE
  5
443
102
{ACAD_XDICTIONARY
360
4D6
102
}
102
{ACAD_REACTORS
330
42B
102
}
330
42B
100
AcDbVisualStyle
  2
EdgeColorOff
 70
    22
 71
     2
 72
     2
 73
     0
 90
        0
 40
-0.6
 41
-30.0
 62
     5
 63
     7
 74
     1
 91
        4
 64
     7
 65
   257
 75
     1
175
     1
 42
1.0
 92
        8
 66
     7
 43
1.0
 76
     1
 77
     6
 78
     2
 67
     7
 79
     5
170
     0
171
     0
290
     0
174
     0
 93
        1
 44
0.0
173
     0
291
     1
 45
0.0
1001
ACAD
1000
AcDbSavedByObjectVersion
1070
     0
  0
VISUALSTYLE
  5
43A
102
{ACAD_XDICTIONARY
360
4C4
102
}
102
{ACAD_REACTORS
330
42B
102
}
330
42B
100
AcDbVisualStyle
  2
Facepattern
 70
    15
 71
     2
 72
     2
 73
     0
 90
        0
 40
-0.6
 41
-30.0
 62
     5
 63
     7
 74
     1
 91
        4
 64
     7
 65
   257
 75
     1
175
     1
 42
1.0
 92
        8
 66
     7
 43
1.0
 76
     1
 77
     6
 78
     2
 67
     7
 79
     5
170
     0
171
     0
290
     0
174
     0
 93
        1
 44
0.0
173
     0
291
     1
 45
0.0
1001
ACAD
1000
AcDbSavedByObjectVersion
1070
     0
  0
VISUALSTYLE
  5
42C
102
{ACAD_XDICTIONARY
360
4A8
102
}
102
{ACAD_REACTORS
330
42B
102
}
330
42B
100
AcDbVisualStyle
  2
Flat
 70
     0
 71
     2
 72
     1
 73
     1
 90
        2
 40
-0.6
 41
30.0
 62
     5
 63
     7
 74
     0
 91
        0
 64
     7
 65
   257
 75
     1
175
     1
 42
1.0
 92
        8
 66
     7
 43
1.0
 76
     1
 77
     6
 78
     2
 67
     7
 79
     5
170
     0
171
     0
290
     0
174
     0
 93
       13
 44
0.0
173
     0
291
     1
 45
0.0
1001
ACAD
1000
AcDbSavedByObjectVersion
1070
     0
  0
VISUALSTYLE
  5
42D
102
{ACAD_XDICTIONARY
360
4AA
102
}
102
{ACAD_REACTORS
330
42B
102
}
330
42B
100
AcDbVisualStyle
  2
FlatWithEdges
 70
     1
 71
     2
 72
     1
 73
     1
 90
        2
 40
-0.6
 41
30.0
 62
     5
 63
     7
 74
     1
 91
        0
 64
     7
 65
   257
 75
     1
175
     1
 42
1.0
 92
        0
 66
   257
 43
1.0
 76
     1
 77
     6
 78
     2
 67
     7
 79
     5
170
     0
171
     0
290
     0
174
     0
 93
       13
 44
0.0
173
     0
291
     1
 45
0.0
1001
ACAD
1000
AcDbSavedByObjectVersion
1070
     0
  0
VISUALSTYLE
  5
42E
102
{ACAD_XDICTIONARY
360
4AC
102
}
102
{ACAD_REACTORS
330
42B
102
}
330
42B
100
AcDbVisualStyle
  2
Gouraud
 70
     2
 71
     2
 72
     2
 73
     1
 90
        2
 40
-0.6
 41
30.0
 62
     5
 63
     7
 74
     0
 91
        0
 64
     7
 65
   257
 75
     1
175
     1
 42
1.0
 92
        0
 66
     7
 43
1.0
 76
     1
 77
     6
 78
     2
 67
     7
 79
     5
170
     0
171
     0
290
     0
174
     0
 93
       13
 44
0.0
173
     0
291
     1
 45
0.0
1001
ACAD
1000
AcDbSavedByObjectVersion
1070
     0
  0
VISUALSTYLE
  5
42F
102
{ACAD_XDICTIONARY
360
4AE
102
}
102
{ACAD_REACTORS
330
42B
102
}
330
42B
100
AcDbVisualStyle
  2
GouraudWithEdges
 70
     3
 71
     2
 72
     2
 73
     1
 90
        2
 40
-0.6
 41
30.0
 62
     5
 63
     7
 74
     1
 91
        0
 64
     7
 65
   257
 75
     1
175
     1
 42
1.0
 92
        0
 66
   257
 43
1.0
 76
     1
 77
     6
 78
     2
 67
     7
 79
     5
170
     0
171
     0
290
     0
174
     0
 93
       13
 44
0.0
173
     0
291
     1
 45
0.0
1001
ACAD
1000
AcDbSavedByObjectVersion
1070
     0
  0
VISUALSTYLE
  5
433
102
{ACAD_XDICTIONARY
360
4B6
102
}
102
{ACAD_REACTORS
330
42B
102
}
330
42B
100
AcDbVisualStyle
  2
Hidden
 70
     6
 71
     1
 72
     2
 73
     2
 90
        0
 40
-0.6
 41
-30.0
 62
     5
 63
     7
 74
     2
 91
        2
 64
     7
 65
   257
 75
     2
175
     1
 42
40.0
 92
        0
 66
   257
 43
1.0
 76
     1
 77
     6
 78
     2
 67
     7
 79
     3
170
     0
171
     0
290
     0
174
     0
 93
        1
 44
0.0
173
     0
291
     0
 45
0.0
1001
ACAD
1000
AcDbSavedByObjectVersion
1070
     0
  0
VISUALSTYLE
  5
441
102
{ACAD_XDICTIONARY
360
4D2
102
}
102
{ACAD_REACTORS
330
42B
102
}
330
42B
100
AcDbVisualStyle
  2
JitterOff
 70
    20
 71
     2
 72
     2
 73
     0
 90
        0
 40
-0.6
 41
-30.0
 62
     5
 63
     7
 74
     1
 91
        4
 64
     7
 65
   257
 75
     1
175
     1
 42
1.0
 92
       10
 66
     7
 43
1.0
 76
     1
 77
     6
 78
     2
 67
     7
 79
     5
170
     0
171
     0
290
     0
174
     0
 93
        1
 44
0.0
173
     0
291
     1
 45
0.0
1001
ACAD
1000
AcDbSavedByObjectVersion
1070
     0
  0
VISUALSTYLE
  5
439
102
{ACAD_XDICTIONARY
360
4C2
102
}
102
{ACAD_REACTORS
330
42B
102
}
330
42B
100
AcDbVisualStyle
  2
Linepattern
 70
    14
 71
     2
 72
     2
 73
     0
 90
        0
 40
-0.6
 41
-30.0
 62
     5
 63
     7
 74
     1
 91
        4
 64
     7
 65
   257
 75
     7
175
     7
 42
1.0
 92
        8
 66
     7
 43
1.0
 76
     1
 77
     6
 78
     2
 67
     7
 79
     5
170
     0
171
     0
290
     0
174
     0
 93
        1
 44
0.0
173
     0
291
     1
 45
0.0
1001
ACAD
1000
AcDbSavedByObjectVersion
1070
     0
  0
VISUALSTYLE
  5
442
102
{ACAD_XDICTIONARY
360
4D4
102
}
102
{ACAD_REACTORS
330
42B
102
}
330
42B
100
AcDbVisualStyle
  2
OverhangOff
 70
    21
 71
     2
 72
     2
 73
     0
 90
        0
 40
-0.6
 41
-30.0
 62
     5
 63
     7
 74
     1
 91
        4
 64
     7
 65
   257
 75
     1
175
     1
 42
1.0
 92
        9
 66
     7
 43
1.0
 76
     1
 77
     6
 78
     2
 67
     7
 79
     5
170
     0
171
     0
290
     0
174
     0
 93
        1
 44
0.0
173
     0
291
     1
 45
0.0
1001
ACAD
1000
AcDbSavedByObjectVersion
1070
     0
  0
VISUALSTYLE
  5
435
102
{ACAD_XDICTIONARY
360
4BA
102
}
102
{ACAD_REACTORS
330
42B
102
}
330
42B
100
AcDbVisualStyle
  2
Realistic
 70
     8
 71
     2
 72
     3
 73
     0
 90
        2
 40
-0.6
 41
30.0
 62
     5
 63
     7
 74
     0
 91
        0
 64
     7
 65
   257
 75
     1
175
     1
 42
1.0
 92
        8
 66
   257
 43
1.0
 76
     1
 77
     6
 78
     2
 67
     7
 79
     3
170
     0
171
     0
290
     0
174
     0
 93
       13
 44
0.0
173
     0
291
     0
 45
0.0
1001
ACAD
1000
AcDbSavedByObjectVersion
1070
     0
  0
VISUALSTYLE
  5
440
102
{ACAD_XDICTIONARY
360
4D0
102
}
102
{ACAD_REACTORS
330
42B
102
}
330
42B
100
AcDbVisualStyle
  2
Shaded
 70
    27
 71
     2
 72
     2
 73
     1
 90
        2
 40
-0.6
 41
30.0
 62
     5
 63
     7
 74
     0
 91
        4
 64
     7
 65
   257
 75
     1
175
     1
 42
1.0
 92
        8
 66
   257
 43
1.0
 76
     1
 77
     6
 78
     2
 67
     8
 79
     3
170
     0
171
     0
290
     0
174
     0
 93
        5
 44
0.0
173
     0
291
     0
 45
0.0
1001
ACAD
1000
AcDbSavedByObjectVersion
1070
     0
  0
VISUALSTYLE
  5
43F
102
{ACAD_XDICTIONARY
360
4CE
102
}
102
{ACAD_REACTORS
330
42B
102
}
330
42B
100
AcDbVisualStyle
  2
Shaded with edges
 70
    26
 71
     2
 72
     2
 73
     1
 90
        2
 40
-0.6
 41
30.0
 62
     5
 63
     7
 74
     1
 91
        2
 64
     7
 65
   257
 75
     2
175
     1
 42
1.0
 92
        8
 66
   257
 43
1.0
 76
     1
 77
     6
 78
     2
 67
     7
 79
     3
170
     0
171
     0
290
     0
174
     0
 93
        5
 44
0.0
173
     0
291
     0
 45
0.0
1001
ACAD
1000
AcDbSavedByObjectVersion
1070
     0
  0
VISUALSTYLE
  5
43C
102
{ACAD_XDICTIONARY
360
4C8
102
}
102
{ACAD_REACTORS
330
42B
102
}
330
42B
100
AcDbVisualStyle
  2
Shades of Gray
 70
    23
 71
     2
 72
     2
 73
     3
 90
        0
 40
-0.6
 41
-30.0
 62
     5
 63
     7
 74
     2
 91
        2
 64
     7
 65
     7
 75
     1
175
     1
 42
40.0
 92
        8
 66
     7
 43
1.0
 76
     1
 77
     6
 78
     2
 67
     7
 79
     3
170
     0
171
     0
290
     0
174
     0
 93
        1
 44
0.0
173
     0
291
     0
 45
0.0
1001
ACAD
1000
AcDbSavedByObjectVersion
1070
     0
  0
VISUALSTYLE
  5
43D
102
{ACAD_XDICTIONARY
360
4CA
102
}
102
{ACAD_REACTORS
330
42B
102
}
330
42B
100
AcDbVisualStyle
  2
Sketchy
 70
    24
 71
     1
 72
     2
 73
     2
 90
        0
 40
-0.6
 41
-30.0
 62
     5
 63
     7
 74
     2
 91
        2
 64
     7
 65
     7
 75
     1
175
     1
 42
40.0
 92
       11
 66
     7
 43
1.0
 76
     1
 77
     6
 78
     2
 67
     7
 79
     6
170
     0
171
     0
290
     0
174
     0
 93
        1
 44
0.0
173
     0
291
     0
 45
0.0
1001
ACAD
1000
AcDbSavedByObjectVersion
1070
     0
  0
VISUALSTYLE
  5
438
102
{ACAD_XDICTIONARY
360
4C0
102
}
102
{ACAD_REACTORS
330
42B
102
}
330
42B
100
AcDbVisualStyle
  2
Thicken
 70
    13
 71
     2
 72
     2
 73
     0
 90
        0
 40
-0.6
 41
-30.0
 62
     5
 63
     7
 74
     1
 91
        4
 64
     7
 65
   257
 75
     1
175
     1
 42
1.0
 92
       12
 66
     7
 43
1.0
 76
     1
 77
     6
 78
     2
 67
     7
 79
     5
170
     0
171
     0
290
     0
174
     0
 93
        1
 44
0.0
173
     0
291
     1
 45
0.0
1001
ACAD
1000
AcDbSavedByObjectVersion
1070
     0
  0
VISUALSTYLE
  5
432
102
{ACAD_XDICTIONARY
360
4B4
102
}
102
{ACAD_REACTORS
330
42B
102
}
330
42B
100
AcDbVisualStyle
  2
Wireframe
 70
     5
 71
     0
 72
     2
 73
     0
 90
        0
 40
-0.6
 41
-30.0
 62
     5
 63
     7
 74
     1
 91
        4
 64
     7
 65
   257
 75
     1
175
     1
 42
1.0
 92
        0
 66
   257
 43
1.0
 76
     1
 77
     6
 78
     2
 67
     7
 79
     3
170
     0
171
     0
290
     0
174
     0
 93
        1
 44
0.0
173
     0
291
     0
 45
0.0
1001
ACAD
1000
AcDbSavedByObjectVersion
1070
     0
  0
VISUALSTYLE
  5
43E
102
{ACAD_XDICTIONARY
360
4CC
102
}
102
{ACAD_REACTORS
330
42B
102
}
330
42B
100
AcDbVisualStyle
  2
X-Ray
 70
    25
 71
     2
 72
     2
 73
     1
 90
        1
 40
0.5
 41
-30.0
 62
     5
 63
     7
 74
     1
 91
        0
 64
     7
 65
   257
 75
     1
175
     1
 42
1.0
 92
        8
 66
     7
 43
1.0
 76
     1
 77
     6
 78
     2
 67
     7
 79
     3
170
     0
171
     0
290
     0
174
     0
 93
       13
 44
0.0
173
     0
291
     0
 45
0.0
1001
ACAD
1000
AcDbSavedByObjectVersion
1070
     0
  0
DICTIONARYVAR
  5
49B
102
{ACAD_REACTORS
330
496
102
}
330
496
100
DictionaryVariables
280
     0
  1
1:1
  0
DICTIONARYVAR
  5
498
102
{ACAD_REACTORS
330
496
102
}
330
496
100
DictionaryVariables
280
     0
  1
STANDARD
  0
DICTIONARYVAR
  5
497
102
{ACAD_REACTORS
330
496
102
}
330
496
100
DictionaryVariables
280
     0
  1
STANDARD
  0
DICTIONARYVAR
  5
499
102
{ACAD_REACTORS
330
496
102
}
330
496
100
DictionaryVariables
280
     0
  1
Imperial24
  0
DICTIONARYVAR
  5
49A
102
{ACAD_REACTORS
330
496
102
}
330
496
100
DictionaryVariables
280
     0
  1
Imperial24
  0
DICTIONARYVAR
  5
49E
102
{ACAD_REACTORS
330
496
102
}
330
496
100
DictionaryVariables
280
     0
  1
1
  0
DICTIONARYVAR
  5
49D
102
{ACAD_REACTORS
330
496
102
}
330
496
100
DictionaryVariables
280
     0
  1
0
  0
DICTIONARYVAR
  5
49C
102
{ACAD_REACTORS
330
496
102
}
330
496
100
DictionaryVariables
280
     0
  1
127
  0
DICTIONARYVAR
  5
49F
102
{ACAD_REACTORS
330
496
102
}
330
496
100
DictionaryVariables
280
     0
  1
2
  0
DICTIONARY
  5
4DC
330
46C
100
AcDbDictionary
280
     1
281
     1
  3
ACAD_XREC_ROUNDTRIP
360
4DD
  0
DICTIONARY
  5
4E0
330
474
100
AcDbDictionary
280
     1
281
     1
  3
ACAD_XREC_ROUNDTRIP
360
4E1
  0
DICTIONARY
  5
4DE
330
470
100
AcDbDictionary
280
     1
281
     1
  3
ACAD_XREC_ROUNDTRIP
360
4DF
  0
DICTIONARY
  5
41C
330
41B
100
AcDbDictionary
280
     1
281
     1
  3
ACAD_XREC_ROUNDTRIP
360
4A6
  3
BUMPTILE
360
41E
  3
DIFFUSETILE
360
41D
  3
OPACITYTILE
360
421
  3
REFLECTIONTILE
360
420
  3
REFRACTIONTILE
360
422
  3
SPECULARTILE
360
41F
  0
DICTIONARY
  5
414
330
413
100
AcDbDictionary
280
     1
281
     1
  3
ACAD_XREC_ROUNDTRIP
360
4A5
  3
BUMPTILE
360
416
  3
DIFFUSETILE
360
415
  3
OPACITYTILE
360
419
  3
REFLECTIONTILE
360
418
  3
REFRACTIONTILE
360
41A
  3
SPECULARTILE
360
417
  0
DICTIONARY
  5
424
330
423
100
AcDbDictionary
280
     1
281
     1
  3
ACAD_XREC_ROUNDTRIP
360
4A7
  3
BUMPTILE
360
426
  3
DIFFUSETILE
360
425
  3
OPACITYTILE
360
429
  3
REFLECTIONTILE
360
428
  3
REFRACTIONTILE
360
42A
  3
SPECULARTILE
360
427
  0
DICTIONARY
  5
4DA
330
46A
100
AcDbDictionary
280
     1
281
     1
  3
ACAD_XREC_ROUNDTRIP
360
4DB
  0
DICTIONARY
  5
4A1
330
466
100
AcDbDictionary
280
     1
281
     1
  3
ACAD_ROUNDTRIP_2008_TABLESTYLE_CELLSTYLEMAP
360
4A2
  3
ACAD_XREC_ROUNDTRIP
360
4D8
  0
DICTIONARY
  5
4B2
330
431
100
AcDbDictionary
280
     1
281
     1
  3
ACAD_XREC_ROUNDTRIP
360
4B3
  0
DICTIONARY
  5
4B0
330
430
100
AcDbDictionary
280
     1
281
     1
  3
ACAD_XREC_ROUNDTRIP
360
4B1
  0
DICTIONARY
  5
4BE
330
437
100
AcDbDictionary
280
     1
281
     1
  3
ACAD_XREC_ROUNDTRIP
360
4BF
  0
DICTIONARY
  5
4C6
330
43B
100
AcDbDictionary
280
     1
281
     1
  3
ACAD_XREC_ROUNDTRIP
360
4C7
  0
DICTIONARY
  5
4B8
330
434
100
AcDbDictionary
280
     1
281
     1
  3
ACAD_XREC_ROUNDTRIP
360
4B9
  0
DICTIONARY
  5
4BC
330
436
100
AcDbDictionary
280
     1
281
     1
  3
ACAD_XREC_ROUNDTRIP
360
4BD
  0
DICTIONARY
  5
4D6
330
443
100
AcDbDictionary
280
     1
281
     1
  3
ACAD_XREC_ROUNDTRIP
360
4D7
  0
DICTIONARY
  5
4C4
330
43A
100
AcDbDictionary
280
     1
281
     1
  3
ACAD_XREC_ROUNDTRIP
360
4C5
  0
DICTIONARY
  5
4A8
330
42C
100
AcDbDictionary
280
     1
281
     1
  3
ACAD_XREC_ROUNDTRIP
360
4A9
  0
DICTIONARY
  5
4AA
330
42D
100
AcDbDictionary
280
     1
281
     1
  3
ACAD_XREC_ROUNDTRIP
360
4AB
  0
DICTIONARY
  5
4AC
330
42E
100
AcDbDictionary
280
     1
281
     1
  3
ACAD_XREC_ROUNDTRIP
360
4AD
  0
DICTIONARY
  5
4AE
330
42F
100
AcDbDictionary
280
     1
281
     1
  3
ACAD_XREC_ROUNDTRIP
360
4AF
  0
DICTIONARY
  5
4B6
330
433
100
AcDbDictionary
280
     1
281
     1
  3
ACAD_XREC_ROUNDTRIP
360
4B7
  0
DICTIONARY
  5
4D2
330
441
100
AcDbDictionary
280
     1
281
     1
  3
ACAD_XREC_ROUNDTRIP
360
4D3
  0
DICTIONARY
  5
4C2
330
439
100
AcDbDictionary
280
     1
281
     1
  3
ACAD_XREC_ROUNDTRIP
360
4C3
  0
DICTIONARY
  5
4D4
330
442
100
AcDbDictionary
280
     1
281
     1
  3
ACAD_XREC_ROUNDTRIP
360
4D5
  0
DICTIONARY
  5
4BA
330
435
100
AcDbDictionary
280
     1
281
     1
  3
ACAD_XREC_ROUNDTRIP
360
4BB
  0
DICTIONARY
  5
4D0
330
440
100
AcDbDictionary
280
     1
281
     1
  3
ACAD_XREC_ROUNDTRIP
360
4D1
  0
DICTIONARY
  5
4CE
330
43F
100
AcDbDictionary
280
     1
281
     1
  3
ACAD_XREC_ROUNDTRIP
360
4CF
  0
DICTIONARY
  5
4C8
330
43C
100
AcDbDictionary
280
     1
281
     1
  3
ACAD_XREC_ROUNDTRIP
360
4C9
  0
DICTIONARY
  5
4CA
330
43D
100
AcDbDictionary
280
     1
281
     1
  3
ACAD_XREC_ROUNDTRIP
360
4CB
  0
DICTIONARY
  5
4C0
330
438
100
AcDbDictionary
280
     1
281
     1
  3
ACAD_XREC_ROUNDTRIP
360
4C1
  0
DICTIONARY
  5
4B4
330
432
100
AcDbDictionary
280
     1
281
     1
  3
ACAD_XREC_ROUNDTRIP
360
4B5
  0
DICTIONARY
  5
4CC
330
43E
100
AcDbDictionary
280
     1
281
     1
  3
ACAD_XREC_ROUNDTRIP
360
4CD
  0
XRECORD
  5
4DD
102
{ACAD_REACTORS
330
4DC
102
}
330
4DC
100
AcDbXrecord
280
     1
102
DISPLAYNAME
  1
Imperial24
102
FLAGS
 90
        0
  0
XRECORD
  5
4E1
102
{ACAD_REACTORS
330
4E0
102
}
330
4E0
100
AcDbXrecord
280
     1
102
SHADEPLOT
 70
     0
102
SHADEPLOTRESLEVEL
 70
     2
102
SHADEPLOTCUSTOMDPI
 70
   300
  0
XRECORD
  5
4DF
102
{ACAD_REACTORS
330
4DE
102
}
330
4DE
100
AcDbXrecord
280
     1
102
SHADEPLOT
 70
     0
102
SHADEPLOTRESLEVEL
 70
     2
102
SHADEPLOTCUSTOMDPI
 70
   300
  0
XRECORD
  5
4A6
102
{ACAD_REACTORS
330
41C
102
}
330
41C
100
AcDbXrecord
280
     1
102
MATERIAL
148
0.0
149
0.0
149
0.0
 93
        0
 94
      127
282
     0
 72
     0
 77
     0
171
     0
175
     0
179
     0
273
     0
  0
XRECORD
  5
41E
102
{ACAD_REACTORS
330
41C
102
}
330
41C
100
AcDbXrecord
280
     1
270
     1
271
     1
  0
XRECORD
  5
41D
102
{ACAD_REACTORS
330
41C
102
}
330
41C
100
AcDbXrecord
280
     1
270
     1
271
     1
  0
XRECORD
  5
421
102
{ACAD_REACTORS
330
41C
102
}
330
41C
100
AcDbXrecord
280
     1
270
     1
271
     1
  0
XRECORD
  5
420
102
{ACAD_REACTORS
330
41C
102
}
330
41C
100
AcDbXrecord
280
     1
270
     1
271
     1
  0
XRECORD
  5
422
102
{ACAD_REACTORS
330
41C
102
}
330
41C
100
AcDbXrecord
280
     1
270
     1
271
     1
  0
XRECORD
  5
41F
102
{ACAD_REACTORS
330
41C
102
}
330
41C
100
AcDbXrecord
280
     1
270
     1
271
     1
  0
XRECORD
  5
4A5
102
{ACAD_REACTORS
330
414
102
}
330
414
100
AcDbXrecord
280
     1
102
MATERIAL
148
0.0
149
0.0
149
0.0
 93
        0
 94
      127
282
     0
 72
     0
 77
     0
171
     0
175
     0
179
     0
273
     0
  0
XRECORD
  5
416
102
{ACAD_REACTORS
330
414
102
}
330
414
100
AcDbXrecord
280
     1
270
     1
271
     1
  0
XRECORD
  5
415
102
{ACAD_REACTORS
330
414
102
}
330
414
100
AcDbXrecord
280
     1
270
     1
271
     1
  0
XRECORD
  5
419
102
{ACAD_REACTORS
330
414
102
}
330
414
100
AcDbXrecord
280
     1
270
     1
271
     1
  0
XRECORD
  5
418
102
{ACAD_REACTORS
330
414
102
}
330
414
100
AcDbXrecord
280
     1
270
     1
271
     1
  0
XRECORD
  5
41A
102
{ACAD_REACTORS
330
414
102
}
330
414
100
AcDbXrecord
280
     1
270
     1
271
     1
  0
XRECORD
  5
417
102
{ACAD_REACTORS
330
414
102
}
330
414
100
AcDbXrecord
280
     1
270
     1
271
     1
  0
XRECORD
  5
4A7
102
{ACAD_REACTORS
330
424
102
}
330
424
100
AcDbXrecord
280
     1
102
MATERIAL
148
0.0
149
0.0
149
0.0
 93
        0
 94
      127
282
     0
 72
     0
 77
     0
171
     0
175
     0
179
     0
273
     0
  0
XRECORD
  5
426
102
{ACAD_REACTORS
330
424
102
}
330
424
100
AcDbXrecord
280
     1
270
     1
271
     1
  0
XRECORD
  5
425
102
{ACAD_REACTORS
330
424
102
}
330
424
100
AcDbXrecord
280
     1
270
     1
271
     1
  0
XRECORD
  5
429
102
{ACAD_REACTORS
330
424
102
}
330
424
100
AcDbXrecord
280
     1
270
     1
271
     1
  0
XRECORD
  5
428
102
{ACAD_REACTORS
330
424
102
}
330
424
100
AcDbXrecord
280
     1
270
     1
271
     1
  0
XRECORD
  5
42A
102
{ACAD_REACTORS
330
424
102
}
330
424
100
AcDbXrecord
280
     1
270
     1
271
     1
  0
XRECORD
  5
427
102
{ACAD_REACTORS
330
424
102
}
330
424
100
AcDbXrecord
280
     1
270
     1
271
     1
  0
XRECORD
  5
4DB
102
{ACAD_REACTORS
330
4DA
102
}
330
4DA
100
AcDbXrecord
280
     1
102
DISPLAYNAME
  1
Imperial24
102
FLAGS
 90
        0
  0
CELLSTYLEMAP
  5
4A2
102
{ACAD_REACTORS
330
4A1
102
}
330
4A1
100
AcDbCellStyleMap
 90
        3
300
CELLSTYLE
  1
TABLEFORMAT_BEGIN
 90
        5
170
     1
 91
        0
 92
    32768
 62
   257
 93
        1
300
CONTENTFORMAT
  1
CONTENTFORMAT_BEGIN
 90
        0
 91
        0
 92
      512
 93
        0
300

 40
0.0
140
1.0
 94
        5
 62
     0
340
457
144
0.25
309
CONTENTFORMAT_END
171
     0
 94
        0
309
TABLEFORMAT_END
  1
CELLSTYLE_BEGIN
 90
        1
 91
        1
300
_TITLE
309
CELLSTYLE_END
300
CELLSTYLE
  1
TABLEFORMAT_BEGIN
 90
        5
170
     1
 91
        0
 92
        0
 62
   257
 93
        1
300
CONTENTFORMAT
  1
CONTENTFORMAT_BEGIN
 90
        0
 91
        0
 92
      512
 93
        0
300

 40
0.0
140
1.0
 94
        5
 62
     0
340
457
144
0.18
309
CONTENTFORMAT_END
171
     0
 94
        0
309
TABLEFORMAT_END
  1
CELLSTYLE_BEGIN
 90
        2
 91
        1
300
_HEADER
309
CELLSTYLE_END
300
CELLSTYLE
  1
TABLEFORMAT_BEGIN
 90
        5
170
     1
 91
        0
 92
        0
 62
   257
 93
        1
300
CONTENTFORMAT
  1
CONTENTFORMAT_BEGIN
 90
        0
 91
        0
 92
      512
 93
        0
300

 40
0.0
140
1.0
 94
        2
 62
     0
340
457
144
0.18
309
CONTENTFORMAT_END
171
     0
 94
        0
309
TABLEFORMAT_END
  1
CELLSTYLE_BEGIN
 90
        3
 91
        2
300
_DATA
309
CELLSTYLE_END
  0
XRECORD
  5
4D8
102
{ACAD_REACTORS
330
4A1
102
}
330
4A1
100
AcDbXrecord
280
     1
102
ACAD_ROUNDTRIP_PRE2007_TABLESTYLE
 90
      512
 91
        0
  1

 92
      512
 93
        0
  2

 94
      512
 95
        0
  3

  0
XRECORD
  5
4B3
102
{ACAD_REACTORS
330
4B2
102
}
330
4B2
100
AcDbXrecord
280
     1
102
RTVSPost2010Prop28
280
     1
102
RTVSPost2010PropOp28
 70
     1
102
RTVSPost2010Prop29
280
     1
102
RTVSPost2010PropOp29
 70
     1
102
RTVSPost2010Prop30
280
     0
102
RTVSPost2010PropOp30
 70
     1
102
RTVSPost2010Prop31
280
     0
102
RTVSPost2010PropOp31
 70
     1
102
RTVSPost2010Prop32
280
     0
102
RTVSPost2010PropOp32
 70
     1
102
RTVSPost2010Prop33
280
     0
102
RTVSPost2010PropOp33
 70
     1
102
RTVSPost2010Prop34
280
     0
102
RTVSPost2010PropOp34
 70
     1
102
RTVSPost2010Prop35
280
     0
102
RTVSPost2010PropOp35
 70
     1
102
RTVSPost2010Prop36
280
     0
102
RTVSPost2010PropOp36
 70
     1
102
RTVSPost2010Prop37
 90
       50
102
RTVSPost2010PropOp37
 70
     1
102
RTVSPost2010Prop38
140
0.0
102
RTVSPost2010PropOp38
 70
     1
102
RTVSPost2010Prop39
140
1.0
102
RTVSPost2010PropOp39
 70
     1
102
RTVSPost2010Prop40
 90
        0
102
RTVSPost2010PropOp40
 70
     1
102
RTVSPost2010Prop41ColorIndex
 90
       18
102
RTVSPost2010Prop41ColorRGB
 90
        0
102
RTVSPost2010PropOp41
 70
     1
102
RTVSPost2010Prop42
 90
       50
102
RTVSPost2010PropOp42
 70
     1
102
RTVSPost2010Prop43
 90
        3
102
RTVSPost2010PropOp43
 70
     1
102
RTVSPost2010Prop44ColorIndex
 90
        5
102
RTVSPost2010Prop44ColorRGB
 90
      255
102
RTVSPost2010PropOp44
 70
     1
102
RTVSPost2010Prop45
280
     0
102
RTVSPost2010PropOp45
 70
     1
102
RTVSPost2010Prop46
 90
       50
102
RTVSPost2010PropOp46
 70
     1
102
RTVSPost2010Prop47
 90
       50
102
RTVSPost2010PropOp47
 70
     1
102
RTVSPost2010Prop48
 90
       50
102
RTVSPost2010PropOp48
 70
     1
102
RTVSPost2010Prop49
280
     0
102
RTVSPost2010PropOp49
 70
     1
102
RTVSPost2010Prop50
 90
       50
102
RTVSPost2010PropOp50
 70
     1
102
RTVSPost2010Prop51ColorIndex
 90
      256
102
RTVSPost2010Prop51ColorRGB
 90
-16777216
102
RTVSPost2010PropOp51
 70
     0
102
RTVSPost2010Prop52
140
1.0
102
RTVSPost2010PropOp52
 70
     0
102
RTVSPost2010Prop53
 90
        2
102
RTVSPost2010PropOp53
 70
     1
102
RTVSPost2010Prop54
  1
strokes_ogs.tif
102
RTVSPost2010PropOp54
 70
     1
102
RTVSPost2010Prop55
280
     0
102
RTVSPost2010PropOp55
 70
     1
102
RTVSPost2010Prop56
140
1.0
102
RTVSPost2010PropOp56
 70
     1
102
RTVSPost2010Prop57
140
1.0
102
RTVSPost2010PropOp57
 70
     1
102
RTVSPropertyOp0
 70
     1
102
RTVSPropertyOp1
 70
     1
102
RTVSPropertyOp2
 70
     1
102
RTVSPropertyOp3
 70
     1
102
RTVSPropertyOp4
 70
     1
102
RTVSPropertyOp5
 70
     1
102
RTVSPropertyOp6
 70
     1
102
RTVSPropertyOp7
 70
     1
102
RTVSPropertyOp8
 70
     1
102
RTVSPropertyOp9
 70
     1
102
RTVSPropertyOp10
 70
     1
102
RTVSPropertyOp11
 70
     1
102
RTVSPropertyOp12
 70
     1
102
RTVSPropertyOp13
 70
     1
102
RTVSPropertyOp14
 70
     1
102
RTVSPropertyOp15
 70
     1
102
RTVSPropertyOp16
 70
     1
102
RTVSPropertyOp17
 70
     1
102
RTVSPropertyOp18
 70
     1
102
RTVSPropertyOp19
 70
     1
102
RTVSPropertyOp20
 70
     1
102
RTVSPropertyOp21
 70
     1
102
RTVSPropertyOp22
 70
     1
102
RTVSPropertyOp23
 70
     1
102
RTVSPropertyOp24
 70
     1
102
RTVSPropertyOp25
 70
     1
102
RTVSPropertyOp26
 70
     1
102
RTVSPropertyOp27
 70
     1
102
RTVSPropertyOp28
 70
     1
102
RTVSPropertyOp29
 70
     1
102
RTVSPropertyOp30
 70
     1
102
RTVSPropertyOp31
 70
     1
102
RTVSPropertyOp32
 70
     1
102
RTVSPropertyOp33
 70
     1
102
RTVSPropertyOp34
 70
     1
102
RTVSPropertyOp35
 70
     1
102
RTVSPropertyOp36
 70
     1
102
RTVSPropertyOp37
 70
     1
102
RTVSPropertyOp38
 70
     1
102
RTVSPropertyOp39
 70
     1
102
RTVSPropertyOp40
 70
     1
102
RTVSPropertyOp41
 70
     1
102
RTVSPropertyOp42
 70
     1
102
RTVSPropertyOp43
 70
     1
102
RTVSPropertyOp44
 70
     1
102
RTVSPropertyOp45
 70
     1
102
RTVSPropertyOp46
 70
     1
102
RTVSPropertyOp47
 70
     1
102
RTVSPropertyOp48
 70
     1
102
RTVSPropertyOp49
 70
     1
102
RTVSPropertyOp50
 70
     1
102
RTVSPropertyOp51
 70
     0
102
RTVSPropertyOp52
 70
     0
102
RTVSPropertyOp53
 70
     1
102
RTVSPropertyOp54
 70
     1
102
RTVSPropertyOp55
 70
     1
102
RTVSPropertyOp56
 70
     1
102
RTVSPropertyOp57
 70
     1
102
RTVSPropertyOp58
 70
     1
102
RTVSPropertyOp59
 70
     1
102
RTVSPropertyOp60
 70
     1
102
RTVSPropertyOp61
 70
     1
102
RTVSPropertyOp62
 70
     1
  0
XRECORD
  5
4B1
102
{ACAD_REACTORS
330
4B0
102
}
330
4B0
100
AcDbXrecord
280
     1
102
RTVSPost2010Prop28
280
     0
102
RTVSPost2010PropOp28
 70
     1
102
RTVSPost2010Prop29
280
     1
102
RTVSPost2010PropOp29
 70
     1
102
RTVSPost2010Prop30
280
     1
102
RTVSPost2010PropOp30
 70
     1
102
RTVSPost2010Prop31
280
     0
102
RTVSPost2010PropOp31
 70
     1
102
RTVSPost2010Prop32
280
     0
102
RTVSPost2010PropOp32
 70
     1
102
RTVSPost2010Prop33
280
     0
102
RTVSPost2010PropOp33
 70
     1
102
RTVSPost2010Prop34
280
     0
102
RTVSPost2010PropOp34
 70
     1
102
RTVSPost2010Prop35
280
     0
102
RTVSPost2010PropOp35
 70
     1
102
RTVSPost2010Prop36
280
     0
102
RTVSPost2010PropOp36
 70
     1
102
RTVSPost2010Prop37
 90
       50
102
RTVSPost2010PropOp37
 70
     1
102
RTVSPost2010Prop38
140
0.0
102
RTVSPost2010PropOp38
 70
     1
102
RTVSPost2010Prop39
140
1.0
102
RTVSPost2010PropOp39
 70
     1
102
RTVSPost2010Prop40
 90
        0
102
RTVSPost2010PropOp40
 70
     1
102
RTVSPost2010Prop41ColorIndex
 90
       18
102
RTVSPost2010Prop41ColorRGB
 90
        0
102
RTVSPost2010PropOp41
 70
     1
102
RTVSPost2010Prop42
 90
       50
102
RTVSPost2010PropOp42
 70
     1
102
RTVSPost2010Prop43
 90
        3
102
RTVSPost2010PropOp43
 70
     1
102
RTVSPost2010Prop44ColorIndex
 90
        5
102
RTVSPost2010Prop44ColorRGB
 90
      255
102
RTVSPost2010PropOp44
 70
     1
102
RTVSPost2010Prop45
280
     0
102
RTVSPost2010PropOp45
 70
     1
102
RTVSPost2010Prop46
 90
       50
102
RTVSPost2010PropOp46
 70
     1
102
RTVSPost2010Prop47
 90
       50
102
RTVSPost2010PropOp47
 70
     1
102
RTVSPost2010Prop48
 90
       50
102
RTVSPost2010PropOp48
 70
     1
102
RTVSPost2010Prop49
280
     0
102
RTVSPost2010PropOp49
 70
     1
102
RTVSPost2010Prop50
 90
       50
102
RTVSPost2010PropOp50
 70
     1
102
RTVSPost2010Prop51ColorIndex
 90
      256
102
RTVSPost2010Prop51ColorRGB
 90
-16777216
102
RTVSPost2010PropOp51
 70
     0
102
RTVSPost2010Prop52
140
1.0
102
RTVSPost2010PropOp52
 70
     0
102
RTVSPost2010Prop53
 90
        2
102
RTVSPost2010PropOp53
 70
     1
102
RTVSPost2010Prop54
  1
strokes_ogs.tif
102
RTVSPost2010PropOp54
 70
     1
102
RTVSPost2010Prop55
280
     0
102
RTVSPost2010PropOp55
 70
     1
102
RTVSPost2010Prop56
140
1.0
102
RTVSPost2010PropOp56
 70
     1
102
RTVSPost2010Prop57
140
1.0
102
RTVSPost2010PropOp57
 70
     1
102
RTVSPropertyOp0
 70
     1
102
RTVSPropertyOp1
 70
     1
102
RTVSPropertyOp2
 70
     1
102
RTVSPropertyOp3
 70
     1
102
RTVSPropertyOp4
 70
     1
102
RTVSPropertyOp5
 70
     1
102
RTVSPropertyOp6
 70
     1
102
RTVSPropertyOp7
 70
     1
102
RTVSPropertyOp8
 70
     1
102
RTVSPropertyOp9
 70
     1
102
RTVSPropertyOp10
 70
     1
102
RTVSPropertyOp11
 70
     1
102
RTVSPropertyOp12
 70
     1
102
RTVSPropertyOp13
 70
     1
102
RTVSPropertyOp14
 70
     1
102
RTVSPropertyOp15
 70
     1
102
RTVSPropertyOp16
 70
     1
102
RTVSPropertyOp17
 70
     1
102
RTVSPropertyOp18
 70
     1
102
RTVSPropertyOp19
 70
     1
102
RTVSPropertyOp20
 70
     1
102
RTVSPropertyOp21
 70
     1
102
RTVSPropertyOp22
 70
     1
102
RTVSPropertyOp23
 70
     1
102
RTVSPropertyOp24
 70
     1
102
RTVSPropertyOp25
 70
     1
102
RTVSPropertyOp26
 70
     1
102
RTVSPropertyOp27
 70
     1
102
RTVSPropertyOp28
 70
     1
102
RTVSPropertyOp29
 70
     1
102
RTVSPropertyOp30
 70
     1
102
RTVSPropertyOp31
 70
     1
102
RTVSPropertyOp32
 70
     1
102
RTVSPropertyOp33
 70
     1
102
RTVSPropertyOp34
 70
     1
102
RTVSPropertyOp35
 70
     1
102
RTVSPropertyOp36
 70
     1
102
RTVSPropertyOp37
 70
     1
102
RTVSPropertyOp38
 70
     1
102
RTVSPropertyOp39
 70
     1
102
RTVSPropertyOp40
 70
     1
102
RTVSPropertyOp41
 70
     1
102
RTVSPropertyOp42
 70
     1
102
RTVSPropertyOp43
 70
     1
102
RTVSPropertyOp44
 70
     1
102
RTVSPropertyOp45
 70
     1
102
RTVSPropertyOp46
 70
     1
102
RTVSPropertyOp47
 70
     1
102
RTVSPropertyOp48
 70
     1
102
RTVSPropertyOp49
 70
     1
102
RTVSPropertyOp50
 70
     1
102
RTVSPropertyOp51
 70
     0
102
RTVSPropertyOp52
 70
     0
102
RTVSPropertyOp53
 70
     1
102
RTVSPropertyOp54
 70
     1
102
RTVSPropertyOp55
 70
     1
102
RTVSPropertyOp56
 70
     1
102
RTVSPropertyOp57
 70
     1
102
RTVSPropertyOp58
 70
     1
102
RTVSPropertyOp59
 70
     1
102
RTVSPropertyOp60
 70
     1
102
RTVSPropertyOp61
 70
     1
102
RTVSPropertyOp62
 70
     1
  0
XRECORD
  5
4BF
102
{ACAD_REACTORS
330
4BE
102
}
330
4BE
100
AcDbXrecord
280
     1
102
RTVSPost2010Prop28
280
     0
102
RTVSPost2010PropOp28
 70
     1
102
RTVSPost2010Prop29
280
     1
102
RTVSPost2010PropOp29
 70
     1
102
RTVSPost2010Prop30
280
     1
102
RTVSPost2010PropOp30
 70
     1
102
RTVSPost2010Prop31
280
     0
102
RTVSPost2010PropOp31
 70
     1
102
RTVSPost2010Prop32
280
     0
102
RTVSPost2010PropOp32
 70
     1
102
RTVSPost2010Prop33
280
     0
102
RTVSPost2010PropOp33
 70
     1
102
RTVSPost2010Prop34
280
     0
102
RTVSPost2010PropOp34
 70
     1
102
RTVSPost2010Prop35
280
     0
102
RTVSPost2010PropOp35
 70
     1
102
RTVSPost2010Prop36
280
     0
102
RTVSPost2010PropOp36
 70
     1
102
RTVSPost2010Prop37
 90
       50
102
RTVSPost2010PropOp37
 70
     1
102
RTVSPost2010Prop38
140
0.0
102
RTVSPost2010PropOp38
 70
     1
102
RTVSPost2010Prop39
140
1.0
102
RTVSPost2010PropOp39
 70
     1
102
RTVSPost2010Prop40
 90
        0
102
RTVSPost2010PropOp40
 70
     1
102
RTVSPost2010Prop41ColorIndex
 90
       18
102
RTVSPost2010Prop41ColorRGB
 90
        0
102
RTVSPost2010PropOp41
 70
     1
102
RTVSPost2010Prop42
 90
       50
102
RTVSPost2010PropOp42
 70
     1
102
RTVSPost2010Prop43
 90
        3
102
RTVSPost2010PropOp43
 70
     1
102
RTVSPost2010Prop44ColorIndex
 90
        5
102
RTVSPost2010Prop44ColorRGB
 90
      255
102
RTVSPost2010PropOp44
 70
     1
102
RTVSPost2010Prop45
280
     0
102
RTVSPost2010PropOp45
 70
     1
102
RTVSPost2010Prop46
 90
       50
102
RTVSPost2010PropOp46
 70
     1
102
RTVSPost2010Prop47
 90
       50
102
RTVSPost2010PropOp47
 70
     1
102
RTVSPost2010Prop48
 90
       50
102
RTVSPost2010PropOp48
 70
     1
102
RTVSPost2010Prop49
280
     0
102
RTVSPost2010PropOp49
 70
     1
102
RTVSPost2010Prop50
 90
       50
102
RTVSPost2010PropOp50
 70
     1
102
RTVSPost2010Prop51ColorIndex
 90
      256
102
RTVSPost2010Prop51ColorRGB
 90
-16777216
102
RTVSPost2010PropOp51
 70
     0
102
RTVSPost2010Prop52
140
1.0
102
RTVSPost2010PropOp52
 70
     0
102
RTVSPost2010Prop53
 90
        2
102
RTVSPost2010PropOp53
 70
     1
102
RTVSPost2010Prop54
  1
strokes_ogs.tif
102
RTVSPost2010PropOp54
 70
     1
102
RTVSPost2010Prop55
280
     0
102
RTVSPost2010PropOp55
 70
     1
102
RTVSPost2010Prop56
140
1.0
102
RTVSPost2010PropOp56
 70
     1
102
RTVSPost2010Prop57
140
1.0
102
RTVSPost2010PropOp57
 70
     1
102
RTVSPropertyOp0
 70
     1
102
RTVSPropertyOp1
 70
     1
102
RTVSPropertyOp2
 70
     1
102
RTVSPropertyOp3
 70
     1
102
RTVSPropertyOp4
 70
     1
102
RTVSPropertyOp5
 70
     1
102
RTVSPropertyOp6
 70
     1
102
RTVSPropertyOp7
 70
     1
102
RTVSPropertyOp8
 70
     1
102
RTVSPropertyOp9
 70
     1
102
RTVSPropertyOp10
 70
     1
102
RTVSPropertyOp11
 70
     1
102
RTVSPropertyOp12
 70
     1
102
RTVSPropertyOp13
 70
     1
102
RTVSPropertyOp14
 70
     1
102
RTVSPropertyOp15
 70
     1
102
RTVSPropertyOp16
 70
     1
102
RTVSPropertyOp17
 70
     1
102
RTVSPropertyOp18
 70
     1
102
RTVSPropertyOp19
 70
     1
102
RTVSPropertyOp20
 70
     1
102
RTVSPropertyOp21
 70
     1
102
RTVSPropertyOp22
 70
     1
102
RTVSPropertyOp23
 70
     1
102
RTVSPropertyOp24
 70
     1
102
RTVSPropertyOp25
 70
     1
102
RTVSPropertyOp26
 70
     1
102
RTVSPropertyOp27
 70
     1
102
RTVSPropertyOp28
 70
     1
102
RTVSPropertyOp29
 70
     1
102
RTVSPropertyOp30
 70
     1
102
RTVSPropertyOp31
 70
     1
102
RTVSPropertyOp32
 70
     1
102
RTVSPropertyOp33
 70
     1
102
RTVSPropertyOp34
 70
     1
102
RTVSPropertyOp35
 70
     1
102
RTVSPropertyOp36
 70
     1
102
RTVSPropertyOp37
 70
     1
102
RTVSPropertyOp38
 70
     1
102
RTVSPropertyOp39
 70
     1
102
RTVSPropertyOp40
 70
     1
102
RTVSPropertyOp41
 70
     1
102
RTVSPropertyOp42
 70
     1
102
RTVSPropertyOp43
 70
     1
102
RTVSPropertyOp44
 70
     1
102
RTVSPropertyOp45
 70
     1
102
RTVSPropertyOp46
 70
     1
102
RTVSPropertyOp47
 70
     1
102
RTVSPropertyOp48
 70
     1
102
RTVSPropertyOp49
 70
     1
102
RTVSPropertyOp50
 70
     1
102
RTVSPropertyOp51
 70
     0
102
RTVSPropertyOp52
 70
     0
102
RTVSPropertyOp53
 70
     1
102
RTVSPropertyOp54
 70
     1
102
RTVSPropertyOp55
 70
     1
102
RTVSPropertyOp56
 70
     1
102
RTVSPropertyOp57
 70
     1
102
RTVSPropertyOp58
 70
     1
102
RTVSPropertyOp59
 70
     1
102
RTVSPropertyOp60
 70
     1
102
RTVSPropertyOp61
 70
     1
102
RTVSPropertyOp62
 70
     1
  0
XRECORD
  5
4C7
102
{ACAD_REACTORS
330
4C6
102
}
330
4C6
100
AcDbXrecord
280
     1
102
RTVSPost2010Prop28
280
     0
102
RTVSPost2010PropOp28
 70
     1
102
RTVSPost2010Prop29
280
     1
102
RTVSPost2010PropOp29
 70
     1
102
RTVSPost2010Prop30
280
     1
102
RTVSPost2010PropOp30
 70
     1
102
RTVSPost2010Prop31
280
     0
102
RTVSPost2010PropOp31
 70
     1
102
RTVSPost2010Prop32
280
     0
102
RTVSPost2010PropOp32
 70
     1
102
RTVSPost2010Prop33
280
     0
102
RTVSPost2010PropOp33
 70
     1
102
RTVSPost2010Prop34
280
     0
102
RTVSPost2010PropOp34
 70
     1
102
RTVSPost2010Prop35
280
     0
102
RTVSPost2010PropOp35
 70
     1
102
RTVSPost2010Prop36
280
     0
102
RTVSPost2010PropOp36
 70
     1
102
RTVSPost2010Prop37
 90
       50
102
RTVSPost2010PropOp37
 70
     1
102
RTVSPost2010Prop38
140
0.0
102
RTVSPost2010PropOp38
 70
     1
102
RTVSPost2010Prop39
140
1.0
102
RTVSPost2010PropOp39
 70
     1
102
RTVSPost2010Prop40
 90
        0
102
RTVSPost2010PropOp40
 70
     1
102
RTVSPost2010Prop41ColorIndex
 90
       18
102
RTVSPost2010Prop41ColorRGB
 90
        0
102
RTVSPost2010PropOp41
 70
     1
102
RTVSPost2010Prop42
 90
       50
102
RTVSPost2010PropOp42
 70
     1
102
RTVSPost2010Prop43
 90
        3
102
RTVSPost2010PropOp43
 70
     1
102
RTVSPost2010Prop44ColorIndex
 90
        5
102
RTVSPost2010Prop44ColorRGB
 90
      255
102
RTVSPost2010PropOp44
 70
     1
102
RTVSPost2010Prop45
280
     0
102
RTVSPost2010PropOp45
 70
     1
102
RTVSPost2010Prop46
 90
       50
102
RTVSPost2010PropOp46
 70
     1
102
RTVSPost2010Prop47
 90
       50
102
RTVSPost2010PropOp47
 70
     1
102
RTVSPost2010Prop48
 90
       50
102
RTVSPost2010PropOp48
 70
     1
102
RTVSPost2010Prop49
280
     0
102
RTVSPost2010PropOp49
 70
     1
102
RTVSPost2010Prop50
 90
       50
102
RTVSPost2010PropOp50
 70
     1
102
RTVSPost2010Prop51ColorIndex
 90
      256
102
RTVSPost2010Prop51ColorRGB
 90
-16777216
102
RTVSPost2010PropOp51
 70
     0
102
RTVSPost2010Prop52
140
1.0
102
RTVSPost2010PropOp52
 70
     0
102
RTVSPost2010Prop53
 90
        2
102
RTVSPost2010PropOp53
 70
     1
102
RTVSPost2010Prop54
  1
strokes_ogs.tif
102
RTVSPost2010PropOp54
 70
     1
102
RTVSPost2010Prop55
280
     0
102
RTVSPost2010PropOp55
 70
     1
102
RTVSPost2010Prop56
140
1.0
102
RTVSPost2010PropOp56
 70
     1
102
RTVSPost2010Prop57
140
1.0
102
RTVSPost2010PropOp57
 70
     1
102
RTVSPropertyOp0
 70
     1
102
RTVSPropertyOp1
 70
     1
102
RTVSPropertyOp2
 70
     1
102
RTVSPropertyOp3
 70
     1
102
RTVSPropertyOp4
 70
     1
102
RTVSPropertyOp5
 70
     1
102
RTVSPropertyOp6
 70
     1
102
RTVSPropertyOp7
 70
     1
102
RTVSPropertyOp8
 70
     1
102
RTVSPropertyOp9
 70
     1
102
RTVSPropertyOp10
 70
     1
102
RTVSPropertyOp11
 70
     1
102
RTVSPropertyOp12
 70
     1
102
RTVSPropertyOp13
 70
     1
102
RTVSPropertyOp14
 70
     1
102
RTVSPropertyOp15
 70
     1
102
RTVSPropertyOp16
 70
     1
102
RTVSPropertyOp17
 70
     1
102
RTVSPropertyOp18
 70
     1
102
RTVSPropertyOp19
 70
     1
102
RTVSPropertyOp20
 70
     1
102
RTVSPropertyOp21
 70
     1
102
RTVSPropertyOp22
 70
     1
102
RTVSPropertyOp23
 70
     1
102
RTVSPropertyOp24
 70
     1
102
RTVSPropertyOp25
 70
     1
102
RTVSPropertyOp26
 70
     1
102
RTVSPropertyOp27
 70
     1
102
RTVSPropertyOp28
 70
     1
102
RTVSPropertyOp29
 70
     1
102
RTVSPropertyOp30
 70
     1
102
RTVSPropertyOp31
 70
     1
102
RTVSPropertyOp32
 70
     1
102
RTVSPropertyOp33
 70
     1
102
RTVSPropertyOp34
 70
     1
102
RTVSPropertyOp35
 70
     1
102
RTVSPropertyOp36
 70
     1
102
RTVSPropertyOp37
 70
     1
102
RTVSPropertyOp38
 70
     1
102
RTVSPropertyOp39
 70
     1
102
RTVSPropertyOp40
 70
     1
102
RTVSPropertyOp41
 70
     1
102
RTVSPropertyOp42
 70
     1
102
RTVSPropertyOp43
 70
     1
102
RTVSPropertyOp44
 70
     1
102
RTVSPropertyOp45
 70
     1
102
RTVSPropertyOp46
 70
     1
102
RTVSPropertyOp47
 70
     1
102
RTVSPropertyOp48
 70
     1
102
RTVSPropertyOp49
 70
     1
102
RTVSPropertyOp50
 70
     1
102
RTVSPropertyOp51
 70
     0
102
RTVSPropertyOp52
 70
     0
102
RTVSPropertyOp53
 70
     1
102
RTVSPropertyOp54
 70
     1
102
RTVSPropertyOp55
 70
     1
102
RTVSPropertyOp56
 70
     1
102
RTVSPropertyOp57
 70
     1
102
RTVSPropertyOp58
 70
     1
102
RTVSPropertyOp59
 70
     1
102
RTVSPropertyOp60
 70
     1
102
RTVSPropertyOp61
 70
     1
102
RTVSPropertyOp62
 70
     1
  0
XRECORD
  5
4B9
102
{ACAD_REACTORS
330
4B8
102
}
330
4B8
100
AcDbXrecord
280
     1
102
RTVSPost2010Prop28
280
     0
102
RTVSPost2010PropOp28
 70
     1
102
RTVSPost2010Prop29
280
     1
102
RTVSPost2010PropOp29
 70
     1
102
RTVSPost2010Prop30
280
     1
102
RTVSPost2010PropOp30
 70
     1
102
RTVSPost2010Prop31
280
     0
102
RTVSPost2010PropOp31
 70
     1
102
RTVSPost2010Prop32
280
     0
102
RTVSPost2010PropOp32
 70
     1
102
RTVSPost2010Prop33
280
     0
102
RTVSPost2010PropOp33
 70
     1
102
RTVSPost2010Prop34
280
     0
102
RTVSPost2010PropOp34
 70
     1
102
RTVSPost2010Prop35
280
     0
102
RTVSPost2010PropOp35
 70
     1
102
RTVSPost2010Prop36
280
     0
102
RTVSPost2010PropOp36
 70
     1
102
RTVSPost2010Prop37
 90
       50
102
RTVSPost2010PropOp37
 70
     1
102
RTVSPost2010Prop38
140
0.0
102
RTVSPost2010PropOp38
 70
     1
102
RTVSPost2010Prop39
140
1.0
102
RTVSPost2010PropOp39
 70
     1
102
RTVSPost2010Prop40
 90
        0
102
RTVSPost2010PropOp40
 70
     1
102
RTVSPost2010Prop41ColorIndex
 90
       18
102
RTVSPost2010Prop41ColorRGB
 90
        0
102
RTVSPost2010PropOp41
 70
     1
102
RTVSPost2010Prop42
 90
       50
102
RTVSPost2010PropOp42
 70
     1
102
RTVSPost2010Prop43
 90
        3
102
RTVSPost2010PropOp43
 70
     1
102
RTVSPost2010Prop44ColorIndex
 90
        5
102
RTVSPost2010Prop44ColorRGB
 90
      255
102
RTVSPost2010PropOp44
 70
     1
102
RTVSPost2010Prop45
280
     0
102
RTVSPost2010PropOp45
 70
     1
102
RTVSPost2010Prop46
 90
       50
102
RTVSPost2010PropOp46
 70
     1
102
RTVSPost2010Prop47
 90
       50
102
RTVSPost2010PropOp47
 70
     1
102
RTVSPost2010Prop48
 90
       50
102
RTVSPost2010PropOp48
 70
     1
102
RTVSPost2010Prop49
280
     0
102
RTVSPost2010PropOp49
 70
     1
102
RTVSPost2010Prop50
 90
       50
102
RTVSPost2010PropOp50
 70
     1
102
RTVSPost2010Prop51ColorIndex
 90
      256
102
RTVSPost2010Prop51ColorRGB
 90
-16777216
102
RTVSPost2010PropOp51
 70
     0
102
RTVSPost2010Prop52
140
1.0
102
RTVSPost2010PropOp52
 70
     0
102
RTVSPost2010Prop53
 90
        2
102
RTVSPost2010PropOp53
 70
     1
102
RTVSPost2010Prop54
  1
strokes_ogs.tif
102
RTVSPost2010PropOp54
 70
     1
102
RTVSPost2010Prop55
280
     0
102
RTVSPost2010PropOp55
 70
     1
102
RTVSPost2010Prop56
140
1.0
102
RTVSPost2010PropOp56
 70
     1
102
RTVSPost2010Prop57
140
1.0
102
RTVSPost2010PropOp57
 70
     1
102
RTVSPropertyOp0
 70
     1
102
RTVSPropertyOp1
 70
     1
102
RTVSPropertyOp2
 70
     1
102
RTVSPropertyOp3
 70
     1
102
RTVSPropertyOp4
 70
     1
102
RTVSPropertyOp5
 70
     1
102
RTVSPropertyOp6
 70
     1
102
RTVSPropertyOp7
 70
     1
102
RTVSPropertyOp8
 70
     1
102
RTVSPropertyOp9
 70
     1
102
RTVSPropertyOp10
 70
     1
102
RTVSPropertyOp11
 70
     1
102
RTVSPropertyOp12
 70
     1
102
RTVSPropertyOp13
 70
     1
102
RTVSPropertyOp14
 70
     1
102
RTVSPropertyOp15
 70
     1
102
RTVSPropertyOp16
 70
     1
102
RTVSPropertyOp17
 70
     1
102
RTVSPropertyOp18
 70
     1
102
RTVSPropertyOp19
 70
     1
102
RTVSPropertyOp20
 70
     1
102
RTVSPropertyOp21
 70
     1
102
RTVSPropertyOp22
 70
     1
102
RTVSPropertyOp23
 70
     1
102
RTVSPropertyOp24
 70
     1
102
RTVSPropertyOp25
 70
     1
102
RTVSPropertyOp26
 70
     1
102
RTVSPropertyOp27
 70
     1
102
RTVSPropertyOp28
 70
     1
102
RTVSPropertyOp29
 70
     1
102
RTVSPropertyOp30
 70
     1
102
RTVSPropertyOp31
 70
     1
102
RTVSPropertyOp32
 70
     1
102
RTVSPropertyOp33
 70
     1
102
RTVSPropertyOp34
 70
     1
102
RTVSPropertyOp35
 70
     1
102
RTVSPropertyOp36
 70
     1
102
RTVSPropertyOp37
 70
     1
102
RTVSPropertyOp38
 70
     1
102
RTVSPropertyOp39
 70
     1
102
RTVSPropertyOp40
 70
     1
102
RTVSPropertyOp41
 70
     1
102
RTVSPropertyOp42
 70
     1
102
RTVSPropertyOp43
 70
     1
102
RTVSPropertyOp44
 70
     1
102
RTVSPropertyOp45
 70
     1
102
RTVSPropertyOp46
 70
     1
102
RTVSPropertyOp47
 70
     1
102
RTVSPropertyOp48
 70
     1
102
RTVSPropertyOp49
 70
     1
102
RTVSPropertyOp50
 70
     1
102
RTVSPropertyOp51
 70
     0
102
RTVSPropertyOp52
 70
     0
102
RTVSPropertyOp53
 70
     1
102
RTVSPropertyOp54
 70
     1
102
RTVSPropertyOp55
 70
     1
102
RTVSPropertyOp56
 70
     1
102
RTVSPropertyOp57
 70
     1
102
RTVSPropertyOp58
 70
     1
102
RTVSPropertyOp59
 70
     1
102
RTVSPropertyOp60
 70
     1
102
RTVSPropertyOp61
 70
     1
102
RTVSPropertyOp62
 70
     1
  0
XRECORD
  5
4BD
102
{ACAD_REACTORS
330
4BC
102
}
330
4BC
100
AcDbXrecord
280
     1
102
RTVSPost2010Prop28
280
     0
102
RTVSPost2010PropOp28
 70
     1
102
RTVSPost2010Prop29
280
     1
102
RTVSPost2010PropOp29
 70
     1
102
RTVSPost2010Prop30
280
     1
102
RTVSPost2010PropOp30
 70
     1
102
RTVSPost2010Prop31
280
     0
102
RTVSPost2010PropOp31
 70
     1
102
RTVSPost2010Prop32
280
     0
102
RTVSPost2010PropOp32
 70
     1
102
RTVSPost2010Prop33
280
     0
102
RTVSPost2010PropOp33
 70
     1
102
RTVSPost2010Prop34
280
     0
102
RTVSPost2010PropOp34
 70
     1
102
RTVSPost2010Prop35
280
     0
102
RTVSPost2010PropOp35
 70
     1
102
RTVSPost2010Prop36
280
     0
102
RTVSPost2010PropOp36
 70
     1
102
RTVSPost2010Prop37
 90
       50
102
RTVSPost2010PropOp37
 70
     1
102
RTVSPost2010Prop38
140
0.0
102
RTVSPost2010PropOp38
 70
     1
102
RTVSPost2010Prop39
140
1.0
102
RTVSPost2010PropOp39
 70
     1
102
RTVSPost2010Prop40
 90
        0
102
RTVSPost2010PropOp40
 70
     1
102
RTVSPost2010Prop41ColorIndex
 90
       18
102
RTVSPost2010Prop41ColorRGB
 90
        0
102
RTVSPost2010PropOp41
 70
     1
102
RTVSPost2010Prop42
 90
       50
102
RTVSPost2010PropOp42
 70
     1
102
RTVSPost2010Prop43
 90
        3
102
RTVSPost2010PropOp43
 70
     1
102
RTVSPost2010Prop44ColorIndex
 90
        5
102
RTVSPost2010Prop44ColorRGB
 90
      255
102
RTVSPost2010PropOp44
 70
     1
102
RTVSPost2010Prop45
280
     0
102
RTVSPost2010PropOp45
 70
     1
102
RTVSPost2010Prop46
 90
       50
102
RTVSPost2010PropOp46
 70
     1
102
RTVSPost2010Prop47
 90
       50
102
RTVSPost2010PropOp47
 70
     1
102
RTVSPost2010Prop48
 90
       50
102
RTVSPost2010PropOp48
 70
     1
102
RTVSPost2010Prop49
280
     0
102
RTVSPost2010PropOp49
 70
     1
102
RTVSPost2010Prop50
 90
       50
102
RTVSPost2010PropOp50
 70
     1
102
RTVSPost2010Prop51ColorIndex
 90
      256
102
RTVSPost2010Prop51ColorRGB
 90
-16777216
102
RTVSPost2010PropOp51
 70
     0
102
RTVSPost2010Prop52
140
1.0
102
RTVSPost2010PropOp52
 70
     0
102
RTVSPost2010Prop53
 90
        2
102
RTVSPost2010PropOp53
 70
     1
102
RTVSPost2010Prop54
  1
strokes_ogs.tif
102
RTVSPost2010PropOp54
 70
     1
102
RTVSPost2010Prop55
280
     0
102
RTVSPost2010PropOp55
 70
     1
102
RTVSPost2010Prop56
140
1.0
102
RTVSPost2010PropOp56
 70
     1
102
RTVSPost2010Prop57
140
1.0
102
RTVSPost2010PropOp57
 70
     1
102
RTVSPropertyOp0
 70
     1
102
RTVSPropertyOp1
 70
     1
102
RTVSPropertyOp2
 70
     1
102
RTVSPropertyOp3
 70
     1
102
RTVSPropertyOp4
 70
     1
102
RTVSPropertyOp5
 70
     1
102
RTVSPropertyOp6
 70
     1
102
RTVSPropertyOp7
 70
     1
102
RTVSPropertyOp8
 70
     1
102
RTVSPropertyOp9
 70
     1
102
RTVSPropertyOp10
 70
     1
102
RTVSPropertyOp11
 70
     1
102
RTVSPropertyOp12
 70
     1
102
RTVSPropertyOp13
 70
     1
102
RTVSPropertyOp14
 70
     1
102
RTVSPropertyOp15
 70
     1
102
RTVSPropertyOp16
 70
     1
102
RTVSPropertyOp17
 70
     1
102
RTVSPropertyOp18
 70
     1
102
RTVSPropertyOp19
 70
     1
102
RTVSPropertyOp20
 70
     1
102
RTVSPropertyOp21
 70
     1
102
RTVSPropertyOp22
 70
     1
102
RTVSPropertyOp23
 70
     1
102
RTVSPropertyOp24
 70
     1
102
RTVSPropertyOp25
 70
     1
102
RTVSPropertyOp26
 70
     1
102
RTVSPropertyOp27
 70
     1
102
RTVSPropertyOp28
 70
     1
102
RTVSPropertyOp29
 70
     1
102
RTVSPropertyOp30
 70
     1
102
RTVSPropertyOp31
 70
     1
102
RTVSPropertyOp32
 70
     1
102
RTVSPropertyOp33
 70
     1
102
RTVSPropertyOp34
 70
     1
102
RTVSPropertyOp35
 70
     1
102
RTVSPropertyOp36
 70
     1
102
RTVSPropertyOp37
 70
     1
102
RTVSPropertyOp38
 70
     1
102
RTVSPropertyOp39
 70
     1
102
RTVSPropertyOp40
 70
     1
102
RTVSPropertyOp41
 70
     1
102
RTVSPropertyOp42
 70
     1
102
RTVSPropertyOp43
 70
     1
102
RTVSPropertyOp44
 70
     1
102
RTVSPropertyOp45
 70
     1
102
RTVSPropertyOp46
 70
     1
102
RTVSPropertyOp47
 70
     1
102
RTVSPropertyOp48
 70
     1
102
RTVSPropertyOp49
 70
     1
102
RTVSPropertyOp50
 70
     1
102
RTVSPropertyOp51
 70
     0
102
RTVSPropertyOp52
 70
     0
102
RTVSPropertyOp53
 70
     1
102
RTVSPropertyOp54
 70
     1
102
RTVSPropertyOp55
 70
     1
102
RTVSPropertyOp56
 70
     1
102
RTVSPropertyOp57
 70
     1
102
RTVSPropertyOp58
 70
     1
102
RTVSPropertyOp59
 70
     1
102
RTVSPropertyOp60
 70
     1
102
RTVSPropertyOp61
 70
     1
102
RTVSPropertyOp62
 70
     1
  0
XRECORD
  5
4D7
102
{ACAD_REACTORS
330
4D6
102
}
330
4D6
100
AcDbXrecord
280
     1
102
RTVSPost2010Prop28
280
     0
102
RTVSPost2010PropOp28
 70
     1
102
RTVSPost2010Prop29
280
     1
102
RTVSPost2010PropOp29
 70
     1
102
RTVSPost2010Prop30
280
     1
102
RTVSPost2010PropOp30
 70
     1
102
RTVSPost2010Prop31
280
     0
102
RTVSPost2010PropOp31
 70
     1
102
RTVSPost2010Prop32
280
     0
102
RTVSPost2010PropOp32
 70
     1
102
RTVSPost2010Prop33
280
     0
102
RTVSPost2010PropOp33
 70
     1
102
RTVSPost2010Prop34
280
     0
102
RTVSPost2010PropOp34
 70
     1
102
RTVSPost2010Prop35
280
     0
102
RTVSPost2010PropOp35
 70
     1
102
RTVSPost2010Prop36
280
     0
102
RTVSPost2010PropOp36
 70
     1
102
RTVSPost2010Prop37
 90
       50
102
RTVSPost2010PropOp37
 70
     0
102
RTVSPost2010Prop38
140
0.0
102
RTVSPost2010PropOp38
 70
     0
102
RTVSPost2010Prop39
140
1.0
102
RTVSPost2010PropOp39
 70
     0
102
RTVSPost2010Prop40
 90
        0
102
RTVSPost2010PropOp40
 70
     0
102
RTVSPost2010Prop41ColorIndex
 90
       18
102
RTVSPost2010Prop41ColorRGB
 90
        0
102
RTVSPost2010PropOp41
 70
     0
102
RTVSPost2010Prop42
 90
       50
102
RTVSPost2010PropOp42
 70
     0
102
RTVSPost2010Prop43
 90
        3
102
RTVSPost2010PropOp43
 70
     0
102
RTVSPost2010Prop44ColorIndex
 90
        5
102
RTVSPost2010Prop44ColorRGB
 90
      255
102
RTVSPost2010PropOp44
 70
     0
102
RTVSPost2010Prop45
280
     0
102
RTVSPost2010PropOp45
 70
     1
102
RTVSPost2010Prop46
 90
       50
102
RTVSPost2010PropOp46
 70
     0
102
RTVSPost2010Prop47
 90
       50
102
RTVSPost2010PropOp47
 70
     0
102
RTVSPost2010Prop48
 90
       50
102
RTVSPost2010PropOp48
 70
     0
102
RTVSPost2010Prop49
280
     0
102
RTVSPost2010PropOp49
 70
     1
102
RTVSPost2010Prop50
 90
       50
102
RTVSPost2010PropOp50
 70
     0
102
RTVSPost2010Prop51ColorIndex
 90
      256
102
RTVSPost2010Prop51ColorRGB
 90
-16777216
102
RTVSPost2010PropOp51
 70
     0
102
RTVSPost2010Prop52
140
1.0
102
RTVSPost2010PropOp52
 70
     0
102
RTVSPost2010Prop53
 90
        2
102
RTVSPost2010PropOp53
 70
     0
102
RTVSPost2010Prop54
  1
strokes_ogs.tif
102
RTVSPost2010PropOp54
 70
     0
102
RTVSPost2010Prop55
280
     0
102
RTVSPost2010PropOp55
 70
     1
102
RTVSPost2010Prop56
140
1.0
102
RTVSPost2010PropOp56
 70
     0
102
RTVSPost2010Prop57
140
1.0
102
RTVSPost2010PropOp57
 70
     0
102
RTVSPropertyOp0
 70
     0
102
RTVSPropertyOp1
 70
     0
102
RTVSPropertyOp2
 70
     0
102
RTVSPropertyOp3
 70
     0
102
RTVSPropertyOp4
 70
     0
102
RTVSPropertyOp5
 70
     0
102
RTVSPropertyOp6
 70
     0
102
RTVSPropertyOp7
 70
     0
102
RTVSPropertyOp8
 70
     0
102
RTVSPropertyOp9
 70
     0
102
RTVSPropertyOp10
 70
     0
102
RTVSPropertyOp11
 70
     0
102
RTVSPropertyOp12
 70
     0
102
RTVSPropertyOp13
 70
     0
102
RTVSPropertyOp14
 70
     2
102
RTVSPropertyOp15
 70
     0
102
RTVSPropertyOp16
 70
     0
102
RTVSPropertyOp17
 70
     0
102
RTVSPropertyOp18
 70
     0
102
RTVSPropertyOp19
 70
     0
102
RTVSPropertyOp20
 70
     0
102
RTVSPropertyOp21
 70
     0
102
RTVSPropertyOp22
 70
     0
102
RTVSPropertyOp23
 70
     0
102
RTVSPropertyOp24
 70
     0
102
RTVSPropertyOp25
 70
     0
102
RTVSPropertyOp26
 70
     0
102
RTVSPropertyOp27
 70
     0
102
RTVSPropertyOp28
 70
     1
102
RTVSPropertyOp29
 70
     1
102
RTVSPropertyOp30
 70
     1
102
RTVSPropertyOp31
 70
     1
102
RTVSPropertyOp32
 70
     1
102
RTVSPropertyOp33
 70
     1
102
RTVSPropertyOp34
 70
     1
102
RTVSPropertyOp35
 70
     1
102
RTVSPropertyOp36
 70
     1
102
RTVSPropertyOp37
 70
     0
102
RTVSPropertyOp38
 70
     0
102
RTVSPropertyOp39
 70
     0
102
RTVSPropertyOp40
 70
     0
102
RTVSPropertyOp41
 70
     0
102
RTVSPropertyOp42
 70
     0
102
RTVSPropertyOp43
 70
     0
102
RTVSPropertyOp44
 70
     0
102
RTVSPropertyOp45
 70
     1
102
RTVSPropertyOp46
 70
     0
102
RTVSPropertyOp47
 70
     0
102
RTVSPropertyOp48
 70
     0
102
RTVSPropertyOp49
 70
     1
102
RTVSPropertyOp50
 70
     0
102
RTVSPropertyOp51
 70
     0
102
RTVSPropertyOp52
 70
     0
102
RTVSPropertyOp53
 70
     0
102
RTVSPropertyOp54
 70
     0
102
RTVSPropertyOp55
 70
     1
102
RTVSPropertyOp56
 70
     0
102
RTVSPropertyOp57
 70
     0
102
RTVSPropertyOp58
 70
     0
102
RTVSPropertyOp59
 70
     0
102
RTVSPropertyOp60
 70
     0
102
RTVSPropertyOp61
 70
     0
102
RTVSPropertyOp62
 70
     0
  0
XRECORD
  5
4C5
102
{ACAD_REACTORS
330
4C4
102
}
330
4C4
100
AcDbXrecord
280
     1
102
RTVSPost2010Prop28
280
     0
102
RTVSPost2010PropOp28
 70
     1
102
RTVSPost2010Prop29
280
     1
102
RTVSPost2010PropOp29
 70
     1
102
RTVSPost2010Prop30
280
     1
102
RTVSPost2010PropOp30
 70
     1
102
RTVSPost2010Prop31
280
     0
102
RTVSPost2010PropOp31
 70
     1
102
RTVSPost2010Prop32
280
     0
102
RTVSPost2010PropOp32
 70
     1
102
RTVSPost2010Prop33
280
     0
102
RTVSPost2010PropOp33
 70
     1
102
RTVSPost2010Prop34
280
     0
102
RTVSPost2010PropOp34
 70
     1
102
RTVSPost2010Prop35
280
     0
102
RTVSPost2010PropOp35
 70
     1
102
RTVSPost2010Prop36
280
     0
102
RTVSPost2010PropOp36
 70
     1
102
RTVSPost2010Prop37
 90
       50
102
RTVSPost2010PropOp37
 70
     1
102
RTVSPost2010Prop38
140
0.0
102
RTVSPost2010PropOp38
 70
     1
102
RTVSPost2010Prop39
140
1.0
102
RTVSPost2010PropOp39
 70
     1
102
RTVSPost2010Prop40
 90
        0
102
RTVSPost2010PropOp40
 70
     1
102
RTVSPost2010Prop41ColorIndex
 90
       18
102
RTVSPost2010Prop41ColorRGB
 90
        0
102
RTVSPost2010PropOp41
 70
     1
102
RTVSPost2010Prop42
 90
       50
102
RTVSPost2010PropOp42
 70
     1
102
RTVSPost2010Prop43
 90
        3
102
RTVSPost2010PropOp43
 70
     1
102
RTVSPost2010Prop44ColorIndex
 90
        5
102
RTVSPost2010Prop44ColorRGB
 90
      255
102
RTVSPost2010PropOp44
 70
     1
102
RTVSPost2010Prop45
280
     0
102
RTVSPost2010PropOp45
 70
     1
102
RTVSPost2010Prop46
 90
       50
102
RTVSPost2010PropOp46
 70
     1
102
RTVSPost2010Prop47
 90
       50
102
RTVSPost2010PropOp47
 70
     1
102
RTVSPost2010Prop48
 90
       50
102
RTVSPost2010PropOp48
 70
     1
102
RTVSPost2010Prop49
280
     0
102
RTVSPost2010PropOp49
 70
     1
102
RTVSPost2010Prop50
 90
       50
102
RTVSPost2010PropOp50
 70
     1
102
RTVSPost2010Prop51ColorIndex
 90
      256
102
RTVSPost2010Prop51ColorRGB
 90
-16777216
102
RTVSPost2010PropOp51
 70
     0
102
RTVSPost2010Prop52
140
1.0
102
RTVSPost2010PropOp52
 70
     0
102
RTVSPost2010Prop53
 90
        2
102
RTVSPost2010PropOp53
 70
     1
102
RTVSPost2010Prop54
  1
strokes_ogs.tif
102
RTVSPost2010PropOp54
 70
     1
102
RTVSPost2010Prop55
280
     0
102
RTVSPost2010PropOp55
 70
     1
102
RTVSPost2010Prop56
140
1.0
102
RTVSPost2010PropOp56
 70
     1
102
RTVSPost2010Prop57
140
1.0
102
RTVSPost2010PropOp57
 70
     1
102
RTVSPropertyOp0
 70
     1
102
RTVSPropertyOp1
 70
     1
102
RTVSPropertyOp2
 70
     1
102
RTVSPropertyOp3
 70
     1
102
RTVSPropertyOp4
 70
     1
102
RTVSPropertyOp5
 70
     1
102
RTVSPropertyOp6
 70
     1
102
RTVSPropertyOp7
 70
     1
102
RTVSPropertyOp8
 70
     1
102
RTVSPropertyOp9
 70
     1
102
RTVSPropertyOp10
 70
     1
102
RTVSPropertyOp11
 70
     1
102
RTVSPropertyOp12
 70
     1
102
RTVSPropertyOp13
 70
     1
102
RTVSPropertyOp14
 70
     1
102
RTVSPropertyOp15
 70
     1
102
RTVSPropertyOp16
 70
     1
102
RTVSPropertyOp17
 70
     1
102
RTVSPropertyOp18
 70
     1
102
RTVSPropertyOp19
 70
     1
102
RTVSPropertyOp20
 70
     1
102
RTVSPropertyOp21
 70
     1
102
RTVSPropertyOp22
 70
     1
102
RTVSPropertyOp23
 70
     1
102
RTVSPropertyOp24
 70
     1
102
RTVSPropertyOp25
 70
     1
102
RTVSPropertyOp26
 70
     1
102
RTVSPropertyOp27
 70
     1
102
RTVSPropertyOp28
 70
     1
102
RTVSPropertyOp29
 70
     1
102
RTVSPropertyOp30
 70
     1
102
RTVSPropertyOp31
 70
     1
102
RTVSPropertyOp32
 70
     1
102
RTVSPropertyOp33
 70
     1
102
RTVSPropertyOp34
 70
     1
102
RTVSPropertyOp35
 70
     1
102
RTVSPropertyOp36
 70
     1
102
RTVSPropertyOp37
 70
     1
102
RTVSPropertyOp38
 70
     1
102
RTVSPropertyOp39
 70
     1
102
RTVSPropertyOp40
 70
     1
102
RTVSPropertyOp41
 70
     1
102
RTVSPropertyOp42
 70
     1
102
RTVSPropertyOp43
 70
     1
102
RTVSPropertyOp44
 70
     1
102
RTVSPropertyOp45
 70
     1
102
RTVSPropertyOp46
 70
     1
102
RTVSPropertyOp47
 70
     1
102
RTVSPropertyOp48
 70
     1
102
RTVSPropertyOp49
 70
     1
102
RTVSPropertyOp50
 70
     1
102
RTVSPropertyOp51
 70
     0
102
RTVSPropertyOp52
 70
     0
102
RTVSPropertyOp53
 70
     1
102
RTVSPropertyOp54
 70
     1
102
RTVSPropertyOp55
 70
     1
102
RTVSPropertyOp56
 70
     1
102
RTVSPropertyOp57
 70
     1
102
RTVSPropertyOp58
 70
     1
102
RTVSPropertyOp59
 70
     1
102
RTVSPropertyOp60
 70
     1
102
RTVSPropertyOp61
 70
     1
102
RTVSPropertyOp62
 70
     1
  0
XRECORD
  5
4A9
102
{ACAD_REACTORS
330
4A8
102
}
330
4A8
100
AcDbXrecord
280
     1
102
RTVSPost2010Prop28
280
     0
102
RTVSPost2010PropOp28
 70
     1
102
RTVSPost2010Prop29
280
     1
102
RTVSPost2010PropOp29
 70
     1
102
RTVSPost2010Prop30
280
     1
102
RTVSPost2010PropOp30
 70
     1
102
RTVSPost2010Prop31
280
     0
102
RTVSPost2010PropOp31
 70
     1
102
RTVSPost2010Prop32
280
     0
102
RTVSPost2010PropOp32
 70
     1
102
RTVSPost2010Prop33
280
     0
102
RTVSPost2010PropOp33
 70
     1
102
RTVSPost2010Prop34
280
     0
102
RTVSPost2010PropOp34
 70
     1
102
RTVSPost2010Prop35
280
     0
102
RTVSPost2010PropOp35
 70
     1
102
RTVSPost2010Prop36
280
     0
102
RTVSPost2010PropOp36
 70
     1
102
RTVSPost2010Prop37
 90
       50
102
RTVSPost2010PropOp37
 70
     1
102
RTVSPost2010Prop38
140
0.0
102
RTVSPost2010PropOp38
 70
     1
102
RTVSPost2010Prop39
140
1.0
102
RTVSPost2010PropOp39
 70
     1
102
RTVSPost2010Prop40
 90
        0
102
RTVSPost2010PropOp40
 70
     1
102
RTVSPost2010Prop41ColorIndex
 90
       18
102
RTVSPost2010Prop41ColorRGB
 90
        0
102
RTVSPost2010PropOp41
 70
     1
102
RTVSPost2010Prop42
 90
       50
102
RTVSPost2010PropOp42
 70
     1
102
RTVSPost2010Prop43
 90
        3
102
RTVSPost2010PropOp43
 70
     1
102
RTVSPost2010Prop44ColorIndex
 90
        5
102
RTVSPost2010Prop44ColorRGB
 90
      255
102
RTVSPost2010PropOp44
 70
     1
102
RTVSPost2010Prop45
280
     0
102
RTVSPost2010PropOp45
 70
     1
102
RTVSPost2010Prop46
 90
       50
102
RTVSPost2010PropOp46
 70
     1
102
RTVSPost2010Prop47
 90
       50
102
RTVSPost2010PropOp47
 70
     1
102
RTVSPost2010Prop48
 90
       50
102
RTVSPost2010PropOp48
 70
     1
102
RTVSPost2010Prop49
280
     0
102
RTVSPost2010PropOp49
 70
     1
102
RTVSPost2010Prop50
 90
       50
102
RTVSPost2010PropOp50
 70
     1
102
RTVSPost2010Prop51ColorIndex
 90
      256
102
RTVSPost2010Prop51ColorRGB
 90
-16777216
102
RTVSPost2010PropOp51
 70
     0
102
RTVSPost2010Prop52
140
1.0
102
RTVSPost2010PropOp52
 70
     0
102
RTVSPost2010Prop53
 90
        2
102
RTVSPost2010PropOp53
 70
     1
102
RTVSPost2010Prop54
  1
strokes_ogs.tif
102
RTVSPost2010PropOp54
 70
     1
102
RTVSPost2010Prop55
280
     0
102
RTVSPost2010PropOp55
 70
     1
102
RTVSPost2010Prop56
140
1.0
102
RTVSPost2010PropOp56
 70
     1
102
RTVSPost2010Prop57
140
1.0
102
RTVSPost2010PropOp57
 70
     1
102
RTVSPropertyOp0
 70
     1
102
RTVSPropertyOp1
 70
     1
102
RTVSPropertyOp2
 70
     1
102
RTVSPropertyOp3
 70
     1
102
RTVSPropertyOp4
 70
     1
102
RTVSPropertyOp5
 70
     1
102
RTVSPropertyOp6
 70
     1
102
RTVSPropertyOp7
 70
     1
102
RTVSPropertyOp8
 70
     1
102
RTVSPropertyOp9
 70
     1
102
RTVSPropertyOp10
 70
     1
102
RTVSPropertyOp11
 70
     1
102
RTVSPropertyOp12
 70
     1
102
RTVSPropertyOp13
 70
     1
102
RTVSPropertyOp14
 70
     1
102
RTVSPropertyOp15
 70
     1
102
RTVSPropertyOp16
 70
     1
102
RTVSPropertyOp17
 70
     1
102
RTVSPropertyOp18
 70
     1
102
RTVSPropertyOp19
 70
     1
102
RTVSPropertyOp20
 70
     1
102
RTVSPropertyOp21
 70
     1
102
RTVSPropertyOp22
 70
     1
102
RTVSPropertyOp23
 70
     1
102
RTVSPropertyOp24
 70
     1
102
RTVSPropertyOp25
 70
     1
102
RTVSPropertyOp26
 70
     1
102
RTVSPropertyOp27
 70
     1
102
RTVSPropertyOp28
 70
     1
102
RTVSPropertyOp29
 70
     1
102
RTVSPropertyOp30
 70
     1
102
RTVSPropertyOp31
 70
     1
102
RTVSPropertyOp32
 70
     1
102
RTVSPropertyOp33
 70
     1
102
RTVSPropertyOp34
 70
     1
102
RTVSPropertyOp35
 70
     1
102
RTVSPropertyOp36
 70
     1
102
RTVSPropertyOp37
 70
     1
102
RTVSPropertyOp38
 70
     1
102
RTVSPropertyOp39
 70
     1
102
RTVSPropertyOp40
 70
     1
102
RTVSPropertyOp41
 70
     1
102
RTVSPropertyOp42
 70
     1
102
RTVSPropertyOp43
 70
     1
102
RTVSPropertyOp44
 70
     1
102
RTVSPropertyOp45
 70
     1
102
RTVSPropertyOp46
 70
     1
102
RTVSPropertyOp47
 70
     1
102
RTVSPropertyOp48
 70
     1
102
RTVSPropertyOp49
 70
     1
102
RTVSPropertyOp50
 70
     1
102
RTVSPropertyOp51
 70
     0
102
RTVSPropertyOp52
 70
     0
102
RTVSPropertyOp53
 70
     1
102
RTVSPropertyOp54
 70
     1
102
RTVSPropertyOp55
 70
     1
102
RTVSPropertyOp56
 70
     1
102
RTVSPropertyOp57
 70
     1
102
RTVSPropertyOp58
 70
     1
102
RTVSPropertyOp59
 70
     1
102
RTVSPropertyOp60
 70
     1
102
RTVSPropertyOp61
 70
     1
102
RTVSPropertyOp62
 70
     1
  0
XRECORD
  5
4AB
102
{ACAD_REACTORS
330
4AA
102
}
330
4AA
100
AcDbXrecord
280
     1
102
RTVSPost2010Prop28
280
     0
102
RTVSPost2010PropOp28
 70
     1
102
RTVSPost2010Prop29
280
     1
102
RTVSPost2010PropOp29
 70
     1
102
RTVSPost2010Prop30
280
     1
102
RTVSPost2010PropOp30
 70
     1
102
RTVSPost2010Prop31
280
     0
102
RTVSPost2010PropOp31
 70
     1
102
RTVSPost2010Prop32
280
     0
102
RTVSPost2010PropOp32
 70
     1
102
RTVSPost2010Prop33
280
     0
102
RTVSPost2010PropOp33
 70
     1
102
RTVSPost2010Prop34
280
     0
102
RTVSPost2010PropOp34
 70
     1
102
RTVSPost2010Prop35
280
     0
102
RTVSPost2010PropOp35
 70
     1
102
RTVSPost2010Prop36
280
     0
102
RTVSPost2010PropOp36
 70
     1
102
RTVSPost2010Prop37
 90
       50
102
RTVSPost2010PropOp37
 70
     1
102
RTVSPost2010Prop38
140
0.0
102
RTVSPost2010PropOp38
 70
     1
102
RTVSPost2010Prop39
140
1.0
102
RTVSPost2010PropOp39
 70
     1
102
RTVSPost2010Prop40
 90
        0
102
RTVSPost2010PropOp40
 70
     1
102
RTVSPost2010Prop41ColorIndex
 90
       18
102
RTVSPost2010Prop41ColorRGB
 90
        0
102
RTVSPost2010PropOp41
 70
     1
102
RTVSPost2010Prop42
 90
       50
102
RTVSPost2010PropOp42
 70
     1
102
RTVSPost2010Prop43
 90
        3
102
RTVSPost2010PropOp43
 70
     1
102
RTVSPost2010Prop44ColorIndex
 90
        5
102
RTVSPost2010Prop44ColorRGB
 90
      255
102
RTVSPost2010PropOp44
 70
     1
102
RTVSPost2010Prop45
280
     0
102
RTVSPost2010PropOp45
 70
     1
102
RTVSPost2010Prop46
 90
       50
102
RTVSPost2010PropOp46
 70
     1
102
RTVSPost2010Prop47
 90
       50
102
RTVSPost2010PropOp47
 70
     1
102
RTVSPost2010Prop48
 90
       50
102
RTVSPost2010PropOp48
 70
     1
102
RTVSPost2010Prop49
280
     0
102
RTVSPost2010PropOp49
 70
     1
102
RTVSPost2010Prop50
 90
       50
102
RTVSPost2010PropOp50
 70
     1
102
RTVSPost2010Prop51ColorIndex
 90
      256
102
RTVSPost2010Prop51ColorRGB
 90
-16777216
102
RTVSPost2010PropOp51
 70
     0
102
RTVSPost2010Prop52
140
1.0
102
RTVSPost2010PropOp52
 70
     0
102
RTVSPost2010Prop53
 90
        2
102
RTVSPost2010PropOp53
 70
     1
102
RTVSPost2010Prop54
  1
strokes_ogs.tif
102
RTVSPost2010PropOp54
 70
     1
102
RTVSPost2010Prop55
280
     0
102
RTVSPost2010PropOp55
 70
     1
102
RTVSPost2010Prop56
140
1.0
102
RTVSPost2010PropOp56
 70
     1
102
RTVSPost2010Prop57
140
1.0
102
RTVSPost2010PropOp57
 70
     1
102
RTVSPropertyOp0
 70
     1
102
RTVSPropertyOp1
 70
     1
102
RTVSPropertyOp2
 70
     1
102
RTVSPropertyOp3
 70
     1
102
RTVSPropertyOp4
 70
     1
102
RTVSPropertyOp5
 70
     1
102
RTVSPropertyOp6
 70
     1
102
RTVSPropertyOp7
 70
     1
102
RTVSPropertyOp8
 70
     1
102
RTVSPropertyOp9
 70
     1
102
RTVSPropertyOp10
 70
     1
102
RTVSPropertyOp11
 70
     1
102
RTVSPropertyOp12
 70
     1
102
RTVSPropertyOp13
 70
     1
102
RTVSPropertyOp14
 70
     1
102
RTVSPropertyOp15
 70
     1
102
RTVSPropertyOp16
 70
     1
102
RTVSPropertyOp17
 70
     1
102
RTVSPropertyOp18
 70
     1
102
RTVSPropertyOp19
 70
     1
102
RTVSPropertyOp20
 70
     1
102
RTVSPropertyOp21
 70
     1
102
RTVSPropertyOp22
 70
     1
102
RTVSPropertyOp23
 70
     1
102
RTVSPropertyOp24
 70
     1
102
RTVSPropertyOp25
 70
     1
102
RTVSPropertyOp26
 70
     1
102
RTVSPropertyOp27
 70
     1
102
RTVSPropertyOp28
 70
     1
102
RTVSPropertyOp29
 70
     1
102
RTVSPropertyOp30
 70
     1
102
RTVSPropertyOp31
 70
     1
102
RTVSPropertyOp32
 70
     1
102
RTVSPropertyOp33
 70
     1
102
RTVSPropertyOp34
 70
     1
102
RTVSPropertyOp35
 70
     1
102
RTVSPropertyOp36
 70
     1
102
RTVSPropertyOp37
 70
     1
102
RTVSPropertyOp38
 70
     1
102
RTVSPropertyOp39
 70
     1
102
RTVSPropertyOp40
 70
     1
102
RTVSPropertyOp41
 70
     1
102
RTVSPropertyOp42
 70
     1
102
RTVSPropertyOp43
 70
     1
102
RTVSPropertyOp44
 70
     1
102
RTVSPropertyOp45
 70
     1
102
RTVSPropertyOp46
 70
     1
102
RTVSPropertyOp47
 70
     1
102
RTVSPropertyOp48
 70
     1
102
RTVSPropertyOp49
 70
     1
102
RTVSPropertyOp50
 70
     1
102
RTVSPropertyOp51
 70
     0
102
RTVSPropertyOp52
 70
     0
102
RTVSPropertyOp53
 70
     1
102
RTVSPropertyOp54
 70
     1
102
RTVSPropertyOp55
 70
     1
102
RTVSPropertyOp56
 70
     1
102
RTVSPropertyOp57
 70
     1
102
RTVSPropertyOp58
 70
     1
102
RTVSPropertyOp59
 70
     1
102
RTVSPropertyOp60
 70
     1
102
RTVSPropertyOp61
 70
     1
102
RTVSPropertyOp62
 70
     1
  0
XRECORD
  5
4AD
102
{ACAD_REACTORS
330
4AC
102
}
330
4AC
100
AcDbXrecord
280
     1
102
RTVSPost2010Prop28
280
     0
102
RTVSPost2010PropOp28
 70
     1
102
RTVSPost2010Prop29
280
     1
102
RTVSPost2010PropOp29
 70
     1
102
RTVSPost2010Prop30
280
     1
102
RTVSPost2010PropOp30
 70
     1
102
RTVSPost2010Prop31
280
     0
102
RTVSPost2010PropOp31
 70
     1
102
RTVSPost2010Prop32
280
     0
102
RTVSPost2010PropOp32
 70
     1
102
RTVSPost2010Prop33
280
     0
102
RTVSPost2010PropOp33
 70
     1
102
RTVSPost2010Prop34
280
     0
102
RTVSPost2010PropOp34
 70
     1
102
RTVSPost2010Prop35
280
     0
102
RTVSPost2010PropOp35
 70
     1
102
RTVSPost2010Prop36
280
     0
102
RTVSPost2010PropOp36
 70
     1
102
RTVSPost2010Prop37
 90
       50
102
RTVSPost2010PropOp37
 70
     1
102
RTVSPost2010Prop38
140
0.0
102
RTVSPost2010PropOp38
 70
     1
102
RTVSPost2010Prop39
140
1.0
102
RTVSPost2010PropOp39
 70
     1
102
RTVSPost2010Prop40
 90
        0
102
RTVSPost2010PropOp40
 70
     1
102
RTVSPost2010Prop41ColorIndex
 90
       18
102
RTVSPost2010Prop41ColorRGB
 90
        0
102
RTVSPost2010PropOp41
 70
     1
102
RTVSPost2010Prop42
 90
       50
102
RTVSPost2010PropOp42
 70
     1
102
RTVSPost2010Prop43
 90
        3
102
RTVSPost2010PropOp43
 70
     1
102
RTVSPost2010Prop44ColorIndex
 90
        5
102
RTVSPost2010Prop44ColorRGB
 90
      255
102
RTVSPost2010PropOp44
 70
     1
102
RTVSPost2010Prop45
280
     0
102
RTVSPost2010PropOp45
 70
     1
102
RTVSPost2010Prop46
 90
       50
102
RTVSPost2010PropOp46
 70
     1
102
RTVSPost2010Prop47
 90
       50
102
RTVSPost2010PropOp47
 70
     1
102
RTVSPost2010Prop48
 90
       50
102
RTVSPost2010PropOp48
 70
     1
102
RTVSPost2010Prop49
280
     0
102
RTVSPost2010PropOp49
 70
     1
102
RTVSPost2010Prop50
 90
       50
102
RTVSPost2010PropOp50
 70
     1
102
RTVSPost2010Prop51ColorIndex
 90
      256
102
RTVSPost2010Prop51ColorRGB
 90
-16777216
102
RTVSPost2010PropOp51
 70
     0
102
RTVSPost2010Prop52
140
1.0
102
RTVSPost2010PropOp52
 70
     0
102
RTVSPost2010Prop53
 90
        2
102
RTVSPost2010PropOp53
 70
     1
102
RTVSPost2010Prop54
  1
strokes_ogs.tif
102
RTVSPost2010PropOp54
 70
     1
102
RTVSPost2010Prop55
280
     0
102
RTVSPost2010PropOp55
 70
     1
102
RTVSPost2010Prop56
140
1.0
102
RTVSPost2010PropOp56
 70
     1
102
RTVSPost2010Prop57
140
1.0
102
RTVSPost2010PropOp57
 70
     1
102
RTVSPropertyOp0
 70
     1
102
RTVSPropertyOp1
 70
     1
102
RTVSPropertyOp2
 70
     1
102
RTVSPropertyOp3
 70
     1
102
RTVSPropertyOp4
 70
     1
102
RTVSPropertyOp5
 70
     1
102
RTVSPropertyOp6
 70
     1
102
RTVSPropertyOp7
 70
     1
102
RTVSPropertyOp8
 70
     1
102
RTVSPropertyOp9
 70
     1
102
RTVSPropertyOp10
 70
     1
102
RTVSPropertyOp11
 70
     1
102
RTVSPropertyOp12
 70
     1
102
RTVSPropertyOp13
 70
     1
102
RTVSPropertyOp14
 70
     1
102
RTVSPropertyOp15
 70
     1
102
RTVSPropertyOp16
 70
     1
102
RTVSPropertyOp17
 70
     1
102
RTVSPropertyOp18
 70
     1
102
RTVSPropertyOp19
 70
     1
102
RTVSPropertyOp20
 70
     1
102
RTVSPropertyOp21
 70
     1
102
RTVSPropertyOp22
 70
     1
102
RTVSPropertyOp23
 70
     1
102
RTVSPropertyOp24
 70
     1
102
RTVSPropertyOp25
 70
     1
102
RTVSPropertyOp26
 70
     1
102
RTVSPropertyOp27
 70
     1
102
RTVSPropertyOp28
 70
     1
102
RTVSPropertyOp29
 70
     1
102
RTVSPropertyOp30
 70
     1
102
RTVSPropertyOp31
 70
     1
102
RTVSPropertyOp32
 70
     1
102
RTVSPropertyOp33
 70
     1
102
RTVSPropertyOp34
 70
     1
102
RTVSPropertyOp35
 70
     1
102
RTVSPropertyOp36
 70
     1
102
RTVSPropertyOp37
 70
     1
102
RTVSPropertyOp38
 70
     1
102
RTVSPropertyOp39
 70
     1
102
RTVSPropertyOp40
 70
     1
102
RTVSPropertyOp41
 70
     1
102
RTVSPropertyOp42
 70
     1
102
RTVSPropertyOp43
 70
     1
102
RTVSPropertyOp44
 70
     1
102
RTVSPropertyOp45
 70
     1
102
RTVSPropertyOp46
 70
     1
102
RTVSPropertyOp47
 70
     1
102
RTVSPropertyOp48
 70
     1
102
RTVSPropertyOp49
 70
     1
102
RTVSPropertyOp50
 70
     1
102
RTVSPropertyOp51
 70
     0
102
RTVSPropertyOp52
 70
     0
102
RTVSPropertyOp53
 70
     1
102
RTVSPropertyOp54
 70
     1
102
RTVSPropertyOp55
 70
     1
102
RTVSPropertyOp56
 70
     1
102
RTVSPropertyOp57
 70
     1
102
RTVSPropertyOp58
 70
     1
102
RTVSPropertyOp59
 70
     1
102
RTVSPropertyOp60
 70
     1
102
RTVSPropertyOp61
 70
     1
102
RTVSPropertyOp62
 70
     1
  0
XRECORD
  5
4AF
102
{ACAD_REACTORS
330
4AE
102
}
330
4AE
100
AcDbXrecord
280
     1
102
RTVSPost2010Prop28
280
     0
102
RTVSPost2010PropOp28
 70
     1
102
RTVSPost2010Prop29
280
     1
102
RTVSPost2010PropOp29
 70
     1
102
RTVSPost2010Prop30
280
     1
102
RTVSPost2010PropOp30
 70
     1
102
RTVSPost2010Prop31
280
     0
102
RTVSPost2010PropOp31
 70
     1
102
RTVSPost2010Prop32
280
     0
102
RTVSPost2010PropOp32
 70
     1
102
RTVSPost2010Prop33
280
     0
102
RTVSPost2010PropOp33
 70
     1
102
RTVSPost2010Prop34
280
     0
102
RTVSPost2010PropOp34
 70
     1
102
RTVSPost2010Prop35
280
     0
102
RTVSPost2010PropOp35
 70
     1
102
RTVSPost2010Prop36
280
     0
102
RTVSPost2010PropOp36
 70
     1
102
RTVSPost2010Prop37
 90
       50
102
RTVSPost2010PropOp37
 70
     1
102
RTVSPost2010Prop38
140
0.0
102
RTVSPost2010PropOp38
 70
     1
102
RTVSPost2010Prop39
140
1.0
102
RTVSPost2010PropOp39
 70
     1
102
RTVSPost2010Prop40
 90
        0
102
RTVSPost2010PropOp40
 70
     1
102
RTVSPost2010Prop41ColorIndex
 90
       18
102
RTVSPost2010Prop41ColorRGB
 90
        0
102
RTVSPost2010PropOp41
 70
     1
102
RTVSPost2010Prop42
 90
       50
102
RTVSPost2010PropOp42
 70
     1
102
RTVSPost2010Prop43
 90
        3
102
RTVSPost2010PropOp43
 70
     1
102
RTVSPost2010Prop44ColorIndex
 90
        5
102
RTVSPost2010Prop44ColorRGB
 90
      255
102
RTVSPost2010PropOp44
 70
     1
102
RTVSPost2010Prop45
280
     0
102
RTVSPost2010PropOp45
 70
     1
102
RTVSPost2010Prop46
 90
       50
102
RTVSPost2010PropOp46
 70
     1
102
RTVSPost2010Prop47
 90
       50
102
RTVSPost2010PropOp47
 70
     1
102
RTVSPost2010Prop48
 90
       50
102
RTVSPost2010PropOp48
 70
     1
102
RTVSPost2010Prop49
280
     0
102
RTVSPost2010PropOp49
 70
     1
102
RTVSPost2010Prop50
 90
       50
102
RTVSPost2010PropOp50
 70
     1
102
RTVSPost2010Prop51ColorIndex
 90
      256
102
RTVSPost2010Prop51ColorRGB
 90
-16777216
102
RTVSPost2010PropOp51
 70
     0
102
RTVSPost2010Prop52
140
1.0
102
RTVSPost2010PropOp52
 70
     0
102
RTVSPost2010Prop53
 90
        2
102
RTVSPost2010PropOp53
 70
     1
102
RTVSPost2010Prop54
  1
strokes_ogs.tif
102
RTVSPost2010PropOp54
 70
     1
102
RTVSPost2010Prop55
280
     0
102
RTVSPost2010PropOp55
 70
     1
102
RTVSPost2010Prop56
140
1.0
102
RTVSPost2010PropOp56
 70
     1
102
RTVSPost2010Prop57
140
1.0
102
RTVSPost2010PropOp57
 70
     1
102
RTVSPropertyOp0
 70
     1
102
RTVSPropertyOp1
 70
     1
102
RTVSPropertyOp2
 70
     1
102
RTVSPropertyOp3
 70
     1
102
RTVSPropertyOp4
 70
     1
102
RTVSPropertyOp5
 70
     1
102
RTVSPropertyOp6
 70
     1
102
RTVSPropertyOp7
 70
     1
102
RTVSPropertyOp8
 70
     1
102
RTVSPropertyOp9
 70
     1
102
RTVSPropertyOp10
 70
     1
102
RTVSPropertyOp11
 70
     1
102
RTVSPropertyOp12
 70
     1
102
RTVSPropertyOp13
 70
     1
102
RTVSPropertyOp14
 70
     1
102
RTVSPropertyOp15
 70
     1
102
RTVSPropertyOp16
 70
     1
102
RTVSPropertyOp17
 70
     1
102
RTVSPropertyOp18
 70
     1
102
RTVSPropertyOp19
 70
     1
102
RTVSPropertyOp20
 70
     1
102
RTVSPropertyOp21
 70
     1
102
RTVSPropertyOp22
 70
     1
102
RTVSPropertyOp23
 70
     1
102
RTVSPropertyOp24
 70
     1
102
RTVSPropertyOp25
 70
     1
102
RTVSPropertyOp26
 70
     1
102
RTVSPropertyOp27
 70
     1
102
RTVSPropertyOp28
 70
     1
102
RTVSPropertyOp29
 70
     1
102
RTVSPropertyOp30
 70
     1
102
RTVSPropertyOp31
 70
     1
102
RTVSPropertyOp32
 70
     1
102
RTVSPropertyOp33
 70
     1
102
RTVSPropertyOp34
 70
     1
102
RTVSPropertyOp35
 70
     1
102
RTVSPropertyOp36
 70
     1
102
RTVSPropertyOp37
 70
     1
102
RTVSPropertyOp38
 70
     1
102
RTVSPropertyOp39
 70
     1
102
RTVSPropertyOp40
 70
     1
102
RTVSPropertyOp41
 70
     1
102
RTVSPropertyOp42
 70
     1
102
RTVSPropertyOp43
 70
     1
102
RTVSPropertyOp44
 70
     1
102
RTVSPropertyOp45
 70
     1
102
RTVSPropertyOp46
 70
     1
102
RTVSPropertyOp47
 70
     1
102
RTVSPropertyOp48
 70
     1
102
RTVSPropertyOp49
 70
     1
102
RTVSPropertyOp50
 70
     1
102
RTVSPropertyOp51
 70
     0
102
RTVSPropertyOp52
 70
     0
102
RTVSPropertyOp53
 70
     1
102
RTVSPropertyOp54
 70
     1
102
RTVSPropertyOp55
 70
     1
102
RTVSPropertyOp56
 70
     1
102
RTVSPropertyOp57
 70
     1
102
RTVSPropertyOp58
 70
     1
102
RTVSPropertyOp59
 70
     1
102
RTVSPropertyOp60
 70
     1
102
RTVSPropertyOp61
 70
     1
102
RTVSPropertyOp62
 70
     1
  0
XRECORD
  5
4B7
102
{ACAD_REACTORS
330
4B6
102
}
330
4B6
100
AcDbXrecord
280
     1
102
RTVSPost2010Prop28
280
     0
102
RTVSPost2010PropOp28
 70
     1
102
RTVSPost2010Prop29
280
     1
102
RTVSPost2010PropOp29
 70
     1
102
RTVSPost2010Prop30
280
     1
102
RTVSPost2010PropOp30
 70
     1
102
RTVSPost2010Prop31
280
     0
102
RTVSPost2010PropOp31
 70
     1
102
RTVSPost2010Prop32
280
     0
102
RTVSPost2010PropOp32
 70
     1
102
RTVSPost2010Prop33
280
     0
102
RTVSPost2010PropOp33
 70
     1
102
RTVSPost2010Prop34
280
     0
102
RTVSPost2010PropOp34
 70
     1
102
RTVSPost2010Prop35
280
     0
102
RTVSPost2010PropOp35
 70
     1
102
RTVSPost2010Prop36
280
     0
102
RTVSPost2010PropOp36
 70
     1
102
RTVSPost2010Prop37
 90
       50
102
RTVSPost2010PropOp37
 70
     1
102
RTVSPost2010Prop38
140
0.0
102
RTVSPost2010PropOp38
 70
     1
102
RTVSPost2010Prop39
140
1.0
102
RTVSPost2010PropOp39
 70
     1
102
RTVSPost2010Prop40
 90
        0
102
RTVSPost2010PropOp40
 70
     1
102
RTVSPost2010Prop41ColorIndex
 90
       18
102
RTVSPost2010Prop41ColorRGB
 90
        0
102
RTVSPost2010PropOp41
 70
     1
102
RTVSPost2010Prop42
 90
       50
102
RTVSPost2010PropOp42
 70
     1
102
RTVSPost2010Prop43
 90
        3
102
RTVSPost2010PropOp43
 70
     1
102
RTVSPost2010Prop44ColorIndex
 90
        5
102
RTVSPost2010Prop44ColorRGB
 90
      255
102
RTVSPost2010PropOp44
 70
     1
102
RTVSPost2010Prop45
280
     0
102
RTVSPost2010PropOp45
 70
     1
102
RTVSPost2010Prop46
 90
       50
102
RTVSPost2010PropOp46
 70
     1
102
RTVSPost2010Prop47
 90
       50
102
RTVSPost2010PropOp47
 70
     1
102
RTVSPost2010Prop48
 90
       50
102
RTVSPost2010PropOp48
 70
     1
102
RTVSPost2010Prop49
280
     0
102
RTVSPost2010PropOp49
 70
     1
102
RTVSPost2010Prop50
 90
       50
102
RTVSPost2010PropOp50
 70
     1
102
RTVSPost2010Prop51ColorIndex
 90
      256
102
RTVSPost2010Prop51ColorRGB
 90
-16777216
102
RTVSPost2010PropOp51
 70
     0
102
RTVSPost2010Prop52
140
1.0
102
RTVSPost2010PropOp52
 70
     0
102
RTVSPost2010Prop53
 90
        2
102
RTVSPost2010PropOp53
 70
     1
102
RTVSPost2010Prop54
  1
strokes_ogs.tif
102
RTVSPost2010PropOp54
 70
     1
102
RTVSPost2010Prop55
280
     0
102
RTVSPost2010PropOp55
 70
     1
102
RTVSPost2010Prop56
140
1.0
102
RTVSPost2010PropOp56
 70
     1
102
RTVSPost2010Prop57
140
1.0
102
RTVSPost2010PropOp57
 70
     1
102
RTVSPropertyOp0
 70
     1
102
RTVSPropertyOp1
 70
     1
102
RTVSPropertyOp2
 70
     1
102
RTVSPropertyOp3
 70
     1
102
RTVSPropertyOp4
 70
     1
102
RTVSPropertyOp5
 70
     1
102
RTVSPropertyOp6
 70
     1
102
RTVSPropertyOp7
 70
     1
102
RTVSPropertyOp8
 70
     1
102
RTVSPropertyOp9
 70
     1
102
RTVSPropertyOp10
 70
     1
102
RTVSPropertyOp11
 70
     1
102
RTVSPropertyOp12
 70
     1
102
RTVSPropertyOp13
 70
     1
102
RTVSPropertyOp14
 70
     1
102
RTVSPropertyOp15
 70
     1
102
RTVSPropertyOp16
 70
     1
102
RTVSPropertyOp17
 70
     1
102
RTVSPropertyOp18
 70
     1
102
RTVSPropertyOp19
 70
     1
102
RTVSPropertyOp20
 70
     1
102
RTVSPropertyOp21
 70
     1
102
RTVSPropertyOp22
 70
     1
102
RTVSPropertyOp23
 70
     1
102
RTVSPropertyOp24
 70
     1
102
RTVSPropertyOp25
 70
     1
102
RTVSPropertyOp26
 70
     1
102
RTVSPropertyOp27
 70
     1
102
RTVSPropertyOp28
 70
     1
102
RTVSPropertyOp29
 70
     1
102
RTVSPropertyOp30
 70
     1
102
RTVSPropertyOp31
 70
     1
102
RTVSPropertyOp32
 70
     1
102
RTVSPropertyOp33
 70
     1
102
RTVSPropertyOp34
 70
     1
102
RTVSPropertyOp35
 70
     1
102
RTVSPropertyOp36
 70
     1
102
RTVSPropertyOp37
 70
     1
102
RTVSPropertyOp38
 70
     1
102
RTVSPropertyOp39
 70
     1
102
RTVSPropertyOp40
 70
     1
102
RTVSPropertyOp41
 70
     1
102
RTVSPropertyOp42
 70
     1
102
RTVSPropertyOp43
 70
     1
102
RTVSPropertyOp44
 70
     1
102
RTVSPropertyOp45
 70
     1
102
RTVSPropertyOp46
 70
     1
102
RTVSPropertyOp47
 70
     1
102
RTVSPropertyOp48
 70
     1
102
RTVSPropertyOp49
 70
     1
102
RTVSPropertyOp50
 70
     1
102
RTVSPropertyOp51
 70
     0
102
RTVSPropertyOp52
 70
     0
102
RTVSPropertyOp53
 70
     1
102
RTVSPropertyOp54
 70
     1
102
RTVSPropertyOp55
 70
     1
102
RTVSPropertyOp56
 70
     1
102
RTVSPropertyOp57
 70
     1
102
RTVSPropertyOp58
 70
     1
102
RTVSPropertyOp59
 70
     1
102
RTVSPropertyOp60
 70
     1
102
RTVSPropertyOp61
 70
     1
102
RTVSPropertyOp62
 70
     1
  0
XRECORD
  5
4D3
102
{ACAD_REACTORS
330
4D2
102
}
330
4D2
100
AcDbXrecord
280
     1
102
RTVSPost2010Prop28
280
     0
102
RTVSPost2010PropOp28
 70
     1
102
RTVSPost2010Prop29
280
     1
102
RTVSPost2010PropOp29
 70
     1
102
RTVSPost2010Prop30
280
     1
102
RTVSPost2010PropOp30
 70
     1
102
RTVSPost2010Prop31
280
     0
102
RTVSPost2010PropOp31
 70
     1
102
RTVSPost2010Prop32
280
     0
102
RTVSPost2010PropOp32
 70
     1
102
RTVSPost2010Prop33
280
     0
102
RTVSPost2010PropOp33
 70
     1
102
RTVSPost2010Prop34
280
     0
102
RTVSPost2010PropOp34
 70
     1
102
RTVSPost2010Prop35
280
     0
102
RTVSPost2010PropOp35
 70
     1
102
RTVSPost2010Prop36
280
     0
102
RTVSPost2010PropOp36
 70
     1
102
RTVSPost2010Prop37
 90
       50
102
RTVSPost2010PropOp37
 70
     0
102
RTVSPost2010Prop38
140
0.0
102
RTVSPost2010PropOp38
 70
     0
102
RTVSPost2010Prop39
140
1.0
102
RTVSPost2010PropOp39
 70
     0
102
RTVSPost2010Prop40
 90
        0
102
RTVSPost2010PropOp40
 70
     0
102
RTVSPost2010Prop41ColorIndex
 90
       18
102
RTVSPost2010Prop41ColorRGB
 90
        0
102
RTVSPost2010PropOp41
 70
     0
102
RTVSPost2010Prop42
 90
       50
102
RTVSPost2010PropOp42
 70
     0
102
RTVSPost2010Prop43
 90
        3
102
RTVSPost2010PropOp43
 70
     0
102
RTVSPost2010Prop44ColorIndex
 90
        5
102
RTVSPost2010Prop44ColorRGB
 90
      255
102
RTVSPost2010PropOp44
 70
     0
102
RTVSPost2010Prop45
280
     0
102
RTVSPost2010PropOp45
 70
     1
102
RTVSPost2010Prop46
 90
       50
102
RTVSPost2010PropOp46
 70
     0
102
RTVSPost2010Prop47
 90
       50
102
RTVSPost2010PropOp47
 70
     0
102
RTVSPost2010Prop48
 90
       50
102
RTVSPost2010PropOp48
 70
     0
102
RTVSPost2010Prop49
280
     0
102
RTVSPost2010PropOp49
 70
     1
102
RTVSPost2010Prop50
 90
       50
102
RTVSPost2010PropOp50
 70
     0
102
RTVSPost2010Prop51ColorIndex
 90
      256
102
RTVSPost2010Prop51ColorRGB
 90
-16777216
102
RTVSPost2010PropOp51
 70
     0
102
RTVSPost2010Prop52
140
1.0
102
RTVSPost2010PropOp52
 70
     0
102
RTVSPost2010Prop53
 90
        2
102
RTVSPost2010PropOp53
 70
     0
102
RTVSPost2010Prop54
  1
strokes_ogs.tif
102
RTVSPost2010PropOp54
 70
     0
102
RTVSPost2010Prop55
280
     0
102
RTVSPost2010PropOp55
 70
     1
102
RTVSPost2010Prop56
140
1.0
102
RTVSPost2010PropOp56
 70
     0
102
RTVSPost2010Prop57
140
1.0
102
RTVSPost2010PropOp57
 70
     0
102
RTVSPropertyOp0
 70
     0
102
RTVSPropertyOp1
 70
     0
102
RTVSPropertyOp2
 70
     0
102
RTVSPropertyOp3
 70
     0
102
RTVSPropertyOp4
 70
     0
102
RTVSPropertyOp5
 70
     0
102
RTVSPropertyOp6
 70
     0
102
RTVSPropertyOp7
 70
     0
102
RTVSPropertyOp8
 70
     0
102
RTVSPropertyOp9
 70
     0
102
RTVSPropertyOp10
 70
     0
102
RTVSPropertyOp11
 70
     0
102
RTVSPropertyOp12
 70
     0
102
RTVSPropertyOp13
 70
     0
102
RTVSPropertyOp14
 70
     2
102
RTVSPropertyOp15
 70
     0
102
RTVSPropertyOp16
 70
     0
102
RTVSPropertyOp17
 70
     0
102
RTVSPropertyOp18
 70
     0
102
RTVSPropertyOp19
 70
     0
102
RTVSPropertyOp20
 70
     0
102
RTVSPropertyOp21
 70
     0
102
RTVSPropertyOp22
 70
     0
102
RTVSPropertyOp23
 70
     0
102
RTVSPropertyOp24
 70
     0
102
RTVSPropertyOp25
 70
     0
102
RTVSPropertyOp26
 70
     0
102
RTVSPropertyOp27
 70
     0
102
RTVSPropertyOp28
 70
     1
102
RTVSPropertyOp29
 70
     1
102
RTVSPropertyOp30
 70
     1
102
RTVSPropertyOp31
 70
     1
102
RTVSPropertyOp32
 70
     1
102
RTVSPropertyOp33
 70
     1
102
RTVSPropertyOp34
 70
     1
102
RTVSPropertyOp35
 70
     1
102
RTVSPropertyOp36
 70
     1
102
RTVSPropertyOp37
 70
     0
102
RTVSPropertyOp38
 70
     0
102
RTVSPropertyOp39
 70
     0
102
RTVSPropertyOp40
 70
     0
102
RTVSPropertyOp41
 70
     0
102
RTVSPropertyOp42
 70
     0
102
RTVSPropertyOp43
 70
     0
102
RTVSPropertyOp44
 70
     0
102
RTVSPropertyOp45
 70
     1
102
RTVSPropertyOp46
 70
     0
102
RTVSPropertyOp47
 70
     0
102
RTVSPropertyOp48
 70
     0
102
RTVSPropertyOp49
 70
     1
102
RTVSPropertyOp50
 70
     0
102
RTVSPropertyOp51
 70
     0
102
RTVSPropertyOp52
 70
     0
102
RTVSPropertyOp53
 70
     0
102
RTVSPropertyOp54
 70
     0
102
RTVSPropertyOp55
 70
     1
102
RTVSPropertyOp56
 70
     0
102
RTVSPropertyOp57
 70
     0
102
RTVSPropertyOp58
 70
     0
102
RTVSPropertyOp59
 70
     0
102
RTVSPropertyOp60
 70
     0
102
RTVSPropertyOp61
 70
     0
102
RTVSPropertyOp62
 70
     0
  0
XRECORD
  5
4C3
102
{ACAD_REACTORS
330
4C2
102
}
330
4C2
100
AcDbXrecord
280
     1
102
RTVSPost2010Prop28
280
     0
102
RTVSPost2010PropOp28
 70
     1
102
RTVSPost2010Prop29
280
     1
102
RTVSPost2010PropOp29
 70
     1
102
RTVSPost2010Prop30
280
     1
102
RTVSPost2010PropOp30
 70
     1
102
RTVSPost2010Prop31
280
     0
102
RTVSPost2010PropOp31
 70
     1
102
RTVSPost2010Prop32
280
     0
102
RTVSPost2010PropOp32
 70
     1
102
RTVSPost2010Prop33
280
     0
102
RTVSPost2010PropOp33
 70
     1
102
RTVSPost2010Prop34
280
     0
102
RTVSPost2010PropOp34
 70
     1
102
RTVSPost2010Prop35
280
     0
102
RTVSPost2010PropOp35
 70
     1
102
RTVSPost2010Prop36
280
     0
102
RTVSPost2010PropOp36
 70
     1
102
RTVSPost2010Prop37
 90
       50
102
RTVSPost2010PropOp37
 70
     1
102
RTVSPost2010Prop38
140
0.0
102
RTVSPost2010PropOp38
 70
     1
102
RTVSPost2010Prop39
140
1.0
102
RTVSPost2010PropOp39
 70
     1
102
RTVSPost2010Prop40
 90
        0
102
RTVSPost2010PropOp40
 70
     1
102
RTVSPost2010Prop41ColorIndex
 90
       18
102
RTVSPost2010Prop41ColorRGB
 90
        0
102
RTVSPost2010PropOp41
 70
     1
102
RTVSPost2010Prop42
 90
       50
102
RTVSPost2010PropOp42
 70
     1
102
RTVSPost2010Prop43
 90
        3
102
RTVSPost2010PropOp43
 70
     1
102
RTVSPost2010Prop44ColorIndex
 90
        5
102
RTVSPost2010Prop44ColorRGB
 90
      255
102
RTVSPost2010PropOp44
 70
     1
102
RTVSPost2010Prop45
280
     0
102
RTVSPost2010PropOp45
 70
     1
102
RTVSPost2010Prop46
 90
       50
102
RTVSPost2010PropOp46
 70
     1
102
RTVSPost2010Prop47
 90
       50
102
RTVSPost2010PropOp47
 70
     1
102
RTVSPost2010Prop48
 90
       50
102
RTVSPost2010PropOp48
 70
     1
102
RTVSPost2010Prop49
280
     0
102
RTVSPost2010PropOp49
 70
     1
102
RTVSPost2010Prop50
 90
       50
102
RTVSPost2010PropOp50
 70
     1
102
RTVSPost2010Prop51ColorIndex
 90
      256
102
RTVSPost2010Prop51ColorRGB
 90
-16777216
102
RTVSPost2010PropOp51
 70
     0
102
RTVSPost2010Prop52
140
1.0
102
RTVSPost2010PropOp52
 70
     0
102
RTVSPost2010Prop53
 90
        2
102
RTVSPost2010PropOp53
 70
     1
102
RTVSPost2010Prop54
  1
strokes_ogs.tif
102
RTVSPost2010PropOp54
 70
     1
102
RTVSPost2010Prop55
280
     0
102
RTVSPost2010PropOp55
 70
     1
102
RTVSPost2010Prop56
140
1.0
102
RTVSPost2010PropOp56
 70
     1
102
RTVSPost2010Prop57
140
1.0
102
RTVSPost2010PropOp57
 70
     1
102
RTVSPropertyOp0
 70
     1
102
RTVSPropertyOp1
 70
     1
102
RTVSPropertyOp2
 70
     1
102
RTVSPropertyOp3
 70
     1
102
RTVSPropertyOp4
 70
     1
102
RTVSPropertyOp5
 70
     1
102
RTVSPropertyOp6
 70
     1
102
RTVSPropertyOp7
 70
     1
102
RTVSPropertyOp8
 70
     1
102
RTVSPropertyOp9
 70
     1
102
RTVSPropertyOp10
 70
     1
102
RTVSPropertyOp11
 70
     1
102
RTVSPropertyOp12
 70
     1
102
RTVSPropertyOp13
 70
     1
102
RTVSPropertyOp14
 70
     1
102
RTVSPropertyOp15
 70
     1
102
RTVSPropertyOp16
 70
     1
102
RTVSPropertyOp17
 70
     1
102
RTVSPropertyOp18
 70
     1
102
RTVSPropertyOp19
 70
     1
102
RTVSPropertyOp20
 70
     1
102
RTVSPropertyOp21
 70
     1
102
RTVSPropertyOp22
 70
     1
102
RTVSPropertyOp23
 70
     1
102
RTVSPropertyOp24
 70
     1
102
RTVSPropertyOp25
 70
     1
102
RTVSPropertyOp26
 70
     1
102
RTVSPropertyOp27
 70
     1
102
RTVSPropertyOp28
 70
     1
102
RTVSPropertyOp29
 70
     1
102
RTVSPropertyOp30
 70
     1
102
RTVSPropertyOp31
 70
     1
102
RTVSPropertyOp32
 70
     1
102
RTVSPropertyOp33
 70
     1
102
RTVSPropertyOp34
 70
     1
102
RTVSPropertyOp35
 70
     1
102
RTVSPropertyOp36
 70
     1
102
RTVSPropertyOp37
 70
     1
102
RTVSPropertyOp38
 70
     1
102
RTVSPropertyOp39
 70
     1
102
RTVSPropertyOp40
 70
     1
102
RTVSPropertyOp41
 70
     1
102
RTVSPropertyOp42
 70
     1
102
RTVSPropertyOp43
 70
     1
102
RTVSPropertyOp44
 70
     1
102
RTVSPropertyOp45
 70
     1
102
RTVSPropertyOp46
 70
     1
102
RTVSPropertyOp47
 70
     1
102
RTVSPropertyOp48
 70
     1
102
RTVSPropertyOp49
 70
     1
102
RTVSPropertyOp50
 70
     1
102
RTVSPropertyOp51
 70
     0
102
RTVSPropertyOp52
 70
     0
102
RTVSPropertyOp53
 70
     1
102
RTVSPropertyOp54
 70
     1
102
RTVSPropertyOp55
 70
     1
102
RTVSPropertyOp56
 70
     1
102
RTVSPropertyOp57
 70
     1
102
RTVSPropertyOp58
 70
     1
102
RTVSPropertyOp59
 70
     1
102
RTVSPropertyOp60
 70
     1
102
RTVSPropertyOp61
 70
     1
102
RTVSPropertyOp62
 70
     1
  0
XRECORD
  5
4D5
102
{ACAD_REACTORS
330
4D4
102
}
330
4D4
100
AcDbXrecord
280
     1
102
RTVSPost2010Prop28
280
     0
102
RTVSPost2010PropOp28
 70
     1
102
RTVSPost2010Prop29
280
     1
102
RTVSPost2010PropOp29
 70
     1
102
RTVSPost2010Prop30
280
     1
102
RTVSPost2010PropOp30
 70
     1
102
RTVSPost2010Prop31
280
     0
102
RTVSPost2010PropOp31
 70
     1
102
RTVSPost2010Prop32
280
     0
102
RTVSPost2010PropOp32
 70
     1
102
RTVSPost2010Prop33
280
     0
102
RTVSPost2010PropOp33
 70
     1
102
RTVSPost2010Prop34
280
     0
102
RTVSPost2010PropOp34
 70
     1
102
RTVSPost2010Prop35
280
     0
102
RTVSPost2010PropOp35
 70
     1
102
RTVSPost2010Prop36
280
     0
102
RTVSPost2010PropOp36
 70
     1
102
RTVSPost2010Prop37
 90
       50
102
RTVSPost2010PropOp37
 70
     0
102
RTVSPost2010Prop38
140
0.0
102
RTVSPost2010PropOp38
 70
     0
102
RTVSPost2010Prop39
140
1.0
102
RTVSPost2010PropOp39
 70
     0
102
RTVSPost2010Prop40
 90
        0
102
RTVSPost2010PropOp40
 70
     0
102
RTVSPost2010Prop41ColorIndex
 90
       18
102
RTVSPost2010Prop41ColorRGB
 90
        0
102
RTVSPost2010PropOp41
 70
     0
102
RTVSPost2010Prop42
 90
       50
102
RTVSPost2010PropOp42
 70
     0
102
RTVSPost2010Prop43
 90
        3
102
RTVSPost2010PropOp43
 70
     0
102
RTVSPost2010Prop44ColorIndex
 90
        5
102
RTVSPost2010Prop44ColorRGB
 90
      255
102
RTVSPost2010PropOp44
 70
     0
102
RTVSPost2010Prop45
280
     0
102
RTVSPost2010PropOp45
 70
     1
102
RTVSPost2010Prop46
 90
       50
102
RTVSPost2010PropOp46
 70
     0
102
RTVSPost2010Prop47
 90
       50
102
RTVSPost2010PropOp47
 70
     0
102
RTVSPost2010Prop48
 90
       50
102
RTVSPost2010PropOp48
 70
     0
102
RTVSPost2010Prop49
280
     0
102
RTVSPost2010PropOp49
 70
     1
102
RTVSPost2010Prop50
 90
       50
102
RTVSPost2010PropOp50
 70
     0
102
RTVSPost2010Prop51ColorIndex
 90
      256
102
RTVSPost2010Prop51ColorRGB
 90
-16777216
102
RTVSPost2010PropOp51
 70
     0
102
RTVSPost2010Prop52
140
1.0
102
RTVSPost2010PropOp52
 70
     0
102
RTVSPost2010Prop53
 90
        2
102
RTVSPost2010PropOp53
 70
     0
102
RTVSPost2010Prop54
  1
strokes_ogs.tif
102
RTVSPost2010PropOp54
 70
     0
102
RTVSPost2010Prop55
280
     0
102
RTVSPost2010PropOp55
 70
     1
102
RTVSPost2010Prop56
140
1.0
102
RTVSPost2010PropOp56
 70
     0
102
RTVSPost2010Prop57
140
1.0
102
RTVSPost2010PropOp57
 70
     0
102
RTVSPropertyOp0
 70
     0
102
RTVSPropertyOp1
 70
     0
102
RTVSPropertyOp2
 70
     0
102
RTVSPropertyOp3
 70
     0
102
RTVSPropertyOp4
 70
     0
102
RTVSPropertyOp5
 70
     0
102
RTVSPropertyOp6
 70
     0
102
RTVSPropertyOp7
 70
     0
102
RTVSPropertyOp8
 70
     0
102
RTVSPropertyOp9
 70
     0
102
RTVSPropertyOp10
 70
     0
102
RTVSPropertyOp11
 70
     0
102
RTVSPropertyOp12
 70
     0
102
RTVSPropertyOp13
 70
     0
102
RTVSPropertyOp14
 70
     2
102
RTVSPropertyOp15
 70
     0
102
RTVSPropertyOp16
 70
     0
102
RTVSPropertyOp17
 70
     0
102
RTVSPropertyOp18
 70
     0
102
RTVSPropertyOp19
 70
     0
102
RTVSPropertyOp20
 70
     0
102
RTVSPropertyOp21
 70
     0
102
RTVSPropertyOp22
 70
     0
102
RTVSPropertyOp23
 70
     0
102
RTVSPropertyOp24
 70
     0
102
RTVSPropertyOp25
 70
     0
102
RTVSPropertyOp26
 70
     0
102
RTVSPropertyOp27
 70
     0
102
RTVSPropertyOp28
 70
     1
102
RTVSPropertyOp29
 70
     1
102
RTVSPropertyOp30
 70
     1
102
RTVSPropertyOp31
 70
     1
102
RTVSPropertyOp32
 70
     1
102
RTVSPropertyOp33
 70
     1
102
RTVSPropertyOp34
 70
     1
102
RTVSPropertyOp35
 70
     1
102
RTVSPropertyOp36
 70
     1
102
RTVSPropertyOp37
 70
     0
102
RTVSPropertyOp38
 70
     0
102
RTVSPropertyOp39
 70
     0
102
RTVSPropertyOp40
 70
     0
102
RTVSPropertyOp41
 70
     0
102
RTVSPropertyOp42
 70
     0
102
RTVSPropertyOp43
 70
     0
102
RTVSPropertyOp44
 70
     0
102
RTVSPropertyOp45
 70
     1
102
RTVSPropertyOp46
 70
     0
102
RTVSPropertyOp47
 70
     0
102
RTVSPropertyOp48
 70
     0
102
RTVSPropertyOp49
 70
     1
102
RTVSPropertyOp50
 70
     0
102
RTVSPropertyOp51
 70
     0
102
RTVSPropertyOp52
 70
     0
102
RTVSPropertyOp53
 70
     0
102
RTVSPropertyOp54
 70
     0
102
RTVSPropertyOp55
 70
     1
102
RTVSPropertyOp56
 70
     0
102
RTVSPropertyOp57
 70
     0
102
RTVSPropertyOp58
 70
     0
102
RTVSPropertyOp59
 70
     0
102
RTVSPropertyOp60
 70
     0
102
RTVSPropertyOp61
 70
     0
102
RTVSPropertyOp62
 70
     0
  0
XRECORD
  5
4BB
102
{ACAD_REACTORS
330
4BA
102
}
330
4BA
100
AcDbXrecord
280
     1
102
RTVSPost2010Prop28
280
     0
102
RTVSPost2010PropOp28
 70
     1
102
RTVSPost2010Prop29
280
     1
102
RTVSPost2010PropOp29
 70
     1
102
RTVSPost2010Prop30
280
     1
102
RTVSPost2010PropOp30
 70
     1
102
RTVSPost2010Prop31
280
     0
102
RTVSPost2010PropOp31
 70
     1
102
RTVSPost2010Prop32
280
     0
102
RTVSPost2010PropOp32
 70
     1
102
RTVSPost2010Prop33
280
     0
102
RTVSPost2010PropOp33
 70
     1
102
RTVSPost2010Prop34
280
     0
102
RTVSPost2010PropOp34
 70
     1
102
RTVSPost2010Prop35
280
     0
102
RTVSPost2010PropOp35
 70
     1
102
RTVSPost2010Prop36
280
     0
102
RTVSPost2010PropOp36
 70
     1
102
RTVSPost2010Prop37
 90
       50
102
RTVSPost2010PropOp37
 70
     1
102
RTVSPost2010Prop38
140
0.0
102
RTVSPost2010PropOp38
 70
     1
102
RTVSPost2010Prop39
140
1.0
102
RTVSPost2010PropOp39
 70
     1
102
RTVSPost2010Prop40
 90
        0
102
RTVSPost2010PropOp40
 70
     1
102
RTVSPost2010Prop41ColorIndex
 90
       18
102
RTVSPost2010Prop41ColorRGB
 90
        0
102
RTVSPost2010PropOp41
 70
     1
102
RTVSPost2010Prop42
 90
       50
102
RTVSPost2010PropOp42
 70
     1
102
RTVSPost2010Prop43
 90
        3
102
RTVSPost2010PropOp43
 70
     1
102
RTVSPost2010Prop44ColorIndex
 90
        5
102
RTVSPost2010Prop44ColorRGB
 90
      255
102
RTVSPost2010PropOp44
 70
     1
102
RTVSPost2010Prop45
280
     0
102
RTVSPost2010PropOp45
 70
     1
102
RTVSPost2010Prop46
 90
       50
102
RTVSPost2010PropOp46
 70
     1
102
RTVSPost2010Prop47
 90
       50
102
RTVSPost2010PropOp47
 70
     1
102
RTVSPost2010Prop48
 90
       50
102
RTVSPost2010PropOp48
 70
     1
102
RTVSPost2010Prop49
280
     0
102
RTVSPost2010PropOp49
 70
     1
102
RTVSPost2010Prop50
 90
       50
102
RTVSPost2010PropOp50
 70
     1
102
RTVSPost2010Prop51ColorIndex
 90
      256
102
RTVSPost2010Prop51ColorRGB
 90
-16777216
102
RTVSPost2010PropOp51
 70
     0
102
RTVSPost2010Prop52
140
1.0
102
RTVSPost2010PropOp52
 70
     0
102
RTVSPost2010Prop53
 90
        2
102
RTVSPost2010PropOp53
 70
     1
102
RTVSPost2010Prop54
  1
strokes_ogs.tif
102
RTVSPost2010PropOp54
 70
     1
102
RTVSPost2010Prop55
280
     0
102
RTVSPost2010PropOp55
 70
     1
102
RTVSPost2010Prop56
140
1.0
102
RTVSPost2010PropOp56
 70
     1
102
RTVSPost2010Prop57
140
1.0
102
RTVSPost2010PropOp57
 70
     1
102
RTVSPropertyOp0
 70
     1
102
RTVSPropertyOp1
 70
     1
102
RTVSPropertyOp2
 70
     1
102
RTVSPropertyOp3
 70
     1
102
RTVSPropertyOp4
 70
     1
102
RTVSPropertyOp5
 70
     1
102
RTVSPropertyOp6
 70
     1
102
RTVSPropertyOp7
 70
     1
102
RTVSPropertyOp8
 70
     1
102
RTVSPropertyOp9
 70
     1
102
RTVSPropertyOp10
 70
     1
102
RTVSPropertyOp11
 70
     1
102
RTVSPropertyOp12
 70
     1
102
RTVSPropertyOp13
 70
     1
102
RTVSPropertyOp14
 70
     1
102
RTVSPropertyOp15
 70
     1
102
RTVSPropertyOp16
 70
     1
102
RTVSPropertyOp17
 70
     1
102
RTVSPropertyOp18
 70
     1
102
RTVSPropertyOp19
 70
     1
102
RTVSPropertyOp20
 70
     1
102
RTVSPropertyOp21
 70
     1
102
RTVSPropertyOp22
 70
     1
102
RTVSPropertyOp23
 70
     1
102
RTVSPropertyOp24
 70
     1
102
RTVSPropertyOp25
 70
     1
102
RTVSPropertyOp26
 70
     1
102
RTVSPropertyOp27
 70
     1
102
RTVSPropertyOp28
 70
     1
102
RTVSPropertyOp29
 70
     1
102
RTVSPropertyOp30
 70
     1
102
RTVSPropertyOp31
 70
     1
102
RTVSPropertyOp32
 70
     1
102
RTVSPropertyOp33
 70
     1
102
RTVSPropertyOp34
 70
     1
102
RTVSPropertyOp35
 70
     1
102
RTVSPropertyOp36
 70
     1
102
RTVSPropertyOp37
 70
     1
102
RTVSPropertyOp38
 70
     1
102
RTVSPropertyOp39
 70
     1
102
RTVSPropertyOp40
 70
     1
102
RTVSPropertyOp41
 70
     1
102
RTVSPropertyOp42
 70
     1
102
RTVSPropertyOp43
 70
     1
102
RTVSPropertyOp44
 70
     1
102
RTVSPropertyOp45
 70
     1
102
RTVSPropertyOp46
 70
     1
102
RTVSPropertyOp47
 70
     1
102
RTVSPropertyOp48
 70
     1
102
RTVSPropertyOp49
 70
     1
102
RTVSPropertyOp50
 70
     1
102
RTVSPropertyOp51
 70
     0
102
RTVSPropertyOp52
 70
     0
102
RTVSPropertyOp53
 70
     1
102
RTVSPropertyOp54
 70
     1
102
RTVSPropertyOp55
 70
     1
102
RTVSPropertyOp56
 70
     1
102
RTVSPropertyOp57
 70
     1
102
RTVSPropertyOp58
 70
     1
102
RTVSPropertyOp59
 70
     1
102
RTVSPropertyOp60
 70
     1
102
RTVSPropertyOp61
 70
     1
102
RTVSPropertyOp62
 70
     1
  0
XRECORD
  5
4D1
102
{ACAD_REACTORS
330
4D0
102
}
330
4D0
100
AcDbXrecord
280
     1
102
RTVSPost2010Prop28
280
     0
102
RTVSPost2010PropOp28
 70
     1
102
RTVSPost2010Prop29
280
     1
102
RTVSPost2010PropOp29
 70
     1
102
RTVSPost2010Prop30
280
     1
102
RTVSPost2010PropOp30
 70
     1
102
RTVSPost2010Prop31
280
     0
102
RTVSPost2010PropOp31
 70
     1
102
RTVSPost2010Prop32
280
     0
102
RTVSPost2010PropOp32
 70
     1
102
RTVSPost2010Prop33
280
     0
102
RTVSPost2010PropOp33
 70
     1
102
RTVSPost2010Prop34
280
     0
102
RTVSPost2010PropOp34
 70
     1
102
RTVSPost2010Prop35
280
     0
102
RTVSPost2010PropOp35
 70
     1
102
RTVSPost2010Prop36
280
     0
102
RTVSPost2010PropOp36
 70
     1
102
RTVSPost2010Prop37
 90
       50
102
RTVSPost2010PropOp37
 70
     1
102
RTVSPost2010Prop38
140
0.0
102
RTVSPost2010PropOp38
 70
     1
102
RTVSPost2010Prop39
140
1.0
102
RTVSPost2010PropOp39
 70
     1
102
RTVSPost2010Prop40
 90
        0
102
RTVSPost2010PropOp40
 70
     1
102
RTVSPost2010Prop41ColorIndex
 90
       18
102
RTVSPost2010Prop41ColorRGB
 90
        0
102
RTVSPost2010PropOp41
 70
     1
102
RTVSPost2010Prop42
 90
       50
102
RTVSPost2010PropOp42
 70
     1
102
RTVSPost2010Prop43
 90
        3
102
RTVSPost2010PropOp43
 70
     1
102
RTVSPost2010Prop44ColorIndex
 90
        5
102
RTVSPost2010Prop44ColorRGB
 90
      255
102
RTVSPost2010PropOp44
 70
     1
102
RTVSPost2010Prop45
280
     0
102
RTVSPost2010PropOp45
 70
     1
102
RTVSPost2010Prop46
 90
       50
102
RTVSPost2010PropOp46
 70
     1
102
RTVSPost2010Prop47
 90
       50
102
RTVSPost2010PropOp47
 70
     1
102
RTVSPost2010Prop48
 90
       50
102
RTVSPost2010PropOp48
 70
     1
102
RTVSPost2010Prop49
280
     0
102
RTVSPost2010PropOp49
 70
     1
102
RTVSPost2010Prop50
 90
       50
102
RTVSPost2010PropOp50
 70
     1
102
RTVSPost2010Prop51ColorIndex
 90
      256
102
RTVSPost2010Prop51ColorRGB
 90
-16777216
102
RTVSPost2010PropOp51
 70
     0
102
RTVSPost2010Prop52
140
1.0
102
RTVSPost2010PropOp52
 70
     0
102
RTVSPost2010Prop53
 90
        2
102
RTVSPost2010PropOp53
 70
     1
102
RTVSPost2010Prop54
  1
strokes_ogs.tif
102
RTVSPost2010PropOp54
 70
     1
102
RTVSPost2010Prop55
280
     0
102
RTVSPost2010PropOp55
 70
     1
102
RTVSPost2010Prop56
140
1.0
102
RTVSPost2010PropOp56
 70
     1
102
RTVSPost2010Prop57
140
1.0
102
RTVSPost2010PropOp57
 70
     1
102
RTVSPropertyOp0
 70
     1
102
RTVSPropertyOp1
 70
     1
102
RTVSPropertyOp2
 70
     1
102
RTVSPropertyOp3
 70
     1
102
RTVSPropertyOp4
 70
     1
102
RTVSPropertyOp5
 70
     1
102
RTVSPropertyOp6
 70
     1
102
RTVSPropertyOp7
 70
     1
102
RTVSPropertyOp8
 70
     1
102
RTVSPropertyOp9
 70
     1
102
RTVSPropertyOp10
 70
     1
102
RTVSPropertyOp11
 70
     1
102
RTVSPropertyOp12
 70
     1
102
RTVSPropertyOp13
 70
     1
102
RTVSPropertyOp14
 70
     1
102
RTVSPropertyOp15
 70
     1
102
RTVSPropertyOp16
 70
     1
102
RTVSPropertyOp17
 70
     1
102
RTVSPropertyOp18
 70
     1
102
RTVSPropertyOp19
 70
     1
102
RTVSPropertyOp20
 70
     1
102
RTVSPropertyOp21
 70
     1
102
RTVSPropertyOp22
 70
     1
102
RTVSPropertyOp23
 70
     1
102
RTVSPropertyOp24
 70
     1
102
RTVSPropertyOp25
 70
     1
102
RTVSPropertyOp26
 70
     1
102
RTVSPropertyOp27
 70
     1
102
RTVSPropertyOp28
 70
     1
102
RTVSPropertyOp29
 70
     1
102
RTVSPropertyOp30
 70
     1
102
RTVSPropertyOp31
 70
     1
102
RTVSPropertyOp32
 70
     1
102
RTVSPropertyOp33
 70
     1
102
RTVSPropertyOp34
 70
     1
102
RTVSPropertyOp35
 70
     1
102
RTVSPropertyOp36
 70
     1
102
RTVSPropertyOp37
 70
     1
102
RTVSPropertyOp38
 70
     1
102
RTVSPropertyOp39
 70
     1
102
RTVSPropertyOp40
 70
     1
102
RTVSPropertyOp41
 70
     1
102
RTVSPropertyOp42
 70
     1
102
RTVSPropertyOp43
 70
     1
102
RTVSPropertyOp44
 70
     1
102
RTVSPropertyOp45
 70
     1
102
RTVSPropertyOp46
 70
     1
102
RTVSPropertyOp47
 70
     1
102
RTVSPropertyOp48
 70
     1
102
RTVSPropertyOp49
 70
     1
102
RTVSPropertyOp50
 70
     1
102
RTVSPropertyOp51
 70
     0
102
RTVSPropertyOp52
 70
     0
102
RTVSPropertyOp53
 70
     1
102
RTVSPropertyOp54
 70
     1
102
RTVSPropertyOp55
 70
     1
102
RTVSPropertyOp56
 70
     1
102
RTVSPropertyOp57
 70
     1
102
RTVSPropertyOp58
 70
     1
102
RTVSPropertyOp59
 70
     1
102
RTVSPropertyOp60
 70
     1
102
RTVSPropertyOp61
 70
     1
102
RTVSPropertyOp62
 70
     1
  0
XRECORD
  5
4CF
102
{ACAD_REACTORS
330
4CE
102
}
330
4CE
100
AcDbXrecord
280
     1
102
RTVSPost2010Prop28
280
     0
102
RTVSPost2010PropOp28
 70
     1
102
RTVSPost2010Prop29
280
     1
102
RTVSPost2010PropOp29
 70
     1
102
RTVSPost2010Prop30
280
     1
102
RTVSPost2010PropOp30
 70
     1
102
RTVSPost2010Prop31
280
     0
102
RTVSPost2010PropOp31
 70
     1
102
RTVSPost2010Prop32
280
     0
102
RTVSPost2010PropOp32
 70
     1
102
RTVSPost2010Prop33
280
     0
102
RTVSPost2010PropOp33
 70
     1
102
RTVSPost2010Prop34
280
     0
102
RTVSPost2010PropOp34
 70
     1
102
RTVSPost2010Prop35
280
     0
102
RTVSPost2010PropOp35
 70
     1
102
RTVSPost2010Prop36
280
     0
102
RTVSPost2010PropOp36
 70
     1
102
RTVSPost2010Prop37
 90
       50
102
RTVSPost2010PropOp37
 70
     1
102
RTVSPost2010Prop38
140
0.0
102
RTVSPost2010PropOp38
 70
     1
102
RTVSPost2010Prop39
140
1.0
102
RTVSPost2010PropOp39
 70
     1
102
RTVSPost2010Prop40
 90
        0
102
RTVSPost2010PropOp40
 70
     1
102
RTVSPost2010Prop41ColorIndex
 90
       18
102
RTVSPost2010Prop41ColorRGB
 90
        0
102
RTVSPost2010PropOp41
 70
     1
102
RTVSPost2010Prop42
 90
       50
102
RTVSPost2010PropOp42
 70
     1
102
RTVSPost2010Prop43
 90
        3
102
RTVSPost2010PropOp43
 70
     1
102
RTVSPost2010Prop44ColorIndex
 90
        5
102
RTVSPost2010Prop44ColorRGB
 90
      255
102
RTVSPost2010PropOp44
 70
     1
102
RTVSPost2010Prop45
280
     0
102
RTVSPost2010PropOp45
 70
     1
102
RTVSPost2010Prop46
 90
       50
102
RTVSPost2010PropOp46
 70
     1
102
RTVSPost2010Prop47
 90
       50
102
RTVSPost2010PropOp47
 70
     1
102
RTVSPost2010Prop48
 90
       50
102
RTVSPost2010PropOp48
 70
     1
102
RTVSPost2010Prop49
280
     0
102
RTVSPost2010PropOp49
 70
     1
102
RTVSPost2010Prop50
 90
       50
102
RTVSPost2010PropOp50
 70
     1
102
RTVSPost2010Prop51ColorIndex
 90
      256
102
RTVSPost2010Prop51ColorRGB
 90
-16777216
102
RTVSPost2010PropOp51
 70
     0
102
RTVSPost2010Prop52
140
1.0
102
RTVSPost2010PropOp52
 70
     0
102
RTVSPost2010Prop53
 90
        2
102
RTVSPost2010PropOp53
 70
     1
102
RTVSPost2010Prop54
  1
strokes_ogs.tif
102
RTVSPost2010PropOp54
 70
     1
102
RTVSPost2010Prop55
280
     0
102
RTVSPost2010PropOp55
 70
     1
102
RTVSPost2010Prop56
140
1.0
102
RTVSPost2010PropOp56
 70
     1
102
RTVSPost2010Prop57
140
1.0
102
RTVSPost2010PropOp57
 70
     1
102
RTVSPropertyOp0
 70
     1
102
RTVSPropertyOp1
 70
     1
102
RTVSPropertyOp2
 70
     1
102
RTVSPropertyOp3
 70
     1
102
RTVSPropertyOp4
 70
     1
102
RTVSPropertyOp5
 70
     1
102
RTVSPropertyOp6
 70
     1
102
RTVSPropertyOp7
 70
     1
102
RTVSPropertyOp8
 70
     1
102
RTVSPropertyOp9
 70
     1
102
RTVSPropertyOp10
 70
     1
102
RTVSPropertyOp11
 70
     1
102
RTVSPropertyOp12
 70
     1
102
RTVSPropertyOp13
 70
     1
102
RTVSPropertyOp14
 70
     1
102
RTVSPropertyOp15
 70
     1
102
RTVSPropertyOp16
 70
     1
102
RTVSPropertyOp17
 70
     1
102
RTVSPropertyOp18
 70
     1
102
RTVSPropertyOp19
 70
     1
102
RTVSPropertyOp20
 70
     1
102
RTVSPropertyOp21
 70
     1
102
RTVSPropertyOp22
 70
     1
102
RTVSPropertyOp23
 70
     1
102
RTVSPropertyOp24
 70
     1
102
RTVSPropertyOp25
 70
     1
102
RTVSPropertyOp26
 70
     1
102
RTVSPropertyOp27
 70
     1
102
RTVSPropertyOp28
 70
     1
102
RTVSPropertyOp29
 70
     1
102
RTVSPropertyOp30
 70
     1
102
RTVSPropertyOp31
 70
     1
102
RTVSPropertyOp32
 70
     1
102
RTVSPropertyOp33
 70
     1
102
RTVSPropertyOp34
 70
     1
102
RTVSPropertyOp35
 70
     1
102
RTVSPropertyOp36
 70
     1
102
RTVSPropertyOp37
 70
     1
102
RTVSPropertyOp38
 70
     1
102
RTVSPropertyOp39
 70
     1
102
RTVSPropertyOp40
 70
     1
102
RTVSPropertyOp41
 70
     1
102
RTVSPropertyOp42
 70
     1
102
RTVSPropertyOp43
 70
     1
102
RTVSPropertyOp44
 70
     1
102
RTVSPropertyOp45
 70
     1
102
RTVSPropertyOp46
 70
     1
102
RTVSPropertyOp47
 70
     1
102
RTVSPropertyOp48
 70
     1
102
RTVSPropertyOp49
 70
     1
102
RTVSPropertyOp50
 70
     1
102
RTVSPropertyOp51
 70
     0
102
RTVSPropertyOp52
 70
     0
102
RTVSPropertyOp53
 70
     1
102
RTVSPropertyOp54
 70
     1
102
RTVSPropertyOp55
 70
     1
102
RTVSPropertyOp56
 70
     1
102
RTVSPropertyOp57
 70
     1
102
RTVSPropertyOp58
 70
     1
102
RTVSPropertyOp59
 70
     1
102
RTVSPropertyOp60
 70
     1
102
RTVSPropertyOp61
 70
     1
102
RTVSPropertyOp62
 70
     1
  0
XRECORD
  5
4C9
102
{ACAD_REACTORS
330
4C8
102
}
330
4C8
100
AcDbXrecord
280
     1
102
RTVSPost2010Prop28
280
     0
102
RTVSPost2010PropOp28
 70
     1
102
RTVSPost2010Prop29
280
     1
102
RTVSPost2010PropOp29
 70
     1
102
RTVSPost2010Prop30
280
     1
102
RTVSPost2010PropOp30
 70
     1
102
RTVSPost2010Prop31
280
     0
102
RTVSPost2010PropOp31
 70
     1
102
RTVSPost2010Prop32
280
     0
102
RTVSPost2010PropOp32
 70
     1
102
RTVSPost2010Prop33
280
     0
102
RTVSPost2010PropOp33
 70
     1
102
RTVSPost2010Prop34
280
     0
102
RTVSPost2010PropOp34
 70
     1
102
RTVSPost2010Prop35
280
     0
102
RTVSPost2010PropOp35
 70
     1
102
RTVSPost2010Prop36
280
     0
102
RTVSPost2010PropOp36
 70
     1
102
RTVSPost2010Prop37
 90
       50
102
RTVSPost2010PropOp37
 70
     1
102
RTVSPost2010Prop38
140
0.0
102
RTVSPost2010PropOp38
 70
     1
102
RTVSPost2010Prop39
140
1.0
102
RTVSPost2010PropOp39
 70
     1
102
RTVSPost2010Prop40
 90
        0
102
RTVSPost2010PropOp40
 70
     1
102
RTVSPost2010Prop41ColorIndex
 90
       18
102
RTVSPost2010Prop41ColorRGB
 90
        0
102
RTVSPost2010PropOp41
 70
     1
102
RTVSPost2010Prop42
 90
       50
102
RTVSPost2010PropOp42
 70
     1
102
RTVSPost2010Prop43
 90
        3
102
RTVSPost2010PropOp43
 70
     1
102
RTVSPost2010Prop44ColorIndex
 90
        5
102
RTVSPost2010Prop44ColorRGB
 90
      255
102
RTVSPost2010PropOp44
 70
     1
102
RTVSPost2010Prop45
280
     0
102
RTVSPost2010PropOp45
 70
     1
102
RTVSPost2010Prop46
 90
       50
102
RTVSPost2010PropOp46
 70
     1
102
RTVSPost2010Prop47
 90
       50
102
RTVSPost2010PropOp47
 70
     1
102
RTVSPost2010Prop48
 90
       50
102
RTVSPost2010PropOp48
 70
     1
102
RTVSPost2010Prop49
280
     0
102
RTVSPost2010PropOp49
 70
     1
102
RTVSPost2010Prop50
 90
       50
102
RTVSPost2010PropOp50
 70
     1
102
RTVSPost2010Prop51ColorIndex
 90
      256
102
RTVSPost2010Prop51ColorRGB
 90
-16777216
102
RTVSPost2010PropOp51
 70
     0
102
RTVSPost2010Prop52
140
1.0
102
RTVSPost2010PropOp52
 70
     0
102
RTVSPost2010Prop53
 90
        2
102
RTVSPost2010PropOp53
 70
     1
102
RTVSPost2010Prop54
  1
strokes_ogs.tif
102
RTVSPost2010PropOp54
 70
     1
102
RTVSPost2010Prop55
280
     0
102
RTVSPost2010PropOp55
 70
     1
102
RTVSPost2010Prop56
140
1.0
102
RTVSPost2010PropOp56
 70
     1
102
RTVSPost2010Prop57
140
1.0
102
RTVSPost2010PropOp57
 70
     1
102
RTVSPropertyOp0
 70
     1
102
RTVSPropertyOp1
 70
     1
102
RTVSPropertyOp2
 70
     1
102
RTVSPropertyOp3
 70
     1
102
RTVSPropertyOp4
 70
     1
102
RTVSPropertyOp5
 70
     1
102
RTVSPropertyOp6
 70
     1
102
RTVSPropertyOp7
 70
     1
102
RTVSPropertyOp8
 70
     1
102
RTVSPropertyOp9
 70
     1
102
RTVSPropertyOp10
 70
     1
102
RTVSPropertyOp11
 70
     1
102
RTVSPropertyOp12
 70
     1
102
RTVSPropertyOp13
 70
     1
102
RTVSPropertyOp14
 70
     1
102
RTVSPropertyOp15
 70
     1
102
RTVSPropertyOp16
 70
     1
102
RTVSPropertyOp17
 70
     1
102
RTVSPropertyOp18
 70
     1
102
RTVSPropertyOp19
 70
     1
102
RTVSPropertyOp20
 70
     1
102
RTVSPropertyOp21
 70
     1
102
RTVSPropertyOp22
 70
     1
102
RTVSPropertyOp23
 70
     1
102
RTVSPropertyOp24
 70
     1
102
RTVSPropertyOp25
 70
     1
102
RTVSPropertyOp26
 70
     1
102
RTVSPropertyOp27
 70
     1
102
RTVSPropertyOp28
 70
     1
102
RTVSPropertyOp29
 70
     1
102
RTVSPropertyOp30
 70
     1
102
RTVSPropertyOp31
 70
     1
102
RTVSPropertyOp32
 70
     1
102
RTVSPropertyOp33
 70
     1
102
RTVSPropertyOp34
 70
     1
102
RTVSPropertyOp35
 70
     1
102
RTVSPropertyOp36
 70
     1
102
RTVSPropertyOp37
 70
     1
102
RTVSPropertyOp38
 70
     1
102
RTVSPropertyOp39
 70
     1
102
RTVSPropertyOp40
 70
     1
102
RTVSPropertyOp41
 70
     1
102
RTVSPropertyOp42
 70
     1
102
RTVSPropertyOp43
 70
     1
102
RTVSPropertyOp44
 70
     1
102
RTVSPropertyOp45
 70
     1
102
RTVSPropertyOp46
 70
     1
102
RTVSPropertyOp47
 70
     1
102
RTVSPropertyOp48
 70
     1
102
RTVSPropertyOp49
 70
     1
102
RTVSPropertyOp50
 70
     1
102
RTVSPropertyOp51
 70
     0
102
RTVSPropertyOp52
 70
     0
102
RTVSPropertyOp53
 70
     1
102
RTVSPropertyOp54
 70
     1
102
RTVSPropertyOp55
 70
     1
102
RTVSPropertyOp56
 70
     1
102
RTVSPropertyOp57
 70
     1
102
RTVSPropertyOp58
 70
     1
102
RTVSPropertyOp59
 70
     1
102
RTVSPropertyOp60
 70
     1
102
RTVSPropertyOp61
 70
     1
102
RTVSPropertyOp62
 70
     1
  0
XRECORD
  5
4CB
102
{ACAD_REACTORS
330
4CA
102
}
330
4CA
100
AcDbXrecord
280
     1
102
RTVSPost2010Prop28
280
     0
102
RTVSPost2010PropOp28
 70
     1
102
RTVSPost2010Prop29
280
     1
102
RTVSPost2010PropOp29
 70
     1
102
RTVSPost2010Prop30
280
     1
102
RTVSPost2010PropOp30
 70
     1
102
RTVSPost2010Prop31
280
     0
102
RTVSPost2010PropOp31
 70
     1
102
RTVSPost2010Prop32
280
     0
102
RTVSPost2010PropOp32
 70
     1
102
RTVSPost2010Prop33
280
     0
102
RTVSPost2010PropOp33
 70
     1
102
RTVSPost2010Prop34
280
     0
102
RTVSPost2010PropOp34
 70
     1
102
RTVSPost2010Prop35
280
     0
102
RTVSPost2010PropOp35
 70
     1
102
RTVSPost2010Prop36
280
     0
102
RTVSPost2010PropOp36
 70
     1
102
RTVSPost2010Prop37
 90
       50
102
RTVSPost2010PropOp37
 70
     1
102
RTVSPost2010Prop38
140
0.0
102
RTVSPost2010PropOp38
 70
     1
102
RTVSPost2010Prop39
140
1.0
102
RTVSPost2010PropOp39
 70
     1
102
RTVSPost2010Prop40
 90
        0
102
RTVSPost2010PropOp40
 70
     1
102
RTVSPost2010Prop41ColorIndex
 90
       18
102
RTVSPost2010Prop41ColorRGB
 90
        0
102
RTVSPost2010PropOp41
 70
     1
102
RTVSPost2010Prop42
 90
       50
102
RTVSPost2010PropOp42
 70
     1
102
RTVSPost2010Prop43
 90
        3
102
RTVSPost2010PropOp43
 70
     1
102
RTVSPost2010Prop44ColorIndex
 90
        5
102
RTVSPost2010Prop44ColorRGB
 90
      255
102
RTVSPost2010PropOp44
 70
     1
102
RTVSPost2010Prop45
280
     0
102
RTVSPost2010PropOp45
 70
     1
102
RTVSPost2010Prop46
 90
       50
102
RTVSPost2010PropOp46
 70
     1
102
RTVSPost2010Prop47
 90
       50
102
RTVSPost2010PropOp47
 70
     1
102
RTVSPost2010Prop48
 90
       50
102
RTVSPost2010PropOp48
 70
     1
102
RTVSPost2010Prop49
280
     0
102
RTVSPost2010PropOp49
 70
     1
102
RTVSPost2010Prop50
 90
       50
102
RTVSPost2010PropOp50
 70
     1
102
RTVSPost2010Prop51ColorIndex
 90
      256
102
RTVSPost2010Prop51ColorRGB
 90
-16777216
102
RTVSPost2010PropOp51
 70
     0
102
RTVSPost2010Prop52
140
1.0
102
RTVSPost2010PropOp52
 70
     0
102
RTVSPost2010Prop53
 90
        2
102
RTVSPost2010PropOp53
 70
     1
102
RTVSPost2010Prop54
  1
strokes_ogs.tif
102
RTVSPost2010PropOp54
 70
     1
102
RTVSPost2010Prop55
280
     0
102
RTVSPost2010PropOp55
 70
     1
102
RTVSPost2010Prop56
140
1.0
102
RTVSPost2010PropOp56
 70
     1
102
RTVSPost2010Prop57
140
1.0
102
RTVSPost2010PropOp57
 70
     1
102
RTVSPropertyOp0
 70
     1
102
RTVSPropertyOp1
 70
     1
102
RTVSPropertyOp2
 70
     1
102
RTVSPropertyOp3
 70
     1
102
RTVSPropertyOp4
 70
     1
102
RTVSPropertyOp5
 70
     1
102
RTVSPropertyOp6
 70
     1
102
RTVSPropertyOp7
 70
     1
102
RTVSPropertyOp8
 70
     1
102
RTVSPropertyOp9
 70
     1
102
RTVSPropertyOp10
 70
     1
102
RTVSPropertyOp11
 70
     1
102
RTVSPropertyOp12
 70
     1
102
RTVSPropertyOp13
 70
     1
102
RTVSPropertyOp14
 70
     1
102
RTVSPropertyOp15
 70
     1
102
RTVSPropertyOp16
 70
     1
102
RTVSPropertyOp17
 70
     1
102
RTVSPropertyOp18
 70
     1
102
RTVSPropertyOp19
 70
     1
102
RTVSPropertyOp20
 70
     1
102
RTVSPropertyOp21
 70
     1
102
RTVSPropertyOp22
 70
     1
102
RTVSPropertyOp23
 70
     1
102
RTVSPropertyOp24
 70
     1
102
RTVSPropertyOp25
 70
     1
102
RTVSPropertyOp26
 70
     1
102
RTVSPropertyOp27
 70
     1
102
RTVSPropertyOp28
 70
     1
102
RTVSPropertyOp29
 70
     1
102
RTVSPropertyOp30
 70
     1
102
RTVSPropertyOp31
 70
     1
102
RTVSPropertyOp32
 70
     1
102
RTVSPropertyOp33
 70
     1
102
RTVSPropertyOp34
 70
     1
102
RTVSPropertyOp35
 70
     1
102
RTVSPropertyOp36
 70
     1
102
RTVSPropertyOp37
 70
     1
102
RTVSPropertyOp38
 70
     1
102
RTVSPropertyOp39
 70
     1
102
RTVSPropertyOp40
 70
     1
102
RTVSPropertyOp41
 70
     1
102
RTVSPropertyOp42
 70
     1
102
RTVSPropertyOp43
 70
     1
102
RTVSPropertyOp44
 70
     1
102
RTVSPropertyOp45
 70
     1
102
RTVSPropertyOp46
 70
     1
102
RTVSPropertyOp47
 70
     1
102
RTVSPropertyOp48
 70
     1
102
RTVSPropertyOp49
 70
     1
102
RTVSPropertyOp50
 70
     1
102
RTVSPropertyOp51
 70
     0
102
RTVSPropertyOp52
 70
     0
102
RTVSPropertyOp53
 70
     1
102
RTVSPropertyOp54
 70
     1
102
RTVSPropertyOp55
 70
     1
102
RTVSPropertyOp56
 70
     1
102
RTVSPropertyOp57
 70
     1
102
RTVSPropertyOp58
 70
     1
102
RTVSPropertyOp59
 70
     1
102
RTVSPropertyOp60
 70
     1
102
RTVSPropertyOp61
 70
     1
102
RTVSPropertyOp62
 70
     1
  0
XRECORD
  5
4C1
102
{ACAD_REACTORS
330
4C0
102
}
330
4C0
100
AcDbXrecord
280
     1
102
RTVSPost2010Prop28
280
     0
102
RTVSPost2010PropOp28
 70
     1
102
RTVSPost2010Prop29
280
     1
102
RTVSPost2010PropOp29
 70
     1
102
RTVSPost2010Prop30
280
     1
102
RTVSPost2010PropOp30
 70
     1
102
RTVSPost2010Prop31
280
     0
102
RTVSPost2010PropOp31
 70
     1
102
RTVSPost2010Prop32
280
     0
102
RTVSPost2010PropOp32
 70
     1
102
RTVSPost2010Prop33
280
     0
102
RTVSPost2010PropOp33
 70
     1
102
RTVSPost2010Prop34
280
     0
102
RTVSPost2010PropOp34
 70
     1
102
RTVSPost2010Prop35
280
     0
102
RTVSPost2010PropOp35
 70
     1
102
RTVSPost2010Prop36
280
     0
102
RTVSPost2010PropOp36
 70
     1
102
RTVSPost2010Prop37
 90
       50
102
RTVSPost2010PropOp37
 70
     1
102
RTVSPost2010Prop38
140
0.0
102
RTVSPost2010PropOp38
 70
     1
102
RTVSPost2010Prop39
140
1.0
102
RTVSPost2010PropOp39
 70
     1
102
RTVSPost2010Prop40
 90
        0
102
RTVSPost2010PropOp40
 70
     1
102
RTVSPost2010Prop41ColorIndex
 90
       18
102
RTVSPost2010Prop41ColorRGB
 90
        0
102
RTVSPost2010PropOp41
 70
     1
102
RTVSPost2010Prop42
 90
       50
102
RTVSPost2010PropOp42
 70
     1
102
RTVSPost2010Prop43
 90
        3
102
RTVSPost2010PropOp43
 70
     1
102
RTVSPost2010Prop44ColorIndex
 90
        5
102
RTVSPost2010Prop44ColorRGB
 90
      255
102
RTVSPost2010PropOp44
 70
     1
102
RTVSPost2010Prop45
280
     0
102
RTVSPost2010PropOp45
 70
     1
102
RTVSPost2010Prop46
 90
       50
102
RTVSPost2010PropOp46
 70
     1
102
RTVSPost2010Prop47
 90
       50
102
RTVSPost2010PropOp47
 70
     1
102
RTVSPost2010Prop48
 90
       50
102
RTVSPost2010PropOp48
 70
     1
102
RTVSPost2010Prop49
280
     0
102
RTVSPost2010PropOp49
 70
     1
102
RTVSPost2010Prop50
 90
       50
102
RTVSPost2010PropOp50
 70
     1
102
RTVSPost2010Prop51ColorIndex
 90
      256
102
RTVSPost2010Prop51ColorRGB
 90
-16777216
102
RTVSPost2010PropOp51
 70
     0
102
RTVSPost2010Prop52
140
1.0
102
RTVSPost2010PropOp52
 70
     0
102
RTVSPost2010Prop53
 90
        2
102
RTVSPost2010PropOp53
 70
     1
102
RTVSPost2010Prop54
  1
strokes_ogs.tif
102
RTVSPost2010PropOp54
 70
     1
102
RTVSPost2010Prop55
280
     0
102
RTVSPost2010PropOp55
 70
     1
102
RTVSPost2010Prop56
140
1.0
102
RTVSPost2010PropOp56
 70
     1
102
RTVSPost2010Prop57
140
1.0
102
RTVSPost2010PropOp57
 70
     1
102
RTVSPropertyOp0
 70
     1
102
RTVSPropertyOp1
 70
     1
102
RTVSPropertyOp2
 70
     1
102
RTVSPropertyOp3
 70
     1
102
RTVSPropertyOp4
 70
     1
102
RTVSPropertyOp5
 70
     1
102
RTVSPropertyOp6
 70
     1
102
RTVSPropertyOp7
 70
     1
102
RTVSPropertyOp8
 70
     1
102
RTVSPropertyOp9
 70
     1
102
RTVSPropertyOp10
 70
     1
102
RTVSPropertyOp11
 70
     1
102
RTVSPropertyOp12
 70
     1
102
RTVSPropertyOp13
 70
     1
102
RTVSPropertyOp14
 70
     1
102
RTVSPropertyOp15
 70
     1
102
RTVSPropertyOp16
 70
     1
102
RTVSPropertyOp17
 70
     1
102
RTVSPropertyOp18
 70
     1
102
RTVSPropertyOp19
 70
     1
102
RTVSPropertyOp20
 70
     1
102
RTVSPropertyOp21
 70
     1
102
RTVSPropertyOp22
 70
     1
102
RTVSPropertyOp23
 70
     1
102
RTVSPropertyOp24
 70
     1
102
RTVSPropertyOp25
 70
     1
102
RTVSPropertyOp26
 70
     1
102
RTVSPropertyOp27
 70
     1
102
RTVSPropertyOp28
 70
     1
102
RTVSPropertyOp29
 70
     1
102
RTVSPropertyOp30
 70
     1
102
RTVSPropertyOp31
 70
     1
102
RTVSPropertyOp32
 70
     1
102
RTVSPropertyOp33
 70
     1
102
RTVSPropertyOp34
 70
     1
102
RTVSPropertyOp35
 70
     1
102
RTVSPropertyOp36
 70
     1
102
RTVSPropertyOp37
 70
     1
102
RTVSPropertyOp38
 70
     1
102
RTVSPropertyOp39
 70
     1
102
RTVSPropertyOp40
 70
     1
102
RTVSPropertyOp41
 70
     1
102
RTVSPropertyOp42
 70
     1
102
RTVSPropertyOp43
 70
     1
102
RTVSPropertyOp44
 70
     1
102
RTVSPropertyOp45
 70
     1
102
RTVSPropertyOp46
 70
     1
102
RTVSPropertyOp47
 70
     1
102
RTVSPropertyOp48
 70
     1
102
RTVSPropertyOp49
 70
     1
102
RTVSPropertyOp50
 70
     1
102
RTVSPropertyOp51
 70
     0
102
RTVSPropertyOp52
 70
     0
102
RTVSPropertyOp53
 70
     1
102
RTVSPropertyOp54
 70
     1
102
RTVSPropertyOp55
 70
     1
102
RTVSPropertyOp56
 70
     1
102
RTVSPropertyOp57
 70
     1
102
RTVSPropertyOp58
 70
     1
102
RTVSPropertyOp59
 70
     1
102
RTVSPropertyOp60
 70
     1
102
RTVSPropertyOp61
 70
     1
102
RTVSPropertyOp62
 70
     1
  0
XRECORD
  5
4B5
102
{ACAD_REACTORS
330
4B4
102
}
330
4B4
100
AcDbXrecord
280
     1
102
RTVSPost2010Prop28
280
     0
102
RTVSPost2010PropOp28
 70
     1
102
RTVSPost2010Prop29
280
     1
102
RTVSPost2010PropOp29
 70
     1
102
RTVSPost2010Prop30
280
     1
102
RTVSPost2010PropOp30
 70
     1
102
RTVSPost2010Prop31
280
     0
102
RTVSPost2010PropOp31
 70
     1
102
RTVSPost2010Prop32
280
     0
102
RTVSPost2010PropOp32
 70
     1
102
RTVSPost2010Prop33
280
     0
102
RTVSPost2010PropOp33
 70
     1
102
RTVSPost2010Prop34
280
     0
102
RTVSPost2010PropOp34
 70
     1
102
RTVSPost2010Prop35
280
     0
102
RTVSPost2010PropOp35
 70
     1
102
RTVSPost2010Prop36
280
     0
102
RTVSPost2010PropOp36
 70
     1
102
RTVSPost2010Prop37
 90
       50
102
RTVSPost2010PropOp37
 70
     1
102
RTVSPost2010Prop38
140
0.0
102
RTVSPost2010PropOp38
 70
     1
102
RTVSPost2010Prop39
140
1.0
102
RTVSPost2010PropOp39
 70
     1
102
RTVSPost2010Prop40
 90
        0
102
RTVSPost2010PropOp40
 70
     1
102
RTVSPost2010Prop41ColorIndex
 90
       18
102
RTVSPost2010Prop41ColorRGB
 90
        0
102
RTVSPost2010PropOp41
 70
     1
102
RTVSPost2010Prop42
 90
       50
102
RTVSPost2010PropOp42
 70
     1
102
RTVSPost2010Prop43
 90
        3
102
RTVSPost2010PropOp43
 70
     1
102
RTVSPost2010Prop44ColorIndex
 90
        5
102
RTVSPost2010Prop44ColorRGB
 90
      255
102
RTVSPost2010PropOp44
 70
     1
102
RTVSPost2010Prop45
280
     0
102
RTVSPost2010PropOp45
 70
     1
102
RTVSPost2010Prop46
 90
       50
102
RTVSPost2010PropOp46
 70
     1
102
RTVSPost2010Prop47
 90
       50
102
RTVSPost2010PropOp47
 70
     1
102
RTVSPost2010Prop48
 90
       50
102
RTVSPost2010PropOp48
 70
     1
102
RTVSPost2010Prop49
280
     0
102
RTVSPost2010PropOp49
 70
     1
102
RTVSPost2010Prop50
 90
       50
102
RTVSPost2010PropOp50
 70
     1
102
RTVSPost2010Prop51ColorIndex
 90
      256
102
RTVSPost2010Prop51ColorRGB
 90
-16777216
102
RTVSPost2010PropOp51
 70
     0
102
RTVSPost2010Prop52
140
1.0
102
RTVSPost2010PropOp52
 70
     0
102
RTVSPost2010Prop53
 90
        2
102
RTVSPost2010PropOp53
 70
     1
102
RTVSPost2010Prop54
  1
strokes_ogs.tif
102
RTVSPost2010PropOp54
 70
     1
102
RTVSPost2010Prop55
280
     0
102
RTVSPost2010PropOp55
 70
     1
102
RTVSPost2010Prop56
140
1.0
102
RTVSPost2010PropOp56
 70
     1
102
RTVSPost2010Prop57
140
1.0
102
RTVSPost2010PropOp57
 70
     1
102
RTVSPropertyOp0
 70
     1
102
RTVSPropertyOp1
 70
     1
102
RTVSPropertyOp2
 70
     1
102
RTVSPropertyOp3
 70
     1
102
RTVSPropertyOp4
 70
     1
102
RTVSPropertyOp5
 70
     1
102
RTVSPropertyOp6
 70
     1
102
RTVSPropertyOp7
 70
     1
102
RTVSPropertyOp8
 70
     1
102
RTVSPropertyOp9
 70
     1
102
RTVSPropertyOp10
 70
     1
102
RTVSPropertyOp11
 70
     1
102
RTVSPropertyOp12
 70
     1
102
RTVSPropertyOp13
 70
     1
102
RTVSPropertyOp14
 70
     1
102
RTVSPropertyOp15
 70
     1
102
RTVSPropertyOp16
 70
     1
102
RTVSPropertyOp17
 70
     1
102
RTVSPropertyOp18
 70
     1
102
RTVSPropertyOp19
 70
     1
102
RTVSPropertyOp20
 70
     1
102
RTVSPropertyOp21
 70
     1
102
RTVSPropertyOp22
 70
     1
102
RTVSPropertyOp23
 70
     1
102
RTVSPropertyOp24
 70
     1
102
RTVSPropertyOp25
 70
     1
102
RTVSPropertyOp26
 70
     1
102
RTVSPropertyOp27
 70
     1
102
RTVSPropertyOp28
 70
     1
102
RTVSPropertyOp29
 70
     1
102
RTVSPropertyOp30
 70
     1
102
RTVSPropertyOp31
 70
     1
102
RTVSPropertyOp32
 70
     1
102
RTVSPropertyOp33
 70
     1
102
RTVSPropertyOp34
 70
     1
102
RTVSPropertyOp35
 70
     1
102
RTVSPropertyOp36
 70
     1
102
RTVSPropertyOp37
 70
     1
102
RTVSPropertyOp38
 70
     1
102
RTVSPropertyOp39
 70
     1
102
RTVSPropertyOp40
 70
     1
102
RTVSPropertyOp41
 70
     1
102
RTVSPropertyOp42
 70
     1
102
RTVSPropertyOp43
 70
     1
102
RTVSPropertyOp44
 70
     1
102
RTVSPropertyOp45
 70
     1
102
RTVSPropertyOp46
 70
     1
102
RTVSPropertyOp47
 70
     1
102
RTVSPropertyOp48
 70
     1
102
RTVSPropertyOp49
 70
     1
102
RTVSPropertyOp50
 70
     1
102
RTVSPropertyOp51
 70
     0
102
RTVSPropertyOp52
 70
     0
102
RTVSPropertyOp53
 70
     1
102
RTVSPropertyOp54
 70
     1
102
RTVSPropertyOp55
 70
     1
102
RTVSPropertyOp56
 70
     1
102
RTVSPropertyOp57
 70
     1
102
RTVSPropertyOp58
 70
     1
102
RTVSPropertyOp59
 70
     1
102
RTVSPropertyOp60
 70
     1
102
RTVSPropertyOp61
 70
     1
102
RTVSPropertyOp62
 70
     1
  0
XRECORD
  5
4CD
102
{ACAD_REACTORS
330
4CC
102
}
330
4CC
100
AcDbXrecord
280
     1
102
RTVSPost2010Prop28
280
     0
102
RTVSPost2010PropOp28
 70
     1
102
RTVSPost2010Prop29
280
     1
102
RTVSPost2010PropOp29
 70
     1
102
RTVSPost2010Prop30
280
     1
102
RTVSPost2010PropOp30
 70
     1
102
RTVSPost2010Prop31
280
     0
102
RTVSPost2010PropOp31
 70
     1
102
RTVSPost2010Prop32
280
     0
102
RTVSPost2010PropOp32
 70
     1
102
RTVSPost2010Prop33
280
     0
102
RTVSPost2010PropOp33
 70
     1
102
RTVSPost2010Prop34
280
     0
102
RTVSPost2010PropOp34
 70
     1
102
RTVSPost2010Prop35
280
     0
102
RTVSPost2010PropOp35
 70
     1
102
RTVSPost2010Prop36
280
     0
102
RTVSPost2010PropOp36
 70
     1
102
RTVSPost2010Prop37
 90
       50
102
RTVSPost2010PropOp37
 70
     1
102
RTVSPost2010Prop38
140
0.0
102
RTVSPost2010PropOp38
 70
     1
102
RTVSPost2010Prop39
140
1.0
102
RTVSPost2010PropOp39
 70
     1
102
RTVSPost2010Prop40
 90
        0
102
RTVSPost2010PropOp40
 70
     1
102
RTVSPost2010Prop41ColorIndex
 90
       18
102
RTVSPost2010Prop41ColorRGB
 90
        0
102
RTVSPost2010PropOp41
 70
     1
102
RTVSPost2010Prop42
 90
       50
102
RTVSPost2010PropOp42
 70
     1
102
RTVSPost2010Prop43
 90
        3
102
RTVSPost2010PropOp43
 70
     1
102
RTVSPost2010Prop44ColorIndex
 90
        5
102
RTVSPost2010Prop44ColorRGB
 90
      255
102
RTVSPost2010PropOp44
 70
     1
102
RTVSPost2010Prop45
280
     0
102
RTVSPost2010PropOp45
 70
     1
102
RTVSPost2010Prop46
 90
       50
102
RTVSPost2010PropOp46
 70
     1
102
RTVSPost2010Prop47
 90
       50
102
RTVSPost2010PropOp47
 70
     1
102
RTVSPost2010Prop48
 90
       50
102
RTVSPost2010PropOp48
 70
     1
102
RTVSPost2010Prop49
280
     0
102
RTVSPost2010PropOp49
 70
     1
102
RTVSPost2010Prop50
 90
       50
102
RTVSPost2010PropOp50
 70
     1
102
RTVSPost2010Prop51ColorIndex
 90
      256
102
RTVSPost2010Prop51ColorRGB
 90
-16777216
102
RTVSPost2010PropOp51
 70
     0
102
RTVSPost2010Prop52
140
1.0
102
RTVSPost2010PropOp52
 70
     0
102
RTVSPost2010Prop53
 90
        2
102
RTVSPost2010PropOp53
 70
     1
102
RTVSPost2010Prop54
  1
strokes_ogs.tif
102
RTVSPost2010PropOp54
 70
     1
102
RTVSPost2010Prop55
280
     0
102
RTVSPost2010PropOp55
 70
     1
102
RTVSPost2010Prop56
140
1.0
102
RTVSPost2010PropOp56
 70
     1
102
RTVSPost2010Prop57
140
1.0
102
RTVSPost2010PropOp57
 70
     1
102
RTVSPropertyOp0
 70
     1
102
RTVSPropertyOp1
 70
     1
102
RTVSPropertyOp2
 70
     1
102
RTVSPropertyOp3
 70
     1
102
RTVSPropertyOp4
 70
     1
102
RTVSPropertyOp5
 70
     1
102
RTVSPropertyOp6
 70
     1
102
RTVSPropertyOp7
 70
     1
102
RTVSPropertyOp8
 70
     1
102
RTVSPropertyOp9
 70
     1
102
RTVSPropertyOp10
 70
     1
102
RTVSPropertyOp11
 70
     1
102
RTVSPropertyOp12
 70
     1
102
RTVSPropertyOp13
 70
     1
102
RTVSPropertyOp14
 70
     1
102
RTVSPropertyOp15
 70
     1
102
RTVSPropertyOp16
 70
     1
102
RTVSPropertyOp17
 70
     1
102
RTVSPropertyOp18
 70
     1
102
RTVSPropertyOp19
 70
     1
102
RTVSPropertyOp20
 70
     1
102
RTVSPropertyOp21
 70
     1
102
RTVSPropertyOp22
 70
     1
102
RTVSPropertyOp23
 70
     1
102
RTVSPropertyOp24
 70
     1
102
RTVSPropertyOp25
 70
     1
102
RTVSPropertyOp26
 70
     1
102
RTVSPropertyOp27
 70
     1
102
RTVSPropertyOp28
 70
     1
102
RTVSPropertyOp29
 70
     1
102
RTVSPropertyOp30
 70
     1
102
RTVSPropertyOp31
 70
     1
102
RTVSPropertyOp32
 70
     1
102
RTVSPropertyOp33
 70
     1
102
RTVSPropertyOp34
 70
     1
102
RTVSPropertyOp35
 70
     1
102
RTVSPropertyOp36
 70
     1
102
RTVSPropertyOp37
 70
     1
102
RTVSPropertyOp38
 70
     1
102
RTVSPropertyOp39
 70
     1
102
RTVSPropertyOp40
 70
     1
102
RTVSPropertyOp41
 70
     1
102
RTVSPropertyOp42
 70
     1
102
RTVSPropertyOp43
 70
     1
102
RTVSPropertyOp44
 70
     1
102
RTVSPropertyOp45
 70
     1
102
RTVSPropertyOp46
 70
     1
102
RTVSPropertyOp47
 70
     1
102
RTVSPropertyOp48
 70
     1
102
RTVSPropertyOp49
 70
     1
102
RTVSPropertyOp50
 70
     1
102
RTVSPropertyOp51
 70
     0
102
RTVSPropertyOp52
 70
     0
102
RTVSPropertyOp53
 70
     1
102
RTVSPropertyOp54
 70
     1
102
RTVSPropertyOp55
 70
     1
102
RTVSPropertyOp56
 70
     1
102
RTVSPropertyOp57
 70
     1
102
RTVSPropertyOp58
 70
     1
102
RTVSPropertyOp59
 70
     1
102
RTVSPropertyOp60
 70
     1
102
RTVSPropertyOp61
 70
     1
102
RTVSPropertyOp62
 70
     1
  0
ENDSEC
  0
EOF
