  0
SECTION
  2
HEADER
  9
$ACADVER
  1
AC1015
  9
$ACADMAINTVER
 70
    20
  9
$DWGCODEPAGE
  3
ANSI_932
  9
$INSBASE
 10
0.0
 20
0.0
 30
0.0
  9
$EXTMIN
 10
-1700.109854899475
 20
-2544.361378913274
 30
-0.0015258207003583
  9
$EXTMAX
 10
1900.10987166328
 20
2807.26747052425
 30
0.0000000349246037
  9
$LIMMIN
 10
0.0
 20
0.0
  9
$LIMMAX
 10
0.0
 20
0.0
  9
$ORTHOMODE
 70
     0
  9
$REGENMODE
 70
     1
  9
$FILLMODE
 70
     1
  9
$QTEXTMODE
 70
     0
  9
$MIRRTEXT
 70
     1
  9
$LTSCALE
 40
101.6
  9
$ATTMODE
 70
     1
  9
$TEXTSIZE
 40
0.0
  9
$TRACEWID
 40
1.0
  9
$TEXTSTYLE
  7
STANDARD
  9
$CLAYER
  8
DATA
  9
$CELTYPE
  6
ByLayer
  9
$CECOLOR
 62
   256
  9
$CELTSCALE
 40
1.0
  9
$DISPSILH
 70
     0
  9
$DIMSCALE
 40
1.0
  9
$DIMASZ
 40
0.18
  9
$DIMEXO
 40
0.0625
  9
$DIMDLI
 40
0.38
  9
$DIMRND
 40
0.0
  9
$DIMDLE
 40
0.0
  9
$DIMEXE
 40
0.18
  9
$DIMTP
 40
0.0
  9
$DIMTM
 40
0.0
  9
$DIMTXT
 40
0.18
  9
$DIMCEN
 40
0.09
  9
$DIMTSZ
 40
0.0
  9
$DIMTOL
 70
     0
  9
$DIMLIM
 70
     0
  9
$DIMTIH
 70
     1
  9
$DIMTOH
 70
     1
  9
$DIMSE1
 70
     0
  9
$DIMSE2
 70
     0
  9
$DIMTAD
 70
     0
  9
$DIMZIN
 70
     0
  9
$DIMBLK
  1

  9
$DIMASO
 70
     1
  9
$DIMSHO
 70
     1
  9
$DIMPOST
  1

  9
$DIMAPOST
  1

  9
$DIMALT
 70
     0
  9
$DIMALTD
 70
     2
  9
$DIMALTF
 40
25.4
  9
$DIMLFAC
 40
1.0
  9
$DIMTOFL
 70
     0
  9
$DIMTVP
 40
0.0
  9
$DIMTIX
 70
     0
  9
$DIMSOXD
 70
     0
  9
$DIMSAH
 70
     0
  9
$DIMBLK1
  1

  9
$DIMBLK2
  1

  9
$DIMSTYLE
  2
STANDARD
  9
$DIMCLRD
 70
     0
  9
$DIMCLRE
 70
     0
  9
$DIMCLRT
 70
     0
  9
$DIMTFAC
 40
1.0
  9
$DIMGAP
 40
0.09
  9
$DIMJUST
 70
     0
  9
$DIMSD1
 70
     0
  9
$DIMSD2
 70
     0
  9
$DIMTOLJ
 70
     1
  9
$DIMTZIN
 70
     0
  9
$DIMALTZ
 70
     0
  9
$DIMALTTZ
 70
     0
  9
$DIMUPT
 70
     0
  9
$DIMDEC
 70
     4
  9
$DIMTDEC
 70
     4
  9
$DIMALTU
 70
     2
  9
$DIMALTTD
 70
     2
  9
$DIMTXSTY
  7
STANDARD
  9
$DIMAUNIT
 70
     0
  9
$DIMADEC
 70
     0
  9
$DIMALTRND
 40
0.0
  9
$DIMAZIN
 70
     0
  9
$DIMDSEP
 70
    46
  9
$DIMATFIT
 70
     3
  9
$DIMFRAC
 70
     0
  9
$DIMLDRBLK
  1

  9
$DIMLUNIT
 70
     2
  9
$DIMLWD
 70
    -2
  9
$DIMLWE
 70
    -2
  9
$DIMTMOVE
 70
     0
  9
$LUNITS
 70
     2
  9
$LUPREC
 70
     4
  9
$SKETCHINC
 40
0.1
  9
$FILLETRAD
 40
0.0
  9
$AUNITS
 70
     0
  9
$AUPREC
 70
     0
  9
$MENU
  1
acad
  9
$ELEVATION
 40
0.0
  9
$PELEVATION
 40
0.0
  9
$THICKNESS
 40
0.0
  9
$LIMCHECK
 70
     0
  9
$CHAMFERA
 40
0.0
  9
$CHAMFERB
 40
0.0
  9
$CHAMFERC
 40
0.0
  9
$CHAMFERD
 40
0.0
  9
$SKPOLY
 70
     0
  9
$TDCREATE
 40
2457812.434490741
  9
$TDUCREATE
 40
2457812.059490741
  9
$TDUPDATE
 40
2457812.487743056
  9
$TDUUPDATE
 40
2457812.112743055
  9
$TDINDWG
 40
0.0004976852
  9
$TDUSRTIMER
 40
0.0004976852
  9
$USRTIMER
 70
     1
  9
$ANGBASE
 50
0.0
  9
$ANGDIR
 70
     0
  9
$PDMODE
 70
     1
  9
$PDSIZE
 40
-2.0
  9
$PLINEWID
 40
0.0
  9
$SPLFRAME
 70
     0
  9
$SPLINETYPE
 70
     6
  9
$SPLINESEGS
 70
     8
  9
$HANDSEED
  5
376
  9
$SURFTAB1
 70
     6
  9
$SURFTAB2
 70
     6
  9
$SURFTYPE
 70
     6
  9
$SURFU
 70
     6
  9
$SURFV
 70
     6
  9
$UCSBASE
  2

  9
$UCSNAME
  2

  9
$UCSORG
 10
0.0
 20
0.0
 30
0.0
  9
$UCSXDIR
 10
1.0
 20
0.0
 30
0.0
  9
$UCSYDIR
 10
0.0
 20
1.0
 30
0.0
  9
$UCSORTHOREF
  2

  9
$UCSORTHOVIEW
 70
     0
  9
$UCSORGTOP
 10
0.0
 20
0.0
 30
0.0
  9
$UCSORGBOTTOM
 10
0.0
 20
0.0
 30
0.0
  9
$UCSORGLEFT
 10
0.0
 20
0.0
 30
0.0
  9
$UCSORGRIGHT
 10
0.0
 20
0.0
 30
0.0
  9
$UCSORGFRONT
 10
0.0
 20
0.0
 30
0.0
  9
$UCSORGBACK
 10
0.0
 20
0.0
 30
0.0
  9
$PUCSBASE
  2

  9
$PUCSNAME
  2

  9
$PUCSORG
 10
0.0
 20
0.0
 30
0.0
  9
$PUCSXDIR
 10
1.0
 20
0.0
 30
0.0
  9
$PUCSYDIR
 10
0.0
 20
1.0
 30
0.0
  9
$PUCSORTHOREF
  2

  9
$PUCSORTHOVIEW
 70
     0
  9
$PUCSORGTOP
 10
0.0
 20
0.0
 30
0.0
  9
$PUCSORGBOTTOM
 10
0.0
 20
0.0
 30
0.0
  9
$PUCSORGLEFT
 10
0.0
 20
0.0
 30
0.0
  9
$PUCSORGRIGHT
 10
0.0
 20
0.0
 30
0.0
  9
$PUCSORGFRONT
 10
0.0
 20
0.0
 30
0.0
  9
$PUCSORGBACK
 10
0.0
 20
0.0
 30
0.0
  9
$USERI1
 70
     0
  9
$USERI2
 70
     0
  9
$USERI3
 70
     0
  9
$USERI4
 70
     0
  9
$USERI5
 70
     0
  9
$USERR1
 40
0.0
  9
$USERR2
 40
0.0
  9
$USERR3
 40
0.0
  9
$USERR4
 40
0.0
  9
$USERR5
 40
0.0
  9
$WORLDVIEW
 70
     1
  9
$SHADEDGE
 70
     3
  9
$SHADEDIF
 70
    70
  9
$TILEMODE
 70
     1
  9
$MAXACTVP
 70
    64
  9
$PINSBASE
 10
0.0
 20
0.0
 30
0.0
  9
$PLIMCHECK
 70
     0
  9
$PEXTMIN
 10
1.000000000000000E+20
 20
1.000000000000000E+20
 30
1.000000000000000E+20
  9
$PEXTMAX
 10
-1.000000000000000E+20
 20
-1.000000000000000E+20
 30
-1.000000000000000E+20
  9
$PLIMMIN
 10
0.0
 20
0.0
  9
$PLIMMAX
 10
12.0
 20
9.0
  9
$UNITMODE
 70
     0
  9
$VISRETAIN
 70
     0
  9
$PLINEGEN
 70
     1
  9
$PSLTSCALE
 70
     0
  9
$TREEDEPTH
 70
  3020
  9
$CMLSTYLE
  2
Standard
  9
$CMLJUST
 70
     0
  9
$CMLSCALE
 40
1.0
  9
$PROXYGRAPHICS
 70
     1
  9
$MEASUREMENT
 70
     0
  9
$CELWEIGHT
370
    -1
  9
$ENDCAPS
280
     0
  9
$JOINSTYLE
280
     0
  9
$LWDISPLAY
290
     0
  9
$INSUNITS
 70
     0
  9
$HYPERLINKBASE
  1

  9
$STYLESHEET
  1

  9
$XEDIT
290
     1
  9
$CEPSNTYPE
380
     0
  9
$PSTYLEMODE
290
     1
  9
$FINGERPRINTGUID
  2
{445C1978-93E8-984A-A57B-DC42DFB41182}
  9
$VERSIONGUID
  2
{FB331276-1938-364B-8AA3-1D7E70984C9D}
  9
$EXTNAMES
290
     1
  9
$PSVPSCALE
 40
0.0
  9
$OLESTARTUP
290
     0
  0
ENDSEC
  0
SECTION
  2
CLASSES
  0
CLASS
  1
ACDBDICTIONARYWDFLT
  2
AcDbDictionaryWithDefault
  3
ObjectDBX Classes
 90
        0
280
     0
281
     0
  0
CLASS
  1
MATERIAL
  2
AcDbMaterial
  3
ObjectDBX Classes
 90
     1153
280
     0
281
     0
  0
CLASS
  1
VISUALSTYLE
  2
AcDbVisualStyle
  3
ObjectDBX Classes
 90
     4095
280
     0
281
     0
  0
CLASS
  1
SCALE
  2
AcDbScale
  3
ObjectDBX Classes
 90
     1153
280
     0
281
     0
  0
CLASS
  1
TABLESTYLE
  2
AcDbTableStyle
  3
ObjectDBX Classes
 90
     4095
280
     0
281
     0
  0
CLASS
  1
MLEADERSTYLE
  2
AcDbMLeaderStyle
  3
ACDB_MLEADERSTYLE_CLASS
 90
     4095
280
     0
281
     0
  0
CLASS
  1
ACDBSECTIONVIEWSTYLE
  2
AcDbSectionViewStyle
  3
ObjectDBX Classes
 90
     1025
280
     0
281
     0
  0
CLASS
  1
ACDBDETAILVIEWSTYLE
  2
AcDbDetailViewStyle
  3
ObjectDBX Classes
 90
     1025
280
     0
281
     0
  0
CLASS
  1
DICTIONARYVAR
  2
AcDbDictionaryVar
  3
ObjectDBX Classes
 90
        0
280
     0
281
     0
  0
CLASS
  1
CELLSTYLEMAP
  2
AcDbCellStyleMap
  3
ObjectDBX Classes
 90
     1152
280
     0
281
     0
  0
CLASS
  1
ACDBPLACEHOLDER
  2
AcDbPlaceHolder
  3
ObjectDBX Classes
 90
        0
280
     0
281
     0
  0
CLASS
  1
LAYOUT
  2
AcDbLayout
  3
ObjectDBX Classes
 90
        0
280
     0
281
     0
  0
ENDSEC
  0
SECTION
  2
TABLES
  0
TABLE
  2
VPORT
  5
2A0
330
0
100
AcDbSymbolTable
 70
     1
  0
VPORT
  5
30C
330
2A0
100
AcDbSymbolTableRecord
100
AcDbViewportTableRecord
  2
*ACTIVE
 70
     0
 10
0.0
 20
0.0
 11
1.0
 21
1.0
 12
100.0000083819022
 22
131.4530458054878
 13
0.0
 23
0.0
 14
1.0
 24
1.0
 15
0.0
 25
0.0
 16
0.0
 26
0.0
 36
1.0
 17
0.0
 27
0.0
 37
0.0
 40
5381.415280881518
 41
2.358402971216341
 42
50.0
 43
0.0
 44
0.0
 50
0.0
 51
0.0
 71
     0
 72
  2000
 73
     1
 74
     1
 75
     0
 76
     0
 77
     0
 78
     0
281
     0
 65
     1
110
0.0
120
0.0
130
0.0
111
1.0
121
0.0
131
0.0
112
0.0
122
1.0
132
0.0
 79
     0
146
0.0
1001
ACAD_NAV_VCDISPLAY
1070
     3
  0
ENDTAB
  0
TABLE
  2
LTYPE
  5
29D
330
0
100
AcDbSymbolTable
 70
    11
  0
LTYPE
  5
2F2
330
29D
100
AcDbSymbolTableRecord
100
AcDbLinetypeTableRecord
  2
ByBlock
 70
     0
  3

 72
    65
 73
     0
 40
0.0
  0
LTYPE
  5
2F3
330
29D
100
AcDbSymbolTableRecord
100
AcDbLinetypeTableRecord
  2
ByLayer
 70
     0
  3

 72
    65
 73
     0
 40
0.0
  0
LTYPE
  5
2F4
330
29D
100
AcDbSymbolTableRecord
100
AcDbLinetypeTableRecord
  2
CONTINUOUS
 70
     0
  3
Solid line
 72
    65
 73
     0
 40
0.0
  0
ENDTAB
  0
TABLE
  2
LAYER
  5
29A
330
0
100
AcDbSymbolTable
 70
     5
  0
LAYER
  5
2EC
102
{ACAD_XDICTIONARY
360
320
102
}
330
29A
100
AcDbSymbolTableRecord
100
AcDbLayerTableRecord
  2
0
 70
     0
 62
     7
  6
CONTINUOUS
370
    -3
390
2A7
  0
LAYER
  5
30B
102
{ACAD_XDICTIONARY
360
322
102
}
330
29A
100
AcDbSymbolTableRecord
100
AcDbLayerTableRecord
  2
DATA
 70
     0
 62
     7
  6
CONTINUOUS
370
    -3
390
2A7
  0
LAYER
  5
317
102
{ACAD_XDICTIONARY
360
324
102
}
330
29A
100
AcDbSymbolTableRecord
100
AcDbLayerTableRecord
  2
HIBINO-BASE
 70
     0
 62
     7
  6
CONTINUOUS
370
    -3
390
2A7
  0
LAYER
  5
318
102
{ACAD_XDICTIONARY
360
326
102
}
330
29A
100
AcDbSymbolTableRecord
100
AcDbLayerTableRecord
  2
SPEC
 70
     0
 62
     7
  6
CONTINUOUS
370
    -3
390
2A7
  0
LAYER
  5
319
102
{ACAD_XDICTIONARY
360
328
102
}
330
29A
100
AcDbSymbolTableRecord
100
AcDbLayerTableRecord
  2
DIMNSIONS
 70
     0
 62
     7
  6
CONTINUOUS
370
    -3
390
2A7
  0
ENDTAB
  0
TABLE
  2
STYLE
  5
29B
330
0
100
AcDbSymbolTable
 70
     3
  0
STYLE
  5
2ED
330
29B
100
AcDbSymbolTableRecord
100
AcDbTextStyleTableRecord
  2
STANDARD
 70
     0
 40
0.0
 41
1.0
 50
0.0
 71
     0
 42
0.0
  3
txt
  4
BIGFONT.SHX
  0
ENDTAB
  0
TABLE
  2
VIEW
  5
29E
330
0
100
AcDbSymbolTable
 70
     0
  0
ENDTAB
  0
TABLE
  2
UCS
  5
29F
330
0
100
AcDbSymbolTable
 70
     0
  0
ENDTAB
  0
TABLE
  2
APPID
  5
2A1
330
0
100
AcDbSymbolTable
 70
     4
  0
APPID
  5
2EE
330
2A1
100
AcDbSymbolTableRecord
100
AcDbRegAppTableRecord
  2
ACAD
 70
     0
  0
APPID
  5
2F5
330
2A1
100
AcDbSymbolTableRecord
100
AcDbRegAppTableRecord
  2
AcadAnnotative
 70
     0
  0
APPID
  5
334
330
2A1
100
AcDbSymbolTableRecord
100
AcDbRegAppTableRecord
  2
ACAD_NAV_VCDISPLAY
 70
     0
  0
APPID
  5
36D
330
2A1
100
AcDbSymbolTableRecord
100
AcDbRegAppTableRecord
  2
ACAD_MLEADERVER
 70
     0
  0
ENDTAB
  0
TABLE
  2
DIMSTYLE
  5
2A2
330
0
100
AcDbSymbolTable
 70
     2
100
AcDbDimStyleTable
 71
     0
  0
DIMSTYLE
105
2EF
330
2A2
100
AcDbSymbolTableRecord
100
AcDbDimStyleTableRecord
  2
STANDARD
 70
     0
279
     2
340
2ED
  0
ENDTAB
  0
TABLE
  2
BLOCK_RECORD
  5
299
330
0
100
AcDbSymbolTable
 70
     0
  0
BLOCK_RECORD
  5
307
330
299
100
AcDbSymbolTableRecord
100
AcDbBlockTableRecord
  2
*Model_Space
340
30A
  0
BLOCK_RECORD
  5
303
330
299
100
AcDbSymbolTableRecord
100
AcDbBlockTableRecord
  2
*Paper_Space
340
306
  0
ENDTAB
  0
ENDSEC
  0
SECTION
  2
BLOCKS
  0
BLOCK
  5
308
330
307
100
AcDbEntity
  8
0
100
AcDbBlockBegin
  2
*Model_Space
 70
     0
 10
0.0
 20
0.0
 30
0.0
  3
*Model_Space
  1

  0
ENDBLK
  5
309
330
307
100
AcDbEntity
  8
0
100
AcDbBlockEnd
  0
BLOCK
  5
304
330
303
100
AcDbEntity
 67
     1
  8
0
100
AcDbBlockBegin
  2
*Paper_Space
 70
     0
 10
0.0
 20
0.0
 30
0.0
  3
*Paper_Space
  1

  0
ENDBLK
  5
305
330
303
100
AcDbEntity
 67
     1
  8
0
100
AcDbBlockEnd
  0
ENDSEC
  0
SECTION
  2
ENTITIES
  0
LINE
  5
2C
330
307
100
AcDbEntity
  8
HIBINO-BASE
  6
Continuous
 62
     7
100
AcDbLine
 10
-1700.0
 20
2807.104485000001
 30
0.0
 11
1900.0
 21
2807.104485000001
 31
0.0
  0
LINE
  5
2D
330
307
100
AcDbEntity
  8
HIBINO-BASE
  6
Continuous
 62
     7
100
AcDbLine
 10
1900.0
 20
-2392.895515000001
 30
0.0
 11
-1700.0
 21
-2392.895515000001
 31
0.0
  0
LINE
  5
2E
330
307
100
AcDbEntity
  8
HIBINO-BASE
  6
Continuous
 62
     7
100
AcDbLine
 10
-1700.0
 20
-2392.895515000001
 30
0.0
 11
-1700.0
 21
2807.104485000001
 31
0.0
  0
LINE
  5
2F
330
307
100
AcDbEntity
  8
HIBINO-BASE
  6
Continuous
 62
     7
100
AcDbLine
 10
1900.0
 20
2807.104485000001
 30
0.0
 11
1900.0
 21
-2392.895515000001
 31
0.0
  0
LINE
  5
30
330
307
100
AcDbEntity
  8
HIBINO-BASE
  6
Continuous
 62
     7
100
AcDbLine
 10
100.0
 20
-1942.895515
 30
0.0
 11
1900.0
 21
-1942.895515
 31
0.0
  0
LINE
  5
31
330
307
100
AcDbEntity
  8
HIBINO-BASE
  6
Continuous
 62
     7
100
AcDbLine
 10
100.0
 20
-2392.895515000001
 30
0.0
 11
100.0
 21
-1942.895515
 31
0.0
  0
TEXT
  5
32
330
307
100
AcDbEntity
  8
HIBINO-BASE
 62
     7
100
AcDbText
 10
118.0
 20
-1993.069381666667
 30
0.0
 40
32.57682291666667
  1
NOTE
 41
0.7
 11
118.0
 21
-1960.49255875
 31
0.0
100
AcDbText
 73
     3
  0
LINE
  5
33
330
307
100
AcDbEntity
  8
HIBINO-BASE
  6
Continuous
 62
     7
100
AcDbLine
 10
800.0
 20
-2392.895515000001
 30
0.0
 11
800.0
 21
-1942.895515
 31
0.0
  0
TEXT
  5
34
330
307
100
AcDbEntity
  8
HIBINO-BASE
 62
     7
100
AcDbText
 10
818.0
 20
-1993.069381666667
 30
0.0
 40
32.57682291666667
  1
TITLE
 41
0.7
 11
818.0
 21
-1960.49255875
 31
0.0
100
AcDbText
 73
     3
  0
LINE
  5
35
330
307
100
AcDbEntity
  8
HIBINO-BASE
  6
Continuous
 62
     7
100
AcDbLine
 10
100.0
 20
-2192.895515
 30
0.0
 11
1900.0
 21
-2192.895515
 31
0.0
  0
TEXT
  5
36
330
307
100
AcDbEntity
  8
HIBINO-BASE
 62
     7
100
AcDbText
 10
1068.0
 20
-2241.942981666667
 30
0.0
 40
32.57682291666667
  1
DRAWN
 41
0.7
 11
1068.0
 21
-2209.36615875
 31
0.0
100
AcDbText
 73
     3
  0
TEXT
  5
37
330
307
100
AcDbEntity
  8
HIBINO-BASE
 62
     7
100
AcDbText
 10
568.0
 20
-2241.942981666667
 30
0.0
 40
32.57682291666667
  1
DATE
 41
0.7
 11
568.0
 21
-2209.36615875
 31
0.0
100
AcDbText
 73
     3
  0
TEXT
  5
38
330
307
100
AcDbEntity
  8
HIBINO-BASE
 62
     7
100
AcDbText
 10
368.0
 20
-2241.942981666667
 30
0.0
 40
32.57682291666667
  1
SCALE
 41
0.7
 11
368.0
 21
-2209.36615875
 31
0.0
100
AcDbText
 73
     3
  0
TEXT
  5
39
330
307
100
AcDbEntity
  8
HIBINO-BASE
 62
     7
100
AcDbText
 10
818.0
 20
-2241.942981666667
 30
0.0
 40
32.57682291666667
  1
DESIGN
 41
0.7
 11
818.0
 21
-2209.36615875
 31
0.0
100
AcDbText
 73
     3
  0
TEXT
  5
3A
330
307
100
AcDbEntity
  8
HIBINO-BASE
 62
     7
100
AcDbText
 10
1568.0
 20
-2241.942981666667
 30
0.0
 40
32.57682291666667
  1
DRAWING NO.
 41
0.7
 11
1568.0
 21
-2209.36615875
 31
0.0
100
AcDbText
 73
     3
  0
TEXT
  5
3B
330
307
100
AcDbEntity
  8
HIBINO-BASE
 62
     7
100
AcDbText
 10
1318.0
 20
-2241.942981666667
 30
0.0
 40
32.57682291666667
  1
CHECK
 41
0.7
 11
1318.0
 21
-2209.36615875
 31
0.0
100
AcDbText
 73
     3
  0
LINE
  5
3C
330
307
100
AcDbEntity
  8
HIBINO-BASE
  6
Continuous
 62
     7
100
AcDbLine
 10
387.5
 20
-2367.895515
 30
0.0
 11
462.5
 21
-2292.895515
 31
0.0
  0
TEXT
  5
3D
330
307
100
AcDbEntity
  8
HIBINO-BASE
 62
     7
100
AcDbText
 10
375.0
 20
-2315.074381666666
 30
0.0
 40
32.57682291666667
  1
1
 41
0.7
 11
375.0
 21
-2282.49755875
 31
0.0
100
AcDbText
 73
     3
  0
LINE
  5
3E
330
307
100
AcDbEntity
  8
HIBINO-BASE
  6
Continuous
 62
     7
100
AcDbLine
 10
350.0
 20
-2392.895515000001
 30
0.0
 11
350.0
 21
-2192.895515
 31
0.0
  0
LINE
  5
3F
330
307
100
AcDbEntity
  8
HIBINO-BASE
  6
Continuous
 62
     7
100
AcDbLine
 10
549.9999999999999
 20
-2392.895515000001
 30
0.0
 11
549.9999999999999
 21
-2192.895515
 31
0.0
  0
LINE
  5
40
330
307
100
AcDbEntity
  8
HIBINO-BASE
  6
Continuous
 62
     7
100
AcDbLine
 10
1050.0
 20
-2192.895515
 30
0.0
 11
1050.0
 21
-2392.895515000001
 31
0.0
  0
LINE
  5
41
330
307
100
AcDbEntity
  8
HIBINO-BASE
  6
Continuous
 62
     7
100
AcDbLine
 10
1550.0
 20
-2192.895515
 30
0.0
 11
1550.0
 21
-2392.895515000001
 31
0.0
  0
LINE
  5
42
330
307
100
AcDbEntity
  8
HIBINO-BASE
  6
Continuous
 62
     7
100
AcDbLine
 10
1300.0
 20
-2392.895515000001
 30
0.0
 11
1300.0
 21
-2192.895515
 31
0.0
  0
TEXT
  5
43
330
307
100
AcDbEntity
  8
HIBINO-BASE
 62
     7
100
AcDbText
 10
450.0
 20
-2352.574381666666
 30
0.0
 40
32.57682291666667
  1
20
 41
0.7
 11
450.0
 21
-2319.997558749999
 31
0.0
100
AcDbText
 73
     3
  0
TEXT
  5
44
330
307
100
AcDbEntity
  8
HIBINO-BASE
 62
     7
100
AcDbText
 10
177.666666666667
 20
-2353.375515
 30
0.0
 40
65.15364583333333
  1
A4
 41
0.7
 11
177.666666666667
 21
-2288.221869166667
 31
0.0
100
AcDbText
 73
     3
  0
TEXT
  5
45
330
307
100
AcDbEntity
  8
HIBINO-BASE
 62
     7
100
AcDbText
 10
567.1308000000002
 20
-2335.622581666666
 30
0.0
 40
32.57682291666667
  1
'17.01.
 41
0.7
 11
567.1308000000002
 21
-2303.045758749999
 31
0.0
100
AcDbText
 73
     3
  0
TEXT
  5
46
330
307
100
AcDbEntity
  8
HIBINO-BASE
 62
     7
100
AcDbText
 10
1080.116200220692
 20
-2335.622581666666
 30
0.0
 40
32.57682291666667
  1
N.Sasaki
 41
0.7
 11
1080.116200220692
 21
-2303.045758749999
 31
0.0
100
AcDbText
 73
     3
  0
TEXT
  5
47
330
307
100
AcDbEntity
  8
HIBINO-BASE
 62
     7
100
AcDbText
 10
-1565.630803364507
 20
-2520.098690655476
 30
0.0
 40
72.00088359374998
  1
Hibino Corporation
 41
0.7
 11
-1565.630803364507
 21
-2448.097807061726
 31
0.0
100
AcDbText
 73
     3
  0
TEXT
  5
48
330
307
100
AcDbEntity
  8
HIBINO-BASE
 62
     7
100
AcDbText
 10
1108.448708572775
 20
-2518.744338518602
 30
0.0
 40
72.00088359374998
  1
ヒビノ株式会社
 41
0.7
 11
1108.448708572775
 21
-2446.743454924852
 31
0.0
100
AcDbText
 73
     3
  0
TEXT
  5
49
330
307
100
AcDbEntity
  8
HIBINO-BASE
 62
     7
100
AcDbText
 10
119.1666666666666
 20
-2245.284614999999
 30
0.0
 40
32.57682291666667
  1
PAPER SIZE
 41
0.7
 11
119.1666666666666
 21
-2212.707792083333
 31
0.0
100
AcDbText
 73
     3
  0
LINE
  5
4A
330
307
100
AcDbEntity
  8
SPEC
  6
Continuous
 62
     7
100
AcDbLine
 10
-1550.0
 20
2607.104485
 30
0.0
 11
1400.0
 21
2607.104485
 31
0.0
  0
LINE
  5
4B
330
307
100
AcDbEntity
  8
SPEC
  6
Continuous
 62
     7
100
AcDbLine
 10
-1550.0
 20
2532.104485
 30
0.0
 11
1400.0
 21
2532.104485
 31
0.0
  0
LINE
  5
4C
330
307
100
AcDbEntity
  8
SPEC
  6
Continuous
 62
     7
100
AcDbLine
 10
-1550.0
 20
2307.104485
 30
0.0
 11
1400.0
 21
2307.104485
 31
0.0
  0
LINE
  5
4D
330
307
100
AcDbEntity
  8
SPEC
  6
Continuous
 62
     7
100
AcDbLine
 10
-1550.0
 20
2307.104485
 30
0.0
 11
1400.0
 21
2307.104485
 31
0.0
  0
LINE
  5
4E
330
307
100
AcDbEntity
  8
SPEC
  6
Continuous
 62
     7
100
AcDbLine
 10
-1550.0
 20
2007.104485
 30
0.0
 11
1400.0
 21
2007.104485
 31
0.0
  0
LINE
  5
4F
330
307
100
AcDbEntity
  8
SPEC
  6
Continuous
 62
     7
100
AcDbLine
 10
-1550.0
 20
2457.104485
 30
0.0
 11
1400.0
 21
2457.104485
 31
0.0
  0
LINE
  5
50
330
307
100
AcDbEntity
  8
SPEC
  6
Continuous
 62
     7
100
AcDbLine
 10
-1550.0
 20
1707.104484999999
 30
0.0
 11
1400.0
 21
1707.104484999999
 31
0.0
  0
LINE
  5
51
330
307
100
AcDbEntity
  8
SPEC
  6
Continuous
 62
     7
100
AcDbLine
 10
-1550.0
 20
2607.104485
 30
0.0
 11
-1550.0
 21
1707.104484999999
 31
0.0
  0
TEXT
  5
52
330
307
100
AcDbEntity
  8
SPEC
 62
     7
100
AcDbText
 10
-1525.0
 20
2634.969885
 30
0.0
 40
48.86523437500001
  1
仕様
 41
0.7
 11
-1525.0
 21
2683.835119375
 31
0.0
100
AcDbText
 73
     3
  0
LINE
  5
53
330
307
100
AcDbEntity
  8
SPEC
  6
Continuous
 62
     7
100
AcDbLine
 10
-900.0
 20
2607.104485
 30
0.0
 11
-900.0
 21
1707.104484999999
 31
0.0
  0
LINE
  5
54
330
307
100
AcDbEntity
  8
SPEC
  6
Continuous
 62
     7
100
AcDbLine
 10
1400.0
 20
2607.104485
 30
0.0
 11
1400.0
 21
1707.104484999999
 31
0.0
  0
TEXT
  5
55
330
307
100
AcDbEntity
  8
SPEC
 62
     7
100
AcDbText
 10
-1540.572543316736
 20
2027.309926647875
 30
0.0
 40
38.00622499999999
  1
ドライバー構成
 41
0.7
 11
-1540.572543316736
 21
2065.316151647874
 31
0.0
100
AcDbText
 73
     3
  0
TEXT
  5
56
330
307
100
AcDbEntity
  8
SPEC
 62
     7
100
AcDbText
 10
-1524.713337094977
 20
2549.239135200507
 30
0.0
 40
38.00622499999999
  1
周波数レンジ(-10dB)
 41
0.7
 11
-1524.713337094977
 21
2587.245360200507
 31
0.0
100
AcDbText
 73
     3
  0
TEXT
  5
57
330
307
100
AcDbEntity
  8
SPEC
 62
     7
100
AcDbText
 10
-1525.570592129224
 20
2397.862917
 30
0.0
 40
38.00622499999999
  1
感度(1W、1m）
 41
0.7
 11
-1525.570592129224
 21
2435.869142
 31
0.0
100
AcDbText
 73
     3
  0
TEXT
  5
58
330
307
100
AcDbEntity
  8
SPEC
 62
     7
100
AcDbText
 10
-873.1946276842588
 20
2024.986872818997
 30
0.0
 40
38.00622499999999
  1
460mm(2242H)
 41
0.7
 11
-873.1946276842588
 21
2062.993097818997
 31
0.0
100
AcDbText
 73
     3
  0
TEXT
  5
59
330
307
100
AcDbEntity
  8
SPEC
 62
     7
100
AcDbText
 10
-874.5737059432498
 20
2400.006051871128
 30
0.0
 40
38.00622499999999
  1
98dB SPL(30Hz～100Hz）
 41
0.7
 11
-874.5737059432498
 21
2438.012276871128
 31
0.0
100
AcDbText
 73
     3
  0
TEXT
  5
5A
330
307
100
AcDbEntity
  8
SPEC
 62
     7
100
AcDbText
 10
-873.8560865188832
 20
2548.8105079708
 30
0.0
 40
38.00622499999999
  1
28Hz～1kHz
 41
0.7
 11
-873.8560865188832
 21
2586.8167329708
 31
0.0
100
AcDbText
 73
     3
  0
TEXT
  5
5B
330
307
100
AcDbEntity
  8
SPEC
 62
     7
100
AcDbText
 10
-876.6659762266895
 20
2173.370919264125
 30
0.0
 40
38.00622499999999
  1
129dB SPL(30Hz～100Hz)
 41
0.7
 11
-876.6659762266895
 21
2211.377144264125
 31
0.0
100
AcDbText
 73
     3
  0
TEXT
  5
5C
330
307
100
AcDbEntity
  8
SPEC
 62
     7
100
AcDbText
 10
-1524.284710555069
 20
2249.716999689315
 30
0.0
 40
38.00622499999999
  1
公称インピーダンス
 41
0.7
 11
-1524.284710555069
 21
2287.723224689315
 31
0.0
100
AcDbText
 73
     3
  0
TEXT
  5
5D
330
307
100
AcDbEntity
  8
SPEC
 62
     7
100
AcDbText
 10
-873.8719632895335
 20
2249.462998542113
 30
0.0
 40
38.00622499999999
  1
8Ω
 41
0.7
 11
-873.8719632895335
 21
2287.469223542113
 31
0.0
100
AcDbText
 73
     3
  0
TEXT
  5
5E
330
307
100
AcDbEntity
  8
SPEC
 62
     7
100
AcDbText
 10
-876.4278493350669
 20
2474.850928071914
 30
0.0
 40
38.00622499999999
  1
1,200W(2h)、800W(100h)
 41
0.7
 11
-876.4278493350669
 21
2512.857153071914
 31
0.0
100
AcDbText
 73
     3
  0
TEXT
  5
5F
330
307
100
AcDbEntity
  8
SPEC
 62
     7
100
AcDbText
 10
-1524.713337094977
 20
2474.42230135317
 30
0.0
 40
38.00622499999999
  1
許容入力※1
 41
0.7
 11
-1524.713337094977
 21
2512.42852635317
 31
0.0
100
AcDbText
 73
     3
  0
TEXT
  5
60
330
307
100
AcDbEntity
  8
SPEC
 62
     7
100
AcDbText
 10
-1524.570463344496
 20
1875.244830785154
 30
0.0
 40
38.00622499999999
  1
仕上げ/色
 41
0.7
 11
-1524.570463344496
 21
1913.251055785154
 31
0.0
100
AcDbText
 73
     3
  0
TEXT
  5
61
330
307
100
AcDbEntity
  8
SPEC
 62
     7
100
AcDbText
 10
-874.3799669162275
 20
1877.911843004882
 30
0.0
 40
38.00622499999999
  1
DuraFlex/黒、白
 41
0.7
 11
-874.3799669162275
 21
1915.918068004882
 31
0.0
100
AcDbText
 73
     3
  0
TEXT
  5
62
330
307
100
AcDbEntity
  8
SPEC
 62
     7
100
AcDbText
 10
-1526.157971176872
 20
1802.864248452823
 30
0.0
 40
38.00622499999999
  1
寸法(W×H×D)
 41
0.7
 11
-1526.157971176872
 21
1840.870473452823
 31
0.0
100
AcDbText
 73
     3
  0
TEXT
  5
63
330
307
100
AcDbEntity
  8
SPEC
 62
     7
100
AcDbText
 10
-1525.903970468716
 20
1727.610247199644
 30
0.0
 40
38.00622499999999
  1
質量
 41
0.7
 11
-1525.903970468716
 21
1765.616472199644
 31
0.0
100
AcDbText
 73
     3
  0
TEXT
  5
64
330
307
100
AcDbEntity
  8
SPEC
 62
     7
100
AcDbText
 10
-875.3959727313468
 20
1728.118249297232
 30
0.0
 40
38.00622499999999
  1
45kg
 41
0.7
 11
-875.3959727313468
 21
1766.124474297232
 31
0.0
100
AcDbText
 73
     3
  0
LINE
  5
65
330
307
100
AcDbEntity
  8
SPEC
  6
Continuous
 62
     7
100
AcDbLine
 10
-1550.0
 20
1857.104485
 30
0.0
 11
1400.0
 21
1857.104485
 31
0.0
  0
LINE
  5
66
330
307
100
AcDbEntity
  8
SPEC
  6
Continuous
 62
     7
100
AcDbLine
 10
-1550.0
 20
1782.104484999999
 30
0.0
 11
1400.0
 21
1782.104484999999
 31
0.0
  0
LINE
  5
67
330
307
100
AcDbEntity
  8
SPEC
  6
Continuous
 62
     7
100
AcDbLine
 10
-1550.0
 20
1932.104485
 30
0.0
 11
1400.0
 21
1932.104485
 31
0.0
  0
TEXT
  5
68
330
307
100
AcDbEntity
  8
SPEC
 62
     7
100
AcDbText
 10
-875.2266380932331
 20
1802.948915294981
 30
0.0
 40
38.00622499999999
  1
561×548×816mm
 41
0.7
 11
-875.2266380932331
 21
1840.955140294982
 31
0.0
100
AcDbText
 73
     3
  0
TEXT
  5
69
330
307
100
AcDbEntity
  8
SPEC
 62
     7
100
AcDbText
 10
-873.9989633862375
 20
2325.539199999835
 30
0.0
 40
38.00622499999999
  1
98dB SPL(100Hz～500Hz）
 41
0.7
 11
-873.9989633862375
 21
2363.545424999835
 31
0.0
100
AcDbText
 73
     3
  0
TEXT
  5
6A
330
307
100
AcDbEntity
  8
SPEC
 62
     7
100
AcDbText
 10
-1523.4274561723
 20
2176.29193453108
 30
0.0
 40
38.00622499999999
  1
最大音圧(1m)
 41
0.7
 11
-1523.4274561723
 21
2214.298159531081
 31
0.0
100
AcDbText
 73
     3
  0
LINE
  5
6B
330
307
100
AcDbEntity
  8
SPEC
  6
Continuous
 62
     7
100
AcDbLine
 10
-1550.0
 20
2232.104485
 30
0.0
 11
1400.0
 21
2232.104485
 31
0.0
  0
LINE
  5
6C
330
307
100
AcDbEntity
  8
SPEC
  6
Continuous
 62
     7
100
AcDbLine
 10
-1550.0
 20
2082.104484999999
 30
0.0
 11
1400.0
 21
2082.104484999999
 31
0.0
  0
TEXT
  5
6D
330
307
100
AcDbEntity
  8
SPEC
 62
     7
100
AcDbText
 10
-876.5813093441591
 20
2099.826133517229
 30
0.0
 40
38.00622499999999
  1
129dB SPL(100Hz～500Hz)
 41
0.7
 11
-876.5813093441591
 21
2137.832358517229
 31
0.0
100
AcDbText
 73
     3
  0
TEXT
  5
6E
330
307
100
AcDbEntity
  8
SPEC
 62
     7
100
AcDbText
 10
-1525.141965550995
 20
1950.239540099389
 30
0.0
 40
38.00622499999999
  1
入力端子
 41
0.7
 11
-1525.141965550995
 21
1988.245765099389
 31
0.0
100
AcDbText
 73
     3
  0
TEXT
  5
6F
330
307
100
AcDbEntity
  8
SPEC
 62
     7
100
AcDbText
 10
-874.3799669465067
 20
1949.160031891163
 30
0.0
 40
38.00622499999999
  1
ねじ止め端子、4Pスピコン
 41
0.7
 11
-874.3799669465067
 21
1987.166256891163
 31
0.0
100
AcDbText
 73
     3
  0
TEXT
  5
70
330
307
100
AcDbEntity
  8
SPEC
 62
     7
100
AcDbText
 10
-1525.0
 20
1632.22
 30
0.0
 40
38.00629340277778
  1
※1 AESピンクノイズ、クレストファクタ ー6dB
 41
0.7
 11
-1525.0
 21
1670.226293402778
 31
0.0
100
AcDbText
 73
     3
  0
TEXT
  5
71
330
307
100
AcDbEntity
  8
DIMNSIONS
 62
     7
100
AcDbText
 10
-300.0
 20
-2147.505715
 30
0.0
 40
48.86523437500001
  1
(単位：mm)
 41
0.7
 11
-300.0
 21
-2098.640480625
 31
0.0
100
AcDbText
 73
     3
  0
LINE
  5
72
330
307
100
AcDbEntity
  8
DIMNSIONS
  6
Continuous
 62
     7
100
AcDbLine
 10
-1177.3
 20
-952.3755443250868
 30
0.0
 11
-1290.0
 21
-952.3755443250868
 31
0.0
  0
LINE
  5
73
330
307
100
AcDbEntity
  8
DIMNSIONS
  6
Continuous
 62
     7
100
AcDbLine
 10
-1177.3
 20
-1499.999544325087
 30
0.0
 11
-1290.0
 21
-1499.999544325087
 31
0.0
  0
LINE
  5
74
330
307
100
AcDbEntity
  8
DIMNSIONS
  6
Continuous
 62
     7
100
AcDbLine
 10
-1250.0
 20
-952.3755443250868
 30
0.0
 11
-1250.0
 21
-1499.999544325087
 31
0.0
  0
LINE
  5
75
330
307
100
AcDbEntity
  8
DIMNSIONS
  6
Continuous
 62
     7
100
AcDbLine
 10
-1250.0
 20
-952.3755443250868
 30
0.0
 11
-1236.599204096995
 21
-1002.387995496962
 31
0.0
  0
LINE
  5
76
330
307
100
AcDbEntity
  8
DIMNSIONS
  6
Continuous
 62
     7
100
AcDbLine
 10
-1250.0
 20
-952.3755443250868
 30
0.0
 11
-1263.400795903005
 21
-1002.387995496962
 31
0.0
  0
LINE
  5
77
330
307
100
AcDbEntity
  8
DIMNSIONS
  6
Continuous
 62
     7
100
AcDbLine
 10
-1250.0
 20
-1499.999544325087
 30
0.0
 11
-1263.400795903005
 21
-1449.987093153211
 31
0.0
  0
LINE
  5
78
330
307
100
AcDbEntity
  8
DIMNSIONS
  6
Continuous
 62
     7
100
AcDbLine
 10
-1250.0
 20
-1499.999544325087
 30
0.0
 11
-1236.599204096995
 21
-1449.987093153211
 31
0.0
  0
TEXT
  5
79
330
307
100
AcDbEntity
  8
DIMNSIONS
 62
     7
100
AcDbText
 10
-1269.877777777778
 20
-1279.104210991753
 30
0.0
 40
54.29470486111111
  1
548
 50
90.0
 41
0.7
 11
-1324.172482638889
 21
-1279.104210991753
 31
0.0
100
AcDbText
 73
     3
  0
LINE
  5
7A
330
307
100
AcDbEntity
  8
DIMNSIONS
  6
Continuous
 62
     7
100
AcDbLine
 10
-1150.0
 20
-1527.299544325086
 30
0.0
 11
-1150.0
 21
-1640.0
 31
0.0
  0
LINE
  5
7B
330
307
100
AcDbEntity
  8
DIMNSIONS
  6
Continuous
 62
     7
100
AcDbLine
 10
-588.6599999999998
 20
-1527.299544325086
 30
0.0
 11
-588.6599999999998
 21
-1640.0
 31
0.0
  0
LINE
  5
7C
330
307
100
AcDbEntity
  8
DIMNSIONS
  6
Continuous
 62
     7
100
AcDbLine
 10
-1150.0
 20
-1600.0
 30
0.0
 11
-588.6599999999998
 21
-1600.0
 31
0.0
  0
LINE
  5
7D
330
307
100
AcDbEntity
  8
DIMNSIONS
  6
Continuous
 62
     7
100
AcDbLine
 10
-1150.0
 20
-1600.0
 30
0.0
 11
-1099.987548828125
 21
-1586.599204096995
 31
0.0
  0
LINE
  5
7E
330
307
100
AcDbEntity
  8
DIMNSIONS
  6
Continuous
 62
     7
100
AcDbLine
 10
-1150.0
 20
-1600.0
 30
0.0
 11
-1099.987548828125
 21
-1613.400795903005
 31
0.0
  0
LINE
  5
7F
330
307
100
AcDbEntity
  8
DIMNSIONS
  6
Continuous
 62
     7
100
AcDbLine
 10
-588.6599999999998
 20
-1600.0
 30
0.0
 11
-638.6724511718748
 21
-1613.400795903005
 31
0.0
  0
LINE
  5
80
330
307
100
AcDbEntity
  8
DIMNSIONS
  6
Continuous
 62
     7
100
AcDbLine
 10
-588.6599999999998
 20
-1600.0
 30
0.0
 11
-638.6724511718748
 21
-1586.599204096995
 31
0.0
  0
TEXT
  5
81
330
307
100
AcDbEntity
  8
DIMNSIONS
 62
     7
100
AcDbText
 10
-922.2466666666663
 20
-1580.122222222222
 30
0.0
 40
54.29470486111111
  1
561
 41
0.7
 11
-922.2466666666663
 21
-1525.827517361111
 31
0.0
100
AcDbText
 73
     3
  0
LINE
  5
82
330
307
100
AcDbEntity
  8
DIMNSIONS
  6
Continuous
 62
     7
100
AcDbLine
 10
316.3579555358889
 20
-1527.299544325086
 30
0.0
 11
316.3579555358889
 21
-1640.0
 31
0.0
  0
LINE
  5
83
330
307
100
AcDbEntity
  8
DIMNSIONS
  6
Continuous
 62
     7
100
AcDbLine
 10
-500.0
 20
-1527.299544325086
 30
0.0
 11
-500.0
 21
-1640.0
 31
0.0
  0
LINE
  5
84
330
307
100
AcDbEntity
  8
DIMNSIONS
  6
Continuous
 62
     7
100
AcDbLine
 10
316.3579555358889
 20
-1600.0
 30
0.0
 11
-500.0
 21
-1600.0
 31
0.0
  0
LINE
  5
85
330
307
100
AcDbEntity
  8
DIMNSIONS
  6
Continuous
 62
     7
100
AcDbLine
 10
316.3579555358889
 20
-1600.0
 30
0.0
 11
266.3455043640137
 21
-1613.400795903005
 31
0.0
  0
LINE
  5
86
330
307
100
AcDbEntity
  8
DIMNSIONS
  6
Continuous
 62
     7
100
AcDbLine
 10
316.3579555358889
 20
-1600.0
 30
0.0
 11
266.3455043640137
 21
-1586.599204096995
 31
0.0
  0
LINE
  5
87
330
307
100
AcDbEntity
  8
DIMNSIONS
  6
Continuous
 62
     7
100
AcDbLine
 10
-500.0
 20
-1600.0
 30
0.0
 11
-449.987548828125
 21
-1586.599204096995
 31
0.0
  0
LINE
  5
88
330
307
100
AcDbEntity
  8
DIMNSIONS
  6
Continuous
 62
     7
100
AcDbLine
 10
-500.0
 20
-1600.0
 30
0.0
 11
-449.987548828125
 21
-1613.400795903005
 31
0.0
  0
TEXT
  5
89
330
307
100
AcDbEntity
  8
DIMNSIONS
 62
     7
100
AcDbText
 10
-144.7376888987223
 20
-1580.122222222222
 30
0.0
 40
54.29470486111111
  1
816
 41
0.7
 11
-144.7376888987223
 21
-1525.827517361111
 31
0.0
100
AcDbText
 73
     3
  0
LINE
  5
8A
330
307
100
AcDbEntity
  8
DIMNSIONS
  6
Continuous
 62
     7
100
AcDbLine
 10
-909.3300000000001
 20
-750.0
 30
0.0
 11
-1365.0
 21
-750.0
 31
0.0
  0
LINE
  5
8B
330
307
100
AcDbEntity
  8
DIMNSIONS
  6
Continuous
 62
     7
100
AcDbLine
 10
-1177.3
 20
66.3560000000001
 30
0.0
 11
-1365.0
 21
66.3560000000001
 31
0.0
  0
LINE
  5
8C
330
307
100
AcDbEntity
  8
DIMNSIONS
  6
Continuous
 62
     7
100
AcDbLine
 10
-1325.0
 20
-750.0
 30
0.0
 11
-1325.0
 21
66.3560000000001
 31
0.0
  0
LINE
  5
8D
330
307
100
AcDbEntity
  8
DIMNSIONS
  6
Continuous
 62
     7
100
AcDbLine
 10
-1325.0
 20
-750.0
 30
0.0
 11
-1338.400795903005
 21
-699.987548828125
 31
0.0
  0
LINE
  5
8E
330
307
100
AcDbEntity
  8
DIMNSIONS
  6
Continuous
 62
     7
100
AcDbLine
 10
-1325.0
 20
-750.0
 30
0.0
 11
-1311.599204096995
 21
-699.987548828125
 31
0.0
  0
LINE
  5
8F
330
307
100
AcDbEntity
  8
DIMNSIONS
  6
Continuous
 62
     7
100
AcDbLine
 10
-1325.0
 20
66.3560000000001
 30
0.0
 11
-1311.599204096995
 21
16.34354882812511
 31
0.0
  0
LINE
  5
90
330
307
100
AcDbEntity
  8
DIMNSIONS
  6
Continuous
 62
     7
100
AcDbLine
 10
-1325.0
 20
66.3560000000001
 30
0.0
 11
-1338.400795903005
 21
16.34354882812511
 31
0.0
  0
TEXT
  5
91
330
307
100
AcDbEntity
  8
DIMNSIONS
 62
     7
100
AcDbText
 10
-1344.877777777778
 20
-394.7386666666666
 30
0.0
 40
54.29470486111111
  1
816
 50
90.0
 41
0.7
 11
-1399.172482638889
 21
-394.7386666666666
 31
0.0
100
AcDbText
 73
     3
  0
LINE
  5
92
330
307
100
AcDbEntity
  8
DIMNSIONS
  6
Continuous
 62
     7
100
AcDbLine
 10
-1177.3
 20
66.3560000000001
 30
0.0
 11
-1215.0
 21
66.3560000000001
 31
0.0
  0
LINE
  5
93
330
307
100
AcDbEntity
  8
DIMNSIONS
  6
Continuous
 62
     7
100
AcDbLine
 10
-909.3300000000001
 20
24.44600000000011
 30
0.0
 11
-1215.0
 21
24.44600000000011
 31
0.0
  0
LINE
  5
94
330
307
100
AcDbEntity
  8
DIMNSIONS
  6
Continuous
 62
     7
100
AcDbLine
 10
-1175.0
 20
24.44600000000011
 30
0.0
 11
-1175.0
 21
66.3560000000001
 31
0.0
  0
LINE
  5
95
330
307
100
AcDbEntity
  8
DIMNSIONS
  6
Continuous
 62
     7
100
AcDbLine
 10
-1175.0
 20
66.3560000000001
 30
0.0
 11
-1175.0
 21
175.0590998806425
 31
0.0
  0
LINE
  5
96
330
307
100
AcDbEntity
  8
DIMNSIONS
  6
Continuous
 62
     7
100
AcDbLine
 10
-1175.0
 20
66.3560000000001
 30
0.0
 11
-1188.400795903005
 21
116.3684511718751
 31
0.0
  0
LINE
  5
97
330
307
100
AcDbEntity
  8
DIMNSIONS
  6
Continuous
 62
     7
100
AcDbLine
 10
-1175.0
 20
66.3560000000001
 30
0.0
 11
-1161.599204096995
 21
116.3684511718751
 31
0.0
  0
LINE
  5
98
330
307
100
AcDbEntity
  8
DIMNSIONS
  6
Continuous
 62
     7
100
AcDbLine
 10
-1175.0
 20
24.44600000000011
 30
0.0
 11
-1175.0
 21
-75.55399999999986
 31
0.0
  0
LINE
  5
99
330
307
100
AcDbEntity
  8
DIMNSIONS
  6
Continuous
 62
     7
100
AcDbLine
 10
-1175.0
 20
24.44600000000011
 30
0.0
 11
-1161.599204096995
 21
-25.56645117187489
 31
0.0
  0
LINE
  5
9A
330
307
100
AcDbEntity
  8
DIMNSIONS
  6
Continuous
 62
     7
100
AcDbLine
 10
-1175.0
 20
24.44600000000011
 30
0.0
 11
-1188.400795903005
 21
-25.56645117187489
 31
0.0
  0
TEXT
  5
9B
330
307
100
AcDbEntity
  8
DIMNSIONS
 62
     7
100
AcDbText
 10
-1194.877777777778
 20
104.5035443250869
 30
0.0
 40
54.29470486111111
  1
42
 50
90.0
 41
0.7
 11
-1249.172482638889
 21
104.5035443250869
 31
0.0
100
AcDbText
 73
     3
  0
LINE
  5
9C
330
307
100
AcDbEntity
  8
DIMNSIONS
  6
Continuous
 62
     7
100
AcDbLine
 10
-1177.3
 20
66.3560000000001
 30
0.0
 11
-1265.0
 21
66.3560000000001
 31
0.0
  0
LINE
  5
9D
330
307
100
AcDbEntity
  8
DIMNSIONS
  6
Continuous
 62
     7
100
AcDbLine
 10
-1147.089955535888
 20
-609.646455674913
 30
0.0
 11
-1265.0
 21
-609.646455674913
 31
0.0
  0
LINE
  5
9E
330
307
100
AcDbEntity
  8
DIMNSIONS
  6
Continuous
 62
     7
100
AcDbLine
 10
-1225.0
 20
66.3560000000001
 30
0.0
 11
-1225.0
 21
-609.646455674913
 31
0.0
  0
LINE
  5
9F
330
307
100
AcDbEntity
  8
DIMNSIONS
  6
Continuous
 62
     7
100
AcDbLine
 10
-1225.0
 20
66.3560000000001
 30
0.0
 11
-1211.599204096995
 21
16.34354882812511
 31
0.0
  0
LINE
  5
A0
330
307
100
AcDbEntity
  8
DIMNSIONS
  6
Continuous
 62
     7
100
AcDbLine
 10
-1225.0
 20
66.3560000000001
 30
0.0
 11
-1238.400795903005
 21
16.34354882812511
 31
0.0
  0
LINE
  5
A1
330
307
100
AcDbEntity
  8
DIMNSIONS
  6
Continuous
 62
     7
100
AcDbLine
 10
-1225.0
 20
-609.646455674913
 30
0.0
 11
-1238.400795903005
 21
-559.6340045030379
 31
0.0
  0
LINE
  5
A2
330
307
100
AcDbEntity
  8
DIMNSIONS
  6
Continuous
 62
     7
100
AcDbLine
 10
-1225.0
 20
-609.646455674913
 30
0.0
 11
-1211.599204096995
 21
-559.6340045030379
 31
0.0
  0
TEXT
  5
A3
330
307
100
AcDbEntity
  8
DIMNSIONS
 62
     7
100
AcDbText
 10
-1244.877777777778
 20
-324.5618945041232
 30
0.0
 40
54.29470486111111
  1
676
 50
90.0
 41
0.7
 11
-1299.172482638889
 21
-324.5618945041232
 31
0.0
100
AcDbText
 73
     3
  0
LINE
  5
A4
330
307
100
AcDbEntity
  8
DIMNSIONS
  6
Continuous
 62
     7
100
AcDbLine
 10
343.6579555358889
 20
-1499.999544325087
 30
0.0
 11
440.0
 21
-1499.999544325087
 31
0.0
  0
LINE
  5
A5
330
307
100
AcDbEntity
  8
DIMNSIONS
  6
Continuous
 62
     7
100
AcDbLine
 10
-319.6464556749129
 20
-1458.089544325087
 30
0.0
 11
440.0
 21
-1458.089544325087
 31
0.0
  0
LINE
  5
A6
330
307
100
AcDbEntity
  8
DIMNSIONS
  6
Continuous
 62
     7
100
AcDbLine
 10
400.0
 20
-1458.089544325087
 30
0.0
 11
400.0
 21
-1499.999544325087
 31
0.0
  0
LINE
  5
A7
330
307
100
AcDbEntity
  8
DIMNSIONS
  6
Continuous
 62
     7
100
AcDbLine
 10
400.0
 20
-1499.999544325087
 30
0.0
 11
400.0
 21
-1599.999544325086
 31
0.0
  0
LINE
  5
A8
330
307
100
AcDbEntity
  8
DIMNSIONS
  6
Continuous
 62
     7
100
AcDbLine
 10
400.0
 20
-1499.999544325087
 30
0.0
 11
413.4007959030048
 21
-1550.011995496961
 31
0.0
  0
LINE
  5
A9
330
307
100
AcDbEntity
  8
DIMNSIONS
  6
Continuous
 62
     7
100
AcDbLine
 10
400.0
 20
-1499.999544325087
 30
0.0
 11
386.5992040969952
 21
-1550.011995496961
 31
0.0
  0
LINE
  5
AA
330
307
100
AcDbEntity
  8
DIMNSIONS
  6
Continuous
 62
     7
100
AcDbLine
 10
400.0
 20
-1458.089544325087
 30
0.0
 11
400.0
 21
-1354.444444444444
 31
0.0
  0
LINE
  5
AB
330
307
100
AcDbEntity
  8
DIMNSIONS
  6
Continuous
 62
     7
100
AcDbLine
 10
400.0
 20
-1458.089544325087
 30
0.0
 11
386.5992040969952
 21
-1408.077093153212
 31
0.0
  0
LINE
  5
AC
330
307
100
AcDbEntity
  8
DIMNSIONS
  6
Continuous
 62
     7
100
AcDbLine
 10
400.0
 20
-1458.089544325087
 30
0.0
 11
413.4007959030048
 21
-1408.077093153212
 31
0.0
  0
TEXT
  5
AD
330
307
100
AcDbEntity
  8
DIMNSIONS
 62
     7
100
AcDbText
 10
380.1222222222222
 20
-1425.0
 30
0.0
 40
54.29470486111111
  1
42
 50
90.0
 41
0.7
 11
325.8275173611111
 21
-1425.0
 31
0.0
100
AcDbText
 73
     3
  0
LINE
  5
AE
330
307
100
AcDbEntity
  8
DIMNSIONS
  6
Continuous
 62
     7
100
AcDbLine
 10
-622.4715972256131
 20
-616.1366676943707
 30
0.0
 11
-574.9999999999999
 21
-649.9999999999999
 31
0.0
  0
LINE
  5
AF
330
307
100
AcDbEntity
  8
DIMNSIONS
  6
Continuous
 62
     7
100
AcDbLine
 10
-622.4715972256131
 20
-616.1366676943707
 30
0.0
 11
-573.8174148499552
 21
-633.8453418516697
 31
0.0
  0
LINE
  5
B0
330
307
100
AcDbEntity
  8
DIMNSIONS
  6
Continuous
 62
     7
100
AcDbLine
 10
-622.4715972256131
 20
-616.1366676943707
 30
0.0
 11
-589.1901763665816
 21
-655.7999205697615
 31
0.0
  0
LINE
  5
B1
330
307
100
AcDbEntity
  8
DIMNSIONS
  6
Continuous
 62
     7
100
AcDbLine
 10
-574.9999999999999
 20
-649.9999999999999
 30
0.0
 11
-534.9999999999998
 21
-649.9999999999999
 31
0.0
  0
TEXT
  5
B2
330
307
100
AcDbEntity
  8
DIMNSIONS
 62
     7
100
AcDbText
 10
-534.9999999999998
 20
-675.3999999999998
 30
0.0
 40
54.29470486111111
  1
M10(6ヵ所)
 41
0.7
 11
-534.9999999999998
 21
-621.1052951388888
 31
0.0
100
AcDbText
 73
     3
  0
LINE
  5
B3
330
307
100
AcDbEntity
  8
DIMNSIONS
  6
Continuous
 62
     7
100
AcDbLine
 10
772.3700762586057
 20
-987.8012780359396
 30
0.0
 11
674.9999555358885
 21
-900.0
 31
0.0
  0
LINE
  5
B4
330
307
100
AcDbEntity
  8
DIMNSIONS
  6
Continuous
 62
     7
100
AcDbLine
 10
772.3700762586057
 20
-987.8012780359396
 30
0.0
 11
726.6539641376254
 21
-963.4935900423204
 31
0.0
  0
LINE
  5
B5
330
307
100
AcDbEntity
  8
DIMNSIONS
  6
Continuous
 62
     7
100
AcDbLine
 10
772.3700762586057
 20
-987.8012780359396
 30
0.0
 11
744.9326057963885
 21
-943.892146665709
 31
0.0
  0
LINE
  5
B6
330
307
100
AcDbEntity
  8
DIMNSIONS
  6
Continuous
 62
     7
100
AcDbLine
 10
674.9999555358885
 20
-900.0
 30
0.0
 11
714.9999555358887
 21
-900.0
 31
0.0
  0
TEXT
  5
B7
330
307
100
AcDbEntity
  8
DIMNSIONS
 62
     7
100
AcDbText
 10
714.9999555358887
 20
-925.4000000000001
 30
0.0
 40
54.29470486111111
  1
M10(2ヵ所)
 41
0.7
 11
714.9999555358887
 21
-871.1052951388889
 31
0.0
100
AcDbText
 73
     3
  0
LINE
  5
B8
330
307
100
AcDbEntity
  8
DIMNSIONS
  6
Continuous
 62
     7
100
AcDbLine
 10
-355.8274110280598
 20
-984.7823127278445
 30
0.0
 11
-325.0
 21
-900.0
 31
0.0
  0
LINE
  5
B9
330
307
100
AcDbEntity
  8
DIMNSIONS
  6
Continuous
 62
     7
100
AcDbLine
 10
-355.8274110280598
 20
-984.7823127278445
 30
0.0
 11
-351.3147743328988
 21
-933.2026392787945
 31
0.0
  0
LINE
  5
BA
330
307
100
AcDbEntity
  8
DIMNSIONS
  6
Continuous
 62
     7
100
AcDbLine
 10
-355.8274110280598
 20
-984.7823127278445
 30
0.0
 11
-326.1295162874755
 21
-942.3693235496418
 31
0.0
  0
LINE
  5
BB
330
307
100
AcDbEntity
  8
DIMNSIONS
  6
Continuous
 62
     7
100
AcDbLine
 10
-325.0
 20
-900.0
 30
0.0
 11
-285.0
 21
-900.0
 31
0.0
  0
TEXT
  5
BC
330
307
100
AcDbEntity
  8
DIMNSIONS
 62
     7
100
AcDbText
 10
-285.0
 20
-925.4000000000001
 30
0.0
 40
54.29470486111111
  1
M10(4ヵ所)
 41
0.7
 11
-285.0
 21
-871.1052951388889
 31
0.0
100
AcDbText
 73
     3
  0
LINE
  5
BD
330
307
100
AcDbEntity
  8
DIMNSIONS
  6
Continuous
 62
     7
100
AcDbLine
 10
-1107.089955535888
 20
-649.6464556749129
 30
0.0
 11
-1107.089955535888
 21
-890.0
 31
0.0
  0
LINE
  5
BE
330
307
100
AcDbEntity
  8
DIMNSIONS
  6
Continuous
 62
     7
100
AcDbLine
 10
-869.3299999999998
 20
-15.55399999999988
 30
0.0
 11
-869.3299999999998
 21
-890.0
 31
0.0
  0
LINE
  5
BF
330
307
100
AcDbEntity
  8
DIMNSIONS
  6
Continuous
 62
     7
100
AcDbLine
 10
-1107.089955535888
 20
-850.0
 30
0.0
 11
-869.3299999999998
 21
-850.0
 31
0.0
  0
LINE
  5
C0
330
307
100
AcDbEntity
  8
DIMNSIONS
  6
Continuous
 62
     7
100
AcDbLine
 10
-1107.089955535888
 20
-850.0
 30
0.0
 11
-1057.077504364014
 21
-836.5992040969953
 31
0.0
  0
LINE
  5
C1
330
307
100
AcDbEntity
  8
DIMNSIONS
  6
Continuous
 62
     7
100
AcDbLine
 10
-1107.089955535888
 20
-850.0
 30
0.0
 11
-1057.077504364014
 21
-863.400795903005
 31
0.0
  0
LINE
  5
C2
330
307
100
AcDbEntity
  8
DIMNSIONS
  6
Continuous
 62
     7
100
AcDbLine
 10
-869.3299999999998
 20
-850.0
 30
0.0
 11
-919.3424511718747
 21
-863.400795903005
 31
0.0
  0
LINE
  5
C3
330
307
100
AcDbEntity
  8
DIMNSIONS
  6
Continuous
 62
     7
100
AcDbLine
 10
-869.3299999999998
 20
-850.0
 30
0.0
 11
-919.3424511718747
 21
-836.5992040969953
 31
0.0
  0
TEXT
  5
C4
330
307
100
AcDbEntity
  8
DIMNSIONS
 62
     7
100
AcDbText
 10
-1041.126644434611
 20
-830.122222222222
 30
0.0
 40
54.29470486111111
  1
238
 41
0.7
 11
-1041.126644434611
 21
-775.8275173611109
 31
0.0
100
AcDbText
 73
     3
  0
LINE
  5
C5
330
307
100
AcDbEntity
  8
DIMNSIONS
  6
Continuous
 62
     7
100
AcDbLine
 10
-631.5699555358888
 20
-649.6464556749129
 30
0.0
 11
-631.5699555358888
 21
-890.0
 31
0.0
  0
LINE
  5
C6
330
307
100
AcDbEntity
  8
DIMNSIONS
  6
Continuous
 62
     7
100
AcDbLine
 10
-869.3299999999998
 20
-15.55399999999988
 30
0.0
 11
-869.3299999999998
 21
-890.0
 31
0.0
  0
LINE
  5
C7
330
307
100
AcDbEntity
  8
DIMNSIONS
  6
Continuous
 62
     7
100
AcDbLine
 10
-631.5699555358888
 20
-850.0
 30
0.0
 11
-869.3299999999998
 21
-850.0
 31
0.0
  0
LINE
  5
C8
330
307
100
AcDbEntity
  8
DIMNSIONS
  6
Continuous
 62
     7
100
AcDbLine
 10
-631.5699555358888
 20
-850.0
 30
0.0
 11
-681.5824067077635
 21
-863.400795903005
 31
0.0
  0
LINE
  5
C9
330
307
100
AcDbEntity
  8
DIMNSIONS
  6
Continuous
 62
     7
100
AcDbLine
 10
-631.5699555358888
 20
-850.0
 30
0.0
 11
-681.5824067077635
 21
-836.5992040969953
 31
0.0
  0
LINE
  5
CA
330
307
100
AcDbEntity
  8
DIMNSIONS
  6
Continuous
 62
     7
100
AcDbLine
 10
-869.3299999999998
 20
-850.0
 30
0.0
 11
-819.317548828125
 21
-836.5992040969953
 31
0.0
  0
LINE
  5
CB
330
307
100
AcDbEntity
  8
DIMNSIONS
  6
Continuous
 62
     7
100
AcDbLine
 10
-869.3299999999998
 20
-850.0
 30
0.0
 11
-819.317548828125
 21
-863.400795903005
 31
0.0
  0
TEXT
  5
CC
330
307
100
AcDbEntity
  8
DIMNSIONS
 62
     7
100
AcDbText
 10
-803.3666444346108
 20
-830.122222222222
 30
0.0
 40
54.29470486111111
  1
238
 41
0.7
 11
-803.3666444346108
 21
-775.8275173611109
 31
0.0
100
AcDbText
 73
     3
  0
LINE
  5
CD
330
307
100
AcDbEntity
  8
DIMNSIONS
  6
Continuous
 62
     7
100
AcDbLine
 10
343.6579555358889
 20
-1499.999544325087
 30
0.0
 11
490.0
 21
-1499.999544325087
 31
0.0
  0
LINE
  5
CE
330
307
100
AcDbEntity
  8
DIMNSIONS
  6
Continuous
 62
     7
100
AcDbLine
 10
-319.6464556749129
 20
-995.2855443250868
 30
0.0
 11
490.0
 21
-995.2855443250868
 31
0.0
  0
LINE
  5
CF
330
307
100
AcDbEntity
  8
DIMNSIONS
  6
Continuous
 62
     7
100
AcDbLine
 10
450.0
 20
-1499.999544325087
 30
0.0
 11
450.0
 21
-995.2855443250868
 31
0.0
  0
LINE
  5
D0
330
307
100
AcDbEntity
  8
DIMNSIONS
  6
Continuous
 62
     7
100
AcDbLine
 10
450.0
 20
-1499.999544325087
 30
0.0
 11
436.5992040969951
 21
-1449.987093153211
 31
0.0
  0
LINE
  5
D1
330
307
100
AcDbEntity
  8
DIMNSIONS
  6
Continuous
 62
     7
100
AcDbLine
 10
450.0
 20
-1499.999544325087
 30
0.0
 11
463.4007959030048
 21
-1449.987093153211
 31
0.0
  0
LINE
  5
D2
330
307
100
AcDbEntity
  8
DIMNSIONS
  6
Continuous
 62
     7
100
AcDbLine
 10
450.0
 20
-995.2855443250868
 30
0.0
 11
463.4007959030048
 21
-1045.297995496962
 31
0.0
  0
LINE
  5
D3
330
307
100
AcDbEntity
  8
DIMNSIONS
  6
Continuous
 62
     7
100
AcDbLine
 10
450.0
 20
-995.2855443250868
 30
0.0
 11
436.5992040969951
 21
-1045.297995496962
 31
0.0
  0
TEXT
  5
D4
330
307
100
AcDbEntity
  8
DIMNSIONS
 62
     7
100
AcDbText
 10
430.1222222222222
 20
-1300.559210991753
 30
0.0
 40
54.29470486111111
  1
505
 50
90.0
 41
0.7
 11
375.8275173611111
 21
-1300.559210991753
 31
0.0
100
AcDbText
 73
     3
  0
TEXT
  5
D5
330
307
100
AcDbEntity
  8
DATA
 62
     7
100
AcDbText
 10
1099.817054067043
 20
-2167.387599806214
 30
0.0
 40
48.86523437500001
  1
ASB6118
 41
0.7
 11
1099.817054067043
 21
-2118.522365431214
 31
0.0
100
AcDbText
 73
     3
  0
TEXT
  5
D6
330
307
100
AcDbEntity
  8
DATA
 62
     7
100
AcDbText
 10
1053.375455831121
 20
-2086.205740758074
 30
0.0
 40
38.00629340277778
  1
サブウーファー
 41
0.7
 11
1053.375455831121
 21
-2048.199447355297
 31
0.0
100
AcDbText
 73
     3
  0
LINE
  5
D7
330
307
100
AcDbEntity
  8
DATA
  6
Continuous
 62
     7
100
AcDbLine
 10
-423.5440444641113
 20
-968.8855443250869
 30
0.0
 11
-500.0
 21
-968.8855443250869
 31
0.0
  0
LINE
  5
D8
330
307
100
AcDbEntity
  8
DATA
  6
Continuous
 62
     7
100
AcDbLine
 10
-500.0
 20
-1483.235544325087
 30
0.0
 11
-423.5440444641113
 21
-1483.235544325087
 31
0.0
  0
LINE
  5
D9
330
307
100
AcDbEntity
  8
DATA
  6
Continuous
 62
     7
100
AcDbLine
 10
-1104.28
 20
-1470.535544325086
 30
0.0
 11
-634.3799999999996
 21
-1470.535544325086
 31
0.0
  0
LINE
  5
DA
330
307
100
AcDbEntity
  8
DATA
  6
Continuous
 62
     7
100
AcDbLine
 10
-1150.0
 20
-1483.235544325087
 30
0.0
 11
-588.6599999999998
 21
-1483.235544325087
 31
0.0
  0
LINE
  5
DB
330
307
100
AcDbEntity
  8
DATA
  6
Continuous
 62
     7
100
AcDbLine
 10
-1104.28
 20
-1483.235544325087
 30
0.0
 11
-1104.28
 21
-1470.535544325086
 31
0.0
  0
ARC
  5
DC
330
307
100
AcDbEntity
  8
DATA
  6
Continuous
 62
     7
100
AcDbCircle
 10
-612.5359999999996
 20
-1332.359544325087
 30
0.0
 40
6.349999999999454
100
AcDbArc
 50
0.0
 51
135.0000000000022
  0
ARC
  5
DD
330
307
100
AcDbEntity
  8
DATA
  6
Continuous
 62
     7
100
AcDbCircle
 10
-743.8539999999997
 20
-1463.677544325087
 30
0.0
 40
6.349999999999913
100
AcDbArc
 50
135.0
 51
270.0
  0
ARC
  5
DE
330
307
100
AcDbEntity
  8
DATA
  6
Continuous
 62
     7
100
AcDbCircle
 10
-612.5359999999996
 20
-1463.677544325087
 30
0.0
 40
6.350000000000136
100
AcDbArc
 50
270.0
 51
0.0
  0
LINE
  5
DF
330
307
100
AcDbEntity
  8
DATA
  6
Continuous
 62
     7
100
AcDbLine
 10
-617.1079999999996
 20
-1328.041544325087
 30
0.0
 11
-748.4259999999998
 21
-1459.359544325087
 31
0.0
  0
LINE
  5
E0
330
307
100
AcDbEntity
  8
DATA
  6
Continuous
 62
     7
100
AcDbLine
 10
-606.1860000000002
 20
-1463.677544325087
 30
0.0
 11
-606.1860000000002
 21
-1332.359544325087
 31
0.0
  0
LINE
  5
E1
330
307
100
AcDbEntity
  8
DATA
  6
Continuous
 62
     7
100
AcDbLine
 10
-634.3799999999996
 20
-1483.235544325087
 30
0.0
 11
-634.3799999999996
 21
-1470.535544325086
 31
0.0
  0
LINE
  5
E2
330
307
100
AcDbEntity
  8
DATA
  6
Continuous
 62
     7
100
AcDbLine
 10
-743.8539999999997
 20
-1470.027544325087
 30
0.0
 11
-612.5359999999996
 21
-1470.027544325087
 31
0.0
  0
LINE
  5
E3
330
307
100
AcDbEntity
  8
DATA
  6
Continuous
 62
     7
100
AcDbLine
 10
-1104.28
 20
-981.5855443250868
 30
0.0
 11
-634.3799999999996
 21
-981.5855443250868
 31
0.0
  0
LINE
  5
E4
330
307
100
AcDbEntity
  8
DATA
  6
Continuous
 62
     7
100
AcDbLine
 10
-1121.552
 20
-1124.333544325087
 30
0.0
 11
-990.234
 21
-993.0155443250868
 31
0.0
  0
LINE
  5
E5
330
307
100
AcDbEntity
  8
DATA
  6
Continuous
 62
     7
100
AcDbLine
 10
-1132.474
 20
-988.4435443250868
 30
0.0
 11
-1132.474
 21
-1119.761544325087
 31
0.0
  0
ARC
  5
E6
330
307
100
AcDbEntity
  8
DATA
  6
Continuous
 62
     7
100
AcDbCircle
 10
-1126.124
 20
-1119.761544325087
 30
0.0
 40
6.349999999999909
100
AcDbArc
 50
180.0
 51
314.9999999999985
  0
ARC
  5
E7
330
307
100
AcDbEntity
  8
DATA
  6
Continuous
 62
     7
100
AcDbCircle
 10
-994.8059999999999
 20
-988.4435443250868
 30
0.0
 40
6.350000000000236
100
AcDbArc
 50
315.0000000000028
 51
90.0
  0
ARC
  5
E8
330
307
100
AcDbEntity
  8
DATA
  6
Continuous
 62
     7
100
AcDbCircle
 10
-1126.124
 20
-988.4435443250868
 30
0.0
 40
6.349999999999909
100
AcDbArc
 50
90.0
 51
180.0
  0
LINE
  5
E9
330
307
100
AcDbEntity
  8
DATA
  6
Continuous
 62
     7
100
AcDbLine
 10
-1104.28
 20
-981.5855443250868
 30
0.0
 11
-1104.28
 21
-968.8855443250869
 31
0.0
  0
LINE
  5
EA
330
307
100
AcDbEntity
  8
DATA
  6
Continuous
 62
     7
100
AcDbLine
 10
-994.8059999999999
 20
-982.0935443250867
 30
0.0
 11
-1126.124
 21
-982.0935443250867
 31
0.0
  0
LINE
  5
EB
330
307
100
AcDbEntity
  8
DATA
  6
Continuous
 62
     7
100
AcDbLine
 10
-634.3799999999996
 20
-981.5855443250868
 30
0.0
 11
-634.3799999999996
 21
-968.8855443250869
 31
0.0
  0
LINE
  5
EC
330
307
100
AcDbEntity
  8
DATA
  6
Continuous
 62
     7
100
AcDbLine
 10
-423.5440444641113
 20
-1483.235544325087
 30
0.0
 11
-423.5440444641113
 21
-968.8855443250869
 31
0.0
  0
LINE
  5
ED
330
307
100
AcDbEntity
  8
DATA
  6
Continuous
 62
     7
100
AcDbLine
 10
-455.5480444641112
 20
-1483.235544325087
 30
0.0
 11
-455.5480444641112
 21
-1470.535544325086
 31
0.0
  0
LINE
  5
EE
330
307
100
AcDbEntity
  8
DATA
  6
Continuous
 62
     7
100
AcDbLine
 10
-492.8860444641114
 20
-1483.235544325087
 30
0.0
 11
-492.8860444641114
 21
-1470.535544325086
 31
0.0
  0
LINE
  5
EF
330
307
100
AcDbEntity
  8
DATA
  6
Continuous
 62
     7
100
AcDbLine
 10
-492.8860444641114
 20
-1470.535544325086
 30
0.0
 11
-423.5440444641113
 21
-1470.535544325086
 31
0.0
  0
LINE
  5
F0
330
307
100
AcDbEntity
  8
DATA
  6
Continuous
 62
     7
100
AcDbLine
 10
-455.5480444641112
 20
-981.5855443250868
 30
0.0
 11
-455.5480444641112
 21
-968.8855443250869
 31
0.0
  0
LINE
  5
F1
330
307
100
AcDbEntity
  8
DATA
  6
Continuous
 62
     7
100
AcDbLine
 10
-492.8860444641114
 20
-981.5855443250868
 30
0.0
 11
-492.8860444641114
 21
-968.8855443250869
 31
0.0
  0
LINE
  5
F2
330
307
100
AcDbEntity
  8
DATA
  6
Continuous
 62
     7
100
AcDbLine
 10
-492.8860444641114
 20
-981.5855443250868
 30
0.0
 11
-423.5440444641113
 21
-981.5855443250868
 31
0.0
  0
LINE
  5
F3
330
307
100
AcDbEntity
  8
DATA
  6
Continuous
 62
     7
100
AcDbLine
 10
-442.3400444641112
 20
-1000.381544325087
 30
0.0
 11
-435.7360444641114
 21
-1000.381544325087
 31
0.0
  0
LINE
  5
F4
330
307
100
AcDbEntity
  8
DATA
  6
Continuous
 62
     7
100
AcDbLine
 10
-435.7360444641114
 20
-994.539544325087
 30
0.0
 11
-423.5440444641113
 21
-994.539544325087
 31
0.0
  0
LINE
  5
F5
330
307
100
AcDbEntity
  8
DATA
  6
Continuous
 62
     7
100
AcDbLine
 10
-435.7360444641114
 20
-994.539544325087
 30
0.0
 11
-435.7360444641114
 21
-1458.089544325087
 31
0.0
  0
LINE
  5
F6
330
307
100
AcDbEntity
  8
DATA
  6
Continuous
 62
     7
100
AcDbLine
 10
-442.3400444641112
 20
-1000.381544325087
 30
0.0
 11
-442.5940444641116
 21
-1452.247544325087
 31
0.0
  0
LINE
  5
F7
330
307
100
AcDbEntity
  8
DATA
  6
Continuous
 62
     7
100
AcDbLine
 10
-442.5940444641116
 20
-1452.247544325087
 30
0.0
 11
-435.7360444641114
 21
-1452.247544325087
 31
0.0
  0
LINE
  5
F8
330
307
100
AcDbEntity
  8
DATA
  6
Continuous
 62
     7
100
AcDbLine
 10
-435.7360444641114
 20
-1458.089544325087
 30
0.0
 11
-423.5440444641113
 21
-1457.835544325086
 31
0.0
  0
LINE
  5
F9
330
307
100
AcDbEntity
  8
DATA
  6
Continuous
 62
     7
100
AcDbLine
 10
-423.5440444641113
 20
-994.539544325087
 30
0.0
 11
-423.5440444641113
 21
-1457.835544325086
 31
0.0
  0
CIRCLE
  5
FA
330
307
100
AcDbEntity
  8
DATA
  6
Continuous
 62
     7
100
AcDbCircle
 10
-665.6219999999998
 20
-1310.515544325087
 30
0.0
 40
3.809999999999945
  0
CIRCLE
  5
FB
330
307
100
AcDbEntity
  8
DATA
  6
Continuous
 62
     7
100
AcDbCircle
 10
-785.0019999999998
 20
-1429.895544325087
 30
0.0
 40
3.8100000000004
  0
CIRCLE
  5
FC
330
307
100
AcDbEntity
  8
DATA
  6
Continuous
 62
     7
100
AcDbCircle
 10
-953.658
 20
-1429.895544325087
 30
0.0
 40
3.8100000000004
  0
CIRCLE
  5
FD
330
307
100
AcDbEntity
  8
DATA
  6
Continuous
 62
     7
100
AcDbCircle
 10
-1073.038
 20
-1310.515544325087
 30
0.0
 40
3.8100000000004
  0
CIRCLE
  5
FE
330
307
100
AcDbEntity
  8
DATA
  6
Continuous
 62
     7
100
AcDbCircle
 10
-1073.038
 20
-1141.859544325087
 30
0.0
 40
3.8100000000004
  0
CIRCLE
  5
FF
330
307
100
AcDbEntity
  8
DATA
  6
Continuous
 62
     7
100
AcDbCircle
 10
-953.658
 20
-1022.479544325087
 30
0.0
 40
3.8100000000004
  0
CIRCLE
  5
100
330
307
100
AcDbEntity
  8
DATA
  6
Continuous
 62
     7
100
AcDbCircle
 10
-665.6219999999998
 20
-1141.859544325087
 30
0.0
 40
3.809999999999945
  0
CIRCLE
  5
101
330
307
100
AcDbEntity
  8
DATA
  6
Continuous
 62
     7
100
AcDbCircle
 10
-785.0019999999998
 20
-1022.479544325087
 30
0.0
 40
3.8100000000004
  0
CIRCLE
  5
102
330
307
100
AcDbEntity
  8
DATA
  6
Continuous
 62
     7
100
AcDbCircle
 10
-869.3299999999998
 20
-1226.187544325086
 30
0.0
 40
76.20000000000027
  0
CIRCLE
  5
103
330
307
100
AcDbEntity
  8
DATA
  6
Continuous
 62
     7
100
AcDbCircle
 10
-869.3299999999998
 20
-1226.187544325086
 30
0.0
 40
194.056
  0
CIRCLE
  5
104
330
307
100
AcDbEntity
  8
DATA
  6
Continuous
 62
     7
100
AcDbCircle
 10
-869.3299999999998
 20
-1226.187544325086
 30
0.0
 40
201.676
  0
CIRCLE
  5
105
330
307
100
AcDbEntity
  8
DATA
  6
Continuous
 62
     7
100
AcDbCircle
 10
-869.3299999999998
 20
-1226.187544325086
 30
0.0
 40
209.0419999999999
  0
CIRCLE
  5
106
330
307
100
AcDbEntity
  8
DATA
  6
Continuous
 62
     7
100
AcDbCircle
 10
-869.3299999999998
 20
-1226.187544325086
 30
0.0
 40
231.6480000000001
  0
LINE
  5
107
330
307
100
AcDbEntity
  8
DATA
  6
Continuous
 62
     7
100
AcDbLine
 10
-601.3599999999999
 20
66.3560000000001
 30
0.0
 11
-1137.3
 21
66.3560000000001
 31
0.0
  0
LINE
  5
108
330
307
100
AcDbEntity
  8
DATA
  6
Continuous
 62
     7
100
AcDbLine
 10
-1150.0
 20
53.65600000000011
 30
0.0
 11
-1150.0
 21
-678.118
 31
0.0
  0
LINE
  5
109
330
307
100
AcDbEntity
  8
DATA
  6
Continuous
 62
     7
100
AcDbLine
 10
-588.6599999999998
 20
-678.118
 30
0.0
 11
-588.6599999999998
 21
53.65600000000011
 31
0.0
  0
ARC
  5
10A
330
307
100
AcDbEntity
  8
DATA
  6
Continuous
 62
     7
100
AcDbCircle
 10
-615.3299999999997
 20
-678.118
 30
0.0
 40
26.67000000000008
100
AcDbArc
 50
290.1700000000003
 51
0.0
  0
ARC
  5
10B
330
307
100
AcDbEntity
  8
DATA
  6
Continuous
 62
     7
100
AcDbCircle
 10
-869.3299999999998
 20
13.27000000000009
 30
0.0
 40
763.2700000000002
100
AcDbArc
 50
249.83
 51
290.17
  0
ARC
  5
10C
330
307
100
AcDbEntity
  8
DATA
  6
Continuous
 62
     7
100
AcDbCircle
 10
-1123.33
 20
-678.118
 30
0.0
 40
26.66999999999962
100
AcDbArc
 50
180.0
 51
249.8299999999999
  0
LINE
  5
10D
330
307
100
AcDbEntity
  8
DATA
  6
Continuous
 62
     7
100
AcDbLine
 10
-1137.3
 20
-952.3755443250868
 30
0.0
 11
-601.3599999999999
 21
-952.3755443250868
 31
0.0
  0
LINE
  5
10E
330
307
100
AcDbEntity
  8
DATA
  6
Continuous
 62
     7
100
AcDbLine
 10
-588.6599999999998
 20
-968.8855443250869
 30
0.0
 11
-1150.0
 21
-968.8855443250869
 31
0.0
  0
LINE
  5
10F
330
307
100
AcDbEntity
  8
DATA
  6
Continuous
 62
     7
100
AcDbLine
 10
-601.3599999999999
 20
-1499.999544325087
 30
0.0
 11
-1137.3
 21
-1499.999544325087
 31
0.0
  0
LINE
  5
110
330
307
100
AcDbEntity
  8
DATA
  6
Continuous
 62
     7
100
AcDbLine
 10
-1150.0
 20
-965.0755443250869
 30
0.0
 11
-1150.0
 21
-1487.299544325086
 31
0.0
  0
LINE
  5
111
330
307
100
AcDbEntity
  8
DATA
  6
Continuous
 62
     7
100
AcDbLine
 10
-588.6599999999998
 20
-1487.299544325086
 30
0.0
 11
-588.6599999999998
 21
-965.0755443250869
 31
0.0
  0
LINE
  5
112
330
307
100
AcDbEntity
  8
DATA
  6
Continuous
 62
     7
100
AcDbLine
 10
-500.0
 20
-965.0755443250869
 30
0.0
 11
-500.0
 21
-968.8855443250869
 31
0.0
  0
LINE
  5
113
330
307
100
AcDbEntity
  8
DATA
  6
Continuous
 62
     7
100
AcDbLine
 10
-487.3
 20
-952.3755443250868
 30
0.0
 11
303.6579555358888
 21
-952.3755443250868
 31
0.0
  0
LINE
  5
114
330
307
100
AcDbEntity
  8
DATA
  6
Continuous
 62
     7
100
AcDbLine
 10
-500.0
 20
-1487.299544325086
 30
0.0
 11
-500.0
 21
-1483.235544325087
 31
0.0
  0
LINE
  5
115
330
307
100
AcDbEntity
  8
DATA
  6
Continuous
 62
     7
100
AcDbLine
 10
303.6579555358888
 20
-1499.999544325087
 30
0.0
 11
-487.3
 21
-1499.999544325087
 31
0.0
  0
LINE
  5
116
330
307
100
AcDbEntity
  8
DATA
  6
Continuous
 62
     7
100
AcDbLine
 10
316.3579555358889
 20
-1487.299544325086
 30
0.0
 11
316.3579555358889
 21
-965.0755443250869
 31
0.0
  0
LINE
  5
117
330
307
100
AcDbEntity
  8
DATA
  6
Continuous
 62
     7
100
AcDbLine
 10
512.7
 20
-952.3755443250868
 30
0.0
 11
1048.639999999999
 21
-952.3755443250868
 31
0.0
  0
LINE
  5
118
330
307
100
AcDbEntity
  8
DATA
  6
Continuous
 62
     7
100
AcDbLine
 10
1048.639999999999
 20
-1499.999544325087
 30
0.0
 11
512.7
 21
-1499.999544325087
 31
0.0
  0
LINE
  5
119
330
307
100
AcDbEntity
  8
DATA
  6
Continuous
 62
     7
100
AcDbLine
 10
500.0
 20
-1487.299544325086
 30
0.0
 11
500.0
 21
-965.0755443250869
 31
0.0
  0
LINE
  5
11A
330
307
100
AcDbEntity
  8
DATA
  6
Continuous
 62
     7
100
AcDbLine
 10
1061.339999999999
 20
-965.0755443250869
 30
0.0
 11
1061.339999999999
 21
-1487.299544325086
 31
0.0
  0
ARC
  5
11B
330
307
100
AcDbEntity
  8
DATA
  6
Continuous
 62
     7
100
AcDbCircle
 10
-601.3599999999999
 20
53.65600000000011
 30
0.0
 40
12.70000000000004
100
AcDbArc
 50
0.0
 51
90.0
  0
ARC
  5
11C
330
307
100
AcDbEntity
  8
DATA
  6
Continuous
 62
     7
100
AcDbCircle
 10
-1137.3
 20
53.65600000000011
 30
0.0
 40
12.69999999999999
100
AcDbArc
 50
90.0
 51
180.0
  0
CIRCLE
  5
11D
330
307
100
AcDbEntity
  8
DATA
  6
Continuous
 62
     7
100
AcDbCircle
 10
-869.3299999999998
 20
24.44600000000011
 30
0.0
 40
11.17600000000038
  0
LINE
  5
11E
330
307
100
AcDbEntity
  8
DATA
  6
Continuous
 62
     7
100
AcDbLine
 10
-866.5359999999989
 20
26.22400000000013
 30
0.0
 11
-869.3299999999998
 21
28.00200000000015
 31
0.0
  0
LINE
  5
11F
330
307
100
AcDbEntity
  8
DATA
  6
Continuous
 62
     7
100
AcDbLine
 10
-872.1239999999996
 20
22.66800000000009
 30
0.0
 11
-869.3299999999998
 21
21.14400000000021
 31
0.0
  0
LINE
  5
120
330
307
100
AcDbEntity
  8
DATA
  6
Continuous
 62
     7
100
AcDbLine
 10
-866.5359999999989
 20
22.66800000000009
 30
0.0
 11
-866.5359999999989
 21
26.22400000000013
 31
0.0
  0
LINE
  5
121
330
307
100
AcDbEntity
  8
DATA
  6
Continuous
 62
     7
100
AcDbLine
 10
-872.1239999999996
 20
26.22400000000013
 30
0.0
 11
-872.1239999999996
 21
22.66800000000009
 31
0.0
  0
LINE
  5
122
330
307
100
AcDbEntity
  8
DATA
  6
Continuous
 62
     7
100
AcDbLine
 10
-869.3299999999998
 20
21.14400000000021
 30
0.0
 11
-866.5359999999989
 21
22.66800000000009
 31
0.0
  0
LINE
  5
123
330
307
100
AcDbEntity
  8
DATA
  6
Continuous
 62
     7
100
AcDbLine
 10
-869.3299999999998
 20
28.00200000000015
 30
0.0
 11
-872.1239999999996
 21
26.22400000000013
 31
0.0
  0
CIRCLE
  5
124
330
307
100
AcDbEntity
  8
DATA
  6
Continuous
 62
     7
100
AcDbCircle
 10
-1107.089955535888
 20
-609.646455674913
 30
0.0
 40
11.17600000000038
  0
LINE
  5
125
330
307
100
AcDbEntity
  8
DATA
  6
Continuous
 62
     7
100
AcDbLine
 10
-1104.295955535887
 20
-607.868455674913
 30
0.0
 11
-1107.089955535888
 21
-606.0904556749131
 31
0.0
  0
LINE
  5
126
330
307
100
AcDbEntity
  8
DATA
  6
Continuous
 62
     7
100
AcDbLine
 10
-1109.883955535888
 20
-611.424455674913
 30
0.0
 11
-1107.089955535888
 21
-612.9484556749129
 31
0.0
  0
LINE
  5
127
330
307
100
AcDbEntity
  8
DATA
  6
Continuous
 62
     7
100
AcDbLine
 10
-1104.295955535887
 20
-611.424455674913
 30
0.0
 11
-1104.295955535887
 21
-607.868455674913
 31
0.0
  0
LINE
  5
128
330
307
100
AcDbEntity
  8
DATA
  6
Continuous
 62
     7
100
AcDbLine
 10
-1109.883955535888
 20
-607.868455674913
 30
0.0
 11
-1109.883955535888
 21
-611.424455674913
 31
0.0
  0
LINE
  5
129
330
307
100
AcDbEntity
  8
DATA
  6
Continuous
 62
     7
100
AcDbLine
 10
-1107.089955535888
 20
-612.9484556749129
 30
0.0
 11
-1104.295955535887
 21
-611.424455674913
 31
0.0
  0
LINE
  5
12A
330
307
100
AcDbEntity
  8
DATA
  6
Continuous
 62
     7
100
AcDbLine
 10
-1107.089955535888
 20
-606.0904556749131
 30
0.0
 11
-1109.883955535888
 21
-607.868455674913
 31
0.0
  0
CIRCLE
  5
12B
330
307
100
AcDbEntity
  8
DATA
  6
Continuous
 62
     7
100
AcDbCircle
 10
-631.5699555358888
 20
-609.646455674913
 30
0.0
 40
11.17600000000038
  0
LINE
  5
12C
330
307
100
AcDbEntity
  8
DATA
  6
Continuous
 62
     7
100
AcDbLine
 10
-628.7759555358879
 20
-607.868455674913
 30
0.0
 11
-631.5699555358888
 21
-606.0904556749131
 31
0.0
  0
LINE
  5
12D
330
307
100
AcDbEntity
  8
DATA
  6
Continuous
 62
     7
100
AcDbLine
 10
-634.3639555358885
 20
-611.424455674913
 30
0.0
 11
-631.5699555358888
 21
-612.9484556749129
 31
0.0
  0
LINE
  5
12E
330
307
100
AcDbEntity
  8
DATA
  6
Continuous
 62
     7
100
AcDbLine
 10
-628.7759555358879
 20
-611.424455674913
 30
0.0
 11
-628.7759555358879
 21
-607.868455674913
 31
0.0
  0
LINE
  5
12F
330
307
100
AcDbEntity
  8
DATA
  6
Continuous
 62
     7
100
AcDbLine
 10
-634.3639555358885
 20
-607.868455674913
 30
0.0
 11
-634.3639555358885
 21
-611.424455674913
 31
0.0
  0
LINE
  5
130
330
307
100
AcDbEntity
  8
DATA
  6
Continuous
 62
     7
100
AcDbLine
 10
-631.5699555358888
 20
-612.9484556749129
 30
0.0
 11
-628.7759555358879
 21
-611.424455674913
 31
0.0
  0
LINE
  5
131
330
307
100
AcDbEntity
  8
DATA
  6
Continuous
 62
     7
100
AcDbLine
 10
-631.5699555358888
 20
-606.0904556749131
 30
0.0
 11
-634.3639555358885
 21
-607.868455674913
 31
0.0
  0
ARC
  5
132
330
307
100
AcDbEntity
  8
DATA
  6
Continuous
 62
     7
100
AcDbCircle
 10
-1137.3
 20
-965.0755443250872
 30
0.0
 40
12.70000000000027
100
AcDbArc
 50
90.0
 51
179.999999999999
  0
ARC
  5
133
330
307
100
AcDbEntity
  8
DATA
  6
Continuous
 62
     7
100
AcDbCircle
 10
-601.3599999999999
 20
-965.0755443250869
 30
0.0
 40
12.70000000000004
100
AcDbArc
 50
0.0
 51
90.0
  0
ARC
  5
134
330
307
100
AcDbEntity
  8
DATA
  6
Continuous
 62
     7
100
AcDbCircle
 10
-601.3599999999999
 20
-1487.299544325087
 30
0.0
 40
12.69999999999982
100
AcDbArc
 50
270.0
 51
0.0000000000010232
  0
ARC
  5
135
330
307
100
AcDbEntity
  8
DATA
  6
Continuous
 62
     7
100
AcDbCircle
 10
-1137.3
 20
-1487.299544325086
 30
0.0
 40
12.69999999999982
100
AcDbArc
 50
180.0
 51
270.000000000001
  0
ARC
  5
136
330
307
100
AcDbEntity
  8
DATA
  6
Continuous
 62
     7
100
AcDbCircle
 10
-487.3
 20
-1487.299544325086
 30
0.0
 40
12.70000000000004
100
AcDbArc
 50
180.0
 51
270.0
  0
ARC
  5
137
330
307
100
AcDbEntity
  8
DATA
  6
Continuous
 62
     7
100
AcDbCircle
 10
303.6579555358888
 20
-1487.299544325087
 30
0.0
 40
12.69999999999982
100
AcDbArc
 50
270.0
 51
0.0000000000010232
  0
ARC
  5
138
330
307
100
AcDbEntity
  8
DATA
  6
Continuous
 62
     7
100
AcDbCircle
 10
303.6579555358887
 20
-965.0755443250869
 30
0.0
 40
12.70000000000004
100
AcDbArc
 50
0.0
 51
89.99999999999978
  0
ARC
  5
139
330
307
100
AcDbEntity
  8
DATA
  6
Continuous
 62
     7
100
AcDbCircle
 10
-487.3
 20
-965.0755443250872
 30
0.0
 40
12.70000000000027
100
AcDbArc
 50
90.0
 51
179.999999999999
  0
ARC
  5
13A
330
307
100
AcDbEntity
  8
DATA
  6
Continuous
 62
     7
100
AcDbCircle
 10
512.7
 20
-1487.299544325086
 30
0.0
 40
12.70000000000004
100
AcDbArc
 50
180.0
 51
270.0
  0
ARC
  5
13B
330
307
100
AcDbEntity
  8
DATA
  6
Continuous
 62
     7
100
AcDbCircle
 10
512.7
 20
-965.0755443250872
 30
0.0
 40
12.70000000000027
100
AcDbArc
 50
90.0
 51
179.999999999999
  0
ARC
  5
13C
330
307
100
AcDbEntity
  8
DATA
  6
Continuous
 62
     7
100
AcDbCircle
 10
1048.64
 20
-965.0755443250869
 30
0.0
 40
12.69999999999982
100
AcDbArc
 50
0.0
 51
90.00000000000101
  0
ARC
  5
13D
330
307
100
AcDbEntity
  8
DATA
  6
Continuous
 62
     7
100
AcDbCircle
 10
1048.639999999999
 20
-1487.299544325087
 30
0.0
 40
12.69999999999982
100
AcDbArc
 50
270.0
 51
0.0000000000010232
  0
CIRCLE
  5
13E
330
307
100
AcDbEntity
  8
DATA
  6
Continuous
 62
     7
100
AcDbCircle
 10
-359.6464556749129
 20
-995.2855443250868
 30
0.0
 40
11.17600000000038
  0
LINE
  5
13F
330
307
100
AcDbEntity
  8
DATA
  6
Continuous
 62
     7
100
AcDbLine
 10
-356.8524556749121
 20
-993.5075443250868
 30
0.0
 11
-359.6464556749129
 21
-991.7295443250868
 31
0.0
  0
LINE
  5
140
330
307
100
AcDbEntity
  8
DATA
  6
Continuous
 62
     7
100
AcDbLine
 10
-362.4404556749128
 20
-997.0635443250868
 30
0.0
 11
-359.6464556749129
 21
-998.5875443250868
 31
0.0
  0
LINE
  5
141
330
307
100
AcDbEntity
  8
DATA
  6
Continuous
 62
     7
100
AcDbLine
 10
-356.8524556749121
 20
-997.0635443250868
 30
0.0
 11
-356.8524556749121
 21
-993.5075443250868
 31
0.0
  0
LINE
  5
142
330
307
100
AcDbEntity
  8
DATA
  6
Continuous
 62
     7
100
AcDbLine
 10
-362.4404556749128
 20
-993.5075443250868
 30
0.0
 11
-362.4404556749128
 21
-997.0635443250868
 31
0.0
  0
LINE
  5
143
330
307
100
AcDbEntity
  8
DATA
  6
Continuous
 62
     7
100
AcDbLine
 10
-359.6464556749129
 20
-998.5875443250868
 30
0.0
 11
-356.8524556749121
 21
-997.0635443250868
 31
0.0
  0
LINE
  5
144
330
307
100
AcDbEntity
  8
DATA
  6
Continuous
 62
     7
100
AcDbLine
 10
-359.6464556749129
 20
-991.7295443250868
 30
0.0
 11
-362.4404556749128
 21
-993.5075443250868
 31
0.0
  0
CIRCLE
  5
145
330
307
100
AcDbEntity
  8
DATA
  6
Continuous
 62
     7
100
AcDbCircle
 10
-359.6464556749129
 20
-1458.089544325087
 30
0.0
 40
11.17600000000038
  0
LINE
  5
146
330
307
100
AcDbEntity
  8
DATA
  6
Continuous
 62
     7
100
AcDbLine
 10
-356.8524556749121
 20
-1459.867544325087
 30
0.0
 11
-359.6464556749129
 21
-1461.645544325087
 31
0.0
  0
LINE
  5
147
330
307
100
AcDbEntity
  8
DATA
  6
Continuous
 62
     7
100
AcDbLine
 10
-362.4404556749128
 20
-1456.311544325087
 30
0.0
 11
-359.6464556749129
 21
-1454.787544325087
 31
0.0
  0
LINE
  5
148
330
307
100
AcDbEntity
  8
DATA
  6
Continuous
 62
     7
100
AcDbLine
 10
-356.8524556749121
 20
-1456.311544325087
 30
0.0
 11
-356.8524556749121
 21
-1459.867544325087
 31
0.0
  0
LINE
  5
149
330
307
100
AcDbEntity
  8
DATA
  6
Continuous
 62
     7
100
AcDbLine
 10
-362.4404556749128
 20
-1459.867544325087
 30
0.0
 11
-362.4404556749128
 21
-1456.311544325087
 31
0.0
  0
LINE
  5
14A
330
307
100
AcDbEntity
  8
DATA
  6
Continuous
 62
     7
100
AcDbLine
 10
-359.6464556749129
 20
-1454.787544325087
 30
0.0
 11
-356.8524556749121
 21
-1456.311544325087
 31
0.0
  0
LINE
  5
14B
330
307
100
AcDbEntity
  8
DATA
  6
Continuous
 62
     7
100
AcDbLine
 10
-359.6464556749129
 20
-1461.645544325087
 30
0.0
 11
-362.4404556749128
 21
-1459.867544325087
 31
0.0
  0
CIRCLE
  5
14C
330
307
100
AcDbEntity
  8
DATA
  6
Continuous
 62
     7
100
AcDbCircle
 10
780.6699999999998
 20
-995.2855443250868
 30
0.0
 40
11.17600000000038
  0
LINE
  5
14D
330
307
100
AcDbEntity
  8
DATA
  6
Continuous
 62
     7
100
AcDbLine
 10
783.4640000000006
 20
-993.5075443250868
 30
0.0
 11
780.6699999999998
 21
-991.7295443250868
 31
0.0
  0
LINE
  5
14E
330
307
100
AcDbEntity
  8
DATA
  6
Continuous
 62
     7
100
AcDbLine
 10
777.876
 20
-997.0635443250868
 30
0.0
 11
780.6699999999998
 21
-998.5875443250868
 31
0.0
  0
LINE
  5
14F
330
307
100
AcDbEntity
  8
DATA
  6
Continuous
 62
     7
100
AcDbLine
 10
783.4640000000006
 20
-997.0635443250868
 30
0.0
 11
783.4640000000006
 21
-993.5075443250868
 31
0.0
  0
LINE
  5
150
330
307
100
AcDbEntity
  8
DATA
  6
Continuous
 62
     7
100
AcDbLine
 10
777.876
 20
-993.5075443250868
 30
0.0
 11
777.876
 21
-997.0635443250868
 31
0.0
  0
LINE
  5
151
330
307
100
AcDbEntity
  8
DATA
  6
Continuous
 62
     7
100
AcDbLine
 10
780.6699999999998
 20
-998.5875443250868
 30
0.0
 11
783.4640000000006
 21
-997.0635443250868
 31
0.0
  0
LINE
  5
152
330
307
100
AcDbEntity
  8
DATA
  6
Continuous
 62
     7
100
AcDbLine
 10
780.6699999999998
 20
-991.7295443250868
 30
0.0
 11
777.876
 21
-993.5075443250868
 31
0.0
  0
CIRCLE
  5
153
330
307
100
AcDbEntity
  8
DATA
  6
Continuous
 62
     7
100
AcDbCircle
 10
780.6699999999998
 20
-1458.089544325086
 30
0.0
 40
11.17600000000038
  0
LINE
  5
154
330
307
100
AcDbEntity
  8
DATA
  6
Continuous
 62
     7
100
AcDbLine
 10
783.4640000000006
 20
-1456.311544325087
 30
0.0
 11
780.6699999999998
 21
-1454.533544325087
 31
0.0
  0
LINE
  5
155
330
307
100
AcDbEntity
  8
DATA
  6
Continuous
 62
     7
100
AcDbLine
 10
777.876
 20
-1459.867544325087
 30
0.0
 11
780.6699999999998
 21
-1461.391544325087
 31
0.0
  0
LINE
  5
156
330
307
100
AcDbEntity
  8
DATA
  6
Continuous
 62
     7
100
AcDbLine
 10
783.4640000000006
 20
-1459.867544325087
 30
0.0
 11
783.4640000000006
 21
-1456.311544325087
 31
0.0
  0
LINE
  5
157
330
307
100
AcDbEntity
  8
DATA
  6
Continuous
 62
     7
100
AcDbLine
 10
777.876
 20
-1456.311544325087
 30
0.0
 11
777.876
 21
-1459.867544325087
 31
0.0
  0
LINE
  5
158
330
307
100
AcDbEntity
  8
DATA
  6
Continuous
 62
     7
100
AcDbLine
 10
780.6699999999998
 20
-1461.391544325087
 30
0.0
 11
783.4640000000006
 21
-1459.867544325087
 31
0.0
  0
LINE
  5
159
330
307
100
AcDbEntity
  8
DATA
  6
Continuous
 62
     7
100
AcDbLine
 10
780.6699999999998
 20
-1454.533544325087
 30
0.0
 11
777.876
 21
-1456.311544325087
 31
0.0
  0
LINE
  5
15A
330
307
100
AcDbEntity
  8
DATA
  6
Continuous
 62
     7
100
AcDbLine
 10
836.9199999999999
 20
-1325.937544325087
 30
0.0
 11
724.4199999999998
 21
-1325.937544325087
 31
0.0
  0
LINE
  5
15B
330
307
100
AcDbEntity
  8
DATA
  6
Continuous
 62
     7
100
AcDbLine
 10
841.9199999999998
 20
-1131.437544325087
 30
0.0
 11
841.9199999999998
 21
-1320.937544325087
 31
0.0
  0
LWPOLYLINE
  5
15C
330
307
100
AcDbEntity
  8
DATA
  6
Continuous
 62
     7
100
AcDbPolyline
 90
        4
 70
     1
 43
0.0
 10
740.1699999999998
 20
-1263.937544325087
 10
821.1699999999998
 20
-1263.937544325087
 10
821.1699999999998
 20
-1281.937544325087
 10
740.1699999999998
 20
-1281.937544325087
  0
LWPOLYLINE
  5
163
330
307
100
AcDbEntity
  8
DATA
  6
Continuous
 62
     7
100
AcDbPolyline
 90
        5
 70
   129
 43
0.0
 10
768.9199999999998
 20
-1224.437544325087
 42
-0.4142135623730951
 10
780.6699999999998
 20
-1212.687544325087
 42
-0.4142135623730951
 10
792.4199999999999
 20
-1224.437544325087
 42
-0.4142135623730951
 10
780.6699999999998
 20
-1236.187544325086
 42
-0.4142135623730951
 10
768.9199999999998
 20
-1224.437544325087
  0
LINE
  5
16A
330
307
100
AcDbEntity
  8
DATA
  6
Continuous
 62
     7
100
AcDbLine
 10
777.6699999999999
 20
-1214.437544325086
 30
0.0
 11
783.6699999999998
 21
-1214.437544325086
 31
0.0
  0
LINE
  5
16B
330
307
100
AcDbEntity
  8
DATA
  6
Continuous
 62
     7
100
AcDbLine
 10
778.6699999999998
 20
-1234.198646005262
 30
0.0
 11
782.6699999999998
 21
-1234.198646005262
 31
0.0
  0
LINE
  5
16C
330
307
100
AcDbEntity
  8
DATA
  6
Continuous
 62
     7
100
AcDbLine
 10
778.6699999999998
 20
-1234.198646005262
 30
0.0
 11
778.6699999999998
 21
-1233.007261188702
 31
0.0
  0
LINE
  5
16D
330
307
100
AcDbEntity
  8
DATA
  6
Continuous
 62
     7
100
AcDbLine
 10
782.6699999999998
 20
-1234.198646005262
 30
0.0
 11
782.6699999999998
 21
-1233.007262037856
 31
0.0
  0
LINE
  5
16E
330
307
100
AcDbEntity
  8
DATA
  6
Continuous
 62
     7
100
AcDbLine
 10
777.6699999999999
 20
-1214.437544325086
 30
0.0
 11
777.6699999999999
 21
-1216.164694325087
 31
0.0
  0
LINE
  5
16F
330
307
100
AcDbEntity
  8
DATA
  6
Continuous
 62
     7
100
AcDbLine
 10
783.6699999999998
 20
-1214.437544325086
 30
0.0
 11
783.6699999999998
 21
-1216.164694325087
 31
0.0
  0
ARC
  5
170
330
307
100
AcDbEntity
  8
DATA
  6
Continuous
 62
     7
100
AcDbCircle
 10
780.6699999999998
 20
-1224.437544325087
 30
0.0
 40
8.800002677414209
100
AcDbArc
 50
109.9322641506793
 51
256.8634452814158
  0
ARC
  5
171
330
307
100
AcDbEntity
  8
DATA
  6
Continuous
 62
     7
100
AcDbCircle
 10
780.6699999999998
 20
-1224.437544325087
 30
0.0
 40
8.800003504346017
100
AcDbArc
 50
283.1365534620537
 51
69.99999423796158
  0
ARC
  5
172
330
307
100
AcDbEntity
  8
DATA
  6
Continuous
 62
     7
100
AcDbCircle
 10
780.6699999999998
 20
-1224.437544325087
 30
0.0
 40
6.200002162064247
100
AcDbArc
 50
60.0000115355575
 51
150.0000115355601
  0
LINE
  5
173
330
307
100
AcDbEntity
  8
DATA
  6
Continuous
 62
     7
100
AcDbLine
 10
775.3006599999996
 20
-1221.337514325087
 30
0.0
 11
775.7986200000001
 21
-1221.625014325087
 31
0.0
  0
LINE
  5
174
330
307
100
AcDbEntity
  8
DATA
  6
Continuous
 62
     7
100
AcDbLine
 10
783.7699699999999
 20
-1219.068164325087
 30
0.0
 11
783.4824699999998
 21
-1219.566134325087
 31
0.0
  0
ARC
  5
175
330
307
100
AcDbEntity
  8
DATA
  6
Continuous
 62
     7
100
AcDbCircle
 10
780.6699999999998
 20
-1224.437544325087
 30
0.0
 40
6.20000216206399
100
AcDbArc
 50
240.0000115355659
 51
330.0000115355644
  0
LINE
  5
176
330
307
100
AcDbEntity
  8
DATA
  6
Continuous
 62
     7
100
AcDbLine
 10
777.5700000000004
 20
-1229.806904325087
 30
0.0
 11
777.8574999999998
 21
-1229.308934325087
 31
0.0
  0
LINE
  5
177
330
307
100
AcDbEntity
  8
DATA
  6
Continuous
 62
     7
100
AcDbLine
 10
786.0393700000003
 20
-1227.537524325087
 30
0.0
 11
785.5413999999998
 21
-1227.250024325087
 31
0.0
  0
ARC
  5
178
330
307
100
AcDbEntity
  8
DATA
  6
Continuous
 62
     7
100
AcDbCircle
 10
780.6699999999998
 20
-1224.437544325087
 30
0.0
 40
5.625003831580524
100
AcDbArc
 50
149.999669682101
 51
240.000212604301
  0
ARC
  5
179
330
307
100
AcDbEntity
  8
DATA
  6
Continuous
 62
     7
100
AcDbCircle
 10
780.6699999999998
 20
-1224.437544325087
 30
0.0
 40
5.624996152034259
100
AcDbArc
 50
330.0002126043024
 51
60.00071824312562
  0
ARC
  5
17A
330
307
100
AcDbEntity
  8
DATA
  6
Continuous
 62
     7
100
AcDbCircle
 10
780.6699999999998
 20
-1224.437544325087
 30
0.0
 40
3.59999008087537
100
AcDbArc
 50
59.99990885470324
 51
149.9999088547082
  0
ARC
  5
17B
330
307
100
AcDbEntity
  8
DATA
  6
Continuous
 62
     7
100
AcDbCircle
 10
780.6699999999998
 20
-1224.437544325087
 30
0.0
 40
3.59999008087537
100
AcDbArc
 50
239.9999088547033
 51
329.9999088547082
  0
LINE
  5
17C
330
307
100
AcDbEntity
  8
DATA
  6
Continuous
 62
     7
100
AcDbLine
 10
782.4699799999997
 20
-1221.319854325087
 30
0.0
 11
782.1199899999998
 21
-1221.926064325087
 31
0.0
  0
LINE
  5
17D
330
307
100
AcDbEntity
  8
DATA
  6
Continuous
 62
     7
100
AcDbLine
 10
777.5523300000001
 20
-1222.637534325087
 30
0.0
 11
778.1585300000003
 21
-1222.987534325087
 31
0.0
  0
LINE
  5
17E
330
307
100
AcDbEntity
  8
DATA
  6
Continuous
 62
     7
100
AcDbLine
 10
778.8699999999996
 20
-1227.555224325087
 30
0.0
 11
779.22
 21
-1226.949014325087
 31
0.0
  0
LINE
  5
17F
330
307
100
AcDbEntity
  8
DATA
  6
Continuous
 62
     7
100
AcDbLine
 10
783.78769
 20
-1226.237524325087
 30
0.0
 11
783.1814799999998
 21
-1225.887534325087
 31
0.0
  0
ARC
  5
180
330
307
100
AcDbEntity
  8
DATA
  6
Continuous
 62
     7
100
AcDbCircle
 10
780.6699999999998
 20
-1224.437544325087
 30
0.0
 40
2.900001820861042
100
AcDbArc
 50
149.9997926340248
 51
240.0002336238304
  0
ARC
  5
181
330
307
100
AcDbEntity
  8
DATA
  6
Continuous
 62
     7
100
AcDbCircle
 10
780.6699999999998
 20
-1224.437544325087
 30
0.0
 40
2.900000481120788
100
AcDbArc
 50
330.0002336238303
 51
59.99979263402263
  0
LINE
  5
182
330
307
100
AcDbEntity
  8
DATA
  6
Continuous
 62
     7
100
AcDbLine
 10
753.1700000000006
 20
-1281.937544325087
 30
0.0
 11
753.1700000000006
 21
-1263.937544325087
 31
0.0
  0
LINE
  5
183
330
307
100
AcDbEntity
  8
DATA
  6
Continuous
 62
     7
100
AcDbLine
 10
756.1700000000006
 20
-1281.937544325087
 30
0.0
 11
756.1700000000006
 21
-1263.937544325087
 31
0.0
  0
LINE
  5
184
330
307
100
AcDbEntity
  8
DATA
  6
Continuous
 62
     7
100
AcDbLine
 10
766.1700000000006
 20
-1281.937544325087
 30
0.0
 11
766.1700000000006
 21
-1263.937544325087
 31
0.0
  0
LINE
  5
185
330
307
100
AcDbEntity
  8
DATA
  6
Continuous
 62
     7
100
AcDbLine
 10
769.1700000000006
 20
-1281.937544325087
 30
0.0
 11
769.1700000000006
 21
-1263.937544325087
 31
0.0
  0
LINE
  5
186
330
307
100
AcDbEntity
  8
DATA
  6
Continuous
 62
     7
100
AcDbLine
 10
779.1700000000006
 20
-1281.937544325087
 30
0.0
 11
779.1700000000006
 21
-1263.937544325087
 31
0.0
  0
LINE
  5
187
330
307
100
AcDbEntity
  8
DATA
  6
Continuous
 62
     7
100
AcDbLine
 10
782.1700000000006
 20
-1281.937544325087
 30
0.0
 11
782.1700000000006
 21
-1263.937544325087
 31
0.0
  0
LINE
  5
188
330
307
100
AcDbEntity
  8
DATA
  6
Continuous
 62
     7
100
AcDbLine
 10
792.1700000000006
 20
-1281.937544325087
 30
0.0
 11
792.1700000000006
 21
-1263.937544325087
 31
0.0
  0
LINE
  5
189
330
307
100
AcDbEntity
  8
DATA
  6
Continuous
 62
     7
100
AcDbLine
 10
795.1700000000006
 20
-1281.937544325087
 30
0.0
 11
795.1700000000006
 21
-1263.937544325087
 31
0.0
  0
LINE
  5
18A
330
307
100
AcDbEntity
  8
DATA
  6
Continuous
 62
     7
100
AcDbLine
 10
805.1700000000007
 20
-1281.937544325087
 30
0.0
 11
805.1700000000007
 21
-1263.937544325087
 31
0.0
  0
LINE
  5
18B
330
307
100
AcDbEntity
  8
DATA
  6
Continuous
 62
     7
100
AcDbLine
 10
808.1700000000006
 20
-1281.937544325087
 30
0.0
 11
808.1700000000006
 21
-1263.937544325087
 31
0.0
  0
LINE
  5
18C
330
307
100
AcDbEntity
  8
DATA
  6
Continuous
 62
     7
100
AcDbLine
 10
743.1699999999998
 20
-1281.937544325087
 30
0.0
 11
743.1699999999998
 21
-1263.937544325087
 31
0.0
  0
LINE
  5
18D
330
307
100
AcDbEntity
  8
DATA
  6
Continuous
 62
     7
100
AcDbLine
 10
818.1699999999999
 20
-1263.937544325087
 30
0.0
 11
818.1699999999999
 21
-1281.937544325087
 31
0.0
  0
CIRCLE
  5
18E
330
307
100
AcDbEntity
  8
DATA
  6
Continuous
 62
     7
100
AcDbCircle
 10
761.1700000000006
 20
-1272.937544325087
 30
0.0
 40
3.999999999999455
  0
LWPOLYLINE
  5
18F
330
307
100
AcDbEntity
  8
DATA
  6
Continuous
 62
     7
100
AcDbPolyline
 90
        4
 70
     1
 43
0.0
 10
758.3651219512201
 20
-1267.181446764111
 10
766.1699999999998
 20
-1268.937544325086
 10
763.9748780487805
 20
-1278.693641886062
 10
756.1699999999998
 20
-1276.937544325086
  0
LINE
  5
196
330
307
100
AcDbEntity
  8
DATA
  6
Continuous
 62
     7
100
AcDbLine
 10
757.4112295168567
 20
-1271.569463751784
 30
0.0
 11
764.9287704831439
 21
-1274.305624898389
 31
0.0
  0
CIRCLE
  5
197
330
307
100
AcDbEntity
  8
DATA
  6
Continuous
 62
     7
100
AcDbCircle
 10
774.1700000000006
 20
-1272.937544325087
 30
0.0
 40
3.999999999999455
  0
LWPOLYLINE
  5
198
330
307
100
AcDbEntity
  8
DATA
  6
Continuous
 62
     7
100
AcDbPolyline
 90
        4
 70
     1
 43
0.0
 10
771.36512195122
 20
-1267.181446764111
 10
779.1699999999998
 20
-1268.937544325086
 10
776.9748780487804
 20
-1278.693641886062
 10
769.1699999999998
 20
-1276.937544325086
  0
CIRCLE
  5
19F
330
307
100
AcDbEntity
  8
DATA
  6
Continuous
 62
     7
100
AcDbCircle
 10
787.1700000000006
 20
-1272.937544325087
 30
0.0
 40
3.999999999999455
  0
LWPOLYLINE
  5
1A0
330
307
100
AcDbEntity
  8
DATA
  6
Continuous
 62
     7
100
AcDbPolyline
 90
        4
 70
     1
 43
0.0
 10
784.36512195122
 20
-1267.181446764111
 10
792.1699999999998
 20
-1268.937544325086
 10
789.9748780487805
 20
-1278.693641886062
 10
782.1699999999998
 20
-1276.937544325086
  0
CIRCLE
  5
1A7
330
307
100
AcDbEntity
  8
DATA
  6
Continuous
 62
     7
100
AcDbCircle
 10
800.1700000000006
 20
-1272.937544325087
 30
0.0
 40
3.999999999999455
  0
LWPOLYLINE
  5
1A8
330
307
100
AcDbEntity
  8
DATA
  6
Continuous
 62
     7
100
AcDbPolyline
 90
        4
 70
     1
 43
0.0
 10
797.36512195122
 20
-1267.181446764111
 10
805.1699999999998
 20
-1268.937544325086
 10
802.9748780487805
 20
-1278.693641886062
 10
795.1699999999998
 20
-1276.937544325086
  0
CIRCLE
  5
1AF
330
307
100
AcDbEntity
  8
DATA
  6
Continuous
 62
     7
100
AcDbCircle
 10
813.1699999999998
 20
-1272.937544325087
 30
0.0
 40
4.000000000000231
  0
CIRCLE
  5
1B0
330
307
100
AcDbEntity
  8
DATA
  6
Continuous
 62
     7
100
AcDbCircle
 10
748.1699999999998
 20
-1272.937544325087
 30
0.0
 40
4.000000000000309
  0
TEXT
  5
1B1
330
307
100
AcDbEntity
  8
DATA
 62
     7
100
AcDbText
 10
758.6700000000006
 20
-1257.737544325087
 30
0.0
 40
3.84765625
  1
1+
 41
0.7
 11
758.6700000000006
 21
-1253.889888075087
 31
0.0
100
AcDbText
 73
     3
  0
TEXT
  5
1B2
330
307
100
AcDbEntity
  8
DATA
 62
     7
100
AcDbText
 10
771.6700000000006
 20
-1257.737544325087
 30
0.0
 40
3.84765625
  1
1-
 41
0.7
 11
771.6700000000006
 21
-1253.889888075087
 31
0.0
100
AcDbText
 73
     3
  0
TEXT
  5
1B3
330
307
100
AcDbEntity
  8
DATA
 62
     7
100
AcDbText
 10
784.6700000000006
 20
-1257.737544325087
 30
0.0
 40
3.84765625
  1
2+
 41
0.7
 11
784.6700000000006
 21
-1253.889888075087
 31
0.0
100
AcDbText
 73
     3
  0
TEXT
  5
1B4
330
307
100
AcDbEntity
  8
DATA
 62
     7
100
AcDbText
 10
797.6700000000006
 20
-1257.737544325087
 30
0.0
 40
3.84765625
  1
2-
 41
0.7
 11
797.6700000000006
 21
-1253.889888075087
 31
0.0
100
AcDbText
 73
     3
  0
CIRCLE
  5
1B5
330
307
100
AcDbEntity
  8
DATA
  6
Continuous
 62
     7
100
AcDbCircle
 10
750.6699999999998
 20
-1206.937544325087
 30
0.0
 40
3.0
  0
CIRCLE
  5
1B6
330
307
100
AcDbEntity
  8
DATA
  6
Continuous
 62
     7
100
AcDbCircle
 10
810.6699999999998
 20
-1206.937544325087
 30
0.0
 40
3.0
  0
LWPOLYLINE
  5
1B7
330
307
100
AcDbEntity
  8
DATA
  6
Continuous
 62
     7
100
AcDbPolyline
 90
        4
 70
     1
 43
0.0
 10
740.6699999999998
 20
-1159.937544325086
 10
820.6699999999997
 20
-1159.937544325086
 10
820.6699999999997
 20
-1197.437544325087
 10
740.6699999999998
 20
-1197.437544325087
  0
TEXT
  5
1BE
330
307
100
AcDbEntity
  8
DATA
 62
     7
100
AcDbText
 10
804.5934654581873
 20
-1194.737544325087
 30
0.0
 40
3.84765625
  1
(N/A)
 41
0.7
 11
804.5934654581873
 21
-1190.889888075087
 31
0.0
100
AcDbText
 73
     3
  0
TEXT
  5
1BF
330
307
100
AcDbEntity
  8
DATA
 62
     7
100
AcDbText
 10
740.692108016515
 20
-1194.737544325087
 30
0.0
 40
3.84765625
  1
(Discrete)
 41
0.7
 11
740.692108016515
 21
-1190.889888075087
 31
0.0
100
AcDbText
 73
     3
  0
TEXT
  5
1C0
330
307
100
AcDbEntity
  8
DATA
 62
     7
100
AcDbText
 10
743.6699999999998
 20
-1166.737544325087
 30
0.0
 40
3.84765625
  1
Model: ASB6118
 41
0.7
 11
743.6699999999998
 21
-1162.889888075087
 31
0.0
100
AcDbText
 73
     3
  0
LWPOLYLINE
  5
1C1
330
307
100
AcDbEntity
  8
DATA
  6
Continuous
 62
     7
100
AcDbPolyline
 90
        4
 70
     0
 43
0.0
 10
796.7021404327446
 20
-1184.937544325086
 10
764.7021404327436
 20
-1184.937544325086
 10
764.7021404327436
 20
-1173.937544325087
 10
796.7021404327446
 20
-1173.937544325087
  0
LINE
  5
1C8
330
307
100
AcDbEntity
  8
DATA
  6
Continuous
 62
     7
100
AcDbLine
 10
764.7021404327436
 20
-1177.604210991753
 30
0.0
 11
796.7021404327446
 21
-1177.604210991753
 31
0.0
  0
LINE
  5
1C9
330
307
100
AcDbEntity
  8
DATA
  6
Continuous
 62
     7
100
AcDbLine
 10
764.7021404327436
 20
-1181.27087765842
 30
0.0
 11
796.7021404327446
 21
-1181.27087765842
 31
0.0
  0
LINE
  5
1CA
330
307
100
AcDbEntity
  8
DATA
  6
Continuous
 62
     7
100
AcDbLine
 10
778.7021404327437
 20
-1173.937544325087
 30
0.0
 11
778.7021404327437
 21
-1184.937544325086
 31
0.0
  0
LINE
  5
1CB
330
307
100
AcDbEntity
  8
DATA
  6
Continuous
 62
     7
100
AcDbLine
 10
796.7021404327446
 20
-1184.937544325086
 30
0.0
 11
796.7021404327446
 21
-1173.937544325087
 31
0.0
  0
TEXT
  5
1CC
330
307
100
AcDbEntity
  8
DATA
 62
     7
100
AcDbText
 10
765.7521404943352
 20
-1176.99487765842
 30
0.0
 40
2.61640625
  1
Wiring:
 41
0.7
 11
765.7521404943352
 21
-1174.37847140842
 31
0.0
100
AcDbText
 73
     3
  0
TEXT
  5
1CD
330
307
100
AcDbEntity
  8
DATA
 62
     7
100
AcDbText
 10
780.9450979949428
 20
-1176.99487765842
 30
0.0
 40
2.61640625
  1
Discrete
 41
0.7
 11
780.9450979949428
 21
-1174.37847140842
 31
0.0
100
AcDbText
 73
     3
  0
TEXT
  5
1CE
330
307
100
AcDbEntity
  8
DATA
 62
     7
100
AcDbText
 10
767.4521403565822
 20
-1180.661544325087
 30
0.0
 40
2.61640625
  1
1+/1-
 41
0.7
 11
767.4521403565822
 21
-1178.045138075087
 31
0.0
100
AcDbText
 73
     3
  0
TEXT
  5
1CF
330
307
100
AcDbEntity
  8
DATA
 62
     7
100
AcDbText
 10
785.74954895508
 20
-1180.763635852769
 30
0.0
 40
2.61640625
  1
LF
 41
0.7
 11
785.74954895508
 21
-1178.147229602769
 31
0.0
100
AcDbText
 73
     3
  0
TEXT
  5
1D0
330
307
100
AcDbEntity
  8
DATA
 62
     7
100
AcDbText
 10
767.4521403565822
 20
-1184.328210991753
 30
0.0
 40
2.61640625
  1
2+/2-
 41
0.7
 11
767.4521403565822
 21
-1181.711804741753
 31
0.0
100
AcDbText
 73
     3
  0
TEXT
  5
1D1
330
307
100
AcDbEntity
  8
DATA
 62
     7
100
AcDbText
 10
783.7739048053918
 20
-1184.430302519436
 30
0.0
 40
2.61640625
  1
Thru
 41
0.7
 11
783.7739048053918
 21
-1181.813896269436
 31
0.0
100
AcDbText
 73
     3
  0
CIRCLE
  5
1D2
330
307
100
AcDbEntity
  8
DATA
  6
Continuous
 62
     7
100
AcDbCircle
 10
725.9199999999998
 20
-1133.187544325086
 30
0.0
 40
3.25
  0
LINE
  5
1D3
330
307
100
AcDbEntity
  8
DATA
  6
Continuous
 62
     7
100
AcDbLine
 10
761.7685352508204
 20
-1271.293082238712
 30
0.0
 11
760.5714647491801
 21
-1274.582006411462
 31
0.0
  0
LINE
  5
1D4
330
307
100
AcDbEntity
  8
DATA
  6
Continuous
 62
     7
100
AcDbLine
 10
748.7685352508204
 20
-1274.582006411462
 30
0.0
 11
747.5714647491801
 21
-1271.293082238712
 31
0.0
  0
LINE
  5
1D5
330
307
100
AcDbEntity
  8
DATA
  6
Continuous
 62
     7
100
AcDbLine
 10
746.525537913625
 20
-1273.536079575907
 30
0.0
 11
749.8144620863755
 21
-1272.339009074267
 31
0.0
  0
LINE
  5
1D6
330
307
100
AcDbEntity
  8
DATA
  6
Continuous
 62
     7
100
AcDbLine
 10
770.4112295168567
 20
-1271.569463751784
 30
0.0
 11
777.9287704831439
 21
-1274.305624898389
 31
0.0
  0
LINE
  5
1D7
330
307
100
AcDbEntity
  8
DATA
  6
Continuous
 62
     7
100
AcDbLine
 10
774.7685352508205
 20
-1271.293082238712
 30
0.0
 11
773.5714647491801
 21
-1274.582006411462
 31
0.0
  0
LINE
  5
1D8
330
307
100
AcDbEntity
  8
DATA
  6
Continuous
 62
     7
100
AcDbLine
 10
783.4112295168567
 20
-1271.569463751784
 30
0.0
 11
790.9287704831439
 21
-1274.305624898389
 31
0.0
  0
LINE
  5
1D9
330
307
100
AcDbEntity
  8
DATA
  6
Continuous
 62
     7
100
AcDbLine
 10
787.7685352508205
 20
-1271.293082238712
 30
0.0
 11
786.5714647491801
 21
-1274.582006411462
 31
0.0
  0
LINE
  5
1DA
330
307
100
AcDbEntity
  8
DATA
  6
Continuous
 62
     7
100
AcDbLine
 10
796.4112295168567
 20
-1271.569463751784
 30
0.0
 11
803.9287704831439
 21
-1274.305624898389
 31
0.0
  0
LINE
  5
1DB
330
307
100
AcDbEntity
  8
DATA
  6
Continuous
 62
     7
100
AcDbLine
 10
800.7685352508204
 20
-1271.293082238712
 30
0.0
 11
799.5714647491801
 21
-1274.582006411462
 31
0.0
  0
LINE
  5
1DC
330
307
100
AcDbEntity
  8
DATA
  6
Continuous
 62
     7
100
AcDbLine
 10
811.525537913625
 20
-1273.536079575907
 30
0.0
 11
814.8144620863755
 21
-1272.339009074267
 31
0.0
  0
LINE
  5
1DD
330
307
100
AcDbEntity
  8
DATA
  6
Continuous
 62
     7
100
AcDbLine
 10
813.7685352508205
 20
-1274.582006411462
 30
0.0
 11
812.57146474918
 21
-1271.293082238712
 31
0.0
  0
LINE
  5
1DE
330
307
100
AcDbEntity
  8
DATA
  6
Continuous
 62
     7
100
AcDbLine
 10
725.9199999999998
 20
-1134.687544325087
 30
0.0
 11
725.9199999999998
 21
-1131.687544325086
 31
0.0
  0
LINE
  5
1DF
330
307
100
AcDbEntity
  8
DATA
  6
Continuous
 62
     7
100
AcDbLine
 10
727.4199999999998
 20
-1133.187544325086
 30
0.0
 11
724.4199999999998
 21
-1133.187544325086
 31
0.0
  0
CIRCLE
  5
1E0
330
307
100
AcDbEntity
  8
DATA
  6
Continuous
 62
     7
100
AcDbCircle
 10
835.4199999999998
 20
-1133.187544325086
 30
0.0
 40
3.25
  0
LINE
  5
1E1
330
307
100
AcDbEntity
  8
DATA
  6
Continuous
 62
     7
100
AcDbLine
 10
835.4199999999998
 20
-1134.687544325087
 30
0.0
 11
835.4199999999998
 21
-1131.687544325086
 31
0.0
  0
LINE
  5
1E2
330
307
100
AcDbEntity
  8
DATA
  6
Continuous
 62
     7
100
AcDbLine
 10
836.9199999999999
 20
-1133.187544325086
 30
0.0
 11
833.9199999999998
 21
-1133.187544325086
 31
0.0
  0
CIRCLE
  5
1E3
330
307
100
AcDbEntity
  8
DATA
  6
Continuous
 62
     7
100
AcDbCircle
 10
725.9199999999998
 20
-1226.187544325086
 30
0.0
 40
3.25
  0
LINE
  5
1E4
330
307
100
AcDbEntity
  8
DATA
  6
Continuous
 62
     7
100
AcDbLine
 10
725.9199999999998
 20
-1227.687544325086
 30
0.0
 11
725.9199999999998
 21
-1224.687544325087
 31
0.0
  0
LINE
  5
1E5
330
307
100
AcDbEntity
  8
DATA
  6
Continuous
 62
     7
100
AcDbLine
 10
727.4199999999998
 20
-1226.187544325086
 30
0.0
 11
724.4199999999998
 21
-1226.187544325086
 31
0.0
  0
CIRCLE
  5
1E6
330
307
100
AcDbEntity
  8
DATA
  6
Continuous
 62
     7
100
AcDbCircle
 10
835.4199999999998
 20
-1226.187544325086
 30
0.0
 40
3.25
  0
LINE
  5
1E7
330
307
100
AcDbEntity
  8
DATA
  6
Continuous
 62
     7
100
AcDbLine
 10
835.4199999999998
 20
-1227.687544325086
 30
0.0
 11
835.4199999999998
 21
-1224.687544325087
 31
0.0
  0
LINE
  5
1E8
330
307
100
AcDbEntity
  8
DATA
  6
Continuous
 62
     7
100
AcDbLine
 10
836.9199999999999
 20
-1226.187544325086
 30
0.0
 11
833.9199999999998
 21
-1226.187544325086
 31
0.0
  0
CIRCLE
  5
1E9
330
307
100
AcDbEntity
  8
DATA
  6
Continuous
 62
     7
100
AcDbCircle
 10
725.9199999999998
 20
-1319.187544325086
 30
0.0
 40
3.25
  0
LINE
  5
1EA
330
307
100
AcDbEntity
  8
DATA
  6
Continuous
 62
     7
100
AcDbLine
 10
725.9199999999998
 20
-1320.687544325086
 30
0.0
 11
725.9199999999998
 21
-1317.687544325087
 31
0.0
  0
LINE
  5
1EB
330
307
100
AcDbEntity
  8
DATA
  6
Continuous
 62
     7
100
AcDbLine
 10
727.4199999999998
 20
-1319.187544325086
 30
0.0
 11
724.4199999999998
 21
-1319.187544325086
 31
0.0
  0
CIRCLE
  5
1EC
330
307
100
AcDbEntity
  8
DATA
  6
Continuous
 62
     7
100
AcDbCircle
 10
835.4199999999998
 20
-1319.187544325086
 30
0.0
 40
3.25
  0
LINE
  5
1ED
330
307
100
AcDbEntity
  8
DATA
  6
Continuous
 62
     7
100
AcDbLine
 10
835.4199999999998
 20
-1320.687544325086
 30
0.0
 11
835.4199999999998
 21
-1317.687544325087
 31
0.0
  0
LINE
  5
1EE
330
307
100
AcDbEntity
  8
DATA
  6
Continuous
 62
     7
100
AcDbLine
 10
836.9199999999999
 20
-1319.187544325086
 30
0.0
 11
833.9199999999998
 21
-1319.187544325086
 31
0.0
  0
LINE
  5
1EF
330
307
100
AcDbEntity
  8
DATA
  6
Continuous
 62
     7
100
AcDbLine
 10
724.4199999999998
 20
-1126.437544325087
 30
0.0
 11
836.9199999999999
 21
-1126.437544325087
 31
0.0
  0
LINE
  5
1F0
330
307
100
AcDbEntity
  8
DATA
  6
Continuous
 62
     7
100
AcDbLine
 10
719.4199999999998
 20
-1320.937544325087
 30
0.0
 11
719.4199999999998
 21
-1131.437544325087
 31
0.0
  0
ARC
  5
1F1
330
307
100
AcDbEntity
  8
DATA
  6
Continuous
 62
     7
100
AcDbCircle
 10
724.4199999999998
 20
-1320.937544325087
 30
0.0
 40
5.0
100
AcDbArc
 50
180.0
 51
270.0
  0
ARC
  5
1F2
330
307
100
AcDbEntity
  8
DATA
  6
Continuous
 62
     7
100
AcDbCircle
 10
836.9199999999999
 20
-1320.937544325087
 30
0.0
 40
5.0
100
AcDbArc
 50
270.0
 51
0.0
  0
ARC
  5
1F3
330
307
100
AcDbEntity
  8
DATA
  6
Continuous
 62
     7
100
AcDbCircle
 10
836.9199999999999
 20
-1131.437544325087
 30
0.0
 40
5.0
100
AcDbArc
 50
0.0
 51
90.0
  0
ARC
  5
1F4
330
307
100
AcDbEntity
  8
DATA
  6
Continuous
 62
     7
100
AcDbCircle
 10
724.4199999999998
 20
-1131.437544325087
 30
0.0
 40
5.0
100
AcDbArc
 50
90.0
 51
180.0
  0
LWPOLYLINE
  5
1F5
330
307
100
AcDbEntity
  8
DATA
  6
Continuous
 62
     7
100
AcDbPolyline
 90
        4
 70
     1
 43
0.0
 10
733.6699999999998
 20
-1140.687544325087
 10
827.6699999999998
 20
-1140.687544325087
 10
827.6699999999998
 20
-1311.687544325087
 10
733.6699999999998
 20
-1311.687544325087
  0
LWPOLYLINE
  5
1FC
330
307
100
AcDbEntity
  8
DATA
  6
Continuous
 62
     7
100
AcDbPolyline
 90
        4
 70
     1
 43
0.0
 10
764.7021404327436
 20
-1177.604210991753
 10
778.7021404327437
 20
-1177.604210991753
 10
778.7021404327437
 20
-1181.270877658421
 10
764.7021404327436
 20
-1181.270877658421
  0
LWPOLYLINE
  5
203
330
307
100
AcDbEntity
  8
DATA
  6
Continuous
 62
     7
100
AcDbPolyline
 90
        4
 70
     1
 43
0.0
 10
799.9428024354995
 20
-22.49999999999977
 10
1609.942802435494
 20
-22.49999999999977
 10
1609.942802435494
 20
-202.5
 10
799.9428024354995
 20
-202.5
  0
LWPOLYLINE
  5
20A
330
307
100
AcDbEntity
  8
DATA
  6
Continuous
 62
     7
100
AcDbPolyline
 90
        5
 70
   129
 43
0.0
 10
1087.442802435499
 20
372.5
 42
-0.4142135623730993
 10
1204.942802435498
 20
490.0
 42
-0.4142135623730951
 10
1322.442802435496
 20
372.4999999999984
 42
-0.4142135623730955
 10
1204.942802435498
 20
255.0000000000002
 42
-0.4142135623730911
 10
1087.442802435499
 20
372.5
  0
LINE
  5
211
330
307
100
AcDbEntity
  8
DATA
  6
Continuous
 62
     7
100
AcDbLine
 10
1174.942802435499
 20
472.5
 30
0.0
 11
1234.942802435498
 21
472.5
 31
0.0
  0
LINE
  5
212
330
307
100
AcDbEntity
  8
DATA
  6
Continuous
 62
     7
100
AcDbLine
 10
1184.942802435499
 20
274.8889831982435
 30
0.0
 11
1224.942802435498
 21
274.8889831982435
 31
0.0
  0
LINE
  5
213
330
307
100
AcDbEntity
  8
DATA
  6
Continuous
 62
     7
100
AcDbLine
 10
1184.942802435499
 20
274.8889831982435
 30
0.0
 11
1184.942802435499
 21
286.8028313638435
 31
0.0
  0
LINE
  5
214
330
307
100
AcDbEntity
  8
DATA
  6
Continuous
 62
     7
100
AcDbLine
 10
1224.942802435498
 20
274.8889831982435
 30
0.0
 11
1224.942802435498
 21
286.8028228723099
 31
0.0
  0
LINE
  5
215
330
307
100
AcDbEntity
  8
DATA
  6
Continuous
 62
     7
100
AcDbLine
 10
1174.942802435499
 20
472.5
 30
0.0
 11
1174.942802435499
 21
455.2284999999986
 31
0.0
  0
LINE
  5
216
330
307
100
AcDbEntity
  8
DATA
  6
Continuous
 62
     7
100
AcDbLine
 10
1234.942802435498
 20
472.5
 30
0.0
 11
1234.942802435498
 21
455.2284999999986
 31
0.0
  0
ARC
  5
217
330
307
100
AcDbEntity
  8
DATA
  6
Continuous
 62
     7
100
AcDbCircle
 10
1204.942802435498
 20
372.5000000000002
 30
0.0
 40
88.00002677414189
100
AcDbArc
 50
109.9322641506789
 51
256.8634452814162
  0
ARC
  5
218
330
307
100
AcDbEntity
  8
DATA
  6
Continuous
 62
     7
100
AcDbCircle
 10
1204.942802435498
 20
372.5000000000002
 30
0.0
 40
88.0000350434601
100
AcDbArc
 50
283.1365534620535
 51
69.99999423796186
  0
ARC
  5
219
330
307
100
AcDbEntity
  8
DATA
  6
Continuous
 62
     7
100
AcDbCircle
 10
1204.942802435498
 20
372.5000000000002
 30
0.0
 40
62.00002162064225
100
AcDbArc
 50
60.00001153555786
 51
150.0000115355595
  0
LINE
  5
21A
330
307
100
AcDbEntity
  8
DATA
  6
Continuous
 62
     7
100
AcDbLine
 10
1151.249402435497
 20
403.5003000000008
 30
0.0
 11
1156.229002435503
 21
400.6252999999994
 31
0.0
  0
LINE
  5
21B
330
307
100
AcDbEntity
  8
DATA
  6
Continuous
 62
     7
100
AcDbLine
 10
1235.9425024355
 20
426.1938000000012
 30
0.0
 11
1233.067502435496
 21
421.2140999999999
 31
0.0
  0
ARC
  5
21C
330
307
100
AcDbEntity
  8
DATA
  6
Continuous
 62
     7
100
AcDbCircle
 10
1204.942802435498
 20
372.5000000000002
 30
0.0
 40
62.00002162063956
100
AcDbArc
 50
240.0000115355664
 51
330.0000115355638
  0
LINE
  5
21D
330
307
100
AcDbEntity
  8
DATA
  6
Continuous
 62
     7
100
AcDbLine
 10
1173.942802435504
 20
318.8063999999988
 30
0.0
 11
1176.817802435499
 21
323.7861000000001
 31
0.0
  0
LINE
  5
21E
330
307
100
AcDbEntity
  8
DATA
  6
Continuous
 62
     7
100
AcDbLine
 10
1258.636502435501
 20
341.5002000000006
 30
0.0
 11
1253.656802435497
 21
344.3751999999997
 31
0.0
  0
ARC
  5
21F
330
307
100
AcDbEntity
  8
DATA
  6
Continuous
 62
     7
100
AcDbCircle
 10
1204.942802435498
 20
372.5000000000002
 30
0.0
 40
56.25003831580445
100
AcDbArc
 50
149.9996696821005
 51
240.0002126043016
  0
ARC
  5
220
330
307
100
AcDbEntity
  8
DATA
  6
Continuous
 62
     7
100
AcDbCircle
 10
1204.942802435498
 20
372.5000000000002
 30
0.0
 40
56.24996152034182
100
AcDbArc
 50
330.000212604302
 51
60.00071824312584
  0
ARC
  5
221
330
307
100
AcDbEntity
  8
DATA
  6
Continuous
 62
     7
100
AcDbCircle
 10
1204.942802435498
 20
372.5000000000002
 30
0.0
 40
35.9999008087536
100
AcDbArc
 50
59.99990885470354
 51
149.9999088547077
  0
ARC
  5
222
330
307
100
AcDbEntity
  8
DATA
  6
Continuous
 62
     7
100
AcDbCircle
 10
1204.942802435498
 20
372.5000000000002
 30
0.0
 40
35.99990080875347
100
AcDbArc
 50
239.9999088547039
 51
329.9999088547078
  0
LINE
  5
223
330
307
100
AcDbEntity
  8
DATA
  6
Continuous
 62
     7
100
AcDbLine
 10
1222.942602435496
 20
403.6769000000005
 30
0.0
 11
1219.442702435499
 21
397.6147999999992
 31
0.0
  0
LINE
  5
224
330
307
100
AcDbEntity
  8
DATA
  6
Continuous
 62
     7
100
AcDbLine
 10
1173.766102435503
 20
390.5000999999995
 30
0.0
 11
1179.828102435504
 21
387.0001000000004
 31
0.0
  0
LINE
  5
225
330
307
100
AcDbEntity
  8
DATA
  6
Continuous
 62
     7
100
AcDbLine
 10
1186.942802435497
 20
341.3231999999997
 30
0.0
 11
1190.442802435501
 21
347.3853000000011
 31
0.0
  0
LINE
  5
226
330
307
100
AcDbEntity
  8
DATA
  6
Continuous
 62
     7
100
AcDbLine
 10
1236.119702435498
 20
354.5002000000002
 30
0.0
 11
1230.057602435499
 21
358.0000999999995
 31
0.0
  0
ARC
  5
227
330
307
100
AcDbEntity
  8
DATA
  6
Continuous
 62
     7
100
AcDbCircle
 10
1204.942802435498
 20
372.5000000000002
 30
0.0
 40
29.00001820861003
100
AcDbArc
 50
149.9997926340244
 51
240.0002336238308
  0
ARC
  5
228
330
307
100
AcDbEntity
  8
DATA
  6
Continuous
 62
     7
100
AcDbCircle
 10
1204.942802435498
 20
372.5000000000002
 30
0.0
 40
29.00000481120749
100
AcDbArc
 50
330.0002336238298
 51
59.99979263402292
  0
LINE
  5
229
330
307
100
AcDbEntity
  8
DATA
  6
Continuous
 62
     7
100
AcDbLine
 10
929.9428024355087
 20
-202.5
 30
0.0
 11
929.9428024355087
 21
-22.49999999999977
 31
0.0
  0
LINE
  5
22A
330
307
100
AcDbEntity
  8
DATA
  6
Continuous
 62
     7
100
AcDbLine
 10
959.9428024355088
 20
-202.5
 30
0.0
 11
959.9428024355088
 21
-22.49999999999977
 31
0.0
  0
LINE
  5
22B
330
307
100
AcDbEntity
  8
DATA
  6
Continuous
 62
     7
100
AcDbLine
 10
1059.942802435509
 20
-202.5
 30
0.0
 11
1059.942802435509
 21
-22.49999999999977
 31
0.0
  0
LINE
  5
22C
330
307
100
AcDbEntity
  8
DATA
  6
Continuous
 62
     7
100
AcDbLine
 10
1089.942802435509
 20
-202.5
 30
0.0
 11
1089.942802435509
 21
-22.49999999999977
 31
0.0
  0
LINE
  5
22D
330
307
100
AcDbEntity
  8
DATA
  6
Continuous
 62
     7
100
AcDbLine
 10
1189.942802435508
 20
-202.5
 30
0.0
 11
1189.942802435508
 21
-22.49999999999977
 31
0.0
  0
LINE
  5
22E
330
307
100
AcDbEntity
  8
DATA
  6
Continuous
 62
     7
100
AcDbLine
 10
1219.942802435507
 20
-202.5
 30
0.0
 11
1219.942802435507
 21
-22.49999999999977
 31
0.0
  0
LINE
  5
22F
330
307
100
AcDbEntity
  8
DATA
  6
Continuous
 62
     7
100
AcDbLine
 10
1319.942802435505
 20
-202.5
 30
0.0
 11
1319.942802435505
 21
-22.49999999999977
 31
0.0
  0
LINE
  5
230
330
307
100
AcDbEntity
  8
DATA
  6
Continuous
 62
     7
100
AcDbLine
 10
1349.942802435505
 20
-202.5
 30
0.0
 11
1349.942802435505
 21
-22.49999999999977
 31
0.0
  0
LINE
  5
231
330
307
100
AcDbEntity
  8
DATA
  6
Continuous
 62
     7
100
AcDbLine
 10
1449.942802435503
 20
-202.5
 30
0.0
 11
1449.942802435503
 21
-22.49999999999977
 31
0.0
  0
LINE
  5
232
330
307
100
AcDbEntity
  8
DATA
  6
Continuous
 62
     7
100
AcDbLine
 10
1479.942802435503
 20
-202.5
 30
0.0
 11
1479.942802435503
 21
-22.49999999999977
 31
0.0
  0
LINE
  5
233
330
307
100
AcDbEntity
  8
DATA
  6
Continuous
 62
     7
100
AcDbLine
 10
829.9428024354995
 20
-202.5
 30
0.0
 11
829.9428024354995
 21
-22.49999999999977
 31
0.0
  0
LINE
  5
234
330
307
100
AcDbEntity
  8
DATA
  6
Continuous
 62
     7
100
AcDbLine
 10
1579.942802435494
 20
-22.49999999999977
 30
0.0
 11
1579.942802435494
 21
-202.5
 31
0.0
  0
CIRCLE
  5
235
330
307
100
AcDbEntity
  8
DATA
  6
Continuous
 62
     7
100
AcDbCircle
 10
1009.942802435509
 20
-112.5
 30
0.0
 40
39.99999999999455
  0
LWPOLYLINE
  5
236
330
307
100
AcDbEntity
  8
DATA
  6
Continuous
 62
     7
100
AcDbPolyline
 90
        4
 70
     1
 43
0.0
 10
981.8940219477022
 20
-54.93902439024161
 10
1059.942802435499
 20
-72.49999999999772
 10
1037.991582923306
 20
-170.0609756097537
 10
959.9428024354995
 20
-152.4999999999977
  0
LINE
  5
23D
330
307
100
AcDbEntity
  8
DATA
  6
Continuous
 62
     7
100
AcDbLine
 10
972.3550976040691
 20
-98.81919426697095
 30
0.0
 11
1047.530507266939
 21
-126.1808057330267
 31
0.0
  0
CIRCLE
  5
23E
330
307
100
AcDbEntity
  8
DATA
  6
Continuous
 62
     7
100
AcDbCircle
 10
1139.942802435509
 20
-112.5
 30
0.0
 40
39.99999999999391
  0
LWPOLYLINE
  5
23F
330
307
100
AcDbEntity
  8
DATA
  6
Continuous
 62
     7
100
AcDbPolyline
 90
        4
 70
     1
 43
0.0
 10
1111.894021947702
 20
-54.93902439024161
 10
1189.942802435498
 20
-72.49999999999772
 10
1167.991582923305
 20
-170.0609756097537
 10
1089.942802435499
 20
-152.4999999999977
  0
CIRCLE
  5
246
330
307
100
AcDbEntity
  8
DATA
  6
Continuous
 62
     7
100
AcDbCircle
 10
1269.942802435506
 20
-112.5
 30
0.0
 40
39.99999999999391
  0
LWPOLYLINE
  5
247
330
307
100
AcDbEntity
  8
DATA
  6
Continuous
 62
     7
100
AcDbPolyline
 90
        4
 70
     1
 43
0.0
 10
1241.8940219477
 20
-54.93902439024161
 10
1319.942802435496
 20
-72.49999999999772
 10
1297.991582923303
 20
-170.0609756097537
 10
1219.942802435498
 20
-152.4999999999977
  0
CIRCLE
  5
24E
330
307
100
AcDbEntity
  8
DATA
  6
Continuous
 62
     7
100
AcDbCircle
 10
1399.942802435504
 20
-112.5
 30
0.0
 40
39.99999999999391
  0
LWPOLYLINE
  5
24F
330
307
100
AcDbEntity
  8
DATA
  6
Continuous
 62
     7
100
AcDbPolyline
 90
        4
 70
     1
 43
0.0
 10
1371.894021947698
 20
-54.93902439024161
 10
1449.942802435494
 20
-72.49999999999772
 10
1427.991582923301
 20
-170.0609756097537
 10
1349.942802435496
 20
-152.4999999999977
  0
CIRCLE
  5
256
330
307
100
AcDbEntity
  8
DATA
  6
Continuous
 62
     7
100
AcDbCircle
 10
1529.942802435494
 20
-112.5
 30
0.0
 40
40.00000000000232
  0
CIRCLE
  5
257
330
307
100
AcDbEntity
  8
DATA
  6
Continuous
 62
     7
100
AcDbCircle
 10
879.9428024354995
 20
-112.5
 30
0.0
 40
40.00000000000309
  0
TEXT
  5
258
330
307
100
AcDbEntity
  8
DATA
 62
     7
100
AcDbText
 10
984.9428024355088
 20
39.50000000000022
 30
0.0
 40
38.4765625
  1
1+
 41
0.7
 11
984.9428024355088
 21
77.97656250000021
 31
0.0
100
AcDbText
 73
     3
  0
TEXT
  5
259
330
307
100
AcDbEntity
  8
DATA
 62
     7
100
AcDbText
 10
1114.942802435509
 20
39.50000000000022
 30
0.0
 40
38.4765625
  1
1-
 41
0.7
 11
1114.942802435509
 21
77.97656250000021
 31
0.0
100
AcDbText
 73
     3
  0
TEXT
  5
25A
330
307
100
AcDbEntity
  8
DATA
 62
     7
100
AcDbText
 10
1244.942802435507
 20
39.50000000000022
 30
0.0
 40
38.4765625
  1
2+
 41
0.7
 11
1244.942802435507
 21
77.97656250000021
 31
0.0
100
AcDbText
 73
     3
  0
TEXT
  5
25B
330
307
100
AcDbEntity
  8
DATA
 62
     7
100
AcDbText
 10
1374.942802435504
 20
39.50000000000022
 30
0.0
 40
38.4765625
  1
2-
 41
0.7
 11
1374.942802435504
 21
77.97656250000021
 31
0.0
100
AcDbText
 73
     3
  0
CIRCLE
  5
25C
330
307
100
AcDbEntity
  8
DATA
  6
Continuous
 62
     7
100
AcDbCircle
 10
904.9428024354995
 20
547.5
 30
0.0
 40
30.0
  0
CIRCLE
  5
25D
330
307
100
AcDbEntity
  8
DATA
  6
Continuous
 62
     7
100
AcDbCircle
 10
1504.942802435494
 20
547.5
 30
0.0
 40
30.0
  0
LWPOLYLINE
  5
25E
330
307
100
AcDbEntity
  8
DATA
  6
Continuous
 62
     7
100
AcDbPolyline
 90
        4
 70
     1
 43
0.0
 10
804.9428024354995
 20
1017.5
 10
1604.942802435494
 20
1017.5
 10
1604.942802435494
 20
642.4999999999999
 10
804.9428024354995
 20
642.4999999999999
  0
TEXT
  5
265
330
307
100
AcDbEntity
  8
DATA
 62
     7
100
AcDbText
 10
1444.17745701737
 20
669.5
 30
0.0
 40
38.4765625
  1
(N/A)
 41
0.7
 11
1444.17745701737
 21
707.9765625
 31
0.0
100
AcDbText
 73
     3
  0
TEXT
  5
266
330
307
100
AcDbEntity
  8
DATA
 62
     7
100
AcDbText
 10
805.1638826006525
 20
669.5
 30
0.0
 40
38.4765625
  1
(Discrete)
 41
0.7
 11
805.1638826006525
 21
707.9765625
 31
0.0
100
AcDbText
 73
     3
  0
TEXT
  5
267
330
307
100
AcDbEntity
  8
DATA
 62
     7
100
AcDbText
 10
834.9428024354995
 20
949.5
 30
0.0
 40
38.4765625
  1
Model: ASB6118
 41
0.7
 11
834.9428024354995
 21
987.9765625
 31
0.0
100
AcDbText
 73
     3
  0
LWPOLYLINE
  5
268
330
307
100
AcDbEntity
  8
DATA
  6
Continuous
 62
     7
100
AcDbPolyline
 90
        4
 70
     0
 43
0.0
 10
1365.264206762943
 20
767.4999999999999
 10
1045.264206762938
 20
767.4999999999999
 10
1045.264206762938
 20
877.5
 10
1365.264206762943
 20
877.5
  0
LINE
  5
26F
330
307
100
AcDbEntity
  8
DATA
  6
Continuous
 62
     7
100
AcDbLine
 10
1045.264206762938
 20
840.8333333333326
 30
0.0
 11
1365.264206762943
 21
840.8333333333326
 31
0.0
  0
LINE
  5
270
330
307
100
AcDbEntity
  8
DATA
  6
Continuous
 62
     7
100
AcDbLine
 10
1045.264206762938
 20
804.1666666666673
 30
0.0
 11
1365.264206762943
 21
804.1666666666673
 31
0.0
  0
LINE
  5
271
330
307
100
AcDbEntity
  8
DATA
  6
Continuous
 62
     7
100
AcDbLine
 10
1185.264206762937
 20
877.5
 30
0.0
 11
1185.264206762937
 21
767.4999999999999
 31
0.0
  0
LINE
  5
272
330
307
100
AcDbEntity
  8
DATA
  6
Continuous
 62
     7
100
AcDbLine
 10
1365.264206762943
 20
767.4999999999999
 30
0.0
 11
1365.264206762943
 21
877.5
 31
0.0
  0
TEXT
  5
273
330
307
100
AcDbEntity
  8
DATA
 62
     7
100
AcDbText
 10
1055.764207378852
 20
846.926666666668
 30
0.0
 40
26.16406250000001
  1
Wiring:
 41
0.7
 11
1055.764207378852
 21
873.090729166668
 31
0.0
100
AcDbText
 73
     3
  0
TEXT
  5
274
330
307
100
AcDbEntity
  8
DATA
 62
     7
100
AcDbText
 10
1207.693782384928
 20
846.644979905197
 30
0.0
 40
26.16406250000001
  1
Discrete
 41
0.7
 11
1207.693782384928
 21
872.809042405197
 31
0.0
100
AcDbText
 73
     3
  0
TEXT
  5
275
330
307
100
AcDbEntity
  8
DATA
 62
     7
100
AcDbText
 10
1072.764206001322
 20
810.2599999999981
 30
0.0
 40
26.16406250000001
  1
1+/1-
 41
0.7
 11
1072.764206001322
 21
836.4240624999981
 31
0.0
100
AcDbText
 73
     3
  0
TEXT
  5
276
330
307
100
AcDbEntity
  8
DATA
 62
     7
100
AcDbText
 10
1255.738291986299
 20
810.3658317690598
 30
0.0
 40
26.16406250000001
  1
LF
 41
0.7
 11
1255.738291986299
 21
836.5298942690598
 31
0.0
100
AcDbText
 73
     3
  0
TEXT
  5
277
330
307
100
AcDbEntity
  8
DATA
 62
     7
100
AcDbText
 10
1072.764206001322
 20
773.5933333333329
 30
0.0
 40
26.16406250000001
  1
2+/2-
 41
0.7
 11
1072.764206001322
 21
799.757395833333
 31
0.0
100
AcDbText
 73
     3
  0
TEXT
  5
278
330
307
100
AcDbEntity
  8
DATA
 62
     7
100
AcDbText
 10
1235.981850489418
 20
773.5440048341977
 30
0.0
 40
26.16406250000001
  1
Thru
 41
0.7
 11
1235.981850489418
 21
799.7080673341977
 31
0.0
100
AcDbText
 73
     3
  0
LINE
  5
279
330
307
100
AcDbEntity
  8
DATA
  6
Continuous
 62
     7
100
AcDbLine
 10
1015.928154943705
 20
-96.0553791362463
 30
0.0
 11
1003.957449927304
 21
-128.9446208637537
 31
0.0
  0
LINE
  5
27A
330
307
100
AcDbEntity
  8
DATA
  6
Continuous
 62
     7
100
AcDbLine
 10
885.9281549437049
 20
-128.9446208637537
 30
0.0
 11
873.9574499273034
 21
-96.0553791362463
 31
0.0
  0
LINE
  5
27B
330
307
100
AcDbEntity
  8
DATA
  6
Continuous
 62
     7
100
AcDbLine
 10
863.4981815717507
 20
-118.4853525082008
 30
0.0
 11
896.387423299258
 21
-106.5146474918015
 31
0.0
  0
LINE
  5
27C
330
307
100
AcDbEntity
  8
DATA
  6
Continuous
 62
     7
100
AcDbLine
 10
1102.355097604069
 20
-98.81919426697095
 30
0.0
 11
1177.530507266938
 21
-126.1808057330267
 31
0.0
  0
LINE
  5
27D
330
307
100
AcDbEntity
  8
DATA
  6
Continuous
 62
     7
100
AcDbLine
 10
1145.928154943704
 20
-96.0553791362463
 30
0.0
 11
1133.957449927303
 21
-128.9446208637537
 31
0.0
  0
LINE
  5
27E
330
307
100
AcDbEntity
  8
DATA
  6
Continuous
 62
     7
100
AcDbLine
 10
1232.355097604068
 20
-98.81919426697095
 30
0.0
 11
1307.530507266936
 21
-126.1808057330267
 31
0.0
  0
LINE
  5
27F
330
307
100
AcDbEntity
  8
DATA
  6
Continuous
 62
     7
100
AcDbLine
 10
1275.928154943702
 20
-96.0553791362463
 30
0.0
 11
1263.957449927301
 21
-128.9446208637537
 31
0.0
  0
LINE
  5
280
330
307
100
AcDbEntity
  8
DATA
  6
Continuous
 62
     7
100
AcDbLine
 10
1362.355097604065
 20
-98.81919426697095
 30
0.0
 11
1437.530507266933
 21
-126.1808057330267
 31
0.0
  0
LINE
  5
281
330
307
100
AcDbEntity
  8
DATA
  6
Continuous
 62
     7
100
AcDbLine
 10
1405.9281549437
 20
-96.0553791362463
 30
0.0
 11
1393.957449927299
 21
-128.9446208637537
 31
0.0
  0
LINE
  5
282
330
307
100
AcDbEntity
  8
DATA
  6
Continuous
 62
     7
100
AcDbLine
 10
1513.498181571744
 20
-118.4853525082008
 30
0.0
 11
1546.387423299252
 21
-106.5146474918015
 31
0.0
  0
LINE
  5
283
330
307
100
AcDbEntity
  8
DATA
  6
Continuous
 62
     7
100
AcDbLine
 10
1535.9281549437
 20
-128.9446208637537
 30
0.0
 11
1523.957449927297
 21
-96.0553791362463
 31
0.0
  0
LWPOLYLINE
  5
284
330
307
100
AcDbEntity
  8
DATA
  6
Continuous
 62
     7
100
AcDbPolyline
 90
        4
 70
     1
 43
0.0
 10
734.9428024354994
 20
1210.0
 10
1674.942802435494
 20
1210.0
 10
1674.942802435494
 20
-500.0
 10
734.9428024354994
 20
-500.0
  0
LWPOLYLINE
  5
28B
330
307
100
AcDbEntity
  8
DATA
  6
Continuous
 62
     7
100
AcDbPolyline
 90
        4
 70
     1
 43
0.0
 10
1045.264206762938
 20
840.8333333333326
 10
1185.264206762937
 20
840.8333333333326
 10
1185.264206762937
 20
804.1666666666651
 10
1045.264206762938
 20
804.1666666666651
  0
TEXT
  5
292
330
307
100
AcDbEntity
  8
DATA
 62
     7
100
AcDbText
 10
1097.25830446096
 20
-627.7153692715362
 30
0.0
 40
54.29470486111111
  1
端子拡大図
 41
0.7
 72
     1
 11
1204.942802435497
 21
-600.5680168409806
 31
0.0
100
AcDbText
 73
     2
  0
LINE
  5
293
330
307
100
AcDbEntity
  8
DATA
  6
Continuous
 62
     7
100
AcDbLine
 10
1000.0
 20
-650.5680168409806
 30
0.0
 11
1400.0
 21
-650.5680168409806
 31
0.0
  0
TEXT
  5
294
330
307
100
AcDbEntity
  8
DATA
 62
     7
100
AcDbText
 10
1097.028125877622
 20
-2024.546815843747
 30
0.0
 40
48.86523437500001
  1
JBL PROFESSIONAL
 41
0.7
 11
1097.028125877622
 21
-1975.681581468746
 31
0.0
100
AcDbText
 73
     3
  0
TEXT
  5
295
330
307
100
AcDbEntity
  8
DATA
 62
     7
100
AcDbText
 10
-1650.0
 20
-2235.369959443382
 30
0.0
 40
38.00629340182763
  1
※仕様及び外観は予告なく変更されることがあります。
 41
0.7
 11
-1650.0
 21
-2197.363666041555
 31
0.0
100
AcDbText
 73
     3
  0
TEXT
  5
296
330
307
100
AcDbEntity
  8
DATA
 62
     7
100
AcDbText
 10
-1650.0
 20
-2284.758848331036
 30
0.0
 40
38.00629340182763
  1
　また、同一商品でも若干の個体差があることがあります。ご了承ください。
 41
0.7
 11
-1650.0
 21
-2246.752554929209
 31
0.0
100
AcDbText
 73
     3
  0
ENDSEC
  0
SECTION
  2
OBJECTS
  0
DICTIONARY
  5
2A4
330
0
100
AcDbDictionary
281
     1
  3
ACAD_CIP_PREVIOUS_PRODUCT_INFO
350
31F
  3
ACAD_COLOR
350
2FA
  3
ACAD_DETAILVIEWSTYLE
350
301
  3
ACAD_GROUP
350
2A5
  3
ACAD_LAYOUT
350
2F9
  3
ACAD_MATERIAL
350
2A8
  3
ACAD_MLEADERSTYLE
350
2FD
  3
ACAD_MLINESTYLE
350
2F6
  3
ACAD_PLOTSETTINGS
350
2F8
  3
ACAD_PLOTSTYLENAME
350
2A6
  3
ACAD_SCALELIST
350
2DA
  3
ACAD_SECTIONVIEWSTYLE
350
2FF
  3
ACAD_TABLESTYLE
350
2FB
  3
ACAD_VISUALSTYLE
350
2C1
  3
ACDB_RECOMPOSE_DATA
350
337
  3
AcDbVariableDictionary
350
32A
  3
DWGPROPS
350
338
  0
DICTIONARY
  5
320
330
2EC
100
AcDbDictionary
280
     1
281
     1
  3
ADSK_XREC_LAYER_RECONCILED
360
321
  0
DICTIONARY
  5
322
330
30B
100
AcDbDictionary
280
     1
281
     1
  3
ADSK_XREC_LAYER_RECONCILED
360
323
  0
DICTIONARY
  5
324
330
317
100
AcDbDictionary
280
     1
281
     1
  3
ADSK_XREC_LAYER_RECONCILED
360
325
  0
DICTIONARY
  5
326
330
318
100
AcDbDictionary
280
     1
281
     1
  3
ADSK_XREC_LAYER_RECONCILED
360
327
  0
DICTIONARY
  5
328
330
319
100
AcDbDictionary
280
     1
281
     1
  3
ADSK_XREC_LAYER_RECONCILED
360
329
  0
XRECORD
  5
31F
102
{ACAD_REACTORS
330
2A4
102
}
330
2A4
100
AcDbXrecord
280
     1
300
ACDLT
300
2017
300
ACDLT_F_S
  0
DICTIONARY
  5
2FA
102
{ACAD_REACTORS
330
2A4
102
}
330
2A4
100
AcDbDictionary
281
     1
  0
DICTIONARY
  5
301
102
{ACAD_REACTORS
330
2A4
102
}
330
2A4
100
AcDbDictionary
281
     1
  3
Imperial24
350
302
  0
DICTIONARY
  5
2A5
102
{ACAD_REACTORS
330
2A4
102
}
330
2A4
100
AcDbDictionary
281
     1
  0
DICTIONARY
  5
2F9
102
{ACAD_REACTORS
330
2A4
102
}
330
2A4
100
AcDbDictionary
281
     1
  3
Model
350
30A
  3
レイアウト1
350
306
  0
DICTIONARY
  5
2A8
102
{ACAD_REACTORS
330
2A4
102
}
330
2A4
100
AcDbDictionary
281
     1
  3
ByBlock
350
2B1
  3
ByLayer
350
2A9
  3
Global
350
2B9
  0
DICTIONARY
  5
2FD
102
{ACAD_REACTORS
330
2A4
102
}
330
2A4
100
AcDbDictionary
281
     1
  3
Standard
350
2FE
  0
DICTIONARY
  5
2F6
102
{ACAD_REACTORS
330
2A4
102
}
330
2A4
100
AcDbDictionary
281
     1
  3
Standard
350
2F7
  0
DICTIONARY
  5
2F8
102
{ACAD_REACTORS
330
2A4
102
}
330
2A4
100
AcDbDictionary
281
     1
  0
ACDBDICTIONARYWDFLT
  5
2A6
102
{ACAD_REACTORS
330
2A4
102
}
330
2A4
100
AcDbDictionary
281
     1
  3
Normal
350
2A7
100
AcDbDictionaryWithDefault
340
2A7
  0
DICTIONARY
  5
2DA
102
{ACAD_REACTORS
330
2A4
102
}
330
2A4
100
AcDbDictionary
281
     1
  3
A0
350
2DB
  3
A1
350
2DC
  3
A2
350
2DD
  3
A3
350
2DE
  3
A4
350
2DF
  3
A5
350
2E0
  3
A6
350
2E1
  3
A7
350
2E2
  3
A8
350
2E3
  3
A9
350
2E4
  3
B0
350
2E5
  3
B1
350
2E6
  3
B2
350
2E7
  3
B3
350
2E8
  3
B4
350
2E9
  3
B5
350
2EA
  3
B6
350
2EB
  0
DICTIONARY
  5
2FF
102
{ACAD_REACTORS
330
2A4
102
}
330
2A4
100
AcDbDictionary
281
     1
  3
Imperial24
350
300
  0
DICTIONARY
  5
2FB
102
{ACAD_REACTORS
330
2A4
102
}
330
2A4
100
AcDbDictionary
281
     1
  3
Standard
350
2FC
  0
DICTIONARY
  5
2C1
102
{ACAD_REACTORS
330
2A4
102
}
330
2A4
100
AcDbDictionary
281
     1
  3
2dWireframe
350
2C7
  3
Basic
350
2C6
  3
Brighten
350
2CD
  3
ColorChange
350
2D1
  3
Conceptual
350
2CA
  3
Dim
350
2CC
  3
EdgeColorOff
350
2D9
  3
Facepattern
350
2D0
  3
Flat
350
2C2
  3
FlatWithEdges
350
2C3
  3
Gouraud
350
2C4
  3
GouraudWithEdges
350
2C5
  3
Hidden
350
2C9
  3
JitterOff
350
2D7
  3
Linepattern
350
2CF
  3
OverhangOff
350
2D8
  3
Realistic
350
2CB
  3
Shaded
350
2D6
  3
Shaded with edges
350
2D5
  3
Shades of Gray
350
2D2
  3
Sketchy
350
2D3
  3
Thicken
350
2CE
  3
Wireframe
350
2C8
  3
X-Ray
350
2D4
  0
XRECORD
  5
337
102
{ACAD_REACTORS
330
2A4
102
}
330
2A4
100
AcDbXrecord
280
     1
 90
        1
330
2FC
  0
DICTIONARY
  5
32A
102
{ACAD_REACTORS
330
2A4
102
}
330
2A4
100
AcDbDictionary
281
     1
  3
CANNOSCALE
350
32F
  3
CMLEADERSTYLE
350
32C
  3
CTABLESTYLE
350
32B
  3
CVIEWDETAILSTYLE
350
32D
  3
CVIEWSECTIONSTYLE
350
32E
  3
DIMASSOC
350
332
  3
INDEXCTL
350
331
  3
SORTENTS
350
330
  3
XCLIPFRAME
350
333
  0
XRECORD
  5
338
102
{ACAD_REACTORS
330
2A4
102
}
330
2A4
100
AcDbXrecord
280
     1
  1
DWGPROPS COOKIE
  2

  3

  4

  6

  7

  8
sasaki_n
  9

300
=
301
=
302
=
303
=
304
=
305
=
306
=
307
=
308
=
309
=
 40
0.0004976851851852
 41
2457812.434490741
 42
2457812.487743056
  1

 90
        0
  0
XRECORD
  5
321
102
{ACAD_REACTORS
330
320
102
}
330
320
100
AcDbXrecord
280
     1
290
     1
  0
XRECORD
  5
323
102
{ACAD_REACTORS
330
322
102
}
330
322
100
AcDbXrecord
280
     1
290
     1
  0
XRECORD
  5
325
102
{ACAD_REACTORS
330
324
102
}
330
324
100
AcDbXrecord
280
     1
290
     1
  0
XRECORD
  5
327
102
{ACAD_REACTORS
330
326
102
}
330
326
100
AcDbXrecord
280
     1
290
     1
  0
XRECORD
  5
329
102
{ACAD_REACTORS
330
328
102
}
330
328
100
AcDbXrecord
280
     1
290
     1
  0
ACDBDETAILVIEWSTYLE
  5
302
102
{ACAD_XDICTIONARY
360
370
102
}
102
{ACAD_REACTORS
330
301
102
}
330
301
100
AcDbModelDocViewStyle
 70
     0
  3
Imperial24
290
     0
100
AcDbDetailViewStyle
 70
     0
 71
     0
 90
        3
 71
     1
340
2ED
 40
0.24
340
0
 40
0.24
300

 40
0.36
280
     3
 71
     2
340
2F4
 90
       25
 71
     3
340
2ED
 40
0.24
 90
        1
 40
0.75
 90
        1
300
%<\AcVar ViewType \f "%tc1">% %<\AcVar ViewDetailId>%\PSCALE %<\AcVar ViewScale \f "%sn">%
 71
     4
340
2F4
 90
       25
340
2F4
 90
       25
280
     0
  0
LAYOUT
  5
30A
102
{ACAD_XDICTIONARY
360
374
102
}
102
{ACAD_REACTORS
330
2F9
102
}
330
2F9
100
AcDbPlotSettings
  1

  2
DocuPrint 3000-2
  4

  6

 40
0.0
 41
0.0
 42
0.0
 43
0.0
 44
0.0
 45
0.0
 46
0.0
 47
0.0
 48
0.0
 49
0.0
140
0.0
141
0.0
142
1.0
143
1.0
 70
  1712
 72
     0
 73
     0
 74
     0
  7

 75
     0
147
1.0
148
0.0
149
0.0
100
AcDbLayout
  1
Model
 70
     1
 71
     0
 10
0.0
 20
0.0
 11
12.0
 21
9.0
 12
0.0
 22
0.0
 32
0.0
 14
0.0
 24
0.0
 34
0.0
 15
0.0
 25
0.0
 35
0.0
146
0.0
 13
0.0
 23
0.0
 33
0.0
 16
1.0
 26
0.0
 36
0.0
 17
0.0
 27
1.0
 37
0.0
 76
     0
330
307
331
30C
  0
LAYOUT
  5
306
102
{ACAD_XDICTIONARY
360
372
102
}
102
{ACAD_REACTORS
330
2F9
102
}
330
2F9
100
AcDbPlotSettings
  1

  2
DocuPrint 3000-2
  4

  6

 40
0.0
 41
0.0
 42
0.0
 43
0.0
 44
0.0
 45
0.0
 46
0.0
 47
0.0
 48
0.0
 49
0.0
140
0.0
141
0.0
142
1.0
143
1.0
 70
   688
 72
     0
 73
     0
 74
     5
  7

 75
    16
147
1.0
148
0.0
149
0.0
100
AcDbLayout
  1
レイアウト1
 70
     0
 71
     1
 10
0.0
 20
0.0
 11
12.0
 21
9.0
 12
0.0
 22
0.0
 32
0.0
 14
1.000000000000000E+20
 24
1.000000000000000E+20
 34
1.000000000000000E+20
 15
-1.000000000000000E+20
 25
-1.000000000000000E+20
 35
-1.000000000000000E+20
146
0.0
 13
0.0
 23
0.0
 33
0.0
 16
1.0
 26
0.0
 36
0.0
 17
0.0
 27
1.0
 37
0.0
 76
     0
330
303
  0
MATERIAL
  5
2B1
102
{ACAD_XDICTIONARY
360
2B2
102
}
102
{ACAD_REACTORS
330
2A8
102
}
330
2A8
100
AcDbMaterial
  1
ByBlock
 72
     0
 43
0.0208333333333333
 43
0.0
 43
0.0
 43
0.0
 43
0.0
 43
0.0208333333333333
 43
0.0
 43
0.0
 43
0.0
 43
0.0
 43
1.0
 43
0.0
 43
0.0
 43
0.0
 43
0.0
 43
1.0
 77
     0
 47
0.0208333333333333
 47
0.0
 47
0.0
 47
0.0
 47
0.0
 47
0.0208333333333333
 47
0.0
 47
0.0
 47
0.0
 47
0.0
 47
1.0
 47
0.0
 47
0.0
 47
0.0
 47
0.0
 47
1.0
171
     0
 49
0.0208333333333333
 49
0.0
 49
0.0
 49
0.0
 49
0.0
 49
0.0208333333333333
 49
0.0
 49
0.0
 49
0.0
 49
0.0
 49
1.0
 49
0.0
 49
0.0
 49
0.0
 49
0.0
 49
1.0
175
     0
142
0.0208333333333333
142
0.0
142
0.0
142
0.0
142
0.0
142
0.0208333333333333
142
0.0
142
0.0
142
0.0
142
0.0
142
1.0
142
0.0
142
0.0
142
0.0
142
0.0
142
1.0
179
     0
144
0.0208333333333333
144
0.0
144
0.0
144
0.0
144
0.0
144
0.0208333333333333
144
0.0
144
0.0
144
0.0
144
0.0
144
1.0
144
0.0
144
0.0
144
0.0
144
0.0
144
1.0
147
0.0208333333333333
147
0.0
147
0.0
147
0.0
147
0.0
147
0.0208333333333333
147
0.0
147
0.0
147
0.0
147
0.0
147
1.0
147
0.0
147
0.0
147
0.0
147
0.0
147
1.0
  0
MATERIAL
  5
2A9
102
{ACAD_XDICTIONARY
360
2AA
102
}
102
{ACAD_REACTORS
330
2A8
102
}
330
2A8
100
AcDbMaterial
  1
ByLayer
 72
     0
 43
0.0208333333333333
 43
0.0
 43
0.0
 43
0.0
 43
0.0
 43
0.0208333333333333
 43
0.0
 43
0.0
 43
0.0
 43
0.0
 43
1.0
 43
0.0
 43
0.0
 43
0.0
 43
0.0
 43
1.0
 77
     0
 47
0.0208333333333333
 47
0.0
 47
0.0
 47
0.0
 47
0.0
 47
0.0208333333333333
 47
0.0
 47
0.0
 47
0.0
 47
0.0
 47
1.0
 47
0.0
 47
0.0
 47
0.0
 47
0.0
 47
1.0
171
     0
 49
0.0208333333333333
 49
0.0
 49
0.0
 49
0.0
 49
0.0
 49
0.0208333333333333
 49
0.0
 49
0.0
 49
0.0
 49
0.0
 49
1.0
 49
0.0
 49
0.0
 49
0.0
 49
0.0
 49
1.0
175
     0
142
0.0208333333333333
142
0.0
142
0.0
142
0.0
142
0.0
142
0.0208333333333333
142
0.0
142
0.0
142
0.0
142
0.0
142
1.0
142
0.0
142
0.0
142
0.0
142
0.0
142
1.0
179
     0
144
0.0208333333333333
144
0.0
144
0.0
144
0.0
144
0.0
144
0.0208333333333333
144
0.0
144
0.0
144
0.0
144
0.0
144
1.0
144
0.0
144
0.0
144
0.0
144
0.0
144
1.0
147
0.0208333333333333
147
0.0
147
0.0
147
0.0
147
0.0
147
0.0208333333333333
147
0.0
147
0.0
147
0.0
147
0.0
147
1.0
147
0.0
147
0.0
147
0.0
147
0.0
147
1.0
  0
MATERIAL
  5
2B9
102
{ACAD_XDICTIONARY
360
2BA
102
}
102
{ACAD_REACTORS
330
2A8
102
}
330
2A8
100
AcDbMaterial
  1
Global
 72
     0
 43
0.0208333333333333
 43
0.0
 43
0.0
 43
0.0
 43
0.0
 43
0.0208333333333333
 43
0.0
 43
0.0
 43
0.0
 43
0.0
 43
1.0
 43
0.0
 43
0.0
 43
0.0
 43
0.0
 43
1.0
 77
     0
 47
0.0208333333333333
 47
0.0
 47
0.0
 47
0.0
 47
0.0
 47
0.0208333333333333
 47
0.0
 47
0.0
 47
0.0
 47
0.0
 47
1.0
 47
0.0
 47
0.0
 47
0.0
 47
0.0
 47
1.0
171
     0
 49
0.0208333333333333
 49
0.0
 49
0.0
 49
0.0
 49
0.0
 49
0.0208333333333333
 49
0.0
 49
0.0
 49
0.0
 49
0.0
 49
1.0
 49
0.0
 49
0.0
 49
0.0
 49
0.0
 49
1.0
175
     0
142
0.0208333333333333
142
0.0
142
0.0
142
0.0
142
0.0
142
0.0208333333333333
142
0.0
142
0.0
142
0.0
142
0.0
142
1.0
142
0.0
142
0.0
142
0.0
142
0.0
142
1.0
179
     0
144
0.0208333333333333
144
0.0
144
0.0
144
0.0
144
0.0
144
0.0208333333333333
144
0.0
144
0.0
144
0.0
144
0.0
144
1.0
144
0.0
144
0.0
144
0.0
144
0.0
144
1.0
147
0.0208333333333333
147
0.0
147
0.0
147
0.0
147
0.0
147
0.0208333333333333
147
0.0
147
0.0
147
0.0
147
0.0
147
1.0
147
0.0
147
0.0
147
0.0
147
0.0
147
1.0
  0
MLEADERSTYLE
  5
2FE
102
{ACAD_REACTORS
330
2FD
102
}
330
2FD
100
AcDbMLeaderStyle
170
     2
171
     1
172
     0
 90
        2
 40
0.0
 41
0.0
173
     1
 91
-1056964608
340
2F2
 92
       -2
290
     1
 42
0.09
291
     1
 43
0.36
  3
Standard
 44
0.18
300

342
2ED
174
     1
178
     6
175
     1
176
     0
 93
-1056964608
 45
0.18
292
     0
297
     0
 46
0.18
 94
-1056964608
 47
1.0
 49
1.0
140
1.0
293
     1
141
0.0
294
     1
177
     0
142
1.0
295
     0
296
     0
143
0.125
1001
ACAD_MLEADERVER
1070
     2
  0
MLINESTYLE
  5
2F7
102
{ACAD_REACTORS
330
2F6
102
}
330
2F6
100
AcDbMlineStyle
  2
STANDARD
 70
     0
  3

 62
   256
 51
90.0
 52
90.0
 71
     2
 49
0.5
 62
   256
  6
BYLAYER
 49
-0.5
 62
   256
  6
BYLAYER
  0
ACDBPLACEHOLDER
  5
2A7
102
{ACAD_REACTORS
330
2A6
102
}
330
2A6
  0
SCALE
  5
2DB
102
{ACAD_REACTORS
330
2DA
102
}
330
2DA
100
AcDbScale
 70
     0
300
1:1
140
1.0
141
1.0
290
     1
  0
SCALE
  5
2DC
102
{ACAD_REACTORS
330
2DA
102
}
330
2DA
100
AcDbScale
 70
     0
300
1/128" = 1'-0"
140
0.0078125
141
12.0
290
     0
  0
SCALE
  5
2DD
102
{ACAD_REACTORS
330
2DA
102
}
330
2DA
100
AcDbScale
 70
     0
300
1/64" = 1'-0"
140
0.015625
141
12.0
290
     0
  0
SCALE
  5
2DE
102
{ACAD_REACTORS
330
2DA
102
}
330
2DA
100
AcDbScale
 70
     0
300
1/32" = 1'-0"
140
0.03125
141
12.0
290
     0
  0
SCALE
  5
2DF
102
{ACAD_REACTORS
330
2DA
102
}
330
2DA
100
AcDbScale
 70
     0
300
1/16" = 1'-0"
140
0.0625
141
12.0
290
     0
  0
SCALE
  5
2E0
102
{ACAD_REACTORS
330
2DA
102
}
330
2DA
100
AcDbScale
 70
     0
300
3/32" = 1'-0"
140
0.09375
141
12.0
290
     0
  0
SCALE
  5
2E1
102
{ACAD_REACTORS
330
2DA
102
}
330
2DA
100
AcDbScale
 70
     0
300
1/8" = 1'-0"
140
0.125
141
12.0
290
     0
  0
SCALE
  5
2E2
102
{ACAD_REACTORS
330
2DA
102
}
330
2DA
100
AcDbScale
 70
     0
300
3/16" = 1'-0"
140
0.1875
141
12.0
290
     0
  0
SCALE
  5
2E3
102
{ACAD_REACTORS
330
2DA
102
}
330
2DA
100
AcDbScale
 70
     0
300
1/4" = 1'-0"
140
0.25
141
12.0
290
     0
  0
SCALE
  5
2E4
102
{ACAD_REACTORS
330
2DA
102
}
330
2DA
100
AcDbScale
 70
     0
300
3/8" = 1'-0"
140
0.375
141
12.0
290
     0
  0
SCALE
  5
2E5
102
{ACAD_REACTORS
330
2DA
102
}
330
2DA
100
AcDbScale
 70
     0
300
1/2" = 1'-0"
140
0.5
141
12.0
290
     0
  0
SCALE
  5
2E6
102
{ACAD_REACTORS
330
2DA
102
}
330
2DA
100
AcDbScale
 70
     0
300
3/4" = 1'-0"
140
0.75
141
12.0
290
     0
  0
SCALE
  5
2E7
102
{ACAD_REACTORS
330
2DA
102
}
330
2DA
100
AcDbScale
 70
     0
300
1" = 1'-0"
140
1.0
141
12.0
290
     0
  0
SCALE
  5
2E8
102
{ACAD_REACTORS
330
2DA
102
}
330
2DA
100
AcDbScale
 70
     0
300
1-1/2" = 1'-0"
140
1.5
141
12.0
290
     0
  0
SCALE
  5
2E9
102
{ACAD_REACTORS
330
2DA
102
}
330
2DA
100
AcDbScale
 70
     0
300
3" = 1'-0"
140
3.0
141
12.0
290
     0
  0
SCALE
  5
2EA
102
{ACAD_REACTORS
330
2DA
102
}
330
2DA
100
AcDbScale
 70
     0
300
6" = 1'-0"
140
6.0
141
12.0
290
     0
  0
SCALE
  5
2EB
102
{ACAD_REACTORS
330
2DA
102
}
330
2DA
100
AcDbScale
 70
     0
300
1'-0" = 1'-0"
140
12.0
141
12.0
290
     0
  0
ACDBSECTIONVIEWSTYLE
  5
300
102
{ACAD_XDICTIONARY
360
36E
102
}
102
{ACAD_REACTORS
330
2FF
102
}
330
2FF
100
AcDbModelDocViewStyle
 70
     0
  3
Imperial24
290
     0
100
AcDbSectionViewStyle
 70
     0
 71
     0
 90
       78
 71
     1
340
2ED
 40
0.24
340
0
340
0
 40
0.24
300
I, O, Q, S, X, Z
 40
0.48
 90
        3
 40
0.18
 90
        1
 71
     2
340
2F4
 90
       25
340
2F4
 90
       50
 40
0.24
 40
0.0
 40
0.24
 71
     3
340
2ED
 40
0.24
 90
        1
 40
0.75
 90
        1
300
%<\AcVar ViewType \f "%tc1">% %<\AcVar ViewSectionStartId>%-%<\AcVar ViewSectionEndId>%\PSCALE %<\AcVar ViewScale \f "%sn">%
 71
     4
300
ANSI31
 40
1.0
 90
        0
290
     0
290
     0
 90
        6
 40
0.0
 40
1.570796326794896
 40
0.2617993877991494
 40
1.308996938995747
 40
-0.2617993877991494
 40
1.832595714594046
  0
TABLESTYLE
  5
2FC
102
{ACAD_XDICTIONARY
360
335
102
}
102
{ACAD_REACTORS
330
2FB
102
}
330
2FB
100
AcDbTableStyle
  3
Standard
 70
     0
 71
     0
 40
0.06
 41
0.06
280
     0
281
     0
  7
STANDARD
140
0.18
170
     2
 62
     0
 63
     7
283
     0
274
    -2
284
     1
 64
     0
275
    -2
285
     1
 65
     0
276
    -2
286
     1
 66
     0
277
    -2
287
     1
 67
     0
278
    -2
288
     1
 68
     0
279
    -2
289
     1
 69
     0
  7
STANDARD
140
0.25
170
     5
 62
     0
 63
     7
283
     0
274
    -2
284
     1
 64
     0
275
    -2
285
     1
 65
     0
276
    -2
286
     1
 66
     0
277
    -2
287
     1
 67
     0
278
    -2
288
     1
 68
     0
279
    -2
289
     1
 69
     0
  7
STANDARD
140
0.18
170
     5
 62
     0
 63
     7
283
     0
274
    -2
284
     1
 64
     0
275
    -2
285
     1
 65
     0
276
    -2
286
     1
 66
     0
277
    -2
287
     1
 67
     0
278
    -2
288
     1
 68
     0
279
    -2
289
     1
 69
     0
  0
VISUALSTYLE
  5
2C7
102
{ACAD_XDICTIONARY
360
346
102
}
102
{ACAD_REACTORS
330
2C1
102
}
330
2C1
100
AcDbVisualStyle
  2
2dWireframe
 70
     4
 71
     0
 72
     2
 73
     0
 90
        0
 40
-0.6
 41
-30.0
 62
     5
 63
     7
 74
     1
 91
        4
 64
     7
 65
   257
 75
     1
175
     1
 42
1.0
 92
        0
 66
   257
 43
1.0
 76
     1
 77
     6
 78
     2
 67
     7
 79
     5
170
     0
171
     0
290
     0
174
     0
 93
        1
 44
0.0
173
     0
291
     0
 45
0.0
1001
ACAD
1000
AcDbSavedByObjectVersion
1070
     0
  0
VISUALSTYLE
  5
2C6
102
{ACAD_XDICTIONARY
360
344
102
}
102
{ACAD_REACTORS
330
2C1
102
}
330
2C1
100
AcDbVisualStyle
  2
Basic
 70
     7
 71
     1
 72
     0
 73
     1
 90
        0
 40
-0.6
 41
-30.0
 62
     5
 63
     7
 74
     0
 91
        4
 64
     7
 65
   257
 75
     1
175
     1
 42
1.0
 92
        8
 66
     7
 43
1.0
 76
     1
 77
     6
 78
     2
 67
     7
 79
     5
170
     0
171
     0
290
     0
174
     0
 93
        1
 44
0.0
173
     0
291
     1
 45
0.0
1001
ACAD
1000
AcDbSavedByObjectVersion
1070
     0
  0
VISUALSTYLE
  5
2CD
102
{ACAD_XDICTIONARY
360
352
102
}
102
{ACAD_REACTORS
330
2C1
102
}
330
2C1
100
AcDbVisualStyle
  2
Brighten
 70
    12
 71
     2
 72
     2
 73
     0
 90
        0
 40
-0.6
 41
-30.0
 62
     5
 63
     7
 74
     1
 91
        4
 64
     7
 65
   257
 75
     1
175
     1
 42
1.0
 92
        8
 66
     7
 43
1.0
 76
     1
 77
     6
 78
     2
 67
     7
 79
     5
170
     0
171
     0
290
     0
174
     0
 93
        1
 44
50.0
173
     0
291
     1
 45
0.0
1001
ACAD
1000
AcDbSavedByObjectVersion
1070
     0
  0
VISUALSTYLE
  5
2D1
102
{ACAD_XDICTIONARY
360
35A
102
}
102
{ACAD_REACTORS
330
2C1
102
}
330
2C1
100
AcDbVisualStyle
  2
ColorChange
 70
    16
 71
     2
 72
     2
 73
     3
 90
        0
 40
-0.6
 41
-30.0
 62
     5
 63
     8
 74
     1
 91
        4
 64
     7
 65
   257
 75
     1
175
     1
 42
1.0
 92
        8
 66
     8
 43
1.0
 76
     1
 77
     6
 78
     2
 67
     7
 79
     5
170
     0
171
     0
290
     0
174
     0
 93
        1
 44
0.0
173
     0
291
     1
 45
0.0
1001
ACAD
1000
AcDbSavedByObjectVersion
1070
     0
  0
VISUALSTYLE
  5
2CA
102
{ACAD_XDICTIONARY
360
34C
102
}
102
{ACAD_REACTORS
330
2C1
102
}
330
2C1
100
AcDbVisualStyle
  2
Conceptual
 70
     9
 71
     3
 72
     2
 73
     0
 90
        0
 40
-0.6
 41
-30.0
 62
     5
 63
     7
 74
     2
 91
        2
 64
     7
 65
   257
 75
     1
175
     1
 42
179.0
 92
        8
 66
     7
 43
1.0
 76
     1
 77
     6
 78
     2
 67
     7
 79
     3
170
     0
171
     0
290
     0
174
     0
 93
        1
 44
0.0
173
     0
291
     0
 45
0.0
1001
ACAD
1000
AcDbSavedByObjectVersion
1070
     0
  0
VISUALSTYLE
  5
2CC
102
{ACAD_XDICTIONARY
360
350
102
}
102
{ACAD_REACTORS
330
2C1
102
}
330
2C1
100
AcDbVisualStyle
  2
Dim
 70
    11
 71
     2
 72
     2
 73
     0
 90
        0
 40
-0.6
 41
-30.0
 62
     5
 63
     7
 74
     1
 91
        4
 64
     7
 65
   257
 75
     1
175
     1
 42
1.0
 92
        8
 66
     7
 43
1.0
 76
     1
 77
     6
 78
     2
 67
     7
 79
     5
170
     0
171
     0
290
     0
174
     0
 93
        1
 44
-50.0
173
     0
291
     1
 45
0.0
1001
ACAD
1000
AcDbSavedByObjectVersion
1070
     0
  0
VISUALSTYLE
  5
2D9
102
{ACAD_XDICTIONARY
360
36A
102
}
102
{ACAD_REACTORS
330
2C1
102
}
330
2C1
100
AcDbVisualStyle
  2
EdgeColorOff
 70
    22
 71
     2
 72
     2
 73
     0
 90
        0
 40
-0.6
 41
-30.0
 62
     5
 63
     7
 74
     1
 91
        4
 64
     7
 65
   257
 75
     1
175
     1
 42
1.0
 92
        8
 66
     7
 43
1.0
 76
     1
 77
     6
 78
     2
 67
     7
 79
     5
170
     0
171
     0
290
     0
174
     0
 93
        1
 44
0.0
173
     0
291
     1
 45
0.0
1001
ACAD
1000
AcDbSavedByObjectVersion
1070
     0
  0
VISUALSTYLE
  5
2D0
102
{ACAD_XDICTIONARY
360
358
102
}
102
{ACAD_REACTORS
330
2C1
102
}
330
2C1
100
AcDbVisualStyle
  2
Facepattern
 70
    15
 71
     2
 72
     2
 73
     0
 90
        0
 40
-0.6
 41
-30.0
 62
     5
 63
     7
 74
     1
 91
        4
 64
     7
 65
   257
 75
     1
175
     1
 42
1.0
 92
        8
 66
     7
 43
1.0
 76
     1
 77
     6
 78
     2
 67
     7
 79
     5
170
     0
171
     0
290
     0
174
     0
 93
        1
 44
0.0
173
     0
291
     1
 45
0.0
1001
ACAD
1000
AcDbSavedByObjectVersion
1070
     0
  0
VISUALSTYLE
  5
2C2
102
{ACAD_XDICTIONARY
360
33C
102
}
102
{ACAD_REACTORS
330
2C1
102
}
330
2C1
100
AcDbVisualStyle
  2
Flat
 70
     0
 71
     2
 72
     1
 73
     1
 90
        2
 40
-0.6
 41
30.0
 62
     5
 63
     7
 74
     0
 91
        0
 64
     7
 65
   257
 75
     1
175
     1
 42
1.0
 92
        8
 66
     7
 43
1.0
 76
     1
 77
     6
 78
     2
 67
     7
 79
     5
170
     0
171
     0
290
     0
174
     0
 93
       13
 44
0.0
173
     0
291
     1
 45
0.0
1001
ACAD
1000
AcDbSavedByObjectVersion
1070
     0
  0
VISUALSTYLE
  5
2C3
102
{ACAD_XDICTIONARY
360
33E
102
}
102
{ACAD_REACTORS
330
2C1
102
}
330
2C1
100
AcDbVisualStyle
  2
FlatWithEdges
 70
     1
 71
     2
 72
     1
 73
     1
 90
        2
 40
-0.6
 41
30.0
 62
     5
 63
     7
 74
     1
 91
        0
 64
     7
 65
   257
 75
     1
175
     1
 42
1.0
 92
        0
 66
   257
 43
1.0
 76
     1
 77
     6
 78
     2
 67
     7
 79
     5
170
     0
171
     0
290
     0
174
     0
 93
       13
 44
0.0
173
     0
291
     1
 45
0.0
1001
ACAD
1000
AcDbSavedByObjectVersion
1070
     0
  0
VISUALSTYLE
  5
2C4
102
{ACAD_XDICTIONARY
360
340
102
}
102
{ACAD_REACTORS
330
2C1
102
}
330
2C1
100
AcDbVisualStyle
  2
Gouraud
 70
     2
 71
     2
 72
     2
 73
     1
 90
        2
 40
-0.6
 41
30.0
 62
     5
 63
     7
 74
     0
 91
        0
 64
     7
 65
   257
 75
     1
175
     1
 42
1.0
 92
        0
 66
     7
 43
1.0
 76
     1
 77
     6
 78
     2
 67
     7
 79
     5
170
     0
171
     0
290
     0
174
     0
 93
       13
 44
0.0
173
     0
291
     1
 45
0.0
1001
ACAD
1000
AcDbSavedByObjectVersion
1070
     0
  0
VISUALSTYLE
  5
2C5
102
{ACAD_XDICTIONARY
360
342
102
}
102
{ACAD_REACTORS
330
2C1
102
}
330
2C1
100
AcDbVisualStyle
  2
GouraudWithEdges
 70
     3
 71
     2
 72
     2
 73
     1
 90
        2
 40
-0.6
 41
30.0
 62
     5
 63
     7
 74
     1
 91
        0
 64
     7
 65
   257
 75
     1
175
     1
 42
1.0
 92
        0
 66
   257
 43
1.0
 76
     1
 77
     6
 78
     2
 67
     7
 79
     5
170
     0
171
     0
290
     0
174
     0
 93
       13
 44
0.0
173
     0
291
     1
 45
0.0
1001
ACAD
1000
AcDbSavedByObjectVersion
1070
     0
  0
VISUALSTYLE
  5
2C9
102
{ACAD_XDICTIONARY
360
34A
102
}
102
{ACAD_REACTORS
330
2C1
102
}
330
2C1
100
AcDbVisualStyle
  2
Hidden
 70
     6
 71
     1
 72
     2
 73
     2
 90
        0
 40
-0.6
 41
-30.0
 62
     5
 63
     7
 74
     2
 91
        2
 64
     7
 65
   257
 75
     2
175
     1
 42
40.0
 92
        0
 66
   257
 43
1.0
 76
     1
 77
     6
 78
     2
 67
     7
 79
     3
170
     0
171
     0
290
     0
174
     0
 93
        1
 44
0.0
173
     0
291
     0
 45
0.0
1001
ACAD
1000
AcDbSavedByObjectVersion
1070
     0
  0
VISUALSTYLE
  5
2D7
102
{ACAD_XDICTIONARY
360
366
102
}
102
{ACAD_REACTORS
330
2C1
102
}
330
2C1
100
AcDbVisualStyle
  2
JitterOff
 70
    20
 71
     2
 72
     2
 73
     0
 90
        0
 40
-0.6
 41
-30.0
 62
     5
 63
     7
 74
     1
 91
        4
 64
     7
 65
   257
 75
     1
175
     1
 42
1.0
 92
       10
 66
     7
 43
1.0
 76
     1
 77
     6
 78
     2
 67
     7
 79
     5
170
     0
171
     0
290
     0
174
     0
 93
        1
 44
0.0
173
     0
291
     1
 45
0.0
1001
ACAD
1000
AcDbSavedByObjectVersion
1070
     0
  0
VISUALSTYLE
  5
2CF
102
{ACAD_XDICTIONARY
360
356
102
}
102
{ACAD_REACTORS
330
2C1
102
}
330
2C1
100
AcDbVisualStyle
  2
Linepattern
 70
    14
 71
     2
 72
     2
 73
     0
 90
        0
 40
-0.6
 41
-30.0
 62
     5
 63
     7
 74
     1
 91
        4
 64
     7
 65
   257
 75
     7
175
     7
 42
1.0
 92
        8
 66
     7
 43
1.0
 76
     1
 77
     6
 78
     2
 67
     7
 79
     5
170
     0
171
     0
290
     0
174
     0
 93
        1
 44
0.0
173
     0
291
     1
 45
0.0
1001
ACAD
1000
AcDbSavedByObjectVersion
1070
     0
  0
VISUALSTYLE
  5
2D8
102
{ACAD_XDICTIONARY
360
368
102
}
102
{ACAD_REACTORS
330
2C1
102
}
330
2C1
100
AcDbVisualStyle
  2
OverhangOff
 70
    21
 71
     2
 72
     2
 73
     0
 90
        0
 40
-0.6
 41
-30.0
 62
     5
 63
     7
 74
     1
 91
        4
 64
     7
 65
   257
 75
     1
175
     1
 42
1.0
 92
        9
 66
     7
 43
1.0
 76
     1
 77
     6
 78
     2
 67
     7
 79
     5
170
     0
171
     0
290
     0
174
     0
 93
        1
 44
0.0
173
     0
291
     1
 45
0.0
1001
ACAD
1000
AcDbSavedByObjectVersion
1070
     0
  0
VISUALSTYLE
  5
2CB
102
{ACAD_XDICTIONARY
360
34E
102
}
102
{ACAD_REACTORS
330
2C1
102
}
330
2C1
100
AcDbVisualStyle
  2
Realistic
 70
     8
 71
     2
 72
     3
 73
     0
 90
        2
 40
-0.6
 41
30.0
 62
     5
 63
     7
 74
     0
 91
        0
 64
     7
 65
   257
 75
     1
175
     1
 42
1.0
 92
        8
 66
   257
 43
1.0
 76
     1
 77
     6
 78
     2
 67
     7
 79
     3
170
     0
171
     0
290
     0
174
     0
 93
       13
 44
0.0
173
     0
291
     0
 45
0.0
1001
ACAD
1000
AcDbSavedByObjectVersion
1070
     0
  0
VISUALSTYLE
  5
2D6
102
{ACAD_XDICTIONARY
360
364
102
}
102
{ACAD_REACTORS
330
2C1
102
}
330
2C1
100
AcDbVisualStyle
  2
Shaded
 70
    27
 71
     2
 72
     2
 73
     1
 90
        2
 40
-0.6
 41
30.0
 62
     5
 63
     7
 74
     0
 91
        4
 64
     7
 65
   257
 75
     1
175
     1
 42
1.0
 92
        8
 66
   257
 43
1.0
 76
     1
 77
     6
 78
     2
 67
     8
 79
     3
170
     0
171
     0
290
     0
174
     0
 93
        5
 44
0.0
173
     0
291
     0
 45
0.0
1001
ACAD
1000
AcDbSavedByObjectVersion
1070
     0
  0
VISUALSTYLE
  5
2D5
102
{ACAD_XDICTIONARY
360
362
102
}
102
{ACAD_REACTORS
330
2C1
102
}
330
2C1
100
AcDbVisualStyle
  2
Shaded with edges
 70
    26
 71
     2
 72
     2
 73
     1
 90
        2
 40
-0.6
 41
30.0
 62
     5
 63
     7
 74
     1
 91
        2
 64
     7
 65
   257
 75
     2
175
     1
 42
1.0
 92
        8
 66
   257
 43
1.0
 76
     1
 77
     6
 78
     2
 67
     7
 79
     3
170
     0
171
     0
290
     0
174
     0
 93
        5
 44
0.0
173
     0
291
     0
 45
0.0
1001
ACAD
1000
AcDbSavedByObjectVersion
1070
     0
  0
VISUALSTYLE
  5
2D2
102
{ACAD_XDICTIONARY
360
35C
102
}
102
{ACAD_REACTORS
330
2C1
102
}
330
2C1
100
AcDbVisualStyle
  2
Shades of Gray
 70
    23
 71
     2
 72
     2
 73
     3
 90
        0
 40
-0.6
 41
-30.0
 62
     5
 63
     7
 74
     2
 91
        2
 64
     7
 65
     7
 75
     1
175
     1
 42
40.0
 92
        8
 66
     7
 43
1.0
 76
     1
 77
     6
 78
     2
 67
     7
 79
     3
170
     0
171
     0
290
     0
174
     0
 93
        1
 44
0.0
173
     0
291
     0
 45
0.0
1001
ACAD
1000
AcDbSavedByObjectVersion
1070
     0
  0
VISUALSTYLE
  5
2D3
102
{ACAD_XDICTIONARY
360
35E
102
}
102
{ACAD_REACTORS
330
2C1
102
}
330
2C1
100
AcDbVisualStyle
  2
Sketchy
 70
    24
 71
     1
 72
     2
 73
     2
 90
        0
 40
-0.6
 41
-30.0
 62
     5
 63
     7
 74
     2
 91
        2
 64
     7
 65
     7
 75
     1
175
     1
 42
40.0
 92
       11
 66
     7
 43
1.0
 76
     1
 77
     6
 78
     2
 67
     7
 79
     6
170
     0
171
     0
290
     0
174
     0
 93
        1
 44
0.0
173
     0
291
     0
 45
0.0
1001
ACAD
1000
AcDbSavedByObjectVersion
1070
     0
  0
VISUALSTYLE
  5
2CE
102
{ACAD_XDICTIONARY
360
354
102
}
102
{ACAD_REACTORS
330
2C1
102
}
330
2C1
100
AcDbVisualStyle
  2
Thicken
 70
    13
 71
     2
 72
     2
 73
     0
 90
        0
 40
-0.6
 41
-30.0
 62
     5
 63
     7
 74
     1
 91
        4
 64
     7
 65
   257
 75
     1
175
     1
 42
1.0
 92
       12
 66
     7
 43
1.0
 76
     1
 77
     6
 78
     2
 67
     7
 79
     5
170
     0
171
     0
290
     0
174
     0
 93
        1
 44
0.0
173
     0
291
     1
 45
0.0
1001
ACAD
1000
AcDbSavedByObjectVersion
1070
     0
  0
VISUALSTYLE
  5
2C8
102
{ACAD_XDICTIONARY
360
348
102
}
102
{ACAD_REACTORS
330
2C1
102
}
330
2C1
100
AcDbVisualStyle
  2
Wireframe
 70
     5
 71
     0
 72
     2
 73
     0
 90
        0
 40
-0.6
 41
-30.0
 62
     5
 63
     7
 74
     1
 91
        4
 64
     7
 65
   257
 75
     1
175
     1
 42
1.0
 92
        0
 66
   257
 43
1.0
 76
     1
 77
     6
 78
     2
 67
     7
 79
     3
170
     0
171
     0
290
     0
174
     0
 93
        1
 44
0.0
173
     0
291
     0
 45
0.0
1001
ACAD
1000
AcDbSavedByObjectVersion
1070
     0
  0
VISUALSTYLE
  5
2D4
102
{ACAD_XDICTIONARY
360
360
102
}
102
{ACAD_REACTORS
330
2C1
102
}
330
2C1
100
AcDbVisualStyle
  2
X-Ray
 70
    25
 71
     2
 72
     2
 73
     1
 90
        1
 40
0.5
 41
-30.0
 62
     5
 63
     7
 74
     1
 91
        0
 64
     7
 65
   257
 75
     1
175
     1
 42
1.0
 92
        8
 66
     7
 43
1.0
 76
     1
 77
     6
 78
     2
 67
     7
 79
     3
170
     0
171
     0
290
     0
174
     0
 93
       13
 44
0.0
173
     0
291
     0
 45
0.0
1001
ACAD
1000
AcDbSavedByObjectVersion
1070
     0
  0
DICTIONARYVAR
  5
32F
102
{ACAD_REACTORS
330
32A
102
}
330
32A
100
DictionaryVariables
280
     0
  1
1:1
  0
DICTIONARYVAR
  5
32C
102
{ACAD_REACTORS
330
32A
102
}
330
32A
100
DictionaryVariables
280
     0
  1
STANDARD
  0
DICTIONARYVAR
  5
32B
102
{ACAD_REACTORS
330
32A
102
}
330
32A
100
DictionaryVariables
280
     0
  1
STANDARD
  0
DICTIONARYVAR
  5
32D
102
{ACAD_REACTORS
330
32A
102
}
330
32A
100
DictionaryVariables
280
     0
  1
Imperial24
  0
DICTIONARYVAR
  5
32E
102
{ACAD_REACTORS
330
32A
102
}
330
32A
100
DictionaryVariables
280
     0
  1
Imperial24
  0
DICTIONARYVAR
  5
332
102
{ACAD_REACTORS
330
32A
102
}
330
32A
100
DictionaryVariables
280
     0
  1
1
  0
DICTIONARYVAR
  5
331
102
{ACAD_REACTORS
330
32A
102
}
330
32A
100
DictionaryVariables
280
     0
  1
0
  0
DICTIONARYVAR
  5
330
102
{ACAD_REACTORS
330
32A
102
}
330
32A
100
DictionaryVariables
280
     0
  1
127
  0
DICTIONARYVAR
  5
333
102
{ACAD_REACTORS
330
32A
102
}
330
32A
100
DictionaryVariables
280
     0
  1
2
  0
DICTIONARY
  5
370
330
302
100
AcDbDictionary
280
     1
281
     1
  3
ACAD_XREC_ROUNDTRIP
360
371
  0
DICTIONARY
  5
374
330
30A
100
AcDbDictionary
280
     1
281
     1
  3
ACAD_XREC_ROUNDTRIP
360
375
  0
DICTIONARY
  5
372
330
306
100
AcDbDictionary
280
     1
281
     1
  3
ACAD_XREC_ROUNDTRIP
360
373
  0
DICTIONARY
  5
2B2
330
2B1
100
AcDbDictionary
280
     1
281
     1
  3
ACAD_XREC_ROUNDTRIP
360
33A
  3
BUMPTILE
360
2B4
  3
DIFFUSETILE
360
2B3
  3
OPACITYTILE
360
2B7
  3
REFLECTIONTILE
360
2B6
  3
REFRACTIONTILE
360
2B8
  3
SPECULARTILE
360
2B5
  0
DICTIONARY
  5
2AA
330
2A9
100
AcDbDictionary
280
     1
281
     1
  3
ACAD_XREC_ROUNDTRIP
360
339
  3
BUMPTILE
360
2AC
  3
DIFFUSETILE
360
2AB
  3
OPACITYTILE
360
2AF
  3
REFLECTIONTILE
360
2AE
  3
REFRACTIONTILE
360
2B0
  3
SPECULARTILE
360
2AD
  0
DICTIONARY
  5
2BA
330
2B9
100
AcDbDictionary
280
     1
281
     1
  3
ACAD_XREC_ROUNDTRIP
360
33B
  3
BUMPTILE
360
2BC
  3
DIFFUSETILE
360
2BB
  3
OPACITYTILE
360
2BF
  3
REFLECTIONTILE
360
2BE
  3
REFRACTIONTILE
360
2C0
  3
SPECULARTILE
360
2BD
  0
DICTIONARY
  5
36E
330
300
100
AcDbDictionary
280
     1
281
     1
  3
ACAD_XREC_ROUNDTRIP
360
36F
  0
DICTIONARY
  5
335
330
2FC
100
AcDbDictionary
280
     1
281
     1
  3
ACAD_ROUNDTRIP_2008_TABLESTYLE_CELLSTYLEMAP
360
336
  3
ACAD_XREC_ROUNDTRIP
360
36C
  0
DICTIONARY
  5
346
330
2C7
100
AcDbDictionary
280
     1
281
     1
  3
ACAD_XREC_ROUNDTRIP
360
347
  0
DICTIONARY
  5
344
330
2C6
100
AcDbDictionary
280
     1
281
     1
  3
ACAD_XREC_ROUNDTRIP
360
345
  0
DICTIONARY
  5
352
330
2CD
100
AcDbDictionary
280
     1
281
     1
  3
ACAD_XREC_ROUNDTRIP
360
353
  0
DICTIONARY
  5
35A
330
2D1
100
AcDbDictionary
280
     1
281
     1
  3
ACAD_XREC_ROUNDTRIP
360
35B
  0
DICTIONARY
  5
34C
330
2CA
100
AcDbDictionary
280
     1
281
     1
  3
ACAD_XREC_ROUNDTRIP
360
34D
  0
DICTIONARY
  5
350
330
2CC
100
AcDbDictionary
280
     1
281
     1
  3
ACAD_XREC_ROUNDTRIP
360
351
  0
DICTIONARY
  5
36A
330
2D9
100
AcDbDictionary
280
     1
281
     1
  3
ACAD_XREC_ROUNDTRIP
360
36B
  0
DICTIONARY
  5
358
330
2D0
100
AcDbDictionary
280
     1
281
     1
  3
ACAD_XREC_ROUNDTRIP
360
359
  0
DICTIONARY
  5
33C
330
2C2
100
AcDbDictionary
280
     1
281
     1
  3
ACAD_XREC_ROUNDTRIP
360
33D
  0
DICTIONARY
  5
33E
330
2C3
100
AcDbDictionary
280
     1
281
     1
  3
ACAD_XREC_ROUNDTRIP
360
33F
  0
DICTIONARY
  5
340
330
2C4
100
AcDbDictionary
280
     1
281
     1
  3
ACAD_XREC_ROUNDTRIP
360
341
  0
DICTIONARY
  5
342
330
2C5
100
AcDbDictionary
280
     1
281
     1
  3
ACAD_XREC_ROUNDTRIP
360
343
  0
DICTIONARY
  5
34A
330
2C9
100
AcDbDictionary
280
     1
281
     1
  3
ACAD_XREC_ROUNDTRIP
360
34B
  0
DICTIONARY
  5
366
330
2D7
100
AcDbDictionary
280
     1
281
     1
  3
ACAD_XREC_ROUNDTRIP
360
367
  0
DICTIONARY
  5
356
330
2CF
100
AcDbDictionary
280
     1
281
     1
  3
ACAD_XREC_ROUNDTRIP
360
357
  0
DICTIONARY
  5
368
330
2D8
100
AcDbDictionary
280
     1
281
     1
  3
ACAD_XREC_ROUNDTRIP
360
369
  0
DICTIONARY
  5
34E
330
2CB
100
AcDbDictionary
280
     1
281
     1
  3
ACAD_XREC_ROUNDTRIP
360
34F
  0
DICTIONARY
  5
364
330
2D6
100
AcDbDictionary
280
     1
281
     1
  3
ACAD_XREC_ROUNDTRIP
360
365
  0
DICTIONARY
  5
362
330
2D5
100
AcDbDictionary
280
     1
281
     1
  3
ACAD_XREC_ROUNDTRIP
360
363
  0
DICTIONARY
  5
35C
330
2D2
100
AcDbDictionary
280
     1
281
     1
  3
ACAD_XREC_ROUNDTRIP
360
35D
  0
DICTIONARY
  5
35E
330
2D3
100
AcDbDictionary
280
     1
281
     1
  3
ACAD_XREC_ROUNDTRIP
360
35F
  0
DICTIONARY
  5
354
330
2CE
100
AcDbDictionary
280
     1
281
     1
  3
ACAD_XREC_ROUNDTRIP
360
355
  0
DICTIONARY
  5
348
330
2C8
100
AcDbDictionary
280
     1
281
     1
  3
ACAD_XREC_ROUNDTRIP
360
349
  0
DICTIONARY
  5
360
330
2D4
100
AcDbDictionary
280
     1
281
     1
  3
ACAD_XREC_ROUNDTRIP
360
361
  0
XRECORD
  5
371
102
{ACAD_REACTORS
330
370
102
}
330
370
100
AcDbXrecord
280
     1
102
DISPLAYNAME
  1
Imperial24
102
FLAGS
 90
        0
  0
XRECORD
  5
375
102
{ACAD_REACTORS
330
374
102
}
330
374
100
AcDbXrecord
280
     1
102
SHADEPLOT
 70
     0
102
SHADEPLOTRESLEVEL
 70
     2
102
SHADEPLOTCUSTOMDPI
 70
   300
  0
XRECORD
  5
373
102
{ACAD_REACTORS
330
372
102
}
330
372
100
AcDbXrecord
280
     1
102
SHADEPLOT
 70
     0
102
SHADEPLOTRESLEVEL
 70
     2
102
SHADEPLOTCUSTOMDPI
 70
   300
  0
XRECORD
  5
33A
102
{ACAD_REACTORS
330
2B2
102
}
330
2B2
100
AcDbXrecord
280
     1
102
MATERIAL
148
0.0
149
0.0
149
0.0
 93
        0
 94
      127
282
     0
 72
     0
 77
     0
171
     0
175
     0
179
     0
273
     0
  0
XRECORD
  5
2B4
102
{ACAD_REACTORS
330
2B2
102
}
330
2B2
100
AcDbXrecord
280
     1
270
     1
271
     1
  0
XRECORD
  5
2B3
102
{ACAD_REACTORS
330
2B2
102
}
330
2B2
100
AcDbXrecord
280
     1
270
     1
271
     1
  0
XRECORD
  5
2B7
102
{ACAD_REACTORS
330
2B2
102
}
330
2B2
100
AcDbXrecord
280
     1
270
     1
271
     1
  0
XRECORD
  5
2B6
102
{ACAD_REACTORS
330
2B2
102
}
330
2B2
100
AcDbXrecord
280
     1
270
     1
271
     1
  0
XRECORD
  5
2B8
102
{ACAD_REACTORS
330
2B2
102
}
330
2B2
100
AcDbXrecord
280
     1
270
     1
271
     1
  0
XRECORD
  5
2B5
102
{ACAD_REACTORS
330
2B2
102
}
330
2B2
100
AcDbXrecord
280
     1
270
     1
271
     1
  0
XRECORD
  5
339
102
{ACAD_REACTORS
330
2AA
102
}
330
2AA
100
AcDbXrecord
280
     1
102
MATERIAL
148
0.0
149
0.0
149
0.0
 93
        0
 94
      127
282
     0
 72
     0
 77
     0
171
     0
175
     0
179
     0
273
     0
  0
XRECORD
  5
2AC
102
{ACAD_REACTORS
330
2AA
102
}
330
2AA
100
AcDbXrecord
280
     1
270
     1
271
     1
  0
XRECORD
  5
2AB
102
{ACAD_REACTORS
330
2AA
102
}
330
2AA
100
AcDbXrecord
280
     1
270
     1
271
     1
  0
XRECORD
  5
2AF
102
{ACAD_REACTORS
330
2AA
102
}
330
2AA
100
AcDbXrecord
280
     1
270
     1
271
     1
  0
XRECORD
  5
2AE
102
{ACAD_REACTORS
330
2AA
102
}
330
2AA
100
AcDbXrecord
280
     1
270
     1
271
     1
  0
XRECORD
  5
2B0
102
{ACAD_REACTORS
330
2AA
102
}
330
2AA
100
AcDbXrecord
280
     1
270
     1
271
     1
  0
XRECORD
  5
2AD
102
{ACAD_REACTORS
330
2AA
102
}
330
2AA
100
AcDbXrecord
280
     1
270
     1
271
     1
  0
XRECORD
  5
33B
102
{ACAD_REACTORS
330
2BA
102
}
330
2BA
100
AcDbXrecord
280
     1
102
MATERIAL
148
0.0
149
0.0
149
0.0
 93
        0
 94
      127
282
     0
 72
     0
 77
     0
171
     0
175
     0
179
     0
273
     0
  0
XRECORD
  5
2BC
102
{ACAD_REACTORS
330
2BA
102
}
330
2BA
100
AcDbXrecord
280
     1
270
     1
271
     1
  0
XRECORD
  5
2BB
102
{ACAD_REACTORS
330
2BA
102
}
330
2BA
100
AcDbXrecord
280
     1
270
     1
271
     1
  0
XRECORD
  5
2BF
102
{ACAD_REACTORS
330
2BA
102
}
330
2BA
100
AcDbXrecord
280
     1
270
     1
271
     1
  0
XRECORD
  5
2BE
102
{ACAD_REACTORS
330
2BA
102
}
330
2BA
100
AcDbXrecord
280
     1
270
     1
271
     1
  0
XRECORD
  5
2C0
102
{ACAD_REACTORS
330
2BA
102
}
330
2BA
100
AcDbXrecord
280
     1
270
     1
271
     1
  0
XRECORD
  5
2BD
102
{ACAD_REACTORS
330
2BA
102
}
330
2BA
100
AcDbXrecord
280
     1
270
     1
271
     1
  0
XRECORD
  5
36F
102
{ACAD_REACTORS
330
36E
102
}
330
36E
100
AcDbXrecord
280
     1
102
DISPLAYNAME
  1
Imperial24
102
FLAGS
 90
        0
  0
CELLSTYLEMAP
  5
336
102
{ACAD_REACTORS
330
335
102
}
330
335
100
AcDbCellStyleMap
 90
        3
300
CELLSTYLE
  1
TABLEFORMAT_BEGIN
 90
        5
170
     1
 91
        0
 92
    32768
 62
   257
 93
        1
300
CONTENTFORMAT
  1
CONTENTFORMAT_BEGIN
 90
        0
 91
        0
 92
      512
 93
        0
300

 40
0.0
140
1.0
 94
        5
 62
     0
340
2ED
144
0.25
309
CONTENTFORMAT_END
171
     0
 94
        0
309
TABLEFORMAT_END
  1
CELLSTYLE_BEGIN
 90
        1
 91
        1
300
_TITLE
309
CELLSTYLE_END
300
CELLSTYLE
  1
TABLEFORMAT_BEGIN
 90
        5
170
     1
 91
        0
 92
        0
 62
   257
 93
        1
300
CONTENTFORMAT
  1
CONTENTFORMAT_BEGIN
 90
        0
 91
        0
 92
      512
 93
        0
300

 40
0.0
140
1.0
 94
        5
 62
     0
340
2ED
144
0.18
309
CONTENTFORMAT_END
171
     0
 94
        0
309
TABLEFORMAT_END
  1
CELLSTYLE_BEGIN
 90
        2
 91
        1
300
_HEADER
309
CELLSTYLE_END
300
CELLSTYLE
  1
TABLEFORMAT_BEGIN
 90
        5
170
     1
 91
        0
 92
        0
 62
   257
 93
        1
300
CONTENTFORMAT
  1
CONTENTFORMAT_BEGIN
 90
        0
 91
        0
 92
      512
 93
        0
300

 40
0.0
140
1.0
 94
        2
 62
     0
340
2ED
144
0.18
309
CONTENTFORMAT_END
171
     0
 94
        0
309
TABLEFORMAT_END
  1
CELLSTYLE_BEGIN
 90
        3
 91
        2
300
_DATA
309
CELLSTYLE_END
  0
XRECORD
  5
36C
102
{ACAD_REACTORS
330
335
102
}
330
335
100
AcDbXrecord
280
     1
102
ACAD_ROUNDTRIP_PRE2007_TABLESTYLE
 90
      512
 91
        0
  1

 92
      512
 93
        0
  2

 94
      512
 95
        0
  3

  0
XRECORD
  5
347
102
{ACAD_REACTORS
330
346
102
}
330
346
100
AcDbXrecord
280
     1
102
RTVSPost2010Prop28
280
     1
102
RTVSPost2010PropOp28
 70
     1
102
RTVSPost2010Prop29
280
     1
102
RTVSPost2010PropOp29
 70
     1
102
RTVSPost2010Prop30
280
     0
102
RTVSPost2010PropOp30
 70
     1
102
RTVSPost2010Prop31
280
     0
102
RTVSPost2010PropOp31
 70
     1
102
RTVSPost2010Prop32
280
     0
102
RTVSPost2010PropOp32
 70
     1
102
RTVSPost2010Prop33
280
     0
102
RTVSPost2010PropOp33
 70
     1
102
RTVSPost2010Prop34
280
     0
102
RTVSPost2010PropOp34
 70
     1
102
RTVSPost2010Prop35
280
     0
102
RTVSPost2010PropOp35
 70
     1
102
RTVSPost2010Prop36
280
     0
102
RTVSPost2010PropOp36
 70
     1
102
RTVSPost2010Prop37
 90
       50
102
RTVSPost2010PropOp37
 70
     1
102
RTVSPost2010Prop38
140
0.0
102
RTVSPost2010PropOp38
 70
     1
102
RTVSPost2010Prop39
140
1.0
102
RTVSPost2010PropOp39
 70
     1
102
RTVSPost2010Prop40
 90
        0
102
RTVSPost2010PropOp40
 70
     1
102
RTVSPost2010Prop41ColorIndex
 90
       18
102
RTVSPost2010Prop41ColorRGB
 90
        0
102
RTVSPost2010PropOp41
 70
     1
102
RTVSPost2010Prop42
 90
       50
102
RTVSPost2010PropOp42
 70
     1
102
RTVSPost2010Prop43
 90
        3
102
RTVSPost2010PropOp43
 70
     1
102
RTVSPost2010Prop44ColorIndex
 90
        5
102
RTVSPost2010Prop44ColorRGB
 90
      255
102
RTVSPost2010PropOp44
 70
     1
102
RTVSPost2010Prop45
280
     0
102
RTVSPost2010PropOp45
 70
     1
102
RTVSPost2010Prop46
 90
       50
102
RTVSPost2010PropOp46
 70
     1
102
RTVSPost2010Prop47
 90
       50
102
RTVSPost2010PropOp47
 70
     1
102
RTVSPost2010Prop48
 90
       50
102
RTVSPost2010PropOp48
 70
     1
102
RTVSPost2010Prop49
280
     0
102
RTVSPost2010PropOp49
 70
     1
102
RTVSPost2010Prop50
 90
       50
102
RTVSPost2010PropOp50
 70
     1
102
RTVSPost2010Prop51ColorIndex
 90
      256
102
RTVSPost2010Prop51ColorRGB
 90
-16777216
102
RTVSPost2010PropOp51
 70
     0
102
RTVSPost2010Prop52
140
1.0
102
RTVSPost2010PropOp52
 70
     0
102
RTVSPost2010Prop53
 90
        2
102
RTVSPost2010PropOp53
 70
     1
102
RTVSPost2010Prop54
  1
strokes_ogs.tif
102
RTVSPost2010PropOp54
 70
     1
102
RTVSPost2010Prop55
280
     0
102
RTVSPost2010PropOp55
 70
     1
102
RTVSPost2010Prop56
140
1.0
102
RTVSPost2010PropOp56
 70
     1
102
RTVSPost2010Prop57
140
1.0
102
RTVSPost2010PropOp57
 70
     1
102
RTVSPropertyOp0
 70
     1
102
RTVSPropertyOp1
 70
     1
102
RTVSPropertyOp2
 70
     1
102
RTVSPropertyOp3
 70
     1
102
RTVSPropertyOp4
 70
     1
102
RTVSPropertyOp5
 70
     1
102
RTVSPropertyOp6
 70
     1
102
RTVSPropertyOp7
 70
     1
102
RTVSPropertyOp8
 70
     1
102
RTVSPropertyOp9
 70
     1
102
RTVSPropertyOp10
 70
     1
102
RTVSPropertyOp11
 70
     1
102
RTVSPropertyOp12
 70
     1
102
RTVSPropertyOp13
 70
     1
102
RTVSPropertyOp14
 70
     1
102
RTVSPropertyOp15
 70
     1
102
RTVSPropertyOp16
 70
     1
102
RTVSPropertyOp17
 70
     1
102
RTVSPropertyOp18
 70
     1
102
RTVSPropertyOp19
 70
     1
102
RTVSPropertyOp20
 70
     1
102
RTVSPropertyOp21
 70
     1
102
RTVSPropertyOp22
 70
     1
102
RTVSPropertyOp23
 70
     1
102
RTVSPropertyOp24
 70
     1
102
RTVSPropertyOp25
 70
     1
102
RTVSPropertyOp26
 70
     1
102
RTVSPropertyOp27
 70
     1
102
RTVSPropertyOp28
 70
     1
102
RTVSPropertyOp29
 70
     1
102
RTVSPropertyOp30
 70
     1
102
RTVSPropertyOp31
 70
     1
102
RTVSPropertyOp32
 70
     1
102
RTVSPropertyOp33
 70
     1
102
RTVSPropertyOp34
 70
     1
102
RTVSPropertyOp35
 70
     1
102
RTVSPropertyOp36
 70
     1
102
RTVSPropertyOp37
 70
     1
102
RTVSPropertyOp38
 70
     1
102
RTVSPropertyOp39
 70
     1
102
RTVSPropertyOp40
 70
     1
102
RTVSPropertyOp41
 70
     1
102
RTVSPropertyOp42
 70
     1
102
RTVSPropertyOp43
 70
     1
102
RTVSPropertyOp44
 70
     1
102
RTVSPropertyOp45
 70
     1
102
RTVSPropertyOp46
 70
     1
102
RTVSPropertyOp47
 70
     1
102
RTVSPropertyOp48
 70
     1
102
RTVSPropertyOp49
 70
     1
102
RTVSPropertyOp50
 70
     1
102
RTVSPropertyOp51
 70
     0
102
RTVSPropertyOp52
 70
     0
102
RTVSPropertyOp53
 70
     1
102
RTVSPropertyOp54
 70
     1
102
RTVSPropertyOp55
 70
     1
102
RTVSPropertyOp56
 70
     1
102
RTVSPropertyOp57
 70
     1
102
RTVSPropertyOp58
 70
     1
102
RTVSPropertyOp59
 70
     1
102
RTVSPropertyOp60
 70
     1
102
RTVSPropertyOp61
 70
     1
102
RTVSPropertyOp62
 70
     1
  0
XRECORD
  5
345
102
{ACAD_REACTORS
330
344
102
}
330
344
100
AcDbXrecord
280
     1
102
RTVSPost2010Prop28
280
     0
102
RTVSPost2010PropOp28
 70
     1
102
RTVSPost2010Prop29
280
     1
102
RTVSPost2010PropOp29
 70
     1
102
RTVSPost2010Prop30
280
     1
102
RTVSPost2010PropOp30
 70
     1
102
RTVSPost2010Prop31
280
     0
102
RTVSPost2010PropOp31
 70
     1
102
RTVSPost2010Prop32
280
     0
102
RTVSPost2010PropOp32
 70
     1
102
RTVSPost2010Prop33
280
     0
102
RTVSPost2010PropOp33
 70
     1
102
RTVSPost2010Prop34
280
     0
102
RTVSPost2010PropOp34
 70
     1
102
RTVSPost2010Prop35
280
     0
102
RTVSPost2010PropOp35
 70
     1
102
RTVSPost2010Prop36
280
     0
102
RTVSPost2010PropOp36
 70
     1
102
RTVSPost2010Prop37
 90
       50
102
RTVSPost2010PropOp37
 70
     1
102
RTVSPost2010Prop38
140
0.0
102
RTVSPost2010PropOp38
 70
     1
102
RTVSPost2010Prop39
140
1.0
102
RTVSPost2010PropOp39
 70
     1
102
RTVSPost2010Prop40
 90
        0
102
RTVSPost2010PropOp40
 70
     1
102
RTVSPost2010Prop41ColorIndex
 90
       18
102
RTVSPost2010Prop41ColorRGB
 90
        0
102
RTVSPost2010PropOp41
 70
     1
102
RTVSPost2010Prop42
 90
       50
102
RTVSPost2010PropOp42
 70
     1
102
RTVSPost2010Prop43
 90
        3
102
RTVSPost2010PropOp43
 70
     1
102
RTVSPost2010Prop44ColorIndex
 90
        5
102
RTVSPost2010Prop44ColorRGB
 90
      255
102
RTVSPost2010PropOp44
 70
     1
102
RTVSPost2010Prop45
280
     0
102
RTVSPost2010PropOp45
 70
     1
102
RTVSPost2010Prop46
 90
       50
102
RTVSPost2010PropOp46
 70
     1
102
RTVSPost2010Prop47
 90
       50
102
RTVSPost2010PropOp47
 70
     1
102
RTVSPost2010Prop48
 90
       50
102
RTVSPost2010PropOp48
 70
     1
102
RTVSPost2010Prop49
280
     0
102
RTVSPost2010PropOp49
 70
     1
102
RTVSPost2010Prop50
 90
       50
102
RTVSPost2010PropOp50
 70
     1
102
RTVSPost2010Prop51ColorIndex
 90
      256
102
RTVSPost2010Prop51ColorRGB
 90
-16777216
102
RTVSPost2010PropOp51
 70
     0
102
RTVSPost2010Prop52
140
1.0
102
RTVSPost2010PropOp52
 70
     0
102
RTVSPost2010Prop53
 90
        2
102
RTVSPost2010PropOp53
 70
     1
102
RTVSPost2010Prop54
  1
strokes_ogs.tif
102
RTVSPost2010PropOp54
 70
     1
102
RTVSPost2010Prop55
280
     0
102
RTVSPost2010PropOp55
 70
     1
102
RTVSPost2010Prop56
140
1.0
102
RTVSPost2010PropOp56
 70
     1
102
RTVSPost2010Prop57
140
1.0
102
RTVSPost2010PropOp57
 70
     1
102
RTVSPropertyOp0
 70
     1
102
RTVSPropertyOp1
 70
     1
102
RTVSPropertyOp2
 70
     1
102
RTVSPropertyOp3
 70
     1
102
RTVSPropertyOp4
 70
     1
102
RTVSPropertyOp5
 70
     1
102
RTVSPropertyOp6
 70
     1
102
RTVSPropertyOp7
 70
     1
102
RTVSPropertyOp8
 70
     1
102
RTVSPropertyOp9
 70
     1
102
RTVSPropertyOp10
 70
     1
102
RTVSPropertyOp11
 70
     1
102
RTVSPropertyOp12
 70
     1
102
RTVSPropertyOp13
 70
     1
102
RTVSPropertyOp14
 70
     1
102
RTVSPropertyOp15
 70
     1
102
RTVSPropertyOp16
 70
     1
102
RTVSPropertyOp17
 70
     1
102
RTVSPropertyOp18
 70
     1
102
RTVSPropertyOp19
 70
     1
102
RTVSPropertyOp20
 70
     1
102
RTVSPropertyOp21
 70
     1
102
RTVSPropertyOp22
 70
     1
102
RTVSPropertyOp23
 70
     1
102
RTVSPropertyOp24
 70
     1
102
RTVSPropertyOp25
 70
     1
102
RTVSPropertyOp26
 70
     1
102
RTVSPropertyOp27
 70
     1
102
RTVSPropertyOp28
 70
     1
102
RTVSPropertyOp29
 70
     1
102
RTVSPropertyOp30
 70
     1
102
RTVSPropertyOp31
 70
     1
102
RTVSPropertyOp32
 70
     1
102
RTVSPropertyOp33
 70
     1
102
RTVSPropertyOp34
 70
     1
102
RTVSPropertyOp35
 70
     1
102
RTVSPropertyOp36
 70
     1
102
RTVSPropertyOp37
 70
     1
102
RTVSPropertyOp38
 70
     1
102
RTVSPropertyOp39
 70
     1
102
RTVSPropertyOp40
 70
     1
102
RTVSPropertyOp41
 70
     1
102
RTVSPropertyOp42
 70
     1
102
RTVSPropertyOp43
 70
     1
102
RTVSPropertyOp44
 70
     1
102
RTVSPropertyOp45
 70
     1
102
RTVSPropertyOp46
 70
     1
102
RTVSPropertyOp47
 70
     1
102
RTVSPropertyOp48
 70
     1
102
RTVSPropertyOp49
 70
     1
102
RTVSPropertyOp50
 70
     1
102
RTVSPropertyOp51
 70
     0
102
RTVSPropertyOp52
 70
     0
102
RTVSPropertyOp53
 70
     1
102
RTVSPropertyOp54
 70
     1
102
RTVSPropertyOp55
 70
     1
102
RTVSPropertyOp56
 70
     1
102
RTVSPropertyOp57
 70
     1
102
RTVSPropertyOp58
 70
     1
102
RTVSPropertyOp59
 70
     1
102
RTVSPropertyOp60
 70
     1
102
RTVSPropertyOp61
 70
     1
102
RTVSPropertyOp62
 70
     1
  0
XRECORD
  5
353
102
{ACAD_REACTORS
330
352
102
}
330
352
100
AcDbXrecord
280
     1
102
RTVSPost2010Prop28
280
     0
102
RTVSPost2010PropOp28
 70
     1
102
RTVSPost2010Prop29
280
     1
102
RTVSPost2010PropOp29
 70
     1
102
RTVSPost2010Prop30
280
     1
102
RTVSPost2010PropOp30
 70
     1
102
RTVSPost2010Prop31
280
     0
102
RTVSPost2010PropOp31
 70
     1
102
RTVSPost2010Prop32
280
     0
102
RTVSPost2010PropOp32
 70
     1
102
RTVSPost2010Prop33
280
     0
102
RTVSPost2010PropOp33
 70
     1
102
RTVSPost2010Prop34
280
     0
102
RTVSPost2010PropOp34
 70
     1
102
RTVSPost2010Prop35
280
     0
102
RTVSPost2010PropOp35
 70
     1
102
RTVSPost2010Prop36
280
     0
102
RTVSPost2010PropOp36
 70
     1
102
RTVSPost2010Prop37
 90
       50
102
RTVSPost2010PropOp37
 70
     1
102
RTVSPost2010Prop38
140
0.0
102
RTVSPost2010PropOp38
 70
     1
102
RTVSPost2010Prop39
140
1.0
102
RTVSPost2010PropOp39
 70
     1
102
RTVSPost2010Prop40
 90
        0
102
RTVSPost2010PropOp40
 70
     1
102
RTVSPost2010Prop41ColorIndex
 90
       18
102
RTVSPost2010Prop41ColorRGB
 90
        0
102
RTVSPost2010PropOp41
 70
     1
102
RTVSPost2010Prop42
 90
       50
102
RTVSPost2010PropOp42
 70
     1
102
RTVSPost2010Prop43
 90
        3
102
RTVSPost2010PropOp43
 70
     1
102
RTVSPost2010Prop44ColorIndex
 90
        5
102
RTVSPost2010Prop44ColorRGB
 90
      255
102
RTVSPost2010PropOp44
 70
     1
102
RTVSPost2010Prop45
280
     0
102
RTVSPost2010PropOp45
 70
     1
102
RTVSPost2010Prop46
 90
       50
102
RTVSPost2010PropOp46
 70
     1
102
RTVSPost2010Prop47
 90
       50
102
RTVSPost2010PropOp47
 70
     1
102
RTVSPost2010Prop48
 90
       50
102
RTVSPost2010PropOp48
 70
     1
102
RTVSPost2010Prop49
280
     0
102
RTVSPost2010PropOp49
 70
     1
102
RTVSPost2010Prop50
 90
       50
102
RTVSPost2010PropOp50
 70
     1
102
RTVSPost2010Prop51ColorIndex
 90
      256
102
RTVSPost2010Prop51ColorRGB
 90
-16777216
102
RTVSPost2010PropOp51
 70
     0
102
RTVSPost2010Prop52
140
1.0
102
RTVSPost2010PropOp52
 70
     0
102
RTVSPost2010Prop53
 90
        2
102
RTVSPost2010PropOp53
 70
     1
102
RTVSPost2010Prop54
  1
strokes_ogs.tif
102
RTVSPost2010PropOp54
 70
     1
102
RTVSPost2010Prop55
280
     0
102
RTVSPost2010PropOp55
 70
     1
102
RTVSPost2010Prop56
140
1.0
102
RTVSPost2010PropOp56
 70
     1
102
RTVSPost2010Prop57
140
1.0
102
RTVSPost2010PropOp57
 70
     1
102
RTVSPropertyOp0
 70
     1
102
RTVSPropertyOp1
 70
     1
102
RTVSPropertyOp2
 70
     1
102
RTVSPropertyOp3
 70
     1
102
RTVSPropertyOp4
 70
     1
102
RTVSPropertyOp5
 70
     1
102
RTVSPropertyOp6
 70
     1
102
RTVSPropertyOp7
 70
     1
102
RTVSPropertyOp8
 70
     1
102
RTVSPropertyOp9
 70
     1
102
RTVSPropertyOp10
 70
     1
102
RTVSPropertyOp11
 70
     1
102
RTVSPropertyOp12
 70
     1
102
RTVSPropertyOp13
 70
     1
102
RTVSPropertyOp14
 70
     1
102
RTVSPropertyOp15
 70
     1
102
RTVSPropertyOp16
 70
     1
102
RTVSPropertyOp17
 70
     1
102
RTVSPropertyOp18
 70
     1
102
RTVSPropertyOp19
 70
     1
102
RTVSPropertyOp20
 70
     1
102
RTVSPropertyOp21
 70
     1
102
RTVSPropertyOp22
 70
     1
102
RTVSPropertyOp23
 70
     1
102
RTVSPropertyOp24
 70
     1
102
RTVSPropertyOp25
 70
     1
102
RTVSPropertyOp26
 70
     1
102
RTVSPropertyOp27
 70
     1
102
RTVSPropertyOp28
 70
     1
102
RTVSPropertyOp29
 70
     1
102
RTVSPropertyOp30
 70
     1
102
RTVSPropertyOp31
 70
     1
102
RTVSPropertyOp32
 70
     1
102
RTVSPropertyOp33
 70
     1
102
RTVSPropertyOp34
 70
     1
102
RTVSPropertyOp35
 70
     1
102
RTVSPropertyOp36
 70
     1
102
RTVSPropertyOp37
 70
     1
102
RTVSPropertyOp38
 70
     1
102
RTVSPropertyOp39
 70
     1
102
RTVSPropertyOp40
 70
     1
102
RTVSPropertyOp41
 70
     1
102
RTVSPropertyOp42
 70
     1
102
RTVSPropertyOp43
 70
     1
102
RTVSPropertyOp44
 70
     1
102
RTVSPropertyOp45
 70
     1
102
RTVSPropertyOp46
 70
     1
102
RTVSPropertyOp47
 70
     1
102
RTVSPropertyOp48
 70
     1
102
RTVSPropertyOp49
 70
     1
102
RTVSPropertyOp50
 70
     1
102
RTVSPropertyOp51
 70
     0
102
RTVSPropertyOp52
 70
     0
102
RTVSPropertyOp53
 70
     1
102
RTVSPropertyOp54
 70
     1
102
RTVSPropertyOp55
 70
     1
102
RTVSPropertyOp56
 70
     1
102
RTVSPropertyOp57
 70
     1
102
RTVSPropertyOp58
 70
     1
102
RTVSPropertyOp59
 70
     1
102
RTVSPropertyOp60
 70
     1
102
RTVSPropertyOp61
 70
     1
102
RTVSPropertyOp62
 70
     1
  0
XRECORD
  5
35B
102
{ACAD_REACTORS
330
35A
102
}
330
35A
100
AcDbXrecord
280
     1
102
RTVSPost2010Prop28
280
     0
102
RTVSPost2010PropOp28
 70
     1
102
RTVSPost2010Prop29
280
     1
102
RTVSPost2010PropOp29
 70
     1
102
RTVSPost2010Prop30
280
     1
102
RTVSPost2010PropOp30
 70
     1
102
RTVSPost2010Prop31
280
     0
102
RTVSPost2010PropOp31
 70
     1
102
RTVSPost2010Prop32
280
     0
102
RTVSPost2010PropOp32
 70
     1
102
RTVSPost2010Prop33
280
     0
102
RTVSPost2010PropOp33
 70
     1
102
RTVSPost2010Prop34
280
     0
102
RTVSPost2010PropOp34
 70
     1
102
RTVSPost2010Prop35
280
     0
102
RTVSPost2010PropOp35
 70
     1
102
RTVSPost2010Prop36
280
     0
102
RTVSPost2010PropOp36
 70
     1
102
RTVSPost2010Prop37
 90
       50
102
RTVSPost2010PropOp37
 70
     1
102
RTVSPost2010Prop38
140
0.0
102
RTVSPost2010PropOp38
 70
     1
102
RTVSPost2010Prop39
140
1.0
102
RTVSPost2010PropOp39
 70
     1
102
RTVSPost2010Prop40
 90
        0
102
RTVSPost2010PropOp40
 70
     1
102
RTVSPost2010Prop41ColorIndex
 90
       18
102
RTVSPost2010Prop41ColorRGB
 90
        0
102
RTVSPost2010PropOp41
 70
     1
102
RTVSPost2010Prop42
 90
       50
102
RTVSPost2010PropOp42
 70
     1
102
RTVSPost2010Prop43
 90
        3
102
RTVSPost2010PropOp43
 70
     1
102
RTVSPost2010Prop44ColorIndex
 90
        5
102
RTVSPost2010Prop44ColorRGB
 90
      255
102
RTVSPost2010PropOp44
 70
     1
102
RTVSPost2010Prop45
280
     0
102
RTVSPost2010PropOp45
 70
     1
102
RTVSPost2010Prop46
 90
       50
102
RTVSPost2010PropOp46
 70
     1
102
RTVSPost2010Prop47
 90
       50
102
RTVSPost2010PropOp47
 70
     1
102
RTVSPost2010Prop48
 90
       50
102
RTVSPost2010PropOp48
 70
     1
102
RTVSPost2010Prop49
280
     0
102
RTVSPost2010PropOp49
 70
     1
102
RTVSPost2010Prop50
 90
       50
102
RTVSPost2010PropOp50
 70
     1
102
RTVSPost2010Prop51ColorIndex
 90
      256
102
RTVSPost2010Prop51ColorRGB
 90
-16777216
102
RTVSPost2010PropOp51
 70
     0
102
RTVSPost2010Prop52
140
1.0
102
RTVSPost2010PropOp52
 70
     0
102
RTVSPost2010Prop53
 90
        2
102
RTVSPost2010PropOp53
 70
     1
102
RTVSPost2010Prop54
  1
strokes_ogs.tif
102
RTVSPost2010PropOp54
 70
     1
102
RTVSPost2010Prop55
280
     0
102
RTVSPost2010PropOp55
 70
     1
102
RTVSPost2010Prop56
140
1.0
102
RTVSPost2010PropOp56
 70
     1
102
RTVSPost2010Prop57
140
1.0
102
RTVSPost2010PropOp57
 70
     1
102
RTVSPropertyOp0
 70
     1
102
RTVSPropertyOp1
 70
     1
102
RTVSPropertyOp2
 70
     1
102
RTVSPropertyOp3
 70
     1
102
RTVSPropertyOp4
 70
     1
102
RTVSPropertyOp5
 70
     1
102
RTVSPropertyOp6
 70
     1
102
RTVSPropertyOp7
 70
     1
102
RTVSPropertyOp8
 70
     1
102
RTVSPropertyOp9
 70
     1
102
RTVSPropertyOp10
 70
     1
102
RTVSPropertyOp11
 70
     1
102
RTVSPropertyOp12
 70
     1
102
RTVSPropertyOp13
 70
     1
102
RTVSPropertyOp14
 70
     1
102
RTVSPropertyOp15
 70
     1
102
RTVSPropertyOp16
 70
     1
102
RTVSPropertyOp17
 70
     1
102
RTVSPropertyOp18
 70
     1
102
RTVSPropertyOp19
 70
     1
102
RTVSPropertyOp20
 70
     1
102
RTVSPropertyOp21
 70
     1
102
RTVSPropertyOp22
 70
     1
102
RTVSPropertyOp23
 70
     1
102
RTVSPropertyOp24
 70
     1
102
RTVSPropertyOp25
 70
     1
102
RTVSPropertyOp26
 70
     1
102
RTVSPropertyOp27
 70
     1
102
RTVSPropertyOp28
 70
     1
102
RTVSPropertyOp29
 70
     1
102
RTVSPropertyOp30
 70
     1
102
RTVSPropertyOp31
 70
     1
102
RTVSPropertyOp32
 70
     1
102
RTVSPropertyOp33
 70
     1
102
RTVSPropertyOp34
 70
     1
102
RTVSPropertyOp35
 70
     1
102
RTVSPropertyOp36
 70
     1
102
RTVSPropertyOp37
 70
     1
102
RTVSPropertyOp38
 70
     1
102
RTVSPropertyOp39
 70
     1
102
RTVSPropertyOp40
 70
     1
102
RTVSPropertyOp41
 70
     1
102
RTVSPropertyOp42
 70
     1
102
RTVSPropertyOp43
 70
     1
102
RTVSPropertyOp44
 70
     1
102
RTVSPropertyOp45
 70
     1
102
RTVSPropertyOp46
 70
     1
102
RTVSPropertyOp47
 70
     1
102
RTVSPropertyOp48
 70
     1
102
RTVSPropertyOp49
 70
     1
102
RTVSPropertyOp50
 70
     1
102
RTVSPropertyOp51
 70
     0
102
RTVSPropertyOp52
 70
     0
102
RTVSPropertyOp53
 70
     1
102
RTVSPropertyOp54
 70
     1
102
RTVSPropertyOp55
 70
     1
102
RTVSPropertyOp56
 70
     1
102
RTVSPropertyOp57
 70
     1
102
RTVSPropertyOp58
 70
     1
102
RTVSPropertyOp59
 70
     1
102
RTVSPropertyOp60
 70
     1
102
RTVSPropertyOp61
 70
     1
102
RTVSPropertyOp62
 70
     1
  0
XRECORD
  5
34D
102
{ACAD_REACTORS
330
34C
102
}
330
34C
100
AcDbXrecord
280
     1
102
RTVSPost2010Prop28
280
     0
102
RTVSPost2010PropOp28
 70
     1
102
RTVSPost2010Prop29
280
     1
102
RTVSPost2010PropOp29
 70
     1
102
RTVSPost2010Prop30
280
     1
102
RTVSPost2010PropOp30
 70
     1
102
RTVSPost2010Prop31
280
     0
102
RTVSPost2010PropOp31
 70
     1
102
RTVSPost2010Prop32
280
     0
102
RTVSPost2010PropOp32
 70
     1
102
RTVSPost2010Prop33
280
     0
102
RTVSPost2010PropOp33
 70
     1
102
RTVSPost2010Prop34
280
     0
102
RTVSPost2010PropOp34
 70
     1
102
RTVSPost2010Prop35
280
     0
102
RTVSPost2010PropOp35
 70
     1
102
RTVSPost2010Prop36
280
     0
102
RTVSPost2010PropOp36
 70
     1
102
RTVSPost2010Prop37
 90
       50
102
RTVSPost2010PropOp37
 70
     1
102
RTVSPost2010Prop38
140
0.0
102
RTVSPost2010PropOp38
 70
     1
102
RTVSPost2010Prop39
140
1.0
102
RTVSPost2010PropOp39
 70
     1
102
RTVSPost2010Prop40
 90
        0
102
RTVSPost2010PropOp40
 70
     1
102
RTVSPost2010Prop41ColorIndex
 90
       18
102
RTVSPost2010Prop41ColorRGB
 90
        0
102
RTVSPost2010PropOp41
 70
     1
102
RTVSPost2010Prop42
 90
       50
102
RTVSPost2010PropOp42
 70
     1
102
RTVSPost2010Prop43
 90
        3
102
RTVSPost2010PropOp43
 70
     1
102
RTVSPost2010Prop44ColorIndex
 90
        5
102
RTVSPost2010Prop44ColorRGB
 90
      255
102
RTVSPost2010PropOp44
 70
     1
102
RTVSPost2010Prop45
280
     0
102
RTVSPost2010PropOp45
 70
     1
102
RTVSPost2010Prop46
 90
       50
102
RTVSPost2010PropOp46
 70
     1
102
RTVSPost2010Prop47
 90
       50
102
RTVSPost2010PropOp47
 70
     1
102
RTVSPost2010Prop48
 90
       50
102
RTVSPost2010PropOp48
 70
     1
102
RTVSPost2010Prop49
280
     0
102
RTVSPost2010PropOp49
 70
     1
102
RTVSPost2010Prop50
 90
       50
102
RTVSPost2010PropOp50
 70
     1
102
RTVSPost2010Prop51ColorIndex
 90
      256
102
RTVSPost2010Prop51ColorRGB
 90
-16777216
102
RTVSPost2010PropOp51
 70
     0
102
RTVSPost2010Prop52
140
1.0
102
RTVSPost2010PropOp52
 70
     0
102
RTVSPost2010Prop53
 90
        2
102
RTVSPost2010PropOp53
 70
     1
102
RTVSPost2010Prop54
  1
strokes_ogs.tif
102
RTVSPost2010PropOp54
 70
     1
102
RTVSPost2010Prop55
280
     0
102
RTVSPost2010PropOp55
 70
     1
102
RTVSPost2010Prop56
140
1.0
102
RTVSPost2010PropOp56
 70
     1
102
RTVSPost2010Prop57
140
1.0
102
RTVSPost2010PropOp57
 70
     1
102
RTVSPropertyOp0
 70
     1
102
RTVSPropertyOp1
 70
     1
102
RTVSPropertyOp2
 70
     1
102
RTVSPropertyOp3
 70
     1
102
RTVSPropertyOp4
 70
     1
102
RTVSPropertyOp5
 70
     1
102
RTVSPropertyOp6
 70
     1
102
RTVSPropertyOp7
 70
     1
102
RTVSPropertyOp8
 70
     1
102
RTVSPropertyOp9
 70
     1
102
RTVSPropertyOp10
 70
     1
102
RTVSPropertyOp11
 70
     1
102
RTVSPropertyOp12
 70
     1
102
RTVSPropertyOp13
 70
     1
102
RTVSPropertyOp14
 70
     1
102
RTVSPropertyOp15
 70
     1
102
RTVSPropertyOp16
 70
     1
102
RTVSPropertyOp17
 70
     1
102
RTVSPropertyOp18
 70
     1
102
RTVSPropertyOp19
 70
     1
102
RTVSPropertyOp20
 70
     1
102
RTVSPropertyOp21
 70
     1
102
RTVSPropertyOp22
 70
     1
102
RTVSPropertyOp23
 70
     1
102
RTVSPropertyOp24
 70
     1
102
RTVSPropertyOp25
 70
     1
102
RTVSPropertyOp26
 70
     1
102
RTVSPropertyOp27
 70
     1
102
RTVSPropertyOp28
 70
     1
102
RTVSPropertyOp29
 70
     1
102
RTVSPropertyOp30
 70
     1
102
RTVSPropertyOp31
 70
     1
102
RTVSPropertyOp32
 70
     1
102
RTVSPropertyOp33
 70
     1
102
RTVSPropertyOp34
 70
     1
102
RTVSPropertyOp35
 70
     1
102
RTVSPropertyOp36
 70
     1
102
RTVSPropertyOp37
 70
     1
102
RTVSPropertyOp38
 70
     1
102
RTVSPropertyOp39
 70
     1
102
RTVSPropertyOp40
 70
     1
102
RTVSPropertyOp41
 70
     1
102
RTVSPropertyOp42
 70
     1
102
RTVSPropertyOp43
 70
     1
102
RTVSPropertyOp44
 70
     1
102
RTVSPropertyOp45
 70
     1
102
RTVSPropertyOp46
 70
     1
102
RTVSPropertyOp47
 70
     1
102
RTVSPropertyOp48
 70
     1
102
RTVSPropertyOp49
 70
     1
102
RTVSPropertyOp50
 70
     1
102
RTVSPropertyOp51
 70
     0
102
RTVSPropertyOp52
 70
     0
102
RTVSPropertyOp53
 70
     1
102
RTVSPropertyOp54
 70
     1
102
RTVSPropertyOp55
 70
     1
102
RTVSPropertyOp56
 70
     1
102
RTVSPropertyOp57
 70
     1
102
RTVSPropertyOp58
 70
     1
102
RTVSPropertyOp59
 70
     1
102
RTVSPropertyOp60
 70
     1
102
RTVSPropertyOp61
 70
     1
102
RTVSPropertyOp62
 70
     1
  0
XRECORD
  5
351
102
{ACAD_REACTORS
330
350
102
}
330
350
100
AcDbXrecord
280
     1
102
RTVSPost2010Prop28
280
     0
102
RTVSPost2010PropOp28
 70
     1
102
RTVSPost2010Prop29
280
     1
102
RTVSPost2010PropOp29
 70
     1
102
RTVSPost2010Prop30
280
     1
102
RTVSPost2010PropOp30
 70
     1
102
RTVSPost2010Prop31
280
     0
102
RTVSPost2010PropOp31
 70
     1
102
RTVSPost2010Prop32
280
     0
102
RTVSPost2010PropOp32
 70
     1
102
RTVSPost2010Prop33
280
     0
102
RTVSPost2010PropOp33
 70
     1
102
RTVSPost2010Prop34
280
     0
102
RTVSPost2010PropOp34
 70
     1
102
RTVSPost2010Prop35
280
     0
102
RTVSPost2010PropOp35
 70
     1
102
RTVSPost2010Prop36
280
     0
102
RTVSPost2010PropOp36
 70
     1
102
RTVSPost2010Prop37
 90
       50
102
RTVSPost2010PropOp37
 70
     1
102
RTVSPost2010Prop38
140
0.0
102
RTVSPost2010PropOp38
 70
     1
102
RTVSPost2010Prop39
140
1.0
102
RTVSPost2010PropOp39
 70
     1
102
RTVSPost2010Prop40
 90
        0
102
RTVSPost2010PropOp40
 70
     1
102
RTVSPost2010Prop41ColorIndex
 90
       18
102
RTVSPost2010Prop41ColorRGB
 90
        0
102
RTVSPost2010PropOp41
 70
     1
102
RTVSPost2010Prop42
 90
       50
102
RTVSPost2010PropOp42
 70
     1
102
RTVSPost2010Prop43
 90
        3
102
RTVSPost2010PropOp43
 70
     1
102
RTVSPost2010Prop44ColorIndex
 90
        5
102
RTVSPost2010Prop44ColorRGB
 90
      255
102
RTVSPost2010PropOp44
 70
     1
102
RTVSPost2010Prop45
280
     0
102
RTVSPost2010PropOp45
 70
     1
102
RTVSPost2010Prop46
 90
       50
102
RTVSPost2010PropOp46
 70
     1
102
RTVSPost2010Prop47
 90
       50
102
RTVSPost2010PropOp47
 70
     1
102
RTVSPost2010Prop48
 90
       50
102
RTVSPost2010PropOp48
 70
     1
102
RTVSPost2010Prop49
280
     0
102
RTVSPost2010PropOp49
 70
     1
102
RTVSPost2010Prop50
 90
       50
102
RTVSPost2010PropOp50
 70
     1
102
RTVSPost2010Prop51ColorIndex
 90
      256
102
RTVSPost2010Prop51ColorRGB
 90
-16777216
102
RTVSPost2010PropOp51
 70
     0
102
RTVSPost2010Prop52
140
1.0
102
RTVSPost2010PropOp52
 70
     0
102
RTVSPost2010Prop53
 90
        2
102
RTVSPost2010PropOp53
 70
     1
102
RTVSPost2010Prop54
  1
strokes_ogs.tif
102
RTVSPost2010PropOp54
 70
     1
102
RTVSPost2010Prop55
280
     0
102
RTVSPost2010PropOp55
 70
     1
102
RTVSPost2010Prop56
140
1.0
102
RTVSPost2010PropOp56
 70
     1
102
RTVSPost2010Prop57
140
1.0
102
RTVSPost2010PropOp57
 70
     1
102
RTVSPropertyOp0
 70
     1
102
RTVSPropertyOp1
 70
     1
102
RTVSPropertyOp2
 70
     1
102
RTVSPropertyOp3
 70
     1
102
RTVSPropertyOp4
 70
     1
102
RTVSPropertyOp5
 70
     1
102
RTVSPropertyOp6
 70
     1
102
RTVSPropertyOp7
 70
     1
102
RTVSPropertyOp8
 70
     1
102
RTVSPropertyOp9
 70
     1
102
RTVSPropertyOp10
 70
     1
102
RTVSPropertyOp11
 70
     1
102
RTVSPropertyOp12
 70
     1
102
RTVSPropertyOp13
 70
     1
102
RTVSPropertyOp14
 70
     1
102
RTVSPropertyOp15
 70
     1
102
RTVSPropertyOp16
 70
     1
102
RTVSPropertyOp17
 70
     1
102
RTVSPropertyOp18
 70
     1
102
RTVSPropertyOp19
 70
     1
102
RTVSPropertyOp20
 70
     1
102
RTVSPropertyOp21
 70
     1
102
RTVSPropertyOp22
 70
     1
102
RTVSPropertyOp23
 70
     1
102
RTVSPropertyOp24
 70
     1
102
RTVSPropertyOp25
 70
     1
102
RTVSPropertyOp26
 70
     1
102
RTVSPropertyOp27
 70
     1
102
RTVSPropertyOp28
 70
     1
102
RTVSPropertyOp29
 70
     1
102
RTVSPropertyOp30
 70
     1
102
RTVSPropertyOp31
 70
     1
102
RTVSPropertyOp32
 70
     1
102
RTVSPropertyOp33
 70
     1
102
RTVSPropertyOp34
 70
     1
102
RTVSPropertyOp35
 70
     1
102
RTVSPropertyOp36
 70
     1
102
RTVSPropertyOp37
 70
     1
102
RTVSPropertyOp38
 70
     1
102
RTVSPropertyOp39
 70
     1
102
RTVSPropertyOp40
 70
     1
102
RTVSPropertyOp41
 70
     1
102
RTVSPropertyOp42
 70
     1
102
RTVSPropertyOp43
 70
     1
102
RTVSPropertyOp44
 70
     1
102
RTVSPropertyOp45
 70
     1
102
RTVSPropertyOp46
 70
     1
102
RTVSPropertyOp47
 70
     1
102
RTVSPropertyOp48
 70
     1
102
RTVSPropertyOp49
 70
     1
102
RTVSPropertyOp50
 70
     1
102
RTVSPropertyOp51
 70
     0
102
RTVSPropertyOp52
 70
     0
102
RTVSPropertyOp53
 70
     1
102
RTVSPropertyOp54
 70
     1
102
RTVSPropertyOp55
 70
     1
102
RTVSPropertyOp56
 70
     1
102
RTVSPropertyOp57
 70
     1
102
RTVSPropertyOp58
 70
     1
102
RTVSPropertyOp59
 70
     1
102
RTVSPropertyOp60
 70
     1
102
RTVSPropertyOp61
 70
     1
102
RTVSPropertyOp62
 70
     1
  0
XRECORD
  5
36B
102
{ACAD_REACTORS
330
36A
102
}
330
36A
100
AcDbXrecord
280
     1
102
RTVSPost2010Prop28
280
     0
102
RTVSPost2010PropOp28
 70
     1
102
RTVSPost2010Prop29
280
     1
102
RTVSPost2010PropOp29
 70
     1
102
RTVSPost2010Prop30
280
     1
102
RTVSPost2010PropOp30
 70
     1
102
RTVSPost2010Prop31
280
     0
102
RTVSPost2010PropOp31
 70
     1
102
RTVSPost2010Prop32
280
     0
102
RTVSPost2010PropOp32
 70
     1
102
RTVSPost2010Prop33
280
     0
102
RTVSPost2010PropOp33
 70
     1
102
RTVSPost2010Prop34
280
     0
102
RTVSPost2010PropOp34
 70
     1
102
RTVSPost2010Prop35
280
     0
102
RTVSPost2010PropOp35
 70
     1
102
RTVSPost2010Prop36
280
     0
102
RTVSPost2010PropOp36
 70
     1
102
RTVSPost2010Prop37
 90
       50
102
RTVSPost2010PropOp37
 70
     0
102
RTVSPost2010Prop38
140
0.0
102
RTVSPost2010PropOp38
 70
     0
102
RTVSPost2010Prop39
140
1.0
102
RTVSPost2010PropOp39
 70
     0
102
RTVSPost2010Prop40
 90
        0
102
RTVSPost2010PropOp40
 70
     0
102
RTVSPost2010Prop41ColorIndex
 90
       18
102
RTVSPost2010Prop41ColorRGB
 90
        0
102
RTVSPost2010PropOp41
 70
     0
102
RTVSPost2010Prop42
 90
       50
102
RTVSPost2010PropOp42
 70
     0
102
RTVSPost2010Prop43
 90
        3
102
RTVSPost2010PropOp43
 70
     0
102
RTVSPost2010Prop44ColorIndex
 90
        5
102
RTVSPost2010Prop44ColorRGB
 90
      255
102
RTVSPost2010PropOp44
 70
     0
102
RTVSPost2010Prop45
280
     0
102
RTVSPost2010PropOp45
 70
     1
102
RTVSPost2010Prop46
 90
       50
102
RTVSPost2010PropOp46
 70
     0
102
RTVSPost2010Prop47
 90
       50
102
RTVSPost2010PropOp47
 70
     0
102
RTVSPost2010Prop48
 90
       50
102
RTVSPost2010PropOp48
 70
     0
102
RTVSPost2010Prop49
280
     0
102
RTVSPost2010PropOp49
 70
     1
102
RTVSPost2010Prop50
 90
       50
102
RTVSPost2010PropOp50
 70
     0
102
RTVSPost2010Prop51ColorIndex
 90
      256
102
RTVSPost2010Prop51ColorRGB
 90
-16777216
102
RTVSPost2010PropOp51
 70
     0
102
RTVSPost2010Prop52
140
1.0
102
RTVSPost2010PropOp52
 70
     0
102
RTVSPost2010Prop53
 90
        2
102
RTVSPost2010PropOp53
 70
     0
102
RTVSPost2010Prop54
  1
strokes_ogs.tif
102
RTVSPost2010PropOp54
 70
     0
102
RTVSPost2010Prop55
280
     0
102
RTVSPost2010PropOp55
 70
     1
102
RTVSPost2010Prop56
140
1.0
102
RTVSPost2010PropOp56
 70
     0
102
RTVSPost2010Prop57
140
1.0
102
RTVSPost2010PropOp57
 70
     0
102
RTVSPropertyOp0
 70
     0
102
RTVSPropertyOp1
 70
     0
102
RTVSPropertyOp2
 70
     0
102
RTVSPropertyOp3
 70
     0
102
RTVSPropertyOp4
 70
     0
102
RTVSPropertyOp5
 70
     0
102
RTVSPropertyOp6
 70
     0
102
RTVSPropertyOp7
 70
     0
102
RTVSPropertyOp8
 70
     0
102
RTVSPropertyOp9
 70
     0
102
RTVSPropertyOp10
 70
     0
102
RTVSPropertyOp11
 70
     0
102
RTVSPropertyOp12
 70
     0
102
RTVSPropertyOp13
 70
     0
102
RTVSPropertyOp14
 70
     2
102
RTVSPropertyOp15
 70
     0
102
RTVSPropertyOp16
 70
     0
102
RTVSPropertyOp17
 70
     0
102
RTVSPropertyOp18
 70
     0
102
RTVSPropertyOp19
 70
     0
102
RTVSPropertyOp20
 70
     0
102
RTVSPropertyOp21
 70
     0
102
RTVSPropertyOp22
 70
     0
102
RTVSPropertyOp23
 70
     0
102
RTVSPropertyOp24
 70
     0
102
RTVSPropertyOp25
 70
     0
102
RTVSPropertyOp26
 70
     0
102
RTVSPropertyOp27
 70
     0
102
RTVSPropertyOp28
 70
     1
102
RTVSPropertyOp29
 70
     1
102
RTVSPropertyOp30
 70
     1
102
RTVSPropertyOp31
 70
     1
102
RTVSPropertyOp32
 70
     1
102
RTVSPropertyOp33
 70
     1
102
RTVSPropertyOp34
 70
     1
102
RTVSPropertyOp35
 70
     1
102
RTVSPropertyOp36
 70
     1
102
RTVSPropertyOp37
 70
     0
102
RTVSPropertyOp38
 70
     0
102
RTVSPropertyOp39
 70
     0
102
RTVSPropertyOp40
 70
     0
102
RTVSPropertyOp41
 70
     0
102
RTVSPropertyOp42
 70
     0
102
RTVSPropertyOp43
 70
     0
102
RTVSPropertyOp44
 70
     0
102
RTVSPropertyOp45
 70
     1
102
RTVSPropertyOp46
 70
     0
102
RTVSPropertyOp47
 70
     0
102
RTVSPropertyOp48
 70
     0
102
RTVSPropertyOp49
 70
     1
102
RTVSPropertyOp50
 70
     0
102
RTVSPropertyOp51
 70
     0
102
RTVSPropertyOp52
 70
     0
102
RTVSPropertyOp53
 70
     0
102
RTVSPropertyOp54
 70
     0
102
RTVSPropertyOp55
 70
     1
102
RTVSPropertyOp56
 70
     0
102
RTVSPropertyOp57
 70
     0
102
RTVSPropertyOp58
 70
     0
102
RTVSPropertyOp59
 70
     0
102
RTVSPropertyOp60
 70
     0
102
RTVSPropertyOp61
 70
     0
102
RTVSPropertyOp62
 70
     0
  0
XRECORD
  5
359
102
{ACAD_REACTORS
330
358
102
}
330
358
100
AcDbXrecord
280
     1
102
RTVSPost2010Prop28
280
     0
102
RTVSPost2010PropOp28
 70
     1
102
RTVSPost2010Prop29
280
     1
102
RTVSPost2010PropOp29
 70
     1
102
RTVSPost2010Prop30
280
     1
102
RTVSPost2010PropOp30
 70
     1
102
RTVSPost2010Prop31
280
     0
102
RTVSPost2010PropOp31
 70
     1
102
RTVSPost2010Prop32
280
     0
102
RTVSPost2010PropOp32
 70
     1
102
RTVSPost2010Prop33
280
     0
102
RTVSPost2010PropOp33
 70
     1
102
RTVSPost2010Prop34
280
     0
102
RTVSPost2010PropOp34
 70
     1
102
RTVSPost2010Prop35
280
     0
102
RTVSPost2010PropOp35
 70
     1
102
RTVSPost2010Prop36
280
     0
102
RTVSPost2010PropOp36
 70
     1
102
RTVSPost2010Prop37
 90
       50
102
RTVSPost2010PropOp37
 70
     1
102
RTVSPost2010Prop38
140
0.0
102
RTVSPost2010PropOp38
 70
     1
102
RTVSPost2010Prop39
140
1.0
102
RTVSPost2010PropOp39
 70
     1
102
RTVSPost2010Prop40
 90
        0
102
RTVSPost2010PropOp40
 70
     1
102
RTVSPost2010Prop41ColorIndex
 90
       18
102
RTVSPost2010Prop41ColorRGB
 90
        0
102
RTVSPost2010PropOp41
 70
     1
102
RTVSPost2010Prop42
 90
       50
102
RTVSPost2010PropOp42
 70
     1
102
RTVSPost2010Prop43
 90
        3
102
RTVSPost2010PropOp43
 70
     1
102
RTVSPost2010Prop44ColorIndex
 90
        5
102
RTVSPost2010Prop44ColorRGB
 90
      255
102
RTVSPost2010PropOp44
 70
     1
102
RTVSPost2010Prop45
280
     0
102
RTVSPost2010PropOp45
 70
     1
102
RTVSPost2010Prop46
 90
       50
102
RTVSPost2010PropOp46
 70
     1
102
RTVSPost2010Prop47
 90
       50
102
RTVSPost2010PropOp47
 70
     1
102
RTVSPost2010Prop48
 90
       50
102
RTVSPost2010PropOp48
 70
     1
102
RTVSPost2010Prop49
280
     0
102
RTVSPost2010PropOp49
 70
     1
102
RTVSPost2010Prop50
 90
       50
102
RTVSPost2010PropOp50
 70
     1
102
RTVSPost2010Prop51ColorIndex
 90
      256
102
RTVSPost2010Prop51ColorRGB
 90
-16777216
102
RTVSPost2010PropOp51
 70
     0
102
RTVSPost2010Prop52
140
1.0
102
RTVSPost2010PropOp52
 70
     0
102
RTVSPost2010Prop53
 90
        2
102
RTVSPost2010PropOp53
 70
     1
102
RTVSPost2010Prop54
  1
strokes_ogs.tif
102
RTVSPost2010PropOp54
 70
     1
102
RTVSPost2010Prop55
280
     0
102
RTVSPost2010PropOp55
 70
     1
102
RTVSPost2010Prop56
140
1.0
102
RTVSPost2010PropOp56
 70
     1
102
RTVSPost2010Prop57
140
1.0
102
RTVSPost2010PropOp57
 70
     1
102
RTVSPropertyOp0
 70
     1
102
RTVSPropertyOp1
 70
     1
102
RTVSPropertyOp2
 70
     1
102
RTVSPropertyOp3
 70
     1
102
RTVSPropertyOp4
 70
     1
102
RTVSPropertyOp5
 70
     1
102
RTVSPropertyOp6
 70
     1
102
RTVSPropertyOp7
 70
     1
102
RTVSPropertyOp8
 70
     1
102
RTVSPropertyOp9
 70
     1
102
RTVSPropertyOp10
 70
     1
102
RTVSPropertyOp11
 70
     1
102
RTVSPropertyOp12
 70
     1
102
RTVSPropertyOp13
 70
     1
102
RTVSPropertyOp14
 70
     1
102
RTVSPropertyOp15
 70
     1
102
RTVSPropertyOp16
 70
     1
102
RTVSPropertyOp17
 70
     1
102
RTVSPropertyOp18
 70
     1
102
RTVSPropertyOp19
 70
     1
102
RTVSPropertyOp20
 70
     1
102
RTVSPropertyOp21
 70
     1
102
RTVSPropertyOp22
 70
     1
102
RTVSPropertyOp23
 70
     1
102
RTVSPropertyOp24
 70
     1
102
RTVSPropertyOp25
 70
     1
102
RTVSPropertyOp26
 70
     1
102
RTVSPropertyOp27
 70
     1
102
RTVSPropertyOp28
 70
     1
102
RTVSPropertyOp29
 70
     1
102
RTVSPropertyOp30
 70
     1
102
RTVSPropertyOp31
 70
     1
102
RTVSPropertyOp32
 70
     1
102
RTVSPropertyOp33
 70
     1
102
RTVSPropertyOp34
 70
     1
102
RTVSPropertyOp35
 70
     1
102
RTVSPropertyOp36
 70
     1
102
RTVSPropertyOp37
 70
     1
102
RTVSPropertyOp38
 70
     1
102
RTVSPropertyOp39
 70
     1
102
RTVSPropertyOp40
 70
     1
102
RTVSPropertyOp41
 70
     1
102
RTVSPropertyOp42
 70
     1
102
RTVSPropertyOp43
 70
     1
102
RTVSPropertyOp44
 70
     1
102
RTVSPropertyOp45
 70
     1
102
RTVSPropertyOp46
 70
     1
102
RTVSPropertyOp47
 70
     1
102
RTVSPropertyOp48
 70
     1
102
RTVSPropertyOp49
 70
     1
102
RTVSPropertyOp50
 70
     1
102
RTVSPropertyOp51
 70
     0
102
RTVSPropertyOp52
 70
     0
102
RTVSPropertyOp53
 70
     1
102
RTVSPropertyOp54
 70
     1
102
RTVSPropertyOp55
 70
     1
102
RTVSPropertyOp56
 70
     1
102
RTVSPropertyOp57
 70
     1
102
RTVSPropertyOp58
 70
     1
102
RTVSPropertyOp59
 70
     1
102
RTVSPropertyOp60
 70
     1
102
RTVSPropertyOp61
 70
     1
102
RTVSPropertyOp62
 70
     1
  0
XRECORD
  5
33D
102
{ACAD_REACTORS
330
33C
102
}
330
33C
100
AcDbXrecord
280
     1
102
RTVSPost2010Prop28
280
     0
102
RTVSPost2010PropOp28
 70
     1
102
RTVSPost2010Prop29
280
     1
102
RTVSPost2010PropOp29
 70
     1
102
RTVSPost2010Prop30
280
     1
102
RTVSPost2010PropOp30
 70
     1
102
RTVSPost2010Prop31
280
     0
102
RTVSPost2010PropOp31
 70
     1
102
RTVSPost2010Prop32
280
     0
102
RTVSPost2010PropOp32
 70
     1
102
RTVSPost2010Prop33
280
     0
102
RTVSPost2010PropOp33
 70
     1
102
RTVSPost2010Prop34
280
     0
102
RTVSPost2010PropOp34
 70
     1
102
RTVSPost2010Prop35
280
     0
102
RTVSPost2010PropOp35
 70
     1
102
RTVSPost2010Prop36
280
     0
102
RTVSPost2010PropOp36
 70
     1
102
RTVSPost2010Prop37
 90
       50
102
RTVSPost2010PropOp37
 70
     1
102
RTVSPost2010Prop38
140
0.0
102
RTVSPost2010PropOp38
 70
     1
102
RTVSPost2010Prop39
140
1.0
102
RTVSPost2010PropOp39
 70
     1
102
RTVSPost2010Prop40
 90
        0
102
RTVSPost2010PropOp40
 70
     1
102
RTVSPost2010Prop41ColorIndex
 90
       18
102
RTVSPost2010Prop41ColorRGB
 90
        0
102
RTVSPost2010PropOp41
 70
     1
102
RTVSPost2010Prop42
 90
       50
102
RTVSPost2010PropOp42
 70
     1
102
RTVSPost2010Prop43
 90
        3
102
RTVSPost2010PropOp43
 70
     1
102
RTVSPost2010Prop44ColorIndex
 90
        5
102
RTVSPost2010Prop44ColorRGB
 90
      255
102
RTVSPost2010PropOp44
 70
     1
102
RTVSPost2010Prop45
280
     0
102
RTVSPost2010PropOp45
 70
     1
102
RTVSPost2010Prop46
 90
       50
102
RTVSPost2010PropOp46
 70
     1
102
RTVSPost2010Prop47
 90
       50
102
RTVSPost2010PropOp47
 70
     1
102
RTVSPost2010Prop48
 90
       50
102
RTVSPost2010PropOp48
 70
     1
102
RTVSPost2010Prop49
280
     0
102
RTVSPost2010PropOp49
 70
     1
102
RTVSPost2010Prop50
 90
       50
102
RTVSPost2010PropOp50
 70
     1
102
RTVSPost2010Prop51ColorIndex
 90
      256
102
RTVSPost2010Prop51ColorRGB
 90
-16777216
102
RTVSPost2010PropOp51
 70
     0
102
RTVSPost2010Prop52
140
1.0
102
RTVSPost2010PropOp52
 70
     0
102
RTVSPost2010Prop53
 90
        2
102
RTVSPost2010PropOp53
 70
     1
102
RTVSPost2010Prop54
  1
strokes_ogs.tif
102
RTVSPost2010PropOp54
 70
     1
102
RTVSPost2010Prop55
280
     0
102
RTVSPost2010PropOp55
 70
     1
102
RTVSPost2010Prop56
140
1.0
102
RTVSPost2010PropOp56
 70
     1
102
RTVSPost2010Prop57
140
1.0
102
RTVSPost2010PropOp57
 70
     1
102
RTVSPropertyOp0
 70
     1
102
RTVSPropertyOp1
 70
     1
102
RTVSPropertyOp2
 70
     1
102
RTVSPropertyOp3
 70
     1
102
RTVSPropertyOp4
 70
     1
102
RTVSPropertyOp5
 70
     1
102
RTVSPropertyOp6
 70
     1
102
RTVSPropertyOp7
 70
     1
102
RTVSPropertyOp8
 70
     1
102
RTVSPropertyOp9
 70
     1
102
RTVSPropertyOp10
 70
     1
102
RTVSPropertyOp11
 70
     1
102
RTVSPropertyOp12
 70
     1
102
RTVSPropertyOp13
 70
     1
102
RTVSPropertyOp14
 70
     1
102
RTVSPropertyOp15
 70
     1
102
RTVSPropertyOp16
 70
     1
102
RTVSPropertyOp17
 70
     1
102
RTVSPropertyOp18
 70
     1
102
RTVSPropertyOp19
 70
     1
102
RTVSPropertyOp20
 70
     1
102
RTVSPropertyOp21
 70
     1
102
RTVSPropertyOp22
 70
     1
102
RTVSPropertyOp23
 70
     1
102
RTVSPropertyOp24
 70
     1
102
RTVSPropertyOp25
 70
     1
102
RTVSPropertyOp26
 70
     1
102
RTVSPropertyOp27
 70
     1
102
RTVSPropertyOp28
 70
     1
102
RTVSPropertyOp29
 70
     1
102
RTVSPropertyOp30
 70
     1
102
RTVSPropertyOp31
 70
     1
102
RTVSPropertyOp32
 70
     1
102
RTVSPropertyOp33
 70
     1
102
RTVSPropertyOp34
 70
     1
102
RTVSPropertyOp35
 70
     1
102
RTVSPropertyOp36
 70
     1
102
RTVSPropertyOp37
 70
     1
102
RTVSPropertyOp38
 70
     1
102
RTVSPropertyOp39
 70
     1
102
RTVSPropertyOp40
 70
     1
102
RTVSPropertyOp41
 70
     1
102
RTVSPropertyOp42
 70
     1
102
RTVSPropertyOp43
 70
     1
102
RTVSPropertyOp44
 70
     1
102
RTVSPropertyOp45
 70
     1
102
RTVSPropertyOp46
 70
     1
102
RTVSPropertyOp47
 70
     1
102
RTVSPropertyOp48
 70
     1
102
RTVSPropertyOp49
 70
     1
102
RTVSPropertyOp50
 70
     1
102
RTVSPropertyOp51
 70
     0
102
RTVSPropertyOp52
 70
     0
102
RTVSPropertyOp53
 70
     1
102
RTVSPropertyOp54
 70
     1
102
RTVSPropertyOp55
 70
     1
102
RTVSPropertyOp56
 70
     1
102
RTVSPropertyOp57
 70
     1
102
RTVSPropertyOp58
 70
     1
102
RTVSPropertyOp59
 70
     1
102
RTVSPropertyOp60
 70
     1
102
RTVSPropertyOp61
 70
     1
102
RTVSPropertyOp62
 70
     1
  0
XRECORD
  5
33F
102
{ACAD_REACTORS
330
33E
102
}
330
33E
100
AcDbXrecord
280
     1
102
RTVSPost2010Prop28
280
     0
102
RTVSPost2010PropOp28
 70
     1
102
RTVSPost2010Prop29
280
     1
102
RTVSPost2010PropOp29
 70
     1
102
RTVSPost2010Prop30
280
     1
102
RTVSPost2010PropOp30
 70
     1
102
RTVSPost2010Prop31
280
     0
102
RTVSPost2010PropOp31
 70
     1
102
RTVSPost2010Prop32
280
     0
102
RTVSPost2010PropOp32
 70
     1
102
RTVSPost2010Prop33
280
     0
102
RTVSPost2010PropOp33
 70
     1
102
RTVSPost2010Prop34
280
     0
102
RTVSPost2010PropOp34
 70
     1
102
RTVSPost2010Prop35
280
     0
102
RTVSPost2010PropOp35
 70
     1
102
RTVSPost2010Prop36
280
     0
102
RTVSPost2010PropOp36
 70
     1
102
RTVSPost2010Prop37
 90
       50
102
RTVSPost2010PropOp37
 70
     1
102
RTVSPost2010Prop38
140
0.0
102
RTVSPost2010PropOp38
 70
     1
102
RTVSPost2010Prop39
140
1.0
102
RTVSPost2010PropOp39
 70
     1
102
RTVSPost2010Prop40
 90
        0
102
RTVSPost2010PropOp40
 70
     1
102
RTVSPost2010Prop41ColorIndex
 90
       18
102
RTVSPost2010Prop41ColorRGB
 90
        0
102
RTVSPost2010PropOp41
 70
     1
102
RTVSPost2010Prop42
 90
       50
102
RTVSPost2010PropOp42
 70
     1
102
RTVSPost2010Prop43
 90
        3
102
RTVSPost2010PropOp43
 70
     1
102
RTVSPost2010Prop44ColorIndex
 90
        5
102
RTVSPost2010Prop44ColorRGB
 90
      255
102
RTVSPost2010PropOp44
 70
     1
102
RTVSPost2010Prop45
280
     0
102
RTVSPost2010PropOp45
 70
     1
102
RTVSPost2010Prop46
 90
       50
102
RTVSPost2010PropOp46
 70
     1
102
RTVSPost2010Prop47
 90
       50
102
RTVSPost2010PropOp47
 70
     1
102
RTVSPost2010Prop48
 90
       50
102
RTVSPost2010PropOp48
 70
     1
102
RTVSPost2010Prop49
280
     0
102
RTVSPost2010PropOp49
 70
     1
102
RTVSPost2010Prop50
 90
       50
102
RTVSPost2010PropOp50
 70
     1
102
RTVSPost2010Prop51ColorIndex
 90
      256
102
RTVSPost2010Prop51ColorRGB
 90
-16777216
102
RTVSPost2010PropOp51
 70
     0
102
RTVSPost2010Prop52
140
1.0
102
RTVSPost2010PropOp52
 70
     0
102
RTVSPost2010Prop53
 90
        2
102
RTVSPost2010PropOp53
 70
     1
102
RTVSPost2010Prop54
  1
strokes_ogs.tif
102
RTVSPost2010PropOp54
 70
     1
102
RTVSPost2010Prop55
280
     0
102
RTVSPost2010PropOp55
 70
     1
102
RTVSPost2010Prop56
140
1.0
102
RTVSPost2010PropOp56
 70
     1
102
RTVSPost2010Prop57
140
1.0
102
RTVSPost2010PropOp57
 70
     1
102
RTVSPropertyOp0
 70
     1
102
RTVSPropertyOp1
 70
     1
102
RTVSPropertyOp2
 70
     1
102
RTVSPropertyOp3
 70
     1
102
RTVSPropertyOp4
 70
     1
102
RTVSPropertyOp5
 70
     1
102
RTVSPropertyOp6
 70
     1
102
RTVSPropertyOp7
 70
     1
102
RTVSPropertyOp8
 70
     1
102
RTVSPropertyOp9
 70
     1
102
RTVSPropertyOp10
 70
     1
102
RTVSPropertyOp11
 70
     1
102
RTVSPropertyOp12
 70
     1
102
RTVSPropertyOp13
 70
     1
102
RTVSPropertyOp14
 70
     1
102
RTVSPropertyOp15
 70
     1
102
RTVSPropertyOp16
 70
     1
102
RTVSPropertyOp17
 70
     1
102
RTVSPropertyOp18
 70
     1
102
RTVSPropertyOp19
 70
     1
102
RTVSPropertyOp20
 70
     1
102
RTVSPropertyOp21
 70
     1
102
RTVSPropertyOp22
 70
     1
102
RTVSPropertyOp23
 70
     1
102
RTVSPropertyOp24
 70
     1
102
RTVSPropertyOp25
 70
     1
102
RTVSPropertyOp26
 70
     1
102
RTVSPropertyOp27
 70
     1
102
RTVSPropertyOp28
 70
     1
102
RTVSPropertyOp29
 70
     1
102
RTVSPropertyOp30
 70
     1
102
RTVSPropertyOp31
 70
     1
102
RTVSPropertyOp32
 70
     1
102
RTVSPropertyOp33
 70
     1
102
RTVSPropertyOp34
 70
     1
102
RTVSPropertyOp35
 70
     1
102
RTVSPropertyOp36
 70
     1
102
RTVSPropertyOp37
 70
     1
102
RTVSPropertyOp38
 70
     1
102
RTVSPropertyOp39
 70
     1
102
RTVSPropertyOp40
 70
     1
102
RTVSPropertyOp41
 70
     1
102
RTVSPropertyOp42
 70
     1
102
RTVSPropertyOp43
 70
     1
102
RTVSPropertyOp44
 70
     1
102
RTVSPropertyOp45
 70
     1
102
RTVSPropertyOp46
 70
     1
102
RTVSPropertyOp47
 70
     1
102
RTVSPropertyOp48
 70
     1
102
RTVSPropertyOp49
 70
     1
102
RTVSPropertyOp50
 70
     1
102
RTVSPropertyOp51
 70
     0
102
RTVSPropertyOp52
 70
     0
102
RTVSPropertyOp53
 70
     1
102
RTVSPropertyOp54
 70
     1
102
RTVSPropertyOp55
 70
     1
102
RTVSPropertyOp56
 70
     1
102
RTVSPropertyOp57
 70
     1
102
RTVSPropertyOp58
 70
     1
102
RTVSPropertyOp59
 70
     1
102
RTVSPropertyOp60
 70
     1
102
RTVSPropertyOp61
 70
     1
102
RTVSPropertyOp62
 70
     1
  0
XRECORD
  5
341
102
{ACAD_REACTORS
330
340
102
}
330
340
100
AcDbXrecord
280
     1
102
RTVSPost2010Prop28
280
     0
102
RTVSPost2010PropOp28
 70
     1
102
RTVSPost2010Prop29
280
     1
102
RTVSPost2010PropOp29
 70
     1
102
RTVSPost2010Prop30
280
     1
102
RTVSPost2010PropOp30
 70
     1
102
RTVSPost2010Prop31
280
     0
102
RTVSPost2010PropOp31
 70
     1
102
RTVSPost2010Prop32
280
     0
102
RTVSPost2010PropOp32
 70
     1
102
RTVSPost2010Prop33
280
     0
102
RTVSPost2010PropOp33
 70
     1
102
RTVSPost2010Prop34
280
     0
102
RTVSPost2010PropOp34
 70
     1
102
RTVSPost2010Prop35
280
     0
102
RTVSPost2010PropOp35
 70
     1
102
RTVSPost2010Prop36
280
     0
102
RTVSPost2010PropOp36
 70
     1
102
RTVSPost2010Prop37
 90
       50
102
RTVSPost2010PropOp37
 70
     1
102
RTVSPost2010Prop38
140
0.0
102
RTVSPost2010PropOp38
 70
     1
102
RTVSPost2010Prop39
140
1.0
102
RTVSPost2010PropOp39
 70
     1
102
RTVSPost2010Prop40
 90
        0
102
RTVSPost2010PropOp40
 70
     1
102
RTVSPost2010Prop41ColorIndex
 90
       18
102
RTVSPost2010Prop41ColorRGB
 90
        0
102
RTVSPost2010PropOp41
 70
     1
102
RTVSPost2010Prop42
 90
       50
102
RTVSPost2010PropOp42
 70
     1
102
RTVSPost2010Prop43
 90
        3
102
RTVSPost2010PropOp43
 70
     1
102
RTVSPost2010Prop44ColorIndex
 90
        5
102
RTVSPost2010Prop44ColorRGB
 90
      255
102
RTVSPost2010PropOp44
 70
     1
102
RTVSPost2010Prop45
280
     0
102
RTVSPost2010PropOp45
 70
     1
102
RTVSPost2010Prop46
 90
       50
102
RTVSPost2010PropOp46
 70
     1
102
RTVSPost2010Prop47
 90
       50
102
RTVSPost2010PropOp47
 70
     1
102
RTVSPost2010Prop48
 90
       50
102
RTVSPost2010PropOp48
 70
     1
102
RTVSPost2010Prop49
280
     0
102
RTVSPost2010PropOp49
 70
     1
102
RTVSPost2010Prop50
 90
       50
102
RTVSPost2010PropOp50
 70
     1
102
RTVSPost2010Prop51ColorIndex
 90
      256
102
RTVSPost2010Prop51ColorRGB
 90
-16777216
102
RTVSPost2010PropOp51
 70
     0
102
RTVSPost2010Prop52
140
1.0
102
RTVSPost2010PropOp52
 70
     0
102
RTVSPost2010Prop53
 90
        2
102
RTVSPost2010PropOp53
 70
     1
102
RTVSPost2010Prop54
  1
strokes_ogs.tif
102
RTVSPost2010PropOp54
 70
     1
102
RTVSPost2010Prop55
280
     0
102
RTVSPost2010PropOp55
 70
     1
102
RTVSPost2010Prop56
140
1.0
102
RTVSPost2010PropOp56
 70
     1
102
RTVSPost2010Prop57
140
1.0
102
RTVSPost2010PropOp57
 70
     1
102
RTVSPropertyOp0
 70
     1
102
RTVSPropertyOp1
 70
     1
102
RTVSPropertyOp2
 70
     1
102
RTVSPropertyOp3
 70
     1
102
RTVSPropertyOp4
 70
     1
102
RTVSPropertyOp5
 70
     1
102
RTVSPropertyOp6
 70
     1
102
RTVSPropertyOp7
 70
     1
102
RTVSPropertyOp8
 70
     1
102
RTVSPropertyOp9
 70
     1
102
RTVSPropertyOp10
 70
     1
102
RTVSPropertyOp11
 70
     1
102
RTVSPropertyOp12
 70
     1
102
RTVSPropertyOp13
 70
     1
102
RTVSPropertyOp14
 70
     1
102
RTVSPropertyOp15
 70
     1
102
RTVSPropertyOp16
 70
     1
102
RTVSPropertyOp17
 70
     1
102
RTVSPropertyOp18
 70
     1
102
RTVSPropertyOp19
 70
     1
102
RTVSPropertyOp20
 70
     1
102
RTVSPropertyOp21
 70
     1
102
RTVSPropertyOp22
 70
     1
102
RTVSPropertyOp23
 70
     1
102
RTVSPropertyOp24
 70
     1
102
RTVSPropertyOp25
 70
     1
102
RTVSPropertyOp26
 70
     1
102
RTVSPropertyOp27
 70
     1
102
RTVSPropertyOp28
 70
     1
102
RTVSPropertyOp29
 70
     1
102
RTVSPropertyOp30
 70
     1
102
RTVSPropertyOp31
 70
     1
102
RTVSPropertyOp32
 70
     1
102
RTVSPropertyOp33
 70
     1
102
RTVSPropertyOp34
 70
     1
102
RTVSPropertyOp35
 70
     1
102
RTVSPropertyOp36
 70
     1
102
RTVSPropertyOp37
 70
     1
102
RTVSPropertyOp38
 70
     1
102
RTVSPropertyOp39
 70
     1
102
RTVSPropertyOp40
 70
     1
102
RTVSPropertyOp41
 70
     1
102
RTVSPropertyOp42
 70
     1
102
RTVSPropertyOp43
 70
     1
102
RTVSPropertyOp44
 70
     1
102
RTVSPropertyOp45
 70
     1
102
RTVSPropertyOp46
 70
     1
102
RTVSPropertyOp47
 70
     1
102
RTVSPropertyOp48
 70
     1
102
RTVSPropertyOp49
 70
     1
102
RTVSPropertyOp50
 70
     1
102
RTVSPropertyOp51
 70
     0
102
RTVSPropertyOp52
 70
     0
102
RTVSPropertyOp53
 70
     1
102
RTVSPropertyOp54
 70
     1
102
RTVSPropertyOp55
 70
     1
102
RTVSPropertyOp56
 70
     1
102
RTVSPropertyOp57
 70
     1
102
RTVSPropertyOp58
 70
     1
102
RTVSPropertyOp59
 70
     1
102
RTVSPropertyOp60
 70
     1
102
RTVSPropertyOp61
 70
     1
102
RTVSPropertyOp62
 70
     1
  0
XRECORD
  5
343
102
{ACAD_REACTORS
330
342
102
}
330
342
100
AcDbXrecord
280
     1
102
RTVSPost2010Prop28
280
     0
102
RTVSPost2010PropOp28
 70
     1
102
RTVSPost2010Prop29
280
     1
102
RTVSPost2010PropOp29
 70
     1
102
RTVSPost2010Prop30
280
     1
102
RTVSPost2010PropOp30
 70
     1
102
RTVSPost2010Prop31
280
     0
102
RTVSPost2010PropOp31
 70
     1
102
RTVSPost2010Prop32
280
     0
102
RTVSPost2010PropOp32
 70
     1
102
RTVSPost2010Prop33
280
     0
102
RTVSPost2010PropOp33
 70
     1
102
RTVSPost2010Prop34
280
     0
102
RTVSPost2010PropOp34
 70
     1
102
RTVSPost2010Prop35
280
     0
102
RTVSPost2010PropOp35
 70
     1
102
RTVSPost2010Prop36
280
     0
102
RTVSPost2010PropOp36
 70
     1
102
RTVSPost2010Prop37
 90
       50
102
RTVSPost2010PropOp37
 70
     1
102
RTVSPost2010Prop38
140
0.0
102
RTVSPost2010PropOp38
 70
     1
102
RTVSPost2010Prop39
140
1.0
102
RTVSPost2010PropOp39
 70
     1
102
RTVSPost2010Prop40
 90
        0
102
RTVSPost2010PropOp40
 70
     1
102
RTVSPost2010Prop41ColorIndex
 90
       18
102
RTVSPost2010Prop41ColorRGB
 90
        0
102
RTVSPost2010PropOp41
 70
     1
102
RTVSPost2010Prop42
 90
       50
102
RTVSPost2010PropOp42
 70
     1
102
RTVSPost2010Prop43
 90
        3
102
RTVSPost2010PropOp43
 70
     1
102
RTVSPost2010Prop44ColorIndex
 90
        5
102
RTVSPost2010Prop44ColorRGB
 90
      255
102
RTVSPost2010PropOp44
 70
     1
102
RTVSPost2010Prop45
280
     0
102
RTVSPost2010PropOp45
 70
     1
102
RTVSPost2010Prop46
 90
       50
102
RTVSPost2010PropOp46
 70
     1
102
RTVSPost2010Prop47
 90
       50
102
RTVSPost2010PropOp47
 70
     1
102
RTVSPost2010Prop48
 90
       50
102
RTVSPost2010PropOp48
 70
     1
102
RTVSPost2010Prop49
280
     0
102
RTVSPost2010PropOp49
 70
     1
102
RTVSPost2010Prop50
 90
       50
102
RTVSPost2010PropOp50
 70
     1
102
RTVSPost2010Prop51ColorIndex
 90
      256
102
RTVSPost2010Prop51ColorRGB
 90
-16777216
102
RTVSPost2010PropOp51
 70
     0
102
RTVSPost2010Prop52
140
1.0
102
RTVSPost2010PropOp52
 70
     0
102
RTVSPost2010Prop53
 90
        2
102
RTVSPost2010PropOp53
 70
     1
102
RTVSPost2010Prop54
  1
strokes_ogs.tif
102
RTVSPost2010PropOp54
 70
     1
102
RTVSPost2010Prop55
280
     0
102
RTVSPost2010PropOp55
 70
     1
102
RTVSPost2010Prop56
140
1.0
102
RTVSPost2010PropOp56
 70
     1
102
RTVSPost2010Prop57
140
1.0
102
RTVSPost2010PropOp57
 70
     1
102
RTVSPropertyOp0
 70
     1
102
RTVSPropertyOp1
 70
     1
102
RTVSPropertyOp2
 70
     1
102
RTVSPropertyOp3
 70
     1
102
RTVSPropertyOp4
 70
     1
102
RTVSPropertyOp5
 70
     1
102
RTVSPropertyOp6
 70
     1
102
RTVSPropertyOp7
 70
     1
102
RTVSPropertyOp8
 70
     1
102
RTVSPropertyOp9
 70
     1
102
RTVSPropertyOp10
 70
     1
102
RTVSPropertyOp11
 70
     1
102
RTVSPropertyOp12
 70
     1
102
RTVSPropertyOp13
 70
     1
102
RTVSPropertyOp14
 70
     1
102
RTVSPropertyOp15
 70
     1
102
RTVSPropertyOp16
 70
     1
102
RTVSPropertyOp17
 70
     1
102
RTVSPropertyOp18
 70
     1
102
RTVSPropertyOp19
 70
     1
102
RTVSPropertyOp20
 70
     1
102
RTVSPropertyOp21
 70
     1
102
RTVSPropertyOp22
 70
     1
102
RTVSPropertyOp23
 70
     1
102
RTVSPropertyOp24
 70
     1
102
RTVSPropertyOp25
 70
     1
102
RTVSPropertyOp26
 70
     1
102
RTVSPropertyOp27
 70
     1
102
RTVSPropertyOp28
 70
     1
102
RTVSPropertyOp29
 70
     1
102
RTVSPropertyOp30
 70
     1
102
RTVSPropertyOp31
 70
     1
102
RTVSPropertyOp32
 70
     1
102
RTVSPropertyOp33
 70
     1
102
RTVSPropertyOp34
 70
     1
102
RTVSPropertyOp35
 70
     1
102
RTVSPropertyOp36
 70
     1
102
RTVSPropertyOp37
 70
     1
102
RTVSPropertyOp38
 70
     1
102
RTVSPropertyOp39
 70
     1
102
RTVSPropertyOp40
 70
     1
102
RTVSPropertyOp41
 70
     1
102
RTVSPropertyOp42
 70
     1
102
RTVSPropertyOp43
 70
     1
102
RTVSPropertyOp44
 70
     1
102
RTVSPropertyOp45
 70
     1
102
RTVSPropertyOp46
 70
     1
102
RTVSPropertyOp47
 70
     1
102
RTVSPropertyOp48
 70
     1
102
RTVSPropertyOp49
 70
     1
102
RTVSPropertyOp50
 70
     1
102
RTVSPropertyOp51
 70
     0
102
RTVSPropertyOp52
 70
     0
102
RTVSPropertyOp53
 70
     1
102
RTVSPropertyOp54
 70
     1
102
RTVSPropertyOp55
 70
     1
102
RTVSPropertyOp56
 70
     1
102
RTVSPropertyOp57
 70
     1
102
RTVSPropertyOp58
 70
     1
102
RTVSPropertyOp59
 70
     1
102
RTVSPropertyOp60
 70
     1
102
RTVSPropertyOp61
 70
     1
102
RTVSPropertyOp62
 70
     1
  0
XRECORD
  5
34B
102
{ACAD_REACTORS
330
34A
102
}
330
34A
100
AcDbXrecord
280
     1
102
RTVSPost2010Prop28
280
     0
102
RTVSPost2010PropOp28
 70
     1
102
RTVSPost2010Prop29
280
     1
102
RTVSPost2010PropOp29
 70
     1
102
RTVSPost2010Prop30
280
     1
102
RTVSPost2010PropOp30
 70
     1
102
RTVSPost2010Prop31
280
     0
102
RTVSPost2010PropOp31
 70
     1
102
RTVSPost2010Prop32
280
     0
102
RTVSPost2010PropOp32
 70
     1
102
RTVSPost2010Prop33
280
     0
102
RTVSPost2010PropOp33
 70
     1
102
RTVSPost2010Prop34
280
     0
102
RTVSPost2010PropOp34
 70
     1
102
RTVSPost2010Prop35
280
     0
102
RTVSPost2010PropOp35
 70
     1
102
RTVSPost2010Prop36
280
     0
102
RTVSPost2010PropOp36
 70
     1
102
RTVSPost2010Prop37
 90
       50
102
RTVSPost2010PropOp37
 70
     1
102
RTVSPost2010Prop38
140
0.0
102
RTVSPost2010PropOp38
 70
     1
102
RTVSPost2010Prop39
140
1.0
102
RTVSPost2010PropOp39
 70
     1
102
RTVSPost2010Prop40
 90
        0
102
RTVSPost2010PropOp40
 70
     1
102
RTVSPost2010Prop41ColorIndex
 90
       18
102
RTVSPost2010Prop41ColorRGB
 90
        0
102
RTVSPost2010PropOp41
 70
     1
102
RTVSPost2010Prop42
 90
       50
102
RTVSPost2010PropOp42
 70
     1
102
RTVSPost2010Prop43
 90
        3
102
RTVSPost2010PropOp43
 70
     1
102
RTVSPost2010Prop44ColorIndex
 90
        5
102
RTVSPost2010Prop44ColorRGB
 90
      255
102
RTVSPost2010PropOp44
 70
     1
102
RTVSPost2010Prop45
280
     0
102
RTVSPost2010PropOp45
 70
     1
102
RTVSPost2010Prop46
 90
       50
102
RTVSPost2010PropOp46
 70
     1
102
RTVSPost2010Prop47
 90
       50
102
RTVSPost2010PropOp47
 70
     1
102
RTVSPost2010Prop48
 90
       50
102
RTVSPost2010PropOp48
 70
     1
102
RTVSPost2010Prop49
280
     0
102
RTVSPost2010PropOp49
 70
     1
102
RTVSPost2010Prop50
 90
       50
102
RTVSPost2010PropOp50
 70
     1
102
RTVSPost2010Prop51ColorIndex
 90
      256
102
RTVSPost2010Prop51ColorRGB
 90
-16777216
102
RTVSPost2010PropOp51
 70
     0
102
RTVSPost2010Prop52
140
1.0
102
RTVSPost2010PropOp52
 70
     0
102
RTVSPost2010Prop53
 90
        2
102
RTVSPost2010PropOp53
 70
     1
102
RTVSPost2010Prop54
  1
strokes_ogs.tif
102
RTVSPost2010PropOp54
 70
     1
102
RTVSPost2010Prop55
280
     0
102
RTVSPost2010PropOp55
 70
     1
102
RTVSPost2010Prop56
140
1.0
102
RTVSPost2010PropOp56
 70
     1
102
RTVSPost2010Prop57
140
1.0
102
RTVSPost2010PropOp57
 70
     1
102
RTVSPropertyOp0
 70
     1
102
RTVSPropertyOp1
 70
     1
102
RTVSPropertyOp2
 70
     1
102
RTVSPropertyOp3
 70
     1
102
RTVSPropertyOp4
 70
     1
102
RTVSPropertyOp5
 70
     1
102
RTVSPropertyOp6
 70
     1
102
RTVSPropertyOp7
 70
     1
102
RTVSPropertyOp8
 70
     1
102
RTVSPropertyOp9
 70
     1
102
RTVSPropertyOp10
 70
     1
102
RTVSPropertyOp11
 70
     1
102
RTVSPropertyOp12
 70
     1
102
RTVSPropertyOp13
 70
     1
102
RTVSPropertyOp14
 70
     1
102
RTVSPropertyOp15
 70
     1
102
RTVSPropertyOp16
 70
     1
102
RTVSPropertyOp17
 70
     1
102
RTVSPropertyOp18
 70
     1
102
RTVSPropertyOp19
 70
     1
102
RTVSPropertyOp20
 70
     1
102
RTVSPropertyOp21
 70
     1
102
RTVSPropertyOp22
 70
     1
102
RTVSPropertyOp23
 70
     1
102
RTVSPropertyOp24
 70
     1
102
RTVSPropertyOp25
 70
     1
102
RTVSPropertyOp26
 70
     1
102
RTVSPropertyOp27
 70
     1
102
RTVSPropertyOp28
 70
     1
102
RTVSPropertyOp29
 70
     1
102
RTVSPropertyOp30
 70
     1
102
RTVSPropertyOp31
 70
     1
102
RTVSPropertyOp32
 70
     1
102
RTVSPropertyOp33
 70
     1
102
RTVSPropertyOp34
 70
     1
102
RTVSPropertyOp35
 70
     1
102
RTVSPropertyOp36
 70
     1
102
RTVSPropertyOp37
 70
     1
102
RTVSPropertyOp38
 70
     1
102
RTVSPropertyOp39
 70
     1
102
RTVSPropertyOp40
 70
     1
102
RTVSPropertyOp41
 70
     1
102
RTVSPropertyOp42
 70
     1
102
RTVSPropertyOp43
 70
     1
102
RTVSPropertyOp44
 70
     1
102
RTVSPropertyOp45
 70
     1
102
RTVSPropertyOp46
 70
     1
102
RTVSPropertyOp47
 70
     1
102
RTVSPropertyOp48
 70
     1
102
RTVSPropertyOp49
 70
     1
102
RTVSPropertyOp50
 70
     1
102
RTVSPropertyOp51
 70
     0
102
RTVSPropertyOp52
 70
     0
102
RTVSPropertyOp53
 70
     1
102
RTVSPropertyOp54
 70
     1
102
RTVSPropertyOp55
 70
     1
102
RTVSPropertyOp56
 70
     1
102
RTVSPropertyOp57
 70
     1
102
RTVSPropertyOp58
 70
     1
102
RTVSPropertyOp59
 70
     1
102
RTVSPropertyOp60
 70
     1
102
RTVSPropertyOp61
 70
     1
102
RTVSPropertyOp62
 70
     1
  0
XRECORD
  5
367
102
{ACAD_REACTORS
330
366
102
}
330
366
100
AcDbXrecord
280
     1
102
RTVSPost2010Prop28
280
     0
102
RTVSPost2010PropOp28
 70
     1
102
RTVSPost2010Prop29
280
     1
102
RTVSPost2010PropOp29
 70
     1
102
RTVSPost2010Prop30
280
     1
102
RTVSPost2010PropOp30
 70
     1
102
RTVSPost2010Prop31
280
     0
102
RTVSPost2010PropOp31
 70
     1
102
RTVSPost2010Prop32
280
     0
102
RTVSPost2010PropOp32
 70
     1
102
RTVSPost2010Prop33
280
     0
102
RTVSPost2010PropOp33
 70
     1
102
RTVSPost2010Prop34
280
     0
102
RTVSPost2010PropOp34
 70
     1
102
RTVSPost2010Prop35
280
     0
102
RTVSPost2010PropOp35
 70
     1
102
RTVSPost2010Prop36
280
     0
102
RTVSPost2010PropOp36
 70
     1
102
RTVSPost2010Prop37
 90
       50
102
RTVSPost2010PropOp37
 70
     0
102
RTVSPost2010Prop38
140
0.0
102
RTVSPost2010PropOp38
 70
     0
102
RTVSPost2010Prop39
140
1.0
102
RTVSPost2010PropOp39
 70
     0
102
RTVSPost2010Prop40
 90
        0
102
RTVSPost2010PropOp40
 70
     0
102
RTVSPost2010Prop41ColorIndex
 90
       18
102
RTVSPost2010Prop41ColorRGB
 90
        0
102
RTVSPost2010PropOp41
 70
     0
102
RTVSPost2010Prop42
 90
       50
102
RTVSPost2010PropOp42
 70
     0
102
RTVSPost2010Prop43
 90
        3
102
RTVSPost2010PropOp43
 70
     0
102
RTVSPost2010Prop44ColorIndex
 90
        5
102
RTVSPost2010Prop44ColorRGB
 90
      255
102
RTVSPost2010PropOp44
 70
     0
102
RTVSPost2010Prop45
280
     0
102
RTVSPost2010PropOp45
 70
     1
102
RTVSPost2010Prop46
 90
       50
102
RTVSPost2010PropOp46
 70
     0
102
RTVSPost2010Prop47
 90
       50
102
RTVSPost2010PropOp47
 70
     0
102
RTVSPost2010Prop48
 90
       50
102
RTVSPost2010PropOp48
 70
     0
102
RTVSPost2010Prop49
280
     0
102
RTVSPost2010PropOp49
 70
     1
102
RTVSPost2010Prop50
 90
       50
102
RTVSPost2010PropOp50
 70
     0
102
RTVSPost2010Prop51ColorIndex
 90
      256
102
RTVSPost2010Prop51ColorRGB
 90
-16777216
102
RTVSPost2010PropOp51
 70
     0
102
RTVSPost2010Prop52
140
1.0
102
RTVSPost2010PropOp52
 70
     0
102
RTVSPost2010Prop53
 90
        2
102
RTVSPost2010PropOp53
 70
     0
102
RTVSPost2010Prop54
  1
strokes_ogs.tif
102
RTVSPost2010PropOp54
 70
     0
102
RTVSPost2010Prop55
280
     0
102
RTVSPost2010PropOp55
 70
     1
102
RTVSPost2010Prop56
140
1.0
102
RTVSPost2010PropOp56
 70
     0
102
RTVSPost2010Prop57
140
1.0
102
RTVSPost2010PropOp57
 70
     0
102
RTVSPropertyOp0
 70
     0
102
RTVSPropertyOp1
 70
     0
102
RTVSPropertyOp2
 70
     0
102
RTVSPropertyOp3
 70
     0
102
RTVSPropertyOp4
 70
     0
102
RTVSPropertyOp5
 70
     0
102
RTVSPropertyOp6
 70
     0
102
RTVSPropertyOp7
 70
     0
102
RTVSPropertyOp8
 70
     0
102
RTVSPropertyOp9
 70
     0
102
RTVSPropertyOp10
 70
     0
102
RTVSPropertyOp11
 70
     0
102
RTVSPropertyOp12
 70
     0
102
RTVSPropertyOp13
 70
     0
102
RTVSPropertyOp14
 70
     2
102
RTVSPropertyOp15
 70
     0
102
RTVSPropertyOp16
 70
     0
102
RTVSPropertyOp17
 70
     0
102
RTVSPropertyOp18
 70
     0
102
RTVSPropertyOp19
 70
     0
102
RTVSPropertyOp20
 70
     0
102
RTVSPropertyOp21
 70
     0
102
RTVSPropertyOp22
 70
     0
102
RTVSPropertyOp23
 70
     0
102
RTVSPropertyOp24
 70
     0
102
RTVSPropertyOp25
 70
     0
102
RTVSPropertyOp26
 70
     0
102
RTVSPropertyOp27
 70
     0
102
RTVSPropertyOp28
 70
     1
102
RTVSPropertyOp29
 70
     1
102
RTVSPropertyOp30
 70
     1
102
RTVSPropertyOp31
 70
     1
102
RTVSPropertyOp32
 70
     1
102
RTVSPropertyOp33
 70
     1
102
RTVSPropertyOp34
 70
     1
102
RTVSPropertyOp35
 70
     1
102
RTVSPropertyOp36
 70
     1
102
RTVSPropertyOp37
 70
     0
102
RTVSPropertyOp38
 70
     0
102
RTVSPropertyOp39
 70
     0
102
RTVSPropertyOp40
 70
     0
102
RTVSPropertyOp41
 70
     0
102
RTVSPropertyOp42
 70
     0
102
RTVSPropertyOp43
 70
     0
102
RTVSPropertyOp44
 70
     0
102
RTVSPropertyOp45
 70
     1
102
RTVSPropertyOp46
 70
     0
102
RTVSPropertyOp47
 70
     0
102
RTVSPropertyOp48
 70
     0
102
RTVSPropertyOp49
 70
     1
102
RTVSPropertyOp50
 70
     0
102
RTVSPropertyOp51
 70
     0
102
RTVSPropertyOp52
 70
     0
102
RTVSPropertyOp53
 70
     0
102
RTVSPropertyOp54
 70
     0
102
RTVSPropertyOp55
 70
     1
102
RTVSPropertyOp56
 70
     0
102
RTVSPropertyOp57
 70
     0
102
RTVSPropertyOp58
 70
     0
102
RTVSPropertyOp59
 70
     0
102
RTVSPropertyOp60
 70
     0
102
RTVSPropertyOp61
 70
     0
102
RTVSPropertyOp62
 70
     0
  0
XRECORD
  5
357
102
{ACAD_REACTORS
330
356
102
}
330
356
100
AcDbXrecord
280
     1
102
RTVSPost2010Prop28
280
     0
102
RTVSPost2010PropOp28
 70
     1
102
RTVSPost2010Prop29
280
     1
102
RTVSPost2010PropOp29
 70
     1
102
RTVSPost2010Prop30
280
     1
102
RTVSPost2010PropOp30
 70
     1
102
RTVSPost2010Prop31
280
     0
102
RTVSPost2010PropOp31
 70
     1
102
RTVSPost2010Prop32
280
     0
102
RTVSPost2010PropOp32
 70
     1
102
RTVSPost2010Prop33
280
     0
102
RTVSPost2010PropOp33
 70
     1
102
RTVSPost2010Prop34
280
     0
102
RTVSPost2010PropOp34
 70
     1
102
RTVSPost2010Prop35
280
     0
102
RTVSPost2010PropOp35
 70
     1
102
RTVSPost2010Prop36
280
     0
102
RTVSPost2010PropOp36
 70
     1
102
RTVSPost2010Prop37
 90
       50
102
RTVSPost2010PropOp37
 70
     1
102
RTVSPost2010Prop38
140
0.0
102
RTVSPost2010PropOp38
 70
     1
102
RTVSPost2010Prop39
140
1.0
102
RTVSPost2010PropOp39
 70
     1
102
RTVSPost2010Prop40
 90
        0
102
RTVSPost2010PropOp40
 70
     1
102
RTVSPost2010Prop41ColorIndex
 90
       18
102
RTVSPost2010Prop41ColorRGB
 90
        0
102
RTVSPost2010PropOp41
 70
     1
102
RTVSPost2010Prop42
 90
       50
102
RTVSPost2010PropOp42
 70
     1
102
RTVSPost2010Prop43
 90
        3
102
RTVSPost2010PropOp43
 70
     1
102
RTVSPost2010Prop44ColorIndex
 90
        5
102
RTVSPost2010Prop44ColorRGB
 90
      255
102
RTVSPost2010PropOp44
 70
     1
102
RTVSPost2010Prop45
280
     0
102
RTVSPost2010PropOp45
 70
     1
102
RTVSPost2010Prop46
 90
       50
102
RTVSPost2010PropOp46
 70
     1
102
RTVSPost2010Prop47
 90
       50
102
RTVSPost2010PropOp47
 70
     1
102
RTVSPost2010Prop48
 90
       50
102
RTVSPost2010PropOp48
 70
     1
102
RTVSPost2010Prop49
280
     0
102
RTVSPost2010PropOp49
 70
     1
102
RTVSPost2010Prop50
 90
       50
102
RTVSPost2010PropOp50
 70
     1
102
RTVSPost2010Prop51ColorIndex
 90
      256
102
RTVSPost2010Prop51ColorRGB
 90
-16777216
102
RTVSPost2010PropOp51
 70
     0
102
RTVSPost2010Prop52
140
1.0
102
RTVSPost2010PropOp52
 70
     0
102
RTVSPost2010Prop53
 90
        2
102
RTVSPost2010PropOp53
 70
     1
102
RTVSPost2010Prop54
  1
strokes_ogs.tif
102
RTVSPost2010PropOp54
 70
     1
102
RTVSPost2010Prop55
280
     0
102
RTVSPost2010PropOp55
 70
     1
102
RTVSPost2010Prop56
140
1.0
102
RTVSPost2010PropOp56
 70
     1
102
RTVSPost2010Prop57
140
1.0
102
RTVSPost2010PropOp57
 70
     1
102
RTVSPropertyOp0
 70
     1
102
RTVSPropertyOp1
 70
     1
102
RTVSPropertyOp2
 70
     1
102
RTVSPropertyOp3
 70
     1
102
RTVSPropertyOp4
 70
     1
102
RTVSPropertyOp5
 70
     1
102
RTVSPropertyOp6
 70
     1
102
RTVSPropertyOp7
 70
     1
102
RTVSPropertyOp8
 70
     1
102
RTVSPropertyOp9
 70
     1
102
RTVSPropertyOp10
 70
     1
102
RTVSPropertyOp11
 70
     1
102
RTVSPropertyOp12
 70
     1
102
RTVSPropertyOp13
 70
     1
102
RTVSPropertyOp14
 70
     1
102
RTVSPropertyOp15
 70
     1
102
RTVSPropertyOp16
 70
     1
102
RTVSPropertyOp17
 70
     1
102
RTVSPropertyOp18
 70
     1
102
RTVSPropertyOp19
 70
     1
102
RTVSPropertyOp20
 70
     1
102
RTVSPropertyOp21
 70
     1
102
RTVSPropertyOp22
 70
     1
102
RTVSPropertyOp23
 70
     1
102
RTVSPropertyOp24
 70
     1
102
RTVSPropertyOp25
 70
     1
102
RTVSPropertyOp26
 70
     1
102
RTVSPropertyOp27
 70
     1
102
RTVSPropertyOp28
 70
     1
102
RTVSPropertyOp29
 70
     1
102
RTVSPropertyOp30
 70
     1
102
RTVSPropertyOp31
 70
     1
102
RTVSPropertyOp32
 70
     1
102
RTVSPropertyOp33
 70
     1
102
RTVSPropertyOp34
 70
     1
102
RTVSPropertyOp35
 70
     1
102
RTVSPropertyOp36
 70
     1
102
RTVSPropertyOp37
 70
     1
102
RTVSPropertyOp38
 70
     1
102
RTVSPropertyOp39
 70
     1
102
RTVSPropertyOp40
 70
     1
102
RTVSPropertyOp41
 70
     1
102
RTVSPropertyOp42
 70
     1
102
RTVSPropertyOp43
 70
     1
102
RTVSPropertyOp44
 70
     1
102
RTVSPropertyOp45
 70
     1
102
RTVSPropertyOp46
 70
     1
102
RTVSPropertyOp47
 70
     1
102
RTVSPropertyOp48
 70
     1
102
RTVSPropertyOp49
 70
     1
102
RTVSPropertyOp50
 70
     1
102
RTVSPropertyOp51
 70
     0
102
RTVSPropertyOp52
 70
     0
102
RTVSPropertyOp53
 70
     1
102
RTVSPropertyOp54
 70
     1
102
RTVSPropertyOp55
 70
     1
102
RTVSPropertyOp56
 70
     1
102
RTVSPropertyOp57
 70
     1
102
RTVSPropertyOp58
 70
     1
102
RTVSPropertyOp59
 70
     1
102
RTVSPropertyOp60
 70
     1
102
RTVSPropertyOp61
 70
     1
102
RTVSPropertyOp62
 70
     1
  0
XRECORD
  5
369
102
{ACAD_REACTORS
330
368
102
}
330
368
100
AcDbXrecord
280
     1
102
RTVSPost2010Prop28
280
     0
102
RTVSPost2010PropOp28
 70
     1
102
RTVSPost2010Prop29
280
     1
102
RTVSPost2010PropOp29
 70
     1
102
RTVSPost2010Prop30
280
     1
102
RTVSPost2010PropOp30
 70
     1
102
RTVSPost2010Prop31
280
     0
102
RTVSPost2010PropOp31
 70
     1
102
RTVSPost2010Prop32
280
     0
102
RTVSPost2010PropOp32
 70
     1
102
RTVSPost2010Prop33
280
     0
102
RTVSPost2010PropOp33
 70
     1
102
RTVSPost2010Prop34
280
     0
102
RTVSPost2010PropOp34
 70
     1
102
RTVSPost2010Prop35
280
     0
102
RTVSPost2010PropOp35
 70
     1
102
RTVSPost2010Prop36
280
     0
102
RTVSPost2010PropOp36
 70
     1
102
RTVSPost2010Prop37
 90
       50
102
RTVSPost2010PropOp37
 70
     0
102
RTVSPost2010Prop38
140
0.0
102
RTVSPost2010PropOp38
 70
     0
102
RTVSPost2010Prop39
140
1.0
102
RTVSPost2010PropOp39
 70
     0
102
RTVSPost2010Prop40
 90
        0
102
RTVSPost2010PropOp40
 70
     0
102
RTVSPost2010Prop41ColorIndex
 90
       18
102
RTVSPost2010Prop41ColorRGB
 90
        0
102
RTVSPost2010PropOp41
 70
     0
102
RTVSPost2010Prop42
 90
       50
102
RTVSPost2010PropOp42
 70
     0
102
RTVSPost2010Prop43
 90
        3
102
RTVSPost2010PropOp43
 70
     0
102
RTVSPost2010Prop44ColorIndex
 90
        5
102
RTVSPost2010Prop44ColorRGB
 90
      255
102
RTVSPost2010PropOp44
 70
     0
102
RTVSPost2010Prop45
280
     0
102
RTVSPost2010PropOp45
 70
     1
102
RTVSPost2010Prop46
 90
       50
102
RTVSPost2010PropOp46
 70
     0
102
RTVSPost2010Prop47
 90
       50
102
RTVSPost2010PropOp47
 70
     0
102
RTVSPost2010Prop48
 90
       50
102
RTVSPost2010PropOp48
 70
     0
102
RTVSPost2010Prop49
280
     0
102
RTVSPost2010PropOp49
 70
     1
102
RTVSPost2010Prop50
 90
       50
102
RTVSPost2010PropOp50
 70
     0
102
RTVSPost2010Prop51ColorIndex
 90
      256
102
RTVSPost2010Prop51ColorRGB
 90
-16777216
102
RTVSPost2010PropOp51
 70
     0
102
RTVSPost2010Prop52
140
1.0
102
RTVSPost2010PropOp52
 70
     0
102
RTVSPost2010Prop53
 90
        2
102
RTVSPost2010PropOp53
 70
     0
102
RTVSPost2010Prop54
  1
strokes_ogs.tif
102
RTVSPost2010PropOp54
 70
     0
102
RTVSPost2010Prop55
280
     0
102
RTVSPost2010PropOp55
 70
     1
102
RTVSPost2010Prop56
140
1.0
102
RTVSPost2010PropOp56
 70
     0
102
RTVSPost2010Prop57
140
1.0
102
RTVSPost2010PropOp57
 70
     0
102
RTVSPropertyOp0
 70
     0
102
RTVSPropertyOp1
 70
     0
102
RTVSPropertyOp2
 70
     0
102
RTVSPropertyOp3
 70
     0
102
RTVSPropertyOp4
 70
     0
102
RTVSPropertyOp5
 70
     0
102
RTVSPropertyOp6
 70
     0
102
RTVSPropertyOp7
 70
     0
102
RTVSPropertyOp8
 70
     0
102
RTVSPropertyOp9
 70
     0
102
RTVSPropertyOp10
 70
     0
102
RTVSPropertyOp11
 70
     0
102
RTVSPropertyOp12
 70
     0
102
RTVSPropertyOp13
 70
     0
102
RTVSPropertyOp14
 70
     2
102
RTVSPropertyOp15
 70
     0
102
RTVSPropertyOp16
 70
     0
102
RTVSPropertyOp17
 70
     0
102
RTVSPropertyOp18
 70
     0
102
RTVSPropertyOp19
 70
     0
102
RTVSPropertyOp20
 70
     0
102
RTVSPropertyOp21
 70
     0
102
RTVSPropertyOp22
 70
     0
102
RTVSPropertyOp23
 70
     0
102
RTVSPropertyOp24
 70
     0
102
RTVSPropertyOp25
 70
     0
102
RTVSPropertyOp26
 70
     0
102
RTVSPropertyOp27
 70
     0
102
RTVSPropertyOp28
 70
     1
102
RTVSPropertyOp29
 70
     1
102
RTVSPropertyOp30
 70
     1
102
RTVSPropertyOp31
 70
     1
102
RTVSPropertyOp32
 70
     1
102
RTVSPropertyOp33
 70
     1
102
RTVSPropertyOp34
 70
     1
102
RTVSPropertyOp35
 70
     1
102
RTVSPropertyOp36
 70
     1
102
RTVSPropertyOp37
 70
     0
102
RTVSPropertyOp38
 70
     0
102
RTVSPropertyOp39
 70
     0
102
RTVSPropertyOp40
 70
     0
102
RTVSPropertyOp41
 70
     0
102
RTVSPropertyOp42
 70
     0
102
RTVSPropertyOp43
 70
     0
102
RTVSPropertyOp44
 70
     0
102
RTVSPropertyOp45
 70
     1
102
RTVSPropertyOp46
 70
     0
102
RTVSPropertyOp47
 70
     0
102
RTVSPropertyOp48
 70
     0
102
RTVSPropertyOp49
 70
     1
102
RTVSPropertyOp50
 70
     0
102
RTVSPropertyOp51
 70
     0
102
RTVSPropertyOp52
 70
     0
102
RTVSPropertyOp53
 70
     0
102
RTVSPropertyOp54
 70
     0
102
RTVSPropertyOp55
 70
     1
102
RTVSPropertyOp56
 70
     0
102
RTVSPropertyOp57
 70
     0
102
RTVSPropertyOp58
 70
     0
102
RTVSPropertyOp59
 70
     0
102
RTVSPropertyOp60
 70
     0
102
RTVSPropertyOp61
 70
     0
102
RTVSPropertyOp62
 70
     0
  0
XRECORD
  5
34F
102
{ACAD_REACTORS
330
34E
102
}
330
34E
100
AcDbXrecord
280
     1
102
RTVSPost2010Prop28
280
     0
102
RTVSPost2010PropOp28
 70
     1
102
RTVSPost2010Prop29
280
     1
102
RTVSPost2010PropOp29
 70
     1
102
RTVSPost2010Prop30
280
     1
102
RTVSPost2010PropOp30
 70
     1
102
RTVSPost2010Prop31
280
     0
102
RTVSPost2010PropOp31
 70
     1
102
RTVSPost2010Prop32
280
     0
102
RTVSPost2010PropOp32
 70
     1
102
RTVSPost2010Prop33
280
     0
102
RTVSPost2010PropOp33
 70
     1
102
RTVSPost2010Prop34
280
     0
102
RTVSPost2010PropOp34
 70
     1
102
RTVSPost2010Prop35
280
     0
102
RTVSPost2010PropOp35
 70
     1
102
RTVSPost2010Prop36
280
     0
102
RTVSPost2010PropOp36
 70
     1
102
RTVSPost2010Prop37
 90
       50
102
RTVSPost2010PropOp37
 70
     1
102
RTVSPost2010Prop38
140
0.0
102
RTVSPost2010PropOp38
 70
     1
102
RTVSPost2010Prop39
140
1.0
102
RTVSPost2010PropOp39
 70
     1
102
RTVSPost2010Prop40
 90
        0
102
RTVSPost2010PropOp40
 70
     1
102
RTVSPost2010Prop41ColorIndex
 90
       18
102
RTVSPost2010Prop41ColorRGB
 90
        0
102
RTVSPost2010PropOp41
 70
     1
102
RTVSPost2010Prop42
 90
       50
102
RTVSPost2010PropOp42
 70
     1
102
RTVSPost2010Prop43
 90
        3
102
RTVSPost2010PropOp43
 70
     1
102
RTVSPost2010Prop44ColorIndex
 90
        5
102
RTVSPost2010Prop44ColorRGB
 90
      255
102
RTVSPost2010PropOp44
 70
     1
102
RTVSPost2010Prop45
280
     0
102
RTVSPost2010PropOp45
 70
     1
102
RTVSPost2010Prop46
 90
       50
102
RTVSPost2010PropOp46
 70
     1
102
RTVSPost2010Prop47
 90
       50
102
RTVSPost2010PropOp47
 70
     1
102
RTVSPost2010Prop48
 90
       50
102
RTVSPost2010PropOp48
 70
     1
102
RTVSPost2010Prop49
280
     0
102
RTVSPost2010PropOp49
 70
     1
102
RTVSPost2010Prop50
 90
       50
102
RTVSPost2010PropOp50
 70
     1
102
RTVSPost2010Prop51ColorIndex
 90
      256
102
RTVSPost2010Prop51ColorRGB
 90
-16777216
102
RTVSPost2010PropOp51
 70
     0
102
RTVSPost2010Prop52
140
1.0
102
RTVSPost2010PropOp52
 70
     0
102
RTVSPost2010Prop53
 90
        2
102
RTVSPost2010PropOp53
 70
     1
102
RTVSPost2010Prop54
  1
strokes_ogs.tif
102
RTVSPost2010PropOp54
 70
     1
102
RTVSPost2010Prop55
280
     0
102
RTVSPost2010PropOp55
 70
     1
102
RTVSPost2010Prop56
140
1.0
102
RTVSPost2010PropOp56
 70
     1
102
RTVSPost2010Prop57
140
1.0
102
RTVSPost2010PropOp57
 70
     1
102
RTVSPropertyOp0
 70
     1
102
RTVSPropertyOp1
 70
     1
102
RTVSPropertyOp2
 70
     1
102
RTVSPropertyOp3
 70
     1
102
RTVSPropertyOp4
 70
     1
102
RTVSPropertyOp5
 70
     1
102
RTVSPropertyOp6
 70
     1
102
RTVSPropertyOp7
 70
     1
102
RTVSPropertyOp8
 70
     1
102
RTVSPropertyOp9
 70
     1
102
RTVSPropertyOp10
 70
     1
102
RTVSPropertyOp11
 70
     1
102
RTVSPropertyOp12
 70
     1
102
RTVSPropertyOp13
 70
     1
102
RTVSPropertyOp14
 70
     1
102
RTVSPropertyOp15
 70
     1
102
RTVSPropertyOp16
 70
     1
102
RTVSPropertyOp17
 70
     1
102
RTVSPropertyOp18
 70
     1
102
RTVSPropertyOp19
 70
     1
102
RTVSPropertyOp20
 70
     1
102
RTVSPropertyOp21
 70
     1
102
RTVSPropertyOp22
 70
     1
102
RTVSPropertyOp23
 70
     1
102
RTVSPropertyOp24
 70
     1
102
RTVSPropertyOp25
 70
     1
102
RTVSPropertyOp26
 70
     1
102
RTVSPropertyOp27
 70
     1
102
RTVSPropertyOp28
 70
     1
102
RTVSPropertyOp29
 70
     1
102
RTVSPropertyOp30
 70
     1
102
RTVSPropertyOp31
 70
     1
102
RTVSPropertyOp32
 70
     1
102
RTVSPropertyOp33
 70
     1
102
RTVSPropertyOp34
 70
     1
102
RTVSPropertyOp35
 70
     1
102
RTVSPropertyOp36
 70
     1
102
RTVSPropertyOp37
 70
     1
102
RTVSPropertyOp38
 70
     1
102
RTVSPropertyOp39
 70
     1
102
RTVSPropertyOp40
 70
     1
102
RTVSPropertyOp41
 70
     1
102
RTVSPropertyOp42
 70
     1
102
RTVSPropertyOp43
 70
     1
102
RTVSPropertyOp44
 70
     1
102
RTVSPropertyOp45
 70
     1
102
RTVSPropertyOp46
 70
     1
102
RTVSPropertyOp47
 70
     1
102
RTVSPropertyOp48
 70
     1
102
RTVSPropertyOp49
 70
     1
102
RTVSPropertyOp50
 70
     1
102
RTVSPropertyOp51
 70
     0
102
RTVSPropertyOp52
 70
     0
102
RTVSPropertyOp53
 70
     1
102
RTVSPropertyOp54
 70
     1
102
RTVSPropertyOp55
 70
     1
102
RTVSPropertyOp56
 70
     1
102
RTVSPropertyOp57
 70
     1
102
RTVSPropertyOp58
 70
     1
102
RTVSPropertyOp59
 70
     1
102
RTVSPropertyOp60
 70
     1
102
RTVSPropertyOp61
 70
     1
102
RTVSPropertyOp62
 70
     1
  0
XRECORD
  5
365
102
{ACAD_REACTORS
330
364
102
}
330
364
100
AcDbXrecord
280
     1
102
RTVSPost2010Prop28
280
     0
102
RTVSPost2010PropOp28
 70
     1
102
RTVSPost2010Prop29
280
     1
102
RTVSPost2010PropOp29
 70
     1
102
RTVSPost2010Prop30
280
     1
102
RTVSPost2010PropOp30
 70
     1
102
RTVSPost2010Prop31
280
     0
102
RTVSPost2010PropOp31
 70
     1
102
RTVSPost2010Prop32
280
     0
102
RTVSPost2010PropOp32
 70
     1
102
RTVSPost2010Prop33
280
     0
102
RTVSPost2010PropOp33
 70
     1
102
RTVSPost2010Prop34
280
     0
102
RTVSPost2010PropOp34
 70
     1
102
RTVSPost2010Prop35
280
     0
102
RTVSPost2010PropOp35
 70
     1
102
RTVSPost2010Prop36
280
     0
102
RTVSPost2010PropOp36
 70
     1
102
RTVSPost2010Prop37
 90
       50
102
RTVSPost2010PropOp37
 70
     1
102
RTVSPost2010Prop38
140
0.0
102
RTVSPost2010PropOp38
 70
     1
102
RTVSPost2010Prop39
140
1.0
102
RTVSPost2010PropOp39
 70
     1
102
RTVSPost2010Prop40
 90
        0
102
RTVSPost2010PropOp40
 70
     1
102
RTVSPost2010Prop41ColorIndex
 90
       18
102
RTVSPost2010Prop41ColorRGB
 90
        0
102
RTVSPost2010PropOp41
 70
     1
102
RTVSPost2010Prop42
 90
       50
102
RTVSPost2010PropOp42
 70
     1
102
RTVSPost2010Prop43
 90
        3
102
RTVSPost2010PropOp43
 70
     1
102
RTVSPost2010Prop44ColorIndex
 90
        5
102
RTVSPost2010Prop44ColorRGB
 90
      255
102
RTVSPost2010PropOp44
 70
     1
102
RTVSPost2010Prop45
280
     0
102
RTVSPost2010PropOp45
 70
     1
102
RTVSPost2010Prop46
 90
       50
102
RTVSPost2010PropOp46
 70
     1
102
RTVSPost2010Prop47
 90
       50
102
RTVSPost2010PropOp47
 70
     1
102
RTVSPost2010Prop48
 90
       50
102
RTVSPost2010PropOp48
 70
     1
102
RTVSPost2010Prop49
280
     0
102
RTVSPost2010PropOp49
 70
     1
102
RTVSPost2010Prop50
 90
       50
102
RTVSPost2010PropOp50
 70
     1
102
RTVSPost2010Prop51ColorIndex
 90
      256
102
RTVSPost2010Prop51ColorRGB
 90
-16777216
102
RTVSPost2010PropOp51
 70
     0
102
RTVSPost2010Prop52
140
1.0
102
RTVSPost2010PropOp52
 70
     0
102
RTVSPost2010Prop53
 90
        2
102
RTVSPost2010PropOp53
 70
     1
102
RTVSPost2010Prop54
  1
strokes_ogs.tif
102
RTVSPost2010PropOp54
 70
     1
102
RTVSPost2010Prop55
280
     0
102
RTVSPost2010PropOp55
 70
     1
102
RTVSPost2010Prop56
140
1.0
102
RTVSPost2010PropOp56
 70
     1
102
RTVSPost2010Prop57
140
1.0
102
RTVSPost2010PropOp57
 70
     1
102
RTVSPropertyOp0
 70
     1
102
RTVSPropertyOp1
 70
     1
102
RTVSPropertyOp2
 70
     1
102
RTVSPropertyOp3
 70
     1
102
RTVSPropertyOp4
 70
     1
102
RTVSPropertyOp5
 70
     1
102
RTVSPropertyOp6
 70
     1
102
RTVSPropertyOp7
 70
     1
102
RTVSPropertyOp8
 70
     1
102
RTVSPropertyOp9
 70
     1
102
RTVSPropertyOp10
 70
     1
102
RTVSPropertyOp11
 70
     1
102
RTVSPropertyOp12
 70
     1
102
RTVSPropertyOp13
 70
     1
102
RTVSPropertyOp14
 70
     1
102
RTVSPropertyOp15
 70
     1
102
RTVSPropertyOp16
 70
     1
102
RTVSPropertyOp17
 70
     1
102
RTVSPropertyOp18
 70
     1
102
RTVSPropertyOp19
 70
     1
102
RTVSPropertyOp20
 70
     1
102
RTVSPropertyOp21
 70
     1
102
RTVSPropertyOp22
 70
     1
102
RTVSPropertyOp23
 70
     1
102
RTVSPropertyOp24
 70
     1
102
RTVSPropertyOp25
 70
     1
102
RTVSPropertyOp26
 70
     1
102
RTVSPropertyOp27
 70
     1
102
RTVSPropertyOp28
 70
     1
102
RTVSPropertyOp29
 70
     1
102
RTVSPropertyOp30
 70
     1
102
RTVSPropertyOp31
 70
     1
102
RTVSPropertyOp32
 70
     1
102
RTVSPropertyOp33
 70
     1
102
RTVSPropertyOp34
 70
     1
102
RTVSPropertyOp35
 70
     1
102
RTVSPropertyOp36
 70
     1
102
RTVSPropertyOp37
 70
     1
102
RTVSPropertyOp38
 70
     1
102
RTVSPropertyOp39
 70
     1
102
RTVSPropertyOp40
 70
     1
102
RTVSPropertyOp41
 70
     1
102
RTVSPropertyOp42
 70
     1
102
RTVSPropertyOp43
 70
     1
102
RTVSPropertyOp44
 70
     1
102
RTVSPropertyOp45
 70
     1
102
RTVSPropertyOp46
 70
     1
102
RTVSPropertyOp47
 70
     1
102
RTVSPropertyOp48
 70
     1
102
RTVSPropertyOp49
 70
     1
102
RTVSPropertyOp50
 70
     1
102
RTVSPropertyOp51
 70
     0
102
RTVSPropertyOp52
 70
     0
102
RTVSPropertyOp53
 70
     1
102
RTVSPropertyOp54
 70
     1
102
RTVSPropertyOp55
 70
     1
102
RTVSPropertyOp56
 70
     1
102
RTVSPropertyOp57
 70
     1
102
RTVSPropertyOp58
 70
     1
102
RTVSPropertyOp59
 70
     1
102
RTVSPropertyOp60
 70
     1
102
RTVSPropertyOp61
 70
     1
102
RTVSPropertyOp62
 70
     1
  0
XRECORD
  5
363
102
{ACAD_REACTORS
330
362
102
}
330
362
100
AcDbXrecord
280
     1
102
RTVSPost2010Prop28
280
     0
102
RTVSPost2010PropOp28
 70
     1
102
RTVSPost2010Prop29
280
     1
102
RTVSPost2010PropOp29
 70
     1
102
RTVSPost2010Prop30
280
     1
102
RTVSPost2010PropOp30
 70
     1
102
RTVSPost2010Prop31
280
     0
102
RTVSPost2010PropOp31
 70
     1
102
RTVSPost2010Prop32
280
     0
102
RTVSPost2010PropOp32
 70
     1
102
RTVSPost2010Prop33
280
     0
102
RTVSPost2010PropOp33
 70
     1
102
RTVSPost2010Prop34
280
     0
102
RTVSPost2010PropOp34
 70
     1
102
RTVSPost2010Prop35
280
     0
102
RTVSPost2010PropOp35
 70
     1
102
RTVSPost2010Prop36
280
     0
102
RTVSPost2010PropOp36
 70
     1
102
RTVSPost2010Prop37
 90
       50
102
RTVSPost2010PropOp37
 70
     1
102
RTVSPost2010Prop38
140
0.0
102
RTVSPost2010PropOp38
 70
     1
102
RTVSPost2010Prop39
140
1.0
102
RTVSPost2010PropOp39
 70
     1
102
RTVSPost2010Prop40
 90
        0
102
RTVSPost2010PropOp40
 70
     1
102
RTVSPost2010Prop41ColorIndex
 90
       18
102
RTVSPost2010Prop41ColorRGB
 90
        0
102
RTVSPost2010PropOp41
 70
     1
102
RTVSPost2010Prop42
 90
       50
102
RTVSPost2010PropOp42
 70
     1
102
RTVSPost2010Prop43
 90
        3
102
RTVSPost2010PropOp43
 70
     1
102
RTVSPost2010Prop44ColorIndex
 90
        5
102
RTVSPost2010Prop44ColorRGB
 90
      255
102
RTVSPost2010PropOp44
 70
     1
102
RTVSPost2010Prop45
280
     0
102
RTVSPost2010PropOp45
 70
     1
102
RTVSPost2010Prop46
 90
       50
102
RTVSPost2010PropOp46
 70
     1
102
RTVSPost2010Prop47
 90
       50
102
RTVSPost2010PropOp47
 70
     1
102
RTVSPost2010Prop48
 90
       50
102
RTVSPost2010PropOp48
 70
     1
102
RTVSPost2010Prop49
280
     0
102
RTVSPost2010PropOp49
 70
     1
102
RTVSPost2010Prop50
 90
       50
102
RTVSPost2010PropOp50
 70
     1
102
RTVSPost2010Prop51ColorIndex
 90
      256
102
RTVSPost2010Prop51ColorRGB
 90
-16777216
102
RTVSPost2010PropOp51
 70
     0
102
RTVSPost2010Prop52
140
1.0
102
RTVSPost2010PropOp52
 70
     0
102
RTVSPost2010Prop53
 90
        2
102
RTVSPost2010PropOp53
 70
     1
102
RTVSPost2010Prop54
  1
strokes_ogs.tif
102
RTVSPost2010PropOp54
 70
     1
102
RTVSPost2010Prop55
280
     0
102
RTVSPost2010PropOp55
 70
     1
102
RTVSPost2010Prop56
140
1.0
102
RTVSPost2010PropOp56
 70
     1
102
RTVSPost2010Prop57
140
1.0
102
RTVSPost2010PropOp57
 70
     1
102
RTVSPropertyOp0
 70
     1
102
RTVSPropertyOp1
 70
     1
102
RTVSPropertyOp2
 70
     1
102
RTVSPropertyOp3
 70
     1
102
RTVSPropertyOp4
 70
     1
102
RTVSPropertyOp5
 70
     1
102
RTVSPropertyOp6
 70
     1
102
RTVSPropertyOp7
 70
     1
102
RTVSPropertyOp8
 70
     1
102
RTVSPropertyOp9
 70
     1
102
RTVSPropertyOp10
 70
     1
102
RTVSPropertyOp11
 70
     1
102
RTVSPropertyOp12
 70
     1
102
RTVSPropertyOp13
 70
     1
102
RTVSPropertyOp14
 70
     1
102
RTVSPropertyOp15
 70
     1
102
RTVSPropertyOp16
 70
     1
102
RTVSPropertyOp17
 70
     1
102
RTVSPropertyOp18
 70
     1
102
RTVSPropertyOp19
 70
     1
102
RTVSPropertyOp20
 70
     1
102
RTVSPropertyOp21
 70
     1
102
RTVSPropertyOp22
 70
     1
102
RTVSPropertyOp23
 70
     1
102
RTVSPropertyOp24
 70
     1
102
RTVSPropertyOp25
 70
     1
102
RTVSPropertyOp26
 70
     1
102
RTVSPropertyOp27
 70
     1
102
RTVSPropertyOp28
 70
     1
102
RTVSPropertyOp29
 70
     1
102
RTVSPropertyOp30
 70
     1
102
RTVSPropertyOp31
 70
     1
102
RTVSPropertyOp32
 70
     1
102
RTVSPropertyOp33
 70
     1
102
RTVSPropertyOp34
 70
     1
102
RTVSPropertyOp35
 70
     1
102
RTVSPropertyOp36
 70
     1
102
RTVSPropertyOp37
 70
     1
102
RTVSPropertyOp38
 70
     1
102
RTVSPropertyOp39
 70
     1
102
RTVSPropertyOp40
 70
     1
102
RTVSPropertyOp41
 70
     1
102
RTVSPropertyOp42
 70
     1
102
RTVSPropertyOp43
 70
     1
102
RTVSPropertyOp44
 70
     1
102
RTVSPropertyOp45
 70
     1
102
RTVSPropertyOp46
 70
     1
102
RTVSPropertyOp47
 70
     1
102
RTVSPropertyOp48
 70
     1
102
RTVSPropertyOp49
 70
     1
102
RTVSPropertyOp50
 70
     1
102
RTVSPropertyOp51
 70
     0
102
RTVSPropertyOp52
 70
     0
102
RTVSPropertyOp53
 70
     1
102
RTVSPropertyOp54
 70
     1
102
RTVSPropertyOp55
 70
     1
102
RTVSPropertyOp56
 70
     1
102
RTVSPropertyOp57
 70
     1
102
RTVSPropertyOp58
 70
     1
102
RTVSPropertyOp59
 70
     1
102
RTVSPropertyOp60
 70
     1
102
RTVSPropertyOp61
 70
     1
102
RTVSPropertyOp62
 70
     1
  0
XRECORD
  5
35D
102
{ACAD_REACTORS
330
35C
102
}
330
35C
100
AcDbXrecord
280
     1
102
RTVSPost2010Prop28
280
     0
102
RTVSPost2010PropOp28
 70
     1
102
RTVSPost2010Prop29
280
     1
102
RTVSPost2010PropOp29
 70
     1
102
RTVSPost2010Prop30
280
     1
102
RTVSPost2010PropOp30
 70
     1
102
RTVSPost2010Prop31
280
     0
102
RTVSPost2010PropOp31
 70
     1
102
RTVSPost2010Prop32
280
     0
102
RTVSPost2010PropOp32
 70
     1
102
RTVSPost2010Prop33
280
     0
102
RTVSPost2010PropOp33
 70
     1
102
RTVSPost2010Prop34
280
     0
102
RTVSPost2010PropOp34
 70
     1
102
RTVSPost2010Prop35
280
     0
102
RTVSPost2010PropOp35
 70
     1
102
RTVSPost2010Prop36
280
     0
102
RTVSPost2010PropOp36
 70
     1
102
RTVSPost2010Prop37
 90
       50
102
RTVSPost2010PropOp37
 70
     1
102
RTVSPost2010Prop38
140
0.0
102
RTVSPost2010PropOp38
 70
     1
102
RTVSPost2010Prop39
140
1.0
102
RTVSPost2010PropOp39
 70
     1
102
RTVSPost2010Prop40
 90
        0
102
RTVSPost2010PropOp40
 70
     1
102
RTVSPost2010Prop41ColorIndex
 90
       18
102
RTVSPost2010Prop41ColorRGB
 90
        0
102
RTVSPost2010PropOp41
 70
     1
102
RTVSPost2010Prop42
 90
       50
102
RTVSPost2010PropOp42
 70
     1
102
RTVSPost2010Prop43
 90
        3
102
RTVSPost2010PropOp43
 70
     1
102
RTVSPost2010Prop44ColorIndex
 90
        5
102
RTVSPost2010Prop44ColorRGB
 90
      255
102
RTVSPost2010PropOp44
 70
     1
102
RTVSPost2010Prop45
280
     0
102
RTVSPost2010PropOp45
 70
     1
102
RTVSPost2010Prop46
 90
       50
102
RTVSPost2010PropOp46
 70
     1
102
RTVSPost2010Prop47
 90
       50
102
RTVSPost2010PropOp47
 70
     1
102
RTVSPost2010Prop48
 90
       50
102
RTVSPost2010PropOp48
 70
     1
102
RTVSPost2010Prop49
280
     0
102
RTVSPost2010PropOp49
 70
     1
102
RTVSPost2010Prop50
 90
       50
102
RTVSPost2010PropOp50
 70
     1
102
RTVSPost2010Prop51ColorIndex
 90
      256
102
RTVSPost2010Prop51ColorRGB
 90
-16777216
102
RTVSPost2010PropOp51
 70
     0
102
RTVSPost2010Prop52
140
1.0
102
RTVSPost2010PropOp52
 70
     0
102
RTVSPost2010Prop53
 90
        2
102
RTVSPost2010PropOp53
 70
     1
102
RTVSPost2010Prop54
  1
strokes_ogs.tif
102
RTVSPost2010PropOp54
 70
     1
102
RTVSPost2010Prop55
280
     0
102
RTVSPost2010PropOp55
 70
     1
102
RTVSPost2010Prop56
140
1.0
102
RTVSPost2010PropOp56
 70
     1
102
RTVSPost2010Prop57
140
1.0
102
RTVSPost2010PropOp57
 70
     1
102
RTVSPropertyOp0
 70
     1
102
RTVSPropertyOp1
 70
     1
102
RTVSPropertyOp2
 70
     1
102
RTVSPropertyOp3
 70
     1
102
RTVSPropertyOp4
 70
     1
102
RTVSPropertyOp5
 70
     1
102
RTVSPropertyOp6
 70
     1
102
RTVSPropertyOp7
 70
     1
102
RTVSPropertyOp8
 70
     1
102
RTVSPropertyOp9
 70
     1
102
RTVSPropertyOp10
 70
     1
102
RTVSPropertyOp11
 70
     1
102
RTVSPropertyOp12
 70
     1
102
RTVSPropertyOp13
 70
     1
102
RTVSPropertyOp14
 70
     1
102
RTVSPropertyOp15
 70
     1
102
RTVSPropertyOp16
 70
     1
102
RTVSPropertyOp17
 70
     1
102
RTVSPropertyOp18
 70
     1
102
RTVSPropertyOp19
 70
     1
102
RTVSPropertyOp20
 70
     1
102
RTVSPropertyOp21
 70
     1
102
RTVSPropertyOp22
 70
     1
102
RTVSPropertyOp23
 70
     1
102
RTVSPropertyOp24
 70
     1
102
RTVSPropertyOp25
 70
     1
102
RTVSPropertyOp26
 70
     1
102
RTVSPropertyOp27
 70
     1
102
RTVSPropertyOp28
 70
     1
102
RTVSPropertyOp29
 70
     1
102
RTVSPropertyOp30
 70
     1
102
RTVSPropertyOp31
 70
     1
102
RTVSPropertyOp32
 70
     1
102
RTVSPropertyOp33
 70
     1
102
RTVSPropertyOp34
 70
     1
102
RTVSPropertyOp35
 70
     1
102
RTVSPropertyOp36
 70
     1
102
RTVSPropertyOp37
 70
     1
102
RTVSPropertyOp38
 70
     1
102
RTVSPropertyOp39
 70
     1
102
RTVSPropertyOp40
 70
     1
102
RTVSPropertyOp41
 70
     1
102
RTVSPropertyOp42
 70
     1
102
RTVSPropertyOp43
 70
     1
102
RTVSPropertyOp44
 70
     1
102
RTVSPropertyOp45
 70
     1
102
RTVSPropertyOp46
 70
     1
102
RTVSPropertyOp47
 70
     1
102
RTVSPropertyOp48
 70
     1
102
RTVSPropertyOp49
 70
     1
102
RTVSPropertyOp50
 70
     1
102
RTVSPropertyOp51
 70
     0
102
RTVSPropertyOp52
 70
     0
102
RTVSPropertyOp53
 70
     1
102
RTVSPropertyOp54
 70
     1
102
RTVSPropertyOp55
 70
     1
102
RTVSPropertyOp56
 70
     1
102
RTVSPropertyOp57
 70
     1
102
RTVSPropertyOp58
 70
     1
102
RTVSPropertyOp59
 70
     1
102
RTVSPropertyOp60
 70
     1
102
RTVSPropertyOp61
 70
     1
102
RTVSPropertyOp62
 70
     1
  0
XRECORD
  5
35F
102
{ACAD_REACTORS
330
35E
102
}
330
35E
100
AcDbXrecord
280
     1
102
RTVSPost2010Prop28
280
     0
102
RTVSPost2010PropOp28
 70
     1
102
RTVSPost2010Prop29
280
     1
102
RTVSPost2010PropOp29
 70
     1
102
RTVSPost2010Prop30
280
     1
102
RTVSPost2010PropOp30
 70
     1
102
RTVSPost2010Prop31
280
     0
102
RTVSPost2010PropOp31
 70
     1
102
RTVSPost2010Prop32
280
     0
102
RTVSPost2010PropOp32
 70
     1
102
RTVSPost2010Prop33
280
     0
102
RTVSPost2010PropOp33
 70
     1
102
RTVSPost2010Prop34
280
     0
102
RTVSPost2010PropOp34
 70
     1
102
RTVSPost2010Prop35
280
     0
102
RTVSPost2010PropOp35
 70
     1
102
RTVSPost2010Prop36
280
     0
102
RTVSPost2010PropOp36
 70
     1
102
RTVSPost2010Prop37
 90
       50
102
RTVSPost2010PropOp37
 70
     1
102
RTVSPost2010Prop38
140
0.0
102
RTVSPost2010PropOp38
 70
     1
102
RTVSPost2010Prop39
140
1.0
102
RTVSPost2010PropOp39
 70
     1
102
RTVSPost2010Prop40
 90
        0
102
RTVSPost2010PropOp40
 70
     1
102
RTVSPost2010Prop41ColorIndex
 90
       18
102
RTVSPost2010Prop41ColorRGB
 90
        0
102
RTVSPost2010PropOp41
 70
     1
102
RTVSPost2010Prop42
 90
       50
102
RTVSPost2010PropOp42
 70
     1
102
RTVSPost2010Prop43
 90
        3
102
RTVSPost2010PropOp43
 70
     1
102
RTVSPost2010Prop44ColorIndex
 90
        5
102
RTVSPost2010Prop44ColorRGB
 90
      255
102
RTVSPost2010PropOp44
 70
     1
102
RTVSPost2010Prop45
280
     0
102
RTVSPost2010PropOp45
 70
     1
102
RTVSPost2010Prop46
 90
       50
102
RTVSPost2010PropOp46
 70
     1
102
RTVSPost2010Prop47
 90
       50
102
RTVSPost2010PropOp47
 70
     1
102
RTVSPost2010Prop48
 90
       50
102
RTVSPost2010PropOp48
 70
     1
102
RTVSPost2010Prop49
280
     0
102
RTVSPost2010PropOp49
 70
     1
102
RTVSPost2010Prop50
 90
       50
102
RTVSPost2010PropOp50
 70
     1
102
RTVSPost2010Prop51ColorIndex
 90
      256
102
RTVSPost2010Prop51ColorRGB
 90
-16777216
102
RTVSPost2010PropOp51
 70
     0
102
RTVSPost2010Prop52
140
1.0
102
RTVSPost2010PropOp52
 70
     0
102
RTVSPost2010Prop53
 90
        2
102
RTVSPost2010PropOp53
 70
     1
102
RTVSPost2010Prop54
  1
strokes_ogs.tif
102
RTVSPost2010PropOp54
 70
     1
102
RTVSPost2010Prop55
280
     0
102
RTVSPost2010PropOp55
 70
     1
102
RTVSPost2010Prop56
140
1.0
102
RTVSPost2010PropOp56
 70
     1
102
RTVSPost2010Prop57
140
1.0
102
RTVSPost2010PropOp57
 70
     1
102
RTVSPropertyOp0
 70
     1
102
RTVSPropertyOp1
 70
     1
102
RTVSPropertyOp2
 70
     1
102
RTVSPropertyOp3
 70
     1
102
RTVSPropertyOp4
 70
     1
102
RTVSPropertyOp5
 70
     1
102
RTVSPropertyOp6
 70
     1
102
RTVSPropertyOp7
 70
     1
102
RTVSPropertyOp8
 70
     1
102
RTVSPropertyOp9
 70
     1
102
RTVSPropertyOp10
 70
     1
102
RTVSPropertyOp11
 70
     1
102
RTVSPropertyOp12
 70
     1
102
RTVSPropertyOp13
 70
     1
102
RTVSPropertyOp14
 70
     1
102
RTVSPropertyOp15
 70
     1
102
RTVSPropertyOp16
 70
     1
102
RTVSPropertyOp17
 70
     1
102
RTVSPropertyOp18
 70
     1
102
RTVSPropertyOp19
 70
     1
102
RTVSPropertyOp20
 70
     1
102
RTVSPropertyOp21
 70
     1
102
RTVSPropertyOp22
 70
     1
102
RTVSPropertyOp23
 70
     1
102
RTVSPropertyOp24
 70
     1
102
RTVSPropertyOp25
 70
     1
102
RTVSPropertyOp26
 70
     1
102
RTVSPropertyOp27
 70
     1
102
RTVSPropertyOp28
 70
     1
102
RTVSPropertyOp29
 70
     1
102
RTVSPropertyOp30
 70
     1
102
RTVSPropertyOp31
 70
     1
102
RTVSPropertyOp32
 70
     1
102
RTVSPropertyOp33
 70
     1
102
RTVSPropertyOp34
 70
     1
102
RTVSPropertyOp35
 70
     1
102
RTVSPropertyOp36
 70
     1
102
RTVSPropertyOp37
 70
     1
102
RTVSPropertyOp38
 70
     1
102
RTVSPropertyOp39
 70
     1
102
RTVSPropertyOp40
 70
     1
102
RTVSPropertyOp41
 70
     1
102
RTVSPropertyOp42
 70
     1
102
RTVSPropertyOp43
 70
     1
102
RTVSPropertyOp44
 70
     1
102
RTVSPropertyOp45
 70
     1
102
RTVSPropertyOp46
 70
     1
102
RTVSPropertyOp47
 70
     1
102
RTVSPropertyOp48
 70
     1
102
RTVSPropertyOp49
 70
     1
102
RTVSPropertyOp50
 70
     1
102
RTVSPropertyOp51
 70
     0
102
RTVSPropertyOp52
 70
     0
102
RTVSPropertyOp53
 70
     1
102
RTVSPropertyOp54
 70
     1
102
RTVSPropertyOp55
 70
     1
102
RTVSPropertyOp56
 70
     1
102
RTVSPropertyOp57
 70
     1
102
RTVSPropertyOp58
 70
     1
102
RTVSPropertyOp59
 70
     1
102
RTVSPropertyOp60
 70
     1
102
RTVSPropertyOp61
 70
     1
102
RTVSPropertyOp62
 70
     1
  0
XRECORD
  5
355
102
{ACAD_REACTORS
330
354
102
}
330
354
100
AcDbXrecord
280
     1
102
RTVSPost2010Prop28
280
     0
102
RTVSPost2010PropOp28
 70
     1
102
RTVSPost2010Prop29
280
     1
102
RTVSPost2010PropOp29
 70
     1
102
RTVSPost2010Prop30
280
     1
102
RTVSPost2010PropOp30
 70
     1
102
RTVSPost2010Prop31
280
     0
102
RTVSPost2010PropOp31
 70
     1
102
RTVSPost2010Prop32
280
     0
102
RTVSPost2010PropOp32
 70
     1
102
RTVSPost2010Prop33
280
     0
102
RTVSPost2010PropOp33
 70
     1
102
RTVSPost2010Prop34
280
     0
102
RTVSPost2010PropOp34
 70
     1
102
RTVSPost2010Prop35
280
     0
102
RTVSPost2010PropOp35
 70
     1
102
RTVSPost2010Prop36
280
     0
102
RTVSPost2010PropOp36
 70
     1
102
RTVSPost2010Prop37
 90
       50
102
RTVSPost2010PropOp37
 70
     1
102
RTVSPost2010Prop38
140
0.0
102
RTVSPost2010PropOp38
 70
     1
102
RTVSPost2010Prop39
140
1.0
102
RTVSPost2010PropOp39
 70
     1
102
RTVSPost2010Prop40
 90
        0
102
RTVSPost2010PropOp40
 70
     1
102
RTVSPost2010Prop41ColorIndex
 90
       18
102
RTVSPost2010Prop41ColorRGB
 90
        0
102
RTVSPost2010PropOp41
 70
     1
102
RTVSPost2010Prop42
 90
       50
102
RTVSPost2010PropOp42
 70
     1
102
RTVSPost2010Prop43
 90
        3
102
RTVSPost2010PropOp43
 70
     1
102
RTVSPost2010Prop44ColorIndex
 90
        5
102
RTVSPost2010Prop44ColorRGB
 90
      255
102
RTVSPost2010PropOp44
 70
     1
102
RTVSPost2010Prop45
280
     0
102
RTVSPost2010PropOp45
 70
     1
102
RTVSPost2010Prop46
 90
       50
102
RTVSPost2010PropOp46
 70
     1
102
RTVSPost2010Prop47
 90
       50
102
RTVSPost2010PropOp47
 70
     1
102
RTVSPost2010Prop48
 90
       50
102
RTVSPost2010PropOp48
 70
     1
102
RTVSPost2010Prop49
280
     0
102
RTVSPost2010PropOp49
 70
     1
102
RTVSPost2010Prop50
 90
       50
102
RTVSPost2010PropOp50
 70
     1
102
RTVSPost2010Prop51ColorIndex
 90
      256
102
RTVSPost2010Prop51ColorRGB
 90
-16777216
102
RTVSPost2010PropOp51
 70
     0
102
RTVSPost2010Prop52
140
1.0
102
RTVSPost2010PropOp52
 70
     0
102
RTVSPost2010Prop53
 90
        2
102
RTVSPost2010PropOp53
 70
     1
102
RTVSPost2010Prop54
  1
strokes_ogs.tif
102
RTVSPost2010PropOp54
 70
     1
102
RTVSPost2010Prop55
280
     0
102
RTVSPost2010PropOp55
 70
     1
102
RTVSPost2010Prop56
140
1.0
102
RTVSPost2010PropOp56
 70
     1
102
RTVSPost2010Prop57
140
1.0
102
RTVSPost2010PropOp57
 70
     1
102
RTVSPropertyOp0
 70
     1
102
RTVSPropertyOp1
 70
     1
102
RTVSPropertyOp2
 70
     1
102
RTVSPropertyOp3
 70
     1
102
RTVSPropertyOp4
 70
     1
102
RTVSPropertyOp5
 70
     1
102
RTVSPropertyOp6
 70
     1
102
RTVSPropertyOp7
 70
     1
102
RTVSPropertyOp8
 70
     1
102
RTVSPropertyOp9
 70
     1
102
RTVSPropertyOp10
 70
     1
102
RTVSPropertyOp11
 70
     1
102
RTVSPropertyOp12
 70
     1
102
RTVSPropertyOp13
 70
     1
102
RTVSPropertyOp14
 70
     1
102
RTVSPropertyOp15
 70
     1
102
RTVSPropertyOp16
 70
     1
102
RTVSPropertyOp17
 70
     1
102
RTVSPropertyOp18
 70
     1
102
RTVSPropertyOp19
 70
     1
102
RTVSPropertyOp20
 70
     1
102
RTVSPropertyOp21
 70
     1
102
RTVSPropertyOp22
 70
     1
102
RTVSPropertyOp23
 70
     1
102
RTVSPropertyOp24
 70
     1
102
RTVSPropertyOp25
 70
     1
102
RTVSPropertyOp26
 70
     1
102
RTVSPropertyOp27
 70
     1
102
RTVSPropertyOp28
 70
     1
102
RTVSPropertyOp29
 70
     1
102
RTVSPropertyOp30
 70
     1
102
RTVSPropertyOp31
 70
     1
102
RTVSPropertyOp32
 70
     1
102
RTVSPropertyOp33
 70
     1
102
RTVSPropertyOp34
 70
     1
102
RTVSPropertyOp35
 70
     1
102
RTVSPropertyOp36
 70
     1
102
RTVSPropertyOp37
 70
     1
102
RTVSPropertyOp38
 70
     1
102
RTVSPropertyOp39
 70
     1
102
RTVSPropertyOp40
 70
     1
102
RTVSPropertyOp41
 70
     1
102
RTVSPropertyOp42
 70
     1
102
RTVSPropertyOp43
 70
     1
102
RTVSPropertyOp44
 70
     1
102
RTVSPropertyOp45
 70
     1
102
RTVSPropertyOp46
 70
     1
102
RTVSPropertyOp47
 70
     1
102
RTVSPropertyOp48
 70
     1
102
RTVSPropertyOp49
 70
     1
102
RTVSPropertyOp50
 70
     1
102
RTVSPropertyOp51
 70
     0
102
RTVSPropertyOp52
 70
     0
102
RTVSPropertyOp53
 70
     1
102
RTVSPropertyOp54
 70
     1
102
RTVSPropertyOp55
 70
     1
102
RTVSPropertyOp56
 70
     1
102
RTVSPropertyOp57
 70
     1
102
RTVSPropertyOp58
 70
     1
102
RTVSPropertyOp59
 70
     1
102
RTVSPropertyOp60
 70
     1
102
RTVSPropertyOp61
 70
     1
102
RTVSPropertyOp62
 70
     1
  0
XRECORD
  5
349
102
{ACAD_REACTORS
330
348
102
}
330
348
100
AcDbXrecord
280
     1
102
RTVSPost2010Prop28
280
     0
102
RTVSPost2010PropOp28
 70
     1
102
RTVSPost2010Prop29
280
     1
102
RTVSPost2010PropOp29
 70
     1
102
RTVSPost2010Prop30
280
     1
102
RTVSPost2010PropOp30
 70
     1
102
RTVSPost2010Prop31
280
     0
102
RTVSPost2010PropOp31
 70
     1
102
RTVSPost2010Prop32
280
     0
102
RTVSPost2010PropOp32
 70
     1
102
RTVSPost2010Prop33
280
     0
102
RTVSPost2010PropOp33
 70
     1
102
RTVSPost2010Prop34
280
     0
102
RTVSPost2010PropOp34
 70
     1
102
RTVSPost2010Prop35
280
     0
102
RTVSPost2010PropOp35
 70
     1
102
RTVSPost2010Prop36
280
     0
102
RTVSPost2010PropOp36
 70
     1
102
RTVSPost2010Prop37
 90
       50
102
RTVSPost2010PropOp37
 70
     1
102
RTVSPost2010Prop38
140
0.0
102
RTVSPost2010PropOp38
 70
     1
102
RTVSPost2010Prop39
140
1.0
102
RTVSPost2010PropOp39
 70
     1
102
RTVSPost2010Prop40
 90
        0
102
RTVSPost2010PropOp40
 70
     1
102
RTVSPost2010Prop41ColorIndex
 90
       18
102
RTVSPost2010Prop41ColorRGB
 90
        0
102
RTVSPost2010PropOp41
 70
     1
102
RTVSPost2010Prop42
 90
       50
102
RTVSPost2010PropOp42
 70
     1
102
RTVSPost2010Prop43
 90
        3
102
RTVSPost2010PropOp43
 70
     1
102
RTVSPost2010Prop44ColorIndex
 90
        5
102
RTVSPost2010Prop44ColorRGB
 90
      255
102
RTVSPost2010PropOp44
 70
     1
102
RTVSPost2010Prop45
280
     0
102
RTVSPost2010PropOp45
 70
     1
102
RTVSPost2010Prop46
 90
       50
102
RTVSPost2010PropOp46
 70
     1
102
RTVSPost2010Prop47
 90
       50
102
RTVSPost2010PropOp47
 70
     1
102
RTVSPost2010Prop48
 90
       50
102
RTVSPost2010PropOp48
 70
     1
102
RTVSPost2010Prop49
280
     0
102
RTVSPost2010PropOp49
 70
     1
102
RTVSPost2010Prop50
 90
       50
102
RTVSPost2010PropOp50
 70
     1
102
RTVSPost2010Prop51ColorIndex
 90
      256
102
RTVSPost2010Prop51ColorRGB
 90
-16777216
102
RTVSPost2010PropOp51
 70
     0
102
RTVSPost2010Prop52
140
1.0
102
RTVSPost2010PropOp52
 70
     0
102
RTVSPost2010Prop53
 90
        2
102
RTVSPost2010PropOp53
 70
     1
102
RTVSPost2010Prop54
  1
strokes_ogs.tif
102
RTVSPost2010PropOp54
 70
     1
102
RTVSPost2010Prop55
280
     0
102
RTVSPost2010PropOp55
 70
     1
102
RTVSPost2010Prop56
140
1.0
102
RTVSPost2010PropOp56
 70
     1
102
RTVSPost2010Prop57
140
1.0
102
RTVSPost2010PropOp57
 70
     1
102
RTVSPropertyOp0
 70
     1
102
RTVSPropertyOp1
 70
     1
102
RTVSPropertyOp2
 70
     1
102
RTVSPropertyOp3
 70
     1
102
RTVSPropertyOp4
 70
     1
102
RTVSPropertyOp5
 70
     1
102
RTVSPropertyOp6
 70
     1
102
RTVSPropertyOp7
 70
     1
102
RTVSPropertyOp8
 70
     1
102
RTVSPropertyOp9
 70
     1
102
RTVSPropertyOp10
 70
     1
102
RTVSPropertyOp11
 70
     1
102
RTVSPropertyOp12
 70
     1
102
RTVSPropertyOp13
 70
     1
102
RTVSPropertyOp14
 70
     1
102
RTVSPropertyOp15
 70
     1
102
RTVSPropertyOp16
 70
     1
102
RTVSPropertyOp17
 70
     1
102
RTVSPropertyOp18
 70
     1
102
RTVSPropertyOp19
 70
     1
102
RTVSPropertyOp20
 70
     1
102
RTVSPropertyOp21
 70
     1
102
RTVSPropertyOp22
 70
     1
102
RTVSPropertyOp23
 70
     1
102
RTVSPropertyOp24
 70
     1
102
RTVSPropertyOp25
 70
     1
102
RTVSPropertyOp26
 70
     1
102
RTVSPropertyOp27
 70
     1
102
RTVSPropertyOp28
 70
     1
102
RTVSPropertyOp29
 70
     1
102
RTVSPropertyOp30
 70
     1
102
RTVSPropertyOp31
 70
     1
102
RTVSPropertyOp32
 70
     1
102
RTVSPropertyOp33
 70
     1
102
RTVSPropertyOp34
 70
     1
102
RTVSPropertyOp35
 70
     1
102
RTVSPropertyOp36
 70
     1
102
RTVSPropertyOp37
 70
     1
102
RTVSPropertyOp38
 70
     1
102
RTVSPropertyOp39
 70
     1
102
RTVSPropertyOp40
 70
     1
102
RTVSPropertyOp41
 70
     1
102
RTVSPropertyOp42
 70
     1
102
RTVSPropertyOp43
 70
     1
102
RTVSPropertyOp44
 70
     1
102
RTVSPropertyOp45
 70
     1
102
RTVSPropertyOp46
 70
     1
102
RTVSPropertyOp47
 70
     1
102
RTVSPropertyOp48
 70
     1
102
RTVSPropertyOp49
 70
     1
102
RTVSPropertyOp50
 70
     1
102
RTVSPropertyOp51
 70
     0
102
RTVSPropertyOp52
 70
     0
102
RTVSPropertyOp53
 70
     1
102
RTVSPropertyOp54
 70
     1
102
RTVSPropertyOp55
 70
     1
102
RTVSPropertyOp56
 70
     1
102
RTVSPropertyOp57
 70
     1
102
RTVSPropertyOp58
 70
     1
102
RTVSPropertyOp59
 70
     1
102
RTVSPropertyOp60
 70
     1
102
RTVSPropertyOp61
 70
     1
102
RTVSPropertyOp62
 70
     1
  0
XRECORD
  5
361
102
{ACAD_REACTORS
330
360
102
}
330
360
100
AcDbXrecord
280
     1
102
RTVSPost2010Prop28
280
     0
102
RTVSPost2010PropOp28
 70
     1
102
RTVSPost2010Prop29
280
     1
102
RTVSPost2010PropOp29
 70
     1
102
RTVSPost2010Prop30
280
     1
102
RTVSPost2010PropOp30
 70
     1
102
RTVSPost2010Prop31
280
     0
102
RTVSPost2010PropOp31
 70
     1
102
RTVSPost2010Prop32
280
     0
102
RTVSPost2010PropOp32
 70
     1
102
RTVSPost2010Prop33
280
     0
102
RTVSPost2010PropOp33
 70
     1
102
RTVSPost2010Prop34
280
     0
102
RTVSPost2010PropOp34
 70
     1
102
RTVSPost2010Prop35
280
     0
102
RTVSPost2010PropOp35
 70
     1
102
RTVSPost2010Prop36
280
     0
102
RTVSPost2010PropOp36
 70
     1
102
RTVSPost2010Prop37
 90
       50
102
RTVSPost2010PropOp37
 70
     1
102
RTVSPost2010Prop38
140
0.0
102
RTVSPost2010PropOp38
 70
     1
102
RTVSPost2010Prop39
140
1.0
102
RTVSPost2010PropOp39
 70
     1
102
RTVSPost2010Prop40
 90
        0
102
RTVSPost2010PropOp40
 70
     1
102
RTVSPost2010Prop41ColorIndex
 90
       18
102
RTVSPost2010Prop41ColorRGB
 90
        0
102
RTVSPost2010PropOp41
 70
     1
102
RTVSPost2010Prop42
 90
       50
102
RTVSPost2010PropOp42
 70
     1
102
RTVSPost2010Prop43
 90
        3
102
RTVSPost2010PropOp43
 70
     1
102
RTVSPost2010Prop44ColorIndex
 90
        5
102
RTVSPost2010Prop44ColorRGB
 90
      255
102
RTVSPost2010PropOp44
 70
     1
102
RTVSPost2010Prop45
280
     0
102
RTVSPost2010PropOp45
 70
     1
102
RTVSPost2010Prop46
 90
       50
102
RTVSPost2010PropOp46
 70
     1
102
RTVSPost2010Prop47
 90
       50
102
RTVSPost2010PropOp47
 70
     1
102
RTVSPost2010Prop48
 90
       50
102
RTVSPost2010PropOp48
 70
     1
102
RTVSPost2010Prop49
280
     0
102
RTVSPost2010PropOp49
 70
     1
102
RTVSPost2010Prop50
 90
       50
102
RTVSPost2010PropOp50
 70
     1
102
RTVSPost2010Prop51ColorIndex
 90
      256
102
RTVSPost2010Prop51ColorRGB
 90
-16777216
102
RTVSPost2010PropOp51
 70
     0
102
RTVSPost2010Prop52
140
1.0
102
RTVSPost2010PropOp52
 70
     0
102
RTVSPost2010Prop53
 90
        2
102
RTVSPost2010PropOp53
 70
     1
102
RTVSPost2010Prop54
  1
strokes_ogs.tif
102
RTVSPost2010PropOp54
 70
     1
102
RTVSPost2010Prop55
280
     0
102
RTVSPost2010PropOp55
 70
     1
102
RTVSPost2010Prop56
140
1.0
102
RTVSPost2010PropOp56
 70
     1
102
RTVSPost2010Prop57
140
1.0
102
RTVSPost2010PropOp57
 70
     1
102
RTVSPropertyOp0
 70
     1
102
RTVSPropertyOp1
 70
     1
102
RTVSPropertyOp2
 70
     1
102
RTVSPropertyOp3
 70
     1
102
RTVSPropertyOp4
 70
     1
102
RTVSPropertyOp5
 70
     1
102
RTVSPropertyOp6
 70
     1
102
RTVSPropertyOp7
 70
     1
102
RTVSPropertyOp8
 70
     1
102
RTVSPropertyOp9
 70
     1
102
RTVSPropertyOp10
 70
     1
102
RTVSPropertyOp11
 70
     1
102
RTVSPropertyOp12
 70
     1
102
RTVSPropertyOp13
 70
     1
102
RTVSPropertyOp14
 70
     1
102
RTVSPropertyOp15
 70
     1
102
RTVSPropertyOp16
 70
     1
102
RTVSPropertyOp17
 70
     1
102
RTVSPropertyOp18
 70
     1
102
RTVSPropertyOp19
 70
     1
102
RTVSPropertyOp20
 70
     1
102
RTVSPropertyOp21
 70
     1
102
RTVSPropertyOp22
 70
     1
102
RTVSPropertyOp23
 70
     1
102
RTVSPropertyOp24
 70
     1
102
RTVSPropertyOp25
 70
     1
102
RTVSPropertyOp26
 70
     1
102
RTVSPropertyOp27
 70
     1
102
RTVSPropertyOp28
 70
     1
102
RTVSPropertyOp29
 70
     1
102
RTVSPropertyOp30
 70
     1
102
RTVSPropertyOp31
 70
     1
102
RTVSPropertyOp32
 70
     1
102
RTVSPropertyOp33
 70
     1
102
RTVSPropertyOp34
 70
     1
102
RTVSPropertyOp35
 70
     1
102
RTVSPropertyOp36
 70
     1
102
RTVSPropertyOp37
 70
     1
102
RTVSPropertyOp38
 70
     1
102
RTVSPropertyOp39
 70
     1
102
RTVSPropertyOp40
 70
     1
102
RTVSPropertyOp41
 70
     1
102
RTVSPropertyOp42
 70
     1
102
RTVSPropertyOp43
 70
     1
102
RTVSPropertyOp44
 70
     1
102
RTVSPropertyOp45
 70
     1
102
RTVSPropertyOp46
 70
     1
102
RTVSPropertyOp47
 70
     1
102
RTVSPropertyOp48
 70
     1
102
RTVSPropertyOp49
 70
     1
102
RTVSPropertyOp50
 70
     1
102
RTVSPropertyOp51
 70
     0
102
RTVSPropertyOp52
 70
     0
102
RTVSPropertyOp53
 70
     1
102
RTVSPropertyOp54
 70
     1
102
RTVSPropertyOp55
 70
     1
102
RTVSPropertyOp56
 70
     1
102
RTVSPropertyOp57
 70
     1
102
RTVSPropertyOp58
 70
     1
102
RTVSPropertyOp59
 70
     1
102
RTVSPropertyOp60
 70
     1
102
RTVSPropertyOp61
 70
     1
102
RTVSPropertyOp62
 70
     1
  0
ENDSEC
  0
EOF
