  0
SECTION
  2
HEADER
  9
$ACADVER
  1
AC1015
  9
$ACADMAINTVER
 70
    20
  9
$DWGCODEPAGE
  3
ANSI_932
  9
$INSBASE
 10
0.0
 20
0.0
 30
0.0
  9
$EXTMIN
 10
-2900.176988449154
 20
-2014.684977898438
 30
-0.0048042715336578
  9
$EXTMAX
 10
2900.17701545751
 20
1999.567671355126
 30
0.0000001099652422
  9
$LIMMIN
 10
0.0
 20
0.0
  9
$LIMMAX
 10
0.0
 20
0.0
  9
$ORTHOMODE
 70
     0
  9
$REGENMODE
 70
     1
  9
$FILLMODE
 70
     1
  9
$QTEXTMODE
 70
     0
  9
$MIRRTEXT
 70
     1
  9
$LTSCALE
 40
76.2
  9
$ATTMODE
 70
     1
  9
$TEXTSIZE
 40
0.0
  9
$TRACEWID
 40
1.0
  9
$TEXTSTYLE
  7
STANDARD
  9
$CLAYER
  8
DATA
  9
$CELTYPE
  6
ByLayer
  9
$CECOLOR
 62
   256
  9
$CELTSCALE
 40
1.0
  9
$DISPSILH
 70
     0
  9
$DIMSCALE
 40
1.0
  9
$DIMASZ
 40
0.18
  9
$DIMEXO
 40
0.0625
  9
$DIMDLI
 40
0.38
  9
$DIMRND
 40
0.0
  9
$DIMDLE
 40
0.0
  9
$DIMEXE
 40
0.18
  9
$DIMTP
 40
0.0
  9
$DIMTM
 40
0.0
  9
$DIMTXT
 40
0.18
  9
$DIMCEN
 40
0.09
  9
$DIMTSZ
 40
0.0
  9
$DIMTOL
 70
     0
  9
$DIMLIM
 70
     0
  9
$DIMTIH
 70
     1
  9
$DIMTOH
 70
     1
  9
$DIMSE1
 70
     0
  9
$DIMSE2
 70
     0
  9
$DIMTAD
 70
     0
  9
$DIMZIN
 70
     0
  9
$DIMBLK
  1

  9
$DIMASO
 70
     1
  9
$DIMSHO
 70
     1
  9
$DIMPOST
  1

  9
$DIMAPOST
  1

  9
$DIMALT
 70
     0
  9
$DIMALTD
 70
     2
  9
$DIMALTF
 40
25.4
  9
$DIMLFAC
 40
1.0
  9
$DIMTOFL
 70
     0
  9
$DIMTVP
 40
0.0
  9
$DIMTIX
 70
     0
  9
$DIMSOXD
 70
     0
  9
$DIMSAH
 70
     0
  9
$DIMBLK1
  1

  9
$DIMBLK2
  1

  9
$DIMSTYLE
  2
STANDARD
  9
$DIMCLRD
 70
     0
  9
$DIMCLRE
 70
     0
  9
$DIMCLRT
 70
     0
  9
$DIMTFAC
 40
1.0
  9
$DIMGAP
 40
0.09
  9
$DIMJUST
 70
     0
  9
$DIMSD1
 70
     0
  9
$DIMSD2
 70
     0
  9
$DIMTOLJ
 70
     1
  9
$DIMTZIN
 70
     0
  9
$DIMALTZ
 70
     0
  9
$DIMALTTZ
 70
     0
  9
$DIMUPT
 70
     0
  9
$DIMDEC
 70
     4
  9
$DIMTDEC
 70
     4
  9
$DIMALTU
 70
     2
  9
$DIMALTTD
 70
     2
  9
$DIMTXSTY
  7
STANDARD
  9
$DIMAUNIT
 70
     0
  9
$DIMADEC
 70
     0
  9
$DIMALTRND
 40
0.0
  9
$DIMAZIN
 70
     0
  9
$DIMDSEP
 70
    46
  9
$DIMATFIT
 70
     3
  9
$DIMFRAC
 70
     0
  9
$DIMLDRBLK
  1

  9
$DIMLUNIT
 70
     2
  9
$DIMLWD
 70
    -2
  9
$DIMLWE
 70
    -2
  9
$DIMTMOVE
 70
     0
  9
$LUNITS
 70
     2
  9
$LUPREC
 70
     4
  9
$SKETCHINC
 40
0.1
  9
$FILLETRAD
 40
0.0
  9
$AUNITS
 70
     0
  9
$AUPREC
 70
     0
  9
$MENU
  1
acad
  9
$ELEVATION
 40
0.0
  9
$PELEVATION
 40
0.0
  9
$THICKNESS
 40
0.0
  9
$LIMCHECK
 70
     0
  9
$CHAMFERA
 40
0.0
  9
$CHAMFERB
 40
0.0
  9
$CHAMFERC
 40
0.0
  9
$CHAMFERD
 40
0.0
  9
$SKPOLY
 70
     0
  9
$TDCREATE
 40
2457847.804131945
  9
$TDUCREATE
 40
2457847.429131945
  9
$TDUPDATE
 40
2457847.805833333
  9
$TDUUPDATE
 40
2457847.430833333
  9
$TDINDWG
 40
0.0003703704
  9
$TDUSRTIMER
 40
0.0003703704
  9
$USRTIMER
 70
     1
  9
$ANGBASE
 50
0.0
  9
$ANGDIR
 70
     0
  9
$PDMODE
 70
     1
  9
$PDSIZE
 40
-2.0
  9
$PLINEWID
 40
0.0
  9
$SPLFRAME
 70
     0
  9
$SPLINETYPE
 70
     6
  9
$SPLINESEGS
 70
     8
  9
$HANDSEED
  5
5B5
  9
$SURFTAB1
 70
     6
  9
$SURFTAB2
 70
     6
  9
$SURFTYPE
 70
     6
  9
$SURFU
 70
     6
  9
$SURFV
 70
     6
  9
$UCSBASE
  2

  9
$UCSNAME
  2

  9
$UCSORG
 10
0.0
 20
0.0
 30
0.0
  9
$UCSXDIR
 10
1.0
 20
0.0
 30
0.0
  9
$UCSYDIR
 10
0.0
 20
1.0
 30
0.0
  9
$UCSORTHOREF
  2

  9
$UCSORTHOVIEW
 70
     0
  9
$UCSORGTOP
 10
0.0
 20
0.0
 30
0.0
  9
$UCSORGBOTTOM
 10
0.0
 20
0.0
 30
0.0
  9
$UCSORGLEFT
 10
0.0
 20
0.0
 30
0.0
  9
$UCSORGRIGHT
 10
0.0
 20
0.0
 30
0.0
  9
$UCSORGFRONT
 10
0.0
 20
0.0
 30
0.0
  9
$UCSORGBACK
 10
0.0
 20
0.0
 30
0.0
  9
$PUCSBASE
  2

  9
$PUCSNAME
  2

  9
$PUCSORG
 10
0.0
 20
0.0
 30
0.0
  9
$PUCSXDIR
 10
1.0
 20
0.0
 30
0.0
  9
$PUCSYDIR
 10
0.0
 20
1.0
 30
0.0
  9
$PUCSORTHOREF
  2

  9
$PUCSORTHOVIEW
 70
     0
  9
$PUCSORGTOP
 10
0.0
 20
0.0
 30
0.0
  9
$PUCSORGBOTTOM
 10
0.0
 20
0.0
 30
0.0
  9
$PUCSORGLEFT
 10
0.0
 20
0.0
 30
0.0
  9
$PUCSORGRIGHT
 10
0.0
 20
0.0
 30
0.0
  9
$PUCSORGFRONT
 10
0.0
 20
0.0
 30
0.0
  9
$PUCSORGBACK
 10
0.0
 20
0.0
 30
0.0
  9
$USERI1
 70
     0
  9
$USERI2
 70
     0
  9
$USERI3
 70
     0
  9
$USERI4
 70
     0
  9
$USERI5
 70
     0
  9
$USERR1
 40
0.0
  9
$USERR2
 40
0.0
  9
$USERR3
 40
0.0
  9
$USERR4
 40
0.0
  9
$USERR5
 40
0.0
  9
$WORLDVIEW
 70
     1
  9
$SHADEDGE
 70
     3
  9
$SHADEDIF
 70
    70
  9
$TILEMODE
 70
     1
  9
$MAXACTVP
 70
    64
  9
$PINSBASE
 10
0.0
 20
0.0
 30
0.0
  9
$PLIMCHECK
 70
     0
  9
$PEXTMIN
 10
1.000000000000000E+20
 20
1.000000000000000E+20
 30
1.000000000000000E+20
  9
$PEXTMAX
 10
-1.000000000000000E+20
 20
-1.000000000000000E+20
 30
-1.000000000000000E+20
  9
$PLIMMIN
 10
0.0
 20
0.0
  9
$PLIMMAX
 10
12.0
 20
9.0
  9
$UNITMODE
 70
     0
  9
$VISRETAIN
 70
     0
  9
$PLINEGEN
 70
     1
  9
$PSLTSCALE
 70
     0
  9
$TREEDEPTH
 70
  3020
  9
$CMLSTYLE
  2
Standard
  9
$CMLJUST
 70
     0
  9
$CMLSCALE
 40
1.0
  9
$PROXYGRAPHICS
 70
     1
  9
$MEASUREMENT
 70
     0
  9
$CELWEIGHT
370
    -1
  9
$ENDCAPS
280
     0
  9
$JOINSTYLE
280
     0
  9
$LWDISPLAY
290
     0
  9
$INSUNITS
 70
     0
  9
$HYPERLINKBASE
  1

  9
$STYLESHEET
  1

  9
$XEDIT
290
     1
  9
$CEPSNTYPE
380
     0
  9
$PSTYLEMODE
290
     1
  9
$FINGERPRINTGUID
  2
{094EC9B3-DD73-584F-BDDB-43EA0B4AC3DA}
  9
$VERSIONGUID
  2
{06FA0A3B-59CB-4345-A025-65CF37A85971}
  9
$EXTNAMES
290
     1
  9
$PSVPSCALE
 40
0.0
  9
$OLESTARTUP
290
     0
  0
ENDSEC
  0
SECTION
  2
CLASSES
  0
CLASS
  1
ACDBDICTIONARYWDFLT
  2
AcDbDictionaryWithDefault
  3
ObjectDBX Classes
 90
        0
280
     0
281
     0
  0
CLASS
  1
MATERIAL
  2
AcDbMaterial
  3
ObjectDBX Classes
 90
     1153
280
     0
281
     0
  0
CLASS
  1
VISUALSTYLE
  2
AcDbVisualStyle
  3
ObjectDBX Classes
 90
     4095
280
     0
281
     0
  0
CLASS
  1
SCALE
  2
AcDbScale
  3
ObjectDBX Classes
 90
     1153
280
     0
281
     0
  0
CLASS
  1
TABLESTYLE
  2
AcDbTableStyle
  3
ObjectDBX Classes
 90
     4095
280
     0
281
     0
  0
CLASS
  1
MLEADERSTYLE
  2
AcDbMLeaderStyle
  3
ACDB_MLEADERSTYLE_CLASS
 90
     4095
280
     0
281
     0
  0
CLASS
  1
ACDBSECTIONVIEWSTYLE
  2
AcDbSectionViewStyle
  3
ObjectDBX Classes
 90
     1025
280
     0
281
     0
  0
CLASS
  1
ACDBDETAILVIEWSTYLE
  2
AcDbDetailViewStyle
  3
ObjectDBX Classes
 90
     1025
280
     0
281
     0
  0
CLASS
  1
DICTIONARYVAR
  2
AcDbDictionaryVar
  3
ObjectDBX Classes
 90
        0
280
     0
281
     0
  0
CLASS
  1
CELLSTYLEMAP
  2
AcDbCellStyleMap
  3
ObjectDBX Classes
 90
     1152
280
     0
281
     0
  0
CLASS
  1
ACDBPLACEHOLDER
  2
AcDbPlaceHolder
  3
ObjectDBX Classes
 90
        0
280
     0
281
     0
  0
CLASS
  1
LAYOUT
  2
AcDbLayout
  3
ObjectDBX Classes
 90
        0
280
     0
281
     0
  0
ENDSEC
  0
SECTION
  2
TABLES
  0
TABLE
  2
VPORT
  5
4DE
330
0
100
AcDbSymbolTable
 70
     1
  0
VPORT
  5
54A
330
4DE
100
AcDbSymbolTableRecord
100
AcDbViewportTableRecord
  2
*ACTIVE
 70
     0
 10
0.0
 20
0.0
 11
1.0
 21
1.0
 12
0.0000135041784688
 22
-3.531805672910195
 13
0.0
 23
0.0
 14
1.0
 24
1.0
 15
0.0
 25
0.0
 16
0.0
 26
0.0
 36
1.0
 17
0.0
 27
0.0
 37
0.0
 40
4028.373487012101
 41
2.345337026777469
 42
50.0
 43
0.0
 44
0.0
 50
0.0
 51
0.0
 71
     0
 72
  2000
 73
     1
 74
     1
 75
     0
 76
     0
 77
     0
 78
     0
281
     0
 65
     1
110
0.0
120
0.0
130
0.0
111
1.0
121
0.0
131
0.0
112
0.0
122
1.0
132
0.0
 79
     0
146
0.0
1001
ACAD_NAV_VCDISPLAY
1070
     3
  0
ENDTAB
  0
TABLE
  2
LTYPE
  5
4DB
330
0
100
AcDbSymbolTable
 70
    11
  0
LTYPE
  5
530
330
4DB
100
AcDbSymbolTableRecord
100
AcDbLinetypeTableRecord
  2
ByBlock
 70
     0
  3

 72
    65
 73
     0
 40
0.0
  0
LTYPE
  5
531
330
4DB
100
AcDbSymbolTableRecord
100
AcDbLinetypeTableRecord
  2
ByLayer
 70
     0
  3

 72
    65
 73
     0
 40
0.0
  0
LTYPE
  5
532
330
4DB
100
AcDbSymbolTableRecord
100
AcDbLinetypeTableRecord
  2
CONTINUOUS
 70
     0
  3
Solid line
 72
    65
 73
     0
 40
0.0
  0
LTYPE
  5
54B
330
4DB
100
AcDbSymbolTableRecord
100
AcDbLinetypeTableRecord
  2
STYLE_01
 70
     0
  3

 72
    65
 73
     2
 40
0.4166412353515625
 49
0.208282470703125
 74
     0
 49
-0.2083587646484375
 74
     0
  0
LTYPE
  5
550
330
4DB
100
AcDbSymbolTableRecord
100
AcDbLinetypeTableRecord
  2
STYLE_06
 70
     0
  3

 72
    65
 73
     4
 40
1.041641235351562
 49
0.625
 74
     0
 49
-0.208282470703125
 74
     0
 49
0.069427490234375
 74
     0
 49
-0.1389312744140625
 74
     0
  0
ENDTAB
  0
TABLE
  2
LAYER
  5
4D8
330
0
100
AcDbSymbolTable
 70
     5
  0
LAYER
  5
52A
102
{ACAD_XDICTIONARY
360
55F
102
}
330
4D8
100
AcDbSymbolTableRecord
100
AcDbLayerTableRecord
  2
0
 70
     0
 62
     7
  6
CONTINUOUS
370
    -3
390
4E5
  0
LAYER
  5
549
102
{ACAD_XDICTIONARY
360
561
102
}
330
4D8
100
AcDbSymbolTableRecord
100
AcDbLayerTableRecord
  2
DATA
 70
     0
 62
     7
  6
CONTINUOUS
370
    -3
390
4E5
  0
LAYER
  5
555
102
{ACAD_XDICTIONARY
360
563
102
}
330
4D8
100
AcDbSymbolTableRecord
100
AcDbLayerTableRecord
  2
HIBINO-BASE
 70
     0
 62
     7
  6
CONTINUOUS
370
    -3
390
4E5
  0
LAYER
  5
556
102
{ACAD_XDICTIONARY
360
565
102
}
330
4D8
100
AcDbSymbolTableRecord
100
AcDbLayerTableRecord
  2
SPEC
 70
     0
 62
     7
  6
CONTINUOUS
370
    -3
390
4E5
  0
LAYER
  5
557
102
{ACAD_XDICTIONARY
360
567
102
}
330
4D8
100
AcDbSymbolTableRecord
100
AcDbLayerTableRecord
  2
DIMNSIONS
 70
     0
 62
     7
  6
CONTINUOUS
370
    -3
390
4E5
  0
ENDTAB
  0
TABLE
  2
STYLE
  5
4D9
330
0
100
AcDbSymbolTable
 70
     3
  0
STYLE
  5
52B
330
4D9
100
AcDbSymbolTableRecord
100
AcDbTextStyleTableRecord
  2
STANDARD
 70
     0
 40
0.0
 41
1.0
 50
0.0
 71
     0
 42
0.0
  3
txt
  4
BIGFONT.SHX
  0
ENDTAB
  0
TABLE
  2
VIEW
  5
4DC
330
0
100
AcDbSymbolTable
 70
     0
  0
ENDTAB
  0
TABLE
  2
UCS
  5
4DD
330
0
100
AcDbSymbolTable
 70
     0
  0
ENDTAB
  0
TABLE
  2
APPID
  5
4DF
330
0
100
AcDbSymbolTable
 70
     4
  0
APPID
  5
52C
330
4DF
100
AcDbSymbolTableRecord
100
AcDbRegAppTableRecord
  2
ACAD
 70
     0
  0
APPID
  5
533
330
4DF
100
AcDbSymbolTableRecord
100
AcDbRegAppTableRecord
  2
AcadAnnotative
 70
     0
  0
APPID
  5
573
330
4DF
100
AcDbSymbolTableRecord
100
AcDbRegAppTableRecord
  2
ACAD_NAV_VCDISPLAY
 70
     0
  0
APPID
  5
5AC
330
4DF
100
AcDbSymbolTableRecord
100
AcDbRegAppTableRecord
  2
ACAD_MLEADERVER
 70
     0
  0
ENDTAB
  0
TABLE
  2
DIMSTYLE
  5
4E0
330
0
100
AcDbSymbolTable
 70
     2
100
AcDbDimStyleTable
 71
     0
  0
DIMSTYLE
105
52D
330
4E0
100
AcDbSymbolTableRecord
100
AcDbDimStyleTableRecord
  2
STANDARD
 70
     0
279
     2
340
52B
  0
ENDTAB
  0
TABLE
  2
BLOCK_RECORD
  5
4D7
330
0
100
AcDbSymbolTable
 70
     1
  0
BLOCK_RECORD
  5
545
330
4D7
100
AcDbSymbolTableRecord
100
AcDbBlockTableRecord
  2
*Model_Space
340
548
  0
BLOCK_RECORD
  5
541
330
4D7
100
AcDbSymbolTableRecord
100
AcDbBlockTableRecord
  2
*Paper_Space
340
544
  0
BLOCK_RECORD
  5
55C
330
4D7
100
AcDbSymbolTableRecord
100
AcDbBlockTableRecord
  2
____
340
0
102
{BLKREFS
331
4B9
102
}
  0
ENDTAB
  0
ENDSEC
  0
SECTION
  2
BLOCKS
  0
BLOCK
  5
546
330
545
100
AcDbEntity
  8
0
100
AcDbBlockBegin
  2
*Model_Space
 70
     0
 10
0.0
 20
0.0
 30
0.0
  3
*Model_Space
  1

  0
ENDBLK
  5
547
330
545
100
AcDbEntity
  8
0
100
AcDbBlockEnd
  0
BLOCK
  5
542
330
541
100
AcDbEntity
 67
     1
  8
0
100
AcDbBlockBegin
  2
*Paper_Space
 70
     0
 10
0.0
 20
0.0
 30
0.0
  3
*Paper_Space
  1

  0
ENDBLK
  5
543
330
541
100
AcDbEntity
 67
     1
  8
0
100
AcDbBlockEnd
  0
BLOCK
  5
2D
330
55C
100
AcDbEntity
  8
DATA
100
AcDbBlockBegin
  2
____
 70
     0
 10
0.0
 20
0.0
 30
0.0
  3
____
  1

  0
LINE
  5
2E
330
55C
100
AcDbEntity
  8
0
  6
Continuous
 62
     7
100
AcDbLine
 10
-1867.535087940254
 20
-237.4999999999997
 30
0.0
 11
-1835.535087940252
 21
-269.5
 31
0.0
  0
LINE
  5
2F
330
55C
100
AcDbEntity
  8
0
  6
Continuous
 62
     7
100
AcDbLine
 10
-1848.2
 20
-243.8
 30
0.0
 11
-1851.4
 21
-243.8
 31
0.0
  0
LINE
  5
30
330
55C
100
AcDbEntity
  8
0
  6
Continuous
 62
     7
100
AcDbLine
 10
-1874.5
 20
-243.8
 30
0.0
 11
-2525.8
 21
-243.8
 31
0.0
  0
LINE
  5
31
330
55C
100
AcDbEntity
  8
0
  6
Continuous
 62
     7
100
AcDbLine
 10
-1848.2
 20
-229.0999999999999
 30
0.0
 11
-1848.2
 21
-246.5
 31
0.0
  0
LINE
  5
32
330
55C
100
AcDbEntity
  8
0
  6
Continuous
 62
     7
100
AcDbLine
 10
-2550.200000000001
 20
-227.5
 30
0.0
 11
-1849.8
 21
-227.5
 31
0.0
  0
LINE
  5
33
330
55C
100
AcDbEntity
  8
0
  6
Continuous
 62
     7
100
AcDbLine
 10
-1867.5
 20
-227.5
 30
0.0
 11
-1867.5
 21
-236.7999999999999
 31
0.0
  0
LINE
  5
34
330
55C
100
AcDbEntity
  8
0
  6
Continuous
 62
     7
100
AcDbLine
 10
-2547.0
 20
-230.7
 30
0.0
 11
-1853.0
 21
-230.7
 31
0.0
  0
LINE
  5
35
330
55C
100
AcDbEntity
  8
0
  6
Continuous
 62
     7
100
AcDbLine
 10
-1851.4
 20
-232.2999999999999
 30
0.0
 11
-1851.4
 21
-253.3350879402535
 31
0.0
  0
LINE
  5
36
330
55C
100
AcDbEntity
  8
0
  6
Continuous
 62
     7
100
AcDbLine
 10
-1851.4
 20
-313.8817757009347
 30
0.0
 11
-1851.4
 21
-596.5000000000138
 31
0.0
  0
LINE
  5
37
330
55C
100
AcDbEntity
  8
0
  6
Continuous
 62
     7
100
AcDbLine
 10
-1864.5
 20
-227.5
 30
0.0
 11
-1864.5
 21
-230.7
 31
0.0
  0
ARC
  5
38
330
55C
100
AcDbEntity
  8
0
  6
Continuous
 62
     7
100
AcDbCircle
 10
-1853.0
 20
-232.2999999999999
 30
0.0
 40
1.600000000000363
100
AcDbArc
 50
0.0
 51
90.0
  0
ARC
  5
39
330
55C
100
AcDbEntity
  8
0
  6
Continuous
 62
     7
100
AcDbCircle
 10
-1849.8
 20
-229.0999999999999
 30
0.0
 40
1.599999999999909
100
AcDbArc
 50
0.0
 51
90.0
  0
LINE
  5
3A
330
55C
100
AcDbEntity
  8
0
  6
Continuous
 62
     7
100
AcDbLine
 10
-1848.2
 20
-596.5000000000138
 30
0.0
 11
-1851.4
 21
-596.5000000000138
 31
0.0
  0
LINE
  5
3B
330
55C
100
AcDbEntity
  8
0
  6
Continuous
 62
     7
100
AcDbLine
 10
-1841.9
 20
-547.5
 30
0.0
 11
-1851.4
 21
-547.5
 31
0.0
  0
LINE
  5
3C
330
55C
100
AcDbEntity
  8
0
  6
Continuous
 62
     7
100
AcDbLine
 10
-1848.2
 20
-547.5
 30
0.0
 11
-1848.2
 21
-596.5000000000138
 31
0.0
  0
ARC
  5
3D
330
55C
100
AcDbEntity
  8
0
  6
Continuous
 62
     7
100
AcDbCircle
 10
-1874.5
 20
-236.7999999999999
 30
0.0
 40
7.0
100
AcDbArc
 50
270.0
 51
0.0
  0
LINE
  5
3E
330
55C
100
AcDbEntity
  8
0
  6
Continuous
 62
     7
100
AcDbLine
 10
-1841.9
 20
-246.5
 30
0.0
 11
-1851.4
 21
-246.5
 31
0.0
  0
LINE
  5
3F
330
55C
100
AcDbEntity
  8
0
  6
Continuous
 62
     7
100
AcDbLine
 10
-1834.9
 20
-253.5
 30
0.0
 11
-1834.9
 21
-540.5
 31
0.0
  0
ARC
  5
40
330
55C
100
AcDbEntity
  8
0
  6
Continuous
 62
     7
100
AcDbCircle
 10
-1841.9
 20
-253.5
 30
0.0
 40
7.0
100
AcDbArc
 50
0.0
 51
90.0
  0
LINE
  5
41
330
55C
100
AcDbEntity
  8
0
  6
Continuous
 62
     7
100
AcDbLine
 10
-1921.1
 20
-243.8
 30
0.0
 11
-1835.4
 21
-329.5
 31
0.0
  0
ARC
  5
42
330
55C
100
AcDbEntity
  8
0
  6
Continuous
 62
     7
100
AcDbCircle
 10
-1841.9
 20
-540.5
 30
0.0
 40
7.0
100
AcDbArc
 50
270.0
 51
0.0
  0
LINE
  5
43
330
55C
100
AcDbEntity
  8
0
  6
Continuous
 62
     7
100
AcDbLine
 10
-2532.764912059747
 20
-237.4999999999997
 30
0.0
 11
-2564.764912059747
 21
-269.5
 31
0.0
  0
LINE
  5
44
330
55C
100
AcDbEntity
  8
0
  6
Continuous
 62
     7
100
AcDbLine
 10
-2551.8
 20
-243.8
 30
0.0
 11
-2548.6
 21
-243.8
 31
0.0
  0
LINE
  5
45
330
55C
100
AcDbEntity
  8
0
  6
Continuous
 62
     7
100
AcDbLine
 10
-2551.8
 20
-229.0999999999999
 30
0.0
 11
-2551.8
 21
-246.5
 31
0.0
  0
LINE
  5
46
330
55C
100
AcDbEntity
  8
0
  6
Continuous
 62
     7
100
AcDbLine
 10
-2532.8
 20
-227.5
 30
0.0
 11
-2532.8
 21
-236.7999999999999
 31
0.0
  0
LINE
  5
47
330
55C
100
AcDbEntity
  8
0
  6
Continuous
 62
     7
100
AcDbLine
 10
-2548.6
 20
-232.2999999999999
 30
0.0
 11
-2548.6
 21
-253.3350879402535
 31
0.0
  0
LINE
  5
48
330
55C
100
AcDbEntity
  8
0
  6
Continuous
 62
     7
100
AcDbLine
 10
-2548.6
 20
-313.8817757009347
 30
0.0
 11
-2548.6
 21
-596.5000000000138
 31
0.0
  0
LINE
  5
49
330
55C
100
AcDbEntity
  8
0
  6
Continuous
 62
     7
100
AcDbLine
 10
-2535.8
 20
-227.5
 30
0.0
 11
-2535.8
 21
-230.7
 31
0.0
  0
ARC
  5
4A
330
55C
100
AcDbEntity
  8
0
  6
Continuous
 62
     7
100
AcDbCircle
 10
-2547.0
 20
-232.2999999999999
 30
0.0
 40
1.599999999999909
100
AcDbArc
 50
90.0
 51
180.0
  0
ARC
  5
4B
330
55C
100
AcDbEntity
  8
0
  6
Continuous
 62
     7
100
AcDbCircle
 10
-2550.200000000001
 20
-229.0999999999999
 30
0.0
 40
1.599999999999909
100
AcDbArc
 50
90.0
 51
180.0
  0
LINE
  5
4C
330
55C
100
AcDbEntity
  8
0
  6
Continuous
 62
     7
100
AcDbLine
 10
-2551.8
 20
-596.5000000000138
 30
0.0
 11
-2548.6
 21
-596.5000000000138
 31
0.0
  0
LINE
  5
4D
330
55C
100
AcDbEntity
  8
0
  6
Continuous
 62
     7
100
AcDbLine
 10
-2557.9
 20
-547.5
 30
0.0
 11
-2548.6
 21
-547.5
 31
0.0
  0
LINE
  5
4E
330
55C
100
AcDbEntity
  8
0
  6
Continuous
 62
     7
100
AcDbLine
 10
-2551.8
 20
-547.5
 30
0.0
 11
-2551.8
 21
-596.5000000000138
 31
0.0
  0
ARC
  5
4F
330
55C
100
AcDbEntity
  8
0
  6
Continuous
 62
     7
100
AcDbCircle
 10
-2525.8
 20
-236.7999999999999
 30
0.0
 40
7.0
100
AcDbArc
 50
180.0
 51
270.0
  0
LINE
  5
50
330
55C
100
AcDbEntity
  8
0
  6
Continuous
 62
     7
100
AcDbLine
 10
-2557.9
 20
-246.5
 30
0.0
 11
-2548.6
 21
-246.5
 31
0.0
  0
LINE
  5
51
330
55C
100
AcDbEntity
  8
0
  6
Continuous
 62
     7
100
AcDbLine
 10
-2564.9
 20
-253.5
 30
0.0
 11
-2564.9
 21
-540.5
 31
0.0
  0
ARC
  5
52
330
55C
100
AcDbEntity
  8
0
  6
Continuous
 62
     7
100
AcDbCircle
 10
-2557.9
 20
-253.5
 30
0.0
 40
7.0
100
AcDbArc
 50
90.0
 51
180.0
  0
LINE
  5
53
330
55C
100
AcDbEntity
  8
0
  6
Continuous
 62
     7
100
AcDbLine
 10
-2479.2
 20
-243.8
 30
0.0
 11
-2564.9
 21
-329.5
 31
0.0
  0
ARC
  5
54
330
55C
100
AcDbEntity
  8
0
  6
Continuous
 62
     7
100
AcDbCircle
 10
-2557.9
 20
-540.5
 30
0.0
 40
7.0
100
AcDbArc
 50
180.0
 51
270.0
  0
ENDBLK
  5
55
330
55C
100
AcDbEntity
  8
DATA
100
AcDbBlockEnd
  0
ENDSEC
  0
SECTION
  2
ENTITIES
  0
LINE
  5
56
330
545
100
AcDbEntity
  8
HIBINO-BASE
  6
Continuous
 62
     7
100
AcDbLine
 10
-2900.0
 20
1999.44541
 30
0.0
 11
-200.0
 21
1999.44541
 31
0.0
  0
LINE
  5
57
330
545
100
AcDbEntity
  8
HIBINO-BASE
  6
Continuous
 62
     7
100
AcDbLine
 10
-200.0
 20
-1900.55459
 30
0.0
 11
-2900.0
 21
-1900.55459
 31
0.0
  0
LINE
  5
58
330
545
100
AcDbEntity
  8
HIBINO-BASE
  6
Continuous
 62
     7
100
AcDbLine
 10
-2900.0
 20
-1900.55459
 30
0.0
 11
-2900.0
 21
1999.44541
 31
0.0
  0
LINE
  5
59
330
545
100
AcDbEntity
  8
HIBINO-BASE
  6
Continuous
 62
     7
100
AcDbLine
 10
-200.0
 20
1999.44541
 30
0.0
 11
-200.0
 21
-1900.55459
 31
0.0
  0
LINE
  5
5A
330
545
100
AcDbEntity
  8
HIBINO-BASE
  6
Continuous
 62
     7
100
AcDbLine
 10
-1550.0
 20
-1563.05459
 30
0.0
 11
-200.0
 21
-1563.05459
 31
0.0
  0
LINE
  5
5B
330
545
100
AcDbEntity
  8
HIBINO-BASE
  6
Continuous
 62
     7
100
AcDbLine
 10
-1550.0
 20
-1900.55459
 30
0.0
 11
-1550.0
 21
-1563.05459
 31
0.0
  0
TEXT
  5
5C
330
545
100
AcDbEntity
  8
HIBINO-BASE
 62
     7
100
AcDbText
 10
-1536.5
 20
-1600.68499
 30
0.0
 40
24.4326171875
  1
NOTE
 41
0.7
 11
-1536.5
 21
-1576.2523728125
 31
0.0
100
AcDbText
 73
     3
  0
LINE
  5
5D
330
545
100
AcDbEntity
  8
HIBINO-BASE
  6
Continuous
 62
     7
100
AcDbLine
 10
-1025.0
 20
-1900.55459
 30
0.0
 11
-1025.0
 21
-1563.05459
 31
0.0
  0
TEXT
  5
5E
330
545
100
AcDbEntity
  8
HIBINO-BASE
 62
     7
100
AcDbText
 10
-1011.5
 20
-1600.68499
 30
0.0
 40
24.4326171875
  1
TITLE
 41
0.7
 11
-1011.5
 21
-1576.2523728125
 31
0.0
100
AcDbText
 73
     3
  0
LINE
  5
5F
330
545
100
AcDbEntity
  8
HIBINO-BASE
  6
Continuous
 62
     7
100
AcDbLine
 10
-1550.0
 20
-1750.55459
 30
0.0
 11
-200.0
 21
-1750.55459
 31
0.0
  0
TEXT
  5
60
330
545
100
AcDbEntity
  8
HIBINO-BASE
 62
     7
100
AcDbText
 10
-824.0000000000001
 20
-1787.34019
 30
0.0
 40
24.4326171875
  1
DRAWN
 41
0.7
 11
-824.0000000000001
 21
-1762.9075728125
 31
0.0
100
AcDbText
 73
     3
  0
TEXT
  5
61
330
545
100
AcDbEntity
  8
HIBINO-BASE
 62
     7
100
AcDbText
 10
-1199.0
 20
-1787.34019
 30
0.0
 40
24.4326171875
  1
DATE
 41
0.7
 11
-1199.0
 21
-1762.9075728125
 31
0.0
100
AcDbText
 73
     3
  0
TEXT
  5
62
330
545
100
AcDbEntity
  8
HIBINO-BASE
 62
     7
100
AcDbText
 10
-1349.0
 20
-1787.34019
 30
0.0
 40
24.4326171875
  1
SCALE
 41
0.7
 11
-1349.0
 21
-1762.9075728125
 31
0.0
100
AcDbText
 73
     3
  0
TEXT
  5
63
330
545
100
AcDbEntity
  8
HIBINO-BASE
 62
     7
100
AcDbText
 10
-1011.5
 20
-1787.34019
 30
0.0
 40
24.4326171875
  1
DESIGN
 41
0.7
 11
-1011.5
 21
-1762.9075728125
 31
0.0
100
AcDbText
 73
     3
  0
TEXT
  5
64
330
545
100
AcDbEntity
  8
HIBINO-BASE
 62
     7
100
AcDbText
 10
-449.0
 20
-1787.34019
 30
0.0
 40
24.4326171875
  1
DRAWING NO.
 41
0.7
 11
-449.0
 21
-1762.9075728125
 31
0.0
100
AcDbText
 73
     3
  0
TEXT
  5
65
330
545
100
AcDbEntity
  8
HIBINO-BASE
 62
     7
100
AcDbText
 10
-636.5
 20
-1787.34019
 30
0.0
 40
24.4326171875
  1
CHECK
 41
0.7
 11
-636.5
 21
-1762.9075728125
 31
0.0
100
AcDbText
 73
     3
  0
LINE
  5
66
330
545
100
AcDbEntity
  8
HIBINO-BASE
  6
Continuous
 62
     7
100
AcDbLine
 10
-1334.375
 20
-1881.80459
 30
0.0
 11
-1278.124999999999
 21
-1825.55459
 31
0.0
  0
TEXT
  5
67
330
545
100
AcDbEntity
  8
HIBINO-BASE
 62
     7
100
AcDbText
 10
-1343.75
 20
-1842.18874
 30
0.0
 40
24.4326171875
  1
1
 41
0.7
 11
-1343.75
 21
-1817.7561228125
 31
0.0
100
AcDbText
 73
     3
  0
LINE
  5
68
330
545
100
AcDbEntity
  8
HIBINO-BASE
  6
Continuous
 62
     7
100
AcDbLine
 10
-1362.5
 20
-1900.55459
 30
0.0
 11
-1362.5
 21
-1750.55459
 31
0.0
  0
LINE
  5
69
330
545
100
AcDbEntity
  8
HIBINO-BASE
  6
Continuous
 62
     7
100
AcDbLine
 10
-1212.5
 20
-1900.55459
 30
0.0
 11
-1212.5
 21
-1750.55459
 31
0.0
  0
LINE
  5
6A
330
545
100
AcDbEntity
  8
HIBINO-BASE
  6
Continuous
 62
     7
100
AcDbLine
 10
-837.5000000000001
 20
-1750.55459
 30
0.0
 11
-837.5000000000001
 21
-1900.55459
 31
0.0
  0
LINE
  5
6B
330
545
100
AcDbEntity
  8
HIBINO-BASE
  6
Continuous
 62
     7
100
AcDbLine
 10
-462.5
 20
-1750.55459
 30
0.0
 11
-462.5
 21
-1900.55459
 31
0.0
  0
LINE
  5
6C
330
545
100
AcDbEntity
  8
HIBINO-BASE
  6
Continuous
 62
     7
100
AcDbLine
 10
-650.0
 20
-1900.55459
 30
0.0
 11
-650.0
 21
-1750.55459
 31
0.0
  0
TEXT
  5
6D
330
545
100
AcDbEntity
  8
HIBINO-BASE
 62
     7
100
AcDbText
 10
-1199.651899999999
 20
-1857.59989
 30
0.0
 40
24.4326171875
  1
'17.03.
 41
0.7
 11
-1199.651899999999
 21
-1833.1672728125
 31
0.0
100
AcDbText
 73
     3
  0
TEXT
  5
6E
330
545
100
AcDbEntity
  8
HIBINO-BASE
 62
     7
100
AcDbText
 10
-1287.5
 20
-1870.31374
 30
0.0
 40
24.4326171875
  1
15
 41
0.7
 11
-1287.5
 21
-1845.8811228125
 31
0.0
100
AcDbText
 73
     3
  0
TEXT
  5
6F
330
545
100
AcDbEntity
  8
HIBINO-BASE
 62
     7
100
AcDbText
 10
-814.9128498344804
 20
-1857.59989
 30
0.0
 40
24.4326171875
  1
N.Sasaki
 41
0.7
 11
-814.9128498344804
 21
-1833.1672728125
 31
0.0
100
AcDbText
 73
     3
  0
TEXT
  5
70
330
545
100
AcDbEntity
  8
HIBINO-BASE
 62
     7
100
AcDbText
 10
-1491.749999999999
 20
-1870.91459
 30
0.0
 40
48.865234375
  1
A4
 41
0.7
 11
-1491.749999999999
 21
-1822.049355625
 31
0.0
100
AcDbText
 73
     3
  0
TEXT
  5
71
330
545
100
AcDbEntity
  8
HIBINO-BASE
 62
     7
100
AcDbText
 10
-1535.625
 20
-1789.846415
 30
0.0
 40
24.4326171875
  1
PAPER SIZE
 41
0.7
 11
-1535.625
 21
-1765.4137978125
 31
0.0
100
AcDbText
 73
     3
  0
TEXT
  5
72
330
545
100
AcDbEntity
  8
HIBINO-BASE
 62
     7
100
AcDbText
 10
-2792.24
 20
-1996.684757
 30
0.0
 40
54.00066269531249
  1
Hibino Corporation
 41
0.7
 11
-2792.24
 21
-1942.684094304688
 31
0.0
100
AcDbText
 73
     3
  0
TEXT
  5
73
330
545
100
AcDbEntity
  8
HIBINO-BASE
 62
     7
100
AcDbText
 10
-798.9741499999996
 20
-1996.684757
 30
0.0
 40
54.00066269531249
  1
ヒビノ株式会社
 41
0.7
 11
-798.9741499999996
 21
-1942.684094304688
 31
0.0
100
AcDbText
 73
     3
  0
LINE
  5
74
330
545
100
AcDbEntity
  8
HIBINO-BASE
  6
Continuous
 62
     7
100
AcDbLine
 10
200.0
 20
1999.44541
 30
0.0
 11
2900.0
 21
1999.44541
 31
0.0
  0
LINE
  5
75
330
545
100
AcDbEntity
  8
HIBINO-BASE
  6
Continuous
 62
     7
100
AcDbLine
 10
2900.0
 20
-1900.55459
 30
0.0
 11
200.0
 21
-1900.55459
 31
0.0
  0
LINE
  5
76
330
545
100
AcDbEntity
  8
HIBINO-BASE
  6
Continuous
 62
     7
100
AcDbLine
 10
200.0
 20
-1900.55459
 30
0.0
 11
200.0
 21
1999.44541
 31
0.0
  0
LINE
  5
77
330
545
100
AcDbEntity
  8
HIBINO-BASE
  6
Continuous
 62
     7
100
AcDbLine
 10
2900.0
 20
1999.44541
 30
0.0
 11
2900.0
 21
-1900.55459
 31
0.0
  0
LINE
  5
78
330
545
100
AcDbEntity
  8
HIBINO-BASE
  6
Continuous
 62
     7
100
AcDbLine
 10
1550.0
 20
-1563.05459
 30
0.0
 11
2900.0
 21
-1563.05459
 31
0.0
  0
LINE
  5
79
330
545
100
AcDbEntity
  8
HIBINO-BASE
  6
Continuous
 62
     7
100
AcDbLine
 10
1550.0
 20
-1900.55459
 30
0.0
 11
1550.0
 21
-1563.05459
 31
0.0
  0
TEXT
  5
7A
330
545
100
AcDbEntity
  8
HIBINO-BASE
 62
     7
100
AcDbText
 10
1563.5
 20
-1600.68499
 30
0.0
 40
24.4326171875
  1
NOTE
 41
0.7
 11
1563.5
 21
-1576.2523728125
 31
0.0
100
AcDbText
 73
     3
  0
LINE
  5
7B
330
545
100
AcDbEntity
  8
HIBINO-BASE
  6
Continuous
 62
     7
100
AcDbLine
 10
2075.000000000001
 20
-1900.55459
 30
0.0
 11
2075.000000000001
 21
-1563.05459
 31
0.0
  0
TEXT
  5
7C
330
545
100
AcDbEntity
  8
HIBINO-BASE
 62
     7
100
AcDbText
 10
2088.5
 20
-1600.68499
 30
0.0
 40
24.4326171875
  1
TITLE
 41
0.7
 11
2088.5
 21
-1576.2523728125
 31
0.0
100
AcDbText
 73
     3
  0
LINE
  5
7D
330
545
100
AcDbEntity
  8
HIBINO-BASE
  6
Continuous
 62
     7
100
AcDbLine
 10
1550.0
 20
-1750.55459
 30
0.0
 11
2900.0
 21
-1750.55459
 31
0.0
  0
TEXT
  5
7E
330
545
100
AcDbEntity
  8
HIBINO-BASE
 62
     7
100
AcDbText
 10
2276.0
 20
-1787.34019
 30
0.0
 40
24.4326171875
  1
DRAWN
 41
0.7
 11
2276.0
 21
-1762.9075728125
 31
0.0
100
AcDbText
 73
     3
  0
TEXT
  5
7F
330
545
100
AcDbEntity
  8
HIBINO-BASE
 62
     7
100
AcDbText
 10
1901.0
 20
-1787.34019
 30
0.0
 40
24.4326171875
  1
DATE
 41
0.7
 11
1901.0
 21
-1762.9075728125
 31
0.0
100
AcDbText
 73
     3
  0
TEXT
  5
80
330
545
100
AcDbEntity
  8
HIBINO-BASE
 62
     7
100
AcDbText
 10
1751.0
 20
-1787.34019
 30
0.0
 40
24.4326171875
  1
SCALE
 41
0.7
 11
1751.0
 21
-1762.9075728125
 31
0.0
100
AcDbText
 73
     3
  0
TEXT
  5
81
330
545
100
AcDbEntity
  8
HIBINO-BASE
 62
     7
100
AcDbText
 10
2088.5
 20
-1787.34019
 30
0.0
 40
24.4326171875
  1
DESIGN
 41
0.7
 11
2088.5
 21
-1762.9075728125
 31
0.0
100
AcDbText
 73
     3
  0
TEXT
  5
82
330
545
100
AcDbEntity
  8
HIBINO-BASE
 62
     7
100
AcDbText
 10
2651.0
 20
-1787.34019
 30
0.0
 40
24.4326171875
  1
DRAWING NO.
 41
0.7
 11
2651.0
 21
-1762.9075728125
 31
0.0
100
AcDbText
 73
     3
  0
TEXT
  5
83
330
545
100
AcDbEntity
  8
HIBINO-BASE
 62
     7
100
AcDbText
 10
2463.5
 20
-1787.34019
 30
0.0
 40
24.4326171875
  1
CHECK
 41
0.7
 11
2463.5
 21
-1762.9075728125
 31
0.0
100
AcDbText
 73
     3
  0
LINE
  5
84
330
545
100
AcDbEntity
  8
HIBINO-BASE
  6
Continuous
 62
     7
100
AcDbLine
 10
1765.625
 20
-1881.80459
 30
0.0
 11
1821.875000000001
 21
-1825.55459
 31
0.0
  0
TEXT
  5
85
330
545
100
AcDbEntity
  8
HIBINO-BASE
 62
     7
100
AcDbText
 10
1756.25
 20
-1842.18874
 30
0.0
 40
24.4326171875
  1
1
 41
0.7
 11
1756.25
 21
-1817.7561228125
 31
0.0
100
AcDbText
 73
     3
  0
LINE
  5
86
330
545
100
AcDbEntity
  8
HIBINO-BASE
  6
Continuous
 62
     7
100
AcDbLine
 10
1737.5
 20
-1900.55459
 30
0.0
 11
1737.5
 21
-1750.55459
 31
0.0
  0
LINE
  5
87
330
545
100
AcDbEntity
  8
HIBINO-BASE
  6
Continuous
 62
     7
100
AcDbLine
 10
1887.5
 20
-1900.55459
 30
0.0
 11
1887.5
 21
-1750.55459
 31
0.0
  0
LINE
  5
88
330
545
100
AcDbEntity
  8
HIBINO-BASE
  6
Continuous
 62
     7
100
AcDbLine
 10
2262.5
 20
-1750.55459
 30
0.0
 11
2262.5
 21
-1900.55459
 31
0.0
  0
LINE
  5
89
330
545
100
AcDbEntity
  8
HIBINO-BASE
  6
Continuous
 62
     7
100
AcDbLine
 10
2637.5
 20
-1750.55459
 30
0.0
 11
2637.5
 21
-1900.55459
 31
0.0
  0
LINE
  5
8A
330
545
100
AcDbEntity
  8
HIBINO-BASE
  6
Continuous
 62
     7
100
AcDbLine
 10
2450.0
 20
-1900.55459
 30
0.0
 11
2450.0
 21
-1750.55459
 31
0.0
  0
TEXT
  5
8B
330
545
100
AcDbEntity
  8
HIBINO-BASE
 62
     7
100
AcDbText
 10
1900.3481
 20
-1857.59989
 30
0.0
 40
24.4326171875
  1
'17.03.
 41
0.7
 11
1900.3481
 21
-1833.1672728125
 31
0.0
100
AcDbText
 73
     3
  0
TEXT
  5
8C
330
545
100
AcDbEntity
  8
HIBINO-BASE
 62
     7
100
AcDbText
 10
1812.5
 20
-1870.31374
 30
0.0
 40
24.4326171875
  1
15
 41
0.7
 11
1812.5
 21
-1845.8811228125
 31
0.0
100
AcDbText
 73
     3
  0
TEXT
  5
8D
330
545
100
AcDbEntity
  8
HIBINO-BASE
 62
     7
100
AcDbText
 10
2285.087150165519
 20
-1857.59989
 30
0.0
 40
24.4326171875
  1
N.Sasaki
 41
0.7
 11
2285.087150165519
 21
-1833.1672728125
 31
0.0
100
AcDbText
 73
     3
  0
TEXT
  5
8E
330
545
100
AcDbEntity
  8
HIBINO-BASE
 62
     7
100
AcDbText
 10
1608.25
 20
-1870.91459
 30
0.0
 40
48.865234375
  1
A4
 41
0.7
 11
1608.25
 21
-1822.049355625
 31
0.0
100
AcDbText
 73
     3
  0
TEXT
  5
8F
330
545
100
AcDbEntity
  8
HIBINO-BASE
 62
     7
100
AcDbText
 10
1564.375
 20
-1789.846415
 30
0.0
 40
24.4326171875
  1
PAPER SIZE
 41
0.7
 11
1564.375
 21
-1765.4137978125
 31
0.0
100
AcDbText
 73
     3
  0
TEXT
  5
90
330
545
100
AcDbEntity
  8
HIBINO-BASE
 62
     7
100
AcDbText
 10
307.7600000000003
 20
-1996.684757
 30
0.0
 40
54.00066269531249
  1
Hibino Corporation
 41
0.7
 11
307.7600000000003
 21
-1942.684094304688
 31
0.0
100
AcDbText
 73
     3
  0
TEXT
  5
91
330
545
100
AcDbEntity
  8
HIBINO-BASE
 62
     7
100
AcDbText
 10
2301.02585
 20
-1996.684757
 30
0.0
 40
54.00066269531249
  1
ヒビノ株式会社
 41
0.7
 11
2301.02585
 21
-1942.684094304688
 31
0.0
100
AcDbText
 73
     3
  0
LINE
  5
92
330
545
100
AcDbEntity
  8
SPEC
  6
Continuous
 62
     7
100
AcDbLine
 10
-2787.5
 20
1849.44541
 30
0.0
 11
-700.0
 21
1849.44541
 31
0.0
  0
LINE
  5
93
330
545
100
AcDbEntity
  8
SPEC
  6
Continuous
 62
     7
100
AcDbLine
 10
-2787.5
 20
1793.195409999999
 30
0.0
 11
-700.0
 21
1793.195409999999
 31
0.0
  0
LINE
  5
94
330
545
100
AcDbEntity
  8
SPEC
  6
Continuous
 62
     7
100
AcDbLine
 10
-2787.5
 20
1849.44541
 30
0.0
 11
-2787.5
 21
836.9454099999993
 31
0.0
  0
TEXT
  5
95
330
545
100
AcDbEntity
  8
SPEC
 62
     7
100
AcDbText
 10
-2768.75
 20
1870.344459999999
 30
0.0
 40
36.64892578125
  1
仕様
 41
0.7
 11
-2768.75
 21
1906.993385781249
 31
0.0
100
AcDbText
 73
     3
  0
LINE
  5
96
330
545
100
AcDbEntity
  8
SPEC
  6
Continuous
 62
     7
100
AcDbLine
 10
-2300.0
 20
1849.44541
 30
0.0
 11
-2300.0
 21
836.9454099999993
 31
0.0
  0
LINE
  5
97
330
545
100
AcDbEntity
  8
SPEC
  6
Continuous
 62
     7
100
AcDbLine
 10
-700.0
 20
1849.44541
 30
0.0
 11
-700.0
 21
836.9454099999993
 31
0.0
  0
TEXT
  5
98
330
545
100
AcDbEntity
  8
SPEC
 62
     7
100
AcDbText
 10
-2774.0
 20
905.0141766666657
 30
0.0
 40
28.50472005208334
  1
付属品
 41
0.7
 11
-2774.0
 21
933.5188967187489
 31
0.0
100
AcDbText
 73
     3
  0
TEXT
  5
99
330
545
100
AcDbEntity
  8
SPEC
 62
     7
100
AcDbText
 10
-2774.0
 20
1017.514176666666
 30
0.0
 40
28.50472005208334
  1
寸法(W×H×D)
 41
0.7
 11
-2774.0
 21
1046.018896718749
 31
0.0
100
AcDbText
 73
     3
  0
TEXT
  5
9A
330
545
100
AcDbEntity
  8
SPEC
 62
     7
100
AcDbText
 10
-2774.0
 20
961.2641766666657
 30
0.0
 40
28.50472005208334
  1
質量
 41
0.7
 11
-2774.0
 21
989.7688967187489
 31
0.0
100
AcDbText
 73
     3
  0
TEXT
  5
9B
330
545
100
AcDbEntity
  8
SPEC
 62
     7
100
AcDbText
 10
-1686.563392740885
 20
1016.596816640624
 30
0.0
 40
28.50472005208334
  1
731×408×452mm(除突起部)
 41
0.7
 72
     1
 11
-1500.0
 21
1030.849176666666
 31
0.0
100
AcDbText
 73
     2
  0
TEXT
  5
9C
330
545
100
AcDbEntity
  8
SPEC
 62
     7
100
AcDbText
 10
-1536.581057400173
 20
960.3468166406242
 30
0.0
 40
28.50472005208334
  1
23kg
 41
0.7
 72
     1
 11
-1500.0
 21
974.5991766666659
 31
0.0
100
AcDbText
 73
     2
  0
LINE
  5
9D
330
545
100
AcDbEntity
  8
SPEC
  6
Continuous
 62
     7
100
AcDbLine
 10
-2787.5
 20
1736.945409999999
 30
0.0
 11
-700.0
 21
1736.945409999999
 31
0.0
  0
LINE
  5
9E
330
545
100
AcDbEntity
  8
SPEC
  6
Continuous
 62
     7
100
AcDbLine
 10
-2787.5
 20
1680.695409999999
 30
0.0
 11
-700.0
 21
1680.695409999999
 31
0.0
  0
LINE
  5
9F
330
545
100
AcDbEntity
  8
SPEC
  6
Continuous
 62
     7
100
AcDbLine
 10
-2787.5
 20
1624.445409999999
 30
0.0
 11
-700.0
 21
1624.445409999999
 31
0.0
  0
LINE
  5
A0
330
545
100
AcDbEntity
  8
SPEC
  6
Continuous
 62
     7
100
AcDbLine
 10
-2787.5
 20
1568.195409999999
 30
0.0
 11
-700.0
 21
1568.195409999999
 31
0.0
  0
LINE
  5
A1
330
545
100
AcDbEntity
  8
SPEC
  6
Continuous
 62
     7
100
AcDbLine
 10
-2787.5
 20
1511.945409999999
 30
0.0
 11
-700.0
 21
1511.945409999999
 31
0.0
  0
LINE
  5
A2
330
545
100
AcDbEntity
  8
SPEC
  6
Continuous
 62
     7
100
AcDbLine
 10
-2400.0
 20
1455.695409999999
 30
0.0
 11
-700.0
 21
1455.695409999999
 31
0.0
  0
LINE
  5
A3
330
545
100
AcDbEntity
  8
SPEC
  6
Continuous
 62
     7
100
AcDbLine
 10
-2787.5
 20
1399.445409999999
 30
0.0
 11
-700.0
 21
1399.445409999999
 31
0.0
  0
LINE
  5
A4
330
545
100
AcDbEntity
  8
SPEC
  6
Continuous
 62
     7
100
AcDbLine
 10
-2787.5
 20
1343.19541
 30
0.0
 11
-700.0
 21
1343.19541
 31
0.0
  0
LINE
  5
A5
330
545
100
AcDbEntity
  8
SPEC
  6
Continuous
 62
     7
100
AcDbLine
 10
-2400.0
 20
1286.945409999999
 30
0.0
 11
-700.0
 21
1286.945409999999
 31
0.0
  0
LINE
  5
A6
330
545
100
AcDbEntity
  8
SPEC
  6
Continuous
 62
     7
100
AcDbLine
 10
-2787.5
 20
1230.69541
 30
0.0
 11
-700.0
 21
1230.69541
 31
0.0
  0
LINE
  5
A7
330
545
100
AcDbEntity
  8
SPEC
  6
Continuous
 62
     7
100
AcDbLine
 10
-2787.5
 20
1174.445409999999
 30
0.0
 11
-700.0
 21
1174.445409999999
 31
0.0
  0
LINE
  5
A8
330
545
100
AcDbEntity
  8
SPEC
  6
Continuous
 62
     7
100
AcDbLine
 10
-2787.5
 20
1118.195409999999
 30
0.0
 11
-700.0
 21
1118.195409999999
 31
0.0
  0
LINE
  5
A9
330
545
100
AcDbEntity
  8
SPEC
  6
Continuous
 62
     7
100
AcDbLine
 10
-2787.5
 20
1061.945409999999
 30
0.0
 11
-700.0
 21
1061.945409999999
 31
0.0
  0
LINE
  5
AA
330
545
100
AcDbEntity
  8
SPEC
  6
Continuous
 62
     7
100
AcDbLine
 10
-2787.5
 20
1005.695409999999
 30
0.0
 11
-700.0
 21
1005.695409999999
 31
0.0
  0
LINE
  5
AB
330
545
100
AcDbEntity
  8
SPEC
  6
Continuous
 62
     7
100
AcDbLine
 10
-2787.5
 20
949.4454099999993
 30
0.0
 11
-700.0
 21
949.4454099999993
 31
0.0
  0
LINE
  5
AC
330
545
100
AcDbEntity
  8
SPEC
  6
Continuous
 62
     7
100
AcDbLine
 10
-2787.5
 20
836.9454099999993
 30
0.0
 11
-700.0
 21
836.9454099999993
 31
0.0
  0
LINE
  5
AD
330
545
100
AcDbEntity
  8
SPEC
  6
Continuous
 62
     7
100
AcDbLine
 10
312.5000000000004
 20
1849.44541
 30
0.0
 11
2525.0
 21
1849.44541
 31
0.0
  0
LINE
  5
AE
330
545
100
AcDbEntity
  8
SPEC
  6
Continuous
 62
     7
100
AcDbLine
 10
312.5000000000004
 20
1793.195409999999
 30
0.0
 11
2525.0
 21
1793.195409999999
 31
0.0
  0
LINE
  5
AF
330
545
100
AcDbEntity
  8
SPEC
  6
Continuous
 62
     7
100
AcDbLine
 10
312.5000000000004
 20
1849.44541
 30
0.0
 11
312.5000000000004
 21
1736.945409999999
 31
0.0
  0
TEXT
  5
B0
330
545
100
AcDbEntity
  8
SPEC
 62
     7
100
AcDbText
 10
331.2500000000004
 20
1870.344459999999
 30
0.0
 40
36.64892578125
  1
仕様
 41
0.7
 11
331.2500000000004
 21
1906.993385781249
 31
0.0
100
AcDbText
 73
     3
  0
LINE
  5
B1
330
545
100
AcDbEntity
  8
SPEC
  6
Continuous
 62
     7
100
AcDbLine
 10
800.0
 20
1849.44541
 30
0.0
 11
800.0
 21
1736.945409999999
 31
0.0
  0
LINE
  5
B2
330
545
100
AcDbEntity
  8
SPEC
  6
Continuous
 62
     7
100
AcDbLine
 10
2525.0
 20
1849.44541
 30
0.0
 11
2525.0
 21
1736.945409999999
 31
0.0
  0
TEXT
  5
B3
330
545
100
AcDbEntity
  8
SPEC
 62
     7
100
AcDbText
 10
326.0
 20
1805.014176666665
 30
0.0
 40
28.50472005208334
  1
寸法(W×H×D)
 41
0.7
 11
326.0
 21
1833.518896718748
 31
0.0
100
AcDbText
 73
     3
  0
TEXT
  5
B4
330
545
100
AcDbEntity
  8
SPEC
 62
     7
100
AcDbText
 10
326.0
 20
1748.764176666665
 30
0.0
 40
28.50472005208334
  1
質量
 41
0.7
 11
326.0
 21
1777.268896718749
 31
0.0
100
AcDbText
 73
     3
  0
TEXT
  5
B5
330
545
100
AcDbEntity
  8
SPEC
 62
     7
100
AcDbText
 10
813.4999999999999
 20
1805.014176666665
 30
0.0
 40
28.50472005208334
  1
730×369×89mm
 41
0.7
 11
813.4999999999999
 21
1833.518896718748
 31
0.0
100
AcDbText
 73
     3
  0
TEXT
  5
B6
330
545
100
AcDbEntity
  8
SPEC
 62
     7
100
AcDbText
 10
813.4999999999999
 20
1748.764176666665
 30
0.0
 40
28.50472005208334
  1
3.7kg
 41
0.7
 11
813.4999999999999
 21
1777.268896718749
 31
0.0
100
AcDbText
 73
     3
  0
LINE
  5
B7
330
545
100
AcDbEntity
  8
SPEC
  6
Continuous
 62
     7
100
AcDbLine
 10
312.5000000000004
 20
1736.945409999999
 30
0.0
 11
2525.0
 21
1736.945409999999
 31
0.0
  0
TEXT
  5
B8
330
545
100
AcDbEntity
  8
SPEC
 62
     7
100
AcDbText
 10
-2774.0
 20
1073.764176666666
 30
0.0
 40
28.50472005208333
  1
エンクロージャー
 41
0.7
 11
-2774.0
 21
1102.268896718749
 31
0.0
100
AcDbText
 73
     3
  0
TEXT
  5
B9
330
545
100
AcDbEntity
  8
SPEC
 62
     7
100
AcDbText
 10
-1949.883260091146
 20
1804.096816640624
 30
0.0
 40
28.50472005208333
  1
AW266
 41
0.7
 72
     1
 11
-1900.0
 21
1818.349176666666
 31
0.0
100
AcDbText
 73
     2
  0
TEXT
  5
BA
330
545
100
AcDbEntity
  8
SPEC
 62
     7
100
AcDbText
 10
-2774.0
 20
1748.764176666666
 30
0.0
 40
28.50472005208333
  1
周波数レンジ(-10dB)
 41
0.7
 11
-2774.0
 21
1777.268896718749
 31
0.0
100
AcDbText
 73
     3
  0
LINE
  5
BB
330
545
100
AcDbEntity
  8
SPEC
  6
Continuous
 62
     7
100
AcDbLine
 10
-1500.0
 20
1849.44541
 30
0.0
 11
-1500.0
 21
1680.695409999999
 31
0.0
  0
LINE
  5
BC
330
545
100
AcDbEntity
  8
SPEC
  6
Continuous
 62
     7
100
AcDbLine
 10
-1500.0
 20
1230.69541
 30
0.0
 11
-1500.0
 21
1174.445409999999
 31
0.0
  0
TEXT
  5
BD
330
545
100
AcDbEntity
  8
SPEC
 62
     7
100
AcDbText
 10
-1149.883260091145
 20
1804.096816640624
 30
0.0
 40
28.50472005208333
  1
AW295
 41
0.7
 72
     1
 11
-1100.0
 21
1818.349176666666
 31
0.0
100
AcDbText
 73
     2
  0
TEXT
  5
BE
330
545
100
AcDbEntity
  8
SPEC
 62
     7
100
AcDbText
 10
-1995.110749240451
 20
1747.846816640624
 30
0.0
 40
28.50472005208333
  1
40Hz～20kHz
 41
0.7
 72
     1
 11
-1900.0
 21
1762.099176666666
 31
0.0
100
AcDbText
 73
     2
  0
TEXT
  5
BF
330
545
100
AcDbEntity
  8
SPEC
 62
     7
100
AcDbText
 10
-1196.773524576823
 20
1747.846816640624
 30
0.0
 40
28.50472005208333
  1
43Hz～20kHz
 41
0.7
 72
     1
 11
-1100.0
 21
1762.099176666666
 31
0.0
100
AcDbText
 73
     2
  0
TEXT
  5
C0
330
545
100
AcDbEntity
  8
SPEC
 62
     7
100
AcDbText
 10
-1958.529691840278
 20
1691.596816640624
 30
0.0
 40
28.50472005208333
  1
60°×60°
 41
0.7
 72
     1
 11
-1900.0
 21
1705.849176666666
 31
0.0
100
AcDbText
 73
     2
  0
TEXT
  5
C1
330
545
100
AcDbEntity
  8
SPEC
 62
     7
100
AcDbText
 10
-2775.0
 20
1686.665
 30
0.0
 40
28.50472005208333
  1
カバレージ角(水平×垂直)
 41
0.7
 11
-2775.0
 21
1715.169720052083
 31
0.0
100
AcDbText
 73
     3
  0
TEXT
  5
C2
330
545
100
AcDbEntity
  8
SPEC
 62
     7
100
AcDbText
 10
-1280.577401529948
 20
1691.596816640624
 30
0.0
 40
28.50472005208333
  1
90°×50°(90°単位で回転可能)
 41
0.7
 72
     1
 11
-1100.0
 21
1705.849176666666
 31
0.0
100
AcDbText
 73
     2
  0
TEXT
  5
C3
330
545
100
AcDbEntity
  8
SPEC
 62
     7
100
AcDbText
 10
-2774.0
 20
1636.264176666666
 30
0.0
 40
28.50472005208333
  1
最大音圧レベル
 41
0.7
 11
-2774.0
 21
1664.768896718749
 31
0.0
100
AcDbText
 73
     3
  0
TEXT
  5
C4
330
545
100
AcDbEntity
  8
SPEC
 62
     7
100
AcDbText
 10
-1628.366255967882
 20
1635.346816640624
 30
0.0
 40
28.50472005208333
  1
132dB SPL(ピーク)
 41
0.7
 72
     1
 11
-1500.0
 21
1649.599176666666
 31
0.0
100
AcDbText
 73
     2
  0
TEXT
  5
C5
330
545
100
AcDbEntity
  8
SPEC
 62
     7
100
AcDbText
 10
-2774.0
 20
1580.014176666666
 30
0.0
 40
28.50472005208333
  1
感度(1W、1m)
 41
0.7
 11
-2774.0
 21
1608.518896718749
 31
0.0
100
AcDbText
 73
     3
  0
TEXT
  5
C6
330
545
100
AcDbEntity
  8
SPEC
 62
     7
100
AcDbText
 10
-1572.497004665798
 20
1579.096816640624
 30
0.0
 40
28.50472005208333
  1
98dB SPL
 41
0.7
 72
     1
 11
-1500.0
 21
1593.349176666666
 31
0.0
100
AcDbText
 73
     2
  0
TEXT
  5
C7
330
545
100
AcDbEntity
  8
SPEC
 62
     7
100
AcDbText
 10
-2774.0
 20
1523.764176666666
 30
0.0
 40
28.50472005208333
  1
公称インピーダンス
 41
0.7
 11
-2774.0
 21
1552.268896718749
 31
0.0
100
AcDbText
 73
     3
  0
TEXT
  5
C8
330
545
100
AcDbEntity
  8
SPEC
 62
     7
100
AcDbText
 10
-1518.623083767361
 20
1522.846816640624
 30
0.0
 40
28.50472005208333
  1
8Ω
 41
0.7
 72
     1
 11
-1500.0
 21
1537.099176666666
 31
0.0
100
AcDbText
 73
     2
  0
TEXT
  5
C9
330
545
100
AcDbEntity
  8
SPEC
 62
     7
100
AcDbText
 10
-2774.0
 20
1467.514176666666
 30
0.0
 40
28.50472005208333
  1
トランスタップ
 41
0.7
 11
-2774.0
 21
1496.018896718749
 31
0.0
100
AcDbText
 73
     3
  0
TEXT
  5
CA
330
545
100
AcDbEntity
  8
SPEC
 62
     7
100
AcDbText
 10
-1637.012687717014
 20
1410.346816640624
 30
0.0
 40
28.50472005208333
  1
400W、200W、100W
 41
0.7
 72
     1
 11
-1500.0
 21
1424.599176666666
 31
0.0
100
AcDbText
 73
     2
  0
TEXT
  5
CB
330
545
100
AcDbEntity
  8
SPEC
 62
     7
100
AcDbText
 10
-2386.5
 20
1467.514176666666
 30
0.0
 40
28.50472005208333
  1
100V
 41
0.7
 11
-2386.5
 21
1496.018896718749
 31
0.0
100
AcDbText
 73
     3
  0
TEXT
  5
CC
330
545
100
AcDbEntity
  8
SPEC
 62
     7
100
AcDbText
 10
-2386.5
 20
1411.264176666666
 30
0.0
 40
28.50472005208333
  1
70V
 41
0.7
 11
-2386.5
 21
1439.768896718749
 31
0.0
100
AcDbText
 73
     3
  0
LINE
  5
CD
330
545
100
AcDbEntity
  8
SPEC
  6
Continuous
 62
     7
100
AcDbLine
 10
-2400.0
 20
1511.945409999999
 30
0.0
 11
-2400.0
 21
1399.445409999999
 31
0.0
  0
TEXT
  5
CE
330
545
100
AcDbEntity
  8
SPEC
 62
     7
100
AcDbText
 10
-1595.420657338687
 20
1466.596816640624
 30
0.0
 40
28.50472005208333
  1
400W、200W
 41
0.7
 72
     1
 11
-1506.961009443721
 21
1480.849176666666
 31
0.0
100
AcDbText
 73
     2
  0
TEXT
  5
CF
330
545
100
AcDbEntity
  8
SPEC
 62
     7
100
AcDbText
 10
-2774.0
 20
1355.014176666666
 30
0.0
 40
28.50472005208333
  1
許容入力※
 41
0.7
 11
-2774.0
 21
1383.518896718749
 31
0.0
100
AcDbText
 73
     3
  0
TEXT
  5
D0
330
545
100
AcDbEntity
  8
SPEC
 62
     7
100
AcDbText
 10
-1536.581057400173
 20
1354.096816640624
 30
0.0
 40
28.50472005208333
  1
500W
 41
0.7
 72
     1
 11
-1500.0
 21
1368.349176666666
 31
0.0
100
AcDbText
 73
     2
  0
TEXT
  5
D1
330
545
100
AcDbEntity
  8
SPEC
 62
     7
100
AcDbText
 10
-1610.740837402343
 20
1297.846816640624
 30
0.0
 40
28.50472005208333
  1
12インチ(305mm)
 41
0.7
 72
     1
 11
-1500.0
 21
1312.099176666666
 31
0.0
100
AcDbText
 73
     2
  0
TEXT
  5
D2
330
545
100
AcDbEntity
  8
SPEC
 62
     7
100
AcDbText
 10
-2774.0
 20
1298.764176666666
 30
0.0
 40
28.50472005208333
  1
ドライバー構成
 41
0.7
 11
-2774.0
 21
1327.26889671875
 31
0.0
100
AcDbText
 73
     3
  0
TEXT
  5
D3
330
545
100
AcDbEntity
  8
SPEC
 62
     7
100
AcDbText
 10
-1605.752511393229
 20
1241.596816640624
 30
0.0
 40
28.50472005208333
  1
1.5インチ(38mm)
 41
0.7
 72
     1
 11
-1500.0
 21
1255.849176666666
 31
0.0
100
AcDbText
 73
     2
  0
TEXT
  5
D4
330
545
100
AcDbEntity
  8
SPEC
 62
     7
100
AcDbText
 10
-2386.5
 20
1298.764176666666
 30
0.0
 40
28.50472005208333
  1
LF
 41
0.7
 11
-2386.5
 21
1327.26889671875
 31
0.0
100
AcDbText
 73
     3
  0
TEXT
  5
D5
330
545
100
AcDbEntity
  8
SPEC
 62
     7
100
AcDbText
 10
-2386.5
 20
1242.514176666666
 30
0.0
 40
28.50472005208333
  1
HF
 41
0.7
 11
-2386.5
 21
1271.018896718749
 31
0.0
100
AcDbText
 73
     3
  0
LINE
  5
D6
330
545
100
AcDbEntity
  8
SPEC
  6
Continuous
 62
     7
100
AcDbLine
 10
-2400.0
 20
1343.19541
 30
0.0
 11
-2400.0
 21
1230.69541
 31
0.0
  0
TEXT
  5
D7
330
545
100
AcDbEntity
  8
SPEC
 62
     7
100
AcDbText
 10
-2774.0
 20
1186.264176666666
 30
0.0
 40
28.50472005208333
  1
クロスオーバー周波数
 41
0.7
 11
-2774.0
 21
1214.768896718749
 31
0.0
100
AcDbText
 73
     3
  0
TEXT
  5
D8
330
545
100
AcDbEntity
  8
SPEC
 62
     7
100
AcDbText
 10
-1943.23215874566
 20
1185.346816640624
 30
0.0
 40
28.50472005208333
  1
1.1kHz
 41
0.7
 72
     1
 11
-1900.0
 21
1199.599176666666
 31
0.0
100
AcDbText
 73
     2
  0
TEXT
  5
D9
330
545
100
AcDbEntity
  8
SPEC
 62
     7
100
AcDbText
 10
-1146.557709418402
 20
1185.346816640624
 30
0.0
 40
28.50472005208333
  1
1.3kHz
 41
0.7
 72
     1
 11
-1100.0
 21
1199.599176666666
 31
0.0
100
AcDbText
 73
     2
  0
TEXT
  5
DA
330
545
100
AcDbEntity
  8
SPEC
 62
     7
100
AcDbText
 10
-2774.0
 20
1130.014176666666
 30
0.0
 40
28.50472005208333
  1
入力端子
 41
0.7
 11
-2774.0
 21
1158.518896718749
 31
0.0
100
AcDbText
 73
     3
  0
TEXT
  5
DB
330
545
100
AcDbEntity
  8
SPEC
 62
     7
100
AcDbText
 10
-1705.51903157552
 20
1072.846816640624
 30
0.0
 40
28.50472005208333
  1
ガラス繊維、ライトグレー/黒(-BK)
 41
0.7
 72
     1
 11
-1500.0
 21
1087.099176666666
 31
0.0
100
AcDbText
 73
     2
  0
TEXT
  5
DC
330
545
100
AcDbEntity
  8
SPEC
 62
     7
100
AcDbText
 10
-1569.171453993055
 20
1129.096816640624
 30
0.0
 40
28.50472005208333
  1
ねじ止め端子
 41
0.7
 72
     1
 11
-1500.0
 21
1143.349176666666
 31
0.0
100
AcDbText
 73
     2
  0
TEXT
  5
DD
330
545
100
AcDbEntity
  8
SPEC
 62
     7
100
AcDbText
 10
-2750.0
 20
786.665
 30
0.0
 40
28.50472005208333
  1
※IECピンクノイズ、クレストファクタ ー6dB、100時間
 41
0.7
 11
-2750.0
 21
815.1697200520834
 31
0.0
100
AcDbText
 73
     3
  0
TEXT
  5
DE
330
545
100
AcDbEntity
  8
SPEC
 62
     7
100
AcDbText
 10
-2286.500000000001
 20
848.7641766666659
 30
0.0
 40
28.50472005208333
  1
スピーカー角度固定ねじ×2、パネルカバー、カバー取付ねじ×6
 41
0.7
 11
-2286.500000000001
 21
877.2688967187493
 31
0.0
100
AcDbText
 73
     3
  0
TEXT
  5
DF
330
545
100
AcDbEntity
  8
SPEC
 62
     7
100
AcDbText
 10
-2286.500000000001
 20
905.0141766666657
 30
0.0
 40
28.50472005208333
  1
U字金具、U字金具取付ねじ(ねじ×2、ワッシャー×2、フリクション・ワッシャー×4)、
 41
0.7
 11
-2286.500000000001
 21
933.5188967187489
 31
0.0
100
AcDbText
 73
     3
  0
TEXT
  5
E0
330
545
100
AcDbEntity
  8
DIMNSIONS
 62
     7
100
AcDbText
 10
-1850.0
 20
-1716.512239999999
 30
0.0
 40
36.64892578125
  1
(単位：mm)
 41
0.7
 11
-1850.0
 21
-1679.863314218749
 31
0.0
100
AcDbText
 73
     3
  0
LINE
  5
E1
330
545
100
AcDbEntity
  8
DIMNSIONS
  6
Continuous
 62
     7
100
AcDbLine
 10
-2571.0
 20
-796.0
 30
0.0
 11
-2682.5
 21
-796.0
 31
0.0
  0
LINE
  5
E2
330
545
100
AcDbEntity
  8
DIMNSIONS
  6
Continuous
 62
     7
100
AcDbLine
 10
-2571.0
 20
-1204.0
 30
0.0
 11
-2682.5
 21
-1204.0
 31
0.0
  0
LINE
  5
E3
330
545
100
AcDbEntity
  8
DIMNSIONS
  6
Continuous
 62
     7
100
AcDbLine
 10
-2675.0
 20
-796.0
 30
0.0
 11
-2675.0
 21
-1204.0
 31
0.0
  0
LINE
  5
E4
330
545
100
AcDbEntity
  8
DIMNSIONS
  6
Continuous
 62
     7
100
AcDbLine
 10
-2675.0
 20
-796.0
 30
0.0
 11
-2666.962014856691
 21
-825.9981689453125
 31
0.0
  0
LINE
  5
E5
330
545
100
AcDbEntity
  8
DIMNSIONS
  6
Continuous
 62
     7
100
AcDbLine
 10
-2675.0
 20
-796.0
 30
0.0
 11
-2683.037985143309
 21
-825.9981689453125
 31
0.0
  0
LINE
  5
E6
330
545
100
AcDbEntity
  8
DIMNSIONS
  6
Continuous
 62
     7
100
AcDbLine
 10
-2675.0
 20
-1204.0
 30
0.0
 11
-2683.037985143309
 21
-1174.001831054687
 31
0.0
  0
LINE
  5
E7
330
545
100
AcDbEntity
  8
DIMNSIONS
  6
Continuous
 62
     7
100
AcDbLine
 10
-2675.0
 20
-1204.0
 30
0.0
 11
-2666.962014856691
 21
-1174.001831054687
 31
0.0
  0
TEXT
  5
E8
330
545
100
AcDbEntity
  8
DIMNSIONS
 62
     7
100
AcDbText
 10
-2686.908333333333
 20
-1039.6875
 30
0.0
 40
40.72102864583334
  1
408
 50
90.0
 41
0.7
 11
-2727.629361979167
 21
-1039.6875
 31
0.0
100
AcDbText
 73
     3
  0
LINE
  5
E9
330
545
100
AcDbEntity
  8
DIMNSIONS
  6
Continuous
 62
     7
100
AcDbLine
 10
-2576.0
 20
-750.0
 30
0.0
 11
-2682.5
 21
-750.0
 31
0.0
  0
LINE
  5
EA
330
545
100
AcDbEntity
  8
DIMNSIONS
  6
Continuous
 62
     7
100
AcDbLine
 10
-2451.691786228381
 20
-298.0
 30
0.0
 11
-2682.5
 21
-298.0
 31
0.0
  0
LINE
  5
EB
330
545
100
AcDbEntity
  8
DIMNSIONS
  6
Continuous
 62
     7
100
AcDbLine
 10
-2675.0
 20
-750.0
 30
0.0
 11
-2675.0
 21
-298.0
 31
0.0
  0
LINE
  5
EC
330
545
100
AcDbEntity
  8
DIMNSIONS
  6
Continuous
 62
     7
100
AcDbLine
 10
-2675.0
 20
-750.0
 30
0.0
 11
-2683.037985143309
 21
-720.0018310546875
 31
0.0
  0
LINE
  5
ED
330
545
100
AcDbEntity
  8
DIMNSIONS
  6
Continuous
 62
     7
100
AcDbLine
 10
-2675.0
 20
-750.0
 30
0.0
 11
-2666.962014856691
 21
-720.0018310546875
 31
0.0
  0
LINE
  5
EE
330
545
100
AcDbEntity
  8
DIMNSIONS
  6
Continuous
 62
     7
100
AcDbLine
 10
-2675.0
 20
-298.0
 30
0.0
 11
-2666.962014856691
 21
-327.9981689453125
 31
0.0
  0
LINE
  5
EF
330
545
100
AcDbEntity
  8
DIMNSIONS
  6
Continuous
 62
     7
100
AcDbLine
 10
-2675.0
 20
-298.0
 30
0.0
 11
-2683.037985143309
 21
-327.9981689453125
 31
0.0
  0
TEXT
  5
F0
330
545
100
AcDbEntity
  8
DIMNSIONS
 62
     7
100
AcDbText
 10
-2686.908333333333
 20
-563.6874999999999
 30
0.0
 40
40.72102864583334
  1
452
 50
90.0
 41
0.7
 11
-2727.629361979167
 21
-563.6874999999999
 31
0.0
100
AcDbText
 73
     3
  0
LINE
  5
F1
330
545
100
AcDbEntity
  8
DIMNSIONS
  6
Continuous
 62
     7
100
AcDbLine
 10
-2565.5
 20
-1209.5
 30
0.0
 11
-2565.5
 21
-1307.5
 31
0.0
  0
LINE
  5
F2
330
545
100
AcDbEntity
  8
DIMNSIONS
  6
Continuous
 62
     7
100
AcDbLine
 10
-1834.5
 20
-1209.5
 30
0.0
 11
-1834.5
 21
-1307.5
 31
0.0
  0
LINE
  5
F3
330
545
100
AcDbEntity
  8
DIMNSIONS
  6
Continuous
 62
     7
100
AcDbLine
 10
-2565.5
 20
-1300.0
 30
0.0
 11
-1834.5
 21
-1300.0
 31
0.0
  0
LINE
  5
F4
330
545
100
AcDbEntity
  8
DIMNSIONS
  6
Continuous
 62
     7
100
AcDbLine
 10
-2565.5
 20
-1300.0
 30
0.0
 11
-2535.501831054688
 21
-1291.962014856691
 31
0.0
  0
LINE
  5
F5
330
545
100
AcDbEntity
  8
DIMNSIONS
  6
Continuous
 62
     7
100
AcDbLine
 10
-2565.5
 20
-1300.0
 30
0.0
 11
-2535.501831054688
 21
-1308.037985143309
 31
0.0
  0
LINE
  5
F6
330
545
100
AcDbEntity
  8
DIMNSIONS
  6
Continuous
 62
     7
100
AcDbLine
 10
-1834.5
 20
-1300.0
 30
0.0
 11
-1864.498168945312
 21
-1308.037985143309
 31
0.0
  0
LINE
  5
F7
330
545
100
AcDbEntity
  8
DIMNSIONS
  6
Continuous
 62
     7
100
AcDbLine
 10
-1834.5
 20
-1300.0
 30
0.0
 11
-1864.498168945312
 21
-1291.962014856691
 31
0.0
  0
TEXT
  5
F8
330
545
100
AcDbEntity
  8
DIMNSIONS
 62
     7
100
AcDbText
 10
-2239.6875
 20
-1288.091666666666
 30
0.0
 40
40.72102864583334
  1
731
 41
0.7
 11
-2239.6875
 21
-1247.370638020833
 31
0.0
100
AcDbText
 73
     3
  0
LINE
  5
F9
330
545
100
AcDbEntity
  8
DIMNSIONS
  6
Continuous
 62
     7
100
AcDbLine
 10
-2200.0
 20
-298.0
 30
0.0
 11
-2200.0
 21
-290.0000000000002
 31
0.0
  0
LINE
  5
FA
330
545
100
AcDbEntity
  8
DIMNSIONS
  6
Continuous
 62
     7
100
AcDbLine
 10
-2210.5
 20
-290.0000000000002
 30
0.0
 11
-2682.5
 21
-290.0000000000002
 31
0.0
  0
LINE
  5
FB
330
545
100
AcDbEntity
  8
DIMNSIONS
  6
Continuous
 62
     7
100
AcDbLine
 10
-2451.691786228381
 20
-298.0
 30
0.0
 11
-2682.5
 21
-298.0
 31
0.0
  0
LINE
  5
FC
330
545
100
AcDbEntity
  8
DIMNSIONS
  6
Continuous
 62
     7
100
AcDbLine
 10
-2675.0
 20
-298.0
 30
0.0
 11
-2675.0
 21
-290.0000000000002
 31
0.0
  0
LINE
  5
FD
330
545
100
AcDbEntity
  8
DIMNSIONS
  6
Continuous
 62
     7
100
AcDbLine
 10
-2675.0
 20
-290.0000000000002
 30
0.0
 11
-2675.0
 21
-170.625
 31
0.0
  0
LINE
  5
FE
330
545
100
AcDbEntity
  8
DIMNSIONS
  6
Continuous
 62
     7
100
AcDbLine
 10
-2675.0
 20
-290.0000000000002
 30
0.0
 11
-2683.037985143309
 21
-260.0018310546877
 31
0.0
  0
LINE
  5
FF
330
545
100
AcDbEntity
  8
DIMNSIONS
  6
Continuous
 62
     7
100
AcDbLine
 10
-2675.0
 20
-290.0000000000002
 30
0.0
 11
-2666.962014856691
 21
-260.0018310546877
 31
0.0
  0
LINE
  5
100
330
545
100
AcDbEntity
  8
DIMNSIONS
  6
Continuous
 62
     7
100
AcDbLine
 10
-2675.0
 20
-298.0
 30
0.0
 11
-2675.0
 21
-343.0
 31
0.0
  0
LINE
  5
101
330
545
100
AcDbEntity
  8
DIMNSIONS
  6
Continuous
 62
     7
100
AcDbLine
 10
-2675.0
 20
-298.0
 30
0.0
 11
-2666.962014856691
 21
-327.9981689453125
 31
0.0
  0
LINE
  5
102
330
545
100
AcDbEntity
  8
DIMNSIONS
  6
Continuous
 62
     7
100
AcDbLine
 10
-2675.0
 20
-298.0
 30
0.0
 11
-2683.037985143309
 21
-327.9981689453125
 31
0.0
  0
TEXT
  5
103
330
545
100
AcDbEntity
  8
DIMNSIONS
 62
     7
100
AcDbText
 10
-2686.908333333333
 20
-250.0
 30
0.0
 40
40.72102864583334
  1
8.0
 50
90.0
 41
0.7
 11
-2727.629361979167
 21
-250.0
 31
0.0
100
AcDbText
 73
     3
  0
TEXT
  5
104
330
545
100
AcDbEntity
  8
DIMNSIONS
 62
     7
100
AcDbText
 10
1250.0
 20
-1716.512239999999
 30
0.0
 40
36.64892578125
  1
(単位：mm)
 41
0.7
 11
1250.0
 21
-1679.863314218749
 31
0.0
100
AcDbText
 73
     3
  0
LINE
  5
105
330
545
100
AcDbEntity
  8
DIMNSIONS
  6
Continuous
 62
     7
100
AcDbLine
 10
885.0999999999997
 20
-723.5
 30
0.0
 11
885.0999999999997
 21
-832.4999999999999
 31
0.0
  0
LINE
  5
106
330
545
100
AcDbEntity
  8
DIMNSIONS
  6
Continuous
 62
     7
100
AcDbLine
 10
1615.100000000001
 20
-723.5
 30
0.0
 11
1615.100000000001
 21
-832.4999999999999
 31
0.0
  0
LINE
  5
107
330
545
100
AcDbEntity
  8
DIMNSIONS
  6
Continuous
 62
     7
100
AcDbLine
 10
885.0999999999997
 20
-825.0
 30
0.0
 11
1615.100000000001
 21
-825.0
 31
0.0
  0
LINE
  5
108
330
545
100
AcDbEntity
  8
DIMNSIONS
  6
Continuous
 62
     7
100
AcDbLine
 10
885.0999999999997
 20
-825.0
 30
0.0
 11
915.0981689453123
 21
-816.9620148566911
 31
0.0
  0
LINE
  5
109
330
545
100
AcDbEntity
  8
DIMNSIONS
  6
Continuous
 62
     7
100
AcDbLine
 10
885.0999999999997
 20
-825.0
 30
0.0
 11
915.0981689453123
 21
-833.037985143309
 31
0.0
  0
LINE
  5
10A
330
545
100
AcDbEntity
  8
DIMNSIONS
  6
Continuous
 62
     7
100
AcDbLine
 10
1615.100000000001
 20
-825.0
 30
0.0
 11
1585.101831054688
 21
-833.037985143309
 31
0.0
  0
LINE
  5
10B
330
545
100
AcDbEntity
  8
DIMNSIONS
  6
Continuous
 62
     7
100
AcDbLine
 10
1615.100000000001
 20
-825.0
 30
0.0
 11
1585.101831054688
 21
-816.9620148566911
 31
0.0
  0
TEXT
  5
10C
330
545
100
AcDbEntity
  8
DIMNSIONS
 62
     7
100
AcDbText
 10
1210.4125
 20
-813.0916666666667
 30
0.0
 40
40.72102864583334
  1
730
 41
0.7
 11
1210.4125
 21
-772.3706380208333
 31
0.0
100
AcDbText
 73
     3
  0
LINE
  5
10D
330
545
100
AcDbEntity
  8
DIMNSIONS
  6
Continuous
 62
     7
100
AcDbLine
 10
874.5999999999998
 20
-769.0000000000138
 30
0.0
 11
817.4999999999997
 21
-769.0000000000138
 31
0.0
  0
LINE
  5
10E
330
545
100
AcDbEntity
  8
DIMNSIONS
  6
Continuous
 62
     7
100
AcDbLine
 10
889.2999999999997
 20
-400.0
 30
0.0
 11
817.4999999999997
 21
-400.0
 31
0.0
  0
LINE
  5
10F
330
545
100
AcDbEntity
  8
DIMNSIONS
  6
Continuous
 62
     7
100
AcDbLine
 10
824.9999999999996
 20
-769.0000000000138
 30
0.0
 11
824.9999999999996
 21
-400.0
 31
0.0
  0
LINE
  5
110
330
545
100
AcDbEntity
  8
DIMNSIONS
  6
Continuous
 62
     7
100
AcDbLine
 10
824.9999999999996
 20
-769.0000000000138
 30
0.0
 11
816.9620148566908
 21
-739.0018310547012
 31
0.0
  0
LINE
  5
111
330
545
100
AcDbEntity
  8
DIMNSIONS
  6
Continuous
 62
     7
100
AcDbLine
 10
824.9999999999996
 20
-769.0000000000138
 30
0.0
 11
833.0379851433086
 21
-739.0018310547012
 31
0.0
  0
LINE
  5
112
330
545
100
AcDbEntity
  8
DIMNSIONS
  6
Continuous
 62
     7
100
AcDbLine
 10
824.9999999999996
 20
-400.0
 30
0.0
 11
833.0379851433086
 21
-429.9981689453125
 31
0.0
  0
LINE
  5
113
330
545
100
AcDbEntity
  8
DIMNSIONS
  6
Continuous
 62
     7
100
AcDbLine
 10
824.9999999999996
 20
-400.0
 30
0.0
 11
816.9620148566908
 21
-429.9981689453125
 31
0.0
  0
TEXT
  5
114
330
545
100
AcDbEntity
  8
DIMNSIONS
 62
     7
100
AcDbText
 10
813.0916666666664
 20
-624.1875000000068
 30
0.0
 40
40.72102864583334
  1
369
 50
90.0
 41
0.7
 11
772.3706380208329
 21
-624.1875000000068
 31
0.0
100
AcDbText
 73
     3
  0
LINE
  5
115
330
545
100
AcDbEntity
  8
DIMNSIONS
  6
Continuous
 62
     7
100
AcDbLine
 10
906.6
 20
144.4999999999996
 30
0.0
 11
817.5
 21
144.4999999999996
 31
0.0
  0
LINE
  5
116
330
545
100
AcDbEntity
  8
DIMNSIONS
  6
Continuous
 62
     7
100
AcDbLine
 10
906.6
 20
55.4999999999999
 30
0.0
 11
817.5
 21
55.4999999999999
 31
0.0
  0
LINE
  5
117
330
545
100
AcDbEntity
  8
DIMNSIONS
  6
Continuous
 62
     7
100
AcDbLine
 10
825.0
 20
144.4999999999996
 30
0.0
 11
825.0
 21
55.4999999999999
 31
0.0
  0
LINE
  5
118
330
545
100
AcDbEntity
  8
DIMNSIONS
  6
Continuous
 62
     7
100
AcDbLine
 10
825.0
 20
144.4999999999996
 30
0.0
 11
833.037985143309
 21
114.5018310546871
 31
0.0
  0
LINE
  5
119
330
545
100
AcDbEntity
  8
DIMNSIONS
  6
Continuous
 62
     7
100
AcDbLine
 10
825.0
 20
144.4999999999996
 30
0.0
 11
816.9620148566911
 21
114.5018310546871
 31
0.0
  0
LINE
  5
11A
330
545
100
AcDbEntity
  8
DIMNSIONS
  6
Continuous
 62
     7
100
AcDbLine
 10
825.0
 20
55.4999999999999
 30
0.0
 11
816.9620148566911
 21
85.49816894531238
 31
0.0
  0
LINE
  5
11B
330
545
100
AcDbEntity
  8
DIMNSIONS
  6
Continuous
 62
     7
100
AcDbLine
 10
825.0
 20
55.4999999999999
 30
0.0
 11
833.037985143309
 21
85.49816894531238
 31
0.0
  0
TEXT
  5
11C
330
545
100
AcDbEntity
  8
DIMNSIONS
 62
     7
100
AcDbText
 10
813.0916666666667
 20
52.41536020903311
 30
0.0
 40
40.72102864583334
  1
89.0
 50
90.0
 41
0.7
 11
772.3706380208333
 21
52.41536020903311
 31
0.0
100
AcDbText
 73
     3
  0
TEXT
  5
11D
330
545
100
AcDbEntity
  8
DIMNSIONS
 62
     7
100
AcDbText
 10
1100.0
 20
19.08166666666674
 30
0.0
 40
28.50472005208333
  1
※
 41
0.7
 11
1100.0
 21
47.58638671875007
 31
0.0
100
AcDbText
 73
     3
  0
TEXT
  5
11E
330
545
100
AcDbEntity
  8
DIMNSIONS
 62
     7
100
AcDbText
 10
1269.8875
 20
-68.41833333333326
 30
0.0
 40
28.50472005208333
  1
※
 41
0.7
 11
1269.8875
 21
-39.91361328124994
 31
0.0
100
AcDbText
 73
     3
  0
TEXT
  5
11F
330
545
100
AcDbEntity
  8
DIMNSIONS
 62
     7
100
AcDbText
 10
1289.6875
 20
-155.9183333333333
 30
0.0
 40
28.50472005208333
  1
※
 41
0.7
 11
1289.6875
 21
-127.41361328125
 31
0.0
100
AcDbText
 73
     3
  0
LINE
  5
120
330
545
100
AcDbEntity
  8
DIMNSIONS
  6
Continuous
 62
     7
100
AcDbLine
 10
1217.0
 20
89.49999999999979
 30
0.0
 11
1217.0
 21
-32.5
 31
0.0
  0
LINE
  5
121
330
545
100
AcDbEntity
  8
DIMNSIONS
  6
Continuous
 62
     7
100
AcDbLine
 10
1283.0
 20
89.49999999999979
 30
0.0
 11
1283.0
 21
-32.5
 31
0.0
  0
LINE
  5
122
330
545
100
AcDbEntity
  8
DIMNSIONS
  6
Continuous
 62
     7
100
AcDbLine
 10
1283.0
 20
-25.0
 30
0.0
 11
1217.0
 21
-25.0
 31
0.0
  0
LINE
  5
123
330
545
100
AcDbEntity
  8
DIMNSIONS
  6
Continuous
 62
     7
100
AcDbLine
 10
1217.0
 20
-25.0
 30
0.0
 11
994.1666666666668
 21
-25.0
 31
0.0
  0
LINE
  5
124
330
545
100
AcDbEntity
  8
DIMNSIONS
  6
Continuous
 62
     7
100
AcDbLine
 10
1217.0
 20
-25.0
 30
0.0
 11
1187.001831054687
 21
-33.03798514330888
 31
0.0
  0
LINE
  5
125
330
545
100
AcDbEntity
  8
DIMNSIONS
  6
Continuous
 62
     7
100
AcDbLine
 10
1217.0
 20
-25.0
 30
0.0
 11
1187.001831054687
 21
-16.96201485669113
 31
0.0
  0
LINE
  5
126
330
545
100
AcDbEntity
  8
DIMNSIONS
  6
Continuous
 62
     7
100
AcDbLine
 10
1283.0
 20
-25.0
 30
0.0
 11
1328.0
 21
-25.0
 31
0.0
  0
LINE
  5
127
330
545
100
AcDbEntity
  8
DIMNSIONS
  6
Continuous
 62
     7
100
AcDbLine
 10
1283.0
 20
-25.0
 30
0.0
 11
1312.998168945312
 21
-16.96201485669113
 31
0.0
  0
LINE
  5
128
330
545
100
AcDbEntity
  8
DIMNSIONS
  6
Continuous
 62
     7
100
AcDbLine
 10
1283.0
 20
-25.0
 30
0.0
 11
1312.998168945312
 21
-33.03798514330887
 31
0.0
  0
TEXT
  5
129
330
545
100
AcDbEntity
  8
DIMNSIONS
 62
     7
100
AcDbText
 10
994.1666666666664
 20
-13.09166666666665
 30
0.0
 40
40.72102864583334
  1
66.0
 41
0.7
 11
994.1666666666664
 21
27.6293619791667
 31
0.0
100
AcDbText
 73
     3
  0
LINE
  5
12A
330
545
100
AcDbEntity
  8
DIMNSIONS
  6
Continuous
 62
     7
100
AcDbLine
 10
1192.5
 20
89.49999999999979
 30
0.0
 11
1192.5
 21
-120.0
 31
0.0
  0
LINE
  5
12B
330
545
100
AcDbEntity
  8
DIMNSIONS
  6
Continuous
 62
     7
100
AcDbLine
 10
1307.5
 20
89.49999999999979
 30
0.0
 11
1307.5
 21
-120.0
 31
0.0
  0
LINE
  5
12C
330
545
100
AcDbEntity
  8
DIMNSIONS
  6
Continuous
 62
     7
100
AcDbLine
 10
1192.5
 20
-112.5
 30
0.0
 11
1307.5
 21
-112.5
 31
0.0
  0
LINE
  5
12D
330
545
100
AcDbEntity
  8
DIMNSIONS
  6
Continuous
 62
     7
100
AcDbLine
 10
1192.5
 20
-112.5
 30
0.0
 11
1222.498168945312
 21
-104.4620148566911
 31
0.0
  0
LINE
  5
12E
330
545
100
AcDbEntity
  8
DIMNSIONS
  6
Continuous
 62
     7
100
AcDbLine
 10
1192.5
 20
-112.5
 30
0.0
 11
1222.498168945312
 21
-120.5379851433088
 31
0.0
  0
LINE
  5
12F
330
545
100
AcDbEntity
  8
DIMNSIONS
  6
Continuous
 62
     7
100
AcDbLine
 10
1307.5
 20
-112.5
 30
0.0
 11
1277.501831054687
 21
-120.5379851433088
 31
0.0
  0
LINE
  5
130
330
545
100
AcDbEntity
  8
DIMNSIONS
  6
Continuous
 62
     7
100
AcDbLine
 10
1307.5
 20
-112.5
 30
0.0
 11
1277.501831054687
 21
-104.4620148566911
 31
0.0
  0
TEXT
  5
131
330
545
100
AcDbEntity
  8
DIMNSIONS
 62
     7
100
AcDbText
 10
1190.5125
 20
-100.5916666666667
 30
0.0
 40
40.72102864583334
  1
115
 41
0.7
 11
1190.5125
 21
-59.87063802083332
 31
0.0
100
AcDbText
 73
     3
  0
LINE
  5
132
330
545
100
AcDbEntity
  8
DIMNSIONS
  6
Continuous
 62
     7
100
AcDbLine
 10
1148.5
 20
89.49999999999979
 30
0.0
 11
1148.5
 21
-207.5
 31
0.0
  0
LINE
  5
133
330
545
100
AcDbEntity
  8
DIMNSIONS
  6
Continuous
 62
     7
100
AcDbLine
 10
1351.5
 20
89.49999999999979
 30
0.0
 11
1351.5
 21
-207.5
 31
0.0
  0
LINE
  5
134
330
545
100
AcDbEntity
  8
DIMNSIONS
  6
Continuous
 62
     7
100
AcDbLine
 10
1148.5
 20
-200.0
 30
0.0
 11
1351.5
 21
-200.0
 31
0.0
  0
LINE
  5
135
330
545
100
AcDbEntity
  8
DIMNSIONS
  6
Continuous
 62
     7
100
AcDbLine
 10
1148.5
 20
-200.0
 30
0.0
 11
1178.498168945312
 21
-191.9620148566911
 31
0.0
  0
LINE
  5
136
330
545
100
AcDbEntity
  8
DIMNSIONS
  6
Continuous
 62
     7
100
AcDbLine
 10
1148.5
 20
-200.0
 30
0.0
 11
1178.498168945312
 21
-208.0379851433089
 31
0.0
  0
LINE
  5
137
330
545
100
AcDbEntity
  8
DIMNSIONS
  6
Continuous
 62
     7
100
AcDbLine
 10
1351.5
 20
-200.0
 30
0.0
 11
1321.501831054687
 21
-208.0379851433089
 31
0.0
  0
LINE
  5
138
330
545
100
AcDbEntity
  8
DIMNSIONS
  6
Continuous
 62
     7
100
AcDbLine
 10
1351.5
 20
-200.0
 30
0.0
 11
1321.501831054687
 21
-191.9620148566911
 31
0.0
  0
TEXT
  5
139
330
545
100
AcDbEntity
  8
DIMNSIONS
 62
     7
100
AcDbText
 10
1210.3125
 20
-188.0916666666666
 30
0.0
 40
40.72102864583334
  1
203
 41
0.7
 11
1210.3125
 21
-147.3706380208333
 31
0.0
100
AcDbText
 73
     3
  0
LINE
  5
13A
330
545
100
AcDbEntity
  8
DIMNSIONS
  6
Continuous
 62
     7
100
AcDbLine
 10
1049.5
 20
140.8999999999997
 30
0.0
 11
1049.5
 21
295.0
 31
0.0
  0
LINE
  5
13B
330
545
100
AcDbEntity
  8
DIMNSIONS
  6
Continuous
 62
     7
100
AcDbLine
 10
1450.5
 20
140.8999999999997
 30
0.0
 11
1450.5
 21
295.0
 31
0.0
  0
LINE
  5
13C
330
545
100
AcDbEntity
  8
DIMNSIONS
  6
Continuous
 62
     7
100
AcDbLine
 10
1049.5
 20
287.5
 30
0.0
 11
1450.5
 21
287.5
 31
0.0
  0
LINE
  5
13D
330
545
100
AcDbEntity
  8
DIMNSIONS
  6
Continuous
 62
     7
100
AcDbLine
 10
1049.5
 20
287.5
 30
0.0
 11
1079.498168945312
 21
295.5379851433089
 31
0.0
  0
LINE
  5
13E
330
545
100
AcDbEntity
  8
DIMNSIONS
  6
Continuous
 62
     7
100
AcDbLine
 10
1049.5
 20
287.5
 30
0.0
 11
1079.498168945312
 21
279.4620148566912
 31
0.0
  0
LINE
  5
13F
330
545
100
AcDbEntity
  8
DIMNSIONS
  6
Continuous
 62
     7
100
AcDbLine
 10
1450.5
 20
287.5
 30
0.0
 11
1420.501831054687
 21
279.4620148566911
 31
0.0
  0
LINE
  5
140
330
545
100
AcDbEntity
  8
DIMNSIONS
  6
Continuous
 62
     7
100
AcDbLine
 10
1450.5
 20
287.5
 30
0.0
 11
1420.501831054687
 21
295.5379851433089
 31
0.0
  0
TEXT
  5
141
330
545
100
AcDbEntity
  8
DIMNSIONS
 62
     7
100
AcDbText
 10
1210.3125
 20
299.4083333333333
 30
0.0
 40
40.72102864583334
  1
401
 41
0.7
 11
1210.3125
 21
340.1293619791667
 31
0.0
100
AcDbText
 73
     3
  0
LINE
  5
142
330
545
100
AcDbEntity
  8
DIMNSIONS
  6
Continuous
 62
     7
100
AcDbLine
 10
1148.5
 20
140.8999999999997
 30
0.0
 11
1148.5
 21
207.5
 31
0.0
  0
LINE
  5
143
330
545
100
AcDbEntity
  8
DIMNSIONS
  6
Continuous
 62
     7
100
AcDbLine
 10
1351.5
 20
140.8999999999997
 30
0.0
 11
1351.5
 21
207.5
 31
0.0
  0
LINE
  5
144
330
545
100
AcDbEntity
  8
DIMNSIONS
  6
Continuous
 62
     7
100
AcDbLine
 10
1148.5
 20
200.0
 30
0.0
 11
1351.5
 21
200.0
 31
0.0
  0
LINE
  5
145
330
545
100
AcDbEntity
  8
DIMNSIONS
  6
Continuous
 62
     7
100
AcDbLine
 10
1148.5
 20
200.0
 30
0.0
 11
1178.498168945312
 21
208.0379851433089
 31
0.0
  0
LINE
  5
146
330
545
100
AcDbEntity
  8
DIMNSIONS
  6
Continuous
 62
     7
100
AcDbLine
 10
1148.5
 20
200.0
 30
0.0
 11
1178.498168945312
 21
191.9620148566911
 31
0.0
  0
LINE
  5
147
330
545
100
AcDbEntity
  8
DIMNSIONS
  6
Continuous
 62
     7
100
AcDbLine
 10
1351.5
 20
200.0
 30
0.0
 11
1321.501831054687
 21
191.9620148566911
 31
0.0
  0
LINE
  5
148
330
545
100
AcDbEntity
  8
DIMNSIONS
  6
Continuous
 62
     7
100
AcDbLine
 10
1351.5
 20
200.0
 30
0.0
 11
1321.501831054687
 21
208.0379851433089
 31
0.0
  0
TEXT
  5
149
330
545
100
AcDbEntity
  8
DIMNSIONS
 62
     7
100
AcDbText
 10
1210.3125
 20
211.9083333333333
 30
0.0
 40
40.72102864583334
  1
203
 41
0.7
 11
1210.3125
 21
252.6293619791667
 31
0.0
100
AcDbText
 73
     3
  0
TEXT
  5
14A
330
545
100
AcDbEntity
  8
DIMNSIONS
 62
     7
100
AcDbText
 10
1289.6875
 20
331.5816666666667
 30
0.0
 40
28.50472005208333
  1
※
 41
0.7
 11
1289.6875
 21
360.08638671875
 31
0.0
100
AcDbText
 73
     3
  0
TEXT
  5
14B
330
545
100
AcDbEntity
  8
DIMNSIONS
 62
     7
100
AcDbText
 10
1289.6875
 20
244.0816666666667
 30
0.0
 40
28.50472005208333
  1
※
 41
0.7
 11
1289.6875
 21
272.5863867187501
 31
0.0
100
AcDbText
 73
     3
  0
LINE
  5
14C
330
545
100
AcDbEntity
  8
DIMNSIONS
  6
Continuous
 62
     7
100
AcDbLine
 10
1799.6
 20
-652.5
 30
0.0
 11
1799.6
 21
-832.4999999999999
 31
0.0
  0
LINE
  5
14D
330
545
100
AcDbEntity
  8
DIMNSIONS
  6
Continuous
 62
     7
100
AcDbLine
 10
1850.4
 20
-652.5
 30
0.0
 11
1850.4
 21
-832.4999999999999
 31
0.0
  0
LINE
  5
14E
330
545
100
AcDbEntity
  8
DIMNSIONS
  6
Continuous
 62
     7
100
AcDbLine
 10
1850.4
 20
-825.0
 30
0.0
 11
1799.6
 21
-825.0
 31
0.0
  0
LINE
  5
14F
330
545
100
AcDbEntity
  8
DIMNSIONS
  6
Continuous
 62
     7
100
AcDbLine
 10
1799.6
 20
-825.0
 30
0.0
 11
1644.266666666667
 21
-825.0
 31
0.0
  0
LINE
  5
150
330
545
100
AcDbEntity
  8
DIMNSIONS
  6
Continuous
 62
     7
100
AcDbLine
 10
1799.6
 20
-825.0
 30
0.0
 11
1769.601831054688
 21
-833.037985143309
 31
0.0
  0
LINE
  5
151
330
545
100
AcDbEntity
  8
DIMNSIONS
  6
Continuous
 62
     7
100
AcDbLine
 10
1799.6
 20
-825.0
 30
0.0
 11
1769.601831054688
 21
-816.9620148566911
 31
0.0
  0
LINE
  5
152
330
545
100
AcDbEntity
  8
DIMNSIONS
  6
Continuous
 62
     7
100
AcDbLine
 10
1850.4
 20
-825.0
 30
0.0
 11
1895.4
 21
-825.0
 31
0.0
  0
LINE
  5
153
330
545
100
AcDbEntity
  8
DIMNSIONS
  6
Continuous
 62
     7
100
AcDbLine
 10
1850.4
 20
-825.0
 30
0.0
 11
1880.398168945313
 21
-816.9620148566911
 31
0.0
  0
LINE
  5
154
330
545
100
AcDbEntity
  8
DIMNSIONS
  6
Continuous
 62
     7
100
AcDbLine
 10
1850.4
 20
-825.0
 30
0.0
 11
1880.398168945313
 21
-833.037985143309
 31
0.0
  0
TEXT
  5
155
330
545
100
AcDbEntity
  8
DIMNSIONS
 62
     7
100
AcDbText
 10
1644.266666666666
 20
-813.0916666666667
 30
0.0
 40
40.72102864583334
  1
50.8
 41
0.7
 11
1644.266666666666
 21
-772.3706380208333
 31
0.0
100
AcDbText
 73
     3
  0
TEXT
  5
156
330
545
100
AcDbEntity
  8
DIMNSIONS
 62
     7
100
AcDbText
 10
1750.0
 20
-780.9183333333335
 30
0.0
 40
28.50472005208333
  1
※
 41
0.7
 11
1750.0
 21
-752.4136132812501
 31
0.0
100
AcDbText
 73
     3
  0
LINE
  5
157
330
545
100
AcDbEntity
  8
DIMNSIONS
  6
Continuous
 62
     7
100
AcDbLine
 10
1835.5
 20
-732.0
 30
0.0
 11
2032.5
 21
-732.0
 31
0.0
  0
LINE
  5
158
330
545
100
AcDbEntity
  8
DIMNSIONS
  6
Continuous
 62
     7
100
AcDbLine
 10
1875.0
 20
-400.0
 30
0.0
 11
2032.5
 21
-400.0
 31
0.0
  0
LINE
  5
159
330
545
100
AcDbEntity
  8
DIMNSIONS
  6
Continuous
 62
     7
100
AcDbLine
 10
2025.0
 20
-400.0
 30
0.0
 11
2025.0
 21
-732.0
 31
0.0
  0
LINE
  5
15A
330
545
100
AcDbEntity
  8
DIMNSIONS
  6
Continuous
 62
     7
100
AcDbLine
 10
2025.0
 20
-732.0
 30
0.0
 11
2025.0
 21
-687.0
 31
0.0
  0
LINE
  5
15B
330
545
100
AcDbEntity
  8
DIMNSIONS
  6
Continuous
 62
     7
100
AcDbLine
 10
2025.0
 20
-732.0
 30
0.0
 11
2016.962014856691
 21
-702.0018310546874
 31
0.0
  0
LINE
  5
15C
330
545
100
AcDbEntity
  8
DIMNSIONS
  6
Continuous
 62
     7
100
AcDbLine
 10
2025.0
 20
-732.0
 30
0.0
 11
2033.037985143309
 21
-702.0018310546874
 31
0.0
  0
LINE
  5
15D
330
545
100
AcDbEntity
  8
DIMNSIONS
  6
Continuous
 62
     7
100
AcDbLine
 10
2025.0
 20
-400.0
 30
0.0
 11
2025.0
 21
-605.6874999999999
 31
0.0
  0
LINE
  5
15E
330
545
100
AcDbEntity
  8
DIMNSIONS
  6
Continuous
 62
     7
100
AcDbLine
 10
2025.0
 20
-400.0
 30
0.0
 11
2033.037985143309
 21
-429.9981689453125
 31
0.0
  0
LINE
  5
15F
330
545
100
AcDbEntity
  8
DIMNSIONS
  6
Continuous
 62
     7
100
AcDbLine
 10
2025.0
 20
-400.0
 30
0.0
 11
2016.962014856691
 21
-429.9981689453125
 31
0.0
  0
TEXT
  5
160
330
545
100
AcDbEntity
  8
DIMNSIONS
 62
     7
100
AcDbText
 10
2013.091666666666
 20
-605.6874999999999
 30
0.0
 40
40.72102864583334
  1
332
 50
90.0
 41
0.7
 11
1972.370638020833
 21
-605.6874999999999
 31
0.0
100
AcDbText
 73
     3
  0
LINE
  5
161
330
545
100
AcDbEntity
  8
DIMNSIONS
  6
Continuous
 62
     7
100
AcDbLine
 10
1850.902346779397
 20
-638.5362379323833
 30
0.0
 11
1900.0
 21
-300.0
 31
0.0
  0
LINE
  5
162
330
545
100
AcDbEntity
  8
DIMNSIONS
  6
Continuous
 62
     7
100
AcDbLine
 10
1850.902346779397
 20
-638.5362379323833
 30
0.0
 11
1847.656070082621
 21
-607.6499783200001
 31
0.0
  0
LINE
  5
163
330
545
100
AcDbEntity
  8
DIMNSIONS
  6
Continuous
 62
     7
100
AcDbLine
 10
1850.902346779397
 20
-638.5362379323833
 30
0.0
 11
1863.534118498467
 21
-610.1648141317898
 31
0.0
  0
LINE
  5
164
330
545
100
AcDbEntity
  8
DIMNSIONS
  6
Continuous
 62
     7
100
AcDbLine
 10
1900.0
 20
-300.0
 30
0.0
 11
1930.0
 21
-300.0
 31
0.0
  0
TEXT
  5
165
330
545
100
AcDbEntity
  8
DIMNSIONS
 62
     7
100
AcDbText
 10
1930.0
 20
-319.0500000000001
 30
0.0
 40
40.72102864583334
  1
φ7.0
 41
0.7
 11
1930.0
 21
-278.3289713541667
 31
0.0
100
AcDbText
 73
     3
  0
LINE
  5
166
330
545
100
AcDbEntity
  8
DIMNSIONS
  6
Continuous
 62
     7
100
AcDbLine
 10
1828.704166682915
 20
-735.3584444591762
 30
0.0
 11
1900.0
 21
-800.0
 31
0.0
  0
LINE
  5
167
330
545
100
AcDbEntity
  8
DIMNSIONS
  6
Continuous
 62
     7
100
AcDbLine
 10
1828.704166682915
 20
-735.3584444591762
 30
0.0
 11
1856.375612581267
 21
-749.4577503686943
 31
0.0
  0
LINE
  5
168
330
545
100
AcDbEntity
  8
DIMNSIONS
  6
Continuous
 62
     7
100
AcDbLine
 10
1828.704166682915
 20
-735.3584444591762
 30
0.0
 11
1845.618688835574
 21
-761.4045245017226
 31
0.0
  0
LINE
  5
169
330
545
100
AcDbEntity
  8
DIMNSIONS
  6
Continuous
 62
     7
100
AcDbLine
 10
1900.0
 20
-800.0
 30
0.0
 11
1930.0
 21
-800.0
 31
0.0
  0
TEXT
  5
16A
330
545
100
AcDbEntity
  8
DIMNSIONS
 62
     7
100
AcDbText
 10
1930.0
 20
-819.05
 30
0.0
 40
40.72102864583334
  1
φ10.0
 41
0.7
 11
1930.0
 21
-778.3289713541667
 31
0.0
100
AcDbText
 73
     3
  0
LINE
  5
16B
330
545
100
AcDbEntity
  8
DIMNSIONS
  6
Continuous
 62
     7
100
AcDbLine
 10
1860.9
 20
-642.0
 30
0.0
 11
1957.5
 21
-642.0
 31
0.0
  0
LINE
  5
16C
330
545
100
AcDbEntity
  8
DIMNSIONS
  6
Continuous
 62
     7
100
AcDbLine
 10
1873.6
 20
-400.0
 30
0.0
 11
1957.5
 21
-400.0
 31
0.0
  0
LINE
  5
16D
330
545
100
AcDbEntity
  8
DIMNSIONS
  6
Continuous
 62
     7
100
AcDbLine
 10
1950.0
 20
-642.0
 30
0.0
 11
1950.0
 21
-400.0
 31
0.0
  0
LINE
  5
16E
330
545
100
AcDbEntity
  8
DIMNSIONS
  6
Continuous
 62
     7
100
AcDbLine
 10
1950.0
 20
-642.0
 30
0.0
 11
1941.962014856691
 21
-612.0018310546875
 31
0.0
  0
LINE
  5
16F
330
545
100
AcDbEntity
  8
DIMNSIONS
  6
Continuous
 62
     7
100
AcDbLine
 10
1950.0
 20
-642.0
 30
0.0
 11
1958.037985143309
 21
-612.0018310546875
 31
0.0
  0
LINE
  5
170
330
545
100
AcDbEntity
  8
DIMNSIONS
  6
Continuous
 62
     7
100
AcDbLine
 10
1950.0
 20
-400.0
 30
0.0
 11
1958.037985143309
 21
-429.9981689453125
 31
0.0
  0
LINE
  5
171
330
545
100
AcDbEntity
  8
DIMNSIONS
  6
Continuous
 62
     7
100
AcDbLine
 10
1950.0
 20
-400.0
 30
0.0
 11
1941.962014856691
 21
-429.9981689453125
 31
0.0
  0
TEXT
  5
172
330
545
100
AcDbEntity
  8
DIMNSIONS
 62
     7
100
AcDbText
 10
1938.091666666666
 20
-560.6875
 30
0.0
 40
40.72102864583334
  1
242
 50
90.0
 41
0.7
 11
1897.370638020833
 21
-560.6875
 31
0.0
100
AcDbText
 73
     3
  0
LINE
  5
173
330
545
100
AcDbEntity
  8
DIMNSIONS
  6
Continuous
 62
     7
100
AcDbLine
 10
-801.1327531487108
 20
-999.8362573303005
 30
0.0
 11
-875.0
 21
-1250.0
 31
0.0
  0
LINE
  5
174
330
545
100
AcDbEntity
  8
DIMNSIONS
  6
Continuous
 62
     7
100
AcDbLine
 10
-801.1327531487108
 20
-999.8362573303005
 30
0.0
 11
-801.6747618853644
 21
-1030.887917056714
 31
0.0
  0
LINE
  5
175
330
545
100
AcDbEntity
  8
DIMNSIONS
  6
Continuous
 62
     7
100
AcDbLine
 10
-801.1327531487108
 20
-999.8362573303005
 30
0.0
 11
-817.1279763469325
 21
-1026.456779114718
 31
0.0
  0
LINE
  5
176
330
545
100
AcDbEntity
  8
DIMNSIONS
  6
Continuous
 62
     7
100
AcDbLine
 10
-875.0
 20
-1250.0
 30
0.0
 11
-905.0
 21
-1250.0
 31
0.0
  0
TEXT
  5
177
330
545
100
AcDbEntity
  8
DIMNSIONS
 62
     7
100
AcDbText
 10
-1196.041666666667
 20
-1269.05
 30
0.0
 40
40.72102864583334
  1
M10落下防止
 41
0.7
 11
-1196.041666666667
 21
-1228.328971354166
 31
0.0
100
AcDbText
 73
     3
  0
LINE
  5
178
330
545
100
AcDbEntity
  8
DIMNSIONS
  6
Continuous
 62
     7
100
AcDbLine
 10
945.5
 20
89.50000000000001
 30
0.0
 11
945.5
 21
-295.0
 31
0.0
  0
LINE
  5
179
330
545
100
AcDbEntity
  8
DIMNSIONS
  6
Continuous
 62
     7
100
AcDbLine
 10
1554.5
 20
89.50000000000001
 30
0.0
 11
1554.5
 21
-295.0
 31
0.0
  0
LINE
  5
17A
330
545
100
AcDbEntity
  8
DIMNSIONS
  6
Continuous
 62
     7
100
AcDbLine
 10
945.5
 20
-287.5
 30
0.0
 11
1554.5
 21
-287.5
 31
0.0
  0
LINE
  5
17B
330
545
100
AcDbEntity
  8
DIMNSIONS
  6
Continuous
 62
     7
100
AcDbLine
 10
945.5
 20
-287.5
 30
0.0
 11
975.4981689453124
 21
-279.4620148566912
 31
0.0
  0
LINE
  5
17C
330
545
100
AcDbEntity
  8
DIMNSIONS
  6
Continuous
 62
     7
100
AcDbLine
 10
945.5
 20
-287.5
 30
0.0
 11
975.4981689453124
 21
-295.5379851433089
 31
0.0
  0
LINE
  5
17D
330
545
100
AcDbEntity
  8
DIMNSIONS
  6
Continuous
 62
     7
100
AcDbLine
 10
1554.5
 20
-287.5
 30
0.0
 11
1524.501831054687
 21
-295.5379851433089
 31
0.0
  0
LINE
  5
17E
330
545
100
AcDbEntity
  8
DIMNSIONS
  6
Continuous
 62
     7
100
AcDbLine
 10
1554.5
 20
-287.5
 30
0.0
 11
1524.501831054687
 21
-279.4620148566912
 31
0.0
  0
TEXT
  5
17F
330
545
100
AcDbEntity
  8
DIMNSIONS
 62
     7
100
AcDbText
 10
1210.3125
 20
-275.5916666666667
 30
0.0
 40
40.72102864583334
  1
609
 41
0.7
 11
1210.3125
 21
-234.8706380208333
 31
0.0
100
AcDbText
 73
     3
  0
LINE
  5
180
330
545
100
AcDbEntity
  8
DIMNSIONS
  6
Continuous
 62
     7
100
AcDbLine
 10
924.0
 20
64.09999999999974
 30
0.0
 11
924.0
 21
-382.5
 31
0.0
  0
LINE
  5
181
330
545
100
AcDbEntity
  8
DIMNSIONS
  6
Continuous
 62
     7
100
AcDbLine
 10
1576.0
 20
64.09999999999974
 30
0.0
 11
1576.0
 21
-382.5
 31
0.0
  0
LINE
  5
182
330
545
100
AcDbEntity
  8
DIMNSIONS
  6
Continuous
 62
     7
100
AcDbLine
 10
924.0
 20
-375.0
 30
0.0
 11
1576.0
 21
-375.0
 31
0.0
  0
LINE
  5
183
330
545
100
AcDbEntity
  8
DIMNSIONS
  6
Continuous
 62
     7
100
AcDbLine
 10
924.0
 20
-375.0
 30
0.0
 11
953.9981689453124
 21
-366.9620148566912
 31
0.0
  0
LINE
  5
184
330
545
100
AcDbEntity
  8
DIMNSIONS
  6
Continuous
 62
     7
100
AcDbLine
 10
924.0
 20
-375.0
 30
0.0
 11
953.9981689453124
 21
-383.0379851433088
 31
0.0
  0
LINE
  5
185
330
545
100
AcDbEntity
  8
DIMNSIONS
  6
Continuous
 62
     7
100
AcDbLine
 10
1576.0
 20
-375.0
 30
0.0
 11
1546.001831054687
 21
-383.0379851433089
 31
0.0
  0
LINE
  5
186
330
545
100
AcDbEntity
  8
DIMNSIONS
  6
Continuous
 62
     7
100
AcDbLine
 10
1576.0
 20
-375.0
 30
0.0
 11
1546.001831054687
 21
-366.9620148566912
 31
0.0
  0
TEXT
  5
187
330
545
100
AcDbEntity
  8
DIMNSIONS
 62
     7
100
AcDbText
 10
1210.3125
 20
-363.0916666666667
 30
0.0
 40
40.72102864583334
  1
652
 41
0.7
 11
1210.3125
 21
-322.3706380208333
 31
0.0
100
AcDbText
 73
     3
  0
TEXT
  5
188
330
545
100
AcDbEntity
  8
DIMNSIONS
 62
     7
100
AcDbText
 10
1289.6875
 20
-330.9183333333333
 30
0.0
 40
28.50472005208333
  1
※
 41
0.7
 11
1289.6875
 21
-302.41361328125
 31
0.0
100
AcDbText
 73
     3
  0
TEXT
  5
189
330
545
100
AcDbEntity
  8
DIMNSIONS
 62
     7
100
AcDbText
 10
1289.6875
 20
-243.4183333333333
 30
0.0
 40
28.50472005208333
  1
※
 41
0.7
 11
1289.6875
 21
-214.91361328125
 31
0.0
100
AcDbText
 73
     3
  0
LINE
  5
18A
330
545
100
AcDbEntity
  8
DIMNSIONS
  6
Continuous
 62
     7
100
AcDbLine
 10
1465.024203554587
 20
130.3724451463658
 30
0.0
 11
1475.0
 21
225.0
 31
0.0
  0
LINE
  5
18B
330
545
100
AcDbEntity
  8
DIMNSIONS
  6
Continuous
 62
     7
100
AcDbLine
 10
1465.024203554587
 20
130.3724451463658
 30
0.0
 11
1460.701989486367
 21
161.1265962610374
 31
0.0
  0
LINE
  5
18C
330
545
100
AcDbEntity
  8
DIMNSIONS
  6
Continuous
 62
     7
100
AcDbLine
 10
1465.024203554587
 20
130.3724451463658
 30
0.0
 11
1476.65813192825
 21
159.1674283176066
 31
0.0
  0
LINE
  5
18D
330
545
100
AcDbEntity
  8
DIMNSIONS
  6
Continuous
 62
     7
100
AcDbLine
 10
1475.0
 20
225.0
 30
0.0
 11
1505.0
 21
225.0
 31
0.0
  0
TEXT
  5
18E
330
545
100
AcDbEntity
  8
DIMNSIONS
 62
     7
100
AcDbText
 10
1505.0
 20
205.95
 30
0.0
 40
40.72102864583334
  1
38.0×10.0長穴(8ヵ所)
 41
0.7
 11
1505.0
 21
246.6710286458333
 31
0.0
100
AcDbText
 73
     3
  0
TEXT
  5
18F
330
545
100
AcDbEntity
  8
DIMNSIONS
 62
     7
100
AcDbText
 10
1930.0
 20
-371.9666666666668
 30
0.0
 40
40.72102864583334
  1
(4ヵ所)
 41
0.7
 11
1930.0
 21
-331.2456380208335
 31
0.0
100
AcDbText
 73
     3
  0
TEXT
  5
190
330
545
100
AcDbEntity
  8
DIMNSIONS
 62
     7
100
AcDbText
 10
1650.0
 20
-1519.05
 30
0.0
 40
40.72102864583334
  1
※センター振り分け
 41
0.7
 11
1650.0
 21
-1478.328971354166
 31
0.0
100
AcDbText
 73
     3
  0
TEXT
  5
191
330
545
100
AcDbEntity
  8
DIMNSIONS
 62
     7
100
AcDbText
 10
-1275.416666666667
 20
-1321.966666666666
 30
0.0
 40
40.72102864583334
  1
ワイヤー取付穴
 41
0.7
 11
-1275.416666666667
 21
-1281.245638020833
 31
0.0
100
AcDbText
 73
     3
  0
LINE
  5
192
330
545
100
AcDbEntity
  8
DIMNSIONS
  6
Continuous
 62
     7
100
AcDbLine
 10
1577.065759877749
 20
69.71490472362257
 30
0.0
 11
1625.0
 21
-150.0
 31
0.0
  0
LINE
  5
193
330
545
100
AcDbEntity
  8
DIMNSIONS
  6
Continuous
 62
     7
100
AcDbLine
 10
1577.065759877749
 20
69.71490472362257
 30
0.0
 11
1591.645851715211
 21
42.29374013772765
 31
0.0
  0
LINE
  5
194
330
545
100
AcDbEntity
  8
DIMNSIONS
  6
Continuous
 62
     7
100
AcDbLine
 10
1577.065759877749
 20
69.71490472362257
 30
0.0
 11
1575.981907505554
 21
38.67743367215234
 31
0.0
  0
LINE
  5
195
330
545
100
AcDbEntity
  8
DIMNSIONS
  6
Continuous
 62
     7
100
AcDbLine
 10
1625.0
 20
-150.0
 30
0.0
 11
1655.0
 21
-150.0
 31
0.0
  0
TEXT
  5
196
330
545
100
AcDbEntity
  8
DIMNSIONS
 62
     7
100
AcDbText
 10
1655.0
 20
-169.05
 30
0.0
 40
40.72102864583334
  1
φ10.0(12カ所）
 41
0.7
 11
1655.0
 21
-128.3289713541666
 31
0.0
100
AcDbText
 73
     3
  0
TEXT
  5
197
330
545
100
AcDbEntity
  8
DIMNSIONS
 62
     7
100
AcDbText
 10
1680.918333333333
 20
25.0
 30
0.0
 40
28.50472005208333
  1
※
 50
90.0
 41
0.7
 11
1652.41361328125
 21
25.0
 31
0.0
100
AcDbText
 73
     3
  0
LINE
  5
198
330
545
100
AcDbEntity
  8
DIMNSIONS
  6
Continuous
 62
     7
100
AcDbLine
 10
1586.5
 20
125.3999999999997
 30
0.0
 11
1732.5
 21
125.3999999999997
 31
0.0
  0
LINE
  5
199
330
545
100
AcDbEntity
  8
DIMNSIONS
  6
Continuous
 62
     7
100
AcDbLine
 10
1586.5
 20
74.59999999999974
 30
0.0
 11
1732.5
 21
74.59999999999974
 31
0.0
  0
LINE
  5
19A
330
545
100
AcDbEntity
  8
DIMNSIONS
  6
Continuous
 62
     7
100
AcDbLine
 10
1725.0
 20
74.59999999999974
 30
0.0
 11
1725.0
 21
125.3999999999997
 31
0.0
  0
LINE
  5
19B
330
545
100
AcDbEntity
  8
DIMNSIONS
  6
Continuous
 62
     7
100
AcDbLine
 10
1725.0
 20
125.3999999999997
 30
0.0
 11
1725.0
 21
170.3999999999997
 31
0.0
  0
LINE
  5
19C
330
545
100
AcDbEntity
  8
DIMNSIONS
  6
Continuous
 62
     7
100
AcDbLine
 10
1725.0
 20
125.3999999999997
 30
0.0
 11
1716.962014856691
 21
155.3981689453122
 31
0.0
  0
LINE
  5
19D
330
545
100
AcDbEntity
  8
DIMNSIONS
  6
Continuous
 62
     7
100
AcDbLine
 10
1725.0
 20
125.3999999999997
 30
0.0
 11
1733.037985143309
 21
155.3981689453122
 31
0.0
  0
LINE
  5
19E
330
545
100
AcDbEntity
  8
DIMNSIONS
  6
Continuous
 62
     7
100
AcDbLine
 10
1725.0
 20
74.59999999999974
 30
0.0
 11
1725.0
 21
-80.83333333333333
 31
0.0
  0
LINE
  5
19F
330
545
100
AcDbEntity
  8
DIMNSIONS
  6
Continuous
 62
     7
100
AcDbLine
 10
1725.0
 20
74.59999999999974
 30
0.0
 11
1733.037985143309
 21
44.60183105468725
 31
0.0
  0
LINE
  5
1A0
330
545
100
AcDbEntity
  8
DIMNSIONS
  6
Continuous
 62
     7
100
AcDbLine
 10
1725.0
 20
74.59999999999974
 30
0.0
 11
1716.962014856691
 21
44.60183105468725
 31
0.0
  0
TEXT
  5
1A1
330
545
100
AcDbEntity
  8
DIMNSIONS
 62
     7
100
AcDbText
 10
1713.091666666666
 20
-80.83333333333333
 30
0.0
 40
40.72102864583334
  1
50.8
 50
90.0
 41
0.7
 11
1672.370638020833
 21
-80.83333333333333
 31
0.0
100
AcDbText
 73
     3
  0
LINE
  5
1A2
330
545
100
AcDbEntity
  8
DIMNSIONS
  6
Continuous
 62
     7
100
AcDbLine
 10
-2210.5
 20
-290.0000000000002
 30
0.0
 11
-2607.5
 21
-290.0000000000002
 31
0.0
  0
LINE
  5
1A3
330
545
100
AcDbEntity
  8
DIMNSIONS
  6
Continuous
 62
     7
100
AcDbLine
 10
-2560.700000000001
 20
-227.5
 30
0.0
 11
-2607.5
 21
-227.5
 31
0.0
  0
LINE
  5
1A4
330
545
100
AcDbEntity
  8
DIMNSIONS
  6
Continuous
 62
     7
100
AcDbLine
 10
-2600.0
 20
-227.5
 30
0.0
 11
-2600.0
 21
-290.0000000000002
 31
0.0
  0
LINE
  5
1A5
330
545
100
AcDbEntity
  8
DIMNSIONS
  6
Continuous
 62
     7
100
AcDbLine
 10
-2600.0
 20
-290.0000000000002
 30
0.0
 11
-2600.0
 21
-335.0000000000002
 31
0.0
  0
LINE
  5
1A6
330
545
100
AcDbEntity
  8
DIMNSIONS
  6
Continuous
 62
     7
100
AcDbLine
 10
-2600.0
 20
-290.0000000000002
 30
0.0
 11
-2591.962014856691
 21
-319.9981689453127
 31
0.0
  0
LINE
  5
1A7
330
545
100
AcDbEntity
  8
DIMNSIONS
  6
Continuous
 62
     7
100
AcDbLine
 10
-2600.0
 20
-290.0000000000002
 30
0.0
 11
-2608.037985143309
 21
-319.9981689453127
 31
0.0
  0
LINE
  5
1A8
330
545
100
AcDbEntity
  8
DIMNSIONS
  6
Continuous
 62
     7
100
AcDbLine
 10
-2600.0
 20
-227.5
 30
0.0
 11
-2600.0
 21
-94.16666666666664
 31
0.0
  0
LINE
  5
1A9
330
545
100
AcDbEntity
  8
DIMNSIONS
  6
Continuous
 62
     7
100
AcDbLine
 10
-2600.0
 20
-227.5
 30
0.0
 11
-2608.037985143309
 21
-197.5018310546875
 31
0.0
  0
LINE
  5
1AA
330
545
100
AcDbEntity
  8
DIMNSIONS
  6
Continuous
 62
     7
100
AcDbLine
 10
-2600.0
 20
-227.5
 30
0.0
 11
-2591.962014856691
 21
-197.5018310546875
 31
0.0
  0
TEXT
  5
1AB
330
545
100
AcDbEntity
  8
DIMNSIONS
 62
     7
100
AcDbText
 10
-2611.908333333333
 20
-200.0
 30
0.0
 40
40.72102864583334
  1
62.5
 50
90.0
 41
0.7
 11
-2652.629361979167
 21
-200.0
 31
0.0
100
AcDbText
 73
     3
  0
TEXT
  5
1AC
330
545
100
AcDbEntity
  8
DATA
 62
     7
100
AcDbText
 10
-2862.5
 20
-1782.410423333333
 30
0.0
 40
28.50472005208334
  1
※仕様及び外観は予告なく変更されることがあります。
 41
0.7
 11
-2862.5
 21
-1753.90570328125
 31
0.0
100
AcDbText
 73
     3
  0
TEXT
  5
1AD
330
545
100
AcDbEntity
  8
DATA
 62
     7
100
AcDbText
 10
-2862.5
 20
-1819.45209
 30
0.0
 40
28.50472005208334
  1
　また、同一商品でも若干の個体差があることがあります。ご了承ください。
 41
0.7
 11
-2862.5
 21
-1790.947369947917
 31
0.0
100
AcDbText
 73
     3
  0
TEXT
  5
1AE
330
545
100
AcDbEntity
  8
DATA
 62
     7
100
AcDbText
 10
-980.7633734809028
 20
-370.3605143229167
 30
0.0
 40
40.72102864583334
  1
端子拡大図
 41
0.7
 72
     1
 11
-900.0
 21
-350.0
 31
0.0
100
AcDbText
 73
     2
  0
LINE
  5
1AF
330
545
100
AcDbEntity
  8
DATA
  6
Continuous
 62
     7
100
AcDbLine
 10
-2565.5
 20
-1199.0
 30
0.0
 11
-2565.5
 21
-801.0
 31
0.0
  0
ARC
  5
1B0
330
545
100
AcDbEntity
  8
DATA
  6
Continuous
 62
     7
100
AcDbCircle
 10
-2560.5
 20
-1199.0
 30
0.0
 40
5.0
100
AcDbArc
 50
180.0
 51
270.0
  0
LINE
  5
1B1
330
545
100
AcDbEntity
  8
DATA
  6
Continuous
 62
     7
100
AcDbLine
 10
-1839.5
 20
-1204.0
 30
0.0
 11
-2560.5
 21
-1204.0
 31
0.0
  0
ARC
  5
1B2
330
545
100
AcDbEntity
  8
DATA
  6
Continuous
 62
     7
100
AcDbCircle
 10
-1839.5
 20
-1199.0
 30
0.0
 40
5.0
100
AcDbArc
 50
270.0
 51
0.0
  0
LINE
  5
1B3
330
545
100
AcDbEntity
  8
DATA
  6
Continuous
 62
     7
100
AcDbLine
 10
-1834.5
 20
-801.0
 30
0.0
 11
-1834.5
 21
-1199.0
 31
0.0
  0
ARC
  5
1B4
330
545
100
AcDbEntity
  8
DATA
  6
Continuous
 62
     7
100
AcDbCircle
 10
-1839.5
 20
-801.0
 30
0.0
 40
5.0
100
AcDbArc
 50
0.0
 51
90.0
  0
LINE
  5
1B5
330
545
100
AcDbEntity
  8
DATA
  6
Continuous
 62
     7
100
AcDbLine
 10
-2560.5
 20
-796.0
 30
0.0
 11
-1839.5
 21
-796.0
 31
0.0
  0
ARC
  5
1B6
330
545
100
AcDbEntity
  8
DATA
  6
Continuous
 62
     7
100
AcDbCircle
 10
-2560.5
 20
-801.0
 30
0.0
 40
5.0
100
AcDbArc
 50
90.0
 51
180.0
  0
LINE
  5
1B7
330
545
100
AcDbEntity
  8
DATA
  6
Continuous
 62
     7
100
AcDbLine
 10
-1775.0
 20
-1204.0
 30
0.0
 11
-1775.0
 21
-796.0
 31
0.0
  0
LINE
  5
1B8
330
545
100
AcDbEntity
  8
DATA
  6
Continuous
 62
     7
100
AcDbLine
 10
-1341.5
 20
-935.6025497470094
 30
0.0
 11
-1341.5
 21
-958.7000000000006
 31
0.0
  0
LINE
  5
1B9
330
545
100
AcDbEntity
  8
DATA
  6
STYLE_01
 62
     7
100
AcDbLine
 10
-1341.5
 20
-958.7000000000006
 30
0.0
 11
-1341.5
 21
-1041.3
 31
0.0
  0
LINE
  5
1BA
330
545
100
AcDbEntity
  8
DATA
  6
Continuous
 62
     7
100
AcDbLine
 10
-1341.5
 20
-1041.3
 30
0.0
 11
-1341.5
 21
-1064.39745025299
 31
0.0
  0
LINE
  5
1BB
330
545
100
AcDbEntity
  8
DATA
  6
STYLE_01
 62
     7
100
AcDbLine
 10
-1540.0
 20
-1016.937888847637
 30
0.0
 11
-1540.0
 21
-983.0621111523633
 31
0.0
  0
CIRCLE
  5
1BC
330
545
100
AcDbEntity
  8
DATA
  6
STYLE_01
 62
     7
100
AcDbCircle
 10
-1584.5
 20
-1000.0
 30
0.0
 40
33.0
  0
ARC
  5
1BD
330
545
100
AcDbEntity
  8
DATA
  6
STYLE_01
 62
     7
100
AcDbCircle
 10
-1618.325846596899
 20
-1077.470841582885
 30
0.0
 40
130.9725766248041
100
AcDbArc
 50
58.29216929585202
 51
61.93383821902251
  0
ARC
  5
1BE
330
545
100
AcDbEntity
  8
DATA
  6
STYLE_01
 62
     7
100
AcDbCircle
 10
-1618.325846596899
 20
-922.5291584171143
 30
0.0
 40
130.9725766248041
100
AcDbArc
 50
298.066161780976
 51
301.707830704148
  0
ARC
  5
1BF
330
545
100
AcDbEntity
  8
DATA
  6
STYLE_01
 62
     7
100
AcDbCircle
 10
-1560.0
 20
-983.0621111523633
 30
0.0
 40
20.0
100
AcDbArc
 50
0.0
 51
58.29216929585226
  0
ARC
  5
1C0
330
545
100
AcDbEntity
  8
DATA
  6
STYLE_01
 62
     7
100
AcDbCircle
 10
-1560.0
 20
-1016.937888847637
 30
0.0
 40
20.00000000000003
100
AcDbArc
 50
301.7078307041478
 51
0.0
  0
CIRCLE
  5
1C1
330
545
100
AcDbEntity
  8
DATA
  6
Continuous
 62
     7
100
AcDbCircle
 10
-1584.5
 20
-1000.0
 30
0.0
 40
8.65000000000009
  0
CIRCLE
  5
1C2
330
545
100
AcDbEntity
  8
DATA
  6
Continuous
 62
     7
100
AcDbCircle
 10
-1584.5
 20
-1000.0
 30
0.0
 40
4.0
  0
LINE
  5
1C3
330
545
100
AcDbEntity
  8
DATA
  6
Continuous
 62
     7
100
AcDbLine
 10
-1584.5
 20
-996.0
 30
0.0
 11
-1581.035898384862
 21
-998.0
 31
0.0
  0
LINE
  5
1C4
330
545
100
AcDbEntity
  8
DATA
  6
Continuous
 62
     7
100
AcDbLine
 10
-1587.964101615138
 20
-998.0
 30
0.0
 11
-1584.5
 21
-996.0
 31
0.0
  0
LINE
  5
1C5
330
545
100
AcDbEntity
  8
DATA
  6
Continuous
 62
     7
100
AcDbLine
 10
-1587.964101615138
 20
-1002.0
 30
0.0
 11
-1587.964101615138
 21
-998.0
 31
0.0
  0
LINE
  5
1C6
330
545
100
AcDbEntity
  8
DATA
  6
Continuous
 62
     7
100
AcDbLine
 10
-1584.5
 20
-1004.0
 30
0.0
 11
-1587.964101615138
 21
-1002.0
 31
0.0
  0
LINE
  5
1C7
330
545
100
AcDbEntity
  8
DATA
  6
Continuous
 62
     7
100
AcDbLine
 10
-1581.035898384862
 20
-1002.0
 30
0.0
 11
-1584.5
 21
-1004.0
 31
0.0
  0
LINE
  5
1C8
330
545
100
AcDbEntity
  8
DATA
  6
Continuous
 62
     7
100
AcDbLine
 10
-1581.035898384862
 20
-998.0
 30
0.0
 11
-1581.035898384862
 21
-1002.0
 31
0.0
  0
LINE
  5
1C9
330
545
100
AcDbEntity
  8
DATA
  6
Continuous
 62
     7
100
AcDbLine
 10
-1323.0
 20
-920.3082137716194
 30
0.0
 11
-1323.0
 21
-958.7000000000006
 31
0.0
  0
LINE
  5
1CA
330
545
100
AcDbEntity
  8
DATA
  6
STYLE_01
 62
     7
100
AcDbLine
 10
-1323.0
 20
-958.7000000000006
 30
0.0
 11
-1323.0
 21
-1041.3
 31
0.0
  0
LINE
  5
1CB
330
545
100
AcDbEntity
  8
DATA
  6
Continuous
 62
     7
100
AcDbLine
 10
-1323.0
 20
-1041.3
 30
0.0
 11
-1323.0
 21
-1079.691786228381
 31
0.0
  0
ARC
  5
1CC
330
545
100
AcDbEntity
  8
DATA
  6
Continuous
 62
     7
100
AcDbCircle
 10
-1343.0
 20
-920.3082137716194
 30
0.0
 40
20.0
100
AcDbArc
 50
0.0
 51
65.32221311855725
  0
ARC
  5
1CD
330
545
100
AcDbEntity
  8
DATA
  6
Continuous
 62
     7
100
AcDbCircle
 10
-1861.385010172852
 20
-1912.709347235816
 30
0.0
 40
1117.553058897083
100
AcDbArc
 50
62.90584615941416
 51
85.56670830136626
  0
ARC
  5
1CE
330
545
100
AcDbEntity
  8
DATA
  6
Continuous
 62
     7
100
AcDbCircle
 10
-1361.5
 20
-935.6025497470094
 30
0.0
 40
20.0
100
AcDbArc
 50
0.0
 51
62.90584615941464
  0
ARC
  5
1CF
330
545
100
AcDbEntity
  8
DATA
  6
Continuous
 62
     7
100
AcDbCircle
 10
-1861.385010172852
 20
-87.29065276418396
 30
0.0
 40
1117.553058897083
100
AcDbArc
 50
274.4332916986337
 51
297.0941538405858
  0
ARC
  5
1D0
330
545
100
AcDbEntity
  8
DATA
  6
Continuous
 62
     7
100
AcDbCircle
 10
-1361.5
 20
-1064.39745025299
 30
0.0
 40
19.99999999999976
100
AcDbArc
 50
297.0941538405853
 51
0.0
  0
TEXT
  5
1D1
330
545
100
AcDbEntity
  8
DATA
 62
     7
100
AcDbText
 10
-800.0
 20
-1630.527953749999
 30
0.0
 40
36.64892578125
  1
JBL PROFESSIONAL
 41
0.7
 11
-800.0
 21
-1593.87902796875
 31
0.0
100
AcDbText
 73
     3
  0
LINE
  5
1D2
330
545
100
AcDbEntity
  8
DATA
  6
STYLE_01
 62
     7
100
AcDbLine
 10
-1320.5
 20
-988.87
 30
0.0
 11
-1320.5
 21
-1011.13
 31
0.0
  0
LINE
  5
1D3
330
545
100
AcDbEntity
  8
DATA
  6
STYLE_01
 62
     7
100
AcDbLine
 10
-1320.5
 20
-988.87
 30
0.0
 11
-1323.0
 21
-988.87
 31
0.0
  0
LINE
  5
1D4
330
545
100
AcDbEntity
  8
DATA
  6
STYLE_01
 62
     7
100
AcDbLine
 10
-1320.5
 20
-1011.13
 30
0.0
 11
-1323.0
 21
-1011.13
 31
0.0
  0
ARC
  5
1D5
330
545
100
AcDbEntity
  8
DATA
  6
STYLE_01
 62
     7
100
AcDbCircle
 10
-1324.552045454546
 20
-1000.0
 30
0.0
 40
9.552045454545686
100
AcDbArc
 50
295.1004854346459
 51
64.89951456535407
  0
LINE
  5
1D6
330
545
100
AcDbEntity
  8
DATA
  6
Continuous
 62
     7
100
AcDbLine
 10
-2555.5
 20
-1193.0
 30
0.0
 11
-2555.5
 21
-807.0
 31
0.0
  0
LINE
  5
1D7
330
545
100
AcDbEntity
  8
DATA
  6
Continuous
 62
     7
100
AcDbLine
 10
-1844.5
 20
-807.0
 30
0.0
 11
-1844.5
 21
-1193.0
 31
0.0
  0
LINE
  5
1D8
330
545
100
AcDbEntity
  8
DATA
  6
Continuous
 62
     7
100
AcDbLine
 10
-2553.5
 20
-805.0
 30
0.0
 11
-1846.5
 21
-805.0
 31
0.0
  0
LINE
  5
1D9
330
545
100
AcDbEntity
  8
DATA
  6
Continuous
 62
     7
100
AcDbLine
 10
-1846.5
 20
-1195.0
 30
0.0
 11
-2553.5
 21
-1195.0
 31
0.0
  0
ARC
  5
1DA
330
545
100
AcDbEntity
  8
DATA
  6
Continuous
 62
     7
100
AcDbCircle
 10
-2553.5
 20
-807.0
 30
0.0
 40
2.0
100
AcDbArc
 50
90.0
 51
180.0
  0
ARC
  5
1DB
330
545
100
AcDbEntity
  8
DATA
  6
Continuous
 62
     7
100
AcDbCircle
 10
-2553.5
 20
-1193.0
 30
0.0
 40
2.0
100
AcDbArc
 50
180.0
 51
270.0
  0
ARC
  5
1DC
330
545
100
AcDbEntity
  8
DATA
  6
Continuous
 62
     7
100
AcDbCircle
 10
-1846.5
 20
-1193.0
 30
0.0
 40
2.0
100
AcDbArc
 50
270.0
 51
0.0
  0
ARC
  5
1DD
330
545
100
AcDbEntity
  8
DATA
  6
Continuous
 62
     7
100
AcDbCircle
 10
-1846.5
 20
-807.0
 30
0.0
 40
2.0
100
AcDbArc
 50
0.0
 51
90.0
  0
LWPOLYLINE
  5
1DE
330
545
100
AcDbEntity
  8
DATA
  6
Continuous
 62
     7
100
AcDbPolyline
 90
        4
 70
     1
 43
0.0
 10
-2538.0
 20
-823.0
 10
-1862.0
 20
-823.0
 10
-1862.0
 20
-1177.0
 10
-2538.0
 20
-1177.0
  0
LINE
  5
1E5
330
545
100
AcDbEntity
  8
DATA
  6
Continuous
 62
     7
100
AcDbLine
 10
-2565.5
 20
-750.0
 30
0.0
 11
-2565.5
 21
-745.1766267982982
 31
0.0
  0
LINE
  5
1E6
330
545
100
AcDbEntity
  8
DATA
  6
Continuous
 62
     7
100
AcDbLine
 10
-1834.5
 20
-750.0
 30
0.0
 11
-2565.5
 21
-750.0
 31
0.0
  0
LINE
  5
1E7
330
545
100
AcDbEntity
  8
DATA
  6
Continuous
 62
     7
100
AcDbLine
 10
-2565.5
 20
-750.0
 30
0.0
 11
-2565.5
 21
-749.890733124414
 31
0.0
  0
LINE
  5
1E8
330
545
100
AcDbEntity
  8
DATA
  6
Continuous
 62
     7
100
AcDbLine
 10
-2425.897450252991
 20
-316.5
 30
0.0
 11
-1974.102549747009
 21
-316.5
 31
0.0
  0
LINE
  5
1E9
330
545
100
AcDbEntity
  8
DATA
  6
Continuous
 62
     7
100
AcDbLine
 10
-2441.191786228382
 20
-298.0
 30
0.0
 11
-1958.808213771619
 21
-298.0
 31
0.0
  0
ARC
  5
1EA
330
545
100
AcDbEntity
  8
DATA
  6
Continuous
 62
     7
100
AcDbCircle
 10
-2441.191786228382
 20
-318.0000000000003
 30
0.0
 40
20.00000000000023
100
AcDbArc
 50
90.0
 51
155.3222131185569
  0
ARC
  5
1EB
330
545
100
AcDbEntity
  8
DATA
  6
Continuous
 62
     7
100
AcDbCircle
 10
-1448.790652764184
 20
-836.3850101728516
 30
0.0
 40
1117.553058897083
100
AcDbArc
 50
152.9058461594141
 51
175.5667083013662
  0
ARC
  5
1EC
330
545
100
AcDbEntity
  8
DATA
  6
Continuous
 62
     7
100
AcDbCircle
 10
-2425.897450252991
 20
-336.5000000000003
 30
0.0
 40
20.00000000000011
100
AcDbArc
 50
90.0
 51
152.9058461594134
  0
LINE
  5
1ED
330
545
100
AcDbEntity
  8
DATA
  6
Continuous
 62
     7
100
AcDbLine
 10
-1834.5
 20
-750.0
 30
0.0
 11
-1834.5
 21
-749.890733124414
 31
0.0
  0
ARC
  5
1EE
330
545
100
AcDbEntity
  8
DATA
  6
Continuous
 62
     7
100
AcDbCircle
 10
-1958.808213771619
 20
-318.0000000000003
 30
0.0
 40
20.00000000000043
100
AcDbArc
 50
24.67778688144308
 51
90.0
  0
ARC
  5
1EF
330
545
100
AcDbEntity
  8
DATA
  6
Continuous
 62
     7
100
AcDbCircle
 10
-2951.209347235816
 20
-836.3850101728516
 30
0.0
 40
1117.553058897083
100
AcDbArc
 50
4.433291698633775
 51
27.09415384058586
  0
ARC
  5
1F0
330
545
100
AcDbEntity
  8
DATA
  6
Continuous
 62
     7
100
AcDbCircle
 10
-1974.102549747009
 20
-336.5000000000003
 30
0.0
 40
19.99999999999997
100
AcDbArc
 50
27.09415384058654
 51
90.0
  0
LINE
  5
1F1
330
545
100
AcDbEntity
  8
DATA
  6
Continuous
 62
     7
100
AcDbLine
 10
-2211.13
 20
-295.5
 30
0.0
 11
-2188.87
 21
-295.5
 31
0.0
  0
LINE
  5
1F2
330
545
100
AcDbEntity
  8
DATA
  6
Continuous
 62
     7
100
AcDbLine
 10
-2211.13
 20
-295.5
 30
0.0
 11
-2211.13
 21
-298.0
 31
0.0
  0
LINE
  5
1F3
330
545
100
AcDbEntity
  8
DATA
  6
Continuous
 62
     7
100
AcDbLine
 10
-2188.87
 20
-295.5
 30
0.0
 11
-2188.87
 21
-298.0
 31
0.0
  0
ARC
  5
1F4
330
545
100
AcDbEntity
  8
DATA
  6
Continuous
 62
     7
100
AcDbCircle
 10
-2200.0
 20
-299.5520454545455
 30
0.0
 40
9.552045454545565
100
AcDbArc
 50
25.10048543464439
 51
154.8995145653556
  0
LINE
  5
1F5
330
545
100
AcDbEntity
  8
DATA
  6
Continuous
 62
     7
100
AcDbLine
 10
-1834.5
 20
-750.0
 30
0.0
 11
-1834.5
 21
-745.1766267983064
 31
0.0
  0
LINE
  5
1F6
330
545
100
AcDbEntity
  8
DATA
  6
Continuous
 62
     7
100
AcDbLine
 10
-2535.171005492686
 20
-515.0
 30
0.0
 11
-2541.488581458894
 21
-515.0
 31
0.0
  0
LINE
  5
1F7
330
545
100
AcDbEntity
  8
DATA
  6
Continuous
 62
     7
100
AcDbLine
 10
-2547.488581458893
 20
-594.0000000000008
 30
0.0
 11
-2547.488581458893
 21
-521.0
 31
0.0
  0
LINE
  5
1F8
330
545
100
AcDbEntity
  8
DATA
  6
STYLE_01
 62
     7
100
AcDbLine
 10
-2558.8
 20
-526.4999999999999
 30
0.0
 11
-2551.8
 21
-526.4999999999999
 31
0.0
  0
LINE
  5
1F9
330
545
100
AcDbEntity
  8
DATA
  6
Continuous
 62
     7
100
AcDbLine
 10
-2558.8
 20
-592.4999999999999
 30
0.0
 11
-2551.8
 21
-592.4999999999999
 31
0.0
  0
LINE
  5
1FA
330
545
100
AcDbEntity
  8
DATA
  6
STYLE_01
 62
     7
100
AcDbLine
 10
-2553.800000000001
 20
-526.4999999999999
 30
0.0
 11
-2553.800000000001
 21
-547.5
 31
0.0
  0
LINE
  5
1FB
330
545
100
AcDbEntity
  8
DATA
  6
STYLE_01
 62
     7
100
AcDbLine
 10
-2555.8
 20
-526.4999999999999
 30
0.0
 11
-2555.8
 21
-547.5
 31
0.0
  0
LINE
  5
1FC
330
545
100
AcDbEntity
  8
DATA
  6
STYLE_01
 62
     7
100
AcDbLine
 10
-2558.8
 20
-547.4419017567235
 30
0.0
 11
-2558.8
 21
-526.4999999999999
 31
0.0
  0
ARC
  5
1FD
330
545
100
AcDbEntity
  8
DATA
  6
Continuous
 62
     7
100
AcDbCircle
 10
-2554.747954545455
 20
-559.4999999999999
 30
0.0
 40
9.552045454545389
100
AcDbArc
 50
115.1004854346437
 51
244.8995145653563
  0
ARC
  5
1FE
330
545
100
AcDbEntity
  8
DATA
  6
Continuous
 62
     7
100
AcDbCircle
 10
-1339.641641844339
 20
-812.4951433456647
 30
0.0
 40
1227.450348161541
100
AcDbArc
 50
155.8161056606389
 51
177.0815464679488
  0
ARC
  5
1FF
330
545
100
AcDbEntity
  8
DATA
  6
Continuous
 62
     7
100
AcDbCircle
 10
-2541.488581458894
 20
-521.0
 30
0.0
 40
6.0
100
AcDbArc
 50
90.0
 51
180.0
  0
ARC
  5
200
330
545
100
AcDbEntity
  8
DATA
  6
Continuous
 62
     7
100
AcDbCircle
 10
-2535.171005492686
 20
-508.9999999999999
 30
0.0
 40
6.000000000000113
100
AcDbArc
 50
270.0
 51
345.7558815149054
  0
LINE
  5
201
330
545
100
AcDbEntity
  8
DATA
  6
Continuous
 62
     7
100
AcDbLine
 10
-2211.13
 20
-298.0
 30
0.0
 11
-2188.87
 21
-298.0
 31
0.0
  0
ARC
  5
202
330
545
100
AcDbEntity
  8
DATA
  6
Continuous
 62
     7
100
AcDbCircle
 10
-3060.358358155661
 20
-812.4951433456647
 30
0.0
 40
1227.450348161541
100
AcDbArc
 50
2.918453532051177
 51
24.18389433936106
  0
ARC
  5
203
330
545
100
AcDbEntity
  8
DATA
  6
Continuous
 62
     7
100
AcDbCircle
 10
-1837.495143345664
 20
-2021.858358155661
 30
0.0
 40
1227.450348161541
100
AcDbArc
 50
65.81610566063898
 51
87.08154646794884
  0
ARC
  5
204
330
545
100
AcDbEntity
  8
DATA
  6
Continuous
 62
     7
100
AcDbCircle
 10
-1343.0
 20
-1079.691786228381
 30
0.0
 40
20.00000000000013
100
AcDbArc
 50
294.6777868814428
 51
0.0
  0
ARC
  5
205
330
545
100
AcDbEntity
  8
DATA
  6
Continuous
 62
     7
100
AcDbCircle
 10
-1837.495143345664
 20
21.85835815566133
 30
0.0
 40
1227.450348161541
100
AcDbArc
 50
272.9184535320512
 51
294.1838943393611
  0
LINE
  5
206
330
545
100
AcDbEntity
  8
DATA
  6
Continuous
 62
     7
100
AcDbLine
 10
-1160.807967462184
 20
-792.0
 30
0.0
 11
-439.192032537815
 21
-792.0
 31
0.0
  0
LINE
  5
207
330
545
100
AcDbEntity
  8
DATA
  6
Continuous
 62
     7
100
AcDbLine
 10
-434.4999999999999
 20
-796.7188348983726
 30
0.0
 11
-434.4999999999999
 21
-1195.281165101627
 31
0.0
  0
LINE
  5
208
330
545
100
AcDbEntity
  8
DATA
  6
Continuous
 62
     7
100
AcDbLine
 10
-439.192032537815
 20
-1200.0
 30
0.0
 11
-1160.807967462184
 21
-1200.0
 31
0.0
  0
LINE
  5
209
330
545
100
AcDbEntity
  8
DATA
  6
Continuous
 62
     7
100
AcDbLine
 10
-1165.5
 20
-1195.281165101627
 30
0.0
 11
-1165.5
 21
-796.7188348983726
 31
0.0
  0
LINE
  5
20A
330
545
100
AcDbEntity
  8
DATA
  6
Continuous
 62
     7
100
AcDbLine
 10
-1039.798485113673
 20
-901.0
 30
0.0
 11
-568.4720393045905
 21
-901.0
 31
0.0
  0
LINE
  5
20B
330
545
100
AcDbEntity
  8
DATA
  6
Continuous
 62
     7
100
AcDbLine
 10
-541.5
 20
-928.5118637320911
 30
0.0
 11
-541.5
 21
-1063.488136267909
 31
0.0
  0
LINE
  5
20C
330
545
100
AcDbEntity
  8
DATA
  6
Continuous
 62
     7
100
AcDbLine
 10
-560.2015148863265
 20
-1091.0
 30
0.0
 11
-1039.798485113673
 21
-1091.0
 31
0.0
  0
LINE
  5
20D
330
545
100
AcDbEntity
  8
DATA
  6
Continuous
 62
     7
100
AcDbLine
 10
-1058.5
 20
-1072.295515969932
 30
0.0
 11
-1058.5
 21
-919.704484030068
 31
0.0
  0
CIRCLE
  5
20E
330
545
100
AcDbEntity
  8
DATA
  6
Continuous
 62
     7
100
AcDbCircle
 10
-800.0
 20
-996.0
 30
0.0
 40
11.13000000000011
  0
CIRCLE
  5
20F
330
545
100
AcDbEntity
  8
DATA
  6
Continuous
 62
     7
100
AcDbCircle
 10
-800.0
 20
-996.0
 30
0.0
 40
8.65000000000009
  0
CIRCLE
  5
210
330
545
100
AcDbEntity
  8
DATA
  6
Continuous
 62
     7
100
AcDbCircle
 10
-800.0
 20
-996.0
 30
0.0
 40
4.0
  0
LINE
  5
211
330
545
100
AcDbEntity
  8
DATA
  6
Continuous
 62
     7
100
AcDbLine
 10
-800.0
 20
-992.0
 30
0.0
 11
-796.5358983848622
 21
-994.0
 31
0.0
  0
LINE
  5
212
330
545
100
AcDbEntity
  8
DATA
  6
Continuous
 62
     7
100
AcDbLine
 10
-803.4641016151377
 20
-994.0
 30
0.0
 11
-800.0
 21
-992.0
 31
0.0
  0
LINE
  5
213
330
545
100
AcDbEntity
  8
DATA
  6
Continuous
 62
     7
100
AcDbLine
 10
-803.4641016151377
 20
-998.0
 30
0.0
 11
-803.4641016151377
 21
-994.0
 31
0.0
  0
LINE
  5
214
330
545
100
AcDbEntity
  8
DATA
  6
Continuous
 62
     7
100
AcDbLine
 10
-799.9999999999996
 20
-1000.0
 30
0.0
 11
-803.4641016151377
 21
-998.0
 31
0.0
  0
LINE
  5
215
330
545
100
AcDbEntity
  8
DATA
  6
Continuous
 62
     7
100
AcDbLine
 10
-796.5358983848622
 20
-998.0
 30
0.0
 11
-800.0
 21
-1000.0
 31
0.0
  0
LINE
  5
216
330
545
100
AcDbEntity
  8
DATA
  6
Continuous
 62
     7
100
AcDbLine
 10
-796.5358983848617
 20
-994.0
 30
0.0
 11
-796.5358983848622
 21
-998.0
 31
0.0
  0
LWPOLYLINE
  5
217
330
545
100
AcDbEntity
  8
DATA
  6
Continuous
 62
     7
100
AcDbPolyline
 90
       11
 70
   129
 43
0.0
 10
-785.0
 20
-940.4999999999999
 10
-785.0
 20
-940.4999999999999
 42
-0.4142135623730951
 10
-779.0
 20
-934.5
 10
-590.0
 20
-934.5
 10
-590.0
 20
-934.5
 42
-0.4142135623730951
 10
-584.0
 20
-940.4999999999999
 10
-584.0
 20
-1051.5
 10
-584.0
 20
-1051.5
 42
-0.4142135623730951
 10
-590.0
 20
-1057.5
 10
-779.0
 20
-1057.5
 42
-0.4142135623730951
 10
-785.0
 20
-1051.5
  0
LINE
  5
224
330
545
100
AcDbEntity
  8
DATA
  6
STYLE_01
 62
     7
100
AcDbLine
 10
-767.0
 20
-1034.5
 30
0.0
 11
-767.0
 21
-957.5000000000001
 31
0.0
  0
ARC
  5
225
330
545
100
AcDbEntity
  8
DATA
  6
STYLE_01
 62
     7
100
AcDbCircle
 10
-761.0
 20
-1034.5
 30
0.0
 40
6.0
100
AcDbArc
 50
180.0
 51
270.0
  0
LINE
  5
226
330
545
100
AcDbEntity
  8
DATA
  6
STYLE_01
 62
     7
100
AcDbLine
 10
-608.0
 20
-1040.5
 30
0.0
 11
-761.0
 21
-1040.5
 31
0.0
  0
ARC
  5
227
330
545
100
AcDbEntity
  8
DATA
  6
STYLE_01
 62
     7
100
AcDbCircle
 10
-608.0
 20
-1034.5
 30
0.0
 40
6.0
100
AcDbArc
 50
270.0
 51
0.0
  0
LINE
  5
228
330
545
100
AcDbEntity
  8
DATA
  6
STYLE_01
 62
     7
100
AcDbLine
 10
-602.0
 20
-957.5000000000001
 30
0.0
 11
-602.0
 21
-1034.5
 31
0.0
  0
ARC
  5
229
330
545
100
AcDbEntity
  8
DATA
  6
STYLE_01
 62
     7
100
AcDbCircle
 10
-608.0
 20
-957.5000000000001
 30
0.0
 40
6.0
100
AcDbArc
 50
0.0
 51
90.0
  0
LINE
  5
22A
330
545
100
AcDbEntity
  8
DATA
  6
STYLE_01
 62
     7
100
AcDbLine
 10
-761.0
 20
-951.5
 30
0.0
 11
-608.0
 21
-951.5
 31
0.0
  0
ARC
  5
22B
330
545
100
AcDbEntity
  8
DATA
  6
STYLE_01
 62
     7
100
AcDbCircle
 10
-761.0
 20
-957.5000000000001
 30
0.0
 40
6.0
100
AcDbArc
 50
90.0
 51
180.0
  0
LINE
  5
22C
330
545
100
AcDbEntity
  8
DATA
  6
STYLE_01
 62
     7
100
AcDbLine
 10
-755.0
 20
-1024.5
 30
0.0
 11
-755.0
 21
-967.5
 31
0.0
  0
LINE
  5
22D
330
545
100
AcDbEntity
  8
DATA
  6
STYLE_01
 62
     7
100
AcDbLine
 10
-618.0
 20
-1028.5
 30
0.0
 11
-751.0
 21
-1028.5
 31
0.0
  0
LINE
  5
22E
330
545
100
AcDbEntity
  8
DATA
  6
STYLE_01
 62
     7
100
AcDbLine
 10
-614.0
 20
-967.5
 30
0.0
 11
-614.0
 21
-1024.5
 31
0.0
  0
LINE
  5
22F
330
545
100
AcDbEntity
  8
DATA
  6
STYLE_01
 62
     7
100
AcDbLine
 10
-751.0
 20
-963.4999999999999
 30
0.0
 11
-618.0
 21
-963.4999999999999
 31
0.0
  0
LINE
  5
230
330
545
100
AcDbEntity
  8
DATA
  6
STYLE_01
 62
     7
100
AcDbLine
 10
-737.5
 20
-1025.5
 30
0.0
 11
-737.5
 21
-1007.5
 31
0.0
  0
LINE
  5
231
330
545
100
AcDbEntity
  8
DATA
  6
STYLE_01
 62
     7
100
AcDbLine
 10
-631.5
 20
-1025.5
 30
0.0
 11
-737.5
 21
-1025.5
 31
0.0
  0
LINE
  5
232
330
545
100
AcDbEntity
  8
DATA
  6
STYLE_01
 62
     7
100
AcDbLine
 10
-631.5
 20
-1007.5
 30
0.0
 11
-631.5
 21
-1025.5
 31
0.0
  0
LINE
  5
233
330
545
100
AcDbEntity
  8
DATA
  6
STYLE_01
 62
     7
100
AcDbLine
 10
-737.5
 20
-1007.5
 30
0.0
 11
-706.3899999999998
 21
-1007.5
 31
0.0
  0
LINE
  5
234
330
545
100
AcDbEntity
  8
DATA
  6
STYLE_01
 62
     7
100
AcDbLine
 10
-688.3899999999998
 20
-1007.5
 30
0.0
 11
-631.5
 21
-1007.5
 31
0.0
  0
LINE
  5
235
330
545
100
AcDbEntity
  8
DATA
  6
STYLE_01
 62
     7
100
AcDbLine
 10
-734.4999999999999
 20
-1025.5
 30
0.0
 11
-734.4999999999999
 21
-1007.5
 31
0.0
  0
LINE
  5
236
330
545
100
AcDbEntity
  8
DATA
  6
STYLE_01
 62
     7
100
AcDbLine
 10
-724.6300000000001
 20
-1025.5
 30
0.0
 11
-724.6300000000001
 21
-1007.5
 31
0.0
  0
LINE
  5
237
330
545
100
AcDbEntity
  8
DATA
  6
STYLE_01
 62
     7
100
AcDbLine
 10
-721.6300000000001
 20
-1025.5
 30
0.0
 11
-721.6300000000001
 21
-1007.5
 31
0.0
  0
LINE
  5
238
330
545
100
AcDbEntity
  8
DATA
  6
STYLE_01
 62
     7
100
AcDbLine
 10
-711.76
 20
-1025.5
 30
0.0
 11
-711.76
 21
-1007.5
 31
0.0
  0
LINE
  5
239
330
545
100
AcDbEntity
  8
DATA
  6
STYLE_01
 62
     7
100
AcDbLine
 10
-708.76
 20
-1025.5
 30
0.0
 11
-708.76
 21
-1007.5
 31
0.0
  0
LINE
  5
23A
330
545
100
AcDbEntity
  8
DATA
  6
STYLE_01
 62
     7
100
AcDbLine
 10
-698.8899999999999
 20
-1025.5
 30
0.0
 11
-698.8899999999999
 21
-1007.5
 31
0.0
  0
LINE
  5
23B
330
545
100
AcDbEntity
  8
DATA
  6
STYLE_01
 62
     7
100
AcDbLine
 10
-695.8899999999998
 20
-1025.5
 30
0.0
 11
-695.8899999999998
 21
-1007.5
 31
0.0
  0
LINE
  5
23C
330
545
100
AcDbEntity
  8
DATA
  6
STYLE_01
 62
     7
100
AcDbLine
 10
-686.0199999999999
 20
-1025.5
 30
0.0
 11
-686.0199999999999
 21
-1007.5
 31
0.0
  0
LINE
  5
23D
330
545
100
AcDbEntity
  8
DATA
  6
STYLE_01
 62
     7
100
AcDbLine
 10
-683.0199999999999
 20
-1025.5
 30
0.0
 11
-683.0199999999999
 21
-1007.5
 31
0.0
  0
LINE
  5
23E
330
545
100
AcDbEntity
  8
DATA
  6
STYLE_01
 62
     7
100
AcDbLine
 10
-673.1500000000002
 20
-1025.5
 30
0.0
 11
-673.1500000000002
 21
-1007.5
 31
0.0
  0
LINE
  5
23F
330
545
100
AcDbEntity
  8
DATA
  6
STYLE_01
 62
     7
100
AcDbLine
 10
-670.1500000000002
 20
-1025.5
 30
0.0
 11
-670.1500000000002
 21
-1007.5
 31
0.0
  0
LINE
  5
240
330
545
100
AcDbEntity
  8
DATA
  6
STYLE_01
 62
     7
100
AcDbLine
 10
-660.28
 20
-1025.5
 30
0.0
 11
-660.28
 21
-1007.5
 31
0.0
  0
LINE
  5
241
330
545
100
AcDbEntity
  8
DATA
  6
STYLE_01
 62
     7
100
AcDbLine
 10
-657.2799999999999
 20
-1025.5
 30
0.0
 11
-657.2799999999999
 21
-1007.5
 31
0.0
  0
LINE
  5
242
330
545
100
AcDbEntity
  8
DATA
  6
STYLE_01
 62
     7
100
AcDbLine
 10
-647.4099999999999
 20
-1025.5
 30
0.0
 11
-647.4099999999999
 21
-1007.5
 31
0.0
  0
LINE
  5
243
330
545
100
AcDbEntity
  8
DATA
  6
STYLE_01
 62
     7
100
AcDbLine
 10
-644.4099999999998
 20
-1025.5
 30
0.0
 11
-644.4099999999998
 21
-1007.5
 31
0.0
  0
LINE
  5
244
330
545
100
AcDbEntity
  8
DATA
  6
STYLE_01
 62
     7
100
AcDbLine
 10
-634.5399999999999
 20
-1025.5
 30
0.0
 11
-634.5399999999999
 21
-1007.5
 31
0.0
  0
LINE
  5
245
330
545
100
AcDbEntity
  8
DATA
  6
STYLE_01
 62
     7
100
AcDbLine
 10
-631.5399999999999
 20
-1025.5
 30
0.0
 11
-631.5399999999999
 21
-1007.5
 31
0.0
  0
LINE
  5
246
330
545
100
AcDbEntity
  8
DATA
  6
STYLE_01
 62
     7
100
AcDbLine
 10
-732.065
 20
-1016.5
 30
0.0
 11
-727.065
 21
-1016.5
 31
0.0
  0
CIRCLE
  5
247
330
545
100
AcDbEntity
  8
DATA
  6
STYLE_01
 62
     7
100
AcDbCircle
 10
-729.5650000000001
 20
-1016.5
 30
0.0
 40
4.0
  0
LWPOLYLINE
  5
248
330
545
100
AcDbEntity
  8
DATA
  6
STYLE_01
 62
     7
100
AcDbPolyline
 90
        4
 70
     1
 43
0.0
 10
-733.815
 20
-1012.25
 10
-725.315
 20
-1012.25
 10
-725.315
 20
-1020.75
 10
-733.815
 20
-1020.75
  0
LINE
  5
24F
330
545
100
AcDbEntity
  8
DATA
  6
STYLE_01
 62
     7
100
AcDbLine
 10
-729.5650000000001
 20
-1014.0
 30
0.0
 11
-729.5650000000001
 21
-1019.0
 31
0.0
  0
LINE
  5
250
330
545
100
AcDbEntity
  8
DATA
  6
STYLE_01
 62
     7
100
AcDbLine
 10
-636.9349999999999
 20
-1016.5
 30
0.0
 11
-641.9349999999999
 21
-1016.5
 31
0.0
  0
CIRCLE
  5
251
330
545
100
AcDbEntity
  8
DATA
  6
STYLE_01
 62
     7
100
AcDbCircle
 10
-639.4349999999999
 20
-1016.5
 30
0.0
 40
4.0
  0
LWPOLYLINE
  5
252
330
545
100
AcDbEntity
  8
DATA
  6
STYLE_01
 62
     7
100
AcDbPolyline
 90
        4
 70
     1
 43
0.0
 10
-643.6849999999999
 20
-1012.25
 10
-635.1849999999999
 20
-1012.25
 10
-635.1849999999999
 20
-1020.75
 10
-643.6849999999999
 20
-1020.75
  0
LINE
  5
259
330
545
100
AcDbEntity
  8
DATA
  6
STYLE_01
 62
     7
100
AcDbLine
 10
-639.4349999999999
 20
-1014.0
 30
0.0
 11
-639.4349999999999
 21
-1019.0
 31
0.0
  0
LINE
  5
25A
330
545
100
AcDbEntity
  8
DATA
  6
STYLE_01
 62
     7
100
AcDbLine
 10
-719.195
 20
-1016.5
 30
0.0
 11
-714.195
 21
-1016.5
 31
0.0
  0
CIRCLE
  5
25B
330
545
100
AcDbEntity
  8
DATA
  6
STYLE_01
 62
     7
100
AcDbCircle
 10
-716.695
 20
-1016.5
 30
0.0
 40
3.5
  0
LWPOLYLINE
  5
25C
330
545
100
AcDbEntity
  8
DATA
  6
STYLE_01
 62
     7
100
AcDbPolyline
 90
        4
 70
     1
 43
0.0
 10
-720.9449999999998
 20
-1012.25
 10
-712.445
 20
-1012.25
 10
-712.445
 20
-1020.75
 10
-720.9449999999998
 20
-1020.75
  0
LINE
  5
263
330
545
100
AcDbEntity
  8
DATA
  6
STYLE_01
 62
     7
100
AcDbLine
 10
-716.695
 20
-1014.0
 30
0.0
 11
-716.695
 21
-1019.0
 31
0.0
  0
LINE
  5
264
330
545
100
AcDbEntity
  8
DATA
  6
STYLE_01
 62
     7
100
AcDbLine
 10
-706.3249999999998
 20
-1016.5
 30
0.0
 11
-701.3249999999998
 21
-1016.5
 31
0.0
  0
CIRCLE
  5
265
330
545
100
AcDbEntity
  8
DATA
  6
STYLE_01
 62
     7
100
AcDbCircle
 10
-703.8249999999997
 20
-1016.5
 30
0.0
 40
3.5
  0
LWPOLYLINE
  5
266
330
545
100
AcDbEntity
  8
DATA
  6
STYLE_01
 62
     7
100
AcDbPolyline
 90
        4
 70
     1
 43
0.0
 10
-708.0749999999998
 20
-1012.25
 10
-699.5749999999998
 20
-1012.25
 10
-699.5749999999998
 20
-1020.75
 10
-708.0749999999998
 20
-1020.75
  0
LINE
  5
26D
330
545
100
AcDbEntity
  8
DATA
  6
STYLE_01
 62
     7
100
AcDbLine
 10
-703.8249999999997
 20
-1014.0
 30
0.0
 11
-703.8249999999997
 21
-1019.0
 31
0.0
  0
LINE
  5
26E
330
545
100
AcDbEntity
  8
DATA
  6
STYLE_01
 62
     7
100
AcDbLine
 10
-693.4549999999997
 20
-1016.5
 30
0.0
 11
-688.4549999999998
 21
-1016.5
 31
0.0
  0
CIRCLE
  5
26F
330
545
100
AcDbEntity
  8
DATA
  6
STYLE_01
 62
     7
100
AcDbCircle
 10
-690.9549999999998
 20
-1016.5
 30
0.0
 40
3.5
  0
LWPOLYLINE
  5
270
330
545
100
AcDbEntity
  8
DATA
  6
STYLE_01
 62
     7
100
AcDbPolyline
 90
        4
 70
     1
 43
0.0
 10
-695.2049999999998
 20
-1012.25
 10
-686.7049999999998
 20
-1012.25
 10
-686.7049999999998
 20
-1020.75
 10
-695.2049999999998
 20
-1020.75
  0
LINE
  5
277
330
545
100
AcDbEntity
  8
DATA
  6
STYLE_01
 62
     7
100
AcDbLine
 10
-690.9549999999998
 20
-1014.0
 30
0.0
 11
-690.9549999999998
 21
-1019.0
 31
0.0
  0
LINE
  5
278
330
545
100
AcDbEntity
  8
DATA
  6
STYLE_01
 62
     7
100
AcDbLine
 10
-680.585
 20
-1016.5
 30
0.0
 11
-675.585
 21
-1016.5
 31
0.0
  0
CIRCLE
  5
279
330
545
100
AcDbEntity
  8
DATA
  6
STYLE_01
 62
     7
100
AcDbCircle
 10
-678.085
 20
-1016.5
 30
0.0
 40
3.5
  0
LWPOLYLINE
  5
27A
330
545
100
AcDbEntity
  8
DATA
  6
STYLE_01
 62
     7
100
AcDbPolyline
 90
        4
 70
     1
 43
0.0
 10
-682.335
 20
-1012.25
 10
-673.835
 20
-1012.25
 10
-673.835
 20
-1020.75
 10
-682.335
 20
-1020.75
  0
LINE
  5
281
330
545
100
AcDbEntity
  8
DATA
  6
STYLE_01
 62
     7
100
AcDbLine
 10
-678.085
 20
-1014.0
 30
0.0
 11
-678.085
 21
-1019.0
 31
0.0
  0
LINE
  5
282
330
545
100
AcDbEntity
  8
DATA
  6
STYLE_01
 62
     7
100
AcDbLine
 10
-667.7149999999998
 20
-1016.5
 30
0.0
 11
-662.7149999999998
 21
-1016.5
 31
0.0
  0
CIRCLE
  5
283
330
545
100
AcDbEntity
  8
DATA
  6
STYLE_01
 62
     7
100
AcDbCircle
 10
-665.2149999999998
 20
-1016.5
 30
0.0
 40
3.5
  0
LWPOLYLINE
  5
284
330
545
100
AcDbEntity
  8
DATA
  6
STYLE_01
 62
     7
100
AcDbPolyline
 90
        4
 70
     1
 43
0.0
 10
-669.4649999999998
 20
-1012.25
 10
-660.9649999999998
 20
-1012.25
 10
-660.9649999999998
 20
-1020.75
 10
-669.4649999999998
 20
-1020.75
  0
LINE
  5
28B
330
545
100
AcDbEntity
  8
DATA
  6
STYLE_01
 62
     7
100
AcDbLine
 10
-665.2149999999998
 20
-1014.0
 30
0.0
 11
-665.2149999999998
 21
-1019.0
 31
0.0
  0
LINE
  5
28C
330
545
100
AcDbEntity
  8
DATA
  6
STYLE_01
 62
     7
100
AcDbLine
 10
-654.8449999999998
 20
-1016.5
 30
0.0
 11
-649.8449999999998
 21
-1016.5
 31
0.0
  0
CIRCLE
  5
28D
330
545
100
AcDbEntity
  8
DATA
  6
STYLE_01
 62
     7
100
AcDbCircle
 10
-652.3449999999997
 20
-1016.5
 30
0.0
 40
3.5
  0
LWPOLYLINE
  5
28E
330
545
100
AcDbEntity
  8
DATA
  6
STYLE_01
 62
     7
100
AcDbPolyline
 90
        4
 70
     1
 43
0.0
 10
-656.5949999999998
 20
-1012.25
 10
-648.0949999999998
 20
-1012.25
 10
-648.0949999999998
 20
-1020.75
 10
-656.5949999999998
 20
-1020.75
  0
LINE
  5
295
330
545
100
AcDbEntity
  8
DATA
  6
STYLE_01
 62
     7
100
AcDbLine
 10
-652.3449999999997
 20
-1014.0
 30
0.0
 11
-652.3449999999997
 21
-1019.0
 31
0.0
  0
LINE
  5
296
330
545
100
AcDbEntity
  8
DATA
  6
STYLE_01
 62
     7
100
AcDbLine
 10
-706.3899999999998
 20
-1009.75
 30
0.0
 11
-706.3899999999998
 21
-1002.5
 31
0.0
  0
LINE
  5
297
330
545
100
AcDbEntity
  8
DATA
  6
STYLE_01
 62
     7
100
AcDbLine
 10
-687.7049999999997
 20
-1010.25
 30
0.0
 11
-687.8899999999998
 21
-1010.25
 31
0.0
  0
LINE
  5
298
330
545
100
AcDbEntity
  8
DATA
  6
STYLE_01
 62
     7
100
AcDbLine
 10
-706.8899999999999
 20
-1010.25
 30
0.0
 11
-707.0749999999998
 21
-1010.25
 31
0.0
  0
LINE
  5
299
330
545
100
AcDbEntity
  8
DATA
  6
STYLE_01
 62
     7
100
AcDbLine
 10
-688.3899999999998
 20
-1002.5
 30
0.0
 11
-688.3899999999998
 21
-1009.75
 31
0.0
  0
LINE
  5
29A
330
545
100
AcDbEntity
  8
DATA
  6
STYLE_01
 62
     7
100
AcDbLine
 10
-705.3899999999998
 20
-1001.5
 30
0.0
 11
-689.3899999999998
 21
-1001.5
 31
0.0
  0
LINE
  5
29B
330
545
100
AcDbEntity
  8
DATA
  6
STYLE_01
 62
     7
100
AcDbLine
 10
-708.0749999999998
 20
-1011.25
 30
0.0
 11
-708.0749999999998
 21
-1012.25
 31
0.0
  0
LINE
  5
29C
330
545
100
AcDbEntity
  8
DATA
  6
STYLE_01
 62
     7
100
AcDbLine
 10
-686.7049999999998
 20
-1011.25
 30
0.0
 11
-686.7049999999998
 21
-1012.25
 31
0.0
  0
ARC
  5
29D
330
545
100
AcDbEntity
  8
DATA
  6
STYLE_01
 62
     7
100
AcDbCircle
 10
-705.3899999999998
 20
-1002.5
 30
0.0
 40
1.0
100
AcDbArc
 50
90.0
 51
180.0
  0
ARC
  5
29E
330
545
100
AcDbEntity
  8
DATA
  6
STYLE_01
 62
     7
100
AcDbCircle
 10
-689.3899999999998
 20
-1002.5
 30
0.0
 40
1.0
100
AcDbArc
 50
0.0
 51
90.0
  0
ARC
  5
29F
330
545
100
AcDbEntity
  8
DATA
  6
STYLE_01
 62
     7
100
AcDbCircle
 10
-707.0749999999998
 20
-1011.25
 30
0.0
 40
1.0
100
AcDbArc
 50
90.0
 51
180.0
  0
ARC
  5
2A0
330
545
100
AcDbEntity
  8
DATA
  6
STYLE_01
 62
     7
100
AcDbCircle
 10
-687.7049999999997
 20
-1011.25
 30
0.0
 40
1.0
100
AcDbArc
 50
0.0
 51
90.0
  0
ARC
  5
2A1
330
545
100
AcDbEntity
  8
DATA
  6
STYLE_01
 62
     7
100
AcDbCircle
 10
-706.8899999999999
 20
-1009.75
 30
0.0
 40
0.5
100
AcDbArc
 50
270.0
 51
0.0
  0
ARC
  5
2A2
330
545
100
AcDbEntity
  8
DATA
  6
STYLE_01
 62
     7
100
AcDbCircle
 10
-687.8899999999998
 20
-1009.75
 30
0.0
 40
0.5
100
AcDbArc
 50
180.0
 51
270.0
  0
TEXT
  5
2A3
330
545
100
AcDbEntity
  8
DATA
 62
     7
100
AcDbText
 10
-718.8496875000001
 20
-1006.1921875
 30
0.0
 40
2.30859375
  1
com
 41
0.7
 72
     1
 11
-716.695
 21
-1006.5
 31
0.0
100
AcDbText
 73
     1
  0
TEXT
  5
2A4
330
545
100
AcDbEntity
  8
DATA
 62
     7
100
AcDbText
 10
-705.3332812499998
 20
-1006.1921875
 30
0.0
 40
2.30859375
  1
8Ω
 41
0.7
 72
     1
 11
-703.8249999999997
 21
-1006.5
 31
0.0
100
AcDbText
 73
     1
  0
TEXT
  5
2A5
330
545
100
AcDbEntity
  8
DATA
 62
     7
100
AcDbText
 10
-693.2443554687498
 20
-1003.1921875
 30
0.0
 40
2.30859375
  1
70V
 41
0.7
 72
     1
 11
-690.9549999999998
 21
-1003.5
 31
0.0
100
AcDbText
 73
     1
  0
TEXT
  5
2A6
330
545
100
AcDbEntity
  8
DATA
 62
     7
100
AcDbText
 10
-695.5337109374998
 20
-1006.1921875
 30
0.0
 40
2.30859375
  1
Jumper
 41
0.7
 72
     1
 11
-690.9549999999998
 21
-1006.5
 31
0.0
100
AcDbText
 73
     1
  0
TEXT
  5
2A7
330
545
100
AcDbEntity
  8
DATA
 62
     7
100
AcDbText
 10
-683.3370507812499
 20
-1003.1921875
 30
0.0
 40
2.30859375
  1
70V100W
 41
0.7
 72
     1
 11
-678.085
 21
-1003.5
 31
0.0
100
AcDbText
 73
     1
  0
TEXT
  5
2A8
330
545
100
AcDbEntity
  8
DATA
 62
     7
100
AcDbText
 10
-684.010390625
 20
-1006.1921875
 30
0.0
 40
2.30859375
  1
100V200W
 41
0.7
 72
     1
 11
-678.085
 21
-1006.5
 31
0.0
100
AcDbText
 73
     1
  0
TEXT
  5
2A9
330
545
100
AcDbEntity
  8
DATA
 62
     7
100
AcDbText
 10
-670.7363867187498
 20
-1003.1921875
 30
0.0
 40
2.30859375
  1
70V200W
 41
0.7
 72
     1
 11
-665.2149999999998
 21
-1003.5
 31
0.0
100
AcDbText
 73
     1
  0
TEXT
  5
2AA
330
545
100
AcDbEntity
  8
DATA
 62
     7
100
AcDbText
 10
-671.1403906249998
 20
-1006.1921875
 30
0.0
 40
2.30859375
  1
100V400W
 41
0.7
 72
     1
 11
-665.2149999999998
 21
-1006.5
 31
0.0
100
AcDbText
 73
     1
  0
TEXT
  5
2AB
330
545
100
AcDbEntity
  8
DATA
 62
     7
100
AcDbText
 10
-657.8663867187498
 20
-1006.1921875
 30
0.0
 40
2.30859375
  1
70V400W
 41
0.7
 72
     1
 11
-652.3449999999997
 21
-1006.5
 31
0.0
100
AcDbText
 73
     1
  0
LINE
  5
2AC
330
545
100
AcDbEntity
  8
DATA
  6
STYLE_01
 62
     7
100
AcDbLine
 10
-698.8899999999999
 20
-1007.5
 30
0.0
 11
-695.8899999999998
 21
-1007.5
 31
0.0
  0
ARC
  5
2AD
330
545
100
AcDbEntity
  8
DATA
  6
Continuous
 62
     7
100
AcDbCircle
 10
-1160.503329642539
 20
-796.9950161717166
 30
0.0
 40
5.004297229069272
100
AcDbArc
 50
93.49005245042391
 51
176.8363059855722
  0
ARC
  5
2AE
330
545
100
AcDbEntity
  8
DATA
  6
Continuous
 62
     7
100
AcDbCircle
 10
-2051.735308218377
 20
-1979.85552950894
 30
0.0
 40
1484.840828335436
100
AcDbArc
 50
46.60043767243188
 51
53.1290005018902
  0
ARC
  5
2AF
330
545
100
AcDbEntity
  8
DATA
  6
Continuous
 62
     7
100
AcDbCircle
 10
9.208807369772783
 20
47.67060017857443
 30
0.0
 40
1446.697722463708
100
AcDbArc
 50
215.7088615155724
 51
222.4359829272372
  0
LINE
  5
2B0
330
545
100
AcDbEntity
  8
DATA
  6
Continuous
 62
     7
100
AcDbLine
 10
-1039.798485113673
 20
-901.0
 30
0.0
 11
-1031.527960695409
 21
-901.0
 31
0.0
  0
LINE
  5
2B1
330
545
100
AcDbEntity
  8
DATA
  6
Continuous
 62
     7
100
AcDbLine
 10
-1058.5
 20
-919.704484030068
 30
0.0
 11
-1058.5
 21
-928.5118637320911
 31
0.0
  0
ARC
  5
2B2
330
545
100
AcDbEntity
  8
DATA
  6
Continuous
 62
     7
100
AcDbCircle
 10
-1039.243980347708
 20
-920.2559318660457
 30
0.0
 40
19.26391412889074
100
AcDbArc
 50
91.64946601932298
 51
178.3596298160905
  0
ARC
  5
2B3
330
545
100
AcDbEntity
  8
DATA
  6
Continuous
 62
     7
100
AcDbCircle
 10
-1160.503329642539
 20
-1195.004983828283
 30
0.0
 40
5.004297229069286
100
AcDbArc
 50
183.1636940144264
 51
266.5099475495761
  0
ARC
  5
2B4
330
545
100
AcDbEntity
  8
DATA
  6
Continuous
 62
     7
100
AcDbCircle
 10
-2051.735308218377
 20
-12.14447049106002
 30
0.0
 40
1484.840828335436
100
AcDbArc
 50
306.8709994981098
 51
313.3995623275682
  0
ARC
  5
2B5
330
545
100
AcDbEntity
  8
DATA
  6
Continuous
 62
     7
100
AcDbCircle
 10
9.208807369772783
 20
-2039.670600178574
 30
0.0
 40
1446.697722463708
100
AcDbArc
 50
137.5640170727628
 51
144.2911384844276
  0
LINE
  5
2B6
330
545
100
AcDbEntity
  8
DATA
  6
Continuous
 62
     7
100
AcDbLine
 10
-1039.798485113673
 20
-1091.0
 30
0.0
 11
-1031.527960695409
 21
-1091.0
 31
0.0
  0
LINE
  5
2B7
330
545
100
AcDbEntity
  8
DATA
  6
Continuous
 62
     7
100
AcDbLine
 10
-1058.5
 20
-1072.295515969932
 30
0.0
 11
-1058.5
 21
-1063.488136267909
 31
0.0
  0
ARC
  5
2B8
330
545
100
AcDbEntity
  8
DATA
  6
Continuous
 62
     7
100
AcDbCircle
 10
-1039.243980347708
 20
-1071.744068133954
 30
0.0
 40
19.2639141288908
100
AcDbArc
 50
181.6403701839094
 51
268.350533980677
  0
ARC
  5
2B9
330
545
100
AcDbEntity
  8
DATA
  6
Continuous
 62
     7
100
AcDbCircle
 10
-439.4966703574604
 20
-796.9950161717166
 30
0.0
 40
5.004297229069292
100
AcDbArc
 50
3.163694014427827
 51
86.50994754957613
  0
ARC
  5
2BA
330
545
100
AcDbEntity
  8
DATA
  6
Continuous
 62
     7
100
AcDbCircle
 10
451.7353082183771
 20
-1979.85552950894
 30
0.0
 40
1484.840828335436
100
AcDbArc
 50
126.8709994981098
 51
133.3995623275681
  0
ARC
  5
2BB
330
545
100
AcDbEntity
  8
DATA
  6
Continuous
 62
     7
100
AcDbCircle
 10
-1609.208807369773
 20
47.67060017857443
 30
0.0
 40
1446.697722463708
100
AcDbArc
 50
317.5640170727628
 51
324.2911384844276
  0
LINE
  5
2BC
330
545
100
AcDbEntity
  8
DATA
  6
Continuous
 62
     7
100
AcDbLine
 10
-560.2015148863265
 20
-901.0
 30
0.0
 11
-568.4720393045905
 21
-901.0
 31
0.0
  0
LINE
  5
2BD
330
545
100
AcDbEntity
  8
DATA
  6
Continuous
 62
     7
100
AcDbLine
 10
-541.5
 20
-919.704484030068
 30
0.0
 11
-541.5
 21
-928.5118637320911
 31
0.0
  0
ARC
  5
2BE
330
545
100
AcDbEntity
  8
DATA
  6
Continuous
 62
     7
100
AcDbCircle
 10
-560.7560196522924
 20
-920.2559318660457
 30
0.0
 40
19.2639141288908
100
AcDbArc
 50
1.640370183909417
 51
88.35053398067707
  0
ARC
  5
2BF
330
545
100
AcDbEntity
  8
DATA
  6
Continuous
 62
     7
100
AcDbCircle
 10
-439.4966703574604
 20
-1195.004983828283
 30
0.0
 40
5.004297229069272
100
AcDbArc
 50
273.4900524504239
 51
356.8363059855733
  0
ARC
  5
2C0
330
545
100
AcDbEntity
  8
DATA
  6
Continuous
 62
     7
100
AcDbCircle
 10
451.7353082183771
 20
-12.14447049106002
 30
0.0
 40
1484.840828335436
100
AcDbArc
 50
226.6004376724318
 51
233.1290005018902
  0
ARC
  5
2C1
330
545
100
AcDbEntity
  8
DATA
  6
Continuous
 62
     7
100
AcDbCircle
 10
-1609.208807369773
 20
-2039.670600178574
 30
0.0
 40
1446.697722463708
100
AcDbArc
 50
35.70886151557235
 51
42.43598292723715
  0
LINE
  5
2C2
330
545
100
AcDbEntity
  8
DATA
  6
Continuous
 62
     7
100
AcDbLine
 10
-560.2015148863265
 20
-1091.0
 30
0.0
 11
-568.4720393045905
 21
-1091.0
 31
0.0
  0
LINE
  5
2C3
330
545
100
AcDbEntity
  8
DATA
  6
Continuous
 62
     7
100
AcDbLine
 10
-541.5
 20
-1072.295515969932
 30
0.0
 11
-541.5
 21
-1063.488136267909
 31
0.0
  0
ARC
  5
2C4
330
545
100
AcDbEntity
  8
DATA
  6
Continuous
 62
     7
100
AcDbCircle
 10
-560.7560196522924
 20
-1071.744068133954
 30
0.0
 40
19.26391412889074
100
AcDbArc
 50
271.6494660193229
 51
358.3596298160905
  0
LWPOLYLINE
  5
2C5
330
545
100
AcDbEntity
  8
DATA
  6
Continuous
 62
     7
100
AcDbPolyline
 90
       11
 70
   129
 43
0.0
 10
-1040.0
 20
-932.0
 10
-1040.0
 20
-932.0
 42
-0.4142135623730951
 10
-1024.0
 20
-916.0
 10
-576.0
 20
-916.0
 10
-576.0
 20
-916.0
 42
-0.4142135623730951
 10
-560.0
 20
-932.0
 10
-560.0
 20
-1060.0
 42
-0.4142135623730951
 10
-576.0
 20
-1076.0
 10
-1024.0
 20
-1076.0
 10
-1024.0
 20
-1076.0
 42
-0.4142135623730951
 10
-1040.0
 20
-1060.0
  0
CIRCLE
  5
2D2
330
545
100
AcDbEntity
  8
DATA
  6
Continuous
 62
     7
100
AcDbCircle
 10
-684.4999999999999
 20
-942.0
 30
0.0
 40
4.474999999999909
  0
LINE
  5
2D3
330
545
100
AcDbEntity
  8
DATA
  6
Continuous
 62
     7
100
AcDbLine
 10
-684.4999999999999
 20
-939.4999999999999
 30
0.0
 11
-684.4999999999999
 21
-944.5
 31
0.0
  0
LINE
  5
2D4
330
545
100
AcDbEntity
  8
DATA
  6
Continuous
 62
     7
100
AcDbLine
 10
-687.0
 20
-942.0
 30
0.0
 11
-682.0
 21
-942.0
 31
0.0
  0
CIRCLE
  5
2D5
330
545
100
AcDbEntity
  8
DATA
  6
Continuous
 62
     7
100
AcDbCircle
 10
-684.4999999999999
 20
-1050.0
 30
0.0
 40
4.474999999999909
  0
LINE
  5
2D6
330
545
100
AcDbEntity
  8
DATA
  6
Continuous
 62
     7
100
AcDbLine
 10
-684.4999999999999
 20
-1052.5
 30
0.0
 11
-684.4999999999999
 21
-1047.5
 31
0.0
  0
LINE
  5
2D7
330
545
100
AcDbEntity
  8
DATA
  6
Continuous
 62
     7
100
AcDbLine
 10
-687.0
 20
-1050.0
 30
0.0
 11
-682.0
 21
-1050.0
 31
0.0
  0
CIRCLE
  5
2D8
330
545
100
AcDbEntity
  8
DATA
  6
Continuous
 62
     7
100
AcDbCircle
 10
-596.4999999999999
 20
-942.0
 30
0.0
 40
4.474999999999909
  0
LINE
  5
2D9
330
545
100
AcDbEntity
  8
DATA
  6
Continuous
 62
     7
100
AcDbLine
 10
-596.4999999999999
 20
-939.4999999999999
 30
0.0
 11
-596.4999999999999
 21
-944.5
 31
0.0
  0
LINE
  5
2DA
330
545
100
AcDbEntity
  8
DATA
  6
Continuous
 62
     7
100
AcDbLine
 10
-594.0
 20
-942.0
 30
0.0
 11
-599.0
 21
-942.0
 31
0.0
  0
CIRCLE
  5
2DB
330
545
100
AcDbEntity
  8
DATA
  6
Continuous
 62
     7
100
AcDbCircle
 10
-596.4999999999999
 20
-1050.0
 30
0.0
 40
4.474999999999909
  0
LINE
  5
2DC
330
545
100
AcDbEntity
  8
DATA
  6
Continuous
 62
     7
100
AcDbLine
 10
-596.4999999999999
 20
-1052.5
 30
0.0
 11
-596.4999999999999
 21
-1047.5
 31
0.0
  0
LINE
  5
2DD
330
545
100
AcDbEntity
  8
DATA
  6
Continuous
 62
     7
100
AcDbLine
 10
-594.0
 20
-1050.0
 30
0.0
 11
-599.0
 21
-1050.0
 31
0.0
  0
CIRCLE
  5
2DE
330
545
100
AcDbEntity
  8
DATA
  6
Continuous
 62
     7
100
AcDbCircle
 10
-772.5
 20
-942.0
 30
0.0
 40
4.474999999999909
  0
LINE
  5
2DF
330
545
100
AcDbEntity
  8
DATA
  6
Continuous
 62
     7
100
AcDbLine
 10
-772.5
 20
-939.4999999999999
 30
0.0
 11
-772.5
 21
-944.5
 31
0.0
  0
LINE
  5
2E0
330
545
100
AcDbEntity
  8
DATA
  6
Continuous
 62
     7
100
AcDbLine
 10
-775.0
 20
-942.0
 30
0.0
 11
-770.0
 21
-942.0
 31
0.0
  0
CIRCLE
  5
2E1
330
545
100
AcDbEntity
  8
DATA
  6
Continuous
 62
     7
100
AcDbCircle
 10
-772.5
 20
-1050.0
 30
0.0
 40
4.474999999999909
  0
LINE
  5
2E2
330
545
100
AcDbEntity
  8
DATA
  6
Continuous
 62
     7
100
AcDbLine
 10
-772.5
 20
-1052.5
 30
0.0
 11
-772.5
 21
-1047.5
 31
0.0
  0
LINE
  5
2E3
330
545
100
AcDbEntity
  8
DATA
  6
Continuous
 62
     7
100
AcDbLine
 10
-775.0
 20
-1050.0
 30
0.0
 11
-770.0
 21
-1050.0
 31
0.0
  0
ARC
  5
2E4
330
545
100
AcDbEntity
  8
DATA
  6
STYLE_01
 62
     7
100
AcDbCircle
 10
-751.0
 20
-967.5
 30
0.0
 40
4.0
100
AcDbArc
 50
90.0
 51
180.0
  0
ARC
  5
2E5
330
545
100
AcDbEntity
  8
DATA
  6
STYLE_01
 62
     7
100
AcDbCircle
 10
-618.0
 20
-967.5
 30
0.0
 40
4.0
100
AcDbArc
 50
0.0
 51
90.0
  0
ARC
  5
2E6
330
545
100
AcDbEntity
  8
DATA
  6
STYLE_01
 62
     7
100
AcDbCircle
 10
-618.0
 20
-1024.5
 30
0.0
 40
4.0
100
AcDbArc
 50
270.0
 51
0.0
  0
ARC
  5
2E7
330
545
100
AcDbEntity
  8
DATA
  6
STYLE_01
 62
     7
100
AcDbCircle
 10
-751.0
 20
-1024.5
 30
0.0
 40
4.0
100
AcDbArc
 50
180.0
 51
270.0
  0
LINE
  5
2E8
330
545
100
AcDbEntity
  8
DATA
  6
STYLE_01
 62
     7
100
AcDbLine
 10
-767.0
 20
-957.5000000000001
 30
0.0
 11
-755.0
 21
-967.5
 31
0.0
  0
LINE
  5
2E9
330
545
100
AcDbEntity
  8
DATA
  6
STYLE_01
 62
     7
100
AcDbLine
 10
-761.0
 20
-951.5
 30
0.0
 11
-751.0
 21
-963.4999999999999
 31
0.0
  0
LINE
  5
2EA
330
545
100
AcDbEntity
  8
DATA
  6
STYLE_01
 62
     7
100
AcDbLine
 10
-608.0
 20
-951.5
 30
0.0
 11
-618.0
 21
-963.4999999999999
 31
0.0
  0
LINE
  5
2EB
330
545
100
AcDbEntity
  8
DATA
  6
STYLE_01
 62
     7
100
AcDbLine
 10
-602.0
 20
-957.5000000000001
 30
0.0
 11
-614.0
 21
-967.5
 31
0.0
  0
LINE
  5
2EC
330
545
100
AcDbEntity
  8
DATA
  6
STYLE_01
 62
     7
100
AcDbLine
 10
-602.0
 20
-1034.5
 30
0.0
 11
-614.0
 21
-1024.5
 31
0.0
  0
LINE
  5
2ED
330
545
100
AcDbEntity
  8
DATA
  6
STYLE_01
 62
     7
100
AcDbLine
 10
-608.0
 20
-1040.5
 30
0.0
 11
-618.0
 21
-1028.5
 31
0.0
  0
LINE
  5
2EE
330
545
100
AcDbEntity
  8
DATA
  6
STYLE_01
 62
     7
100
AcDbLine
 10
-767.0
 20
-1034.5
 30
0.0
 11
-755.0
 21
-1024.5
 31
0.0
  0
LINE
  5
2EF
330
545
100
AcDbEntity
  8
DATA
  6
STYLE_01
 62
     7
100
AcDbLine
 10
-751.0
 20
-1028.5
 30
0.0
 11
-761.0
 21
-1040.5
 31
0.0
  0
LINE
  5
2F0
330
545
100
AcDbEntity
  8
DATA
  6
Continuous
 62
     7
100
AcDbLine
 10
-1147.488581458893
 20
-1049.5
 30
0.0
 11
-1147.488581458893
 21
-942.5
 31
0.0
  0
LINE
  5
2F1
330
545
100
AcDbEntity
  8
DATA
  6
Continuous
 62
     7
100
AcDbLine
 10
-1129.355468456613
 20
-1013.853654648294
 30
0.0
 11
-1129.355468456613
 21
-978.1463453517055
 31
0.0
  0
LINE
  5
2F2
330
545
100
AcDbEntity
  8
DATA
  6
Continuous
 62
     7
100
AcDbLine
 10
-1144.488581458893
 20
-979.0621111523634
 30
0.0
 11
-1132.355468456613
 21
-979.0621111523593
 31
0.0
  0
LINE
  5
2F3
330
545
100
AcDbEntity
  8
DATA
  6
Continuous
 62
     7
100
AcDbLine
 10
-1144.488581458893
 20
-1012.937888847637
 30
0.0
 11
-1132.355468456613
 21
-1012.937888847633
 31
0.0
  0
ARC
  5
2F4
330
545
100
AcDbEntity
  8
DATA
  6
Continuous
 62
     7
100
AcDbCircle
 10
-1144.488581458893
 20
-982.0621111523633
 30
0.0
 40
3.0
100
AcDbArc
 50
90.0
 51
180.0
  0
ARC
  5
2F5
330
545
100
AcDbEntity
  8
DATA
  6
Continuous
 62
     7
100
AcDbCircle
 10
-1144.488581458893
 20
-1009.937888847637
 30
0.0
 40
3.0
100
AcDbArc
 50
180.0
 51
270.0
  0
ARC
  5
2F6
330
545
100
AcDbEntity
  8
DATA
  6
Continuous
 62
     7
100
AcDbCircle
 10
-1132.355468456613
 20
-1009.937888847632
 30
0.0
 40
3.0
100
AcDbArc
 50
270.0
 51
0.0
  0
ARC
  5
2F7
330
545
100
AcDbEntity
  8
DATA
  6
Continuous
 62
     7
100
AcDbCircle
 10
-1132.355468456613
 20
-982.0621111523593
 30
0.0
 40
3.0
100
AcDbArc
 50
0.0
 51
90.0
  0
LINE
  5
2F8
330
545
100
AcDbEntity
  8
DATA
  6
Continuous
 62
     7
100
AcDbLine
 10
-1154.488581458893
 20
-963.0
 30
0.0
 11
-1147.488581458893
 21
-963.0
 31
0.0
  0
LINE
  5
2F9
330
545
100
AcDbEntity
  8
DATA
  6
Continuous
 62
     7
100
AcDbLine
 10
-1154.488581458893
 20
-1029.0
 30
0.0
 11
-1147.488581458893
 21
-1029.0
 31
0.0
  0
LINE
  5
2FA
330
545
100
AcDbEntity
  8
DATA
  6
Continuous
 62
     7
100
AcDbLine
 10
-1149.488581458893
 20
-963.0
 30
0.0
 11
-1149.488581458893
 21
-1029.0
 31
0.0
  0
LINE
  5
2FB
330
545
100
AcDbEntity
  8
DATA
  6
Continuous
 62
     7
100
AcDbLine
 10
-1151.488581458893
 20
-963.0
 30
0.0
 11
-1151.488581458893
 21
-1029.0
 31
0.0
  0
LINE
  5
2FC
330
545
100
AcDbEntity
  8
DATA
  6
Continuous
 62
     7
100
AcDbLine
 10
-1154.488581458893
 20
-1029.0
 30
0.0
 11
-1154.488581458893
 21
-963.0
 31
0.0
  0
ARC
  5
2FD
330
545
100
AcDbEntity
  8
DATA
  6
Continuous
 62
     7
100
AcDbCircle
 10
-1150.436536004348
 20
-996.0
 30
0.0
 40
9.55204545454559
100
AcDbArc
 50
115.1004854346447
 51
244.8995145653553
  0
LINE
  5
2FE
330
545
100
AcDbEntity
  8
DATA
  6
Continuous
 62
     7
100
AcDbLine
 10
-1129.355468456613
 20
-1013.853654648294
 30
0.0
 11
-1129.355468456613
 21
-978.1463453516977
 31
0.0
  0
ARC
  5
2FF
330
545
100
AcDbEntity
  8
DATA
  6
Continuous
 62
     7
100
AcDbCircle
 10
-1176.417159599543
 20
-979.6511027398945
 30
0.0
 40
47.08574166379736
100
AcDbArc
 50
1.831359700538709
 51
52.09305424831889
  0
ARC
  5
300
330
545
100
AcDbEntity
  8
DATA
  6
Continuous
 62
     7
100
AcDbCircle
 10
-1176.417159599543
 20
-1012.348897260105
 30
0.0
 40
47.08574166379746
100
AcDbArc
 50
307.9069457516811
 51
358.1686402994612
  0
LINE
  5
301
330
545
100
AcDbEntity
  8
DATA
  6
Continuous
 62
     7
100
AcDbLine
 10
-452.5114185411063
 20
-1049.5
 30
0.0
 11
-452.5114185411063
 21
-942.5
 31
0.0
  0
LINE
  5
302
330
545
100
AcDbEntity
  8
DATA
  6
Continuous
 62
     7
100
AcDbLine
 10
-470.6445315433868
 20
-1013.853654648294
 30
0.0
 11
-470.6445315433868
 21
-978.1463453517055
 31
0.0
  0
LINE
  5
303
330
545
100
AcDbEntity
  8
DATA
  6
Continuous
 62
     7
100
AcDbLine
 10
-455.5114185411063
 20
-979.0621111523634
 30
0.0
 11
-467.6445315433868
 21
-979.0621111523593
 31
0.0
  0
LINE
  5
304
330
545
100
AcDbEntity
  8
DATA
  6
Continuous
 62
     7
100
AcDbLine
 10
-455.5114185411063
 20
-1012.937888847637
 30
0.0
 11
-467.6445315433868
 21
-1012.937888847633
 31
0.0
  0
ARC
  5
305
330
545
100
AcDbEntity
  8
DATA
  6
Continuous
 62
     7
100
AcDbCircle
 10
-455.5114185411063
 20
-982.0621111523633
 30
0.0
 40
3.0
100
AcDbArc
 50
0.0
 51
90.0
  0
ARC
  5
306
330
545
100
AcDbEntity
  8
DATA
  6
Continuous
 62
     7
100
AcDbCircle
 10
-455.5114185411063
 20
-1009.937888847637
 30
0.0
 40
3.0
100
AcDbArc
 50
270.0
 51
0.0
  0
ARC
  5
307
330
545
100
AcDbEntity
  8
DATA
  6
Continuous
 62
     7
100
AcDbCircle
 10
-467.6445315433868
 20
-1009.937888847632
 30
0.0
 40
3.0
100
AcDbArc
 50
180.0
 51
270.0
  0
ARC
  5
308
330
545
100
AcDbEntity
  8
DATA
  6
Continuous
 62
     7
100
AcDbCircle
 10
-467.6445315433868
 20
-982.0621111523593
 30
0.0
 40
3.0
100
AcDbArc
 50
90.0
 51
180.0
  0
LINE
  5
309
330
545
100
AcDbEntity
  8
DATA
  6
Continuous
 62
     7
100
AcDbLine
 10
-445.5114185411063
 20
-963.0
 30
0.0
 11
-452.5114185411063
 21
-963.0
 31
0.0
  0
LINE
  5
30A
330
545
100
AcDbEntity
  8
DATA
  6
Continuous
 62
     7
100
AcDbLine
 10
-445.5114185411063
 20
-1029.0
 30
0.0
 11
-452.5114185411063
 21
-1029.0
 31
0.0
  0
LINE
  5
30B
330
545
100
AcDbEntity
  8
DATA
  6
Continuous
 62
     7
100
AcDbLine
 10
-450.5114185411064
 20
-963.0
 30
0.0
 11
-450.5114185411064
 21
-1029.0
 31
0.0
  0
LINE
  5
30C
330
545
100
AcDbEntity
  8
DATA
  6
Continuous
 62
     7
100
AcDbLine
 10
-448.5114185411063
 20
-963.0
 30
0.0
 11
-448.5114185411063
 21
-1029.0
 31
0.0
  0
LINE
  5
30D
330
545
100
AcDbEntity
  8
DATA
  6
Continuous
 62
     7
100
AcDbLine
 10
-445.5114185411063
 20
-1029.0
 30
0.0
 11
-445.5114185411063
 21
-963.0
 31
0.0
  0
ARC
  5
30E
330
545
100
AcDbEntity
  8
DATA
  6
Continuous
 62
     7
100
AcDbCircle
 10
-449.5634639956519
 20
-996.0
 30
0.0
 40
9.55204545454559
100
AcDbArc
 50
295.1004854346448
 51
64.89951456535532
  0
LINE
  5
30F
330
545
100
AcDbEntity
  8
DATA
  6
Continuous
 62
     7
100
AcDbLine
 10
-470.6445315433868
 20
-1013.853654648294
 30
0.0
 11
-470.6445315433868
 21
-978.1463453516977
 31
0.0
  0
ARC
  5
310
330
545
100
AcDbEntity
  8
DATA
  6
Continuous
 62
     7
100
AcDbCircle
 10
-423.5828404004569
 20
-979.6511027398945
 30
0.0
 40
47.08574166379746
100
AcDbArc
 50
127.9069457516811
 51
178.1686402994613
  0
ARC
  5
311
330
545
100
AcDbEntity
  8
DATA
  6
Continuous
 62
     7
100
AcDbCircle
 10
-423.5828404004569
 20
-1012.348897260105
 30
0.0
 40
47.08574166379736
100
AcDbArc
 50
181.8313597005387
 51
232.0930542483189
  0
TEXT
  5
312
330
545
100
AcDbEntity
  8
DATA
 62
     7
100
AcDbText
 10
237.5
 20
-1782.410423333333
 30
0.0
 40
28.50472005208334
  1
※仕様及び外観は予告なく変更されることがあります。
 41
0.7
 11
237.5
 21
-1753.90570328125
 31
0.0
100
AcDbText
 73
     3
  0
TEXT
  5
313
330
545
100
AcDbEntity
  8
DATA
 62
     7
100
AcDbText
 10
237.5
 20
-1819.45209
 30
0.0
 40
28.50472005208334
  1
　また、同一商品でも若干の個体差があることがあります。ご了承ください。
 41
0.7
 11
237.5
 21
-1790.947369947917
 31
0.0
100
AcDbText
 73
     3
  0
TEXT
  5
314
330
545
100
AcDbEntity
  8
DATA
 62
     7
100
AcDbText
 10
2300.0
 20
-1630.527953749999
 30
0.0
 40
36.64892578125
  1
JBL PROFESSIONAL
 41
0.7
 11
2300.0
 21
-1593.87902796875
 31
0.0
100
AcDbText
 73
     3
  0
LINE
  5
315
330
545
100
AcDbEntity
  8
DATA
  6
Continuous
 62
     7
100
AcDbLine
 10
1582.9
 20
144.4999999999996
 30
0.0
 11
917.1000000000001
 21
144.4999999999996
 31
0.0
  0
LINE
  5
316
330
545
100
AcDbEntity
  8
DATA
  6
Continuous
 62
     7
100
AcDbLine
 10
1582.9
 20
55.4999999999999
 30
0.0
 11
917.1000000000001
 21
55.4999999999999
 31
0.0
  0
LINE
  5
317
330
545
100
AcDbEntity
  8
DATA
  6
Continuous
 62
     7
100
AcDbLine
 10
885.0
 20
58.70000000000015
 30
0.0
 11
885.0
 21
65.0999999999998
 31
0.0
  0
LINE
  5
318
330
545
100
AcDbEntity
  8
DATA
  6
Continuous
 62
     7
100
AcDbLine
 10
885.0
 20
134.9000000000002
 30
0.0
 11
885.0
 21
141.2999999999998
 31
0.0
  0
LINE
  5
319
330
545
100
AcDbEntity
  8
DATA
  6
Continuous
 62
     7
100
AcDbLine
 10
1615.0
 20
58.70000000000015
 30
0.0
 11
1615.0
 21
65.0999999999998
 31
0.0
  0
LINE
  5
31A
330
545
100
AcDbEntity
  8
DATA
  6
Continuous
 62
     7
100
AcDbLine
 10
1582.9
 20
55.4999999999999
 30
0.0
 11
1582.9
 21
63.54999999999996
 31
0.0
  0
LINE
  5
31B
330
545
100
AcDbEntity
  8
DATA
  6
Continuous
 62
     7
100
AcDbLine
 10
1615.0
 20
58.70000000000015
 30
0.0
 11
1582.9
 21
58.70000000000015
 31
0.0
  0
LINE
  5
31C
330
545
100
AcDbEntity
  8
DATA
  6
Continuous
 62
     7
100
AcDbLine
 10
1615.0
 20
61.89999999999998
 30
0.0
 11
1582.9
 21
61.89999999999998
 31
0.0
  0
LINE
  5
31D
330
545
100
AcDbEntity
  8
DATA
  6
Continuous
 62
     7
100
AcDbLine
 10
1601.9
 20
61.89999999999998
 30
0.0
 11
1601.9
 21
138.1
 31
0.0
  0
LINE
  5
31E
330
545
100
AcDbEntity
  8
DATA
  6
Continuous
 62
     7
100
AcDbLine
 10
1615.0
 20
65.0999999999998
 30
0.0
 11
1603.700000000038
 21
65.0999999999998
 31
0.0
  0
LINE
  5
31F
330
545
100
AcDbEntity
  8
DATA
  6
Continuous
 62
     7
100
AcDbLine
 10
1615.0
 20
141.2999999999998
 30
0.0
 11
1615.0
 21
134.9000000000002
 31
0.0
  0
LINE
  5
320
330
545
100
AcDbEntity
  8
DATA
  6
Continuous
 62
     7
100
AcDbLine
 10
1582.9
 20
144.5000000000001
 30
0.0
 11
1582.9
 21
136.45
 31
0.0
  0
LINE
  5
321
330
545
100
AcDbEntity
  8
DATA
  6
Continuous
 62
     7
100
AcDbLine
 10
1615.0
 20
141.2999999999998
 30
0.0
 11
1582.9
 21
141.2999999999998
 31
0.0
  0
LINE
  5
322
330
545
100
AcDbEntity
  8
DATA
  6
Continuous
 62
     7
100
AcDbLine
 10
1615.0
 20
138.1
 30
0.0
 11
1582.9
 21
138.1
 31
0.0
  0
LINE
  5
323
330
545
100
AcDbEntity
  8
DATA
  6
Continuous
 62
     7
100
AcDbLine
 10
1615.0
 20
134.9000000000002
 30
0.0
 11
1603.700000000038
 21
134.9000000000002
 31
0.0
  0
LINE
  5
324
330
545
100
AcDbEntity
  8
DATA
  6
Continuous
 62
     7
100
AcDbLine
 10
885.0
 20
58.70000000000015
 30
0.0
 11
885.0
 21
65.0999999999998
 31
0.0
  0
LINE
  5
325
330
545
100
AcDbEntity
  8
DATA
  6
Continuous
 62
     7
100
AcDbLine
 10
885.0
 20
58.70000000000015
 30
0.0
 11
917.1000000000001
 21
58.70000000000015
 31
0.0
  0
LINE
  5
326
330
545
100
AcDbEntity
  8
DATA
  6
Continuous
 62
     7
100
AcDbLine
 10
885.0
 20
61.89999999999998
 30
0.0
 11
917.1000000000001
 21
61.89999999999998
 31
0.0
  0
LINE
  5
327
330
545
100
AcDbEntity
  8
DATA
  6
Continuous
 62
     7
100
AcDbLine
 10
898.0999999999998
 20
61.89999999999998
 30
0.0
 11
898.0999999999998
 21
138.1
 31
0.0
  0
LINE
  5
328
330
545
100
AcDbEntity
  8
DATA
  6
Continuous
 62
     7
100
AcDbLine
 10
885.0
 20
65.0999999999998
 30
0.0
 11
896.2999999999615
 21
65.0999999999998
 31
0.0
  0
LINE
  5
329
330
545
100
AcDbEntity
  8
DATA
  6
Continuous
 62
     7
100
AcDbLine
 10
885.0
 20
141.2999999999998
 30
0.0
 11
885.0
 21
134.9000000000002
 31
0.0
  0
LINE
  5
32A
330
545
100
AcDbEntity
  8
DATA
  6
Continuous
 62
     7
100
AcDbLine
 10
885.0
 20
141.2999999999998
 30
0.0
 11
917.1000000000001
 21
141.2999999999998
 31
0.0
  0
LINE
  5
32B
330
545
100
AcDbEntity
  8
DATA
  6
Continuous
 62
     7
100
AcDbLine
 10
885.0
 20
138.1
 30
0.0
 11
917.1000000000001
 21
138.1
 31
0.0
  0
LINE
  5
32C
330
545
100
AcDbEntity
  8
DATA
  6
Continuous
 62
     7
100
AcDbLine
 10
885.0
 20
134.9000000000002
 30
0.0
 11
896.2999999999615
 21
134.9000000000002
 31
0.0
  0
CIRCLE
  5
32D
330
545
100
AcDbEntity
  8
DATA
  6
Continuous
 62
     7
100
AcDbCircle
 10
1217.0
 20
99.99999999999978
 30
0.0
 40
5.0
  0
CIRCLE
  5
32E
330
545
100
AcDbEntity
  8
DATA
  6
Continuous
 62
     7
100
AcDbCircle
 10
1192.5
 20
99.99999999999978
 30
0.0
 40
5.0
  0
CIRCLE
  5
32F
330
545
100
AcDbEntity
  8
DATA
  6
Continuous
 62
     7
100
AcDbCircle
 10
1148.5
 20
99.99999999999978
 30
0.0
 40
5.0
  0
CIRCLE
  5
330
330
545
100
AcDbEntity
  8
DATA
  6
Continuous
 62
     7
100
AcDbCircle
 10
1576.0
 20
125.3999999999997
 30
0.0
 40
5.0
  0
CIRCLE
  5
331
330
545
100
AcDbEntity
  8
DATA
  6
Continuous
 62
     7
100
AcDbCircle
 10
1576.0
 20
74.59999999999974
 30
0.0
 40
5.0
  0
CIRCLE
  5
332
330
545
100
AcDbEntity
  8
DATA
  6
Continuous
 62
     7
100
AcDbCircle
 10
1554.5
 20
100.0
 30
0.0
 40
5.0
  0
LINE
  5
333
330
545
100
AcDbEntity
  8
DATA
  6
Continuous
 62
     7
100
AcDbLine
 10
1464.5
 20
120.3999999999997
 30
0.0
 11
1436.5
 21
120.3999999999997
 31
0.0
  0
LINE
  5
334
330
545
100
AcDbEntity
  8
DATA
  6
Continuous
 62
     7
100
AcDbLine
 10
1436.5
 20
130.3999999999998
 30
0.0
 11
1464.5
 21
130.3999999999998
 31
0.0
  0
ARC
  5
335
330
545
100
AcDbEntity
  8
DATA
  6
Continuous
 62
     7
100
AcDbCircle
 10
1436.5
 20
125.3999999999997
 30
0.0
 40
5.0
100
AcDbArc
 50
90.0
 51
270.0
  0
ARC
  5
336
330
545
100
AcDbEntity
  8
DATA
  6
Continuous
 62
     7
100
AcDbCircle
 10
1464.5
 20
125.3999999999997
 30
0.0
 40
5.0
100
AcDbArc
 50
270.0
 51
90.0
  0
LINE
  5
337
330
545
100
AcDbEntity
  8
DATA
  6
Continuous
 62
     7
100
AcDbLine
 10
1464.5
 20
79.59999999999974
 30
0.0
 11
1436.5
 21
79.59999999999974
 31
0.0
  0
LINE
  5
338
330
545
100
AcDbEntity
  8
DATA
  6
Continuous
 62
     7
100
AcDbLine
 10
1436.5
 20
69.59999999999974
 30
0.0
 11
1464.5
 21
69.59999999999974
 31
0.0
  0
ARC
  5
339
330
545
100
AcDbEntity
  8
DATA
  6
Continuous
 62
     7
100
AcDbCircle
 10
1436.5
 20
74.59999999999974
 30
0.0
 40
5.0
100
AcDbArc
 50
90.0
 51
270.0
  0
ARC
  5
33A
330
545
100
AcDbEntity
  8
DATA
  6
Continuous
 62
     7
100
AcDbCircle
 10
1464.5
 20
74.59999999999974
 30
0.0
 40
5.0
100
AcDbArc
 50
270.0
 51
90.0
  0
CIRCLE
  5
33B
330
545
100
AcDbEntity
  8
DATA
  6
Continuous
 62
     7
100
AcDbCircle
 10
924.0
 20
125.3999999999997
 30
0.0
 40
5.0
  0
CIRCLE
  5
33C
330
545
100
AcDbEntity
  8
DATA
  6
Continuous
 62
     7
100
AcDbCircle
 10
924.0
 20
74.59999999999974
 30
0.0
 40
5.0
  0
CIRCLE
  5
33D
330
545
100
AcDbEntity
  8
DATA
  6
Continuous
 62
     7
100
AcDbCircle
 10
945.5
 20
100.0
 30
0.0
 40
5.0
  0
LINE
  5
33E
330
545
100
AcDbEntity
  8
DATA
  6
Continuous
 62
     7
100
AcDbLine
 10
1035.5
 20
120.3999999999997
 30
0.0
 11
1063.5
 21
120.3999999999997
 31
0.0
  0
LINE
  5
33F
330
545
100
AcDbEntity
  8
DATA
  6
Continuous
 62
     7
100
AcDbLine
 10
1063.5
 20
130.3999999999998
 30
0.0
 11
1035.5
 21
130.3999999999998
 31
0.0
  0
ARC
  5
340
330
545
100
AcDbEntity
  8
DATA
  6
Continuous
 62
     7
100
AcDbCircle
 10
1063.5
 20
125.3999999999997
 30
0.0
 40
5.0
100
AcDbArc
 50
270.0
 51
90.0
  0
ARC
  5
341
330
545
100
AcDbEntity
  8
DATA
  6
Continuous
 62
     7
100
AcDbCircle
 10
1035.5
 20
125.3999999999997
 30
0.0
 40
5.0
100
AcDbArc
 50
90.0
 51
270.0
  0
LINE
  5
342
330
545
100
AcDbEntity
  8
DATA
  6
Continuous
 62
     7
100
AcDbLine
 10
1035.5
 20
79.59999999999974
 30
0.0
 11
1063.5
 21
79.59999999999974
 31
0.0
  0
LINE
  5
343
330
545
100
AcDbEntity
  8
DATA
  6
Continuous
 62
     7
100
AcDbLine
 10
1063.5
 20
69.59999999999974
 30
0.0
 11
1035.5
 21
69.59999999999974
 31
0.0
  0
ARC
  5
344
330
545
100
AcDbEntity
  8
DATA
  6
Continuous
 62
     7
100
AcDbCircle
 10
1063.5
 20
74.59999999999974
 30
0.0
 40
5.0
100
AcDbArc
 50
270.0
 51
90.0
  0
ARC
  5
345
330
545
100
AcDbEntity
  8
DATA
  6
Continuous
 62
     7
100
AcDbCircle
 10
1035.5
 20
74.59999999999974
 30
0.0
 40
5.0
100
AcDbArc
 50
90.0
 51
270.0
  0
LINE
  5
346
330
545
100
AcDbEntity
  8
DATA
  6
Continuous
 62
     7
100
AcDbLine
 10
1585.9
 20
61.89999999999998
 30
0.0
 11
1585.9
 21
63.54999999999996
 31
0.0
  0
LINE
  5
347
330
545
100
AcDbEntity
  8
DATA
  6
Continuous
 62
     7
100
AcDbLine
 10
1585.9
 20
136.45
 30
0.0
 11
1585.9
 21
138.1
 31
0.0
  0
LINE
  5
348
330
545
100
AcDbEntity
  8
DATA
  6
Continuous
 62
     7
100
AcDbLine
 10
1582.9
 20
136.35
 30
0.0
 11
1585.9
 21
136.35
 31
0.0
  0
LINE
  5
349
330
545
100
AcDbEntity
  8
DATA
  6
Continuous
 62
     7
100
AcDbLine
 10
1582.9
 20
63.54999999999996
 30
0.0
 11
1585.9
 21
63.54999999999996
 31
0.0
  0
LINE
  5
34A
330
545
100
AcDbEntity
  8
DATA
  6
Continuous
 62
     7
100
AcDbLine
 10
917.1000000000001
 20
55.4999999999999
 30
0.0
 11
917.1000000000001
 21
63.54999999999996
 31
0.0
  0
LINE
  5
34B
330
545
100
AcDbEntity
  8
DATA
  6
Continuous
 62
     7
100
AcDbLine
 10
917.1000000000001
 20
144.5000000000001
 30
0.0
 11
917.1000000000001
 21
136.45
 31
0.0
  0
LINE
  5
34C
330
545
100
AcDbEntity
  8
DATA
  6
Continuous
 62
     7
100
AcDbLine
 10
914.1
 20
61.89999999999998
 30
0.0
 11
914.1
 21
63.54999999999996
 31
0.0
  0
LINE
  5
34D
330
545
100
AcDbEntity
  8
DATA
  6
Continuous
 62
     7
100
AcDbLine
 10
914.1
 20
136.45
 30
0.0
 11
914.1
 21
138.1
 31
0.0
  0
LINE
  5
34E
330
545
100
AcDbEntity
  8
DATA
  6
Continuous
 62
     7
100
AcDbLine
 10
917.1000000000001
 20
136.45
 30
0.0
 11
914.1
 21
136.45
 31
0.0
  0
LINE
  5
34F
330
545
100
AcDbEntity
  8
DATA
  6
Continuous
 62
     7
100
AcDbLine
 10
917.1000000000001
 20
63.54999999999996
 30
0.0
 11
914.1
 21
63.54999999999996
 31
0.0
  0
LINE
  5
350
330
545
100
AcDbEntity
  8
DATA
  6
Continuous
 62
     7
100
AcDbLine
 10
1582.464912059746
 20
-409.9999999999997
 30
0.0
 11
1614.464912059746
 21
-442.0
 31
0.0
  0
LINE
  5
351
330
545
100
AcDbEntity
  8
DATA
  6
Continuous
 62
     7
100
AcDbLine
 10
1601.8
 20
-416.3
 30
0.0
 11
1598.6
 21
-416.3
 31
0.0
  0
LINE
  5
352
330
545
100
AcDbEntity
  8
DATA
  6
Continuous
 62
     7
100
AcDbLine
 10
1575.5
 20
-416.3
 30
0.0
 11
924.1999999999999
 21
-416.3
 31
0.0
  0
LINE
  5
353
330
545
100
AcDbEntity
  8
DATA
  6
Continuous
 62
     7
100
AcDbLine
 10
1601.8
 20
-401.5999999999999
 30
0.0
 11
1601.8
 21
-419.0
 31
0.0
  0
LINE
  5
354
330
545
100
AcDbEntity
  8
DATA
  6
Continuous
 62
     7
100
AcDbLine
 10
899.7999999999997
 20
-400.0
 30
0.0
 11
1600.2
 21
-400.0
 31
0.0
  0
LINE
  5
355
330
545
100
AcDbEntity
  8
DATA
  6
Continuous
 62
     7
100
AcDbLine
 10
1582.5
 20
-400.0
 30
0.0
 11
1582.5
 21
-409.2999999999999
 31
0.0
  0
LINE
  5
356
330
545
100
AcDbEntity
  8
DATA
  6
Continuous
 62
     7
100
AcDbLine
 10
903.0
 20
-403.2
 30
0.0
 11
1597.0
 21
-403.2
 31
0.0
  0
LINE
  5
357
330
545
100
AcDbEntity
  8
DATA
  6
Continuous
 62
     7
100
AcDbLine
 10
1598.6
 20
-404.8
 30
0.0
 11
1598.6
 21
-425.8350879402534
 31
0.0
  0
LINE
  5
358
330
545
100
AcDbEntity
  8
DATA
  6
Continuous
 62
     7
100
AcDbLine
 10
1598.6
 20
-486.3817757009345
 30
0.0
 11
1598.6
 21
-769.0000000000138
 31
0.0
  0
LINE
  5
359
330
545
100
AcDbEntity
  8
DATA
  6
Continuous
 62
     7
100
AcDbLine
 10
1585.5
 20
-400.0
 30
0.0
 11
1585.5
 21
-403.2
 31
0.0
  0
ARC
  5
35A
330
545
100
AcDbEntity
  8
DATA
  6
Continuous
 62
     7
100
AcDbCircle
 10
1597.0
 20
-404.8
 30
0.0
 40
1.600000000000363
100
AcDbArc
 50
0.0
 51
90.0
  0
ARC
  5
35B
330
545
100
AcDbEntity
  8
DATA
  6
Continuous
 62
     7
100
AcDbCircle
 10
1600.2
 20
-401.5999999999999
 30
0.0
 40
1.599999999999909
100
AcDbArc
 50
0.0
 51
90.0
  0
LINE
  5
35C
330
545
100
AcDbEntity
  8
DATA
  6
Continuous
 62
     7
100
AcDbLine
 10
1601.8
 20
-769.0000000000138
 30
0.0
 11
1598.6
 21
-769.0000000000138
 31
0.0
  0
LINE
  5
35D
330
545
100
AcDbEntity
  8
DATA
  6
Continuous
 62
     7
100
AcDbLine
 10
1608.100000000001
 20
-720.0
 30
0.0
 11
1598.6
 21
-720.0
 31
0.0
  0
LINE
  5
35E
330
545
100
AcDbEntity
  8
DATA
  6
Continuous
 62
     7
100
AcDbLine
 10
1601.8
 20
-720.0
 30
0.0
 11
1601.8
 21
-769.0000000000138
 31
0.0
  0
ARC
  5
35F
330
545
100
AcDbEntity
  8
DATA
  6
Continuous
 62
     7
100
AcDbCircle
 10
1575.5
 20
-409.2999999999999
 30
0.0
 40
7.0
100
AcDbArc
 50
270.0
 51
0.0
  0
LINE
  5
360
330
545
100
AcDbEntity
  8
DATA
  6
Continuous
 62
     7
100
AcDbLine
 10
1608.100000000001
 20
-419.0
 30
0.0
 11
1598.6
 21
-419.0
 31
0.0
  0
LINE
  5
361
330
545
100
AcDbEntity
  8
DATA
  6
Continuous
 62
     7
100
AcDbLine
 10
1615.100000000001
 20
-426.0
 30
0.0
 11
1615.100000000001
 21
-713.0
 31
0.0
  0
ARC
  5
362
330
545
100
AcDbEntity
  8
DATA
  6
Continuous
 62
     7
100
AcDbCircle
 10
1608.100000000001
 20
-426.0
 30
0.0
 40
7.0
100
AcDbArc
 50
0.0
 51
90.0
  0
LINE
  5
363
330
545
100
AcDbEntity
  8
DATA
  6
Continuous
 62
     7
100
AcDbLine
 10
1528.9
 20
-416.3
 30
0.0
 11
1614.600000000001
 21
-502.0
 31
0.0
  0
ARC
  5
364
330
545
100
AcDbEntity
  8
DATA
  6
Continuous
 62
     7
100
AcDbCircle
 10
1608.100000000001
 20
-713.0
 30
0.0
 40
7.0
100
AcDbArc
 50
270.0
 51
0.0
  0
LINE
  5
365
330
545
100
AcDbEntity
  8
DATA
  6
Continuous
 62
     7
100
AcDbLine
 10
917.2350879402538
 20
-409.9999999999997
 30
0.0
 11
885.2350879402534
 21
-442.0
 31
0.0
  0
LINE
  5
366
330
545
100
AcDbEntity
  8
DATA
  6
Continuous
 62
     7
100
AcDbLine
 10
898.1999999999997
 20
-416.3
 30
0.0
 11
901.4000000000002
 21
-416.3
 31
0.0
  0
LINE
  5
367
330
545
100
AcDbEntity
  8
DATA
  6
Continuous
 62
     7
100
AcDbLine
 10
898.1999999999997
 20
-401.5999999999999
 30
0.0
 11
898.1999999999997
 21
-419.0
 31
0.0
  0
LINE
  5
368
330
545
100
AcDbEntity
  8
DATA
  6
Continuous
 62
     7
100
AcDbLine
 10
917.1999999999998
 20
-400.0
 30
0.0
 11
917.1999999999998
 21
-409.2999999999999
 31
0.0
  0
LINE
  5
369
330
545
100
AcDbEntity
  8
DATA
  6
Continuous
 62
     7
100
AcDbLine
 10
901.4000000000002
 20
-404.8
 30
0.0
 11
901.4000000000002
 21
-425.8350879402534
 31
0.0
  0
LINE
  5
36A
330
545
100
AcDbEntity
  8
DATA
  6
Continuous
 62
     7
100
AcDbLine
 10
901.4000000000002
 20
-486.3817757009345
 30
0.0
 11
901.4000000000002
 21
-769.0000000000138
 31
0.0
  0
LINE
  5
36B
330
545
100
AcDbEntity
  8
DATA
  6
Continuous
 62
     7
100
AcDbLine
 10
914.1999999999997
 20
-400.0
 30
0.0
 11
914.1999999999997
 21
-403.2
 31
0.0
  0
ARC
  5
36C
330
545
100
AcDbEntity
  8
DATA
  6
Continuous
 62
     7
100
AcDbCircle
 10
903.0
 20
-404.8
 30
0.0
 40
1.599999999999909
100
AcDbArc
 50
90.0
 51
180.0
  0
ARC
  5
36D
330
545
100
AcDbEntity
  8
DATA
  6
Continuous
 62
     7
100
AcDbCircle
 10
899.7999999999997
 20
-401.5999999999999
 30
0.0
 40
1.599999999999909
100
AcDbArc
 50
90.0
 51
180.0
  0
LINE
  5
36E
330
545
100
AcDbEntity
  8
DATA
  6
Continuous
 62
     7
100
AcDbLine
 10
898.1999999999997
 20
-769.0000000000138
 30
0.0
 11
901.4000000000002
 21
-769.0000000000138
 31
0.0
  0
LINE
  5
36F
330
545
100
AcDbEntity
  8
DATA
  6
Continuous
 62
     7
100
AcDbLine
 10
892.0999999999997
 20
-720.0
 30
0.0
 11
901.4000000000002
 21
-720.0
 31
0.0
  0
LINE
  5
370
330
545
100
AcDbEntity
  8
DATA
  6
Continuous
 62
     7
100
AcDbLine
 10
898.1999999999997
 20
-720.0
 30
0.0
 11
898.1999999999997
 21
-769.0000000000138
 31
0.0
  0
ARC
  5
371
330
545
100
AcDbEntity
  8
DATA
  6
Continuous
 62
     7
100
AcDbCircle
 10
924.1999999999999
 20
-409.2999999999999
 30
0.0
 40
7.0
100
AcDbArc
 50
180.0
 51
270.0
  0
LINE
  5
372
330
545
100
AcDbEntity
  8
DATA
  6
Continuous
 62
     7
100
AcDbLine
 10
892.0999999999997
 20
-419.0
 30
0.0
 11
901.4000000000002
 21
-419.0
 31
0.0
  0
LINE
  5
373
330
545
100
AcDbEntity
  8
DATA
  6
Continuous
 62
     7
100
AcDbLine
 10
885.0999999999997
 20
-426.0
 30
0.0
 11
885.0999999999997
 21
-713.0
 31
0.0
  0
ARC
  5
374
330
545
100
AcDbEntity
  8
DATA
  6
Continuous
 62
     7
100
AcDbCircle
 10
892.0999999999997
 20
-426.0
 30
0.0
 40
7.0
100
AcDbArc
 50
90.0
 51
180.0
  0
LINE
  5
375
330
545
100
AcDbEntity
  8
DATA
  6
Continuous
 62
     7
100
AcDbLine
 10
970.8
 20
-416.3
 30
0.0
 11
885.0999999999997
 21
-502.0
 31
0.0
  0
ARC
  5
376
330
545
100
AcDbEntity
  8
DATA
  6
Continuous
 62
     7
100
AcDbCircle
 10
892.0999999999997
 20
-713.0
 30
0.0
 40
7.0
100
AcDbArc
 50
180.0
 51
270.0
  0
CIRCLE
  5
377
330
545
100
AcDbEntity
  8
DATA
  6
Continuous
 62
     7
100
AcDbCircle
 10
1283.0
 20
99.99999999999978
 30
0.0
 40
5.0
  0
CIRCLE
  5
378
330
545
100
AcDbEntity
  8
DATA
  6
Continuous
 62
     7
100
AcDbCircle
 10
1307.4
 20
99.99999999999978
 30
0.0
 40
5.0
  0
CIRCLE
  5
379
330
545
100
AcDbEntity
  8
DATA
  6
Continuous
 62
     7
100
AcDbCircle
 10
1307.5
 20
99.99999999999978
 30
0.0
 40
5.0
  0
CIRCLE
  5
37A
330
545
100
AcDbEntity
  8
DATA
  6
Continuous
 62
     7
100
AcDbCircle
 10
1351.5
 20
99.99999999999978
 30
0.0
 40
5.0
  0
LINE
  5
37B
330
545
100
AcDbEntity
  8
DATA
  6
Continuous
 62
     7
100
AcDbLine
 10
1365.5
 20
120.3999999999997
 30
0.0
 11
1337.5
 21
120.3999999999997
 31
0.0
  0
LINE
  5
37C
330
545
100
AcDbEntity
  8
DATA
  6
Continuous
 62
     7
100
AcDbLine
 10
1337.5
 20
130.3999999999998
 30
0.0
 11
1365.5
 21
130.3999999999998
 31
0.0
  0
ARC
  5
37D
330
545
100
AcDbEntity
  8
DATA
  6
Continuous
 62
     7
100
AcDbCircle
 10
1337.5
 20
125.3999999999997
 30
0.0
 40
5.0
100
AcDbArc
 50
90.0
 51
270.0
  0
ARC
  5
37E
330
545
100
AcDbEntity
  8
DATA
  6
Continuous
 62
     7
100
AcDbCircle
 10
1365.5
 20
125.3999999999997
 30
0.0
 40
5.0
100
AcDbArc
 50
270.0
 51
90.0
  0
LINE
  5
37F
330
545
100
AcDbEntity
  8
DATA
  6
Continuous
 62
     7
100
AcDbLine
 10
1365.5
 20
79.59999999999974
 30
0.0
 11
1337.5
 21
79.59999999999974
 31
0.0
  0
LINE
  5
380
330
545
100
AcDbEntity
  8
DATA
  6
Continuous
 62
     7
100
AcDbLine
 10
1337.5
 20
69.59999999999974
 30
0.0
 11
1365.5
 21
69.59999999999974
 31
0.0
  0
ARC
  5
381
330
545
100
AcDbEntity
  8
DATA
  6
Continuous
 62
     7
100
AcDbCircle
 10
1337.5
 20
74.59999999999974
 30
0.0
 40
5.0
100
AcDbArc
 50
90.0
 51
270.0
  0
ARC
  5
382
330
545
100
AcDbEntity
  8
DATA
  6
Continuous
 62
     7
100
AcDbCircle
 10
1365.5
 20
74.59999999999974
 30
0.0
 40
5.0
100
AcDbArc
 50
270.0
 51
90.0
  0
LINE
  5
383
330
545
100
AcDbEntity
  8
DATA
  6
Continuous
 62
     7
100
AcDbLine
 10
1134.5
 20
120.3999999999997
 30
0.0
 11
1162.5
 21
120.3999999999997
 31
0.0
  0
LINE
  5
384
330
545
100
AcDbEntity
  8
DATA
  6
Continuous
 62
     7
100
AcDbLine
 10
1162.5
 20
130.3999999999998
 30
0.0
 11
1134.5
 21
130.3999999999998
 31
0.0
  0
ARC
  5
385
330
545
100
AcDbEntity
  8
DATA
  6
Continuous
 62
     7
100
AcDbCircle
 10
1162.5
 20
125.3999999999997
 30
0.0
 40
5.0
100
AcDbArc
 50
270.0
 51
90.0
  0
ARC
  5
386
330
545
100
AcDbEntity
  8
DATA
  6
Continuous
 62
     7
100
AcDbCircle
 10
1134.5
 20
125.3999999999997
 30
0.0
 40
5.0
100
AcDbArc
 50
90.0
 51
270.0
  0
LINE
  5
387
330
545
100
AcDbEntity
  8
DATA
  6
Continuous
 62
     7
100
AcDbLine
 10
1134.5
 20
79.59999999999974
 30
0.0
 11
1162.5
 21
79.59999999999974
 31
0.0
  0
LINE
  5
388
330
545
100
AcDbEntity
  8
DATA
  6
Continuous
 62
     7
100
AcDbLine
 10
1162.5
 20
69.59999999999974
 30
0.0
 11
1134.5
 21
69.59999999999974
 31
0.0
  0
ARC
  5
389
330
545
100
AcDbEntity
  8
DATA
  6
Continuous
 62
     7
100
AcDbCircle
 10
1162.5
 20
74.59999999999974
 30
0.0
 40
5.0
100
AcDbArc
 50
270.0
 51
90.0
  0
ARC
  5
38A
330
545
100
AcDbEntity
  8
DATA
  6
Continuous
 62
     7
100
AcDbCircle
 10
1134.5
 20
74.59999999999974
 30
0.0
 40
5.0
100
AcDbArc
 50
90.0
 51
270.0
  0
LWPOLYLINE
  5
38B
330
545
100
AcDbEntity
  8
DATA
  6
Continuous
 62
     7
100
AcDbPolyline
 90
        4
 70
     1
 43
0.0
 10
-2220.35
 20
-1127.3
 10
-2179.65
 20
-1127.3
 10
-2179.65
 20
-1168.0
 10
-2220.35
 20
-1168.0
  0
ARC
  5
392
330
545
100
AcDbEntity
  8
DATA
  6
Continuous
 62
     7
100
AcDbCircle
 10
-2199.374984227355
 20
-1152.302512741232
 30
0.0
 40
0.4144180492637989
100
AcDbArc
 50
307.6419024975554
 51
354.2670192893847
  0
LINE
  5
393
330
545
100
AcDbEntity
  8
DATA
  6
Continuous
 62
     7
100
AcDbLine
 10
-2210.019815
 20
-1145.771955
 30
0.0
 11
-2208.077017
 21
-1141.142811
 31
0.0
  0
LINE
  5
394
330
545
100
AcDbEntity
  8
DATA
  6
Continuous
 62
     7
100
AcDbLine
 10
-2210.019815
 20
-1145.771955
 30
0.0
 11
-2211.938641
 21
-1141.142811
 31
0.0
  0
LINE
  5
395
330
545
100
AcDbEntity
  8
DATA
  6
Continuous
 62
     7
100
AcDbLine
 10
-2195.292895
 20
-1154.142811
 30
0.0
 11
-2195.292895
 21
-1141.142811
 31
0.0
  0
LINE
  5
396
330
545
100
AcDbEntity
  8
DATA
  6
Continuous
 62
     7
100
AcDbLine
 10
-2192.798429
 20
-1141.142811
 30
0.0
 11
-2192.798429
 21
-1152.152042999999
 31
0.0
  0
LINE
  5
397
330
545
100
AcDbEntity
  8
DATA
  6
Continuous
 62
     7
100
AcDbLine
 10
-2207.165574
 20
-1141.142811
 30
0.0
 11
-2207.165574
 21
-1152.152042999999
 31
0.0
  0
LINE
  5
398
330
545
100
AcDbEntity
  8
DATA
  6
Continuous
 62
     7
100
AcDbLine
 10
-2204.767048
 20
-1141.142811
 30
0.0
 11
-2204.767048
 21
-1152.152042999999
 31
0.0
  0
LINE
  5
399
330
545
100
AcDbEntity
  8
DATA
  6
Continuous
 62
     7
100
AcDbLine
 10
-2203.519815
 20
-1141.142811
 30
0.0
 11
-2203.519815
 21
-1154.142811
 31
0.0
  0
LINE
  5
39A
330
545
100
AcDbEntity
  8
DATA
  6
Continuous
 62
     7
100
AcDbLine
 10
-2201.337154
 20
-1142.366046
 30
0.0
 11
-2201.337154
 21
-1146.539488
 31
0.0
  0
LINE
  5
39B
330
545
100
AcDbEntity
  8
DATA
  6
Continuous
 62
     7
100
AcDbLine
 10
-2196.659
 20
-1146.298
 30
0.0
 11
-2196.659
 21
-1143.253517
 31
0.0
  0
LINE
  5
39C
330
545
100
AcDbEntity
  8
DATA
  6
Continuous
 62
     7
100
AcDbLine
 10
-2198.962639
 20
-1142.941699
 30
0.0
 11
-2198.962639
 21
-1145.963848
 31
0.0
  0
ARC
  5
39D
330
545
100
AcDbEntity
  8
DATA
  6
Continuous
 62
     7
100
AcDbCircle
 10
-2207.646886
 20
-1150.804671
 30
0.0
 40
3.352509452717986
100
AcDbArc
 50
264.6908562215332
 51
323.9911991542447
  0
LINE
  5
39E
330
545
100
AcDbEntity
  8
DATA
  6
Continuous
 62
     7
100
AcDbLine
 10
-2208.988447
 20
-1150.065308999999
 30
0.0
 11
-2208.988447
 21
-1152.152017
 31
0.0
  0
LINE
  5
39F
330
545
100
AcDbEntity
  8
DATA
  6
Continuous
 62
     7
100
AcDbLine
 10
-2208.988447
 20
-1150.065308999999
 30
0.0
 11
-2211.147123
 21
-1150.065308999999
 31
0.0
  0
LINE
  5
3A0
330
545
100
AcDbEntity
  8
DATA
  6
Continuous
 62
     7
100
AcDbLine
 10
-2211.147123
 20
-1150.065308999999
 30
0.0
 11
-2211.147123
 21
-1152.152017
 31
0.0
  0
ARC
  5
3A1
330
545
100
AcDbEntity
  8
DATA
  6
Continuous
 62
     7
100
AcDbCircle
 10
-2208.072441000001
 20
-1152.180149
 30
0.0
 40
0.9073074741151174
100
AcDbArc
 50
269.711848792782
 51
1.775987005682793
  0
ARC
  5
3A2
330
545
100
AcDbEntity
  8
DATA
  6
Continuous
 62
     7
100
AcDbCircle
 10
-2208.08158
 20
-1152.180149
 30
0.0
 40
0.9073028346971291
100
AcDbArc
 50
178.2240129943092
 51
270.288151207261
  0
ARC
  5
3A3
330
545
100
AcDbEntity
  8
DATA
  6
Continuous
 62
     7
100
AcDbCircle
 10
-2208.267285
 20
-1150.804671
 30
0.0
 40
3.352504008030864
100
AcDbArc
 50
216.0088008457535
 51
275.3091437784594
  0
ARC
  5
3A4
330
545
100
AcDbEntity
  8
DATA
  6
Continuous
 62
     7
100
AcDbCircle
 10
-2209.632051
 20
-1152.078528
 30
0.0
 40
1.516840270628889
100
AcDbArc
 50
182.776995449998
 51
207.3596066671485
  0
CIRCLE
  5
3A5
330
545
100
AcDbEntity
  8
DATA
  6
Continuous
 62
     7
100
AcDbCircle
 10
-2209.887891
 20
-1147.570855999999
 30
0.0
 40
1.235233999999763
  0
LINE
  5
3A6
330
545
100
AcDbEntity
  8
DATA
  6
Continuous
 62
     7
100
AcDbLine
 10
-2188.792895
 20
-1154.142797999999
 30
0.0
 11
-2195.292895
 21
-1154.142797999999
 31
0.0
  0
LINE
  5
3A7
330
545
100
AcDbEntity
  8
DATA
  6
Continuous
 62
     7
100
AcDbLine
 10
-2188.792895
 20
-1154.142797999999
 30
0.0
 11
-2188.792895
 21
-1150.065296
 31
0.0
  0
LINE
  5
3A8
330
545
100
AcDbEntity
  8
DATA
  6
Continuous
 62
     7
100
AcDbLine
 10
-2188.792895
 20
-1150.065308999999
 30
0.0
 11
-2190.975543
 21
-1150.065308999999
 31
0.0
  0
LINE
  5
3A9
330
545
100
AcDbEntity
  8
DATA
  6
Continuous
 62
     7
100
AcDbLine
 10
-2190.975543
 20
-1150.065308999999
 30
0.0
 11
-2190.975543
 21
-1152.152017
 31
0.0
  0
LINE
  5
3AA
330
545
100
AcDbEntity
  8
DATA
  6
Continuous
 62
     7
100
AcDbLine
 10
-2203.519815
 20
-1154.142797999999
 30
0.0
 11
-2198.962639
 21
-1154.142785
 31
0.0
  0
LINE
  5
3AB
330
545
100
AcDbEntity
  8
DATA
  6
Continuous
 62
     7
100
AcDbLine
 10
-2201.337167
 20
-1152.91955
 30
0.0
 11
-2200.161889
 21
-1152.91955
 31
0.0
  0
LINE
  5
3AC
330
545
100
AcDbEntity
  8
DATA
  6
Continuous
 62
     7
100
AcDbLine
 10
-2201.337154
 20
-1152.91955
 30
0.0
 11
-2201.337154
 21
-1147.786708
 31
0.0
  0
LINE
  5
3AD
330
545
100
AcDbEntity
  8
DATA
  6
Continuous
 62
     7
100
AcDbLine
 10
-2201.337167
 20
-1147.786708
 30
0.0
 11
-2200.161889
 21
-1147.786708
 31
0.0
  0
LINE
  5
3AE
330
545
100
AcDbEntity
  8
DATA
  6
Continuous
 62
     7
100
AcDbLine
 10
-2198.962639
 20
-1152.343909999999
 30
0.0
 11
-2198.962639
 21
-1148.362348
 31
0.0
  0
ARC
  5
3AF
330
545
100
AcDbEntity
  8
DATA
  6
Continuous
 62
     7
100
AcDbCircle
 10
-2206.28212
 20
-1152.078528
 30
0.0
 40
1.516838112224482
100
AcDbArc
 50
332.6403933328405
 51
357.2230045500077
  0
ARC
  5
3B0
330
545
100
AcDbEntity
  8
DATA
  6
Continuous
 62
     7
100
AcDbCircle
 10
-2191.882423
 20
-1152.180149
 30
0.0
 40
0.9073074741151195
100
AcDbArc
 50
269.7118487927532
 51
1.775987005683703
  0
ARC
  5
3B1
330
545
100
AcDbEntity
  8
DATA
  6
Continuous
 62
     7
100
AcDbCircle
 10
-2191.891549
 20
-1152.180149
 30
0.0
 40
0.9073028346975837
100
AcDbArc
 50
178.2240129943101
 51
270.2881512072323
  0
LINE
  5
3B2
330
545
100
AcDbEntity
  8
DATA
  6
Continuous
 62
     7
100
AcDbLine
 10
-2196.660053
 20
-1152.056077
 30
0.0
 11
-2196.660053
 21
-1148.602210999999
 31
0.0
  0
LINE
  5
3B3
330
545
100
AcDbEntity
  8
DATA
  6
Continuous
 62
     7
100
AcDbLine
 10
-2201.337167
 20
-1146.539488
 30
0.0
 11
-2200.161889
 21
-1146.539488
 31
0.0
  0
ARC
  5
3B4
330
545
100
AcDbEntity
  8
DATA
  6
Continuous
 62
     7
100
AcDbCircle
 10
-2199.127895
 20
-1151.674916999999
 30
0.0
 40
2.473394835233518
100
AcDbArc
 50
273.8309816091203
 51
351.1351473098017
  0
LINE
  5
3B5
330
545
100
AcDbEntity
  8
DATA
  6
Continuous
 62
     7
100
AcDbLine
 10
-2207.165574
 20
-1141.142811
 30
0.0
 11
-2204.767048
 21
-1141.142811
 31
0.0
  0
LINE
  5
3B6
330
545
100
AcDbEntity
  8
DATA
  6
Continuous
 62
     7
100
AcDbLine
 10
-2211.938641
 20
-1141.142811
 30
0.0
 11
-2208.077017
 21
-1141.142811
 31
0.0
  0
LINE
  5
3B7
330
545
100
AcDbEntity
  8
DATA
  6
Continuous
 62
     7
100
AcDbLine
 10
-2195.292895
 20
-1141.142811
 30
0.0
 11
-2192.798429
 21
-1141.142811
 31
0.0
  0
LINE
  5
3B8
330
545
100
AcDbEntity
  8
DATA
  6
Continuous
 62
     7
100
AcDbLine
 10
-2203.519815
 20
-1141.142811
 30
0.0
 11
-2198.937587833409
 21
-1141.142821521862
 31
0.0
  0
LINE
  5
3B9
330
545
100
AcDbEntity
  8
DATA
  6
Continuous
 62
     7
100
AcDbLine
 10
-2201.337167
 20
-1142.366059
 30
0.0
 11
-2200.161889
 21
-1142.366059
 31
0.0
  0
ARC
  5
3BA
330
545
100
AcDbEntity
  8
DATA
  6
Continuous
 62
     7
100
AcDbCircle
 10
-2199.103234
 20
-1143.606909
 30
0.0
 40
2.469648912785022
100
AcDbArc
 50
8.226923859015297
 51
86.15412669215196
  0
ARC
  5
3BB
330
545
100
AcDbEntity
  8
DATA
  6
Continuous
 62
     7
100
AcDbCircle
 10
-2200.148010898616
 20
-1150.639755651237
 30
0.0
 40
2.279836589396272
100
AcDbArc
 50
269.6512199376145
 51
282.8264828068693
  0
ARC
  5
3BC
330
545
100
AcDbEntity
  8
DATA
  6
Continuous
 62
     7
100
AcDbCircle
 10
-2199.891949164293
 20
-1151.603625404595
 30
0.0
 40
1.283669274801295
100
AcDbArc
 50
281.2331036226544
 51
306.8620088940603
  0
ARC
  5
3BD
330
545
100
AcDbEntity
  8
DATA
  6
Continuous
 62
     7
100
AcDbCircle
 10
-2199.374984227355
 20
-1148.403745258767
 30
0.0
 40
0.4144180492639065
100
AcDbArc
 50
5.732980710577697
 51
52.35809750244465
  0
ARC
  5
3BE
330
545
100
AcDbEntity
  8
DATA
  6
Continuous
 62
     7
100
AcDbCircle
 10
-2200.148010898616
 20
-1150.066502348763
 30
0.0
 40
2.279836589396093
100
AcDbArc
 50
77.17351719312943
 51
90.34878006238555
  0
ARC
  5
3BF
330
545
100
AcDbEntity
  8
DATA
  6
Continuous
 62
     7
100
AcDbCircle
 10
-2199.891949164293
 20
-1149.102632595404
 30
0.0
 40
1.2836692748011
100
AcDbArc
 50
53.13799110593965
 51
78.7668963773436
  0
ARC
  5
3C0
330
545
100
AcDbEntity
  8
DATA
  6
Continuous
 62
     7
100
AcDbCircle
 10
-2197.918037
 20
-1148.687244
 30
0.0
 40
1.260854613087756
100
AcDbArc
 50
3.867006359835763
 51
88.36163456791728
  0
ARC
  5
3C1
330
545
100
AcDbEntity
  8
DATA
  6
Continuous
 62
     7
100
AcDbCircle
 10
-2197.919194
 20
-1146.165348
 30
0.0
 40
1.262107521931673
100
AcDbArc
 50
271.6892821046474
 51
356.0782829826652
  0
ARC
  5
3C2
330
545
100
AcDbEntity
  8
DATA
  6
Continuous
 62
     7
100
AcDbCircle
 10
-2199.374984227355
 20
-1145.922450741232
 30
0.0
 40
0.4144180492639789
100
AcDbArc
 50
307.6419024975361
 51
354.2670192893847
  0
ARC
  5
3C3
330
545
100
AcDbEntity
  8
DATA
  6
Continuous
 62
     7
100
AcDbCircle
 10
-2200.148010898616
 20
-1144.259693651237
 30
0.0
 40
2.2798365893965
100
AcDbArc
 50
269.6512199376146
 51
282.8264828068693
  0
ARC
  5
3C4
330
545
100
AcDbEntity
  8
DATA
  6
Continuous
 62
     7
100
AcDbCircle
 10
-2199.891949164293
 20
-1145.223563404595
 30
0.0
 40
1.283669274801071
100
AcDbArc
 50
281.2331036226564
 51
306.8620088940603
  0
ARC
  5
3C5
330
545
100
AcDbEntity
  8
DATA
  6
Continuous
 62
     7
100
AcDbCircle
 10
-2199.374984227355
 20
-1142.983096258767
 30
0.0
 40
0.4144180492639293
100
AcDbArc
 50
5.732980710608975
 51
52.35809750246385
  0
ARC
  5
3C6
330
545
100
AcDbEntity
  8
DATA
  6
Continuous
 62
     7
100
AcDbCircle
 10
-2200.148010898616
 20
-1144.645853348763
 30
0.0
 40
2.279836589396315
100
AcDbArc
 50
77.17351719313068
 51
90.34878006238555
  0
ARC
  5
3C7
330
545
100
AcDbEntity
  8
DATA
  6
Continuous
 62
     7
100
AcDbCircle
 10
-2199.891949164293
 20
-1143.681983595405
 30
0.0
 40
1.2836692748011
100
AcDbArc
 50
53.13799110593965
 51
78.76689637734556
  0
LINE
  5
3C8
330
545
100
AcDbEntity
  8
DATA
  6
Continuous
 62
     7
100
AcDbLine
 10
-1536.0
 20
-300.0
 30
0.0
 11
-1536.0
 21
-84.0
 31
0.0
  0
LINE
  5
3C9
330
545
100
AcDbEntity
  8
DATA
  6
Continuous
 62
     7
100
AcDbLine
 10
-264.0
 20
-300.0
 30
0.0
 11
-1536.0
 21
-300.0
 31
0.0
  0
LINE
  5
3CA
330
545
100
AcDbEntity
  8
DATA
  6
Continuous
 62
     7
100
AcDbLine
 10
-264.0
 20
-84.0
 30
0.0
 11
-264.0
 21
-300.0
 31
0.0
  0
LINE
  5
3CB
330
545
100
AcDbEntity
  8
DATA
  6
Continuous
 62
     7
100
AcDbLine
 10
-1536.0
 20
-84.0
 30
0.0
 11
-1162.679999999998
 21
-84.0
 31
0.0
  0
LINE
  5
3CC
330
545
100
AcDbEntity
  8
DATA
  6
Continuous
 62
     7
100
AcDbLine
 10
-946.6799999999983
 20
-84.0
 30
0.0
 11
-264.0
 21
-84.0
 31
0.0
  0
LINE
  5
3CD
330
545
100
AcDbEntity
  8
DATA
  6
Continuous
 62
     7
100
AcDbLine
 10
-1500.0
 20
-300.0
 30
0.0
 11
-1500.0
 21
-84.0
 31
0.0
  0
LINE
  5
3CE
330
545
100
AcDbEntity
  8
DATA
  6
Continuous
 62
     7
100
AcDbLine
 10
-1381.560000000001
 20
-300.0
 30
0.0
 11
-1381.560000000001
 21
-84.0
 31
0.0
  0
LINE
  5
3CF
330
545
100
AcDbEntity
  8
DATA
  6
Continuous
 62
     7
100
AcDbLine
 10
-1345.560000000001
 20
-300.0
 30
0.0
 11
-1345.560000000001
 21
-84.0
 31
0.0
  0
LINE
  5
3D0
330
545
100
AcDbEntity
  8
DATA
  6
Continuous
 62
     7
100
AcDbLine
 10
-1227.12
 20
-300.0
 30
0.0
 11
-1227.12
 21
-84.0
 31
0.0
  0
LINE
  5
3D1
330
545
100
AcDbEntity
  8
DATA
  6
Continuous
 62
     7
100
AcDbLine
 10
-1191.12
 20
-300.0
 30
0.0
 11
-1191.12
 21
-84.0
 31
0.0
  0
LINE
  5
3D2
330
545
100
AcDbEntity
  8
DATA
  6
Continuous
 62
     7
100
AcDbLine
 10
-1072.679999999998
 20
-300.0
 30
0.0
 11
-1072.679999999998
 21
-84.0
 31
0.0
  0
LINE
  5
3D3
330
545
100
AcDbEntity
  8
DATA
  6
Continuous
 62
     7
100
AcDbLine
 10
-1036.679999999998
 20
-300.0
 30
0.0
 11
-1036.679999999998
 21
-84.0
 31
0.0
  0
LINE
  5
3D4
330
545
100
AcDbEntity
  8
DATA
  6
Continuous
 62
     7
100
AcDbLine
 10
-918.2399999999997
 20
-300.0
 30
0.0
 11
-918.2399999999997
 21
-84.0
 31
0.0
  0
LINE
  5
3D5
330
545
100
AcDbEntity
  8
DATA
  6
Continuous
 62
     7
100
AcDbLine
 10
-882.2399999999996
 20
-300.0
 30
0.0
 11
-882.2399999999996
 21
-84.0
 31
0.0
  0
LINE
  5
3D6
330
545
100
AcDbEntity
  8
DATA
  6
Continuous
 62
     7
100
AcDbLine
 10
-763.8000000000011
 20
-300.0
 30
0.0
 11
-763.8000000000011
 21
-84.0
 31
0.0
  0
LINE
  5
3D7
330
545
100
AcDbEntity
  8
DATA
  6
Continuous
 62
     7
100
AcDbLine
 10
-727.8000000000011
 20
-300.0
 30
0.0
 11
-727.8000000000011
 21
-84.0
 31
0.0
  0
LINE
  5
3D8
330
545
100
AcDbEntity
  8
DATA
  6
Continuous
 62
     7
100
AcDbLine
 10
-609.3599999999996
 20
-300.0
 30
0.0
 11
-609.3599999999996
 21
-84.0
 31
0.0
  0
LINE
  5
3D9
330
545
100
AcDbEntity
  8
DATA
  6
Continuous
 62
     7
100
AcDbLine
 10
-573.3599999999996
 20
-300.0
 30
0.0
 11
-573.3599999999996
 21
-84.0
 31
0.0
  0
LINE
  5
3DA
330
545
100
AcDbEntity
  8
DATA
  6
Continuous
 62
     7
100
AcDbLine
 10
-454.9199999999983
 20
-300.0
 30
0.0
 11
-454.9199999999983
 21
-84.0
 31
0.0
  0
LINE
  5
3DB
330
545
100
AcDbEntity
  8
DATA
  6
Continuous
 62
     7
100
AcDbLine
 10
-418.9199999999983
 20
-300.0
 30
0.0
 11
-418.9199999999983
 21
-84.0
 31
0.0
  0
LINE
  5
3DC
330
545
100
AcDbEntity
  8
DATA
  6
Continuous
 62
     7
100
AcDbLine
 10
-300.4799999999996
 20
-300.0
 30
0.0
 11
-300.4799999999996
 21
-84.0
 31
0.0
  0
LINE
  5
3DD
330
545
100
AcDbEntity
  8
DATA
  6
Continuous
 62
     7
100
AcDbLine
 10
-264.4799999999996
 20
-300.0
 30
0.0
 11
-264.4799999999996
 21
-84.0
 31
0.0
  0
LINE
  5
3DE
330
545
100
AcDbEntity
  8
DATA
  6
Continuous
 62
     7
100
AcDbLine
 10
-1470.78
 20
-192.0
 30
0.0
 11
-1410.78
 21
-192.0
 31
0.0
  0
CIRCLE
  5
3DF
330
545
100
AcDbEntity
  8
DATA
  6
Continuous
 62
     7
100
AcDbCircle
 10
-1440.780000000001
 20
-192.0
 30
0.0
 40
48.0
  0
LWPOLYLINE
  5
3E0
330
545
100
AcDbEntity
  8
DATA
  6
Continuous
 62
     7
100
AcDbPolyline
 90
        4
 70
     1
 43
0.0
 10
-1491.780000000001
 20
-141.0
 10
-1389.780000000001
 20
-141.0
 10
-1389.780000000001
 20
-243.0
 10
-1491.780000000001
 20
-243.0
  0
LINE
  5
3E7
330
545
100
AcDbEntity
  8
DATA
  6
Continuous
 62
     7
100
AcDbLine
 10
-1440.780000000001
 20
-162.0
 30
0.0
 11
-1440.780000000001
 21
-222.0
 31
0.0
  0
LINE
  5
3E8
330
545
100
AcDbEntity
  8
DATA
  6
Continuous
 62
     7
100
AcDbLine
 10
-329.2199999999993
 20
-192.0
 30
0.0
 11
-389.2199999999994
 21
-192.0
 31
0.0
  0
CIRCLE
  5
3E9
330
545
100
AcDbEntity
  8
DATA
  6
Continuous
 62
     7
100
AcDbCircle
 10
-359.2199999999993
 20
-192.0
 30
0.0
 40
48.0
  0
LWPOLYLINE
  5
3EA
330
545
100
AcDbEntity
  8
DATA
  6
Continuous
 62
     7
100
AcDbPolyline
 90
        4
 70
     1
 43
0.0
 10
-410.2199999999994
 20
-141.0
 10
-308.2199999999993
 20
-141.0
 10
-308.2199999999993
 20
-243.0
 10
-410.2199999999994
 20
-243.0
  0
LINE
  5
3F1
330
545
100
AcDbEntity
  8
DATA
  6
Continuous
 62
     7
100
AcDbLine
 10
-359.2199999999993
 20
-162.0
 30
0.0
 11
-359.2199999999993
 21
-222.0
 31
0.0
  0
LINE
  5
3F2
330
545
100
AcDbEntity
  8
DATA
  6
Continuous
 62
     7
100
AcDbLine
 10
-1316.339999999999
 20
-192.0
 30
0.0
 11
-1256.339999999999
 21
-192.0
 31
0.0
  0
CIRCLE
  5
3F3
330
545
100
AcDbEntity
  8
DATA
  6
Continuous
 62
     7
100
AcDbCircle
 10
-1286.339999999999
 20
-192.0
 30
0.0
 40
42.0
  0
LWPOLYLINE
  5
3F4
330
545
100
AcDbEntity
  8
DATA
  6
Continuous
 62
     7
100
AcDbPolyline
 90
        4
 70
     1
 43
0.0
 10
-1337.339999999999
 20
-141.0
 10
-1235.339999999999
 20
-141.0
 10
-1235.339999999999
 20
-243.0
 10
-1337.339999999999
 20
-243.0
  0
LINE
  5
3FB
330
545
100
AcDbEntity
  8
DATA
  6
Continuous
 62
     7
100
AcDbLine
 10
-1286.339999999999
 20
-162.0
 30
0.0
 11
-1286.339999999999
 21
-222.0
 31
0.0
  0
LINE
  5
3FC
330
545
100
AcDbEntity
  8
DATA
  6
Continuous
 62
     7
100
AcDbLine
 10
-1161.899999999998
 20
-192.0
 30
0.0
 11
-1101.899999999998
 21
-192.0
 31
0.0
  0
CIRCLE
  5
3FD
330
545
100
AcDbEntity
  8
DATA
  6
Continuous
 62
     7
100
AcDbCircle
 10
-1131.899999999998
 20
-192.0
 30
0.0
 40
42.0
  0
LWPOLYLINE
  5
3FE
330
545
100
AcDbEntity
  8
DATA
  6
Continuous
 62
     7
100
AcDbPolyline
 90
        4
 70
     1
 43
0.0
 10
-1182.899999999998
 20
-141.0
 10
-1080.899999999997
 20
-141.0
 10
-1080.899999999997
 20
-243.0
 10
-1182.899999999998
 20
-243.0
  0
LINE
  5
405
330
545
100
AcDbEntity
  8
DATA
  6
Continuous
 62
     7
100
AcDbLine
 10
-1131.899999999998
 20
-162.0
 30
0.0
 11
-1131.899999999998
 21
-222.0
 31
0.0
  0
LINE
  5
406
330
545
100
AcDbEntity
  8
DATA
  6
Continuous
 62
     7
100
AcDbLine
 10
-1007.459999999999
 20
-192.0
 30
0.0
 11
-947.4599999999993
 21
-192.0
 31
0.0
  0
CIRCLE
  5
407
330
545
100
AcDbEntity
  8
DATA
  6
Continuous
 62
     7
100
AcDbCircle
 10
-977.4599999999992
 20
-192.0
 30
0.0
 40
42.0
  0
LWPOLYLINE
  5
408
330
545
100
AcDbEntity
  8
DATA
  6
Continuous
 62
     7
100
AcDbPolyline
 90
        4
 70
     1
 43
0.0
 10
-1028.459999999999
 20
-141.0
 10
-926.4599999999992
 20
-141.0
 10
-926.4599999999992
 20
-243.0
 10
-1028.459999999999
 20
-243.0
  0
LINE
  5
40F
330
545
100
AcDbEntity
  8
DATA
  6
Continuous
 62
     7
100
AcDbLine
 10
-977.4599999999992
 20
-162.0
 30
0.0
 11
-977.4599999999992
 21
-222.0
 31
0.0
  0
LINE
  5
410
330
545
100
AcDbEntity
  8
DATA
  6
Continuous
 62
     7
100
AcDbLine
 10
-853.0200000000004
 20
-192.0
 30
0.0
 11
-793.0200000000003
 21
-192.0
 31
0.0
  0
CIRCLE
  5
411
330
545
100
AcDbEntity
  8
DATA
  6
Continuous
 62
     7
100
AcDbCircle
 10
-823.0200000000003
 20
-192.0
 30
0.0
 40
42.0
  0
LWPOLYLINE
  5
412
330
545
100
AcDbEntity
  8
DATA
  6
Continuous
 62
     7
100
AcDbPolyline
 90
        4
 70
     1
 43
0.0
 10
-874.0200000000003
 20
-141.0
 10
-772.0200000000003
 20
-141.0
 10
-772.0200000000003
 20
-243.0
 10
-874.0200000000003
 20
-243.0
  0
LINE
  5
419
330
545
100
AcDbEntity
  8
DATA
  6
Continuous
 62
     7
100
AcDbLine
 10
-823.0200000000003
 20
-162.0
 30
0.0
 11
-823.0200000000003
 21
-222.0
 31
0.0
  0
LINE
  5
41A
330
545
100
AcDbEntity
  8
DATA
  6
Continuous
 62
     7
100
AcDbLine
 10
-698.5799999999989
 20
-192.0
 30
0.0
 11
-638.5799999999989
 21
-192.0
 31
0.0
  0
CIRCLE
  5
41B
330
545
100
AcDbEntity
  8
DATA
  6
Continuous
 62
     7
100
AcDbCircle
 10
-668.579999999999
 20
-192.0
 30
0.0
 40
42.0
  0
LWPOLYLINE
  5
41C
330
545
100
AcDbEntity
  8
DATA
  6
Continuous
 62
     7
100
AcDbPolyline
 90
        4
 70
     1
 43
0.0
 10
-719.5799999999989
 20
-141.0
 10
-617.5799999999989
 20
-141.0
 10
-617.5799999999989
 20
-243.0
 10
-719.5799999999989
 20
-243.0
  0
LINE
  5
423
330
545
100
AcDbEntity
  8
DATA
  6
Continuous
 62
     7
100
AcDbLine
 10
-668.579999999999
 20
-162.0
 30
0.0
 11
-668.579999999999
 21
-222.0
 31
0.0
  0
LINE
  5
424
330
545
100
AcDbEntity
  8
DATA
  6
Continuous
 62
     7
100
AcDbLine
 10
-544.1399999999975
 20
-192.0
 30
0.0
 11
-484.1399999999977
 21
-192.0
 31
0.0
  0
CIRCLE
  5
425
330
545
100
AcDbEntity
  8
DATA
  6
Continuous
 62
     7
100
AcDbCircle
 10
-514.1399999999975
 20
-192.0
 30
0.0
 40
42.0
  0
LWPOLYLINE
  5
426
330
545
100
AcDbEntity
  8
DATA
  6
Continuous
 62
     7
100
AcDbPolyline
 90
        4
 70
     1
 43
0.0
 10
-565.1399999999975
 20
-141.0
 10
-463.1399999999977
 20
-141.0
 10
-463.1399999999977
 20
-243.0
 10
-565.1399999999975
 20
-243.0
  0
LINE
  5
42D
330
545
100
AcDbEntity
  8
DATA
  6
Continuous
 62
     7
100
AcDbLine
 10
-514.1399999999975
 20
-162.0
 30
0.0
 11
-514.1399999999975
 21
-222.0
 31
0.0
  0
LINE
  5
42E
330
545
100
AcDbEntity
  8
DATA
  6
Continuous
 62
     7
100
AcDbLine
 10
-1162.679999999998
 20
-111.0
 30
0.0
 11
-1162.679999999998
 21
-24.0
 31
0.0
  0
LINE
  5
42F
330
545
100
AcDbEntity
  8
DATA
  6
Continuous
 62
     7
100
AcDbLine
 10
-938.4599999999991
 20
-117.0
 30
0.0
 11
-940.6799999999984
 21
-117.0
 31
0.0
  0
LINE
  5
430
330
545
100
AcDbEntity
  8
DATA
  6
Continuous
 62
     7
100
AcDbLine
 10
-1168.679999999998
 20
-117.0
 30
0.0
 11
-1170.899999999998
 21
-117.0
 31
0.0
  0
LINE
  5
431
330
545
100
AcDbEntity
  8
DATA
  6
Continuous
 62
     7
100
AcDbLine
 10
-946.6799999999983
 20
-24.0
 30
0.0
 11
-946.6799999999983
 21
-111.0
 31
0.0
  0
LINE
  5
432
330
545
100
AcDbEntity
  8
DATA
  6
Continuous
 62
     7
100
AcDbLine
 10
-1150.679999999998
 20
-12.0
 30
0.0
 11
-958.6799999999984
 21
-12.0
 31
0.0
  0
LINE
  5
433
330
545
100
AcDbEntity
  8
DATA
  6
Continuous
 62
     7
100
AcDbLine
 10
-1182.899999999998
 20
-129.0
 30
0.0
 11
-1182.899999999998
 21
-141.0
 31
0.0
  0
LINE
  5
434
330
545
100
AcDbEntity
  8
DATA
  6
Continuous
 62
     7
100
AcDbLine
 10
-926.4599999999992
 20
-129.0
 30
0.0
 11
-926.4599999999992
 21
-141.0
 31
0.0
  0
ARC
  5
435
330
545
100
AcDbEntity
  8
DATA
  6
Continuous
 62
     7
100
AcDbCircle
 10
-1150.679999999998
 20
-24.0
 30
0.0
 40
12.0
100
AcDbArc
 50
90.0
 51
180.0
  0
ARC
  5
436
330
545
100
AcDbEntity
  8
DATA
  6
Continuous
 62
     7
100
AcDbCircle
 10
-958.6799999999984
 20
-24.0
 30
0.0
 40
12.0
100
AcDbArc
 50
0.0
 51
90.0
  0
ARC
  5
437
330
545
100
AcDbEntity
  8
DATA
  6
Continuous
 62
     7
100
AcDbCircle
 10
-1170.899999999998
 20
-129.0
 30
0.0
 40
12.0
100
AcDbArc
 50
90.0
 51
180.0
  0
ARC
  5
438
330
545
100
AcDbEntity
  8
DATA
  6
Continuous
 62
     7
100
AcDbCircle
 10
-938.4599999999991
 20
-129.0
 30
0.0
 40
12.0
100
AcDbArc
 50
0.0
 51
90.0
  0
ARC
  5
439
330
545
100
AcDbEntity
  8
DATA
  6
Continuous
 62
     7
100
AcDbCircle
 10
-1168.679999999998
 20
-111.0
 30
0.0
 40
6.0
100
AcDbArc
 50
270.0
 51
0.0
  0
ARC
  5
43A
330
545
100
AcDbEntity
  8
DATA
  6
Continuous
 62
     7
100
AcDbCircle
 10
-940.6799999999984
 20
-111.0
 30
0.0
 40
6.0
100
AcDbArc
 50
180.0
 51
270.0
  0
TEXT
  5
43B
330
545
100
AcDbEntity
  8
DATA
 62
     7
100
AcDbText
 10
-1312.196249999999
 20
-68.30625000000001
 30
0.0
 40
27.70312500000001
  1
com
 41
0.7
 72
     1
 11
-1286.339999999999
 21
-72.0
 31
0.0
100
AcDbText
 73
     1
  0
TEXT
  5
43C
330
545
100
AcDbEntity
  8
DATA
 62
     7
100
AcDbText
 10
-1149.999374999998
 20
-68.30625000000001
 30
0.0
 40
27.70312500000001
  1
8Ω
 41
0.7
 72
     1
 11
-1131.899999999998
 21
-72.0
 31
0.0
100
AcDbText
 73
     1
  0
TEXT
  5
43D
330
545
100
AcDbEntity
  8
DATA
 62
     7
100
AcDbText
 10
-1004.932265624999
 20
-32.30624999999999
 30
0.0
 40
27.70312500000001
  1
70V
 41
0.7
 72
     1
 11
-977.4599999999992
 21
-36.0
 31
0.0
100
AcDbText
 73
     1
  0
TEXT
  5
43E
330
545
100
AcDbEntity
  8
DATA
 62
     7
100
AcDbText
 10
-1032.404531249999
 20
-68.30625000000001
 30
0.0
 40
27.70312500000001
  1
Jumper
 41
0.7
 72
     1
 11
-977.4599999999992
 21
-72.0
 31
0.0
100
AcDbText
 73
     1
  0
TEXT
  5
43F
330
545
100
AcDbEntity
  8
DATA
 62
     7
100
AcDbText
 10
-886.0446093750004
 20
-32.30624999999999
 30
0.0
 40
27.70312500000001
  1
70V100W
 41
0.7
 72
     1
 11
-823.0200000000003
 21
-36.0
 31
0.0
100
AcDbText
 73
     1
  0
TEXT
  5
440
330
545
100
AcDbEntity
  8
DATA
 62
     7
100
AcDbText
 10
-894.1246875000004
 20
-68.30625000000001
 30
0.0
 40
27.70312500000001
  1
100V200W
 41
0.7
 72
     1
 11
-823.0200000000003
 21
-72.0
 31
0.0
100
AcDbText
 73
     1
  0
TEXT
  5
441
330
545
100
AcDbEntity
  8
DATA
 62
     7
100
AcDbText
 10
-734.836640624999
 20
-32.30624999999999
 30
0.0
 40
27.70312500000001
  1
70V200W
 41
0.7
 72
     1
 11
-668.579999999999
 21
-36.0
 31
0.0
100
AcDbText
 73
     1
  0
TEXT
  5
442
330
545
100
AcDbEntity
  8
DATA
 62
     7
100
AcDbText
 10
-739.684687499999
 20
-68.30625000000001
 30
0.0
 40
27.70312500000001
  1
100V400W
 41
0.7
 72
     1
 11
-668.579999999999
 21
-72.0
 31
0.0
100
AcDbText
 73
     1
  0
TEXT
  5
443
330
545
100
AcDbEntity
  8
DATA
 62
     7
100
AcDbText
 10
-580.3966406249976
 20
-68.30625000000001
 30
0.0
 40
27.70312500000001
  1
70V400W
 41
0.7
 72
     1
 11
-514.1399999999975
 21
-72.0
 31
0.0
100
AcDbText
 73
     1
  0
LINE
  5
444
330
545
100
AcDbEntity
  8
DATA
  6
Continuous
 62
     7
100
AcDbLine
 10
-1072.679999999998
 20
-84.0
 30
0.0
 11
-1036.679999999998
 21
-84.0
 31
0.0
  0
LINE
  5
445
330
545
100
AcDbEntity
  8
DATA
  6
Continuous
 62
     7
100
AcDbLine
 10
-1354.5
 20
-958.5499999999999
 30
0.0
 11
-1354.5
 21
-961.7499999999999
 31
0.0
  0
LINE
  5
446
330
545
100
AcDbEntity
  8
DATA
  6
Continuous
 62
     7
100
AcDbLine
 10
-1354.5
 20
-1038.25
 30
0.0
 11
-1354.5
 21
-1041.449999999999
 31
0.0
  0
CIRCLE
  5
447
330
545
100
AcDbEntity
  8
DATA
  6
Continuous
 62
     7
100
AcDbCircle
 10
-1494.5
 20
-1025.5
 30
0.0
 40
3.5
  0
CIRCLE
  5
448
330
545
100
AcDbEntity
  8
DATA
  6
Continuous
 62
     7
100
AcDbCircle
 10
-1494.5
 20
-974.5
 30
0.0
 40
3.5
  0
LINE
  5
449
330
545
100
AcDbEntity
  8
DATA
  6
Continuous
 62
     7
100
AcDbLine
 10
-1050.0
 20
-387.5
 30
0.0
 11
-750.0
 21
-387.5
 31
0.0
  0
TEXT
  5
44A
330
545
100
AcDbEntity
  8
DATA
 62
     7
100
AcDbText
 10
-837.5000000000001
 20
-1678.900565
 30
0.0
 40
28.50472005208333
  1
2-Wayフルレンジ・スピーカー
 41
0.7
 11
-837.5000000000001
 21
-1650.395844947917
 31
0.0
100
AcDbText
 73
     3
  0
CIRCLE
  5
44B
330
545
100
AcDbEntity
  8
DATA
  6
Continuous
 62
     7
100
AcDbCircle
 10
-1607.5
 20
-1000.0
 30
0.0
 40
5.0
  0
CIRCLE
  5
44C
330
545
100
AcDbEntity
  8
DATA
  6
Continuous
 62
     7
100
AcDbCircle
 10
-1607.5
 20
-1000.0
 30
0.0
 40
2.0
  0
LINE
  5
44D
330
545
100
AcDbEntity
  8
DATA
  6
Continuous
 62
     7
100
AcDbLine
 10
-1607.5
 20
-998.0
 30
0.0
 11
-1609.232050807569
 21
-999.0
 31
0.0
  0
LINE
  5
44E
330
545
100
AcDbEntity
  8
DATA
  6
Continuous
 62
     7
100
AcDbLine
 10
-1609.232050807568
 20
-999.0
 30
0.0
 11
-1609.232050807568
 21
-1001.0
 31
0.0
  0
LINE
  5
44F
330
545
100
AcDbEntity
  8
DATA
  6
Continuous
 62
     7
100
AcDbLine
 10
-1609.232050807569
 20
-1001.0
 30
0.0
 11
-1607.5
 21
-1002.0
 31
0.0
  0
LINE
  5
450
330
545
100
AcDbEntity
  8
DATA
  6
Continuous
 62
     7
100
AcDbLine
 10
-1607.5
 20
-1002.0
 30
0.0
 11
-1605.767949192431
 21
-1001.0
 31
0.0
  0
LINE
  5
451
330
545
100
AcDbEntity
  8
DATA
  6
Continuous
 62
     7
100
AcDbLine
 10
-1605.767949192431
 20
-1001.0
 30
0.0
 11
-1605.767949192431
 21
-999.0
 31
0.0
  0
LINE
  5
452
330
545
100
AcDbEntity
  8
DATA
  6
Continuous
 62
     7
100
AcDbLine
 10
-1605.767949192431
 20
-999.0
 30
0.0
 11
-1607.5
 21
-998.0
 31
0.0
  0
LINE
  5
453
330
545
100
AcDbEntity
  8
DATA
  6
Continuous
 62
     7
100
AcDbLine
 10
1786.900000000001
 20
-730.9000000000138
 30
0.0
 11
1786.900000000001
 21
-722.5
 31
0.0
  0
LINE
  5
454
330
545
100
AcDbEntity
  8
DATA
  6
Continuous
 62
     7
100
AcDbLine
 10
1786.900000000001
 20
-720.0
 30
0.0
 11
1786.900000000001
 21
-400.0
 31
0.0
  0
LINE
  5
455
330
545
100
AcDbEntity
  8
DATA
  6
Continuous
 62
     7
100
AcDbLine
 10
1790.1
 20
-720.0
 30
0.0
 11
1790.1
 21
-419.0
 31
0.0
  0
CIRCLE
  5
456
330
545
100
AcDbEntity
  8
DATA
  6
Continuous
 62
     7
100
AcDbCircle
 10
1825.0
 20
-732.0
 30
0.0
 40
5.0
  0
ARC
  5
457
330
545
100
AcDbEntity
  8
DATA
  6
Continuous
 62
     7
100
AcDbCircle
 10
1825.0
 20
-732.0
 30
0.0
 40
19.99999999999979
100
AcDbArc
 50
179.9667955303758
 51
0.0332044697694016
  0
ARC
  5
458
330
545
100
AcDbEntity
  8
DATA
  6
Continuous
 62
     7
100
AcDbCircle
 10
1825.0
 20
-732.0
 30
0.0
 40
26.0
100
AcDbArc
 50
179.9999999998917
 51
0.0332044696187666
  0
ARC
  5
459
330
545
100
AcDbEntity
  8
DATA
  6
Continuous
 62
     7
100
AcDbCircle
 10
1848.0
 20
-731.9933354356201
 30
0.0
 40
3.000007402727262
100
AcDbArc
 50
359.8727164056343
 51
180.1272835943657
  0
ARC
  5
45A
330
545
100
AcDbEntity
  8
DATA
  6
Continuous
 62
     7
100
AcDbCircle
 10
1802.0
 20
-731.9933354356201
 30
0.0
 40
3.000007402727262
100
AcDbArc
 50
359.8727164056343
 51
180.1272835943657
  0
LINE
  5
45B
330
545
100
AcDbEntity
  8
DATA
  6
Continuous
 62
     7
100
AcDbLine
 10
1786.900000000001
 20
-720.0
 30
0.0
 11
1794.65
 21
-720.0
 31
0.0
  0
LINE
  5
45C
330
545
100
AcDbEntity
  8
DATA
  6
Continuous
 62
     7
100
AcDbLine
 10
1794.65
 20
-722.5
 30
0.0
 11
1786.900000000001
 21
-722.5
 31
0.0
  0
LINE
  5
45D
330
545
100
AcDbEntity
  8
DATA
  6
Continuous
 62
     7
100
AcDbLine
 10
1794.65
 20
-722.5
 30
0.0
 11
1794.65
 21
-720.0
 31
0.0
  0
LINE
  5
45E
330
545
100
AcDbEntity
  8
DATA
  6
Continuous
 62
     7
100
AcDbLine
 10
1786.900000000001
 20
-416.0
 30
0.0
 11
1794.65
 21
-416.0
 31
0.0
  0
LINE
  5
45F
330
545
100
AcDbEntity
  8
DATA
  6
Continuous
 62
     7
100
AcDbLine
 10
1786.900000000001
 20
-419.0
 30
0.0
 11
1794.65
 21
-419.0
 31
0.0
  0
LINE
  5
460
330
545
100
AcDbEntity
  8
DATA
  6
Continuous
 62
     7
100
AcDbLine
 10
1794.65
 20
-416.0
 30
0.0
 11
1794.65
 21
-419.0
 31
0.0
  0
LINE
  5
461
330
545
100
AcDbEntity
  8
DATA
  6
Continuous
 62
     7
100
AcDbLine
 10
1783.700000000001
 20
-442.0
 30
0.0
 11
1786.900000000001
 21
-442.0
 31
0.0
  0
LINE
  5
462
330
545
100
AcDbEntity
  8
DATA
  6
Continuous
 62
     7
100
AcDbLine
 10
1783.700000000001
 20
-502.0
 30
0.0
 11
1786.900000000001
 21
-502.0
 31
0.0
  0
LINE
  5
463
330
545
100
AcDbEntity
  8
DATA
  6
Continuous
 62
     7
100
AcDbLine
 10
1783.700000000001
 20
-405.0
 30
0.0
 11
1783.700000000001
 21
-502.0
 31
0.0
  0
LINE
  5
464
330
545
100
AcDbEntity
  8
DATA
  6
Continuous
 62
     7
100
AcDbLine
 10
1780.5
 20
-405.0
 30
0.0
 11
1780.5
 21
-416.3
 31
0.0
  0
LINE
  5
465
330
545
100
AcDbEntity
  8
DATA
  6
Continuous
 62
     7
100
AcDbLine
 10
1780.5
 20
-416.3
 30
0.0
 11
1783.700000000001
 21
-416.3
 31
0.0
  0
CIRCLE
  5
466
330
545
100
AcDbEntity
  8
DATA
  6
Continuous
 62
     7
100
AcDbCircle
 10
1850.4
 20
-642.0
 30
0.0
 40
3.5
  0
CIRCLE
  5
467
330
545
100
AcDbEntity
  8
DATA
  6
Continuous
 62
     7
100
AcDbCircle
 10
1799.6
 20
-642.0
 30
0.0
 40
3.5
  0
LINE
  5
468
330
545
100
AcDbEntity
  8
DATA
  6
Continuous
 62
     7
100
AcDbLine
 10
1863.1
 20
-400.0
 30
0.0
 11
1863.1
 21
-720.0
 31
0.0
  0
LINE
  5
469
330
545
100
AcDbEntity
  8
DATA
  6
Continuous
 62
     7
100
AcDbLine
 10
1863.1
 20
-722.5
 30
0.0
 11
1863.099999999974
 21
-730.9000000000138
 31
0.0
  0
LINE
  5
46A
330
545
100
AcDbEntity
  8
DATA
  6
Continuous
 62
     7
100
AcDbLine
 10
1785.5
 20
-400.0
 30
0.0
 11
1864.5
 21
-400.0
 31
0.0
  0
LINE
  5
46B
330
545
100
AcDbEntity
  8
DATA
  6
Continuous
 62
     7
100
AcDbLine
 10
1859.900000000001
 20
-419.0
 30
0.0
 11
1859.900000000001
 21
-720.0
 31
0.0
  0
LINE
  5
46C
330
545
100
AcDbEntity
  8
DATA
  6
Continuous
 62
     7
100
AcDbLine
 10
1855.35
 20
-720.0
 30
0.0
 11
1863.1
 21
-720.0
 31
0.0
  0
LINE
  5
46D
330
545
100
AcDbEntity
  8
DATA
  6
Continuous
 62
     7
100
AcDbLine
 10
1855.35
 20
-722.5
 30
0.0
 11
1863.1
 21
-722.5
 31
0.0
  0
LINE
  5
46E
330
545
100
AcDbEntity
  8
DATA
  6
Continuous
 62
     7
100
AcDbLine
 10
1855.35
 20
-722.5
 30
0.0
 11
1855.35
 21
-720.0
 31
0.0
  0
LINE
  5
46F
330
545
100
AcDbEntity
  8
DATA
  6
Continuous
 62
     7
100
AcDbLine
 10
1855.35
 20
-416.0
 30
0.0
 11
1863.1
 21
-416.0
 31
0.0
  0
LINE
  5
470
330
545
100
AcDbEntity
  8
DATA
  6
Continuous
 62
     7
100
AcDbLine
 10
1855.35
 20
-419.0
 30
0.0
 11
1863.1
 21
-419.0
 31
0.0
  0
LINE
  5
471
330
545
100
AcDbEntity
  8
DATA
  6
Continuous
 62
     7
100
AcDbLine
 10
1855.35
 20
-416.0
 30
0.0
 11
1855.35
 21
-419.0
 31
0.0
  0
LINE
  5
472
330
545
100
AcDbEntity
  8
DATA
  6
Continuous
 62
     7
100
AcDbLine
 10
1863.1
 20
-442.0
 30
0.0
 11
1866.3
 21
-442.0
 31
0.0
  0
LINE
  5
473
330
545
100
AcDbEntity
  8
DATA
  6
Continuous
 62
     7
100
AcDbLine
 10
1863.1
 20
-502.0
 30
0.0
 11
1866.3
 21
-502.0
 31
0.0
  0
LINE
  5
474
330
545
100
AcDbEntity
  8
DATA
  6
Continuous
 62
     7
100
AcDbLine
 10
1866.3
 20
-405.0
 30
0.0
 11
1866.3
 21
-502.0
 31
0.0
  0
LINE
  5
475
330
545
100
AcDbEntity
  8
DATA
  6
Continuous
 62
     7
100
AcDbLine
 10
1869.5
 20
-405.0
 30
0.0
 11
1869.5
 21
-416.3
 31
0.0
  0
LINE
  5
476
330
545
100
AcDbEntity
  8
DATA
  6
Continuous
 62
     7
100
AcDbLine
 10
1869.5
 20
-416.3
 30
0.0
 11
1866.3
 21
-416.3
 31
0.0
  0
LINE
  5
477
330
545
100
AcDbEntity
  8
DATA
  6
Continuous
 62
     7
100
AcDbLine
 10
1785.5
 20
-403.2
 30
0.0
 11
1786.900000000001
 21
-403.2
 31
0.0
  0
LINE
  5
478
330
545
100
AcDbEntity
  8
DATA
  6
Continuous
 62
     7
100
AcDbLine
 10
1863.1
 20
-403.2
 30
0.0
 11
1864.5
 21
-403.2
 31
0.0
  0
ARC
  5
479
330
545
100
AcDbEntity
  8
DATA
  6
Continuous
 62
     7
100
AcDbCircle
 10
1824.999999999987
 20
-730.9000000000138
 30
0.0
 40
38.09999999998672
100
AcDbArc
 50
180.0
 51
0.0
  0
ARC
  5
47A
330
545
100
AcDbEntity
  8
DATA
  6
Continuous
 62
     7
100
AcDbCircle
 10
1785.5
 20
-405.0
 30
0.0
 40
5.0
100
AcDbArc
 50
90.0
 51
180.0
  0
ARC
  5
47B
330
545
100
AcDbEntity
  8
DATA
  6
Continuous
 62
     7
100
AcDbCircle
 10
1864.5
 20
-405.0
 30
0.0
 40
5.0
100
AcDbArc
 50
0.0
 51
90.0
  0
ARC
  5
47C
330
545
100
AcDbEntity
  8
DATA
  6
Continuous
 62
     7
100
AcDbCircle
 10
1785.5
 20
-405.0
 30
0.0
 40
1.799999999999272
100
AcDbArc
 50
90.0
 51
180.0
  0
ARC
  5
47D
330
545
100
AcDbEntity
  8
DATA
  6
Continuous
 62
     7
100
AcDbCircle
 10
1864.5
 20
-405.0
 30
0.0
 40
1.800000000000181
100
AcDbArc
 50
0.0
 51
90.0
  0
ARC
  5
47E
330
545
100
AcDbEntity
  8
DATA
  6
Continuous
 62
     7
100
AcDbCircle
 10
1603.700000000038
 20
133.1
 30
0.0
 40
5.0
100
AcDbArc
 50
90.0
 51
111.1001960245591
  0
ARC
  5
47F
330
545
100
AcDbEntity
  8
DATA
  6
Continuous
 62
     7
100
AcDbCircle
 10
1603.700000000038
 20
133.1
 30
0.0
 40
1.800000000000181
100
AcDbArc
 50
90.0
 51
180.0
  0
ARC
  5
480
330
545
100
AcDbEntity
  8
DATA
  6
Continuous
 62
     7
100
AcDbCircle
 10
1603.700000000038
 20
66.89999999999997
 30
0.0
 40
4.999999999999927
100
AcDbArc
 50
248.8998039754408
 51
270.0
  0
ARC
  5
481
330
545
100
AcDbEntity
  8
DATA
  6
Continuous
 62
     7
100
AcDbCircle
 10
1603.700000000038
 20
66.89999999999997
 30
0.0
 40
1.800000000000181
100
AcDbArc
 50
180.0
 51
270.0
  0
ARC
  5
482
330
545
100
AcDbEntity
  8
DATA
  6
Continuous
 62
     7
100
AcDbCircle
 10
896.2999999999615
 20
133.1
 30
0.0
 40
5.000000000000092
100
AcDbArc
 50
68.89980397543597
 51
90.0
  0
ARC
  5
483
330
545
100
AcDbEntity
  8
DATA
  6
Continuous
 62
     7
100
AcDbCircle
 10
896.2999999999615
 20
133.1
 30
0.0
 40
1.800000000000181
100
AcDbArc
 50
0.0
 51
90.0
  0
ARC
  5
484
330
545
100
AcDbEntity
  8
DATA
  6
Continuous
 62
     7
100
AcDbCircle
 10
896.2999999999615
 20
66.89999999999997
 30
0.0
 40
5.0
100
AcDbArc
 50
270.0
 51
291.100196024564
  0
ARC
  5
485
330
545
100
AcDbEntity
  8
DATA
  6
Continuous
 62
     7
100
AcDbCircle
 10
896.2999999999615
 20
66.89999999999997
 30
0.0
 40
1.800000000000181
100
AcDbArc
 50
270.0
 51
0.0
  0
LINE
  5
486
330
545
100
AcDbEntity
  8
DATA
  6
STYLE_06
 62
     7
100
AcDbLine
 10
875.0
 20
100.0
 30
0.0
 11
1625.0
 21
100.0
 31
0.0
  0
ARC
  5
487
330
545
100
AcDbEntity
  8
DATA
  6
Continuous
 62
     7
100
AcDbCircle
 10
-1618.325846596899
 20
-1077.470841582885
 30
0.0
 40
130.9725766248041
100
AcDbArc
 50
61.93383821902251
 51
90.29491910675721
  0
ARC
  5
488
330
545
100
AcDbEntity
  8
DATA
  6
Continuous
 62
     7
100
AcDbCircle
 10
-1618.325846596899
 20
-922.5291584171143
 30
0.0
 40
130.9725766248041
100
AcDbArc
 50
269.7050808932428
 51
298.0661617809758
  0
LINE
  5
489
330
545
100
AcDbEntity
  8
DATA
  6
STYLE_01
 62
     7
100
AcDbLine
 10
-1619.0
 20
-1013.573871960481
 30
0.0
 11
-1619.0
 21
-986.4261280394934
 31
0.0
  0
LINE
  5
48A
330
545
100
AcDbEntity
  8
DATA
  6
Continuous
 62
     7
100
AcDbLine
 10
-1619.0
 20
-1053.5
 30
0.0
 11
-1619.0
 21
-1013.573871960481
 31
0.0
  0
LINE
  5
48B
330
545
100
AcDbEntity
  8
DATA
  6
Continuous
 62
     7
100
AcDbLine
 10
-1619.0
 20
-986.4261280394934
 30
0.0
 11
-1619.0
 21
-946.4999999999999
 31
0.0
  0
LINE
  5
48C
330
545
100
AcDbEntity
  8
DATA
  6
Continuous
 62
     7
100
AcDbLine
 10
-1583.400000000013
 20
-961.9000000000008
 30
0.0
 11
-1575.0
 21
-961.9000000000008
 31
0.0
  0
LINE
  5
48D
330
545
100
AcDbEntity
  8
DATA
  6
Continuous
 62
     7
100
AcDbLine
 10
-1572.5
 20
-961.9000000000008
 30
0.0
 11
-1252.5
 21
-961.9000000000008
 31
0.0
  0
LINE
  5
48E
330
545
100
AcDbEntity
  8
DATA
  6
Continuous
 62
     7
100
AcDbLine
 10
-1572.5
 20
-965.1000000000005
 30
0.0
 11
-1271.5
 21
-965.1000000000005
 31
0.0
  0
CIRCLE
  5
48F
330
545
100
AcDbEntity
  8
DATA
  6
Continuous
 62
     7
100
AcDbCircle
 10
-1584.5
 20
-1000.0
 30
0.0
 40
5.0
  0
ARC
  5
490
330
545
100
AcDbEntity
  8
DATA
  6
Continuous
 62
     7
100
AcDbCircle
 10
-1584.5
 20
-1000.0
 30
0.0
 40
19.99999999999979
100
AcDbArc
 50
89.96679553037523
 51
169.2987345595758
  0
ARC
  5
491
330
545
100
AcDbEntity
  8
DATA
  6
Continuous
 62
     7
100
AcDbCircle
 10
-1584.5
 20
-1000.0
 30
0.0
 40
19.99999999999972
100
AcDbArc
 50
190.7012654404229
 51
270.0332044697636
  0
ARC
  5
492
330
545
100
AcDbEntity
  8
DATA
  6
Continuous
 62
     7
100
AcDbCircle
 10
-1584.5
 20
-1000.0
 30
0.0
 40
26.0
100
AcDbArc
 50
89.99999999989176
 51
170.6175256260746
  0
ARC
  5
493
330
545
100
AcDbEntity
  8
DATA
  6
Continuous
 62
     7
100
AcDbCircle
 10
-1584.5
 20
-1000.0
 30
0.0
 40
25.99999999999997
100
AcDbArc
 50
189.3824743739243
 51
270.0332044696243
  0
ARC
  5
494
330
545
100
AcDbEntity
  8
DATA
  6
Continuous
 62
     7
100
AcDbCircle
 10
-1584.49333543562
 20
-1023.0
 30
0.0
 40
3.000007402727262
100
AcDbArc
 50
269.8727164056299
 51
90.12728359437003
  0
ARC
  5
495
330
545
100
AcDbEntity
  8
DATA
  6
Continuous
 62
     7
100
AcDbCircle
 10
-1584.49333543562
 20
-977.0000000000001
 30
0.0
 40
3.000007402727262
100
AcDbArc
 50
269.8727164056299
 51
90.12728359437003
  0
LINE
  5
496
330
545
100
AcDbEntity
  8
DATA
  6
Continuous
 62
     7
100
AcDbLine
 10
-1572.5
 20
-961.9000000000008
 30
0.0
 11
-1572.5
 21
-969.6500000000007
 31
0.0
  0
LINE
  5
497
330
545
100
AcDbEntity
  8
DATA
  6
Continuous
 62
     7
100
AcDbLine
 10
-1575.0
 20
-969.6500000000007
 30
0.0
 11
-1575.0
 21
-961.9000000000008
 31
0.0
  0
LINE
  5
498
330
545
100
AcDbEntity
  8
DATA
  6
Continuous
 62
     7
100
AcDbLine
 10
-1575.0
 20
-969.6500000000007
 30
0.0
 11
-1572.5
 21
-969.6500000000007
 31
0.0
  0
LINE
  5
499
330
545
100
AcDbEntity
  8
DATA
  6
Continuous
 62
     7
100
AcDbLine
 10
-1268.5
 20
-961.9000000000008
 30
0.0
 11
-1268.5
 21
-969.6500000000007
 31
0.0
  0
LINE
  5
49A
330
545
100
AcDbEntity
  8
DATA
  6
Continuous
 62
     7
100
AcDbLine
 10
-1271.5
 20
-961.9000000000008
 30
0.0
 11
-1271.5
 21
-969.6500000000007
 31
0.0
  0
LINE
  5
49B
330
545
100
AcDbEntity
  8
DATA
  6
Continuous
 62
     7
100
AcDbLine
 10
-1268.5
 20
-969.6500000000007
 30
0.0
 11
-1271.5
 21
-969.6500000000007
 31
0.0
  0
LINE
  5
49C
330
545
100
AcDbEntity
  8
DATA
  6
Continuous
 62
     7
100
AcDbLine
 10
-1294.5
 20
-958.7000000000006
 30
0.0
 11
-1294.5
 21
-961.9000000000008
 31
0.0
  0
LINE
  5
49D
330
545
100
AcDbEntity
  8
DATA
  6
Continuous
 62
     7
100
AcDbLine
 10
-1354.5
 20
-958.7000000000006
 30
0.0
 11
-1354.5
 21
-961.9000000000008
 31
0.0
  0
LINE
  5
49E
330
545
100
AcDbEntity
  8
DATA
  6
Continuous
 62
     7
100
AcDbLine
 10
-1257.5
 20
-958.7000000000006
 30
0.0
 11
-1354.5
 21
-958.7000000000006
 31
0.0
  0
LINE
  5
49F
330
545
100
AcDbEntity
  8
DATA
  6
Continuous
 62
     7
100
AcDbLine
 10
-1257.5
 20
-955.5000000000001
 30
0.0
 11
-1268.799999999999
 21
-955.5000000000001
 31
0.0
  0
LINE
  5
4A0
330
545
100
AcDbEntity
  8
DATA
  6
Continuous
 62
     7
100
AcDbLine
 10
-1268.799999999999
 20
-955.5000000000001
 30
0.0
 11
-1268.799999999999
 21
-958.7000000000006
 31
0.0
  0
CIRCLE
  5
4A1
330
545
100
AcDbEntity
  8
DATA
  6
Continuous
 62
     7
100
AcDbCircle
 10
-1494.5
 20
-1025.5
 30
0.0
 40
3.5
  0
CIRCLE
  5
4A2
330
545
100
AcDbEntity
  8
DATA
  6
Continuous
 62
     7
100
AcDbCircle
 10
-1494.5
 20
-974.5
 30
0.0
 40
3.5
  0
LINE
  5
4A3
330
545
100
AcDbEntity
  8
DATA
  6
Continuous
 62
     7
100
AcDbLine
 10
-1252.5
 20
-1038.1
 30
0.0
 11
-1572.5
 21
-1038.1
 31
0.0
  0
LINE
  5
4A4
330
545
100
AcDbEntity
  8
DATA
  6
Continuous
 62
     7
100
AcDbLine
 10
-1575.0
 20
-1038.1
 30
0.0
 11
-1583.400000000013
 21
-1038.099999999974
 31
0.0
  0
LINE
  5
4A5
330
545
100
AcDbEntity
  8
DATA
  6
Continuous
 62
     7
100
AcDbLine
 10
-1252.5
 20
-960.5000000000002
 30
0.0
 11
-1252.5
 21
-1039.5
 31
0.0
  0
LINE
  5
4A6
330
545
100
AcDbEntity
  8
DATA
  6
Continuous
 62
     7
100
AcDbLine
 10
-1271.5
 20
-1034.9
 30
0.0
 11
-1572.5
 21
-1034.9
 31
0.0
  0
LINE
  5
4A7
330
545
100
AcDbEntity
  8
DATA
  6
Continuous
 62
     7
100
AcDbLine
 10
-1572.5
 20
-1030.35
 30
0.0
 11
-1572.5
 21
-1038.1
 31
0.0
  0
LINE
  5
4A8
330
545
100
AcDbEntity
  8
DATA
  6
Continuous
 62
     7
100
AcDbLine
 10
-1575.0
 20
-1030.35
 30
0.0
 11
-1575.0
 21
-1038.1
 31
0.0
  0
LINE
  5
4A9
330
545
100
AcDbEntity
  8
DATA
  6
Continuous
 62
     7
100
AcDbLine
 10
-1575.0
 20
-1030.35
 30
0.0
 11
-1572.5
 21
-1030.35
 31
0.0
  0
LINE
  5
4AA
330
545
100
AcDbEntity
  8
DATA
  6
Continuous
 62
     7
100
AcDbLine
 10
-1268.5
 20
-1030.35
 30
0.0
 11
-1268.5
 21
-1038.1
 31
0.0
  0
LINE
  5
4AB
330
545
100
AcDbEntity
  8
DATA
  6
Continuous
 62
     7
100
AcDbLine
 10
-1271.5
 20
-1030.35
 30
0.0
 11
-1271.5
 21
-1038.1
 31
0.0
  0
LINE
  5
4AC
330
545
100
AcDbEntity
  8
DATA
  6
Continuous
 62
     7
100
AcDbLine
 10
-1268.5
 20
-1030.35
 30
0.0
 11
-1271.5
 21
-1030.35
 31
0.0
  0
LINE
  5
4AD
330
545
100
AcDbEntity
  8
DATA
  6
Continuous
 62
     7
100
AcDbLine
 10
-1294.5
 20
-1038.1
 30
0.0
 11
-1294.5
 21
-1041.3
 31
0.0
  0
LINE
  5
4AE
330
545
100
AcDbEntity
  8
DATA
  6
Continuous
 62
     7
100
AcDbLine
 10
-1354.5
 20
-1038.1
 30
0.0
 11
-1354.5
 21
-1041.3
 31
0.0
  0
LINE
  5
4AF
330
545
100
AcDbEntity
  8
DATA
  6
Continuous
 62
     7
100
AcDbLine
 10
-1257.5
 20
-1041.3
 30
0.0
 11
-1354.5
 21
-1041.3
 31
0.0
  0
LINE
  5
4B0
330
545
100
AcDbEntity
  8
DATA
  6
Continuous
 62
     7
100
AcDbLine
 10
-1257.5
 20
-1044.5
 30
0.0
 11
-1268.799999999999
 21
-1044.5
 31
0.0
  0
LINE
  5
4B1
330
545
100
AcDbEntity
  8
DATA
  6
Continuous
 62
     7
100
AcDbLine
 10
-1268.799999999999
 20
-1044.5
 30
0.0
 11
-1268.799999999999
 21
-1041.3
 31
0.0
  0
LINE
  5
4B2
330
545
100
AcDbEntity
  8
DATA
  6
Continuous
 62
     7
100
AcDbLine
 10
-1255.7
 20
-960.5000000000002
 30
0.0
 11
-1255.7
 21
-961.9000000000008
 31
0.0
  0
LINE
  5
4B3
330
545
100
AcDbEntity
  8
DATA
  6
Continuous
 62
     7
100
AcDbLine
 10
-1255.7
 20
-1038.1
 30
0.0
 11
-1255.7
 21
-1039.5
 31
0.0
  0
ARC
  5
4B4
330
545
100
AcDbEntity
  8
DATA
  6
Continuous
 62
     7
100
AcDbCircle
 10
-1583.400000000013
 20
-999.9999999999875
 30
0.0
 40
38.09999999998672
100
AcDbArc
 50
90.0
 51
270.0
  0
ARC
  5
4B5
330
545
100
AcDbEntity
  8
DATA
  6
Continuous
 62
     7
100
AcDbCircle
 10
-1257.5
 20
-960.5000000000002
 30
0.0
 40
5.0
100
AcDbArc
 50
0.0
 51
90.0
  0
ARC
  5
4B6
330
545
100
AcDbEntity
  8
DATA
  6
Continuous
 62
     7
100
AcDbCircle
 10
-1257.5
 20
-1039.5
 30
0.0
 40
5.0
100
AcDbArc
 50
270.0
 51
0.0
  0
ARC
  5
4B7
330
545
100
AcDbEntity
  8
DATA
  6
Continuous
 62
     7
100
AcDbCircle
 10
-1257.5
 20
-960.5000000000002
 30
0.0
 40
1.799999999999272
100
AcDbArc
 50
0.0
 51
90.0
  0
ARC
  5
4B8
330
545
100
AcDbEntity
  8
DATA
  6
Continuous
 62
     7
100
AcDbCircle
 10
-1257.5
 20
-1039.5
 30
0.0
 40
1.800000000000181
100
AcDbArc
 50
270.0
 51
0.0
  0
INSERT
  5
4B9
330
545
100
AcDbEntity
  8
DATA
 62
     7
100
AcDbBlockReference
  2
____
 10
0.0
 20
0.0
 30
0.0
  0
LINE
  5
4BA
330
545
100
AcDbEntity
  8
DATA
  6
STYLE_01
 62
     7
100
AcDbLine
 10
-2551.8
 20
-526.4999999999999
 30
0.0
 11
-2551.8
 21
-547.5
 31
0.0
  0
LINE
  5
4BB
330
545
100
AcDbEntity
  8
DATA
  6
Continuous
 62
     7
100
AcDbLine
 10
-2558.8
 20
-592.4999999999999
 30
0.0
 11
-2558.8
 21
-547.4419017567235
 31
0.0
  0
LINE
  5
4BC
330
545
100
AcDbEntity
  8
DATA
  6
Continuous
 62
     7
100
AcDbLine
 10
-2553.800000000001
 20
-547.5
 30
0.0
 11
-2553.800000000001
 21
-592.4999999999999
 31
0.0
  0
LINE
  5
4BD
330
545
100
AcDbEntity
  8
DATA
  6
Continuous
 62
     7
100
AcDbLine
 10
-2555.8
 20
-547.5
 30
0.0
 11
-2555.8
 21
-592.4999999999999
 31
0.0
  0
LINE
  5
4BE
330
545
100
AcDbEntity
  8
DATA
  6
Continuous
 62
     7
100
AcDbLine
 10
-1864.828994507314
 20
-515.0
 30
0.0
 11
-1858.511418541107
 21
-515.0
 31
0.0
  0
LINE
  5
4BF
330
545
100
AcDbEntity
  8
DATA
  6
Continuous
 62
     7
100
AcDbLine
 10
-1852.511418541107
 20
-594.0000000000008
 30
0.0
 11
-1852.511418541107
 21
-521.0
 31
0.0
  0
LINE
  5
4C0
330
545
100
AcDbEntity
  8
DATA
  6
STYLE_01
 62
     7
100
AcDbLine
 10
-1841.2
 20
-526.4999999999999
 30
0.0
 11
-1848.2
 21
-526.4999999999999
 31
0.0
  0
LINE
  5
4C1
330
545
100
AcDbEntity
  8
DATA
  6
Continuous
 62
     7
100
AcDbLine
 10
-1841.2
 20
-592.4999999999999
 30
0.0
 11
-1848.2
 21
-592.4999999999999
 31
0.0
  0
LINE
  5
4C2
330
545
100
AcDbEntity
  8
DATA
  6
STYLE_01
 62
     7
100
AcDbLine
 10
-1846.2
 20
-526.4999999999999
 30
0.0
 11
-1846.2
 21
-547.5
 31
0.0
  0
LINE
  5
4C3
330
545
100
AcDbEntity
  8
DATA
  6
STYLE_01
 62
     7
100
AcDbLine
 10
-1844.2
 20
-526.4999999999999
 30
0.0
 11
-1844.2
 21
-547.5
 31
0.0
  0
LINE
  5
4C4
330
545
100
AcDbEntity
  8
DATA
  6
STYLE_01
 62
     7
100
AcDbLine
 10
-1841.2
 20
-547.4419017567235
 30
0.0
 11
-1841.2
 21
-526.4999999999999
 31
0.0
  0
ARC
  5
4C5
330
545
100
AcDbEntity
  8
DATA
  6
Continuous
 62
     7
100
AcDbCircle
 10
-1845.252045454544
 20
-559.4999999999999
 30
0.0
 40
9.552045454545389
100
AcDbArc
 50
295.1004854346438
 51
64.89951456535627
  0
ARC
  5
4C6
330
545
100
AcDbEntity
  8
DATA
  6
Continuous
 62
     7
100
AcDbCircle
 10
-1858.511418541107
 20
-521.0
 30
0.0
 40
6.0
100
AcDbArc
 50
0.0
 51
90.0
  0
ARC
  5
4C7
330
545
100
AcDbEntity
  8
DATA
  6
Continuous
 62
     7
100
AcDbCircle
 10
-1864.828994507314
 20
-508.9999999999999
 30
0.0
 40
5.999999999999773
100
AcDbArc
 50
194.2441184850946
 51
270.0
  0
LINE
  5
4C8
330
545
100
AcDbEntity
  8
DATA
  6
STYLE_01
 62
     7
100
AcDbLine
 10
-1848.2
 20
-526.4999999999999
 30
0.0
 11
-1848.2
 21
-547.5
 31
0.0
  0
LINE
  5
4C9
330
545
100
AcDbEntity
  8
DATA
  6
Continuous
 62
     7
100
AcDbLine
 10
-1841.2
 20
-592.4999999999999
 30
0.0
 11
-1841.2
 21
-547.4419017567235
 31
0.0
  0
LINE
  5
4CA
330
545
100
AcDbEntity
  8
DATA
  6
Continuous
 62
     7
100
AcDbLine
 10
-1846.2
 20
-547.5
 30
0.0
 11
-1846.2
 21
-592.4999999999999
 31
0.0
  0
LINE
  5
4CB
330
545
100
AcDbEntity
  8
DATA
  6
Continuous
 62
     7
100
AcDbLine
 10
-1844.2
 20
-547.5
 30
0.0
 11
-1844.2
 21
-592.4999999999999
 31
0.0
  0
CIRCLE
  5
4CC
330
545
100
AcDbEntity
  8
DATA
  6
Continuous
 62
     7
100
AcDbCircle
 10
-684.4999999999999
 20
-996.0
 30
0.0
 40
10.75
  0
TEXT
  5
4CD
330
545
100
AcDbEntity
  8
DATA
 62
     7
100
AcDbText
 10
2300.0
 20
-1733.591239999999
 30
0.0
 40
36.64892578125
  1
U字金具
 41
0.7
 11
2300.0
 21
-1696.942314218749
 31
0.0
100
AcDbText
 73
     3
  0
TEXT
  5
4CE
330
545
100
AcDbEntity
  8
DATA
 62
     7
100
AcDbText
 10
2262.5
 20
-1678.900565
 30
0.0
 40
28.50472005208333
  1
AW266、AW295付属品
 41
0.7
 11
2262.5
 21
-1650.395844947917
 31
0.0
100
AcDbText
 73
     3
  0
TEXT
  5
4CF
330
545
100
AcDbEntity
  8
DATA
 62
     7
100
AcDbText
 10
-800.0000000000001
 20
-1733.591239999999
 30
0.0
 40
36.64892578125
  1
AW266、AW295
 41
0.7
 11
-800.0000000000001
 21
-1696.942314218749
 31
0.0
100
AcDbText
 73
     3
  0
TEXT
  5
4D0
330
545
100
AcDbEntity
  8
DATA
 62
     7
100
AcDbText
 10
1925.938619339517
 20
-879.0011843194999
 30
0.0
 40
40.72102864583334
  1
(2ヵ所)
 41
0.7
 11
1925.938619339517
 21
-838.2801556736664
 31
0.0
100
AcDbText
 73
     3
  0
LINE
  5
4D1
330
545
100
AcDbEntity
  8
DATA
  6
STYLE_06
 62
     7
100
AcDbLine
 10
-1200.0
 20
-1000.0
 30
0.0
 11
-400.0
 21
-1000.0
 31
0.0
  0
LINE
  5
4D2
330
545
100
AcDbEntity
  8
DATA
  6
STYLE_06
 62
     7
100
AcDbLine
 10
-800.0
 20
-775.0
 30
0.0
 11
-800.0
 21
-1225.0
 31
0.0
  0
LINE
  5
4D3
330
545
100
AcDbEntity
  8
DATA
  6
STYLE_06
 62
     7
100
AcDbLine
 10
1250.0
 20
175.0
 30
0.0
 11
1250.0
 21
25.0
 31
0.0
  0
LINE
  5
4D4
330
545
100
AcDbEntity
  8
DATA
  6
STYLE_06
 62
     7
100
AcDbLine
 10
1825.0
 20
-375.0
 30
0.0
 11
1825.0
 21
-800.0
 31
0.0
  0
ENDSEC
  0
SECTION
  2
OBJECTS
  0
DICTIONARY
  5
4E2
330
0
100
AcDbDictionary
281
     1
  3
ACAD_CIP_PREVIOUS_PRODUCT_INFO
350
55E
  3
ACAD_COLOR
350
538
  3
ACAD_DETAILVIEWSTYLE
350
53F
  3
ACAD_GROUP
350
4E3
  3
ACAD_LAYOUT
350
537
  3
ACAD_MATERIAL
350
4E6
  3
ACAD_MLEADERSTYLE
350
53B
  3
ACAD_MLINESTYLE
350
534
  3
ACAD_PLOTSETTINGS
350
536
  3
ACAD_PLOTSTYLENAME
350
4E4
  3
ACAD_SCALELIST
350
518
  3
ACAD_SECTIONVIEWSTYLE
350
53D
  3
ACAD_TABLESTYLE
350
539
  3
ACAD_VISUALSTYLE
350
4FF
  3
ACDB_RECOMPOSE_DATA
350
576
  3
AcDbVariableDictionary
350
569
  3
DWGPROPS
350
577
  0
DICTIONARY
  5
55F
330
52A
100
AcDbDictionary
280
     1
281
     1
  3
ADSK_XREC_LAYER_RECONCILED
360
560
  0
DICTIONARY
  5
561
330
549
100
AcDbDictionary
280
     1
281
     1
  3
ADSK_XREC_LAYER_RECONCILED
360
562
  0
DICTIONARY
  5
563
330
555
100
AcDbDictionary
280
     1
281
     1
  3
ADSK_XREC_LAYER_RECONCILED
360
564
  0
DICTIONARY
  5
565
330
556
100
AcDbDictionary
280
     1
281
     1
  3
ADSK_XREC_LAYER_RECONCILED
360
566
  0
DICTIONARY
  5
567
330
557
100
AcDbDictionary
280
     1
281
     1
  3
ADSK_XREC_LAYER_RECONCILED
360
568
  0
XRECORD
  5
55E
102
{ACAD_REACTORS
330
4E2
102
}
330
4E2
100
AcDbXrecord
280
     1
300
ACDLT
300
2017
300
ACDLT_F_S
  0
DICTIONARY
  5
538
102
{ACAD_REACTORS
330
4E2
102
}
330
4E2
100
AcDbDictionary
281
     1
  0
DICTIONARY
  5
53F
102
{ACAD_REACTORS
330
4E2
102
}
330
4E2
100
AcDbDictionary
281
     1
  3
Imperial24
350
540
  0
DICTIONARY
  5
4E3
102
{ACAD_REACTORS
330
4E2
102
}
330
4E2
100
AcDbDictionary
281
     1
  0
DICTIONARY
  5
537
102
{ACAD_REACTORS
330
4E2
102
}
330
4E2
100
AcDbDictionary
281
     1
  3
Model
350
548
  3
レイアウト1
350
544
  0
DICTIONARY
  5
4E6
102
{ACAD_REACTORS
330
4E2
102
}
330
4E2
100
AcDbDictionary
281
     1
  3
ByBlock
350
4EF
  3
ByLayer
350
4E7
  3
Global
350
4F7
  0
DICTIONARY
  5
53B
102
{ACAD_REACTORS
330
4E2
102
}
330
4E2
100
AcDbDictionary
281
     1
  3
Standard
350
53C
  0
DICTIONARY
  5
534
102
{ACAD_REACTORS
330
4E2
102
}
330
4E2
100
AcDbDictionary
281
     1
  3
Standard
350
535
  0
DICTIONARY
  5
536
102
{ACAD_REACTORS
330
4E2
102
}
330
4E2
100
AcDbDictionary
281
     1
  0
ACDBDICTIONARYWDFLT
  5
4E4
102
{ACAD_REACTORS
330
4E2
102
}
330
4E2
100
AcDbDictionary
281
     1
  3
Normal
350
4E5
100
AcDbDictionaryWithDefault
340
4E5
  0
DICTIONARY
  5
518
102
{ACAD_REACTORS
330
4E2
102
}
330
4E2
100
AcDbDictionary
281
     1
  3
A0
350
519
  3
A1
350
51A
  3
A2
350
51B
  3
A3
350
51C
  3
A4
350
51D
  3
A5
350
51E
  3
A6
350
51F
  3
A7
350
520
  3
A8
350
521
  3
A9
350
522
  3
B0
350
523
  3
B1
350
524
  3
B2
350
525
  3
B3
350
526
  3
B4
350
527
  3
B5
350
528
  3
B6
350
529
  0
DICTIONARY
  5
53D
102
{ACAD_REACTORS
330
4E2
102
}
330
4E2
100
AcDbDictionary
281
     1
  3
Imperial24
350
53E
  0
DICTIONARY
  5
539
102
{ACAD_REACTORS
330
4E2
102
}
330
4E2
100
AcDbDictionary
281
     1
  3
Standard
350
53A
  0
DICTIONARY
  5
4FF
102
{ACAD_REACTORS
330
4E2
102
}
330
4E2
100
AcDbDictionary
281
     1
  3
2dWireframe
350
505
  3
Basic
350
504
  3
Brighten
350
50B
  3
ColorChange
350
50F
  3
Conceptual
350
508
  3
Dim
350
50A
  3
EdgeColorOff
350
517
  3
Facepattern
350
50E
  3
Flat
350
500
  3
FlatWithEdges
350
501
  3
Gouraud
350
502
  3
GouraudWithEdges
350
503
  3
Hidden
350
507
  3
JitterOff
350
515
  3
Linepattern
350
50D
  3
OverhangOff
350
516
  3
Realistic
350
509
  3
Shaded
350
514
  3
Shaded with edges
350
513
  3
Shades of Gray
350
510
  3
Sketchy
350
511
  3
Thicken
350
50C
  3
Wireframe
350
506
  3
X-Ray
350
512
  0
XRECORD
  5
576
102
{ACAD_REACTORS
330
4E2
102
}
330
4E2
100
AcDbXrecord
280
     1
 90
        1
330
53A
  0
DICTIONARY
  5
569
102
{ACAD_REACTORS
330
4E2
102
}
330
4E2
100
AcDbDictionary
281
     1
  3
CANNOSCALE
350
56E
  3
CMLEADERSTYLE
350
56B
  3
CTABLESTYLE
350
56A
  3
CVIEWDETAILSTYLE
350
56C
  3
CVIEWSECTIONSTYLE
350
56D
  3
DIMASSOC
350
571
  3
INDEXCTL
350
570
  3
SORTENTS
350
56F
  3
XCLIPFRAME
350
572
  0
XRECORD
  5
577
102
{ACAD_REACTORS
330
4E2
102
}
330
4E2
100
AcDbXrecord
280
     1
  1
DWGPROPS COOKIE
  2

  3

  4

  6

  7

  8
sasaki_n
  9

300
=
301
=
302
=
303
=
304
=
305
=
306
=
307
=
308
=
309
=
 40
0.0003703703703704
 41
2457847.804131945
 42
2457847.805833333
  1

 90
        0
  0
XRECORD
  5
560
102
{ACAD_REACTORS
330
55F
102
}
330
55F
100
AcDbXrecord
280
     1
290
     1
  0
XRECORD
  5
562
102
{ACAD_REACTORS
330
561
102
}
330
561
100
AcDbXrecord
280
     1
290
     1
  0
XRECORD
  5
564
102
{ACAD_REACTORS
330
563
102
}
330
563
100
AcDbXrecord
280
     1
290
     1
  0
XRECORD
  5
566
102
{ACAD_REACTORS
330
565
102
}
330
565
100
AcDbXrecord
280
     1
290
     1
  0
XRECORD
  5
568
102
{ACAD_REACTORS
330
567
102
}
330
567
100
AcDbXrecord
280
     1
290
     1
  0
ACDBDETAILVIEWSTYLE
  5
540
102
{ACAD_XDICTIONARY
360
5AF
102
}
102
{ACAD_REACTORS
330
53F
102
}
330
53F
100
AcDbModelDocViewStyle
 70
     0
  3
Imperial24
290
     0
100
AcDbDetailViewStyle
 70
     0
 71
     0
 90
        3
 71
     1
340
52B
 40
0.24
340
0
 40
0.24
300

 40
0.36
280
     3
 71
     2
340
532
 90
       25
 71
     3
340
52B
 40
0.24
 90
        1
 40
0.75
 90
        1
300
%<\AcVar ViewType \f "%tc1">% %<\AcVar ViewDetailId>%\PSCALE %<\AcVar ViewScale \f "%sn">%
 71
     4
340
532
 90
       25
340
532
 90
       25
280
     0
  0
LAYOUT
  5
548
102
{ACAD_XDICTIONARY
360
5B3
102
}
102
{ACAD_REACTORS
330
537
102
}
330
537
100
AcDbPlotSettings
  1

  2
DocuPrint 3000-2
  4

  6

 40
0.0
 41
0.0
 42
0.0
 43
0.0
 44
0.0
 45
0.0
 46
0.0
 47
0.0
 48
0.0
 49
0.0
140
0.0
141
0.0
142
1.0
143
1.0
 70
  1712
 72
     0
 73
     0
 74
     0
  7

 75
     0
147
1.0
148
0.0
149
0.0
100
AcDbLayout
  1
Model
 70
     1
 71
     0
 10
0.0
 20
0.0
 11
12.0
 21
9.0
 12
0.0
 22
0.0
 32
0.0
 14
0.0
 24
0.0
 34
0.0
 15
0.0
 25
0.0
 35
0.0
146
0.0
 13
0.0
 23
0.0
 33
0.0
 16
1.0
 26
0.0
 36
0.0
 17
0.0
 27
1.0
 37
0.0
 76
     0
330
545
331
54A
  0
LAYOUT
  5
544
102
{ACAD_XDICTIONARY
360
5B1
102
}
102
{ACAD_REACTORS
330
537
102
}
330
537
100
AcDbPlotSettings
  1

  2
DocuPrint 3000-2
  4

  6

 40
0.0
 41
0.0
 42
0.0
 43
0.0
 44
0.0
 45
0.0
 46
0.0
 47
0.0
 48
0.0
 49
0.0
140
0.0
141
0.0
142
1.0
143
1.0
 70
   688
 72
     0
 73
     0
 74
     5
  7

 75
    16
147
1.0
148
0.0
149
0.0
100
AcDbLayout
  1
レイアウト1
 70
     0
 71
     1
 10
0.0
 20
0.0
 11
12.0
 21
9.0
 12
0.0
 22
0.0
 32
0.0
 14
1.000000000000000E+20
 24
1.000000000000000E+20
 34
1.000000000000000E+20
 15
-1.000000000000000E+20
 25
-1.000000000000000E+20
 35
-1.000000000000000E+20
146
0.0
 13
0.0
 23
0.0
 33
0.0
 16
1.0
 26
0.0
 36
0.0
 17
0.0
 27
1.0
 37
0.0
 76
     0
330
541
  0
MATERIAL
  5
4EF
102
{ACAD_XDICTIONARY
360
4F0
102
}
102
{ACAD_REACTORS
330
4E6
102
}
330
4E6
100
AcDbMaterial
  1
ByBlock
 72
     0
 43
0.0208333333333333
 43
0.0
 43
0.0
 43
0.0
 43
0.0
 43
0.0208333333333333
 43
0.0
 43
0.0
 43
0.0
 43
0.0
 43
1.0
 43
0.0
 43
0.0
 43
0.0
 43
0.0
 43
1.0
 77
     0
 47
0.0208333333333333
 47
0.0
 47
0.0
 47
0.0
 47
0.0
 47
0.0208333333333333
 47
0.0
 47
0.0
 47
0.0
 47
0.0
 47
1.0
 47
0.0
 47
0.0
 47
0.0
 47
0.0
 47
1.0
171
     0
 49
0.0208333333333333
 49
0.0
 49
0.0
 49
0.0
 49
0.0
 49
0.0208333333333333
 49
0.0
 49
0.0
 49
0.0
 49
0.0
 49
1.0
 49
0.0
 49
0.0
 49
0.0
 49
0.0
 49
1.0
175
     0
142
0.0208333333333333
142
0.0
142
0.0
142
0.0
142
0.0
142
0.0208333333333333
142
0.0
142
0.0
142
0.0
142
0.0
142
1.0
142
0.0
142
0.0
142
0.0
142
0.0
142
1.0
179
     0
144
0.0208333333333333
144
0.0
144
0.0
144
0.0
144
0.0
144
0.0208333333333333
144
0.0
144
0.0
144
0.0
144
0.0
144
1.0
144
0.0
144
0.0
144
0.0
144
0.0
144
1.0
147
0.0208333333333333
147
0.0
147
0.0
147
0.0
147
0.0
147
0.0208333333333333
147
0.0
147
0.0
147
0.0
147
0.0
147
1.0
147
0.0
147
0.0
147
0.0
147
0.0
147
1.0
  0
MATERIAL
  5
4E7
102
{ACAD_XDICTIONARY
360
4E8
102
}
102
{ACAD_REACTORS
330
4E6
102
}
330
4E6
100
AcDbMaterial
  1
ByLayer
 72
     0
 43
0.0208333333333333
 43
0.0
 43
0.0
 43
0.0
 43
0.0
 43
0.0208333333333333
 43
0.0
 43
0.0
 43
0.0
 43
0.0
 43
1.0
 43
0.0
 43
0.0
 43
0.0
 43
0.0
 43
1.0
 77
     0
 47
0.0208333333333333
 47
0.0
 47
0.0
 47
0.0
 47
0.0
 47
0.0208333333333333
 47
0.0
 47
0.0
 47
0.0
 47
0.0
 47
1.0
 47
0.0
 47
0.0
 47
0.0
 47
0.0
 47
1.0
171
     0
 49
0.0208333333333333
 49
0.0
 49
0.0
 49
0.0
 49
0.0
 49
0.0208333333333333
 49
0.0
 49
0.0
 49
0.0
 49
0.0
 49
1.0
 49
0.0
 49
0.0
 49
0.0
 49
0.0
 49
1.0
175
     0
142
0.0208333333333333
142
0.0
142
0.0
142
0.0
142
0.0
142
0.0208333333333333
142
0.0
142
0.0
142
0.0
142
0.0
142
1.0
142
0.0
142
0.0
142
0.0
142
0.0
142
1.0
179
     0
144
0.0208333333333333
144
0.0
144
0.0
144
0.0
144
0.0
144
0.0208333333333333
144
0.0
144
0.0
144
0.0
144
0.0
144
1.0
144
0.0
144
0.0
144
0.0
144
0.0
144
1.0
147
0.0208333333333333
147
0.0
147
0.0
147
0.0
147
0.0
147
0.0208333333333333
147
0.0
147
0.0
147
0.0
147
0.0
147
1.0
147
0.0
147
0.0
147
0.0
147
0.0
147
1.0
  0
MATERIAL
  5
4F7
102
{ACAD_XDICTIONARY
360
4F8
102
}
102
{ACAD_REACTORS
330
4E6
102
}
330
4E6
100
AcDbMaterial
  1
Global
 72
     0
 43
0.0208333333333333
 43
0.0
 43
0.0
 43
0.0
 43
0.0
 43
0.0208333333333333
 43
0.0
 43
0.0
 43
0.0
 43
0.0
 43
1.0
 43
0.0
 43
0.0
 43
0.0
 43
0.0
 43
1.0
 77
     0
 47
0.0208333333333333
 47
0.0
 47
0.0
 47
0.0
 47
0.0
 47
0.0208333333333333
 47
0.0
 47
0.0
 47
0.0
 47
0.0
 47
1.0
 47
0.0
 47
0.0
 47
0.0
 47
0.0
 47
1.0
171
     0
 49
0.0208333333333333
 49
0.0
 49
0.0
 49
0.0
 49
0.0
 49
0.0208333333333333
 49
0.0
 49
0.0
 49
0.0
 49
0.0
 49
1.0
 49
0.0
 49
0.0
 49
0.0
 49
0.0
 49
1.0
175
     0
142
0.0208333333333333
142
0.0
142
0.0
142
0.0
142
0.0
142
0.0208333333333333
142
0.0
142
0.0
142
0.0
142
0.0
142
1.0
142
0.0
142
0.0
142
0.0
142
0.0
142
1.0
179
     0
144
0.0208333333333333
144
0.0
144
0.0
144
0.0
144
0.0
144
0.0208333333333333
144
0.0
144
0.0
144
0.0
144
0.0
144
1.0
144
0.0
144
0.0
144
0.0
144
0.0
144
1.0
147
0.0208333333333333
147
0.0
147
0.0
147
0.0
147
0.0
147
0.0208333333333333
147
0.0
147
0.0
147
0.0
147
0.0
147
1.0
147
0.0
147
0.0
147
0.0
147
0.0
147
1.0
  0
MLEADERSTYLE
  5
53C
102
{ACAD_REACTORS
330
53B
102
}
330
53B
100
AcDbMLeaderStyle
170
     2
171
     1
172
     0
 90
        2
 40
0.0
 41
0.0
173
     1
 91
-1056964608
340
530
 92
       -2
290
     1
 42
0.09
291
     1
 43
0.36
  3
Standard
 44
0.18
300

342
52B
174
     1
178
     6
175
     1
176
     0
 93
-1056964608
 45
0.18
292
     0
297
     0
 46
0.18
 94
-1056964608
 47
1.0
 49
1.0
140
1.0
293
     1
141
0.0
294
     1
177
     0
142
1.0
295
     0
296
     0
143
0.125
1001
ACAD_MLEADERVER
1070
     2
  0
MLINESTYLE
  5
535
102
{ACAD_REACTORS
330
534
102
}
330
534
100
AcDbMlineStyle
  2
STANDARD
 70
     0
  3

 62
   256
 51
90.0
 52
90.0
 71
     2
 49
0.5
 62
   256
  6
BYLAYER
 49
-0.5
 62
   256
  6
BYLAYER
  0
ACDBPLACEHOLDER
  5
4E5
102
{ACAD_REACTORS
330
4E4
102
}
330
4E4
  0
SCALE
  5
519
102
{ACAD_REACTORS
330
518
102
}
330
518
100
AcDbScale
 70
     0
300
1:1
140
1.0
141
1.0
290
     1
  0
SCALE
  5
51A
102
{ACAD_REACTORS
330
518
102
}
330
518
100
AcDbScale
 70
     0
300
1/128" = 1'-0"
140
0.0078125
141
12.0
290
     0
  0
SCALE
  5
51B
102
{ACAD_REACTORS
330
518
102
}
330
518
100
AcDbScale
 70
     0
300
1/64" = 1'-0"
140
0.015625
141
12.0
290
     0
  0
SCALE
  5
51C
102
{ACAD_REACTORS
330
518
102
}
330
518
100
AcDbScale
 70
     0
300
1/32" = 1'-0"
140
0.03125
141
12.0
290
     0
  0
SCALE
  5
51D
102
{ACAD_REACTORS
330
518
102
}
330
518
100
AcDbScale
 70
     0
300
1/16" = 1'-0"
140
0.0625
141
12.0
290
     0
  0
SCALE
  5
51E
102
{ACAD_REACTORS
330
518
102
}
330
518
100
AcDbScale
 70
     0
300
3/32" = 1'-0"
140
0.09375
141
12.0
290
     0
  0
SCALE
  5
51F
102
{ACAD_REACTORS
330
518
102
}
330
518
100
AcDbScale
 70
     0
300
1/8" = 1'-0"
140
0.125
141
12.0
290
     0
  0
SCALE
  5
520
102
{ACAD_REACTORS
330
518
102
}
330
518
100
AcDbScale
 70
     0
300
3/16" = 1'-0"
140
0.1875
141
12.0
290
     0
  0
SCALE
  5
521
102
{ACAD_REACTORS
330
518
102
}
330
518
100
AcDbScale
 70
     0
300
1/4" = 1'-0"
140
0.25
141
12.0
290
     0
  0
SCALE
  5
522
102
{ACAD_REACTORS
330
518
102
}
330
518
100
AcDbScale
 70
     0
300
3/8" = 1'-0"
140
0.375
141
12.0
290
     0
  0
SCALE
  5
523
102
{ACAD_REACTORS
330
518
102
}
330
518
100
AcDbScale
 70
     0
300
1/2" = 1'-0"
140
0.5
141
12.0
290
     0
  0
SCALE
  5
524
102
{ACAD_REACTORS
330
518
102
}
330
518
100
AcDbScale
 70
     0
300
3/4" = 1'-0"
140
0.75
141
12.0
290
     0
  0
SCALE
  5
525
102
{ACAD_REACTORS
330
518
102
}
330
518
100
AcDbScale
 70
     0
300
1" = 1'-0"
140
1.0
141
12.0
290
     0
  0
SCALE
  5
526
102
{ACAD_REACTORS
330
518
102
}
330
518
100
AcDbScale
 70
     0
300
1-1/2" = 1'-0"
140
1.5
141
12.0
290
     0
  0
SCALE
  5
527
102
{ACAD_REACTORS
330
518
102
}
330
518
100
AcDbScale
 70
     0
300
3" = 1'-0"
140
3.0
141
12.0
290
     0
  0
SCALE
  5
528
102
{ACAD_REACTORS
330
518
102
}
330
518
100
AcDbScale
 70
     0
300
6" = 1'-0"
140
6.0
141
12.0
290
     0
  0
SCALE
  5
529
102
{ACAD_REACTORS
330
518
102
}
330
518
100
AcDbScale
 70
     0
300
1'-0" = 1'-0"
140
12.0
141
12.0
290
     0
  0
ACDBSECTIONVIEWSTYLE
  5
53E
102
{ACAD_XDICTIONARY
360
5AD
102
}
102
{ACAD_REACTORS
330
53D
102
}
330
53D
100
AcDbModelDocViewStyle
 70
     0
  3
Imperial24
290
     0
100
AcDbSectionViewStyle
 70
     0
 71
     0
 90
       78
 71
     1
340
52B
 40
0.24
340
0
340
0
 40
0.24
300
I, O, Q, S, X, Z
 40
0.48
 90
        3
 40
0.18
 90
        1
 71
     2
340
532
 90
       25
340
532
 90
       50
 40
0.24
 40
0.0
 40
0.24
 71
     3
340
52B
 40
0.24
 90
        1
 40
0.75
 90
        1
300
%<\AcVar ViewType \f "%tc1">% %<\AcVar ViewSectionStartId>%-%<\AcVar ViewSectionEndId>%\PSCALE %<\AcVar ViewScale \f "%sn">%
 71
     4
300
ANSI31
 40
1.0
 90
        0
290
     0
290
     0
 90
        6
 40
0.0
 40
1.570796326794896
 40
0.2617993877991494
 40
1.308996938995747
 40
-0.2617993877991494
 40
1.832595714594046
  0
TABLESTYLE
  5
53A
102
{ACAD_XDICTIONARY
360
574
102
}
102
{ACAD_REACTORS
330
539
102
}
330
539
100
AcDbTableStyle
  3
Standard
 70
     0
 71
     0
 40
0.06
 41
0.06
280
     0
281
     0
  7
STANDARD
140
0.18
170
     2
 62
     0
 63
     7
283
     0
274
    -2
284
     1
 64
     0
275
    -2
285
     1
 65
     0
276
    -2
286
     1
 66
     0
277
    -2
287
     1
 67
     0
278
    -2
288
     1
 68
     0
279
    -2
289
     1
 69
     0
  7
STANDARD
140
0.25
170
     5
 62
     0
 63
     7
283
     0
274
    -2
284
     1
 64
     0
275
    -2
285
     1
 65
     0
276
    -2
286
     1
 66
     0
277
    -2
287
     1
 67
     0
278
    -2
288
     1
 68
     0
279
    -2
289
     1
 69
     0
  7
STANDARD
140
0.18
170
     5
 62
     0
 63
     7
283
     0
274
    -2
284
     1
 64
     0
275
    -2
285
     1
 65
     0
276
    -2
286
     1
 66
     0
277
    -2
287
     1
 67
     0
278
    -2
288
     1
 68
     0
279
    -2
289
     1
 69
     0
  0
VISUALSTYLE
  5
505
102
{ACAD_XDICTIONARY
360
585
102
}
102
{ACAD_REACTORS
330
4FF
102
}
330
4FF
100
AcDbVisualStyle
  2
2dWireframe
 70
     4
 71
     0
 72
     2
 73
     0
 90
        0
 40
-0.6
 41
-30.0
 62
     5
 63
     7
 74
     1
 91
        4
 64
     7
 65
   257
 75
     1
175
     1
 42
1.0
 92
        0
 66
   257
 43
1.0
 76
     1
 77
     6
 78
     2
 67
     7
 79
     5
170
     0
171
     0
290
     0
174
     0
 93
        1
 44
0.0
173
     0
291
     0
 45
0.0
1001
ACAD
1000
AcDbSavedByObjectVersion
1070
     0
  0
VISUALSTYLE
  5
504
102
{ACAD_XDICTIONARY
360
583
102
}
102
{ACAD_REACTORS
330
4FF
102
}
330
4FF
100
AcDbVisualStyle
  2
Basic
 70
     7
 71
     1
 72
     0
 73
     1
 90
        0
 40
-0.6
 41
-30.0
 62
     5
 63
     7
 74
     0
 91
        4
 64
     7
 65
   257
 75
     1
175
     1
 42
1.0
 92
        8
 66
     7
 43
1.0
 76
     1
 77
     6
 78
     2
 67
     7
 79
     5
170
     0
171
     0
290
     0
174
     0
 93
        1
 44
0.0
173
     0
291
     1
 45
0.0
1001
ACAD
1000
AcDbSavedByObjectVersion
1070
     0
  0
VISUALSTYLE
  5
50B
102
{ACAD_XDICTIONARY
360
591
102
}
102
{ACAD_REACTORS
330
4FF
102
}
330
4FF
100
AcDbVisualStyle
  2
Brighten
 70
    12
 71
     2
 72
     2
 73
     0
 90
        0
 40
-0.6
 41
-30.0
 62
     5
 63
     7
 74
     1
 91
        4
 64
     7
 65
   257
 75
     1
175
     1
 42
1.0
 92
        8
 66
     7
 43
1.0
 76
     1
 77
     6
 78
     2
 67
     7
 79
     5
170
     0
171
     0
290
     0
174
     0
 93
        1
 44
50.0
173
     0
291
     1
 45
0.0
1001
ACAD
1000
AcDbSavedByObjectVersion
1070
     0
  0
VISUALSTYLE
  5
50F
102
{ACAD_XDICTIONARY
360
599
102
}
102
{ACAD_REACTORS
330
4FF
102
}
330
4FF
100
AcDbVisualStyle
  2
ColorChange
 70
    16
 71
     2
 72
     2
 73
     3
 90
        0
 40
-0.6
 41
-30.0
 62
     5
 63
     8
 74
     1
 91
        4
 64
     7
 65
   257
 75
     1
175
     1
 42
1.0
 92
        8
 66
     8
 43
1.0
 76
     1
 77
     6
 78
     2
 67
     7
 79
     5
170
     0
171
     0
290
     0
174
     0
 93
        1
 44
0.0
173
     0
291
     1
 45
0.0
1001
ACAD
1000
AcDbSavedByObjectVersion
1070
     0
  0
VISUALSTYLE
  5
508
102
{ACAD_XDICTIONARY
360
58B
102
}
102
{ACAD_REACTORS
330
4FF
102
}
330
4FF
100
AcDbVisualStyle
  2
Conceptual
 70
     9
 71
     3
 72
     2
 73
     0
 90
        0
 40
-0.6
 41
-30.0
 62
     5
 63
     7
 74
     2
 91
        2
 64
     7
 65
   257
 75
     1
175
     1
 42
179.0
 92
        8
 66
     7
 43
1.0
 76
     1
 77
     6
 78
     2
 67
     7
 79
     3
170
     0
171
     0
290
     0
174
     0
 93
        1
 44
0.0
173
     0
291
     0
 45
0.0
1001
ACAD
1000
AcDbSavedByObjectVersion
1070
     0
  0
VISUALSTYLE
  5
50A
102
{ACAD_XDICTIONARY
360
58F
102
}
102
{ACAD_REACTORS
330
4FF
102
}
330
4FF
100
AcDbVisualStyle
  2
Dim
 70
    11
 71
     2
 72
     2
 73
     0
 90
        0
 40
-0.6
 41
-30.0
 62
     5
 63
     7
 74
     1
 91
        4
 64
     7
 65
   257
 75
     1
175
     1
 42
1.0
 92
        8
 66
     7
 43
1.0
 76
     1
 77
     6
 78
     2
 67
     7
 79
     5
170
     0
171
     0
290
     0
174
     0
 93
        1
 44
-50.0
173
     0
291
     1
 45
0.0
1001
ACAD
1000
AcDbSavedByObjectVersion
1070
     0
  0
VISUALSTYLE
  5
517
102
{ACAD_XDICTIONARY
360
5A9
102
}
102
{ACAD_REACTORS
330
4FF
102
}
330
4FF
100
AcDbVisualStyle
  2
EdgeColorOff
 70
    22
 71
     2
 72
     2
 73
     0
 90
        0
 40
-0.6
 41
-30.0
 62
     5
 63
     7
 74
     1
 91
        4
 64
     7
 65
   257
 75
     1
175
     1
 42
1.0
 92
        8
 66
     7
 43
1.0
 76
     1
 77
     6
 78
     2
 67
     7
 79
     5
170
     0
171
     0
290
     0
174
     0
 93
        1
 44
0.0
173
     0
291
     1
 45
0.0
1001
ACAD
1000
AcDbSavedByObjectVersion
1070
     0
  0
VISUALSTYLE
  5
50E
102
{ACAD_XDICTIONARY
360
597
102
}
102
{ACAD_REACTORS
330
4FF
102
}
330
4FF
100
AcDbVisualStyle
  2
Facepattern
 70
    15
 71
     2
 72
     2
 73
     0
 90
        0
 40
-0.6
 41
-30.0
 62
     5
 63
     7
 74
     1
 91
        4
 64
     7
 65
   257
 75
     1
175
     1
 42
1.0
 92
        8
 66
     7
 43
1.0
 76
     1
 77
     6
 78
     2
 67
     7
 79
     5
170
     0
171
     0
290
     0
174
     0
 93
        1
 44
0.0
173
     0
291
     1
 45
0.0
1001
ACAD
1000
AcDbSavedByObjectVersion
1070
     0
  0
VISUALSTYLE
  5
500
102
{ACAD_XDICTIONARY
360
57B
102
}
102
{ACAD_REACTORS
330
4FF
102
}
330
4FF
100
AcDbVisualStyle
  2
Flat
 70
     0
 71
     2
 72
     1
 73
     1
 90
        2
 40
-0.6
 41
30.0
 62
     5
 63
     7
 74
     0
 91
        0
 64
     7
 65
   257
 75
     1
175
     1
 42
1.0
 92
        8
 66
     7
 43
1.0
 76
     1
 77
     6
 78
     2
 67
     7
 79
     5
170
     0
171
     0
290
     0
174
     0
 93
       13
 44
0.0
173
     0
291
     1
 45
0.0
1001
ACAD
1000
AcDbSavedByObjectVersion
1070
     0
  0
VISUALSTYLE
  5
501
102
{ACAD_XDICTIONARY
360
57D
102
}
102
{ACAD_REACTORS
330
4FF
102
}
330
4FF
100
AcDbVisualStyle
  2
FlatWithEdges
 70
     1
 71
     2
 72
     1
 73
     1
 90
        2
 40
-0.6
 41
30.0
 62
     5
 63
     7
 74
     1
 91
        0
 64
     7
 65
   257
 75
     1
175
     1
 42
1.0
 92
        0
 66
   257
 43
1.0
 76
     1
 77
     6
 78
     2
 67
     7
 79
     5
170
     0
171
     0
290
     0
174
     0
 93
       13
 44
0.0
173
     0
291
     1
 45
0.0
1001
ACAD
1000
AcDbSavedByObjectVersion
1070
     0
  0
VISUALSTYLE
  5
502
102
{ACAD_XDICTIONARY
360
57F
102
}
102
{ACAD_REACTORS
330
4FF
102
}
330
4FF
100
AcDbVisualStyle
  2
Gouraud
 70
     2
 71
     2
 72
     2
 73
     1
 90
        2
 40
-0.6
 41
30.0
 62
     5
 63
     7
 74
     0
 91
        0
 64
     7
 65
   257
 75
     1
175
     1
 42
1.0
 92
        0
 66
     7
 43
1.0
 76
     1
 77
     6
 78
     2
 67
     7
 79
     5
170
     0
171
     0
290
     0
174
     0
 93
       13
 44
0.0
173
     0
291
     1
 45
0.0
1001
ACAD
1000
AcDbSavedByObjectVersion
1070
     0
  0
VISUALSTYLE
  5
503
102
{ACAD_XDICTIONARY
360
581
102
}
102
{ACAD_REACTORS
330
4FF
102
}
330
4FF
100
AcDbVisualStyle
  2
GouraudWithEdges
 70
     3
 71
     2
 72
     2
 73
     1
 90
        2
 40
-0.6
 41
30.0
 62
     5
 63
     7
 74
     1
 91
        0
 64
     7
 65
   257
 75
     1
175
     1
 42
1.0
 92
        0
 66
   257
 43
1.0
 76
     1
 77
     6
 78
     2
 67
     7
 79
     5
170
     0
171
     0
290
     0
174
     0
 93
       13
 44
0.0
173
     0
291
     1
 45
0.0
1001
ACAD
1000
AcDbSavedByObjectVersion
1070
     0
  0
VISUALSTYLE
  5
507
102
{ACAD_XDICTIONARY
360
589
102
}
102
{ACAD_REACTORS
330
4FF
102
}
330
4FF
100
AcDbVisualStyle
  2
Hidden
 70
     6
 71
     1
 72
     2
 73
     2
 90
        0
 40
-0.6
 41
-30.0
 62
     5
 63
     7
 74
     2
 91
        2
 64
     7
 65
   257
 75
     2
175
     1
 42
40.0
 92
        0
 66
   257
 43
1.0
 76
     1
 77
     6
 78
     2
 67
     7
 79
     3
170
     0
171
     0
290
     0
174
     0
 93
        1
 44
0.0
173
     0
291
     0
 45
0.0
1001
ACAD
1000
AcDbSavedByObjectVersion
1070
     0
  0
VISUALSTYLE
  5
515
102
{ACAD_XDICTIONARY
360
5A5
102
}
102
{ACAD_REACTORS
330
4FF
102
}
330
4FF
100
AcDbVisualStyle
  2
JitterOff
 70
    20
 71
     2
 72
     2
 73
     0
 90
        0
 40
-0.6
 41
-30.0
 62
     5
 63
     7
 74
     1
 91
        4
 64
     7
 65
   257
 75
     1
175
     1
 42
1.0
 92
       10
 66
     7
 43
1.0
 76
     1
 77
     6
 78
     2
 67
     7
 79
     5
170
     0
171
     0
290
     0
174
     0
 93
        1
 44
0.0
173
     0
291
     1
 45
0.0
1001
ACAD
1000
AcDbSavedByObjectVersion
1070
     0
  0
VISUALSTYLE
  5
50D
102
{ACAD_XDICTIONARY
360
595
102
}
102
{ACAD_REACTORS
330
4FF
102
}
330
4FF
100
AcDbVisualStyle
  2
Linepattern
 70
    14
 71
     2
 72
     2
 73
     0
 90
        0
 40
-0.6
 41
-30.0
 62
     5
 63
     7
 74
     1
 91
        4
 64
     7
 65
   257
 75
     7
175
     7
 42
1.0
 92
        8
 66
     7
 43
1.0
 76
     1
 77
     6
 78
     2
 67
     7
 79
     5
170
     0
171
     0
290
     0
174
     0
 93
        1
 44
0.0
173
     0
291
     1
 45
0.0
1001
ACAD
1000
AcDbSavedByObjectVersion
1070
     0
  0
VISUALSTYLE
  5
516
102
{ACAD_XDICTIONARY
360
5A7
102
}
102
{ACAD_REACTORS
330
4FF
102
}
330
4FF
100
AcDbVisualStyle
  2
OverhangOff
 70
    21
 71
     2
 72
     2
 73
     0
 90
        0
 40
-0.6
 41
-30.0
 62
     5
 63
     7
 74
     1
 91
        4
 64
     7
 65
   257
 75
     1
175
     1
 42
1.0
 92
        9
 66
     7
 43
1.0
 76
     1
 77
     6
 78
     2
 67
     7
 79
     5
170
     0
171
     0
290
     0
174
     0
 93
        1
 44
0.0
173
     0
291
     1
 45
0.0
1001
ACAD
1000
AcDbSavedByObjectVersion
1070
     0
  0
VISUALSTYLE
  5
509
102
{ACAD_XDICTIONARY
360
58D
102
}
102
{ACAD_REACTORS
330
4FF
102
}
330
4FF
100
AcDbVisualStyle
  2
Realistic
 70
     8
 71
     2
 72
     3
 73
     0
 90
        2
 40
-0.6
 41
30.0
 62
     5
 63
     7
 74
     0
 91
        0
 64
     7
 65
   257
 75
     1
175
     1
 42
1.0
 92
        8
 66
   257
 43
1.0
 76
     1
 77
     6
 78
     2
 67
     7
 79
     3
170
     0
171
     0
290
     0
174
     0
 93
       13
 44
0.0
173
     0
291
     0
 45
0.0
1001
ACAD
1000
AcDbSavedByObjectVersion
1070
     0
  0
VISUALSTYLE
  5
514
102
{ACAD_XDICTIONARY
360
5A3
102
}
102
{ACAD_REACTORS
330
4FF
102
}
330
4FF
100
AcDbVisualStyle
  2
Shaded
 70
    27
 71
     2
 72
     2
 73
     1
 90
        2
 40
-0.6
 41
30.0
 62
     5
 63
     7
 74
     0
 91
        4
 64
     7
 65
   257
 75
     1
175
     1
 42
1.0
 92
        8
 66
   257
 43
1.0
 76
     1
 77
     6
 78
     2
 67
     8
 79
     3
170
     0
171
     0
290
     0
174
     0
 93
        5
 44
0.0
173
     0
291
     0
 45
0.0
1001
ACAD
1000
AcDbSavedByObjectVersion
1070
     0
  0
VISUALSTYLE
  5
513
102
{ACAD_XDICTIONARY
360
5A1
102
}
102
{ACAD_REACTORS
330
4FF
102
}
330
4FF
100
AcDbVisualStyle
  2
Shaded with edges
 70
    26
 71
     2
 72
     2
 73
     1
 90
        2
 40
-0.6
 41
30.0
 62
     5
 63
     7
 74
     1
 91
        2
 64
     7
 65
   257
 75
     2
175
     1
 42
1.0
 92
        8
 66
   257
 43
1.0
 76
     1
 77
     6
 78
     2
 67
     7
 79
     3
170
     0
171
     0
290
     0
174
     0
 93
        5
 44
0.0
173
     0
291
     0
 45
0.0
1001
ACAD
1000
AcDbSavedByObjectVersion
1070
     0
  0
VISUALSTYLE
  5
510
102
{ACAD_XDICTIONARY
360
59B
102
}
102
{ACAD_REACTORS
330
4FF
102
}
330
4FF
100
AcDbVisualStyle
  2
Shades of Gray
 70
    23
 71
     2
 72
     2
 73
     3
 90
        0
 40
-0.6
 41
-30.0
 62
     5
 63
     7
 74
     2
 91
        2
 64
     7
 65
     7
 75
     1
175
     1
 42
40.0
 92
        8
 66
     7
 43
1.0
 76
     1
 77
     6
 78
     2
 67
     7
 79
     3
170
     0
171
     0
290
     0
174
     0
 93
        1
 44
0.0
173
     0
291
     0
 45
0.0
1001
ACAD
1000
AcDbSavedByObjectVersion
1070
     0
  0
VISUALSTYLE
  5
511
102
{ACAD_XDICTIONARY
360
59D
102
}
102
{ACAD_REACTORS
330
4FF
102
}
330
4FF
100
AcDbVisualStyle
  2
Sketchy
 70
    24
 71
     1
 72
     2
 73
     2
 90
        0
 40
-0.6
 41
-30.0
 62
     5
 63
     7
 74
     2
 91
        2
 64
     7
 65
     7
 75
     1
175
     1
 42
40.0
 92
       11
 66
     7
 43
1.0
 76
     1
 77
     6
 78
     2
 67
     7
 79
     6
170
     0
171
     0
290
     0
174
     0
 93
        1
 44
0.0
173
     0
291
     0
 45
0.0
1001
ACAD
1000
AcDbSavedByObjectVersion
1070
     0
  0
VISUALSTYLE
  5
50C
102
{ACAD_XDICTIONARY
360
593
102
}
102
{ACAD_REACTORS
330
4FF
102
}
330
4FF
100
AcDbVisualStyle
  2
Thicken
 70
    13
 71
     2
 72
     2
 73
     0
 90
        0
 40
-0.6
 41
-30.0
 62
     5
 63
     7
 74
     1
 91
        4
 64
     7
 65
   257
 75
     1
175
     1
 42
1.0
 92
       12
 66
     7
 43
1.0
 76
     1
 77
     6
 78
     2
 67
     7
 79
     5
170
     0
171
     0
290
     0
174
     0
 93
        1
 44
0.0
173
     0
291
     1
 45
0.0
1001
ACAD
1000
AcDbSavedByObjectVersion
1070
     0
  0
VISUALSTYLE
  5
506
102
{ACAD_XDICTIONARY
360
587
102
}
102
{ACAD_REACTORS
330
4FF
102
}
330
4FF
100
AcDbVisualStyle
  2
Wireframe
 70
     5
 71
     0
 72
     2
 73
     0
 90
        0
 40
-0.6
 41
-30.0
 62
     5
 63
     7
 74
     1
 91
        4
 64
     7
 65
   257
 75
     1
175
     1
 42
1.0
 92
        0
 66
   257
 43
1.0
 76
     1
 77
     6
 78
     2
 67
     7
 79
     3
170
     0
171
     0
290
     0
174
     0
 93
        1
 44
0.0
173
     0
291
     0
 45
0.0
1001
ACAD
1000
AcDbSavedByObjectVersion
1070
     0
  0
VISUALSTYLE
  5
512
102
{ACAD_XDICTIONARY
360
59F
102
}
102
{ACAD_REACTORS
330
4FF
102
}
330
4FF
100
AcDbVisualStyle
  2
X-Ray
 70
    25
 71
     2
 72
     2
 73
     1
 90
        1
 40
0.5
 41
-30.0
 62
     5
 63
     7
 74
     1
 91
        0
 64
     7
 65
   257
 75
     1
175
     1
 42
1.0
 92
        8
 66
     7
 43
1.0
 76
     1
 77
     6
 78
     2
 67
     7
 79
     3
170
     0
171
     0
290
     0
174
     0
 93
       13
 44
0.0
173
     0
291
     0
 45
0.0
1001
ACAD
1000
AcDbSavedByObjectVersion
1070
     0
  0
DICTIONARYVAR
  5
56E
102
{ACAD_REACTORS
330
569
102
}
330
569
100
DictionaryVariables
280
     0
  1
1:1
  0
DICTIONARYVAR
  5
56B
102
{ACAD_REACTORS
330
569
102
}
330
569
100
DictionaryVariables
280
     0
  1
STANDARD
  0
DICTIONARYVAR
  5
56A
102
{ACAD_REACTORS
330
569
102
}
330
569
100
DictionaryVariables
280
     0
  1
STANDARD
  0
DICTIONARYVAR
  5
56C
102
{ACAD_REACTORS
330
569
102
}
330
569
100
DictionaryVariables
280
     0
  1
Imperial24
  0
DICTIONARYVAR
  5
56D
102
{ACAD_REACTORS
330
569
102
}
330
569
100
DictionaryVariables
280
     0
  1
Imperial24
  0
DICTIONARYVAR
  5
571
102
{ACAD_REACTORS
330
569
102
}
330
569
100
DictionaryVariables
280
     0
  1
1
  0
DICTIONARYVAR
  5
570
102
{ACAD_REACTORS
330
569
102
}
330
569
100
DictionaryVariables
280
     0
  1
0
  0
DICTIONARYVAR
  5
56F
102
{ACAD_REACTORS
330
569
102
}
330
569
100
DictionaryVariables
280
     0
  1
127
  0
DICTIONARYVAR
  5
572
102
{ACAD_REACTORS
330
569
102
}
330
569
100
DictionaryVariables
280
     0
  1
2
  0
DICTIONARY
  5
5AF
330
540
100
AcDbDictionary
280
     1
281
     1
  3
ACAD_XREC_ROUNDTRIP
360
5B0
  0
DICTIONARY
  5
5B3
330
548
100
AcDbDictionary
280
     1
281
     1
  3
ACAD_XREC_ROUNDTRIP
360
5B4
  0
DICTIONARY
  5
5B1
330
544
100
AcDbDictionary
280
     1
281
     1
  3
ACAD_XREC_ROUNDTRIP
360
5B2
  0
DICTIONARY
  5
4F0
330
4EF
100
AcDbDictionary
280
     1
281
     1
  3
ACAD_XREC_ROUNDTRIP
360
579
  3
BUMPTILE
360
4F2
  3
DIFFUSETILE
360
4F1
  3
OPACITYTILE
360
4F5
  3
REFLECTIONTILE
360
4F4
  3
REFRACTIONTILE
360
4F6
  3
SPECULARTILE
360
4F3
  0
DICTIONARY
  5
4E8
330
4E7
100
AcDbDictionary
280
     1
281
     1
  3
ACAD_XREC_ROUNDTRIP
360
578
  3
BUMPTILE
360
4EA
  3
DIFFUSETILE
360
4E9
  3
OPACITYTILE
360
4ED
  3
REFLECTIONTILE
360
4EC
  3
REFRACTIONTILE
360
4EE
  3
SPECULARTILE
360
4EB
  0
DICTIONARY
  5
4F8
330
4F7
100
AcDbDictionary
280
     1
281
     1
  3
ACAD_XREC_ROUNDTRIP
360
57A
  3
BUMPTILE
360
4FA
  3
DIFFUSETILE
360
4F9
  3
OPACITYTILE
360
4FD
  3
REFLECTIONTILE
360
4FC
  3
REFRACTIONTILE
360
4FE
  3
SPECULARTILE
360
4FB
  0
DICTIONARY
  5
5AD
330
53E
100
AcDbDictionary
280
     1
281
     1
  3
ACAD_XREC_ROUNDTRIP
360
5AE
  0
DICTIONARY
  5
574
330
53A
100
AcDbDictionary
280
     1
281
     1
  3
ACAD_ROUNDTRIP_2008_TABLESTYLE_CELLSTYLEMAP
360
575
  3
ACAD_XREC_ROUNDTRIP
360
5AB
  0
DICTIONARY
  5
585
330
505
100
AcDbDictionary
280
     1
281
     1
  3
ACAD_XREC_ROUNDTRIP
360
586
  0
DICTIONARY
  5
583
330
504
100
AcDbDictionary
280
     1
281
     1
  3
ACAD_XREC_ROUNDTRIP
360
584
  0
DICTIONARY
  5
591
330
50B
100
AcDbDictionary
280
     1
281
     1
  3
ACAD_XREC_ROUNDTRIP
360
592
  0
DICTIONARY
  5
599
330
50F
100
AcDbDictionary
280
     1
281
     1
  3
ACAD_XREC_ROUNDTRIP
360
59A
  0
DICTIONARY
  5
58B
330
508
100
AcDbDictionary
280
     1
281
     1
  3
ACAD_XREC_ROUNDTRIP
360
58C
  0
DICTIONARY
  5
58F
330
50A
100
AcDbDictionary
280
     1
281
     1
  3
ACAD_XREC_ROUNDTRIP
360
590
  0
DICTIONARY
  5
5A9
330
517
100
AcDbDictionary
280
     1
281
     1
  3
ACAD_XREC_ROUNDTRIP
360
5AA
  0
DICTIONARY
  5
597
330
50E
100
AcDbDictionary
280
     1
281
     1
  3
ACAD_XREC_ROUNDTRIP
360
598
  0
DICTIONARY
  5
57B
330
500
100
AcDbDictionary
280
     1
281
     1
  3
ACAD_XREC_ROUNDTRIP
360
57C
  0
DICTIONARY
  5
57D
330
501
100
AcDbDictionary
280
     1
281
     1
  3
ACAD_XREC_ROUNDTRIP
360
57E
  0
DICTIONARY
  5
57F
330
502
100
AcDbDictionary
280
     1
281
     1
  3
ACAD_XREC_ROUNDTRIP
360
580
  0
DICTIONARY
  5
581
330
503
100
AcDbDictionary
280
     1
281
     1
  3
ACAD_XREC_ROUNDTRIP
360
582
  0
DICTIONARY
  5
589
330
507
100
AcDbDictionary
280
     1
281
     1
  3
ACAD_XREC_ROUNDTRIP
360
58A
  0
DICTIONARY
  5
5A5
330
515
100
AcDbDictionary
280
     1
281
     1
  3
ACAD_XREC_ROUNDTRIP
360
5A6
  0
DICTIONARY
  5
595
330
50D
100
AcDbDictionary
280
     1
281
     1
  3
ACAD_XREC_ROUNDTRIP
360
596
  0
DICTIONARY
  5
5A7
330
516
100
AcDbDictionary
280
     1
281
     1
  3
ACAD_XREC_ROUNDTRIP
360
5A8
  0
DICTIONARY
  5
58D
330
509
100
AcDbDictionary
280
     1
281
     1
  3
ACAD_XREC_ROUNDTRIP
360
58E
  0
DICTIONARY
  5
5A3
330
514
100
AcDbDictionary
280
     1
281
     1
  3
ACAD_XREC_ROUNDTRIP
360
5A4
  0
DICTIONARY
  5
5A1
330
513
100
AcDbDictionary
280
     1
281
     1
  3
ACAD_XREC_ROUNDTRIP
360
5A2
  0
DICTIONARY
  5
59B
330
510
100
AcDbDictionary
280
     1
281
     1
  3
ACAD_XREC_ROUNDTRIP
360
59C
  0
DICTIONARY
  5
59D
330
511
100
AcDbDictionary
280
     1
281
     1
  3
ACAD_XREC_ROUNDTRIP
360
59E
  0
DICTIONARY
  5
593
330
50C
100
AcDbDictionary
280
     1
281
     1
  3
ACAD_XREC_ROUNDTRIP
360
594
  0
DICTIONARY
  5
587
330
506
100
AcDbDictionary
280
     1
281
     1
  3
ACAD_XREC_ROUNDTRIP
360
588
  0
DICTIONARY
  5
59F
330
512
100
AcDbDictionary
280
     1
281
     1
  3
ACAD_XREC_ROUNDTRIP
360
5A0
  0
XRECORD
  5
5B0
102
{ACAD_REACTORS
330
5AF
102
}
330
5AF
100
AcDbXrecord
280
     1
102
DISPLAYNAME
  1
Imperial24
102
FLAGS
 90
        0
  0
XRECORD
  5
5B4
102
{ACAD_REACTORS
330
5B3
102
}
330
5B3
100
AcDbXrecord
280
     1
102
SHADEPLOT
 70
     0
102
SHADEPLOTRESLEVEL
 70
     2
102
SHADEPLOTCUSTOMDPI
 70
   300
  0
XRECORD
  5
5B2
102
{ACAD_REACTORS
330
5B1
102
}
330
5B1
100
AcDbXrecord
280
     1
102
SHADEPLOT
 70
     0
102
SHADEPLOTRESLEVEL
 70
     2
102
SHADEPLOTCUSTOMDPI
 70
   300
  0
XRECORD
  5
579
102
{ACAD_REACTORS
330
4F0
102
}
330
4F0
100
AcDbXrecord
280
     1
102
MATERIAL
148
0.0
149
0.0
149
0.0
 93
        0
 94
      127
282
     0
 72
     0
 77
     0
171
     0
175
     0
179
     0
273
     0
  0
XRECORD
  5
4F2
102
{ACAD_REACTORS
330
4F0
102
}
330
4F0
100
AcDbXrecord
280
     1
270
     1
271
     1
  0
XRECORD
  5
4F1
102
{ACAD_REACTORS
330
4F0
102
}
330
4F0
100
AcDbXrecord
280
     1
270
     1
271
     1
  0
XRECORD
  5
4F5
102
{ACAD_REACTORS
330
4F0
102
}
330
4F0
100
AcDbXrecord
280
     1
270
     1
271
     1
  0
XRECORD
  5
4F4
102
{ACAD_REACTORS
330
4F0
102
}
330
4F0
100
AcDbXrecord
280
     1
270
     1
271
     1
  0
XRECORD
  5
4F6
102
{ACAD_REACTORS
330
4F0
102
}
330
4F0
100
AcDbXrecord
280
     1
270
     1
271
     1
  0
XRECORD
  5
4F3
102
{ACAD_REACTORS
330
4F0
102
}
330
4F0
100
AcDbXrecord
280
     1
270
     1
271
     1
  0
XRECORD
  5
578
102
{ACAD_REACTORS
330
4E8
102
}
330
4E8
100
AcDbXrecord
280
     1
102
MATERIAL
148
0.0
149
0.0
149
0.0
 93
        0
 94
      127
282
     0
 72
     0
 77
     0
171
     0
175
     0
179
     0
273
     0
  0
XRECORD
  5
4EA
102
{ACAD_REACTORS
330
4E8
102
}
330
4E8
100
AcDbXrecord
280
     1
270
     1
271
     1
  0
XRECORD
  5
4E9
102
{ACAD_REACTORS
330
4E8
102
}
330
4E8
100
AcDbXrecord
280
     1
270
     1
271
     1
  0
XRECORD
  5
4ED
102
{ACAD_REACTORS
330
4E8
102
}
330
4E8
100
AcDbXrecord
280
     1
270
     1
271
     1
  0
XRECORD
  5
4EC
102
{ACAD_REACTORS
330
4E8
102
}
330
4E8
100
AcDbXrecord
280
     1
270
     1
271
     1
  0
XRECORD
  5
4EE
102
{ACAD_REACTORS
330
4E8
102
}
330
4E8
100
AcDbXrecord
280
     1
270
     1
271
     1
  0
XRECORD
  5
4EB
102
{ACAD_REACTORS
330
4E8
102
}
330
4E8
100
AcDbXrecord
280
     1
270
     1
271
     1
  0
XRECORD
  5
57A
102
{ACAD_REACTORS
330
4F8
102
}
330
4F8
100
AcDbXrecord
280
     1
102
MATERIAL
148
0.0
149
0.0
149
0.0
 93
        0
 94
      127
282
     0
 72
     0
 77
     0
171
     0
175
     0
179
     0
273
     0
  0
XRECORD
  5
4FA
102
{ACAD_REACTORS
330
4F8
102
}
330
4F8
100
AcDbXrecord
280
     1
270
     1
271
     1
  0
XRECORD
  5
4F9
102
{ACAD_REACTORS
330
4F8
102
}
330
4F8
100
AcDbXrecord
280
     1
270
     1
271
     1
  0
XRECORD
  5
4FD
102
{ACAD_REACTORS
330
4F8
102
}
330
4F8
100
AcDbXrecord
280
     1
270
     1
271
     1
  0
XRECORD
  5
4FC
102
{ACAD_REACTORS
330
4F8
102
}
330
4F8
100
AcDbXrecord
280
     1
270
     1
271
     1
  0
XRECORD
  5
4FE
102
{ACAD_REACTORS
330
4F8
102
}
330
4F8
100
AcDbXrecord
280
     1
270
     1
271
     1
  0
XRECORD
  5
4FB
102
{ACAD_REACTORS
330
4F8
102
}
330
4F8
100
AcDbXrecord
280
     1
270
     1
271
     1
  0
XRECORD
  5
5AE
102
{ACAD_REACTORS
330
5AD
102
}
330
5AD
100
AcDbXrecord
280
     1
102
DISPLAYNAME
  1
Imperial24
102
FLAGS
 90
        0
  0
CELLSTYLEMAP
  5
575
102
{ACAD_REACTORS
330
574
102
}
330
574
100
AcDbCellStyleMap
 90
        3
300
CELLSTYLE
  1
TABLEFORMAT_BEGIN
 90
        5
170
     1
 91
        0
 92
    32768
 62
   257
 93
        1
300
CONTENTFORMAT
  1
CONTENTFORMAT_BEGIN
 90
        0
 91
        0
 92
      512
 93
        0
300

 40
0.0
140
1.0
 94
        5
 62
     0
340
52B
144
0.25
309
CONTENTFORMAT_END
171
     0
 94
        0
309
TABLEFORMAT_END
  1
CELLSTYLE_BEGIN
 90
        1
 91
        1
300
_TITLE
309
CELLSTYLE_END
300
CELLSTYLE
  1
TABLEFORMAT_BEGIN
 90
        5
170
     1
 91
        0
 92
        0
 62
   257
 93
        1
300
CONTENTFORMAT
  1
CONTENTFORMAT_BEGIN
 90
        0
 91
        0
 92
      512
 93
        0
300

 40
0.0
140
1.0
 94
        5
 62
     0
340
52B
144
0.18
309
CONTENTFORMAT_END
171
     0
 94
        0
309
TABLEFORMAT_END
  1
CELLSTYLE_BEGIN
 90
        2
 91
        1
300
_HEADER
309
CELLSTYLE_END
300
CELLSTYLE
  1
TABLEFORMAT_BEGIN
 90
        5
170
     1
 91
        0
 92
        0
 62
   257
 93
        1
300
CONTENTFORMAT
  1
CONTENTFORMAT_BEGIN
 90
        0
 91
        0
 92
      512
 93
        0
300

 40
0.0
140
1.0
 94
        2
 62
     0
340
52B
144
0.18
309
CONTENTFORMAT_END
171
     0
 94
        0
309
TABLEFORMAT_END
  1
CELLSTYLE_BEGIN
 90
        3
 91
        2
300
_DATA
309
CELLSTYLE_END
  0
XRECORD
  5
5AB
102
{ACAD_REACTORS
330
574
102
}
330
574
100
AcDbXrecord
280
     1
102
ACAD_ROUNDTRIP_PRE2007_TABLESTYLE
 90
      512
 91
        0
  1

 92
      512
 93
        0
  2

 94
      512
 95
        0
  3

  0
XRECORD
  5
586
102
{ACAD_REACTORS
330
585
102
}
330
585
100
AcDbXrecord
280
     1
102
RTVSPost2010Prop28
280
     1
102
RTVSPost2010PropOp28
 70
     1
102
RTVSPost2010Prop29
280
     1
102
RTVSPost2010PropOp29
 70
     1
102
RTVSPost2010Prop30
280
     0
102
RTVSPost2010PropOp30
 70
     1
102
RTVSPost2010Prop31
280
     0
102
RTVSPost2010PropOp31
 70
     1
102
RTVSPost2010Prop32
280
     0
102
RTVSPost2010PropOp32
 70
     1
102
RTVSPost2010Prop33
280
     0
102
RTVSPost2010PropOp33
 70
     1
102
RTVSPost2010Prop34
280
     0
102
RTVSPost2010PropOp34
 70
     1
102
RTVSPost2010Prop35
280
     0
102
RTVSPost2010PropOp35
 70
     1
102
RTVSPost2010Prop36
280
     0
102
RTVSPost2010PropOp36
 70
     1
102
RTVSPost2010Prop37
 90
       50
102
RTVSPost2010PropOp37
 70
     1
102
RTVSPost2010Prop38
140
0.0
102
RTVSPost2010PropOp38
 70
     1
102
RTVSPost2010Prop39
140
1.0
102
RTVSPost2010PropOp39
 70
     1
102
RTVSPost2010Prop40
 90
        0
102
RTVSPost2010PropOp40
 70
     1
102
RTVSPost2010Prop41ColorIndex
 90
       18
102
RTVSPost2010Prop41ColorRGB
 90
        0
102
RTVSPost2010PropOp41
 70
     1
102
RTVSPost2010Prop42
 90
       50
102
RTVSPost2010PropOp42
 70
     1
102
RTVSPost2010Prop43
 90
        3
102
RTVSPost2010PropOp43
 70
     1
102
RTVSPost2010Prop44ColorIndex
 90
        5
102
RTVSPost2010Prop44ColorRGB
 90
      255
102
RTVSPost2010PropOp44
 70
     1
102
RTVSPost2010Prop45
280
     0
102
RTVSPost2010PropOp45
 70
     1
102
RTVSPost2010Prop46
 90
       50
102
RTVSPost2010PropOp46
 70
     1
102
RTVSPost2010Prop47
 90
       50
102
RTVSPost2010PropOp47
 70
     1
102
RTVSPost2010Prop48
 90
       50
102
RTVSPost2010PropOp48
 70
     1
102
RTVSPost2010Prop49
280
     0
102
RTVSPost2010PropOp49
 70
     1
102
RTVSPost2010Prop50
 90
       50
102
RTVSPost2010PropOp50
 70
     1
102
RTVSPost2010Prop51ColorIndex
 90
      256
102
RTVSPost2010Prop51ColorRGB
 90
-16777216
102
RTVSPost2010PropOp51
 70
     0
102
RTVSPost2010Prop52
140
1.0
102
RTVSPost2010PropOp52
 70
     0
102
RTVSPost2010Prop53
 90
        2
102
RTVSPost2010PropOp53
 70
     1
102
RTVSPost2010Prop54
  1
strokes_ogs.tif
102
RTVSPost2010PropOp54
 70
     1
102
RTVSPost2010Prop55
280
     0
102
RTVSPost2010PropOp55
 70
     1
102
RTVSPost2010Prop56
140
1.0
102
RTVSPost2010PropOp56
 70
     1
102
RTVSPost2010Prop57
140
1.0
102
RTVSPost2010PropOp57
 70
     1
102
RTVSPropertyOp0
 70
     1
102
RTVSPropertyOp1
 70
     1
102
RTVSPropertyOp2
 70
     1
102
RTVSPropertyOp3
 70
     1
102
RTVSPropertyOp4
 70
     1
102
RTVSPropertyOp5
 70
     1
102
RTVSPropertyOp6
 70
     1
102
RTVSPropertyOp7
 70
     1
102
RTVSPropertyOp8
 70
     1
102
RTVSPropertyOp9
 70
     1
102
RTVSPropertyOp10
 70
     1
102
RTVSPropertyOp11
 70
     1
102
RTVSPropertyOp12
 70
     1
102
RTVSPropertyOp13
 70
     1
102
RTVSPropertyOp14
 70
     1
102
RTVSPropertyOp15
 70
     1
102
RTVSPropertyOp16
 70
     1
102
RTVSPropertyOp17
 70
     1
102
RTVSPropertyOp18
 70
     1
102
RTVSPropertyOp19
 70
     1
102
RTVSPropertyOp20
 70
     1
102
RTVSPropertyOp21
 70
     1
102
RTVSPropertyOp22
 70
     1
102
RTVSPropertyOp23
 70
     1
102
RTVSPropertyOp24
 70
     1
102
RTVSPropertyOp25
 70
     1
102
RTVSPropertyOp26
 70
     1
102
RTVSPropertyOp27
 70
     1
102
RTVSPropertyOp28
 70
     1
102
RTVSPropertyOp29
 70
     1
102
RTVSPropertyOp30
 70
     1
102
RTVSPropertyOp31
 70
     1
102
RTVSPropertyOp32
 70
     1
102
RTVSPropertyOp33
 70
     1
102
RTVSPropertyOp34
 70
     1
102
RTVSPropertyOp35
 70
     1
102
RTVSPropertyOp36
 70
     1
102
RTVSPropertyOp37
 70
     1
102
RTVSPropertyOp38
 70
     1
102
RTVSPropertyOp39
 70
     1
102
RTVSPropertyOp40
 70
     1
102
RTVSPropertyOp41
 70
     1
102
RTVSPropertyOp42
 70
     1
102
RTVSPropertyOp43
 70
     1
102
RTVSPropertyOp44
 70
     1
102
RTVSPropertyOp45
 70
     1
102
RTVSPropertyOp46
 70
     1
102
RTVSPropertyOp47
 70
     1
102
RTVSPropertyOp48
 70
     1
102
RTVSPropertyOp49
 70
     1
102
RTVSPropertyOp50
 70
     1
102
RTVSPropertyOp51
 70
     0
102
RTVSPropertyOp52
 70
     0
102
RTVSPropertyOp53
 70
     1
102
RTVSPropertyOp54
 70
     1
102
RTVSPropertyOp55
 70
     1
102
RTVSPropertyOp56
 70
     1
102
RTVSPropertyOp57
 70
     1
102
RTVSPropertyOp58
 70
     1
102
RTVSPropertyOp59
 70
     1
102
RTVSPropertyOp60
 70
     1
102
RTVSPropertyOp61
 70
     1
102
RTVSPropertyOp62
 70
     1
  0
XRECORD
  5
584
102
{ACAD_REACTORS
330
583
102
}
330
583
100
AcDbXrecord
280
     1
102
RTVSPost2010Prop28
280
     0
102
RTVSPost2010PropOp28
 70
     1
102
RTVSPost2010Prop29
280
     1
102
RTVSPost2010PropOp29
 70
     1
102
RTVSPost2010Prop30
280
     1
102
RTVSPost2010PropOp30
 70
     1
102
RTVSPost2010Prop31
280
     0
102
RTVSPost2010PropOp31
 70
     1
102
RTVSPost2010Prop32
280
     0
102
RTVSPost2010PropOp32
 70
     1
102
RTVSPost2010Prop33
280
     0
102
RTVSPost2010PropOp33
 70
     1
102
RTVSPost2010Prop34
280
     0
102
RTVSPost2010PropOp34
 70
     1
102
RTVSPost2010Prop35
280
     0
102
RTVSPost2010PropOp35
 70
     1
102
RTVSPost2010Prop36
280
     0
102
RTVSPost2010PropOp36
 70
     1
102
RTVSPost2010Prop37
 90
       50
102
RTVSPost2010PropOp37
 70
     1
102
RTVSPost2010Prop38
140
0.0
102
RTVSPost2010PropOp38
 70
     1
102
RTVSPost2010Prop39
140
1.0
102
RTVSPost2010PropOp39
 70
     1
102
RTVSPost2010Prop40
 90
        0
102
RTVSPost2010PropOp40
 70
     1
102
RTVSPost2010Prop41ColorIndex
 90
       18
102
RTVSPost2010Prop41ColorRGB
 90
        0
102
RTVSPost2010PropOp41
 70
     1
102
RTVSPost2010Prop42
 90
       50
102
RTVSPost2010PropOp42
 70
     1
102
RTVSPost2010Prop43
 90
        3
102
RTVSPost2010PropOp43
 70
     1
102
RTVSPost2010Prop44ColorIndex
 90
        5
102
RTVSPost2010Prop44ColorRGB
 90
      255
102
RTVSPost2010PropOp44
 70
     1
102
RTVSPost2010Prop45
280
     0
102
RTVSPost2010PropOp45
 70
     1
102
RTVSPost2010Prop46
 90
       50
102
RTVSPost2010PropOp46
 70
     1
102
RTVSPost2010Prop47
 90
       50
102
RTVSPost2010PropOp47
 70
     1
102
RTVSPost2010Prop48
 90
       50
102
RTVSPost2010PropOp48
 70
     1
102
RTVSPost2010Prop49
280
     0
102
RTVSPost2010PropOp49
 70
     1
102
RTVSPost2010Prop50
 90
       50
102
RTVSPost2010PropOp50
 70
     1
102
RTVSPost2010Prop51ColorIndex
 90
      256
102
RTVSPost2010Prop51ColorRGB
 90
-16777216
102
RTVSPost2010PropOp51
 70
     0
102
RTVSPost2010Prop52
140
1.0
102
RTVSPost2010PropOp52
 70
     0
102
RTVSPost2010Prop53
 90
        2
102
RTVSPost2010PropOp53
 70
     1
102
RTVSPost2010Prop54
  1
strokes_ogs.tif
102
RTVSPost2010PropOp54
 70
     1
102
RTVSPost2010Prop55
280
     0
102
RTVSPost2010PropOp55
 70
     1
102
RTVSPost2010Prop56
140
1.0
102
RTVSPost2010PropOp56
 70
     1
102
RTVSPost2010Prop57
140
1.0
102
RTVSPost2010PropOp57
 70
     1
102
RTVSPropertyOp0
 70
     1
102
RTVSPropertyOp1
 70
     1
102
RTVSPropertyOp2
 70
     1
102
RTVSPropertyOp3
 70
     1
102
RTVSPropertyOp4
 70
     1
102
RTVSPropertyOp5
 70
     1
102
RTVSPropertyOp6
 70
     1
102
RTVSPropertyOp7
 70
     1
102
RTVSPropertyOp8
 70
     1
102
RTVSPropertyOp9
 70
     1
102
RTVSPropertyOp10
 70
     1
102
RTVSPropertyOp11
 70
     1
102
RTVSPropertyOp12
 70
     1
102
RTVSPropertyOp13
 70
     1
102
RTVSPropertyOp14
 70
     1
102
RTVSPropertyOp15
 70
     1
102
RTVSPropertyOp16
 70
     1
102
RTVSPropertyOp17
 70
     1
102
RTVSPropertyOp18
 70
     1
102
RTVSPropertyOp19
 70
     1
102
RTVSPropertyOp20
 70
     1
102
RTVSPropertyOp21
 70
     1
102
RTVSPropertyOp22
 70
     1
102
RTVSPropertyOp23
 70
     1
102
RTVSPropertyOp24
 70
     1
102
RTVSPropertyOp25
 70
     1
102
RTVSPropertyOp26
 70
     1
102
RTVSPropertyOp27
 70
     1
102
RTVSPropertyOp28
 70
     1
102
RTVSPropertyOp29
 70
     1
102
RTVSPropertyOp30
 70
     1
102
RTVSPropertyOp31
 70
     1
102
RTVSPropertyOp32
 70
     1
102
RTVSPropertyOp33
 70
     1
102
RTVSPropertyOp34
 70
     1
102
RTVSPropertyOp35
 70
     1
102
RTVSPropertyOp36
 70
     1
102
RTVSPropertyOp37
 70
     1
102
RTVSPropertyOp38
 70
     1
102
RTVSPropertyOp39
 70
     1
102
RTVSPropertyOp40
 70
     1
102
RTVSPropertyOp41
 70
     1
102
RTVSPropertyOp42
 70
     1
102
RTVSPropertyOp43
 70
     1
102
RTVSPropertyOp44
 70
     1
102
RTVSPropertyOp45
 70
     1
102
RTVSPropertyOp46
 70
     1
102
RTVSPropertyOp47
 70
     1
102
RTVSPropertyOp48
 70
     1
102
RTVSPropertyOp49
 70
     1
102
RTVSPropertyOp50
 70
     1
102
RTVSPropertyOp51
 70
     0
102
RTVSPropertyOp52
 70
     0
102
RTVSPropertyOp53
 70
     1
102
RTVSPropertyOp54
 70
     1
102
RTVSPropertyOp55
 70
     1
102
RTVSPropertyOp56
 70
     1
102
RTVSPropertyOp57
 70
     1
102
RTVSPropertyOp58
 70
     1
102
RTVSPropertyOp59
 70
     1
102
RTVSPropertyOp60
 70
     1
102
RTVSPropertyOp61
 70
     1
102
RTVSPropertyOp62
 70
     1
  0
XRECORD
  5
592
102
{ACAD_REACTORS
330
591
102
}
330
591
100
AcDbXrecord
280
     1
102
RTVSPost2010Prop28
280
     0
102
RTVSPost2010PropOp28
 70
     1
102
RTVSPost2010Prop29
280
     1
102
RTVSPost2010PropOp29
 70
     1
102
RTVSPost2010Prop30
280
     1
102
RTVSPost2010PropOp30
 70
     1
102
RTVSPost2010Prop31
280
     0
102
RTVSPost2010PropOp31
 70
     1
102
RTVSPost2010Prop32
280
     0
102
RTVSPost2010PropOp32
 70
     1
102
RTVSPost2010Prop33
280
     0
102
RTVSPost2010PropOp33
 70
     1
102
RTVSPost2010Prop34
280
     0
102
RTVSPost2010PropOp34
 70
     1
102
RTVSPost2010Prop35
280
     0
102
RTVSPost2010PropOp35
 70
     1
102
RTVSPost2010Prop36
280
     0
102
RTVSPost2010PropOp36
 70
     1
102
RTVSPost2010Prop37
 90
       50
102
RTVSPost2010PropOp37
 70
     1
102
RTVSPost2010Prop38
140
0.0
102
RTVSPost2010PropOp38
 70
     1
102
RTVSPost2010Prop39
140
1.0
102
RTVSPost2010PropOp39
 70
     1
102
RTVSPost2010Prop40
 90
        0
102
RTVSPost2010PropOp40
 70
     1
102
RTVSPost2010Prop41ColorIndex
 90
       18
102
RTVSPost2010Prop41ColorRGB
 90
        0
102
RTVSPost2010PropOp41
 70
     1
102
RTVSPost2010Prop42
 90
       50
102
RTVSPost2010PropOp42
 70
     1
102
RTVSPost2010Prop43
 90
        3
102
RTVSPost2010PropOp43
 70
     1
102
RTVSPost2010Prop44ColorIndex
 90
        5
102
RTVSPost2010Prop44ColorRGB
 90
      255
102
RTVSPost2010PropOp44
 70
     1
102
RTVSPost2010Prop45
280
     0
102
RTVSPost2010PropOp45
 70
     1
102
RTVSPost2010Prop46
 90
       50
102
RTVSPost2010PropOp46
 70
     1
102
RTVSPost2010Prop47
 90
       50
102
RTVSPost2010PropOp47
 70
     1
102
RTVSPost2010Prop48
 90
       50
102
RTVSPost2010PropOp48
 70
     1
102
RTVSPost2010Prop49
280
     0
102
RTVSPost2010PropOp49
 70
     1
102
RTVSPost2010Prop50
 90
       50
102
RTVSPost2010PropOp50
 70
     1
102
RTVSPost2010Prop51ColorIndex
 90
      256
102
RTVSPost2010Prop51ColorRGB
 90
-16777216
102
RTVSPost2010PropOp51
 70
     0
102
RTVSPost2010Prop52
140
1.0
102
RTVSPost2010PropOp52
 70
     0
102
RTVSPost2010Prop53
 90
        2
102
RTVSPost2010PropOp53
 70
     1
102
RTVSPost2010Prop54
  1
strokes_ogs.tif
102
RTVSPost2010PropOp54
 70
     1
102
RTVSPost2010Prop55
280
     0
102
RTVSPost2010PropOp55
 70
     1
102
RTVSPost2010Prop56
140
1.0
102
RTVSPost2010PropOp56
 70
     1
102
RTVSPost2010Prop57
140
1.0
102
RTVSPost2010PropOp57
 70
     1
102
RTVSPropertyOp0
 70
     1
102
RTVSPropertyOp1
 70
     1
102
RTVSPropertyOp2
 70
     1
102
RTVSPropertyOp3
 70
     1
102
RTVSPropertyOp4
 70
     1
102
RTVSPropertyOp5
 70
     1
102
RTVSPropertyOp6
 70
     1
102
RTVSPropertyOp7
 70
     1
102
RTVSPropertyOp8
 70
     1
102
RTVSPropertyOp9
 70
     1
102
RTVSPropertyOp10
 70
     1
102
RTVSPropertyOp11
 70
     1
102
RTVSPropertyOp12
 70
     1
102
RTVSPropertyOp13
 70
     1
102
RTVSPropertyOp14
 70
     1
102
RTVSPropertyOp15
 70
     1
102
RTVSPropertyOp16
 70
     1
102
RTVSPropertyOp17
 70
     1
102
RTVSPropertyOp18
 70
     1
102
RTVSPropertyOp19
 70
     1
102
RTVSPropertyOp20
 70
     1
102
RTVSPropertyOp21
 70
     1
102
RTVSPropertyOp22
 70
     1
102
RTVSPropertyOp23
 70
     1
102
RTVSPropertyOp24
 70
     1
102
RTVSPropertyOp25
 70
     1
102
RTVSPropertyOp26
 70
     1
102
RTVSPropertyOp27
 70
     1
102
RTVSPropertyOp28
 70
     1
102
RTVSPropertyOp29
 70
     1
102
RTVSPropertyOp30
 70
     1
102
RTVSPropertyOp31
 70
     1
102
RTVSPropertyOp32
 70
     1
102
RTVSPropertyOp33
 70
     1
102
RTVSPropertyOp34
 70
     1
102
RTVSPropertyOp35
 70
     1
102
RTVSPropertyOp36
 70
     1
102
RTVSPropertyOp37
 70
     1
102
RTVSPropertyOp38
 70
     1
102
RTVSPropertyOp39
 70
     1
102
RTVSPropertyOp40
 70
     1
102
RTVSPropertyOp41
 70
     1
102
RTVSPropertyOp42
 70
     1
102
RTVSPropertyOp43
 70
     1
102
RTVSPropertyOp44
 70
     1
102
RTVSPropertyOp45
 70
     1
102
RTVSPropertyOp46
 70
     1
102
RTVSPropertyOp47
 70
     1
102
RTVSPropertyOp48
 70
     1
102
RTVSPropertyOp49
 70
     1
102
RTVSPropertyOp50
 70
     1
102
RTVSPropertyOp51
 70
     0
102
RTVSPropertyOp52
 70
     0
102
RTVSPropertyOp53
 70
     1
102
RTVSPropertyOp54
 70
     1
102
RTVSPropertyOp55
 70
     1
102
RTVSPropertyOp56
 70
     1
102
RTVSPropertyOp57
 70
     1
102
RTVSPropertyOp58
 70
     1
102
RTVSPropertyOp59
 70
     1
102
RTVSPropertyOp60
 70
     1
102
RTVSPropertyOp61
 70
     1
102
RTVSPropertyOp62
 70
     1
  0
XRECORD
  5
59A
102
{ACAD_REACTORS
330
599
102
}
330
599
100
AcDbXrecord
280
     1
102
RTVSPost2010Prop28
280
     0
102
RTVSPost2010PropOp28
 70
     1
102
RTVSPost2010Prop29
280
     1
102
RTVSPost2010PropOp29
 70
     1
102
RTVSPost2010Prop30
280
     1
102
RTVSPost2010PropOp30
 70
     1
102
RTVSPost2010Prop31
280
     0
102
RTVSPost2010PropOp31
 70
     1
102
RTVSPost2010Prop32
280
     0
102
RTVSPost2010PropOp32
 70
     1
102
RTVSPost2010Prop33
280
     0
102
RTVSPost2010PropOp33
 70
     1
102
RTVSPost2010Prop34
280
     0
102
RTVSPost2010PropOp34
 70
     1
102
RTVSPost2010Prop35
280
     0
102
RTVSPost2010PropOp35
 70
     1
102
RTVSPost2010Prop36
280
     0
102
RTVSPost2010PropOp36
 70
     1
102
RTVSPost2010Prop37
 90
       50
102
RTVSPost2010PropOp37
 70
     1
102
RTVSPost2010Prop38
140
0.0
102
RTVSPost2010PropOp38
 70
     1
102
RTVSPost2010Prop39
140
1.0
102
RTVSPost2010PropOp39
 70
     1
102
RTVSPost2010Prop40
 90
        0
102
RTVSPost2010PropOp40
 70
     1
102
RTVSPost2010Prop41ColorIndex
 90
       18
102
RTVSPost2010Prop41ColorRGB
 90
        0
102
RTVSPost2010PropOp41
 70
     1
102
RTVSPost2010Prop42
 90
       50
102
RTVSPost2010PropOp42
 70
     1
102
RTVSPost2010Prop43
 90
        3
102
RTVSPost2010PropOp43
 70
     1
102
RTVSPost2010Prop44ColorIndex
 90
        5
102
RTVSPost2010Prop44ColorRGB
 90
      255
102
RTVSPost2010PropOp44
 70
     1
102
RTVSPost2010Prop45
280
     0
102
RTVSPost2010PropOp45
 70
     1
102
RTVSPost2010Prop46
 90
       50
102
RTVSPost2010PropOp46
 70
     1
102
RTVSPost2010Prop47
 90
       50
102
RTVSPost2010PropOp47
 70
     1
102
RTVSPost2010Prop48
 90
       50
102
RTVSPost2010PropOp48
 70
     1
102
RTVSPost2010Prop49
280
     0
102
RTVSPost2010PropOp49
 70
     1
102
RTVSPost2010Prop50
 90
       50
102
RTVSPost2010PropOp50
 70
     1
102
RTVSPost2010Prop51ColorIndex
 90
      256
102
RTVSPost2010Prop51ColorRGB
 90
-16777216
102
RTVSPost2010PropOp51
 70
     0
102
RTVSPost2010Prop52
140
1.0
102
RTVSPost2010PropOp52
 70
     0
102
RTVSPost2010Prop53
 90
        2
102
RTVSPost2010PropOp53
 70
     1
102
RTVSPost2010Prop54
  1
strokes_ogs.tif
102
RTVSPost2010PropOp54
 70
     1
102
RTVSPost2010Prop55
280
     0
102
RTVSPost2010PropOp55
 70
     1
102
RTVSPost2010Prop56
140
1.0
102
RTVSPost2010PropOp56
 70
     1
102
RTVSPost2010Prop57
140
1.0
102
RTVSPost2010PropOp57
 70
     1
102
RTVSPropertyOp0
 70
     1
102
RTVSPropertyOp1
 70
     1
102
RTVSPropertyOp2
 70
     1
102
RTVSPropertyOp3
 70
     1
102
RTVSPropertyOp4
 70
     1
102
RTVSPropertyOp5
 70
     1
102
RTVSPropertyOp6
 70
     1
102
RTVSPropertyOp7
 70
     1
102
RTVSPropertyOp8
 70
     1
102
RTVSPropertyOp9
 70
     1
102
RTVSPropertyOp10
 70
     1
102
RTVSPropertyOp11
 70
     1
102
RTVSPropertyOp12
 70
     1
102
RTVSPropertyOp13
 70
     1
102
RTVSPropertyOp14
 70
     1
102
RTVSPropertyOp15
 70
     1
102
RTVSPropertyOp16
 70
     1
102
RTVSPropertyOp17
 70
     1
102
RTVSPropertyOp18
 70
     1
102
RTVSPropertyOp19
 70
     1
102
RTVSPropertyOp20
 70
     1
102
RTVSPropertyOp21
 70
     1
102
RTVSPropertyOp22
 70
     1
102
RTVSPropertyOp23
 70
     1
102
RTVSPropertyOp24
 70
     1
102
RTVSPropertyOp25
 70
     1
102
RTVSPropertyOp26
 70
     1
102
RTVSPropertyOp27
 70
     1
102
RTVSPropertyOp28
 70
     1
102
RTVSPropertyOp29
 70
     1
102
RTVSPropertyOp30
 70
     1
102
RTVSPropertyOp31
 70
     1
102
RTVSPropertyOp32
 70
     1
102
RTVSPropertyOp33
 70
     1
102
RTVSPropertyOp34
 70
     1
102
RTVSPropertyOp35
 70
     1
102
RTVSPropertyOp36
 70
     1
102
RTVSPropertyOp37
 70
     1
102
RTVSPropertyOp38
 70
     1
102
RTVSPropertyOp39
 70
     1
102
RTVSPropertyOp40
 70
     1
102
RTVSPropertyOp41
 70
     1
102
RTVSPropertyOp42
 70
     1
102
RTVSPropertyOp43
 70
     1
102
RTVSPropertyOp44
 70
     1
102
RTVSPropertyOp45
 70
     1
102
RTVSPropertyOp46
 70
     1
102
RTVSPropertyOp47
 70
     1
102
RTVSPropertyOp48
 70
     1
102
RTVSPropertyOp49
 70
     1
102
RTVSPropertyOp50
 70
     1
102
RTVSPropertyOp51
 70
     0
102
RTVSPropertyOp52
 70
     0
102
RTVSPropertyOp53
 70
     1
102
RTVSPropertyOp54
 70
     1
102
RTVSPropertyOp55
 70
     1
102
RTVSPropertyOp56
 70
     1
102
RTVSPropertyOp57
 70
     1
102
RTVSPropertyOp58
 70
     1
102
RTVSPropertyOp59
 70
     1
102
RTVSPropertyOp60
 70
     1
102
RTVSPropertyOp61
 70
     1
102
RTVSPropertyOp62
 70
     1
  0
XRECORD
  5
58C
102
{ACAD_REACTORS
330
58B
102
}
330
58B
100
AcDbXrecord
280
     1
102
RTVSPost2010Prop28
280
     0
102
RTVSPost2010PropOp28
 70
     1
102
RTVSPost2010Prop29
280
     1
102
RTVSPost2010PropOp29
 70
     1
102
RTVSPost2010Prop30
280
     1
102
RTVSPost2010PropOp30
 70
     1
102
RTVSPost2010Prop31
280
     0
102
RTVSPost2010PropOp31
 70
     1
102
RTVSPost2010Prop32
280
     0
102
RTVSPost2010PropOp32
 70
     1
102
RTVSPost2010Prop33
280
     0
102
RTVSPost2010PropOp33
 70
     1
102
RTVSPost2010Prop34
280
     0
102
RTVSPost2010PropOp34
 70
     1
102
RTVSPost2010Prop35
280
     0
102
RTVSPost2010PropOp35
 70
     1
102
RTVSPost2010Prop36
280
     0
102
RTVSPost2010PropOp36
 70
     1
102
RTVSPost2010Prop37
 90
       50
102
RTVSPost2010PropOp37
 70
     1
102
RTVSPost2010Prop38
140
0.0
102
RTVSPost2010PropOp38
 70
     1
102
RTVSPost2010Prop39
140
1.0
102
RTVSPost2010PropOp39
 70
     1
102
RTVSPost2010Prop40
 90
        0
102
RTVSPost2010PropOp40
 70
     1
102
RTVSPost2010Prop41ColorIndex
 90
       18
102
RTVSPost2010Prop41ColorRGB
 90
        0
102
RTVSPost2010PropOp41
 70
     1
102
RTVSPost2010Prop42
 90
       50
102
RTVSPost2010PropOp42
 70
     1
102
RTVSPost2010Prop43
 90
        3
102
RTVSPost2010PropOp43
 70
     1
102
RTVSPost2010Prop44ColorIndex
 90
        5
102
RTVSPost2010Prop44ColorRGB
 90
      255
102
RTVSPost2010PropOp44
 70
     1
102
RTVSPost2010Prop45
280
     0
102
RTVSPost2010PropOp45
 70
     1
102
RTVSPost2010Prop46
 90
       50
102
RTVSPost2010PropOp46
 70
     1
102
RTVSPost2010Prop47
 90
       50
102
RTVSPost2010PropOp47
 70
     1
102
RTVSPost2010Prop48
 90
       50
102
RTVSPost2010PropOp48
 70
     1
102
RTVSPost2010Prop49
280
     0
102
RTVSPost2010PropOp49
 70
     1
102
RTVSPost2010Prop50
 90
       50
102
RTVSPost2010PropOp50
 70
     1
102
RTVSPost2010Prop51ColorIndex
 90
      256
102
RTVSPost2010Prop51ColorRGB
 90
-16777216
102
RTVSPost2010PropOp51
 70
     0
102
RTVSPost2010Prop52
140
1.0
102
RTVSPost2010PropOp52
 70
     0
102
RTVSPost2010Prop53
 90
        2
102
RTVSPost2010PropOp53
 70
     1
102
RTVSPost2010Prop54
  1
strokes_ogs.tif
102
RTVSPost2010PropOp54
 70
     1
102
RTVSPost2010Prop55
280
     0
102
RTVSPost2010PropOp55
 70
     1
102
RTVSPost2010Prop56
140
1.0
102
RTVSPost2010PropOp56
 70
     1
102
RTVSPost2010Prop57
140
1.0
102
RTVSPost2010PropOp57
 70
     1
102
RTVSPropertyOp0
 70
     1
102
RTVSPropertyOp1
 70
     1
102
RTVSPropertyOp2
 70
     1
102
RTVSPropertyOp3
 70
     1
102
RTVSPropertyOp4
 70
     1
102
RTVSPropertyOp5
 70
     1
102
RTVSPropertyOp6
 70
     1
102
RTVSPropertyOp7
 70
     1
102
RTVSPropertyOp8
 70
     1
102
RTVSPropertyOp9
 70
     1
102
RTVSPropertyOp10
 70
     1
102
RTVSPropertyOp11
 70
     1
102
RTVSPropertyOp12
 70
     1
102
RTVSPropertyOp13
 70
     1
102
RTVSPropertyOp14
 70
     1
102
RTVSPropertyOp15
 70
     1
102
RTVSPropertyOp16
 70
     1
102
RTVSPropertyOp17
 70
     1
102
RTVSPropertyOp18
 70
     1
102
RTVSPropertyOp19
 70
     1
102
RTVSPropertyOp20
 70
     1
102
RTVSPropertyOp21
 70
     1
102
RTVSPropertyOp22
 70
     1
102
RTVSPropertyOp23
 70
     1
102
RTVSPropertyOp24
 70
     1
102
RTVSPropertyOp25
 70
     1
102
RTVSPropertyOp26
 70
     1
102
RTVSPropertyOp27
 70
     1
102
RTVSPropertyOp28
 70
     1
102
RTVSPropertyOp29
 70
     1
102
RTVSPropertyOp30
 70
     1
102
RTVSPropertyOp31
 70
     1
102
RTVSPropertyOp32
 70
     1
102
RTVSPropertyOp33
 70
     1
102
RTVSPropertyOp34
 70
     1
102
RTVSPropertyOp35
 70
     1
102
RTVSPropertyOp36
 70
     1
102
RTVSPropertyOp37
 70
     1
102
RTVSPropertyOp38
 70
     1
102
RTVSPropertyOp39
 70
     1
102
RTVSPropertyOp40
 70
     1
102
RTVSPropertyOp41
 70
     1
102
RTVSPropertyOp42
 70
     1
102
RTVSPropertyOp43
 70
     1
102
RTVSPropertyOp44
 70
     1
102
RTVSPropertyOp45
 70
     1
102
RTVSPropertyOp46
 70
     1
102
RTVSPropertyOp47
 70
     1
102
RTVSPropertyOp48
 70
     1
102
RTVSPropertyOp49
 70
     1
102
RTVSPropertyOp50
 70
     1
102
RTVSPropertyOp51
 70
     0
102
RTVSPropertyOp52
 70
     0
102
RTVSPropertyOp53
 70
     1
102
RTVSPropertyOp54
 70
     1
102
RTVSPropertyOp55
 70
     1
102
RTVSPropertyOp56
 70
     1
102
RTVSPropertyOp57
 70
     1
102
RTVSPropertyOp58
 70
     1
102
RTVSPropertyOp59
 70
     1
102
RTVSPropertyOp60
 70
     1
102
RTVSPropertyOp61
 70
     1
102
RTVSPropertyOp62
 70
     1
  0
XRECORD
  5
590
102
{ACAD_REACTORS
330
58F
102
}
330
58F
100
AcDbXrecord
280
     1
102
RTVSPost2010Prop28
280
     0
102
RTVSPost2010PropOp28
 70
     1
102
RTVSPost2010Prop29
280
     1
102
RTVSPost2010PropOp29
 70
     1
102
RTVSPost2010Prop30
280
     1
102
RTVSPost2010PropOp30
 70
     1
102
RTVSPost2010Prop31
280
     0
102
RTVSPost2010PropOp31
 70
     1
102
RTVSPost2010Prop32
280
     0
102
RTVSPost2010PropOp32
 70
     1
102
RTVSPost2010Prop33
280
     0
102
RTVSPost2010PropOp33
 70
     1
102
RTVSPost2010Prop34
280
     0
102
RTVSPost2010PropOp34
 70
     1
102
RTVSPost2010Prop35
280
     0
102
RTVSPost2010PropOp35
 70
     1
102
RTVSPost2010Prop36
280
     0
102
RTVSPost2010PropOp36
 70
     1
102
RTVSPost2010Prop37
 90
       50
102
RTVSPost2010PropOp37
 70
     1
102
RTVSPost2010Prop38
140
0.0
102
RTVSPost2010PropOp38
 70
     1
102
RTVSPost2010Prop39
140
1.0
102
RTVSPost2010PropOp39
 70
     1
102
RTVSPost2010Prop40
 90
        0
102
RTVSPost2010PropOp40
 70
     1
102
RTVSPost2010Prop41ColorIndex
 90
       18
102
RTVSPost2010Prop41ColorRGB
 90
        0
102
RTVSPost2010PropOp41
 70
     1
102
RTVSPost2010Prop42
 90
       50
102
RTVSPost2010PropOp42
 70
     1
102
RTVSPost2010Prop43
 90
        3
102
RTVSPost2010PropOp43
 70
     1
102
RTVSPost2010Prop44ColorIndex
 90
        5
102
RTVSPost2010Prop44ColorRGB
 90
      255
102
RTVSPost2010PropOp44
 70
     1
102
RTVSPost2010Prop45
280
     0
102
RTVSPost2010PropOp45
 70
     1
102
RTVSPost2010Prop46
 90
       50
102
RTVSPost2010PropOp46
 70
     1
102
RTVSPost2010Prop47
 90
       50
102
RTVSPost2010PropOp47
 70
     1
102
RTVSPost2010Prop48
 90
       50
102
RTVSPost2010PropOp48
 70
     1
102
RTVSPost2010Prop49
280
     0
102
RTVSPost2010PropOp49
 70
     1
102
RTVSPost2010Prop50
 90
       50
102
RTVSPost2010PropOp50
 70
     1
102
RTVSPost2010Prop51ColorIndex
 90
      256
102
RTVSPost2010Prop51ColorRGB
 90
-16777216
102
RTVSPost2010PropOp51
 70
     0
102
RTVSPost2010Prop52
140
1.0
102
RTVSPost2010PropOp52
 70
     0
102
RTVSPost2010Prop53
 90
        2
102
RTVSPost2010PropOp53
 70
     1
102
RTVSPost2010Prop54
  1
strokes_ogs.tif
102
RTVSPost2010PropOp54
 70
     1
102
RTVSPost2010Prop55
280
     0
102
RTVSPost2010PropOp55
 70
     1
102
RTVSPost2010Prop56
140
1.0
102
RTVSPost2010PropOp56
 70
     1
102
RTVSPost2010Prop57
140
1.0
102
RTVSPost2010PropOp57
 70
     1
102
RTVSPropertyOp0
 70
     1
102
RTVSPropertyOp1
 70
     1
102
RTVSPropertyOp2
 70
     1
102
RTVSPropertyOp3
 70
     1
102
RTVSPropertyOp4
 70
     1
102
RTVSPropertyOp5
 70
     1
102
RTVSPropertyOp6
 70
     1
102
RTVSPropertyOp7
 70
     1
102
RTVSPropertyOp8
 70
     1
102
RTVSPropertyOp9
 70
     1
102
RTVSPropertyOp10
 70
     1
102
RTVSPropertyOp11
 70
     1
102
RTVSPropertyOp12
 70
     1
102
RTVSPropertyOp13
 70
     1
102
RTVSPropertyOp14
 70
     1
102
RTVSPropertyOp15
 70
     1
102
RTVSPropertyOp16
 70
     1
102
RTVSPropertyOp17
 70
     1
102
RTVSPropertyOp18
 70
     1
102
RTVSPropertyOp19
 70
     1
102
RTVSPropertyOp20
 70
     1
102
RTVSPropertyOp21
 70
     1
102
RTVSPropertyOp22
 70
     1
102
RTVSPropertyOp23
 70
     1
102
RTVSPropertyOp24
 70
     1
102
RTVSPropertyOp25
 70
     1
102
RTVSPropertyOp26
 70
     1
102
RTVSPropertyOp27
 70
     1
102
RTVSPropertyOp28
 70
     1
102
RTVSPropertyOp29
 70
     1
102
RTVSPropertyOp30
 70
     1
102
RTVSPropertyOp31
 70
     1
102
RTVSPropertyOp32
 70
     1
102
RTVSPropertyOp33
 70
     1
102
RTVSPropertyOp34
 70
     1
102
RTVSPropertyOp35
 70
     1
102
RTVSPropertyOp36
 70
     1
102
RTVSPropertyOp37
 70
     1
102
RTVSPropertyOp38
 70
     1
102
RTVSPropertyOp39
 70
     1
102
RTVSPropertyOp40
 70
     1
102
RTVSPropertyOp41
 70
     1
102
RTVSPropertyOp42
 70
     1
102
RTVSPropertyOp43
 70
     1
102
RTVSPropertyOp44
 70
     1
102
RTVSPropertyOp45
 70
     1
102
RTVSPropertyOp46
 70
     1
102
RTVSPropertyOp47
 70
     1
102
RTVSPropertyOp48
 70
     1
102
RTVSPropertyOp49
 70
     1
102
RTVSPropertyOp50
 70
     1
102
RTVSPropertyOp51
 70
     0
102
RTVSPropertyOp52
 70
     0
102
RTVSPropertyOp53
 70
     1
102
RTVSPropertyOp54
 70
     1
102
RTVSPropertyOp55
 70
     1
102
RTVSPropertyOp56
 70
     1
102
RTVSPropertyOp57
 70
     1
102
RTVSPropertyOp58
 70
     1
102
RTVSPropertyOp59
 70
     1
102
RTVSPropertyOp60
 70
     1
102
RTVSPropertyOp61
 70
     1
102
RTVSPropertyOp62
 70
     1
  0
XRECORD
  5
5AA
102
{ACAD_REACTORS
330
5A9
102
}
330
5A9
100
AcDbXrecord
280
     1
102
RTVSPost2010Prop28
280
     0
102
RTVSPost2010PropOp28
 70
     1
102
RTVSPost2010Prop29
280
     1
102
RTVSPost2010PropOp29
 70
     1
102
RTVSPost2010Prop30
280
     1
102
RTVSPost2010PropOp30
 70
     1
102
RTVSPost2010Prop31
280
     0
102
RTVSPost2010PropOp31
 70
     1
102
RTVSPost2010Prop32
280
     0
102
RTVSPost2010PropOp32
 70
     1
102
RTVSPost2010Prop33
280
     0
102
RTVSPost2010PropOp33
 70
     1
102
RTVSPost2010Prop34
280
     0
102
RTVSPost2010PropOp34
 70
     1
102
RTVSPost2010Prop35
280
     0
102
RTVSPost2010PropOp35
 70
     1
102
RTVSPost2010Prop36
280
     0
102
RTVSPost2010PropOp36
 70
     1
102
RTVSPost2010Prop37
 90
       50
102
RTVSPost2010PropOp37
 70
     0
102
RTVSPost2010Prop38
140
0.0
102
RTVSPost2010PropOp38
 70
     0
102
RTVSPost2010Prop39
140
1.0
102
RTVSPost2010PropOp39
 70
     0
102
RTVSPost2010Prop40
 90
        0
102
RTVSPost2010PropOp40
 70
     0
102
RTVSPost2010Prop41ColorIndex
 90
       18
102
RTVSPost2010Prop41ColorRGB
 90
        0
102
RTVSPost2010PropOp41
 70
     0
102
RTVSPost2010Prop42
 90
       50
102
RTVSPost2010PropOp42
 70
     0
102
RTVSPost2010Prop43
 90
        3
102
RTVSPost2010PropOp43
 70
     0
102
RTVSPost2010Prop44ColorIndex
 90
        5
102
RTVSPost2010Prop44ColorRGB
 90
      255
102
RTVSPost2010PropOp44
 70
     0
102
RTVSPost2010Prop45
280
     0
102
RTVSPost2010PropOp45
 70
     1
102
RTVSPost2010Prop46
 90
       50
102
RTVSPost2010PropOp46
 70
     0
102
RTVSPost2010Prop47
 90
       50
102
RTVSPost2010PropOp47
 70
     0
102
RTVSPost2010Prop48
 90
       50
102
RTVSPost2010PropOp48
 70
     0
102
RTVSPost2010Prop49
280
     0
102
RTVSPost2010PropOp49
 70
     1
102
RTVSPost2010Prop50
 90
       50
102
RTVSPost2010PropOp50
 70
     0
102
RTVSPost2010Prop51ColorIndex
 90
      256
102
RTVSPost2010Prop51ColorRGB
 90
-16777216
102
RTVSPost2010PropOp51
 70
     0
102
RTVSPost2010Prop52
140
1.0
102
RTVSPost2010PropOp52
 70
     0
102
RTVSPost2010Prop53
 90
        2
102
RTVSPost2010PropOp53
 70
     0
102
RTVSPost2010Prop54
  1
strokes_ogs.tif
102
RTVSPost2010PropOp54
 70
     0
102
RTVSPost2010Prop55
280
     0
102
RTVSPost2010PropOp55
 70
     1
102
RTVSPost2010Prop56
140
1.0
102
RTVSPost2010PropOp56
 70
     0
102
RTVSPost2010Prop57
140
1.0
102
RTVSPost2010PropOp57
 70
     0
102
RTVSPropertyOp0
 70
     0
102
RTVSPropertyOp1
 70
     0
102
RTVSPropertyOp2
 70
     0
102
RTVSPropertyOp3
 70
     0
102
RTVSPropertyOp4
 70
     0
102
RTVSPropertyOp5
 70
     0
102
RTVSPropertyOp6
 70
     0
102
RTVSPropertyOp7
 70
     0
102
RTVSPropertyOp8
 70
     0
102
RTVSPropertyOp9
 70
     0
102
RTVSPropertyOp10
 70
     0
102
RTVSPropertyOp11
 70
     0
102
RTVSPropertyOp12
 70
     0
102
RTVSPropertyOp13
 70
     0
102
RTVSPropertyOp14
 70
     2
102
RTVSPropertyOp15
 70
     0
102
RTVSPropertyOp16
 70
     0
102
RTVSPropertyOp17
 70
     0
102
RTVSPropertyOp18
 70
     0
102
RTVSPropertyOp19
 70
     0
102
RTVSPropertyOp20
 70
     0
102
RTVSPropertyOp21
 70
     0
102
RTVSPropertyOp22
 70
     0
102
RTVSPropertyOp23
 70
     0
102
RTVSPropertyOp24
 70
     0
102
RTVSPropertyOp25
 70
     0
102
RTVSPropertyOp26
 70
     0
102
RTVSPropertyOp27
 70
     0
102
RTVSPropertyOp28
 70
     1
102
RTVSPropertyOp29
 70
     1
102
RTVSPropertyOp30
 70
     1
102
RTVSPropertyOp31
 70
     1
102
RTVSPropertyOp32
 70
     1
102
RTVSPropertyOp33
 70
     1
102
RTVSPropertyOp34
 70
     1
102
RTVSPropertyOp35
 70
     1
102
RTVSPropertyOp36
 70
     1
102
RTVSPropertyOp37
 70
     0
102
RTVSPropertyOp38
 70
     0
102
RTVSPropertyOp39
 70
     0
102
RTVSPropertyOp40
 70
     0
102
RTVSPropertyOp41
 70
     0
102
RTVSPropertyOp42
 70
     0
102
RTVSPropertyOp43
 70
     0
102
RTVSPropertyOp44
 70
     0
102
RTVSPropertyOp45
 70
     1
102
RTVSPropertyOp46
 70
     0
102
RTVSPropertyOp47
 70
     0
102
RTVSPropertyOp48
 70
     0
102
RTVSPropertyOp49
 70
     1
102
RTVSPropertyOp50
 70
     0
102
RTVSPropertyOp51
 70
     0
102
RTVSPropertyOp52
 70
     0
102
RTVSPropertyOp53
 70
     0
102
RTVSPropertyOp54
 70
     0
102
RTVSPropertyOp55
 70
     1
102
RTVSPropertyOp56
 70
     0
102
RTVSPropertyOp57
 70
     0
102
RTVSPropertyOp58
 70
     0
102
RTVSPropertyOp59
 70
     0
102
RTVSPropertyOp60
 70
     0
102
RTVSPropertyOp61
 70
     0
102
RTVSPropertyOp62
 70
     0
  0
XRECORD
  5
598
102
{ACAD_REACTORS
330
597
102
}
330
597
100
AcDbXrecord
280
     1
102
RTVSPost2010Prop28
280
     0
102
RTVSPost2010PropOp28
 70
     1
102
RTVSPost2010Prop29
280
     1
102
RTVSPost2010PropOp29
 70
     1
102
RTVSPost2010Prop30
280
     1
102
RTVSPost2010PropOp30
 70
     1
102
RTVSPost2010Prop31
280
     0
102
RTVSPost2010PropOp31
 70
     1
102
RTVSPost2010Prop32
280
     0
102
RTVSPost2010PropOp32
 70
     1
102
RTVSPost2010Prop33
280
     0
102
RTVSPost2010PropOp33
 70
     1
102
RTVSPost2010Prop34
280
     0
102
RTVSPost2010PropOp34
 70
     1
102
RTVSPost2010Prop35
280
     0
102
RTVSPost2010PropOp35
 70
     1
102
RTVSPost2010Prop36
280
     0
102
RTVSPost2010PropOp36
 70
     1
102
RTVSPost2010Prop37
 90
       50
102
RTVSPost2010PropOp37
 70
     1
102
RTVSPost2010Prop38
140
0.0
102
RTVSPost2010PropOp38
 70
     1
102
RTVSPost2010Prop39
140
1.0
102
RTVSPost2010PropOp39
 70
     1
102
RTVSPost2010Prop40
 90
        0
102
RTVSPost2010PropOp40
 70
     1
102
RTVSPost2010Prop41ColorIndex
 90
       18
102
RTVSPost2010Prop41ColorRGB
 90
        0
102
RTVSPost2010PropOp41
 70
     1
102
RTVSPost2010Prop42
 90
       50
102
RTVSPost2010PropOp42
 70
     1
102
RTVSPost2010Prop43
 90
        3
102
RTVSPost2010PropOp43
 70
     1
102
RTVSPost2010Prop44ColorIndex
 90
        5
102
RTVSPost2010Prop44ColorRGB
 90
      255
102
RTVSPost2010PropOp44
 70
     1
102
RTVSPost2010Prop45
280
     0
102
RTVSPost2010PropOp45
 70
     1
102
RTVSPost2010Prop46
 90
       50
102
RTVSPost2010PropOp46
 70
     1
102
RTVSPost2010Prop47
 90
       50
102
RTVSPost2010PropOp47
 70
     1
102
RTVSPost2010Prop48
 90
       50
102
RTVSPost2010PropOp48
 70
     1
102
RTVSPost2010Prop49
280
     0
102
RTVSPost2010PropOp49
 70
     1
102
RTVSPost2010Prop50
 90
       50
102
RTVSPost2010PropOp50
 70
     1
102
RTVSPost2010Prop51ColorIndex
 90
      256
102
RTVSPost2010Prop51ColorRGB
 90
-16777216
102
RTVSPost2010PropOp51
 70
     0
102
RTVSPost2010Prop52
140
1.0
102
RTVSPost2010PropOp52
 70
     0
102
RTVSPost2010Prop53
 90
        2
102
RTVSPost2010PropOp53
 70
     1
102
RTVSPost2010Prop54
  1
strokes_ogs.tif
102
RTVSPost2010PropOp54
 70
     1
102
RTVSPost2010Prop55
280
     0
102
RTVSPost2010PropOp55
 70
     1
102
RTVSPost2010Prop56
140
1.0
102
RTVSPost2010PropOp56
 70
     1
102
RTVSPost2010Prop57
140
1.0
102
RTVSPost2010PropOp57
 70
     1
102
RTVSPropertyOp0
 70
     1
102
RTVSPropertyOp1
 70
     1
102
RTVSPropertyOp2
 70
     1
102
RTVSPropertyOp3
 70
     1
102
RTVSPropertyOp4
 70
     1
102
RTVSPropertyOp5
 70
     1
102
RTVSPropertyOp6
 70
     1
102
RTVSPropertyOp7
 70
     1
102
RTVSPropertyOp8
 70
     1
102
RTVSPropertyOp9
 70
     1
102
RTVSPropertyOp10
 70
     1
102
RTVSPropertyOp11
 70
     1
102
RTVSPropertyOp12
 70
     1
102
RTVSPropertyOp13
 70
     1
102
RTVSPropertyOp14
 70
     1
102
RTVSPropertyOp15
 70
     1
102
RTVSPropertyOp16
 70
     1
102
RTVSPropertyOp17
 70
     1
102
RTVSPropertyOp18
 70
     1
102
RTVSPropertyOp19
 70
     1
102
RTVSPropertyOp20
 70
     1
102
RTVSPropertyOp21
 70
     1
102
RTVSPropertyOp22
 70
     1
102
RTVSPropertyOp23
 70
     1
102
RTVSPropertyOp24
 70
     1
102
RTVSPropertyOp25
 70
     1
102
RTVSPropertyOp26
 70
     1
102
RTVSPropertyOp27
 70
     1
102
RTVSPropertyOp28
 70
     1
102
RTVSPropertyOp29
 70
     1
102
RTVSPropertyOp30
 70
     1
102
RTVSPropertyOp31
 70
     1
102
RTVSPropertyOp32
 70
     1
102
RTVSPropertyOp33
 70
     1
102
RTVSPropertyOp34
 70
     1
102
RTVSPropertyOp35
 70
     1
102
RTVSPropertyOp36
 70
     1
102
RTVSPropertyOp37
 70
     1
102
RTVSPropertyOp38
 70
     1
102
RTVSPropertyOp39
 70
     1
102
RTVSPropertyOp40
 70
     1
102
RTVSPropertyOp41
 70
     1
102
RTVSPropertyOp42
 70
     1
102
RTVSPropertyOp43
 70
     1
102
RTVSPropertyOp44
 70
     1
102
RTVSPropertyOp45
 70
     1
102
RTVSPropertyOp46
 70
     1
102
RTVSPropertyOp47
 70
     1
102
RTVSPropertyOp48
 70
     1
102
RTVSPropertyOp49
 70
     1
102
RTVSPropertyOp50
 70
     1
102
RTVSPropertyOp51
 70
     0
102
RTVSPropertyOp52
 70
     0
102
RTVSPropertyOp53
 70
     1
102
RTVSPropertyOp54
 70
     1
102
RTVSPropertyOp55
 70
     1
102
RTVSPropertyOp56
 70
     1
102
RTVSPropertyOp57
 70
     1
102
RTVSPropertyOp58
 70
     1
102
RTVSPropertyOp59
 70
     1
102
RTVSPropertyOp60
 70
     1
102
RTVSPropertyOp61
 70
     1
102
RTVSPropertyOp62
 70
     1
  0
XRECORD
  5
57C
102
{ACAD_REACTORS
330
57B
102
}
330
57B
100
AcDbXrecord
280
     1
102
RTVSPost2010Prop28
280
     0
102
RTVSPost2010PropOp28
 70
     1
102
RTVSPost2010Prop29
280
     1
102
RTVSPost2010PropOp29
 70
     1
102
RTVSPost2010Prop30
280
     1
102
RTVSPost2010PropOp30
 70
     1
102
RTVSPost2010Prop31
280
     0
102
RTVSPost2010PropOp31
 70
     1
102
RTVSPost2010Prop32
280
     0
102
RTVSPost2010PropOp32
 70
     1
102
RTVSPost2010Prop33
280
     0
102
RTVSPost2010PropOp33
 70
     1
102
RTVSPost2010Prop34
280
     0
102
RTVSPost2010PropOp34
 70
     1
102
RTVSPost2010Prop35
280
     0
102
RTVSPost2010PropOp35
 70
     1
102
RTVSPost2010Prop36
280
     0
102
RTVSPost2010PropOp36
 70
     1
102
RTVSPost2010Prop37
 90
       50
102
RTVSPost2010PropOp37
 70
     1
102
RTVSPost2010Prop38
140
0.0
102
RTVSPost2010PropOp38
 70
     1
102
RTVSPost2010Prop39
140
1.0
102
RTVSPost2010PropOp39
 70
     1
102
RTVSPost2010Prop40
 90
        0
102
RTVSPost2010PropOp40
 70
     1
102
RTVSPost2010Prop41ColorIndex
 90
       18
102
RTVSPost2010Prop41ColorRGB
 90
        0
102
RTVSPost2010PropOp41
 70
     1
102
RTVSPost2010Prop42
 90
       50
102
RTVSPost2010PropOp42
 70
     1
102
RTVSPost2010Prop43
 90
        3
102
RTVSPost2010PropOp43
 70
     1
102
RTVSPost2010Prop44ColorIndex
 90
        5
102
RTVSPost2010Prop44ColorRGB
 90
      255
102
RTVSPost2010PropOp44
 70
     1
102
RTVSPost2010Prop45
280
     0
102
RTVSPost2010PropOp45
 70
     1
102
RTVSPost2010Prop46
 90
       50
102
RTVSPost2010PropOp46
 70
     1
102
RTVSPost2010Prop47
 90
       50
102
RTVSPost2010PropOp47
 70
     1
102
RTVSPost2010Prop48
 90
       50
102
RTVSPost2010PropOp48
 70
     1
102
RTVSPost2010Prop49
280
     0
102
RTVSPost2010PropOp49
 70
     1
102
RTVSPost2010Prop50
 90
       50
102
RTVSPost2010PropOp50
 70
     1
102
RTVSPost2010Prop51ColorIndex
 90
      256
102
RTVSPost2010Prop51ColorRGB
 90
-16777216
102
RTVSPost2010PropOp51
 70
     0
102
RTVSPost2010Prop52
140
1.0
102
RTVSPost2010PropOp52
 70
     0
102
RTVSPost2010Prop53
 90
        2
102
RTVSPost2010PropOp53
 70
     1
102
RTVSPost2010Prop54
  1
strokes_ogs.tif
102
RTVSPost2010PropOp54
 70
     1
102
RTVSPost2010Prop55
280
     0
102
RTVSPost2010PropOp55
 70
     1
102
RTVSPost2010Prop56
140
1.0
102
RTVSPost2010PropOp56
 70
     1
102
RTVSPost2010Prop57
140
1.0
102
RTVSPost2010PropOp57
 70
     1
102
RTVSPropertyOp0
 70
     1
102
RTVSPropertyOp1
 70
     1
102
RTVSPropertyOp2
 70
     1
102
RTVSPropertyOp3
 70
     1
102
RTVSPropertyOp4
 70
     1
102
RTVSPropertyOp5
 70
     1
102
RTVSPropertyOp6
 70
     1
102
RTVSPropertyOp7
 70
     1
102
RTVSPropertyOp8
 70
     1
102
RTVSPropertyOp9
 70
     1
102
RTVSPropertyOp10
 70
     1
102
RTVSPropertyOp11
 70
     1
102
RTVSPropertyOp12
 70
     1
102
RTVSPropertyOp13
 70
     1
102
RTVSPropertyOp14
 70
     1
102
RTVSPropertyOp15
 70
     1
102
RTVSPropertyOp16
 70
     1
102
RTVSPropertyOp17
 70
     1
102
RTVSPropertyOp18
 70
     1
102
RTVSPropertyOp19
 70
     1
102
RTVSPropertyOp20
 70
     1
102
RTVSPropertyOp21
 70
     1
102
RTVSPropertyOp22
 70
     1
102
RTVSPropertyOp23
 70
     1
102
RTVSPropertyOp24
 70
     1
102
RTVSPropertyOp25
 70
     1
102
RTVSPropertyOp26
 70
     1
102
RTVSPropertyOp27
 70
     1
102
RTVSPropertyOp28
 70
     1
102
RTVSPropertyOp29
 70
     1
102
RTVSPropertyOp30
 70
     1
102
RTVSPropertyOp31
 70
     1
102
RTVSPropertyOp32
 70
     1
102
RTVSPropertyOp33
 70
     1
102
RTVSPropertyOp34
 70
     1
102
RTVSPropertyOp35
 70
     1
102
RTVSPropertyOp36
 70
     1
102
RTVSPropertyOp37
 70
     1
102
RTVSPropertyOp38
 70
     1
102
RTVSPropertyOp39
 70
     1
102
RTVSPropertyOp40
 70
     1
102
RTVSPropertyOp41
 70
     1
102
RTVSPropertyOp42
 70
     1
102
RTVSPropertyOp43
 70
     1
102
RTVSPropertyOp44
 70
     1
102
RTVSPropertyOp45
 70
     1
102
RTVSPropertyOp46
 70
     1
102
RTVSPropertyOp47
 70
     1
102
RTVSPropertyOp48
 70
     1
102
RTVSPropertyOp49
 70
     1
102
RTVSPropertyOp50
 70
     1
102
RTVSPropertyOp51
 70
     0
102
RTVSPropertyOp52
 70
     0
102
RTVSPropertyOp53
 70
     1
102
RTVSPropertyOp54
 70
     1
102
RTVSPropertyOp55
 70
     1
102
RTVSPropertyOp56
 70
     1
102
RTVSPropertyOp57
 70
     1
102
RTVSPropertyOp58
 70
     1
102
RTVSPropertyOp59
 70
     1
102
RTVSPropertyOp60
 70
     1
102
RTVSPropertyOp61
 70
     1
102
RTVSPropertyOp62
 70
     1
  0
XRECORD
  5
57E
102
{ACAD_REACTORS
330
57D
102
}
330
57D
100
AcDbXrecord
280
     1
102
RTVSPost2010Prop28
280
     0
102
RTVSPost2010PropOp28
 70
     1
102
RTVSPost2010Prop29
280
     1
102
RTVSPost2010PropOp29
 70
     1
102
RTVSPost2010Prop30
280
     1
102
RTVSPost2010PropOp30
 70
     1
102
RTVSPost2010Prop31
280
     0
102
RTVSPost2010PropOp31
 70
     1
102
RTVSPost2010Prop32
280
     0
102
RTVSPost2010PropOp32
 70
     1
102
RTVSPost2010Prop33
280
     0
102
RTVSPost2010PropOp33
 70
     1
102
RTVSPost2010Prop34
280
     0
102
RTVSPost2010PropOp34
 70
     1
102
RTVSPost2010Prop35
280
     0
102
RTVSPost2010PropOp35
 70
     1
102
RTVSPost2010Prop36
280
     0
102
RTVSPost2010PropOp36
 70
     1
102
RTVSPost2010Prop37
 90
       50
102
RTVSPost2010PropOp37
 70
     1
102
RTVSPost2010Prop38
140
0.0
102
RTVSPost2010PropOp38
 70
     1
102
RTVSPost2010Prop39
140
1.0
102
RTVSPost2010PropOp39
 70
     1
102
RTVSPost2010Prop40
 90
        0
102
RTVSPost2010PropOp40
 70
     1
102
RTVSPost2010Prop41ColorIndex
 90
       18
102
RTVSPost2010Prop41ColorRGB
 90
        0
102
RTVSPost2010PropOp41
 70
     1
102
RTVSPost2010Prop42
 90
       50
102
RTVSPost2010PropOp42
 70
     1
102
RTVSPost2010Prop43
 90
        3
102
RTVSPost2010PropOp43
 70
     1
102
RTVSPost2010Prop44ColorIndex
 90
        5
102
RTVSPost2010Prop44ColorRGB
 90
      255
102
RTVSPost2010PropOp44
 70
     1
102
RTVSPost2010Prop45
280
     0
102
RTVSPost2010PropOp45
 70
     1
102
RTVSPost2010Prop46
 90
       50
102
RTVSPost2010PropOp46
 70
     1
102
RTVSPost2010Prop47
 90
       50
102
RTVSPost2010PropOp47
 70
     1
102
RTVSPost2010Prop48
 90
       50
102
RTVSPost2010PropOp48
 70
     1
102
RTVSPost2010Prop49
280
     0
102
RTVSPost2010PropOp49
 70
     1
102
RTVSPost2010Prop50
 90
       50
102
RTVSPost2010PropOp50
 70
     1
102
RTVSPost2010Prop51ColorIndex
 90
      256
102
RTVSPost2010Prop51ColorRGB
 90
-16777216
102
RTVSPost2010PropOp51
 70
     0
102
RTVSPost2010Prop52
140
1.0
102
RTVSPost2010PropOp52
 70
     0
102
RTVSPost2010Prop53
 90
        2
102
RTVSPost2010PropOp53
 70
     1
102
RTVSPost2010Prop54
  1
strokes_ogs.tif
102
RTVSPost2010PropOp54
 70
     1
102
RTVSPost2010Prop55
280
     0
102
RTVSPost2010PropOp55
 70
     1
102
RTVSPost2010Prop56
140
1.0
102
RTVSPost2010PropOp56
 70
     1
102
RTVSPost2010Prop57
140
1.0
102
RTVSPost2010PropOp57
 70
     1
102
RTVSPropertyOp0
 70
     1
102
RTVSPropertyOp1
 70
     1
102
RTVSPropertyOp2
 70
     1
102
RTVSPropertyOp3
 70
     1
102
RTVSPropertyOp4
 70
     1
102
RTVSPropertyOp5
 70
     1
102
RTVSPropertyOp6
 70
     1
102
RTVSPropertyOp7
 70
     1
102
RTVSPropertyOp8
 70
     1
102
RTVSPropertyOp9
 70
     1
102
RTVSPropertyOp10
 70
     1
102
RTVSPropertyOp11
 70
     1
102
RTVSPropertyOp12
 70
     1
102
RTVSPropertyOp13
 70
     1
102
RTVSPropertyOp14
 70
     1
102
RTVSPropertyOp15
 70
     1
102
RTVSPropertyOp16
 70
     1
102
RTVSPropertyOp17
 70
     1
102
RTVSPropertyOp18
 70
     1
102
RTVSPropertyOp19
 70
     1
102
RTVSPropertyOp20
 70
     1
102
RTVSPropertyOp21
 70
     1
102
RTVSPropertyOp22
 70
     1
102
RTVSPropertyOp23
 70
     1
102
RTVSPropertyOp24
 70
     1
102
RTVSPropertyOp25
 70
     1
102
RTVSPropertyOp26
 70
     1
102
RTVSPropertyOp27
 70
     1
102
RTVSPropertyOp28
 70
     1
102
RTVSPropertyOp29
 70
     1
102
RTVSPropertyOp30
 70
     1
102
RTVSPropertyOp31
 70
     1
102
RTVSPropertyOp32
 70
     1
102
RTVSPropertyOp33
 70
     1
102
RTVSPropertyOp34
 70
     1
102
RTVSPropertyOp35
 70
     1
102
RTVSPropertyOp36
 70
     1
102
RTVSPropertyOp37
 70
     1
102
RTVSPropertyOp38
 70
     1
102
RTVSPropertyOp39
 70
     1
102
RTVSPropertyOp40
 70
     1
102
RTVSPropertyOp41
 70
     1
102
RTVSPropertyOp42
 70
     1
102
RTVSPropertyOp43
 70
     1
102
RTVSPropertyOp44
 70
     1
102
RTVSPropertyOp45
 70
     1
102
RTVSPropertyOp46
 70
     1
102
RTVSPropertyOp47
 70
     1
102
RTVSPropertyOp48
 70
     1
102
RTVSPropertyOp49
 70
     1
102
RTVSPropertyOp50
 70
     1
102
RTVSPropertyOp51
 70
     0
102
RTVSPropertyOp52
 70
     0
102
RTVSPropertyOp53
 70
     1
102
RTVSPropertyOp54
 70
     1
102
RTVSPropertyOp55
 70
     1
102
RTVSPropertyOp56
 70
     1
102
RTVSPropertyOp57
 70
     1
102
RTVSPropertyOp58
 70
     1
102
RTVSPropertyOp59
 70
     1
102
RTVSPropertyOp60
 70
     1
102
RTVSPropertyOp61
 70
     1
102
RTVSPropertyOp62
 70
     1
  0
XRECORD
  5
580
102
{ACAD_REACTORS
330
57F
102
}
330
57F
100
AcDbXrecord
280
     1
102
RTVSPost2010Prop28
280
     0
102
RTVSPost2010PropOp28
 70
     1
102
RTVSPost2010Prop29
280
     1
102
RTVSPost2010PropOp29
 70
     1
102
RTVSPost2010Prop30
280
     1
102
RTVSPost2010PropOp30
 70
     1
102
RTVSPost2010Prop31
280
     0
102
RTVSPost2010PropOp31
 70
     1
102
RTVSPost2010Prop32
280
     0
102
RTVSPost2010PropOp32
 70
     1
102
RTVSPost2010Prop33
280
     0
102
RTVSPost2010PropOp33
 70
     1
102
RTVSPost2010Prop34
280
     0
102
RTVSPost2010PropOp34
 70
     1
102
RTVSPost2010Prop35
280
     0
102
RTVSPost2010PropOp35
 70
     1
102
RTVSPost2010Prop36
280
     0
102
RTVSPost2010PropOp36
 70
     1
102
RTVSPost2010Prop37
 90
       50
102
RTVSPost2010PropOp37
 70
     1
102
RTVSPost2010Prop38
140
0.0
102
RTVSPost2010PropOp38
 70
     1
102
RTVSPost2010Prop39
140
1.0
102
RTVSPost2010PropOp39
 70
     1
102
RTVSPost2010Prop40
 90
        0
102
RTVSPost2010PropOp40
 70
     1
102
RTVSPost2010Prop41ColorIndex
 90
       18
102
RTVSPost2010Prop41ColorRGB
 90
        0
102
RTVSPost2010PropOp41
 70
     1
102
RTVSPost2010Prop42
 90
       50
102
RTVSPost2010PropOp42
 70
     1
102
RTVSPost2010Prop43
 90
        3
102
RTVSPost2010PropOp43
 70
     1
102
RTVSPost2010Prop44ColorIndex
 90
        5
102
RTVSPost2010Prop44ColorRGB
 90
      255
102
RTVSPost2010PropOp44
 70
     1
102
RTVSPost2010Prop45
280
     0
102
RTVSPost2010PropOp45
 70
     1
102
RTVSPost2010Prop46
 90
       50
102
RTVSPost2010PropOp46
 70
     1
102
RTVSPost2010Prop47
 90
       50
102
RTVSPost2010PropOp47
 70
     1
102
RTVSPost2010Prop48
 90
       50
102
RTVSPost2010PropOp48
 70
     1
102
RTVSPost2010Prop49
280
     0
102
RTVSPost2010PropOp49
 70
     1
102
RTVSPost2010Prop50
 90
       50
102
RTVSPost2010PropOp50
 70
     1
102
RTVSPost2010Prop51ColorIndex
 90
      256
102
RTVSPost2010Prop51ColorRGB
 90
-16777216
102
RTVSPost2010PropOp51
 70
     0
102
RTVSPost2010Prop52
140
1.0
102
RTVSPost2010PropOp52
 70
     0
102
RTVSPost2010Prop53
 90
        2
102
RTVSPost2010PropOp53
 70
     1
102
RTVSPost2010Prop54
  1
strokes_ogs.tif
102
RTVSPost2010PropOp54
 70
     1
102
RTVSPost2010Prop55
280
     0
102
RTVSPost2010PropOp55
 70
     1
102
RTVSPost2010Prop56
140
1.0
102
RTVSPost2010PropOp56
 70
     1
102
RTVSPost2010Prop57
140
1.0
102
RTVSPost2010PropOp57
 70
     1
102
RTVSPropertyOp0
 70
     1
102
RTVSPropertyOp1
 70
     1
102
RTVSPropertyOp2
 70
     1
102
RTVSPropertyOp3
 70
     1
102
RTVSPropertyOp4
 70
     1
102
RTVSPropertyOp5
 70
     1
102
RTVSPropertyOp6
 70
     1
102
RTVSPropertyOp7
 70
     1
102
RTVSPropertyOp8
 70
     1
102
RTVSPropertyOp9
 70
     1
102
RTVSPropertyOp10
 70
     1
102
RTVSPropertyOp11
 70
     1
102
RTVSPropertyOp12
 70
     1
102
RTVSPropertyOp13
 70
     1
102
RTVSPropertyOp14
 70
     1
102
RTVSPropertyOp15
 70
     1
102
RTVSPropertyOp16
 70
     1
102
RTVSPropertyOp17
 70
     1
102
RTVSPropertyOp18
 70
     1
102
RTVSPropertyOp19
 70
     1
102
RTVSPropertyOp20
 70
     1
102
RTVSPropertyOp21
 70
     1
102
RTVSPropertyOp22
 70
     1
102
RTVSPropertyOp23
 70
     1
102
RTVSPropertyOp24
 70
     1
102
RTVSPropertyOp25
 70
     1
102
RTVSPropertyOp26
 70
     1
102
RTVSPropertyOp27
 70
     1
102
RTVSPropertyOp28
 70
     1
102
RTVSPropertyOp29
 70
     1
102
RTVSPropertyOp30
 70
     1
102
RTVSPropertyOp31
 70
     1
102
RTVSPropertyOp32
 70
     1
102
RTVSPropertyOp33
 70
     1
102
RTVSPropertyOp34
 70
     1
102
RTVSPropertyOp35
 70
     1
102
RTVSPropertyOp36
 70
     1
102
RTVSPropertyOp37
 70
     1
102
RTVSPropertyOp38
 70
     1
102
RTVSPropertyOp39
 70
     1
102
RTVSPropertyOp40
 70
     1
102
RTVSPropertyOp41
 70
     1
102
RTVSPropertyOp42
 70
     1
102
RTVSPropertyOp43
 70
     1
102
RTVSPropertyOp44
 70
     1
102
RTVSPropertyOp45
 70
     1
102
RTVSPropertyOp46
 70
     1
102
RTVSPropertyOp47
 70
     1
102
RTVSPropertyOp48
 70
     1
102
RTVSPropertyOp49
 70
     1
102
RTVSPropertyOp50
 70
     1
102
RTVSPropertyOp51
 70
     0
102
RTVSPropertyOp52
 70
     0
102
RTVSPropertyOp53
 70
     1
102
RTVSPropertyOp54
 70
     1
102
RTVSPropertyOp55
 70
     1
102
RTVSPropertyOp56
 70
     1
102
RTVSPropertyOp57
 70
     1
102
RTVSPropertyOp58
 70
     1
102
RTVSPropertyOp59
 70
     1
102
RTVSPropertyOp60
 70
     1
102
RTVSPropertyOp61
 70
     1
102
RTVSPropertyOp62
 70
     1
  0
XRECORD
  5
582
102
{ACAD_REACTORS
330
581
102
}
330
581
100
AcDbXrecord
280
     1
102
RTVSPost2010Prop28
280
     0
102
RTVSPost2010PropOp28
 70
     1
102
RTVSPost2010Prop29
280
     1
102
RTVSPost2010PropOp29
 70
     1
102
RTVSPost2010Prop30
280
     1
102
RTVSPost2010PropOp30
 70
     1
102
RTVSPost2010Prop31
280
     0
102
RTVSPost2010PropOp31
 70
     1
102
RTVSPost2010Prop32
280
     0
102
RTVSPost2010PropOp32
 70
     1
102
RTVSPost2010Prop33
280
     0
102
RTVSPost2010PropOp33
 70
     1
102
RTVSPost2010Prop34
280
     0
102
RTVSPost2010PropOp34
 70
     1
102
RTVSPost2010Prop35
280
     0
102
RTVSPost2010PropOp35
 70
     1
102
RTVSPost2010Prop36
280
     0
102
RTVSPost2010PropOp36
 70
     1
102
RTVSPost2010Prop37
 90
       50
102
RTVSPost2010PropOp37
 70
     1
102
RTVSPost2010Prop38
140
0.0
102
RTVSPost2010PropOp38
 70
     1
102
RTVSPost2010Prop39
140
1.0
102
RTVSPost2010PropOp39
 70
     1
102
RTVSPost2010Prop40
 90
        0
102
RTVSPost2010PropOp40
 70
     1
102
RTVSPost2010Prop41ColorIndex
 90
       18
102
RTVSPost2010Prop41ColorRGB
 90
        0
102
RTVSPost2010PropOp41
 70
     1
102
RTVSPost2010Prop42
 90
       50
102
RTVSPost2010PropOp42
 70
     1
102
RTVSPost2010Prop43
 90
        3
102
RTVSPost2010PropOp43
 70
     1
102
RTVSPost2010Prop44ColorIndex
 90
        5
102
RTVSPost2010Prop44ColorRGB
 90
      255
102
RTVSPost2010PropOp44
 70
     1
102
RTVSPost2010Prop45
280
     0
102
RTVSPost2010PropOp45
 70
     1
102
RTVSPost2010Prop46
 90
       50
102
RTVSPost2010PropOp46
 70
     1
102
RTVSPost2010Prop47
 90
       50
102
RTVSPost2010PropOp47
 70
     1
102
RTVSPost2010Prop48
 90
       50
102
RTVSPost2010PropOp48
 70
     1
102
RTVSPost2010Prop49
280
     0
102
RTVSPost2010PropOp49
 70
     1
102
RTVSPost2010Prop50
 90
       50
102
RTVSPost2010PropOp50
 70
     1
102
RTVSPost2010Prop51ColorIndex
 90
      256
102
RTVSPost2010Prop51ColorRGB
 90
-16777216
102
RTVSPost2010PropOp51
 70
     0
102
RTVSPost2010Prop52
140
1.0
102
RTVSPost2010PropOp52
 70
     0
102
RTVSPost2010Prop53
 90
        2
102
RTVSPost2010PropOp53
 70
     1
102
RTVSPost2010Prop54
  1
strokes_ogs.tif
102
RTVSPost2010PropOp54
 70
     1
102
RTVSPost2010Prop55
280
     0
102
RTVSPost2010PropOp55
 70
     1
102
RTVSPost2010Prop56
140
1.0
102
RTVSPost2010PropOp56
 70
     1
102
RTVSPost2010Prop57
140
1.0
102
RTVSPost2010PropOp57
 70
     1
102
RTVSPropertyOp0
 70
     1
102
RTVSPropertyOp1
 70
     1
102
RTVSPropertyOp2
 70
     1
102
RTVSPropertyOp3
 70
     1
102
RTVSPropertyOp4
 70
     1
102
RTVSPropertyOp5
 70
     1
102
RTVSPropertyOp6
 70
     1
102
RTVSPropertyOp7
 70
     1
102
RTVSPropertyOp8
 70
     1
102
RTVSPropertyOp9
 70
     1
102
RTVSPropertyOp10
 70
     1
102
RTVSPropertyOp11
 70
     1
102
RTVSPropertyOp12
 70
     1
102
RTVSPropertyOp13
 70
     1
102
RTVSPropertyOp14
 70
     1
102
RTVSPropertyOp15
 70
     1
102
RTVSPropertyOp16
 70
     1
102
RTVSPropertyOp17
 70
     1
102
RTVSPropertyOp18
 70
     1
102
RTVSPropertyOp19
 70
     1
102
RTVSPropertyOp20
 70
     1
102
RTVSPropertyOp21
 70
     1
102
RTVSPropertyOp22
 70
     1
102
RTVSPropertyOp23
 70
     1
102
RTVSPropertyOp24
 70
     1
102
RTVSPropertyOp25
 70
     1
102
RTVSPropertyOp26
 70
     1
102
RTVSPropertyOp27
 70
     1
102
RTVSPropertyOp28
 70
     1
102
RTVSPropertyOp29
 70
     1
102
RTVSPropertyOp30
 70
     1
102
RTVSPropertyOp31
 70
     1
102
RTVSPropertyOp32
 70
     1
102
RTVSPropertyOp33
 70
     1
102
RTVSPropertyOp34
 70
     1
102
RTVSPropertyOp35
 70
     1
102
RTVSPropertyOp36
 70
     1
102
RTVSPropertyOp37
 70
     1
102
RTVSPropertyOp38
 70
     1
102
RTVSPropertyOp39
 70
     1
102
RTVSPropertyOp40
 70
     1
102
RTVSPropertyOp41
 70
     1
102
RTVSPropertyOp42
 70
     1
102
RTVSPropertyOp43
 70
     1
102
RTVSPropertyOp44
 70
     1
102
RTVSPropertyOp45
 70
     1
102
RTVSPropertyOp46
 70
     1
102
RTVSPropertyOp47
 70
     1
102
RTVSPropertyOp48
 70
     1
102
RTVSPropertyOp49
 70
     1
102
RTVSPropertyOp50
 70
     1
102
RTVSPropertyOp51
 70
     0
102
RTVSPropertyOp52
 70
     0
102
RTVSPropertyOp53
 70
     1
102
RTVSPropertyOp54
 70
     1
102
RTVSPropertyOp55
 70
     1
102
RTVSPropertyOp56
 70
     1
102
RTVSPropertyOp57
 70
     1
102
RTVSPropertyOp58
 70
     1
102
RTVSPropertyOp59
 70
     1
102
RTVSPropertyOp60
 70
     1
102
RTVSPropertyOp61
 70
     1
102
RTVSPropertyOp62
 70
     1
  0
XRECORD
  5
58A
102
{ACAD_REACTORS
330
589
102
}
330
589
100
AcDbXrecord
280
     1
102
RTVSPost2010Prop28
280
     0
102
RTVSPost2010PropOp28
 70
     1
102
RTVSPost2010Prop29
280
     1
102
RTVSPost2010PropOp29
 70
     1
102
RTVSPost2010Prop30
280
     1
102
RTVSPost2010PropOp30
 70
     1
102
RTVSPost2010Prop31
280
     0
102
RTVSPost2010PropOp31
 70
     1
102
RTVSPost2010Prop32
280
     0
102
RTVSPost2010PropOp32
 70
     1
102
RTVSPost2010Prop33
280
     0
102
RTVSPost2010PropOp33
 70
     1
102
RTVSPost2010Prop34
280
     0
102
RTVSPost2010PropOp34
 70
     1
102
RTVSPost2010Prop35
280
     0
102
RTVSPost2010PropOp35
 70
     1
102
RTVSPost2010Prop36
280
     0
102
RTVSPost2010PropOp36
 70
     1
102
RTVSPost2010Prop37
 90
       50
102
RTVSPost2010PropOp37
 70
     1
102
RTVSPost2010Prop38
140
0.0
102
RTVSPost2010PropOp38
 70
     1
102
RTVSPost2010Prop39
140
1.0
102
RTVSPost2010PropOp39
 70
     1
102
RTVSPost2010Prop40
 90
        0
102
RTVSPost2010PropOp40
 70
     1
102
RTVSPost2010Prop41ColorIndex
 90
       18
102
RTVSPost2010Prop41ColorRGB
 90
        0
102
RTVSPost2010PropOp41
 70
     1
102
RTVSPost2010Prop42
 90
       50
102
RTVSPost2010PropOp42
 70
     1
102
RTVSPost2010Prop43
 90
        3
102
RTVSPost2010PropOp43
 70
     1
102
RTVSPost2010Prop44ColorIndex
 90
        5
102
RTVSPost2010Prop44ColorRGB
 90
      255
102
RTVSPost2010PropOp44
 70
     1
102
RTVSPost2010Prop45
280
     0
102
RTVSPost2010PropOp45
 70
     1
102
RTVSPost2010Prop46
 90
       50
102
RTVSPost2010PropOp46
 70
     1
102
RTVSPost2010Prop47
 90
       50
102
RTVSPost2010PropOp47
 70
     1
102
RTVSPost2010Prop48
 90
       50
102
RTVSPost2010PropOp48
 70
     1
102
RTVSPost2010Prop49
280
     0
102
RTVSPost2010PropOp49
 70
     1
102
RTVSPost2010Prop50
 90
       50
102
RTVSPost2010PropOp50
 70
     1
102
RTVSPost2010Prop51ColorIndex
 90
      256
102
RTVSPost2010Prop51ColorRGB
 90
-16777216
102
RTVSPost2010PropOp51
 70
     0
102
RTVSPost2010Prop52
140
1.0
102
RTVSPost2010PropOp52
 70
     0
102
RTVSPost2010Prop53
 90
        2
102
RTVSPost2010PropOp53
 70
     1
102
RTVSPost2010Prop54
  1
strokes_ogs.tif
102
RTVSPost2010PropOp54
 70
     1
102
RTVSPost2010Prop55
280
     0
102
RTVSPost2010PropOp55
 70
     1
102
RTVSPost2010Prop56
140
1.0
102
RTVSPost2010PropOp56
 70
     1
102
RTVSPost2010Prop57
140
1.0
102
RTVSPost2010PropOp57
 70
     1
102
RTVSPropertyOp0
 70
     1
102
RTVSPropertyOp1
 70
     1
102
RTVSPropertyOp2
 70
     1
102
RTVSPropertyOp3
 70
     1
102
RTVSPropertyOp4
 70
     1
102
RTVSPropertyOp5
 70
     1
102
RTVSPropertyOp6
 70
     1
102
RTVSPropertyOp7
 70
     1
102
RTVSPropertyOp8
 70
     1
102
RTVSPropertyOp9
 70
     1
102
RTVSPropertyOp10
 70
     1
102
RTVSPropertyOp11
 70
     1
102
RTVSPropertyOp12
 70
     1
102
RTVSPropertyOp13
 70
     1
102
RTVSPropertyOp14
 70
     1
102
RTVSPropertyOp15
 70
     1
102
RTVSPropertyOp16
 70
     1
102
RTVSPropertyOp17
 70
     1
102
RTVSPropertyOp18
 70
     1
102
RTVSPropertyOp19
 70
     1
102
RTVSPropertyOp20
 70
     1
102
RTVSPropertyOp21
 70
     1
102
RTVSPropertyOp22
 70
     1
102
RTVSPropertyOp23
 70
     1
102
RTVSPropertyOp24
 70
     1
102
RTVSPropertyOp25
 70
     1
102
RTVSPropertyOp26
 70
     1
102
RTVSPropertyOp27
 70
     1
102
RTVSPropertyOp28
 70
     1
102
RTVSPropertyOp29
 70
     1
102
RTVSPropertyOp30
 70
     1
102
RTVSPropertyOp31
 70
     1
102
RTVSPropertyOp32
 70
     1
102
RTVSPropertyOp33
 70
     1
102
RTVSPropertyOp34
 70
     1
102
RTVSPropertyOp35
 70
     1
102
RTVSPropertyOp36
 70
     1
102
RTVSPropertyOp37
 70
     1
102
RTVSPropertyOp38
 70
     1
102
RTVSPropertyOp39
 70
     1
102
RTVSPropertyOp40
 70
     1
102
RTVSPropertyOp41
 70
     1
102
RTVSPropertyOp42
 70
     1
102
RTVSPropertyOp43
 70
     1
102
RTVSPropertyOp44
 70
     1
102
RTVSPropertyOp45
 70
     1
102
RTVSPropertyOp46
 70
     1
102
RTVSPropertyOp47
 70
     1
102
RTVSPropertyOp48
 70
     1
102
RTVSPropertyOp49
 70
     1
102
RTVSPropertyOp50
 70
     1
102
RTVSPropertyOp51
 70
     0
102
RTVSPropertyOp52
 70
     0
102
RTVSPropertyOp53
 70
     1
102
RTVSPropertyOp54
 70
     1
102
RTVSPropertyOp55
 70
     1
102
RTVSPropertyOp56
 70
     1
102
RTVSPropertyOp57
 70
     1
102
RTVSPropertyOp58
 70
     1
102
RTVSPropertyOp59
 70
     1
102
RTVSPropertyOp60
 70
     1
102
RTVSPropertyOp61
 70
     1
102
RTVSPropertyOp62
 70
     1
  0
XRECORD
  5
5A6
102
{ACAD_REACTORS
330
5A5
102
}
330
5A5
100
AcDbXrecord
280
     1
102
RTVSPost2010Prop28
280
     0
102
RTVSPost2010PropOp28
 70
     1
102
RTVSPost2010Prop29
280
     1
102
RTVSPost2010PropOp29
 70
     1
102
RTVSPost2010Prop30
280
     1
102
RTVSPost2010PropOp30
 70
     1
102
RTVSPost2010Prop31
280
     0
102
RTVSPost2010PropOp31
 70
     1
102
RTVSPost2010Prop32
280
     0
102
RTVSPost2010PropOp32
 70
     1
102
RTVSPost2010Prop33
280
     0
102
RTVSPost2010PropOp33
 70
     1
102
RTVSPost2010Prop34
280
     0
102
RTVSPost2010PropOp34
 70
     1
102
RTVSPost2010Prop35
280
     0
102
RTVSPost2010PropOp35
 70
     1
102
RTVSPost2010Prop36
280
     0
102
RTVSPost2010PropOp36
 70
     1
102
RTVSPost2010Prop37
 90
       50
102
RTVSPost2010PropOp37
 70
     0
102
RTVSPost2010Prop38
140
0.0
102
RTVSPost2010PropOp38
 70
     0
102
RTVSPost2010Prop39
140
1.0
102
RTVSPost2010PropOp39
 70
     0
102
RTVSPost2010Prop40
 90
        0
102
RTVSPost2010PropOp40
 70
     0
102
RTVSPost2010Prop41ColorIndex
 90
       18
102
RTVSPost2010Prop41ColorRGB
 90
        0
102
RTVSPost2010PropOp41
 70
     0
102
RTVSPost2010Prop42
 90
       50
102
RTVSPost2010PropOp42
 70
     0
102
RTVSPost2010Prop43
 90
        3
102
RTVSPost2010PropOp43
 70
     0
102
RTVSPost2010Prop44ColorIndex
 90
        5
102
RTVSPost2010Prop44ColorRGB
 90
      255
102
RTVSPost2010PropOp44
 70
     0
102
RTVSPost2010Prop45
280
     0
102
RTVSPost2010PropOp45
 70
     1
102
RTVSPost2010Prop46
 90
       50
102
RTVSPost2010PropOp46
 70
     0
102
RTVSPost2010Prop47
 90
       50
102
RTVSPost2010PropOp47
 70
     0
102
RTVSPost2010Prop48
 90
       50
102
RTVSPost2010PropOp48
 70
     0
102
RTVSPost2010Prop49
280
     0
102
RTVSPost2010PropOp49
 70
     1
102
RTVSPost2010Prop50
 90
       50
102
RTVSPost2010PropOp50
 70
     0
102
RTVSPost2010Prop51ColorIndex
 90
      256
102
RTVSPost2010Prop51ColorRGB
 90
-16777216
102
RTVSPost2010PropOp51
 70
     0
102
RTVSPost2010Prop52
140
1.0
102
RTVSPost2010PropOp52
 70
     0
102
RTVSPost2010Prop53
 90
        2
102
RTVSPost2010PropOp53
 70
     0
102
RTVSPost2010Prop54
  1
strokes_ogs.tif
102
RTVSPost2010PropOp54
 70
     0
102
RTVSPost2010Prop55
280
     0
102
RTVSPost2010PropOp55
 70
     1
102
RTVSPost2010Prop56
140
1.0
102
RTVSPost2010PropOp56
 70
     0
102
RTVSPost2010Prop57
140
1.0
102
RTVSPost2010PropOp57
 70
     0
102
RTVSPropertyOp0
 70
     0
102
RTVSPropertyOp1
 70
     0
102
RTVSPropertyOp2
 70
     0
102
RTVSPropertyOp3
 70
     0
102
RTVSPropertyOp4
 70
     0
102
RTVSPropertyOp5
 70
     0
102
RTVSPropertyOp6
 70
     0
102
RTVSPropertyOp7
 70
     0
102
RTVSPropertyOp8
 70
     0
102
RTVSPropertyOp9
 70
     0
102
RTVSPropertyOp10
 70
     0
102
RTVSPropertyOp11
 70
     0
102
RTVSPropertyOp12
 70
     0
102
RTVSPropertyOp13
 70
     0
102
RTVSPropertyOp14
 70
     2
102
RTVSPropertyOp15
 70
     0
102
RTVSPropertyOp16
 70
     0
102
RTVSPropertyOp17
 70
     0
102
RTVSPropertyOp18
 70
     0
102
RTVSPropertyOp19
 70
     0
102
RTVSPropertyOp20
 70
     0
102
RTVSPropertyOp21
 70
     0
102
RTVSPropertyOp22
 70
     0
102
RTVSPropertyOp23
 70
     0
102
RTVSPropertyOp24
 70
     0
102
RTVSPropertyOp25
 70
     0
102
RTVSPropertyOp26
 70
     0
102
RTVSPropertyOp27
 70
     0
102
RTVSPropertyOp28
 70
     1
102
RTVSPropertyOp29
 70
     1
102
RTVSPropertyOp30
 70
     1
102
RTVSPropertyOp31
 70
     1
102
RTVSPropertyOp32
 70
     1
102
RTVSPropertyOp33
 70
     1
102
RTVSPropertyOp34
 70
     1
102
RTVSPropertyOp35
 70
     1
102
RTVSPropertyOp36
 70
     1
102
RTVSPropertyOp37
 70
     0
102
RTVSPropertyOp38
 70
     0
102
RTVSPropertyOp39
 70
     0
102
RTVSPropertyOp40
 70
     0
102
RTVSPropertyOp41
 70
     0
102
RTVSPropertyOp42
 70
     0
102
RTVSPropertyOp43
 70
     0
102
RTVSPropertyOp44
 70
     0
102
RTVSPropertyOp45
 70
     1
102
RTVSPropertyOp46
 70
     0
102
RTVSPropertyOp47
 70
     0
102
RTVSPropertyOp48
 70
     0
102
RTVSPropertyOp49
 70
     1
102
RTVSPropertyOp50
 70
     0
102
RTVSPropertyOp51
 70
     0
102
RTVSPropertyOp52
 70
     0
102
RTVSPropertyOp53
 70
     0
102
RTVSPropertyOp54
 70
     0
102
RTVSPropertyOp55
 70
     1
102
RTVSPropertyOp56
 70
     0
102
RTVSPropertyOp57
 70
     0
102
RTVSPropertyOp58
 70
     0
102
RTVSPropertyOp59
 70
     0
102
RTVSPropertyOp60
 70
     0
102
RTVSPropertyOp61
 70
     0
102
RTVSPropertyOp62
 70
     0
  0
XRECORD
  5
596
102
{ACAD_REACTORS
330
595
102
}
330
595
100
AcDbXrecord
280
     1
102
RTVSPost2010Prop28
280
     0
102
RTVSPost2010PropOp28
 70
     1
102
RTVSPost2010Prop29
280
     1
102
RTVSPost2010PropOp29
 70
     1
102
RTVSPost2010Prop30
280
     1
102
RTVSPost2010PropOp30
 70
     1
102
RTVSPost2010Prop31
280
     0
102
RTVSPost2010PropOp31
 70
     1
102
RTVSPost2010Prop32
280
     0
102
RTVSPost2010PropOp32
 70
     1
102
RTVSPost2010Prop33
280
     0
102
RTVSPost2010PropOp33
 70
     1
102
RTVSPost2010Prop34
280
     0
102
RTVSPost2010PropOp34
 70
     1
102
RTVSPost2010Prop35
280
     0
102
RTVSPost2010PropOp35
 70
     1
102
RTVSPost2010Prop36
280
     0
102
RTVSPost2010PropOp36
 70
     1
102
RTVSPost2010Prop37
 90
       50
102
RTVSPost2010PropOp37
 70
     1
102
RTVSPost2010Prop38
140
0.0
102
RTVSPost2010PropOp38
 70
     1
102
RTVSPost2010Prop39
140
1.0
102
RTVSPost2010PropOp39
 70
     1
102
RTVSPost2010Prop40
 90
        0
102
RTVSPost2010PropOp40
 70
     1
102
RTVSPost2010Prop41ColorIndex
 90
       18
102
RTVSPost2010Prop41ColorRGB
 90
        0
102
RTVSPost2010PropOp41
 70
     1
102
RTVSPost2010Prop42
 90
       50
102
RTVSPost2010PropOp42
 70
     1
102
RTVSPost2010Prop43
 90
        3
102
RTVSPost2010PropOp43
 70
     1
102
RTVSPost2010Prop44ColorIndex
 90
        5
102
RTVSPost2010Prop44ColorRGB
 90
      255
102
RTVSPost2010PropOp44
 70
     1
102
RTVSPost2010Prop45
280
     0
102
RTVSPost2010PropOp45
 70
     1
102
RTVSPost2010Prop46
 90
       50
102
RTVSPost2010PropOp46
 70
     1
102
RTVSPost2010Prop47
 90
       50
102
RTVSPost2010PropOp47
 70
     1
102
RTVSPost2010Prop48
 90
       50
102
RTVSPost2010PropOp48
 70
     1
102
RTVSPost2010Prop49
280
     0
102
RTVSPost2010PropOp49
 70
     1
102
RTVSPost2010Prop50
 90
       50
102
RTVSPost2010PropOp50
 70
     1
102
RTVSPost2010Prop51ColorIndex
 90
      256
102
RTVSPost2010Prop51ColorRGB
 90
-16777216
102
RTVSPost2010PropOp51
 70
     0
102
RTVSPost2010Prop52
140
1.0
102
RTVSPost2010PropOp52
 70
     0
102
RTVSPost2010Prop53
 90
        2
102
RTVSPost2010PropOp53
 70
     1
102
RTVSPost2010Prop54
  1
strokes_ogs.tif
102
RTVSPost2010PropOp54
 70
     1
102
RTVSPost2010Prop55
280
     0
102
RTVSPost2010PropOp55
 70
     1
102
RTVSPost2010Prop56
140
1.0
102
RTVSPost2010PropOp56
 70
     1
102
RTVSPost2010Prop57
140
1.0
102
RTVSPost2010PropOp57
 70
     1
102
RTVSPropertyOp0
 70
     1
102
RTVSPropertyOp1
 70
     1
102
RTVSPropertyOp2
 70
     1
102
RTVSPropertyOp3
 70
     1
102
RTVSPropertyOp4
 70
     1
102
RTVSPropertyOp5
 70
     1
102
RTVSPropertyOp6
 70
     1
102
RTVSPropertyOp7
 70
     1
102
RTVSPropertyOp8
 70
     1
102
RTVSPropertyOp9
 70
     1
102
RTVSPropertyOp10
 70
     1
102
RTVSPropertyOp11
 70
     1
102
RTVSPropertyOp12
 70
     1
102
RTVSPropertyOp13
 70
     1
102
RTVSPropertyOp14
 70
     1
102
RTVSPropertyOp15
 70
     1
102
RTVSPropertyOp16
 70
     1
102
RTVSPropertyOp17
 70
     1
102
RTVSPropertyOp18
 70
     1
102
RTVSPropertyOp19
 70
     1
102
RTVSPropertyOp20
 70
     1
102
RTVSPropertyOp21
 70
     1
102
RTVSPropertyOp22
 70
     1
102
RTVSPropertyOp23
 70
     1
102
RTVSPropertyOp24
 70
     1
102
RTVSPropertyOp25
 70
     1
102
RTVSPropertyOp26
 70
     1
102
RTVSPropertyOp27
 70
     1
102
RTVSPropertyOp28
 70
     1
102
RTVSPropertyOp29
 70
     1
102
RTVSPropertyOp30
 70
     1
102
RTVSPropertyOp31
 70
     1
102
RTVSPropertyOp32
 70
     1
102
RTVSPropertyOp33
 70
     1
102
RTVSPropertyOp34
 70
     1
102
RTVSPropertyOp35
 70
     1
102
RTVSPropertyOp36
 70
     1
102
RTVSPropertyOp37
 70
     1
102
RTVSPropertyOp38
 70
     1
102
RTVSPropertyOp39
 70
     1
102
RTVSPropertyOp40
 70
     1
102
RTVSPropertyOp41
 70
     1
102
RTVSPropertyOp42
 70
     1
102
RTVSPropertyOp43
 70
     1
102
RTVSPropertyOp44
 70
     1
102
RTVSPropertyOp45
 70
     1
102
RTVSPropertyOp46
 70
     1
102
RTVSPropertyOp47
 70
     1
102
RTVSPropertyOp48
 70
     1
102
RTVSPropertyOp49
 70
     1
102
RTVSPropertyOp50
 70
     1
102
RTVSPropertyOp51
 70
     0
102
RTVSPropertyOp52
 70
     0
102
RTVSPropertyOp53
 70
     1
102
RTVSPropertyOp54
 70
     1
102
RTVSPropertyOp55
 70
     1
102
RTVSPropertyOp56
 70
     1
102
RTVSPropertyOp57
 70
     1
102
RTVSPropertyOp58
 70
     1
102
RTVSPropertyOp59
 70
     1
102
RTVSPropertyOp60
 70
     1
102
RTVSPropertyOp61
 70
     1
102
RTVSPropertyOp62
 70
     1
  0
XRECORD
  5
5A8
102
{ACAD_REACTORS
330
5A7
102
}
330
5A7
100
AcDbXrecord
280
     1
102
RTVSPost2010Prop28
280
     0
102
RTVSPost2010PropOp28
 70
     1
102
RTVSPost2010Prop29
280
     1
102
RTVSPost2010PropOp29
 70
     1
102
RTVSPost2010Prop30
280
     1
102
RTVSPost2010PropOp30
 70
     1
102
RTVSPost2010Prop31
280
     0
102
RTVSPost2010PropOp31
 70
     1
102
RTVSPost2010Prop32
280
     0
102
RTVSPost2010PropOp32
 70
     1
102
RTVSPost2010Prop33
280
     0
102
RTVSPost2010PropOp33
 70
     1
102
RTVSPost2010Prop34
280
     0
102
RTVSPost2010PropOp34
 70
     1
102
RTVSPost2010Prop35
280
     0
102
RTVSPost2010PropOp35
 70
     1
102
RTVSPost2010Prop36
280
     0
102
RTVSPost2010PropOp36
 70
     1
102
RTVSPost2010Prop37
 90
       50
102
RTVSPost2010PropOp37
 70
     0
102
RTVSPost2010Prop38
140
0.0
102
RTVSPost2010PropOp38
 70
     0
102
RTVSPost2010Prop39
140
1.0
102
RTVSPost2010PropOp39
 70
     0
102
RTVSPost2010Prop40
 90
        0
102
RTVSPost2010PropOp40
 70
     0
102
RTVSPost2010Prop41ColorIndex
 90
       18
102
RTVSPost2010Prop41ColorRGB
 90
        0
102
RTVSPost2010PropOp41
 70
     0
102
RTVSPost2010Prop42
 90
       50
102
RTVSPost2010PropOp42
 70
     0
102
RTVSPost2010Prop43
 90
        3
102
RTVSPost2010PropOp43
 70
     0
102
RTVSPost2010Prop44ColorIndex
 90
        5
102
RTVSPost2010Prop44ColorRGB
 90
      255
102
RTVSPost2010PropOp44
 70
     0
102
RTVSPost2010Prop45
280
     0
102
RTVSPost2010PropOp45
 70
     1
102
RTVSPost2010Prop46
 90
       50
102
RTVSPost2010PropOp46
 70
     0
102
RTVSPost2010Prop47
 90
       50
102
RTVSPost2010PropOp47
 70
     0
102
RTVSPost2010Prop48
 90
       50
102
RTVSPost2010PropOp48
 70
     0
102
RTVSPost2010Prop49
280
     0
102
RTVSPost2010PropOp49
 70
     1
102
RTVSPost2010Prop50
 90
       50
102
RTVSPost2010PropOp50
 70
     0
102
RTVSPost2010Prop51ColorIndex
 90
      256
102
RTVSPost2010Prop51ColorRGB
 90
-16777216
102
RTVSPost2010PropOp51
 70
     0
102
RTVSPost2010Prop52
140
1.0
102
RTVSPost2010PropOp52
 70
     0
102
RTVSPost2010Prop53
 90
        2
102
RTVSPost2010PropOp53
 70
     0
102
RTVSPost2010Prop54
  1
strokes_ogs.tif
102
RTVSPost2010PropOp54
 70
     0
102
RTVSPost2010Prop55
280
     0
102
RTVSPost2010PropOp55
 70
     1
102
RTVSPost2010Prop56
140
1.0
102
RTVSPost2010PropOp56
 70
     0
102
RTVSPost2010Prop57
140
1.0
102
RTVSPost2010PropOp57
 70
     0
102
RTVSPropertyOp0
 70
     0
102
RTVSPropertyOp1
 70
     0
102
RTVSPropertyOp2
 70
     0
102
RTVSPropertyOp3
 70
     0
102
RTVSPropertyOp4
 70
     0
102
RTVSPropertyOp5
 70
     0
102
RTVSPropertyOp6
 70
     0
102
RTVSPropertyOp7
 70
     0
102
RTVSPropertyOp8
 70
     0
102
RTVSPropertyOp9
 70
     0
102
RTVSPropertyOp10
 70
     0
102
RTVSPropertyOp11
 70
     0
102
RTVSPropertyOp12
 70
     0
102
RTVSPropertyOp13
 70
     0
102
RTVSPropertyOp14
 70
     2
102
RTVSPropertyOp15
 70
     0
102
RTVSPropertyOp16
 70
     0
102
RTVSPropertyOp17
 70
     0
102
RTVSPropertyOp18
 70
     0
102
RTVSPropertyOp19
 70
     0
102
RTVSPropertyOp20
 70
     0
102
RTVSPropertyOp21
 70
     0
102
RTVSPropertyOp22
 70
     0
102
RTVSPropertyOp23
 70
     0
102
RTVSPropertyOp24
 70
     0
102
RTVSPropertyOp25
 70
     0
102
RTVSPropertyOp26
 70
     0
102
RTVSPropertyOp27
 70
     0
102
RTVSPropertyOp28
 70
     1
102
RTVSPropertyOp29
 70
     1
102
RTVSPropertyOp30
 70
     1
102
RTVSPropertyOp31
 70
     1
102
RTVSPropertyOp32
 70
     1
102
RTVSPropertyOp33
 70
     1
102
RTVSPropertyOp34
 70
     1
102
RTVSPropertyOp35
 70
     1
102
RTVSPropertyOp36
 70
     1
102
RTVSPropertyOp37
 70
     0
102
RTVSPropertyOp38
 70
     0
102
RTVSPropertyOp39
 70
     0
102
RTVSPropertyOp40
 70
     0
102
RTVSPropertyOp41
 70
     0
102
RTVSPropertyOp42
 70
     0
102
RTVSPropertyOp43
 70
     0
102
RTVSPropertyOp44
 70
     0
102
RTVSPropertyOp45
 70
     1
102
RTVSPropertyOp46
 70
     0
102
RTVSPropertyOp47
 70
     0
102
RTVSPropertyOp48
 70
     0
102
RTVSPropertyOp49
 70
     1
102
RTVSPropertyOp50
 70
     0
102
RTVSPropertyOp51
 70
     0
102
RTVSPropertyOp52
 70
     0
102
RTVSPropertyOp53
 70
     0
102
RTVSPropertyOp54
 70
     0
102
RTVSPropertyOp55
 70
     1
102
RTVSPropertyOp56
 70
     0
102
RTVSPropertyOp57
 70
     0
102
RTVSPropertyOp58
 70
     0
102
RTVSPropertyOp59
 70
     0
102
RTVSPropertyOp60
 70
     0
102
RTVSPropertyOp61
 70
     0
102
RTVSPropertyOp62
 70
     0
  0
XRECORD
  5
58E
102
{ACAD_REACTORS
330
58D
102
}
330
58D
100
AcDbXrecord
280
     1
102
RTVSPost2010Prop28
280
     0
102
RTVSPost2010PropOp28
 70
     1
102
RTVSPost2010Prop29
280
     1
102
RTVSPost2010PropOp29
 70
     1
102
RTVSPost2010Prop30
280
     1
102
RTVSPost2010PropOp30
 70
     1
102
RTVSPost2010Prop31
280
     0
102
RTVSPost2010PropOp31
 70
     1
102
RTVSPost2010Prop32
280
     0
102
RTVSPost2010PropOp32
 70
     1
102
RTVSPost2010Prop33
280
     0
102
RTVSPost2010PropOp33
 70
     1
102
RTVSPost2010Prop34
280
     0
102
RTVSPost2010PropOp34
 70
     1
102
RTVSPost2010Prop35
280
     0
102
RTVSPost2010PropOp35
 70
     1
102
RTVSPost2010Prop36
280
     0
102
RTVSPost2010PropOp36
 70
     1
102
RTVSPost2010Prop37
 90
       50
102
RTVSPost2010PropOp37
 70
     1
102
RTVSPost2010Prop38
140
0.0
102
RTVSPost2010PropOp38
 70
     1
102
RTVSPost2010Prop39
140
1.0
102
RTVSPost2010PropOp39
 70
     1
102
RTVSPost2010Prop40
 90
        0
102
RTVSPost2010PropOp40
 70
     1
102
RTVSPost2010Prop41ColorIndex
 90
       18
102
RTVSPost2010Prop41ColorRGB
 90
        0
102
RTVSPost2010PropOp41
 70
     1
102
RTVSPost2010Prop42
 90
       50
102
RTVSPost2010PropOp42
 70
     1
102
RTVSPost2010Prop43
 90
        3
102
RTVSPost2010PropOp43
 70
     1
102
RTVSPost2010Prop44ColorIndex
 90
        5
102
RTVSPost2010Prop44ColorRGB
 90
      255
102
RTVSPost2010PropOp44
 70
     1
102
RTVSPost2010Prop45
280
     0
102
RTVSPost2010PropOp45
 70
     1
102
RTVSPost2010Prop46
 90
       50
102
RTVSPost2010PropOp46
 70
     1
102
RTVSPost2010Prop47
 90
       50
102
RTVSPost2010PropOp47
 70
     1
102
RTVSPost2010Prop48
 90
       50
102
RTVSPost2010PropOp48
 70
     1
102
RTVSPost2010Prop49
280
     0
102
RTVSPost2010PropOp49
 70
     1
102
RTVSPost2010Prop50
 90
       50
102
RTVSPost2010PropOp50
 70
     1
102
RTVSPost2010Prop51ColorIndex
 90
      256
102
RTVSPost2010Prop51ColorRGB
 90
-16777216
102
RTVSPost2010PropOp51
 70
     0
102
RTVSPost2010Prop52
140
1.0
102
RTVSPost2010PropOp52
 70
     0
102
RTVSPost2010Prop53
 90
        2
102
RTVSPost2010PropOp53
 70
     1
102
RTVSPost2010Prop54
  1
strokes_ogs.tif
102
RTVSPost2010PropOp54
 70
     1
102
RTVSPost2010Prop55
280
     0
102
RTVSPost2010PropOp55
 70
     1
102
RTVSPost2010Prop56
140
1.0
102
RTVSPost2010PropOp56
 70
     1
102
RTVSPost2010Prop57
140
1.0
102
RTVSPost2010PropOp57
 70
     1
102
RTVSPropertyOp0
 70
     1
102
RTVSPropertyOp1
 70
     1
102
RTVSPropertyOp2
 70
     1
102
RTVSPropertyOp3
 70
     1
102
RTVSPropertyOp4
 70
     1
102
RTVSPropertyOp5
 70
     1
102
RTVSPropertyOp6
 70
     1
102
RTVSPropertyOp7
 70
     1
102
RTVSPropertyOp8
 70
     1
102
RTVSPropertyOp9
 70
     1
102
RTVSPropertyOp10
 70
     1
102
RTVSPropertyOp11
 70
     1
102
RTVSPropertyOp12
 70
     1
102
RTVSPropertyOp13
 70
     1
102
RTVSPropertyOp14
 70
     1
102
RTVSPropertyOp15
 70
     1
102
RTVSPropertyOp16
 70
     1
102
RTVSPropertyOp17
 70
     1
102
RTVSPropertyOp18
 70
     1
102
RTVSPropertyOp19
 70
     1
102
RTVSPropertyOp20
 70
     1
102
RTVSPropertyOp21
 70
     1
102
RTVSPropertyOp22
 70
     1
102
RTVSPropertyOp23
 70
     1
102
RTVSPropertyOp24
 70
     1
102
RTVSPropertyOp25
 70
     1
102
RTVSPropertyOp26
 70
     1
102
RTVSPropertyOp27
 70
     1
102
RTVSPropertyOp28
 70
     1
102
RTVSPropertyOp29
 70
     1
102
RTVSPropertyOp30
 70
     1
102
RTVSPropertyOp31
 70
     1
102
RTVSPropertyOp32
 70
     1
102
RTVSPropertyOp33
 70
     1
102
RTVSPropertyOp34
 70
     1
102
RTVSPropertyOp35
 70
     1
102
RTVSPropertyOp36
 70
     1
102
RTVSPropertyOp37
 70
     1
102
RTVSPropertyOp38
 70
     1
102
RTVSPropertyOp39
 70
     1
102
RTVSPropertyOp40
 70
     1
102
RTVSPropertyOp41
 70
     1
102
RTVSPropertyOp42
 70
     1
102
RTVSPropertyOp43
 70
     1
102
RTVSPropertyOp44
 70
     1
102
RTVSPropertyOp45
 70
     1
102
RTVSPropertyOp46
 70
     1
102
RTVSPropertyOp47
 70
     1
102
RTVSPropertyOp48
 70
     1
102
RTVSPropertyOp49
 70
     1
102
RTVSPropertyOp50
 70
     1
102
RTVSPropertyOp51
 70
     0
102
RTVSPropertyOp52
 70
     0
102
RTVSPropertyOp53
 70
     1
102
RTVSPropertyOp54
 70
     1
102
RTVSPropertyOp55
 70
     1
102
RTVSPropertyOp56
 70
     1
102
RTVSPropertyOp57
 70
     1
102
RTVSPropertyOp58
 70
     1
102
RTVSPropertyOp59
 70
     1
102
RTVSPropertyOp60
 70
     1
102
RTVSPropertyOp61
 70
     1
102
RTVSPropertyOp62
 70
     1
  0
XRECORD
  5
5A4
102
{ACAD_REACTORS
330
5A3
102
}
330
5A3
100
AcDbXrecord
280
     1
102
RTVSPost2010Prop28
280
     0
102
RTVSPost2010PropOp28
 70
     1
102
RTVSPost2010Prop29
280
     1
102
RTVSPost2010PropOp29
 70
     1
102
RTVSPost2010Prop30
280
     1
102
RTVSPost2010PropOp30
 70
     1
102
RTVSPost2010Prop31
280
     0
102
RTVSPost2010PropOp31
 70
     1
102
RTVSPost2010Prop32
280
     0
102
RTVSPost2010PropOp32
 70
     1
102
RTVSPost2010Prop33
280
     0
102
RTVSPost2010PropOp33
 70
     1
102
RTVSPost2010Prop34
280
     0
102
RTVSPost2010PropOp34
 70
     1
102
RTVSPost2010Prop35
280
     0
102
RTVSPost2010PropOp35
 70
     1
102
RTVSPost2010Prop36
280
     0
102
RTVSPost2010PropOp36
 70
     1
102
RTVSPost2010Prop37
 90
       50
102
RTVSPost2010PropOp37
 70
     1
102
RTVSPost2010Prop38
140
0.0
102
RTVSPost2010PropOp38
 70
     1
102
RTVSPost2010Prop39
140
1.0
102
RTVSPost2010PropOp39
 70
     1
102
RTVSPost2010Prop40
 90
        0
102
RTVSPost2010PropOp40
 70
     1
102
RTVSPost2010Prop41ColorIndex
 90
       18
102
RTVSPost2010Prop41ColorRGB
 90
        0
102
RTVSPost2010PropOp41
 70
     1
102
RTVSPost2010Prop42
 90
       50
102
RTVSPost2010PropOp42
 70
     1
102
RTVSPost2010Prop43
 90
        3
102
RTVSPost2010PropOp43
 70
     1
102
RTVSPost2010Prop44ColorIndex
 90
        5
102
RTVSPost2010Prop44ColorRGB
 90
      255
102
RTVSPost2010PropOp44
 70
     1
102
RTVSPost2010Prop45
280
     0
102
RTVSPost2010PropOp45
 70
     1
102
RTVSPost2010Prop46
 90
       50
102
RTVSPost2010PropOp46
 70
     1
102
RTVSPost2010Prop47
 90
       50
102
RTVSPost2010PropOp47
 70
     1
102
RTVSPost2010Prop48
 90
       50
102
RTVSPost2010PropOp48
 70
     1
102
RTVSPost2010Prop49
280
     0
102
RTVSPost2010PropOp49
 70
     1
102
RTVSPost2010Prop50
 90
       50
102
RTVSPost2010PropOp50
 70
     1
102
RTVSPost2010Prop51ColorIndex
 90
      256
102
RTVSPost2010Prop51ColorRGB
 90
-16777216
102
RTVSPost2010PropOp51
 70
     0
102
RTVSPost2010Prop52
140
1.0
102
RTVSPost2010PropOp52
 70
     0
102
RTVSPost2010Prop53
 90
        2
102
RTVSPost2010PropOp53
 70
     1
102
RTVSPost2010Prop54
  1
strokes_ogs.tif
102
RTVSPost2010PropOp54
 70
     1
102
RTVSPost2010Prop55
280
     0
102
RTVSPost2010PropOp55
 70
     1
102
RTVSPost2010Prop56
140
1.0
102
RTVSPost2010PropOp56
 70
     1
102
RTVSPost2010Prop57
140
1.0
102
RTVSPost2010PropOp57
 70
     1
102
RTVSPropertyOp0
 70
     1
102
RTVSPropertyOp1
 70
     1
102
RTVSPropertyOp2
 70
     1
102
RTVSPropertyOp3
 70
     1
102
RTVSPropertyOp4
 70
     1
102
RTVSPropertyOp5
 70
     1
102
RTVSPropertyOp6
 70
     1
102
RTVSPropertyOp7
 70
     1
102
RTVSPropertyOp8
 70
     1
102
RTVSPropertyOp9
 70
     1
102
RTVSPropertyOp10
 70
     1
102
RTVSPropertyOp11
 70
     1
102
RTVSPropertyOp12
 70
     1
102
RTVSPropertyOp13
 70
     1
102
RTVSPropertyOp14
 70
     1
102
RTVSPropertyOp15
 70
     1
102
RTVSPropertyOp16
 70
     1
102
RTVSPropertyOp17
 70
     1
102
RTVSPropertyOp18
 70
     1
102
RTVSPropertyOp19
 70
     1
102
RTVSPropertyOp20
 70
     1
102
RTVSPropertyOp21
 70
     1
102
RTVSPropertyOp22
 70
     1
102
RTVSPropertyOp23
 70
     1
102
RTVSPropertyOp24
 70
     1
102
RTVSPropertyOp25
 70
     1
102
RTVSPropertyOp26
 70
     1
102
RTVSPropertyOp27
 70
     1
102
RTVSPropertyOp28
 70
     1
102
RTVSPropertyOp29
 70
     1
102
RTVSPropertyOp30
 70
     1
102
RTVSPropertyOp31
 70
     1
102
RTVSPropertyOp32
 70
     1
102
RTVSPropertyOp33
 70
     1
102
RTVSPropertyOp34
 70
     1
102
RTVSPropertyOp35
 70
     1
102
RTVSPropertyOp36
 70
     1
102
RTVSPropertyOp37
 70
     1
102
RTVSPropertyOp38
 70
     1
102
RTVSPropertyOp39
 70
     1
102
RTVSPropertyOp40
 70
     1
102
RTVSPropertyOp41
 70
     1
102
RTVSPropertyOp42
 70
     1
102
RTVSPropertyOp43
 70
     1
102
RTVSPropertyOp44
 70
     1
102
RTVSPropertyOp45
 70
     1
102
RTVSPropertyOp46
 70
     1
102
RTVSPropertyOp47
 70
     1
102
RTVSPropertyOp48
 70
     1
102
RTVSPropertyOp49
 70
     1
102
RTVSPropertyOp50
 70
     1
102
RTVSPropertyOp51
 70
     0
102
RTVSPropertyOp52
 70
     0
102
RTVSPropertyOp53
 70
     1
102
RTVSPropertyOp54
 70
     1
102
RTVSPropertyOp55
 70
     1
102
RTVSPropertyOp56
 70
     1
102
RTVSPropertyOp57
 70
     1
102
RTVSPropertyOp58
 70
     1
102
RTVSPropertyOp59
 70
     1
102
RTVSPropertyOp60
 70
     1
102
RTVSPropertyOp61
 70
     1
102
RTVSPropertyOp62
 70
     1
  0
XRECORD
  5
5A2
102
{ACAD_REACTORS
330
5A1
102
}
330
5A1
100
AcDbXrecord
280
     1
102
RTVSPost2010Prop28
280
     0
102
RTVSPost2010PropOp28
 70
     1
102
RTVSPost2010Prop29
280
     1
102
RTVSPost2010PropOp29
 70
     1
102
RTVSPost2010Prop30
280
     1
102
RTVSPost2010PropOp30
 70
     1
102
RTVSPost2010Prop31
280
     0
102
RTVSPost2010PropOp31
 70
     1
102
RTVSPost2010Prop32
280
     0
102
RTVSPost2010PropOp32
 70
     1
102
RTVSPost2010Prop33
280
     0
102
RTVSPost2010PropOp33
 70
     1
102
RTVSPost2010Prop34
280
     0
102
RTVSPost2010PropOp34
 70
     1
102
RTVSPost2010Prop35
280
     0
102
RTVSPost2010PropOp35
 70
     1
102
RTVSPost2010Prop36
280
     0
102
RTVSPost2010PropOp36
 70
     1
102
RTVSPost2010Prop37
 90
       50
102
RTVSPost2010PropOp37
 70
     1
102
RTVSPost2010Prop38
140
0.0
102
RTVSPost2010PropOp38
 70
     1
102
RTVSPost2010Prop39
140
1.0
102
RTVSPost2010PropOp39
 70
     1
102
RTVSPost2010Prop40
 90
        0
102
RTVSPost2010PropOp40
 70
     1
102
RTVSPost2010Prop41ColorIndex
 90
       18
102
RTVSPost2010Prop41ColorRGB
 90
        0
102
RTVSPost2010PropOp41
 70
     1
102
RTVSPost2010Prop42
 90
       50
102
RTVSPost2010PropOp42
 70
     1
102
RTVSPost2010Prop43
 90
        3
102
RTVSPost2010PropOp43
 70
     1
102
RTVSPost2010Prop44ColorIndex
 90
        5
102
RTVSPost2010Prop44ColorRGB
 90
      255
102
RTVSPost2010PropOp44
 70
     1
102
RTVSPost2010Prop45
280
     0
102
RTVSPost2010PropOp45
 70
     1
102
RTVSPost2010Prop46
 90
       50
102
RTVSPost2010PropOp46
 70
     1
102
RTVSPost2010Prop47
 90
       50
102
RTVSPost2010PropOp47
 70
     1
102
RTVSPost2010Prop48
 90
       50
102
RTVSPost2010PropOp48
 70
     1
102
RTVSPost2010Prop49
280
     0
102
RTVSPost2010PropOp49
 70
     1
102
RTVSPost2010Prop50
 90
       50
102
RTVSPost2010PropOp50
 70
     1
102
RTVSPost2010Prop51ColorIndex
 90
      256
102
RTVSPost2010Prop51ColorRGB
 90
-16777216
102
RTVSPost2010PropOp51
 70
     0
102
RTVSPost2010Prop52
140
1.0
102
RTVSPost2010PropOp52
 70
     0
102
RTVSPost2010Prop53
 90
        2
102
RTVSPost2010PropOp53
 70
     1
102
RTVSPost2010Prop54
  1
strokes_ogs.tif
102
RTVSPost2010PropOp54
 70
     1
102
RTVSPost2010Prop55
280
     0
102
RTVSPost2010PropOp55
 70
     1
102
RTVSPost2010Prop56
140
1.0
102
RTVSPost2010PropOp56
 70
     1
102
RTVSPost2010Prop57
140
1.0
102
RTVSPost2010PropOp57
 70
     1
102
RTVSPropertyOp0
 70
     1
102
RTVSPropertyOp1
 70
     1
102
RTVSPropertyOp2
 70
     1
102
RTVSPropertyOp3
 70
     1
102
RTVSPropertyOp4
 70
     1
102
RTVSPropertyOp5
 70
     1
102
RTVSPropertyOp6
 70
     1
102
RTVSPropertyOp7
 70
     1
102
RTVSPropertyOp8
 70
     1
102
RTVSPropertyOp9
 70
     1
102
RTVSPropertyOp10
 70
     1
102
RTVSPropertyOp11
 70
     1
102
RTVSPropertyOp12
 70
     1
102
RTVSPropertyOp13
 70
     1
102
RTVSPropertyOp14
 70
     1
102
RTVSPropertyOp15
 70
     1
102
RTVSPropertyOp16
 70
     1
102
RTVSPropertyOp17
 70
     1
102
RTVSPropertyOp18
 70
     1
102
RTVSPropertyOp19
 70
     1
102
RTVSPropertyOp20
 70
     1
102
RTVSPropertyOp21
 70
     1
102
RTVSPropertyOp22
 70
     1
102
RTVSPropertyOp23
 70
     1
102
RTVSPropertyOp24
 70
     1
102
RTVSPropertyOp25
 70
     1
102
RTVSPropertyOp26
 70
     1
102
RTVSPropertyOp27
 70
     1
102
RTVSPropertyOp28
 70
     1
102
RTVSPropertyOp29
 70
     1
102
RTVSPropertyOp30
 70
     1
102
RTVSPropertyOp31
 70
     1
102
RTVSPropertyOp32
 70
     1
102
RTVSPropertyOp33
 70
     1
102
RTVSPropertyOp34
 70
     1
102
RTVSPropertyOp35
 70
     1
102
RTVSPropertyOp36
 70
     1
102
RTVSPropertyOp37
 70
     1
102
RTVSPropertyOp38
 70
     1
102
RTVSPropertyOp39
 70
     1
102
RTVSPropertyOp40
 70
     1
102
RTVSPropertyOp41
 70
     1
102
RTVSPropertyOp42
 70
     1
102
RTVSPropertyOp43
 70
     1
102
RTVSPropertyOp44
 70
     1
102
RTVSPropertyOp45
 70
     1
102
RTVSPropertyOp46
 70
     1
102
RTVSPropertyOp47
 70
     1
102
RTVSPropertyOp48
 70
     1
102
RTVSPropertyOp49
 70
     1
102
RTVSPropertyOp50
 70
     1
102
RTVSPropertyOp51
 70
     0
102
RTVSPropertyOp52
 70
     0
102
RTVSPropertyOp53
 70
     1
102
RTVSPropertyOp54
 70
     1
102
RTVSPropertyOp55
 70
     1
102
RTVSPropertyOp56
 70
     1
102
RTVSPropertyOp57
 70
     1
102
RTVSPropertyOp58
 70
     1
102
RTVSPropertyOp59
 70
     1
102
RTVSPropertyOp60
 70
     1
102
RTVSPropertyOp61
 70
     1
102
RTVSPropertyOp62
 70
     1
  0
XRECORD
  5
59C
102
{ACAD_REACTORS
330
59B
102
}
330
59B
100
AcDbXrecord
280
     1
102
RTVSPost2010Prop28
280
     0
102
RTVSPost2010PropOp28
 70
     1
102
RTVSPost2010Prop29
280
     1
102
RTVSPost2010PropOp29
 70
     1
102
RTVSPost2010Prop30
280
     1
102
RTVSPost2010PropOp30
 70
     1
102
RTVSPost2010Prop31
280
     0
102
RTVSPost2010PropOp31
 70
     1
102
RTVSPost2010Prop32
280
     0
102
RTVSPost2010PropOp32
 70
     1
102
RTVSPost2010Prop33
280
     0
102
RTVSPost2010PropOp33
 70
     1
102
RTVSPost2010Prop34
280
     0
102
RTVSPost2010PropOp34
 70
     1
102
RTVSPost2010Prop35
280
     0
102
RTVSPost2010PropOp35
 70
     1
102
RTVSPost2010Prop36
280
     0
102
RTVSPost2010PropOp36
 70
     1
102
RTVSPost2010Prop37
 90
       50
102
RTVSPost2010PropOp37
 70
     1
102
RTVSPost2010Prop38
140
0.0
102
RTVSPost2010PropOp38
 70
     1
102
RTVSPost2010Prop39
140
1.0
102
RTVSPost2010PropOp39
 70
     1
102
RTVSPost2010Prop40
 90
        0
102
RTVSPost2010PropOp40
 70
     1
102
RTVSPost2010Prop41ColorIndex
 90
       18
102
RTVSPost2010Prop41ColorRGB
 90
        0
102
RTVSPost2010PropOp41
 70
     1
102
RTVSPost2010Prop42
 90
       50
102
RTVSPost2010PropOp42
 70
     1
102
RTVSPost2010Prop43
 90
        3
102
RTVSPost2010PropOp43
 70
     1
102
RTVSPost2010Prop44ColorIndex
 90
        5
102
RTVSPost2010Prop44ColorRGB
 90
      255
102
RTVSPost2010PropOp44
 70
     1
102
RTVSPost2010Prop45
280
     0
102
RTVSPost2010PropOp45
 70
     1
102
RTVSPost2010Prop46
 90
       50
102
RTVSPost2010PropOp46
 70
     1
102
RTVSPost2010Prop47
 90
       50
102
RTVSPost2010PropOp47
 70
     1
102
RTVSPost2010Prop48
 90
       50
102
RTVSPost2010PropOp48
 70
     1
102
RTVSPost2010Prop49
280
     0
102
RTVSPost2010PropOp49
 70
     1
102
RTVSPost2010Prop50
 90
       50
102
RTVSPost2010PropOp50
 70
     1
102
RTVSPost2010Prop51ColorIndex
 90
      256
102
RTVSPost2010Prop51ColorRGB
 90
-16777216
102
RTVSPost2010PropOp51
 70
     0
102
RTVSPost2010Prop52
140
1.0
102
RTVSPost2010PropOp52
 70
     0
102
RTVSPost2010Prop53
 90
        2
102
RTVSPost2010PropOp53
 70
     1
102
RTVSPost2010Prop54
  1
strokes_ogs.tif
102
RTVSPost2010PropOp54
 70
     1
102
RTVSPost2010Prop55
280
     0
102
RTVSPost2010PropOp55
 70
     1
102
RTVSPost2010Prop56
140
1.0
102
RTVSPost2010PropOp56
 70
     1
102
RTVSPost2010Prop57
140
1.0
102
RTVSPost2010PropOp57
 70
     1
102
RTVSPropertyOp0
 70
     1
102
RTVSPropertyOp1
 70
     1
102
RTVSPropertyOp2
 70
     1
102
RTVSPropertyOp3
 70
     1
102
RTVSPropertyOp4
 70
     1
102
RTVSPropertyOp5
 70
     1
102
RTVSPropertyOp6
 70
     1
102
RTVSPropertyOp7
 70
     1
102
RTVSPropertyOp8
 70
     1
102
RTVSPropertyOp9
 70
     1
102
RTVSPropertyOp10
 70
     1
102
RTVSPropertyOp11
 70
     1
102
RTVSPropertyOp12
 70
     1
102
RTVSPropertyOp13
 70
     1
102
RTVSPropertyOp14
 70
     1
102
RTVSPropertyOp15
 70
     1
102
RTVSPropertyOp16
 70
     1
102
RTVSPropertyOp17
 70
     1
102
RTVSPropertyOp18
 70
     1
102
RTVSPropertyOp19
 70
     1
102
RTVSPropertyOp20
 70
     1
102
RTVSPropertyOp21
 70
     1
102
RTVSPropertyOp22
 70
     1
102
RTVSPropertyOp23
 70
     1
102
RTVSPropertyOp24
 70
     1
102
RTVSPropertyOp25
 70
     1
102
RTVSPropertyOp26
 70
     1
102
RTVSPropertyOp27
 70
     1
102
RTVSPropertyOp28
 70
     1
102
RTVSPropertyOp29
 70
     1
102
RTVSPropertyOp30
 70
     1
102
RTVSPropertyOp31
 70
     1
102
RTVSPropertyOp32
 70
     1
102
RTVSPropertyOp33
 70
     1
102
RTVSPropertyOp34
 70
     1
102
RTVSPropertyOp35
 70
     1
102
RTVSPropertyOp36
 70
     1
102
RTVSPropertyOp37
 70
     1
102
RTVSPropertyOp38
 70
     1
102
RTVSPropertyOp39
 70
     1
102
RTVSPropertyOp40
 70
     1
102
RTVSPropertyOp41
 70
     1
102
RTVSPropertyOp42
 70
     1
102
RTVSPropertyOp43
 70
     1
102
RTVSPropertyOp44
 70
     1
102
RTVSPropertyOp45
 70
     1
102
RTVSPropertyOp46
 70
     1
102
RTVSPropertyOp47
 70
     1
102
RTVSPropertyOp48
 70
     1
102
RTVSPropertyOp49
 70
     1
102
RTVSPropertyOp50
 70
     1
102
RTVSPropertyOp51
 70
     0
102
RTVSPropertyOp52
 70
     0
102
RTVSPropertyOp53
 70
     1
102
RTVSPropertyOp54
 70
     1
102
RTVSPropertyOp55
 70
     1
102
RTVSPropertyOp56
 70
     1
102
RTVSPropertyOp57
 70
     1
102
RTVSPropertyOp58
 70
     1
102
RTVSPropertyOp59
 70
     1
102
RTVSPropertyOp60
 70
     1
102
RTVSPropertyOp61
 70
     1
102
RTVSPropertyOp62
 70
     1
  0
XRECORD
  5
59E
102
{ACAD_REACTORS
330
59D
102
}
330
59D
100
AcDbXrecord
280
     1
102
RTVSPost2010Prop28
280
     0
102
RTVSPost2010PropOp28
 70
     1
102
RTVSPost2010Prop29
280
     1
102
RTVSPost2010PropOp29
 70
     1
102
RTVSPost2010Prop30
280
     1
102
RTVSPost2010PropOp30
 70
     1
102
RTVSPost2010Prop31
280
     0
102
RTVSPost2010PropOp31
 70
     1
102
RTVSPost2010Prop32
280
     0
102
RTVSPost2010PropOp32
 70
     1
102
RTVSPost2010Prop33
280
     0
102
RTVSPost2010PropOp33
 70
     1
102
RTVSPost2010Prop34
280
     0
102
RTVSPost2010PropOp34
 70
     1
102
RTVSPost2010Prop35
280
     0
102
RTVSPost2010PropOp35
 70
     1
102
RTVSPost2010Prop36
280
     0
102
RTVSPost2010PropOp36
 70
     1
102
RTVSPost2010Prop37
 90
       50
102
RTVSPost2010PropOp37
 70
     1
102
RTVSPost2010Prop38
140
0.0
102
RTVSPost2010PropOp38
 70
     1
102
RTVSPost2010Prop39
140
1.0
102
RTVSPost2010PropOp39
 70
     1
102
RTVSPost2010Prop40
 90
        0
102
RTVSPost2010PropOp40
 70
     1
102
RTVSPost2010Prop41ColorIndex
 90
       18
102
RTVSPost2010Prop41ColorRGB
 90
        0
102
RTVSPost2010PropOp41
 70
     1
102
RTVSPost2010Prop42
 90
       50
102
RTVSPost2010PropOp42
 70
     1
102
RTVSPost2010Prop43
 90
        3
102
RTVSPost2010PropOp43
 70
     1
102
RTVSPost2010Prop44ColorIndex
 90
        5
102
RTVSPost2010Prop44ColorRGB
 90
      255
102
RTVSPost2010PropOp44
 70
     1
102
RTVSPost2010Prop45
280
     0
102
RTVSPost2010PropOp45
 70
     1
102
RTVSPost2010Prop46
 90
       50
102
RTVSPost2010PropOp46
 70
     1
102
RTVSPost2010Prop47
 90
       50
102
RTVSPost2010PropOp47
 70
     1
102
RTVSPost2010Prop48
 90
       50
102
RTVSPost2010PropOp48
 70
     1
102
RTVSPost2010Prop49
280
     0
102
RTVSPost2010PropOp49
 70
     1
102
RTVSPost2010Prop50
 90
       50
102
RTVSPost2010PropOp50
 70
     1
102
RTVSPost2010Prop51ColorIndex
 90
      256
102
RTVSPost2010Prop51ColorRGB
 90
-16777216
102
RTVSPost2010PropOp51
 70
     0
102
RTVSPost2010Prop52
140
1.0
102
RTVSPost2010PropOp52
 70
     0
102
RTVSPost2010Prop53
 90
        2
102
RTVSPost2010PropOp53
 70
     1
102
RTVSPost2010Prop54
  1
strokes_ogs.tif
102
RTVSPost2010PropOp54
 70
     1
102
RTVSPost2010Prop55
280
     0
102
RTVSPost2010PropOp55
 70
     1
102
RTVSPost2010Prop56
140
1.0
102
RTVSPost2010PropOp56
 70
     1
102
RTVSPost2010Prop57
140
1.0
102
RTVSPost2010PropOp57
 70
     1
102
RTVSPropertyOp0
 70
     1
102
RTVSPropertyOp1
 70
     1
102
RTVSPropertyOp2
 70
     1
102
RTVSPropertyOp3
 70
     1
102
RTVSPropertyOp4
 70
     1
102
RTVSPropertyOp5
 70
     1
102
RTVSPropertyOp6
 70
     1
102
RTVSPropertyOp7
 70
     1
102
RTVSPropertyOp8
 70
     1
102
RTVSPropertyOp9
 70
     1
102
RTVSPropertyOp10
 70
     1
102
RTVSPropertyOp11
 70
     1
102
RTVSPropertyOp12
 70
     1
102
RTVSPropertyOp13
 70
     1
102
RTVSPropertyOp14
 70
     1
102
RTVSPropertyOp15
 70
     1
102
RTVSPropertyOp16
 70
     1
102
RTVSPropertyOp17
 70
     1
102
RTVSPropertyOp18
 70
     1
102
RTVSPropertyOp19
 70
     1
102
RTVSPropertyOp20
 70
     1
102
RTVSPropertyOp21
 70
     1
102
RTVSPropertyOp22
 70
     1
102
RTVSPropertyOp23
 70
     1
102
RTVSPropertyOp24
 70
     1
102
RTVSPropertyOp25
 70
     1
102
RTVSPropertyOp26
 70
     1
102
RTVSPropertyOp27
 70
     1
102
RTVSPropertyOp28
 70
     1
102
RTVSPropertyOp29
 70
     1
102
RTVSPropertyOp30
 70
     1
102
RTVSPropertyOp31
 70
     1
102
RTVSPropertyOp32
 70
     1
102
RTVSPropertyOp33
 70
     1
102
RTVSPropertyOp34
 70
     1
102
RTVSPropertyOp35
 70
     1
102
RTVSPropertyOp36
 70
     1
102
RTVSPropertyOp37
 70
     1
102
RTVSPropertyOp38
 70
     1
102
RTVSPropertyOp39
 70
     1
102
RTVSPropertyOp40
 70
     1
102
RTVSPropertyOp41
 70
     1
102
RTVSPropertyOp42
 70
     1
102
RTVSPropertyOp43
 70
     1
102
RTVSPropertyOp44
 70
     1
102
RTVSPropertyOp45
 70
     1
102
RTVSPropertyOp46
 70
     1
102
RTVSPropertyOp47
 70
     1
102
RTVSPropertyOp48
 70
     1
102
RTVSPropertyOp49
 70
     1
102
RTVSPropertyOp50
 70
     1
102
RTVSPropertyOp51
 70
     0
102
RTVSPropertyOp52
 70
     0
102
RTVSPropertyOp53
 70
     1
102
RTVSPropertyOp54
 70
     1
102
RTVSPropertyOp55
 70
     1
102
RTVSPropertyOp56
 70
     1
102
RTVSPropertyOp57
 70
     1
102
RTVSPropertyOp58
 70
     1
102
RTVSPropertyOp59
 70
     1
102
RTVSPropertyOp60
 70
     1
102
RTVSPropertyOp61
 70
     1
102
RTVSPropertyOp62
 70
     1
  0
XRECORD
  5
594
102
{ACAD_REACTORS
330
593
102
}
330
593
100
AcDbXrecord
280
     1
102
RTVSPost2010Prop28
280
     0
102
RTVSPost2010PropOp28
 70
     1
102
RTVSPost2010Prop29
280
     1
102
RTVSPost2010PropOp29
 70
     1
102
RTVSPost2010Prop30
280
     1
102
RTVSPost2010PropOp30
 70
     1
102
RTVSPost2010Prop31
280
     0
102
RTVSPost2010PropOp31
 70
     1
102
RTVSPost2010Prop32
280
     0
102
RTVSPost2010PropOp32
 70
     1
102
RTVSPost2010Prop33
280
     0
102
RTVSPost2010PropOp33
 70
     1
102
RTVSPost2010Prop34
280
     0
102
RTVSPost2010PropOp34
 70
     1
102
RTVSPost2010Prop35
280
     0
102
RTVSPost2010PropOp35
 70
     1
102
RTVSPost2010Prop36
280
     0
102
RTVSPost2010PropOp36
 70
     1
102
RTVSPost2010Prop37
 90
       50
102
RTVSPost2010PropOp37
 70
     1
102
RTVSPost2010Prop38
140
0.0
102
RTVSPost2010PropOp38
 70
     1
102
RTVSPost2010Prop39
140
1.0
102
RTVSPost2010PropOp39
 70
     1
102
RTVSPost2010Prop40
 90
        0
102
RTVSPost2010PropOp40
 70
     1
102
RTVSPost2010Prop41ColorIndex
 90
       18
102
RTVSPost2010Prop41ColorRGB
 90
        0
102
RTVSPost2010PropOp41
 70
     1
102
RTVSPost2010Prop42
 90
       50
102
RTVSPost2010PropOp42
 70
     1
102
RTVSPost2010Prop43
 90
        3
102
RTVSPost2010PropOp43
 70
     1
102
RTVSPost2010Prop44ColorIndex
 90
        5
102
RTVSPost2010Prop44ColorRGB
 90
      255
102
RTVSPost2010PropOp44
 70
     1
102
RTVSPost2010Prop45
280
     0
102
RTVSPost2010PropOp45
 70
     1
102
RTVSPost2010Prop46
 90
       50
102
RTVSPost2010PropOp46
 70
     1
102
RTVSPost2010Prop47
 90
       50
102
RTVSPost2010PropOp47
 70
     1
102
RTVSPost2010Prop48
 90
       50
102
RTVSPost2010PropOp48
 70
     1
102
RTVSPost2010Prop49
280
     0
102
RTVSPost2010PropOp49
 70
     1
102
RTVSPost2010Prop50
 90
       50
102
RTVSPost2010PropOp50
 70
     1
102
RTVSPost2010Prop51ColorIndex
 90
      256
102
RTVSPost2010Prop51ColorRGB
 90
-16777216
102
RTVSPost2010PropOp51
 70
     0
102
RTVSPost2010Prop52
140
1.0
102
RTVSPost2010PropOp52
 70
     0
102
RTVSPost2010Prop53
 90
        2
102
RTVSPost2010PropOp53
 70
     1
102
RTVSPost2010Prop54
  1
strokes_ogs.tif
102
RTVSPost2010PropOp54
 70
     1
102
RTVSPost2010Prop55
280
     0
102
RTVSPost2010PropOp55
 70
     1
102
RTVSPost2010Prop56
140
1.0
102
RTVSPost2010PropOp56
 70
     1
102
RTVSPost2010Prop57
140
1.0
102
RTVSPost2010PropOp57
 70
     1
102
RTVSPropertyOp0
 70
     1
102
RTVSPropertyOp1
 70
     1
102
RTVSPropertyOp2
 70
     1
102
RTVSPropertyOp3
 70
     1
102
RTVSPropertyOp4
 70
     1
102
RTVSPropertyOp5
 70
     1
102
RTVSPropertyOp6
 70
     1
102
RTVSPropertyOp7
 70
     1
102
RTVSPropertyOp8
 70
     1
102
RTVSPropertyOp9
 70
     1
102
RTVSPropertyOp10
 70
     1
102
RTVSPropertyOp11
 70
     1
102
RTVSPropertyOp12
 70
     1
102
RTVSPropertyOp13
 70
     1
102
RTVSPropertyOp14
 70
     1
102
RTVSPropertyOp15
 70
     1
102
RTVSPropertyOp16
 70
     1
102
RTVSPropertyOp17
 70
     1
102
RTVSPropertyOp18
 70
     1
102
RTVSPropertyOp19
 70
     1
102
RTVSPropertyOp20
 70
     1
102
RTVSPropertyOp21
 70
     1
102
RTVSPropertyOp22
 70
     1
102
RTVSPropertyOp23
 70
     1
102
RTVSPropertyOp24
 70
     1
102
RTVSPropertyOp25
 70
     1
102
RTVSPropertyOp26
 70
     1
102
RTVSPropertyOp27
 70
     1
102
RTVSPropertyOp28
 70
     1
102
RTVSPropertyOp29
 70
     1
102
RTVSPropertyOp30
 70
     1
102
RTVSPropertyOp31
 70
     1
102
RTVSPropertyOp32
 70
     1
102
RTVSPropertyOp33
 70
     1
102
RTVSPropertyOp34
 70
     1
102
RTVSPropertyOp35
 70
     1
102
RTVSPropertyOp36
 70
     1
102
RTVSPropertyOp37
 70
     1
102
RTVSPropertyOp38
 70
     1
102
RTVSPropertyOp39
 70
     1
102
RTVSPropertyOp40
 70
     1
102
RTVSPropertyOp41
 70
     1
102
RTVSPropertyOp42
 70
     1
102
RTVSPropertyOp43
 70
     1
102
RTVSPropertyOp44
 70
     1
102
RTVSPropertyOp45
 70
     1
102
RTVSPropertyOp46
 70
     1
102
RTVSPropertyOp47
 70
     1
102
RTVSPropertyOp48
 70
     1
102
RTVSPropertyOp49
 70
     1
102
RTVSPropertyOp50
 70
     1
102
RTVSPropertyOp51
 70
     0
102
RTVSPropertyOp52
 70
     0
102
RTVSPropertyOp53
 70
     1
102
RTVSPropertyOp54
 70
     1
102
RTVSPropertyOp55
 70
     1
102
RTVSPropertyOp56
 70
     1
102
RTVSPropertyOp57
 70
     1
102
RTVSPropertyOp58
 70
     1
102
RTVSPropertyOp59
 70
     1
102
RTVSPropertyOp60
 70
     1
102
RTVSPropertyOp61
 70
     1
102
RTVSPropertyOp62
 70
     1
  0
XRECORD
  5
588
102
{ACAD_REACTORS
330
587
102
}
330
587
100
AcDbXrecord
280
     1
102
RTVSPost2010Prop28
280
     0
102
RTVSPost2010PropOp28
 70
     1
102
RTVSPost2010Prop29
280
     1
102
RTVSPost2010PropOp29
 70
     1
102
RTVSPost2010Prop30
280
     1
102
RTVSPost2010PropOp30
 70
     1
102
RTVSPost2010Prop31
280
     0
102
RTVSPost2010PropOp31
 70
     1
102
RTVSPost2010Prop32
280
     0
102
RTVSPost2010PropOp32
 70
     1
102
RTVSPost2010Prop33
280
     0
102
RTVSPost2010PropOp33
 70
     1
102
RTVSPost2010Prop34
280
     0
102
RTVSPost2010PropOp34
 70
     1
102
RTVSPost2010Prop35
280
     0
102
RTVSPost2010PropOp35
 70
     1
102
RTVSPost2010Prop36
280
     0
102
RTVSPost2010PropOp36
 70
     1
102
RTVSPost2010Prop37
 90
       50
102
RTVSPost2010PropOp37
 70
     1
102
RTVSPost2010Prop38
140
0.0
102
RTVSPost2010PropOp38
 70
     1
102
RTVSPost2010Prop39
140
1.0
102
RTVSPost2010PropOp39
 70
     1
102
RTVSPost2010Prop40
 90
        0
102
RTVSPost2010PropOp40
 70
     1
102
RTVSPost2010Prop41ColorIndex
 90
       18
102
RTVSPost2010Prop41ColorRGB
 90
        0
102
RTVSPost2010PropOp41
 70
     1
102
RTVSPost2010Prop42
 90
       50
102
RTVSPost2010PropOp42
 70
     1
102
RTVSPost2010Prop43
 90
        3
102
RTVSPost2010PropOp43
 70
     1
102
RTVSPost2010Prop44ColorIndex
 90
        5
102
RTVSPost2010Prop44ColorRGB
 90
      255
102
RTVSPost2010PropOp44
 70
     1
102
RTVSPost2010Prop45
280
     0
102
RTVSPost2010PropOp45
 70
     1
102
RTVSPost2010Prop46
 90
       50
102
RTVSPost2010PropOp46
 70
     1
102
RTVSPost2010Prop47
 90
       50
102
RTVSPost2010PropOp47
 70
     1
102
RTVSPost2010Prop48
 90
       50
102
RTVSPost2010PropOp48
 70
     1
102
RTVSPost2010Prop49
280
     0
102
RTVSPost2010PropOp49
 70
     1
102
RTVSPost2010Prop50
 90
       50
102
RTVSPost2010PropOp50
 70
     1
102
RTVSPost2010Prop51ColorIndex
 90
      256
102
RTVSPost2010Prop51ColorRGB
 90
-16777216
102
RTVSPost2010PropOp51
 70
     0
102
RTVSPost2010Prop52
140
1.0
102
RTVSPost2010PropOp52
 70
     0
102
RTVSPost2010Prop53
 90
        2
102
RTVSPost2010PropOp53
 70
     1
102
RTVSPost2010Prop54
  1
strokes_ogs.tif
102
RTVSPost2010PropOp54
 70
     1
102
RTVSPost2010Prop55
280
     0
102
RTVSPost2010PropOp55
 70
     1
102
RTVSPost2010Prop56
140
1.0
102
RTVSPost2010PropOp56
 70
     1
102
RTVSPost2010Prop57
140
1.0
102
RTVSPost2010PropOp57
 70
     1
102
RTVSPropertyOp0
 70
     1
102
RTVSPropertyOp1
 70
     1
102
RTVSPropertyOp2
 70
     1
102
RTVSPropertyOp3
 70
     1
102
RTVSPropertyOp4
 70
     1
102
RTVSPropertyOp5
 70
     1
102
RTVSPropertyOp6
 70
     1
102
RTVSPropertyOp7
 70
     1
102
RTVSPropertyOp8
 70
     1
102
RTVSPropertyOp9
 70
     1
102
RTVSPropertyOp10
 70
     1
102
RTVSPropertyOp11
 70
     1
102
RTVSPropertyOp12
 70
     1
102
RTVSPropertyOp13
 70
     1
102
RTVSPropertyOp14
 70
     1
102
RTVSPropertyOp15
 70
     1
102
RTVSPropertyOp16
 70
     1
102
RTVSPropertyOp17
 70
     1
102
RTVSPropertyOp18
 70
     1
102
RTVSPropertyOp19
 70
     1
102
RTVSPropertyOp20
 70
     1
102
RTVSPropertyOp21
 70
     1
102
RTVSPropertyOp22
 70
     1
102
RTVSPropertyOp23
 70
     1
102
RTVSPropertyOp24
 70
     1
102
RTVSPropertyOp25
 70
     1
102
RTVSPropertyOp26
 70
     1
102
RTVSPropertyOp27
 70
     1
102
RTVSPropertyOp28
 70
     1
102
RTVSPropertyOp29
 70
     1
102
RTVSPropertyOp30
 70
     1
102
RTVSPropertyOp31
 70
     1
102
RTVSPropertyOp32
 70
     1
102
RTVSPropertyOp33
 70
     1
102
RTVSPropertyOp34
 70
     1
102
RTVSPropertyOp35
 70
     1
102
RTVSPropertyOp36
 70
     1
102
RTVSPropertyOp37
 70
     1
102
RTVSPropertyOp38
 70
     1
102
RTVSPropertyOp39
 70
     1
102
RTVSPropertyOp40
 70
     1
102
RTVSPropertyOp41
 70
     1
102
RTVSPropertyOp42
 70
     1
102
RTVSPropertyOp43
 70
     1
102
RTVSPropertyOp44
 70
     1
102
RTVSPropertyOp45
 70
     1
102
RTVSPropertyOp46
 70
     1
102
RTVSPropertyOp47
 70
     1
102
RTVSPropertyOp48
 70
     1
102
RTVSPropertyOp49
 70
     1
102
RTVSPropertyOp50
 70
     1
102
RTVSPropertyOp51
 70
     0
102
RTVSPropertyOp52
 70
     0
102
RTVSPropertyOp53
 70
     1
102
RTVSPropertyOp54
 70
     1
102
RTVSPropertyOp55
 70
     1
102
RTVSPropertyOp56
 70
     1
102
RTVSPropertyOp57
 70
     1
102
RTVSPropertyOp58
 70
     1
102
RTVSPropertyOp59
 70
     1
102
RTVSPropertyOp60
 70
     1
102
RTVSPropertyOp61
 70
     1
102
RTVSPropertyOp62
 70
     1
  0
XRECORD
  5
5A0
102
{ACAD_REACTORS
330
59F
102
}
330
59F
100
AcDbXrecord
280
     1
102
RTVSPost2010Prop28
280
     0
102
RTVSPost2010PropOp28
 70
     1
102
RTVSPost2010Prop29
280
     1
102
RTVSPost2010PropOp29
 70
     1
102
RTVSPost2010Prop30
280
     1
102
RTVSPost2010PropOp30
 70
     1
102
RTVSPost2010Prop31
280
     0
102
RTVSPost2010PropOp31
 70
     1
102
RTVSPost2010Prop32
280
     0
102
RTVSPost2010PropOp32
 70
     1
102
RTVSPost2010Prop33
280
     0
102
RTVSPost2010PropOp33
 70
     1
102
RTVSPost2010Prop34
280
     0
102
RTVSPost2010PropOp34
 70
     1
102
RTVSPost2010Prop35
280
     0
102
RTVSPost2010PropOp35
 70
     1
102
RTVSPost2010Prop36
280
     0
102
RTVSPost2010PropOp36
 70
     1
102
RTVSPost2010Prop37
 90
       50
102
RTVSPost2010PropOp37
 70
     1
102
RTVSPost2010Prop38
140
0.0
102
RTVSPost2010PropOp38
 70
     1
102
RTVSPost2010Prop39
140
1.0
102
RTVSPost2010PropOp39
 70
     1
102
RTVSPost2010Prop40
 90
        0
102
RTVSPost2010PropOp40
 70
     1
102
RTVSPost2010Prop41ColorIndex
 90
       18
102
RTVSPost2010Prop41ColorRGB
 90
        0
102
RTVSPost2010PropOp41
 70
     1
102
RTVSPost2010Prop42
 90
       50
102
RTVSPost2010PropOp42
 70
     1
102
RTVSPost2010Prop43
 90
        3
102
RTVSPost2010PropOp43
 70
     1
102
RTVSPost2010Prop44ColorIndex
 90
        5
102
RTVSPost2010Prop44ColorRGB
 90
      255
102
RTVSPost2010PropOp44
 70
     1
102
RTVSPost2010Prop45
280
     0
102
RTVSPost2010PropOp45
 70
     1
102
RTVSPost2010Prop46
 90
       50
102
RTVSPost2010PropOp46
 70
     1
102
RTVSPost2010Prop47
 90
       50
102
RTVSPost2010PropOp47
 70
     1
102
RTVSPost2010Prop48
 90
       50
102
RTVSPost2010PropOp48
 70
     1
102
RTVSPost2010Prop49
280
     0
102
RTVSPost2010PropOp49
 70
     1
102
RTVSPost2010Prop50
 90
       50
102
RTVSPost2010PropOp50
 70
     1
102
RTVSPost2010Prop51ColorIndex
 90
      256
102
RTVSPost2010Prop51ColorRGB
 90
-16777216
102
RTVSPost2010PropOp51
 70
     0
102
RTVSPost2010Prop52
140
1.0
102
RTVSPost2010PropOp52
 70
     0
102
RTVSPost2010Prop53
 90
        2
102
RTVSPost2010PropOp53
 70
     1
102
RTVSPost2010Prop54
  1
strokes_ogs.tif
102
RTVSPost2010PropOp54
 70
     1
102
RTVSPost2010Prop55
280
     0
102
RTVSPost2010PropOp55
 70
     1
102
RTVSPost2010Prop56
140
1.0
102
RTVSPost2010PropOp56
 70
     1
102
RTVSPost2010Prop57
140
1.0
102
RTVSPost2010PropOp57
 70
     1
102
RTVSPropertyOp0
 70
     1
102
RTVSPropertyOp1
 70
     1
102
RTVSPropertyOp2
 70
     1
102
RTVSPropertyOp3
 70
     1
102
RTVSPropertyOp4
 70
     1
102
RTVSPropertyOp5
 70
     1
102
RTVSPropertyOp6
 70
     1
102
RTVSPropertyOp7
 70
     1
102
RTVSPropertyOp8
 70
     1
102
RTVSPropertyOp9
 70
     1
102
RTVSPropertyOp10
 70
     1
102
RTVSPropertyOp11
 70
     1
102
RTVSPropertyOp12
 70
     1
102
RTVSPropertyOp13
 70
     1
102
RTVSPropertyOp14
 70
     1
102
RTVSPropertyOp15
 70
     1
102
RTVSPropertyOp16
 70
     1
102
RTVSPropertyOp17
 70
     1
102
RTVSPropertyOp18
 70
     1
102
RTVSPropertyOp19
 70
     1
102
RTVSPropertyOp20
 70
     1
102
RTVSPropertyOp21
 70
     1
102
RTVSPropertyOp22
 70
     1
102
RTVSPropertyOp23
 70
     1
102
RTVSPropertyOp24
 70
     1
102
RTVSPropertyOp25
 70
     1
102
RTVSPropertyOp26
 70
     1
102
RTVSPropertyOp27
 70
     1
102
RTVSPropertyOp28
 70
     1
102
RTVSPropertyOp29
 70
     1
102
RTVSPropertyOp30
 70
     1
102
RTVSPropertyOp31
 70
     1
102
RTVSPropertyOp32
 70
     1
102
RTVSPropertyOp33
 70
     1
102
RTVSPropertyOp34
 70
     1
102
RTVSPropertyOp35
 70
     1
102
RTVSPropertyOp36
 70
     1
102
RTVSPropertyOp37
 70
     1
102
RTVSPropertyOp38
 70
     1
102
RTVSPropertyOp39
 70
     1
102
RTVSPropertyOp40
 70
     1
102
RTVSPropertyOp41
 70
     1
102
RTVSPropertyOp42
 70
     1
102
RTVSPropertyOp43
 70
     1
102
RTVSPropertyOp44
 70
     1
102
RTVSPropertyOp45
 70
     1
102
RTVSPropertyOp46
 70
     1
102
RTVSPropertyOp47
 70
     1
102
RTVSPropertyOp48
 70
     1
102
RTVSPropertyOp49
 70
     1
102
RTVSPropertyOp50
 70
     1
102
RTVSPropertyOp51
 70
     0
102
RTVSPropertyOp52
 70
     0
102
RTVSPropertyOp53
 70
     1
102
RTVSPropertyOp54
 70
     1
102
RTVSPropertyOp55
 70
     1
102
RTVSPropertyOp56
 70
     1
102
RTVSPropertyOp57
 70
     1
102
RTVSPropertyOp58
 70
     1
102
RTVSPropertyOp59
 70
     1
102
RTVSPropertyOp60
 70
     1
102
RTVSPropertyOp61
 70
     1
102
RTVSPropertyOp62
 70
     1
  0
ENDSEC
  0
EOF
