  0
SECTION
  2
HEADER
  9
$ACADVER
  1
AC1009
  9
$DWGCODEPAGE
  3
ansi_932
  9
$INSBASE
 10
0.0
 20
0.0
 30
0.0
  9
$EXTMIN
 10
-1800.0
 20
-2698.168409531249
 30
0.0
  9
$EXTMAX
 10
1800.0
 20
2667.104485
 30
0.0
  9
$LIMMIN
 10
0.0
 20
0.0
  9
$LIMMAX
 10
0.0
 20
0.0
  9
$ORTHOMODE
 70
     0
  9
$REGENMODE
 70
     1
  9
$FILLMODE
 70
     1
  9
$QTEXTMODE
 70
     0
  9
$MIRRTEXT
 70
     1
  9
$DRAGMODE
 70
     2
  9
$LTSCALE
 40
101.6
  9
$OSMODE
 70
    37
  9
$ATTMODE
 70
     1
  9
$TEXTSIZE
 40
0.0
  9
$TRACEWID
 40
1.0
  9
$TEXTSTYLE
  7
STANDARD
  9
$CLAYER
  8
DATA
  9
$CELTYPE
  6
BYLAYER
  9
$CECOLOR
 62
   256
  9
$DIMSCALE
 40
1.0
  9
$DIMASZ
 40
0.18
  9
$DIMEXO
 40
0.0625
  9
$DIMDLI
 40
0.38
  9
$DIMRND
 40
0.0
  9
$DIMDLE
 40
0.0
  9
$DIMEXE
 40
0.18
  9
$DIMTP
 40
0.0
  9
$DIMTM
 40
0.0
  9
$DIMTXT
 40
0.18
  9
$DIMCEN
 40
0.09
  9
$DIMTSZ
 40
0.0
  9
$DIMTOL
 70
     0
  9
$DIMLIM
 70
     0
  9
$DIMTIH
 70
     1
  9
$DIMTOH
 70
     1
  9
$DIMSE1
 70
     0
  9
$DIMSE2
 70
     0
  9
$DIMTAD
 70
     0
  9
$DIMZIN
 70
     0
  9
$DIMBLK
  1

  9
$DIMASO
 70
     1
  9
$DIMSHO
 70
     1
  9
$DIMPOST
  1

  9
$DIMAPOST
  1

  9
$DIMALT
 70
     0
  9
$DIMALTD
 70
     2
  9
$DIMALTF
 40
25.4
  9
$DIMLFAC
 40
1.0
  9
$DIMTOFL
 70
     0
  9
$DIMTVP
 40
0.0
  9
$DIMTIX
 70
     0
  9
$DIMSOXD
 70
     0
  9
$DIMSAH
 70
     0
  9
$DIMBLK1
  1

  9
$DIMBLK2
  1

  9
$DIMSTYLE
  2
STANDARD
  9
$DIMCLRD
 70
     0
  9
$DIMCLRE
 70
     0
  9
$DIMCLRT
 70
     0
  9
$DIMTFAC
 40
1.0
  9
$DIMGAP
 40
0.09
  9
$LUNITS
 70
     2
  9
$LUPREC
 70
     2
  9
$SKETCHINC
 40
0.1
  9
$FILLETRAD
 40
0.0
  9
$AUNITS
 70
     0
  9
$AUPREC
 70
     0
  9
$MENU
  1
acad
  9
$ELEVATION
 40
0.0
  9
$PELEVATION
 40
0.0
  9
$THICKNESS
 40
0.0
  9
$LIMCHECK
 70
     0
  9
$CHAMFERA
 40
0.0
  9
$CHAMFERB
 40
0.0
  9
$SKPOLY
 70
     0
  9
$TDCREATE
 40
2459417.576890868
  9
$TDUPDATE
 40
2459417.577427361
  9
$TDINDWG
 40
2459417.202428113
  9
$TDUSRTIMER
 40
0.0005372454
  9
$USRTIMER
 70
     1
  9
$ANGBASE
 50
0.0
  9
$ANGDIR
 70
     0
  9
$PDMODE
 70
     1
  9
$PDSIZE
 40
-2.0
  9
$PLINEWID
 40
0.0
  9
$COORDS
 70
     1
  9
$SPLFRAME
 70
     0
  9
$SPLINETYPE
 70
     6
  9
$SPLINESEGS
 70
     8
  9
$ATTDIA
 70
     1
  9
$ATTREQ
 70
     1
  9
$HANDLING
 70
     1
  9
$HANDSEED
  5
1DB
  9
$SURFTAB1
 70
     6
  9
$SURFTAB2
 70
     6
  9
$SURFTYPE
 70
     6
  9
$SURFU
 70
     6
  9
$SURFV
 70
     6
  9
$UCSNAME
  2

  9
$UCSORG
 10
0.0
 20
0.0
 30
0.0
  9
$UCSXDIR
 10
1.0
 20
0.0
 30
0.0
  9
$UCSYDIR
 10
0.0
 20
1.0
 30
0.0
  9
$PUCSNAME
  2

  9
$PUCSORG
 10
0.0
 20
0.0
 30
0.0
  9
$PUCSXDIR
 10
1.0
 20
0.0
 30
0.0
  9
$PUCSYDIR
 10
0.0
 20
1.0
 30
0.0
  9
$USERI1
 70
     0
  9
$USERI2
 70
     0
  9
$USERI3
 70
     0
  9
$USERI4
 70
     0
  9
$USERI5
 70
     0
  9
$USERR1
 40
0.0
  9
$USERR2
 40
0.0
  9
$USERR3
 40
0.0
  9
$USERR4
 40
0.0
  9
$USERR5
 40
0.0
  9
$WORLDVIEW
 70
     1
  9
$SHADEDGE
 70
     3
  9
$SHADEDIF
 70
    70
  9
$TILEMODE
 70
     1
  9
$MAXACTVP
 70
    64
  9
$PLIMCHECK
 70
     0
  9
$PEXTMIN
 10
1.000000000000000E+20
 20
1.000000000000000E+20
 30
1.000000000000000E+20
  9
$PEXTMAX
 10
-1.000000000000000E+20
 20
-1.000000000000000E+20
 30
-1.000000000000000E+20
  9
$PLIMMIN
 10
0.0
 20
0.0
  9
$PLIMMAX
 10
12.0
 20
9.0
  9
$UNITMODE
 70
     0
  9
$VISRETAIN
 70
     0
  9
$PLINEGEN
 70
     1
  9
$PSLTSCALE
 70
     0
  0
ENDSEC
  0
SECTION
  2
TABLES
  0
TABLE
  2
VPORT
 70
     1
  0
VPORT
  2
*ACTIVE
 70
     0
 10
0.0
 20
0.0
 11
1.0
 21
1.0
 12
0.0
 22
-3.531814999999369
 13
0.0
 23
0.0
 14
1.0
 24
1.0
 15
0.0
 25
0.0
 16
0.0
 26
0.0
 36
1.0
 17
0.0
 27
0.0
 37
0.0
 40
5341.272600000001
 41
2.794721407624633
 42
50.0
 43
0.0
 44
0.0
 50
0.0
 51
0.0
 71
     0
 72
  2000
 73
     1
 74
     1
 75
     0
 76
     0
 77
     0
 78
     0
  0
ENDTAB
  0
TABLE
  2
LTYPE
 70
    11
  0
LTYPE
  2
CONTINUOUS
 70
     0
  3
Solid line
 72
    65
 73
     0
 40
0.0
  0
ENDTAB
  0
TABLE
  2
LAYER
 70
     5
  0
LAYER
  2
0
 70
     0
 62
     7
  6
CONTINUOUS
  0
LAYER
  2
HIBINO-BASE
 70
     0
 62
     7
  6
CONTINUOUS
  0
LAYER
  2
SPEC
 70
     0
 62
     7
  6
CONTINUOUS
  0
LAYER
  2
DIMNSIONS
 70
     0
 62
     7
  6
CONTINUOUS
  0
LAYER
  2
DATA
 70
     0
 62
     7
  6
CONTINUOUS
  0
ENDTAB
  0
TABLE
  2
STYLE
 70
     2
  0
STYLE
  2
STANDARD
 70
     0
 40
0.0
 41
1.0
 50
0.0
 71
     0
 42
0.0
  3
txt
  4
BIGFONT.SHX
  0
ENDTAB
  0
TABLE
  2
VIEW
 70
     0
  0
ENDTAB
  0
TABLE
  2
UCS
 70
     0
  0
ENDTAB
  0
TABLE
  2
APPID
 70
     3
  0
APPID
  2
ACAD
 70
     0
  0
APPID
  2
ACAD_MLEADERVER
 70
     0
  0
APPID
  2
ACADANNOPO
 70
     0
  0
ENDTAB
  0
TABLE
  2
DIMSTYLE
 70
     1
  0
DIMSTYLE
  2
STANDARD
 70
     0
  3

  4

  5

  6

  7

 40
1.0
 41
0.18
 42
0.0625
 43
0.38
 44
0.18
 45
0.0
 46
0.0
 47
0.0
 48
0.0
140
0.18
141
0.09
142
0.0
143
25.4
144
1.0
145
0.0
146
1.0
147
0.09
 71
     0
 72
     0
 73
     1
 74
     1
 75
     0
 76
     0
 77
     0
 78
     0
170
     0
171
     2
172
     0
173
     0
174
     0
175
     0
176
     0
177
     0
178
     0
  0
ENDTAB
  0
ENDSEC
  0
SECTION
  2
BLOCKS
  0
BLOCK
  8
DATA
  2
$MODEL_SPACE
 70
     0
 10
0.0
 20
0.0
 30
0.0
  3
$MODEL_SPACE
  1

  0
ENDBLK
  5
188
  8
DATA
  0
BLOCK
 67
     1
  8
DATA
  2
$PAPER_SPACE
 70
     0
 10
0.0
 20
0.0
 30
0.0
  3
$PAPER_SPACE
  1

  0
ENDBLK
  5
186
 67
     1
  8
DATA
  0
ENDSEC
  0
SECTION
  2
ENTITIES
  0
LINE
  5
2C
  8
HIBINO-BASE
  6
CONTINUOUS
 62
     7
 10
-1800.0
 20
2667.104485
 30
0.0
 11
1800.0
 21
2667.104485
 31
0.0
  0
LINE
  5
2D
  8
HIBINO-BASE
  6
CONTINUOUS
 62
     7
 10
1800.0
 20
-2532.895514999999
 30
0.0
 11
-1800.0
 21
-2532.895514999999
 31
0.0
  0
LINE
  5
2E
  8
HIBINO-BASE
  6
CONTINUOUS
 62
     7
 10
-1800.0
 20
-2532.895514999999
 30
0.0
 11
-1800.0
 21
2667.104485
 31
0.0
  0
LINE
  5
2F
  8
HIBINO-BASE
  6
CONTINUOUS
 62
     7
 10
1800.0
 20
2667.104485
 30
0.0
 11
1800.0
 21
-2532.895514999999
 31
0.0
  0
LINE
  5
30
  8
HIBINO-BASE
  6
CONTINUOUS
 62
     7
 10
0.0000000000002842
 20
-2082.895514999999
 30
0.0
 11
1800.0
 21
-2082.895514999999
 31
0.0
  0
LINE
  5
31
  8
HIBINO-BASE
  6
CONTINUOUS
 62
     7
 10
0.0000000000002842
 20
-2532.895514999999
 30
0.0
 11
0.0000000000002842
 21
-2082.895514999999
 31
0.0
  0
TEXT
  5
32
  8
HIBINO-BASE
 62
     7
 10
18.0000000000004
 20
-2133.069381666665
 30
0.0
 40
32.57682291666666
  1
NOTE
 41
0.7
 11
18.0000000000004
 21
-2100.492558749999
 31
0.0
 73
     3
  0
LINE
  5
33
  8
HIBINO-BASE
  6
CONTINUOUS
 62
     7
 10
700.0000000000002
 20
-2532.895514999999
 30
0.0
 11
700.0000000000002
 21
-2082.895514999999
 31
0.0
  0
TEXT
  5
34
  8
HIBINO-BASE
 62
     7
 10
717.9999999999998
 20
-2133.069381666665
 30
0.0
 40
32.57682291666666
  1
TITLE
 41
0.7
 11
717.9999999999998
 21
-2100.492558749999
 31
0.0
 73
     3
  0
LINE
  5
35
  8
HIBINO-BASE
  6
CONTINUOUS
 62
     7
 10
0.0000000000002842
 20
-2332.895514999999
 30
0.0
 11
1800.0
 21
-2332.895514999999
 31
0.0
  0
TEXT
  5
36
  8
HIBINO-BASE
 62
     7
 10
967.9999999999998
 20
-2381.942981666666
 30
0.0
 40
32.57682291666666
  1
DRAWN
 41
0.7
 11
967.9999999999998
 21
-2349.36615875
 31
0.0
 73
     3
  0
TEXT
  5
37
  8
HIBINO-BASE
 62
     7
 10
467.9999999999998
 20
-2381.942981666666
 30
0.0
 40
32.57682291666666
  1
DATE
 41
0.7
 11
467.9999999999998
 21
-2349.36615875
 31
0.0
 73
     3
  0
TEXT
  5
38
  8
HIBINO-BASE
 62
     7
 10
267.9999999999998
 20
-2381.942981666666
 30
0.0
 40
32.57682291666666
  1
SCALE
 41
0.7
 11
267.9999999999998
 21
-2349.36615875
 31
0.0
 73
     3
  0
TEXT
  5
39
  8
HIBINO-BASE
 62
     7
 10
717.9999999999998
 20
-2381.942981666666
 30
0.0
 40
32.57682291666666
  1
DESIGN
 41
0.7
 11
717.9999999999998
 21
-2349.36615875
 31
0.0
 73
     3
  0
TEXT
  5
3A
  8
HIBINO-BASE
 62
     7
 10
1468.0
 20
-2381.942981666666
 30
0.0
 40
32.57682291666666
  1
DRAWING NO.
 41
0.7
 11
1468.0
 21
-2349.36615875
 31
0.0
 73
     3
  0
TEXT
  5
3B
  8
HIBINO-BASE
 62
     7
 10
1218.0
 20
-2381.942981666666
 30
0.0
 40
32.57682291666666
  1
CHECK
 41
0.7
 11
1218.0
 21
-2349.36615875
 31
0.0
 73
     3
  0
LINE
  5
3C
  8
HIBINO-BASE
  6
CONTINUOUS
 62
     7
 10
287.5000000000003
 20
-2507.895514999999
 30
0.0
 11
362.5000000000003
 21
-2432.895514999999
 31
0.0
  0
TEXT
  5
3D
  8
HIBINO-BASE
 62
     7
 10
275.0000000000003
 20
-2455.074381666666
 30
0.0
 40
32.57682291666666
  1
1
 41
0.7
 11
275.0000000000003
 21
-2422.497558749999
 31
0.0
 73
     3
  0
LINE
  5
3E
  8
HIBINO-BASE
  6
CONTINUOUS
 62
     7
 10
250.0000000000003
 20
-2532.895514999999
 30
0.0
 11
250.0000000000003
 21
-2332.895514999999
 31
0.0
  0
LINE
  5
3F
  8
HIBINO-BASE
  6
CONTINUOUS
 62
     7
 10
449.9999999999997
 20
-2532.895514999999
 30
0.0
 11
449.9999999999997
 21
-2332.895514999999
 31
0.0
  0
LINE
  5
40
  8
HIBINO-BASE
  6
CONTINUOUS
 62
     7
 10
949.9999999999998
 20
-2332.895514999999
 30
0.0
 11
949.9999999999998
 21
-2532.895514999999
 31
0.0
  0
LINE
  5
41
  8
HIBINO-BASE
  6
CONTINUOUS
 62
     7
 10
1450.0
 20
-2332.895514999999
 30
0.0
 11
1450.0
 21
-2532.895514999999
 31
0.0
  0
LINE
  5
42
  8
HIBINO-BASE
  6
CONTINUOUS
 62
     7
 10
1200.0
 20
-2532.895514999999
 30
0.0
 11
1200.0
 21
-2332.895514999999
 31
0.0
  0
TEXT
  5
43
  8
HIBINO-BASE
 62
     7
 10
467.1308000000002
 20
-2475.622581666665
 30
0.0
 40
32.57682291666666
  1
'21.07.
 41
0.7
 11
467.1308000000002
 21
-2443.045758749999
 31
0.0
 73
     3
  0
TEXT
  5
44
  8
HIBINO-BASE
 62
     7
 10
350.0000000000003
 20
-2492.574381666666
 30
0.0
 40
32.57682291666666
  1
20
 41
0.7
 11
350.0000000000003
 21
-2459.997558749999
 31
0.0
 73
     3
  0
TEXT
  5
45
  8
HIBINO-BASE
 62
     7
 10
980.1162002206925
 20
-2475.622581666665
 30
0.0
 40
32.57682291666666
  1
N.Sasaki
 41
0.7
 11
980.1162002206925
 21
-2443.045758749999
 31
0.0
 73
     3
  0
TEXT
  5
46
  8
HIBINO-BASE
 62
     7
 10
77.66666666666737
 20
-2493.375514999999
 30
0.0
 40
65.15364583333333
  1
A4
 41
0.7
 11
77.66666666666737
 21
-2428.221869166666
 31
0.0
 73
     3
  0
TEXT
  5
47
  8
HIBINO-BASE
 62
     7
 10
19.16666666666657
 20
-2385.284614999999
 30
0.0
 40
32.57682291666666
  1
PAPER SIZE
 41
0.7
 11
19.16666666666657
 21
-2352.707792083333
 31
0.0
 73
     3
  0
TEXT
  5
48
  8
HIBINO-BASE
 62
     7
 10
-1656.319999999999
 20
-2661.069070999999
 30
0.0
 40
72.00088359374999
  1
Hibino Corporation
 41
0.7
 11
-1656.319999999999
 21
-2589.068187406249
 31
0.0
 73
     3
  0
TEXT
  5
49
  8
HIBINO-BASE
 62
     7
 10
1001.3678
 20
-2661.069070999999
 30
0.0
 40
72.00088359374999
  1
ヒビノ株式会社
 41
0.7
 11
1001.3678
 21
-2589.068187406249
 31
0.0
 73
     3
  0
LINE
  5
4A
  8
SPEC
  6
CONTINUOUS
 62
     7
 10
-1650.0
 20
2467.104485000001
 30
0.0
 11
1300.0
 21
2467.104485000001
 31
0.0
  0
LINE
  5
4B
  8
SPEC
  6
CONTINUOUS
 62
     7
 10
-1650.0
 20
2392.104485
 30
0.0
 11
1300.0
 21
2392.104485
 31
0.0
  0
LINE
  5
4C
  8
SPEC
  6
CONTINUOUS
 62
     7
 10
-1650.0
 20
2467.104485000001
 30
0.0
 11
-1650.0
 21
2317.104485
 31
0.0
  0
TEXT
  5
4D
  8
SPEC
 62
     7
 10
-1625.0
 20
2494.969885
 30
0.0
 40
48.86523437500001
  1
仕様
 41
0.7
 11
-1625.0
 21
2543.835119375
 31
0.0
 73
     3
  0
LINE
  5
4E
  8
SPEC
  6
CONTINUOUS
 62
     7
 10
-1000.0
 20
2467.104485000001
 30
0.0
 11
-1000.0
 21
2317.104485
 31
0.0
  0
LINE
  5
4F
  8
SPEC
  6
CONTINUOUS
 62
     7
 10
1300.0
 20
2467.104485000001
 30
0.0
 11
1300.0
 21
2317.104485
 31
0.0
  0
TEXT
  5
50
  8
SPEC
 62
     7
 10
-1632.0
 20
2407.862840555556
 30
0.0
 40
38.00629340277779
  1
寸法(W×H×D)
 41
0.7
 11
-1632.0
 21
2445.869133958334
 31
0.0
 73
     3
  0
TEXT
  5
51
  8
SPEC
 62
     7
 10
-1632.0
 20
2332.862840555556
 30
0.0
 40
38.00629340277779
  1
質量
 41
0.7
 11
-1632.0
 21
2370.869133958334
 31
0.0
 73
     3
  0
TEXT
  5
52
  8
SPEC
 62
     7
 10
-981.9999999999998
 20
2407.862840555556
 30
0.0
 40
38.00629340277779
  1
662×76×500mm
 41
0.7
 11
-981.9999999999998
 21
2445.869133958334
 31
0.0
 73
     3
  0
TEXT
  5
53
  8
SPEC
 62
     7
 10
-981.9999999999998
 20
2332.862840555556
 30
0.0
 40
38.00629340277779
  1
6kg
 41
0.7
 11
-981.9999999999998
 21
2370.869133958334
 31
0.0
 73
     3
  0
LINE
  5
54
  8
SPEC
  6
CONTINUOUS
 62
     7
 10
-1650.0
 20
2317.104485
 30
0.0
 11
1300.0
 21
2317.104485
 31
0.0
  0
TEXT
  5
55
  8
DIMNSIONS
 62
     7
 10
-399.9999999999999
 20
-2287.505714999999
 30
0.0
 40
48.86523437500001
  1
(単位：mm)
 41
0.7
 11
-399.9999999999999
 21
-2238.640480624999
 31
0.0
 73
     3
  0
LINE
  5
56
  8
DIMNSIONS
  6
CONTINUOUS
 62
     7
 10
-240.519721338698
 20
50.0
 30
0.0
 11
-620.0
 21
50.0
 31
0.0
  0
LINE
  5
57
  8
DIMNSIONS
  6
CONTINUOUS
 62
     7
 10
-548.0
 20
-450.0
 30
0.0
 11
-620.0
 21
-450.0
 31
0.0
  0
LINE
  5
58
  8
DIMNSIONS
  6
CONTINUOUS
 62
     7
 10
-600.0
 20
50.0
 30
0.0
 11
-600.0
 21
-450.0
 31
0.0
  0
LINE
  5
59
  8
DIMNSIONS
  6
CONTINUOUS
 62
     7
 10
-600.0
 20
50.0
 30
0.0
 11
-589.2826864755882
 21
10.00244140625
 31
0.0
  0
LINE
  5
5A
  8
DIMNSIONS
  6
CONTINUOUS
 62
     7
 10
-600.0
 20
50.0
 30
0.0
 11
-610.7173135244118
 21
10.00244140625
 31
0.0
  0
LINE
  5
5B
  8
DIMNSIONS
  6
CONTINUOUS
 62
     7
 10
-600.0
 20
-450.0
 30
0.0
 11
-610.7173135244118
 21
-410.00244140625
 31
0.0
  0
LINE
  5
5C
  8
DIMNSIONS
  6
CONTINUOUS
 62
     7
 10
-600.0
 20
-450.0
 30
0.0
 11
-589.2826864755882
 21
-410.00244140625
 31
0.0
  0
TEXT
  5
5D
  8
DIMNSIONS
 62
     7
 10
-619.8777777777777
 20
-252.9166666666667
 30
0.0
 40
54.29470486111116
  1
500
 50
90.0
 41
0.7
 11
-674.1724826388889
 21
-252.9166666666667
 31
0.0
 73
     3
  0
LINE
  5
5E
  8
DIMNSIONS
  6
CONTINUOUS
 62
     7
 10
-531.0
 20
-631.7999999999997
 30
0.0
 11
-531.0
 21
-720.0
 31
0.0
  0
LINE
  5
5F
  8
DIMNSIONS
  6
CONTINUOUS
 62
     7
 10
131.0
 20
-632.0
 30
0.0
 11
131.0
 21
-720.0
 31
0.0
  0
LINE
  5
60
  8
DIMNSIONS
  6
CONTINUOUS
 62
     7
 10
-531.0
 20
-700.0
 30
0.0
 11
131.0
 21
-700.0
 31
0.0
  0
LINE
  5
61
  8
DIMNSIONS
  6
CONTINUOUS
 62
     7
 10
-531.0
 20
-700.0
 30
0.0
 11
-491.00244140625
 21
-689.2826864755882
 31
0.0
  0
LINE
  5
62
  8
DIMNSIONS
  6
CONTINUOUS
 62
     7
 10
-531.0
 20
-700.0
 30
0.0
 11
-491.00244140625
 21
-710.7173135244118
 31
0.0
  0
LINE
  5
63
  8
DIMNSIONS
  6
CONTINUOUS
 62
     7
 10
131.0
 20
-700.0
 30
0.0
 11
91.00244140625
 21
-710.7173135244118
 31
0.0
  0
LINE
  5
64
  8
DIMNSIONS
  6
CONTINUOUS
 62
     7
 10
131.0
 20
-700.0
 30
0.0
 11
91.00244140625
 21
-689.2826864755882
 31
0.0
  0
TEXT
  5
65
  8
DIMNSIONS
 62
     7
 10
-252.9166666666667
 20
-680.1222222222223
 30
0.0
 40
54.29470486111116
  1
662
 41
0.7
 11
-252.9166666666667
 21
-625.8275173611111
 31
0.0
 73
     3
  0
LINE
  5
66
  8
DIMNSIONS
  6
CONTINUOUS
 62
     7
 10
-555.0
 20
-532.0
 30
0.0
 11
-620.0
 21
-532.0
 31
0.0
  0
LINE
  5
67
  8
DIMNSIONS
  6
CONTINUOUS
 62
     7
 10
-555.0
 20
-608.0
 30
0.0
 11
-620.0
 21
-608.0
 31
0.0
  0
LINE
  5
68
  8
DIMNSIONS
  6
CONTINUOUS
 62
     7
 10
-600.0
 20
-608.0
 30
0.0
 11
-600.0
 21
-532.0
 31
0.0
  0
LINE
  5
69
  8
DIMNSIONS
  6
CONTINUOUS
 62
     7
 10
-600.0
 20
-532.0
 30
0.0
 11
-600.0
 21
-462.0
 31
0.0
  0
LINE
  5
6A
  8
DIMNSIONS
  6
CONTINUOUS
 62
     7
 10
-600.0
 20
-532.0
 30
0.0
 11
-610.7173135244118
 21
-492.00244140625
 31
0.0
  0
LINE
  5
6B
  8
DIMNSIONS
  6
CONTINUOUS
 62
     7
 10
-600.0
 20
-532.0
 30
0.0
 11
-589.2826864755882
 21
-492.00244140625
 31
0.0
  0
LINE
  5
6C
  8
DIMNSIONS
  6
CONTINUOUS
 62
     7
 10
-600.0
 20
-608.0
 30
0.0
 11
-600.0
 21
-678.0
 31
0.0
  0
LINE
  5
6D
  8
DIMNSIONS
  6
CONTINUOUS
 62
     7
 10
-600.0
 20
-608.0
 30
0.0
 11
-589.2826864755882
 21
-647.99755859375
 31
0.0
  0
LINE
  5
6E
  8
DIMNSIONS
  6
CONTINUOUS
 62
     7
 10
-600.0
 20
-608.0
 30
0.0
 11
-610.7173135244118
 21
-647.99755859375
 31
0.0
  0
TEXT
  5
6F
  8
DIMNSIONS
 62
     7
 10
-629.8777777777777
 20
-640.5555555555555
 30
0.0
 40
54.29470486111116
  1
76.0
 50
90.0
 41
0.7
 11
-684.1724826388889
 21
-640.5555555555555
 31
0.0
 73
     3
  0
TEXT
  5
70
  8
DATA
 62
     7
 10
-1760.0
 20
-2375.369959444444
 30
0.0
 40
38.00629340277779
  1
※仕様及び外観は予告なく変更されることがあります。
 41
0.7
 11
-1760.0
 21
-2337.363666041666
 31
0.0
 73
     3
  0
TEXT
  5
71
  8
DATA
 62
     7
 10
-1760.0
 20
-2424.758848333333
 30
0.0
 40
38.00629340277779
  1
　また、同一商品でも若干の個体差があることがあります。ご了承ください。
 41
0.7
 11
-1760.0
 21
-2386.752554930555
 31
0.0
 73
     3
  0
TEXT
  5
72
  8
DATA
 62
     7
 10
1000.0
 20
-2165.277714999999
 30
0.0
 40
48.86523437500001
  1
JBL PROFESSIONAL
 41
0.7
 11
1000.0
 21
-2116.412480624999
 31
0.0
 73
     3
  0
TEXT
  5
73
  8
DATA
 62
     7
 10
1000.0
 20
-2310.277714999999
 30
0.0
 40
48.86523437500001
  1
BRX308-AF
 41
0.7
 11
1000.0
 21
-2261.412480624999
 31
0.0
 73
     3
  0
TEXT
  5
74
  8
DATA
 62
     7
 10
949.9999999999998
 20
-2237.356815
 30
0.0
 40
38.00629340277779
  1
アレイフレーム
 41
0.7
 11
949.9999999999998
 21
-2199.350521597222
 31
0.0
 73
     3
  0
LINE
  5
75
  8
DATA
  6
CONTINUOUS
 62
     7
 10
131.0
 20
-803.0
 30
0.0
 11
131.0
 21
-757.0
 31
0.0
  0
LINE
  5
76
  8
DATA
  6
CONTINUOUS
 62
     7
 10
-216.519721338698
 20
-1250.0
 30
0.0
 11
-183.4802786613018
 21
-1250.0
 31
0.0
  0
LINE
  5
77
  8
DATA
  6
CONTINUOUS
 62
     7
 10
-531.0
 20
-757.0
 30
0.0
 11
-531.0
 21
-803.0
 31
0.0
  0
LINE
  5
78
  8
DATA
  6
CONTINUOUS
 62
     7
 10
124.0
 20
-750.0
 30
0.0
 11
-524.0
 21
-750.0
 31
0.0
  0
LINE
  5
79
  8
DATA
  6
CONTINUOUS
 62
     7
 10
124.0
 20
-810.0
 30
0.0
 11
-15.0
 21
-810.0
 31
0.0
  0
LINE
  5
7A
  8
DATA
  6
CONTINUOUS
 62
     7
 10
-385.0
 20
-810.0
 30
0.0
 11
-524.0
 21
-810.0
 31
0.0
  0
LINE
  5
7B
  8
DATA
  6
CONTINUOUS
 62
     7
 10
131.0
 20
-794.9000000000001
 30
0.0
 11
127.0
 21
-794.9000000000001
 31
0.0
  0
LINE
  5
7C
  8
DATA
  6
CONTINUOUS
 62
     7
 10
127.0
 20
-764.5
 30
0.0
 11
131.0
 21
-764.5
 31
0.0
  0
LINE
  5
7D
  8
DATA
  6
CONTINUOUS
 62
     7
 10
127.0
 20
-794.9000000000001
 30
0.0
 11
127.0
 21
-764.5
 31
0.0
  0
ARC
  5
7E
  8
DATA
  6
CONTINUOUS
 62
     7
 10
124.0
 20
-803.0
 30
0.0
 40
7.0
 50
270.0
 51
0.0
  0
ARC
  5
7F
  8
DATA
  6
CONTINUOUS
 62
     7
 10
124.0
 20
-757.0
 30
0.0
 40
7.0
 50
0.0
 51
90.0
  0
ARC
  5
80
  8
DATA
  6
CONTINUOUS
 62
     7
 10
-524.0
 20
-803.0
 30
0.0
 40
7.0
 50
180.0
 51
270.0
  0
ARC
  5
81
  8
DATA
  6
CONTINUOUS
 62
     7
 10
-524.0
 20
-757.0
 30
0.0
 40
7.0
 50
90.0
 51
180.0
  0
LINE
  5
82
  8
DATA
  6
CONTINUOUS
 62
     7
 10
-163.0
 20
-921.3
 30
0.0
 11
-163.0
 21
-828.0
 31
0.0
  0
LINE
  5
83
  8
DATA
  6
CONTINUOUS
 62
     7
 10
-108.0
 20
-820.0
 30
0.0
 11
-155.0
 21
-820.0
 31
0.0
  0
ARC
  5
84
  8
DATA
  6
CONTINUOUS
 62
     7
 10
-108.0
 20
-828.0
 30
0.0
 40
8.000000000000007
 50
323.473113487264
 51
89.99999999999997
  0
ARC
  5
85
  8
DATA
  6
CONTINUOUS
 62
     7
 10
-155.0
 20
-921.3
 30
0.0
 40
8.0
 50
180.0
 51
343.0534029461389
  0
ARC
  5
86
  8
DATA
  6
CONTINUOUS
 62
     7
 10
-155.0
 20
-828.0
 30
0.0
 40
8.0
 50
90.0
 51
180.0
  0
ARC
  5
87
  8
DATA
  6
CONTINUOUS
 62
     7
 10
138.8519386907928
 20
-1010.840151323336
 30
0.0
 40
299.1912230919564
 50
143.4665033665791
 51
163.0600130668231
  0
LINE
  5
88
  8
DATA
  6
CONTINUOUS
 62
     7
 10
-237.0
 20
-921.3
 30
0.0
 11
-237.0
 21
-828.0
 31
0.0
  0
LINE
  5
89
  8
DATA
  6
CONTINUOUS
 62
     7
 10
-292.0
 20
-820.0
 30
0.0
 11
-245.0
 21
-820.0
 31
0.0
  0
ARC
  5
8A
  8
DATA
  6
CONTINUOUS
 62
     7
 10
-292.0
 20
-828.0
 30
0.0
 40
8.0
 50
90.0
 51
216.526886512737
  0
ARC
  5
8B
  8
DATA
  6
CONTINUOUS
 62
     7
 10
-245.0
 20
-921.3
 30
0.0
 40
7.999999999999947
 50
196.9465970538615
 51
0.0
  0
ARC
  5
8C
  8
DATA
  6
CONTINUOUS
 62
     7
 10
-245.0
 20
-828.0
 30
0.0
 40
8.0
 50
0.0
 51
90.0
  0
ARC
  5
8D
  8
DATA
  6
CONTINUOUS
 62
     7
 10
-538.8519386907928
 20
-1010.840151323336
 30
0.0
 40
299.1912230919568
 50
16.93998693317693
 51
36.53349663342085
  0
CIRCLE
  5
8E
  8
DATA
  6
CONTINUOUS
 62
     7
 10
-163.5
 20
-974.5
 30
0.0
 40
12.5
  0
CIRCLE
  5
8F
  8
DATA
  6
CONTINUOUS
 62
     7
 10
-236.5
 20
-974.5
 30
0.0
 40
12.5
  0
POLYLINE
  5
90
  8
DATA
  6
CONTINUOUS
 62
     7
 66
     1
 10
0.0
 20
0.0
 30
0.0
 70
     1
  0
VERTEX
  5
1C5
  8
DATA
  6
CONTINUOUS
 62
     7
 10
-203.3
 20
-1112.0
 30
0.0
  0
VERTEX
  5
1C6
  8
DATA
  6
CONTINUOUS
 62
     7
 10
-196.7
 20
-1112.0
 30
0.0
  0
VERTEX
  5
1C7
  8
DATA
  6
CONTINUOUS
 62
     7
 10
-196.7
 20
-1140.0
 30
0.0
  0
VERTEX
  5
1C8
  8
DATA
  6
CONTINUOUS
 62
     7
 10
-203.3
 20
-1140.0
 30
0.0
  0
SEQEND
  5
1D7
  8
DATA
  6
CONTINUOUS
 62
     7
  0
CIRCLE
  5
97
  8
DATA
  6
CONTINUOUS
 62
     7
 10
-168.5
 20
-1020.0
 30
0.0
 40
9.0
  0
CIRCLE
  5
98
  8
DATA
  6
CONTINUOUS
 62
     7
 10
-231.5
 20
-1020.0
 30
0.0
 40
9.0
  0
CIRCLE
  5
99
  8
DATA
  6
CONTINUOUS
 62
     7
 10
-175.5
 20
-1065.5
 30
0.0
 40
7.5
  0
CIRCLE
  5
9A
  8
DATA
  6
CONTINUOUS
 62
     7
 10
-224.5
 20
-1065.5
 30
0.0
 40
7.5
  0
ARC
  5
9B
  8
DATA
  6
CONTINUOUS
 62
     7
 10
191.096153846154
 20
-1103.162510566357
 30
0.0
 40
349.6305920121981
 50
166.2398347749223
 51
173.8160498504156
  0
ARC
  5
9C
  8
DATA
  6
CONTINUOUS
 62
     7
 10
77.13606589527399
 20
-1001.944175328496
 30
0.0
 40
212.9122379789256
 50
115.6417000947143
 51
160.0504223574449
  0
LINE
  5
9D
  8
DATA
  6
CONTINUOUS
 62
     7
 10
-148.3136061889702
 20
-1019.242514953276
 30
0.0
 11
-123.0
 21
-929.3
 31
0.0
  0
LINE
  5
9E
  8
DATA
  6
CONTINUOUS
 62
     7
 10
-168.5173759171498
 20
-1236.05429667032
 30
0.0
 11
-156.5
 21
-1065.5
 31
0.0
  0
ARC
  5
9F
  8
DATA
  6
CONTINUOUS
 62
     7
 10
-183.4802786613018
 20
-1235.0
 30
0.0
 40
15.0
 50
270.0
 51
355.9695601863202
  0
ARC
  5
A0
  8
DATA
  6
CONTINUOUS
 62
     7
 10
-591.0961538461538
 20
-1103.162510566357
 30
0.0
 40
349.6305920121979
 50
6.183950149584423
 51
13.76016522507778
  0
ARC
  5
A1
  8
DATA
  6
CONTINUOUS
 62
     7
 10
-477.1360658952738
 20
-1001.944175328496
 30
0.0
 40
212.9122379789255
 50
19.94957764255516
 51
64.35829990528576
  0
LINE
  5
A2
  8
DATA
  6
CONTINUOUS
 62
     7
 10
-251.6863938110296
 20
-1019.242514953276
 30
0.0
 11
-277.0
 21
-929.3
 31
0.0
  0
LINE
  5
A3
  8
DATA
  6
CONTINUOUS
 62
     7
 10
-231.48262408285
 20
-1236.05429667032
 30
0.0
 11
-243.5
 21
-1065.5
 31
0.0
  0
ARC
  5
A4
  8
DATA
  6
CONTINUOUS
 62
     7
 10
-216.519721338698
 20
-1235.0
 30
0.0
 40
14.99999999999991
 50
184.0304398136798
 51
270.0
  0
LINE
  5
A5
  8
DATA
  6
CONTINUOUS
 62
     7
 10
131.0
 20
-397.0
 30
0.0
 11
131.0
 21
-443.0
 31
0.0
  0
LINE
  5
A6
  8
DATA
  6
CONTINUOUS
 62
     7
 10
-216.519721338698
 20
50.0
 30
0.0
 11
-183.4802786613018
 21
50.0
 31
0.0
  0
LINE
  5
A7
  8
DATA
  6
CONTINUOUS
 62
     7
 10
-531.0
 20
-443.0
 30
0.0
 11
-531.0
 21
-397.0
 31
0.0
  0
LINE
  5
A8
  8
DATA
  6
CONTINUOUS
 62
     7
 10
124.0
 20
-450.0
 30
0.0
 11
-524.0
 21
-450.0
 31
0.0
  0
LINE
  5
A9
  8
DATA
  6
CONTINUOUS
 62
     7
 10
124.0
 20
-390.0
 30
0.0
 11
-15.0
 21
-390.0
 31
0.0
  0
LINE
  5
AA
  8
DATA
  6
CONTINUOUS
 62
     7
 10
-385.0
 20
-390.0
 30
0.0
 11
-524.0
 21
-390.0
 31
0.0
  0
LINE
  5
AB
  8
DATA
  6
CONTINUOUS
 62
     7
 10
131.0
 20
-405.0999999999999
 30
0.0
 11
-187.6499999999999
 21
-405.0999999999999
 31
0.0
  0
ARC
  5
AC
  8
DATA
  6
CONTINUOUS
 62
     7
 10
124.0
 20
-397.0
 30
0.0
 40
7.0
 50
0.0
 51
90.0
  0
ARC
  5
AD
  8
DATA
  6
CONTINUOUS
 62
     7
 10
124.0
 20
-443.0
 30
0.0
 40
7.0
 50
270.0
 51
0.0
  0
ARC
  5
AE
  8
DATA
  6
CONTINUOUS
 62
     7
 10
-524.0
 20
-397.0
 30
0.0
 40
7.0
 50
90.0
 51
180.0
  0
ARC
  5
AF
  8
DATA
  6
CONTINUOUS
 62
     7
 10
-524.0
 20
-443.0
 30
0.0
 40
7.0
 50
180.0
 51
270.0
  0
LINE
  5
B0
  8
DATA
  6
CONTINUOUS
 62
     7
 10
-163.0
 20
-278.7
 30
0.0
 11
-163.0
 21
-372.0
 31
0.0
  0
LINE
  5
B1
  8
DATA
  6
CONTINUOUS
 62
     7
 10
-108.0
 20
-380.0
 30
0.0
 11
-155.0
 21
-380.0
 31
0.0
  0
ARC
  5
B2
  8
DATA
  6
CONTINUOUS
 62
     7
 10
-108.0
 20
-372.0
 30
0.0
 40
8.0
 50
270.0
 51
36.52688651273601
  0
ARC
  5
B3
  8
DATA
  6
CONTINUOUS
 62
     7
 10
-155.0
 20
-278.7
 30
0.0
 40
8.000000000000163
 50
16.94659705386105
 51
180.0
  0
ARC
  5
B4
  8
DATA
  6
CONTINUOUS
 62
     7
 10
-155.0
 20
-372.0
 30
0.0
 40
8.0
 50
180.0
 51
270.0
  0
ARC
  5
B5
  8
DATA
  6
CONTINUOUS
 62
     7
 10
138.8519386907928
 20
-189.1598486766643
 30
0.0
 40
299.1912230919565
 50
196.939986933177
 51
216.5334966334209
  0
LINE
  5
B6
  8
DATA
  6
CONTINUOUS
 62
     7
 10
-237.0
 20
-278.7
 30
0.0
 11
-237.0
 21
-372.0
 31
0.0
  0
LINE
  5
B7
  8
DATA
  6
CONTINUOUS
 62
     7
 10
-292.0
 20
-380.0
 30
0.0
 11
-245.0
 21
-380.0
 31
0.0
  0
ARC
  5
B8
  8
DATA
  6
CONTINUOUS
 62
     7
 10
-292.0
 20
-372.0
 30
0.0
 40
7.999999999999824
 50
143.473113487263
 51
270.0
  0
ARC
  5
B9
  8
DATA
  6
CONTINUOUS
 62
     7
 10
-245.0
 20
-278.7
 30
0.0
 40
8.0
 50
0.0
 51
163.0534029461385
  0
ARC
  5
BA
  8
DATA
  6
CONTINUOUS
 62
     7
 10
-245.0
 20
-372.0
 30
0.0
 40
8.0
 50
270.0
 51
0.0
  0
ARC
  5
BB
  8
DATA
  6
CONTINUOUS
 62
     7
 10
-538.8519386907928
 20
-189.1598486766643
 30
0.0
 40
299.1912230919566
 50
323.4665033665792
 51
343.0600130668231
  0
CIRCLE
  5
BC
  8
DATA
  6
CONTINUOUS
 62
     7
 10
-163.5
 20
-225.5
 30
0.0
 40
12.5
  0
CIRCLE
  5
BD
  8
DATA
  6
CONTINUOUS
 62
     7
 10
-236.5
 20
-225.5
 30
0.0
 40
12.5
  0
POLYLINE
  5
BE
  8
DATA
  6
CONTINUOUS
 62
     7
 66
     1
 10
0.0
 20
0.0
 30
0.0
 70
     1
  0
VERTEX
  5
1C9
  8
DATA
  6
CONTINUOUS
 62
     7
 10
-203.3
 20
-60.0
 30
0.0
  0
VERTEX
  5
1CA
  8
DATA
  6
CONTINUOUS
 62
     7
 10
-196.7
 20
-60.0
 30
0.0
  0
VERTEX
  5
1CB
  8
DATA
  6
CONTINUOUS
 62
     7
 10
-196.7
 20
-88.0
 30
0.0
  0
VERTEX
  5
1CC
  8
DATA
  6
CONTINUOUS
 62
     7
 10
-203.3
 20
-88.0
 30
0.0
  0
SEQEND
  5
1D8
  8
DATA
  6
CONTINUOUS
 62
     7
  0
CIRCLE
  5
C5
  8
DATA
  6
CONTINUOUS
 62
     7
 10
-168.5
 20
-180.0
 30
0.0
 40
9.0
  0
CIRCLE
  5
C6
  8
DATA
  6
CONTINUOUS
 62
     7
 10
-231.5
 20
-180.0
 30
0.0
 40
9.0
  0
CIRCLE
  5
C7
  8
DATA
  6
CONTINUOUS
 62
     7
 10
-175.5
 20
-134.5
 30
0.0
 40
7.5
  0
CIRCLE
  5
C8
  8
DATA
  6
CONTINUOUS
 62
     7
 10
-224.5
 20
-134.5
 30
0.0
 40
7.5
  0
ARC
  5
C9
  8
DATA
  6
CONTINUOUS
 62
     7
 10
191.096153846154
 20
-96.83748943364321
 30
0.0
 40
349.6305920121981
 50
186.1839501495844
 51
193.7601652250777
  0
ARC
  5
CA
  8
DATA
  6
CONTINUOUS
 62
     7
 10
77.13606589527399
 20
-198.0558246715041
 30
0.0
 40
212.9122379789257
 50
199.9495776425551
 51
244.3582999052857
  0
LINE
  5
CB
  8
DATA
  6
CONTINUOUS
 62
     7
 10
-148.3136061889702
 20
-180.7574850467236
 30
0.0
 11
-123.0
 21
-270.7
 31
0.0
  0
LINE
  5
CC
  8
DATA
  6
CONTINUOUS
 62
     7
 10
-168.5173759171498
 20
36.05429667031967
 30
0.0
 11
-156.5
 21
-134.5
 31
0.0
  0
ARC
  5
CD
  8
DATA
  6
CONTINUOUS
 62
     7
 10
-183.4802786613018
 20
35.0
 30
0.0
 40
14.99999999999991
 50
4.030439813679783
 51
89.99999999999999
  0
ARC
  5
CE
  8
DATA
  6
CONTINUOUS
 62
     7
 10
-591.0961538461538
 20
-96.83748943364321
 30
0.0
 40
349.6305920121979
 50
346.2398347749223
 51
353.8160498504156
  0
ARC
  5
CF
  8
DATA
  6
CONTINUOUS
 62
     7
 10
-477.1360658952738
 20
-198.0558246715041
 30
0.0
 40
212.9122379789255
 50
295.6417000947143
 51
340.0504223574449
  0
LINE
  5
D0
  8
DATA
  6
CONTINUOUS
 62
     7
 10
-251.6863938110296
 20
-180.7574850467236
 30
0.0
 11
-277.0
 21
-270.7
 31
0.0
  0
LINE
  5
D1
  8
DATA
  6
CONTINUOUS
 62
     7
 10
-231.48262408285
 20
36.05429667031967
 30
0.0
 11
-243.5
 21
-134.5
 31
0.0
  0
ARC
  5
D2
  8
DATA
  6
CONTINUOUS
 62
     7
 10
-216.519721338698
 20
35.0
 30
0.0
 40
15.0
 50
90.0
 51
175.9695601863203
  0
LINE
  5
D3
  8
DATA
  6
CONTINUOUS
 62
     7
 10
-187.6499999999999
 20
-407.5
 30
0.0
 11
-187.6499999999999
 21
50.0
 31
0.0
  0
LINE
  5
D4
  8
DATA
  6
CONTINUOUS
 62
     7
 10
-212.3499999999999
 20
-407.5
 30
0.0
 11
-212.3499999999999
 21
50.0
 31
0.0
  0
LINE
  5
D5
  8
DATA
  6
CONTINUOUS
 62
     7
 10
-217.5
 20
-407.5
 30
0.0
 11
-212.3499999999999
 21
-407.5
 31
0.0
  0
LINE
  5
D6
  8
DATA
  6
CONTINUOUS
 62
     7
 10
-217.5
 20
-432.5
 30
0.0
 11
-217.5
 21
-407.5
 31
0.0
  0
LINE
  5
D7
  8
DATA
  6
CONTINUOUS
 62
     7
 10
-182.5
 20
-432.5
 30
0.0
 11
-217.5
 21
-432.5
 31
0.0
  0
LINE
  5
D8
  8
DATA
  6
CONTINUOUS
 62
     7
 10
-182.5
 20
-407.5
 30
0.0
 11
-182.5
 21
-432.5
 31
0.0
  0
LINE
  5
D9
  8
DATA
  6
CONTINUOUS
 62
     7
 10
-187.6499999999999
 20
-407.5
 30
0.0
 11
-182.5
 21
-407.5
 31
0.0
  0
LINE
  5
DA
  8
DATA
  6
CONTINUOUS
 62
     7
 10
-212.3499999999999
 20
-405.0
 30
0.0
 11
-531.0
 21
-405.0
 31
0.0
  0
LINE
  5
DB
  8
DATA
  6
CONTINUOUS
 62
     7
 10
-531.0
 20
-435.5
 30
0.0
 11
131.0
 21
-435.5
 31
0.0
  0
LINE
  5
DC
  8
DATA
  6
CONTINUOUS
 62
     7
 10
131.0
 20
-573.0
 30
0.0
 11
-531.0
 21
-573.0
 31
0.0
  0
LINE
  5
DD
  8
DATA
  6
CONTINUOUS
 62
     7
 10
-217.5
 20
-527.0
 30
0.0
 11
-182.5
 21
-527.0
 31
0.0
  0
LINE
  5
DE
  8
DATA
  6
CONTINUOUS
 62
     7
 10
190.027378107908
 20
-532.0
 30
0.0
 11
219.8273781079081
 21
-532.0
 31
0.0
  0
LINE
  5
DF
  8
DATA
  6
CONTINUOUS
 62
     7
 10
175.527378107908
 20
-567.0
 30
0.0
 11
175.527378107908
 21
-572.0999999999999
 31
0.0
  0
LINE
  5
E0
  8
DATA
  6
CONTINUOUS
 62
     7
 10
235.527378107908
 20
-567.0
 30
0.0
 11
235.527378107908
 21
-572.0999999999999
 31
0.0
  0
LINE
  5
E1
  8
DATA
  6
CONTINUOUS
 62
     7
 10
175.527378107908
 20
-567.0
 30
0.0
 11
190.0273781079081
 21
-567.0
 31
0.0
  0
LINE
  5
E2
  8
DATA
  6
CONTINUOUS
 62
     7
 10
219.8273781079082
 20
-567.0
 30
0.0
 11
675.527378107908
 21
-567.0
 31
0.0
  0
LINE
  5
E3
  8
DATA
  6
CONTINUOUS
 62
     7
 10
175.527378107908
 20
-572.0999999999999
 30
0.0
 11
190.0273781079081
 21
-572.0999999999999
 31
0.0
  0
LINE
  5
E4
  8
DATA
  6
CONTINUOUS
 62
     7
 10
219.8273781079082
 20
-572.0999999999999
 30
0.0
 11
675.527378107908
 21
-572.0999999999999
 31
0.0
  0
LINE
  5
E5
  8
DATA
  6
CONTINUOUS
 62
     7
 10
675.527378107908
 20
-572.0999999999999
 30
0.0
 11
675.527378107908
 21
-527.0
 31
0.0
  0
LINE
  5
E6
  8
DATA
  6
CONTINUOUS
 62
     7
 10
193.027378107908
 20
-527.0
 30
0.0
 11
675.527378107908
 21
-527.0
 31
0.0
  0
LINE
  5
E7
  8
DATA
  6
CONTINUOUS
 62
     7
 10
193.027378107908
 20
-527.0
 30
0.0
 11
193.027378107908
 21
-532.0
 31
0.0
  0
CIRCLE
  5
E8
  8
DATA
  6
CONTINUOUS
 62
     7
 10
655.777378107908
 20
-546.0
 30
0.0
 40
8.950000000000045
  0
CIRCLE
  5
E9
  8
DATA
  6
CONTINUOUS
 62
     7
 10
630.777378107908
 20
-546.0
 30
0.0
 40
8.950000000000045
  0
CIRCLE
  5
EA
  8
DATA
  6
CONTINUOUS
 62
     7
 10
605.777378107908
 20
-546.0
 30
0.0
 40
8.950000000000045
  0
CIRCLE
  5
EB
  8
DATA
  6
CONTINUOUS
 62
     7
 10
580.777378107908
 20
-546.0
 30
0.0
 40
8.950000000000045
  0
CIRCLE
  5
EC
  8
DATA
  6
CONTINUOUS
 62
     7
 10
508.377378107908
 20
-546.0
 30
0.0
 40
8.950000000000045
  0
CIRCLE
  5
ED
  8
DATA
  6
CONTINUOUS
 62
     7
 10
483.377378107908
 20
-546.0
 30
0.0
 40
8.950000000000045
  0
CIRCLE
  5
EE
  8
DATA
  6
CONTINUOUS
 62
     7
 10
458.377378107908
 20
-546.0
 30
0.0
 40
8.950000000000045
  0
CIRCLE
  5
EF
  8
DATA
  6
CONTINUOUS
 62
     7
 10
433.377378107908
 20
-546.0
 30
0.0
 40
8.950000000000045
  0
CIRCLE
  5
F0
  8
DATA
  6
CONTINUOUS
 62
     7
 10
408.377378107908
 20
-546.0
 30
0.0
 40
8.950000000000045
  0
CIRCLE
  5
F1
  8
DATA
  6
CONTINUOUS
 62
     7
 10
383.377378107908
 20
-546.0
 30
0.0
 40
8.950000000000045
  0
CIRCLE
  5
F2
  8
DATA
  6
CONTINUOUS
 62
     7
 10
358.377378107908
 20
-546.0
 30
0.0
 40
8.950000000000045
  0
CIRCLE
  5
F3
  8
DATA
  6
CONTINUOUS
 62
     7
 10
333.377378107908
 20
-546.0
 30
0.0
 40
8.950000000000045
  0
CIRCLE
  5
F4
  8
DATA
  6
CONTINUOUS
 62
     7
 10
308.377378107908
 20
-546.0
 30
0.0
 40
8.950000000000045
  0
CIRCLE
  5
F5
  8
DATA
  6
CONTINUOUS
 62
     7
 10
283.377378107908
 20
-546.0
 30
0.0
 40
8.950000000000045
  0
CIRCLE
  5
F6
  8
DATA
  6
CONTINUOUS
 62
     7
 10
258.377378107908
 20
-546.0
 30
0.0
 40
8.950000000000045
  0
CIRCLE
  5
F7
  8
DATA
  6
CONTINUOUS
 62
     7
 10
233.377378107908
 20
-546.0
 30
0.0
 40
8.950000000000045
  0
POLYLINE
  5
F8
  8
DATA
  6
CONTINUOUS
 62
     7
 66
     1
 10
0.0
 20
0.0
 30
0.0
 70
     1
  0
VERTEX
  5
1CD
  8
DATA
  6
CONTINUOUS
 62
     7
 10
113.0
 20
-764.5
 30
0.0
  0
VERTEX
  5
1CE
  8
DATA
  6
CONTINUOUS
 62
     7
 10
118.0
 20
-764.5
 30
0.0
  0
VERTEX
  5
1CF
  8
DATA
  6
CONTINUOUS
 62
     7
 10
118.0
 20
-794.9000000000001
 30
0.0
  0
VERTEX
  5
1D0
  8
DATA
  6
CONTINUOUS
 62
     7
 10
113.0
 20
-794.9000000000001
 30
0.0
  0
SEQEND
  5
1D9
  8
DATA
  6
CONTINUOUS
 62
     7
  0
LINE
  5
FF
  8
DATA
  6
CONTINUOUS
 62
     7
 10
-531.0
 20
-794.9000000000001
 30
0.0
 11
-527.0
 21
-794.9000000000001
 31
0.0
  0
LINE
  5
100
  8
DATA
  6
CONTINUOUS
 62
     7
 10
-527.0
 20
-764.5
 30
0.0
 11
-531.0
 21
-764.5
 31
0.0
  0
LINE
  5
101
  8
DATA
  6
CONTINUOUS
 62
     7
 10
-527.0
 20
-794.9000000000001
 30
0.0
 11
-527.0
 21
-764.5
 31
0.0
  0
POLYLINE
  5
102
  8
DATA
  6
CONTINUOUS
 62
     7
 66
     1
 10
0.0
 20
0.0
 30
0.0
 70
     1
  0
VERTEX
  5
1D1
  8
DATA
  6
CONTINUOUS
 62
     7
 10
-518.0
 20
-764.5
 30
0.0
  0
VERTEX
  5
1D2
  8
DATA
  6
CONTINUOUS
 62
     7
 10
-513.0
 20
-764.5
 30
0.0
  0
VERTEX
  5
1D3
  8
DATA
  6
CONTINUOUS
 62
     7
 10
-513.0
 20
-794.9000000000001
 30
0.0
  0
VERTEX
  5
1D4
  8
DATA
  6
CONTINUOUS
 62
     7
 10
-518.0
 20
-794.9000000000001
 30
0.0
  0
SEQEND
  5
1DA
  8
DATA
  6
CONTINUOUS
 62
     7
  0
LINE
  5
109
  8
DATA
  6
CONTINUOUS
 62
     7
 10
131.0
 20
-532.0
 30
0.0
 11
-531.0
 21
-532.0
 31
0.0
  0
ARC
  5
10A
  8
DATA
  6
CONTINUOUS
 62
     7
 10
-234.8499999999991
 20
-549.0000000000008
 30
0.0
 40
5.000000000000909
 50
90.00000000001042
 51
179.9999999999909
  0
LINE
  5
10B
  8
DATA
  6
CONTINUOUS
 62
     7
 10
-239.85
 20
-553.9
 30
0.0
 11
-239.85
 21
-549.0
 31
0.0
  0
ARC
  5
10C
  8
DATA
  6
CONTINUOUS
 62
     7
 10
-234.8500000000001
 20
-553.9
 30
0.0
 40
4.999999999999943
 50
180.0
 51
270.000000000001
  0
LINE
  5
10D
  8
DATA
  6
CONTINUOUS
 62
     7
 10
-165.15
 20
-558.8999999999997
 30
0.0
 11
-234.85
 21
-558.9
 31
0.0
  0
ARC
  5
10E
  8
DATA
  6
CONTINUOUS
 62
     7
 10
-165.1499999999999
 20
-553.8999999999997
 30
0.0
 40
5.0
 50
269.9999999999987
 51
0.0
  0
LINE
  5
10F
  8
DATA
  6
CONTINUOUS
 62
     7
 10
-160.15
 20
-548.9999999999999
 30
0.0
 11
-160.15
 21
-553.8999999999997
 31
0.0
  0
ARC
  5
110
  8
DATA
  6
CONTINUOUS
 62
     7
 10
-165.1499999999999
 20
-548.9999999999999
 30
0.0
 40
4.999999999999915
 50
0.0
 51
90.00000000000097
  0
LINE
  5
111
  8
DATA
  6
CONTINUOUS
 62
     7
 10
-234.85
 20
-543.9999999999999
 30
0.0
 11
-165.15
 21
-543.9999999999999
 31
0.0
  0
LINE
  5
112
  8
DATA
  6
CONTINUOUS
 62
     7
 10
-217.5
 20
-532.0
 30
0.0
 11
-217.5
 21
-527.0
 31
0.0
  0
LINE
  5
113
  8
DATA
  6
CONTINUOUS
 62
     7
 10
-182.5
 20
-527.0
 30
0.0
 11
-182.5
 21
-532.0
 31
0.0
  0
ARC
  5
114
  8
DATA
  6
CONTINUOUS
 62
     7
 10
-499.849999999999
 20
-549.000000000001
 30
0.0
 40
5.000000000001137
 50
90.00000000001172
 51
179.9999999999883
  0
LINE
  5
115
  8
DATA
  6
CONTINUOUS
 62
     7
 10
-504.85
 20
-553.9
 30
0.0
 11
-504.85
 21
-549.0
 31
0.0
  0
ARC
  5
116
  8
DATA
  6
CONTINUOUS
 62
     7
 10
-499.8499999999999
 20
-553.8999999999999
 30
0.0
 40
5.000000000000114
 50
180.0000000000013
 51
269.9999999999987
  0
LINE
  5
117
  8
DATA
  6
CONTINUOUS
 62
     7
 10
-430.15
 20
-558.8999999999997
 30
0.0
 11
-499.85
 21
-558.9
 31
0.0
  0
ARC
  5
118
  8
DATA
  6
CONTINUOUS
 62
     7
 10
-430.1499999999999
 20
-553.8999999999997
 30
0.0
 40
5.0
 50
269.9999999999987
 51
0.0
  0
LINE
  5
119
  8
DATA
  6
CONTINUOUS
 62
     7
 10
-425.15
 20
-548.9999999999999
 30
0.0
 11
-425.15
 21
-553.8999999999997
 31
0.0
  0
ARC
  5
11A
  8
DATA
  6
CONTINUOUS
 62
     7
 10
-430.15
 20
-548.9999999999999
 30
0.0
 40
5.0
 50
0.0
 51
90.0
  0
LINE
  5
11B
  8
DATA
  6
CONTINUOUS
 62
     7
 10
-499.85
 20
-543.9999999999999
 30
0.0
 11
-430.15
 21
-543.9999999999999
 31
0.0
  0
ARC
  5
11C
  8
DATA
  6
CONTINUOUS
 62
     7
 10
30.15000000000097
 20
-549.000000000001
 30
0.0
 40
5.000000000001137
 50
90.0000000000114
 51
179.9999999999883
  0
LINE
  5
11D
  8
DATA
  6
CONTINUOUS
 62
     7
 10
25.14999999999998
 20
-553.9
 30
0.0
 11
25.14999999999998
 21
-549.0
 31
0.0
  0
ARC
  5
11E
  8
DATA
  6
CONTINUOUS
 62
     7
 10
30.15000000000003
 20
-553.8999999999999
 30
0.0
 40
5.000000000000057
 50
180.0000000000013
 51
269.9999999999993
  0
LINE
  5
11F
  8
DATA
  6
CONTINUOUS
 62
     7
 10
99.85000000000002
 20
-558.8999999999997
 30
0.0
 11
30.14999999999998
 21
-558.9
 31
0.0
  0
ARC
  5
120
  8
DATA
  6
CONTINUOUS
 62
     7
 10
99.85000000000014
 20
-553.8999999999997
 30
0.0
 40
5.0
 50
269.9999999999987
 51
0.0
  0
LINE
  5
121
  8
DATA
  6
CONTINUOUS
 62
     7
 10
104.85
 20
-548.9999999999999
 30
0.0
 11
104.85
 21
-553.8999999999997
 31
0.0
  0
ARC
  5
122
  8
DATA
  6
CONTINUOUS
 62
     7
 10
99.84999999999991
 20
-549.0
 30
0.0
 40
5.000000000000114
 50
0.0000000000013074
 51
89.99999999999864
  0
LINE
  5
123
  8
DATA
  6
CONTINUOUS
 62
     7
 10
30.14999999999998
 20
-543.9999999999999
 30
0.0
 11
99.85000000000002
 21
-543.9999999999999
 31
0.0
  0
ARC
  5
124
  8
DATA
  6
CONTINUOUS
 62
     7
 10
-367.3499999999991
 20
-549.0000000000008
 30
0.0
 40
5.000000000000796
 50
90.00000000001042
 51
179.9999999999922
  0
LINE
  5
125
  8
DATA
  6
CONTINUOUS
 62
     7
 10
-372.35
 20
-553.9000000000001
 30
0.0
 11
-372.35
 21
-549.0000000000001
 31
0.0
  0
ARC
  5
126
  8
DATA
  6
CONTINUOUS
 62
     7
 10
-367.35
 20
-553.9000000000001
 30
0.0
 40
5.0
 50
180.0
 51
270.0
  0
LINE
  5
127
  8
DATA
  6
CONTINUOUS
 62
     7
 10
-297.65
 20
-558.8999999999999
 30
0.0
 11
-367.35
 21
-558.9000000000001
 31
0.0
  0
ARC
  5
128
  8
DATA
  6
CONTINUOUS
 62
     7
 10
-297.6499999999999
 20
-553.9
 30
0.0
 40
4.999999999999886
 50
269.9999999999987
 51
0.0000000000013642
  0
LINE
  5
129
  8
DATA
  6
CONTINUOUS
 62
     7
 10
-292.65
 20
-549.0
 30
0.0
 11
-292.65
 21
-553.8999999999999
 31
0.0
  0
ARC
  5
12A
  8
DATA
  6
CONTINUOUS
 62
     7
 10
-297.6499999999999
 20
-548.9999999999999
 30
0.0
 40
4.999999999999943
 50
359.9999999999987
 51
90.00000000000068
  0
LINE
  5
12B
  8
DATA
  6
CONTINUOUS
 62
     7
 10
-367.35
 20
-544.0
 30
0.0
 11
-297.65
 21
-544.0
 31
0.0
  0
ARC
  5
12C
  8
DATA
  6
CONTINUOUS
 62
     7
 10
-102.3499999999992
 20
-549.0000000000006
 30
0.0
 40
5.000000000000796
 50
90.0000000000096
 51
179.9999999999922
  0
LINE
  5
12D
  8
DATA
  6
CONTINUOUS
 62
     7
 10
-107.35
 20
-553.8999999999999
 30
0.0
 11
-107.35
 21
-548.9999999999999
 31
0.0
  0
ARC
  5
12E
  8
DATA
  6
CONTINUOUS
 62
     7
 10
-102.3500000000001
 20
-553.9
 30
0.0
 40
4.999999999999915
 50
179.9999999999987
 51
270.0000000000011
  0
LINE
  5
12F
  8
DATA
  6
CONTINUOUS
 62
     7
 10
-32.64999999999998
 20
-558.8999999999996
 30
0.0
 11
-102.35
 21
-558.8999999999999
 31
0.0
  0
ARC
  5
130
  8
DATA
  6
CONTINUOUS
 62
     7
 10
-32.64999999999989
 20
-553.8999999999997
 30
0.0
 40
4.999999999999886
 50
269.999999999999
 51
0.0000000000013074
  0
LINE
  5
131
  8
DATA
  6
CONTINUOUS
 62
     7
 10
-27.65000000000001
 20
-548.9999999999998
 30
0.0
 11
-27.65000000000001
 21
-553.8999999999996
 31
0.0
  0
ARC
  5
132
  8
DATA
  6
CONTINUOUS
 62
     7
 10
-32.64999999999995
 20
-548.9999999999997
 30
0.0
 40
4.999999999999943
 50
359.9999999999987
 51
90.00000000000068
  0
LINE
  5
133
  8
DATA
  6
CONTINUOUS
 62
     7
 10
-102.35
 20
-543.9999999999998
 30
0.0
 11
-32.65000000000001
 21
-543.9999999999998
 31
0.0
  0
LINE
  5
134
  8
DATA
  6
CONTINUOUS
 62
     7
 10
130.9999999999999
 20
-567.0
 30
0.0
 11
-531.0
 21
-567.0
 31
0.0
  0
LINE
  5
135
  8
DATA
  6
CONTINUOUS
 62
     7
 10
-531.0
 20
-608.0
 30
0.0
 11
-531.0
 21
-532.0
 31
0.0
  0
LINE
  5
136
  8
DATA
  6
CONTINUOUS
 62
     7
 10
131.0
 20
-532.0
 30
0.0
 11
131.0
 21
-608.0
 31
0.0
  0
LINE
  5
137
  8
DATA
  6
CONTINUOUS
 62
     7
 10
219.8273781079082
 20
-532.0
 30
0.0
 11
219.8273781079082
 21
-593.0999999999999
 31
0.0
  0
LINE
  5
138
  8
DATA
  6
CONTINUOUS
 62
     7
 10
190.027378107908
 20
-593.0999999999999
 30
0.0
 11
190.027378107908
 21
-532.0
 31
0.0
  0
ARC
  5
139
  8
DATA
  6
CONTINUOUS
 62
     7
 10
204.9273781079081
 20
-593.0999999999999
 30
0.0
 40
14.90000000000009
 50
180.0
 51
0.0
  0
LINE
  5
13A
  8
DATA
  6
CONTINUOUS
 62
     7
 10
127.0
 20
-608.0
 30
0.0
 11
127.0
 21
-573.0
 31
0.0
  0
LINE
  5
13B
  8
DATA
  6
CONTINUOUS
 62
     7
 10
127.0
 20
-566.9999999999999
 30
0.0
 11
127.0
 21
-560.0
 31
0.0
  0
LINE
  5
13C
  8
DATA
  6
CONTINUOUS
 62
     7
 10
113.0
 20
-608.0
 30
0.0
 11
113.0
 21
-573.0
 31
0.0
  0
LINE
  5
13D
  8
DATA
  6
CONTINUOUS
 62
     7
 10
118.0
 20
-608.0
 30
0.0
 11
113.0
 21
-608.0
 31
0.0
  0
LINE
  5
13E
  8
DATA
  6
CONTINUOUS
 62
     7
 10
118.0
 20
-560.0
 30
0.0
 11
118.0
 21
-566.9999999999999
 31
0.0
  0
LINE
  5
13F
  8
DATA
  6
CONTINUOUS
 62
     7
 10
118.0
 20
-573.0
 30
0.0
 11
118.0
 21
-608.0
 31
0.0
  0
LINE
  5
140
  8
DATA
  6
CONTINUOUS
 62
     7
 10
-527.0
 20
-608.0
 30
0.0
 11
-527.0
 21
-573.0
 31
0.0
  0
LINE
  5
141
  8
DATA
  6
CONTINUOUS
 62
     7
 10
-527.0
 20
-566.9999999999999
 30
0.0
 11
-527.0
 21
-560.0
 31
0.0
  0
LINE
  5
142
  8
DATA
  6
CONTINUOUS
 62
     7
 10
-513.0
 20
-608.0
 30
0.0
 11
-513.0
 21
-573.0
 31
0.0
  0
LINE
  5
143
  8
DATA
  6
CONTINUOUS
 62
     7
 10
-518.0
 20
-608.0
 30
0.0
 11
-513.0
 21
-608.0
 31
0.0
  0
LINE
  5
144
  8
DATA
  6
CONTINUOUS
 62
     7
 10
-518.0
 20
-560.0
 30
0.0
 11
-518.0
 21
-566.9999999999999
 31
0.0
  0
LINE
  5
145
  8
DATA
  6
CONTINUOUS
 62
     7
 10
-518.0
 20
-573.0
 30
0.0
 11
-518.0
 21
-608.0
 31
0.0
  0
LINE
  5
146
  8
DATA
  6
CONTINUOUS
 62
     7
 10
-531.0
 20
-608.0
 30
0.0
 11
-527.0
 21
-608.0
 31
0.0
  0
LINE
  5
147
  8
DATA
  6
CONTINUOUS
 62
     7
 10
127.0
 20
-608.0
 30
0.0
 11
131.0
 21
-608.0
 31
0.0
  0
CIRCLE
  5
148
  8
DATA
  6
CONTINUOUS
 62
     7
 10
204.9273781079081
 20
-593.05
 30
0.0
 40
3.950000000000045
  0
CIRCLE
  5
149
  8
DATA
  6
CONTINUOUS
 62
     7
 10
-196.7
 20
-74.0
 30
0.0
 40
3.949999999999989
  0
CIRCLE
  5
14A
  8
DATA
  6
CONTINUOUS
 62
     7
 10
551.527378107908
 20
-541.95
 30
0.0
 40
3.949999999999932
  0
LINE
  5
14B
  8
DATA
  6
CONTINUOUS
 62
     7
 10
127.0
 20
-560.0
 30
0.0
 11
118.0
 21
-560.0
 31
0.0
  0
LINE
  5
14C
  8
DATA
  6
CONTINUOUS
 62
     7
 10
-518.0
 20
-560.0
 30
0.0
 11
-527.0
 21
-560.0
 31
0.0
  0
LINE
  5
14D
  8
DATA
  6
CONTINUOUS
 62
     7
 10
-222.5
 20
-532.0
 30
0.0
 11
-217.5
 21
-527.0
 31
0.0
  0
LINE
  5
14E
  8
DATA
  6
CONTINUOUS
 62
     7
 10
-177.5
 20
-532.0
 30
0.0
 11
-182.5
 21
-527.0
 31
0.0
  0
LINE
  5
14F
  8
DATA
  6
CONTINUOUS
 62
     7
 10
-222.5
 20
-435.5
 30
0.0
 11
-222.5
 21
-405.0
 31
0.0
  0
LINE
  5
150
  8
DATA
  6
CONTINUOUS
 62
     7
 10
-177.5
 20
-435.5
 30
0.0
 11
-177.5
 21
-405.0
 31
0.0
  0
LINE
  5
151
  8
DATA
  6
CONTINUOUS
 62
     7
 10
218.027378107908
 20
-527.0
 30
0.0
 11
218.027378107908
 21
-532.0
 31
0.0
  0
LINE
  5
152
  8
DATA
  6
CONTINUOUS
 62
     7
 10
190.027378107908
 20
-532.0
 30
0.0
 11
193.027378107908
 21
-527.0
 31
0.0
  0
LINE
  5
153
  8
DATA
  6
CONTINUOUS
 62
     7
 10
219.8273781079082
 20
-532.0
 30
0.0
 11
218.027378107908
 21
-527.0
 31
0.0
  0
ENDSEC
  0
EOF
