  0
SECTION
  2
HEADER
  9
$ACADVER
  1
AC1009
  9
$DWGCODEPAGE
  3
ansi_932
  9
$INSBASE
 10
0.0
 20
0.0
 30
0.0
  9
$EXTMIN
 10
-1799.9999999955
 20
-2698.168409524513
 30
0.0
  9
$EXTMAX
 10
1799.9999999955
 20
2667.104484993323
 30
0.0
  9
$LIMMIN
 10
0.0
 20
0.0
  9
$LIMMAX
 10
0.0
 20
0.0
  9
$ORTHOMODE
 70
     0
  9
$REGENMODE
 70
     1
  9
$FILLMODE
 70
     1
  9
$QTEXTMODE
 70
     0
  9
$MIRRTEXT
 70
     1
  9
$DRAGMODE
 70
     2
  9
$LTSCALE
 40
101.6
  9
$OSMODE
 70
    37
  9
$ATTMODE
 70
     1
  9
$TEXTSIZE
 40
0.0
  9
$TRACEWID
 40
1.0
  9
$TEXTSTYLE
  7
STANDARD
  9
$CLAYER
  8
DATA
  9
$CELTYPE
  6
BYLAYER
  9
$CECOLOR
 62
   256
  9
$DIMSCALE
 40
1.0
  9
$DIMASZ
 40
0.18
  9
$DIMEXO
 40
0.0625
  9
$DIMDLI
 40
0.38
  9
$DIMRND
 40
0.0
  9
$DIMDLE
 40
0.0
  9
$DIMEXE
 40
0.18
  9
$DIMTP
 40
0.0
  9
$DIMTM
 40
0.0
  9
$DIMTXT
 40
0.18
  9
$DIMCEN
 40
0.09
  9
$DIMTSZ
 40
0.0
  9
$DIMTOL
 70
     0
  9
$DIMLIM
 70
     0
  9
$DIMTIH
 70
     1
  9
$DIMTOH
 70
     1
  9
$DIMSE1
 70
     0
  9
$DIMSE2
 70
     0
  9
$DIMTAD
 70
     0
  9
$DIMZIN
 70
     0
  9
$DIMBLK
  1

  9
$DIMASO
 70
     1
  9
$DIMSHO
 70
     1
  9
$DIMPOST
  1

  9
$DIMAPOST
  1

  9
$DIMALT
 70
     0
  9
$DIMALTD
 70
     2
  9
$DIMALTF
 40
25.4
  9
$DIMLFAC
 40
1.0
  9
$DIMTOFL
 70
     0
  9
$DIMTVP
 40
0.0
  9
$DIMTIX
 70
     0
  9
$DIMSOXD
 70
     0
  9
$DIMSAH
 70
     0
  9
$DIMBLK1
  1

  9
$DIMBLK2
  1

  9
$DIMSTYLE
  2
STANDARD
  9
$DIMCLRD
 70
     0
  9
$DIMCLRE
 70
     0
  9
$DIMCLRT
 70
     0
  9
$DIMTFAC
 40
1.0
  9
$DIMGAP
 40
0.09
  9
$LUNITS
 70
     2
  9
$LUPREC
 70
     2
  9
$SKETCHINC
 40
0.1
  9
$FILLETRAD
 40
0.0
  9
$AUNITS
 70
     0
  9
$AUPREC
 70
     0
  9
$MENU
  1
acad
  9
$ELEVATION
 40
0.0
  9
$PELEVATION
 40
0.0
  9
$THICKNESS
 40
0.0
  9
$LIMCHECK
 70
     0
  9
$CHAMFERA
 40
0.0
  9
$CHAMFERB
 40
0.0
  9
$SKPOLY
 70
     0
  9
$TDCREATE
 40
2459408.746774352
  9
$TDUPDATE
 40
2459408.747243229
  9
$TDINDWG
 40
2459408.372244202
  9
$TDUSRTIMER
 40
0.0004698495
  9
$USRTIMER
 70
     1
  9
$ANGBASE
 50
0.0
  9
$ANGDIR
 70
     0
  9
$PDMODE
 70
     1
  9
$PDSIZE
 40
-2.0
  9
$PLINEWID
 40
0.0
  9
$COORDS
 70
     1
  9
$SPLFRAME
 70
     0
  9
$SPLINETYPE
 70
     6
  9
$SPLINESEGS
 70
     8
  9
$ATTDIA
 70
     1
  9
$ATTREQ
 70
     1
  9
$HANDLING
 70
     1
  9
$HANDSEED
  5
4C4
  9
$SURFTAB1
 70
     6
  9
$SURFTAB2
 70
     6
  9
$SURFTYPE
 70
     6
  9
$SURFU
 70
     6
  9
$SURFV
 70
     6
  9
$UCSNAME
  2

  9
$UCSORG
 10
0.0
 20
0.0
 30
0.0
  9
$UCSXDIR
 10
1.0
 20
0.0
 30
0.0
  9
$UCSYDIR
 10
0.0
 20
1.0
 30
0.0
  9
$PUCSNAME
  2

  9
$PUCSORG
 10
0.0
 20
0.0
 30
0.0
  9
$PUCSXDIR
 10
1.0
 20
0.0
 30
0.0
  9
$PUCSYDIR
 10
0.0
 20
1.0
 30
0.0
  9
$USERI1
 70
     0
  9
$USERI2
 70
     0
  9
$USERI3
 70
     0
  9
$USERI4
 70
     0
  9
$USERI5
 70
     0
  9
$USERR1
 40
0.0
  9
$USERR2
 40
0.0
  9
$USERR3
 40
0.0
  9
$USERR4
 40
0.0
  9
$USERR5
 40
0.0
  9
$WORLDVIEW
 70
     1
  9
$SHADEDGE
 70
     3
  9
$SHADEDIF
 70
    70
  9
$TILEMODE
 70
     1
  9
$MAXACTVP
 70
    64
  9
$PLIMCHECK
 70
     0
  9
$PEXTMIN
 10
1.000000000000000E+20
 20
1.000000000000000E+20
 30
1.000000000000000E+20
  9
$PEXTMAX
 10
-1.000000000000000E+20
 20
-1.000000000000000E+20
 30
-1.000000000000000E+20
  9
$PLIMMIN
 10
0.0
 20
0.0
  9
$PLIMMAX
 10
12.0
 20
9.0
  9
$UNITMODE
 70
     0
  9
$VISRETAIN
 70
     0
  9
$PLINEGEN
 70
     1
  9
$PSLTSCALE
 70
     0
  0
ENDSEC
  0
SECTION
  2
TABLES
  0
TABLE
  2
VPORT
 70
     1
  0
VPORT
  2
*ACTIVE
 70
     0
 10
0.0
 20
0.0
 11
1.0
 21
1.0
 12
0.0
 22
-3.531814999999824
 13
0.0
 23
0.0
 14
1.0
 24
1.0
 15
0.0
 25
0.0
 16
0.0
 26
0.0
 36
1.0
 17
0.0
 27
0.0
 37
0.0
 40
5341.272599986648
 41
2.443378119001919
 42
50.0
 43
0.0
 44
0.0
 50
0.0
 51
0.0
 71
     0
 72
  2000
 73
     1
 74
     1
 75
     0
 76
     0
 77
     0
 78
     0
  0
ENDTAB
  0
TABLE
  2
LTYPE
 70
    11
  0
LTYPE
  2
CONTINUOUS
 70
     0
  3
Solid line
 72
    65
 73
     0
 40
0.0
  0
ENDTAB
  0
TABLE
  2
LAYER
 70
     5
  0
LAYER
  2
0
 70
     0
 62
     7
  6
CONTINUOUS
  0
LAYER
  2
HIBINO-BASE
 70
     0
 62
     7
  6
CONTINUOUS
  0
LAYER
  2
SPEC
 70
     0
 62
     7
  6
CONTINUOUS
  0
LAYER
  2
DIMNSIONS
 70
     0
 62
     7
  6
CONTINUOUS
  0
LAYER
  2
DATA
 70
     0
 62
     7
  6
CONTINUOUS
  0
ENDTAB
  0
TABLE
  2
STYLE
 70
     2
  0
STYLE
  2
STANDARD
 70
     0
 40
0.0
 41
1.0
 50
0.0
 71
     0
 42
0.0
  3
txt
  4
BIGFONT.SHX
  0
ENDTAB
  0
TABLE
  2
VIEW
 70
     0
  0
ENDTAB
  0
TABLE
  2
UCS
 70
     0
  0
ENDTAB
  0
TABLE
  2
APPID
 70
     3
  0
APPID
  2
ACAD
 70
     0
  0
APPID
  2
ACAD_MLEADERVER
 70
     0
  0
APPID
  2
ACADANNOPO
 70
     0
  0
ENDTAB
  0
TABLE
  2
DIMSTYLE
 70
     1
  0
DIMSTYLE
  2
STANDARD
 70
     0
  3

  4

  5

  6

  7

 40
1.0
 41
0.18
 42
0.0625
 43
0.38
 44
0.18
 45
0.0
 46
0.0
 47
0.0
 48
0.0
140
0.18
141
0.09
142
0.0
143
25.4
144
1.0
145
0.0
146
1.0
147
0.09
 71
     0
 72
     0
 73
     1
 74
     1
 75
     0
 76
     0
 77
     0
 78
     0
170
     0
171
     2
172
     0
173
     0
174
     0
175
     0
176
     0
177
     0
178
     0
  0
ENDTAB
  0
ENDSEC
  0
SECTION
  2
BLOCKS
  0
BLOCK
  8
DATA
  2
$MODEL_SPACE
 70
     0
 10
0.0
 20
0.0
 30
0.0
  3
$MODEL_SPACE
  1

  0
ENDBLK
  5
449
  8
DATA
  0
BLOCK
 67
     1
  8
DATA
  2
$PAPER_SPACE
 70
     0
 10
0.0
 20
0.0
 30
0.0
  3
$PAPER_SPACE
  1

  0
ENDBLK
  5
447
 67
     1
  8
DATA
  0
ENDSEC
  0
SECTION
  2
ENTITIES
  0
LINE
  5
2C
  8
HIBINO-BASE
  6
CONTINUOUS
 62
     7
 10
-1799.9999999955
 20
2667.104484993323
 30
0.0
 11
1799.9999999955
 21
2667.104484993323
 31
0.0
  0
LINE
  5
2D
  8
HIBINO-BASE
  6
CONTINUOUS
 62
     7
 10
1799.9999999955
 20
-2532.895514993676
 30
0.0
 11
-1799.9999999955
 21
-2532.895514993676
 31
0.0
  0
LINE
  5
2E
  8
HIBINO-BASE
  6
CONTINUOUS
 62
     7
 10
-1799.9999999955
 20
-2532.895514993676
 30
0.0
 11
-1799.9999999955
 21
2667.104484993323
 31
0.0
  0
LINE
  5
2F
  8
HIBINO-BASE
  6
CONTINUOUS
 62
     7
 10
1799.9999999955
 20
2667.104484993323
 30
0.0
 11
1799.9999999955
 21
-2532.895514993676
 31
0.0
  0
LINE
  5
30
  8
HIBINO-BASE
  6
CONTINUOUS
 62
     7
 10
0.0000000000002842
 20
-2082.895514994801
 30
0.0
 11
1799.9999999955
 21
-2082.895514994801
 31
0.0
  0
LINE
  5
31
  8
HIBINO-BASE
  6
CONTINUOUS
 62
     7
 10
0.0000000000002842
 20
-2532.895514993676
 30
0.0
 11
0.0000000000002842
 21
-2082.895514994801
 31
0.0
  0
TEXT
  5
32
  8
HIBINO-BASE
 62
     7
 10
17.9999999999554
 20
-2133.069381661342
 30
0.0
 40
32.57682291658521
  1
NOTE
 41
0.7
 11
17.9999999999554
 21
-2100.492558744757
 31
0.0
 73
     3
  0
LINE
  5
33
  8
HIBINO-BASE
  6
CONTINUOUS
 62
     7
 10
699.9999999982502
 20
-2532.895514993676
 30
0.0
 11
699.9999999982502
 21
-2082.895514994801
 31
0.0
  0
TEXT
  5
34
  8
HIBINO-BASE
 62
     7
 10
717.9999999982048
 20
-2133.069381661342
 30
0.0
 40
32.57682291658521
  1
TITLE
 41
0.7
 11
717.9999999982048
 21
-2100.492558744757
 31
0.0
 73
     3
  0
LINE
  5
35
  8
HIBINO-BASE
  6
CONTINUOUS
 62
     7
 10
0.0000000000002842
 20
-2332.895514994177
 30
0.0
 11
1799.9999999955
 21
-2332.895514994177
 31
0.0
  0
TEXT
  5
36
  8
HIBINO-BASE
 62
     7
 10
967.9999999975798
 20
-2381.942981660721
 30
0.0
 40
32.57682291658521
  1
DRAWN
 41
0.7
 11
967.9999999975798
 21
-2349.366158744136
 31
0.0
 73
     3
  0
TEXT
  5
37
  8
HIBINO-BASE
 62
     7
 10
467.9999999988298
 20
-2381.942981660721
 30
0.0
 40
32.57682291658521
  1
DATE
 41
0.7
 11
467.9999999988298
 21
-2349.366158744136
 31
0.0
 73
     3
  0
TEXT
  5
38
  8
HIBINO-BASE
 62
     7
 10
267.9999999993298
 20
-2381.942981660721
 30
0.0
 40
32.57682291658521
  1
SCALE
 41
0.7
 11
267.9999999993298
 21
-2349.366158744136
 31
0.0
 73
     3
  0
TEXT
  5
39
  8
HIBINO-BASE
 62
     7
 10
717.9999999982048
 20
-2381.942981660721
 30
0.0
 40
32.57682291658521
  1
DESIGN
 41
0.7
 11
717.9999999982048
 21
-2349.366158744136
 31
0.0
 73
     3
  0
TEXT
  5
3A
  8
HIBINO-BASE
 62
     7
 10
1467.99999999633
 20
-2381.942981660721
 30
0.0
 40
32.57682291658521
  1
DRAWING NO.
 41
0.7
 11
1467.99999999633
 21
-2349.366158744136
 31
0.0
 73
     3
  0
TEXT
  5
3B
  8
HIBINO-BASE
 62
     7
 10
1217.999999996955
 20
-2381.942981660721
 30
0.0
 40
32.57682291658521
  1
CHECK
 41
0.7
 11
1217.999999996955
 21
-2349.366158744136
 31
0.0
 73
     3
  0
LINE
  5
3C
  8
HIBINO-BASE
  6
CONTINUOUS
 62
     7
 10
287.4999999992816
 20
-2507.895514993739
 30
0.0
 11
362.499999999094
 21
-2432.895514993927
 31
0.0
  0
TEXT
  5
3D
  8
HIBINO-BASE
 62
     7
 10
274.9999999993128
 20
-2455.074381660538
 30
0.0
 40
32.57682291658521
  1
1
 41
0.7
 11
274.9999999993128
 21
-2422.497558743953
 31
0.0
 73
     3
  0
LINE
  5
3E
  8
HIBINO-BASE
  6
CONTINUOUS
 62
     7
 10
249.9999999993753
 20
-2532.895514993676
 30
0.0
 11
249.9999999993753
 21
-2332.895514994177
 31
0.0
  0
LINE
  5
3F
  8
HIBINO-BASE
  6
CONTINUOUS
 62
     7
 10
449.9999999988747
 20
-2532.895514993676
 30
0.0
 11
449.9999999988747
 21
-2332.895514994177
 31
0.0
  0
LINE
  5
40
  8
HIBINO-BASE
  6
CONTINUOUS
 62
     7
 10
949.9999999976246
 20
-2332.895514994177
 30
0.0
 11
949.9999999976246
 21
-2532.895514993676
 31
0.0
  0
LINE
  5
41
  8
HIBINO-BASE
  6
CONTINUOUS
 62
     7
 10
1449.999999996375
 20
-2332.895514994177
 30
0.0
 11
1449.999999996375
 21
-2532.895514993676
 31
0.0
  0
LINE
  5
42
  8
HIBINO-BASE
  6
CONTINUOUS
 62
     7
 10
1199.999999997
 20
-2532.895514993676
 30
0.0
 11
1199.999999997
 21
-2332.895514994177
 31
0.0
  0
TEXT
  5
43
  8
HIBINO-BASE
 62
     7
 10
467.1307999988323
 20
-2475.622581660486
 30
0.0
 40
32.57682291658521
  1
'21.07.
 41
0.7
 11
467.1307999988323
 21
-2443.0457587439
 31
0.0
 73
     3
  0
TEXT
  5
44
  8
HIBINO-BASE
 62
     7
 10
349.9999999991253
 20
-2492.574381660444
 30
0.0
 40
32.57682291658521
  1
20
 41
0.7
 11
349.9999999991253
 21
-2459.997558743859
 31
0.0
 73
     3
  0
TEXT
  5
45
  8
HIBINO-BASE
 62
     7
 10
980.1162002182422
 20
-2475.622581660486
 30
0.0
 40
32.57682291658521
  1
N.Sasaki
 41
0.7
 11
980.1162002182422
 21
-2443.0457587439
 31
0.0
 73
     3
  0
TEXT
  5
46
  8
HIBINO-BASE
 62
     7
 10
77.66666666647319
 20
-2493.375514993775
 30
0.0
 40
65.15364583317043
  1
A4
 41
0.7
 11
77.66666666647319
 21
-2428.221869160604
 31
0.0
 73
     3
  0
TEXT
  5
47
  8
HIBINO-BASE
 62
     7
 10
19.16666666661865
 20
-2385.284614994045
 30
0.0
 40
32.57682291658521
  1
PAPER SIZE
 41
0.7
 11
19.16666666661865
 21
-2352.70779207746
 31
0.0
 73
     3
  0
TEXT
  5
48
  8
HIBINO-BASE
 62
     7
 10
-1656.319999995859
 20
-2661.069070993356
 30
0.0
 40
72.00088359357
  1
Hibino Corporation
 41
0.7
 11
-1656.319999995859
 21
-2589.068187399786
 31
0.0
 73
     3
  0
TEXT
  5
49
  8
HIBINO-BASE
 62
     7
 10
1001.367799997497
 20
-2661.069070993356
 30
0.0
 40
72.00088359357
  1
ヒビノ株式会社
 41
0.7
 11
1001.367799997497
 21
-2589.068187399786
 31
0.0
 73
     3
  0
LINE
  5
4A
  8
SPEC
  6
CONTINUOUS
 62
     7
 10
-1649.999999995874
 20
2467.104484993823
 30
0.0
 11
1299.99999999675
 21
2467.104484993823
 31
0.0
  0
LINE
  5
4B
  8
SPEC
  6
CONTINUOUS
 62
     7
 10
-1649.999999995874
 20
2392.104484994011
 30
0.0
 11
1299.99999999675
 21
2392.104484994011
 31
0.0
  0
LINE
  5
4C
  8
SPEC
  6
CONTINUOUS
 62
     7
 10
-1649.999999995874
 20
2467.104484993823
 30
0.0
 11
-1649.999999995874
 21
1792.104484995511
 31
0.0
  0
TEXT
  5
4D
  8
SPEC
 62
     7
 10
-1624.999999995937
 20
2494.969884993754
 30
0.0
 40
48.86523437487784
  1
仕様
 41
0.7
 11
-1624.999999995937
 21
2543.835119368631
 31
0.0
 73
     3
  0
LINE
  5
4E
  8
SPEC
  6
CONTINUOUS
 62
     7
 10
-999.9999999974998
 20
2467.104484993823
 30
0.0
 11
-999.9999999974998
 21
1792.104484995511
 31
0.0
  0
LINE
  5
4F
  8
SPEC
  6
CONTINUOUS
 62
     7
 10
1299.99999999675
 20
2467.104484993823
 30
0.0
 11
1299.99999999675
 21
1792.104484995511
 31
0.0
  0
TEXT
  5
50
  8
SPEC
 62
     7
 10
-1631.99999999592
 20
1882.862840550839
 30
0.0
 40
38.00629340268277
  1
寸法(W×H×D)
 41
0.7
 11
-1631.99999999592
 21
1920.869133953522
 31
0.0
 73
     3
  0
TEXT
  5
51
  8
SPEC
 62
     7
 10
-1631.99999999592
 20
1807.862840551026
 30
0.0
 40
38.00629340268277
  1
質量
 41
0.7
 11
-1631.99999999592
 21
1845.869133953709
 31
0.0
 73
     3
  0
TEXT
  5
52
  8
SPEC
 62
     7
 10
-981.9999999975448
 20
1882.862840550839
 30
0.0
 40
38.00629340268277
  1
663×300×388mm
 41
0.7
 11
-981.9999999975448
 21
1920.869133953522
 31
0.0
 73
     3
  0
TEXT
  5
53
  8
SPEC
 62
     7
 10
-981.9999999975448
 20
1807.862840551026
 30
0.0
 40
38.00629340268277
  1
20kg
 41
0.7
 11
-981.9999999975448
 21
1845.869133953709
 31
0.0
 73
     3
  0
LINE
  5
54
  8
SPEC
  6
CONTINUOUS
 62
     7
 10
-1649.999999995874
 20
2317.104484994198
 30
0.0
 11
1299.99999999675
 21
2317.104484994198
 31
0.0
  0
LINE
  5
55
  8
SPEC
  6
CONTINUOUS
 62
     7
 10
-1649.999999995874
 20
2242.104484994386
 30
0.0
 11
1299.99999999675
 21
2242.104484994386
 31
0.0
  0
LINE
  5
56
  8
SPEC
  6
CONTINUOUS
 62
     7
 10
-1237.999999996905
 20
2167.104484994573
 30
0.0
 11
1299.99999999675
 21
2167.104484994573
 31
0.0
  0
LINE
  5
57
  8
SPEC
  6
CONTINUOUS
 62
     7
 10
-1649.999999995874
 20
2092.104484994761
 30
0.0
 11
1299.99999999675
 21
2092.104484994761
 31
0.0
  0
LINE
  5
58
  8
SPEC
  6
CONTINUOUS
 62
     7
 10
-1649.999999995874
 20
2017.104484994948
 30
0.0
 11
1299.99999999675
 21
2017.104484994948
 31
0.0
  0
LINE
  5
59
  8
SPEC
  6
CONTINUOUS
 62
     7
 10
-1649.999999995874
 20
1942.104484995136
 30
0.0
 11
1299.99999999675
 21
1942.104484995136
 31
0.0
  0
LINE
  5
5A
  8
SPEC
  6
CONTINUOUS
 62
     7
 10
-1649.999999995874
 20
1867.104484995323
 30
0.0
 11
1299.99999999675
 21
1867.104484995323
 31
0.0
  0
LINE
  5
5B
  8
SPEC
  6
CONTINUOUS
 62
     7
 10
-1649.999999995874
 20
1792.104484995511
 30
0.0
 11
1299.99999999675
 21
1792.104484995511
 31
0.0
  0
TEXT
  5
5C
  8
SPEC
 62
     7
 10
-1631.99999999592
 20
2407.862840549526
 30
0.0
 40
38.00629340268277
  1
周波数レンジ(-10dB)
 41
0.7
 11
-1631.99999999592
 21
2445.869133952209
 31
0.0
 73
     3
  0
TEXT
  5
5D
  8
SPEC
 62
     7
 10
-1631.99999999592
 20
2332.862840549714
 30
0.0
 40
38.00629340268277
  1
指向角度(水平×垂直)
 41
0.7
 11
-1631.99999999592
 21
2370.869133952397
 31
0.0
 73
     3
  0
TEXT
  5
5E
  8
SPEC
 62
     7
 10
-1631.99999999592
 20
2257.862840549902
 30
0.0
 40
38.00629340268277
  1
最大音圧レベル
 41
0.7
 11
-1631.99999999592
 21
2295.869133952584
 31
0.0
 73
     3
  0
TEXT
  5
5F
  8
SPEC
 62
     7
 10
-1631.99999999592
 20
2182.862840550089
 30
0.0
 40
38.00629340268277
  1
ドライバー構成
 41
0.7
 11
-1631.99999999592
 21
2220.869133952772
 31
0.0
 73
     3
  0
TEXT
  5
60
  8
SPEC
 62
     7
 10
-1631.99999999592
 20
2032.862840550464
 30
0.0
 40
38.00629340268277
  1
入力端子
 41
0.7
 11
-1631.99999999592
 21
2070.869133953147
 31
0.0
 73
     3
  0
TEXT
  5
61
  8
SPEC
 62
     7
 10
-1631.99999999592
 20
1957.862840550652
 30
0.0
 40
38.00629340268277
  1
エンクロージャー
 41
0.7
 11
-1631.99999999592
 21
1995.869133953335
 31
0.0
 73
     3
  0
TEXT
  5
62
  8
SPEC
 62
     7
 10
-981.9999999975449
 20
2407.862840549526
 30
0.0
 40
38.00629340268277
  1
80Hz～20kHz
 41
0.7
 11
-981.9999999975449
 21
2445.869133952209
 31
0.0
 73
     3
  0
TEXT
  5
63
  8
SPEC
 62
     7
 10
-981.9999999975448
 20
2332.862840549714
 30
0.0
 40
38.00629340268277
  1
110°×12°
 41
0.7
 11
-981.9999999975448
 21
2370.869133952397
 31
0.0
 73
     3
  0
TEXT
  5
64
  8
SPEC
 62
     7
 10
-981.9999999975449
 20
2257.862840549902
 30
0.0
 40
38.00629340268277
  1
136dB SPL(ピーク)
 41
0.7
 11
-981.9999999975449
 21
2295.869133952584
 31
0.0
 73
     3
  0
TEXT
  5
65
  8
SPEC
 62
     7
 10
-981.9999999975448
 20
2182.862840550089
 30
0.0
 40
38.00629340268277
  1
8インチ(203mm)×2
 41
0.7
 11
-981.9999999975448
 21
2220.869133952772
 31
0.0
 73
     3
  0
TEXT
  5
66
  8
SPEC
 62
     7
 10
-981.9999999975448
 20
2032.862840550464
 30
0.0
 40
38.00629340268277
  1
4Pスピコン×2
 41
0.7
 11
-981.9999999975448
 21
2070.869133953147
 31
0.0
 73
     3
  0
TEXT
  5
67
  8
SPEC
 62
     7
 10
-981.9999999975448
 20
1957.862840550652
 30
0.0
 40
38.00629340268277
  1
黒、Duraflex仕上げ
 41
0.7
 11
-981.9999999975448
 21
1995.869133953335
 31
0.0
 73
     3
  0
TEXT
  5
68
  8
SPEC
 62
     7
 10
-1219.99999999695
 20
2182.862840550089
 30
0.0
 40
38.00629340268277
  1
LF
 41
0.7
 11
-1219.99999999695
 21
2220.869133952772
 31
0.0
 73
     3
  0
TEXT
  5
69
  8
SPEC
 62
     7
 10
-981.9999999975448
 20
2107.862840550277
 30
0.0
 40
38.00629340268277
  1
3インチ(76mm)
 41
0.7
 11
-981.9999999975448
 21
2145.86913395296
 31
0.0
 73
     3
  0
TEXT
  5
6A
  8
SPEC
 62
     7
 10
-1219.99999999695
 20
2107.862840550277
 30
0.0
 40
38.00629340268277
  1
HF
 41
0.7
 11
-1219.99999999695
 21
2145.86913395296
 31
0.0
 73
     3
  0
LINE
  5
6B
  8
SPEC
  6
CONTINUOUS
 62
     7
 10
-1237.999999996905
 20
2242.104484994386
 30
0.0
 11
-1237.999999996905
 21
2092.104484994761
 31
0.0
  0
TEXT
  5
6C
  8
DIMNSIONS
 62
     7
 10
-399.9999999989998
 20
-2287.505714994289
 30
0.0
 40
48.86523437487784
  1
(単位：mm)
 41
0.7
 11
-399.9999999989998
 21
-2238.640480619411
 31
0.0
 73
     3
  0
LINE
  5
6D
  8
DIMNSIONS
  6
CONTINUOUS
 62
     7
 10
31.25
 20
-1664.759438230673
 30
0.0
 11
31.25
 21
-1760.759438230673
 31
0.0
  0
LINE
  5
6E
  8
DIMNSIONS
  6
CONTINUOUS
 62
     7
 10
-631.25
 20
-1664.759438230673
 30
0.0
 11
-631.25
 21
-1760.759438230673
 31
0.0
  0
LINE
  5
6F
  8
DIMNSIONS
  6
CONTINUOUS
 62
     7
 10
31.25
 20
-1740.759438230673
 30
0.0
 11
-631.25
 21
-1740.759438230673
 31
0.0
  0
LINE
  5
70
  8
DIMNSIONS
  6
CONTINUOUS
 62
     7
 10
31.25
 20
-1740.759438230673
 30
0.0
 11
-8.747558593749993
 21
-1751.476751755085
 31
0.0
  0
LINE
  5
71
  8
DIMNSIONS
  6
CONTINUOUS
 62
     7
 10
31.25
 20
-1740.759438230673
 30
0.0
 11
-8.74755859375
 21
-1730.042124706261
 31
0.0
  0
LINE
  5
72
  8
DIMNSIONS
  6
CONTINUOUS
 62
     7
 10
-631.25
 20
-1740.759438230673
 30
0.0
 11
-591.25244140625
 21
-1730.042124706261
 31
0.0
  0
LINE
  5
73
  8
DIMNSIONS
  6
CONTINUOUS
 62
     7
 10
-631.25
 20
-1740.759438230673
 30
0.0
 11
-591.25244140625
 21
-1751.476751755085
 31
0.0
  0
TEXT
  5
74
  8
DIMNSIONS
 62
     7
 10
-352.9166666666667
 20
-1720.881660452895
 30
0.0
 40
54.29470486111111
  1
663
 41
0.7
 11
-352.9166666666667
 21
-1666.586955591784
 31
0.0
 73
     3
  0
LINE
  5
75
  8
DIMNSIONS
  6
CONTINUOUS
 62
     7
 10
-648.65
 20
-1341.039438230673
 30
0.0
 11
-720.0
 21
-1341.039438230673
 31
0.0
  0
LINE
  5
76
  8
DIMNSIONS
  6
CONTINUOUS
 62
     7
 10
-655.25
 20
-1640.759438230673
 30
0.0
 11
-720.0
 21
-1640.759438230673
 31
0.0
  0
LINE
  5
77
  8
DIMNSIONS
  6
CONTINUOUS
 62
     7
 10
-700.0
 20
-1341.039438230673
 30
0.0
 11
-700.0
 21
-1640.759438230673
 31
0.0
  0
LINE
  5
78
  8
DIMNSIONS
  6
CONTINUOUS
 62
     7
 10
-700.0
 20
-1341.039438230673
 30
0.0
 11
-689.2826864755882
 21
-1381.036996824423
 31
0.0
  0
LINE
  5
79
  8
DIMNSIONS
  6
CONTINUOUS
 62
     7
 10
-700.0
 20
-1341.039438230673
 30
0.0
 11
-710.7173135244118
 21
-1381.036996824423
 31
0.0
  0
LINE
  5
7A
  8
DIMNSIONS
  6
CONTINUOUS
 62
     7
 10
-700.0
 20
-1640.759438230673
 30
0.0
 11
-710.7173135244118
 21
-1600.761879636923
 31
0.0
  0
LINE
  5
7B
  8
DIMNSIONS
  6
CONTINUOUS
 62
     7
 10
-700.0
 20
-1640.759438230673
 30
0.0
 11
-689.2826864755882
 21
-1600.761879636923
 31
0.0
  0
TEXT
  5
7C
  8
DIMNSIONS
 62
     7
 10
-719.8777777777777
 20
-1543.81610489734
 30
0.0
 40
54.29470486111111
  1
300
 50
90.0
 41
0.7
 11
-774.1724826388888
 21
-1543.81610489734
 31
0.0
 73
     3
  0
LINE
  5
7D
  8
DIMNSIONS
  6
CONTINUOUS
 62
     7
 10
-630.25
 20
-902.8994382306727
 30
0.0
 11
-720.0
 21
-902.8994382306727
 31
0.0
  0
LINE
  5
7E
  8
DIMNSIONS
  6
CONTINUOUS
 62
     7
 10
-655.25
 20
-1290.899438230673
 30
0.0
 11
-720.0
 21
-1290.899438230673
 31
0.0
  0
LINE
  5
7F
  8
DIMNSIONS
  6
CONTINUOUS
 62
     7
 10
-700.0
 20
-902.8994382306727
 30
0.0
 11
-700.0
 21
-1290.899438230673
 31
0.0
  0
LINE
  5
80
  8
DIMNSIONS
  6
CONTINUOUS
 62
     7
 10
-700.0
 20
-902.8994382306727
 30
0.0
 11
-689.2826864755882
 21
-942.8969968244227
 31
0.0
  0
LINE
  5
81
  8
DIMNSIONS
  6
CONTINUOUS
 62
     7
 10
-700.0
 20
-902.8994382306727
 30
0.0
 11
-710.7173135244118
 21
-942.8969968244227
 31
0.0
  0
LINE
  5
82
  8
DIMNSIONS
  6
CONTINUOUS
 62
     7
 10
-700.0
 20
-1290.899438230673
 30
0.0
 11
-710.7173135244118
 21
-1250.901879636923
 31
0.0
  0
LINE
  5
83
  8
DIMNSIONS
  6
CONTINUOUS
 62
     7
 10
-700.0
 20
-1290.899438230673
 30
0.0
 11
-689.2826864755882
 21
-1250.901879636923
 31
0.0
  0
TEXT
  5
84
  8
DIMNSIONS
 62
     7
 10
-719.8777777777777
 20
-1149.81610489734
 30
0.0
 40
54.29470486111111
  1
388
 50
90.0
 41
0.7
 11
-774.1724826388888
 21
-1149.81610489734
 31
0.0
 73
     3
  0
LINE
  5
85
  8
DATA
  6
CONTINUOUS
 62
     7
 10
-631.25
 20
-831.75
 30
0.0
 11
-631.25
 21
-550.1399999999999
 31
0.0
  0
LINE
  5
86
  8
DATA
  6
CONTINUOUS
 62
     7
 10
1000.0
 20
-801.79689785223
 30
0.0
 11
1400.0
 21
-801.79689785223
 31
0.0
  0
TEXT
  5
87
  8
DATA
 62
     7
 10
-1759.9999999956
 20
-2375.369959438515
 30
0.0
 40
38.00629340268277
  1
※仕様及び外観は予告なく変更されることがあります。
 41
0.7
 11
-1759.9999999956
 21
-2337.363666035832
 31
0.0
 73
     3
  0
TEXT
  5
88
  8
DATA
 62
     7
 10
-1759.9999999956
 20
-2424.75884832728
 30
0.0
 40
38.00629340268277
  1
　また、同一商品でも若干の個体差があることがあります。ご了承ください。
 41
0.7
 11
-1759.9999999956
 21
-2386.752554924597
 31
0.0
 73
     3
  0
TEXT
  5
89
  8
DATA
 62
     7
 10
999.9999999974997
 20
-2165.277714994595
 30
0.0
 40
48.86523437487784
  1
JBL PROFESSIONAL
 41
0.7
 11
999.9999999974997
 21
-2116.412480619717
 31
0.0
 73
     3
  0
TEXT
  5
8A
  8
DATA
 62
     7
 10
999.9999999974997
 20
-2310.277714994232
 30
0.0
 40
48.86523437487784
  1
BRX308-LA
 41
0.7
 11
999.9999999974997
 21
-2261.412480619354
 31
0.0
 73
     3
  0
TEXT
  5
8B
  8
DATA
 62
     7
 10
949.9999999976246
 20
-2237.356814994415
 30
0.0
 40
38.00629340268277
  1
2-Wayフルレンジ・スピーカー
 41
0.7
 11
949.9999999976246
 21
-2199.350521591733
 31
0.0
 73
     3
  0
LINE
  5
8C
  8
DATA
  6
CONTINUOUS
 62
     7
 10
26.25
 20
-1622.558314692017
 30
0.0
 11
17.20000000000005
 21
-1622.558314692017
 31
0.0
  0
LINE
  5
8D
  8
DATA
  6
CONTINUOUS
 62
     7
 10
12.0
 20
-1622.558314692017
 30
0.0
 11
-612.0
 21
-1622.558314692017
 31
0.0
  0
LINE
  5
8E
  8
DATA
  6
CONTINUOUS
 62
     7
 10
12.0
 20
-1359.240561769327
 30
0.0
 11
12.0
 21
-1640.759438230673
 31
0.0
  0
LINE
  5
8F
  8
DATA
  6
CONTINUOUS
 62
     7
 10
-618.5500000000001
 20
-1359.240561769327
 30
0.0
 11
18.55000000000007
 21
-1359.240561769327
 31
0.0
  0
LINE
  5
90
  8
DATA
  6
CONTINUOUS
 62
     7
 10
24.65000000000009
 20
-1359.240561769327
 30
0.0
 11
31.25
 21
-1359.240561769327
 31
0.0
  0
LINE
  5
91
  8
DATA
  6
CONTINUOUS
 62
     7
 10
-631.25
 20
-1290.899438230673
 30
0.0
 11
-631.25
 21
-945.8994382306727
 31
0.0
  0
LINE
  5
92
  8
DATA
  6
CONTINUOUS
 62
     7
 10
31.25
 20
-945.8994382306727
 30
0.0
 11
31.25
 21
-1290.899438230673
 31
0.0
  0
LINE
  5
93
  8
DATA
  6
CONTINUOUS
 62
     7
 10
-19.25
 20
-902.8994382306727
 30
0.0
 11
6.25
 21
-902.8994382306727
 31
0.0
  0
LINE
  5
94
  8
DATA
  6
CONTINUOUS
 62
     7
 10
100.0
 20
-1625.259438230673
 30
0.0
 11
100.0
 21
-1356.539438230673
 31
0.0
  0
LINE
  5
95
  8
DATA
  6
CONTINUOUS
 62
     7
 10
445.0
 20
-1395.650448341417
 30
0.0
 11
445.0
 21
-1586.148428119928
 31
0.0
  0
LINE
  5
96
  8
DATA
  6
CONTINUOUS
 62
     7
 10
31.25
 20
-1640.759438230673
 30
0.0
 11
26.25
 21
-1640.759438230673
 31
0.0
  0
LINE
  5
97
  8
DATA
  6
CONTINUOUS
 62
     7
 10
17.20000000000005
 20
-1640.759438230673
 30
0.0
 11
12.0
 21
-1640.759438230673
 31
0.0
  0
LINE
  5
98
  8
DATA
  6
CONTINUOUS
 62
     7
 10
31.25
 20
-1359.240561769327
 30
0.0
 11
31.25
 21
-1640.759438230673
 31
0.0
  0
LINE
  5
99
  8
DATA
  6
CONTINUOUS
 62
     7
 10
18.55
 20
-1341.039438230673
 30
0.0
 11
24.65
 21
-1341.039438230673
 31
0.0
  0
LINE
  5
9A
  8
DATA
  6
CONTINUOUS
 62
     7
 10
-612.0
 20
-1290.899438230673
 30
0.0
 11
-612.0
 21
-1260.039438230673
 31
0.0
  0
LINE
  5
9B
  8
DATA
  6
CONTINUOUS
 62
     7
 10
31.25
 20
-1290.899438230673
 30
0.0
 11
-631.25
 21
-1290.899438230673
 31
0.0
  0
LINE
  5
9C
  8
DATA
  6
CONTINUOUS
 62
     7
 10
12.0
 20
-1260.039438230673
 30
0.0
 11
12.0
 21
-1290.899438230673
 31
0.0
  0
LINE
  5
9D
  8
DATA
  6
CONTINUOUS
 62
     7
 10
488.0
 20
-1418.899438230673
 30
0.0
 11
488.0
 21
-1562.899438230673
 31
0.0
  0
LINE
  5
9E
  8
DATA
  6
CONTINUOUS
 62
     7
 10
480.0
 20
-1427.299438230673
 30
0.0
 11
480.0
 21
-1554.499438230673
 31
0.0
  0
LINE
  5
9F
  8
DATA
  6
CONTINUOUS
 62
     7
 10
131.0
 20
-1625.259438230673
 30
0.0
 11
131.0
 21
-1356.539438230673
 31
0.0
  0
LINE
  5
A0
  8
DATA
  6
CONTINUOUS
 62
     7
 10
468.0
 20
-1405.749438230673
 30
0.0
 11
445.0
 21
-1405.749438230673
 31
0.0
  0
LINE
  5
A1
  8
DATA
  6
CONTINUOUS
 62
     7
 10
468.0
 20
-1576.049438230673
 30
0.0
 11
445.0
 21
-1576.049438230673
 31
0.0
  0
LINE
  5
A2
  8
DATA
  6
CONTINUOUS
 62
     7
 10
468.0
 20
-1405.749438230673
 30
0.0
 11
488.0
 21
-1418.899438230673
 31
0.0
  0
LINE
  5
A3
  8
DATA
  6
CONTINUOUS
 62
     7
 10
468.0
 20
-1576.049438230673
 30
0.0
 11
488.0
 21
-1562.899438230673
 31
0.0
  0
LINE
  5
A4
  8
DATA
  6
CONTINUOUS
 62
     7
 10
480.0
 20
-1427.299438230673
 30
0.0
 11
445.0
 21
-1427.299438230673
 31
0.0
  0
LINE
  5
A5
  8
DATA
  6
CONTINUOUS
 62
     7
 10
480.0
 20
-1554.499438230673
 30
0.0
 11
445.0
 21
-1554.499438230673
 31
0.0
  0
ARC
  5
A6
  8
DATA
  6
CONTINUOUS
 62
     7
 10
115.4999999999975
 20
-1625.259438230673
 30
0.0
 40
15.50000000000227
 50
180.0
 51
0.0
  0
CIRCLE
  5
A7
  8
DATA
  6
CONTINUOUS
 62
     7
 10
115.5
 20
-1356.539438230673
 30
0.0
 40
15.5
  0
CIRCLE
  5
A8
  8
DATA
  6
CONTINUOUS
 62
     7
 10
115.4999999999981
 20
-1565.899438230673
 30
0.0
 40
5.5
  0
CIRCLE
  5
A9
  8
DATA
  6
CONTINUOUS
 62
     7
 10
115.4999999999981
 20
-1565.899438230673
 30
0.0
 40
4.5
  0
LINE
  5
AA
  8
DATA
  6
CONTINUOUS
 62
     7
 10
113.7679491924292
 20
-1565.899438230673
 30
0.0
 11
114.6339745962136
 21
-1564.399438230673
 31
0.0
  0
LINE
  5
AB
  8
DATA
  6
CONTINUOUS
 62
     7
 10
114.6339745962136
 20
-1567.399438230673
 30
0.0
 11
113.7679491924291
 21
-1565.899438230673
 31
0.0
  0
LINE
  5
AC
  8
DATA
  6
CONTINUOUS
 62
     7
 10
116.3660254037825
 20
-1567.399438230673
 30
0.0
 11
114.6339745962136
 21
-1567.399438230673
 31
0.0
  0
LINE
  5
AD
  8
DATA
  6
CONTINUOUS
 62
     7
 10
116.3660254037825
 20
-1564.399438230673
 30
0.0
 11
114.6339745962136
 21
-1564.399438230673
 31
0.0
  0
LINE
  5
AE
  8
DATA
  6
CONTINUOUS
 62
     7
 10
117.2320508075669
 20
-1565.899438230673
 30
0.0
 11
116.3660254037825
 21
-1564.399438230673
 31
0.0
  0
LINE
  5
AF
  8
DATA
  6
CONTINUOUS
 62
     7
 10
116.3660254037825
 20
-1567.399438230673
 30
0.0
 11
117.232050807567
 21
-1565.899438230673
 31
0.0
  0
CIRCLE
  5
B0
  8
DATA
  6
CONTINUOUS
 62
     7
 10
115.4999999999994
 20
-1415.899438230673
 30
0.0
 40
5.5
  0
CIRCLE
  5
B1
  8
DATA
  6
CONTINUOUS
 62
     7
 10
115.4999999999994
 20
-1415.899438230673
 30
0.0
 40
4.5
  0
LINE
  5
B2
  8
DATA
  6
CONTINUOUS
 62
     7
 10
113.7679491924306
 20
-1415.899438230673
 30
0.0
 11
114.633974596215
 21
-1414.399438230673
 31
0.0
  0
LINE
  5
B3
  8
DATA
  6
CONTINUOUS
 62
     7
 10
114.633974596215
 20
-1417.399438230673
 30
0.0
 11
113.7679491924305
 21
-1415.899438230673
 31
0.0
  0
LINE
  5
B4
  8
DATA
  6
CONTINUOUS
 62
     7
 10
116.3660254037839
 20
-1417.399438230673
 30
0.0
 11
114.633974596215
 21
-1417.399438230673
 31
0.0
  0
LINE
  5
B5
  8
DATA
  6
CONTINUOUS
 62
     7
 10
116.3660254037839
 20
-1414.399438230673
 30
0.0
 11
114.633974596215
 21
-1414.399438230673
 31
0.0
  0
LINE
  5
B6
  8
DATA
  6
CONTINUOUS
 62
     7
 10
117.2320508075683
 20
-1415.899438230673
 30
0.0
 11
116.3660254037839
 21
-1414.399438230673
 31
0.0
  0
LINE
  5
B7
  8
DATA
  6
CONTINUOUS
 62
     7
 10
116.3660254037839
 20
-1417.399438230673
 30
0.0
 11
117.2320508075684
 21
-1415.899438230673
 31
0.0
  0
LINE
  5
B8
  8
DATA
  6
CONTINUOUS
 62
     7
 10
121.9999999999987
 20
-1465.899438230673
 30
0.0
 11
121.9999999999987
 21
-1490.899438230673
 31
0.0
  0
LINE
  5
B9
  8
DATA
  6
CONTINUOUS
 62
     7
 10
108.9999999999987
 20
-1490.899438230673
 30
0.0
 11
108.9999999999987
 21
-1465.899438230673
 31
0.0
  0
ARC
  5
BA
  8
DATA
  6
CONTINUOUS
 62
     7
 10
115.4999999999987
 20
-1489.174438230673
 30
0.0
 40
6.724999999999977
 50
194.8628159423443
 51
345.1371840576558
  0
ARC
  5
BB
  8
DATA
  6
CONTINUOUS
 62
     7
 10
115.4999999999987
 20
-1467.624438230673
 30
0.0
 40
6.724999999999977
 50
14.86281594234427
 51
165.1371840576558
  0
CIRCLE
  5
BC
  8
DATA
  6
CONTINUOUS
 62
     7
 10
115.4999999999987
 20
-1465.899438230673
 30
0.0
 40
1.599999999999994
  0
CIRCLE
  5
BD
  8
DATA
  6
CONTINUOUS
 62
     7
 10
115.5
 20
-1356.539438230673
 30
0.0
 40
4.099999999999909
  0
CIRCLE
  5
BE
  8
DATA
  6
CONTINUOUS
 62
     7
 10
115.4999999999975
 20
-1625.259438230673
 30
0.0
 40
4.099999999999909
  0
ARC
  5
BF
  8
DATA
  6
CONTINUOUS
 62
     7
 10
102.5
 20
-1368.989337828662
 30
0.0
 40
2.500000000000012
 50
43.76174269268051
 51
180.0
  0
ARC
  5
C0
  8
DATA
  6
CONTINUOUS
 62
     7
 10
128.5
 20
-1368.989337828662
 30
0.0
 40
2.5
 50
0.0
 51
136.2382573073199
  0
LINE
  5
C1
  8
DATA
  6
CONTINUOUS
 62
     7
 10
475.0
 20
-1405.899438230673
 30
0.0
 11
475.0
 21
-1410.351938230673
 31
0.0
  0
LINE
  5
C2
  8
DATA
  6
CONTINUOUS
 62
     7
 10
475.0
 20
-1427.299438230673
 30
0.0
 11
475.0
 21
-1462.744041930922
 31
0.0
  0
LINE
  5
C3
  8
DATA
  6
CONTINUOUS
 62
     7
 10
475.0
 20
-1503.054834530423
 30
0.0
 11
475.0
 21
-1554.499438230673
 31
0.0
  0
LINE
  5
C4
  8
DATA
  6
CONTINUOUS
 62
     7
 10
475.0
 20
-1571.446938230673
 30
0.0
 11
475.0
 21
-1575.899438230673
 31
0.0
  0
LINE
  5
C5
  8
DATA
  6
CONTINUOUS
 62
     7
 10
465.0
 20
-1395.899438230673
 30
0.0
 11
445.0
 21
-1395.899438230673
 31
0.0
  0
LINE
  5
C6
  8
DATA
  6
CONTINUOUS
 62
     7
 10
465.0
 20
-1585.899438230673
 30
0.0
 11
445.0
 21
-1585.899438230673
 31
0.0
  0
ARC
  5
C7
  8
DATA
  6
CONTINUOUS
 62
     7
 10
465.0
 20
-1405.899438230673
 30
0.0
 40
10.0
 50
0.0
 51
90.0
  0
ARC
  5
C8
  8
DATA
  6
CONTINUOUS
 62
     7
 10
465.0
 20
-1575.899438230673
 30
0.0
 40
10.0
 50
270.0
 51
0.0
  0
ARC
  5
C9
  8
DATA
  6
CONTINUOUS
 62
     7
 10
459.0
 20
-1576.899438230673
 30
0.0
 40
4.150000000000082
 50
168.1810800901466
 51
11.81891990985346
  0
POLYLINE
  5
CA
  8
DATA
  6
CONTINUOUS
 62
     7
 66
     1
 10
0.0
 20
0.0
 30
0.0
  0
VERTEX
  5
486
  8
DATA
  6
CONTINUOUS
 62
     7
 10
453.8499999999999
 20
-1576.049438230673
 30
0.0
  0
VERTEX
  5
487
  8
DATA
  6
CONTINUOUS
 62
     7
 10
453.8499999999999
 20
-1579.149438230673
 30
0.0
  0
VERTEX
  5
488
  8
DATA
  6
CONTINUOUS
 62
     7
 10
449.3499999999999
 20
-1579.149438230673
 30
0.0
  0
VERTEX
  5
489
  8
DATA
  6
CONTINUOUS
 62
     7
 10
449.3499999999999
 20
-1576.049438230673
 30
0.0
  0
SEQEND
  5
4B8
  8
DATA
  6
CONTINUOUS
 62
     7
  0
LINE
  5
D1
  8
DATA
  6
CONTINUOUS
 62
     7
 10
453.8499999999999
 20
-1576.899438230673
 30
0.0
 11
454.8499999999999
 21
-1576.899438230673
 31
0.0
  0
ARC
  5
D2
  8
DATA
  6
CONTINUOUS
 62
     7
 10
459.0
 20
-1551.899438230673
 30
0.0
 40
4.14999999999984
 50
321.2071888133631
 51
218.7928111866369
  0
POLYLINE
  5
D3
  8
DATA
  6
CONTINUOUS
 62
     7
 66
     1
 10
0.0
 20
0.0
 30
0.0
 70
     1
  0
VERTEX
  5
48A
  8
DATA
  6
CONTINUOUS
 62
     7
 10
449.3499999999999
 20
-1549.649438230673
 30
0.0
  0
VERTEX
  5
48B
  8
DATA
  6
CONTINUOUS
 62
     7
 10
453.8499999999999
 20
-1549.649438230673
 30
0.0
  0
VERTEX
  5
48C
  8
DATA
  6
CONTINUOUS
 62
     7
 10
453.8499999999999
 20
-1554.149438230673
 30
0.0
  0
VERTEX
  5
48D
  8
DATA
  6
CONTINUOUS
 62
     7
 10
449.3499999999999
 20
-1554.149438230673
 30
0.0
  0
SEQEND
  5
4B9
  8
DATA
  6
CONTINUOUS
 62
     7
  0
LINE
  5
DA
  8
DATA
  6
CONTINUOUS
 62
     7
 10
453.8499999999999
 20
-1551.899438230673
 30
0.0
 11
454.8499999999999
 21
-1551.899438230673
 31
0.0
  0
CIRCLE
  5
DB
  8
DATA
  6
CONTINUOUS
 62
     7
 10
459.0
 20
-1539.399438230673
 30
0.0
 40
4.150000000000091
  0
POLYLINE
  5
DC
  8
DATA
  6
CONTINUOUS
 62
     7
 66
     1
 10
0.0
 20
0.0
 30
0.0
 70
     1
  0
VERTEX
  5
48E
  8
DATA
  6
CONTINUOUS
 62
     7
 10
449.3499999999999
 20
-1537.149438230673
 30
0.0
  0
VERTEX
  5
48F
  8
DATA
  6
CONTINUOUS
 62
     7
 10
453.8499999999999
 20
-1537.149438230673
 30
0.0
  0
VERTEX
  5
490
  8
DATA
  6
CONTINUOUS
 62
     7
 10
453.8499999999999
 20
-1541.649438230673
 30
0.0
  0
VERTEX
  5
491
  8
DATA
  6
CONTINUOUS
 62
     7
 10
449.3499999999999
 20
-1541.649438230673
 30
0.0
  0
SEQEND
  5
4BA
  8
DATA
  6
CONTINUOUS
 62
     7
  0
LINE
  5
E3
  8
DATA
  6
CONTINUOUS
 62
     7
 10
453.8499999999999
 20
-1539.399438230673
 30
0.0
 11
454.8499999999999
 21
-1539.399438230673
 31
0.0
  0
POLYLINE
  5
E4
  8
DATA
  6
CONTINUOUS
 62
     7
 66
     1
 10
0.0
 20
0.0
 30
0.0
 70
     1
  0
VERTEX
  5
492
  8
DATA
  6
CONTINUOUS
 62
     7
 10
449.3499999999999
 20
-1543.399438230673
 30
0.0
  0
VERTEX
  5
493
  8
DATA
  6
CONTINUOUS
 62
     7
 10
453.8499999999999
 20
-1543.399438230673
 30
0.0
  0
VERTEX
  5
494
  8
DATA
  6
CONTINUOUS
 62
     7
 10
453.8499999999999
 20
-1547.899438230673
 30
0.0
  0
VERTEX
  5
495
  8
DATA
  6
CONTINUOUS
 62
     7
 10
449.3499999999999
 20
-1547.899438230673
 30
0.0
  0
SEQEND
  5
4BB
  8
DATA
  6
CONTINUOUS
 62
     7
  0
LINE
  5
EB
  8
DATA
  6
CONTINUOUS
 62
     7
 10
453.8499999999999
 20
-1545.649438230673
 30
0.0
 11
462.8499999999999
 21
-1545.649438230673
 31
0.0
  0
ARC
  5
EC
  8
DATA
  6
CONTINUOUS
 62
     7
 10
467.0
 20
-1558.149438230673
 30
0.0
 40
4.150000000000244
 50
61.58428331424274
 51
118.41571668576
  0
CIRCLE
  5
ED
  8
DATA
  6
CONTINUOUS
 62
     7
 10
467.0
 20
-1545.649438230673
 30
0.0
 40
4.150000000000091
  0
TEXT
  5
EE
  8
DATA
 62
     7
 10
450.8398741319443
 20
-1553.528279376506
 30
0.0
 40
3.257682291666667
  1
4
 41
0.7
 72
     1
 11
451.5999999999999
 21
-1551.899438230673
 31
0.0
 73
     2
  0
TEXT
  5
EF
  8
DATA
 62
     7
 10
450.8398741319443
 20
-1547.278279376506
 30
0.0
 40
3.257682291666667
  1
5
 41
0.7
 72
     1
 11
451.5999999999999
 21
-1545.649438230673
 31
0.0
 73
     2
  0
TEXT
  5
F0
  8
DATA
 62
     7
 10
450.8398741319443
 20
-1541.028279376506
 30
0.0
 40
3.257682291666667
  1
6
 41
0.7
 72
     1
 11
451.5999999999999
 21
-1539.399438230673
 31
0.0
 73
     2
  0
POLYLINE
  5
F1
  8
DATA
  6
CONTINUOUS
 62
     7
 66
     1
 10
0.0
 20
0.0
 30
0.0
 70
     1
  0
VERTEX
  5
496
  8
DATA
  6
CONTINUOUS
 62
     7
 10
449.3499999999999
 20
-1524.399438230673
 30
0.0
  0
VERTEX
  5
497
  8
DATA
  6
CONTINUOUS
 62
     7
 10
453.8499999999999
 20
-1524.399438230673
 30
0.0
  0
VERTEX
  5
498
  8
DATA
  6
CONTINUOUS
 62
     7
 10
453.8499999999999
 20
-1528.899438230673
 30
0.0
  0
VERTEX
  5
499
  8
DATA
  6
CONTINUOUS
 62
     7
 10
449.3499999999999
 20
-1528.899438230673
 30
0.0
  0
SEQEND
  5
4BC
  8
DATA
  6
CONTINUOUS
 62
     7
  0
LINE
  5
F8
  8
DATA
  6
CONTINUOUS
 62
     7
 10
453.8499999999999
 20
-1526.649438230673
 30
0.0
 11
462.8499999999999
 21
-1526.649438230673
 31
0.0
  0
CIRCLE
  5
F9
  8
DATA
  6
CONTINUOUS
 62
     7
 10
467.0
 20
-1526.649438230673
 30
0.0
 40
4.150000000000091
  0
TEXT
  5
FA
  8
DATA
 62
     7
 10
450.8398741319443
 20
-1528.278279376506
 30
0.0
 40
3.257682291666667
  1
8
 41
0.7
 72
     1
 11
451.5999999999999
 21
-1526.649438230673
 31
0.0
 73
     2
  0
CIRCLE
  5
FB
  8
DATA
  6
CONTINUOUS
 62
     7
 10
459.0
 20
-1503.899438230673
 30
0.0
 40
4.150000000000091
  0
POLYLINE
  5
FC
  8
DATA
  6
CONTINUOUS
 62
     7
 66
     1
 10
0.0
 20
0.0
 30
0.0
 70
     1
  0
VERTEX
  5
49A
  8
DATA
  6
CONTINUOUS
 62
     7
 10
449.3499999999999
 20
-1501.649438230673
 30
0.0
  0
VERTEX
  5
49B
  8
DATA
  6
CONTINUOUS
 62
     7
 10
453.8499999999999
 20
-1501.649438230673
 30
0.0
  0
VERTEX
  5
49C
  8
DATA
  6
CONTINUOUS
 62
     7
 10
453.8499999999999
 20
-1506.149438230673
 30
0.0
  0
VERTEX
  5
49D
  8
DATA
  6
CONTINUOUS
 62
     7
 10
449.3499999999999
 20
-1506.149438230673
 30
0.0
  0
SEQEND
  5
4BD
  8
DATA
  6
CONTINUOUS
 62
     7
  0
LINE
  5
103
  8
DATA
  6
CONTINUOUS
 62
     7
 10
453.8499999999999
 20
-1503.899438230673
 30
0.0
 11
454.8499999999999
 21
-1503.899438230673
 31
0.0
  0
TEXT
  5
104
  8
DATA
 62
     7
 10
450.0797482638888
 20
-1505.528279376506
 30
0.0
 40
3.257682291666667
  1
12
 41
0.7
 72
     1
 11
451.5999999999999
 21
-1503.899438230673
 31
0.0
 73
     2
  0
ARC
  5
105
  8
DATA
  6
CONTINUOUS
 62
     7
 10
485.3145314031403
 20
-1482.899438230673
 30
0.0
 40
20.3135314031403
 50
127.2284009828035
 51
232.7715990171964
  0
ARC
  5
106
  8
DATA
  6
CONTINUOUS
 62
     7
 10
470.0
 20
-1462.744041930922
 30
0.0
 40
5.000000000000282
 50
307.2284009828027
 51
0.0
  0
ARC
  5
107
  8
DATA
  6
CONTINUOUS
 62
     7
 10
470.0
 20
-1503.054834530423
 30
0.0
 40
5.0
 50
0.0
 51
52.77159901719421
  0
CIRCLE
  5
108
  8
DATA
  6
CONTINUOUS
 62
     7
 10
460.0
 20
-1465.899438230673
 30
0.0
 40
4.150000000000091
  0
ARC
  5
109
  8
DATA
  6
CONTINUOUS
 62
     7
 10
467.0
 20
-1424.899438230673
 30
0.0
 40
4.150000000000147
 50
215.3319930862997
 51
324.6680069137003
  0
TEXT
  5
10A
  8
DATA
 62
     7
 10
451.1044921874666
 20
-1460.578557154284
 30
0.0
 40
3.257682291666667
  1
STORE
 50
270.0
 41
0.7
 72
     1
 11
452.7333333332999
 21
-1465.899438230673
 31
0.0
 73
     2
  0
ARC
  5
10B
  8
DATA
  6
CONTINUOUS
 62
     7
 10
460.1929142659915
 20
-1405.819530525325
 30
0.0
 40
5.999999999998245
 50
0.669347334920906
 51
179.3306526650791
  0
ARC
  5
10C
  8
DATA
  6
CONTINUOUS
 62
     7
 10
460.0000000000016
 20
-1405.899438230672
 30
0.0
 40
4.000000000001624
 50
2.149095626857931
 51
177.8509043731421
  0
ARC
  5
10D
  8
DATA
  6
CONTINUOUS
 62
     7
 10
460.192914265991
 20
-1405.819530525323
 30
0.0
 40
4.500000000000165
 50
167.1604115931141
 51
179.1075210962613
  0
LINE
  5
10E
  8
DATA
  6
CONTINUOUS
 62
     7
 10
455.8054320722945
 20
-1404.819530525325
 30
0.0
 11
456.319930919783
 21
-1404.819530525325
 31
0.0
  0
ARC
  5
10F
  8
DATA
  6
CONTINUOUS
 62
     7
 10
460.1929142659897
 20
-1405.819530525324
 30
0.0
 40
4.499999999999986
 50
77.16041159307206
 51
102.8395884068859
  0
LINE
  5
110
  8
DATA
  6
CONTINUOUS
 62
     7
 10
461.192914265991
 20
-1401.432048331629
 30
0.0
 11
461.192914265991
 21
-1401.946547179117
 31
0.0
  0
LINE
  5
111
  8
DATA
  6
CONTINUOUS
 62
     7
 10
459.192914265991
 20
-1401.432048331628
 30
0.0
 11
459.192914265991
 21
-1401.946547179116
 31
0.0
  0
ARC
  5
112
  8
DATA
  6
CONTINUOUS
 62
     7
 10
460.0
 20
-1405.899438230673
 30
0.0
 40
3.500000000000002
 50
2.456285723583466
 51
177.5437142764166
  0
LINE
  5
113
  8
DATA
  6
CONTINUOUS
 62
     7
 10
442.7613211581692
 20
-1588.634732858349
 30
0.0
 11
131.0000000000002
 21
-1621.402168104095
 31
0.0
  0
LINE
  5
114
  8
DATA
  6
CONTINUOUS
 62
     7
 10
204.6610095918219
 20
-1588.522377032961
 30
0.0
 11
366.1125672447952
 21
-1571.553134533393
 31
0.0
  0
LINE
  5
115
  8
DATA
  6
CONTINUOUS
 62
     7
 10
164.679284974334
 20
-1617.862332612573
 30
0.0
 11
185.3040136599437
 21
-1597.638785360737
 31
0.0
  0
LINE
  5
116
  8
DATA
  6
CONTINUOUS
 62
     7
 10
386.941974242589
 20
-1576.445781713168
 30
0.0
 11
411.3207150256658
 21
-1591.939273722195
 31
0.0
  0
ARC
  5
117
  8
DATA
  6
CONTINUOUS
 62
     7
 10
208.0581846480206
 20
-1620.84433863243
 30
0.0
 40
32.5000000000001
 50
96.00000000000004
 51
134.4373014910624
  0
ARC
  5
118
  8
DATA
  6
CONTINUOUS
 62
     7
 10
369.5097423009938
 20
-1603.875096132862
 30
0.0
 40
32.50000000000011
 50
57.56269850893716
 51
95.99999999999984
  0
LINE
  5
119
  8
DATA
  6
CONTINUOUS
 62
     7
 10
442.7613211581692
 20
-1393.164143602996
 30
0.0
 11
131.0000000000002
 21
-1360.39670835725
 31
0.0
  0
LINE
  5
11A
  8
DATA
  6
CONTINUOUS
 62
     7
 10
204.6610095918219
 20
-1393.276499428385
 30
0.0
 11
366.1125672447952
 21
-1410.245741927952
 31
0.0
  0
LINE
  5
11B
  8
DATA
  6
CONTINUOUS
 62
     7
 10
164.679284974334
 20
-1363.936543848773
 30
0.0
 11
185.3040136599437
 21
-1384.160091100608
 31
0.0
  0
LINE
  5
11C
  8
DATA
  6
CONTINUOUS
 62
     7
 10
386.941974242589
 20
-1405.353094748178
 30
0.0
 11
411.3207150256658
 21
-1389.85960273915
 31
0.0
  0
ARC
  5
11D
  8
DATA
  6
CONTINUOUS
 62
     7
 10
208.0581846480206
 20
-1360.954537828916
 30
0.0
 40
32.49999999999979
 50
225.5626985089371
 51
264.0
  0
ARC
  5
11E
  8
DATA
  6
CONTINUOUS
 62
     7
 10
369.5097423009938
 20
-1377.923780328483
 30
0.0
 40
32.50000000000009
 50
264.0000000000002
 51
302.4373014910624
  0
ARC
  5
11F
  8
DATA
  6
CONTINUOUS
 62
     7
 10
442.5
 20
-1586.148428119928
 30
0.0
 40
2.499999999999905
 50
276.0000000000007
 51
0.0
  0
ARC
  5
120
  8
DATA
  6
CONTINUOUS
 62
     7
 10
442.5000000000001
 20
-1395.650448341417
 30
0.0
 40
2.499999999999886
 50
0.0
 51
84.00000000000244
  0
CIRCLE
  5
121
  8
DATA
  6
CONTINUOUS
 62
     7
 10
115.4999999999987
 20
-1490.899438230673
 30
0.0
 40
4.800000000000011
  0
CIRCLE
  5
122
  8
DATA
  6
CONTINUOUS
 62
     7
 10
115.4999999999987
 20
-1490.899438230673
 30
0.0
 40
3.600000000000023
  0
LINE
  5
123
  8
DATA
  6
CONTINUOUS
 62
     7
 10
117.2320508075676
 20
-1490.899438230673
 30
0.0
 11
116.3660254037832
 21
-1489.399438230673
 31
0.0
  0
LINE
  5
124
  8
DATA
  6
CONTINUOUS
 62
     7
 10
116.3660254037832
 20
-1492.399438230673
 30
0.0
 11
117.2320508075678
 21
-1490.899438230673
 31
0.0
  0
LINE
  5
125
  8
DATA
  6
CONTINUOUS
 62
     7
 10
114.6339745962143
 20
-1492.399438230673
 30
0.0
 11
116.3660254037832
 21
-1492.399438230673
 31
0.0
  0
LINE
  5
126
  8
DATA
  6
CONTINUOUS
 62
     7
 10
114.6339745962143
 20
-1489.399438230673
 30
0.0
 11
116.3660254037832
 21
-1489.399438230673
 31
0.0
  0
LINE
  5
127
  8
DATA
  6
CONTINUOUS
 62
     7
 10
113.7679491924299
 20
-1490.899438230673
 30
0.0
 11
114.6339745962143
 21
-1489.399438230673
 31
0.0
  0
LINE
  5
128
  8
DATA
  6
CONTINUOUS
 62
     7
 10
114.6339745962143
 20
-1492.399438230673
 30
0.0
 11
113.7679491924297
 21
-1490.899438230673
 31
0.0
  0
LINE
  5
129
  8
DATA
  6
CONTINUOUS
 62
     7
 10
121.9999999999987
 20
-1477.899438230673
 30
0.0
 11
108.9999999999987
 21
-1477.899438230673
 31
0.0
  0
LINE
  5
12A
  8
DATA
  6
CONTINUOUS
 62
     7
 10
31.25
 20
-831.75
 30
0.0
 11
-631.25
 21
-831.75
 31
0.0
  0
LINE
  5
12B
  8
DATA
  6
CONTINUOUS
 62
     7
 10
-631.25
 20
-568.25
 30
0.0
 11
31.25
 21
-568.25
 31
0.0
  0
LINE
  5
12C
  8
DATA
  6
CONTINUOUS
 62
     7
 10
-618.55
 20
-550.1399999999999
 30
0.0
 11
-612.0
 21
-550.1399999999999
 31
0.0
  0
LINE
  5
12D
  8
DATA
  6
CONTINUOUS
 62
     7
 10
-631.25
 20
-550.1399999999999
 30
0.0
 11
-624.65
 21
-550.1399999999999
 31
0.0
  0
LINE
  5
12E
  8
DATA
  6
CONTINUOUS
 62
     7
 10
24.64999999999997
 20
-849.8599999999999
 30
0.0
 11
18.55000000000007
 21
-849.8599999999999
 31
0.0
  0
LINE
  5
12F
  8
DATA
  6
CONTINUOUS
 62
     7
 10
-618.5500000000001
 20
-849.8599999999999
 30
0.0
 11
-624.6499999999997
 21
-849.8599999999999
 31
0.0
  0
ARC
  5
130
  8
DATA
  6
CONTINUOUS
 62
     7
 10
-422.4999999999998
 20
-767.4999999999998
 30
0.0
 40
19.99999999999989
 50
269.9999999999995
 51
0.0000000000002842
  0
LINE
  5
131
  8
DATA
  6
CONTINUOUS
 62
     7
 10
-402.5
 20
-632.4999999999997
 30
0.0
 11
-402.5
 21
-767.4999999999997
 31
0.0
  0
ARC
  5
132
  8
DATA
  6
CONTINUOUS
 62
     7
 10
-422.4999999999998
 20
-632.4999999999995
 30
0.0
 40
19.99999999999983
 50
359.9999999999998
 51
90.0000000000005
  0
LINE
  5
133
  8
DATA
  6
CONTINUOUS
 62
     7
 10
-507.5
 20
-612.4999999999995
 30
0.0
 11
-422.5
 21
-612.4999999999997
 31
0.0
  0
ARC
  5
134
  8
DATA
  6
CONTINUOUS
 62
     7
 10
-507.5
 20
-632.4999999999997
 30
0.0
 40
20.00000000000011
 50
90.0
 51
180.0
  0
LINE
  5
135
  8
DATA
  6
CONTINUOUS
 62
     7
 10
-527.5
 20
-767.4999999999997
 30
0.0
 11
-527.5
 21
-632.4999999999997
 31
0.0
  0
ARC
  5
136
  8
DATA
  6
CONTINUOUS
 62
     7
 10
-507.5000000000001
 20
-767.4999999999997
 30
0.0
 40
19.99999999999994
 50
180.0
 51
270.0000000000002
  0
LINE
  5
137
  8
DATA
  6
CONTINUOUS
 62
     7
 10
-422.5
 20
-787.4999999999997
 30
0.0
 11
-507.5
 21
-787.4999999999997
 31
0.0
  0
ARC
  5
138
  8
DATA
  6
CONTINUOUS
 62
     7
 10
-430.0
 20
-762.4999999999997
 30
0.0
 40
10.0
 50
270.0
 51
0.0
  0
LINE
  5
139
  8
DATA
  6
CONTINUOUS
 62
     7
 10
-420.0
 20
-637.4999999999997
 30
0.0
 11
-420.0
 21
-762.4999999999997
 31
0.0
  0
ARC
  5
13A
  8
DATA
  6
CONTINUOUS
 62
     7
 10
-429.9999999999999
 20
-637.4999999999997
 30
0.0
 40
9.999999999999886
 50
0.0
 51
90.00000000000097
  0
LINE
  5
13B
  8
DATA
  6
CONTINUOUS
 62
     7
 10
-500.0
 20
-627.4999999999998
 30
0.0
 11
-430.0000000000001
 21
-627.4999999999997
 31
0.0
  0
ARC
  5
13C
  8
DATA
  6
CONTINUOUS
 62
     7
 10
-500.0
 20
-637.4999999999997
 30
0.0
 40
9.999999999999886
 50
90.0
 51
180.0
  0
LINE
  5
13D
  8
DATA
  6
CONTINUOUS
 62
     7
 10
-510.0
 20
-762.4999999999997
 30
0.0
 11
-510.0
 21
-637.4999999999997
 31
0.0
  0
ARC
  5
13E
  8
DATA
  6
CONTINUOUS
 62
     7
 10
-500.0
 20
-762.4999999999997
 30
0.0
 40
10.0
 50
180.0
 51
270.0
  0
LINE
  5
13F
  8
DATA
  6
CONTINUOUS
 62
     7
 10
-430.0
 20
-772.4999999999997
 30
0.0
 11
-500.0
 21
-772.4999999999997
 31
0.0
  0
ARC
  5
140
  8
DATA
  6
CONTINUOUS
 62
     7
 10
-428.5000000000001
 20
-761.4999999999995
 30
0.0
 40
5.000000000000114
 50
270.0000000000007
 51
359.9999999999987
  0
LINE
  5
141
  8
DATA
  6
CONTINUOUS
 62
     7
 10
-423.5
 20
-638.4999999999997
 30
0.0
 11
-423.5
 21
-761.4999999999997
 31
0.0
  0
ARC
  5
142
  8
DATA
  6
CONTINUOUS
 62
     7
 10
-428.5000000000001
 20
-638.4999999999998
 30
0.0
 40
5.000000000000114
 50
0.0000000000013074
 51
89.99999999999864
  0
LINE
  5
143
  8
DATA
  6
CONTINUOUS
 62
     7
 10
-501.4999999999999
 20
-633.4999999999997
 30
0.0
 11
-428.5
 21
-633.4999999999997
 31
0.0
  0
ARC
  5
144
  8
DATA
  6
CONTINUOUS
 62
     7
 10
-501.4999999999999
 20
-638.4999999999998
 30
0.0
 40
5.000000000000114
 50
90.00000000000065
 51
179.9999999999987
  0
LINE
  5
145
  8
DATA
  6
CONTINUOUS
 62
     7
 10
-506.5
 20
-761.4999999999997
 30
0.0
 11
-506.4999999999999
 21
-638.4999999999997
 31
0.0
  0
ARC
  5
146
  8
DATA
  6
CONTINUOUS
 62
     7
 10
-501.5
 20
-761.4999999999997
 30
0.0
 40
5.0
 50
180.0
 51
270.0
  0
LINE
  5
147
  8
DATA
  6
CONTINUOUS
 62
     7
 10
-428.5
 20
-766.4999999999997
 30
0.0
 11
-501.5
 21
-766.4999999999997
 31
0.0
  0
TEXT
  5
148
  8
DATA
 62
     7
 10
-457.7788042534722
 20
-672.0290350713469
 30
0.0
 40
3.257682291666667
  1
IN/THRU
 50
180.0
 41
0.7
 72
     1
 11
-465.0
 21
-673.6578762171803
 31
0.0
 73
     2
  0
LINE
  5
149
  8
DATA
  6
CONTINUOUS
 62
     7
 10
-515.778312163513
 20
-621.2499999999997
 30
0.0
 11
-517.221687836487
 21
-621.2499999999997
 31
0.0
  0
LINE
  5
14A
  8
DATA
  6
CONTINUOUS
 62
     7
 10
-515.0566243270259
 20
-622.4999999999997
 30
0.0
 11
-515.778312163513
 21
-623.7499999999997
 31
0.0
  0
LINE
  5
14B
  8
DATA
  6
CONTINUOUS
 62
     7
 10
-515.0566243270259
 20
-622.4999999999997
 30
0.0
 11
-515.778312163513
 21
-621.2499999999998
 31
0.0
  0
LINE
  5
14C
  8
DATA
  6
CONTINUOUS
 62
     7
 10
-517.9433756729741
 20
-622.4999999999997
 30
0.0
 11
-517.221687836487
 21
-623.7499999999997
 31
0.0
  0
LINE
  5
14D
  8
DATA
  6
CONTINUOUS
 62
     7
 10
-517.9433756729741
 20
-622.4999999999997
 30
0.0
 11
-517.221687836487
 21
-621.2499999999997
 31
0.0
  0
LINE
  5
14E
  8
DATA
  6
CONTINUOUS
 62
     7
 10
-515.778312163513
 20
-623.7499999999997
 30
0.0
 11
-517.221687836487
 21
-623.7499999999997
 31
0.0
  0
CIRCLE
  5
14F
  8
DATA
  6
CONTINUOUS
 62
     7
 10
-516.5
 20
-622.4999999999997
 30
0.0
 40
3.25
  0
LINE
  5
150
  8
DATA
  6
CONTINUOUS
 62
     7
 10
-412.7783121635129
 20
-621.2499999999997
 30
0.0
 11
-414.221687836487
 21
-621.2499999999997
 31
0.0
  0
LINE
  5
151
  8
DATA
  6
CONTINUOUS
 62
     7
 10
-412.0566243270259
 20
-622.4999999999997
 30
0.0
 11
-412.778312163513
 21
-623.7499999999997
 31
0.0
  0
LINE
  5
152
  8
DATA
  6
CONTINUOUS
 62
     7
 10
-412.0566243270259
 20
-622.4999999999997
 30
0.0
 11
-412.7783121635129
 21
-621.2499999999998
 31
0.0
  0
LINE
  5
153
  8
DATA
  6
CONTINUOUS
 62
     7
 10
-414.9433756729741
 20
-622.4999999999997
 30
0.0
 11
-414.221687836487
 21
-623.7499999999997
 31
0.0
  0
LINE
  5
154
  8
DATA
  6
CONTINUOUS
 62
     7
 10
-414.9433756729741
 20
-622.4999999999997
 30
0.0
 11
-414.221687836487
 21
-621.2499999999997
 31
0.0
  0
LINE
  5
155
  8
DATA
  6
CONTINUOUS
 62
     7
 10
-412.7783121635129
 20
-623.7499999999997
 30
0.0
 11
-414.221687836487
 21
-623.7499999999997
 31
0.0
  0
CIRCLE
  5
156
  8
DATA
  6
CONTINUOUS
 62
     7
 10
-413.5
 20
-622.4999999999997
 30
0.0
 40
3.25
  0
LINE
  5
157
  8
DATA
  6
CONTINUOUS
 62
     7
 10
-515.778312163513
 20
-698.7499999999997
 30
0.0
 11
-517.221687836487
 21
-698.7499999999997
 31
0.0
  0
LINE
  5
158
  8
DATA
  6
CONTINUOUS
 62
     7
 10
-515.0566243270259
 20
-699.9999999999997
 30
0.0
 11
-515.778312163513
 21
-701.2499999999997
 31
0.0
  0
LINE
  5
159
  8
DATA
  6
CONTINUOUS
 62
     7
 10
-515.0566243270259
 20
-699.9999999999997
 30
0.0
 11
-515.778312163513
 21
-698.7499999999998
 31
0.0
  0
LINE
  5
15A
  8
DATA
  6
CONTINUOUS
 62
     7
 10
-517.9433756729741
 20
-699.9999999999997
 30
0.0
 11
-517.221687836487
 21
-701.2499999999997
 31
0.0
  0
LINE
  5
15B
  8
DATA
  6
CONTINUOUS
 62
     7
 10
-517.9433756729741
 20
-699.9999999999997
 30
0.0
 11
-517.221687836487
 21
-698.7499999999997
 31
0.0
  0
LINE
  5
15C
  8
DATA
  6
CONTINUOUS
 62
     7
 10
-515.778312163513
 20
-701.2499999999997
 30
0.0
 11
-517.221687836487
 21
-701.2499999999997
 31
0.0
  0
CIRCLE
  5
15D
  8
DATA
  6
CONTINUOUS
 62
     7
 10
-516.5
 20
-699.9999999999997
 30
0.0
 40
3.25
  0
LINE
  5
15E
  8
DATA
  6
CONTINUOUS
 62
     7
 10
-412.7783121635129
 20
-698.7499999999997
 30
0.0
 11
-414.221687836487
 21
-698.7499999999997
 31
0.0
  0
LINE
  5
15F
  8
DATA
  6
CONTINUOUS
 62
     7
 10
-412.0566243270259
 20
-699.9999999999997
 30
0.0
 11
-412.778312163513
 21
-701.2499999999997
 31
0.0
  0
LINE
  5
160
  8
DATA
  6
CONTINUOUS
 62
     7
 10
-412.0566243270259
 20
-699.9999999999997
 30
0.0
 11
-412.7783121635129
 21
-698.7499999999998
 31
0.0
  0
LINE
  5
161
  8
DATA
  6
CONTINUOUS
 62
     7
 10
-414.9433756729741
 20
-699.9999999999997
 30
0.0
 11
-414.221687836487
 21
-701.2499999999997
 31
0.0
  0
LINE
  5
162
  8
DATA
  6
CONTINUOUS
 62
     7
 10
-414.9433756729741
 20
-699.9999999999997
 30
0.0
 11
-414.221687836487
 21
-698.7499999999997
 31
0.0
  0
LINE
  5
163
  8
DATA
  6
CONTINUOUS
 62
     7
 10
-412.7783121635129
 20
-701.2499999999997
 30
0.0
 11
-414.221687836487
 21
-701.2499999999997
 31
0.0
  0
CIRCLE
  5
164
  8
DATA
  6
CONTINUOUS
 62
     7
 10
-413.5
 20
-699.9999999999997
 30
0.0
 40
3.25
  0
LINE
  5
165
  8
DATA
  6
CONTINUOUS
 62
     7
 10
-515.778312163513
 20
-776.2499999999997
 30
0.0
 11
-517.221687836487
 21
-776.2499999999997
 31
0.0
  0
LINE
  5
166
  8
DATA
  6
CONTINUOUS
 62
     7
 10
-515.0566243270259
 20
-777.4999999999997
 30
0.0
 11
-515.778312163513
 21
-778.7499999999997
 31
0.0
  0
LINE
  5
167
  8
DATA
  6
CONTINUOUS
 62
     7
 10
-515.0566243270259
 20
-777.4999999999997
 30
0.0
 11
-515.778312163513
 21
-776.2499999999998
 31
0.0
  0
LINE
  5
168
  8
DATA
  6
CONTINUOUS
 62
     7
 10
-517.9433756729741
 20
-777.4999999999997
 30
0.0
 11
-517.221687836487
 21
-778.7499999999997
 31
0.0
  0
LINE
  5
169
  8
DATA
  6
CONTINUOUS
 62
     7
 10
-517.9433756729741
 20
-777.4999999999997
 30
0.0
 11
-517.221687836487
 21
-776.2499999999997
 31
0.0
  0
LINE
  5
16A
  8
DATA
  6
CONTINUOUS
 62
     7
 10
-515.778312163513
 20
-778.7499999999997
 30
0.0
 11
-517.221687836487
 21
-778.7499999999997
 31
0.0
  0
CIRCLE
  5
16B
  8
DATA
  6
CONTINUOUS
 62
     7
 10
-516.5
 20
-777.4999999999997
 30
0.0
 40
3.25
  0
LINE
  5
16C
  8
DATA
  6
CONTINUOUS
 62
     7
 10
-412.7783121635129
 20
-776.2499999999997
 30
0.0
 11
-414.221687836487
 21
-776.2499999999997
 31
0.0
  0
LINE
  5
16D
  8
DATA
  6
CONTINUOUS
 62
     7
 10
-412.0566243270259
 20
-777.4999999999997
 30
0.0
 11
-412.778312163513
 21
-778.7499999999997
 31
0.0
  0
LINE
  5
16E
  8
DATA
  6
CONTINUOUS
 62
     7
 10
-412.0566243270259
 20
-777.4999999999997
 30
0.0
 11
-412.7783121635129
 21
-776.2499999999998
 31
0.0
  0
LINE
  5
16F
  8
DATA
  6
CONTINUOUS
 62
     7
 10
-414.9433756729741
 20
-777.4999999999997
 30
0.0
 11
-414.221687836487
 21
-778.7499999999997
 31
0.0
  0
LINE
  5
170
  8
DATA
  6
CONTINUOUS
 62
     7
 10
-414.9433756729741
 20
-777.4999999999997
 30
0.0
 11
-414.221687836487
 21
-776.2499999999997
 31
0.0
  0
LINE
  5
171
  8
DATA
  6
CONTINUOUS
 62
     7
 10
-412.7783121635129
 20
-778.7499999999997
 30
0.0
 11
-414.221687836487
 21
-778.7499999999997
 31
0.0
  0
CIRCLE
  5
172
  8
DATA
  6
CONTINUOUS
 62
     7
 10
-413.5
 20
-777.4999999999997
 30
0.0
 40
3.25
  0
CIRCLE
  5
173
  8
DATA
  6
CONTINUOUS
 62
     7
 10
-484.5
 20
-670.9999999999998
 30
0.0
 40
11.75
  0
CIRCLE
  5
174
  8
DATA
  6
CONTINUOUS
 62
     7
 10
-475.0
 20
-682.9999999999998
 30
0.0
 40
2.0
  0
CIRCLE
  5
175
  8
DATA
  6
CONTINUOUS
 62
     7
 10
-494.0
 20
-658.9999999999998
 30
0.0
 40
2.0
  0
LINE
  5
176
  8
DATA
  6
CONTINUOUS
 62
     7
 10
-487.5
 20
-660.9999999999998
 30
0.0
 11
-481.5
 21
-660.9999999999998
 31
0.0
  0
LINE
  5
177
  8
DATA
  6
CONTINUOUS
 62
     7
 10
-486.5
 20
-680.9999999999998
 30
0.0
 11
-482.5
 21
-680.9999999999998
 31
0.0
  0
LINE
  5
178
  8
DATA
  6
CONTINUOUS
 62
     7
 10
-486.5
 20
-680.9999999999998
 30
0.0
 11
-486.5
 21
-679.8
 31
0.0
  0
LINE
  5
179
  8
DATA
  6
CONTINUOUS
 62
     7
 10
-482.5
 20
-680.9999999999998
 30
0.0
 11
-482.5
 21
-679.8
 31
0.0
  0
LINE
  5
17A
  8
DATA
  6
CONTINUOUS
 62
     7
 10
-487.5
 20
-660.9999999999998
 30
0.0
 11
-487.5
 21
-662.7271499999995
 31
0.0
  0
LINE
  5
17B
  8
DATA
  6
CONTINUOUS
 62
     7
 10
-481.5
 20
-660.9999999999998
 30
0.0
 11
-481.5
 21
-662.7271499999995
 31
0.0
  0
ARC
  5
17C
  8
DATA
  6
CONTINUOUS
 62
     7
 10
-484.5
 20
-670.9999999999998
 30
0.0
 40
8.800002677414637
 50
109.9322641506783
 51
257.1961668197019
  0
ARC
  5
17D
  8
DATA
  6
CONTINUOUS
 62
     7
 10
-484.5
 20
-670.9999999999998
 30
0.0
 40
8.80000350434581
 50
282.9999995554244
 51
69.9999942379616
  0
ARC
  5
17E
  8
DATA
  6
CONTINUOUS
 62
     7
 10
-484.5
 20
-670.9999999999998
 30
0.0
 40
6.200002162064051
 50
60.00001153555644
 51
150.0000115355565
  0
LINE
  5
17F
  8
DATA
  6
CONTINUOUS
 62
     7
 10
-489.8693400000002
 20
-667.8999700000002
 30
0.0
 11
-489.3713799999996
 21
-668.1874699999996
 31
0.0
  0
LINE
  5
180
  8
DATA
  6
CONTINUOUS
 62
     7
 10
-481.4000299999998
 20
-665.6306199999997
 30
0.0
 11
-481.6875300000002
 21
-666.12859
 31
0.0
  0
ARC
  5
181
  8
DATA
  6
CONTINUOUS
 62
     7
 10
-484.5
 20
-670.9999999999998
 30
0.0
 40
6.200002162064051
 50
240.0000115355565
 51
330.0000115355565
  0
LINE
  5
182
  8
DATA
  6
CONTINUOUS
 62
     7
 10
-487.6000000000004
 20
-676.3693599999995
 30
0.0
 11
-487.3125
 21
-675.87139
 31
0.0
  0
LINE
  5
183
  8
DATA
  6
CONTINUOUS
 62
     7
 10
-479.1306299999997
 20
-674.0999799999997
 30
0.0
 11
-479.6286
 21
-673.8124799999994
 31
0.0
  0
ARC
  5
184
  8
DATA
  6
CONTINUOUS
 62
     7
 10
-484.5
 20
-670.9999999999998
 30
0.0
 40
5.625003831580639
 50
149.999669682099
 51
240.0002126042988
  0
ARC
  5
185
  8
DATA
  6
CONTINUOUS
 62
     7
 10
-484.5
 20
-670.9999999999998
 30
0.0
 40
5.624996152034032
 50
330.0002126043063
 51
60.00071824312557
  0
ARC
  5
186
  8
DATA
  6
CONTINUOUS
 62
     7
 10
-484.5
 20
-670.9999999999998
 30
0.0
 40
3.599990080875567
 50
59.99990885470505
 51
149.999908854705
  0
ARC
  5
187
  8
DATA
  6
CONTINUOUS
 62
     7
 10
-484.5
 20
-670.9999999999998
 30
0.0
 40
3.599990080875567
 50
239.999908854705
 51
329.999908854705
  0
LINE
  5
188
  8
DATA
  6
CONTINUOUS
 62
     7
 10
-482.7000200000002
 20
-667.8823099999997
 30
0.0
 11
-483.0500099999999
 21
-668.4885199999997
 31
0.0
  0
LINE
  5
189
  8
DATA
  6
CONTINUOUS
 62
     7
 10
-487.6176699999996
 20
-669.1999899999998
 30
0.0
 11
-487.0114700000004
 21
-669.5499899999993
 31
0.0
  0
LINE
  5
18A
  8
DATA
  6
CONTINUOUS
 62
     7
 10
-486.3000000000002
 20
-674.1176800000001
 30
0.0
 11
-485.9499999999998
 21
-673.5114700000001
 31
0.0
  0
LINE
  5
18B
  8
DATA
  6
CONTINUOUS
 62
     7
 10
-481.38231
 20
-672.7999799999996
 30
0.0
 11
-481.9885199999999
 21
-672.4499899999998
 31
0.0
  0
ARC
  5
18C
  8
DATA
  6
CONTINUOUS
 62
     7
 10
-484.5
 20
-670.9999999999998
 30
0.0
 40
2.900001820861602
 50
149.9997926340416
 51
240.0002336238326
  0
ARC
  5
18D
  8
DATA
  6
CONTINUOUS
 62
     7
 10
-484.5
 20
-670.9999999999998
 30
0.0
 40
2.900000481120789
 50
330.0002336238302
 51
59.99979263402037
  0
LINE
  5
18E
  8
DATA
  6
CONTINUOUS
 62
     7
 10
-475.0
 20
-681.9999999999998
 30
0.0
 11
-475.0
 21
-683.9999999999998
 31
0.0
  0
LINE
  5
18F
  8
DATA
  6
CONTINUOUS
 62
     7
 10
-476.0
 20
-682.9999999999998
 30
0.0
 11
-474.0
 21
-682.9999999999998
 31
0.0
  0
LINE
  5
190
  8
DATA
  6
CONTINUOUS
 62
     7
 10
-494.0
 20
-657.9999999999998
 30
0.0
 11
-494.0
 21
-659.9999999999998
 31
0.0
  0
LINE
  5
191
  8
DATA
  6
CONTINUOUS
 62
     7
 10
-495.0
 20
-658.9999999999998
 30
0.0
 11
-493.0
 21
-658.9999999999998
 31
0.0
  0
CIRCLE
  5
192
  8
DATA
  6
CONTINUOUS
 62
     7
 10
-445.5
 20
-670.9999999999998
 30
0.0
 40
11.75
  0
CIRCLE
  5
193
  8
DATA
  6
CONTINUOUS
 62
     7
 10
-436.0
 20
-682.9999999999998
 30
0.0
 40
2.0
  0
CIRCLE
  5
194
  8
DATA
  6
CONTINUOUS
 62
     7
 10
-455.0
 20
-658.9999999999998
 30
0.0
 40
2.0
  0
LINE
  5
195
  8
DATA
  6
CONTINUOUS
 62
     7
 10
-448.5
 20
-660.9999999999998
 30
0.0
 11
-442.5
 21
-660.9999999999998
 31
0.0
  0
LINE
  5
196
  8
DATA
  6
CONTINUOUS
 62
     7
 10
-447.5
 20
-680.9999999999998
 30
0.0
 11
-443.5
 21
-680.9999999999998
 31
0.0
  0
LINE
  5
197
  8
DATA
  6
CONTINUOUS
 62
     7
 10
-447.5
 20
-680.9999999999998
 30
0.0
 11
-447.5
 21
-679.8
 31
0.0
  0
LINE
  5
198
  8
DATA
  6
CONTINUOUS
 62
     7
 10
-443.5
 20
-680.9999999999998
 30
0.0
 11
-443.5
 21
-679.8
 31
0.0
  0
LINE
  5
199
  8
DATA
  6
CONTINUOUS
 62
     7
 10
-448.5
 20
-660.9999999999998
 30
0.0
 11
-448.5
 21
-662.7271499999995
 31
0.0
  0
LINE
  5
19A
  8
DATA
  6
CONTINUOUS
 62
     7
 10
-442.5
 20
-660.9999999999998
 30
0.0
 11
-442.5
 21
-662.7271499999995
 31
0.0
  0
ARC
  5
19B
  8
DATA
  6
CONTINUOUS
 62
     7
 10
-445.5
 20
-670.9999999999998
 30
0.0
 40
8.800002677414637
 50
109.9322641506783
 51
257.1961668197019
  0
ARC
  5
19C
  8
DATA
  6
CONTINUOUS
 62
     7
 10
-445.5
 20
-670.9999999999998
 30
0.0
 40
8.80000350434581
 50
282.9999995554244
 51
69.9999942379616
  0
ARC
  5
19D
  8
DATA
  6
CONTINUOUS
 62
     7
 10
-445.5
 20
-670.9999999999998
 30
0.0
 40
6.200002162064051
 50
60.00001153555644
 51
150.0000115355565
  0
LINE
  5
19E
  8
DATA
  6
CONTINUOUS
 62
     7
 10
-450.8693400000002
 20
-667.8999700000002
 30
0.0
 11
-450.3713799999996
 21
-668.1874699999996
 31
0.0
  0
LINE
  5
19F
  8
DATA
  6
CONTINUOUS
 62
     7
 10
-442.4000299999998
 20
-665.6306199999997
 30
0.0
 11
-442.6875300000002
 21
-666.12859
 31
0.0
  0
ARC
  5
1A0
  8
DATA
  6
CONTINUOUS
 62
     7
 10
-445.5
 20
-670.9999999999998
 30
0.0
 40
6.200002162064051
 50
240.0000115355565
 51
330.0000115355565
  0
LINE
  5
1A1
  8
DATA
  6
CONTINUOUS
 62
     7
 10
-448.6000000000004
 20
-676.3693599999995
 30
0.0
 11
-448.3125
 21
-675.87139
 31
0.0
  0
LINE
  5
1A2
  8
DATA
  6
CONTINUOUS
 62
     7
 10
-440.1306299999997
 20
-674.0999799999997
 30
0.0
 11
-440.6286
 21
-673.8124799999994
 31
0.0
  0
ARC
  5
1A3
  8
DATA
  6
CONTINUOUS
 62
     7
 10
-445.5
 20
-670.9999999999998
 30
0.0
 40
5.625003831580639
 50
149.999669682099
 51
240.0002126042988
  0
ARC
  5
1A4
  8
DATA
  6
CONTINUOUS
 62
     7
 10
-445.5
 20
-670.9999999999998
 30
0.0
 40
5.624996152034032
 50
330.0002126043063
 51
60.00071824312557
  0
ARC
  5
1A5
  8
DATA
  6
CONTINUOUS
 62
     7
 10
-445.5
 20
-670.9999999999998
 30
0.0
 40
3.599990080875567
 50
59.99990885470505
 51
149.999908854705
  0
ARC
  5
1A6
  8
DATA
  6
CONTINUOUS
 62
     7
 10
-445.5
 20
-670.9999999999998
 30
0.0
 40
3.599990080875567
 50
239.999908854705
 51
329.999908854705
  0
LINE
  5
1A7
  8
DATA
  6
CONTINUOUS
 62
     7
 10
-443.7000200000002
 20
-667.8823099999997
 30
0.0
 11
-444.0500099999999
 21
-668.4885199999997
 31
0.0
  0
LINE
  5
1A8
  8
DATA
  6
CONTINUOUS
 62
     7
 10
-448.6176699999996
 20
-669.1999899999998
 30
0.0
 11
-448.0114700000004
 21
-669.5499899999993
 31
0.0
  0
LINE
  5
1A9
  8
DATA
  6
CONTINUOUS
 62
     7
 10
-447.3000000000002
 20
-674.1176800000001
 30
0.0
 11
-446.9499999999998
 21
-673.5114700000001
 31
0.0
  0
LINE
  5
1AA
  8
DATA
  6
CONTINUOUS
 62
     7
 10
-442.38231
 20
-672.7999799999996
 30
0.0
 11
-442.9885199999999
 21
-672.4499899999998
 31
0.0
  0
ARC
  5
1AB
  8
DATA
  6
CONTINUOUS
 62
     7
 10
-445.5
 20
-670.9999999999998
 30
0.0
 40
2.900001820861602
 50
149.9997926340416
 51
240.0002336238326
  0
ARC
  5
1AC
  8
DATA
  6
CONTINUOUS
 62
     7
 10
-445.5
 20
-670.9999999999998
 30
0.0
 40
2.900000481120789
 50
330.0002336238302
 51
59.99979263402037
  0
LINE
  5
1AD
  8
DATA
  6
CONTINUOUS
 62
     7
 10
-436.0
 20
-681.9999999999998
 30
0.0
 11
-436.0
 21
-683.9999999999998
 31
0.0
  0
LINE
  5
1AE
  8
DATA
  6
CONTINUOUS
 62
     7
 10
-437.0
 20
-682.9999999999998
 30
0.0
 11
-435.0
 21
-682.9999999999998
 31
0.0
  0
LINE
  5
1AF
  8
DATA
  6
CONTINUOUS
 62
     7
 10
-455.0
 20
-657.9999999999998
 30
0.0
 11
-455.0
 21
-659.9999999999998
 31
0.0
  0
LINE
  5
1B0
  8
DATA
  6
CONTINUOUS
 62
     7
 10
-456.0
 20
-658.9999999999998
 30
0.0
 11
-454.0
 21
-658.9999999999998
 31
0.0
  0
LINE
  5
1B1
  8
DATA
  6
CONTINUOUS
 62
     7
 10
-457.25
 20
-670.9999999999998
 30
0.0
 11
-472.75
 21
-670.9999999999998
 31
0.0
  0
TEXT
  5
1B2
  8
DATA
 62
     7
 10
-460.5152573784722
 20
-687.2360184017701
 30
0.0
 40
3.257682291666667
  1
±1 LF
 50
180.0
 41
0.7
 72
     1
 11
-465.0
 21
-688.8648595476035
 31
0.0
 73
     2
  0
TEXT
  5
1B3
  8
DATA
 62
     7
 10
-460.1351944444444
 20
-683.0026850684368
 30
0.0
 40
3.257682291666667
  1
±2 HF
 50
180.0
 41
0.7
 72
     1
 11
-465.0
 21
-684.6315262142701
 31
0.0
 73
     2
  0
POLYLINE
  5
1B4
  8
DATA
  6
CONTINUOUS
 62
     7
 66
     1
 10
0.0
 20
0.0
 30
0.0
 70
     1
  0
VERTEX
  5
49E
  8
DATA
  6
CONTINUOUS
 62
     7
 10
-494.0
 20
-712.9999999999998
 30
0.0
  0
VERTEX
  5
49F
  8
DATA
  6
CONTINUOUS
 62
     7
 10
-436.0
 20
-712.9999999999998
 30
0.0
  0
VERTEX
  5
4A0
  8
DATA
  6
CONTINUOUS
 62
     7
 10
-436.0
 20
-725.9999999999998
 30
0.0
  0
VERTEX
  5
4A1
  8
DATA
  6
CONTINUOUS
 62
     7
 10
-494.0
 20
-725.9999999999998
 30
0.0
  0
SEQEND
  5
4BE
  8
DATA
  6
CONTINUOUS
 62
     7
  0
TEXT
  5
1BB
  8
DATA
 62
     7
 10
-438.0
 20
-720.7783691406248
 30
0.0
 40
2.44326171875
  1
Model
 50
180.0
 41
0.7
 11
-438.0
 21
-721.9999999999998
 31
0.0
 73
     2
  0
TEXT
  5
1BC
  8
DATA
 62
     7
 10
-461.03125
 20
-720.7783691406248
 30
0.0
 40
2.44326171875
  1
:BRX308-LA
 50
180.0
 41
0.7
 11
-461.03125
 21
-721.9999999999998
 31
0.0
 73
     2
  0
TEXT
  5
1BD
  8
DATA
 62
     7
 10
-461.03125
 20
-716.9152331601457
 30
0.0
 40
2.036051432291667
  1
HF-8 OHM/50W
 50
180.0
 41
0.7
 11
-461.03125
 21
-718.9512845924373
 31
0.0
 73
     3
  0
TEXT
  5
1BE
  8
DATA
 62
     7
 10
-461.03125
 20
-714.2693998268123
 30
0.0
 40
2.036051432291667
  1
LF-8 OHM/300W
 50
180.0
 41
0.7
 11
-461.03125
 21
-716.305451259104
 31
0.0
 73
     3
  0
TEXT
  5
1BF
  8
DATA
 62
     7
 10
-458.3406032986111
 20
-747.7952880859372
 30
0.0
 40
10.18025716145834
  1
BRX300
 50
180.0
 41
0.7
 72
     1
 11
-477.34375
 21
-752.8854166666663
 31
0.0
 73
     2
  0
TEXT
  5
1C0
  8
DATA
 62
     7
 10
-461.9036933051215
 20
-740.1843831380205
 30
0.0
 40
5.293733723958335
  1
S E R I E S
 50
180.0
 41
0.7
 72
     1
 11
-477.34375
 21
-742.8312499999997
 31
0.0
 73
     2
  0
POLYLINE
  5
1C1
  8
DATA
  6
CONTINUOUS
 62
     7
 66
     1
 10
0.0
 20
0.0
 30
0.0
 70
     1
  0
VERTEX
  5
4A2
  8
DATA
  6
CONTINUOUS
 62
     7
 10
-451.5
 20
-746.4999999999997
 30
0.0
  0
VERTEX
  5
4A3
  8
DATA
  6
CONTINUOUS
 62
     7
 10
-434.5
 20
-746.4999999999997
 30
0.0
  0
VERTEX
  5
4A4
  8
DATA
  6
CONTINUOUS
 62
     7
 10
-434.5
 20
-759.4999999999997
 30
0.0
  0
VERTEX
  5
4A5
  8
DATA
  6
CONTINUOUS
 62
     7
 10
-451.5
 20
-759.4999999999997
 30
0.0
  0
SEQEND
  5
4BF
  8
DATA
  6
CONTINUOUS
 62
     7
  0
ARC
  5
1C8
  8
DATA
  6
CONTINUOUS
 62
     7
 10
-440.05889
 20
-751.7866649999996
 30
0.0
 40
1.289426712583958
 50
84.69085622153622
 51
143.9911991542451
  0
ARC
  5
1C9
  8
DATA
  6
CONTINUOUS
 62
     7
 10
-439.820275
 20
-751.7866649999996
 30
0.0
 40
1.289424618473282
 50
36.00880084575759
 51
95.30914377846426
  0
ARC
  5
1CA
  8
DATA
  6
CONTINUOUS
 62
     7
 10
-443.335425
 20
-751.4519549999997
 30
0.0
 40
0.9513057058590133
 50
93.83098160911484
 51
171.1351473098022
  0
ARC
  5
1CB
  8
DATA
  6
CONTINUOUS
 62
     7
 10
-443.34491
 20
-754.5550349999996
 30
0.0
 40
0.9498649664557648
 50
188.2269238590191
 51
266.1541266921554
  0
ARC
  5
1CC
  8
DATA
  6
CONTINUOUS
 62
     7
 10
-443.2403906817866
 20
-751.2105720226026
 30
0.0
 40
0.1593915574091886
 50
127.6419024975615
 51
174.267019289386
  0
LINE
  5
1CD
  8
DATA
  6
CONTINUOUS
 62
     7
 10
-439.146225
 20
-753.7223249999997
 30
0.0
 11
-439.893455
 21
-755.5027649999997
 31
0.0
  0
LINE
  5
1CE
  8
DATA
  6
CONTINUOUS
 62
     7
 10
-439.146225
 20
-753.7223249999997
 30
0.0
 11
-438.408215
 21
-755.5027649999997
 31
0.0
  0
LINE
  5
1CF
  8
DATA
  6
CONTINUOUS
 62
     7
 10
-444.810425
 20
-750.5027649999997
 30
0.0
 11
-444.810425
 21
-755.5027649999997
 31
0.0
  0
LINE
  5
1D0
  8
DATA
  6
CONTINUOUS
 62
     7
 10
-445.7698349999999
 20
-755.5027649999997
 30
0.0
 11
-445.7698349999999
 21
-751.2684449999997
 31
0.0
  0
LINE
  5
1D1
  8
DATA
  6
CONTINUOUS
 62
     7
 10
-440.24401
 20
-755.5027649999997
 30
0.0
 11
-440.24401
 21
-751.2684449999997
 31
0.0
  0
LINE
  5
1D2
  8
DATA
  6
CONTINUOUS
 62
     7
 10
-441.16652
 20
-755.5027649999997
 30
0.0
 11
-441.16652
 21
-751.2684449999997
 31
0.0
  0
LINE
  5
1D3
  8
DATA
  6
CONTINUOUS
 62
     7
 10
-441.646225
 20
-755.5027649999997
 30
0.0
 11
-441.646225
 21
-750.5027649999997
 31
0.0
  0
LINE
  5
1D4
  8
DATA
  6
CONTINUOUS
 62
     7
 10
-442.48571
 20
-755.0322899999996
 30
0.0
 11
-442.48571
 21
-753.4271199999996
 31
0.0
  0
LINE
  5
1D5
  8
DATA
  6
CONTINUOUS
 62
     7
 10
-444.285
 20
-753.5199999999996
 30
0.0
 11
-444.285
 21
-754.6909549999997
 31
0.0
  0
LINE
  5
1D6
  8
DATA
  6
CONTINUOUS
 62
     7
 10
-443.398985
 20
-754.8108849999996
 30
0.0
 11
-443.398985
 21
-753.6485199999997
 31
0.0
  0
LINE
  5
1D7
  8
DATA
  6
CONTINUOUS
 62
     7
 10
-439.542905
 20
-752.0710349999997
 30
0.0
 11
-439.542905
 21
-751.2684549999997
 31
0.0
  0
LINE
  5
1D8
  8
DATA
  6
CONTINUOUS
 62
     7
 10
-439.542905
 20
-752.0710349999997
 30
0.0
 11
-438.712645
 21
-752.0710349999997
 31
0.0
  0
LINE
  5
1D9
  8
DATA
  6
CONTINUOUS
 62
     7
 10
-438.712645
 20
-752.0710349999997
 30
0.0
 11
-438.712645
 21
-751.2684549999997
 31
0.0
  0
ARC
  5
1DA
  8
DATA
  6
CONTINUOUS
 62
     7
 10
-439.895215
 20
-751.2576349999997
 30
0.0
 40
0.3489644131212
 50
89.71184879275035
 51
181.7759870056821
  0
ARC
  5
1DB
  8
DATA
  6
CONTINUOUS
 62
     7
 10
-439.8917
 20
-751.2576349999997
 30
0.0
 40
0.3489626287297773
 50
358.224012994317
 51
90.28815120725238
  0
ARC
  5
1DC
  8
DATA
  6
CONTINUOUS
 62
     7
 10
-439.2953649999999
 20
-751.2967199999996
 30
0.0
 40
0.5834001040880985
 50
2.776995449985752
 51
27.35960666714414
  0
CIRCLE
  5
1DD
  8
DATA
  6
CONTINUOUS
 62
     7
 10
-439.196965
 20
-753.0304399999997
 30
0.0
 40
0.4750900000000229
  0
LINE
  5
1DE
  8
DATA
  6
CONTINUOUS
 62
     7
 10
-447.310425
 20
-750.5027699999996
 30
0.0
 11
-444.810425
 21
-750.5027699999996
 31
0.0
  0
LINE
  5
1DF
  8
DATA
  6
CONTINUOUS
 62
     7
 10
-447.310425
 20
-750.5027699999996
 30
0.0
 11
-447.310425
 21
-752.0710399999997
 31
0.0
  0
LINE
  5
1E0
  8
DATA
  6
CONTINUOUS
 62
     7
 10
-447.310425
 20
-752.0710349999997
 30
0.0
 11
-446.470945
 21
-752.0710349999997
 31
0.0
  0
LINE
  5
1E1
  8
DATA
  6
CONTINUOUS
 62
     7
 10
-446.470945
 20
-752.0710349999997
 30
0.0
 11
-446.470945
 21
-751.2684549999997
 31
0.0
  0
LINE
  5
1E2
  8
DATA
  6
CONTINUOUS
 62
     7
 10
-441.646225
 20
-750.5027699999996
 30
0.0
 11
-443.398985
 21
-750.5027749999997
 31
0.0
  0
LINE
  5
1E3
  8
DATA
  6
CONTINUOUS
 62
     7
 10
-442.4857049999999
 20
-750.9732499999997
 30
0.0
 11
-442.937735
 21
-750.9732499999997
 31
0.0
  0
LINE
  5
1E4
  8
DATA
  6
CONTINUOUS
 62
     7
 10
-442.48571
 20
-750.9732499999997
 30
0.0
 11
-442.48571
 21
-752.9474199999997
 31
0.0
  0
LINE
  5
1E5
  8
DATA
  6
CONTINUOUS
 62
     7
 10
-442.4857049999999
 20
-752.9474199999997
 30
0.0
 11
-442.937735
 21
-752.9474199999997
 31
0.0
  0
LINE
  5
1E6
  8
DATA
  6
CONTINUOUS
 62
     7
 10
-443.398985
 20
-751.1946499999997
 30
0.0
 11
-443.398985
 21
-752.7260199999996
 31
0.0
  0
ARC
  5
1E7
  8
DATA
  6
CONTINUOUS
 62
     7
 10
-440.5838
 20
-751.2967199999996
 30
0.0
 40
0.5833992739324239
 50
152.640393332862
 51
177.2230045500164
  0
ARC
  5
1E8
  8
DATA
  6
CONTINUOUS
 62
     7
 10
-446.122145
 20
-751.2576349999997
 30
0.0
 40
0.3489644131212
 50
89.71184879275035
 51
181.7759870056821
  0
ARC
  5
1E9
  8
DATA
  6
CONTINUOUS
 62
     7
 10
-446.118635
 20
-751.2576349999997
 30
0.0
 40
0.3489626287297773
 50
358.224012994317
 51
90.28815120724306
  0
LINE
  5
1EA
  8
DATA
  6
CONTINUOUS
 62
     7
 10
-444.284595
 20
-751.3053549999997
 30
0.0
 11
-444.284595
 21
-752.6337649999997
 31
0.0
  0
LINE
  5
1EB
  8
DATA
  6
CONTINUOUS
 62
     7
 10
-442.4857049999999
 20
-753.4271199999996
 30
0.0
 11
-442.937735
 21
-753.4271199999996
 31
0.0
  0
LINE
  5
1EC
  8
DATA
  6
CONTINUOUS
 62
     7
 10
-440.24401
 20
-755.5027649999997
 30
0.0
 11
-441.16652
 21
-755.5027649999997
 31
0.0
  0
LINE
  5
1ED
  8
DATA
  6
CONTINUOUS
 62
     7
 10
-438.408215
 20
-755.5027649999997
 30
0.0
 11
-439.893455
 21
-755.5027649999997
 31
0.0
  0
LINE
  5
1EE
  8
DATA
  6
CONTINUOUS
 62
     7
 10
-444.810425
 20
-755.5027649999997
 30
0.0
 11
-445.7698349999999
 21
-755.5027649999997
 31
0.0
  0
LINE
  5
1EF
  8
DATA
  6
CONTINUOUS
 62
     7
 10
-441.646225
 20
-755.5027649999997
 30
0.0
 11
-443.4086200640733
 21
-755.5027609531294
 31
0.0
  0
LINE
  5
1F0
  8
DATA
  6
CONTINUOUS
 62
     7
 10
-442.4857049999999
 20
-755.0322849999997
 30
0.0
 11
-442.937735
 21
-755.0322849999997
 31
0.0
  0
ARC
  5
1F1
  8
DATA
  6
CONTINUOUS
 62
     7
 10
-442.9430727313016
 20
-751.8500939802932
 30
0.0
 40
0.8768602266909173
 50
89.65121993761764
 51
102.8264828068753
  0
ARC
  5
1F2
  8
DATA
  6
CONTINUOUS
 62
     7
 10
-443.0415580137333
 20
-751.4793748443861
 30
0.0
 40
0.4937189518466536
 50
101.2331036226554
 51
126.8620088940516
  0
ARC
  5
1F3
  8
DATA
  6
CONTINUOUS
 62
     7
 10
-443.2403906817866
 20
-752.7100979773968
 30
0.0
 40
0.1593915574091974
 50
185.7329807105713
 51
232.3580975024385
  0
ARC
  5
1F4
  8
DATA
  6
CONTINUOUS
 62
     7
 10
-442.9430727313016
 20
-752.0705760197062
 30
0.0
 40
0.876860226690815
 50
257.1735171931266
 51
270.3487800623823
  0
ARC
  5
1F5
  8
DATA
  6
CONTINUOUS
 62
     7
 10
-443.0415580137333
 20
-752.4412951556133
 30
0.0
 40
0.4937189518465938
 50
233.1379911059404
 51
258.766896377342
  0
ARC
  5
1F6
  8
DATA
  6
CONTINUOUS
 62
     7
 10
-443.800755
 20
-752.6010599999997
 30
0.0
 40
0.4849440819568629
 50
183.8670063598179
 51
268.361634567897
  0
ARC
  5
1F7
  8
DATA
  6
CONTINUOUS
 62
     7
 10
-443.80031
 20
-753.5710199999996
 30
0.0
 40
0.4854259699737216
 50
91.6892821046514
 51
176.0782829826512
  0
ARC
  5
1F8
  8
DATA
  6
CONTINUOUS
 62
     7
 10
-443.2403906817866
 20
-753.6644420226025
 30
0.0
 40
0.1593915574091886
 50
127.6419024975615
 51
174.2670192894288
  0
ARC
  5
1F9
  8
DATA
  6
CONTINUOUS
 62
     7
 10
-442.9430727313016
 20
-754.3039639802931
 30
0.0
 40
0.8768602266909173
 50
89.65121993761764
 51
102.8264828068753
  0
ARC
  5
1FA
  8
DATA
  6
CONTINUOUS
 62
     7
 10
-443.0415580137333
 20
-753.9332448443861
 30
0.0
 40
0.4937189518466536
 50
101.2331036226554
 51
126.8620088940596
  0
ARC
  5
1FB
  8
DATA
  6
CONTINUOUS
 62
     7
 10
-443.2403906817866
 20
-754.7949629773967
 30
0.0
 40
0.1593915574092088
 50
185.7329807106119
 51
232.3580975024635
  0
ARC
  5
1FC
  8
DATA
  6
CONTINUOUS
 62
     7
 10
-442.9430727313016
 20
-754.1554410197061
 30
0.0
 40
0.8768602266909258
 50
257.1735171931283
 51
270.3487800623824
  0
ARC
  5
1FD
  8
DATA
  6
CONTINUOUS
 62
     7
 10
-443.0415580137333
 20
-754.5261601556133
 30
0.0
 40
0.4937189518465938
 50
233.1379911059404
 51
258.766896377342
  0
POLYLINE
  5
1FE
  8
DATA
  6
CONTINUOUS
 62
     7
 66
     1
 10
0.0
 20
0.0
 30
0.0
 70
     1
  0
VERTEX
  5
4A6
  8
DATA
  6
CONTINUOUS
 62
     7
 10
-451.5
 20
-743.4999999999998
 30
0.0
  0
VERTEX
  5
4A7
  8
DATA
  6
CONTINUOUS
 62
     7
 10
-434.5
 20
-743.4999999999998
 30
0.0
  0
VERTEX
  5
4A8
  8
DATA
  6
CONTINUOUS
 62
     7
 10
-434.5
 20
-745.4999999999998
 30
0.0
  0
VERTEX
  5
4A9
  8
DATA
  6
CONTINUOUS
 62
     7
 10
-451.5
 20
-745.4999999999998
 30
0.0
  0
SEQEND
  5
4C0
  8
DATA
  6
CONTINUOUS
 62
     7
  0
TEXT
  5
205
  8
DATA
 62
     7
 10
-436.5389301215278
 20
-743.6855794270831
 30
0.0
 40
1.628841145833333
  1
PROFESSIONAL
 50
180.0
 41
0.7
 72
     1
 11
-443.0
 21
-744.4999999999998
 31
0.0
 73
     2
  0
LINE
  5
206
  8
DATA
  6
CONTINUOUS
 62
     7
 10
-607.0
 20
-616.4999999999998
 30
0.0
 11
-607.0
 21
-783.4999999999998
 31
0.0
  0
LINE
  5
207
  8
DATA
  6
CONTINUOUS
 62
     7
 10
-580.0
 20
-783.4999999999998
 30
0.0
 11
-580.0
 21
-616.4999999999998
 31
0.0
  0
LINE
  5
208
  8
DATA
  6
CONTINUOUS
 62
     7
 10
-606.25
 20
-771.9999999999998
 30
0.0
 11
-603.0
 21
-771.9999999999998
 31
0.0
  0
LINE
  5
209
  8
DATA
  6
CONTINUOUS
 62
     7
 10
-606.25
 20
-627.9999999999998
 30
0.0
 11
-606.25
 21
-771.9999999999998
 31
0.0
  0
LINE
  5
20A
  8
DATA
  6
CONTINUOUS
 62
     7
 10
-580.75
 20
-771.9999999999998
 30
0.0
 11
-580.75
 21
-627.9999999999998
 31
0.0
  0
LINE
  5
20B
  8
DATA
  6
CONTINUOUS
 62
     7
 10
-584.0
 20
-771.9999999999998
 30
0.0
 11
-580.75
 21
-771.9999999999998
 31
0.0
  0
ARC
  5
20C
  8
DATA
  6
CONTINUOUS
 62
     7
 10
-593.5
 20
-729.09772727273
 30
0.0
 40
56.05227272726983
 50
256.0634865172422
 51
283.9365134827578
  0
LINE
  5
20D
  8
DATA
  6
CONTINUOUS
 62
     7
 10
-607.0
 20
-783.4999999999998
 30
0.0
 11
-606.25
 21
-771.9999999999998
 31
0.0
  0
LINE
  5
20E
  8
DATA
  6
CONTINUOUS
 62
     7
 10
-580.75
 20
-771.9999999999998
 30
0.0
 11
-580.0
 21
-783.4999999999998
 31
0.0
  0
ARC
  5
20F
  8
DATA
  6
CONTINUOUS
 62
     7
 10
-593.5
 20
-857.2499999999998
 30
0.0
 40
90.5
 50
83.97442499163331
 51
96.02557500836666
  0
LINE
  5
210
  8
DATA
  6
CONTINUOUS
 62
     7
 10
-603.0
 20
-767.2499999999998
 30
0.0
 11
-603.0
 21
-784.3390820523897
 31
0.0
  0
LINE
  5
211
  8
DATA
  6
CONTINUOUS
 62
     7
 10
-584.0
 20
-767.2499999999998
 30
0.0
 11
-584.0
 21
-784.3390820523897
 31
0.0
  0
LINE
  5
212
  8
DATA
  6
CONTINUOUS
 62
     7
 10
-606.25
 20
-627.9999999999998
 30
0.0
 11
-603.0
 21
-627.9999999999998
 31
0.0
  0
LINE
  5
213
  8
DATA
  6
CONTINUOUS
 62
     7
 10
-584.0
 20
-627.9999999999998
 30
0.0
 11
-580.75
 21
-627.9999999999998
 31
0.0
  0
ARC
  5
214
  8
DATA
  6
CONTINUOUS
 62
     7
 10
-593.5
 20
-670.9022727272695
 30
0.0
 40
56.05227272726983
 50
76.06348651724218
 51
103.9365134827578
  0
LINE
  5
215
  8
DATA
  6
CONTINUOUS
 62
     7
 10
-607.0
 20
-616.4999999999998
 30
0.0
 11
-606.25
 21
-627.9999999999998
 31
0.0
  0
LINE
  5
216
  8
DATA
  6
CONTINUOUS
 62
     7
 10
-580.75
 20
-627.9999999999998
 30
0.0
 11
-580.0
 21
-616.4999999999998
 31
0.0
  0
ARC
  5
217
  8
DATA
  6
CONTINUOUS
 62
     7
 10
-593.5
 20
-542.7499999999998
 30
0.0
 40
90.5
 50
263.9744249916333
 51
276.0255750083666
  0
LINE
  5
218
  8
DATA
  6
CONTINUOUS
 62
     7
 10
-603.0
 20
-632.7499999999998
 30
0.0
 11
-603.0
 21
-615.6609179476098
 31
0.0
  0
LINE
  5
219
  8
DATA
  6
CONTINUOUS
 62
     7
 10
-584.0
 20
-632.7499999999998
 30
0.0
 11
-584.0
 21
-615.6609179476098
 31
0.0
  0
LINE
  5
21A
  8
DATA
  6
CONTINUOUS
 62
     7
 10
31.25000000000011
 20
-602.4999999999998
 30
0.0
 11
-631.25
 21
-602.4999999999998
 31
0.0
  0
LINE
  5
21B
  8
DATA
  6
CONTINUOUS
 62
     7
 10
31.25000000000011
 20
-797.4999999999998
 30
0.0
 11
-631.25
 21
-797.4999999999998
 31
0.0
  0
LINE
  5
21C
  8
DATA
  6
CONTINUOUS
 62
     7
 10
-261.0
 20
-615.4999999999999
 30
0.0
 11
-261.0
 21
-640.4999999999999
 31
0.0
  0
LINE
  5
21D
  8
DATA
  6
CONTINUOUS
 62
     7
 10
-261.0
 20
-764.7485330591323
 30
0.0
 11
-261.0
 21
-784.4999999999999
 31
0.0
  0
LINE
  5
21E
  8
DATA
  6
CONTINUOUS
 62
     7
 10
-329.0
 20
-605.4999999999999
 30
0.0
 11
-271.0
 21
-605.4999999999999
 31
0.0
  0
LINE
  5
21F
  8
DATA
  6
CONTINUOUS
 62
     7
 10
-339.0
 20
-784.4999999999999
 30
0.0
 11
-339.0
 21
-759.4999999999999
 31
0.0
  0
LINE
  5
220
  8
DATA
  6
CONTINUOUS
 62
     7
 10
-271.0
 20
-794.4999999999999
 30
0.0
 11
-296.9
 21
-794.4999999999999
 31
0.0
  0
LINE
  5
221
  8
DATA
  6
CONTINUOUS
 62
     7
 10
-303.1
 20
-794.4999999999999
 30
0.0
 11
-329.0
 21
-794.4999999999999
 31
0.0
  0
ARC
  5
222
  8
DATA
  6
CONTINUOUS
 62
     7
 10
-271.0
 20
-784.4999999999999
 30
0.0
 40
10.0
 50
270.0
 51
0.0
  0
ARC
  5
223
  8
DATA
  6
CONTINUOUS
 62
     7
 10
-329.0
 20
-784.4999999999999
 30
0.0
 40
10.0
 50
180.0
 51
270.0
  0
ARC
  5
224
  8
DATA
  6
CONTINUOUS
 62
     7
 10
-271.0
 20
-615.4999999999999
 30
0.0
 40
10.0
 50
0.0
 51
90.0
  0
ARC
  5
225
  8
DATA
  6
CONTINUOUS
 62
     7
 10
-271.0
 20
-640.4999999999999
 30
0.0
 40
10.0
 50
270.0
 51
0.0
  0
ARC
  5
226
  8
DATA
  6
CONTINUOUS
 62
     7
 10
-271.0
 20
-660.4999999999999
 30
0.0
 40
10.0
 50
90.0
 51
180.0
  0
ARC
  5
227
  8
DATA
  6
CONTINUOUS
 62
     7
 10
-329.0
 20
-759.4999999999999
 30
0.0
 40
10.0
 50
90.0
 51
180.0
  0
ARC
  5
228
  8
DATA
  6
CONTINUOUS
 62
     7
 10
-271.0
 20
-739.4999999999999
 30
0.0
 40
10.0
 50
180.0
 51
238.2525264888612
  0
ARC
  5
229
  8
DATA
  6
CONTINUOUS
 62
     7
 10
-329.0
 20
-739.4999999999999
 30
0.0
 40
10.0
 50
270.0
 51
0.0
  0
LINE
  5
22A
  8
DATA
  6
CONTINUOUS
 62
     7
 10
-281.0
 20
-739.4999999999999
 30
0.0
 11
-281.0
 21
-660.4999999999999
 31
0.0
  0
LINE
  5
22B
  8
DATA
  6
CONTINUOUS
 62
     7
 10
-319.0
 20
-660.4999999999999
 30
0.0
 11
-319.0
 21
-739.4999999999999
 31
0.0
  0
LINE
  5
22C
  8
DATA
  6
CONTINUOUS
 62
     7
 10
-339.0
 20
-615.4999999999999
 30
0.0
 11
-339.0
 21
-640.4999999999999
 31
0.0
  0
ARC
  5
22D
  8
DATA
  6
CONTINUOUS
 62
     7
 10
-329.0
 20
-615.4999999999999
 30
0.0
 40
10.0
 50
90.0
 51
180.0
  0
ARC
  5
22E
  8
DATA
  6
CONTINUOUS
 62
     7
 10
-329.0
 20
-640.4999999999999
 30
0.0
 40
10.0
 50
180.0
 51
270.0
  0
ARC
  5
22F
  8
DATA
  6
CONTINUOUS
 62
     7
 10
-329.0
 20
-660.4999999999999
 30
0.0
 40
10.0
 50
0.0
 51
90.0
  0
LINE
  5
230
  8
DATA
  6
CONTINUOUS
 62
     7
 10
-290.0
 20
-605.4999999999999
 30
0.0
 11
-290.0
 21
-794.4999999999999
 31
0.0
  0
LINE
  5
231
  8
DATA
  6
CONTINUOUS
 62
     7
 10
-295.5
 20
-605.4999999999999
 30
0.0
 11
-295.5
 21
-794.4999999999999
 31
0.0
  0
LINE
  5
232
  8
DATA
  6
CONTINUOUS
 62
     7
 10
-304.5
 20
-794.4999999999999
 30
0.0
 11
-304.5
 21
-605.4999999999999
 31
0.0
  0
POLYLINE
  5
233
  8
DATA
  6
CONTINUOUS
 62
     7
 66
     1
 10
0.0
 20
0.0
 30
0.0
 70
     1
  0
VERTEX
  5
4AA
  8
DATA
  6
CONTINUOUS
 62
     7
 10
-303.1
 20
-671.1999999999998
 30
0.0
  0
VERTEX
  5
4AB
  8
DATA
  6
CONTINUOUS
 62
     7
 10
-296.9
 20
-671.1999999999998
 30
0.0
  0
VERTEX
  5
4AC
  8
DATA
  6
CONTINUOUS
 62
     7
 10
-296.9
 20
-797.1999999999998
 30
0.0
  0
VERTEX
  5
4AD
  8
DATA
  6
CONTINUOUS
 62
     7
 10
-303.1
 20
-797.1999999999998
 30
0.0
  0
SEQEND
  5
4C1
  8
DATA
  6
CONTINUOUS
 62
     7
  0
CIRCLE
  5
23A
  8
DATA
  6
CONTINUOUS
 62
     7
 10
-276.0
 20
-626.9999999999999
 30
0.0
 40
4.5
  0
LINE
  5
23B
  8
DATA
  6
CONTINUOUS
 62
     7
 10
-274.2679491924311
 20
-626.9999999999999
 30
0.0
 11
-275.1339745962155
 21
-628.4999999999999
 31
0.0
  0
LINE
  5
23C
  8
DATA
  6
CONTINUOUS
 62
     7
 10
-275.1339745962155
 20
-625.4999999999999
 30
0.0
 11
-274.267949192431
 21
-626.9999999999999
 31
0.0
  0
LINE
  5
23D
  8
DATA
  6
CONTINUOUS
 62
     7
 10
-276.8660254037844
 20
-625.4999999999999
 30
0.0
 11
-275.1339745962156
 21
-625.4999999999999
 31
0.0
  0
LINE
  5
23E
  8
DATA
  6
CONTINUOUS
 62
     7
 10
-276.8660254037844
 20
-628.4999999999999
 30
0.0
 11
-275.1339745962156
 21
-628.4999999999999
 31
0.0
  0
LINE
  5
23F
  8
DATA
  6
CONTINUOUS
 62
     7
 10
-277.7320508075689
 20
-626.9999999999999
 30
0.0
 11
-276.8660254037845
 21
-628.4999999999999
 31
0.0
  0
LINE
  5
240
  8
DATA
  6
CONTINUOUS
 62
     7
 10
-276.8660254037845
 20
-625.4999999999999
 30
0.0
 11
-277.732050807569
 21
-626.9999999999999
 31
0.0
  0
CIRCLE
  5
241
  8
DATA
  6
CONTINUOUS
 62
     7
 10
-324.0
 20
-626.9999999999999
 30
0.0
 40
4.5
  0
LINE
  5
242
  8
DATA
  6
CONTINUOUS
 62
     7
 10
-322.2679491924311
 20
-626.9999999999999
 30
0.0
 11
-323.1339745962155
 21
-628.4999999999999
 31
0.0
  0
LINE
  5
243
  8
DATA
  6
CONTINUOUS
 62
     7
 10
-323.1339745962155
 20
-625.4999999999999
 30
0.0
 11
-322.267949192431
 21
-626.9999999999999
 31
0.0
  0
LINE
  5
244
  8
DATA
  6
CONTINUOUS
 62
     7
 10
-324.8660254037844
 20
-625.4999999999999
 30
0.0
 11
-323.1339745962156
 21
-625.4999999999999
 31
0.0
  0
LINE
  5
245
  8
DATA
  6
CONTINUOUS
 62
     7
 10
-324.8660254037844
 20
-628.4999999999999
 30
0.0
 11
-323.1339745962156
 21
-628.4999999999999
 31
0.0
  0
LINE
  5
246
  8
DATA
  6
CONTINUOUS
 62
     7
 10
-325.7320508075689
 20
-626.9999999999999
 30
0.0
 11
-324.8660254037845
 21
-628.4999999999999
 31
0.0
  0
LINE
  5
247
  8
DATA
  6
CONTINUOUS
 62
     7
 10
-324.8660254037845
 20
-625.4999999999999
 30
0.0
 11
-325.732050807569
 21
-626.9999999999999
 31
0.0
  0
CIRCLE
  5
248
  8
DATA
  6
CONTINUOUS
 62
     7
 10
-276.0
 20
-772.9999999999999
 30
0.0
 40
4.5
  0
LINE
  5
249
  8
DATA
  6
CONTINUOUS
 62
     7
 10
-274.2679491924311
 20
-772.9999999999999
 30
0.0
 11
-275.1339745962155
 21
-771.4999999999999
 31
0.0
  0
LINE
  5
24A
  8
DATA
  6
CONTINUOUS
 62
     7
 10
-275.1339745962155
 20
-774.4999999999999
 30
0.0
 11
-274.267949192431
 21
-772.9999999999999
 31
0.0
  0
LINE
  5
24B
  8
DATA
  6
CONTINUOUS
 62
     7
 10
-276.8660254037844
 20
-774.4999999999999
 30
0.0
 11
-275.1339745962156
 21
-774.4999999999999
 31
0.0
  0
LINE
  5
24C
  8
DATA
  6
CONTINUOUS
 62
     7
 10
-276.8660254037844
 20
-771.4999999999999
 30
0.0
 11
-275.1339745962156
 21
-771.4999999999999
 31
0.0
  0
LINE
  5
24D
  8
DATA
  6
CONTINUOUS
 62
     7
 10
-277.7320508075689
 20
-772.9999999999999
 30
0.0
 11
-276.8660254037845
 21
-771.4999999999999
 31
0.0
  0
LINE
  5
24E
  8
DATA
  6
CONTINUOUS
 62
     7
 10
-276.8660254037845
 20
-774.4999999999999
 30
0.0
 11
-277.732050807569
 21
-772.9999999999999
 31
0.0
  0
CIRCLE
  5
24F
  8
DATA
  6
CONTINUOUS
 62
     7
 10
-324.0
 20
-772.9999999999999
 30
0.0
 40
4.5
  0
LINE
  5
250
  8
DATA
  6
CONTINUOUS
 62
     7
 10
-322.2679491924311
 20
-772.9999999999999
 30
0.0
 11
-323.1339745962155
 21
-771.4999999999999
 31
0.0
  0
LINE
  5
251
  8
DATA
  6
CONTINUOUS
 62
     7
 10
-323.1339745962155
 20
-774.4999999999999
 30
0.0
 11
-322.267949192431
 21
-772.9999999999999
 31
0.0
  0
LINE
  5
252
  8
DATA
  6
CONTINUOUS
 62
     7
 10
-324.8660254037844
 20
-774.4999999999999
 30
0.0
 11
-323.1339745962156
 21
-774.4999999999999
 31
0.0
  0
LINE
  5
253
  8
DATA
  6
CONTINUOUS
 62
     7
 10
-324.8660254037844
 20
-771.4999999999999
 30
0.0
 11
-323.1339745962156
 21
-771.4999999999999
 31
0.0
  0
LINE
  5
254
  8
DATA
  6
CONTINUOUS
 62
     7
 10
-325.7320508075689
 20
-772.9999999999999
 30
0.0
 11
-324.8660254037845
 21
-771.4999999999999
 31
0.0
  0
LINE
  5
255
  8
DATA
  6
CONTINUOUS
 62
     7
 10
-324.8660254037845
 20
-774.4999999999999
 30
0.0
 11
-325.732050807569
 21
-772.9999999999999
 31
0.0
  0
CIRCLE
  5
256
  8
DATA
  6
CONTINUOUS
 62
     7
 10
-276.0
 20
-753.9999999999999
 30
0.0
 40
4.800000000000011
  0
LINE
  5
257
  8
DATA
  6
CONTINUOUS
 62
     7
 10
-253.5341781359397
 20
-766.7489939984418
 30
0.0
 11
-277.6823237931664
 21
-760.2785178708789
 31
0.0
  0
LINE
  5
258
  8
DATA
  6
CONTINUOUS
 62
     7
 10
-274.3176762068336
 20
-747.7214821291209
 30
0.0
 11
-250.1695305496069
 21
-754.191958256684
 31
0.0
  0
ARC
  5
259
  8
DATA
  6
CONTINUOUS
 62
     7
 10
-274.3337779496514
 20
-754.4464628528017
 30
0.0
 40
6.725000000000009
 50
89.86281594234407
 51
240.137184057656
  0
ARC
  5
25A
  8
DATA
  6
CONTINUOUS
 62
     7
 10
-253.5180763931219
 20
-760.024013274761
 30
0.0
 40
6.725000000000009
 50
269.8628159423441
 51
60.13718405765548
  0
CIRCLE
  5
25B
  8
DATA
  6
CONTINUOUS
 62
     7
 10
-251.8518543427733
 20
-760.470476127563
 30
0.0
 40
1.5999999999999
  0
CIRCLE
  5
25C
  8
DATA
  6
CONTINUOUS
 62
     7
 10
-276.0
 20
-753.9999999999999
 30
0.0
 40
3.600000000000023
  0
LINE
  5
25D
  8
DATA
  6
CONTINUOUS
 62
     7
 10
-274.2679491924311
 20
-753.9999999999999
 30
0.0
 11
-275.1339745962155
 21
-752.4999999999999
 31
0.0
  0
LINE
  5
25E
  8
DATA
  6
CONTINUOUS
 62
     7
 10
-275.1339745962155
 20
-755.4999999999999
 30
0.0
 11
-274.267949192431
 21
-753.9999999999999
 31
0.0
  0
LINE
  5
25F
  8
DATA
  6
CONTINUOUS
 62
     7
 10
-276.8660254037844
 20
-755.4999999999999
 30
0.0
 11
-275.1339745962156
 21
-755.4999999999999
 31
0.0
  0
LINE
  5
260
  8
DATA
  6
CONTINUOUS
 62
     7
 10
-276.8660254037844
 20
-752.4999999999999
 30
0.0
 11
-275.1339745962156
 21
-752.4999999999999
 31
0.0
  0
LINE
  5
261
  8
DATA
  6
CONTINUOUS
 62
     7
 10
-277.7320508075689
 20
-753.9999999999999
 30
0.0
 11
-276.8660254037845
 21
-752.4999999999999
 31
0.0
  0
LINE
  5
262
  8
DATA
  6
CONTINUOUS
 62
     7
 10
-276.8660254037845
 20
-755.4999999999999
 30
0.0
 11
-277.732050807569
 21
-753.9999999999999
 31
0.0
  0
LINE
  5
263
  8
DATA
  6
CONTINUOUS
 62
     7
 10
-265.1252880514085
 20
-763.6431654572116
 30
0.0
 11
-261.7606404650758
 21
-751.0861297154538
 31
0.0
  0
LINE
  5
264
  8
DATA
  6
CONTINUOUS
 62
     7
 10
-285.8
 20
-781.4999999999998
 30
0.0
 11
-285.8
 21
-788.4999999999998
 31
0.0
  0
LINE
  5
265
  8
DATA
  6
CONTINUOUS
 62
     7
 10
-285.8
 20
-788.4999999999998
 30
0.0
 11
-290.0
 21
-788.4999999999998
 31
0.0
  0
LINE
  5
266
  8
DATA
  6
CONTINUOUS
 62
     7
 10
-285.8
 20
-781.4999999999998
 30
0.0
 11
-290.0
 21
-781.4999999999998
 31
0.0
  0
LINE
  5
267
  8
DATA
  6
CONTINUOUS
 62
     7
 10
-310.0
 20
-794.4999999999999
 30
0.0
 11
-310.0
 21
-605.4999999999999
 31
0.0
  0
LINE
  5
268
  8
DATA
  6
CONTINUOUS
 62
     7
 10
-309.9999999999999
 20
-791.0768055772436
 30
0.0
 11
-310.8
 21
-791.0768055772436
 31
0.0
  0
LINE
  5
269
  8
DATA
  6
CONTINUOUS
 62
     7
 10
-309.9999999999999
 20
-779.0830098334507
 30
0.0
 11
-310.8
 21
-779.0830098334507
 31
0.0
  0
LINE
  5
26A
  8
DATA
  6
CONTINUOUS
 62
     7
 10
-310.8
 20
-791.0768055772436
 30
0.0
 11
-310.8
 21
-779.0830098334507
 31
0.0
  0
LINE
  5
26B
  8
DATA
  6
CONTINUOUS
 62
     7
 10
-310.8000000000001
 20
-788.4999999999998
 30
0.0
 11
-313.8
 21
-788.4999999999998
 31
0.0
  0
LINE
  5
26C
  8
DATA
  6
CONTINUOUS
 62
     7
 10
-310.8
 20
-781.4999999999998
 30
0.0
 11
-313.8
 21
-781.4999999999998
 31
0.0
  0
LINE
  5
26D
  8
DATA
  6
CONTINUOUS
 62
     7
 10
-313.8
 20
-788.4999999999998
 30
0.0
 11
-313.8
 21
-781.4999999999998
 31
0.0
  0
LINE
  5
26E
  8
DATA
  6
CONTINUOUS
 62
     7
 10
-612.0
 20
-1270.899438230673
 30
0.0
 11
12.00000000000011
 21
-1270.899438230673
 31
0.0
  0
LINE
  5
26F
  8
DATA
  6
CONTINUOUS
 62
     7
 10
18.55
 20
-1341.039438230673
 30
0.0
 11
18.55
 21
-1376.189438230673
 31
0.0
  0
LINE
  5
270
  8
DATA
  6
CONTINUOUS
 62
     7
 10
24.65
 20
-1341.039438230673
 30
0.0
 11
24.65
 21
-1363.489337828662
 31
0.0
  0
LINE
  5
271
  8
DATA
  6
CONTINUOUS
 62
     7
 10
31.25
 20
-1366.489337828662
 30
0.0
 11
26.25
 21
-1366.489337828662
 31
0.0
  0
LINE
  5
272
  8
DATA
  6
CONTINUOUS
 62
     7
 10
26.25
 20
-1383.889438230673
 30
0.0
 11
26.25
 21
-1602.759438230672
 31
0.0
  0
LINE
  5
273
  8
DATA
  6
CONTINUOUS
 62
     7
 10
26.25
 20
-1610.759438230672
 30
0.0
 11
26.25
 21
-1640.759438230673
 31
0.0
  0
LINE
  5
274
  8
DATA
  6
CONTINUOUS
 62
     7
 10
26.25
 20
-1366.489337828662
 30
0.0
 11
24.65
 21
-1363.489337828662
 31
0.0
  0
LINE
  5
275
  8
DATA
  6
CONTINUOUS
 62
     7
 10
12.0
 20
-1373.240561769327
 30
0.0
 11
17.5
 21
-1373.240561769327
 31
0.0
  0
LINE
  5
276
  8
DATA
  6
CONTINUOUS
 62
     7
 10
21.25
 20
-1382.240561769327
 30
0.0
 11
17.5
 21
-1382.240561769327
 31
0.0
  0
LINE
  5
277
  8
DATA
  6
CONTINUOUS
 62
     7
 10
21.25
 20
-1382.240561769327
 30
0.0
 11
26.25
 21
-1387.240561769327
 31
0.0
  0
LINE
  5
278
  8
DATA
  6
CONTINUOUS
 62
     7
 10
17.5
 20
-1373.240561769327
 30
0.0
 11
17.5
 21
-1382.240561769327
 31
0.0
  0
ARC
  5
279
  8
DATA
  6
CONTINUOUS
 62
     7
 10
22.4
 20
-1376.189438230673
 30
0.0
 40
3.849999999999998
 50
180.0
 51
270.0
  0
ARC
  5
27A
  8
DATA
  6
CONTINUOUS
 62
     7
 10
22.4
 20
-1383.889438230673
 30
0.0
 40
3.849999999999998
 50
0.0
 51
90.0
  0
LINE
  5
27B
  8
DATA
  6
CONTINUOUS
 62
     7
 10
21.25
 20
-1604.759438230673
 30
0.0
 11
12.0
 21
-1604.759438230673
 31
0.0
  0
LINE
  5
27C
  8
DATA
  6
CONTINUOUS
 62
     7
 10
17.20000000000005
 20
-1640.759438230673
 30
0.0
 11
17.20000000000005
 21
-1610.759438230672
 31
0.0
  0
LINE
  5
27D
  8
DATA
  6
CONTINUOUS
 62
     7
 10
17.20000000000005
 20
-1610.759438230672
 30
0.0
 11
26.25
 21
-1610.759438230672
 31
0.0
  0
LINE
  5
27E
  8
DATA
  6
CONTINUOUS
 62
     7
 10
21.25
 20
-1604.759438230673
 30
0.0
 11
26.25
 21
-1599.759438230673
 31
0.0
  0
ARC
  5
27F
  8
DATA
  6
CONTINUOUS
 62
     7
 10
20.0
 20
-1613.759438230672
 30
0.0
 40
8.0
 50
90.0
 51
180.0
  0
LINE
  5
280
  8
DATA
  6
CONTINUOUS
 62
     7
 10
20.0
 20
-1605.759438230672
 30
0.0
 11
23.25
 21
-1605.759438230672
 31
0.0
  0
ARC
  5
281
  8
DATA
  6
CONTINUOUS
 62
     7
 10
23.25
 20
-1602.759438230672
 30
0.0
 40
3.0
 50
270.0
 51
0.0
  0
LINE
  5
282
  8
DATA
  6
CONTINUOUS
 62
     7
 10
36.25
 20
-1494.499438230673
 30
0.0
 11
33.65
 21
-1494.499438230673
 31
0.0
  0
LINE
  5
283
  8
DATA
  6
CONTINUOUS
 62
     7
 10
36.25
 20
-1487.299438230673
 30
0.0
 11
33.65
 21
-1487.299438230673
 31
0.0
  0
LINE
  5
284
  8
DATA
  6
CONTINUOUS
 62
     7
 10
36.25
 20
-1494.499438230673
 30
0.0
 11
36.25
 21
-1487.299438230673
 31
0.0
  0
LINE
  5
285
  8
DATA
  6
CONTINUOUS
 62
     7
 10
32.85
 20
-1495.899438230673
 30
0.0
 11
32.85
 21
-1477.899438230673
 31
0.0
  0
LINE
  5
286
  8
DATA
  6
CONTINUOUS
 62
     7
 10
31.25
 20
-1495.899438230673
 30
0.0
 11
32.85
 21
-1495.899438230673
 31
0.0
  0
LINE
  5
287
  8
DATA
  6
CONTINUOUS
 62
     7
 10
32.85
 20
-1477.899438230673
 30
0.0
 11
37.72261146496815
 21
-1461.332559249781
 31
0.0
  0
LINE
  5
288
  8
DATA
  6
CONTINUOUS
 62
     7
 10
31.25000000000001
 20
-1477.899438230673
 30
0.0
 11
36.25
 21
-1460.899438230673
 31
0.0
  0
LINE
  5
289
  8
DATA
  6
CONTINUOUS
 62
     7
 10
36.25
 20
-1460.899438230673
 30
0.0
 11
37.72261146496815
 21
-1461.332559249781
 31
0.0
  0
LINE
  5
28A
  8
DATA
  6
CONTINUOUS
 62
     7
 10
32.85
 20
-1495.699438230673
 30
0.0
 11
33.65
 21
-1495.699438230673
 31
0.0
  0
LINE
  5
28B
  8
DATA
  6
CONTINUOUS
 62
     7
 10
33.65
 20
-1495.699438230673
 30
0.0
 11
33.65
 21
-1486.099438230673
 31
0.0
  0
LINE
  5
28C
  8
DATA
  6
CONTINUOUS
 62
     7
 10
32.85
 20
-1486.099438230673
 30
0.0
 11
33.65
 21
-1486.099438230673
 31
0.0
  0
LINE
  5
28D
  8
DATA
  6
CONTINUOUS
 62
     7
 10
-626.25
 20
-1622.558314692017
 30
0.0
 11
-617.2
 21
-1622.558314692017
 31
0.0
  0
LINE
  5
28E
  8
DATA
  6
CONTINUOUS
 62
     7
 10
-612.0
 20
-1359.240561769327
 30
0.0
 11
-612.0
 21
-1640.759438230673
 31
0.0
  0
LINE
  5
28F
  8
DATA
  6
CONTINUOUS
 62
     7
 10
-624.6500000000001
 20
-1359.240561769327
 30
0.0
 11
-631.25
 21
-1359.240561769327
 31
0.0
  0
LINE
  5
290
  8
DATA
  6
CONTINUOUS
 62
     7
 10
-631.25
 20
-1640.759438230673
 30
0.0
 11
-626.25
 21
-1640.759438230673
 31
0.0
  0
LINE
  5
291
  8
DATA
  6
CONTINUOUS
 62
     7
 10
-617.2
 20
-1640.759438230673
 30
0.0
 11
-612.0
 21
-1640.759438230673
 31
0.0
  0
LINE
  5
292
  8
DATA
  6
CONTINUOUS
 62
     7
 10
-631.25
 20
-1359.240561769327
 30
0.0
 11
-631.25
 21
-1640.759438230673
 31
0.0
  0
LINE
  5
293
  8
DATA
  6
CONTINUOUS
 62
     7
 10
-618.5500000000001
 20
-1341.039438230673
 30
0.0
 11
-624.65
 21
-1341.039438230673
 31
0.0
  0
LINE
  5
294
  8
DATA
  6
CONTINUOUS
 62
     7
 10
-618.5500000000001
 20
-1341.039438230673
 30
0.0
 11
-618.5500000000001
 21
-1376.189438230673
 31
0.0
  0
LINE
  5
295
  8
DATA
  6
CONTINUOUS
 62
     7
 10
-624.65
 20
-1341.039438230673
 30
0.0
 11
-624.65
 21
-1363.489337828662
 31
0.0
  0
LINE
  5
296
  8
DATA
  6
CONTINUOUS
 62
     7
 10
-631.25
 20
-1366.489337828662
 30
0.0
 11
-626.25
 21
-1366.489337828662
 31
0.0
  0
LINE
  5
297
  8
DATA
  6
CONTINUOUS
 62
     7
 10
-626.25
 20
-1383.889438230673
 30
0.0
 11
-626.25
 21
-1602.759438230672
 31
0.0
  0
LINE
  5
298
  8
DATA
  6
CONTINUOUS
 62
     7
 10
-626.25
 20
-1610.759438230672
 30
0.0
 11
-626.25
 21
-1640.759438230673
 31
0.0
  0
LINE
  5
299
  8
DATA
  6
CONTINUOUS
 62
     7
 10
-626.25
 20
-1366.489337828662
 30
0.0
 11
-624.65
 21
-1363.489337828662
 31
0.0
  0
LINE
  5
29A
  8
DATA
  6
CONTINUOUS
 62
     7
 10
-612.0
 20
-1373.240561769327
 30
0.0
 11
-617.5
 21
-1373.240561769327
 31
0.0
  0
LINE
  5
29B
  8
DATA
  6
CONTINUOUS
 62
     7
 10
-621.25
 20
-1382.240561769327
 30
0.0
 11
-617.5
 21
-1382.240561769327
 31
0.0
  0
LINE
  5
29C
  8
DATA
  6
CONTINUOUS
 62
     7
 10
-621.25
 20
-1382.240561769327
 30
0.0
 11
-626.25
 21
-1387.240561769327
 31
0.0
  0
LINE
  5
29D
  8
DATA
  6
CONTINUOUS
 62
     7
 10
-617.5
 20
-1373.240561769327
 30
0.0
 11
-617.5
 21
-1382.240561769327
 31
0.0
  0
ARC
  5
29E
  8
DATA
  6
CONTINUOUS
 62
     7
 10
-622.4
 20
-1376.189438230673
 30
0.0
 40
3.849999999999909
 50
270.0
 51
0.0
  0
ARC
  5
29F
  8
DATA
  6
CONTINUOUS
 62
     7
 10
-622.4
 20
-1383.889438230673
 30
0.0
 40
3.850000000000136
 50
90.0
 51
180.0
  0
LINE
  5
2A0
  8
DATA
  6
CONTINUOUS
 62
     7
 10
-621.25
 20
-1604.759438230673
 30
0.0
 11
-612.0
 21
-1604.759438230673
 31
0.0
  0
LINE
  5
2A1
  8
DATA
  6
CONTINUOUS
 62
     7
 10
-617.2
 20
-1640.759438230673
 30
0.0
 11
-617.2
 21
-1610.759438230672
 31
0.0
  0
LINE
  5
2A2
  8
DATA
  6
CONTINUOUS
 62
     7
 10
-617.2
 20
-1610.759438230672
 30
0.0
 11
-626.25
 21
-1610.759438230672
 31
0.0
  0
LINE
  5
2A3
  8
DATA
  6
CONTINUOUS
 62
     7
 10
-621.25
 20
-1604.759438230673
 30
0.0
 11
-626.25
 21
-1599.759438230673
 31
0.0
  0
ARC
  5
2A4
  8
DATA
  6
CONTINUOUS
 62
     7
 10
-620.0
 20
-1613.759438230672
 30
0.0
 40
8.0
 50
0.0
 51
90.0
  0
LINE
  5
2A5
  8
DATA
  6
CONTINUOUS
 62
     7
 10
-620.0
 20
-1605.759438230672
 30
0.0
 11
-623.25
 21
-1605.759438230672
 31
0.0
  0
ARC
  5
2A6
  8
DATA
  6
CONTINUOUS
 62
     7
 10
-623.25
 20
-1602.759438230672
 30
0.0
 40
3.0
 50
180.0
 51
270.0
  0
LINE
  5
2A7
  8
DATA
  6
CONTINUOUS
 62
     7
 10
-636.25
 20
-1494.499438230673
 30
0.0
 11
-633.65
 21
-1494.499438230673
 31
0.0
  0
LINE
  5
2A8
  8
DATA
  6
CONTINUOUS
 62
     7
 10
-636.25
 20
-1487.299438230673
 30
0.0
 11
-633.65
 21
-1487.299438230673
 31
0.0
  0
LINE
  5
2A9
  8
DATA
  6
CONTINUOUS
 62
     7
 10
-636.25
 20
-1494.499438230673
 30
0.0
 11
-636.25
 21
-1487.299438230673
 31
0.0
  0
LINE
  5
2AA
  8
DATA
  6
CONTINUOUS
 62
     7
 10
-632.85
 20
-1495.899438230673
 30
0.0
 11
-632.85
 21
-1477.899438230673
 31
0.0
  0
LINE
  5
2AB
  8
DATA
  6
CONTINUOUS
 62
     7
 10
-631.25
 20
-1495.899438230673
 30
0.0
 11
-632.85
 21
-1495.899438230673
 31
0.0
  0
LINE
  5
2AC
  8
DATA
  6
CONTINUOUS
 62
     7
 10
-632.85
 20
-1477.899438230673
 30
0.0
 11
-637.7226114649682
 21
-1461.332559249781
 31
0.0
  0
LINE
  5
2AD
  8
DATA
  6
CONTINUOUS
 62
     7
 10
-631.25
 20
-1477.899438230673
 30
0.0
 11
-636.25
 21
-1460.899438230673
 31
0.0
  0
LINE
  5
2AE
  8
DATA
  6
CONTINUOUS
 62
     7
 10
-636.25
 20
-1460.899438230673
 30
0.0
 11
-637.7226114649682
 21
-1461.332559249781
 31
0.0
  0
LINE
  5
2AF
  8
DATA
  6
CONTINUOUS
 62
     7
 10
-632.85
 20
-1495.699438230673
 30
0.0
 11
-633.65
 21
-1495.699438230673
 31
0.0
  0
LINE
  5
2B0
  8
DATA
  6
CONTINUOUS
 62
     7
 10
-633.65
 20
-1495.699438230673
 30
0.0
 11
-633.65
 21
-1486.099438230673
 31
0.0
  0
LINE
  5
2B1
  8
DATA
  6
CONTINUOUS
 62
     7
 10
-632.85
 20
-1486.099438230673
 30
0.0
 11
-633.65
 21
-1486.099438230673
 31
0.0
  0
LINE
  5
2B2
  8
DATA
  6
CONTINUOUS
 62
     7
 10
18.55
 20
-1290.899438230672
 30
0.0
 11
18.55
 21
-1260.039438230673
 31
0.0
  0
LINE
  5
2B3
  8
DATA
  6
CONTINUOUS
 62
     7
 10
24.65
 20
-1290.899438230672
 30
0.0
 11
24.65
 21
-1260.039438230673
 31
0.0
  0
LINE
  5
2B4
  8
DATA
  6
CONTINUOUS
 62
     7
 10
31.25
 20
-1260.039438230673
 30
0.0
 11
12.0
 21
-1260.039438230673
 31
0.0
  0
LINE
  5
2B5
  8
DATA
  6
CONTINUOUS
 62
     7
 10
12.0
 20
-1277.899438230673
 30
0.0
 11
-7.0
 21
-1277.899438230673
 31
0.0
  0
LINE
  5
2B6
  8
DATA
  6
CONTINUOUS
 62
     7
 10
12.0
 20
-1279.899438230673
 30
0.0
 11
-6.0
 21
-1279.899438230673
 31
0.0
  0
LINE
  5
2B7
  8
DATA
  6
CONTINUOUS
 62
     7
 10
-7.0
 20
-1272.899438230673
 30
0.0
 11
-7.0
 21
-1278.899438230673
 31
0.0
  0
ARC
  5
2B8
  8
DATA
  6
CONTINUOUS
 62
     7
 10
-6.0
 20
-1278.899438230673
 30
0.0
 40
1.0
 50
180.0
 51
270.0
  0
ARC
  5
2B9
  8
DATA
  6
CONTINUOUS
 62
     7
 10
-9.0
 20
-1272.899438230673
 30
0.0
 40
2.0
 50
0.0
 51
90.0
  0
CIRCLE
  5
2BA
  8
DATA
  6
CONTINUOUS
 62
     7
 10
-210.0
 20
-1283.399438230673
 30
0.0
 40
2.75
  0
LINE
  5
2BB
  8
DATA
  6
CONTINUOUS
 62
     7
 10
-211.7320508075689
 20
-1283.399438230673
 30
0.0
 11
-210.8660254037844
 21
-1281.899438230673
 31
0.0
  0
LINE
  5
2BC
  8
DATA
  6
CONTINUOUS
 62
     7
 10
-210.8660254037844
 20
-1284.899438230673
 30
0.0
 11
-211.732050807569
 21
-1283.399438230673
 31
0.0
  0
LINE
  5
2BD
  8
DATA
  6
CONTINUOUS
 62
     7
 10
-209.1339745962156
 20
-1284.899438230673
 30
0.0
 11
-210.8660254037844
 21
-1284.899438230673
 31
0.0
  0
LINE
  5
2BE
  8
DATA
  6
CONTINUOUS
 62
     7
 10
-209.1339745962156
 20
-1281.899438230673
 30
0.0
 11
-210.8660254037844
 21
-1281.899438230673
 31
0.0
  0
LINE
  5
2BF
  8
DATA
  6
CONTINUOUS
 62
     7
 10
-208.2679491924311
 20
-1283.399438230673
 30
0.0
 11
-209.1339745962156
 21
-1281.899438230673
 31
0.0
  0
LINE
  5
2C0
  8
DATA
  6
CONTINUOUS
 62
     7
 10
-209.1339745962156
 20
-1284.899438230673
 30
0.0
 11
-208.267949192431
 21
-1283.399438230673
 31
0.0
  0
CIRCLE
  5
2C1
  8
DATA
  6
CONTINUOUS
 62
     7
 10
-390.0
 20
-1283.399438230673
 30
0.0
 40
2.75
  0
LINE
  5
2C2
  8
DATA
  6
CONTINUOUS
 62
     7
 10
-388.2679491924312
 20
-1283.399438230673
 30
0.0
 11
-389.1339745962156
 21
-1281.899438230673
 31
0.0
  0
LINE
  5
2C3
  8
DATA
  6
CONTINUOUS
 62
     7
 10
-389.1339745962156
 20
-1284.899438230673
 30
0.0
 11
-388.267949192431
 21
-1283.399438230673
 31
0.0
  0
LINE
  5
2C4
  8
DATA
  6
CONTINUOUS
 62
     7
 10
-390.8660254037844
 20
-1284.899438230673
 30
0.0
 11
-389.1339745962156
 21
-1284.899438230673
 31
0.0
  0
LINE
  5
2C5
  8
DATA
  6
CONTINUOUS
 62
     7
 10
-390.8660254037844
 20
-1281.899438230673
 30
0.0
 11
-389.1339745962156
 21
-1281.899438230673
 31
0.0
  0
LINE
  5
2C6
  8
DATA
  6
CONTINUOUS
 62
     7
 10
-391.7320508075688
 20
-1283.399438230673
 30
0.0
 11
-390.8660254037844
 21
-1281.899438230673
 31
0.0
  0
LINE
  5
2C7
  8
DATA
  6
CONTINUOUS
 62
     7
 10
-390.8660254037844
 20
-1284.899438230673
 30
0.0
 11
-391.732050807569
 21
-1283.399438230673
 31
0.0
  0
CIRCLE
  5
2C8
  8
DATA
  6
CONTINUOUS
 62
     7
 10
-560.0
 20
-1283.399438230673
 30
0.0
 40
2.75
  0
LINE
  5
2C9
  8
DATA
  6
CONTINUOUS
 62
     7
 10
-558.2679491924312
 20
-1283.399438230673
 30
0.0
 11
-559.1339745962156
 21
-1281.899438230673
 31
0.0
  0
LINE
  5
2CA
  8
DATA
  6
CONTINUOUS
 62
     7
 10
-559.1339745962156
 20
-1284.899438230673
 30
0.0
 11
-558.267949192431
 21
-1283.399438230673
 31
0.0
  0
LINE
  5
2CB
  8
DATA
  6
CONTINUOUS
 62
     7
 10
-560.8660254037844
 20
-1284.899438230673
 30
0.0
 11
-559.1339745962156
 21
-1284.899438230673
 31
0.0
  0
LINE
  5
2CC
  8
DATA
  6
CONTINUOUS
 62
     7
 10
-560.8660254037844
 20
-1281.899438230673
 30
0.0
 11
-559.1339745962156
 21
-1281.899438230673
 31
0.0
  0
LINE
  5
2CD
  8
DATA
  6
CONTINUOUS
 62
     7
 10
-561.7320508075688
 20
-1283.399438230673
 30
0.0
 11
-560.8660254037844
 21
-1281.899438230673
 31
0.0
  0
LINE
  5
2CE
  8
DATA
  6
CONTINUOUS
 62
     7
 10
-560.8660254037844
 20
-1284.899438230673
 30
0.0
 11
-561.732050807569
 21
-1283.399438230673
 31
0.0
  0
CIRCLE
  5
2CF
  8
DATA
  6
CONTINUOUS
 62
     7
 10
-40.0
 20
-1283.399438230673
 30
0.0
 40
2.75
  0
LINE
  5
2D0
  8
DATA
  6
CONTINUOUS
 62
     7
 10
-41.73205080756884
 20
-1283.399438230673
 30
0.0
 11
-40.86602540378442
 21
-1281.899438230673
 31
0.0
  0
LINE
  5
2D1
  8
DATA
  6
CONTINUOUS
 62
     7
 10
-40.86602540378442
 20
-1284.899438230673
 30
0.0
 11
-41.73205080756895
 21
-1283.399438230673
 31
0.0
  0
LINE
  5
2D2
  8
DATA
  6
CONTINUOUS
 62
     7
 10
-39.13397459621558
 20
-1284.899438230673
 30
0.0
 11
-40.86602540378442
 21
-1284.899438230673
 31
0.0
  0
LINE
  5
2D3
  8
DATA
  6
CONTINUOUS
 62
     7
 10
-39.13397459621558
 20
-1281.899438230673
 30
0.0
 11
-40.86602540378442
 21
-1281.899438230673
 31
0.0
  0
LINE
  5
2D4
  8
DATA
  6
CONTINUOUS
 62
     7
 10
-38.26794919243116
 20
-1283.399438230673
 30
0.0
 11
-39.13397459621558
 21
-1281.899438230673
 31
0.0
  0
LINE
  5
2D5
  8
DATA
  6
CONTINUOUS
 62
     7
 10
-39.13397459621558
 20
-1284.899438230673
 30
0.0
 11
-38.26794919243105
 21
-1283.399438230673
 31
0.0
  0
LINE
  5
2D6
  8
DATA
  6
CONTINUOUS
 62
     7
 10
-618.55
 20
-1290.899438230672
 30
0.0
 11
-618.55
 21
-1260.039438230673
 31
0.0
  0
LINE
  5
2D7
  8
DATA
  6
CONTINUOUS
 62
     7
 10
-624.65
 20
-1290.899438230672
 30
0.0
 11
-624.65
 21
-1260.039438230673
 31
0.0
  0
LINE
  5
2D8
  8
DATA
  6
CONTINUOUS
 62
     7
 10
-631.25
 20
-1260.039438230673
 30
0.0
 11
-612.0
 21
-1260.039438230673
 31
0.0
  0
LINE
  5
2D9
  8
DATA
  6
CONTINUOUS
 62
     7
 10
-612.0
 20
-1277.899438230673
 30
0.0
 11
-593.0
 21
-1277.899438230673
 31
0.0
  0
LINE
  5
2DA
  8
DATA
  6
CONTINUOUS
 62
     7
 10
-612.0
 20
-1279.899438230673
 30
0.0
 11
-594.0
 21
-1279.899438230673
 31
0.0
  0
LINE
  5
2DB
  8
DATA
  6
CONTINUOUS
 62
     7
 10
-593.0
 20
-1272.899438230673
 30
0.0
 11
-593.0
 21
-1278.899438230673
 31
0.0
  0
ARC
  5
2DC
  8
DATA
  6
CONTINUOUS
 62
     7
 10
-594.0
 20
-1278.899438230673
 30
0.0
 40
1.0
 50
270.0
 51
0.0
  0
ARC
  5
2DD
  8
DATA
  6
CONTINUOUS
 62
     7
 10
-591.0
 20
-1272.899438230673
 30
0.0
 40
2.0
 50
90.0
 51
180.0
  0
LINE
  5
2DE
  8
DATA
  6
CONTINUOUS
 62
     7
 10
7.0
 20
-945.8994382306727
 30
0.0
 11
6.25
 21
-902.8994382306727
 31
0.0
  0
LINE
  5
2DF
  8
DATA
  6
CONTINUOUS
 62
     7
 10
-19.25
 20
-902.8994382306727
 30
0.0
 11
-20.0
 21
-945.8994382306727
 31
0.0
  0
LINE
  5
2E0
  8
DATA
  6
CONTINUOUS
 62
     7
 10
3.0
 20
-902.8994382306727
 30
0.0
 11
3.0
 21
-930.8994382306727
 31
0.0
  0
LINE
  5
2E1
  8
DATA
  6
CONTINUOUS
 62
     7
 10
-16.0
 20
-902.8994382306727
 30
0.0
 11
-16.0
 21
-930.8994382306727
 31
0.0
  0
LINE
  5
2E2
  8
DATA
  6
CONTINUOUS
 62
     7
 10
-16.0
 20
-930.8994382306727
 30
0.0
 11
3.0
 21
-930.8994382306727
 31
0.0
  0
LINE
  5
2E3
  8
DATA
  6
CONTINUOUS
 62
     7
 10
6.60127906976744
 20
-923.0394382306725
 30
0.0
 11
3.0
 21
-923.0394382306725
 31
0.0
  0
LINE
  5
2E4
  8
DATA
  6
CONTINUOUS
 62
     7
 10
-16.0
 20
-923.0394382306725
 30
0.0
 11
-19.60127906976743
 21
-923.0394382306725
 31
0.0
  0
LINE
  5
2E5
  8
DATA
  6
CONTINUOUS
 62
     7
 10
-580.75
 20
-902.8994382306727
 30
0.0
 11
-606.25
 21
-902.8994382306727
 31
0.0
  0
LINE
  5
2E6
  8
DATA
  6
CONTINUOUS
 62
     7
 10
-607.0
 20
-945.8994382306727
 30
0.0
 11
-606.25
 21
-902.8994382306727
 31
0.0
  0
LINE
  5
2E7
  8
DATA
  6
CONTINUOUS
 62
     7
 10
-580.75
 20
-902.8994382306727
 30
0.0
 11
-580.0
 21
-945.8994382306727
 31
0.0
  0
LINE
  5
2E8
  8
DATA
  6
CONTINUOUS
 62
     7
 10
-603.0
 20
-902.8994382306727
 30
0.0
 11
-603.0
 21
-930.8994382306727
 31
0.0
  0
LINE
  5
2E9
  8
DATA
  6
CONTINUOUS
 62
     7
 10
-584.0
 20
-902.8994382306727
 30
0.0
 11
-584.0
 21
-930.8994382306727
 31
0.0
  0
LINE
  5
2EA
  8
DATA
  6
CONTINUOUS
 62
     7
 10
-584.0
 20
-930.8994382306727
 30
0.0
 11
-603.0
 21
-930.8994382306727
 31
0.0
  0
LINE
  5
2EB
  8
DATA
  6
CONTINUOUS
 62
     7
 10
-606.6012790697674
 20
-923.0394382306725
 30
0.0
 11
-603.0
 21
-923.0394382306725
 31
0.0
  0
LINE
  5
2EC
  8
DATA
  6
CONTINUOUS
 62
     7
 10
-584.0
 20
-923.0394382306725
 30
0.0
 11
-580.3987209302326
 21
-923.0394382306725
 31
0.0
  0
LINE
  5
2ED
  8
DATA
  6
CONTINUOUS
 62
     7
 10
-631.25
 20
-945.8994382306727
 30
0.0
 11
31.25
 21
-945.8994382306727
 31
0.0
  0
LINE
  5
2EE
  8
DATA
  6
CONTINUOUS
 62
     7
 10
-290.0
 20
-916.0394382306725
 30
0.0
 11
-295.5
 21
-916.0394382306725
 31
0.0
  0
LINE
  5
2EF
  8
DATA
  6
CONTINUOUS
 62
     7
 10
-304.5
 20
-916.0394382306725
 30
0.0
 11
-310.0
 21
-916.0394382306725
 31
0.0
  0
LINE
  5
2F0
  8
DATA
  6
CONTINUOUS
 62
     7
 10
-290.0
 20
-916.0394382306725
 30
0.0
 11
-290.0
 21
-945.8994382306727
 31
0.0
  0
LINE
  5
2F1
  8
DATA
  6
CONTINUOUS
 62
     7
 10
-295.5
 20
-916.0394382306725
 30
0.0
 11
-295.5
 21
-945.8994382306727
 31
0.0
  0
LINE
  5
2F2
  8
DATA
  6
CONTINUOUS
 62
     7
 10
-304.5
 20
-945.8994382306727
 30
0.0
 11
-304.5
 21
-916.0394382306725
 31
0.0
  0
LINE
  5
2F3
  8
DATA
  6
CONTINUOUS
 62
     7
 10
-303.1
 20
-944.7394382306726
 30
0.0
 11
-303.1
 21
-918.7394382306724
 31
0.0
  0
LINE
  5
2F4
  8
DATA
  6
CONTINUOUS
 62
     7
 10
-296.9
 20
-918.7394382306725
 30
0.0
 11
-296.9
 21
-944.7394382306726
 31
0.0
  0
LINE
  5
2F5
  8
DATA
  6
CONTINUOUS
 62
     7
 10
-310.0
 20
-945.8994382306727
 30
0.0
 11
-310.0
 21
-916.0394382306725
 31
0.0
  0
LINE
  5
2F6
  8
DATA
  6
CONTINUOUS
 62
     7
 10
-296.9
 20
-918.7394382306726
 30
0.0
 11
-303.1
 21
-918.7394382306726
 31
0.0
  0
LINE
  5
2F7
  8
DATA
  6
CONTINUOUS
 62
     7
 10
-296.9
 20
-944.7394382306726
 30
0.0
 11
-303.1
 21
-944.7394382306726
 31
0.0
  0
LINE
  5
2F8
  8
DATA
  6
CONTINUOUS
 62
     7
 10
-295.5
 20
-923.3465239646813
 30
0.0
 11
-296.9
 21
-923.3465239646813
 31
0.0
  0
LINE
  5
2F9
  8
DATA
  6
CONTINUOUS
 62
     7
 10
-303.1
 20
-923.3465239646813
 30
0.0
 11
-304.5
 21
-923.3465239646813
 31
0.0
  0
LINE
  5
2FA
  8
DATA
  6
CONTINUOUS
 62
     7
 10
-295.5
 20
-938.3465239646813
 30
0.0
 11
-296.9
 21
-938.3465239646813
 31
0.0
  0
LINE
  5
2FB
  8
DATA
  6
CONTINUOUS
 62
     7
 10
-303.1
 20
-938.3465239646813
 30
0.0
 11
-304.5
 21
-938.3465239646813
 31
0.0
  0
LINE
  5
2FC
  8
DATA
  6
CONTINUOUS
 62
     7
 10
-304.5
 20
-737.3770857340082
 30
0.0
 11
-303.1
 21
-737.3770857340082
 31
0.0
  0
LINE
  5
2FD
  8
DATA
  6
CONTINUOUS
 62
     7
 10
-296.9
 20
-737.3770857340082
 30
0.0
 11
-295.5
 21
-737.3770857340082
 31
0.0
  0
LINE
  5
2FE
  8
DATA
  6
CONTINUOUS
 62
     7
 10
-304.5
 20
-752.3770857340082
 30
0.0
 11
-303.1
 21
-752.3770857340082
 31
0.0
  0
LINE
  5
2FF
  8
DATA
  6
CONTINUOUS
 62
     7
 10
-296.9
 20
-752.3770857340082
 30
0.0
 11
-295.5
 21
-752.3770857340082
 31
0.0
  0
LINE
  5
300
  8
DATA
  6
CONTINUOUS
 62
     7
 10
-285.8
 20
-927.3465239645362
 30
0.0
 11
-285.8
 21
-934.3465239645362
 31
0.0
  0
LINE
  5
301
  8
DATA
  6
CONTINUOUS
 62
     7
 10
-285.8
 20
-934.3465239645362
 30
0.0
 11
-290.0
 21
-934.3465239645362
 31
0.0
  0
LINE
  5
302
  8
DATA
  6
CONTINUOUS
 62
     7
 10
-285.8
 20
-927.3465239645362
 30
0.0
 11
-290.0
 21
-927.3465239645362
 31
0.0
  0
LINE
  5
303
  8
DATA
  6
CONTINUOUS
 62
     7
 10
-309.9999999999999
 20
-936.92332954178
 30
0.0
 11
-310.8
 21
-936.92332954178
 31
0.0
  0
LINE
  5
304
  8
DATA
  6
CONTINUOUS
 62
     7
 10
-309.9999999999999
 20
-924.9295337979871
 30
0.0
 11
-310.8
 21
-924.9295337979871
 31
0.0
  0
LINE
  5
305
  8
DATA
  6
CONTINUOUS
 62
     7
 10
-310.8
 20
-936.92332954178
 30
0.0
 11
-310.8
 21
-924.9295337979871
 31
0.0
  0
LINE
  5
306
  8
DATA
  6
CONTINUOUS
 62
     7
 10
-310.8000000000001
 20
-934.3465239645362
 30
0.0
 11
-313.8
 21
-934.3465239645362
 31
0.0
  0
LINE
  5
307
  8
DATA
  6
CONTINUOUS
 62
     7
 10
-310.8
 20
-927.3465239645362
 30
0.0
 11
-313.8
 21
-927.3465239645362
 31
0.0
  0
LINE
  5
308
  8
DATA
  6
CONTINUOUS
 62
     7
 10
-313.8
 20
-934.3465239645362
 30
0.0
 11
-313.8
 21
-927.3465239645362
 31
0.0
  0
LINE
  5
309
  8
DATA
  6
CONTINUOUS
 62
     7
 10
-279.5999999999999
 20
-940.8994382306727
 30
0.0
 11
-279.5999999999999
 21
-943.4994382306727
 31
0.0
  0
LINE
  5
30A
  8
DATA
  6
CONTINUOUS
 62
     7
 10
-272.4000000000001
 20
-940.8994382306727
 30
0.0
 11
-272.4000000000001
 21
-943.4994382306727
 31
0.0
  0
LINE
  5
30B
  8
DATA
  6
CONTINUOUS
 62
     7
 10
-279.5999999999999
 20
-940.8994382306727
 30
0.0
 11
-272.4000000000001
 21
-940.8994382306727
 31
0.0
  0
LINE
  5
30C
  8
DATA
  6
CONTINUOUS
 62
     7
 10
-281.0
 20
-944.2994382306726
 30
0.0
 11
-263.0
 21
-944.2994382306726
 31
0.0
  0
LINE
  5
30D
  8
DATA
  6
CONTINUOUS
 62
     7
 10
-281.0
 20
-945.8994382306727
 30
0.0
 11
-281.0
 21
-944.2994382306726
 31
0.0
  0
LINE
  5
30E
  8
DATA
  6
CONTINUOUS
 62
     7
 10
-263.0
 20
-944.2994382306726
 30
0.0
 11
-246.4331210191083
 21
-939.4268267657045
 31
0.0
  0
LINE
  5
30F
  8
DATA
  6
CONTINUOUS
 62
     7
 10
-263.0
 20
-945.8994382306727
 30
0.0
 11
-246.0
 21
-940.8994382306727
 31
0.0
  0
LINE
  5
310
  8
DATA
  6
CONTINUOUS
 62
     7
 10
-246.0
 20
-940.8994382306727
 30
0.0
 11
-246.4331210191083
 21
-939.4268267657045
 31
0.0
  0
LINE
  5
311
  8
DATA
  6
CONTINUOUS
 62
     7
 10
-280.8
 20
-944.2994382306726
 30
0.0
 11
-280.8
 21
-943.4994382306727
 31
0.0
  0
LINE
  5
312
  8
DATA
  6
CONTINUOUS
 62
     7
 10
-280.8
 20
-943.4994382306727
 30
0.0
 11
-271.2
 21
-943.4994382306727
 31
0.0
  0
LINE
  5
313
  8
DATA
  6
CONTINUOUS
 62
     7
 10
-271.2
 20
-944.2994382306726
 30
0.0
 11
-271.2
 21
-943.4994382306727
 31
0.0
  0
LINE
  5
314
  8
DATA
  6
CONTINUOUS
 62
     7
 10
-636.25
 20
-696.3999999999999
 30
0.0
 11
-633.65
 21
-696.3999999999999
 31
0.0
  0
LINE
  5
315
  8
DATA
  6
CONTINUOUS
 62
     7
 10
-636.25
 20
-703.5999999999997
 30
0.0
 11
-633.65
 21
-703.5999999999997
 31
0.0
  0
LINE
  5
316
  8
DATA
  6
CONTINUOUS
 62
     7
 10
-636.25
 20
-696.3999999999999
 30
0.0
 11
-636.25
 21
-703.5999999999997
 31
0.0
  0
LINE
  5
317
  8
DATA
  6
CONTINUOUS
 62
     7
 10
-632.85
 20
-694.9999999999998
 30
0.0
 11
-632.85
 21
-712.9999999999998
 31
0.0
  0
LINE
  5
318
  8
DATA
  6
CONTINUOUS
 62
     7
 10
-631.25
 20
-694.9999999999998
 30
0.0
 11
-632.85
 21
-694.9999999999998
 31
0.0
  0
LINE
  5
319
  8
DATA
  6
CONTINUOUS
 62
     7
 10
-632.85
 20
-712.9999999999998
 30
0.0
 11
-637.7226114649682
 21
-729.5668789808915
 31
0.0
  0
LINE
  5
31A
  8
DATA
  6
CONTINUOUS
 62
     7
 10
-631.25
 20
-712.9999999999998
 30
0.0
 11
-636.25
 21
-729.9999999999998
 31
0.0
  0
LINE
  5
31B
  8
DATA
  6
CONTINUOUS
 62
     7
 10
-636.25
 20
-729.9999999999998
 30
0.0
 11
-637.7226114649682
 21
-729.5668789808915
 31
0.0
  0
LINE
  5
31C
  8
DATA
  6
CONTINUOUS
 62
     7
 10
-632.85
 20
-695.1999999999998
 30
0.0
 11
-633.65
 21
-695.1999999999998
 31
0.0
  0
LINE
  5
31D
  8
DATA
  6
CONTINUOUS
 62
     7
 10
-633.65
 20
-695.1999999999998
 30
0.0
 11
-633.65
 21
-704.7999999999997
 31
0.0
  0
LINE
  5
31E
  8
DATA
  6
CONTINUOUS
 62
     7
 10
-632.85
 20
-704.7999999999997
 30
0.0
 11
-633.65
 21
-704.7999999999997
 31
0.0
  0
ARC
  5
31F
  8
DATA
  6
CONTINUOUS
 62
     7
 10
-593.5
 20
-771.4999999999998
 30
0.0
 40
6.499999999999996
 50
134.5116171189995
 51
45.48838288100056
  0
CIRCLE
  5
320
  8
DATA
  6
CONTINUOUS
 62
     7
 10
-593.5
 20
-771.4999999999998
 30
0.0
 40
3.5
  0
LINE
  5
321
  8
DATA
  6
CONTINUOUS
 62
     7
 10
-594.6547005383793
 20
-769.4999999999998
 30
0.0
 11
-592.3452994616208
 21
-769.4999999999998
 31
0.0
  0
LINE
  5
322
  8
DATA
  6
CONTINUOUS
 62
     7
 10
-595.8094010767585
 20
-771.4999999999998
 30
0.0
 11
-594.6547005383793
 21
-769.4999999999998
 31
0.0
  0
LINE
  5
323
  8
DATA
  6
CONTINUOUS
 62
     7
 10
-591.1905989232415
 20
-771.4999999999998
 30
0.0
 11
-592.3452994616208
 21
-769.4999999999998
 31
0.0
  0
LINE
  5
324
  8
DATA
  6
CONTINUOUS
 62
     7
 10
-594.6547005383793
 20
-773.4999999999998
 30
0.0
 11
-592.3452994616208
 21
-773.4999999999998
 31
0.0
  0
LINE
  5
325
  8
DATA
  6
CONTINUOUS
 62
     7
 10
-595.8094010767585
 20
-771.4999999999998
 30
0.0
 11
-594.6547005383793
 21
-773.4999999999998
 31
0.0
  0
LINE
  5
326
  8
DATA
  6
CONTINUOUS
 62
     7
 10
-591.1905989232415
 20
-771.4999999999998
 30
0.0
 11
-592.3452994616207
 21
-773.4999999999998
 31
0.0
  0
ARC
  5
327
  8
DATA
  6
CONTINUOUS
 62
     7
 10
-593.5
 20
-628.4999999999993
 30
0.0
 40
6.499999999999996
 50
314.5116171189995
 51
225.4883828810005
  0
CIRCLE
  5
328
  8
DATA
  6
CONTINUOUS
 62
     7
 10
-593.5
 20
-628.4999999999993
 30
0.0
 40
3.5
  0
LINE
  5
329
  8
DATA
  6
CONTINUOUS
 62
     7
 10
-594.6547005383793
 20
-630.4999999999993
 30
0.0
 11
-592.3452994616208
 21
-630.4999999999993
 31
0.0
  0
LINE
  5
32A
  8
DATA
  6
CONTINUOUS
 62
     7
 10
-595.8094010767585
 20
-628.4999999999993
 30
0.0
 11
-594.6547005383793
 21
-630.4999999999993
 31
0.0
  0
LINE
  5
32B
  8
DATA
  6
CONTINUOUS
 62
     7
 10
-591.1905989232415
 20
-628.4999999999993
 30
0.0
 11
-592.3452994616208
 21
-630.4999999999993
 31
0.0
  0
LINE
  5
32C
  8
DATA
  6
CONTINUOUS
 62
     7
 10
-594.6547005383793
 20
-626.4999999999993
 30
0.0
 11
-592.3452994616208
 21
-626.4999999999993
 31
0.0
  0
LINE
  5
32D
  8
DATA
  6
CONTINUOUS
 62
     7
 10
-595.8094010767585
 20
-628.4999999999993
 30
0.0
 11
-594.6547005383793
 21
-626.4999999999993
 31
0.0
  0
LINE
  5
32E
  8
DATA
  6
CONTINUOUS
 62
     7
 10
-591.1905989232415
 20
-628.4999999999993
 30
0.0
 11
-592.3452994616207
 21
-626.4999999999993
 31
0.0
  0
LINE
  5
32F
  8
DATA
  6
CONTINUOUS
 62
     7
 10
37.72261146496814
 20
-1268.899438230674
 30
0.0
 11
31.25
 21
-1268.899438230674
 31
0.0
  0
LINE
  5
330
  8
DATA
  6
CONTINUOUS
 62
     7
 10
37.72261146496814
 20
-1281.899438230674
 30
0.0
 11
31.25
 21
-1281.899438230674
 31
0.0
  0
LINE
  5
331
  8
DATA
  6
CONTINUOUS
 62
     7
 10
37.72261146496815
 20
-1281.899438230674
 30
0.0
 11
37.72261146496815
 21
-1268.899438230674
 31
0.0
  0
LINE
  5
332
  8
DATA
  6
CONTINUOUS
 62
     7
 10
36.25
 20
-1281.899438230674
 30
0.0
 11
36.25
 21
-1268.899438230674
 31
0.0
  0
LINE
  5
333
  8
DATA
  6
CONTINUOUS
 62
     7
 10
-637.7226114649682
 20
-1268.899438230674
 30
0.0
 11
-631.25
 21
-1268.899438230674
 31
0.0
  0
LINE
  5
334
  8
DATA
  6
CONTINUOUS
 62
     7
 10
-637.7226114649682
 20
-1281.899438230674
 30
0.0
 11
-631.25
 21
-1281.899438230674
 31
0.0
  0
LINE
  5
335
  8
DATA
  6
CONTINUOUS
 62
     7
 10
-637.7226114649682
 20
-1281.899438230674
 30
0.0
 11
-637.7226114649682
 21
-1268.899438230674
 31
0.0
  0
LINE
  5
336
  8
DATA
  6
CONTINUOUS
 62
     7
 10
-636.25
 20
-1281.899438230674
 30
0.0
 11
-636.25
 21
-1268.899438230674
 31
0.0
  0
TEXT
  5
337
  8
DATA
 62
     7
 10
1085.244886386528
 20
-783.9442502827856
 30
0.0
 40
54.29470486111111
  1
端子拡大図
 41
0.7
 72
     1
 11
1192.929384361065
 21
-756.79689785223
 31
0.0
 73
     2
  0
LINE
  5
338
  8
DATA
  6
CONTINUOUS
 62
     7
 10
785.0
 20
-650.0
 30
0.0
 11
785.0
 21
326.9120968345011
 31
0.0
  0
ARC
  5
339
  8
DATA
  6
CONTINUOUS
 62
     7
 10
835.0000000000011
 20
-649.9999999999989
 30
0.0
 40
50.00000000000114
 50
180.0000000000013
 51
269.9999999999987
  0
LINE
  5
33A
  8
DATA
  6
CONTINUOUS
 62
     7
 10
1565.0
 20
-700.0
 30
0.0
 11
835.0
 21
-700.0
 31
0.0
  0
ARC
  5
33B
  8
DATA
  6
CONTINUOUS
 62
     7
 10
1564.999999999999
 20
-649.9999999999994
 30
0.0
 40
50.00000000000057
 50
270.0000000000013
 51
359.9999999999993
  0
LINE
  5
33C
  8
DATA
  6
CONTINUOUS
 62
     7
 10
1615.0
 20
269.4941074610391
 30
0.0
 11
1615.0
 21
-650.0
 31
0.0
  0
TEXT
  5
33D
  8
DATA
 62
     7
 10
1127.788042534722
 20
-314.7096492865277
 30
0.0
 40
32.57682291666667
  1
IN/THRU
 41
0.7
 72
     1
 11
1200.0
 21
-298.4212378281944
 31
0.0
 73
     2
  0
CIRCLE
  5
33E
  8
DATA
  6
CONTINUOUS
 62
     7
 10
1395.0
 20
-324.9999999999989
 30
0.0
 40
117.5
  0
CIRCLE
  5
33F
  8
DATA
  6
CONTINUOUS
 62
     7
 10
1300.0
 20
-204.9999999999989
 30
0.0
 40
20.0
  0
CIRCLE
  5
340
  8
DATA
  6
CONTINUOUS
 62
     7
 10
1490.0
 20
-444.9999999999989
 30
0.0
 40
20.0
  0
LINE
  5
341
  8
DATA
  6
CONTINUOUS
 62
     7
 10
1425.0
 20
-424.9999999999989
 30
0.0
 11
1365.0
 21
-424.9999999999989
 31
0.0
  0
LINE
  5
342
  8
DATA
  6
CONTINUOUS
 62
     7
 10
1415.0
 20
-224.9999999999989
 30
0.0
 11
1375.0
 21
-224.9999999999989
 31
0.0
  0
LINE
  5
343
  8
DATA
  6
CONTINUOUS
 62
     7
 10
1415.0
 20
-224.9999999999989
 30
0.0
 11
1415.0
 21
-236.999999999997
 31
0.0
  0
LINE
  5
344
  8
DATA
  6
CONTINUOUS
 62
     7
 10
1375.0
 20
-224.9999999999989
 30
0.0
 11
1375.0
 21
-236.999999999997
 31
0.0
  0
LINE
  5
345
  8
DATA
  6
CONTINUOUS
 62
     7
 10
1425.0
 20
-424.9999999999989
 30
0.0
 11
1425.0
 21
-407.7285000000018
 31
0.0
  0
LINE
  5
346
  8
DATA
  6
CONTINUOUS
 62
     7
 10
1365.0
 20
-424.9999999999989
 30
0.0
 11
1365.0
 21
-407.7285000000018
 31
0.0
  0
ARC
  5
347
  8
DATA
  6
CONTINUOUS
 62
     7
 10
1395.0
 20
-324.9999999999989
 30
0.0
 40
88.00002677414638
 50
289.9322641506783
 51
77.19616681970194
  0
ARC
  5
348
  8
DATA
  6
CONTINUOUS
 62
     7
 10
1395.0
 20
-324.9999999999989
 30
0.0
 40
88.0000350434581
 50
102.9999995554244
 51
249.9999942379616
  0
ARC
  5
349
  8
DATA
  6
CONTINUOUS
 62
     7
 10
1395.0
 20
-324.9999999999989
 30
0.0
 40
62.00002162064051
 50
240.0000115355565
 51
330.0000115355565
  0
LINE
  5
34A
  8
DATA
  6
CONTINUOUS
 62
     7
 10
1448.693400000002
 20
-356.0002999999949
 30
0.0
 11
1443.713799999996
 21
-353.1253000000004
 31
0.0
  0
LINE
  5
34B
  8
DATA
  6
CONTINUOUS
 62
     7
 10
1364.000299999998
 20
-378.6937999999998
 30
0.0
 11
1366.875300000002
 21
-373.7140999999963
 31
0.0
  0
ARC
  5
34C
  8
DATA
  6
CONTINUOUS
 62
     7
 10
1395.0
 20
-324.9999999999989
 30
0.0
 40
62.00002162064051
 50
60.00001153555644
 51
150.0000115355565
  0
LINE
  5
34D
  8
DATA
  6
CONTINUOUS
 62
     7
 10
1426.000000000004
 20
-271.306400000002
 30
0.0
 11
1423.125
 21
-276.2860999999964
 31
0.0
  0
LINE
  5
34E
  8
DATA
  6
CONTINUOUS
 62
     7
 10
1341.306299999997
 20
-294.0001999999993
 30
0.0
 11
1346.286
 21
-296.8752000000029
 31
0.0
  0
ARC
  5
34F
  8
DATA
  6
CONTINUOUS
 62
     7
 10
1395.0
 20
-324.9999999999989
 30
0.0
 40
56.25003831580638
 50
329.999669682099
 51
60.00021260429873
  0
ARC
  5
350
  8
DATA
  6
CONTINUOUS
 62
     7
 10
1395.0
 20
-324.9999999999989
 30
0.0
 40
56.24996152034032
 50
150.0002126043064
 51
240.0007182431255
  0
ARC
  5
351
  8
DATA
  6
CONTINUOUS
 62
     7
 10
1395.0
 20
-324.9999999999989
 30
0.0
 40
35.99990080875567
 50
239.999908854705
 51
329.999908854705
  0
ARC
  5
352
  8
DATA
  6
CONTINUOUS
 62
     7
 10
1395.0
 20
-324.9999999999989
 30
0.0
 40
35.99990080875567
 50
59.99990885470505
 51
149.999908854705
  0
LINE
  5
353
  8
DATA
  6
CONTINUOUS
 62
     7
 10
1377.000200000002
 20
-356.1768999999993
 30
0.0
 11
1380.500099999999
 21
-350.1148000000001
 31
0.0
  0
LINE
  5
354
  8
DATA
  6
CONTINUOUS
 62
     7
 10
1426.176699999996
 20
-343.0000999999982
 30
0.0
 11
1420.114700000004
 21
-339.5001000000036
 31
0.0
  0
LINE
  5
355
  8
DATA
  6
CONTINUOUS
 62
     7
 10
1413.000000000002
 20
-293.8231999999959
 30
0.0
 11
1409.499999999998
 21
-299.8852999999951
 31
0.0
  0
LINE
  5
356
  8
DATA
  6
CONTINUOUS
 62
     7
 10
1363.8231
 20
-307.0002000000011
 30
0.0
 11
1369.885199999999
 21
-310.5000999999982
 31
0.0
  0
ARC
  5
357
  8
DATA
  6
CONTINUOUS
 62
     7
 10
1395.0
 20
-324.9999999999989
 30
0.0
 40
29.00001820861602
 50
329.9997926340416
 51
60.00023362383273
  0
ARC
  5
358
  8
DATA
  6
CONTINUOUS
 62
     7
 10
1395.0
 20
-324.9999999999989
 30
0.0
 40
29.00000481120789
 50
150.0002336238302
 51
239.9997926340205
  0
LINE
  5
359
  8
DATA
  6
CONTINUOUS
 62
     7
 10
1300.0
 20
-214.9999999999989
 30
0.0
 11
1300.0
 21
-194.9999999999989
 31
0.0
  0
LINE
  5
35A
  8
DATA
  6
CONTINUOUS
 62
     7
 10
1310.0
 20
-204.9999999999989
 30
0.0
 11
1290.0
 21
-204.9999999999989
 31
0.0
  0
LINE
  5
35B
  8
DATA
  6
CONTINUOUS
 62
     7
 10
1490.0
 20
-454.9999999999989
 30
0.0
 11
1490.0
 21
-434.9999999999989
 31
0.0
  0
LINE
  5
35C
  8
DATA
  6
CONTINUOUS
 62
     7
 10
1500.0
 20
-444.9999999999989
 30
0.0
 11
1480.0
 21
-444.9999999999989
 31
0.0
  0
CIRCLE
  5
35D
  8
DATA
  6
CONTINUOUS
 62
     7
 10
1005.0
 20
-324.9999999999989
 30
0.0
 40
117.5
  0
CIRCLE
  5
35E
  8
DATA
  6
CONTINUOUS
 62
     7
 10
910.0
 20
-204.9999999999989
 30
0.0
 40
20.0
  0
CIRCLE
  5
35F
  8
DATA
  6
CONTINUOUS
 62
     7
 10
1100.0
 20
-444.9999999999989
 30
0.0
 40
20.0
  0
LINE
  5
360
  8
DATA
  6
CONTINUOUS
 62
     7
 10
1035.0
 20
-424.9999999999989
 30
0.0
 11
975.0
 21
-424.9999999999989
 31
0.0
  0
LINE
  5
361
  8
DATA
  6
CONTINUOUS
 62
     7
 10
1025.0
 20
-224.9999999999989
 30
0.0
 11
985.0
 21
-224.9999999999989
 31
0.0
  0
LINE
  5
362
  8
DATA
  6
CONTINUOUS
 62
     7
 10
1025.0
 20
-224.9999999999989
 30
0.0
 11
1025.0
 21
-236.999999999997
 31
0.0
  0
LINE
  5
363
  8
DATA
  6
CONTINUOUS
 62
     7
 10
985.0
 20
-224.9999999999989
 30
0.0
 11
985.0
 21
-236.999999999997
 31
0.0
  0
LINE
  5
364
  8
DATA
  6
CONTINUOUS
 62
     7
 10
1035.0
 20
-424.9999999999989
 30
0.0
 11
1035.0
 21
-407.7285000000018
 31
0.0
  0
LINE
  5
365
  8
DATA
  6
CONTINUOUS
 62
     7
 10
975.0
 20
-424.9999999999989
 30
0.0
 11
975.0
 21
-407.7285000000018
 31
0.0
  0
ARC
  5
366
  8
DATA
  6
CONTINUOUS
 62
     7
 10
1005.0
 20
-324.9999999999989
 30
0.0
 40
88.00002677414638
 50
289.9322641506783
 51
77.19616681970183
  0
ARC
  5
367
  8
DATA
  6
CONTINUOUS
 62
     7
 10
1005.0
 20
-324.9999999999989
 30
0.0
 40
88.0000350434581
 50
102.9999995554244
 51
249.9999942379616
  0
ARC
  5
368
  8
DATA
  6
CONTINUOUS
 62
     7
 10
1005.0
 20
-324.9999999999989
 30
0.0
 40
62.00002162064051
 50
240.0000115355565
 51
330.0000115355565
  0
LINE
  5
369
  8
DATA
  6
CONTINUOUS
 62
     7
 10
1058.693400000002
 20
-356.0002999999949
 30
0.0
 11
1053.713799999996
 21
-353.1253000000004
 31
0.0
  0
LINE
  5
36A
  8
DATA
  6
CONTINUOUS
 62
     7
 10
974.0002999999979
 20
-378.6937999999998
 30
0.0
 11
976.8753000000015
 21
-373.7140999999963
 31
0.0
  0
ARC
  5
36B
  8
DATA
  6
CONTINUOUS
 62
     7
 10
1005.0
 20
-324.9999999999989
 30
0.0
 40
62.00002162064051
 50
60.00001153555644
 51
150.0000115355565
  0
LINE
  5
36C
  8
DATA
  6
CONTINUOUS
 62
     7
 10
1036.000000000004
 20
-271.306400000002
 30
0.0
 11
1033.125
 21
-276.2860999999964
 31
0.0
  0
LINE
  5
36D
  8
DATA
  6
CONTINUOUS
 62
     7
 10
951.3062999999966
 20
-294.0001999999993
 30
0.0
 11
956.2860000000001
 21
-296.8752000000029
 31
0.0
  0
ARC
  5
36E
  8
DATA
  6
CONTINUOUS
 62
     7
 10
1005.0
 20
-324.9999999999989
 30
0.0
 40
56.25003831580638
 50
329.999669682099
 51
60.00021260429873
  0
ARC
  5
36F
  8
DATA
  6
CONTINUOUS
 62
     7
 10
1005.0
 20
-324.9999999999989
 30
0.0
 40
56.24996152034032
 50
150.0002126043064
 51
240.0007182431256
  0
ARC
  5
370
  8
DATA
  6
CONTINUOUS
 62
     7
 10
1005.0
 20
-324.9999999999989
 30
0.0
 40
35.99990080875567
 50
239.999908854705
 51
329.999908854705
  0
ARC
  5
371
  8
DATA
  6
CONTINUOUS
 62
     7
 10
1005.0
 20
-324.9999999999989
 30
0.0
 40
35.99990080875567
 50
59.99990885470505
 51
149.999908854705
  0
LINE
  5
372
  8
DATA
  6
CONTINUOUS
 62
     7
 10
987.0002000000022
 20
-356.1768999999993
 30
0.0
 11
990.5000999999993
 21
-350.1148000000001
 31
0.0
  0
LINE
  5
373
  8
DATA
  6
CONTINUOUS
 62
     7
 10
1036.176699999996
 20
-343.0000999999982
 30
0.0
 11
1030.114700000004
 21
-339.5001000000036
 31
0.0
  0
LINE
  5
374
  8
DATA
  6
CONTINUOUS
 62
     7
 10
1023.000000000002
 20
-293.8231999999959
 30
0.0
 11
1019.499999999998
 21
-299.8852999999951
 31
0.0
  0
LINE
  5
375
  8
DATA
  6
CONTINUOUS
 62
     7
 10
973.8230999999996
 20
-307.0002000000011
 30
0.0
 11
979.8851999999988
 21
-310.5000999999982
 31
0.0
  0
ARC
  5
376
  8
DATA
  6
CONTINUOUS
 62
     7
 10
1005.0
 20
-324.9999999999989
 30
0.0
 40
29.00001820861602
 50
329.9997926340416
 51
60.00023362383251
  0
ARC
  5
377
  8
DATA
  6
CONTINUOUS
 62
     7
 10
1005.0
 20
-324.9999999999989
 30
0.0
 40
29.00000481120789
 50
150.0002336238302
 51
239.9997926340205
  0
LINE
  5
378
  8
DATA
  6
CONTINUOUS
 62
     7
 10
910.0
 20
-214.9999999999989
 30
0.0
 11
910.0
 21
-194.9999999999989
 31
0.0
  0
LINE
  5
379
  8
DATA
  6
CONTINUOUS
 62
     7
 10
920.0
 20
-204.9999999999989
 30
0.0
 11
900.0
 21
-204.9999999999989
 31
0.0
  0
LINE
  5
37A
  8
DATA
  6
CONTINUOUS
 62
     7
 10
1100.0
 20
-454.9999999999989
 30
0.0
 11
1100.0
 21
-434.9999999999989
 31
0.0
  0
LINE
  5
37B
  8
DATA
  6
CONTINUOUS
 62
     7
 10
1110.0
 20
-444.9999999999989
 30
0.0
 11
1090.0
 21
-444.9999999999989
 31
0.0
  0
LINE
  5
37C
  8
DATA
  6
CONTINUOUS
 62
     7
 10
1122.5
 20
-324.9999999999989
 30
0.0
 11
1277.5
 21
-324.9999999999989
 31
0.0
  0
TEXT
  5
37D
  8
DATA
 62
     7
 10
1155.152573784722
 20
-162.6398159822957
 30
0.0
 40
32.57682291666667
  1
±1 LF
 41
0.7
 72
     1
 11
1200.0
 21
-146.3514045239623
 31
0.0
 73
     2
  0
TEXT
  5
37E
  8
DATA
 62
     7
 10
1151.351944444444
 20
-204.973149315629
 30
0.0
 40
32.57682291666667
  1
±2 HF
 41
0.7
 72
     1
 11
1200.0
 21
-188.6847378572956
 31
0.0
 73
     2
  0
POLYLINE
  5
37F
  8
DATA
  6
CONTINUOUS
 62
     7
 66
     1
 10
0.0
 20
0.0
 30
0.0
 70
     1
  0
VERTEX
  5
4AE
  8
DATA
  6
CONTINUOUS
 62
     7
 10
910.0
 20
225.000000000001
 30
0.0
  0
VERTEX
  5
4AF
  8
DATA
  6
CONTINUOUS
 62
     7
 10
1490.0
 20
225.000000000001
 30
0.0
  0
VERTEX
  5
4B0
  8
DATA
  6
CONTINUOUS
 62
     7
 10
1490.0
 20
95.00000000000102
 30
0.0
  0
VERTEX
  5
4B1
  8
DATA
  6
CONTINUOUS
 62
     7
 10
910.0
 20
95.00000000000102
 30
0.0
  0
SEQEND
  5
4C2
  8
DATA
  6
CONTINUOUS
 62
     7
  0
TEXT
  5
386
  8
DATA
 62
     7
 10
930.0
 20
172.783691406251
 30
0.0
 40
24.4326171875
  1
Model
 41
0.7
 11
930.0
 21
185.000000000001
 31
0.0
 73
     2
  0
TEXT
  5
387
  8
DATA
 62
     7
 10
1160.3125
 20
172.783691406251
 30
0.0
 40
24.4326171875
  1
:BRX308-LA
 41
0.7
 11
1160.3125
 21
185.000000000001
 31
0.0
 73
     2
  0
TEXT
  5
388
  8
DATA
 62
     7
 10
1160.3125
 20
134.1523316014598
 30
0.0
 40
20.36051432291666
  1
HF-8 OHM/50W
 41
0.7
 11
1160.3125
 21
154.5128459243765
 31
0.0
 73
     3
  0
TEXT
  5
389
  8
DATA
 62
     7
 10
1160.3125
 20
107.6939982681265
 30
0.0
 40
20.36051432291666
  1
LF-8 OHM/300W
 41
0.7
 11
1160.3125
 21
128.0545125910432
 31
0.0
 73
     3
  0
ARC
  5
38A
  8
DATA
  6
CONTINUOUS
 62
     7
 10
950.0
 20
-301.79689785223
 30
0.0
 40
650.0
 50
67.38013505195957
 51
112.6198649480404
  0
ARC
  5
38B
  8
DATA
  6
CONTINUOUS
 62
     7
 10
1450.0
 20
898.20310214777
 30
0.0
 40
650.0
 50
247.3801350519595
 51
292.6198649480405
  0
LINE
  5
38C
  8
DATA
  6
CONTINUOUS
 62
     7
 10
31.25
 20
-988.6792849743341
 30
0.0
 11
18.25
 21
-988.6792849743341
 31
0.0
  0
LINE
  5
38D
  8
DATA
  6
CONTINUOUS
 62
     7
 10
31.25
 20
-1235.320715025666
 30
0.0
 11
18.25
 21
-1235.320715025666
 31
0.0
  0
LINE
  5
38E
  8
DATA
  6
CONTINUOUS
 62
     7
 10
18.25
 20
-988.6792849743341
 30
0.0
 11
18.25
 21
-1235.320715025666
 31
0.0
  0
LINE
  5
38F
  8
DATA
  6
CONTINUOUS
 62
     7
 10
31.25
 20
-1205.78921403121
 30
0.0
 11
18.25
 21
-1205.78921403121
 31
0.0
  0
LINE
  5
390
  8
DATA
  6
CONTINUOUS
 62
     7
 10
31.24999999999997
 20
-1023.058555030672
 30
0.0
 11
18.25
 21
-1023.058555030672
 31
0.0
  0
LINE
  5
391
  8
DATA
  6
CONTINUOUS
 62
     7
 10
-631.25
 20
-988.6792849743341
 30
0.0
 11
-618.25
 21
-988.6792849743341
 31
0.0
  0
LINE
  5
392
  8
DATA
  6
CONTINUOUS
 62
     7
 10
-631.25
 20
-1235.320715025666
 30
0.0
 11
-618.25
 21
-1235.320715025666
 31
0.0
  0
LINE
  5
393
  8
DATA
  6
CONTINUOUS
 62
     7
 10
-618.25
 20
-988.6792849743341
 30
0.0
 11
-618.25
 21
-1235.320715025666
 31
0.0
  0
LINE
  5
394
  8
DATA
  6
CONTINUOUS
 62
     7
 10
-631.25
 20
-1205.78921403121
 30
0.0
 11
-618.25
 21
-1205.78921403121
 31
0.0
  0
LINE
  5
395
  8
DATA
  6
CONTINUOUS
 62
     7
 10
-631.25
 20
-1023.058555030672
 30
0.0
 11
-618.25
 21
-1023.058555030672
 31
0.0
  0
LINE
  5
396
  8
DATA
  6
CONTINUOUS
 62
     7
 10
-618.25
 20
-598.9601645084775
 30
0.0
 11
-631.25
 21
-598.9601645084775
 31
0.0
  0
LINE
  5
397
  8
DATA
  6
CONTINUOUS
 62
     7
 10
-631.25
 20
-573.0371056180999
 30
0.0
 11
-618.25
 21
-573.0371056180999
 31
0.0
  0
LINE
  5
398
  8
DATA
  6
CONTINUOUS
 62
     7
 10
-618.25
 20
-598.9601645084775
 30
0.0
 11
-618.25
 21
-573.0371056180999
 31
0.0
  0
LINE
  5
399
  8
DATA
  6
CONTINUOUS
 62
     7
 10
-612.0
 20
-568.25
 30
0.0
 11
-612.0
 21
-550.1399999999999
 31
0.0
  0
LINE
  5
39A
  8
DATA
  6
CONTINUOUS
 62
     7
 10
-618.55
 20
-568.2499999999998
 30
0.0
 11
-618.55
 21
-550.1399999999999
 31
0.0
  0
LINE
  5
39B
  8
DATA
  6
CONTINUOUS
 62
     7
 10
-624.65
 20
-568.2499999999998
 30
0.0
 11
-624.65
 21
-550.1399999999999
 31
0.0
  0
LINE
  5
39C
  8
DATA
  6
CONTINUOUS
 62
     7
 10
-618.5500000000001
 20
-831.75
 30
0.0
 11
-618.5500000000001
 21
-849.8599999999999
 31
0.0
  0
LINE
  5
39D
  8
DATA
  6
CONTINUOUS
 62
     7
 10
-624.65
 20
-831.75
 30
0.0
 11
-624.65
 21
-849.8599999999999
 31
0.0
  0
LINE
  5
39E
  8
DATA
  6
CONTINUOUS
 62
     7
 10
31.25
 20
-831.75
 30
0.0
 11
31.25
 21
-550.1399999999999
 31
0.0
  0
LINE
  5
39F
  8
DATA
  6
CONTINUOUS
 62
     7
 10
18.54999999999995
 20
-550.1399999999999
 30
0.0
 11
12.0
 21
-550.1399999999999
 31
0.0
  0
LINE
  5
3A0
  8
DATA
  6
CONTINUOUS
 62
     7
 10
31.25
 20
-550.1399999999999
 30
0.0
 11
24.64999999999998
 21
-550.1399999999999
 31
0.0
  0
LINE
  5
3A1
  8
DATA
  6
CONTINUOUS
 62
     7
 10
7.0
 20
-616.4999999999998
 30
0.0
 11
7.0
 21
-783.4999999999998
 31
0.0
  0
LINE
  5
3A2
  8
DATA
  6
CONTINUOUS
 62
     7
 10
-20.0
 20
-783.4999999999998
 30
0.0
 11
-20.0
 21
-616.4999999999998
 31
0.0
  0
LINE
  5
3A3
  8
DATA
  6
CONTINUOUS
 62
     7
 10
6.25
 20
-771.9999999999998
 30
0.0
 11
3.0
 21
-771.9999999999998
 31
0.0
  0
LINE
  5
3A4
  8
DATA
  6
CONTINUOUS
 62
     7
 10
6.25
 20
-627.9999999999998
 30
0.0
 11
6.25
 21
-771.9999999999998
 31
0.0
  0
LINE
  5
3A5
  8
DATA
  6
CONTINUOUS
 62
     7
 10
-19.25
 20
-771.9999999999998
 30
0.0
 11
-19.25
 21
-627.9999999999998
 31
0.0
  0
LINE
  5
3A6
  8
DATA
  6
CONTINUOUS
 62
     7
 10
-16.0
 20
-771.9999999999998
 30
0.0
 11
-19.25
 21
-771.9999999999998
 31
0.0
  0
ARC
  5
3A7
  8
DATA
  6
CONTINUOUS
 62
     7
 10
-6.5
 20
-729.09772727273
 30
0.0
 40
56.05227272726983
 50
256.0634865172422
 51
283.9365134827578
  0
LINE
  5
3A8
  8
DATA
  6
CONTINUOUS
 62
     7
 10
7.0
 20
-783.4999999999998
 30
0.0
 11
6.25
 21
-771.9999999999998
 31
0.0
  0
LINE
  5
3A9
  8
DATA
  6
CONTINUOUS
 62
     7
 10
-19.25
 20
-771.9999999999998
 30
0.0
 11
-20.0
 21
-783.4999999999998
 31
0.0
  0
ARC
  5
3AA
  8
DATA
  6
CONTINUOUS
 62
     7
 10
-6.5
 20
-857.2499999999998
 30
0.0
 40
90.5
 50
83.97442499163331
 51
96.02557500836666
  0
LINE
  5
3AB
  8
DATA
  6
CONTINUOUS
 62
     7
 10
3.0
 20
-767.2499999999998
 30
0.0
 11
3.0
 21
-784.3390820523897
 31
0.0
  0
LINE
  5
3AC
  8
DATA
  6
CONTINUOUS
 62
     7
 10
-16.0
 20
-767.2499999999998
 30
0.0
 11
-16.0
 21
-784.3390820523897
 31
0.0
  0
LINE
  5
3AD
  8
DATA
  6
CONTINUOUS
 62
     7
 10
6.25
 20
-627.9999999999998
 30
0.0
 11
3.0
 21
-627.9999999999998
 31
0.0
  0
LINE
  5
3AE
  8
DATA
  6
CONTINUOUS
 62
     7
 10
-16.0
 20
-627.9999999999998
 30
0.0
 11
-19.25
 21
-627.9999999999998
 31
0.0
  0
ARC
  5
3AF
  8
DATA
  6
CONTINUOUS
 62
     7
 10
-6.5
 20
-670.9022727272695
 30
0.0
 40
56.05227272726983
 50
76.06348651724218
 51
103.9365134827578
  0
LINE
  5
3B0
  8
DATA
  6
CONTINUOUS
 62
     7
 10
7.0
 20
-616.4999999999998
 30
0.0
 11
6.25
 21
-627.9999999999998
 31
0.0
  0
LINE
  5
3B1
  8
DATA
  6
CONTINUOUS
 62
     7
 10
-19.25
 20
-627.9999999999998
 30
0.0
 11
-20.0
 21
-616.4999999999998
 31
0.0
  0
ARC
  5
3B2
  8
DATA
  6
CONTINUOUS
 62
     7
 10
-6.5
 20
-542.7499999999998
 30
0.0
 40
90.5
 50
263.9744249916333
 51
276.0255750083666
  0
LINE
  5
3B3
  8
DATA
  6
CONTINUOUS
 62
     7
 10
3.0
 20
-632.7499999999998
 30
0.0
 11
3.0
 21
-615.6609179476098
 31
0.0
  0
LINE
  5
3B4
  8
DATA
  6
CONTINUOUS
 62
     7
 10
-16.0
 20
-632.7499999999998
 30
0.0
 11
-16.0
 21
-615.6609179476098
 31
0.0
  0
LINE
  5
3B5
  8
DATA
  6
CONTINUOUS
 62
     7
 10
36.25
 20
-696.3999999999999
 30
0.0
 11
33.64999999999998
 21
-696.3999999999999
 31
0.0
  0
LINE
  5
3B6
  8
DATA
  6
CONTINUOUS
 62
     7
 10
36.25
 20
-703.5999999999997
 30
0.0
 11
33.64999999999998
 21
-703.5999999999997
 31
0.0
  0
LINE
  5
3B7
  8
DATA
  6
CONTINUOUS
 62
     7
 10
36.25
 20
-696.3999999999999
 30
0.0
 11
36.25
 21
-703.5999999999997
 31
0.0
  0
LINE
  5
3B8
  8
DATA
  6
CONTINUOUS
 62
     7
 10
32.85000000000002
 20
-694.9999999999998
 30
0.0
 11
32.85000000000002
 21
-712.9999999999998
 31
0.0
  0
LINE
  5
3B9
  8
DATA
  6
CONTINUOUS
 62
     7
 10
31.25
 20
-694.9999999999998
 30
0.0
 11
32.85000000000002
 21
-694.9999999999998
 31
0.0
  0
LINE
  5
3BA
  8
DATA
  6
CONTINUOUS
 62
     7
 10
32.85000000000002
 20
-712.9999999999998
 30
0.0
 11
37.72261146496817
 21
-729.5668789808915
 31
0.0
  0
LINE
  5
3BB
  8
DATA
  6
CONTINUOUS
 62
     7
 10
31.25
 20
-712.9999999999998
 30
0.0
 11
36.25
 21
-729.9999999999998
 31
0.0
  0
LINE
  5
3BC
  8
DATA
  6
CONTINUOUS
 62
     7
 10
36.25
 20
-729.9999999999998
 30
0.0
 11
37.72261146496817
 21
-729.5668789808915
 31
0.0
  0
LINE
  5
3BD
  8
DATA
  6
CONTINUOUS
 62
     7
 10
32.85000000000002
 20
-695.1999999999998
 30
0.0
 11
33.64999999999998
 21
-695.1999999999998
 31
0.0
  0
LINE
  5
3BE
  8
DATA
  6
CONTINUOUS
 62
     7
 10
33.64999999999998
 20
-695.1999999999998
 30
0.0
 11
33.64999999999998
 21
-704.7999999999997
 31
0.0
  0
LINE
  5
3BF
  8
DATA
  6
CONTINUOUS
 62
     7
 10
32.85000000000002
 20
-704.7999999999997
 30
0.0
 11
33.64999999999998
 21
-704.7999999999997
 31
0.0
  0
ARC
  5
3C0
  8
DATA
  6
CONTINUOUS
 62
     7
 10
-6.5
 20
-771.4999999999998
 30
0.0
 40
6.499999999999996
 50
134.5116171189995
 51
45.48838288100056
  0
CIRCLE
  5
3C1
  8
DATA
  6
CONTINUOUS
 62
     7
 10
-6.5
 20
-771.4999999999998
 30
0.0
 40
3.5
  0
LINE
  5
3C2
  8
DATA
  6
CONTINUOUS
 62
     7
 10
-5.345299461620698
 20
-769.4999999999998
 30
0.0
 11
-7.654700538379188
 21
-769.4999999999998
 31
0.0
  0
LINE
  5
3C3
  8
DATA
  6
CONTINUOUS
 62
     7
 10
-4.19059892324151
 20
-771.4999999999998
 30
0.0
 11
-5.345299461620698
 21
-769.4999999999998
 31
0.0
  0
LINE
  5
3C4
  8
DATA
  6
CONTINUOUS
 62
     7
 10
-8.80940107675849
 20
-771.4999999999998
 30
0.0
 11
-7.654700538379188
 21
-769.4999999999998
 31
0.0
  0
LINE
  5
3C5
  8
DATA
  6
CONTINUOUS
 62
     7
 10
-5.345299461620698
 20
-773.4999999999998
 30
0.0
 11
-7.654700538379188
 21
-773.4999999999998
 31
0.0
  0
LINE
  5
3C6
  8
DATA
  6
CONTINUOUS
 62
     7
 10
-4.19059892324151
 20
-771.4999999999998
 30
0.0
 11
-5.345299461620698
 21
-773.4999999999998
 31
0.0
  0
LINE
  5
3C7
  8
DATA
  6
CONTINUOUS
 62
     7
 10
-8.80940107675849
 20
-771.4999999999998
 30
0.0
 11
-7.654700538379302
 21
-773.4999999999998
 31
0.0
  0
ARC
  5
3C8
  8
DATA
  6
CONTINUOUS
 62
     7
 10
-6.5
 20
-628.4999999999993
 30
0.0
 40
6.499999999999996
 50
314.5116171189995
 51
225.4883828810005
  0
CIRCLE
  5
3C9
  8
DATA
  6
CONTINUOUS
 62
     7
 10
-6.5
 20
-628.4999999999993
 30
0.0
 40
3.5
  0
LINE
  5
3CA
  8
DATA
  6
CONTINUOUS
 62
     7
 10
-5.345299461620698
 20
-630.4999999999993
 30
0.0
 11
-7.654700538379188
 21
-630.4999999999993
 31
0.0
  0
LINE
  5
3CB
  8
DATA
  6
CONTINUOUS
 62
     7
 10
-4.19059892324151
 20
-628.4999999999993
 30
0.0
 11
-5.345299461620698
 21
-630.4999999999993
 31
0.0
  0
LINE
  5
3CC
  8
DATA
  6
CONTINUOUS
 62
     7
 10
-8.80940107675849
 20
-628.4999999999993
 30
0.0
 11
-7.654700538379188
 21
-630.4999999999993
 31
0.0
  0
LINE
  5
3CD
  8
DATA
  6
CONTINUOUS
 62
     7
 10
-5.345299461620698
 20
-626.4999999999993
 30
0.0
 11
-7.654700538379188
 21
-626.4999999999993
 31
0.0
  0
LINE
  5
3CE
  8
DATA
  6
CONTINUOUS
 62
     7
 10
-4.19059892324151
 20
-628.4999999999993
 30
0.0
 11
-5.345299461620698
 21
-626.4999999999993
 31
0.0
  0
LINE
  5
3CF
  8
DATA
  6
CONTINUOUS
 62
     7
 10
-8.80940107675849
 20
-628.4999999999993
 30
0.0
 11
-7.654700538379302
 21
-626.4999999999993
 31
0.0
  0
LINE
  5
3D0
  8
DATA
  6
CONTINUOUS
 62
     7
 10
18.25
 20
-598.9601645084775
 30
0.0
 11
31.25
 21
-598.9601645084775
 31
0.0
  0
LINE
  5
3D1
  8
DATA
  6
CONTINUOUS
 62
     7
 10
31.25
 20
-573.0371056180999
 30
0.0
 11
18.25
 21
-573.0371056180999
 31
0.0
  0
LINE
  5
3D2
  8
DATA
  6
CONTINUOUS
 62
     7
 10
18.25
 20
-598.9601645084775
 30
0.0
 11
18.25
 21
-573.0371056180999
 31
0.0
  0
LINE
  5
3D3
  8
DATA
  6
CONTINUOUS
 62
     7
 10
12.0
 20
-568.25
 30
0.0
 11
12.0
 21
-550.1399999999999
 31
0.0
  0
LINE
  5
3D4
  8
DATA
  6
CONTINUOUS
 62
     7
 10
18.54999999999995
 20
-568.2499999999998
 30
0.0
 11
18.54999999999995
 21
-550.1399999999999
 31
0.0
  0
LINE
  5
3D5
  8
DATA
  6
CONTINUOUS
 62
     7
 10
24.64999999999998
 20
-568.2499999999998
 30
0.0
 11
24.64999999999998
 21
-550.1399999999999
 31
0.0
  0
LINE
  5
3D6
  8
DATA
  6
CONTINUOUS
 62
     7
 10
18.55000000000007
 20
-831.75
 30
0.0
 11
18.55000000000007
 21
-849.8599999999999
 31
0.0
  0
LINE
  5
3D7
  8
DATA
  6
CONTINUOUS
 62
     7
 10
24.64999999999998
 20
-831.75
 30
0.0
 11
24.64999999999998
 21
-849.8599999999999
 31
0.0
  0
POLYLINE
  5
3D8
  8
DATA
  6
CONTINUOUS
 62
     7
 66
     1
 10
0.0
 20
0.0
 30
0.0
 70
     1
  0
VERTEX
  5
4B2
  8
DATA
  6
CONTINUOUS
 62
     7
 10
-571.25
 20
-1483.5
 30
0.0
  0
VERTEX
  5
4B3
  8
DATA
  6
CONTINUOUS
 62
     7
 10
-531.25
 20
-1483.5
 30
0.0
  0
VERTEX
  5
4B4
  8
DATA
  6
CONTINUOUS
 62
     7
 10
-531.25
 20
-1516.5
 30
0.0
  0
VERTEX
  5
4B5
  8
DATA
  6
CONTINUOUS
 62
     7
 10
-571.25
 20
-1516.5
 30
0.0
  0
SEQEND
  5
4C3
  8
DATA
  6
CONTINUOUS
 62
     7
  0
ARC
  5
3DF
  8
DATA
  6
CONTINUOUS
 62
     7
 10
-558.896886
 20
-1503.154671
 30
0.0
 40
3.352509452717987
 50
264.6908562215332
 51
323.9911991542415
  0
ARC
  5
3E0
  8
DATA
  6
CONTINUOUS
 62
     7
 10
-559.517285
 20
-1503.154671
 30
0.0
 40
3.352504008030588
 50
216.0088008457569
 51
275.3091437784656
  0
ARC
  5
3E1
  8
DATA
  6
CONTINUOUS
 62
     7
 10
-550.3778950000001
 20
-1504.024917
 30
0.0
 40
2.473394835233503
 50
273.830981609115
 51
351.1351473098021
  0
ARC
  5
3E2
  8
DATA
  6
CONTINUOUS
 62
     7
 10
-550.3532339999999
 20
-1495.956909
 30
0.0
 40
2.469648912785022
 50
8.226923859015299
 51
86.15412669215458
  0
ARC
  5
3E3
  8
DATA
  6
CONTINUOUS
 62
     7
 10
-550.6249842273548
 20
-1504.652512741232
 30
0.0
 40
0.4144180492639377
 50
307.6419024975802
 51
354.2670192893926
  0
LINE
  5
3E4
  8
DATA
  6
CONTINUOUS
 62
     7
 10
-561.269815
 20
-1498.121955
 30
0.0
 11
-559.327017
 21
-1493.492811
 31
0.0
  0
LINE
  5
3E5
  8
DATA
  6
CONTINUOUS
 62
     7
 10
-561.269815
 20
-1498.121955
 30
0.0
 11
-563.1886410000001
 21
-1493.492811
 31
0.0
  0
LINE
  5
3E6
  8
DATA
  6
CONTINUOUS
 62
     7
 10
-546.5428949999999
 20
-1506.492811
 30
0.0
 11
-546.5428949999999
 21
-1493.492811
 31
0.0
  0
LINE
  5
3E7
  8
DATA
  6
CONTINUOUS
 62
     7
 10
-544.0484289999999
 20
-1493.492811
 30
0.0
 11
-544.0484289999999
 21
-1504.502043
 31
0.0
  0
LINE
  5
3E8
  8
DATA
  6
CONTINUOUS
 62
     7
 10
-558.415574
 20
-1493.492811
 30
0.0
 11
-558.415574
 21
-1504.502043
 31
0.0
  0
LINE
  5
3E9
  8
DATA
  6
CONTINUOUS
 62
     7
 10
-556.017048
 20
-1493.492811
 30
0.0
 11
-556.017048
 21
-1504.502043
 31
0.0
  0
LINE
  5
3EA
  8
DATA
  6
CONTINUOUS
 62
     7
 10
-554.769815
 20
-1493.492811
 30
0.0
 11
-554.769815
 21
-1506.492811
 31
0.0
  0
LINE
  5
3EB
  8
DATA
  6
CONTINUOUS
 62
     7
 10
-552.587154
 20
-1494.716046
 30
0.0
 11
-552.587154
 21
-1498.889488
 31
0.0
  0
LINE
  5
3EC
  8
DATA
  6
CONTINUOUS
 62
     7
 10
-547.9089999999999
 20
-1498.648
 30
0.0
 11
-547.9089999999999
 21
-1495.603517
 31
0.0
  0
LINE
  5
3ED
  8
DATA
  6
CONTINUOUS
 62
     7
 10
-550.2126390000001
 20
-1495.291699
 30
0.0
 11
-550.2126390000001
 21
-1498.313848
 31
0.0
  0
LINE
  5
3EE
  8
DATA
  6
CONTINUOUS
 62
     7
 10
-560.238447
 20
-1502.415309
 30
0.0
 11
-560.238447
 21
-1504.502017
 31
0.0
  0
LINE
  5
3EF
  8
DATA
  6
CONTINUOUS
 62
     7
 10
-560.238447
 20
-1502.415309
 30
0.0
 11
-562.397123
 21
-1502.415309
 31
0.0
  0
LINE
  5
3F0
  8
DATA
  6
CONTINUOUS
 62
     7
 10
-562.397123
 20
-1502.415309
 30
0.0
 11
-562.397123
 21
-1504.502017
 31
0.0
  0
ARC
  5
3F1
  8
DATA
  6
CONTINUOUS
 62
     7
 10
-559.322441
 20
-1504.530149
 30
0.0
 40
0.9073074741151197
 50
269.7118487927532
 51
1.775987005683248
  0
ARC
  5
3F2
  8
DATA
  6
CONTINUOUS
 62
     7
 10
-559.3315799999999
 20
-1504.530149
 30
0.0
 40
0.9073028346974701
 50
178.2240129943099
 51
270.2881512072395
  0
ARC
  5
3F3
  8
DATA
  6
CONTINUOUS
 62
     7
 10
-560.882051
 20
-1504.428528
 30
0.0
 40
1.516840270629003
 50
182.7769954499979
 51
207.3596066671504
  0
CIRCLE
  5
3F4
  8
DATA
  6
CONTINUOUS
 62
     7
 10
-561.1378910000001
 20
-1499.920856
 30
0.0
 40
1.235234000000105
  0
LINE
  5
3F5
  8
DATA
  6
CONTINUOUS
 62
     7
 10
-540.0428949999999
 20
-1506.492798
 30
0.0
 11
-546.5428949999999
 21
-1506.492798
 31
0.0
  0
LINE
  5
3F6
  8
DATA
  6
CONTINUOUS
 62
     7
 10
-540.0428949999999
 20
-1506.492798
 30
0.0
 11
-540.0428949999999
 21
-1502.415296
 31
0.0
  0
LINE
  5
3F7
  8
DATA
  6
CONTINUOUS
 62
     7
 10
-540.0428949999999
 20
-1502.415309
 30
0.0
 11
-542.2255429999999
 21
-1502.415309
 31
0.0
  0
LINE
  5
3F8
  8
DATA
  6
CONTINUOUS
 62
     7
 10
-542.2255429999999
 20
-1502.415309
 30
0.0
 11
-542.2255429999999
 21
-1504.502017
 31
0.0
  0
LINE
  5
3F9
  8
DATA
  6
CONTINUOUS
 62
     7
 10
-554.769815
 20
-1506.492798
 30
0.0
 11
-550.2126390000001
 21
-1506.492785
 31
0.0
  0
LINE
  5
3FA
  8
DATA
  6
CONTINUOUS
 62
     7
 10
-552.587167
 20
-1505.26955
 30
0.0
 11
-551.4118890000001
 21
-1505.26955
 31
0.0
  0
LINE
  5
3FB
  8
DATA
  6
CONTINUOUS
 62
     7
 10
-552.587154
 20
-1505.26955
 30
0.0
 11
-552.587154
 21
-1500.136708
 31
0.0
  0
LINE
  5
3FC
  8
DATA
  6
CONTINUOUS
 62
     7
 10
-552.587167
 20
-1500.136708
 30
0.0
 11
-551.4118890000001
 21
-1500.136708
 31
0.0
  0
LINE
  5
3FD
  8
DATA
  6
CONTINUOUS
 62
     7
 10
-550.2126390000001
 20
-1504.69391
 30
0.0
 11
-550.2126390000001
 21
-1500.712348
 31
0.0
  0
ARC
  5
3FE
  8
DATA
  6
CONTINUOUS
 62
     7
 10
-557.53212
 20
-1504.428528
 30
0.0
 40
1.516838112224685
 50
332.6403933328444
 51
357.2230045500074
  0
ARC
  5
3FF
  8
DATA
  6
CONTINUOUS
 62
     7
 10
-543.132423
 20
-1504.530149
 30
0.0
 40
0.9073074741151197
 50
269.7118487927532
 51
1.775987005683419
  0
ARC
  5
400
  8
DATA
  6
CONTINUOUS
 62
     7
 10
-543.141549
 20
-1504.530149
 30
0.0
 40
0.9073028346974701
 50
178.2240129943099
 51
270.2881512072539
  0
LINE
  5
401
  8
DATA
  6
CONTINUOUS
 62
     7
 10
-547.910053
 20
-1504.406077
 30
0.0
 11
-547.910053
 21
-1500.952211
 31
0.0
  0
LINE
  5
402
  8
DATA
  6
CONTINUOUS
 62
     7
 10
-552.587167
 20
-1498.889488
 30
0.0
 11
-551.4118890000001
 21
-1498.889488
 31
0.0
  0
LINE
  5
403
  8
DATA
  6
CONTINUOUS
 62
     7
 10
-558.415574
 20
-1493.492811
 30
0.0
 11
-556.017048
 21
-1493.492811
 31
0.0
  0
LINE
  5
404
  8
DATA
  6
CONTINUOUS
 62
     7
 10
-563.1886410000001
 20
-1493.492811
 30
0.0
 11
-559.327017
 21
-1493.492811
 31
0.0
  0
LINE
  5
405
  8
DATA
  6
CONTINUOUS
 62
     7
 10
-546.5428949999999
 20
-1493.492811
 30
0.0
 11
-544.0484289999999
 21
-1493.492811
 31
0.0
  0
LINE
  5
406
  8
DATA
  6
CONTINUOUS
 62
     7
 10
-554.769815
 20
-1493.492811
 30
0.0
 11
-550.1875878334093
 21
-1493.492821521862
 31
0.0
  0
LINE
  5
407
  8
DATA
  6
CONTINUOUS
 62
     7
 10
-552.587167
 20
-1494.716059
 30
0.0
 11
-551.4118890000001
 21
-1494.716059
 31
0.0
  0
ARC
  5
408
  8
DATA
  6
CONTINUOUS
 62
     7
 10
-551.3980108986158
 20
-1502.989755651237
 30
0.0
 40
2.279836589396272
 50
269.6512199376145
 51
282.8264828068721
  0
ARC
  5
409
  8
DATA
  6
CONTINUOUS
 62
     7
 10
-551.1419491642934
 20
-1503.953625404595
 30
0.0
 40
1.283669274801317
 50
281.2331036226594
 51
306.8620088940685
  0
ARC
  5
40A
  8
DATA
  6
CONTINUOUS
 62
     7
 10
-550.6249842273548
 20
-1500.753745258767
 30
0.0
 40
0.4144180492639065
 50
5.732980710577698
 51
52.35809750241976
  0
ARC
  5
40B
  8
DATA
  6
CONTINUOUS
 62
     7
 10
-551.3980108986158
 20
-1502.416502348763
 30
0.0
 40
2.279836589396119
 50
77.17351719312664
 51
90.34878006238553
  0
ARC
  5
40C
  8
DATA
  6
CONTINUOUS
 62
     7
 10
-551.1419491642934
 20
-1501.452632595405
 30
0.0
 40
1.283669274801169
 50
53.1379911059356
 51
78.76689637733364
  0
ARC
  5
40D
  8
DATA
  6
CONTINUOUS
 62
     7
 10
-549.168037
 20
-1501.037244
 30
0.0
 40
1.260854613087983
 50
3.867006359835066
 51
88.36163456789691
  0
ARC
  5
40E
  8
DATA
  6
CONTINUOUS
 62
     7
 10
-549.169194
 20
-1498.515348
 30
0.0
 40
1.262107521931673
 50
271.6892821046473
 51
356.0782829826652
  0
ARC
  5
40F
  8
DATA
  6
CONTINUOUS
 62
     7
 10
-550.6249842273548
 20
-1498.272450741232
 30
0.0
 40
0.4144180492641177
 50
307.641902497561
 51
354.2670192893926
  0
ARC
  5
410
  8
DATA
  6
CONTINUOUS
 62
     7
 10
-551.3980108986158
 20
-1496.609693651237
 30
0.0
 40
2.2798365893965
 50
269.6512199376145
 51
282.8264828068749
  0
ARC
  5
411
  8
DATA
  6
CONTINUOUS
 62
     7
 10
-551.1419491642934
 20
-1497.573563404595
 30
0.0
 40
1.283669274801094
 50
281.2331036226614
 51
306.8620088940604
  0
ARC
  5
412
  8
DATA
  6
CONTINUOUS
 62
     7
 10
-550.6249842273548
 20
-1495.333096258768
 30
0.0
 40
0.4144180492639293
 50
5.732980710608977
 51
52.35809750241976
  0
ARC
  5
413
  8
DATA
  6
CONTINUOUS
 62
     7
 10
-551.3980108986158
 20
-1496.995853348763
 30
0.0
 40
2.279836589396341
 50
77.1735171931279
 51
90.34878006238553
  0
ARC
  5
414
  8
DATA
  6
CONTINUOUS
 62
     7
 10
-551.1419491642934
 20
-1496.031983595405
 30
0.0
 40
1.283669274801169
 50
53.1379911059356
 51
78.76689637734059
  0
ENDSEC
  0
EOF
